  0
SECTION
  2
HEADER
  9
$ACADVER
  1
AC1009
  9
$DWGCODEPAGE
  3
ansi_932
  9
$INSBASE
 10
0.0
 20
0.0
 30
0.0
  9
$EXTMIN
 10
-831.0
 20
-569.9999999999999
 30
0.0
  9
$EXTMAX
 10
831.0
 20
569.9999999999999
 30
0.0
  9
$LIMMIN
 10
-297.0
 20
-210.0
  9
$LIMMAX
 10
297.0
 20
210.0
  9
$ORTHOMODE
 70
     0
  9
$REGENMODE
 70
     1
  9
$FILLMODE
 70
     1
  9
$QTEXTMODE
 70
     0
  9
$MIRRTEXT
 70
     1
  9
$DRAGMODE
 70
     2
  9
$LTSCALE
 40
1.0
  9
$OSMODE
 70
    37
  9
$ATTMODE
 70
     1
  9
$TEXTSIZE
 40
0.2
  9
$TRACEWID
 40
0.05
  9
$TEXTSTYLE
  7
STANDARD
  9
$CLAYER
  8
0
  9
$CELTYPE
  6
BYLAYER
  9
$CECOLOR
 62
   256
  9
$DIMSCALE
 40
1.0
  9
$DIMASZ
 40
2.5
  9
$DIMEXO
 40
0.0625
  9
$DIMDLI
 40
0.38
  9
$DIMRND
 40
0.0
  9
$DIMDLE
 40
0.0
  9
$DIMEXE
 40
0.18
  9
$DIMTP
 40
0.0
  9
$DIMTM
 40
0.0
  9
$DIMTXT
 40
0.18
  9
$DIMCEN
 40
0.09
  9
$DIMTSZ
 40
0.0
  9
$DIMTOL
 70
     0
  9
$DIMLIM
 70
     0
  9
$DIMTIH
 70
     1
  9
$DIMTOH
 70
     1
  9
$DIMSE1
 70
     0
  9
$DIMSE2
 70
     0
  9
$DIMTAD
 70
     3
  9
$DIMZIN
 70
     0
  9
$DIMBLK
  1

  9
$DIMASO
 70
     1
  9
$DIMSHO
 70
     1
  9
$DIMPOST
  1

  9
$DIMAPOST
  1

  9
$DIMALT
 70
     0
  9
$DIMALTD
 70
     2
  9
$DIMALTF
 40
25.4
  9
$DIMLFAC
 40
1.0
  9
$DIMTOFL
 70
     0
  9
$DIMTVP
 40
0.0
  9
$DIMTIX
 70
     0
  9
$DIMSOXD
 70
     0
  9
$DIMSAH
 70
     0
  9
$DIMBLK1
  1

  9
$DIMBLK2
  1

  9
$DIMSTYLE
  2
STANDARD
  9
$DIMCLRD
 70
     0
  9
$DIMCLRE
 70
     0
  9
$DIMCLRT
 70
     0
  9
$DIMTFAC
 40
1.0
  9
$DIMGAP
 40
0.09
  9
$LUNITS
 70
     2
  9
$LUPREC
 70
     4
  9
$SKETCHINC
 40
0.1
  9
$FILLETRAD
 40
0.5
  9
$AUNITS
 70
     0
  9
$AUPREC
 70
     0
  9
$MENU
  1
.
  9
$ELEVATION
 40
0.0
  9
$PELEVATION
 40
0.0
  9
$THICKNESS
 40
0.0
  9
$LIMCHECK
 70
     0
  9
$CHAMFERA
 40
0.5
  9
$CHAMFERB
 40
0.5
  9
$SKPOLY
 70
     0
  9
$TDCREATE
 40
2456330.397071748
  9
$TDUPDATE
 40
2456330.397071759
  9
$TDINDWG
 40
0.0000000116
  9
$TDUSRTIMER
 40
0.0000000116
  9
$USRTIMER
 70
     1
  9
$ANGBASE
 50
0.0
  9
$ANGDIR
 70
     0
  9
$PDMODE
 70
     0
  9
$PDSIZE
 40
1.0
  9
$PLINEWID
 40
0.0
  9
$COORDS
 70
     1
  9
$SPLFRAME
 70
     0
  9
$SPLINETYPE
 70
     6
  9
$SPLINESEGS
 70
     8
  9
$ATTDIA
 70
     0
  9
$ATTREQ
 70
     1
  9
$HANDLING
 70
     1
  9
$HANDSEED
  5
517
  9
$SURFTAB1
 70
     6
  9
$SURFTAB2
 70
     6
  9
$SURFTYPE
 70
     6
  9
$SURFU
 70
     6
  9
$SURFV
 70
     6
  9
$UCSNAME
  2

  9
$UCSORG
 10
0.0
 20
0.0
 30
0.0
  9
$UCSXDIR
 10
1.0
 20
0.0
 30
0.0
  9
$UCSYDIR
 10
0.0
 20
1.0
 30
0.0
  9
$PUCSNAME
  2

  9
$PUCSORG
 10
0.0
 20
0.0
 30
0.0
  9
$PUCSXDIR
 10
1.0
 20
0.0
 30
0.0
  9
$PUCSYDIR
 10
0.0
 20
1.0
 30
0.0
  9
$USERI1
 70
     0
  9
$USERI2
 70
     0
  9
$USERI3
 70
     0
  9
$USERI4
 70
     0
  9
$USERI5
 70
     0
  9
$USERR1
 40
0.0
  9
$USERR2
 40
0.0
  9
$USERR3
 40
0.0
  9
$USERR4
 40
0.0
  9
$USERR5
 40
0.0
  9
$WORLDVIEW
 70
     1
  9
$SHADEDGE
 70
     3
  9
$SHADEDIF
 70
    70
  9
$TILEMODE
 70
     1
  9
$MAXACTVP
 70
    64
  9
$PLIMCHECK
 70
     0
  9
$PEXTMIN
 10
1.000000000000000E+20
 20
1.000000000000000E+20
 30
1.000000000000000E+20
  9
$PEXTMAX
 10
-1.000000000000000E+20
 20
-1.000000000000000E+20
 30
-1.000000000000000E+20
  9
$PLIMMIN
 10
0.0
 20
0.0
  9
$PLIMMAX
 10
12.0
 20
9.0
  9
$UNITMODE
 70
     0
  9
$VISRETAIN
 70
     0
  9
$PLINEGEN
 70
     1
  9
$PSLTSCALE
 70
     0
  0
ENDSEC
  0
SECTION
  2
TABLES
  0
TABLE
  2
VPORT
 70
     1
  0
VPORT
  2
*ACTIVE
 70
     0
 10
0.0
 20
0.0
 11
1.0
 21
1.0
 12
0.0
 22
0.0
 13
0.0
 23
0.0
 14
0.5
 24
0.5
 15
0.5
 25
0.5
 16
0.0
 26
0.0
 36
1.0
 17
-0.0000000000000036
 27
0.0
 37
0.0
 40
387.6
 41
1.457894736842106
 42
50.0
 43
0.0
 44
0.0
 50
0.0
 51
0.0
 71
     0
 72
  1000
 73
     1
 74
     1
 75
     0
 76
     0
 77
     0
 78
     0
  0
ENDTAB
  0
TABLE
  2
LTYPE
 70
    28
  0
LTYPE
  2
CONTINUOUS
 70
     0
  3
Solid line
 72
    65
 73
     0
 40
0.0
  0
LTYPE
  2
HIDDENX2
 70
     0
  3
CADPAC LINETYPE
 72
    65
 73
     2
 40
10.30674846625766
 49
7.730061349693244
 49
-2.576687116564415
  0
LTYPE
  2
HIDDEN
 70
     0
  3
CADPAC LINETYPE
 72
    65
 73
     2
 40
7.730061349693244
 49
5.15337423312883
 49
-2.576687116564415
  0
LTYPE
  2
HIDDEN2
 70
     0
  3
CADPAC LINETYPE
 72
    65
 73
     2
 40
6.441717791411037
 49
3.865030674846622
 49
-2.576687116564415
  0
LTYPE
  2
DASHED
 70
     0
  3
CADPAC LINETYPE
 72
    65
 73
     2
 40
7.214723926380373
 49
5.15337423312883
 49
-2.061349693251543
  0
LTYPE
  2
DASHED2
 70
     0
  3
CADPAC LINETYPE
 72
    65
 73
     2
 40
4.638036809815901
 49
3.092024539877286
 49
-1.546012269938615
  0
LTYPE
  2
DASHEDX2
 70
     0
  3
CADPAC LINETYPE
 72
    65
 73
     2
 40
12.3680981595092
 49
10.30674846625766
 49
-2.061349693251543
  0
LTYPE
  2
DOTX2
 70
     0
  3
CADPAC LINETYPE
 72
    65
 73
     2
 40
4.509202453987697
 49
0.0
 49
-4.509202453987697
  0
LTYPE
  2
DOT
 70
     0
  3
CADPAC LINETYPE
 72
    65
 73
     2
 40
3.607361963190158
 49
0.0
 49
-3.607361963190158
  0
LTYPE
  2
DOT2
 70
     0
  3
CADPAC LINETYPE
 72
    65
 73
     2
 40
2.705521472392618
 49
0.0
 49
-2.705521472392618
  0
LTYPE
  2
CENTERX2
 70
     0
  3
CADPAC LINETYPE
 72
    65
 73
     4
 40
15.46012269938649
 49
6.441717791411037
 49
-3.220858895705518
 49
2.576687116564415
 49
-3.220858895705518
  0
LTYPE
  2
CENTER
 70
     0
  3
CADPAC LINETYPE
 72
    65
 73
     4
 40
11.85276073619631
 49
5.15337423312883
 49
-2.576687116564415
 49
1.546012269938649
 49
-2.576687116564415
  0
LTYPE
  2
CENTER2
 70
     0
  3
CADPAC LINETYPE
 72
    65
 73
     4
 40
8.245398773006126
 49
3.865030674846622
 49
-1.932515337423311
 49
0.515337423312883
 49
-1.932515337423311
  0
LTYPE
  2
DASHDOTX2
 70
     0
  3
CADPAC LINETYPE
 72
    65
 73
     4
 40
24.73619631901829
 49
12.3680981595092
 49
-4.12269938650303
 49
4.12269938650303
 49
-4.12269938650303
  0
LTYPE
  2
DASHDOT
 70
     0
  3
CADPAC LINETYPE
 72
    65
 73
     4
 40
12.3680981595092
 49
6.184049079754573
 49
-2.061349693251543
 49
2.061349693251543
 49
-2.061349693251543
  0
LTYPE
  2
DASHDOT2
 70
     0
  3
CADPAC LINETYPE
 72
    65
 73
     4
 40
7.936196319018398
 49
4.63803680981593
 49
-1.546012269938657
 49
0.2061349693251543
 49
-1.546012269938657
  0
LTYPE
  2
DIVIDEX2
 70
     0
  3
CADPAC LINETYPE
 72
    65
 73
     6
 40
32.98159509202435
 49
12.3680981595092
 49
-4.12269938650303
 49
4.12269938650303
 49
-4.12269938650303
 49
4.12269938650303
 49
-4.12269938650303
  0
LTYPE
  2
DIVIDE
 70
     0
  3
CADPAC LINETYPE
 72
    65
 73
     6
 40
16.49079754601229
 49
6.184049079754573
 49
-2.061349693251543
 49
2.061349693251543
 49
-2.061349693251543
 49
2.061349693251543
 49
-2.061349693251543
  0
LTYPE
  2
DIVIDE2
 70
     0
  3
CADPAC LINETYPE
 72
    65
 73
     6
 40
12.36809815950922
 49
4.63803680981593
 49
-1.546012269938657
 49
1.546012269938657
 49
-1.546012269938657
 49
1.546012269938657
 49
-1.546012269938657
  0
LTYPE
  2
BORDERX2
 70
     0
  3
CADPAC LINETYPE
 72
    65
 73
     6
 40
22.54601226993863
 49
6.441717791411037
 49
-3.220858895705518
 49
6.441717791411037
 49
-3.220858895705518
 49
0.0
 49
-3.220858895705518
  0
LTYPE
  2
BORDER
 70
     0
  3
CADPAC LINETYPE
 72
    65
 73
     6
 40
18.0368098159509
 49
5.15337423312883
 49
-2.576687116564415
 49
5.15337423312883
 49
-2.576687116564415
 49
0.0
 49
-2.576687116564415
  0
LTYPE
  2
BORDER2
 70
     0
  3
CADPAC LINETYPE
 72
    65
 73
     6
 40
13.39877300613489
 49
4.12269938650303
 49
-2.576687116564415
 49
1.546012269938615
 49
-2.576687116564415
 49
0.0
 49
-2.576687116564415
  0
LTYPE
  2
PHANTOMX2
 70
     0
  3
CADPAC LINETYPE
 72
    65
 73
     6
 40
19.32515337423311
 49
6.441717791411037
 49
-2.576687116564415
 49
2.576687116564415
 49
-2.576687116564415
 49
2.576687116564415
 49
-2.576687116564415
  0
LTYPE
  2
PHANTOM
 70
     0
  3
CADPAC LINETYPE
 72
    65
 73
     6
 40
15.97546012269937
 49
5.15337423312883
 49
-2.576687116564415
 49
1.546012269938649
 49
-2.576687116564415
 49
1.546012269938649
 49
-2.576687116564415
  0
LTYPE
  2
PHANTOM2
 70
     0
  3
CADPAC LINETYPE
 72
    65
 73
     6
 40
13.6564417177914
 49
3.865030674846622
 49
-2.576687116564415
 49
1.030674846625766
 49
-2.576687116564415
 49
1.030674846625766
 49
-2.576687116564415
  0
LTYPE
  2
ACAD_ISO06W100
 70
     0
  3
CADPAC LINETYPE
 72
    65
 73
     8
 40
27.31288343558271
 49
12.3680981595092
 49
-2.576687116564415
 49
1.546012269938615
 49
-2.576687116564415
 49
1.546012269938615
 49
-2.576687116564415
 49
1.546012269938615
 49
-2.576687116564415
  0
LTYPE
  2
ACAD_ISO13W100
 70
     0
  3
CADPAC LINETYPE
 72
    65
 73
     8
 40
20.61349693251532
 49
5.15337423312883
 49
-2.576687116564415
 49
5.15337423312883
 49
-2.576687116564415
 49
0.0
 49
-2.576687116564415
 49
0.0
 49
-2.576687116564415
  0
LTYPE
  2
ACAD_ISO14W100
 70
     0
  3
CADPAC LINETYPE
 72
    65
 73
     8
 40
15.46012269938649
 49
5.15337423312883
 49
-2.576687116564415
 49
0.0
 49
-2.576687116564415
 49
0.0
 49
-2.576687116564415
 49
0.0
 49
-2.576687116564415
  0
ENDTAB
  0
TABLE
  2
LAYER
 70
     3
  0
LAYER
  2
0
 70
     0
 62
     7
  6
CONTINUOUS
  0
LAYER
  2
LAYER0014
 70
     0
 62
     7
  6
CONTINUOUS
  0
LAYER
  2
ZUWAKU
 70
     0
 62
     7
  6
CONTINUOUS
  0
ENDTAB
  0
TABLE
  2
STYLE
 70
     5
  0
STYLE
  2
STANDARD
 70
     0
 40
0.0
 41
1.0
 50
0.0
 71
     0
 42
0.2
  3
txt
  4

  0
STYLE
  2
FDASTYLE1
 70
     0
 40
0.0
 41
0.8000000000000002
 50
0.0
 71
     0
 42
0.2
  3
txt.shx
  4
bigfont
  0
STYLE
  2
FDASTYLE0
 70
     4
 40
0.0
 41
0.8
 50
0.0
 71
     0
 42
0.2
  3
txt.shx
  4
bigfont
  0
STYLE
  2
FDASTYLE2
 70
     0
 40
0.0
 41
0.8123476848090983
 50
0.0
 71
     0
 42
0.2
  3
MSMINCHO.TTC
  4

  0
STYLE
  2
FDASTYLE3
 70
     0
 40
0.0
 41
0.77
 50
0.0
 71
     0
 42
0.2
  3
MSGOTHIC.TTC
  4

  0
ENDTAB
  0
TABLE
  2
VIEW
 70
     0
  0
ENDTAB
  0
TABLE
  2
UCS
 70
     0
  0
ENDTAB
  0
TABLE
  2
APPID
 70
     2
  0
APPID
  2
ACAD
 70
     0
  0
APPID
  2
DAFUSIONOUT
 70
     0
  0
ENDTAB
  0
TABLE
  2
DIMSTYLE
 70
     1
  0
DIMSTYLE
  2
STANDARD
 70
     0
  3

  4

  5

  6

  7

 40
1.0
 41
0.18
 42
0.0625
 43
0.38
 44
0.18
 45
0.0
 46
0.0
 47
0.0
 48
0.0
140
0.18
141
0.09
142
0.0
143
25.4
144
1.0
145
0.0
146
1.0
147
0.09
 71
     0
 72
     0
 73
     1
 74
     1
 75
     0
 76
     0
 77
     0
 78
     0
170
     0
171
     2
172
     0
173
     0
174
     0
175
     0
176
     0
177
     0
178
     0
  0
ENDTAB
  0
ENDSEC
  0
SECTION
  2
BLOCKS
  0
BLOCK
  8
0
  2
$MODEL_SPACE
 70
     0
 10
0.0
 20
0.0
 30
0.0
  3
$MODEL_SPACE
  1

  0
ENDBLK
  5
21
  8
0
  0
BLOCK
 67
     1
  8
0
  2
$PAPER_SPACE
 70
     0
 10
0.0
 20
0.0
 30
0.0
  3
$PAPER_SPACE
  1

  0
ENDBLK
  5
1D
 67
     1
  8
0
  0
BLOCK
  8
0
  2
DC_GROUP_1
 70
     0
 10
0.0
 20
0.0
 30
0.0
  3
DC_GROUP_1
  1

  0
LINE
  5
BB
  8
LAYER0014
  6
CONTINUOUS
 62
     7
 10
-86.95373346385304
 20
118.2629998403363
 30
0.0
 11
-61.42134155674421
 21
148.0555472629212
 31
0.0
  0
INSERT
  5
C2
  8
LAYER0014
 62
     7
  2
_OPEN30
 10
-86.95373346385304
 20
118.2629998403363
 30
0.0
 41
1.50000139391263
 42
1.499998500689492
 50
229.4032259488253
  0
LINE
  5
C3
  8
LAYER0014
  6
CONTINUOUS
 62
     7
 10
-61.4213123690638
 20
148.0555483226735
 30
0.0
 11
-50.6077911883872
 21
148.0555483226735
 31
0.0
  0
TEXT
  5
C5
  8
LAYER0014
 62
     7
 10
-61.2465076815638
 20
149.6555483226734
 30
0.0
 40
4.0
  1
M10
 41
0.8000000000000002
  7
FDASTYLE1
 72
     5
 11
-51.6465076815638
 21
149.6555483226734
 31
0.0
  0
ENDBLK
  5
4E
  8
0
  0
BLOCK
  8
0
  2
DA_IMAGEDIMGROUP_1
 70
     0
 10
0.0
 20
0.0
 30
0.0
  3
DA_IMAGEDIMGROUP_1
  1

  0
LINE
  5
C6
  8
LAYER0014
  6
CONTINUOUS
 62
     7
 10
-247.1618238474748
 20
-69.94445167732656
 30
0.0
 11
-247.1618238474748
 21
120.0555483226735
 31
0.0
  0
INSERT
  5
C7
  8
LAYER0014
 62
     7
  2
_OPEN30
 10
-247.1618238474748
 20
-69.94445167732656
 30
0.0
 41
1.50000139391263
 42
1.499998500689492
 50
270.0
  0
INSERT
  5
C8
  8
LAYER0014
 62
     7
  2
_OPEN30
 10
-247.1618238474748
 20
120.0555483226735
 30
0.0
 41
1.50000139391263
 42
1.499998500689492
 50
90.0
  0
LINE
  5
C9
  8
LAYER0014
  6
CONTINUOUS
 62
     7
 10
-204.5880301294045
 20
-69.94445167732656
 30
0.0
 11
-248.6618238474748
 21
-69.94445167732656
 31
0.0
  0
LINE
  5
CA
  8
LAYER0014
  6
CONTINUOUS
 62
     7
 10
-204.7189222121281
 20
120.0555483226735
 30
0.0
 11
-248.6618238474748
 21
120.0555483226735
 31
0.0
  0
TEXT
  5
CB
  8
LAYER0014
 62
     7
 10
-248.1618238474748
 20
15.45554832267346
 30
0.0
 40
4.0
  1
φ190H7
 50
90.0
 41
0.7741935483870963
  7
FDASTYLE1
 72
     5
 11
-248.1618238474748
 21
34.65554832267345
 31
0.0
  0
ENDBLK
  5
51
  8
0
  0
BLOCK
  8
0
  2
DA_IMAGEDIMGROUP_2
 70
     0
 10
0.0
 20
0.0
 30
0.0
  3
DA_IMAGEDIMGROUP_2
  1

  0
LINE
  5
CC
  8
LAYER0014
  6
CONTINUOUS
 62
     7
 10
-259.1003904003758
 20
-82.44445167732656
 30
0.0
 11
-259.1003904003758
 21
132.5555483226735
 31
0.0
  0
INSERT
  5
CD
  8
LAYER0014
 62
     7
  2
_OPEN30
 10
-259.1003904003758
 20
-82.44445167732656
 30
0.0
 41
1.50000139391263
 42
1.499998500689492
 50
270.0
  0
INSERT
  5
CE
  8
LAYER0014
 62
     7
  2
_OPEN30
 10
-259.1003904003758
 20
132.5555483226735
 30
0.0
 41
1.50000139391263
 42
1.499998500689492
 50
90.0
  0
LINE
  5
CF
  8
LAYER0014
  6
CONTINUOUS
 62
     7
 10
-205.1113367831263
 20
-82.44445167732656
 30
0.0
 11
-260.6003904003758
 21
-82.44445167732656
 31
0.0
  0
LINE
  5
D0
  8
LAYER0014
  6
CONTINUOUS
 62
     7
 10
-205.1113367831263
 20
132.5555483226735
 30
0.0
 11
-260.6003904003758
 21
132.5555483226735
 31
0.0
  0
TEXT
  5
D1
  8
LAYER0014
 62
     7
 10
-260.1003904003758
 20
18.65554832267348
 30
0.0
 40
4.0
  1
φ215
 50
90.0
 41
0.7619047619047609
  7
FDASTYLE1
 72
     5
 11
-260.1003904003758
 21
31.45554832267346
 31
0.0
  0
ENDBLK
  5
54
  8
0
  0
BLOCK
  8
0
  2
DA_IMAGEDIMGROUP_3
 70
     0
 10
0.0
 20
0.0
 30
0.0
  3
DA_IMAGEDIMGROUP_3
  1

  0
LINE
  5
D2
  8
LAYER0014
  6
CONTINUOUS
 62
     7
 10
-235.6737692399663
 20
-11.94445167732657
 30
0.0
 11
-235.6737692399663
 21
62.05554832267342
 31
0.0
  0
INSERT
  5
D3
  8
LAYER0014
 62
     7
  2
_OPEN30
 10
-235.6737692399663
 20
-11.94445167732657
 30
0.0
 41
1.50000139391263
 42
1.499998500689492
 50
270.0
  0
INSERT
  5
D4
  8
LAYER0014
 62
     7
  2
_OPEN30
 10
-235.6737692399663
 20
62.05554832267342
 30
0.0
 41
1.50000139391263
 42
1.499998500689492
 50
90.0
  0
LINE
  5
D5
  8
LAYER0014
  6
CONTINUOUS
 62
     7
 10
-200.1113367831263
 20
-11.94445167732657
 30
0.0
 11
-237.1737692399663
 21
-11.94445167732657
 31
0.0
  0
LINE
  5
D6
  8
LAYER0014
  6
CONTINUOUS
 62
     7
 10
-200.1113367831263
 20
62.05554832267342
 30
0.0
 11
-237.1737692399663
 21
62.05554832267342
 31
0.0
  0
TEXT
  5
D7
  8
LAYER0014
 62
     7
 10
-236.6737692399663
 20
17.05554832267343
 30
0.0
 40
4.0
  1
φ74H7
 50
90.0
 41
0.7692307692307692
  7
FDASTYLE1
 72
     5
 11
-236.6737692399663
 21
33.05554832267343
 31
0.0
  0
ENDBLK
  5
57
  8
0
  0
BLOCK
  8
0
  2
DA_IMAGEDIMGROUP_4
 70
     0
 10
0.0
 20
0.0
 30
0.0
  3
DA_IMAGEDIMGROUP_4
  1

  0
LINE
  5
D8
  8
LAYER0014
  6
CONTINUOUS
 62
     7
 10
-217.8779993807825
 20
-35.61945472908438
 30
0.0
 11
-232.4213123690638
 21
-35.61945472908438
 31
0.0
  0
LINE
  5
D9
  8
LAYER0014
  6
CONTINUOUS
 62
     7
 10
-217.8779993807825
 20
-47.61945472908438
 30
0.0
 11
-232.4213123690638
 21
-47.61945472908438
 31
0.0
  0
LINE
  5
DA
  8
LAYER0014
  6
CONTINUOUS
 62
     7
 10
-231.4213123690638
 20
-35.61945472908438
 30
0.0
 11
-231.4213123690638
 21
-47.61945472908438
 31
0.0
  0
INSERT
  5
DB
  8
LAYER0014
 62
     7
  2
_OPEN30
 10
-231.4213123690638
 20
-35.61945472908438
 30
0.0
 41
1.50000139391263
 42
1.499998500689492
 50
90.0
  0
INSERT
  5
DC
  8
LAYER0014
 62
     7
  2
_OPEN30
 10
-231.4213123690638
 20
-47.61945472908438
 30
0.0
 41
1.50000139391263
 42
1.499998500689492
 50
270.0
  0
TEXT
  5
DD
  8
LAYER0014
 62
     7
 10
-233.0213123690638
 20
-46.41945472908439
 30
0.0
 40
4.0
  1
M12
 50
90.0
 41
0.8000000000000019
  7
FDASTYLE1
 72
     5
 11
-233.0213123690638
 21
-36.81945472908437
 31
0.0
  0
ENDBLK
  5
5A
  8
0
  0
BLOCK
  8
0
  2
DC_GROUP_2
 70
     0
 10
0.0
 20
0.0
 30
0.0
  3
DC_GROUP_2
  1

  0
LINE
  5
DE
  8
LAYER0014
  6
CONTINUOUS
 62
     7
 10
-149.0995274885368
 20
-82.80237070299435
 30
0.0
 11
-141.4213122247379
 21
-91.94443470163708
 31
0.0
  0
INSERT
  5
DF
  8
LAYER0014
 62
     7
  2
_OPEN30
 10
-149.0995274885368
 20
-82.80237070299435
 30
0.0
 41
1.50000139391263
 42
1.499998500689492
 50
130.0261490863506
  0
LINE
  5
E0
  8
LAYER0014
  6
CONTINUOUS
 62
     7
 10
-141.4213123690638
 20
-91.94445167732658
 30
0.0
 11
-124.3231523591911
 21
-91.94445167732658
 31
0.0
  0
TEXT
  5
E1
  8
LAYER0014
 62
     7
 10
-141.1304493319544
 20
-90.34445167732659
 30
0.0
 40
4.0
  1
M8×16
 41
0.7692307692307692
  7
FDASTYLE1
 72
     5
 11
-125.1304493319544
 21
-90.34445167732659
 31
0.0
  0
ENDBLK
  5
5D
  8
0
  0
BLOCK
  8
0
  2
DA_IMAGEDIMGROUP_5
 70
     0
 10
0.0
 20
0.0
 30
0.0
  3
DA_IMAGEDIMGROUP_5
  1

  0
LINE
  5
E2
  8
0
  6
CONTINUOUS
 62
     9
 10
-102.5713423734828
 20
130.6215470667784
 30
0.0
 11
-102.5713423734828
 21
154.8297899323828
 31
0.0
  0
LINE
  5
E3
  8
0
  6
CONTINUOUS
 62
     9
 10
-100.5713367831263
 20
134.0555483226735
 30
0.0
 11
-100.5713367831263
 21
154.8297899323828
 31
0.0
  0
LINE
  5
E4
  8
0
  6
CONTINUOUS
 62
     9
 10
-102.5713423734828
 20
153.3297899323828
 30
0.0
 11
-100.5713367831263
 21
153.3297899323828
 31
0.0
  0
LINE
  5
E5
  8
0
  6
CONTINUOUS
 62
     9
 10
-142.1950859537633
 20
153.3297899323828
 30
0.0
 11
-102.5713423734828
 21
153.3297899323828
 31
0.0
  0
INSERT
  5
E6
  8
0
 62
     9
  2
_OPEN30
 10
-102.5713423734828
 20
153.3297899323828
 30
0.0
 41
1.50000139391263
 42
1.499998500689492
 50
360.0
  0
LINE
  5
E7
  8
0
  6
CONTINUOUS
 62
     9
 10
-95.5713367831263
 20
153.3297899323828
 30
0.0
 11
-100.5713367831263
 21
153.3297899323828
 31
0.0
  0
INSERT
  5
E8
  8
0
 62
     9
  2
_OPEN30
 10
-100.5713367831263
 20
153.3297899323828
 30
0.0
 41
1.50000139391263
 42
1.499998500689492
 50
180.0
  0
TEXT
  5
E9
  8
0
 62
     7
 10
-141.1950859537632
 20
154.3297899323828
 30
0.0
 40
4.0
  1
2(チャック上面から）
 41
0.6874999999999999
  7
FDASTYLE1
 72
     5
 11
-105.9950859537632
 21
154.3297899323828
 31
0.0
  0
ENDBLK
  5
60
  8
0
  0
BLOCK
  8
0
  2
DA_IMAGEDIMGROUP_6
 70
     0
 10
0.0
 20
0.0
 30
0.0
  3
DA_IMAGEDIMGROUP_6
  1

  0
LINE
  5
EA
  8
0
  6
CONTINUOUS
 62
     9
 10
-74.70994957513129
 20
-7.444452154163729
 30
0.0
 11
-74.70994957513129
 21
57.55554832267342
 31
0.0
  0
INSERT
  5
EB
  8
0
 62
     9
  2
_OPEN30
 10
-74.70994957513129
 20
-7.444452154163729
 30
0.0
 41
1.50000139391263
 42
1.499998500689492
 50
270.0
  0
LINE
  5
EC
  8
0
  6
CONTINUOUS
 62
     9
 10
-130.2544061208335
 20
-7.444452154163725
 30
0.0
 11
-73.20994957513129
 21
-7.444452154163729
 31
0.0
  0
TEXT
  5
ED
  8
0
 62
     7
 10
-75.70994957513129
 20
10.86791824906322
 30
0.0
 40
4.0
  1
M65×P1.25
 50
90.0
 41
0.7826086956521741
  7
FDASTYLE1
 72
     5
 11
-75.70994957513129
 21
39.66791824906322
 31
0.0
  0
ENDBLK
  5
63
  8
0
  0
BLOCK
  8
0
  2
DA_IMAGEDIMGROUP_7
 70
     0
 10
0.0
 20
0.0
 30
0.0
  3
DA_IMAGEDIMGROUP_7
  1

  0
LINE
  5
EE
  8
0
  6
CONTINUOUS
 62
     9
 10
-62.70994957513129
 20
-14.94445167732657
 30
0.0
 11
-62.70994957513129
 21
57.14512511797276
 31
0.0
  0
INSERT
  5
EF
  8
0
 62
     9
  2
_OPEN30
 10
-62.70994957513129
 20
-14.94445167732657
 30
0.0
 41
1.50000139391263
 42
1.499998500689492
 50
270.0
  0
LINE
  5
F0
  8
0
  6
CONTINUOUS
 62
     9
 10
-101.0713367831263
 20
-14.94445167732657
 30
0.0
 11
-61.20994957513129
 21
-14.94445167732657
 31
0.0
  0
TEXT
  5
F1
  8
0
 62
     7
 10
-63.70994957513129
 20
15.18245075654226
 30
0.0
 40
4.0
  1
φ80
 50
90.0
 41
0.7499999999999996
  7
FDASTYLE1
 72
     5
 11
-63.70994957513129
 21
24.78245075654225
 31
0.0
  0
TEXT
  5
F2
  8
0
 62
     7
 10
-63.70994957513129
 20
25.78245075654225
 30
0.0
 40
4.0
  1
H7
 50
90.0
 41
0.7999999999999998
  7
FDASTYLE1
 72
     5
 11
-63.70994957513129
 21
32.18245075654225
 31
0.0
  0
TEXT
  5
F3
  8
0
 62
     7
 10
-65.90994957513129
 20
33.18245075654225
 30
0.0
 40
2.2
  1
+0.030
 50
90.0
 41
0.8000000000000002
  7
FDASTYLE1
 72
     5
 11
-65.90994957513129
 21
43.74245075654225
 31
0.0
  0
TEXT
  5
F4
  8
0
 62
     7
 10
-63.50994957513129
 20
33.18245075654225
 30
0.0
 40
2.2
  1
 0
 50
90.0
 41
0.8000000000000006
  7
FDASTYLE1
 72
     5
 11
-63.50994957513129
 21
36.70245075654226
 31
0.0
  0
ENDBLK
  5
66
  8
0
  0
BLOCK
  8
0
  2
DA_IMAGEDIMGROUP_8
 70
     0
 10
0.0
 20
0.0
 30
0.0
  3
DA_IMAGEDIMGROUP_8
  1

  0
LINE
  5
F5
  8
0
  6
CONTINUOUS
 62
     9
 10
-50.70994957513129
 20
66.55554832267342
 30
0.0
 11
-50.70994957513129
 21
82.55554832267347
 31
0.0
  0
LINE
  5
F6
  8
0
  6
CONTINUOUS
 62
     9
 10
-99.0713367831263
 20
66.55554832267342
 30
0.0
 11
-49.20994957513129
 21
66.55554832267342
 31
0.0
  0
LINE
  5
F7
  8
0
  6
CONTINUOUS
 62
     9
 10
-76.80523183833311
 20
82.55554832267347
 30
0.0
 11
-49.20994957513129
 21
82.55554832267347
 31
0.0
  0
LINE
  5
F8
  8
0
  6
CONTINUOUS
 62
     9
 10
-76.80523183833311
 20
112.555555952068
 30
0.0
 11
-49.20994957513129
 21
112.555555952068
 31
0.0
  0
LINE
  5
F9
  8
0
  6
CONTINUOUS
 62
     9
 10
-50.70994957513129
 20
82.55554832267347
 30
0.0
 11
-50.70994957513129
 21
112.555555952068
 31
0.0
  0
INSERT
  5
FA
  8
0
 62
     9
  2
_OPEN30
 10
-50.70994957513129
 20
82.55554832267347
 30
0.0
 41
1.50000139391263
 42
1.499998500689492
 50
270.0
  0
INSERT
  5
FB
  8
0
 62
     9
  2
_OPEN30
 10
-50.70994957513129
 20
112.555555952068
 30
0.0
 41
1.50000139391263
 42
1.499998500689492
 50
90.0
  0
LINE
  5
FC
  8
0
  6
CONTINUOUS
 62
     9
 10
-50.70994957513129
 20
46.62369832267343
 30
0.0
 11
-50.70994957513129
 21
66.55554832267342
 31
0.0
  0
INSERT
  5
FD
  8
0
 62
     9
  2
_OPEN30
 10
-50.70994957513129
 20
66.55554832267342
 30
0.0
 41
1.50000139391263
 42
1.499998500689492
 50
90.0
  0
TEXT
  5
FE
  8
0
 62
     7
 10
-51.70994957513129
 20
47.62369832267343
 30
0.0
 40
4.0
  1
MIN10
 50
90.0
 41
0.8
  7
FDASTYLE1
 72
     5
 11
-51.70994957513129
 21
63.62369832267343
 31
0.0
  0
TEXT
  5
FF
  8
0
 62
     7
 10
-51.70994957513129
 20
94.35555213737074
 30
0.0
 40
4.0
  1
30
 50
90.0
 41
0.8000000000000007
  7
FDASTYLE1
 72
     5
 11
-51.70994957513129
 21
100.7555521373707
 31
0.0
  0
ENDBLK
  5
69
  8
0
  0
BLOCK
  8
0
  2
DA_IMAGEDIMGROUP_9
 70
     0
 10
0.0
 20
0.0
 30
0.0
  3
DA_IMAGEDIMGROUP_9
  1

  0
LINE
  5
100
  8
0
  6
CONTINUOUS
 62
     9
 10
-38.70994957513129
 20
73.55555595206795
 30
0.0
 11
-38.70994957513129
 21
121.5555483226735
 31
0.0
  0
INSERT
  5
101
  8
0
 62
     9
  2
_OPEN30
 10
-38.70994957513129
 20
73.55555595206795
 30
0.0
 41
1.50000139391263
 42
1.499998500689492
 50
270.0
  0
INSERT
  5
102
  8
0
 62
     9
  2
_OPEN30
 10
-38.70994957513129
 20
121.5555483226735
 30
0.0
 41
1.50000139391263
 42
1.499998500689492
 50
90.0
  0
LINE
  5
103
  8
0
  6
CONTINUOUS
 62
     9
 10
-98.0713367831263
 20
73.55555595206795
 30
0.0
 11
-37.20994957513129
 21
73.55555595206795
 31
0.0
  0
LINE
  5
104
  8
0
  6
CONTINUOUS
 62
     9
 10
-98.0713367831263
 20
121.5555483226735
 30
0.0
 11
-37.20994957513129
 21
121.5555483226735
 31
0.0
  0
TEXT
  5
105
  8
0
 62
     7
 10
-39.70994957513129
 20
94.35555213737071
 30
0.0
 40
4.0
  1
48
 50
90.0
 41
0.8000000000000007
  7
FDASTYLE1
 72
     5
 11
-39.70994957513129
 21
100.7555521373707
 31
0.0
  0
ENDBLK
  5
6C
  8
0
  0
BLOCK
  8
0
  2
DA_IMAGEDIMGROUP_10
 70
     0
 10
0.0
 20
0.0
 30
0.0
  3
DA_IMAGEDIMGROUP_10
  1

  0
LINE
  5
106
  8
0
  6
CONTINUOUS
 62
     9
 10
-105.0713367831263
 20
-0.6960534397715179
 30
0.0
 11
-102.5713367831263
 21
-0.6960534397715179
 31
0.0
  0
LINE
  5
107
  8
0
  6
CONTINUOUS
 62
     9
 10
-82.2735617831263
 20
-0.6960534397715179
 30
0.0
 11
-102.5713367831263
 21
-0.6960534397715179
 31
0.0
  0
INSERT
  5
108
  8
0
 62
     9
  2
_OPEN30
 10
-102.5713367831263
 20
-0.6960534397715179
 30
0.0
 41
1.50000139391263
 42
1.499998500689492
 50
180.0
  0
LINE
  5
109
  8
0
  6
CONTINUOUS
 62
     9
 10
-112.5713367831263
 20
-0.6960534397715179
 30
0.0
 11
-105.0713367831263
 21
-0.6960534397715179
 31
0.0
  0
INSERT
  5
10A
  8
0
 62
     9
  2
_OPEN30
 10
-105.0713367831263
 20
-0.6960534397715179
 30
0.0
 41
1.50000139391263
 42
1.499998500689492
 50
360.0
  0
TEXT
  5
10B
  8
0
 62
     7
 10
-98.1735617831263
 20
0.8039465602284821
 30
0.0
 40
4.0
  1
2.5
 41
0.7999999999999995
  7
FDASTYLE1
 72
     5
 11
-88.57356178312631
 21
0.8039465602284821
 31
0.0
  0
ENDBLK
  5
6F
  8
0
  0
BLOCK
  8
0
  2
DA_IMAGEDIMGROUP_11
 70
     0
 10
0.0
 20
0.0
 30
0.0
  3
DA_IMAGEDIMGROUP_11
  1

  0
LINE
  5
10C
  8
0
  6
CONTINUOUS
 62
     9
 10
-214.586720677586
 20
0.055548322673431
 30
0.0
 11
-214.586720677586
 21
50.05556175762002
 31
0.0
  0
INSERT
  5
10D
  8
0
 62
     9
  2
_OPEN30
 10
-214.586720677586
 20
0.055548322673431
 30
0.0
 41
1.50000139391263
 42
1.499998500689492
 50
270.0
  0
INSERT
  5
10E
  8
0
 62
     9
  2
_OPEN30
 10
-214.586720677586
 20
50.05556175762002
 30
0.0
 41
1.50000139391263
 42
1.499998500689492
 50
90.0
  0
LINE
  5
10F
  8
0
  6
CONTINUOUS
 62
     9
 10
-186.1643328768763
 20
0.055548322673431
 30
0.0
 11
-216.086720677586
 21
0.055548322673431
 31
0.0
  0
LINE
  5
110
  8
0
  6
CONTINUOUS
 62
     9
 10
-186.164305839335
 20
50.05556175762002
 30
0.0
 11
-216.086720677586
 21
50.05556175762002
 31
0.0
  0
TEXT
  5
111
  8
0
 62
     7
 10
-215.586720677586
 20
16.23555504014671
 30
0.0
 40
4.0
  1
φ50
 50
90.0
 41
0.7500000000000018
  7
FDASTYLE1
 72
     5
 11
-215.586720677586
 21
25.83555504014674
 31
0.0
  0
TEXT
  5
112
  8
0
 62
     7
 10
-217.786720677586
 20
26.83555504014674
 30
0.0
 40
2.2
  1
+0.5
 50
90.0
 41
0.7999999999999991
  7
FDASTYLE1
 72
     5
 11
-217.786720677586
 21
33.87555504014673
 31
0.0
  0
TEXT
  5
113
  8
0
 62
     7
 10
-215.386720677586
 20
26.83555504014674
 30
0.0
 40
2.2
  1
 0
 50
90.0
 41
0.8000000000000023
  7
FDASTYLE1
 72
     5
 11
-215.386720677586
 21
30.35555504014675
 31
0.0
  0
ENDBLK
  5
72
  8
0
  0
BLOCK
  8
0
  2
DC_GROUP_3
 70
     0
 10
0.0
 20
0.0
 30
0.0
  3
DC_GROUP_3
  1

  0
LINE
  5
114
  8
0
  6
CONTINUOUS
 62
     5
 10
229.9402260266135
 20
38.63466399813068
 30
0.0
 11
229.940224980363
 21
34.13465834147453
 31
0.0
  0
LINE
  5
115
  8
0
  6
CONTINUOUS
 62
     5
 10
230.6902128384185
 20
37.88469711090698
 30
0.0
 11
229.940217495855
 21
38.63469261255832
 31
0.0
  0
LINE
  5
116
  8
0
  6
CONTINUOUS
 62
     5
 10
229.1902525373328
 20
37.88462498484483
 30
0.0
 11
229.9402587021371
 21
38.63463124344207
 31
0.0
  0
LINE
  5
117
  8
0
  6
CONTINUOUS
 62
     5
 10
229.9402785396537
 20
34.13459532193803
 30
0.0
 11
230.690284704458
 21
34.88460158053528
 31
0.0
  0
LINE
  5
118
  8
0
  6
CONTINUOUS
 62
     5
 10
229.9402298312301
 20
34.13468973418147
 30
0.0
 11
229.1902236990744
 21
34.88469602542724
 31
0.0
  0
LINE
  5
119
  8
0
  6
CONTINUOUS
 62
     5
 10
222.4402042003763
 20
39.38467789033351
 30
0.0
 11
237.4402039824108
 21
39.38467440283636
 31
0.0
  0
LINE
  5
11A
  8
0
  6
CONTINUOUS
 62
     5
 10
231.8159877985464
 20
44.91173114562584
 30
0.0
 11
230.8415618312032
 21
44.75739742924052
 31
0.0
  0
LINE
  5
11B
  8
0
  6
CONTINUOUS
 62
     5
 10
231.8160137259455
 20
44.91173741407312
 30
0.0
 11
231.6616822201476
 21
45.88614825168445
 31
0.0
  0
LINE
  5
11C
  8
0
  6
CONTINUOUS
 62
     5
 10
237.4402116118055
 20
39.38467559492752
 30
0.0
 11
237.4402133555543
 21
46.88467643961905
 31
0.0
  0
LINE
  5
11D
  8
0
  6
CONTINUOUS
 62
     5
 10
222.4402049904489
 20
46.88467039037521
 30
0.0
 11
237.4402047724834
 21
46.88466690287805
 31
0.0
  0
LINE
  5
11E
  8
0
  6
CONTINUOUS
 62
     5
 10
222.4402013393523
 20
39.38467336038125
 30
0.0
 11
222.440203954975
 21
50.63467224323281
 31
0.0
  0
LINE
  5
11F
  8
0
  6
CONTINUOUS
 62
     5
 10
222.4402053854862
 20
50.63467176639536
 30
0.0
 11
224.6902053527914
 21
50.63467124327081
 31
0.0
  0
LINE
  5
120
  8
0
  6
CONTINUOUS
 62
     5
 10
224.6902131974588
 20
49.5096626765476
 30
0.0
 11
224.6902134590193
 21
50.63465503080578
 31
0.0
  0
LINE
  5
121
  8
0
  6
CONTINUOUS
 62
     5
 10
224.690205091229
 20
49.50967078278108
 30
0.0
 11
226.1902050694325
 21
49.50967043403136
 31
0.0
  0
LINE
  5
122
  8
0
  6
CONTINUOUS
 62
     5
 10
226.1901962248019
 20
48.38467188089222
 30
0.0
 11
226.1901964863642
 21
49.50967186454482
 31
0.0
  0
LINE
  5
123
  8
0
  6
CONTINUOUS
 62
     5
 10
226.1902200666567
 20
48.38466043679505
 30
0.0
 11
227.6902200448602
 21
48.38466008804533
 31
0.0
  0
LINE
  5
124
  8
0
  6
CONTINUOUS
 62
     5
 10
227.690190609047
 20
46.88467179235891
 30
0.0
 11
227.6901909577966
 21
48.38467153214366
 31
0.0
  0
LINE
  5
125
  8
0
  6
CONTINUOUS
 62
     5
 10
229.1902423867264
 20
49.2349143701345
 30
0.0
 11
229.9402485515306
 21
49.98492062873176
 31
0.0
  0
LINE
  5
126
  8
0
  6
CONTINUOUS
 62
     5
 10
226.9805835005836
 20
49.98493050108348
 30
0.0
 11
229.9402087184815
 21
49.98492981297118
 31
0.0
  0
LINE
  5
127
  8
0
  6
CONTINUOUS
 62
     5
 10
229.9402197111802
 20
49.98495738408831
 30
0.0
 11
229.1902243686168
 21
50.73495288573957
 31
0.0
  0
ARC
  5
128
  8
0
  6
CONTINUOUS
 62
     5
 10
229.9598310851837
 20
43.05556427418123
 30
0.0
 40
2.625001907348633
 50
45.00008446424582
 51
339.9999367173826
  0
TEXT
  5
129
  8
0
 62
     5
 10
228.0603239813456
 20
35.43066506565782
 30
0.0
 40
2.5
  1
F
 50
89.99998667874195
 41
0.8791213035583478
  7
FDASTYLE1
 72
     5
 11
228.0603244923344
 21
37.62846832455363
 31
0.0
  0
TEXT
  5
12A
  8
0
 62
     5
 10
235.5794323106948
 20
43.22464332817026
 30
0.0
 40
2.5
  1
N min
 50
89.99998667874195
 41
0.7983872809842209
  7
FDASTYLE1
 72
     5
 11
235.57943518788
 21
55.59964332816993
 31
0.0
  0
TEXT
  5
12B
  8
0
 62
     5
 10
233.8005890715421
 20
56.16214289001571
 30
0.0
 40
1.25
  1
-1
 50
89.99998667874195
 41
0.7826089106345545
  7
FDASTYLE1
 72
     5
 11
233.8005895946667
 21
58.41214315823655
 31
0.0
  0
TEXT
  5
12C
  8
0
 62
     5
 10
229.7627740781663
 20
51.68893278991325
 30
0.0
 40
2.5
  1
ΣS
 50
89.99998667874195
 41
0.9590411728078668
  7
FDASTYLE1
 72
     5
 11
229.7627753045392
 21
56.96365924035637
 31
0.0
  0
ENDBLK
  5
75
  8
0
  0
BLOCK
  8
0
  2
DA_IMAGEDIMGROUP_12
 70
     0
 10
0.0
 20
0.0
 30
0.0
  3
DA_IMAGEDIMGROUP_12
  1

  0
LINE
  5
12D
  8
0
  6
CONTINUOUS
 62
     9
 10
-69.52182934465854
 20
-39.58419129084189
 30
0.0
 11
-69.52182934465851
 21
-30.58419129084184
 31
0.0
  0
LINE
  5
12E
  8
0
  6
CONTINUOUS
 62
     9
 10
-51.52182934465854
 20
-39.58419129084189
 30
0.0
 11
-51.52182934465851
 21
-30.58419129084184
 31
0.0
  0
LINE
  5
12F
  8
0
  6
CONTINUOUS
 62
     9
 10
-69.52182934465853
 20
-32.08419129084187
 30
0.0
 11
-51.52182934465853
 21
-32.08419129084187
 31
0.0
  0
INSERT
  5
130
  8
0
 62
     9
  2
_OPEN30
 10
-69.52182934465853
 20
-32.08419129084187
 30
0.0
 41
1.50000139391263
 42
1.499998500689492
 50
180.0
  0
INSERT
  5
131
  8
0
 62
     9
  2
_OPEN30
 10
-51.52182934465853
 20
-32.08419129084187
 30
0.0
 41
1.50000139391263
 42
1.499998500689492
 50
360.0
  0
TEXT
  5
132
  8
0
 62
     7
 10
-65.32182934465853
 20
-31.08419129084187
 30
0.0
 40
4.0
  1
φ18
 41
0.7499999999999996
  7
FDASTYLE1
 72
     5
 11
-55.72182934465853
 21
-31.08419129084187
 31
0.0
  0
ENDBLK
  5
78
  8
0
  0
BLOCK
  8
0
  2
DA_IMAGEDIMGROUP_13
 70
     0
 10
0.0
 20
0.0
 30
0.0
  3
DA_IMAGEDIMGROUP_13
  1

  0
LINE
  5
133
  8
0
  6
CONTINUOUS
 62
     9
 10
18.31328141227644
 20
-41.08419129084184
 30
0.0
 11
18.31328141227641
 21
-39.08419129084187
 31
0.0
  0
LINE
  5
134
  8
0
  6
CONTINUOUS
 62
     9
 10
0.9781706553414153
 20
-39.0841912908419
 30
0.0
 11
19.81328141227644
 21
-39.08419129084189
 31
0.0
  0
LINE
  5
135
  8
0
  6
CONTINUOUS
 62
     9
 10
-12.02182934465853
 20
-38.08418366144734
 30
0.0
 11
19.81328141227644
 21
-38.08418366144733
 31
0.0
  0
LINE
  5
136
  8
0
  6
CONTINUOUS
 62
     9
 10
18.31328141227641
 20
-39.08419129084187
 30
0.0
 11
18.3132814122765
 21
-38.08418366144734
 31
0.0
  0
INSERT
  5
13C
  8
0
 62
     9
  2
_DOT
 10
18.31328141227641
 20
-39.08419129084187
 30
0.0
 41
2.5
 42
2.5
 50
269.9999999999951
  0
LINE
  5
13D
  8
0
  6
CONTINUOUS
 62
     9
 10
18.3132814122765
 20
-48.21495899836133
 30
0.0
 11
18.31328141227644
 21
-41.08419129084184
 31
0.0
  0
INSERT
  5
13E
  8
0
 62
     9
  2
_OPEN30
 10
18.31328141227644
 20
-41.08419129084184
 30
0.0
 41
1.50000139391263
 42
1.499998500689492
 50
90.00000000000046
  0
LINE
  5
13F
  8
0
  6
CONTINUOUS
 62
     9
 10
18.31328141227695
 20
-30.47338967457506
 30
0.0
 11
18.3132814122765
 21
-38.08418366144734
 31
0.0
  0
INSERT
  5
140
  8
0
 62
     9
  2
_OPEN30
 10
18.3132814122765
 20
-38.08418366144734
 30
0.0
 41
1.50000139391263
 42
1.499998500689492
 50
269.9999999999966
  0
TEXT
  5
141
  8
0
 62
     7
 10
17.31328141227644
 20
-47.21495899836133
 30
0.0
 40
4.0
  1
2
 50
90.0
 41
0.7999999999999989
  7
FDASTYLE1
 72
     5
 11
17.31328141227644
 21
-44.01495899836134
 31
0.0
  0
TEXT
  5
142
  8
0
 62
     7
 10
17.31328141227669
 20
-34.67338967457505
 30
0.0
 40
4.0
  1
1
 50
90.0
 41
0.7999999999999998
  7
FDASTYLE1
 72
     5
 11
17.31328141227669
 21
-31.47338967457505
 31
0.0
  0
ENDBLK
  5
7B
  8
0
  0
BLOCK
  8
0
  2
DA_IMAGEDIMGROUP_14
 70
     0
 10
0.0
 20
0.0
 30
0.0
  3
DA_IMAGEDIMGROUP_14
  1

  0
LINE
  5
143
  8
0
  6
CONTINUOUS
 62
     9
 10
37.44549258884096
 20
86.55166189107081
 30
0.0
 11
44.48340957249683
 21
82.48831907494881
 31
0.0
  0
LINE
  5
144
  8
0
  6
CONTINUOUS
 62
     9
 10
20.96766019713796
 20
25.05554832267345
 30
0.0
 11
28.90001566936962
 21
25.05554832267343
 31
0.0
  0
ARC
  5
145
  8
0
  6
CONTINUOUS
 62
     9
 10
143.9598975252473
 20
25.05554832267343
 30
0.0
 40
121.4922373281093
 50
150.0000027410345
 51
180.0
  0
INSERT
  5
146
  8
0
 62
     9
  2
_OPEN30
 10
38.74453073039767
 20
85.80166195321688
 30
0.0
 41
1.50000139391263
 42
1.499998500689492
 50
60.35370327335065
  0
INSERT
  5
147
  8
0
 62
     9
  2
_OPEN30
 10
22.46766019713796
 20
25.05554832267345
 30
0.0
 41
1.50000139391263
 42
1.499998500689492
 50
269.6462994676834
  0
TEXT
  5
148
  8
0
 62
     7
 10
24.39914990616375
 20
52.12242539432081
 30
0.0
 40
4.0
  1
30°
 50
75.00000137051727
 41
0.7499999999999998
  7
FDASTYLE1
 72
     5
 11
26.88381251734012
 21
61.3953133861291
 31
0.0
  0
ENDBLK
  5
7E
  8
0
  0
BLOCK
  8
0
  2
DC_GROUP_4
 70
     0
 10
0.0
 20
0.0
 30
0.0
  3
DC_GROUP_4
  1

  0
LINE
  5
149
  8
LAYER0014
  6
CONTINUOUS
 62
     7
 10
-100.5418080819995
 20
125.4242913004791
 30
0.0
 11
-71.42131744135031
 21
158.0555551817169
 31
0.0
  0
INSERT
  5
14A
  8
LAYER0014
 62
     7
  2
_OPEN30
 10
-100.5418080819995
 20
125.4242913004791
 30
0.0
 41
1.50000139391263
 42
1.499998500689492
 50
228.2539347968636
  0
LINE
  5
14B
  8
LAYER0014
  6
CONTINUOUS
 62
     7
 10
-71.4213123690638
 20
158.0555483226735
 30
0.0
 11
-24.79222301359504
 21
158.0555483226735
 31
0.0
  0
TEXT
  5
14C
  8
LAYER0014
 62
     7
 10
-71.3457508456263
 20
159.6555483226734
 30
0.0
 40
4.0
  1
セレーションP1.5山60°
 41
0.7179487179487181
  7
FDASTYLE1
 72
     5
 11
-26.54575084562629
 21
159.6555483226734
 31
0.0
  0
ENDBLK
  5
81
  8
0
  0
BLOCK
  8
0
  2
DA_IMAGEDIMGROUP_15
 70
     0
 10
0.0
 20
0.0
 30
0.0
  3
DA_IMAGEDIMGROUP_15
  1

  0
LINE
  5
14D
  8
0
  6
CONTINUOUS
 62
     9
 10
-26.70994957513129
 20
25.05554832267343
 30
0.0
 11
-26.70994957513129
 21
66.55554832267342
 31
0.0
  0
INSERT
  5
14E
  8
0
 62
     9
  2
_OPEN30
 10
-26.70994957513129
 20
25.05554832267343
 30
0.0
 41
1.50000139391263
 42
1.499998500689492
 50
270.0
  0
INSERT
  5
14F
  8
0
 62
     9
  2
_OPEN30
 10
-26.70994957513129
 20
66.55554832267342
 30
0.0
 41
1.50000139391263
 42
1.499998500689492
 50
90.0
  0
LINE
  5
150
  8
0
  6
CONTINUOUS
 62
     9
 10
-26.70994957513129
 20
66.55554832267342
 30
0.0
 11
-26.70994957513129
 21
132.5555483226735
 31
0.0
  0
INSERT
  5
151
  8
0
 62
     9
  2
_OPEN30
 10
-26.70994957513129
 20
66.55554832267342
 30
0.0
 41
1.50000139391263
 42
1.499998500689492
 50
270.0
  0
INSERT
  5
152
  8
0
 62
     9
  2
_OPEN30
 10
-26.70994957513129
 20
132.5555483226735
 30
0.0
 41
1.50000139391263
 42
1.499998500689492
 50
90.0
  0
LINE
  5
153
  8
0
  6
CONTINUOUS
 62
     9
 10
-59.73093459434654
 20
25.05554832267343
 30
0.0
 11
-25.20994957513129
 21
25.05554832267343
 31
0.0
  0
LINE
  5
154
  8
0
  6
CONTINUOUS
 62
     9
 10
-99.0713367831263
 20
66.55554832267342
 30
0.0
 11
-25.20994957513129
 21
66.55554832267342
 31
0.0
  0
LINE
  5
155
  8
0
  6
CONTINUOUS
 62
     9
 10
-99.0713367831263
 20
132.5555483226735
 30
0.0
 11
-25.20994957513129
 21
132.5555483226735
 31
0.0
  0
TEXT
  5
156
  8
0
 62
     7
 10
-27.70994957513129
 20
34.60554832267342
 30
0.0
 40
4.0
  1
MAX51.9
 50
90.0
 41
0.8000000000000002
  7
FDASTYLE1
 72
     5
 11
-27.70994957513129
 21
57.00554832267343
 31
0.0
  0
TEXT
  5
157
  8
0
 62
     7
 10
-27.70994957513129
 20
96.35554832267344
 30
0.0
 40
4.0
  1
66
 50
90.0
 41
0.8000000000000007
  7
FDASTYLE1
 72
     5
 11
-27.70994957513129
 21
102.7555483226735
 31
0.0
  0
ENDBLK
  5
84
  8
0
  0
BLOCK
  8
0
  2
DC_GROUP_5
 70
     0
 10
0.0
 20
0.0
 30
0.0
  3
DC_GROUP_5
  1

  0
LINE
  5
158
  8
0
  6
CONTINUOUS
 62
     6
 10
-84.3455537836912
 20
-92.62753411307602
 30
0.0
 11
-80.28322763839131
 21
-90.43357845785491
 31
0.0
  0
LINE
  5
159
  8
0
  6
CONTINUOUS
 62
     6
 10
-80.28322763839131
 20
-90.43357845785491
 30
0.0
 11
-76.18613654072018
 21
-88.48257825506161
 31
0.0
  0
LINE
  5
15A
  8
0
  6
CONTINUOUS
 62
     6
 10
-76.18613654072018
 20
-88.48257825506161
 30
0.0
 11
-72.01951553830622
 21
-87.01748895712376
 31
0.0
  0
LINE
  5
15B
  8
0
  6
CONTINUOUS
 62
     6
 10
-72.01951553830622
 20
-87.01748895712376
 30
0.0
 11
-67.75159551834528
 21
-86.25820243126159
 31
0.0
  0
LINE
  5
15C
  8
0
  6
CONTINUOUS
 62
     6
 10
-67.75159551834528
 20
-86.25820243126159
 30
0.0
 11
-63.38244297282446
 21
-86.1795229265546
 31
0.0
  0
LINE
  5
15D
  8
0
  6
CONTINUOUS
 62
     6
 10
-63.38244297282446
 20
-86.1795229265546
 30
0.0
 11
-58.93132703201671
 21
-86.60842244858617
 31
0.0
  0
LINE
  5
15E
  8
0
  6
CONTINUOUS
 62
     6
 10
-58.93132703201671
 20
-86.60842244858617
 30
0.0
 11
-54.41778184958943
 21
-87.36983271022422
 31
0.0
  0
LINE
  5
15F
  8
0
  6
CONTINUOUS
 62
     6
 10
-54.41778184958943
 20
-87.36983271022422
 30
0.0
 11
-49.86134157921035
 21
-88.28868542433685
 31
0.0
  0
LINE
  5
160
  8
0
  6
CONTINUOUS
 62
     6
 10
-49.86134157921035
 20
-88.28868542433685
 30
0.0
 11
-45.28154037454686
 21
-89.18991230379214
 31
0.0
  0
LINE
  5
161
  8
0
  6
CONTINUOUS
 62
     6
 10
-45.28154037454686
 20
-89.18991230379214
 30
0.0
 11
-40.69705915550711
 21
-89.91618387010914
 31
0.0
  0
LINE
  5
162
  8
0
  6
CONTINUOUS
 62
     6
 10
-40.69705915550711
 20
-89.91618387010914
 30
0.0
 11
-36.12201279929346
 21
-90.4050990943349
 31
0.0
  0
LINE
  5
163
  8
0
  6
CONTINUOUS
 62
     6
 10
-36.12201279929346
 20
-90.4050990943349
 30
0.0
 11
-31.56899514173176
 21
-90.62587953819275
 31
0.0
  0
LINE
  5
164
  8
0
  6
CONTINUOUS
 62
     6
 10
-31.56899514173176
 20
-90.62587953819275
 30
0.0
 11
-27.05059897881131
 21
-90.54776838170577
 31
0.0
  0
LINE
  5
165
  8
0
  6
CONTINUOUS
 62
     6
 10
-27.05059897881131
 20
-90.54776838170577
 30
0.0
 11
-22.57941710652162
 21
-90.14000880489681
 31
0.0
  0
LINE
  5
166
  8
0
  6
CONTINUOUS
 62
     6
 10
-22.57941710652162
 20
-90.14000880489681
 30
0.0
 11
-18.16804232085204
 21
-89.37184398778908
 31
0.0
  0
LINE
  5
167
  8
0
  6
CONTINUOUS
 62
     6
 10
-18.16804232085204
 20
-89.37184398778908
 30
0.0
 11
-13.82906741779186
 21
-88.21251711040546
 31
0.0
  0
LINE
  5
168
  8
0
  6
CONTINUOUS
 62
     6
 10
-13.82906741779186
 20
-88.21251711040546
 30
0.0
 11
-9.569164302926112
 21
-86.66086110225388
 31
0.0
  0
LINE
  5
169
  8
0
  6
CONTINUOUS
 62
     6
 10
-9.569164302926112
 20
-86.66086110225388
 30
0.0
 11
-5.363694036572525
 21
-84.87218536924348
 31
0.0
  0
LINE
  5
16A
  8
0
  6
CONTINUOUS
 62
     6
 10
-5.363694036572525
 20
-84.87218536924348
 30
0.0
 11
-1.177706126624628
 21
-83.05333147414001
 31
0.0
  0
LINE
  5
16B
  8
0
  6
CONTINUOUS
 62
     6
 10
-1.177706126624628
 20
-83.05333147414001
 30
0.0
 11
3.023756212274435
 21
-81.41117243032946
 31
0.0
  0
LINE
  5
16C
  8
0
  6
CONTINUOUS
 62
     6
 10
3.023756212274435
 20
-81.41117243032946
 30
0.0
 11
7.275649765480722
 21
-80.1525812511978
 31
0.0
  0
LINE
  5
16D
  8
0
  6
CONTINUOUS
 62
     6
 10
7.275649765480722
 20
-80.1525812511978
 30
0.0
 11
11.61272632693201
 21
-79.48314034381718
 31
0.0
  0
LINE
  5
16E
  8
0
  6
CONTINUOUS
 62
     6
 10
11.61272632693201
 20
-79.48314034381718
 30
0.0
 11
16.04747031381953
 21
-79.46823884656124
 31
0.0
  0
LINE
  5
16F
  8
0
  6
CONTINUOUS
 62
     6
 10
16.04747031381953
 20
-79.46823884656124
 30
0.0
 11
20.55042089181799
 21
-79.90918261653707
 31
0.0
  0
LINE
  5
170
  8
0
  6
CONTINUOUS
 62
     6
 10
20.55042089181799
 20
-79.90918261653707
 30
0.0
 11
33.79370616317064
 21
-81.8615483671004
 31
0.0
  0
ENDBLK
  5
87
  8
0
  0
BLOCK
  8
0
  2
DA_IMAGEDIMGROUP_16
 70
     0
 10
0.0
 20
0.0
 30
0.0
  3
DA_IMAGEDIMGROUP_16
  1

  0
LINE
  5
171
  8
0
  6
CONTINUOUS
 62
     9
 10
-28.52182934465842
 20
-102.536581314641
 30
0.0
 11
-12.52182934465842
 21
-102.536581314641
 31
0.0
  0
INSERT
  5
172
  8
0
 62
     9
  2
_OPEN30
 10
-28.52182934465842
 20
-102.536581314641
 30
0.0
 41
1.50000139391263
 42
1.499998500689492
 50
180.0000000000001
  0
INSERT
  5
173
  8
0
 62
     9
  2
_OPEN30
 10
-12.52182934465842
 20
-102.536581314641
 30
0.0
 41
1.50000139391263
 42
1.499998500689492
 50
0.0000000000000948
  0
LINE
  5
174
  8
0
  6
CONTINUOUS
 62
     9
 10
-28.5218293446585
 20
-63.58422180842001
 30
0.0
 11
-28.52182934465842
 21
-103.536581314641
 31
0.0
  0
LINE
  5
175
  8
0
  6
CONTINUOUS
 62
     9
 10
-12.5218293446585
 20
-63.58422180841998
 30
0.0
 11
-12.52182934465842
 21
-103.536581314641
 31
0.0
  0
TEXT
  5
176
  8
0
 62
     7
 10
-23.72182934465842
 20
-101.536581314641
 30
0.0
 40
4.0
  1
16
 50
0.0000000000001018
 41
0.7999999999999998
  7
FDASTYLE1
 72
     5
 11
-17.32182934465842
 21
-101.536581314641
 31
0.0
  0
ENDBLK
  5
8A
  8
0
  0
BLOCK
  8
0
  2
DA_IMAGEDIMGROUP_17
 70
     0
 10
0.0
 20
0.0
 30
0.0
  3
DA_IMAGEDIMGROUP_17
  1

  0
LINE
  5
177
  8
0
  6
CONTINUOUS
 62
     9
 10
143.9598113140904
 20
141.005067561918
 30
0.0
 11
183.9598113140904
 21
141.005067561918
 31
0.0
  0
INSERT
  5
178
  8
0
 62
     9
  2
_OPEN30
 10
143.9598113140904
 20
141.005067561918
 30
0.0
 41
1.50000139391263
 42
1.499998500689492
 50
180.0
  0
INSERT
  5
179
  8
0
 62
     9
  2
_OPEN30
 10
183.9598113140904
 20
141.005067561918
 30
0.0
 41
1.50000139391263
 42
1.499998500689492
 50
360.0
  0
LINE
  5
17A
  8
0
  6
CONTINUOUS
 62
     9
 10
143.9598113140904
 20
138.2604433422047
 30
0.0
 11
143.9598113140904
 21
142.505067561918
 31
0.0
  0
LINE
  5
17B
  8
0
  6
CONTINUOUS
 62
     9
 10
183.9598113140904
 20
111.0060411815602
 30
0.0
 11
183.9598113140904
 21
142.505067561918
 31
0.0
  0
TEXT
  5
17C
  8
0
 62
     7
 10
160.7598113140904
 20
142.005067561918
 30
0.0
 40
4.0
  1
40
 41
0.7999999999999972
  7
FDASTYLE1
 72
     5
 11
167.1598113140904
 21
142.005067561918
 31
0.0
  0
ENDBLK
  5
8D
  8
0
  0
BLOCK
  8
0
  2
DA_IMAGEDIMGROUP_18
 70
     0
 10
0.0
 20
0.0
 30
0.0
  3
DA_IMAGEDIMGROUP_18
  1

  0
LINE
  5
17D
  8
0
  6
CONTINUOUS
 62
     9
 10
136.9598113140904
 20
153.005067561918
 30
0.0
 11
150.9598113140904
 21
153.005067561918
 31
0.0
  0
LINE
  5
17E
  8
0
  6
CONTINUOUS
 62
     9
 10
136.9598113140904
 20
134.0555483226735
 30
0.0
 11
136.9598113140904
 21
154.505067561918
 31
0.0
  0
LINE
  5
17F
  8
0
  6
CONTINUOUS
 62
     9
 10
150.9598113140904
 20
134.0555483226735
 30
0.0
 11
150.9598113140904
 21
154.505067561918
 31
0.0
  0
LINE
  5
180
  8
0
  6
CONTINUOUS
 62
     9
 10
169.878827846863
 20
153.005067561918
 30
0.0
 11
150.9598113140904
 21
153.005067561918
 31
0.0
  0
INSERT
  5
181
  8
0
 62
     9
  2
_OPEN30
 10
150.9598113140904
 20
153.005067561918
 30
0.0
 41
1.50000139391263
 42
1.499998500689492
 50
180.0
  0
LINE
  5
182
  8
0
  6
CONTINUOUS
 62
     9
 10
131.9598113140904
 20
153.005067561918
 30
0.0
 11
136.9598113140904
 21
153.005067561918
 31
0.0
  0
INSERT
  5
183
  8
0
 62
     9
  2
_OPEN30
 10
136.9598113140904
 20
153.005067561918
 30
0.0
 41
1.50000139391263
 42
1.499998500689492
 50
360.0
  0
TEXT
  5
184
  8
0
 62
     7
 10
156.078827846863
 20
154.005067561918
 30
0.0
 40
4.0
  1
14H8
 41
0.8000000000000007
  7
FDASTYLE1
 72
     5
 11
168.878827846863
 21
154.005067561918
 31
0.0
  0
ENDBLK
  5
90
  8
0
  0
BLOCK
  8
0
  2
DA_IMAGEDIMGROUP_19
 70
     0
 10
0.0
 20
0.0
 30
0.0
  3
DA_IMAGEDIMGROUP_19
  1

  0
LINE
  5
185
  8
LAYER0014
  6
CONTINUOUS
 62
     7
 10
-149.5713367831263
 20
-108.9409398921759
 30
0.0
 11
-102.5713367831263
 21
-108.9409398921759
 31
0.0
  0
INSERT
  5
186
  8
LAYER0014
 62
     7
  2
_OPEN30
 10
-149.5713367831263
 20
-108.9409398921759
 30
0.0
 41
1.50000139391263
 42
1.499998500689492
 50
180.0
  0
INSERT
  5
187
  8
LAYER0014
 62
     7
  2
_OPEN30
 10
-102.5713367831263
 20
-108.9409398921759
 30
0.0
 41
1.50000139391263
 42
1.499998500689492
 50
360.0
  0
LINE
  5
188
  8
LAYER0014
  6
CONTINUOUS
 62
     7
 10
-149.5713367831263
 20
-88.66470375252189
 30
0.0
 11
-149.5713367831263
 21
-110.4409398921759
 31
0.0
  0
LINE
  5
189
  8
LAYER0014
  6
CONTINUOUS
 62
     7
 10
-102.5713367831263
 20
-82.98445167732658
 30
0.0
 11
-102.5713367831263
 21
-110.4409398921759
 31
0.0
  0
TEXT
  5
18A
  8
LAYER0014
 62
     7
 10
-129.2713367831263
 20
-107.9409398921759
 30
0.0
 40
4.0
  1
47
 41
0.7999999999999989
  7
FDASTYLE1
 72
     5
 11
-122.8713367831263
 21
-107.9409398921759
 31
0.0
  0
ENDBLK
  5
93
  8
0
  0
BLOCK
  8
0
  2
DA_IMAGEDIMGROUP_20
 70
     0
 10
0.0
 20
0.0
 30
0.0
  3
DA_IMAGEDIMGROUP_20
  1

  0
LINE
  5
18B
  8
LAYER0014
  6
CONTINUOUS
 62
     7
 10
-215.5713367831263
 20
-108.9409398921759
 30
0.0
 11
-197.5713367831263
 21
-108.9409398921759
 31
0.0
  0
INSERT
  5
18C
  8
LAYER0014
 62
     7
  2
_OPEN30
 10
-215.5713367831263
 20
-108.9409398921759
 30
0.0
 41
1.50000139391263
 42
1.499998500689492
 50
180.0
  0
INSERT
  5
18D
  8
LAYER0014
 62
     7
  2
_OPEN30
 10
-197.5713367831263
 20
-108.9409398921759
 30
0.0
 41
1.50000139391263
 42
1.499998500689492
 50
360.0
  0
LINE
  5
18E
  8
LAYER0014
  6
CONTINUOUS
 62
     7
 10
-215.5713367831263
 20
-50.1594547290844
 30
0.0
 11
-215.5713367831263
 21
-110.4409398921759
 31
0.0
  0
LINE
  5
18F
  8
LAYER0014
  6
CONTINUOUS
 62
     7
 10
-197.5713367831263
 20
-72.48445167732658
 30
0.0
 11
-197.5713367831263
 21
-110.4409398921759
 31
0.0
  0
TEXT
  5
190
  8
LAYER0014
 62
     7
 10
-209.7713367831263
 20
-107.9409398921759
 30
0.0
 40
4.0
  1
18
 41
0.7999999999999972
  7
FDASTYLE1
 72
     5
 11
-203.3713367831263
 21
-107.9409398921759
 31
0.0
  0
ENDBLK
  5
96
  8
0
  0
BLOCK
  8
0
  2
DA_IMAGEDIMGROUP_21
 70
     0
 10
0.0
 20
0.0
 30
0.0
  3
DA_IMAGEDIMGROUP_21
  1

  0
LINE
  5
191
  8
LAYER0014
  6
CONTINUOUS
 62
     7
 10
-202.5713367831263
 20
-137.2722261897856
 30
0.0
 11
-102.5713367831263
 21
-137.2722261897856
 31
0.0
  0
INSERT
  5
192
  8
LAYER0014
 62
     7
  2
_OPEN30
 10
-202.5713367831263
 20
-137.2722261897856
 30
0.0
 41
1.50000139391263
 42
1.499998500689492
 50
180.0
  0
INSERT
  5
193
  8
LAYER0014
 62
     7
  2
_OPEN30
 10
-102.5713367831263
 20
-137.2722261897856
 30
0.0
 41
1.50000139391263
 42
1.499998500689492
 50
360.0
  0
LINE
  5
194
  8
LAYER0014
  6
CONTINUOUS
 62
     7
 10
-202.5713367831263
 20
-84.98445167732658
 30
0.0
 11
-202.5713367831263
 21
-138.7722261897856
 31
0.0
  0
LINE
  5
195
  8
LAYER0014
  6
CONTINUOUS
 62
     7
 10
-102.5713367831263
 20
-82.98445167732658
 30
0.0
 11
-102.5713367831263
 21
-138.7722261897856
 31
0.0
  0
TEXT
  5
196
  8
LAYER0014
 62
     7
 10
-157.3713367831263
 20
-136.2722261897856
 30
0.0
 40
4.0
  1
100
 41
0.8000000000000019
  7
FDASTYLE1
 72
     5
 11
-147.7713367831263
 21
-136.2722261897856
 31
0.0
  0
ENDBLK
  5
99
  8
0
  0
BLOCK
  8
0
  2
DA_IMAGEDIMGROUP_22
 70
     0
 10
0.0
 20
0.0
 30
0.0
  3
DA_IMAGEDIMGROUP_22
  1

  0
LINE
  5
197
  8
0
  6
CONTINUOUS
 62
     9
 10
-202.5713367831263
 20
-83.94445167732656
 30
0.0
 11
-202.5713367831263
 21
-124.2644177475314
 31
0.0
  0
LINE
  5
198
  8
0
  6
CONTINUOUS
 62
     9
 10
-197.5713367831263
 20
-71.44445167732656
 30
0.0
 11
-197.5713367831263
 21
-124.2644177475314
 31
0.0
  0
LINE
  5
199
  8
0
  6
CONTINUOUS
 62
     9
 10
-202.5713367831263
 20
-122.7644177475314
 30
0.0
 11
-197.5713367831263
 21
-122.7644177475314
 31
0.0
  0
LINE
  5
19A
  8
0
  6
CONTINUOUS
 62
     9
 10
-102.5713367831263
 20
-81.94445167732656
 30
0.0
 11
-102.5713367831263
 21
-124.2644177475314
 31
0.0
  0
LINE
  5
19B
  8
0
  6
CONTINUOUS
 62
     9
 10
-197.5713367831263
 20
-122.7644177475314
 30
0.0
 11
-102.5713367831263
 21
-122.7644177475314
 31
0.0
  0
INSERT
  5
19C
  8
0
 62
     9
  2
_OPEN30
 10
-197.5713367831263
 20
-122.7644177475314
 30
0.0
 41
1.50000139391263
 42
1.499998500689492
 50
180.0
  0
INSERT
  5
19D
  8
0
 62
     9
  2
_OPEN30
 10
-102.5713367831263
 20
-122.7644177475314
 30
0.0
 41
1.50000139391263
 42
1.499998500689492
 50
360.0
  0
LINE
  5
19E
  8
0
  6
CONTINUOUS
 62
     9
 10
-211.7538831813235
 20
-122.7644177475314
 30
0.0
 11
-202.5713367831263
 21
-122.7644177475314
 31
0.0
  0
INSERT
  5
19F
  8
0
 62
     9
  2
_OPEN30
 10
-202.5713367831263
 20
-122.7644177475314
 30
0.0
 41
1.50000139391263
 42
1.499998500689492
 50
360.0
  0
TEXT
  5
1A0
  8
0
 62
     7
 10
-210.7538831813235
 20
-121.7644177475314
 30
0.0
 40
4.0
  1
5
 41
0.7999999999999972
  7
FDASTYLE1
 72
     5
 11
-207.5538831813235
 21
-121.7644177475314
 31
0.0
  0
TEXT
  5
1A1
  8
0
 62
     7
 10
-153.2713367831263
 20
-121.7644177475314
 30
0.0
 40
4.0
  1
95
 41
0.7999999999999972
  7
FDASTYLE1
 72
     5
 11
-146.8713367831263
 21
-121.7644177475314
 31
0.0
  0
ENDBLK
  5
9C
  8
0
  0
BLOCK
  8
0
  2
DA_IMAGEDIMGROUP_23
 70
     0
 10
0.0
 20
0.0
 30
0.0
  3
DA_IMAGEDIMGROUP_23
  1

  0
LINE
  5
1A2
  8
0
  6
CONTINUOUS
 62
     9
 10
-197.5713367831263
 20
153.0435467641855
 30
0.0
 11
-185.6643328768763
 21
153.0435467641855
 31
0.0
  0
LINE
  5
1A3
  8
0
  6
CONTINUOUS
 62
     9
 10
-197.5713367831263
 20
121.0555483226735
 30
0.0
 11
-197.5713367831263
 21
154.0435467641855
 31
0.0
  0
LINE
  5
1A4
  8
0
  6
CONTINUOUS
 62
     9
 10
-185.6643328768763
 20
62.55554832267342
 30
0.0
 11
-185.6643328768763
 21
154.0435467641855
 31
0.0
  0
LINE
  5
1A5
  8
0
  6
CONTINUOUS
 62
     9
 10
-219.2283137446018
 20
153.0435467641855
 30
0.0
 11
-197.5713367831263
 21
153.0435467641855
 31
0.0
  0
INSERT
  5
1A6
  8
0
 62
     9
  2
_OPEN30
 10
-197.5713367831263
 20
153.0435467641855
 30
0.0
 41
1.50000139391263
 42
1.499998500689492
 50
360.0
  0
LINE
  5
1A7
  8
0
  6
CONTINUOUS
 62
     9
 10
-180.6643328768763
 20
153.0435467641855
 30
0.0
 11
-185.6643328768763
 21
153.0435467641855
 31
0.0
  0
INSERT
  5
1A8
  8
0
 62
     9
  2
_OPEN30
 10
-185.6643328768763
 20
153.0435467641855
 30
0.0
 41
1.50000139391263
 42
1.499998500689492
 50
180.0
  0
TEXT
  5
1A9
  8
0
 62
     7
 10
-218.2283137446018
 20
154.0435467641855
 30
0.0
 40
4.0
  1
MAX25
 41
0.8
  7
FDASTYLE1
 72
     5
 11
-202.2283137446018
 21
154.0435467641855
 31
0.0
  0
ENDBLK
  5
9F
  8
0
  0
BLOCK
  8
0
  2
DA_IMAGEDIMGROUP_24
 70
     0
 10
0.0
 20
0.0
 30
0.0
  3
DA_IMAGEDIMGROUP_24
  1

  0
LINE
  5
1AA
  8
0
  6
CONTINUOUS
 62
     9
 10
-152.6643252474817
 20
-6.194451677326567
 30
0.0
 11
-225.7726444790906
 21
-6.194451677326567
 31
0.0
  0
LINE
  5
1AB
  8
0
  6
CONTINUOUS
 62
     9
 10
-152.6643252474817
 20
56.30554832267342
 30
0.0
 11
-225.7726444790906
 21
56.30554832267342
 31
0.0
  0
LINE
  5
1AC
  8
0
  6
CONTINUOUS
 62
     9
 10
-224.7726444790906
 20
-6.194451677326567
 30
0.0
 11
-224.7726444790906
 21
56.30554832267342
 31
0.0
  0
INSERT
  5
1AD
  8
0
 62
     9
  2
_OPEN30
 10
-224.7726444790906
 20
-6.194451677326567
 30
0.0
 41
1.50000139391263
 42
1.499998500689492
 50
270.0
  0
INSERT
  5
1AE
  8
0
 62
     9
  2
_OPEN30
 10
-224.7726444790906
 20
56.30554832267342
 30
0.0
 41
1.50000139391263
 42
1.499998500689492
 50
90.0
  0
TEXT
  5
1AF
  8
0
 62
     7
 10
-225.7726444790906
 20
13.85554832267344
 30
0.0
 40
4.0
  1
φ62.5H7
 50
90.0
 41
0.777777777777777
  7
FDASTYLE1
 72
     5
 11
-225.7726444790906
 21
36.25554832267341
 31
0.0
  0
ENDBLK
  5
A2
  8
0
  0
BLOCK
  8
0
  2
DA_IMAGEDIMGROUP_25
 70
     0
 10
0.0
 20
0.0
 30
0.0
  3
DA_IMAGEDIMGROUP_25
  1

  0
LINE
  5
1B0
  8
0
  6
CONTINUOUS
 62
     9
 10
-185.6643328768763
 20
10.14691935862941
 30
0.0
 11
-152.6643252474817
 21
10.14691935862941
 31
0.0
  0
INSERT
  5
1B1
  8
0
 62
     9
  2
_OPEN30
 10
-185.6643328768763
 20
10.14691935862941
 30
0.0
 41
1.50000139391263
 42
1.499998500689492
 50
180.0
  0
INSERT
  5
1B2
  8
0
 62
     9
  2
_OPEN30
 10
-152.6643252474817
 20
10.14691935862941
 30
0.0
 41
1.50000139391263
 42
1.499998500689492
 50
360.0
  0
LINE
  5
1B3
  8
0
  6
CONTINUOUS
 62
     9
 10
-152.6643252474817
 20
10.14691935862941
 30
0.0
 11
-140.6643252474817
 21
10.14691935862941
 31
0.0
  0
INSERT
  5
1B4
  8
0
 62
     9
  2
_OPEN30
 10
-152.6643252474817
 20
10.14691935862941
 30
0.0
 41
1.50000139391263
 42
1.499998500689492
 50
180.0
  0
INSERT
  5
1B5
  8
0
 62
     9
  2
_OPEN30
 10
-140.6643252474817
 20
10.14691935862941
 30
0.0
 41
1.50000139391263
 42
1.499998500689492
 50
360.0
  0
LINE
  5
1B6
  8
0
  6
CONTINUOUS
 62
     9
 10
-140.6643252474817
 20
10.14691935862941
 30
0.0
 11
-131.6643252474817
 21
10.14691935862941
 31
0.0
  0
INSERT
  5
1B7
  8
0
 62
     9
  2
_OPEN30
 10
-140.6643252474817
 20
10.14691935862941
 30
0.0
 41
1.50000139391263
 42
1.499998500689492
 50
180.0
  0
INSERT
  5
1B8
  8
0
 62
     9
  2
_OPEN30
 10
-131.6643252474817
 20
10.14691935862941
 30
0.0
 41
1.50000139391263
 42
1.499998500689492
 50
360.0
  0
TEXT
  5
1B9
  8
0
 62
     7
 10
-172.364329062179
 20
11.14691935862941
 30
0.0
 40
4.0
  1
33
 41
0.7999999999999972
  7
FDASTYLE1
 72
     5
 11
-165.964329062179
 21
11.14691935862941
 31
0.0
  0
TEXT
  5
1BA
  8
0
 62
     7
 10
-149.8643252474817
 20
11.14691935862941
 30
0.0
 40
4.0
  1
12
 41
0.7999999999999972
  7
FDASTYLE1
 72
     5
 11
-143.4643252474818
 21
11.14691935862941
 31
0.0
  0
TEXT
  5
1BB
  8
0
 62
     7
 10
-137.7643252474817
 20
11.14691935862941
 30
0.0
 40
4.0
  1
9
 41
0.7999999999999972
  7
FDASTYLE1
 72
     5
 11
-134.5643252474818
 21
11.14691935862941
 31
0.0
  0
ENDBLK
  5
A5
  8
0
  0
BLOCK
  8
0
  2
DA_IMAGEDIMGROUP_26
 70
     0
 10
0.0
 20
0.0
 30
0.0
  3
DA_IMAGEDIMGROUP_26
  1

  0
LINE
  5
1BC
  8
0
  6
CONTINUOUS
 62
     9
 10
-197.5713367831263
 20
-70.94445167732656
 30
0.0
 11
-197.5713367831263
 21
-109.9571518956125
 31
0.0
  0
LINE
  5
1BD
  8
0
  6
CONTINUOUS
 62
     9
 10
-152.6643252474817
 20
-7.444451677326567
 30
0.0
 11
-152.6643252474817
 21
-109.9571518956125
 31
0.0
  0
LINE
  5
1BE
  8
0
  6
CONTINUOUS
 62
     9
 10
-197.5713367831263
 20
-108.9571518956125
 30
0.0
 11
-152.6643252474817
 21
-108.9571518956125
 31
0.0
  0
INSERT
  5
1BF
  8
0
 62
     9
  2
_OPEN30
 10
-197.5713367831263
 20
-108.9571518956125
 30
0.0
 41
1.50000139391263
 42
1.499998500689492
 50
180.0
  0
INSERT
  5
1C0
  8
0
 62
     9
  2
_OPEN30
 10
-152.6643252474817
 20
-108.9571518956125
 30
0.0
 41
1.50000139391263
 42
1.499998500689492
 50
360.0
  0
TEXT
  5
1C1
  8
0
 62
     7
 10
-182.906727971208
 20
-107.9571518956125
 30
0.0
 40
4.0
  1
MAX58
 41
0.8
  7
FDASTYLE1
 72
     5
 11
-166.906727971208
 21
-107.9571518956125
 31
0.0
  0
ENDBLK
  5
A8
  8
0
  0
BLOCK
  8
0
  2
DA_IMAGEDIMGROUP_27
 70
     0
 10
0.0
 20
0.0
 30
0.0
  3
DA_IMAGEDIMGROUP_27
  1

  0
LINE
  5
1C2
  8
0
  6
CONTINUOUS
 62
     2
 10
143.7774115890129
 20
-105.3259547465972
 30
0.0
 11
143.7774115890129
 21
-92.02712383868396
 31
0.0
  0
INSERT
  5
1C3
  8
0
 62
     2
  2
_ARROWFILL
 10
143.7774115890129
 20
-92.02712383868396
 30
0.0
 41
3.000002610067472
 42
2.999991749804711
 50
90.0
  0
ENDBLK
  5
AB
  8
0
  0
BLOCK
  8
0
  2
_ARROWFILL
 70
     0
 10
0.0
 20
0.0
 30
0.0
  3
_ARROWFILL
  1

  0
INSERT
  5
1C4
  8
0
  6
CONTINUOUS
 62
     0
  2
*U41
 10
0.0
 20
0.0
 30
0.0
1001
ACAD
1002
{
1000
R14_HATCH_DATA
1000
1C4
1011
1.0
1021
0.0
1031
0.0
1021
0.0
1031
0.0
1011
0.0
1021
1.0
1031
0.0
1021
1.0
1031
0.0
1011
0.0
1021
0.0
1031
1.0
1021
0.0
1031
1.0
1040
0.0
1010
0.0
1020
0.0
1030
1.0
1020
0.0
1030
1.0
1000
SOLID
1070
     1
1070
     1
1071
        1
1071
        0
1071
        3
1070
     1
1040
0.0
1040
0.0
1040
-0.9659258262890683
1040
0.2588190451025207
1070
     1
1040
-0.9659258262890683
1040
0.2588190451025207
1040
-0.9659258262890683
1040
-0.2588190451025207
1070
     1
1040
-0.9659258262890683
1040
-0.2588190451025207
1040
0.0
1040
0.0
1071
        0
1070
     0
1070
     1
1071
        0
1002
}
  0
ENDBLK
  5
AE
  8
0
  0
BLOCK
  8
0
  2
DA_IMAGEDIMGROUP_28
 70
     0
 10
0.0
 20
0.0
 30
0.0
  3
DA_IMAGEDIMGROUP_28
  1

  0
LINE
  5
1C5
  8
0
  6
CONTINUOUS
 62
     9
 10
37.44549258884096
 20
-36.44056524572395
 30
0.0
 11
44.48340957249683
 21
-32.37722242960194
 31
0.0
  0
LINE
  5
1C6
  8
0
  6
CONTINUOUS
 62
     9
 10
20.96766019713796
 20
25.05554832267342
 30
0.0
 11
28.90001566936962
 21
25.05554832267343
 31
0.0
  0
ARC
  5
1C7
  8
0
  6
CONTINUOUS
 62
     9
 10
143.9598975252473
 20
25.05554832267343
 30
0.0
 40
121.4922373281093
 50
180.0
 51
209.9999972589655
  0
INSERT
  5
1C8
  8
0
 62
     9
  2
_OPEN30
 10
22.46766019713796
 20
25.05554832267345
 30
0.0
 41
1.50000139391263
 42
1.499998500689492
 50
90.70740094257376
  0
INSERT
  5
1C9
  8
0
 62
     9
  2
_OPEN30
 10
38.74453073039766
 20
-35.69056530786999
 30
0.0
 41
1.50000139391263
 42
1.499998500689492
 50
299.292596316392
  0
TEXT
  5
1CA
  8
0
 62
     7
 10
26.33100157112381
 20
-1.493690704978883
 30
0.0
 40
4.0
  1
30°
 50
-75.00000137051727
 41
0.7500000000000001
  7
FDASTYLE1
 72
     5
 11
28.81566418230017
 21
-10.76657869678717
 31
0.0
  0
ENDBLK
  5
B1
  8
0
  0
BLOCK
  8
0
  2
DC_GROUP_6
 70
     0
 10
0.0
 20
0.0
 30
0.0
  3
DC_GROUP_6
  1

  0
LINE
  5
1CB
  8
0
  6
CONTINUOUS
 62
     7
 10
184.8430597677909
 20
-0.9032258064516263
 30
0.0
 11
228.2253469350243
 21
-61.95202646815551
 31
0.0
  0
INSERT
  5
1CC
  8
0
 62
     7
  2
_OPEN30
 10
184.8430597677909
 20
-0.9032258064516263
 30
0.0
 41
1.50000139391263
 42
1.499998500689492
 50
125.3982307019691
  0
LINE
  5
1CD
  8
0
  6
CONTINUOUS
 62
     7
 10
228.2253469350243
 20
-61.95202646815551
 30
0.0
 11
270.8351571368399
 21
-61.95202646815551
 31
0.0
  0
TEXT
  5
1CE
  8
0
 62
     7
 10
228.2253469350243
 20
-61.95202646815551
 30
0.0
 40
4.0
  1
4-M8×16 PCD90
 41
0.7878787878787884
  7
FDASTYLE1
 72
     5
 11
269.8253469350244
 21
-61.95202646815551
 31
0.0
  0
ENDBLK
  5
B4
  8
0
  0
BLOCK
  8
0
  2
DC_GROUP_7
 70
     0
 10
0.0
 20
0.0
 30
0.0
  3
DC_GROUP_7
  1

  0
LINE
  5
1CF
  8
0
  6
CONTINUOUS
 62
     7
 10
86.46097457047699
 20
-18.27900801671115
 30
0.0
 11
70.72938149067184
 21
-73.89210550500874
 31
0.0
  0
INSERT
  5
1D0
  8
0
 62
     7
  2
_OPEN30
 10
86.46097457047699
 20
-18.27900801671115
 30
0.0
 41
1.50000139391263
 42
1.499998500689492
 50
74.20508168872287
  0
LINE
  5
1D1
  8
0
  6
CONTINUOUS
 62
     7
 10
70.72938149067184
 20
-73.89210550500874
 30
0.0
 11
40.85567263354767
 21
-73.89210550500874
 31
0.0
  0
TEXT
  5
1D2
  8
0
 62
     7
 10
41.92938149067184
 20
-73.89210550500874
 30
0.0
 40
4.0
  1
PCD133.35
 41
0.7999999999999999
  7
FDASTYLE1
 72
     5
 11
70.72938149067184
 21
-73.89210550500874
 31
0.0
  0
ENDBLK
  5
B7
  8
0
  0
BLOCK
  8
0
  2
DC_GROUP_8
 70
     0
 10
0.0
 20
0.0
 30
0.0
  3
DC_GROUP_8
  1

  0
LINE
  5
1D3
  8
0
  6
CONTINUOUS
 62
     3
 10
86.21757189433109
 20
-2.508482328686043
 30
0.0
 11
81.21757189433109
 21
-5.395233674634156
 31
0.0
  0
LINE
  5
1D4
  8
0
  6
CONTINUOUS
 62
     3
 10
81.21757189433109
 20
-5.395233674634156
 30
0.0
 11
81.21757189433109
 21
-11.16873636653044
 31
0.0
  0
LINE
  5
1D5
  8
0
  6
CONTINUOUS
 62
     3
 10
81.21757189433109
 20
-11.16873636653044
 30
0.0
 11
86.21757189433109
 21
-14.05548771247855
 31
0.0
  0
LINE
  5
1D6
  8
0
  6
CONTINUOUS
 62
     3
 10
86.21757189433109
 20
-14.05548771247855
 30
0.0
 11
91.21757189433109
 21
-11.16873636653044
 31
0.0
  0
LINE
  5
1D7
  8
0
  6
CONTINUOUS
 62
     3
 10
91.21757189433109
 20
-11.16873636653044
 30
0.0
 11
91.21757189433109
 21
-5.395233674634156
 31
0.0
  0
LINE
  5
1D8
  8
0
  6
CONTINUOUS
 62
     3
 10
91.21757189433109
 20
-5.395233674634156
 30
0.0
 11
86.21757189433109
 21
-2.508482328686043
 31
0.0
  0
ENDBLK
  5
BA
  8
0
  0
BLOCK
  8
0
  2
_OPEN30
 70
     0
 10
0.0
 20
0.0
 30
0.0
  3
_OPEN30
  1

  0
LINE
  5
BF
  8
0
  6
BYBLOCK
 62
     0
 10
-1.0
 20
0.267949
 30
0.0
 11
0.0
 21
0.0
 31
0.0
  0
LINE
  5
C0
  8
0
  6
BYBLOCK
 62
     0
 10
0.0
 20
0.0
 30
0.0
 11
-1.0
 21
-0.267949
 31
0.0
  0
LINE
  5
C1
  8
0
  6
BYBLOCK
 62
     0
 10
0.0
 20
0.0
 30
0.0
 11
-1.0
 21
0.0
 31
0.0
  0
ENDBLK
  5
BE
  8
0
  0
BLOCK
  8
0
  2
_DOT
 70
     0
 10
0.0
 20
0.0
 30
0.0
  3
_DOT
  1

  0
POLYLINE
  5
13A
  8
0
  6
BYBLOCK
 62
     0
 66
     1
 10
0.0
 20
0.0
 30
0.0
 70
     1
 40
0.5
 41
0.5
  0
VERTEX
  5
515
  8
0
  6
BYBLOCK
 62
     0
 10
-0.25
 20
0.0
 30
0.0
 42
1.0
  0
VERTEX
  5
516
  8
0
  6
BYBLOCK
 62
     0
 10
0.25
 20
0.0
 30
0.0
 42
1.0
  0
SEQEND
  5
514
  8
0
  6
BYBLOCK
 62
     0
  0
LINE
  5
13B
  8
0
  6
BYBLOCK
 62
     0
 10
-0.5
 20
0.0
 30
0.0
 11
-1.0
 21
0.0
 31
0.0
  0
ENDBLK
  5
139
  8
0
  0
BLOCK
  8
0
  2
*U41
 70
     1
 10
0.0
 20
0.0
 30
0.0
  3
*U41
  1

  0
SOLID
  5
511
  8
0
  6
CONTINUOUS
 62
     0
 10
-0.9659258262890683
 20
-0.2588190451025207
 30
0.0
 11
-0.9659258262890683
 21
0.2588190451025207
 31
0.0
 12
0.0
 22
0.0
 32
0.0
 13
0.0
 23
0.0
 33
0.0
  0
ENDBLK
  5
513
  8
0
  0
ENDSEC
  0
SECTION
  2
ENTITIES
  0
LINE
  5
1D9
  8
ZUWAKU
  6
CONTINUOUS
 62
     3
 10
-277.0
 20
-190.0
 30
0.0
 11
-277.0
 21
190.0
 31
0.0
  0
LINE
  5
1DA
  8
ZUWAKU
  6
CONTINUOUS
 62
     3
 10
277.0
 20
-190.0
 30
0.0
 11
277.0
 21
190.0
 31
0.0
  0
LINE
  5
1DB
  8
ZUWAKU
  6
CONTINUOUS
 62
     3
 10
-277.0
 20
-190.0
 30
0.0
 11
277.0
 21
-190.0
 31
0.0
  0
LINE
  5
1DC
  8
ZUWAKU
  6
CONTINUOUS
 62
     3
 10
-277.0
 20
189.9999999999999
 30
0.0
 11
277.0
 21
189.9999999999999
 31
0.0
  0
LINE
  5
1DD
  8
ZUWAKU
  6
CONTINUOUS
 62
     3
 10
97.00000000000001
 20
-190.0
 30
0.0
 11
97.00000000000001
 21
-130.0
 31
0.0
  0
LINE
  5
1DE
  8
ZUWAKU
  6
CONTINUOUS
 62
     3
 10
97.00000000000001
 20
-176.0
 30
0.0
 11
277.0
 21
-176.0
 31
0.0
  0
LINE
  5
1DF
  8
ZUWAKU
  6
CONTINUOUS
 62
     3
 10
146.0
 20
-162.0
 30
0.0
 11
277.0
 21
-162.0
 31
0.0
  0
LINE
  5
1E0
  8
ZUWAKU
  6
CONTINUOUS
 62
     3
 10
146.0
 20
-148.0
 30
0.0
 11
277.0
 21
-148.0
 31
0.0
  0
LINE
  5
1E1
  8
ZUWAKU
  6
CONTINUOUS
 62
     3
 10
146.0
 20
-138.0
 30
0.0
 11
277.0
 21
-138.0
 31
0.0
  0
LINE
  5
1E2
  8
ZUWAKU
  6
CONTINUOUS
 62
     3
 10
146.0
 20
-176.0
 30
0.0
 11
146.0
 21
-130.0
 31
0.0
  0
LINE
  5
1E3
  8
ZUWAKU
  6
CONTINUOUS
 62
     3
 10
255.0
 20
-176.0
 30
0.0
 11
255.0
 21
-130.0
 31
0.0
  0
LINE
  5
1E4
  8
ZUWAKU
  6
CONTINUOUS
 62
     3
 10
171.0
 20
-190.0
 30
0.0
 11
171.0
 21
-176.0
 31
0.0
  0
LINE
  5
1E5
  8
ZUWAKU
  6
CONTINUOUS
 62
     3
 10
97.00000000000001
 20
-130.0
 30
0.0
 11
277.0
 21
-130.0
 31
0.0
  0
LINE
  5
1E6
  8
ZUWAKU
  6
CONTINUOUS
 62
     3
 10
226.0
 20
-176.0
 30
0.0
 11
226.0
 21
-148.0
 31
0.0
  0
LINE
  5
1E7
  8
ZUWAKU
  6
CONTINUOUS
 62
     4
 10
105.0
 20
-172.0
 30
0.0
 11
105.0
 21
-130.0
 31
0.0
  0
LINE
  5
1E8
  8
ZUWAKU
  6
CONTINUOUS
 62
     4
 10
109.0
 20
-172.0
 30
0.0
 11
109.0
 21
-130.0
 31
0.0
  0
LINE
  5
1E9
  8
ZUWAKU
  6
CONTINUOUS
 62
     4
 10
121.5
 20
-176.0
 30
0.0
 11
121.5
 21
-130.0
 31
0.0
  0
LINE
  5
1EA
  8
ZUWAKU
  6
CONTINUOUS
 62
     4
 10
97.00000000000001
 20
-137.0
 30
0.0
 11
146.0
 21
-137.0
 31
0.0
  0
LINE
  5
1EB
  8
ZUWAKU
  6
CONTINUOUS
 62
     4
 10
97.00000000000001
 20
-144.0
 30
0.0
 11
146.0
 21
-144.0
 31
0.0
  0
LINE
  5
1EC
  8
ZUWAKU
  6
CONTINUOUS
 62
     4
 10
97.00000000000001
 20
-165.0
 30
0.0
 11
146.0
 21
-165.0
 31
0.0
  0
LINE
  5
1ED
  8
ZUWAKU
  6
CONTINUOUS
 62
     4
 10
97.00000000000001
 20
-172.0
 30
0.0
 11
146.0
 21
-172.0
 31
0.0
  0
LINE
  5
1EE
  8
ZUWAKU
  6
CONTINUOUS
 62
     4
 10
255.0
 20
-166.0
 30
0.0
 11
277.0
 21
-166.0
 31
0.0
  0
LINE
  5
1EF
  8
ZUWAKU
  6
CONTINUOUS
 62
     4
 10
153.0
 20
-139.5
 30
0.0
 11
153.0
 21
-130.0
 31
0.0
  0
LINE
  5
1F0
  8
ZUWAKU
  6
CONTINUOUS
 62
     4
 10
202.0
 20
-148.0
 30
0.0
 11
202.0
 21
-146.5
 31
0.0
  0
LINE
  5
1F1
  8
ZUWAKU
  6
CONTINUOUS
 62
     4
 10
226.0
 20
-148.0
 30
0.0
 11
226.0
 21
-146.5
 31
0.0
  0
LINE
  5
1F2
  8
ZUWAKU
  6
CONTINUOUS
 62
     4
 10
243.0
 20
-148.0
 30
0.0
 11
243.0
 21
-146.5
 31
0.0
  0
LINE
  5
1F3
  8
ZUWAKU
  6
CONTINUOUS
 62
     4
 10
202.0
 20
-139.5
 30
0.0
 11
202.0
 21
-130.0
 31
0.0
  0
LINE
  5
1F4
  8
ZUWAKU
  6
CONTINUOUS
 62
     4
 10
226.0
 20
-139.5
 30
0.0
 11
226.0
 21
-130.0
 31
0.0
  0
LINE
  5
1F5
  8
ZUWAKU
  6
CONTINUOUS
 62
     4
 10
243.0
 20
-139.5
 30
0.0
 11
243.0
 21
-130.0
 31
0.0
  0
LINE
  5
1F6
  8
ZUWAKU
  6
CONTINUOUS
 62
     4
 10
97.00000000000001
 20
-151.0
 30
0.0
 11
146.0
 21
-151.0
 31
0.0
  0
LINE
  5
1F7
  8
ZUWAKU
  6
CONTINUOUS
 62
     4
 10
97.00000000000001
 20
-158.0
 30
0.0
 11
146.0
 21
-158.0
 31
0.0
  0
LINE
  5
1F8
  8
ZUWAKU
  6
CONTINUOUS
 62
     4
 10
101.0
 20
-130.5
 30
0.0
 11
98.00000000000001
 21
-136.5
 31
0.0
  0
LINE
  5
1F9
  8
ZUWAKU
  6
CONTINUOUS
 62
     4
 10
101.0
 20
-130.5
 30
0.0
 11
104.0
 21
-136.5
 31
0.0
  0
LINE
  5
1FA
  8
ZUWAKU
  6
CONTINUOUS
 62
     4
 10
98.00000000000001
 20
-136.5
 30
0.0
 11
104.0
 21
-136.5
 31
0.0
  0
LINE
  5
1FB
  8
ZUWAKU
  6
CONTINUOUS
 62
     4
 10
101.0
 20
-158.5
 30
0.0
 11
98.00000000000001
 21
-164.5
 31
0.0
  0
LINE
  5
1FC
  8
ZUWAKU
  6
CONTINUOUS
 62
     4
 10
101.0
 20
-158.5
 30
0.0
 11
104.0
 21
-164.5
 31
0.0
  0
LINE
  5
1FD
  8
ZUWAKU
  6
CONTINUOUS
 62
     4
 10
98.00000000000001
 20
-164.5
 30
0.0
 11
104.0
 21
-164.5
 31
0.0
  0
LINE
  5
1FE
  8
ZUWAKU
  6
CONTINUOUS
 62
     4
 10
101.0
 20
-151.5
 30
0.0
 11
98.00000000000001
 21
-157.5
 31
0.0
  0
LINE
  5
1FF
  8
ZUWAKU
  6
CONTINUOUS
 62
     4
 10
101.0
 20
-151.5
 30
0.0
 11
104.0
 21
-157.5
 31
0.0
  0
LINE
  5
200
  8
ZUWAKU
  6
CONTINUOUS
 62
     4
 10
98.00000000000001
 20
-157.5
 30
0.0
 11
104.0
 21
-157.5
 31
0.0
  0
LINE
  5
201
  8
ZUWAKU
  6
CONTINUOUS
 62
     4
 10
101.0
 20
-144.5
 30
0.0
 11
98.00000000000001
 21
-150.5
 31
0.0
  0
LINE
  5
202
  8
ZUWAKU
  6
CONTINUOUS
 62
     4
 10
101.0
 20
-144.5
 30
0.0
 11
104.0
 21
-150.5
 31
0.0
  0
LINE
  5
203
  8
ZUWAKU
  6
CONTINUOUS
 62
     4
 10
98.00000000000001
 20
-150.5
 30
0.0
 11
104.0
 21
-150.5
 31
0.0
  0
LINE
  5
204
  8
ZUWAKU
  6
CONTINUOUS
 62
     4
 10
101.0
 20
-137.5
 30
0.0
 11
98.00000000000001
 21
-143.5
 31
0.0
  0
LINE
  5
205
  8
ZUWAKU
  6
CONTINUOUS
 62
     4
 10
101.0
 20
-137.5
 30
0.0
 11
104.0
 21
-143.5
 31
0.0
  0
LINE
  5
206
  8
ZUWAKU
  6
CONTINUOUS
 62
     4
 10
98.00000000000001
 20
-143.5
 30
0.0
 11
104.0
 21
-143.5
 31
0.0
  0
LINE
  5
207
  8
ZUWAKU
  6
CONTINUOUS
 62
     4
 10
172.6666666666666
 20
-176.0
 30
0.0
 11
172.6666666666666
 21
-162.0
 31
0.0
  0
LINE
  5
208
  8
ZUWAKU
  6
CONTINUOUS
 62
     4
 10
199.3333333333333
 20
-176.0
 30
0.0
 11
199.3333333333333
 21
-161.9509415757253
 31
0.0
  0
LINE
  5
209
  8
ZUWAKU
  6
CONTINUOUS
 62
     4
 10
212.6666666666666
 20
-167.5
 30
0.0
 11
212.6666666666666
 21
-161.9509415757253
 31
0.0
  0
LINE
  5
20A
  8
ZUWAKU
  6
CONTINUOUS
 62
     4
 10
226.0
 20
-155.0
 30
0.0
 11
255.0
 21
-155.0
 31
0.0
  0
LINE
  5
20B
  8
ZUWAKU
  6
CONTINUOUS
 62
     4
 10
146.0
 20
-166.0
 30
0.0
 11
226.0
 21
-166.0
 31
0.0
  0
TEXT
  5
20D
  8
ZUWAKU
 62
     7
 10
148.3132301474747
 20
-130.821188728956
 30
0.0
 40
2.6656
  1
符号
 41
0.8
  7
FDASTYLE0
  0
TEXT
  5
20E
  8
ZUWAKU
 62
     7
 10
162.4141311219058
 20
-135.8245525019963
 30
0.0
 40
4.0
  1
品       名
 41
0.765957446808511
  7
FDASTYLE1
 72
     5
 11
191.2141311219058
 21
-135.8245525019963
 31
0.0
  0
TEXT
  5
20F
  8
ZUWAKU
 62
     7
 10
207.2331564413096
 20
-135.8245525019963
 30
0.0
 40
4.0
  1
材  料
 41
0.7272727272727279
  7
FDASTYLE1
 72
     5
 11
220.0331564413096
 21
-135.8245525019963
 31
0.0
  0
TEXT
  5
210
  8
ZUWAKU
 62
     7
 10
229.516061684855
 20
-135.8245525019963
 30
0.0
 40
4.0
  1
個 数
 41
0.7058823529411761
  7
FDASTYLE1
 72
     5
 11
239.116061684855
 21
-135.8245525019963
 31
0.0
  0
TEXT
  5
211
  8
ZUWAKU
 62
     7
 10
245.721810952888
 20
-133.5649080050572
 30
0.0
 40
2.5
  1
単重量
 41
0.6666666666666666
  7
FDASTYLE1
 72
     5
 11
251.721810952888
 21
-133.5649080050572
 31
0.0
  0
TEXT
  5
212
  8
ZUWAKU
 62
     7
 10
244.7089516236359
 20
-137.3631304897525
 30
0.0
 40
2.5
  1
(kg)
 41
0.8
  7
FDASTYLE1
 72
     5
 11
252.7089516236359
 21
-137.3631304897525
 31
0.0
  0
TEXT
  5
213
  8
ZUWAKU
 62
     7
 10
259.1421970654778
 20
-135.8245525019963
 30
0.0
 40
4.0
  1
記  事
 41
0.7272727272727279
  7
FDASTYLE1
 72
     5
 11
271.9421970654778
 21
-135.8245525019963
 31
0.0
  0
TEXT
  5
214
  8
ZUWAKU
 62
     7
 10
258.8450794551645
 20
-165.4873041997729
 30
0.0
 40
3.0
  1
コード番号
 41
0.6666666666666666
  7
FDASTYLE1
 72
     5
 11
270.8450794551645
 21
-165.4873041997729
 31
0.0
  0
TEXT
  5
215
  8
ZUWAKU
 62
     7
 10
101.9119920158317
 20
-175.1879010540338
 30
0.0
 40
2.5
  1
訂 正 来 歴
 41
0.717948717948718
  7
FDASTYLE1
 72
     5
 11
115.9119920158317
 21
-175.1879010540338
 31
0.0
  0
TEXT
  5
216
  8
ZUWAKU
 62
     7
 10
125.890334846765
 20
-175.2166697391651
 30
0.0
 40
2.5
  1
工 事 番 号
 41
0.717948717948718
  7
FDASTYLE1
 72
     5
 11
139.890334846765
 21
-175.2166697391651
 31
0.0
  0
TEXT
  5
217
  8
ZUWAKU
 62
     7
 10
99.96483784660289
 20
-165.9634530565915
 30
0.0
 40
2.0825
  1
記号
 41
0.8
  7
FDASTYLE0
  0
TEXT
  5
218
  8
ZUWAKU
 62
     7
 10
105.9042249067618
 20
-165.9634530565915
 30
0.0
 40
2.0825
  1
理由
 41
0.8
  7
FDASTYLE0
  0
TEXT
  5
219
  8
ZUWAKU
 62
     7
 10
111.6193667909843
 20
-169.8786046700178
 30
0.0
 40
3.0
  1
日 付
 41
0.7058823529411754
  7
FDASTYLE1
 72
     5
 11
118.8193667909843
 21
-169.8786046700178
 31
0.0
  0
TEXT
  5
21A
  8
ZUWAKU
 62
     7
 10
153.4481689819652
 20
-165.7187911464244
 30
0.0
 40
3.0
  1
承   認
 41
0.7407407407407408
  7
FDASTYLE1
 72
     5
 11
165.4481689819652
 21
-165.7187911464244
 31
0.0
  0
TEXT
  5
21B
  8
ZUWAKU
 62
     7
 10
179.863228033234
 20
-165.4873041997729
 30
0.0
 40
3.0
  1
検   図
 41
0.7407407407407408
  7
FDASTYLE1
 72
     5
 11
191.863228033234
 21
-165.4873041997729
 31
0.0
  0
TEXT
  5
21C
  8
ZUWAKU
 62
     7
 10
201.4771920983751
 20
-165.4873041997729
 30
0.0
 40
3.0
  1
担  当
 41
0.7272727272727269
  7
FDASTYLE1
 72
     5
 11
211.0771920983751
 21
-165.4873041997729
 31
0.0
  0
TEXT
  5
21D
  8
ZUWAKU
 62
     7
 10
214.6770574841112
 20
-165.4873041997729
 30
0.0
 40
3.0
  1
製  図
 41
0.7272727272727269
  7
FDASTYLE1
 72
     5
 11
224.2770574841112
 21
-165.4873041997729
 31
0.0
  0
TEXT
  5
21E
  8
ZUWAKU
 62
     7
 10
226.9462372304199
 20
-153.2184960272417
 30
0.0
 40
3.0
  1
作図
 41
0.6666666666666683
  7
FDASTYLE1
 72
     5
 11
231.7462372304199
 21
-153.2184960272417
 31
0.0
  0
TEXT
  5
21F
  8
ZUWAKU
 62
     7
 10
228.1036719636776
 20
-160.2371566401815
 30
0.0
 40
4.0
  1
第 三 角 法
 41
0.7179487179487182
  7
FDASTYLE1
 72
     5
 11
250.5036719636776
 21
-160.2371566401815
 31
0.0
  0
TEXT
  5
220
  8
ZUWAKU
 62
     7
 10
227.409211123723
 20
-166.413251986379
 30
0.0
 40
3.0
  1
尺度
 41
0.6666666666666683
  7
FDASTYLE1
 72
     5
 11
232.209211123723
 21
-166.413251986379
 31
0.0
  0
TEXT
  5
222
  8
ZUWAKU
 62
     3
 10
105.379154370034
 20
-185.9272077185017
 30
0.0
 40
7.0
  1
株式会社 野村製作所
 41
0.5763738641280831
  7
FDASTYLE2
 72
     5
 11
161.379154370034
 21
-185.9272077185017
 31
0.0
  0
TEXT
  5
224
  8
ZUWAKU
 62
     3
 10
183.6118217934165
 20
-187.1216685584563
 30
0.0
 40
8.0
  1
２－
 41
0.8244023083264632
  7
FDASTYLE3
 72
     5
 11
199.6118217934165
 21
-187.1216685584563
 31
0.0
  0
TEXT
  5
225
  8
ZUWAKU
 62
     3
 10
200.5237794178233
 20
-187.1216685584563
 30
0.0
 40
8.0
  1
C708061
 41
1.629422718808194
  7
FDASTYLE3
 72
     5
 11
256.5237794178233
 21
-187.1216685584563
 31
0.0
  0
TEXT
  5
226
  8
ZUWAKU
 62
     6
 10
165.7570051766932
 20
-145.3589000228561
 30
0.0
 40
5.0
  1
外　形　図
 41
0.5833333333333334
  7
FDASTYLE1
 72
     5
 11
183.2570051766932
 21
-145.3589000228561
 31
0.0
  0
TEXT
  5
227
  8
ZUWAKU
 62
     6
 10
155.3545934631717
 20
-157.829135039116
 30
0.0
 40
6.0
  1
GO2-8Ｓ型チャック
 41
0.6311475409836065
  7
FDASTYLE1
 72
     5
 11
201.5545934631717
 21
-157.829135039116
 31
0.0
  0
TEXT
  5
228
  8
ZUWAKU
 62
     4
 10
239.3011788906399
 20
-172.297487439201
 30
0.0
 40
3.0
  1
1/1
 41
0.7000000000000013
  7
FDASTYLE1
 72
     5
 11
245.6011788906399
 21
-172.297487439201
 31
0.0
  0
LINE
  5
229
  8
0
  6
CONTINUOUS
 62
     6
 10
-85.90910979608232
 20
-116.797142364963
 30
0.0
 11
-71.38910979608234
 21
-116.797142364963
 31
0.0
  0
LINE
  5
22A
  8
0
  6
CONTINUOUS
 62
     6
 10
-85.90910979608232
 20
-124.057142364963
 30
0.0
 11
45.50771698614423
 21
-124.057142364963
 31
0.0
  0
LINE
  5
22B
  8
0
  6
CONTINUOUS
 62
     6
 10
-85.90910979608232
 20
-131.317142364963
 30
0.0
 11
45.50771698614423
 21
-131.317142364963
 31
0.0
  0
LINE
  5
22C
  8
0
  6
CONTINUOUS
 62
     6
 10
-85.90910979608232
 20
-138.577142364963
 30
0.0
 11
45.50771698614423
 21
-138.577142364963
 31
0.0
  0
LINE
  5
22D
  8
0
  6
CONTINUOUS
 62
     6
 10
-85.90910979608232
 20
-145.837142364963
 30
0.0
 11
45.50771698614423
 21
-145.837142364963
 31
0.0
  0
LINE
  5
22E
  8
0
  6
CONTINUOUS
 62
     6
 10
-85.90910979608232
 20
-153.097142364963
 30
0.0
 11
45.50771698614423
 21
-153.097142364963
 31
0.0
  0
LINE
  5
22F
  8
0
  6
CONTINUOUS
 62
     6
 10
-85.90910979608232
 20
-160.357142364963
 30
0.0
 11
45.50771698614423
 21
-160.357142364963
 31
0.0
  0
LINE
  5
230
  8
0
  6
CONTINUOUS
 62
     6
 10
-85.90910979608232
 20
-167.617142364963
 30
0.0
 11
45.50771698614423
 21
-167.617142364963
 31
0.0
  0
LINE
  5
231
  8
0
  6
CONTINUOUS
 62
     6
 10
-85.90910979608232
 20
-174.877142364963
 30
0.0
 11
45.50771698614423
 21
-174.877142364963
 31
0.0
  0
LINE
  5
232
  8
0
  6
CONTINUOUS
 62
     6
 10
-85.90910979608232
 20
-182.137142364963
 30
0.0
 11
45.50771698614423
 21
-182.137142364963
 31
0.0
  0
LINE
  5
233
  8
0
  6
CONTINUOUS
 62
     6
 10
10.08784588950019
 20
-98.36347830140009
 30
0.0
 11
33.12913484483017
 21
-98.36347830140009
 31
0.0
  0
TEXT
  5
234
  8
0
 62
     6
 10
-83.57553890327151
 20
-115.2846608280978
 30
0.0
 40
3.630000000000001
  1
仕 様
 41
0.7364342407849102
  7
FDASTYLE1
 72
     5
 11
-73.72268083313639
 21
-115.2846608280978
 31
0.0
  0
TEXT
  5
235
  8
0
 62
     6
 10
-83.57553890327151
 20
-122.5446608280978
 30
0.0
 40
3.630000000000001
  1
爪ﾉｽﾄﾛｰｸ
 41
0.7781458578201028
  7
FDASTYLE1
 72
     5
 11
-59.20268112162286
 21
-122.5446608280978
 31
0.0
  0
TEXT
  5
236
  8
0
 62
     6
 10
-83.57553890327151
 20
-129.8046608280978
 30
0.0
 40
3.630000000000001
  1
ピストンストローク
 41
0.6659390033058887
  7
FDASTYLE1
 72
     5
 11
-51.9426812658661
 21
-129.8046608280978
 31
0.0
  0
TEXT
  5
237
  8
0
 62
     6
 10
-83.57553890327151
 20
-137.064642364963
 30
0.0
 40
3.630000000000001
  1
推奨シリンダー
 41
0.6638419493776758
  7
FDASTYLE1
 72
     5
 11
-59.20268112162286
 21
-137.064642364963
 31
0.0
  0
TEXT
  5
238
  8
0
 62
     6
 10
-83.57553890327151
 20
-144.324642364963
 30
0.0
 40
3.630000000000001
  1
許容シリンダー力
 41
0.6650247704327614
  7
FDASTYLE1
 72
     5
 11
-55.57268119374448
 21
-144.324642364963
 31
0.0
  0
TEXT
  5
239
  8
0
 62
     6
 10
-83.57553890327151
 20
-151.584642364963
 30
0.0
 40
3.630000000000001
  1
最大静的把握力
 41
0.6638419493776758
  7
FDASTYLE1
 72
     5
 11
-59.20268112162286
 21
-151.584642364963
 31
0.0
  0
TEXT
  5
23A
  8
0
 62
     6
 10
-83.57553890327151
 20
-158.844642364963
 30
0.0
 40
3.630000000000001
  1
最高使用回転速度
 41
0.6650247704327614
  7
FDASTYLE1
 72
     5
 11
-55.57268119374448
 21
-158.844642364963
 31
0.0
  0
TEXT
  5
23B
  8
0
 62
     6
 10
-83.57553890327151
 20
-166.104642364963
 30
0.0
 40
3.630000000000001
  1
慣性モーメント
 41
0.6638419493776758
  7
FDASTYLE1
 72
     5
 11
-59.20268112162286
 21
-166.104642364963
 31
0.0
  0
TEXT
  5
23C
  8
0
 62
     6
 10
-83.57553890327151
 20
-173.364642364963
 30
0.0
 40
3.630000000000001
  1
質 量
 41
0.7364342407849102
  7
FDASTYLE1
 72
     5
 11
-73.72268083313639
 21
-173.364642364963
 31
0.0
  0
TEXT
  5
23D
  8
0
 62
     6
 10
-83.57553890327151
 20
-180.6246423649631
 30
0.0
 40
3.630000000000001
  1
アンバランス量
 41
0.6638419493776758
  7
FDASTYLE1
 72
     5
 11
-59.20268112162286
 21
-180.6246423649631
 31
0.0
  0
TEXT
  5
23E
  8
0
 62
     6
 10
6.622671851123002
 20
-165.8571440434298
 30
0.0
 40
3.630000000000001
  1
 0.17 kg・m
 41
0.7780322029908402
  7
FDASTYLE1
 72
     5
 11
41.8855294164068
 21
-165.8571440434298
 31
0.0
  0
TEXT
  5
23F
  8
0
 62
     6
 10
42.45434778107887
 20
-163.2300345030068
 30
0.0
 40
1.815
  1
2
 41
0.7142860094706205
  7
FDASTYLE1
 72
     5
 11
43.75077688826805
 21
-163.2300345030068
 31
0.0
  0
TEXT
  5
240
  8
0
 62
     6
 10
14.27290866752928
 20
-158.496612274631
 30
0.0
 40
3.630000000000001
  1
3000 min
 41
0.7714287571680389
  7
FDASTYLE1
 72
     5
 11
42.27576637705631
 21
-158.496612274631
 31
0.0
  0
TEXT
  5
241
  8
0
 62
     6
 10
42.18720240188665
 20
-155.7499638856243
 30
0.0
 40
1.815
  1
-1
 41
0.7500002238278898
  7
FDASTYLE1
 72
     5
 11
45.29863147301502
 21
-155.7499638856243
 31
0.0
  0
TEXT
  5
242
  8
0
 62
     6
 10
17.57980380913081
 20
-151.2862781071505
 30
0.0
 40
3.630000000000001
  1
  27 kN
 41
0.7704919906091383
  7
FDASTYLE1
 72
     5
 11
41.95266159077945
 21
-151.2862781071505
 31
0.0
  0
TEXT
  5
243
  8
0
 62
     6
 10
17.5895892705566
 20
-144.0759624028048
 30
0.0
 40
3.630000000000001
  1
  26 kN
 41
0.7704919906091383
  7
FDASTYLE1
 72
     5
 11
41.96244705220524
 21
-144.0759624028048
 31
0.0
  0
TEXT
  5
244
  8
0
 62
     6
 10
17.33453952690429
 20
-136.8656282353243
 30
0.0
 40
3.630000000000001
  1
　　66TS型
 41
0.7436710353193858
  7
FDASTYLE1
 72
     5
 11
41.70739730855294
 21
-136.8656282353243
 31
0.0
  0
TEXT
  5
245
  8
0
 62
     6
 10
24.8235562505371
 20
-129.3548988652071
 30
0.0
 40
3.630000000000001
  1
25 mm
 41
0.7674420530224361
  7
FDASTYLE1
 72
     5
 11
41.93641417642898
 21
-129.3548988652071
 31
0.0
  0
TEXT
  5
246
  8
0
 62
     6
 10
-0.6222622309082482
 20
-122.2947992253145
 30
0.0
 40
3.630000000000001
  1
(直径ﾆﾃ) ４０ mm
 41
0.7481753379241803
  7
FDASTYLE1
 72
     5
 11
41.90059519013231
 21
-122.2947992253145
 31
0.0
  0
TEXT
  5
247
  8
0
 62
     6
 10
25.24935306450193
 20
-173.0674782109103
 30
0.0
 40
3.630000000000001
  1
22 kg
 41
0.7674420530224361
  7
FDASTYLE1
 72
     5
 11
42.36221099039381
 21
-173.0674782109103
 31
0.0
  0
TEXT
  5
248
  8
0
 62
     6
 10
-0.8317080316894732
 20
-180.4280099797092
 30
0.0
 40
3.630000000000001
  1
外周ﾆﾃ   4 g以内
 41
0.7481753379241803
  7
FDASTYLE1
 72
     5
 11
41.69114938935108
 21
-180.4280099797092
 31
0.0
  0
TEXT
  5
249
  8
0
 62
     6
 10
-44.68489720264611
 20
-144.0214776921115
 30
0.0
 40
2.7225
  1
66TS型引側使用圧  1.9 MPa
 41
0.7468644658949735
  7
FDASTYLE1
 72
     5
 11
6.264745159948497
 21
-144.0214776921115
 31
0.0
  0
TEXT
  5
24A
  8
0
 62
     6
 10
141.5233724520784
 20
-117.8913034669481
 30
0.0
 40
8.0
  1
A
 41
0.8000000000000007
  7
FDASTYLE1
 72
     5
 11
147.9233724520784
 21
-117.8913034669481
 31
0.0
  0
TEXT
  5
24B
  8
0
 62
     6
 10
11.49035913025953
 20
-97.50477171734137
 30
0.0
 40
8.0
  1
Ａ矢視
 41
0.6666666666666669
  7
FDASTYLE1
 72
     5
 11
30.69035913025953
 21
-97.50477171734137
 31
0.0
  0
LINE
  5
24C
  8
0
  6
CONTINUOUS
 62
     3
 10
-131.6643252474817
 20
59.55554832267342
 30
0.0
 11
-116.0713367831263
 21
59.55554832267342
 31
0.0
  0
LINE
  5
24D
  8
0
  6
CONTINUOUS
 62
     3
 10
-137.0713367831263
 20
132.5555483226735
 30
0.0
 11
-125.7758045565638
 21
132.5555483226735
 31
0.0
  0
LINE
  5
24E
  8
0
  6
CONTINUOUS
 62
     3
 10
-197.5713367831263
 20
120.0555483226735
 30
0.0
 11
-197.5713367831263
 21
-69.94445167732656
 31
0.0
  0
LINE
  5
24F
  8
0
  6
CONTINUOUS
 62
     3
 10
-137.0713367831263
 20
132.5555483226735
 30
0.0
 11
-137.0713367831263
 21
62.05554832267342
 31
0.0
  0
LINE
  5
250
  8
0
  6
CONTINUOUS
 62
     3
 10
-105.0713367831263
 20
61.02428306388436
 30
0.0
 11
-105.0713367831263
 21
-14.94445167732657
 31
0.0
  0
LINE
  5
251
  8
0
  6
CONTINUOUS
 62
     3
 10
-105.0713367831263
 20
61.02428306388436
 30
0.0
 11
-102.5713367831263
 21
61.02428306388436
 31
0.0
  0
LINE
  5
252
  8
0
  6
CONTINUOUS
 62
     3
 10
-197.5713367831263
 20
62.05554832267342
 30
0.0
 11
-185.1741857225516
 21
62.05554832267342
 31
0.0
  0
LINE
  5
253
  8
0
  6
CONTINUOUS
 62
     3
 10
-202.5713367831263
 20
132.5555483226735
 30
0.0
 11
-137.0713367831263
 21
132.5555483226735
 31
0.0
  0
LINE
  5
254
  8
0
  6
CONTINUOUS
 62
     3
 10
-137.0713367831263
 20
66.55554832267342
 30
0.0
 11
-100.5713367831263
 21
66.55554832267342
 31
0.0
  0
LINE
  5
255
  8
0
  6
CONTINUOUS
 62
     3
 10
-116.5713367831263
 20
57.65539420890389
 30
0.0
 11
-105.0713367831263
 21
57.65539420890389
 31
0.0
  0
LINE
  5
256
  8
0
  6
CONTINUOUS
 62
     3
 10
-202.5713367831263
 20
120.0555483226735
 30
0.0
 11
-197.5713367831263
 21
120.0555483226735
 31
0.0
  0
LINE
  5
257
  8
0
  6
CONTINUOUS
 62
     3
 10
-132.5713367831263
 20
66.55554832267342
 30
0.0
 11
-132.5713367831263
 21
62.05554832267342
 31
0.0
  0
LINE
  5
258
  8
0
  6
CONTINUOUS
 62
     3
 10
-116.5713367831263
 20
49.80933631705819
 30
0.0
 11
-116.5713367831263
 21
59.55554832267342
 31
0.0
  0
LINE
  5
259
  8
0
  6
CONTINUOUS
 62
     3
 10
-131.6643252474817
 20
49.80933631705819
 30
0.0
 11
-116.5713367831263
 21
49.80933631705819
 31
0.0
  0
LINE
  5
25A
  8
0
  6
CONTINUOUS
 62
     3
 10
-202.5713367831263
 20
132.5555483226735
 30
0.0
 11
-202.5713367831263
 21
-82.44445167732656
 31
0.0
  0
LINE
  5
25B
  8
0
  6
CONTINUOUS
 62
     3
 10
-108.5713367831263
 20
132.5555483226735
 30
0.0
 11
-108.5713367831263
 21
121.5555483226735
 31
0.0
  0
LINE
  5
25C
  8
0
  6
CONTINUOUS
 62
     3
 10
-115.5713367831263
 20
132.5555483226735
 30
0.0
 11
-115.5713367831263
 21
66.55554832267342
 31
0.0
  0
LINE
  5
25D
  8
0
  6
CONTINUOUS
 62
     3
 10
-114.5713367831263
 20
121.5555483226735
 30
0.0
 11
-99.5713367831263
 21
121.5555483226735
 31
0.0
  0
LINE
  5
25E
  8
0
  6
CONTINUOUS
 62
     3
 10
-114.5713367831263
 20
73.55555595206795
 30
0.0
 11
-99.5713367831263
 21
73.55555595206795
 31
0.0
  0
LINE
  5
25F
  8
0
  6
CONTINUOUS
 62
     3
 10
-114.5713367831263
 20
121.5555483226735
 30
0.0
 11
-114.5713367831263
 21
73.55555595206795
 31
0.0
  0
LINE
  5
260
  8
0
  6
CONTINUOUS
 62
     3
 10
-91.5713367831263
 20
120.5555483226735
 30
0.0
 11
-91.5713367831263
 21
104.5555483226735
 31
0.0
  0
LINE
  5
261
  8
0
  6
CONTINUOUS
 62
     3
 10
-81.5713367831263
 20
120.5555483226735
 30
0.0
 11
-81.5713367831263
 21
104.5555483226735
 31
0.0
  0
LINE
  5
262
  8
0
  6
CONTINUOUS
 62
     3
 10
-91.5713367831263
 20
74.55554832267342
 30
0.0
 11
-81.5713367831263
 21
74.55554832267342
 31
0.0
  0
LINE
  5
263
  8
0
  6
CONTINUOUS
 62
     3
 10
-91.5713367831263
 20
90.55555595206801
 30
0.0
 11
-81.5713367831263
 21
90.55555595206801
 31
0.0
  0
LINE
  5
264
  8
0
  6
CONTINUOUS
 62
     3
 10
-91.5713367831263
 20
120.5555483226735
 30
0.0
 11
-81.5713367831263
 21
120.5555483226735
 31
0.0
  0
LINE
  5
265
  8
0
  6
CONTINUOUS
 62
     3
 10
-91.5713367831263
 20
104.5555483226735
 30
0.0
 11
-81.5713367831263
 21
104.5555483226735
 31
0.0
  0
LINE
  5
266
  8
0
  6
CONTINUOUS
 62
     3
 10
-114.5713367831263
 20
87.55554832267347
 30
0.0
 11
-91.5713367831263
 21
87.55554832267347
 31
0.0
  0
LINE
  5
267
  8
0
  6
CONTINUOUS
 62
     3
 10
-114.5713367831263
 20
77.55555595206795
 30
0.0
 11
-91.5713367831263
 21
77.55555595206795
 31
0.0
  0
LINE
  5
268
  8
0
  6
CONTINUOUS
 62
     3
 10
-114.5713367831263
 20
117.5555483226735
 30
0.0
 11
-91.5713367831263
 21
117.5555483226735
 31
0.0
  0
LINE
  5
269
  8
0
  6
CONTINUOUS
 62
     3
 10
-114.5713367831263
 20
107.5555483226735
 30
0.0
 11
-91.5713367831263
 21
107.5555483226735
 31
0.0
  0
LINE
  5
26A
  8
0
  6
CONTINUOUS
 62
     3
 10
-111.5713367831263
 20
117.5555483226735
 30
0.0
 11
-111.5713367831263
 21
107.5555483226735
 31
0.0
  0
LINE
  5
26B
  8
0
  6
CONTINUOUS
 62
     3
 10
-99.5713367831263
 20
77.55555595206795
 30
0.0
 11
-99.5713367831263
 21
73.55555595206795
 31
0.0
  0
LINE
  5
26C
  8
0
  6
CONTINUOUS
 62
     3
 10
-91.5713367831263
 20
90.55555595206801
 30
0.0
 11
-91.5713367831263
 21
74.55554832267342
 31
0.0
  0
LINE
  5
26D
  8
0
  6
CONTINUOUS
 62
     3
 10
-81.5713367831263
 20
90.55555595206801
 30
0.0
 11
-81.5713367831263
 21
74.55554832267342
 31
0.0
  0
LINE
  5
26E
  8
0
  6
CONTINUOUS
 62
     3
 10
-99.5713367831263
 20
107.5555483226735
 30
0.0
 11
-99.5713367831263
 21
87.55554832267347
 31
0.0
  0
LINE
  5
26F
  8
0
  6
CONTINUOUS
 62
     3
 10
-99.5713367831263
 20
121.5555483226735
 30
0.0
 11
-99.5713367831263
 21
117.5555483226735
 31
0.0
  0
LINE
  5
270
  8
0
  6
CONTINUOUS
 62
     3
 10
-111.5713367831263
 20
87.55554832267347
 30
0.0
 11
-111.5713367831263
 21
77.55555595206795
 31
0.0
  0
LINE
  5
271
  8
0
  6
CONTINUOUS
 62
     3
 10
-108.5713367831263
 20
73.55555595206795
 30
0.0
 11
-108.5713367831263
 21
66.55554832267342
 31
0.0
  0
LINE
  5
272
  8
0
  6
CONTINUOUS
 62
     3
 10
-202.5713367831263
 20
-82.44445167732656
 30
0.0
 11
-104.5713367831263
 21
-82.44445167732656
 31
0.0
  0
LINE
  5
273
  8
0
  6
CONTINUOUS
 62
     3
 10
-202.5713367831263
 20
-69.94445167732656
 30
0.0
 11
-197.5713367831263
 21
-69.94445167732656
 31
0.0
  0
LINE
  5
274
  8
0
  6
CONTINUOUS
 62
     3
 10
-197.5713367831263
 20
-11.94445167732657
 30
0.0
 11
-105.0713367831263
 21
-11.94445167732657
 31
0.0
  0
LINE
  5
275
  8
0
  6
CONTINUOUS
 62
     3
 10
-105.0713367831263
 20
-14.94445167732657
 30
0.0
 11
-102.5713367831263
 21
-14.94445167732657
 31
0.0
  0
LINE
  5
276
  8
0
  6
CONTINUOUS
 62
     3
 10
-124.3900092137424
 20
-19.94448182920961
 30
0.0
 11
-122.5713597049503
 21
-23.09447474755244
 31
0.0
  0
LINE
  5
277
  8
0
  6
CONTINUOUS
 62
     3
 10
-124.3900245426826
 20
-19.94444496097195
 30
0.0
 11
-122.5713674044951
 21
-16.7944388281304
 31
0.0
  0
LINE
  5
278
  8
0
  6
CONTINUOUS
 62
     3
 10
-117.5713367831263
 20
-15.94445167732657
 30
0.0
 11
-117.5713367831263
 21
-23.94445167732657
 31
0.0
  0
LINE
  5
279
  8
0
  6
CONTINUOUS
 62
     3
 10
-122.5713367831263
 20
-16.7944520587963
 30
0.0
 11
-122.5713367831263
 21
-23.09445320320548
 31
0.0
  0
LINE
  5
27A
  8
0
  6
CONTINUOUS
 62
     3
 10
-122.5713367831263
 20
-23.09445320320548
 30
0.0
 11
-102.5713367831263
 21
-23.09445320320548
 31
0.0
  0
LINE
  5
27B
  8
0
  6
CONTINUOUS
 62
     3
 10
-122.5713367831263
 20
-16.7944520587963
 30
0.0
 11
-102.5713367831263
 21
-16.7944520587963
 31
0.0
  0
LINE
  5
27C
  8
0
  6
CONTINUOUS
 62
     3
 10
-102.5713367831263
 20
66.55554832267342
 30
0.0
 11
-102.5713367831263
 21
-80.44445167732656
 31
0.0
  0
LINE
  5
27D
  8
0
  6
CONTINUOUS
 62
     3
 10
-121.3668690096888
 20
132.5555483226735
 30
0.0
 11
-100.5713367831263
 21
132.5555483226735
 31
0.0
  0
LINE
  5
27E
  8
0
  6
CONTINUOUS
 62
     3
 10
-152.5713367831263
 20
-60.44445167732657
 30
0.0
 11
-146.5713367831263
 21
-60.44445167732657
 31
0.0
  0
LINE
  5
27F
  8
0
  6
CONTINUOUS
 62
     3
 10
-146.5713367831263
 20
-60.44445167732657
 30
0.0
 11
-146.5713367831263
 21
-82.44445167732656
 31
0.0
  0
LINE
  5
280
  8
0
  6
CONTINUOUS
 62
     3
 10
-152.5713367831263
 20
-60.44445167732657
 30
0.0
 11
-152.5713367831263
 21
-82.44445167732656
 31
0.0
  0
LINE
  5
281
  8
0
  6
CONTINUOUS
 62
     3
 10
-149.5713628544304
 20
-58.7123983916682
 30
0.0
 11
-146.5713544965815
 21
-60.4444540557307
 31
0.0
  0
LINE
  5
282
  8
0
  6
CONTINUOUS
 62
     3
 10
-104.5713660758479
 20
-82.44444002894406
 30
0.0
 11
-102.5713639526689
 21
-80.44443790576506
 31
0.0
  0
LINE
  5
283
  8
0
  6
CONTINUOUS
 62
     3
 10
-152.5713690301104
 20
-60.44445002189706
 30
0.0
 11
-149.5713606722616
 21
-58.71239435783456
 31
0.0
  0
LINE
  5
284
  8
0
  6
CONTINUOUS
 62
     3
 10
-126.1213856112513
 20
112.4425264720876
 30
0.0
 11
-121.0213489901576
 21
112.4425264720876
 31
0.0
  0
LINE
  5
285
  8
0
  6
CONTINUOUS
 62
     3
 10
-125.0713978182826
 20
108.486041906229
 30
0.0
 11
-125.0713978182826
 21
112.4425264720876
 31
0.0
  0
LINE
  5
286
  8
0
  6
CONTINUOUS
 62
     3
 10
-122.0713978182826
 20
108.2487352024832
 30
0.0
 11
-122.0713978182826
 21
112.4425264720876
 31
0.0
  0
LINE
  5
287
  8
0
  6
CONTINUOUS
 62
     3
 10
-125.5713978182826
 20
124.7918535594899
 30
0.0
 11
-125.5713978182826
 21
123.319716108318
 31
0.0
  0
LINE
  5
288
  8
0
  6
CONTINUOUS
 62
     3
 10
-121.5713978182826
 20
124.7918535594899
 30
0.0
 11
-121.5713978182826
 21
123.319716108318
 31
0.0
  0
LINE
  5
289
  8
0
  6
CONTINUOUS
 62
     3
 10
-120.1788196932826
 20
125.5557695751149
 30
0.0
 11
-126.9640369784388
 21
125.5557695751149
 31
0.0
  0
LINE
  5
28A
  8
0
  6
CONTINUOUS
 62
     3
 10
-119.6213856112513
 20
124.9326921825368
 30
0.0
 11
-119.6213856112513
 21
123.246473920818
 31
0.0
  0
LINE
  5
28B
  8
0
  6
CONTINUOUS
 62
     3
 10
-120.2714100253138
 20
129.7557741527516
 30
0.0
 11
-126.8713856112513
 21
129.7557741527516
 31
0.0
  0
LINE
  5
28C
  8
0
  6
CONTINUOUS
 62
     3
 10
-121.1713149440379
 20
132.055847665505
 30
0.0
 11
-120.2713148437165
 21
129.7558474173065
 31
0.0
  0
LINE
  5
28D
  8
0
  6
CONTINUOUS
 62
     3
 10
-120.9583607089076
 20
128.7557741527516
 30
0.0
 11
-126.2503528964076
 21
128.7557741527516
 31
0.0
  0
LINE
  5
28E
  8
0
  6
CONTINUOUS
 62
     3
 10
-126.8713487665004
 20
129.7557775345157
 30
0.0
 11
-125.9713489606043
 21
132.0557779299269
 31
0.0
  0
LINE
  5
28F
  8
0
  6
CONTINUOUS
 62
     3
 10
-126.1213856112513
 20
112.4425264720876
 30
0.0
 11
-126.1213856112513
 21
122.5557695751149
 31
0.0
  0
LINE
  5
290
  8
0
  6
CONTINUOUS
 62
     3
 10
-126.5713978182826
 20
115.442518842693
 30
0.0
 11
-120.5713978182826
 21
115.442518842693
 31
0.0
  0
LINE
  5
291
  8
0
  6
CONTINUOUS
 62
     3
 10
-121.0213489901576
 20
112.4425264720876
 30
0.0
 11
-121.0213489901576
 21
122.5557695751149
 31
0.0
  0
LINE
  5
292
  8
0
  6
CONTINUOUS
 62
     3
 10
-131.5713978182826
 20
122.555800092693
 30
0.0
 11
-131.5713978182826
 21
132.5555483226735
 31
0.0
  0
LINE
  5
293
  8
0
  6
CONTINUOUS
 62
     3
 10
-120.5713978182826
 20
122.5557085399586
 30
0.0
 11
-126.5713978182826
 21
122.5557085399586
 31
0.0
  0
LINE
  5
294
  8
0
  6
CONTINUOUS
 62
     3
 10
-127.5214100253138
 20
124.9326921825368
 30
0.0
 11
-127.5214100253138
 21
123.2464434032399
 31
0.0
  0
LINE
  5
295
  8
0
  6
CONTINUOUS
 62
     3
 10
-115.5713978182826
 20
122.555800092693
 30
0.0
 11
-131.5713978182826
 21
122.555800092693
 31
0.0
  0
LINE
  5
296
  8
0
  6
CONTINUOUS
 62
     3
 10
-121.1714344393763
 20
132.0557619457204
 30
0.0
 11
-125.9714222323451
 21
132.0557619457204
 31
0.0
  0
ARC
  5
297
  8
0
  6
CONTINUOUS
 62
     3
 10
-123.5713978182826
 20
131.577887189861
 30
0.0
 40
1.200000047683716
 50
23.46796137491541
 51
156.5320077755478
  0
ARC
  5
298
  8
0
  6
CONTINUOUS
 62
     3
 10
-120.5713978182826
 20
123.5586687450368
 30
0.0
 40
1.0
 50
179.9999776881997
 51
341.8082382956906
  0
ARC
  5
299
  8
0
  6
CONTINUOUS
 62
     3
 10
-126.5713978182826
 20
123.5586687450368
 30
0.0
 40
1.0
 50
198.1988974307593
 51
359.9999710095899
  0
ARC
  5
29A
  8
0
  6
CONTINUOUS
 62
     3
 10
-126.5713978182826
 20
124.6204363231618
 30
0.0
 40
1.0
 50
110.7154403325608
 51
161.8050913997161
  0
ARC
  5
29B
  8
0
  6
CONTINUOUS
 62
     3
 10
-126.5713978182826
 20
124.6204363231618
 30
0.0
 40
1.0
 50
359.9999710095899
 51
429.2845236952606
  0
ARC
  5
29C
  8
0
  6
CONTINUOUS
 62
     3
 10
-120.5713978182826
 20
124.6204363231618
 30
0.0
 40
1.0
 50
18.1948640903688
 51
69.28452369526056
  0
ARC
  5
29D
  8
0
  6
CONTINUOUS
 62
     3
 10
-120.5713978182826
 20
124.6204363231618
 30
0.0
 40
1.0
 50
110.7154403325608
 51
179.9999776881997
  0
ARC
  5
29E
  8
0
  6
CONTINUOUS
 62
     3
 10
-129.3674183260951
 20
127.3512636547047
 30
0.0
 40
3.0
 50
323.2379957736454
 51
387.8898190133925
  0
ARC
  5
29F
  8
0
  6
CONTINUOUS
 62
     3
 10
-117.7754383456263
 20
127.3512331371266
 30
0.0
 40
3.0
 50
152.1068511557016
 51
216.7619682541759
  0
ARC
  5
2A0
  8
0
  6
CONTINUOUS
 62
     3
 10
-123.5713978182826
 20
129.7557741527516
 30
0.0
 40
3.299999952316284
 50
179.9999776881997
 51
197.6396788801879
  0
ARC
  5
2A1
  8
0
  6
CONTINUOUS
 62
     3
 10
-123.5713978182826
 20
129.7557741527516
 30
0.0
 40
3.299999952316284
 50
342.3602834400861
 51
359.9999710095899
  0
ARC
  5
2A2
  8
0
  6
CONTINUOUS
 62
     3
 10
-123.5713978182826
 20
125.5557695751149
 30
0.0
 40
3.0
 50
228.1896706800166
 51
269.9999701747652
  0
ARC
  5
2A3
  8
0
  6
CONTINUOUS
 62
     3
 10
-123.5713978182826
 20
122.5557695751149
 30
0.0
 40
3.0
 50
48.18968934935128
 51
131.81027467847
  0
ARC
  5
2A4
  8
0
  6
CONTINUOUS
 62
     3
 10
-123.5713978182826
 20
125.5557695751149
 30
0.0
 40
3.0
 50
269.9999906653327
 51
311.8103038204595
  0
LINE
  5
2A5
  8
0
  6
CONTINUOUS
 62
     3
 10
-153.6642971399627
 20
50.05552504365995
 30
0.0
 11
-152.6642964155852
 21
51.05553723205447
 31
0.0
  0
LINE
  5
2A6
  8
0
  6
CONTINUOUS
 62
     3
 10
-152.6643252474817
 20
56.55554832267342
 30
0.0
 11
-150.6643252474817
 21
56.55554832267342
 31
0.0
  0
LINE
  5
2A7
  8
0
  6
CONTINUOUS
 62
     3
 10
-135.6643252474817
 20
56.05554832267342
 30
0.0
 11
-135.6643252474817
 21
50.05554832267342
 31
0.0
  0
LINE
  5
2A8
  8
0
  6
CONTINUOUS
 62
     3
 10
-153.6643328768763
 20
50.05554832267342
 30
0.0
 11
-153.6643328768763
 21
42.30554832267342
 31
0.0
  0
LINE
  5
2A9
  8
0
  6
CONTINUOUS
 62
     3
 10
-150.6643252474817
 20
56.30554832267342
 30
0.0
 11
-142.6643252474817
 21
56.30554832267342
 31
0.0
  0
LINE
  5
2AA
  8
0
  6
CONTINUOUS
 62
     3
 10
-142.6643252474817
 20
58.05554832267342
 30
0.0
 11
-140.6643252474817
 21
58.05554832267342
 31
0.0
  0
LINE
  5
2AB
  8
0
  6
CONTINUOUS
 62
     3
 10
-184.6643328768763
 20
0.055548322673431
 30
0.0
 11
-184.6643328768763
 21
7.805548322673431
 31
0.0
  0
LINE
  5
2AC
  8
0
  6
CONTINUOUS
 62
     3
 10
-184.6643063450786
 20
0.055538613481886
 30
0.0
 11
-185.6643111998886
 21
-0.944458654887157
 31
0.0
  0
LINE
  5
2AD
  8
0
  6
CONTINUOUS
 62
     3
 10
-140.6643252474817
 20
1.055547845836273
 30
0.0
 11
-131.6643252474817
 21
1.055547845836273
 31
0.0
  0
LINE
  5
2AE
  8
0
  6
CONTINUOUS
 62
     3
 10
-152.6643252474817
 20
-6.444451677326567
 30
0.0
 11
-150.6643252474817
 21
-6.444451677326567
 31
0.0
  0
LINE
  5
2AF
  8
0
  6
CONTINUOUS
 62
     3
 10
-153.66430725524
 20
0.0555645385328631
 30
0.0
 11
-152.6643065308625
 21
-0.9444476498616581
 31
0.0
  0
LINE
  5
2B0
  8
0
  6
CONTINUOUS
 62
     3
 10
-142.6643252474817
 20
-7.944451677326567
 30
0.0
 11
-140.6643252474817
 21
-7.944451677326567
 31
0.0
  0
LINE
  5
2B1
  8
0
  6
CONTINUOUS
 62
     3
 10
-140.6643252474817
 20
-7.444451677326567
 30
0.0
 11
-131.6643252474817
 21
-7.444451677326567
 31
0.0
  0
LINE
  5
2B2
  8
0
  6
CONTINUOUS
 62
     3
 10
-150.6643252474817
 20
-6.194451677326567
 30
0.0
 11
-142.6643252474817
 21
-6.194451677326567
 31
0.0
  0
LINE
  5
2B3
  8
0
  6
CONTINUOUS
 62
     3
 10
-153.6643328768763
 20
0.055548322673431
 30
0.0
 11
-153.6643328768763
 21
7.805548322673431
 31
0.0
  0
LINE
  5
2B4
  8
0
  6
CONTINUOUS
 62
     3
 10
-184.6643328768763
 20
50.05554832267342
 30
0.0
 11
-184.6643328768763
 21
42.30554832267342
 31
0.0
  0
LINE
  5
2B5
  8
0
  6
CONTINUOUS
 62
     3
 10
-185.6643328768763
 20
61.55554832267342
 30
0.0
 11
-185.6643328768763
 21
-11.44441353035391
 31
0.0
  0
LINE
  5
2B6
  8
0
  6
CONTINUOUS
 62
     3
 10
-184.664305839335
 20
50.05556175762002
 30
0.0
 11
-185.664310694145
 21
51.05555902598906
 31
0.0
  0
LINE
  5
2B7
  8
0
  6
CONTINUOUS
 62
     3
 10
-184.6643328768763
 20
50.05554832267342
 30
0.0
 11
-153.6643328768763
 21
50.05554832267342
 31
0.0
  0
LINE
  5
2B8
  8
0
  6
CONTINUOUS
 62
     3
 10
-185.664324005454
 20
61.55551551155975
 30
0.0
 11
-185.1643050563137
 21
62.05551920319511
 31
0.0
  0
LINE
  5
2B9
  8
0
  6
CONTINUOUS
 62
     3
 10
-185.1643050563137
 20
62.05554832267342
 30
0.0
 11
-132.1643507889306
 21
62.05554832267342
 31
0.0
  0
LINE
  5
2BA
  8
0
  6
CONTINUOUS
 62
     3
 10
-132.1643507889306
 20
62.05554832267342
 30
0.0
 11
-131.6643410429011
 21
61.55553474119132
 31
0.0
  0
LINE
  5
2BB
  8
0
  6
CONTINUOUS
 62
     3
 10
-140.6643252474817
 20
49.05554832267342
 30
0.0
 11
-131.6643252474817
 21
49.05554832267342
 31
0.0
  0
LINE
  5
2BC
  8
0
  6
CONTINUOUS
 62
     3
 10
-140.6643252474817
 20
50.05554832267342
 30
0.0
 11
-131.6643252474817
 21
50.05554832267342
 31
0.0
  0
LINE
  5
2BD
  8
0
  6
CONTINUOUS
 62
     3
 10
-140.6643252474817
 20
56.05554832267342
 30
0.0
 11
-131.6643252474817
 21
56.05554832267342
 31
0.0
  0
LINE
  5
2BE
  8
0
  6
CONTINUOUS
 62
     3
 10
-140.6643252474817
 20
57.55554832267342
 30
0.0
 11
-131.6643252474817
 21
57.55554832267342
 31
0.0
  0
LINE
  5
2BF
  8
0
  6
CONTINUOUS
 62
     3
 10
-152.6643252474817
 20
56.55554832267342
 30
0.0
 11
-152.6643252474817
 21
-6.444451677326567
 31
0.0
  0
LINE
  5
2C0
  8
0
  6
CONTINUOUS
 62
     3
 10
-150.6643252474817
 20
56.55554832267342
 30
0.0
 11
-150.6643252474817
 21
-6.444451677326567
 31
0.0
  0
LINE
  5
2C1
  8
0
  6
CONTINUOUS
 62
     3
 10
-140.6643252474817
 20
58.05554832267342
 30
0.0
 11
-140.6643252474817
 21
-7.944451677326567
 31
0.0
  0
LINE
  5
2C2
  8
0
  6
CONTINUOUS
 62
     3
 10
-131.6643252474817
 20
61.55554832267342
 30
0.0
 11
-131.6643252474817
 21
-11.44442878914297
 31
0.0
  0
LINE
  5
2C3
  8
0
  6
CONTINUOUS
 62
     3
 10
-184.6643328768763
 20
0.055548322673431
 30
0.0
 11
-153.6642910395665
 21
0.055548322673431
 31
0.0
  0
LINE
  5
2C4
  8
0
  6
CONTINUOUS
 62
     3
 10
-142.6643252474817
 20
58.05554832267342
 30
0.0
 11
-142.6643252474817
 21
17.04870168703287
 31
0.0
  0
LINE
  5
2C5
  8
0
  6
CONTINUOUS
 62
     3
 10
-142.6643252474817
 20
8.92841804278806
 30
0.0
 11
-142.6643252474817
 21
-7.944451677326567
 31
0.0
  0
LINE
  5
2C6
  8
0
  6
CONTINUOUS
 62
     3
 10
-40.52182934465853
 20
-55.0841912908419
 30
0.0
 11
-40.5218293446585
 21
-39.08419129084186
 31
0.0
  0
LINE
  5
2C7
  8
0
  6
CONTINUOUS
 62
     3
 10
-28.5218293446585
 20
-62.08422180841998
 30
0.0
 11
-28.5218293446585
 21
-54.08419129084186
 31
0.0
  0
LINE
  5
2C8
  8
0
  6
CONTINUOUS
 62
     3
 10
-38.0218293446585
 20
-75.58419129084186
 30
0.0
 11
-38.02182934465849
 21
-40.08419129084186
 31
0.0
  0
LINE
  5
2C9
  8
0
  6
CONTINUOUS
 62
     3
 10
-30.52182934465853
 20
-47.08419129084187
 30
0.0
 11
-27.52182934465853
 21
-47.08419129084187
 31
0.0
  0
LINE
  5
2CA
  8
0
  6
CONTINUOUS
 62
     3
 10
-27.52182934465853
 20
-47.08419129084187
 30
0.0
 11
-27.52182934465853
 21
-38.08418366144734
 31
0.0
  0
LINE
  5
2CB
  8
0
  6
CONTINUOUS
 62
     3
 10
-30.52182934465853
 20
-54.08419129084186
 30
0.0
 11
-30.52182934465853
 21
-47.08419129084187
 31
0.0
  0
LINE
  5
2CC
  8
0
  6
CONTINUOUS
 62
     3
 10
-13.52182934465853
 20
-47.08419129084189
 30
0.0
 11
-13.52182934465853
 21
-38.08418366144736
 31
0.0
  0
LINE
  5
2CD
  8
0
  6
CONTINUOUS
 62
     3
 10
-27.52182934465853
 20
-38.08418366144734
 30
0.0
 11
-20.5218293446585
 21
-38.08418366144737
 31
0.0
  0
LINE
  5
2CE
  8
0
  6
CONTINUOUS
 62
     3
 10
-48.52182934465853
 20
-71.08419129084189
 30
0.0
 11
-40.52182934465851
 21
-71.08419129084189
 31
0.0
  0
LINE
  5
2CF
  8
0
  6
CONTINUOUS
 62
     3
 10
-48.52182934465854
 20
-55.08419129084189
 30
0.0
 11
-40.52182934465853
 21
-55.0841912908419
 31
0.0
  0
LINE
  5
2D0
  8
0
  6
CONTINUOUS
 62
     3
 10
-40.5218293446585
 20
-39.08419129084186
 30
0.0
 11
-27.52182934465853
 21
-39.08419129084186
 31
0.0
  0
LINE
  5
2D1
  8
0
  6
CONTINUOUS
 62
     3
 10
-80.5218293446585
 20
-41.08419129084189
 30
0.0
 11
-40.52182934465851
 21
-41.08419129084189
 31
0.0
  0
LINE
  5
2D2
  8
0
  6
CONTINUOUS
 62
     3
 10
-40.5218293446585
 20
-75.58419129084186
 30
0.0
 11
-40.52182934465851
 21
-71.08419129084189
 31
0.0
  0
LINE
  5
2D3
  8
0
  6
CONTINUOUS
 62
     3
 10
-48.52182934465853
 20
-71.08419129084189
 30
0.0
 11
-48.52182934465854
 21
-55.08419129084189
 31
0.0
  0
LINE
  5
2D4
  8
0
  6
CONTINUOUS
 62
     3
 10
-28.5218293446585
 20
-30.08419129084186
 30
0.0
 11
-28.5218293446585
 21
-20.08418747614462
 31
0.0
  0
LINE
  5
2D5
  8
0
  6
CONTINUOUS
 62
     3
 10
-30.02182934465853
 20
-53.08419129084187
 30
0.0
 11
-30.02182934465853
 21
-47.08419129084187
 31
0.0
  0
LINE
  5
2D6
  8
0
  6
CONTINUOUS
 62
     3
 10
-20.5218293446585
 20
-38.08418366144737
 30
0.0
 11
-13.52182934465853
 21
-38.08418366144736
 31
0.0
  0
LINE
  5
2D7
  8
0
  6
CONTINUOUS
 62
     3
 10
-20.52184570729767
 20
-66.08420401503653
 30
0.0
 11
-23.98594702184235
 21
-64.0842035381994
 31
0.0
  0
LINE
  5
2D8
  8
0
  6
CONTINUOUS
 62
     3
 10
-23.98594067278353
 20
-64.08422180842001
 30
0.0
 11
-23.98594067278353
 21
-60.08422180842001
 31
0.0
  0
LINE
  5
2D9
  8
0
  6
CONTINUOUS
 62
     3
 10
-23.9859169552299
 20
-60.08421568425558
 30
0.0
 11
-20.52181444859232
 21
-58.08421711476704
 31
0.0
  0
LINE
  5
2DA
  8
0
  6
CONTINUOUS
 62
     3
 10
-20.52183785871853
 20
-58.08421201245993
 30
0.0
 11
-17.05773749784819
 21
-60.08421439664572
 31
0.0
  0
LINE
  5
2DB
  8
0
  6
CONTINUOUS
 62
     3
 10
-17.05771801653353
 20
-60.08422180842001
 30
0.0
 11
-17.05771801653353
 21
-64.08422180842001
 31
0.0
  0
LINE
  5
2DC
  8
0
  6
CONTINUOUS
 62
     3
 10
-17.05773691214998
 20
-64.08421556171754
 30
0.0
 11
-20.52183894195036
 21
-66.08421460804323
 31
0.0
  0
LINE
  5
2DD
  8
0
  6
CONTINUOUS
 62
     3
 10
-15.52182934465853
 20
-38.08418366144736
 30
0.0
 11
-15.52182934465853
 21
-30.08419129084186
 31
0.0
  0
LINE
  5
2DE
  8
0
  6
CONTINUOUS
 62
     3
 10
-25.52182934465853
 20
-38.08418366144736
 30
0.0
 11
-25.5218293446585
 21
-30.08419129084186
 31
0.0
  0
CIRCLE
  5
2DF
  8
0
  6
CONTINUOUS
 62
     3
 10
-20.52182934465847
 20
-62.08422180842
 30
0.0
 40
3.299999952316284
  0
CIRCLE
  5
2E0
  8
0
  6
CONTINUOUS
 62
     3
 10
-20.52182934465847
 20
-62.08422180842
 30
0.0
 40
0.75
  0
CIRCLE
  5
2E1
  8
0
  6
CONTINUOUS
 62
     3
 10
-20.52182934465847
 20
-62.08422180842
 30
0.0
 40
2.400000095367432
  0
LINE
  5
2E2
  8
0
  6
CONTINUOUS
 62
     3
 10
-0.5218293446585278
 20
-55.08419129084189
 30
0.0
 11
-0.5218293446585278
 21
-39.08419129084186
 31
0.0
  0
LINE
  5
2E3
  8
0
  6
CONTINUOUS
 62
     3
 10
-0.5218293446585278
 20
-55.08419129084189
 30
0.0
 11
7.478170655341557
 21
-55.08419129084189
 31
0.0
  0
LINE
  5
2E4
  8
0
  6
CONTINUOUS
 62
     3
 10
-12.52182934465853
 20
-62.08422180841998
 30
0.0
 11
-12.52182934465853
 21
-54.08419129084186
 31
0.0
  0
LINE
  5
2E5
  8
0
  6
CONTINUOUS
 62
     3
 10
-0.5218293446585847
 20
-71.08419129084186
 30
0.0
 11
7.478170655341529
 21
-71.08419129084183
 31
0.0
  0
LINE
  5
2E6
  8
0
  6
CONTINUOUS
 62
     3
 10
-3.021829344658585
 20
-75.58419129084183
 30
0.0
 11
-3.021829344658528
 21
-40.08419129084183
 31
0.0
  0
LINE
  5
2E7
  8
0
  6
CONTINUOUS
 62
     3
 10
-0.5218293446585278
 20
-41.08419129084189
 30
0.0
 11
37.38198622390982
 21
-41.08419129084183
 31
0.0
  0
LINE
  5
2E8
  8
0
  6
CONTINUOUS
 62
     3
 10
-10.5218293446585
 20
-54.08419129084187
 30
0.0
 11
-10.52182934465853
 21
-47.08419129084189
 31
0.0
  0
LINE
  5
2E9
  8
0
  6
CONTINUOUS
 62
     3
 10
7.478170655341529
 20
-71.08419129084183
 30
0.0
 11
7.478170655341557
 21
-55.08419129084189
 31
0.0
  0
LINE
  5
2EA
  8
0
  6
CONTINUOUS
 62
     3
 10
-0.5218293446585562
 20
-75.58419129084183
 30
0.0
 11
-0.5218293446585847
 21
-71.08419129084186
 31
0.0
  0
LINE
  5
2EB
  8
0
  6
CONTINUOUS
 62
     3
 10
-12.52182934465853
 20
-30.08419129084186
 30
0.0
 11
-12.52182934465853
 21
-20.08418747614461
 31
0.0
  0
LINE
  5
2EC
  8
0
  6
CONTINUOUS
 62
     3
 10
-11.0218293446585
 20
-53.08419129084189
 30
0.0
 11
-11.0218293446585
 21
-47.08419129084189
 31
0.0
  0
LINE
  5
2ED
  8
0
  6
CONTINUOUS
 62
     3
 10
150.9598113140904
 20
78.68256248282972
 30
0.0
 11
150.9598113140904
 21
66.55554832267342
 31
0.0
  0
LINE
  5
2EE
  8
0
  6
CONTINUOUS
 62
     3
 10
123.9598113140904
 20
66.55554832267342
 30
0.0
 11
143.9598113140904
 21
66.55554832267342
 31
0.0
  0
LINE
  5
2EF
  8
0
  6
CONTINUOUS
 62
     3
 10
145.9597636768084
 20
-74.68080407784186
 30
0.0
 11
145.959763665367
 21
-73.20863612890898
 31
0.0
  0
LINE
  5
2F0
  8
0
  6
CONTINUOUS
 62
     3
 10
136.959763439606
 20
-28.57149080362989
 30
0.0
 11
136.9597633453572
 21
-16.4444768067175
 31
0.0
  0
LINE
  5
2F1
  8
0
  6
CONTINUOUS
 62
     3
 10
150.9597636698403
 20
-82.44447580947465
 30
0.0
 11
150.9597635445042
 21
-66.31746186640694
 31
0.0
  0
LINE
  5
2F2
  8
0
  6
CONTINUOUS
 62
     3
 10
115.9597641191156
 20
-79.63099955686079
 30
0.0
 11
115.9597641121435
 21
-78.73390484237423
 31
0.0
  0
LINE
  5
2F3
  8
0
  6
CONTINUOUS
 62
     3
 10
115.9597788940791
 20
-79.63101837529176
 30
0.0
 11
126.4597709840289
 21
-82.44448275274598
 31
0.0
  0
LINE
  5
2F4
  8
0
  6
CONTINUOUS
 62
     3
 10
147.2597525399542
 20
-79.64470290436475
 30
0.0
 11
146.3597638206783
 21
-81.94467495571989
 31
0.0
  0
LINE
  5
2F5
  8
0
  6
CONTINUOUS
 62
     3
 10
140.0097820685433
 20
-74.82161222765731
 30
0.0
 11
140.0097820554383
 21
-73.13539398863703
 31
0.0
  0
LINE
  5
2F6
  8
0
  6
CONTINUOUS
 62
     3
 10
141.5598004135846
 20
-81.94472002988172
 30
0.0
 11
146.3597881419399
 21
-81.94471999257712
 31
0.0
  0
LINE
  5
2F7
  8
0
  6
CONTINUOUS
 62
     3
 10
147.9097758586845
 20
-74.82161216626002
 30
0.0
 11
147.9097758455795
 21
-73.13539392723976
 31
0.0
  0
LINE
  5
2F8
  8
0
  6
CONTINUOUS
 62
     3
 10
141.3467266603372
 20
-78.64473228299065
 30
0.0
 11
146.6387492941785
 21
-78.64473224186204
 31
0.0
  0
LINE
  5
2F9
  8
0
  6
CONTINUOUS
 62
     3
 10
140.6598065113401
 20
-79.64473227486809
 30
0.0
 11
147.2597820084342
 21
-79.64473222357432
 31
0.0
  0
LINE
  5
2FA
  8
0
  6
CONTINUOUS
 62
     3
 10
141.5596912133291
 20
-81.94476941895721
 30
0.0
 11
140.6596911122167
 21
-79.6447691832407
 31
0.0
  0
LINE
  5
2FB
  8
0
  6
CONTINUOUS
 62
     3
 10
141.9597942482308
 20
-74.68080410892887
 30
0.0
 11
141.9597942367894
 21
-73.20863615999598
 31
0.0
  0
LINE
  5
2FC
  8
0
  6
CONTINUOUS
 62
     3
 10
161.459763528498
 20
-82.44447572787064
 30
0.0
 11
146.1641704726759
 21
-82.44447584674512
 31
0.0
  0
LINE
  5
2FD
  8
0
  6
CONTINUOUS
 62
     3
 10
150.9597632511496
 20
-28.57149069482453
 30
0.0
 11
150.9597631569007
 21
-16.44447669791212
 31
0.0
  0
LINE
  5
2FE
  8
0
  6
CONTINUOUS
 62
     3
 10
150.9597635921222
 20
-72.44447594408641
 30
0.0
 11
136.9597637805786
 21
-72.44447605289176
 31
0.0
  0
LINE
  5
2FF
  8
0
  6
CONTINUOUS
 62
     3
 10
150.9597632035316
 20
-22.44447661714508
 30
0.0
 11
136.959763391988
 21
-22.44447672595045
 31
0.0
  0
LINE
  5
300
  8
0
  6
CONTINUOUS
 62
     3
 10
140.5672161479135
 20
-75.44472012509351
 30
0.0
 11
147.3524028241551
 21
-75.44472007236033
 31
0.0
  0
LINE
  5
301
  8
0
  6
CONTINUOUS
 62
     3
 10
136.9597637805805
 20
-72.44472019351349
 30
0.0
 11
150.9597635921241
 21
-72.44472008470811
 31
0.0
  0
LINE
  5
302
  8
0
  6
CONTINUOUS
 62
     3
 10
163.9597629819054
 20
-16.44447659687858
 30
0.0
 11
143.9597632511289
 21
-16.44447675231481
 31
0.0
  0
LINE
  5
303
  8
0
  6
CONTINUOUS
 62
     3
 10
150.959763484304
 20
-58.57149029098932
 30
0.0
 11
150.9597633113498
 21
-36.31746227024215
 31
0.0
  0
LINE
  5
304
  8
0
  6
CONTINUOUS
 62
     3
 10
136.9597636727604
 20
-58.57149039979469
 30
0.0
 11
136.9597634998062
 21
-36.31746237904753
 31
0.0
  0
LINE
  5
305
  8
0
  6
CONTINUOUS
 62
     3
 10
136.9597638582967
 20
-82.44447591828003
 30
0.0
 11
136.9597637329606
 21
-66.31746197521233
 31
0.0
  0
LINE
  5
306
  8
0
  6
CONTINUOUS
 62
     3
 10
136.9598113140904
 20
108.6825624828297
 30
0.0
 11
136.9598113140904
 21
86.42853416251722
 31
0.0
  0
LINE
  5
307
  8
0
  6
CONTINUOUS
 62
     3
 10
150.9598113140904
 20
108.6825624828297
 30
0.0
 11
150.9598113140904
 21
86.42853416251722
 31
0.0
  0
LINE
  5
308
  8
0
  6
CONTINUOUS
 62
     3
 10
150.9598113140904
 20
132.5555483226735
 30
0.0
 11
150.9598113140904
 21
116.4285341625173
 31
0.0
  0
LINE
  5
309
  8
0
  6
CONTINUOUS
 62
     3
 10
136.9598113140904
 20
78.68256248282972
 30
0.0
 11
136.9598113140904
 21
66.55554832267342
 31
0.0
  0
LINE
  5
30A
  8
0
  6
CONTINUOUS
 62
     3
 10
136.9598113140904
 20
132.5555483226735
 30
0.0
 11
136.9598113140904
 21
116.4285341625173
 31
0.0
  0
LINE
  5
30B
  8
0
  6
CONTINUOUS
 62
     3
 10
136.9598113140904
 20
122.5555483226735
 30
0.0
 11
150.9598113140904
 21
122.5555483226735
 31
0.0
  0
LINE
  5
30C
  8
0
  6
CONTINUOUS
 62
     3
 10
126.4598113140904
 20
132.5555483226735
 30
0.0
 11
141.7554045758091
 21
132.5555483226735
 31
0.0
  0
LINE
  5
30D
  8
0
  6
CONTINUOUS
 62
     3
 10
136.9598113140904
 20
72.55554832267342
 30
0.0
 11
150.9598113140904
 21
72.55554832267342
 31
0.0
  0
LINE
  5
30E
  8
0
  6
CONTINUOUS
 62
     3
 10
141.7552349851503
 20
-82.44447588101053
 30
0.0
 11
126.4597639996391
 21
-82.44447599988405
 31
0.0
  0
LINE
  5
30F
  8
0
  6
CONTINUOUS
 62
     3
 10
143.9597632511289
 20
-16.44447675231481
 30
0.0
 11
123.9597635203524
 21
-16.44447690775105
 31
0.0
  0
LINE
  5
310
  8
0
  6
CONTINUOUS
 62
     3
 10
146.1643401226841
 20
132.5555483226735
 30
0.0
 11
161.4598113140904
 21
132.5555483226735
 31
0.0
  0
LINE
  5
311
  8
0
  6
CONTINUOUS
 62
     3
 10
150.9598113140904
 20
122.555800092693
 30
0.0
 11
136.9598113140904
 21
122.555800092693
 31
0.0
  0
LINE
  5
312
  8
0
  6
CONTINUOUS
 62
     3
 10
141.9598113140904
 20
124.7918535594899
 30
0.0
 11
141.9598113140904
 21
123.319716108318
 31
0.0
  0
LINE
  5
313
  8
0
  6
CONTINUOUS
 62
     3
 10
147.3523894390904
 20
125.5557695751149
 30
0.0
 11
140.5671721539341
 21
125.5557695751149
 31
0.0
  0
LINE
  5
314
  8
0
  6
CONTINUOUS
 62
     3
 10
147.9097624859654
 20
124.9326921825368
 30
0.0
 11
147.9097624859654
 21
123.246473920818
 31
0.0
  0
LINE
  5
315
  8
0
  6
CONTINUOUS
 62
     3
 10
147.2597380719029
 20
129.7557741527516
 30
0.0
 11
140.6597624859654
 21
129.7557741527516
 31
0.0
  0
LINE
  5
316
  8
0
  6
CONTINUOUS
 62
     3
 10
146.3598842467821
 20
132.0558565708424
 30
0.0
 11
147.2598843471035
 21
129.7558563226439
 31
0.0
  0
LINE
  5
317
  8
0
  6
CONTINUOUS
 62
     3
 10
146.5728484234654
 20
128.7557741527516
 30
0.0
 11
141.2808562359654
 21
128.7557741527516
 31
0.0
  0
LINE
  5
318
  8
0
  6
CONTINUOUS
 62
     3
 10
140.0097991070591
 20
124.9326921825368
 30
0.0
 11
140.0097991070591
 21
123.2464434032399
 31
0.0
  0
LINE
  5
319
  8
0
  6
CONTINUOUS
 62
     3
 10
146.3597746929966
 20
132.0557619457204
 30
0.0
 11
141.5597869000279
 21
132.0557619457204
 31
0.0
  0
LINE
  5
31A
  8
0
  6
CONTINUOUS
 62
     3
 10
140.6598134443951
 20
129.7557794897338
 30
0.0
 11
141.5598132502913
 21
132.055779885145
 31
0.0
  0
LINE
  5
31B
  8
0
  6
CONTINUOUS
 62
     3
 10
145.9598113140904
 20
124.7918535594899
 30
0.0
 11
145.9598113140904
 21
123.319716108318
 31
0.0
  0
LINE
  5
31C
  8
0
  6
CONTINUOUS
 62
     3
 10
115.9598113140904
 20
129.7420870189625
 30
0.0
 11
115.9598113140904
 21
128.8449922924
 31
0.0
  0
LINE
  5
31D
  8
0
  6
CONTINUOUS
 62
     3
 10
171.9598113140904
 20
129.7420870189625
 30
0.0
 11
171.9598113140904
 21
128.8449922924
 31
0.0
  0
LINE
  5
31E
  8
0
  6
CONTINUOUS
 62
     3
 10
163.9598113140904
 20
131.8856722240407
 30
0.0
 11
163.9598113140904
 21
56.1843134288746
 31
0.0
  0
LINE
  5
31F
  8
0
  6
CONTINUOUS
 62
     3
 10
171.9598020201841
 20
129.7420958261309
 30
0.0
 11
161.4597804643084
 21
132.5555681461182
 31
0.0
  0
LINE
  5
320
  8
0
  6
CONTINUOUS
 62
     3
 10
123.9598113140904
 20
131.8856722240407
 30
0.0
 11
123.9598113140904
 21
56.1843134288746
 31
0.0
  0
LINE
  5
321
  8
0
  6
CONTINUOUS
 62
     3
 10
115.9597719406941
 20
129.7420892494419
 30
0.0
 11
126.4597934965698
 21
132.5555615694292
 31
0.0
  0
LINE
  5
322
  8
0
  6
CONTINUOUS
 62
     3
 10
143.9598113140904
 20
66.55554832267342
 30
0.0
 11
163.9598113140904
 21
66.55554832267342
 31
0.0
  0
LINE
  5
323
  8
0
  6
CONTINUOUS
 62
     3
 10
189.6598129562529
 20
98.05556265431909
 30
0.0
 11
186.809815841117
 21
93.11921990475361
 31
0.0
  0
LINE
  5
324
  8
0
  6
CONTINUOUS
 62
     3
 10
186.8098694162996
 20
93.11919564723729
 30
0.0
 11
181.1098572092683
 21
93.11919326304593
 31
0.0
  0
LINE
  5
325
  8
0
  6
CONTINUOUS
 62
     3
 10
181.1098674813923
 20
93.11922381017297
 30
0.0
 11
178.2598579804047
 21
98.05557705626137
 31
0.0
  0
LINE
  5
326
  8
0
  6
CONTINUOUS
 62
     3
 10
178.2598140365047
 20
98.0555477971256
 30
0.0
 11
181.1098182714107
 21
102.991904440686
 31
0.0
  0
LINE
  5
327
  8
0
  6
CONTINUOUS
 62
     3
 10
181.1098792899102
 20
102.9918873413147
 30
0.0
 11
186.8098304617852
 21
102.9918882949809
 31
0.0
  0
LINE
  5
328
  8
0
  6
CONTINUOUS
 62
     3
 10
186.8098070592963
 20
102.9918922535971
 30
0.0
 11
189.6598141820535
 21
98.05553730877267
 31
0.0
  0
LINE
  5
329
  8
0
  6
CONTINUOUS
 62
     3
 10
163.959763489639
 20
-81.77461487761447
 30
0.0
 11
163.9597629013023
 21
-6.073260916174824
 31
0.0
  0
LINE
  5
32A
  8
0
  6
CONTINUOUS
 62
     3
 10
123.959764028086
 20
-81.77461518848696
 30
0.0
 11
123.9597634397493
 21
-6.07326122704729
 31
0.0
  0
CIRCLE
  5
32B
  8
0
  6
CONTINUOUS
 62
     3
 10
143.9598113140904
 20
25.05554832267343
 30
0.0
 40
37.0
  0
ARC
  5
32C
  8
0
  6
CONTINUOUS
 62
     3
 10
143.9598113140904
 20
25.05554832267343
 30
0.0
 40
105.5
 50
280.927866382251
 51
439.072109643808
  0
ARC
  5
32D
  8
0
  6
CONTINUOUS
 62
     3
 10
143.9598113140904
 20
25.05554832267343
 30
0.0
 40
107.5
 50
100.7221495767801
 51
259.2778219288531
  0
CIRCLE
  5
32E
  8
0
  6
CONTINUOUS
 62
     3
 10
143.9598113140904
 20
25.05554832267343
 30
0.0
 40
32.5
  0
ARC
  5
32F
  8
0
  6
CONTINUOUS
 62
     3
 10
143.9598113140904
 20
25.05554832267343
 30
0.0
 40
40.0
 50
120.0000033393042
 51
239.9999208615928
  0
ARC
  5
330
  8
0
  6
CONTINUOUS
 62
     3
 10
143.9598197469185
 20
-75.44467217560617
 30
0.0
 40
3.0
 50
48.18967060422625
 51
89.99997009897479
  0
ARC
  5
331
  8
0
  6
CONTINUOUS
 62
     3
 10
143.9598233892887
 20
-72.44466586683589
 30
0.0
 40
3.0
 50
228.1896926886555
 51
311.8102780177742
  0
ARC
  5
332
  8
0
  6
CONTINUOUS
 62
     3
 10
138.1638169563822
 20
-77.24016280725297
 30
0.0
 40
3.0
 50
332.1068513072823
 51
396.7619684057566
  0
ARC
  5
333
  8
0
  6
CONTINUOUS
 62
     3
 10
143.9598138298842
 20
-79.64469463124155
 30
0.0
 40
3.299999952316284
 50
162.3602816567484
 51
179.9999760185476
  0
ARC
  5
334
  8
0
  6
CONTINUOUS
 62
     3
 10
143.9598113140904
 20
25.05554832267343
 30
0.0
 40
40.0
 50
300.0000051605371
 51
420.0000016696521
  0
ARC
  5
335
  8
0
  6
CONTINUOUS
 62
     3
 10
143.9598113140904
 20
25.05554832267343
 30
0.0
 40
107.5
 50
280.7221264678516
 51
360.0
  0
ARC
  5
336
  8
0
  6
CONTINUOUS
 62
     3
 10
143.9598113140904
 20
25.05554832267343
 30
0.0
 40
107.5
 50
0.0
 51
79.27784860198709
  0
CIRCLE
  5
337
  8
0
  6
CONTINUOUS
 62
     3
 10
143.9598113140904
 20
25.05554832267343
 30
0.0
 40
24.0
  0
ARC
  5
338
  8
0
  6
CONTINUOUS
 62
     3
 10
149.7557956054592
 20
-77.24019727723749
 30
0.0
 40
3.0
 50
143.2379991129497
 51
207.889824060244
  0
ARC
  5
339
  8
0
  6
CONTINUOUS
 62
     3
 10
143.9598138298842
 20
-79.64469463124155
 30
0.0
 40
3.299999952316284
 50
359.9999778397803
 51
377.6396790317687
  0
ARC
  5
33A
  8
0
  6
CONTINUOUS
 62
     3
 10
146.959795515806
 20
-73.44761262573789
 30
0.0
 40
1.0
 50
18.19889735496888
 51
179.9999760185476
  0
ARC
  5
33B
  8
0
  6
CONTINUOUS
 62
     3
 10
140.959794460952
 20
-73.44761201671766
 30
0.0
 40
1.0
 50
359.9999778397803
 51
521.8082384472714
  0
ARC
  5
33C
  8
0
  6
CONTINUOUS
 62
     3
 10
140.9598059942844
 20
-74.50935961852505
 30
0.0
 40
1.0
 50
290.7154336539523
 51
359.9999778397803
  0
ARC
  5
33D
  8
0
  6
CONTINUOUS
 62
     3
 10
146.9598070491383
 20
-74.50936022754527
 30
0.0
 40
1.0
 50
290.7154336539523
 51
341.8050915512968
  0
ARC
  5
33E
  8
0
  6
CONTINUOUS
 62
     3
 10
140.9598059942844
 20
-74.50935961852505
 30
0.0
 40
1.0
 50
198.1948623070311
 51
249.2845270345648
  0
ARC
  5
33F
  8
0
  6
CONTINUOUS
 62
     3
 10
143.9598197469185
 20
-75.44467217560617
 30
0.0
 40
3.0
 50
89.99999058954229
 51
131.8103071597637
  0
ARC
  5
340
  8
0
  6
CONTINUOUS
 62
     3
 10
146.9598070491383
 20
-74.50936022754527
 30
0.0
 40
1.0
 50
179.9999760185476
 51
249.2845270345648
  0
ARC
  5
341
  8
0
  6
CONTINUOUS
 62
     3
 10
143.9598104543922
 20
-81.46681351487453
 30
0.0
 40
1.200000047683716
 50
203.4679595915777
 51
336.532011114852
  0
CIRCLE
  5
342
  8
0
  6
CONTINUOUS
 62
     3
 10
201.7020715803893
 20
58.39306785165253
 30
0.0
 40
7.0
  0
ARC
  5
343
  8
0
  6
CONTINUOUS
 62
     3
 10
143.9598113140904
 20
25.05554832267343
 30
0.0
 40
105.5
 50
100.9278953651484
 51
259.07208098257
  0
CIRCLE
  5
344
  8
0
  6
CONTINUOUS
 62
     3
 10
182.9309416851841
 20
47.55554069327889
 30
0.0
 40
3.150000095367432
  0
CIRCLE
  5
345
  8
0
  6
CONTINUOUS
 62
     3
 10
104.9886809429966
 20
47.55556358146249
 30
0.0
 40
3.150000095367432
  0
CIRCLE
  5
346
  8
0
  6
CONTINUOUS
 62
     3
 10
201.7020715803893
 20
58.39306785165253
 30
0.0
 40
10.0
  0
ARC
  5
347
  8
0
  6
CONTINUOUS
 62
     3
 10
143.9597770594629
 20
25.05552854575509
 30
0.0
 40
41.5
 50
241.1886254915443
 51
298.8113798205735
  0
ARC
  5
348
  8
0
  6
CONTINUOUS
 62
     3
 10
146.9598113140904
 20
124.6204363231618
 30
0.0
 40
1.0
 50
110.7154403325608
 51
179.9999776881997
  0
ARC
  5
349
  8
0
  6
CONTINUOUS
 62
     3
 10
143.9598113140904
 20
125.5557695751149
 30
0.0
 40
3.0
 50
269.9999906653327
 51
311.8103038204595
  0
ARC
  5
34A
  8
0
  6
CONTINUOUS
 62
     3
 10
143.9598113140904
 20
122.5557695751149
 30
0.0
 40
3.0
 50
48.18968934935128
 51
131.81027467847
  0
ARC
  5
34B
  8
0
  6
CONTINUOUS
 62
     3
 10
143.9598113140904
 20
125.5557695751149
 30
0.0
 40
3.0
 50
228.1896706800166
 51
269.9999701747652
  0
ARC
  5
34C
  8
0
  6
CONTINUOUS
 62
     3
 10
143.9598113140904
 20
129.7557741527516
 30
0.0
 40
3.299999952316284
 50
342.3602834400861
 51
359.9999710095899
  0
ARC
  5
34D
  8
0
  6
CONTINUOUS
 62
     3
 10
143.9598113140904
 20
129.7557741527516
 30
0.0
 40
3.299999952316284
 50
179.9999776881997
 51
197.6396788801879
  0
ARC
  5
34E
  8
0
  6
CONTINUOUS
 62
     3
 10
149.7557707867466
 20
127.3512331371266
 30
0.0
 40
3.0
 50
152.1068511557016
 51
216.7619682541759
  0
ARC
  5
34F
  8
0
  6
CONTINUOUS
 62
     3
 10
138.1637908062779
 20
127.3512636547047
 30
0.0
 40
3.0
 50
323.2379957736454
 51
387.8898190133925
  0
ARC
  5
350
  8
0
  6
CONTINUOUS
 62
     3
 10
143.9598113140904
 20
131.577887189861
 30
0.0
 40
1.200000047683716
 50
23.46796137491541
 51
156.5320077755478
  0
ARC
  5
351
  8
0
  6
CONTINUOUS
 62
     3
 10
140.9598113140904
 20
123.5586687450368
 30
0.0
 40
1.0
 50
198.1988974307593
 51
359.9999710095899
  0
ARC
  5
352
  8
0
  6
CONTINUOUS
 62
     3
 10
140.9598113140904
 20
124.6204363231618
 30
0.0
 40
1.0
 50
110.7154403325608
 51
161.8050913997161
  0
ARC
  5
353
  8
0
  6
CONTINUOUS
 62
     3
 10
140.9598113140904
 20
124.6204363231618
 30
0.0
 40
1.0
 50
359.9999710095899
 51
429.2845236952606
  0
ARC
  5
354
  8
0
  6
CONTINUOUS
 62
     3
 10
146.9598113140904
 20
124.6204363231618
 30
0.0
 40
1.0
 50
18.1948640903688
 51
69.28452369526056
  0
ARC
  5
355
  8
0
  6
CONTINUOUS
 62
     3
 10
146.9598113140904
 20
123.5586687450368
 30
0.0
 40
1.0
 50
179.9999776881997
 51
341.8082382956906
  0
ARC
  5
356
  8
0
  6
CONTINUOUS
 62
     3
 10
143.9598113140904
 20
25.05554832267343
 30
0.0
 40
41.5
 50
61.18862533996358
 51
118.8113728388036
  0
CIRCLE
  5
357
  8
0
  6
CONTINUOUS
 62
     3
 10
183.9598113140904
 20
98.05554832267347
 30
0.0
 40
3.299999952316284
  0
CIRCLE
  5
358
  8
0
  6
CONTINUOUS
 62
     3
 10
183.9598113140904
 20
98.05554832267347
 30
0.0
 40
2.400000095367432
  0
CIRCLE
  5
359
  8
0
  6
CONTINUOUS
 62
     3
 10
183.9598113140904
 20
98.05554832267347
 30
0.0
 40
0.75
  0
CIRCLE
  5
35A
  8
0
  6
CONTINUOUS
 62
     3
 10
183.9598113140904
 20
98.05554832267347
 30
0.0
 40
9.0
  0
LINE
  5
35B
  8
0
  6
CONTINUOUS
 62
     3
 10
-28.5218293446585
 20
-30.08419129084186
 30
0.0
 11
-12.52182934465853
 21
-30.08419129084186
 31
0.0
  0
LINE
  5
35C
  8
0
  6
CONTINUOUS
 62
     3
 10
-30.52182934465853
 20
-54.08419129084186
 30
0.0
 11
-10.5218293446585
 21
-54.08419129084187
 31
0.0
  0
LINE
  5
35D
  8
0
  6
CONTINUOUS
 62
     3
 10
-40.5218293446585
 20
-75.58419129084186
 30
0.0
 11
-0.5218293446585562
 21
-75.58419129084183
 31
0.0
  0
LINE
  5
35E
  8
0
  6
CONTINUOUS
 62
     3
 10
-13.52182934465853
 20
-47.08419129084189
 30
0.0
 11
-10.52182934465853
 21
-47.08419129084189
 31
0.0
  0
LINE
  5
35F
  8
0
  6
CONTINUOUS
 62
     3
 10
-13.5218293446585
 20
-39.08419129084187
 30
0.0
 11
-0.5218293446585278
 21
-39.08419129084186
 31
0.0
  0
LINE
  5
360
  8
0
  6
CONTINUOUS
 62
     3
 10
-30.02182934465853
 20
-53.08419129084187
 30
0.0
 11
-11.0218293446585
 21
-53.08419129084189
 31
0.0
  0
LINE
  5
361
  8
0
  6
CONTINUOUS
 62
     3
 10
-28.5218293446585
 20
-20.08418747614462
 30
0.0
 11
-12.52182934465853
 21
-20.08418747614461
 31
0.0
  0
ARC
  5
362
  8
0
  6
CONTINUOUS
 62
     3
 10
-20.52182934465847
 20
-62.08422180842
 30
0.0
 40
8.0
 50
179.9999949910437
 51
360.0
  0
LINE
  5
363
  8
0
  6
CONTINUOUS
 62
     3
 10
171.95978412874
 20
-79.63101793981755
 30
0.0
 11
161.459792082793
 21
-82.44448232906228
 31
0.0
  0
LINE
  5
364
  8
0
  6
CONTINUOUS
 62
     3
 10
171.9598484926437
 20
-79.63100223590917
 30
0.0
 11
171.9598485854499
 21
-78.73390752142259
 31
0.0
  0
LINE
  5
365
  8
0
  6
CONTINUOUS
 62
     3
 10
98.25966783979479
 20
-47.94448578589054
 30
0.0
 11
101.1096649549307
 21
-43.00814303632507
 31
0.0
  0
LINE
  5
366
  8
0
  6
CONTINUOUS
 62
     3
 10
101.1096113797481
 20
-43.00811877880874
 30
0.0
 11
106.8096235867793
 21
-43.00811639461738
 31
0.0
  0
LINE
  5
367
  8
0
  6
CONTINUOUS
 62
     3
 10
106.8096133146554
 20
-43.00814694174444
 30
0.0
 11
109.659622815643
 21
-47.94450018783284
 31
0.0
  0
LINE
  5
368
  8
0
  6
CONTINUOUS
 62
     3
 10
109.659666759543
 20
-47.94447092869707
 30
0.0
 11
106.809662524637
 21
-52.88082757225751
 31
0.0
  0
LINE
  5
369
  8
0
  6
CONTINUOUS
 62
     3
 10
106.8096015061375
 20
-52.88081047288615
 30
0.0
 11
101.1096503342625
 21
-52.88081142655236
 31
0.0
  0
LINE
  5
36A
  8
0
  6
CONTINUOUS
 62
     3
 10
101.1096737367514
 20
-52.88081538516855
 30
0.0
 11
98.2596666139942
 21
-47.94446044034414
 31
0.0
  0
CIRCLE
  5
36B
  8
0
  6
CONTINUOUS
 62
     3
 10
103.9596694819573
 20
-47.94447145424494
 30
0.0
 40
3.299999952316284
  0
CIRCLE
  5
36C
  8
0
  6
CONTINUOUS
 62
     3
 10
103.9596694819573
 20
-47.94447145424494
 30
0.0
 40
2.400000095367431
  0
CIRCLE
  5
36D
  8
0
  6
CONTINUOUS
 62
     3
 10
103.9596694819573
 20
-47.94447145424494
 30
0.0
 40
0.7499999999999999
  0
CIRCLE
  5
36E
  8
0
  6
CONTINUOUS
 62
     3
 10
103.9596694819573
 20
-47.94447145424494
 30
0.0
 40
8.999999999999998
  0
LINE
  5
36F
  8
0
  6
CONTINUOUS
 62
     3
 10
-185.664324005454
 20
-11.44441886621289
 30
0.0
 11
-185.1643050563137
 21
-11.94442255784825
 31
0.0
  0
LINE
  5
370
  8
0
  6
CONTINUOUS
 62
     3
 10
-132.1643507889306
 20
-11.94445167732656
 30
0.0
 11
-131.6643410429011
 21
-11.44443809584445
 31
0.0
  0
CIRCLE
  5
371
  8
0
  6
CONTINUOUS
 62
     3
 10
182.9309416851841
 20
2.555555952067969
 30
0.0
 40
3.150000095367432
  0
CIRCLE
  5
372
  8
0
  6
CONTINUOUS
 62
     3
 10
201.7020715803893
 20
-8.281971206305663
 30
0.0
 40
7.0
  0
CIRCLE
  5
373
  8
0
  6
CONTINUOUS
 62
     3
 10
201.7020715803893
 20
-8.281971206305663
 30
0.0
 40
10.0
  0
CIRCLE
  5
374
  8
0
  6
CONTINUOUS
 62
     3
 10
86.2175510477914
 20
58.39306785165253
 30
0.0
 40
7.0
  0
CIRCLE
  5
375
  8
0
  6
CONTINUOUS
 62
     3
 10
86.2175510477914
 20
58.39306785165253
 30
0.0
 40
10.0
  0
CIRCLE
  5
376
  8
0
  6
CONTINUOUS
 62
     3
 10
86.2175510477914
 20
-8.281971206305663
 30
0.0
 40
10.0
  0
CIRCLE
  5
377
  8
0
  6
CONTINUOUS
 62
     3
 10
104.9886809429966
 20
2.555533063884376
 30
0.0
 40
3.150000095367432
  0
LINE
  5
378
  8
0
  6
DASHED2
 62
     7
 10
-102.5713367831263
 20
129.1215731029469
 30
0.0
 11
-102.5713367831263
 21
125.9607302074391
 31
0.0
  0
LINE
  5
379
  8
0
  6
DASHED2
 62
     7
 10
-104.5713660758479
 20
131.1215707691435
 30
0.0
 11
-102.5713423734828
 21
129.1215470667784
 31
0.0
  0
LINE
  5
37A
  8
0
  6
DASHED2
 62
     7
 10
-116.5713367831263
 20
131.1215731029469
 30
0.0
 11
-104.5713367831263
 21
131.1215731029469
 31
0.0
  0
LINE
  5
37B
  8
0
  6
DASHED2
 62
     7
 10
-62.52182934465846
 20
-86.1795229265546
 30
0.0
 11
-62.52182934465851
 21
-70.59061484025963
 31
0.0
  0
LINE
  5
37C
  8
0
  6
DASHED2
 62
     7
 10
-58.52182934465854
 20
-86.60842244858617
 30
0.0
 11
-58.52182934465849
 21
-70.59061891712651
 31
0.0
  0
LINE
  5
37D
  8
0
  6
DASHED2
 62
     7
 10
-57.19640524942798
 20
-69.82537991500942
 30
0.0
 11
-63.84729921625487
 21
-69.82537991500948
 31
0.0
  0
LINE
  5
37E
  8
0
  6
DASHED2
 62
     7
 10
-58.52183703365751
 20
-70.59055475792817
 30
0.0
 11
-62.52184454384248
 21
-70.5905547579282
 31
0.0
  0
LINE
  5
37F
  8
0
  6
DASHED2
 62
     7
 10
-62.52182867531703
 20
-70.59061484025963
 30
0.0
 11
-63.84728910837097
 21
-69.82535988870077
 31
0.0
  0
LINE
  5
380
  8
0
  6
DASHED2
 62
     7
 10
-58.52182875038649
 20
-70.59061891712648
 30
0.0
 11
-57.19636831733256
 21
-69.82536396556765
 31
0.0
  0
LINE
  5
381
  8
0
  6
DASHED2
 62
     7
 10
-63.84727632807199
 20
-69.82536847091802
 30
0.0
 11
-63.847276328072
 21
-64.82537624932394
 31
0.0
  0
LINE
  5
382
  8
0
  6
DASHED2
 62
     7
 10
-16.5218293446585
 20
-53.08416840265825
 30
0.0
 11
-16.52182934465853
 21
-38.08418366144736
 31
0.0
  0
LINE
  5
383
  8
0
  6
DASHED2
 62
     7
 10
-25.5218293446585
 20
-53.08416840265825
 30
0.0
 11
-25.52182934465853
 21
-38.08418366144736
 31
0.0
  0
LINE
  5
384
  8
0
  6
DASHED2
 62
     7
 10
-25.52182934465853
 20
-50.08419129084189
 30
0.0
 11
-15.52182934465853
 21
-50.08419129084187
 31
0.0
  0
LINE
  5
385
  8
0
  6
DASHED2
 62
     7
 10
-24.5218293446585
 20
-53.08416840265824
 30
0.0
 11
-24.52182934465853
 21
-38.08418366144734
 31
0.0
  0
LINE
  5
386
  8
0
  6
DASHED2
 62
     7
 10
-15.5218293446585
 20
-53.08416840265824
 30
0.0
 11
-15.52182934465853
 21
-38.08418366144736
 31
0.0
  0
LINE
  5
387
  8
0
  6
DASHED2
 62
     7
 10
-66.22184155168975
 20
-50.78812528768434
 30
0.0
 11
-66.22184155168978
 21
-53.9106228462781
 31
0.0
  0
LINE
  5
388
  8
0
  6
DASHED2
 62
     7
 10
-57.628152586846
 20
-51.09327055135623
 30
0.0
 11
-57.628152586846
 21
-53.60548521200076
 31
0.0
  0
LINE
  5
389
  8
0
  6
DASHED2
 62
     7
 10
-63.41544506731475
 20
-51.09327055135623
 30
0.0
 11
-63.41544506731475
 21
-53.60548521200076
 31
0.0
  0
LINE
  5
38A
  8
0
  6
DASHED2
 62
     7
 10
-64.97178051653353
 20
-50.34938169637572
 30
0.0
 11
-56.07181713762725
 21
-50.34938169637573
 31
0.0
  0
LINE
  5
38B
  8
0
  6
DASHED2
 62
     7
 10
-63.26712963762726
 20
-46.04937864461792
 30
0.0
 11
-57.72629711809603
 21
-46.04937864461792
 31
0.0
  0
LINE
  5
38C
  8
0
  6
DASHED2
 62
     7
 10
-63.82175685906329
 20
-45.04938287758995
 30
0.0
 11
-62.92176045240447
 21
-42.34939331833924
 31
0.0
  0
LINE
  5
38D
  8
0
  6
DASHED2
 62
     7
 10
-57.22175611608806
 20
-45.0493561766059
 30
0.0
 11
-58.12175493537305
 21
-42.34935937947581
 31
0.0
  0
LINE
  5
38E
  8
0
  6
DASHED2
 62
     7
 10
-54.82181713762725
 20
-50.78812528768434
 30
0.0
 11
-54.82181713762726
 21
-53.91062284627812
 31
0.0
  0
LINE
  5
38F
  8
0
  6
DASHED2
 62
     7
 10
-63.82181713762725
 20
-45.04937864461795
 30
0.0
 11
-57.22184155168976
 21
-45.04937864461795
 31
0.0
  0
LINE
  5
390
  8
0
  6
DASHED2
 62
     7
 10
-62.92179272356478
 20
-42.34937406698123
 30
0.0
 11
-58.12180493059604
 21
-42.34937406698123
 31
0.0
  0
LINE
  5
391
  8
0
  6
DASHED2
 62
     7
 10
-69.52182934465854
 20
-52.084198532806
 30
0.0
 11
-69.52182934465853
 21
-38.0842061622005
 31
0.0
  0
LINE
  5
392
  8
0
  6
DASHED2
 62
     7
 10
-51.52182934465854
 20
-52.084198532806
 30
0.0
 11
-51.52182934465853
 21
-38.0842061622005
 31
0.0
  0
ARC
  5
393
  8
0
  6
DASHED2
 62
     7
 10
-64.97178051653354
 20
-52.34938169637573
 30
0.0
 40
2.0
 50
231.317810121285
 51
270.0000025044782
  0
ARC
  5
394
  8
0
  6
DASHED2
 62
     7
 10
-60.52182934465853
 20
-43.04937864461792
 30
0.0
 40
1.5
 50
27.81815336721169
 51
152.1818467464739
  0
ARC
  5
395
  8
0
  6
DASHED2
 62
     7
 10
-51.72178051653353
 20
-46.38256956258667
 30
0.0
 40
5.649999618530273
 50
175.9910930374209
 51
225.0592531432889
  0
ARC
  5
396
  8
0
  6
DASHED2
 62
     7
 10
-69.32181713762726
 20
-46.38256956258668
 30
0.0
 40
5.649999618530273
 50
314.9407452628493
 51
364.008906222491
  0
ARC
  5
397
  8
0
  6
DASHED2
 62
     7
 10
-56.07181713762726
 20
-52.34938169637576
 30
0.0
 40
2.0
 50
270.0000025044782
 51
308.6821846423876
  0
ARC
  5
398
  8
0
  6
DASHED2
 62
     7
 10
-56.07181713762726
 20
-52.34938169637576
 30
0.0
 40
2.0
 50
51.3178426783691
 51
141.0931422044376
  0
ARC
  5
399
  8
0
  6
DASHED2
 62
     7
 10
-64.97178051653354
 20
-52.34938169637573
 30
0.0
 40
2.0
 50
38.90688352245735
 51
128.6821693881475
  0
ARC
  5
39A
  8
0
  6
DASHED2
 62
     7
 10
-64.97178051653354
 20
-52.34938169637573
 30
0.0
 40
2.0
 50
270.0000025044782
 51
321.093171119056
  0
ARC
  5
39B
  8
0
  6
DASHED2
 62
     7
 10
-60.52182934465854
 20
-48.34937406698123
 30
0.0
 40
6.0
 50
270.0000025044782
 51
298.8342403121448
  0
ARC
  5
39C
  8
0
  6
DASHED2
 62
     7
 10
-60.52182934465853
 20
-56.34938169637573
 30
0.0
 40
6.0
 50
61.16578700861191
 51
118.8342284729993
  0
ARC
  5
39D
  8
0
  6
DASHED2
 62
     7
 10
-60.52182934465854
 20
-48.34937406698123
 30
0.0
 40
6.0
 50
241.1657646968116
 51
270.0000025044782
  0
ARC
  5
39E
  8
0
  6
DASHED2
 62
     7
 10
-56.07181713762726
 20
-52.34938169637576
 30
0.0
 40
2.0
 50
218.9068338899003
 51
270.0000025044782
  0
ARC
  5
39F
  8
0
  6
DASHED2
 62
     7
 10
-60.52182934465853
 20
-45.04937864461793
 30
0.0
 40
3.299999952316284
 50
343.482818086303
 51
359.9999776881996
  0
ARC
  5
3A0
  8
0
  6
DASHED2
 62
     7
 10
-60.52182934465853
 20
-45.04937864461793
 30
0.0
 40
3.299999952316284
 50
180.0000179901276
 51
196.5171783849169
  0
LINE
  5
3A1
  8
0
  6
DASHED2
 62
     7
 10
-57.19637529001221
 20
-64.82536842215592
 30
0.0
 11
-57.02182475908045
 21
-54.82537360055534
 31
0.0
  0
LINE
  5
3A2
  8
0
  6
DASHED2
 62
     7
 10
-69.52185196462052
 20
-52.08421340416463
 30
0.0
 11
-64.77400816863728
 21
-54.82538229784586
 31
0.0
  0
LINE
  5
3A3
  8
0
  6
DASHED2
 62
     7
 10
-64.82185546437412
 20
-54.82538229784589
 30
0.0
 11
-56.26965052067979
 21
-54.82538229784586
 31
0.0
  0
LINE
  5
3A4
  8
0
  6
DASHED2
 62
     7
 10
-56.39638030730372
 20
-64.82537991156306
 30
0.0
 11
-56.22182957664505
 21
-54.82537364761382
 31
0.0
  0
LINE
  5
3A5
  8
0
  6
DASHED2
 62
     7
 10
-51.52182961287944
 20
-52.0842266186632
 30
0.0
 11
-56.26965052067979
 21
-54.82538229784586
 31
0.0
  0
LINE
  5
3A6
  8
0
  6
DASHED2
 62
     7
 10
-51.52185250106233
 20
-52.08421340416464
 30
0.0
 11
-54.82181713762725
 21
-52.08421340416464
 31
0.0
  0
LINE
  5
3A7
  8
0
  6
DASHED2
 62
     7
 10
-66.22184155168976
 20
-52.08421340416464
 30
0.0
 11
-69.52185196462052
 21
-52.08421340416463
 31
0.0
  0
LINE
  5
3A8
  8
0
  6
DASHED2
 62
     7
 10
-2.271829344658499
 20
-83.05333147413995
 30
0.0
 11
-2.271829344658528
 21
-75.58419129084186
 31
0.0
  0
LINE
  5
3A9
  8
0
  6
DASHED2
 62
     7
 10
168.9598803035274
 20
-45.94441129180316
 30
0.0
 11
168.9598803035274
 21
-39.94441129180316
 31
0.0
  0
ARC
  5
3AA
  8
0
  6
DASHED2
 62
     7
 10
167.9596350985146
 20
-65.94441873909837
 30
0.0
 40
1.5
 50
180.0
 51
360.0
  0
CIRCLE
  5
3AB
  8
0
  6
DASHED2
 62
     7
 10
167.9596350985146
 20
-61.44441198887251
 30
0.0
 40
1.5
  0
LINE
  5
3AC
  8
0
  6
DASHED2
 62
     7
 10
169.4596350985146
 20
-65.94441873909837
 30
0.0
 11
169.4596350985146
 21
-56.44441129180314
 31
0.0
  0
LINE
  5
3AD
  8
0
  6
DASHED2
 62
     7
 10
167.9598803035274
 20
-56.44441129180316
 30
0.0
 11
167.9598803035274
 21
-28.44441129180313
 31
0.0
  0
LINE
  5
3AE
  8
0
  6
DASHED2
 62
     7
 10
168.9598803035274
 20
-45.94441129180316
 30
0.0
 11
168.9598803035274
 21
-39.94441129180316
 31
0.0
  0
LINE
  5
3AF
  8
0
  6
DASHED2
 62
     7
 10
166.4596350985146
 20
-65.94441873909838
 30
0.0
 11
166.4596350985146
 21
-16.94441873909837
 31
0.0
  0
LINE
  5
3B0
  8
0
  6
DASHED2
 62
     7
 10
169.4596350985146
 20
-28.44441129180314
 30
0.0
 11
169.4596350985146
 21
-16.94441873909837
 31
0.0
  0
CIRCLE
  5
3B1
  8
0
  6
DASHED2
 62
     7
 10
167.9596350985146
 20
-21.44441873909839
 30
0.0
 40
1.5
  0
ARC
  5
3B2
  8
0
  6
DASHED2
 62
     7
 10
167.9596350985146
 20
-16.94441873909837
 30
0.0
 40
1.5
 50
0.0000000000010687
 51
180.0
  0
LINE
  5
3B3
  8
0
  6
DASHED2
 62
     7
 10
121.4602042553326
 20
-65.94441873909835
 30
0.0
 11
121.4602042553326
 21
-16.9444187390983
 31
0.0
  0
CIRCLE
  5
3B4
  8
0
  6
DASHED2
 62
     7
 10
119.9602042553326
 20
-21.44441873909835
 30
0.0
 40
1.5
  0
LINE
  5
3B5
  8
0
  6
DASHED2
 62
     7
 10
118.4602042553326
 20
-37.44441198887247
 30
0.0
 11
118.4602042553326
 21
-16.9444187390983
 31
0.0
  0
ARC
  5
3B6
  8
0
  6
DASHED2
 62
     7
 10
119.9602042553326
 20
-16.94441873909837
 30
0.0
 40
1.5
 50
0.0000000000010687
 51
179.9999999999989
  0
LINE
  5
3B7
  8
0
  6
DASHED2
 62
     7
 10
118.4602042553326
 20
-65.94441873909835
 30
0.0
 11
118.4602042553326
 21
-37.44441198887247
 31
0.0
  0
CIRCLE
  5
3B8
  8
0
  6
DASHED2
 62
     7
 10
119.9602042553326
 20
-61.44441198887247
 30
0.0
 40
1.5
  0
ARC
  5
3B9
  8
0
  6
DASHED2
 62
     7
 10
119.9602042553326
 20
-65.94441873909835
 30
0.0
 40
1.5
 50
180.0
 51
360.0
  0
LINE
  5
3BA
  8
0
  6
DASHED2
 62
     7
 10
171.9597232707101
 20
-9.444502509195836
 30
0.0
 11
167.0248477824289
 21
-9.444502509195836
 31
0.0
  0
LINE
  5
3BB
  8
0
  6
DASHED2
 62
     7
 10
171.9597232707101
 20
-78.73394647892243
 30
0.0
 11
171.9597232707101
 21
0.8687260979819129
 31
0.0
  0
LINE
  5
3BC
  8
0
  6
DASHED2
 62
     7
 10
115.9597232707101
 20
-78.73394647892241
 30
0.0
 11
115.9597232707102
 21
0.8687184685873817
 31
0.0
  0
LINE
  5
3BD
  8
0
  6
DASHED2
 62
     7
 10
120.8945987589914
 20
-9.444502509195807
 30
0.0
 11
115.9597232707101
 21
-9.444502509195822
 31
0.0
  0
ARC
  5
3BE
  8
0
  6
DASHED2
 62
     7
 10
143.9597232707101
 20
25.05549749080418
 30
0.0
 40
41.49999999999999
 50
236.235119436871
 51
241.1886253399636
  0
ARC
  5
3BF
  8
0
  6
DASHED2
 62
     7
 10
143.9597232707101
 20
25.05549749080418
 30
0.0
 40
41.49999999999999
 50
298.7100947937906
 51
303.7648855720853
  0
LINE
  5
3C0
  8
0
  6
DASHED2
 62
     7
 10
3.478170655341529
 20
-57.08419129084189
 30
0.0
 11
7.478170655341557
 21
-57.08419129084189
 31
0.0
  0
LINE
  5
3C1
  8
0
  6
DASHED2
 62
     7
 10
3.478170655341529
 20
-64.58419129084189
 30
0.0
 11
7.478170655341557
 21
-64.58419129084189
 31
0.0
  0
LINE
  5
3C2
  8
0
  6
DASHED2
 62
     7
 10
3.478170655341529
 20
-64.58419129084189
 30
0.0
 11
3.478170655341529
 21
-57.08419129084189
 31
0.0
  0
LINE
  5
3C3
  8
0
  6
DASHED2
 62
     7
 10
4.478245800128917
 20
-63.83419129084183
 30
0.0
 11
4.478245800128917
 21
-57.83419129084182
 31
0.0
  0
LINE
  5
3C4
  8
0
  6
DASHED2
 62
     7
 10
4.478245800128917
 20
-63.83419129084183
 30
0.0
 11
4.478245800128917
 21
-57.83419129084182
 31
0.0
  0
LINE
  5
3C5
  8
0
  6
DASHED2
 62
     7
 10
36.51374559046349
 20
21.65559295875553
 30
0.0
 11
57.45996505787909
 21
21.65559396082428
 31
0.0
  0
LINE
  5
3C6
  8
0
  6
DASHED2
 62
     7
 10
36.51374561916754
 20
21.0555929587555
 30
0.0
 11
52.45996508658314
 21
21.05559372162386
 31
0.0
  0
LINE
  5
3C7
  8
0
  6
DASHED2
 62
     7
 10
36.5137459851764
 20
28.45559295875548
 30
0.0
 11
57.45996473256653
 21
28.45559396082424
 31
0.0
  0
LINE
  5
3C8
  8
0
  6
DASHED2
 62
     7
 10
36.51374595647235
 20
29.0555929587555
 30
0.0
 11
52.45996470386254
 21
29.05559372162386
 31
0.0
  0
LINE
  5
3C9
  8
0
  6
DASHED2
 62
     7
 10
52.45996508658314
 20
21.05559372162386
 30
0.0
 11
52.45996470386254
 21
29.05559372162386
 31
0.0
  0
LINE
  5
3CA
  8
0
  6
DASHED2
 62
     7
 10
57.45996505787909
 20
21.65559396082428
 30
0.0
 11
57.45996473256653
 21
28.45559396082424
 31
0.0
  0
LINE
  5
3CB
  8
0
  6
DASHED2
 62
     7
 10
57.45996473256653
 20
28.45559396082424
 30
0.0
 11
59.42295559359252
 21
25.05559405473385
 31
0.0
  0
LINE
  5
3CC
  8
0
  6
DASHED2
 62
     7
 10
57.45996505787909
 20
21.65559396082428
 30
0.0
 11
59.42295559359256
 21
25.05559405473385
 31
0.0
  0
LINE
  5
3CD
  8
0
  6
DASHED2
 62
     7
 10
-63.84730934607165
 20
-64.82538849834793
 30
0.0
 11
-64.02186028165265
 21
-54.82538223439865
 31
0.0
  0
LINE
  5
3CE
  8
0
  6
DASHED2
 62
     7
 10
-64.64730472852028
 20
-64.82537711944642
 30
0.0
 11
-64.82185546437412
 21
-54.82538229784589
 31
0.0
  0
LINE
  5
3CF
  8
0
  6
DASHED2
 62
     7
 10
-56.39639459211776
 20
-64.82537624932394
 30
0.0
 11
-64.64728698538218
 21
-64.82537624932394
 31
0.0
  0
LINE
  5
3D0
  8
0
  6
DASHED2
 62
     7
 10
-57.19638236124501
 20
-69.82536847091802
 30
0.0
 11
-57.19638236124503
 21
-64.82537624932394
 31
0.0
  0
LINE
  5
3D1
  8
0
  6
DASHED2
 62
     7
 10
-38.77182934465853
 20
-90.12192477224858
 30
0.0
 11
-38.7718293446585
 21
-75.58419129084186
 31
0.0
  0
LINE
  5
3D2
  8
0
  6
DASHED2
 62
     7
 10
171.9598803035274
 20
-56.44441129180317
 30
0.0
 11
167.9598803035274
 21
-56.44441129180316
 31
0.0
  0
LINE
  5
3D3
  8
0
  6
DASHED2
 62
     7
 10
167.9596350985146
 20
-28.44441129180314
 30
0.0
 11
171.9598803035274
 21
-28.44441129180316
 31
0.0
  0
LINE
  5
3D4
  8
0
  6
CENTER
 62
     7
 10
-0.5218293446584994
 20
-60.83419129084189
 30
0.0
 11
37.45818503785898
 21
-60.83419129084183
 31
0.0
  0
LINE
  5
3D5
  8
0
  6
CENTER
 62
     7
 10
-206.8379993807825
 20
25.05554832267343
 30
0.0
 11
-99.68614286247485
 21
25.05554832267343
 31
0.0
  0
LINE
  5
3D6
  8
0
  6
CENTER
 62
     7
 10
-117.9114857089076
 20
112.555555952068
 30
0.0
 11
-78.30523183833311
 21
112.555555952068
 31
0.0
  0
LINE
  5
3D7
  8
0
  6
CENTER
 62
     7
 10
-117.9114857089076
 20
82.55554832267347
 30
0.0
 11
-78.30523183833311
 21
82.55554832267347
 31
0.0
  0
LINE
  5
3D8
  8
0
  6
CENTER
 62
     7
 10
-126.3230896445943
 20
-19.94445167732657
 30
0.0
 11
-100.0187245973116
 21
-19.94445167732657
 31
0.0
  0
LINE
  5
3D9
  8
0
  6
CENTER
 62
     7
 10
-222.1837635409388
 20
-41.61945472908438
 30
0.0
 11
-133.3878226931694
 21
-41.61945472908438
 31
0.0
  0
LINE
  5
3DA
  8
0
  6
CENTER
 62
     7
 10
-149.5713367831263
 20
-56.08670936775626
 30
0.0
 11
-149.5713367831263
 21
-86.12470375252187
 31
0.0
  0
LINE
  5
3DB
  8
0
  6
CENTER
 62
     7
 10
-123.5713978182826
 20
106.7062416281352
 30
0.0
 11
-123.5713978182826
 21
135.379645002361
 31
0.0
  0
LINE
  5
3DC
  8
0
  6
CENTER
 62
     7
 10
-143.428058157638
 20
53.05554832267342
 30
0.0
 11
-128.9814486605677
 21
53.05554832267342
 31
0.0
  0
LINE
  5
3DD
  8
0
  6
CENTER
 62
     7
 10
-29.58563376521786
 20
-62.08422180842003
 30
0.0
 11
-10.99159100544907
 21
-62.08422180842001
 31
0.0
  0
LINE
  5
3DE
  8
0
  6
CENTER
 62
     7
 10
47.41619117680511
 20
-30.68397014776041
 30
0.0
 11
143.9598803035236
 21
25.05554859990015
 31
0.0
  0
LINE
  5
3DF
  8
0
  6
CENTER
 62
     7
 10
131.8317595562779
 20
82.55554832267347
 30
0.0
 11
156.0188933453404
 21
82.55554832267347
 31
0.0
  0
LINE
  5
3E0
  8
0
  6
CENTER
 62
     7
 10
143.9598113140904
 20
136.7604433422047
 30
0.0
 11
143.9598113140904
 21
-85.13460636489066
 31
0.0
  0
LINE
  5
3E1
  8
0
  6
CENTER
 62
     7
 10
30.40001566936962
 20
25.05554832267343
 30
0.0
 11
257.1195701326033
 21
25.05554832267343
 31
0.0
  0
LINE
  5
3E2
  8
0
  6
CENTER
 62
     7
 10
131.8317595562779
 20
112.5555483226735
 30
0.0
 11
156.4028044781529
 21
112.5555483226735
 31
0.0
  0
LINE
  5
3E3
  8
0
  6
CENTER
 62
     7
 10
195.5045347987751
 20
98.05554832267347
 30
0.0
 11
172.6919280133091
 21
98.05554832267347
 31
0.0
  0
LINE
  5
3E4
  8
0
  6
CENTER
 62
     7
 10
116.9598113140904
 20
30.71459449576913
 30
0.0
 11
116.9598113140904
 21
19.05554832267343
 31
0.0
  0
LINE
  5
3E5
  8
0
  6
CENTER
 62
     7
 10
170.9598113140904
 20
30.71459449576913
 30
0.0
 11
170.9598113140904
 21
19.05554832267343
 31
0.0
  0
LINE
  5
3E6
  8
0
  6
CENTER
 62
     7
 10
156.0878454876103
 20
-32.44447644267886
 30
0.0
 11
131.9006815065573
 21
-32.44447663065694
 31
0.0
  0
LINE
  5
3E7
  8
0
  6
CENTER
 62
     7
 10
156.0878457207647
 20
-62.44447603884364
 30
0.0
 11
131.5167706120671
 21
-62.44447622980542
 31
0.0
  0
LINE
  5
3E8
  8
0
  6
CENTER
 62
     7
 10
45.78244771405354
 20
81.73831913709489
 30
0.0
 11
111.388307834129
 21
43.86076232113818
 31
0.0
  0
LINE
  5
3E9
  8
0
  6
CENTER
 62
     7
 10
188.2786794338884
 20
50.64305439027984
 30
0.0
 11
215.1254682765265
 21
66.14305364677736
 31
0.0
  0
LINE
  5
3EA
  8
0
  6
CENTER
 62
     7
 10
176.7011817503274
 20
43.95874571536923
 30
0.0
 11
189.6125936182119
 21
51.41315200933321
 31
0.0
  0
LINE
  5
3EB
  8
0
  6
CENTER
 62
     7
 10
171.4128090682522
 20
9.205533727085591
 30
0.0
 11
143.9597988720919
 21
25.05553480276548
 31
0.0
  0
LINE
  5
3EC
  8
0
  6
CENTER
 62
     7
 10
139.25621228195
 20
53.05554832267342
 30
0.0
 11
148.1668994817126
 21
53.05554832267342
 31
0.0
  0
LINE
  5
3ED
  8
0
  6
CENTER
 62
     7
 10
183.9598113140904
 20
110.0060411815602
 30
0.0
 11
183.9598113140904
 21
86.17800010490004
 31
0.0
  0
ARC
  5
3EE
  8
0
  6
CENTER
 62
     7
 10
143.9598113140904
 20
25.05554832267343
 30
0.0
 40
45.0
 50
139.2370808724834
 51
160.5020415702394
  0
ARC
  5
3EF
  8
0
  6
CENTER
 62
     7
 10
143.9598100922188
 20
25.05557009658861
 30
0.0
 40
66.67500305175781
 50
16.65021893453074
 51
43.34978015485284
  0
ARC
  5
3F0
  8
0
  6
CENTER
 62
     7
 10
143.9598113140904
 20
25.05554832267343
 30
0.0
 40
45.0
 50
19.61500726788161
 51
39.55279368003936
  0
LINE
  5
3F1
  8
0
  6
CENTER
 62
     7
 10
230.4998583308711
 20
-42.9444112918032
 30
0.0
 11
166.2942308894649
 21
-42.94441129180316
 31
0.0
  0
LINE
  5
3F2
  8
0
  6
CENTER
 62
     7
 10
180.3798036019722
 20
-42.94441129180316
 30
0.0
 11
166.2942308894649
 21
-42.94441129180316
 31
0.0
  0
LINE
  5
3F3
  8
0
  6
CENTER
 62
     7
 10
99.23179812034429
 20
98.05554832267347
 30
0.0
 11
59.84991033731869
 21
98.05554832267347
 31
0.0
  0
LINE
  5
3F4
  8
0
  6
CENTER
 62
     7
 10
92.41494599727255
 20
-47.94447145424494
 30
0.0
 11
115.2275527827386
 21
-47.94447145424494
 31
0.0
  0
LINE
  5
3F5
  8
0
  6
CENTER
 62
     7
 10
103.9596694819573
 20
-59.89496431313165
 30
0.0
 11
103.9596694819573
 21
-36.0669232364715
 31
0.0
  0
LINE
  5
3F6
  8
0
  6
CENTER
 62
     7
 10
-20.52182934465853
 20
-92.23246902806142
 30
0.0
 11
-20.52182934465853
 21
-16.95001569480525
 31
0.0
  0
LINE
  5
3F7
  8
0
  6
CENTER
 62
     7
 10
-60.5218293446585
 20
-34.93950517751743
 30
0.0
 11
-60.52182934465853
 21
-85.67689813428797
 31
0.0
  0
LINE
  5
3F8
  8
0
  6
CENTER
 62
     7
 10
171.4128351603556
 20
9.205578919939363
 30
0.0
 11
189.6125936182119
 21
-1.302055363986348
 31
0.0
  0
ARC
  5
3F9
  8
0
  6
CENTER
 62
     7
 10
143.9598113140904
 20
25.05554832267343
 30
0.0
 40
45.0
 50
320.6092409280294
 51
340.3849927321184
  0
LINE
  5
3FA
  8
0
  6
CENTER
 62
     7
 10
188.2786794338884
 20
-0.5319577449329742
 30
0.0
 11
215.1254682765265
 21
-16.03195700143051
 31
0.0
  0
ARC
  5
3FB
  8
0
  6
CENTER
 62
     7
 10
143.9598100922188
 20
25.05552654875825
 30
0.0
 40
66.67500305175781
 50
316.6502198451472
 51
343.3497810654692
  0
ARC
  5
3FC
  8
0
  6
CENTER
 62
     7
 10
143.9598125359619
 20
25.05557009658861
 30
0.0
 40
66.67500305175781
 50
136.6502198451472
 51
163.3497810654693
  0
ARC
  5
3FD
  8
0
  6
CENTER
 62
     7
 10
143.9598125359619
 20
25.05552654875825
 30
0.0
 40
66.67500305175781
 50
196.6502189345307
 51
223.3497801548528
  0
ARC
  5
3FE
  8
0
  6
CENTER
 62
     7
 10
143.9598113140904
 20
25.05554832267343
 30
0.0
 40
45.0
 50
199.4979584297606
 51
220.7629191275166
  0
LINE
  5
3FF
  8
0
  6
CENTER
 62
     7
 10
122.0627234374358
 20
6.982112071624016
 30
0.0
 11
117.6073798375545
 21
14.69899355179527
 31
0.0
  0
LINE
  5
400
  8
0
  6
CENTER
 62
     7
 10
170.5602340927446
 20
15.12883207811507
 30
0.0
 11
166.1048904928633
 21
7.411950597943815
 31
0.0
  0
LINE
  5
401
  8
0
  6
DASHED
 62
     7
 10
85.95981131409039
 20
106.0555483226735
 30
0.0
 11
97.54019461487164
 21
106.0555483226735
 31
0.0
  0
LINE
  5
402
  8
0
  6
DASHED
 62
     7
 10
85.95981131409039
 20
90.05554832267347
 30
0.0
 11
97.54019461487164
 21
90.05554832267347
 31
0.0
  0
LINE
  5
403
  8
0
  6
DASHED
 62
     7
 10
85.94586537126369
 20
101.4056937115501
 30
0.0
 11
92.71015490582349
 21
101.2876226048433
 31
0.0
  0
LINE
  5
404
  8
0
  6
DASHED
 62
     7
 10
85.94585852302143
 20
94.70544102024331
 30
0.0
 11
92.66590430820097
 21
94.82273984947318
 31
0.0
  0
LINE
  5
405
  8
0
  6
DASHED
 62
     7
 10
85.95981131409039
 20
115.566597371947
 30
0.0
 11
85.95981131409039
 21
87.05554832267347
 31
0.0
  0
LINE
  5
406
  8
0
  6
DASHED
 62
     7
 10
56.14039432672934
 20
87.05554832267347
 30
0.0
 11
85.95981131409039
 21
87.05554832267347
 31
0.0
  0
LINE
  5
407
  8
0
  6
DASHED
 62
     7
 10
82.39853201721539
 20
92.35555137443129
 30
0.0
 11
85.52109061096539
 21
92.35555137443129
 31
0.0
  0
LINE
  5
408
  8
0
  6
DASHED
 62
     7
 10
82.39853201721539
 20
103.7555452709157
 30
0.0
 11
85.52109061096539
 21
103.7555452709157
 31
0.0
  0
LINE
  5
409
  8
0
  6
DASHED
 62
     7
 10
76.65978620486871
 20
94.75547134455422
 30
0.0
 11
73.95982559713534
 21
95.65545810070847
 31
0.0
  0
LINE
  5
40A
  8
0
  6
DASHED
 62
     7
 10
76.65983954652515
 20
101.3554770762889
 30
0.0
 11
73.95982103575702
 21
100.4554710191255
 31
0.0
  0
LINE
  5
40B
  8
0
  6
DASHED
 62
     7
 10
77.65982352112164
 20
100.8008791332204
 30
0.0
 11
77.65982352112164
 21
95.26006950187269
 31
0.0
  0
LINE
  5
40C
  8
0
  6
DASHED
 62
     7
 10
81.95981131409039
 20
102.5055452709157
 30
0.0
 11
81.95981131409039
 21
93.60555137443129
 31
0.0
  0
LINE
  5
40D
  8
0
  6
DASHED
 62
     7
 10
82.70370779846539
 20
100.9492098216969
 30
0.0
 11
85.21591482971539
 21
100.9492098216969
 31
0.0
  0
LINE
  5
40E
  8
0
  6
DASHED
 62
     7
 10
82.70370779846539
 20
95.16188682365004
 30
0.0
 11
85.21591482971539
 21
95.16188682365004
 31
0.0
  0
LINE
  5
40F
  8
0
  6
DASHED
 62
     7
 10
76.65982352112164
 20
101.3555513744313
 30
0.0
 11
76.65982352112164
 21
94.75554527091566
 31
0.0
  0
LINE
  5
410
  8
0
  6
DASHED
 62
     7
 10
85.95982050089444
 20
93.90555980084417
 30
0.0
 11
92.67986628607397
 21
94.02285863007404
 31
0.0
  0
LINE
  5
411
  8
0
  6
DASHED
 62
     7
 10
85.9598273491367
 20
102.2055749309492
 30
0.0
 11
92.7241168836965
 21
102.0875038242425
 31
0.0
  0
LINE
  5
412
  8
0
  6
DASHED
 62
     7
 10
73.95981131409039
 20
100.4555498485524
 30
0.0
 11
73.95981131409039
 21
95.65554679679457
 31
0.0
  0
ARC
  5
413
  8
0
  6
DASHED
 62
     7
 10
76.65982352112164
 20
98.05554832267347
 30
0.0
 40
3.299999952316284
 50
73.48282241201396
 51
89.99998201391065
  0
ARC
  5
414
  8
0
  6
DASHED
 62
     7
 10
76.65982352112164
 20
98.05554832267347
 30
0.0
 40
3.299999952316284
 50
270.0000179860894
 51
286.5171775879861
  0
ARC
  5
415
  8
0
  6
DASHED
 62
     7
 10
83.95981131409039
 20
93.60555137443129
 30
0.0
 40
2.0
 50
0.0
 51
51.09316519948327
  0
ARC
  5
416
  8
0
  6
DASHED
 62
     7
 10
79.95981131409039
 20
98.05554832267347
 30
0.0
 40
6.0
 50
0.0
 51
28.83423780766662
  0
ARC
  5
417
  8
0
  6
DASHED
 62
     7
 10
87.95981131409039
 20
98.05554832267347
 30
0.0
 40
6.0
 50
151.1657740314789
 51
208.8342086656771
  0
ARC
  5
418
  8
0
  6
DASHED
 62
     7
 10
79.95981131409039
 20
98.05554832267347
 30
0.0
 40
6.0
 50
331.1657621923334
 51
360.0
  0
ARC
  5
419
  8
0
  6
DASHED
 62
     7
 10
83.95981131409039
 20
102.5055452709157
 30
0.0
 40
2.0
 50
308.9068348005167
 51
360.0
  0
ARC
  5
41A
  8
0
  6
DASHED
 62
     7
 10
83.95981131409039
 20
102.5055452709157
 30
0.0
 40
2.0
 50
141.3178297012361
 51
231.0931121518317
  0
ARC
  5
41B
  8
0
  6
DASHED
 62
     7
 10
83.95981131409039
 20
93.60555137443129
 30
0.0
 40
2.0
 50
128.906856884946
 51
218.6821529959199
  0
ARC
  5
41C
  8
0
  6
DASHED
 62
     7
 10
83.95981131409039
 20
93.60555137443129
 30
0.0
 40
2.0
 50
321.3178110319014
 51
360.0
  0
ARC
  5
41D
  8
0
  6
DASHED
 62
     7
 10
77.99301443909039
 20
106.8555513744313
 30
0.0
 40
5.650000095367432
 50
265.9910930942637
 51
315.0592540539054
  0
ARC
  5
41E
  8
0
  6
DASHED
 62
     7
 10
77.99301443909039
 20
89.25554527091566
 30
0.0
 40
5.650000095367432
 50
44.94074594609464
 51
94.00890690573628
  0
ARC
  5
41F
  8
0
  6
DASHED
 62
     7
 10
74.65982352112164
 20
98.05554832267347
 30
0.0
 40
1.5
 50
117.818154050457
 51
242.1818423070773
  0
ARC
  5
420
  8
0
  6
DASHED
 62
     7
 10
83.95981131409039
 20
102.5055452709157
 30
0.0
 40
2.0
 50
0.0
 51
38.68218896809859
  0
LINE
  5
421
  8
0
  6
DASHED2
 62
     7
 10
193.9598803035274
 20
-46.44441129180314
 30
0.0
 11
190.9598803035274
 21
-46.44441129180314
 31
0.0
  0
LINE
  5
422
  8
0
  6
DASHED2
 62
     7
 10
190.9598803035274
 20
-46.44441129180314
 30
0.0
 11
190.9598803035274
 21
-45.94441129180314
 31
0.0
  0
LINE
  5
423
  8
0
  6
DASHED2
 62
     7
 10
199.9598803035274
 20
-47.94441129180317
 30
0.0
 11
193.9598803035274
 21
-47.94441129180317
 31
0.0
  0
LINE
  5
424
  8
0
  6
DASHED2
 62
     7
 10
193.9598803035274
 20
-45.94441129180314
 30
0.0
 11
168.9598803035274
 21
-45.94441129180316
 31
0.0
  0
LINE
  5
425
  8
0
  6
DASHED2
 62
     7
 10
193.9598803035274
 20
-40.74441434356098
 30
0.0
 11
168.9598803035274
 21
-40.74441434356097
 31
0.0
  0
LINE
  5
426
  8
0
  6
DASHED2
 62
     7
 10
193.9598803035274
 20
-39.94441129180314
 30
0.0
 11
168.9598803035274
 21
-39.94441129180316
 31
0.0
  0
LINE
  5
427
  8
0
  6
DASHED2
 62
     7
 10
231.4241747371211
 20
-37.44441129180319
 30
0.0
 11
193.9598803035274
 21
-37.44441129180317
 31
0.0
  0
LINE
  5
428
  8
0
  6
DASHED2
 62
     7
 10
222.4073290339961
 20
-48.4444112918032
 30
0.0
 11
193.9598803035274
 21
-48.44441129180317
 31
0.0
  0
LINE
  5
429
  8
0
  6
DASHED2
 62
     7
 10
199.9598803035274
 20
-47.94441129180317
 30
0.0
 11
199.9598803035274
 21
-37.94441129180314
 31
0.0
  0
LINE
  5
42A
  8
0
  6
DASHED2
 62
     7
 10
199.9598803035274
 20
-37.94441129180314
 30
0.0
 11
193.9598803035274
 21
-37.94441129180317
 31
0.0
  0
LINE
  5
42B
  8
0
  6
DASHED2
 62
     7
 10
193.9598803035274
 20
-45.14440824004533
 30
0.0
 11
168.9598803035274
 21
-45.14440824004534
 31
0.0
  0
LINE
  5
42C
  8
0
  6
DASHED2
 62
     7
 10
193.9598803035274
 20
-48.44441129180319
 30
0.0
 11
193.9598803035274
 21
-37.44441129180317
 31
0.0
  0
LINE
  5
42D
  8
0
  6
DASHED2
 62
     7
 10
29.47824580012892
 20
-64.3341912908418
 30
0.0
 11
26.47824580012892
 21
-64.3341912908418
 31
0.0
  0
LINE
  5
42E
  8
0
  6
DASHED2
 62
     7
 10
26.47824580012892
 20
-64.3341912908418
 30
0.0
 11
26.47824580012892
 21
-63.8341912908418
 31
0.0
  0
LINE
  5
42F
  8
0
  6
DASHED2
 62
     7
 10
29.47824580012892
 20
-66.33419129084183
 30
0.0
 11
29.47824580012895
 21
-55.33419129084183
 31
0.0
  0
LINE
  5
430
  8
0
  6
DASHED2
 62
     7
 10
35.47824580012892
 20
-65.83419129084183
 30
0.0
 11
29.47824580012892
 21
-65.83419129084183
 31
0.0
  0
LINE
  5
431
  8
0
  6
DASHED2
 62
     7
 10
29.47824580012892
 20
-63.83419129084183
 30
0.0
 11
4.478245800128917
 21
-63.83419129084183
 31
0.0
  0
LINE
  5
432
  8
0
  6
DASHED2
 62
     7
 10
29.47824580012892
 20
-58.63419434259963
 30
0.0
 11
4.478245800128917
 21
-58.63419434259963
 31
0.0
  0
LINE
  5
433
  8
0
  6
DASHED2
 62
     7
 10
29.47824580012892
 20
-57.83419129084182
 30
0.0
 11
4.478245800128917
 21
-57.83419129084182
 31
0.0
  0
LINE
  5
434
  8
0
  6
DASHED2
 62
     7
 10
37.31365301493875
 20
-55.33419129084183
 30
0.0
 11
29.47824580012895
 21
-55.33419129084183
 31
0.0
  0
LINE
  5
435
  8
0
  6
DASHED2
 62
     7
 10
37.31365301493875
 20
-66.33419129084183
 30
0.0
 11
29.47824580012892
 21
-66.33419129084183
 31
0.0
  0
LINE
  5
436
  8
0
  6
DASHED2
 62
     7
 10
35.47824580012892
 20
-65.83419129084183
 30
0.0
 11
35.47824580012892
 21
-55.8341912908418
 31
0.0
  0
LINE
  5
437
  8
0
  6
DASHED2
 62
     7
 10
35.47824580012892
 20
-55.8341912908418
 30
0.0
 11
29.47824580012892
 21
-55.83419129084183
 31
0.0
  0
LINE
  5
438
  8
0
  6
DASHED2
 62
     7
 10
29.47824580012892
 20
-63.03418823908399
 30
0.0
 11
4.478245800128917
 21
-63.03418823908399
 31
0.0
  0
LINE
  5
439
  8
0
  6
DASHED2
 62
     7
 10
193.9598803035274
 20
-39.4444112918032
 30
0.0
 11
190.9598803035274
 21
-39.44441129180319
 31
0.0
  0
LINE
  5
43A
  8
0
  6
DASHED2
 62
     7
 10
190.9598803035274
 20
-39.44441129180319
 30
0.0
 11
190.9598803035274
 21
-39.94441129180319
 31
0.0
  0
LINE
  5
43B
  8
0
  6
DASHED2
 62
     7
 10
29.47824580012892
 20
-57.33419129084189
 30
0.0
 11
26.47824580012892
 21
-57.33419129084189
 31
0.0
  0
LINE
  5
43C
  8
0
  6
DASHED2
 62
     7
 10
26.47824580012892
 20
-57.33419129084189
 30
0.0
 11
26.47824580012892
 21
-57.83419129084187
 31
0.0
  0
LINE
  5
43D
  8
0
  6
CONTINUOUS
 62
     4
 10
-101.5713367831263
 20
132.5555483226735
 30
0.0
 11
-101.5713367831263
 21
121.5555483226735
 31
0.0
  0
LINE
  5
43E
  8
0
  6
CONTINUOUS
 62
     4
 10
-100.5713367831263
 20
132.5555483226735
 30
0.0
 11
-100.5713367831263
 21
121.5555483226735
 31
0.0
  0
LINE
  5
43F
  8
0
  6
CONTINUOUS
 62
     4
 10
-114.5713367831263
 20
116.5555483226735
 30
0.0
 11
-91.5713367831263
 21
116.5555483226735
 31
0.0
  0
LINE
  5
440
  8
0
  6
CONTINUOUS
 62
     4
 10
-114.5713367831263
 20
108.5555483226735
 30
0.0
 11
-91.5713367831263
 21
108.5555483226735
 31
0.0
  0
LINE
  5
441
  8
0
  6
CONTINUOUS
 62
     4
 10
-114.5713367831263
 20
86.55554832267347
 30
0.0
 11
-91.5713367831263
 21
86.55554832267347
 31
0.0
  0
LINE
  5
442
  8
0
  6
CONTINUOUS
 62
     4
 10
-114.5713367831263
 20
78.55555595206801
 30
0.0
 11
-91.5713367831263
 21
78.55555595206801
 31
0.0
  0
LINE
  5
443
  8
0
  6
CONTINUOUS
 62
     4
 10
-101.5713367831263
 20
73.55555595206795
 30
0.0
 11
-101.5713367831263
 21
66.55554832267342
 31
0.0
  0
LINE
  5
444
  8
0
  6
CONTINUOUS
 62
     4
 10
-100.5713367831263
 20
73.55555595206795
 30
0.0
 11
-100.5713367831263
 21
66.55554832267342
 31
0.0
  0
LINE
  5
445
  8
0
  6
CONTINUOUS
 62
     4
 10
-117.5713367831263
 20
-15.94445167732657
 30
0.0
 11
-102.5713367831263
 21
-15.94445167732657
 31
0.0
  0
LINE
  5
446
  8
0
  6
CONTINUOUS
 62
     4
 10
-117.5713367831263
 20
-23.94445167732657
 30
0.0
 11
-102.5713367831263
 21
-23.94445167732657
 31
0.0
  0
LINE
  5
447
  8
0
  6
CONTINUOUS
 62
     4
 10
-153.5713367831263
 20
-66.44445167732656
 30
0.0
 11
-145.5713367831263
 21
-66.44445167732656
 31
0.0
  0
LINE
  5
448
  8
0
  6
CONTINUOUS
 62
     4
 10
-145.5713367831263
 20
-66.44445167732656
 30
0.0
 11
-145.5713367831263
 21
-82.44445167732656
 31
0.0
  0
LINE
  5
449
  8
0
  6
CONTINUOUS
 62
     4
 10
-153.5713367831263
 20
-66.44445167732656
 30
0.0
 11
-153.5713367831263
 21
-82.44445167732656
 31
0.0
  0
LINE
  5
44A
  8
0
  6
CONTINUOUS
 62
     4
 10
-126.5713367831263
 20
115.442518842693
 30
0.0
 11
-126.5713367831263
 21
122.5557695751149
 31
0.0
  0
LINE
  5
44B
  8
0
  6
CONTINUOUS
 62
     4
 10
-120.5713978182826
 20
115.442518842693
 30
0.0
 11
-120.5713978182826
 21
122.5557695751149
 31
0.0
  0
LINE
  5
44C
  8
0
  6
CONTINUOUS
 62
     4
 10
-140.6643252474817
 20
-6.64445244026602
 30
0.0
 11
-131.6643252474817
 21
-6.64445244026602
 31
0.0
  0
LINE
  5
44D
  8
0
  6
CONTINUOUS
 62
     4
 10
-140.6643252474817
 20
56.75554908561288
 30
0.0
 11
-131.6643252474817
 21
56.75554908561288
 31
0.0
  0
LINE
  5
44E
  8
0
  6
CONTINUOUS
 62
     4
 10
-140.6643252474817
 20
55.55554832267342
 30
0.0
 11
-131.6643252474817
 21
55.55554832267342
 31
0.0
  0
LINE
  5
44F
  8
0
  6
CONTINUOUS
 62
     4
 10
-140.6643252474817
 20
50.55554832267342
 30
0.0
 11
-131.6643252474817
 21
50.55554832267342
 31
0.0
  0
LINE
  5
450
  8
0
  6
CONTINUOUS
 62
     4
 10
-40.5218293446585
 20
-40.08419129084184
 30
0.0
 11
-27.5218293446585
 21
-40.08419129084184
 31
0.0
  0
LINE
  5
451
  8
0
  6
CONTINUOUS
 62
     4
 10
-16.52182934465853
 20
-38.08418366144736
 30
0.0
 11
-16.5218293446585
 21
-30.08419129084187
 31
0.0
  0
LINE
  5
452
  8
0
  6
CONTINUOUS
 62
     4
 10
-24.52182934465853
 20
-38.08418366144734
 30
0.0
 11
-24.52182934465853
 21
-30.08419129084186
 31
0.0
  0
LINE
  5
453
  8
0
  6
CONTINUOUS
 62
     4
 10
124.9598113140904
 20
71.05554832267342
 30
0.0
 11
135.9598113140904
 21
71.05554832267342
 31
0.0
  0
LINE
  5
454
  8
0
  6
CONTINUOUS
 62
     4
 10
124.9598113140904
 20
68.05554832267342
 30
0.0
 11
135.9598113140904
 21
68.05554832267342
 31
0.0
  0
LINE
  5
455
  8
0
  6
CONTINUOUS
 62
     4
 10
124.9598113140904
 20
69.55554832267342
 30
0.0
 11
135.9598113140904
 21
69.55554832267342
 31
0.0
  0
LINE
  5
456
  8
0
  6
CONTINUOUS
 62
     4
 10
151.9598113140904
 20
75.55554832267342
 30
0.0
 11
162.9598113140904
 21
75.55554832267342
 31
0.0
  0
LINE
  5
457
  8
0
  6
CONTINUOUS
 62
     4
 10
151.9598113140904
 20
71.05554832267342
 30
0.0
 11
162.9598113140904
 21
71.05554832267342
 31
0.0
  0
LINE
  5
458
  8
0
  6
CONTINUOUS
 62
     4
 10
151.9598113140904
 20
129.5555483226735
 30
0.0
 11
162.9598113140904
 21
129.5555483226735
 31
0.0
  0
LINE
  5
459
  8
0
  6
CONTINUOUS
 62
     4
 10
151.9598113140904
 20
128.0555483226735
 30
0.0
 11
162.9598113140904
 21
128.0555483226735
 31
0.0
  0
LINE
  5
45A
  8
0
  6
CONTINUOUS
 62
     4
 10
151.9598113140904
 20
126.5555483226735
 30
0.0
 11
162.9598113140904
 21
126.5555483226735
 31
0.0
  0
LINE
  5
45B
  8
0
  6
CONTINUOUS
 62
     4
 10
151.9598113140904
 20
69.55554832267342
 30
0.0
 11
162.9598113140904
 21
69.55554832267342
 31
0.0
  0
LINE
  5
45C
  8
0
  6
CONTINUOUS
 62
     4
 10
151.9598113140904
 20
125.0555483226735
 30
0.0
 11
162.9598113140904
 21
125.0555483226735
 31
0.0
  0
LINE
  5
45D
  8
0
  6
CONTINUOUS
 62
     4
 10
151.9598113140904
 20
72.55554832267342
 30
0.0
 11
162.9598113140904
 21
72.55554832267342
 31
0.0
  0
LINE
  5
45E
  8
0
  6
CONTINUOUS
 62
     4
 10
151.9598113140904
 20
123.5555483226735
 30
0.0
 11
162.9598113140904
 21
123.5555483226735
 31
0.0
  0
LINE
  5
45F
  8
0
  6
CONTINUOUS
 62
     4
 10
151.9598113140904
 20
74.05554832267342
 30
0.0
 11
162.9598113140904
 21
74.05554832267342
 31
0.0
  0
LINE
  5
460
  8
0
  6
CONTINUOUS
 62
     4
 10
124.9598113140904
 20
123.5555483226735
 30
0.0
 11
135.9598113140904
 21
123.5555483226735
 31
0.0
  0
LINE
  5
461
  8
0
  6
CONTINUOUS
 62
     4
 10
124.9598113140904
 20
72.55554832267342
 30
0.0
 11
135.9598113140904
 21
72.55554832267342
 31
0.0
  0
LINE
  5
462
  8
0
  6
CONTINUOUS
 62
     4
 10
124.9598113140904
 20
75.55554832267342
 30
0.0
 11
135.9598113140904
 21
75.55554832267342
 31
0.0
  0
LINE
  5
463
  8
0
  6
CONTINUOUS
 62
     4
 10
151.9598113140904
 20
68.05554832267342
 30
0.0
 11
162.9598113140904
 21
68.05554832267342
 31
0.0
  0
LINE
  5
464
  8
0
  6
CONTINUOUS
 62
     4
 10
151.9598113140904
 20
131.0555483226735
 30
0.0
 11
162.9598113140904
 21
131.0555483226735
 31
0.0
  0
LINE
  5
465
  8
0
  6
CONTINUOUS
 62
     4
 10
124.9598113140904
 20
131.0555483226735
 30
0.0
 11
135.9598113140904
 21
131.0555483226735
 31
0.0
  0
LINE
  5
466
  8
0
  6
CONTINUOUS
 62
     4
 10
124.9598113140904
 20
129.5555483226735
 30
0.0
 11
135.9598113140904
 21
129.5555483226735
 31
0.0
  0
LINE
  5
467
  8
0
  6
CONTINUOUS
 62
     4
 10
124.9598113140904
 20
128.0555483226735
 30
0.0
 11
135.9598113140904
 21
128.0555483226735
 31
0.0
  0
LINE
  5
468
  8
0
  6
CONTINUOUS
 62
     4
 10
124.9598113140904
 20
126.5555483226735
 30
0.0
 11
135.9598113140904
 21
126.5555483226735
 31
0.0
  0
LINE
  5
469
  8
0
  6
CONTINUOUS
 62
     4
 10
124.9598113140904
 20
125.0555483226735
 30
0.0
 11
135.9598113140904
 21
125.0555483226735
 31
0.0
  0
LINE
  5
46A
  8
0
  6
CONTINUOUS
 62
     4
 10
124.9598113140904
 20
74.05554832267342
 30
0.0
 11
135.9598113140904
 21
74.05554832267342
 31
0.0
  0
LINE
  5
46B
  8
0
  6
CONTINUOUS
 62
     4
 10
135.959763825127
 20
-76.44447600681889
 30
0.0
 11
124.9597639731999
 21
-76.44447609230882
 31
0.0
  0
LINE
  5
46C
  8
0
  6
CONTINUOUS
 62
     4
 10
162.9597634849908
 20
-79.44447575659643
 30
0.0
 11
151.9597636330637
 21
-79.44447584208638
 31
0.0
  0
LINE
  5
46D
  8
0
  6
CONTINUOUS
 62
     4
 10
135.9597638018116
 20
-73.44447604720241
 30
0.0
 11
124.9597639498845
 21
-73.44447613269233
 31
0.0
  0
LINE
  5
46E
  8
0
  6
CONTINUOUS
 62
     4
 10
135.959763370476
 20
-17.94447679429755
 30
0.0
 11
124.9597635185489
 21
-17.94447687978748
 31
0.0
  0
LINE
  5
46F
  8
0
  6
CONTINUOUS
 62
     4
 10
135.9597638601002
 20
-80.9444759462436
 30
0.0
 11
124.9597640081731
 21
-80.94447603173353
 31
0.0
  0
LINE
  5
470
  8
0
  6
CONTINUOUS
 62
     4
 10
162.9597634966485
 20
-80.94447573640468
 30
0.0
 11
151.9597636447214
 21
-80.94447582189461
 31
0.0
  0
LINE
  5
471
  8
0
  6
CONTINUOUS
 62
     4
 10
162.9597634383599
 20
-73.44447583736348
 30
0.0
 11
151.9597635864328
 21
-73.44447592285343
 31
0.0
  0
LINE
  5
472
  8
0
  6
CONTINUOUS
 62
     4
 10
162.9597630419975
 20
-22.44447652388333
 30
0.0
 11
151.9597631900704
 21
-22.44447660937326
 31
0.0
  0
LINE
  5
473
  8
0
  6
CONTINUOUS
 62
     4
 10
162.9597630653129
 20
-25.44447648349982
 30
0.0
 11
151.9597632133858
 21
-25.44447656898975
 31
0.0
  0
LINE
  5
474
  8
0
  6
CONTINUOUS
 62
     4
 10
162.9597634733331
 20
-77.94447577678821
 30
0.0
 11
151.959763621406
 21
-77.94447586227814
 31
0.0
  0
LINE
  5
475
  8
0
  6
CONTINUOUS
 62
     4
 10
135.9597634171069
 20
-23.9444767135305
 30
0.0
 11
124.9597635651798
 21
-23.94447679902044
 31
0.0
  0
LINE
  5
476
  8
0
  6
CONTINUOUS
 62
     4
 10
162.9597634616754
 20
-76.44447579697996
 30
0.0
 11
151.9597636097483
 21
-76.4444758824699
 31
0.0
  0
LINE
  5
477
  8
0
  6
CONTINUOUS
 62
     4
 10
135.9597638484425
 20
-79.44447596643536
 30
0.0
 11
124.9597639965154
 21
-79.44447605192531
 31
0.0
  0
LINE
  5
478
  8
0
  6
CONTINUOUS
 62
     4
 10
162.9597634500176
 20
-74.94447581717172
 30
0.0
 11
151.9597635980906
 21
-74.94447590266165
 31
0.0
  0
LINE
  5
479
  8
0
  6
CONTINUOUS
 62
     4
 10
162.9597630536552
 20
-23.94447650369157
 30
0.0
 11
151.9597632017281
 21
-23.94447658918151
 31
0.0
  0
LINE
  5
47A
  8
0
  6
CONTINUOUS
 62
     4
 10
135.9597638367848
 20
-77.94447598662713
 30
0.0
 11
124.9597639848577
 21
-77.94447607211706
 31
0.0
  0
LINE
  5
47B
  8
0
  6
CONTINUOUS
 62
     4
 10
135.9597633937915
 20
-20.94447675391402
 30
0.0
 11
124.9597635418644
 21
-20.94447683940395
 31
0.0
  0
LINE
  5
47C
  8
0
  6
CONTINUOUS
 62
     4
 10
135.9597634287646
 20
-25.44447669333874
 30
0.0
 11
124.9597635768375
 21
-25.44447677882868
 31
0.0
  0
LINE
  5
47D
  8
0
  6
CONTINUOUS
 62
     4
 10
162.9597630070243
 20
-17.94447658445863
 30
0.0
 11
151.9597631550973
 21
-17.94447666994855
 31
0.0
  0
LINE
  5
47E
  8
0
  6
CONTINUOUS
 62
     4
 10
162.9597630186821
 20
-19.44447656426687
 30
0.0
 11
151.959763166755
 21
-19.44447664975679
 31
0.0
  0
LINE
  5
47F
  8
0
  6
CONTINUOUS
 62
     4
 10
135.9597633821338
 20
-19.44447677410579
 30
0.0
 11
124.9597635302067
 21
-19.44447685959572
 31
0.0
  0
LINE
  5
480
  8
0
  6
CONTINUOUS
 62
     4
 10
135.9597638134693
 20
-74.94447602701064
 30
0.0
 11
124.9597639615422
 21
-74.94447611250058
 31
0.0
  0
LINE
  5
481
  8
0
  6
CONTINUOUS
 62
     4
 10
135.9597634054492
 20
-22.44447673372226
 30
0.0
 11
124.9597635535221
 21
-22.44447681921219
 31
0.0
  0
LINE
  5
482
  8
0
  6
CONTINUOUS
 62
     4
 10
162.9597630303398
 20
-20.94447654407509
 30
0.0
 11
151.9597631784127
 21
-20.94447662956502
 31
0.0
  0
CIRCLE
  5
483
  8
0
  6
CONTINUOUS
 62
     4
 10
143.9598113140904
 20
25.05554832267343
 30
0.0
 40
31.70000076293945
  0
ARC
  5
484
  8
0
  6
CONTINUOUS
 62
     4
 10
143.9598113140904
 20
25.05554832267343
 30
0.0
 40
42.0
 50
120.79078898103
 51
143.9217983411684
  0
ARC
  5
485
  8
0
  6
CONTINUOUS
 62
     4
 10
143.9598113140904
 20
25.05554832267343
 30
0.0
 40
54.0
 50
291.7384056601881
 51
426.5375377242974
  0
ARC
  5
486
  8
0
  6
CONTINUOUS
 62
     4
 10
143.9598113140904
 20
25.05554832267343
 30
0.0
 40
60.0
 50
336.7490638674002
 51
383.2509361325998
  0
ARC
  5
487
  8
0
  6
CONTINUOUS
 62
     4
 10
143.9598113140904
 20
25.05554832267343
 30
0.0
 40
66.0
 50
338.6255576058998
 51
381.3744423941002
  0
ARC
  5
488
  8
0
  6
CONTINUOUS
 62
     4
 10
143.9598113140904
 20
25.05554832267343
 30
0.0
 40
72.0
 50
337.0038459762934
 51
382.9961540237065
  0
ARC
  5
489
  8
0
  6
CONTINUOUS
 62
     4
 10
143.9598113140904
 20
25.05554832267343
 30
0.0
 40
48.0
 50
116.6100984919569
 51
144.3146981429842
  0
ARC
  5
48A
  8
0
  6
CONTINUOUS
 62
     4
 10
143.9598113140904
 20
25.05554832267343
 30
0.0
 40
54.0
 50
113.4624604544698
 51
248.2614846921755
  0
ARC
  5
48B
  8
0
  6
CONTINUOUS
 62
     4
 10
143.9598113140904
 20
25.05554832267343
 30
0.0
 40
60.0
 50
110.99787548493
 51
143.2509212179037
  0
ARC
  5
48C
  8
0
  6
CONTINUOUS
 62
     4
 10
143.9598113140904
 20
25.05554832267343
 30
0.0
 40
66.0
 50
109.0114788893718
 51
141.3744274794041
  0
ARC
  5
48D
  8
0
  6
CONTINUOUS
 62
     4
 10
143.9598113140904
 20
25.05554832267343
 30
0.0
 40
72.0
 50
107.3742005830497
 51
142.9961391090104
  0
CIRCLE
  5
48E
  8
0
  6
CONTINUOUS
 62
     4
 10
104.9886809429966
 20
47.55556358146249
 30
0.0
 40
4.0
  0
CIRCLE
  5
48F
  8
0
  6
CONTINUOUS
 62
     4
 10
182.9309416851841
 20
47.55554069327889
 30
0.0
 40
4.0
  0
ARC
  5
490
  8
0
  6
CONTINUOUS
 62
     4
 10
143.9598113140904
 20
25.05554832267343
 30
0.0
 40
66.0
 50
38.60137230547394
 51
70.98851928939534
  0
ARC
  5
491
  8
0
  6
CONTINUOUS
 62
     4
 10
143.9598113140904
 20
25.05554832267343
 30
0.0
 40
60.0
 50
36.74907878209638
 51
69.00212269383722
  0
ARC
  5
492
  8
0
  6
CONTINUOUS
 62
     4
 10
143.9598113140904
 20
25.05554832267343
 30
0.0
 40
72.0
 50
37.00386089098961
 51
72.62579759571744
  0
ARC
  5
493
  8
0
  6
CONTINUOUS
 62
     4
 10
143.9598113140904
 20
25.05554832267343
 30
0.0
 40
48.0
 50
35.68528979049918
 51
63.38990651699948
  0
ARC
  5
494
  8
0
  6
CONTINUOUS
 62
     4
 10
143.9598113140904
 20
25.05554832267343
 30
0.0
 40
42.0
 50
36.07818959231499
 51
59.20921602792637
  0
LINE
  5
495
  8
0
  6
CONTINUOUS
 62
     4
 10
-13.5218293446585
 20
-40.08419129084186
 30
0.0
 11
-0.5218293446584994
 21
-40.08419129084184
 31
0.0
  0
CIRCLE
  5
496
  8
0
  6
CONTINUOUS
 62
     4
 10
182.9309416851841
 20
2.555555952067969
 30
0.0
 40
4.0
  0
ARC
  5
497
  8
0
  6
CONTINUOUS
 62
     4
 10
143.9598113140904
 20
25.05554832267343
 30
0.0
 40
72.0
 50
157.0038459762935
 51
202.9961540237066
  0
ARC
  5
498
  8
0
  6
CONTINUOUS
 62
     4
 10
143.9598113140904
 20
25.05554832267343
 30
0.0
 40
72.0
 50
217.0038608909896
 51
253.8723403738076
  0
ARC
  5
499
  8
0
  6
CONTINUOUS
 62
     4
 10
143.9598113140904
 20
25.05554832267343
 30
0.0
 40
66.0
 50
158.6255576058998
 51
201.3744423941002
  0
ARC
  5
49A
  8
0
  6
CONTINUOUS
 62
     4
 10
143.9598113140904
 20
25.05554832267343
 30
0.0
 40
66.0
 50
218.6255725205959
 51
252.360255219541
  0
ARC
  5
49B
  8
0
  6
CONTINUOUS
 62
     4
 10
143.9598113140904
 20
25.05554832267343
 30
0.0
 40
60.0
 50
157.9930635228151
 51
203.2509361325998
  0
ARC
  5
49C
  8
0
  6
CONTINUOUS
 62
     4
 10
143.9598113140904
 20
25.05554832267343
 30
0.0
 40
60.0
 50
216.7490787820964
 51
250.5287310759499
  0
ARC
  5
49D
  8
0
  6
CONTINUOUS
 62
     4
 10
143.9598113140904
 20
25.05554832267343
 30
0.0
 40
42.0
 50
298.4368151126985
 51
325.2226152364972
  0
ARC
  5
49E
  8
0
  6
CONTINUOUS
 62
     4
 10
143.9598113140904
 20
25.05554832267343
 30
0.0
 40
42.0
 50
334.4283298172521
 51
383.9217915867696
  0
ARC
  5
49F
  8
0
  6
CONTINUOUS
 62
     4
 10
143.9598113140904
 20
25.05554832267343
 30
0.0
 40
48.0
 50
294.6242549102369
 51
325.817012482152
  0
ARC
  5
4A0
  8
0
  6
CONTINUOUS
 62
     4
 10
143.9598113140904
 20
25.05554832267343
 30
0.0
 40
48.0
 50
334.5400781812265
 51
384.3146913885854
  0
CIRCLE
  5
4A1
  8
0
  6
CONTINUOUS
 62
     4
 10
104.9886809429966
 20
2.555533063884376
 30
0.0
 40
4.0
  0
ARC
  5
4A2
  8
0
  6
CONTINUOUS
 62
     4
 10
143.9598113140904
 20
25.05554832267343
 30
0.0
 40
48.0
 50
155.685296544898
 51
204.9354938222909
  0
ARC
  5
4A3
  8
0
  6
CONTINUOUS
 62
     4
 10
143.9598113140904
 20
25.05554832267343
 30
0.0
 40
48.0
 50
215.0575847722286
 51
245.3756189128971
  0
ARC
  5
4A4
  8
0
  6
CONTINUOUS
 62
     4
 10
143.9598113140904
 20
25.05554832267343
 30
0.0
 40
42.0
 50
156.0781963467138
 51
203.7523494916729
  0
ARC
  5
4A5
  8
0
  6
CONTINUOUS
 62
     4
 10
143.9598113140904
 20
25.05554832267343
 30
0.0
 40
42.0
 50
215.1696486445563
 51
241.563035650265
  0
CIRCLE
  5
4A6
  8
0
  6
CONTINUOUS
 62
     4
 10
143.9598113140904
 20
53.05554832267342
 30
0.0
 40
3.0
  0
CIRCLE
  5
4A7
  8
0
  6
CONTINUOUS
 62
     4
 10
119.7109239213656
 20
11.05554832267347
 30
0.0
 40
3.0
  0
CIRCLE
  5
4A8
  8
0
  6
CONTINUOUS
 62
     4
 10
168.2084345766744
 20
11.05539582706561
 30
0.0
 40
2.999999999999999
  0
ARC
  5
4A9
  8
0
  6
CONTINUOUS
 62
     4
 10
143.9598113140904
 20
25.05554832267343
 30
0.0
 40
72.0
 50
286.1276596261924
 51
322.9961391090104
  0
ARC
  5
4AA
  8
0
  6
CONTINUOUS
 62
     4
 10
143.9598113140904
 20
25.05554832267343
 30
0.0
 40
66.0
 50
287.639744780459
 51
321.374427479404
  0
ARC
  5
4AB
  8
0
  6
CONTINUOUS
 62
     4
 10
143.9598113140904
 20
25.05554832267343
 30
0.0
 40
60.0
 50
289.4712689240502
 51
323.2509212179036
  0
LINE
  5
4AC
  8
0
  6
DIVIDE
 62
     9
 10
-215.3379993807825
 20
-36.46945320320548
 30
0.0
 11
-179.5713367831263
 21
-36.46945320320548
 31
0.0
  0
LINE
  5
4AD
  8
0
  6
DIVIDE
 62
     9
 10
-215.3379993807825
 20
-46.76945625496329
 30
0.0
 11
-179.5713367831263
 21
-46.76945625496329
 31
0.0
  0
LINE
  5
4AE
  8
0
  6
DIVIDE
 62
     9
 10
-215.3379993807825
 20
-35.61945472908438
 30
0.0
 11
-136.0738076000545
 21
-35.61945472908438
 31
0.0
  0
LINE
  5
4AF
  8
0
  6
DIVIDE
 62
     9
 10
-215.3379993807825
 20
-47.61945472908438
 30
0.0
 11
-136.0738076000545
 21
-47.61945472908438
 31
0.0
  0
LINE
  5
4B0
  8
0
  6
DIVIDE
 62
     9
 10
-179.5713367831263
 20
-35.61945472908438
 30
0.0
 11
-179.5713367831263
 21
-47.61945472908438
 31
0.0
  0
LINE
  5
4B1
  8
0
  6
DIVIDE
 62
     9
 10
-215.5713367831263
 20
-35.61945472908438
 30
0.0
 11
-215.5713367831263
 21
-47.61945472908438
 31
0.0
  0
LINE
  5
4B2
  8
0
  6
DIVIDE
 62
     9
 10
-118.5338182284388
 20
61.55554832267342
 30
0.0
 11
-118.5338182284388
 21
42.11963905143319
 31
0.0
  0
LINE
  5
4B3
  8
0
  6
DIVIDE
 62
     9
 10
-118.5338363072981
 20
61.55554020645548
 30
0.0
 11
-119.0338260484998
 21
62.0555299476572
 31
0.0
  0
TEXT
  5
4B4
  8
0
 62
     7
 10
-218.2758737858931
 20
148.1479946143234
 30
0.0
 40
4.0
  1
MIN 0
 41
0.8
  7
FDASTYLE1
 72
     5
 11
-202.2758737858931
 21
148.1479946143234
 31
0.0
  0
TEXT
  5
4B5
  8
0
 62
     7
 10
-22.05527459445525
 20
34.37644883727252
 30
0.0
 40
4.0
  1
MIN31.9
 50
90.0
 41
0.8000000000000002
  7
FDASTYLE1
 72
     5
 11
-22.05527459445525
 21
56.77644883727253
 31
0.0
  0
TEXT
  5
4B6
  8
0
 62
     7
 10
-182.8161882131564
 20
-113.6780216707167
 30
0.0
 40
4.0
  1
MIN33
 41
0.8
  7
FDASTYLE1
 72
     5
 11
-166.8161882131564
 21
-113.6780216707167
 31
0.0
  0
INSERT
  5
4B7
  8
LAYER0014
  6
CONTINUOUS
  2
DC_GROUP_1
 10
0.0
 20
0.0
 30
0.0
  0
INSERT
  5
4B8
  8
LAYER0014
  6
CONTINUOUS
  2
DA_IMAGEDIMGROUP_1
 10
0.0
 20
0.0
 30
0.0
  0
INSERT
  5
4B9
  8
LAYER0014
  6
CONTINUOUS
  2
DA_IMAGEDIMGROUP_2
 10
0.0
 20
0.0
 30
0.0
  0
INSERT
  5
4BA
  8
LAYER0014
  6
CONTINUOUS
  2
DA_IMAGEDIMGROUP_3
 10
0.0
 20
0.0
 30
0.0
  0
INSERT
  5
4BB
  8
LAYER0014
  6
CONTINUOUS
  2
DA_IMAGEDIMGROUP_4
 10
0.0
 20
0.0
 30
0.0
  0
INSERT
  5
4BC
  8
LAYER0014
  6
CONTINUOUS
  2
DC_GROUP_2
 10
0.0
 20
0.0
 30
0.0
  0
INSERT
  5
4BD
  8
LAYER0014
  6
CONTINUOUS
  2
DC_GROUP_4
 10
0.0
 20
0.0
 30
0.0
  0
INSERT
  5
4BE
  8
LAYER0014
  6
CONTINUOUS
  2
DA_IMAGEDIMGROUP_19
 10
0.0
 20
0.0
 30
0.0
  0
INSERT
  5
4BF
  8
LAYER0014
  6
CONTINUOUS
  2
DA_IMAGEDIMGROUP_20
 10
0.0
 20
0.0
 30
0.0
  0
INSERT
  5
4C0
  8
LAYER0014
  6
CONTINUOUS
  2
DA_IMAGEDIMGROUP_21
 10
0.0
 20
0.0
 30
0.0
  0
INSERT
  5
4C1
  8
0
  6
CONTINUOUS
  2
DA_IMAGEDIMGROUP_5
 10
0.0
 20
0.0
 30
0.0
  0
INSERT
  5
4C2
  8
0
  6
CONTINUOUS
  2
DA_IMAGEDIMGROUP_6
 10
0.0
 20
0.0
 30
0.0
  0
INSERT
  5
4C3
  8
0
  6
CONTINUOUS
  2
DA_IMAGEDIMGROUP_7
 10
0.0
 20
0.0
 30
0.0
  0
INSERT
  5
4C4
  8
0
  6
CONTINUOUS
  2
DA_IMAGEDIMGROUP_8
 10
0.0
 20
0.0
 30
0.0
  0
INSERT
  5
4C5
  8
0
  6
CONTINUOUS
  2
DA_IMAGEDIMGROUP_9
 10
0.0
 20
0.0
 30
0.0
  0
INSERT
  5
4C6
  8
0
  6
CONTINUOUS
  2
DA_IMAGEDIMGROUP_10
 10
0.0
 20
0.0
 30
0.0
  0
INSERT
  5
4C7
  8
0
  6
CONTINUOUS
  2
DA_IMAGEDIMGROUP_11
 10
0.0
 20
0.0
 30
0.0
  0
INSERT
  5
4C8
  8
0
  6
CONTINUOUS
  2
DC_GROUP_3
 10
0.0
 20
0.0
 30
0.0
  0
INSERT
  5
4C9
  8
0
  6
CONTINUOUS
  2
DA_IMAGEDIMGROUP_12
 10
0.0
 20
0.0
 30
0.0
  0
INSERT
  5
4CA
  8
0
  6
CONTINUOUS
  2
DA_IMAGEDIMGROUP_13
 10
0.0
 20
0.0
 30
0.0
  0
INSERT
  5
4CB
  8
0
  6
CONTINUOUS
  2
DA_IMAGEDIMGROUP_14
 10
0.0
 20
0.0
 30
0.0
  0
INSERT
  5
4CC
  8
0
  6
CONTINUOUS
  2
DA_IMAGEDIMGROUP_15
 10
0.0
 20
0.0
 30
0.0
  0
INSERT
  5
4CD
  8
0
  6
CONTINUOUS
  2
DC_GROUP_5
 10
0.0
 20
0.0
 30
0.0
  0
INSERT
  5
4CE
  8
0
  6
CONTINUOUS
  2
DA_IMAGEDIMGROUP_16
 10
0.0
 20
0.0
 30
0.0
  0
INSERT
  5
4CF
  8
0
  6
CONTINUOUS
  2
DA_IMAGEDIMGROUP_17
 10
0.0
 20
0.0
 30
0.0
  0
INSERT
  5
4D0
  8
0
  6
CONTINUOUS
  2
DA_IMAGEDIMGROUP_18
 10
0.0
 20
0.0
 30
0.0
  0
INSERT
  5
4D1
  8
0
  6
CONTINUOUS
  2
DA_IMAGEDIMGROUP_22
 10
0.0
 20
0.0
 30
0.0
  0
INSERT
  5
4D2
  8
0
  6
CONTINUOUS
  2
DA_IMAGEDIMGROUP_23
 10
0.0
 20
0.0
 30
0.0
  0
INSERT
  5
4D3
  8
0
  6
CONTINUOUS
  2
DA_IMAGEDIMGROUP_24
 10
0.0
 20
0.0
 30
0.0
  0
INSERT
  5
4D4
  8
0
  6
CONTINUOUS
  2
DA_IMAGEDIMGROUP_25
 10
0.0
 20
0.0
 30
0.0
  0
INSERT
  5
4D5
  8
0
  6
CONTINUOUS
  2
DA_IMAGEDIMGROUP_26
 10
0.0
 20
0.0
 30
0.0
  0
INSERT
  5
4D6
  8
0
  6
CONTINUOUS
  2
DA_IMAGEDIMGROUP_27
 10
0.0
 20
0.0
 30
0.0
  0
INSERT
  5
4D7
  8
0
  6
CONTINUOUS
  2
DA_IMAGEDIMGROUP_28
 10
0.0
 20
0.0
 30
0.0
  0
INSERT
  5
4D8
  8
0
  6
CONTINUOUS
  2
DC_GROUP_6
 10
0.0
 20
0.0
 30
0.0
  0
INSERT
  5
4D9
  8
0
  6
CONTINUOUS
  2
DC_GROUP_7
 10
0.0
 20
0.0
 30
0.0
  0
INSERT
  5
4DA
  8
0
  6
CONTINUOUS
  2
DC_GROUP_8
 10
0.0
 20
0.0
 30
0.0
  0
LINE
  5
4DB
  8
0
  6
CONTINUOUS
 62
     2
 10
143.959765187119
 20
-37.14446889379128
 30
0.0
 11
148.0300974984945
 21
-34.79446713810766
 31
0.0
  0
LINE
  5
4DC
  8
0
  6
CONTINUOUS
 62
     2
 10
148.0300758389503
 20
-34.79445205960639
 30
0.0
 11
148.0300758024231
 21
-30.09450095099826
 31
0.0
  0
LINE
  5
4DD
  8
0
  6
CONTINUOUS
 62
     2
 10
148.0300788009113
 20
-30.09452473336894
 30
0.0
 11
143.9597618911669
 21
-27.74452616984087
 31
0.0
  0
LINE
  5
4DE
  8
0
  6
CONTINUOUS
 62
     2
 10
143.9598077520858
 20
-27.74446073171455
 30
0.0
 11
139.8894753006391
 21
-30.09446273000874
 31
0.0
  0
LINE
  5
4DF
  8
0
  6
CONTINUOUS
 62
     2
 10
139.8894509120055
 20
-30.09450101426567
 30
0.0
 11
139.8894509485327
 21
-34.7944521228738
 31
0.0
  0
LINE
  5
4E0
  8
0
  6
CONTINUOUS
 62
     2
 10
139.8894396867692
 20
-34.79450861968697
 30
0.0
 11
143.9597596936619
 21
-37.14450897135438
 31
0.0
  0
LINE
  5
4E1
  8
0
  6
CONTINUOUS
 62
     2
 10
148.0300760721047
 20
-64.79445165577118
 30
0.0
 11
148.0300760355775
 21
-60.09450054716304
 31
0.0
  0
LINE
  5
4E2
  8
0
  6
CONTINUOUS
 62
     2
 10
143.9597395848392
 20
-67.14447819354707
 30
0.0
 11
148.0300718962147
 21
-64.79447643786347
 31
0.0
  0
LINE
  5
4E3
  8
0
  6
CONTINUOUS
 62
     2
 10
148.0300906108195
 20
-60.09447471410407
 30
0.0
 11
143.9597746818387
 21
-57.74447671682014
 31
0.0
  0
LINE
  5
4E4
  8
0
  6
CONTINUOUS
 62
     2
 10
143.9597830438764
 20
-57.7444715800448
 30
0.0
 11
139.8894505924296
 21
-60.09447357833899
 31
0.0
  0
LINE
  5
4E5
  8
0
  6
CONTINUOUS
 62
     2
 10
139.8894511451599
 20
-60.09450061043045
 30
0.0
 11
139.889451181687
 21
-64.79445171903859
 31
0.0
  0
LINE
  5
4E6
  8
0
  6
CONTINUOUS
 62
     2
 10
139.8894324901667
 20
-64.79451810433582
 30
0.0
 11
143.9597492450538
 21
-67.14451657845692
 31
0.0
  0
LINE
  5
4E7
  8
0
  6
CONTINUOUS
 62
     2
 10
148.0301315276313
 20
114.9055221954068
 30
0.0
 11
143.9598047128687
 21
117.2555339017735
 31
0.0
  0
LINE
  5
4E8
  8
0
  6
CONTINUOUS
 62
     2
 10
148.0301238140904
 20
110.2055422191579
 30
0.0
 11
148.0301238140904
 21
114.9055391674001
 31
0.0
  0
LINE
  5
4E9
  8
0
  6
CONTINUOUS
 62
     2
 10
143.9597892771065
 20
107.8555720046451
 30
0.0
 11
148.0301216947203
 21
110.2055739060224
 31
0.0
  0
LINE
  5
4EA
  8
0
  6
CONTINUOUS
 62
     2
 10
139.8894585139945
 20
110.2055471505837
 30
0.0
 11
143.9597864493274
 21
107.8555376853573
 31
0.0
  0
LINE
  5
4EB
  8
0
  6
CONTINUOUS
 62
     2
 10
139.8894988140904
 20
114.9055467967946
 30
0.0
 11
139.8894988140904
 21
110.2055498485524
 31
0.0
  0
LINE
  5
4EC
  8
0
  6
CONTINUOUS
 62
     2
 10
143.959808686582
 20
117.2555456077398
 30
0.0
 11
139.8894762689682
 21
114.9055438464338
 31
0.0
  0
LINE
  5
4ED
  8
0
  6
CONTINUOUS
 62
     2
 10
143.959782776324
 20
87.25553570277492
 30
0.0
 11
139.8895032167378
 21
84.90556445899068
 31
0.0
  0
LINE
  5
4EE
  8
0
  6
CONTINUOUS
 62
     2
 10
139.8894988140904
 20
84.90554679679457
 30
0.0
 11
139.8894988140904
 21
80.20554984855238
 31
0.0
  0
LINE
  5
4EF
  8
0
  6
CONTINUOUS
 62
     2
 10
143.9598322579253
 20
77.8555657411552
 30
0.0
 11
148.0301118175115
 21
80.2055371250089
 31
0.0
  0
LINE
  5
4F0
  8
0
  6
CONTINUOUS
 62
     2
 10
148.0301238140904
 20
80.20554221915785
 30
0.0
 11
148.0301238140904
 21
84.90553916740004
 31
0.0
  0
LINE
  5
4F1
  8
0
  6
CONTINUOUS
 62
     2
 10
148.030099840916
 20
84.905537951442
 30
0.0
 11
143.9598258841082
 21
87.2555191401579
 31
0.0
  0
LINE
  5
4F2
  8
0
  6
CONTINUOUS
 62
     2
 10
139.8894275333308
 20
80.20553743589966
 30
0.0
 11
143.9597554686637
 21
77.85552797067334
 31
0.0
  0
CIRCLE
  5
4F3
  8
0
  6
CONTINUOUS
 62
     2
 10
143.9597835413125
 20
-32.44446022735227
 30
0.0
 40
8.0
  0
CIRCLE
  5
4F4
  8
0
  6
CONTINUOUS
 62
     2
 10
143.9597776351884
 20
-62.44447045705919
 30
0.0
 40
8.0
  0
CIRCLE
  5
4F5
  8
0
  6
CONTINUOUS
 62
     2
 10
143.9598113140904
 20
112.5555483226735
 30
0.0
 40
8.0
  0
CIRCLE
  5
4F6
  8
0
  6
CONTINUOUS
 62
     2
 10
143.9598113140904
 20
82.55554832267347
 30
0.0
 40
8.0
  0
LINE
  5
4F7
  8
0
  6
DASHED2
 62
     3
 10
136.9598113140904
 20
122.555800092693
 30
0.0
 11
135.9598113140904
 21
122.555800092693
 31
0.0
  0
LINE
  5
4F8
  8
0
  6
DASHED2
 62
     3
 10
151.9598113140904
 20
122.555800092693
 30
0.0
 11
151.9598113140904
 21
132.5555483226735
 31
0.0
  0
LINE
  5
4F9
  8
0
  6
DASHED2
 62
     3
 10
135.9598113140904
 20
122.555800092693
 30
0.0
 11
135.9598113140904
 21
132.5555483226735
 31
0.0
  0
LINE
  5
4FA
  8
0
  6
DASHED2
 62
     3
 10
151.9598113140904
 20
122.555800092693
 30
0.0
 11
150.9598113140904
 21
122.555800092693
 31
0.0
  0
LINE
  5
4FB
  8
0
  6
DASHED2
 62
     3
 10
134.2098113140904
 20
132.5555483226735
 30
0.0
 11
134.2098113140904
 21
115.0293947582204
 31
0.0
  0
LINE
  5
4FC
  8
0
  6
DASHED2
 62
     3
 10
153.7098113140904
 20
132.5555483226735
 30
0.0
 11
153.7098113140904
 21
115.0293947582204
 31
0.0
  0
TEXT
  5
4FD
  8
0
 62
     5
 10
233.4098334156974
 20
-2.02364056052722
 30
0.0
 40
2.900000095367432
  1
F MAX   26KN
 50
90.0
 41
0.7991007117639066
  7
FDASTYLE1
 72
     5
 11
233.4098334156974
 21
33.37407417355026
 31
0.0
  0
TEXT
  5
4FE
  8
0
 62
     5
 10
52.45977410257939
 20
53.84112466978264
 30
0.0
 40
5.0
  1
NIKKO
 50
-90.0
 41
0.7674421159044379
  7
FDASTYLE1
 72
     5
 11
52.45977410257939
 21
30.26969327139091
 31
0.0
  0
TEXT
  5
4FF
  8
0
 62
     5
 10
52.95977410257939
 20
22.48398162531091
 30
0.0
 40
4.0
  1
 GO2-8S
 50
-90.0
 41
0.7704920544480066
  7
FDASTYLE1
 72
     5
 11
52.95977410257939
 21
-4.37316416097449
 31
0.0
  0
TEXT
  5
500
  8
0
 62
     5
 10
46.4597741025794
 20
22.12683846162988
 30
0.0
 40
3.0
  1
 0001
 50
-90.0
 41
0.7674420500137306
  7
FDASTYLE1
 72
     5
 11
46.4597741025794
 21
7.983980910055173
 31
0.0
  0
TEXT
  5
501
  8
0
 62
     5
 10
238.4098439303146
 20
-2.023646631144267
 30
0.0
 40
2.900000095367432
  1
ΣS MAX  27KN
 50
90.0
 41
0.8042452940648096
  7
FDASTYLE1
 72
     5
 11
238.4098439303146
 21
33.37406810293316
 31
0.0
  0
TEXT
  5
502
  8
0
 62
     5
 10
243.4098015869359
 20
-2.023622184183161
 30
0.0
 40
2.900000095367432
  1
N MAX 3000 AT ΣS MAX
 50
90.0
 41
0.8037156797587188
  7
FDASTYLE1
 72
     5
 11
243.4098015869359
 21
57.54814097366135
 31
0.0
  0
LINE
  5
503
  8
0
  6
CONTINUOUS
 62
     3
 10
-116.0713367831263
 20
66.55554832267342
 30
0.0
 11
-116.0713367831263
 21
59.55554832267342
 31
0.0
  0
CIRCLE
  5
504
  8
0
  6
CONTINUOUS
 62
     3
 10
116.9598113140904
 20
25.05554832267343
 30
0.0
 40
2.65
  0
CIRCLE
  5
505
  8
0
  6
CONTINUOUS
 62
     3
 10
170.9598113140904
 20
25.05554832267343
 30
0.0
 40
2.65
  0
CIRCLE
  5
506
  8
0
  6
CONTINUOUS
 62
     3
 10
143.9598113140904
 20
53.05554832267342
 30
0.0
 40
2.5
  0
CIRCLE
  5
507
  8
0
  6
CONTINUOUS
 62
     3
 10
119.7109239213656
 20
11.05554832267347
 30
0.0
 40
2.5
  0
CIRCLE
  5
508
  8
0
  6
CONTINUOUS
 62
     3
 10
168.2084345766744
 20
11.05539582706561
 30
0.0
 40
2.499999999999999
  0
CIRCLE
  5
509
  8
0
  6
CONTINUOUS
 62
     3
 10
86.21757189433109
 20
-8.28198502058229
 30
0.0
 40
9.0
  0
VIEWPORT
  5
48
 67
     1
  8
0
 10
0.0
 20
0.0
 30
0.0
 40
1662.0
 41
1140.0
 68
     1
 69
     1
1001
ACAD
1000
MVIEW
1002
{
1070
    16
1010
0.0
1020
0.0
1030
0.0
1020
0.0
1030
0.0
1010
0.0
1020
0.0
1030
1.0
1020
0.0
1030
1.0
1040
0.0
1040
1140.0
1040
0.0
1040
0.0
1040
50.0
1040
0.0
1040
0.0
1070
     0
1070
   100
1070
     0
1070
     1
1070
     0
1070
     0
1070
     0
1070
     0
1040
0.0
1040
0.0
1040
0.0
1040
0.5
1040
0.5
1040
0.0
1040
0.0
1070
     0
1002
{
1002
}
1002
}
  0
ENDSEC
  0
EOF
