  0
SECTION
  2
HEADER
  9
$ACADVER
  1
AC1009
  9
$DWGCODEPAGE
  3
ansi_932
  9
$INSBASE
 10
0.0
 20
0.0
 30
0.0
  9
$EXTMIN
 10
-831.0
 20
-569.9999999999999
 30
0.0
  9
$EXTMAX
 10
831.0
 20
569.9999999999999
 30
0.0
  9
$LIMMIN
 10
-297.0
 20
-210.0
  9
$LIMMAX
 10
297.0
 20
210.0
  9
$ORTHOMODE
 70
     0
  9
$REGENMODE
 70
     1
  9
$FILLMODE
 70
     1
  9
$QTEXTMODE
 70
     0
  9
$MIRRTEXT
 70
     1
  9
$DRAGMODE
 70
     2
  9
$LTSCALE
 40
1.0
  9
$OSMODE
 70
    37
  9
$ATTMODE
 70
     1
  9
$TEXTSIZE
 40
0.2
  9
$TRACEWID
 40
0.05
  9
$TEXTSTYLE
  7
STANDARD
  9
$CLAYER
  8
0
  9
$CELTYPE
  6
BYLAYER
  9
$CECOLOR
 62
   256
  9
$DIMSCALE
 40
1.0
  9
$DIMASZ
 40
2.5
  9
$DIMEXO
 40
0.0625
  9
$DIMDLI
 40
0.38
  9
$DIMRND
 40
0.0
  9
$DIMDLE
 40
0.0
  9
$DIMEXE
 40
0.18
  9
$DIMTP
 40
0.0
  9
$DIMTM
 40
0.0
  9
$DIMTXT
 40
0.18
  9
$DIMCEN
 40
0.09
  9
$DIMTSZ
 40
0.0
  9
$DIMTOL
 70
     0
  9
$DIMLIM
 70
     0
  9
$DIMTIH
 70
     1
  9
$DIMTOH
 70
     1
  9
$DIMSE1
 70
     0
  9
$DIMSE2
 70
     0
  9
$DIMTAD
 70
     3
  9
$DIMZIN
 70
     0
  9
$DIMBLK
  1

  9
$DIMASO
 70
     1
  9
$DIMSHO
 70
     1
  9
$DIMPOST
  1

  9
$DIMAPOST
  1

  9
$DIMALT
 70
     0
  9
$DIMALTD
 70
     2
  9
$DIMALTF
 40
25.4
  9
$DIMLFAC
 40
1.0
  9
$DIMTOFL
 70
     0
  9
$DIMTVP
 40
0.0
  9
$DIMTIX
 70
     0
  9
$DIMSOXD
 70
     0
  9
$DIMSAH
 70
     0
  9
$DIMBLK1
  1

  9
$DIMBLK2
  1

  9
$DIMSTYLE
  2
STANDARD
  9
$DIMCLRD
 70
     0
  9
$DIMCLRE
 70
     0
  9
$DIMCLRT
 70
     0
  9
$DIMTFAC
 40
1.0
  9
$DIMGAP
 40
0.09
  9
$LUNITS
 70
     2
  9
$LUPREC
 70
     4
  9
$SKETCHINC
 40
0.1
  9
$FILLETRAD
 40
0.5
  9
$AUNITS
 70
     0
  9
$AUPREC
 70
     0
  9
$MENU
  1
.
  9
$ELEVATION
 40
0.0
  9
$PELEVATION
 40
0.0
  9
$THICKNESS
 40
0.0
  9
$LIMCHECK
 70
     0
  9
$CHAMFERA
 40
0.5
  9
$CHAMFERB
 40
0.5
  9
$SKPOLY
 70
     0
  9
$TDCREATE
 40
2455597.603092477
  9
$TDUPDATE
 40
2455597.603092488
  9
$TDINDWG
 40
0.0000000116
  9
$TDUSRTIMER
 40
0.0000000116
  9
$USRTIMER
 70
     1
  9
$ANGBASE
 50
0.0
  9
$ANGDIR
 70
     0
  9
$PDMODE
 70
     0
  9
$PDSIZE
 40
1.0
  9
$PLINEWID
 40
0.0
  9
$COORDS
 70
     1
  9
$SPLFRAME
 70
     0
  9
$SPLINETYPE
 70
     6
  9
$SPLINESEGS
 70
     8
  9
$ATTDIA
 70
     0
  9
$ATTREQ
 70
     1
  9
$HANDLING
 70
     1
  9
$HANDSEED
  5
56C
  9
$SURFTAB1
 70
     6
  9
$SURFTAB2
 70
     6
  9
$SURFTYPE
 70
     6
  9
$SURFU
 70
     6
  9
$SURFV
 70
     6
  9
$UCSNAME
  2

  9
$UCSORG
 10
0.0
 20
0.0
 30
0.0
  9
$UCSXDIR
 10
1.0
 20
0.0
 30
0.0
  9
$UCSYDIR
 10
0.0
 20
1.0
 30
0.0
  9
$PUCSNAME
  2

  9
$PUCSORG
 10
0.0
 20
0.0
 30
0.0
  9
$PUCSXDIR
 10
1.0
 20
0.0
 30
0.0
  9
$PUCSYDIR
 10
0.0
 20
1.0
 30
0.0
  9
$USERI1
 70
     0
  9
$USERI2
 70
     0
  9
$USERI3
 70
     0
  9
$USERI4
 70
     0
  9
$USERI5
 70
     0
  9
$USERR1
 40
0.0
  9
$USERR2
 40
0.0
  9
$USERR3
 40
0.0
  9
$USERR4
 40
0.0
  9
$USERR5
 40
0.0
  9
$WORLDVIEW
 70
     1
  9
$SHADEDGE
 70
     3
  9
$SHADEDIF
 70
    70
  9
$TILEMODE
 70
     1
  9
$MAXACTVP
 70
    64
  9
$PLIMCHECK
 70
     0
  9
$PEXTMIN
 10
1.000000000000000E+20
 20
1.000000000000000E+20
 30
1.000000000000000E+20
  9
$PEXTMAX
 10
-1.000000000000000E+20
 20
-1.000000000000000E+20
 30
-1.000000000000000E+20
  9
$PLIMMIN
 10
0.0
 20
0.0
  9
$PLIMMAX
 10
12.0
 20
9.0
  9
$UNITMODE
 70
     0
  9
$VISRETAIN
 70
     0
  9
$PLINEGEN
 70
     1
  9
$PSLTSCALE
 70
     0
  0
ENDSEC
  0
SECTION
  2
TABLES
  0
TABLE
  2
VPORT
 70
     1
  0
VPORT
  2
*ACTIVE
 70
     0
 10
0.0
 20
0.0
 11
1.0
 21
1.0
 12
0.0
 22
0.0
 13
0.0
 23
0.0
 14
0.5
 24
0.5
 15
0.5
 25
0.5
 16
0.0
 26
0.0
 36
1.0
 17
-0.0000000000000036
 27
0.0
 37
0.0
 40
387.6
 41
1.457894736842106
 42
50.0
 43
0.0
 44
0.0
 50
0.0
 51
0.0
 71
     0
 72
  1000
 73
     1
 74
     1
 75
     0
 76
     0
 77
     0
 78
     0
  0
ENDTAB
  0
TABLE
  2
LTYPE
 70
    28
  0
LTYPE
  2
CONTINUOUS
 70
     0
  3
Solid line
 72
    65
 73
     0
 40
0.0
  0
LTYPE
  2
HIDDENX2
 70
     0
  3
CADPAC LINETYPE
 72
    65
 73
     2
 40
10.30674846625766
 49
7.730061349693244
 49
-2.576687116564415
  0
LTYPE
  2
HIDDEN
 70
     0
  3
CADPAC LINETYPE
 72
    65
 73
     2
 40
7.730061349693244
 49
5.15337423312883
 49
-2.576687116564415
  0
LTYPE
  2
HIDDEN2
 70
     0
  3
CADPAC LINETYPE
 72
    65
 73
     2
 40
6.441717791411037
 49
3.865030674846622
 49
-2.576687116564415
  0
LTYPE
  2
DASHED
 70
     0
  3
CADPAC LINETYPE
 72
    65
 73
     2
 40
7.214723926380373
 49
5.15337423312883
 49
-2.061349693251543
  0
LTYPE
  2
DASHED2
 70
     0
  3
CADPAC LINETYPE
 72
    65
 73
     2
 40
4.638036809815958
 49
3.092024539877286
 49
-1.546012269938672
  0
LTYPE
  2
DASHEDX2
 70
     0
  3
CADPAC LINETYPE
 72
    65
 73
     2
 40
12.3680981595092
 49
10.30674846625766
 49
-2.061349693251543
  0
LTYPE
  2
DOTX2
 70
     0
  3
CADPAC LINETYPE
 72
    65
 73
     2
 40
4.509202453987768
 49
0.0
 49
-4.509202453987768
  0
LTYPE
  2
DOT
 70
     0
  3
CADPAC LINETYPE
 72
    65
 73
     2
 40
3.607361963190215
 49
0.0
 49
-3.607361963190215
  0
LTYPE
  2
DOT2
 70
     0
  3
CADPAC LINETYPE
 72
    65
 73
     2
 40
2.705521472392661
 49
0.0
 49
-2.705521472392661
  0
LTYPE
  2
CENTERX2
 70
     0
  3
CADPAC LINETYPE
 72
    65
 73
     4
 40
15.46012269938649
 49
6.441717791411037
 49
-3.220858895705518
 49
2.576687116564415
 49
-3.220858895705518
  0
LTYPE
  2
CENTER
 70
     0
  3
CADPAC LINETYPE
 72
    65
 73
     4
 40
11.85276073619631
 49
5.15337423312883
 49
-2.576687116564415
 49
1.546012269938649
 49
-2.576687116564415
  0
LTYPE
  2
CENTER2
 70
     0
  3
CADPAC LINETYPE
 72
    65
 73
     4
 40
8.245398773006126
 49
3.865030674846622
 49
-1.932515337423311
 49
0.515337423312883
 49
-1.932515337423311
  0
LTYPE
  2
DASHDOTX2
 70
     0
  3
CADPAC LINETYPE
 72
    65
 73
     4
 40
24.73619631901846
 49
12.3680981595092
 49
-4.122699386503086
 49
4.122699386503086
 49
-4.122699386503086
  0
LTYPE
  2
DASHDOT
 70
     0
  3
CADPAC LINETYPE
 72
    65
 73
     4
 40
12.36809815950926
 49
6.18404907975463
 49
-2.061349693251543
 49
2.061349693251543
 49
-2.061349693251543
  0
LTYPE
  2
DASHDOT2
 70
     0
  3
CADPAC LINETYPE
 72
    65
 73
     4
 40
7.936196319018441
 49
4.638036809815972
 49
-1.546012269938657
 49
0.2061349693251543
 49
-1.546012269938657
  0
LTYPE
  2
DIVIDEX2
 70
     0
  3
CADPAC LINETYPE
 72
    65
 73
     6
 40
32.98159509202463
 49
12.3680981595092
 49
-4.122699386503086
 49
4.122699386503086
 49
-4.122699386503086
 49
4.122699386503086
 49
-4.122699386503086
  0
LTYPE
  2
DIVIDE
 70
     0
  3
CADPAC LINETYPE
 72
    65
 73
     6
 40
16.49079754601235
 49
6.18404907975463
 49
-2.061349693251543
 49
2.061349693251543
 49
-2.061349693251543
 49
2.061349693251543
 49
-2.061349693251543
  0
LTYPE
  2
DIVIDE2
 70
     0
  3
CADPAC LINETYPE
 72
    65
 73
     6
 40
12.36809815950926
 49
4.638036809815972
 49
-1.546012269938657
 49
1.546012269938657
 49
-1.546012269938657
 49
1.546012269938657
 49
-1.546012269938657
  0
LTYPE
  2
BORDERX2
 70
     0
  3
CADPAC LINETYPE
 72
    65
 73
     6
 40
22.54601226993863
 49
6.441717791411037
 49
-3.220858895705518
 49
6.441717791411037
 49
-3.220858895705518
 49
0.0
 49
-3.220858895705518
  0
LTYPE
  2
BORDER
 70
     0
  3
CADPAC LINETYPE
 72
    65
 73
     6
 40
18.0368098159509
 49
5.15337423312883
 49
-2.576687116564415
 49
5.15337423312883
 49
-2.576687116564415
 49
0.0
 49
-2.576687116564415
  0
LTYPE
  2
BORDER2
 70
     0
  3
CADPAC LINETYPE
 72
    65
 73
     6
 40
13.398773006135
 49
4.122699386503086
 49
-2.576687116564415
 49
1.546012269938672
 49
-2.576687116564415
 49
0.0
 49
-2.576687116564415
  0
LTYPE
  2
PHANTOMX2
 70
     0
  3
CADPAC LINETYPE
 72
    65
 73
     6
 40
19.32515337423311
 49
6.441717791411037
 49
-2.576687116564415
 49
2.576687116564415
 49
-2.576687116564415
 49
2.576687116564415
 49
-2.576687116564415
  0
LTYPE
  2
PHANTOM
 70
     0
  3
CADPAC LINETYPE
 72
    65
 73
     6
 40
15.97546012269937
 49
5.15337423312883
 49
-2.576687116564415
 49
1.546012269938649
 49
-2.576687116564415
 49
1.546012269938649
 49
-2.576687116564415
  0
LTYPE
  2
PHANTOM2
 70
     0
  3
CADPAC LINETYPE
 72
    65
 73
     6
 40
13.6564417177914
 49
3.865030674846622
 49
-2.576687116564415
 49
1.030674846625766
 49
-2.576687116564415
 49
1.030674846625766
 49
-2.576687116564415
  0
LTYPE
  2
ACAD_ISO06W100
 70
     0
  3
CADPAC LINETYPE
 72
    65
 73
     8
 40
27.31288343558288
 49
12.3680981595092
 49
-2.576687116564415
 49
1.546012269938672
 49
-2.576687116564415
 49
1.546012269938672
 49
-2.576687116564415
 49
1.546012269938672
 49
-2.576687116564415
  0
LTYPE
  2
ACAD_ISO13W100
 70
     0
  3
CADPAC LINETYPE
 72
    65
 73
     8
 40
20.61349693251532
 49
5.15337423312883
 49
-2.576687116564415
 49
5.15337423312883
 49
-2.576687116564415
 49
0.0
 49
-2.576687116564415
 49
0.0
 49
-2.576687116564415
  0
LTYPE
  2
ACAD_ISO14W100
 70
     0
  3
CADPAC LINETYPE
 72
    65
 73
     8
 40
15.46012269938649
 49
5.15337423312883
 49
-2.576687116564415
 49
0.0
 49
-2.576687116564415
 49
0.0
 49
-2.576687116564415
 49
0.0
 49
-2.576687116564415
  0
ENDTAB
  0
TABLE
  2
LAYER
 70
     2
  0
LAYER
  2
0
 70
     0
 62
     7
  6
CONTINUOUS
  0
LAYER
  2
ZUWAKU
 70
     0
 62
     7
  6
CONTINUOUS
  0
ENDTAB
  0
TABLE
  2
STYLE
 70
     5
  0
STYLE
  2
STANDARD
 70
     0
 40
0.0
 41
1.0
 50
0.0
 71
     0
 42
0.2
  3
txt
  4

  0
STYLE
  2
FDASTYLE1
 70
     0
 40
0.0
 41
0.7407407407407407
 50
0.0
 71
     0
 42
0.2
  3
txt.shx
  4
bigfont
  0
STYLE
  2
FDASTYLE0
 70
     4
 40
0.0
 41
0.8
 50
0.0
 71
     0
 42
0.2
  3
txt.shx
  4
bigfont
  0
STYLE
  2
FDASTYLE2
 70
     0
 40
0.0
 41
0.8123476848090983
 50
0.0
 71
     0
 42
0.2
  3
MSMINCHO.TTC
  4

  0
STYLE
  2
FDASTYLE3
 70
     0
 40
0.0
 41
0.77
 50
0.0
 71
     0
 42
0.2
  3
MSGOTHIC.TTC
  4

  0
ENDTAB
  0
TABLE
  2
VIEW
 70
     0
  0
ENDTAB
  0
TABLE
  2
UCS
 70
     0
  0
ENDTAB
  0
TABLE
  2
APPID
 70
     2
  0
APPID
  2
ACAD
 70
     0
  0
APPID
  2
DAFUSIONOUT
 70
     0
  0
ENDTAB
  0
TABLE
  2
DIMSTYLE
 70
     1
  0
DIMSTYLE
  2
STANDARD
 70
     0
  3

  4

  5

  6

  7

 40
1.0
 41
0.18
 42
0.0625
 43
0.38
 44
0.18
 45
0.0
 46
0.0
 47
0.0
 48
0.0
140
0.18
141
0.09
142
0.0
143
25.4
144
1.0
145
0.0
146
1.0
147
0.09
 71
     0
 72
     0
 73
     1
 74
     1
 75
     0
 76
     0
 77
     0
 78
     0
170
     0
171
     2
172
     0
173
     0
174
     0
175
     0
176
     0
177
     0
178
     0
  0
ENDTAB
  0
ENDSEC
  0
SECTION
  2
BLOCKS
  0
BLOCK
  8
0
  2
$MODEL_SPACE
 70
     0
 10
0.0
 20
0.0
 30
0.0
  3
$MODEL_SPACE
  1

  0
ENDBLK
  5
21
  8
0
  0
BLOCK
 67
     1
  8
0
  2
$PAPER_SPACE
 70
     0
 10
0.0
 20
0.0
 30
0.0
  3
$PAPER_SPACE
  1

  0
ENDBLK
  5
1D
 67
     1
  8
0
  0
BLOCK
  8
0
  2
DA_IMAGEDIMGROUP_1
 70
     0
 10
0.0
 20
0.0
 30
0.0
  3
DA_IMAGEDIMGROUP_1
  1

  0
LINE
  5
B4
  8
0
  6
CONTINUOUS
 62
     9
 10
-178.1832325210363
 20
50.92047763135263
 30
0.0
 11
-211.3395651510606
 21
50.92047763135263
 31
0.0
  0
LINE
  5
B5
  8
0
  6
CONTINUOUS
 62
     9
 10
-178.3293878915
 20
18.92047763135262
 30
0.0
 11
-211.3395651510606
 21
18.92047763135262
 31
0.0
  0
LINE
  5
B6
  8
0
  6
CONTINUOUS
 62
     9
 10
-209.8395651510606
 20
18.92047763135262
 30
0.0
 11
-209.8395651510606
 21
50.92047763135263
 31
0.0
  0
INSERT
  5
BD
  8
0
 62
     9
  2
_OPEN30
 10
-209.8395651510606
 20
18.92047763135262
 30
0.0
 41
1.999998407630662
 42
2.000005728319971
 50
270.0
  0
INSERT
  5
BE
  8
0
 62
     9
  2
_OPEN30
 10
-209.8395651510606
 20
50.92047763135263
 30
0.0
 41
1.999998407630662
 42
2.000005728319971
 50
90.0
  0
TEXT
  5
C0
  8
0
 62
     7
 10
-210.8395651510606
 20
26.92047763135263
 30
0.0
 40
4.0
  1
φ32Ｈ8
 50
90.0
 41
0.7407407407407407
  7
FDASTYLE1
 72
     5
 11
-210.8395651510606
 21
42.92047763135263
 31
0.0
  0
ENDBLK
  5
4D
  8
0
  0
BLOCK
  8
0
  2
DA_IMAGEDIMGROUP_2
 70
     0
 10
0.0
 20
0.0
 30
0.0
  3
DA_IMAGEDIMGROUP_2
  1

  0
LINE
  5
C1
  8
0
  6
CONTINUOUS
 62
     9
 10
-221.8395651510606
 20
13.42047763135262
 30
0.0
 11
-221.8395651510606
 21
56.42047763135263
 31
0.0
  0
INSERT
  5
C2
  8
0
 62
     9
  2
_OPEN30
 10
-221.8395651510606
 20
13.42047763135262
 30
0.0
 41
1.999998407630662
 42
2.000005728319971
 50
270.0
  0
INSERT
  5
C3
  8
0
 62
     9
  2
_OPEN30
 10
-221.8395651510606
 20
56.42047763135263
 30
0.0
 41
1.999998407630662
 42
2.000005728319971
 50
90.0
  0
LINE
  5
C4
  8
0
  6
CONTINUOUS
 62
     9
 10
-152.437167942044
 20
13.42047763135262
 30
0.0
 11
-223.3395651510606
 21
13.42047763135262
 31
0.0
  0
LINE
  5
C5
  8
0
  6
CONTINUOUS
 62
     9
 10
-152.7918925055523
 20
56.42047763135263
 30
0.0
 11
-223.3395651510606
 21
56.42047763135263
 31
0.0
  0
TEXT
  5
C6
  8
0
 62
     7
 10
-222.8395651510606
 20
26.92047763135263
 30
0.0
 40
4.0
  1
φ43Ｈ7
 50
90.0
 41
0.7407407407407407
  7
FDASTYLE1
 72
     5
 11
-222.8395651510606
 21
42.92047763135263
 31
0.0
  0
ENDBLK
  5
50
  8
0
  0
BLOCK
  8
0
  2
DA_IMAGEDIMGROUP_3
 70
     0
 10
0.0
 20
0.0
 30
0.0
  3
DA_IMAGEDIMGROUP_3
  1

  0
LINE
  5
C7
  8
0
  6
CONTINUOUS
 62
     9
 10
-233.8395651510606
 20
7.920477631352611
 30
0.0
 11
-233.8395651510606
 21
61.92047763135261
 31
0.0
  0
INSERT
  5
C8
  8
0
 62
     9
  2
_OPEN30
 10
-233.8395651510606
 20
7.920477631352611
 30
0.0
 41
1.999998407630662
 42
2.000005728319971
 50
270.0
  0
INSERT
  5
C9
  8
0
 62
     9
  2
_OPEN30
 10
-233.8395651510606
 20
61.92047763135261
 30
0.0
 41
1.999998407630662
 42
2.000005728319971
 50
90.0
  0
LINE
  5
CA
  8
0
  6
CONTINUOUS
 62
     9
 10
-188.9272046175584
 20
7.920477631352611
 30
0.0
 11
-235.3395651510606
 21
7.920477631352611
 31
0.0
  0
LINE
  5
CB
  8
0
  6
CONTINUOUS
 62
     9
 10
-188.7294703745783
 20
61.92047763135261
 30
0.0
 11
-235.3395651510606
 21
61.92047763135261
 31
0.0
  0
TEXT
  5
CC
  8
0
 62
     7
 10
-234.8395651510606
 20
26.92047763135261
 30
0.0
 40
4.0
  1
φ54H7
 50
90.0
 41
0.7692307692307692
  7
FDASTYLE1
 72
     5
 11
-234.8395651510606
 21
42.92047763135261
 31
0.0
  0
ENDBLK
  5
53
  8
0
  0
BLOCK
  8
0
  2
DA_IMAGEDIMGROUP_4
 70
     0
 10
0.0
 20
0.0
 30
0.0
  3
DA_IMAGEDIMGROUP_4
  1

  0
LINE
  5
CD
  8
0
  6
CONTINUOUS
 62
     9
 10
-245.8395651510606
 20
-35.07952236864739
 30
0.0
 11
-245.8395651510606
 21
104.9204776313526
 31
0.0
  0
INSERT
  5
CE
  8
0
 62
     9
  2
_OPEN30
 10
-245.8395651510606
 20
-35.07952236864739
 30
0.0
 41
1.999998407630662
 42
2.000005728319971
 50
270.0
  0
INSERT
  5
CF
  8
0
 62
     9
  2
_OPEN30
 10
-245.8395651510606
 20
104.9204776313526
 30
0.0
 41
1.999998407630662
 42
2.000005728319971
 50
90.0
  0
LINE
  5
D0
  8
0
  6
CONTINUOUS
 62
     9
 10
-193.1272015658006
 20
-35.07952236864739
 30
0.0
 11
-247.3395651510606
 21
-35.07952236864739
 31
0.0
  0
LINE
  5
D1
  8
0
  6
CONTINUOUS
 62
     9
 10
-193.1272015658006
 20
104.9204776313526
 30
0.0
 11
-247.3395651510606
 21
104.9204776313526
 31
0.0
  0
TEXT
  5
D2
  8
0
 62
     7
 10
-246.8395651510606
 20
25.32047763135259
 30
0.0
 40
4.0
  1
φ140H7
 50
90.0
 41
0.7741935483870974
  7
FDASTYLE1
 72
     5
 11
-246.8395651510606
 21
44.52047763135261
 31
0.0
  0
ENDBLK
  5
56
  8
0
  0
BLOCK
  8
0
  2
DA_IMAGEDIMGROUP_5
 70
     0
 10
0.0
 20
0.0
 30
0.0
  3
DA_IMAGEDIMGROUP_5
  1

  0
LINE
  5
D3
  8
0
  6
CONTINUOUS
 62
     9
 10
-259.3395651510606
 20
-47.57952236864739
 30
0.0
 11
-259.3395651510606
 21
117.4204776313526
 31
0.0
  0
INSERT
  5
D4
  8
0
 62
     9
  2
_OPEN30
 10
-259.3395651510606
 20
-47.57952236864739
 30
0.0
 41
1.999998407630662
 42
2.000005728319971
 50
270.0
  0
INSERT
  5
D5
  8
0
 62
     9
  2
_OPEN30
 10
-259.3395651510606
 20
117.4204776313526
 30
0.0
 41
1.999998407630662
 42
2.000005728319971
 50
90.0
  0
LINE
  5
D6
  8
0
  6
CONTINUOUS
 62
     9
 10
-193.1272015658006
 20
-47.57952236864739
 30
0.0
 11
-260.8395651510606
 21
-47.57952236864739
 31
0.0
  0
LINE
  5
D7
  8
0
  6
CONTINUOUS
 62
     9
 10
-193.1272015658006
 20
117.4204776313526
 30
0.0
 11
-260.8395651510606
 21
117.4204776313526
 31
0.0
  0
TEXT
  5
D8
  8
0
 62
     7
 10
-260.3395651510606
 20
28.52047763135265
 30
0.0
 40
4.0
  1
φ165
 50
90.0
 41
0.7619047619047609
  7
FDASTYLE1
 72
     5
 11
-260.3395651510606
 21
41.32047763135263
 31
0.0
  0
ENDBLK
  5
59
  8
0
  0
BLOCK
  8
0
  2
DA_IMAGEDIMGROUP_6
 70
     0
 10
0.0
 20
0.0
 30
0.0
  3
DA_IMAGEDIMGROUP_6
  1

  0
LINE
  5
D9
  8
0
  6
CONTINUOUS
 62
     9
 10
-208.1272015658006
 20
-22.46452259752923
 30
0.0
 11
-223.4673718591012
 21
-22.46452259752923
 31
0.0
  0
LINE
  5
DA
  8
0
  6
CONTINUOUS
 62
     9
 10
-208.1272015658006
 20
-12.46452259752923
 30
0.0
 11
-223.4673718591012
 21
-12.46452259752923
 31
0.0
  0
LINE
  5
DB
  8
0
  6
CONTINUOUS
 62
     9
 10
-221.9673718591012
 20
-22.46452259752923
 30
0.0
 11
-221.9673718591012
 21
-12.46452259752923
 31
0.0
  0
LINE
  5
DC
  8
0
  6
CONTINUOUS
 62
     9
 10
-221.9673718591012
 20
1.067327402470799
 30
0.0
 11
-221.9673718591012
 21
-12.46452259752923
 31
0.0
  0
INSERT
  5
DD
  8
0
 62
     9
  2
_OPEN30
 10
-221.9673718591012
 20
-12.46452259752923
 30
0.0
 41
1.999998407630662
 42
2.000005728319971
 50
270.0
  0
LINE
  5
DE
  8
0
  6
CONTINUOUS
 62
     9
 10
-221.9673718591012
 20
-27.46452259752923
 30
0.0
 11
-221.9673718591012
 21
-22.46452259752923
 31
0.0
  0
INSERT
  5
DF
  8
0
 62
     9
  2
_OPEN30
 10
-221.9673718591012
 20
-22.46452259752923
 30
0.0
 41
1.999998407630662
 42
2.000005728319971
 50
90.0
  0
TEXT
  5
E0
  8
0
 62
     7
 10
-222.9673718591012
 20
-9.532672597529224
 30
0.0
 40
4.0
  1
M10
 50
90.0
 41
0.7999999999999995
  7
FDASTYLE1
 72
     5
 11
-222.9673718591012
 21
0.0673274024707702
 31
0.0
  0
ENDBLK
  5
5C
  8
0
  0
BLOCK
  8
0
  2
DA_IMAGEDIMGROUP_7
 70
     0
 10
0.0
 20
0.0
 30
0.0
  3
DA_IMAGEDIMGROUP_7
  1

  0
LINE
  5
E1
  8
0
  6
CONTINUOUS
 62
     9
 10
-147.1272015658006
 20
-72.08442014280561
 30
0.0
 11
-105.6272015658006
 21
-72.08442014280561
 31
0.0
  0
INSERT
  5
E2
  8
0
 62
     9
  2
_OPEN30
 10
-147.1272015658006
 20
-72.08442014280561
 30
0.0
 41
1.999998407630662
 42
2.000005728319971
 50
180.0
  0
INSERT
  5
E3
  8
0
 62
     9
  2
_OPEN30
 10
-105.6272015658006
 20
-72.08442014280561
 30
0.0
 41
1.999998407630662
 42
2.000005728319971
 50
360.0
  0
LINE
  5
E4
  8
0
  6
CONTINUOUS
 62
     9
 10
-147.1272015658006
 20
-67.52925908412638
 30
0.0
 11
-147.1272015658006
 21
-73.58442014280561
 31
0.0
  0
LINE
  5
E5
  8
0
  6
CONTINUOUS
 62
     9
 10
-105.6272015658006
 20
-47.57951730421016
 30
0.0
 11
-105.6272015658006
 21
-73.58442014280561
 31
0.0
  0
TEXT
  5
E6
  8
0
 62
     7
 10
-132.7772015658006
 20
-71.08442014280561
 30
0.0
 40
4.0
  1
41.5
 41
0.8000000000000007
  7
FDASTYLE1
 72
     5
 11
-119.9772015658006
 21
-71.08442014280561
 31
0.0
  0
ENDBLK
  5
5F
  8
0
  0
BLOCK
  8
0
  2
DA_IMAGEDIMGROUP_8
 70
     0
 10
0.0
 20
0.0
 30
0.0
  3
DA_IMAGEDIMGROUP_8
  1

  0
LINE
  5
E7
  8
0
  6
CONTINUOUS
 62
     9
 10
-191.6272015658006
 20
-49.07952236864739
 30
0.0
 11
-191.6272015658006
 21
-87.13416576340148
 31
0.0
  0
LINE
  5
E8
  8
0
  6
CONTINUOUS
 62
     9
 10
-187.6272046175584
 20
-36.57952236864739
 30
0.0
 11
-187.6272046175584
 21
-87.13416576340148
 31
0.0
  0
LINE
  5
E9
  8
0
  6
CONTINUOUS
 62
     9
 10
-191.6272015658006
 20
-85.63416576340148
 30
0.0
 11
-187.6272046175584
 21
-85.63416576340148
 31
0.0
  0
LINE
  5
EA
  8
0
  6
CONTINUOUS
 62
     9
 10
-105.6272015658006
 20
-47.57951730421016
 30
0.0
 11
-105.6272015658006
 21
-87.13416576340148
 31
0.0
  0
LINE
  5
EB
  8
0
  6
CONTINUOUS
 62
     9
 10
-187.6272046175584
 20
-85.63416576340148
 30
0.0
 11
-105.6272015658006
 21
-85.63416576340148
 31
0.0
  0
INSERT
  5
EC
  8
0
 62
     9
  2
_OPEN30
 10
-187.6272046175584
 20
-85.63416576340148
 30
0.0
 41
1.999998407630662
 42
2.000005728319971
 50
180.0
  0
INSERT
  5
ED
  8
0
 62
     9
  2
_OPEN30
 10
-105.6272015658006
 20
-85.63416576340148
 30
0.0
 41
1.999998407630662
 42
2.000005728319971
 50
360.0
  0
LINE
  5
EE
  8
0
  6
CONTINUOUS
 62
     9
 10
-198.7590515658006
 20
-85.63416576340148
 30
0.0
 11
-191.6272015658006
 21
-85.63416576340148
 31
0.0
  0
INSERT
  5
EF
  8
0
 62
     9
  2
_OPEN30
 10
-191.6272015658006
 20
-85.63416576340148
 30
0.0
 41
1.999998407630662
 42
2.000005728319971
 50
360.0
  0
TEXT
  5
F0
  8
0
 62
     7
 10
-197.7590515658006
 20
-84.63416576340148
 30
0.0
 40
4.0
  1
4
 41
0.7999999999999972
  7
FDASTYLE1
 72
     5
 11
-194.5590515658006
 21
-84.63416576340148
 31
0.0
  0
TEXT
  5
F1
  8
0
 62
     7
 10
-149.8272030916795
 20
-84.63416576340148
 30
0.0
 40
4.0
  1
82
 41
0.7999999999999972
  7
FDASTYLE1
 72
     5
 11
-143.4272030916795
 21
-84.63416576340148
 31
0.0
  0
ENDBLK
  5
62
  8
0
  0
BLOCK
  8
0
  2
DA_IMAGEDIMGROUP_9
 70
     0
 10
0.0
 20
0.0
 30
0.0
  3
DA_IMAGEDIMGROUP_9
  1

  0
LINE
  5
F2
  8
0
  6
CONTINUOUS
 62
     9
 10
-187.6272046175584
 20
-36.57952236864739
 30
0.0
 11
-187.6272046175584
 21
-62.40037699755334
 31
0.0
  0
LINE
  5
F3
  8
0
  6
CONTINUOUS
 62
     9
 10
-206.6272015658006
 20
-23.96452259752923
 30
0.0
 11
-206.6272015658006
 21
-62.40037699755334
 31
0.0
  0
LINE
  5
F4
  8
0
  6
CONTINUOUS
 62
     9
 10
-151.6272015658006
 20
11.92047763135262
 30
0.0
 11
-151.6271937464467
 21
-62.40037699755334
 31
0.0
  0
LINE
  5
F5
  8
0
  6
CONTINUOUS
 62
     9
 10
-206.6272015658006
 20
-60.90037699755334
 30
0.0
 11
-187.6272046175584
 21
-60.90037699755334
 31
0.0
  0
INSERT
  5
F6
  8
0
 62
     9
  2
_OPEN30
 10
-206.6272015658006
 20
-60.90037699755334
 30
0.0
 41
1.999998407630662
 42
2.000005728319971
 50
180.0
  0
INSERT
  5
F7
  8
0
 62
     9
  2
_OPEN30
 10
-187.6272046175584
 20
-60.90037699755334
 30
0.0
 41
1.999998407630662
 42
2.000005728319971
 50
360.0
  0
LINE
  5
F8
  8
0
  6
CONTINUOUS
 62
     9
 10
-187.6272046175584
 20
-60.90037699755334
 30
0.0
 11
-151.6271937464467
 21
-60.90037699755334
 31
0.0
  0
INSERT
  5
F9
  8
0
 62
     9
  2
_OPEN30
 10
-187.6272046175584
 20
-60.90037699755334
 30
0.0
 41
1.999998407630662
 42
2.000005728319971
 50
180.0
  0
INSERT
  5
FA
  8
0
 62
     9
  2
_OPEN30
 10
-151.6271937464467
 20
-60.90037699755334
 30
0.0
 41
1.999998407630662
 42
2.000005728319971
 50
360.0
  0
TEXT
  5
FB
  8
0
 62
     7
 10
-200.3272030916795
 20
-59.90037699755334
 30
0.0
 40
4.0
  1
19
 41
0.7999999999999972
  7
FDASTYLE1
 72
     5
 11
-193.9272030916795
 21
-59.90037699755334
 31
0.0
  0
TEXT
  5
FC
  8
0
 62
     7
 10
-177.6271991820026
 20
-59.90037699755334
 30
0.0
 40
4.0
  1
MAX46
 41
0.8
  7
FDASTYLE1
 72
     5
 11
-161.6271991820026
 21
-59.90037699755334
 31
0.0
  0
ENDBLK
  5
65
  8
0
  0
BLOCK
  8
0
  2
DA_IMAGEDIMGROUP_10
 70
     0
 10
0.0
 20
0.0
 30
0.0
  3
DA_IMAGEDIMGROUP_10
  1

  0
LINE
  5
FD
  8
0
  6
CONTINUOUS
 62
     9
 10
-177.6272015658006
 20
25.84570563071934
 30
0.0
 11
-151.6272015658006
 21
25.84570563071934
 31
0.0
  0
INSERT
  5
FE
  8
0
 62
     9
  2
_OPEN30
 10
-177.6272015658006
 20
25.84570563071934
 30
0.0
 41
1.999998407630662
 42
2.000005728319971
 50
180.0
  0
INSERT
  5
FF
  8
0
 62
     9
  2
_OPEN30
 10
-151.6272015658006
 20
25.84570563071934
 30
0.0
 41
1.999998407630662
 42
2.000005728319971
 50
360.0
  0
LINE
  5
100
  8
0
  6
CONTINUOUS
 62
     9
 10
-151.6272015658006
 20
25.84570563071934
 30
0.0
 11
-143.6272015658006
 21
25.84570563071934
 31
0.0
  0
INSERT
  5
101
  8
0
 62
     9
  2
_OPEN30
 10
-151.6272015658006
 20
25.84570563071934
 30
0.0
 41
1.999998407630662
 42
2.000005728319971
 50
180.0
  0
INSERT
  5
102
  8
0
 62
     9
  2
_OPEN30
 10
-143.6272015658006
 20
25.84570563071934
 30
0.0
 41
1.999998407630662
 42
2.000005728319971
 50
360.0
  0
LINE
  5
103
  8
0
  6
CONTINUOUS
 62
     9
 10
-143.6272015658006
 20
25.84570563071934
 30
0.0
 11
-132.6272015658006
 21
25.84570563071934
 31
0.0
  0
INSERT
  5
104
  8
0
 62
     9
  2
_OPEN30
 10
-143.6272015658006
 20
25.84570563071934
 30
0.0
 41
1.999998407630662
 42
2.000005728319971
 50
180.0
  0
INSERT
  5
105
  8
0
 62
     9
  2
_OPEN30
 10
-132.6272015658006
 20
25.84570563071934
 30
0.0
 41
1.999998407630662
 42
2.000005728319971
 50
360.0
  0
TEXT
  5
106
  8
0
 62
     7
 10
-167.8272015658006
 20
26.84570563071934
 30
0.0
 40
4.0
  1
26
 41
0.7999999999999972
  7
FDASTYLE1
 72
     5
 11
-161.4272015658006
 21
26.84570563071934
 31
0.0
  0
TEXT
  5
107
  8
0
 62
     7
 10
-149.2272015658006
 20
26.84570563071934
 30
0.0
 40
4.0
  1
8
 41
0.7999999999999972
  7
FDASTYLE1
 72
     5
 11
-146.0272015658006
 21
26.84570563071934
 31
0.0
  0
TEXT
  5
108
  8
0
 62
     7
 10
-141.3272015658006
 20
26.84570563071934
 30
0.0
 40
4.0
  1
11
 41
0.7999999999999972
  7
FDASTYLE1
 72
     5
 11
-134.9272015658006
 21
26.84570563071934
 31
0.0
  0
ENDBLK
  5
68
  8
0
  0
BLOCK
  8
0
  2
DA_IMAGEDIMGROUP_11
 70
     0
 10
0.0
 20
0.0
 30
0.0
  3
DA_IMAGEDIMGROUP_11
  1

  0
LINE
  5
109
  8
0
  6
CONTINUOUS
 62
     9
 10
136.9895164049187
 20
130.2570797976708
 30
0.0
 11
166.9895155108491
 21
130.2570797976708
 31
0.0
  0
INSERT
  5
10A
  8
0
 62
     9
  2
_OPEN30
 10
136.9895164049187
 20
130.2570797976708
 30
0.0
 41
1.999998407630662
 42
2.000005728319971
 50
180.0
  0
INSERT
  5
10B
  8
0
 62
     9
  2
_OPEN30
 10
166.9895155108491
 20
130.2570797976708
 30
0.0
 41
1.999998407630662
 42
2.000005728319971
 50
360.0
  0
LINE
  5
10C
  8
0
  6
CONTINUOUS
 62
     9
 10
136.9895164049187
 20
130.0659901208479
 30
0.0
 11
136.9895164049187
 21
131.7570797976708
 31
0.0
  0
LINE
  5
10D
  8
0
  6
CONTINUOUS
 62
     9
 10
166.9895155108491
 20
103.5976757702522
 30
0.0
 11
166.9895155108491
 21
131.7570797976708
 31
0.0
  0
TEXT
  5
10E
  8
0
 62
     7
 10
148.7895159578839
 20
131.2570797976708
 30
0.0
 40
4.0
  1
30
 41
0.7999999999999972
  7
FDASTYLE1
 72
     5
 11
155.1895159578839
 21
131.2570797976708
 31
0.0
  0
ENDBLK
  5
6B
  8
0
  0
BLOCK
  8
0
  2
DA_IMAGEDIMGROUP_12
 70
     0
 10
0.0
 20
0.0
 30
0.0
  3
DA_IMAGEDIMGROUP_12
  1

  0
LINE
  5
10F
  8
0
  6
CONTINUOUS
 62
     9
 10
131.4895203835287
 20
139.2570797976708
 30
0.0
 11
142.4895124263089
 21
139.2570797976708
 31
0.0
  0
LINE
  5
110
  8
0
  6
CONTINUOUS
 62
     9
 10
131.4895203835287
 20
123.9204901208926
 30
0.0
 11
131.4895203835287
 21
140.7570797976708
 31
0.0
  0
LINE
  5
111
  8
0
  6
CONTINUOUS
 62
     9
 10
142.4895124263089
 20
123.9204901208926
 30
0.0
 11
142.4895124263089
 21
140.7570797976708
 31
0.0
  0
LINE
  5
112
  8
0
  6
CONTINUOUS
 62
     9
 10
175.6786822807102
 20
139.2570797976708
 30
0.0
 11
142.4895124263089
 21
139.2570797976708
 31
0.0
  0
INSERT
  5
113
  8
0
 62
     9
  2
_OPEN30
 10
142.4895124263089
 20
139.2570797976708
 30
0.0
 41
1.999998407630662
 42
2.000005728319971
 50
180.0
  0
LINE
  5
114
  8
0
  6
CONTINUOUS
 62
     9
 10
126.4895203835287
 20
139.2570797976708
 30
0.0
 11
131.4895203835287
 21
139.2570797976708
 31
0.0
  0
INSERT
  5
115
  8
0
 62
     9
  2
_OPEN30
 10
131.4895203835287
 20
139.2570797976708
 30
0.0
 41
1.999998407630662
 42
2.000005728319971
 50
360.0
  0
TEXT
  5
116
  8
0
 62
     7
 10
161.8786822807102
 20
140.2570797976708
 30
0.0
 40
4.0
  1
11H8
 41
0.8000000000000007
  7
FDASTYLE1
 72
     5
 11
174.6786822807102
 21
140.2570797976708
 31
0.0
  0
ENDBLK
  5
6E
  8
0
  0
BLOCK
  8
0
  2
DA_IMAGEDIMGROUP_13
 70
     0
 10
0.0
 20
0.0
 30
0.0
  3
DA_IMAGEDIMGROUP_13
  1

  0
LINE
  5
117
  8
0
  6
CONTINUOUS
 62
     9
 10
-105.6272015658006
 20
152.109262717247
 30
0.0
 11
-103.6272061255558
 21
152.109262717247
 31
0.0
  0
LINE
  5
118
  8
0
  6
CONTINUOUS
 62
     9
 10
-105.6272015658006
 20
115.3683898586562
 30
0.0
 11
-105.6272015658006
 21
153.609262717247
 31
0.0
  0
LINE
  5
119
  8
0
  6
CONTINUOUS
 62
     9
 10
-103.6272061255558
 20
124.4204852607472
 30
0.0
 11
-103.6272061255558
 21
153.609262717247
 31
0.0
  0
LINE
  5
11A
  8
0
  6
CONTINUOUS
 62
     9
 10
-145.5195299441059
 20
152.109262717247
 30
0.0
 11
-105.6272015658006
 21
152.109262717247
 31
0.0
  0
INSERT
  5
11B
  8
0
 62
     9
  2
_OPEN30
 10
-105.6272015658006
 20
152.109262717247
 30
0.0
 41
1.999998407630662
 42
2.000005728319971
 50
360.0
  0
LINE
  5
11C
  8
0
  6
CONTINUOUS
 62
     9
 10
-98.62720612555579
 20
152.109262717247
 30
0.0
 11
-103.6272061255558
 21
152.109262717247
 31
0.0
  0
INSERT
  5
11D
  8
0
 62
     9
  2
_OPEN30
 10
-103.6272061255558
 20
152.109262717247
 30
0.0
 41
1.999998407630662
 42
2.000005728319971
 50
180.0
  0
TEXT
  5
11E
  8
0
 62
     7
 10
-144.5195299441059
 20
153.109262717247
 30
0.0
 40
4.0
  1
2(チャック上面から）
 41
0.6875000000000001
  7
FDASTYLE1
 72
     5
 11
-109.3195299441059
 21
153.109262717247
 31
0.0
  0
ENDBLK
  5
71
  8
0
  0
BLOCK
  8
0
  2
DA_IMAGEDIMGROUP_14
 70
     0
 10
0.0
 20
0.0
 30
0.0
  3
DA_IMAGEDIMGROUP_14
  1

  0
LINE
  5
11F
  8
0
  6
CONTINUOUS
 62
     9
 10
-76.35681877209309
 20
11.92047763135262
 30
0.0
 11
-76.35681877209309
 21
57.92047763135263
 31
0.0
  0
INSERT
  5
120
  8
0
 62
     9
  2
_OPEN30
 10
-76.35681877209309
 20
11.92047763135262
 30
0.0
 41
1.999998407630662
 42
2.000005728319971
 50
270.0
  0
INSERT
  5
121
  8
0
 62
     9
  2
_OPEN30
 10
-76.35681877209309
 20
57.92047763135263
 30
0.0
 41
1.999998407630662
 42
2.000005728319971
 50
90.0
  0
LINE
  5
122
  8
0
  6
CONTINUOUS
 62
     9
 10
-131.8631432585588
 20
11.92047763135262
 30
0.0
 11
-74.85681877209309
 21
11.92047763135262
 31
0.0
  0
LINE
  5
123
  8
0
  6
CONTINUOUS
 62
     9
 10
-132.0996263008977
 20
57.92047763135263
 30
0.0
 11
-74.85681877209309
 21
57.92047763135263
 31
0.0
  0
TEXT
  5
124
  8
0
 62
     7
 10
-77.35681877209309
 20
20.52047763135262
 30
0.0
 40
4.0
  1
M46×P1.25
 50
90.0
 41
0.7826086956521741
  7
FDASTYLE1
 72
     5
 11
-77.35681877209309
 21
49.32047763135262
 31
0.0
  0
ENDBLK
  5
74
  8
0
  0
BLOCK
  8
0
  2
DA_IMAGEDIMGROUP_15
 70
     0
 10
0.0
 20
0.0
 30
0.0
  3
DA_IMAGEDIMGROUP_15
  1

  0
LINE
  5
125
  8
0
  6
CONTINUOUS
 62
     9
 10
-64.35681877209309
 20
1.920478108189769
 30
0.0
 11
-64.35681877209309
 21
51.34673485514979
 31
0.0
  0
INSERT
  5
126
  8
0
 62
     9
  2
_OPEN30
 10
-64.35681877209309
 20
1.920478108189769
 30
0.0
 41
1.999998407630662
 42
2.000005728319971
 50
270.0
  0
LINE
  5
127
  8
0
  6
CONTINUOUS
 62
     9
 10
-104.1272015658006
 20
1.920478108189769
 30
0.0
 11
-62.85681877209309
 21
1.920478108189769
 31
0.0
  0
TEXT
  5
128
  8
0
 62
     7
 10
-65.85681877209309
 20
26.92047763135261
 30
0.0
 40
4.0
  1
φ66H7
 50
90.0
 41
0.7692307692307692
  7
FDASTYLE1
 72
     5
 11
-65.85681877209309
 21
42.92047763135261
 31
0.0
  0
ENDBLK
  5
77
  8
0
  0
BLOCK
  8
0
  2
DA_IMAGEDIMGROUP_16
 70
     0
 10
0.0
 20
0.0
 30
0.0
  3
DA_IMAGEDIMGROUP_16
  1

  0
LINE
  5
129
  8
0
  6
CONTINUOUS
 62
     9
 10
-102.1272061255558
 20
66.42047763135261
 30
0.0
 11
-74.85681877209309
 21
66.42047763135261
 31
0.0
  0
LINE
  5
12A
  8
0
  6
CONTINUOUS
 62
     9
 10
-83.6689491174191
 20
79.42047763135261
 30
0.0
 11
-74.85681877209309
 21
79.42047763135261
 31
0.0
  0
LINE
  5
12B
  8
0
  6
CONTINUOUS
 62
     9
 10
-83.50046675335717
 20
104.4204776313526
 30
0.0
 11
-74.85681877209309
 21
104.4204776313526
 31
0.0
  0
LINE
  5
12C
  8
0
  6
CONTINUOUS
 62
     9
 10
-76.35681877209309
 20
66.42047763135261
 30
0.0
 11
-76.35681877209309
 21
79.42047763135261
 31
0.0
  0
INSERT
  5
12D
  8
0
 62
     9
  2
_OPEN30
 10
-76.35681877209309
 20
66.42047763135261
 30
0.0
 41
1.999998407630662
 42
2.000005728319971
 50
270.0
  0
INSERT
  5
12E
  8
0
 62
     9
  2
_OPEN30
 10
-76.35681877209309
 20
79.42047763135261
 30
0.0
 41
1.999998407630662
 42
2.000005728319971
 50
90.0
  0
LINE
  5
12F
  8
0
  6
CONTINUOUS
 62
     9
 10
-76.35681877209309
 20
79.42047763135261
 30
0.0
 11
-76.35681877209309
 21
104.4204776313526
 31
0.0
  0
INSERT
  5
130
  8
0
 62
     9
  2
_OPEN30
 10
-76.35681877209309
 20
79.42047763135261
 30
0.0
 41
1.999998407630662
 42
2.000005728319971
 50
270.0
  0
INSERT
  5
131
  8
0
 62
     9
  2
_OPEN30
 10
-76.35681877209309
 20
104.4204776313526
 30
0.0
 41
1.999998407630662
 42
2.000005728319971
 50
90.0
  0
TEXT
  5
132
  8
0
 62
     7
 10
-77.35681877209309
 20
71.32047763135262
 30
0.0
 40
4.0
  1
8
 50
90.0
 41
0.7999999999999972
  7
FDASTYLE1
 72
     5
 11
-77.35681877209309
 21
74.52047763135261
 31
0.0
  0
TEXT
  5
133
  8
0
 62
     7
 10
-77.35681877209309
 20
88.72047763135261
 30
0.0
 40
4.0
  1
25
 50
90.0
 41
0.8000000000000007
  7
FDASTYLE1
 72
     5
 11
-77.35681877209309
 21
95.12047763135261
 31
0.0
  0
ENDBLK
  5
7A
  8
0
  0
BLOCK
  8
0
  2
DA_IMAGEDIMGROUP_17
 70
     0
 10
0.0
 20
0.0
 30
0.0
  3
DA_IMAGEDIMGROUP_17
  1

  0
LINE
  5
134
  8
0
  6
CONTINUOUS
 62
     9
 10
-52.35681877209309
 20
66.42047763135261
 30
0.0
 11
-52.35681877209309
 21
123.4204852607472
 31
0.0
  0
INSERT
  5
135
  8
0
 62
     9
  2
_OPEN30
 10
-52.35681877209309
 20
66.42047763135261
 30
0.0
 41
1.999998407630662
 42
2.000005728319971
 50
270.0
  0
INSERT
  5
136
  8
0
 62
     9
  2
_OPEN30
 10
-52.35681877209309
 20
123.4204852607472
 30
0.0
 41
1.999998407630662
 42
2.000005728319971
 50
90.0
  0
LINE
  5
137
  8
0
  6
CONTINUOUS
 62
     9
 10
-102.1272061255558
 20
66.42047763135261
 30
0.0
 11
-50.85681877209309
 21
66.42047763135261
 31
0.0
  0
LINE
  5
138
  8
0
  6
CONTINUOUS
 62
     9
 10
-102.1272061255558
 20
123.4204852607472
 30
0.0
 11
-50.85681877209309
 21
123.4204852607472
 31
0.0
  0
TEXT
  5
139
  8
0
 62
     7
 10
-53.35681877209309
 20
91.72048144604989
 30
0.0
 40
4.0
  1
57
 50
90.0
 41
0.8000000000000007
  7
FDASTYLE1
 72
     5
 11
-53.35681877209309
 21
98.12048144604989
 31
0.0
  0
ENDBLK
  5
7D
  8
0
  0
BLOCK
  8
0
  2
DA_IMAGEDIMGROUP_18
 70
     0
 10
0.0
 20
0.0
 30
0.0
  3
DA_IMAGEDIMGROUP_18
  1

  0
LINE
  5
13A
  8
0
  6
CONTINUOUS
 62
     9
 10
-191.6272015658006
 20
-98.26006509168397
 30
0.0
 11
-105.6272015658006
 21
-98.26006509168397
 31
0.0
  0
INSERT
  5
13B
  8
0
 62
     9
  2
_OPEN30
 10
-191.6272015658006
 20
-98.26006509168397
 30
0.0
 41
1.999998407630662
 42
2.000005728319971
 50
180.0
  0
INSERT
  5
13C
  8
0
 62
     9
  2
_OPEN30
 10
-105.6272015658006
 20
-98.26006509168397
 30
0.0
 41
1.999998407630662
 42
2.000005728319971
 50
360.0
  0
LINE
  5
13D
  8
0
  6
CONTINUOUS
 62
     9
 10
-191.6272015658006
 20
-49.07952236864739
 30
0.0
 11
-191.6272015658006
 21
-99.76006509168397
 31
0.0
  0
LINE
  5
13E
  8
0
  6
CONTINUOUS
 62
     9
 10
-105.6272015658006
 20
-47.57951730421016
 30
0.0
 11
-105.6272015658006
 21
-99.76006509168397
 31
0.0
  0
TEXT
  5
13F
  8
0
 62
     7
 10
-151.8272015658006
 20
-97.26006509168397
 30
0.0
 40
4.0
  1
86
 41
0.7999999999999972
  7
FDASTYLE1
 72
     5
 11
-145.4272015658006
 21
-97.26006509168397
 31
0.0
  0
ENDBLK
  5
80
  8
0
  0
BLOCK
  8
0
  2
DC_GROUP_1
 70
     0
 10
0.0
 20
0.0
 30
0.0
  3
DC_GROUP_1
  1

  0
LINE
  5
140
  8
0
  6
CONTINUOUS
 62
     7
 10
-147.1272015658006
 20
-47.69440618081859
 30
0.0
 11
-118.0854393773489
 21
-111.0831623958069
 31
0.0
  0
INSERT
  5
141
  8
0
 62
     7
  2
_OPEN30
 10
-147.1272015658006
 20
-47.69440618081859
 30
0.0
 41
1.999998407630662
 42
2.000005728319971
 50
114.6150355524699
  0
LINE
  5
142
  8
0
  6
CONTINUOUS
 62
     7
 10
-118.0854393773489
 20
-111.0831623958069
 30
0.0
 11
-101.1574429130976
 21
-111.0831623958069
 31
0.0
  0
TEXT
  5
143
  8
0
 62
     7
 10
-118.0854393773489
 20
-111.0831623958069
 30
0.0
 40
4.0
  1
M8×16
 41
0.7692307692307692
  7
FDASTYLE1
 72
     5
 11
-102.0854393773489
 21
-111.0831623958069
 31
0.0
  0
ENDBLK
  5
83
  8
0
  0
BLOCK
  8
0
  2
DC_GROUP_2
 70
     0
 10
0.0
 20
0.0
 30
0.0
  3
DC_GROUP_2
  1

  0
LINE
  5
144
  8
0
  6
CONTINUOUS
 62
     7
 10
-103.6272061255558
 20
116.4845214480336
 30
0.0
 11
-74.82218708242459
 21
156.3324411558637
 31
0.0
  0
INSERT
  5
145
  8
0
 62
     7
  2
_OPEN30
 10
-103.6272061255558
 20
116.4845214480336
 30
0.0
 41
1.999998407630662
 42
2.000005728319971
 50
234.1378177844613
  0
LINE
  5
146
  8
0
  6
CONTINUOUS
 62
     7
 10
-74.82218708242459
 20
156.3324411558637
 30
0.0
 11
-31.72423265513758
 21
156.3324411558637
 31
0.0
  0
TEXT
  5
147
  8
0
 62
     7
 10
-74.82218708242459
 20
156.3324411558637
 30
0.0
 40
4.0
  1
セレーションP1.5山60°
 41
0.7179487179487181
  7
FDASTYLE1
 72
     5
 11
-30.02218708242459
 21
156.3324411558637
 31
0.0
  0
ENDBLK
  5
86
  8
0
  0
BLOCK
  8
0
  2
DA_IMAGEDIMGROUP_19
 70
     0
 10
0.0
 20
0.0
 30
0.0
  3
DA_IMAGEDIMGROUP_19
  1

  0
LINE
  5
148
  8
0
  6
CONTINUOUS
 62
     9
 10
-177.6272015658006
 20
62.92047763135261
 30
0.0
 11
-177.6272015658006
 21
153.609262717247
 31
0.0
  0
LINE
  5
149
  8
0
  6
CONTINUOUS
 62
     9
 10
-187.6272046175584
 20
106.4204776313526
 30
0.0
 11
-187.6272046175584
 21
153.609262717247
 31
0.0
  0
LINE
  5
14A
  8
0
  6
CONTINUOUS
 62
     9
 10
-187.6272046175584
 20
152.109262717247
 30
0.0
 11
-177.6272015658006
 21
152.109262717247
 31
0.0
  0
LINE
  5
14B
  8
0
  6
CONTINUOUS
 62
     9
 10
-207.5590546175584
 20
152.109262717247
 30
0.0
 11
-187.6272046175584
 21
152.109262717247
 31
0.0
  0
INSERT
  5
14C
  8
0
 62
     9
  2
_OPEN30
 10
-187.6272046175584
 20
152.109262717247
 30
0.0
 41
1.999998407630662
 42
2.000005728319971
 50
360.0
  0
LINE
  5
14D
  8
0
  6
CONTINUOUS
 62
     9
 10
-172.6272015658006
 20
152.109262717247
 30
0.0
 11
-177.6272015658006
 21
152.109262717247
 31
0.0
  0
INSERT
  5
14E
  8
0
 62
     9
  2
_OPEN30
 10
-177.6272015658006
 20
152.109262717247
 30
0.0
 41
1.999998407630662
 42
2.000005728319971
 50
180.0
  0
TEXT
  5
14F
  8
0
 62
     7
 10
-206.5590546175584
 20
153.109262717247
 30
0.0
 40
4.0
  1
MAX20
 41
0.8
  7
FDASTYLE1
 72
     5
 11
-190.5590546175584
 21
153.109262717247
 31
0.0
  0
ENDBLK
  5
89
  8
0
  0
BLOCK
  8
0
  2
DA_IMAGEDIMGROUP_20
 70
     0
 10
0.0
 20
0.0
 30
0.0
  3
DA_IMAGEDIMGROUP_20
  1

  0
LINE
  5
150
  8
0
  6
CONTINUOUS
 62
     9
 10
-108.1272015658006
 20
17.63542205137276
 30
0.0
 11
-105.6272015658006
 21
17.63542205137276
 31
0.0
  0
LINE
  5
151
  8
0
  6
CONTINUOUS
 62
     9
 10
-92.09535156580057
 20
17.63542205137276
 30
0.0
 11
-105.6272015658006
 21
17.63542205137276
 31
0.0
  0
INSERT
  5
152
  8
0
 62
     9
  2
_OPEN30
 10
-105.6272015658006
 20
17.63542205137276
 30
0.0
 41
1.999998407630662
 42
2.000005728319971
 50
180.0
  0
LINE
  5
153
  8
0
  6
CONTINUOUS
 62
     9
 10
-113.1272015658006
 20
17.63542205137276
 30
0.0
 11
-108.1272015658006
 21
17.63542205137276
 31
0.0
  0
INSERT
  5
154
  8
0
 62
     9
  2
_OPEN30
 10
-108.1272015658006
 20
17.63542205137276
 30
0.0
 41
1.999998407630662
 42
2.000005728319971
 50
360.0
  0
TEXT
  5
155
  8
0
 62
     7
 10
-102.6953515658006
 20
18.63542205137276
 30
0.0
 40
4.0
  1
2.5
 41
0.8000000000000007
  7
FDASTYLE1
 72
     5
 11
-93.09535156580057
 21
18.63542205137276
 31
0.0
  0
ENDBLK
  5
8C
  8
0
  0
BLOCK
  8
0
  2
DA_IMAGEDIMGROUP_21
 70
     0
 10
0.0
 20
0.0
 30
0.0
  3
DA_IMAGEDIMGROUP_21
  1

  0
LINE
  5
156
  8
0
  6
CONTINUOUS
 62
     9
 10
234.4806855006172
 20
34.42047939205681
 30
0.0
 11
226.5228580501194
 21
34.42047939205681
 31
0.0
  0
LINE
  5
157
  8
0
  6
CONTINUOUS
 62
     9
 10
221.4193482270032
 20
83.16605837596185
 30
0.0
 11
213.0652384327182
 21
78.34281137027338
 31
0.0
  0
ARC
  5
158
  8
0
  6
CONTINUOUS
 62
     9
 10
136.9895194545481
 20
34.42047939205681
 30
0.0
 40
95.99116604606907
 50
0.0
 51
29.99999725896548
  0
INSERT
  5
159
  8
0
 62
     9
  2
_OPEN30
 10
232.9806855006171
 20
34.42047939205681
 30
0.0
 41
1.999998407630662
 42
2.000005728319971
 50
270.596885633375
  0
INSERT
  5
15A
  8
0
 62
     9
  2
_OPEN30
 10
220.1203100854465
 20
82.41605843810794
 30
0.0
 41
1.999998407630662
 42
2.000005728319971
 50
119.40311162559
  0
TEXT
  5
15B
  8
0
 62
     7
 10
229.5033089851943
 20
54.24014657960318
 30
0.0
 40
4.0
  1
30°
 50
104.9999986294827
 41
0.7500000000000009
  7
FDASTYLE1
 72
     5
 11
227.018646374018
 21
63.51303457141147
 31
0.0
  0
ENDBLK
  5
8F
  8
0
  0
BLOCK
  8
0
  2
DA_IMAGEDIMGROUP_22
 70
     0
 10
0.0
 20
0.0
 30
0.0
  3
DA_IMAGEDIMGROUP_22
  1

  0
LINE
  5
15C
  8
0
  6
CONTINUOUS
 62
     9
 10
113.9895018315834
 20
121.5089225047747
 30
0.0
 11
113.9895018315834
 21
158.8418366176095
 31
0.0
  0
LINE
  5
15D
  8
0
  6
CONTINUOUS
 62
     9
 10
159.9895195341624
 20
121.5089225047747
 30
0.0
 11
159.9895195341624
 21
158.8418366176095
 31
0.0
  0
LINE
  5
15E
  8
0
  6
CONTINUOUS
 62
     9
 10
113.9895018315834
 20
157.3418366176095
 30
0.0
 11
159.9895195341624
 21
157.3418366176095
 31
0.0
  0
INSERT
  5
15F
  8
0
 62
     9
  2
_OPEN30
 10
113.9895018315834
 20
157.3418366176095
 30
0.0
 41
1.999998407630662
 42
2.000005728319971
 50
180.0
  0
INSERT
  5
160
  8
0
 62
     9
  2
_OPEN30
 10
159.9895195341624
 20
157.3418366176095
 30
0.0
 41
1.999998407630662
 42
2.000005728319971
 50
360.0
  0
TEXT
  5
161
  8
0
 62
     7
 10
133.7895106828729
 20
158.3418366176095
 30
0.0
 40
4.0
  1
46
 41
0.7999999999999972
  7
FDASTYLE1
 72
     5
 11
140.1895106828729
 21
158.3418366176095
 31
0.0
  0
ENDBLK
  5
92
  8
0
  0
BLOCK
  8
0
  2
DC_GROUP_3
 70
     0
 10
0.0
 20
0.0
 30
0.0
  3
DC_GROUP_3
  1

  0
LINE
  5
162
  8
0
  6
CONTINUOUS
 62
     9
 10
-101.6272061255558
 20
112.4204776313526
 30
0.0
 11
-64.19671383861409
 21
112.4204776313526
 31
0.0
  0
LINE
  5
163
  8
0
  6
CONTINUOUS
 62
     9
 10
-101.6272061255558
 20
71.42047763135261
 30
0.0
 11
-82.18653383325749
 21
71.42047763135261
 31
0.0
  0
LINE
  5
164
  8
0
  6
CONTINUOUS
 62
     9
 10
-70.64867100107429
 20
71.42047763135261
 30
0.0
 11
-64.19671383861409
 21
71.42047763135261
 31
0.0
  0
LINE
  5
165
  8
0
  6
CONTINUOUS
 62
     9
 10
-65.19671383861409
 20
71.42047763135261
 30
0.0
 11
-65.19671383861409
 21
112.4204776313526
 31
0.0
  0
INSERT
  5
166
  8
0
 62
     9
  2
_OPEN30
 10
-65.19671383861409
 20
71.42047763135261
 30
0.0
 41
1.999998407630662
 42
2.000005728319971
 50
270.0
  0
INSERT
  5
167
  8
0
 62
     9
  2
_OPEN30
 10
-65.19671383861409
 20
112.4204776313526
 30
0.0
 41
1.999998407630662
 42
2.000005728319971
 50
90.0
  0
TEXT
  5
168
  8
0
 62
     7
 10
-66.19671383861409
 20
88.72047763135262
 30
0.0
 40
4.0
  1
41
 50
90.0
 41
0.8000000000000007
  7
FDASTYLE1
 72
     5
 11
-66.19671383861409
 21
95.12047763135263
 31
0.0
  0
ENDBLK
  5
95
  8
0
  0
BLOCK
  8
0
  2
DC_GROUP_4
 70
     0
 10
0.0
 20
0.0
 30
0.0
  3
DC_GROUP_4
  1

  0
LINE
  5
169
  8
0
  6
CONTINUOUS
 62
     9
 10
121.4895130521575
 20
123.0185549437986
 30
0.0
 11
121.4895130521575
 21
149.3487803333974
 31
0.0
  0
LINE
  5
16A
  8
0
  6
CONTINUOUS
 62
     9
 10
152.4895197576798
 20
123.0185358570088
 30
0.0
 11
152.4895197576798
 21
129.1143130315567
 31
0.0
  0
LINE
  5
16B
  8
0
  6
CONTINUOUS
 62
     9
 10
152.4895197576798
 20
136.0600928905548
 30
0.0
 11
152.4895197576798
 21
149.3487803333974
 31
0.0
  0
LINE
  5
16C
  8
0
  6
CONTINUOUS
 62
     9
 10
121.4895130521575
 20
148.3487803333974
 30
0.0
 11
152.4895197576798
 21
148.3487803333974
 31
0.0
  0
INSERT
  5
16D
  8
0
 62
     9
  2
_OPEN30
 10
121.4895130521575
 20
148.3487803333974
 30
0.0
 41
1.999998407630662
 42
2.000005728319971
 50
180.0
  0
INSERT
  5
16E
  8
0
 62
     9
  2
_OPEN30
 10
152.4895197576798
 20
148.3487803333974
 30
0.0
 41
1.999998407630662
 42
2.000005728319971
 50
360.0
  0
TEXT
  5
16F
  8
0
 62
     7
 10
133.7895164049187
 20
149.3487803333974
 30
0.0
 40
4.0
  1
31
 41
0.7999999999999972
  7
FDASTYLE1
 72
     5
 11
140.1895164049186
 21
149.3487803333974
 31
0.0
  0
ENDBLK
  5
98
  8
0
  0
BLOCK
  8
0
  2
DA_IMAGEDIMGROUP_23
 70
     0
 10
0.0
 20
0.0
 30
0.0
  3
DA_IMAGEDIMGROUP_23
  1

  0
LINE
  5
170
  8
0
  6
CONTINUOUS
 62
     9
 10
55.51618315288213
 20
81.4591660478026
 30
0.0
 11
79.51326174210443
 21
67.60444779524667
 31
0.0
  0
LINE
  5
171
  8
0
  6
CONTINUOUS
 62
     9
 10
42.91220625640499
 20
34.42047939205682
 30
0.0
 11
47.95615759358063
 21
34.42047939205681
 31
0.0
  0
ARC
  5
172
  8
0
  6
CONTINUOUS
 62
     9
 10
136.9895873632844
 20
34.42047939205681
 30
0.0
 40
93.0773811068794
 50
150.0000027410345
 51
180.0
  0
INSERT
  5
173
  8
0
 62
     9
  2
_OPEN30
 10
56.38220858058661
 20
80.95916608923332
 30
0.0
 41
1.999998407630662
 42
2.000005728319971
 50
60.61557386328202
  0
INSERT
  5
174
  8
0
 62
     9
  2
_OPEN30
 10
43.91220625640499
 20
34.42047939205682
 30
0.0
 41
1.999998407630662
 42
2.000005728319971
 50
269.3844288777525
  0
TEXT
  5
175
  8
0
 62
     7
 10
44.87548339449271
 20
54.13305116632482
 30
0.0
 40
4.0
  1
30°
 50
75.00000137051727
 41
0.7500000000000003
  7
FDASTYLE1
 72
     5
 11
47.36014600566907
 21
63.40593915813311
 31
0.0
  0
ENDBLK
  5
9B
  8
0
  0
BLOCK
  8
0
  2
DC_GROUP_5
 70
     0
 10
0.0
 20
0.0
 30
0.0
  3
DC_GROUP_5
  1

  0
LINE
  5
176
  8
0
  6
CONTINUOUS
 62
     7
 10
129.8775564192437
 20
-22.61963593281312
 30
0.0
 11
89.50185321475686
 21
-52.86116156487013
 31
0.0
  0
INSERT
  5
177
  8
0
 62
     7
  2
_OPEN30
 10
129.8775564192437
 20
-22.61963593281312
 30
0.0
 41
1.999998407630662
 42
2.000005728319971
 50
36.83332340538196
  0
LINE
  5
178
  8
0
  6
CONTINUOUS
 62
     7
 10
89.50185321475686
 20
-52.86116156487013
 30
0.0
 11
60.70185321475687
 21
-52.86116156487013
 31
0.0
  0
TEXT
  5
179
  8
0
 62
     7
 10
60.70185321475687
 20
-52.86116156487013
 30
0.0
 40
4.0
  1
PCD104.77
 41
0.7999999999999999
  7
FDASTYLE1
 72
     5
 11
89.50185321475686
 21
-52.86116156487013
 31
0.0
  0
ENDBLK
  5
9E
  8
0
  0
BLOCK
  8
0
  2
DA_IMAGEDIMGROUP_24
 70
     0
 10
0.0
 20
0.0
 30
0.0
  3
DA_IMAGEDIMGROUP_24
  1

  0
LINE
  5
17A
  8
0
  6
CONTINUOUS
 62
     9
 10
10.21992762126522
 20
-13.36657400180371
 30
0.0
 11
19.29782732513846
 21
-8.125446164096076
 31
0.0
  0
LINE
  5
17B
  8
0
  6
CONTINUOUS
 62
     9
 10
2.219923774355273
 20
0.4898679807175483
 30
0.0
 11
11.29781098194665
 21
5.730988603693504
 31
0.0
  0
LINE
  5
17C
  8
0
  6
CONTINUOUS
 62
     9
 10
9.998772876269989
 20
4.980988603693476
 30
0.0
 11
17.99878921946183
 21
-8.875446164096047
 31
0.0
  0
INSERT
  5
17D
  8
0
 62
     9
  2
_OPEN30
 10
9.998772876269989
 20
4.980988603693476
 30
0.0
 41
1.999998407630662
 42
2.000005728319971
 50
120.0000000000002
  0
INSERT
  5
17E
  8
0
 62
     9
  2
_OPEN30
 10
17.99878921946183
 20
-8.875446164096047
 30
0.0
 41
1.999998407630662
 42
2.000005728319971
 50
300.0000000000002
  0
TEXT
  5
17F
  8
0
 62
     7
 10
12.46480645165035
 20
2.709693157963979
 30
0.0
 40
4.0
  1
φ16
 50
-59.99999999999999
 41
0.7500000000000002
  7
FDASTYLE1
 72
     5
 11
17.26480645165035
 21
-5.604150718366634
 31
0.0
  0
ENDBLK
  5
A1
  8
0
  0
BLOCK
  8
0
  2
DA_IMAGEDIMGROUP_25
 70
     0
 10
0.0
 20
0.0
 30
0.0
  3
DA_IMAGEDIMGROUP_25
  1

  0
LINE
  5
180
  8
0
  6
CONTINUOUS
 62
     9
 10
30.15296211109924
 20
-46.89157222818568
 30
0.0
 11
37.33362465511392
 21
-59.32884458642587
 31
0.0
  0
LINE
  5
181
  8
0
  6
CONTINUOUS
 62
     9
 10
34.85157288792508
 20
-59.02980703478607
 30
0.0
 11
36.58362465511392
 21
-58.0298064807493
 31
0.0
  0
LINE
  5
182
  8
0
  6
CONTINUOUS
 62
     9
 10
26.01898584296168
 20
-37.73131744379924
 30
0.0
 11
38.19964912821909
 21
-58.82884512375375
 31
0.0
  0
LINE
  5
183
  8
0
  6
CONTINUOUS
 62
     9
 10
36.58362465511392
 20
-58.0298064807493
 30
0.0
 11
37.44964912821909
 21
-57.52980701807707
 31
0.0
  0
INSERT
  5
189
  8
0
 62
     9
  2
_DOT
 10
36.58362465511392
 20
-58.0298064807493
 30
0.0
 50
210.000000000008
  0
LINE
  5
18A
  8
0
  6
CONTINUOUS
 62
     9
 10
28.675209611945
 20
-62.59573203478601
 30
0.0
 11
34.85157288792508
 21
-59.02980703478607
 31
0.0
  0
INSERT
  5
18B
  8
0
 62
     9
  2
_OPEN30
 10
34.85157288792508
 20
-59.02980703478607
 30
0.0
 41
1.999998407630662
 42
2.000005728319971
 50
29.99999999999942
  0
LINE
  5
18C
  8
0
  6
CONTINUOUS
 62
     9
 10
43.88854255242351
 20
-53.8123101663295
 30
0.0
 11
37.44964912821909
 21
-57.52980701807707
 31
0.0
  0
INSERT
  5
18D
  8
0
 62
     9
  2
_OPEN30
 10
37.44964912821909
 20
-57.52980701807707
 30
0.0
 41
1.999998407630662
 42
2.000005728319971
 50
209.9999999999989
  0
TEXT
  5
18E
  8
0
 62
     7
 10
29.04123501572951
 20
-61.22970663100163
 30
0.0
 40
4.0
  1
2
 50
30.00000000000001
 41
0.8
  7
FDASTYLE1
 72
     5
 11
31.81251630783971
 21
-59.62970663100163
 31
0.0
  0
TEXT
  5
18F
  8
0
 62
     7
 10
39.75123585652884
 20
-55.04628476254499
 30
0.0
 40
4.0
  1
1
 50
30.00000000000001
 41
0.8
  7
FDASTYLE1
 72
     5
 11
42.52251714863905
 21
-53.44628476254498
 31
0.0
  0
ENDBLK
  5
A4
  8
0
  0
BLOCK
  8
0
  2
DA_IMAGEDIMGROUP_26
 70
     0
 10
0.0
 20
0.0
 30
0.0
  3
DA_IMAGEDIMGROUP_26
  1

  0
LINE
  5
190
  8
0
  6
CONTINUOUS
 62
     9
 10
-26.85706882560458
 20
-50.93878659854255
 30
0.0
 11
-18.85706882560452
 21
-64.79519305909361
 31
0.0
  0
INSERT
  5
191
  8
0
 62
     9
  2
_OPEN30
 10
-26.85706882560458
 20
-50.93878659854255
 30
0.0
 41
1.999998407630662
 42
2.000005728319971
 50
120.0000000000001
  0
INSERT
  5
192
  8
0
 62
     9
  2
_OPEN30
 10
-18.85706882560452
 20
-64.79519305909361
 30
0.0
 41
1.999998407630662
 42
2.000005728319971
 50
300.0000000000001
  0
LINE
  5
193
  8
0
  6
CONTINUOUS
 62
     9
 10
-1.399595565901613
 20
-36.24090755916535
 30
0.0
 11
-27.723094229389
 21
-51.43878659854255
 31
0.0
  0
LINE
  5
194
  8
0
  6
CONTINUOUS
 62
     9
 10
6.600404541787817
 20
-50.09731395754187
 30
0.0
 11
-19.72309422938897
 21
-65.29519305909349
 31
0.0
  0
TEXT
  5
195
  8
0
 62
     7
 10
-23.59104342182013
 20
-54.59570853670793
 30
0.0
 40
4.0
  1
16
 50
-59.99999999999999
 41
0.7999999999999998
  7
FDASTYLE1
 72
     5
 11
-20.39104342182013
 21
-60.13827112092834
 31
0.0
  0
ENDBLK
  5
A7
  8
0
  0
BLOCK
  8
0
  2
DC_GROUP_6
 70
     0
 10
0.0
 20
0.0
 30
0.0
  3
DC_GROUP_6
  1

  0
LINE
  5
196
  8
0
  6
CONTINUOUS
 62
     6
 10
-43.66771983660166
 20
-10.752025385498
 30
0.0
 11
-39.87709520263501
 21
-12.82157064531833
 31
0.0
  0
LINE
  5
197
  8
0
  6
CONTINUOUS
 62
     6
 10
-39.87709520263501
 20
-12.82157064531833
 30
0.0
 11
-36.19412371934592
 21
-15.00756009460582
 31
0.0
  0
LINE
  5
198
  8
0
  6
CONTINUOUS
 62
     6
 10
-36.19412371934592
 20
-15.00756009460582
 30
0.0
 11
-32.72645853741209
 21
-17.42643792282757
 31
0.0
  0
LINE
  5
199
  8
0
  6
CONTINUOUS
 62
     6
 10
-32.72645853741209
 20
-17.42643792282757
 30
0.0
 11
-29.58168593960152
 21
-20.19454879467907
 31
0.0
  0
LINE
  5
19A
  8
0
  6
CONTINUOUS
 62
     6
 10
-29.58168593960152
 20
-20.19454879467907
 30
0.0
 11
-26.83468322907847
 21
-23.37955402666688
 31
0.0
  0
LINE
  5
19B
  8
0
  6
CONTINUOUS
 62
     6
 10
-26.83468322907847
 20
-23.37955402666688
 30
0.0
 11
-24.47500454966825
 21
-26.92212176323676
 31
0.0
  0
LINE
  5
19C
  8
0
  6
CONTINUOUS
 62
     6
 10
-24.47500454966825
 20
-26.92212176323676
 30
0.0
 11
-22.47846633865898
 21
-30.74247323918615
 31
0.0
  0
LINE
  5
19D
  8
0
  6
CONTINUOUS
 62
     6
 10
-22.47846633865898
 20
-30.74247323918615
 30
0.0
 11
-20.82088503333852
 21
-34.76082968931206
 31
0.0
  0
LINE
  5
19E
  8
0
  6
CONTINUOUS
 62
     6
 10
-20.82088503333852
 20
-34.76082968931206
 30
0.0
 11
-19.46532934830238
 21
-38.89615685494101
 31
0.0
  0
LINE
  5
19F
  8
0
  6
CONTINUOUS
 62
     6
 10
-19.46532934830238
 20
-38.89615685494101
 30
0.0
 11
-18.27033047327705
 21
-43.05712482043231
 31
0.0
  0
LINE
  5
1A0
  8
0
  6
CONTINUOUS
 62
     6
 10
-18.27033047327705
 20
-43.05712482043231
 30
0.0
 11
-17.04319704190512
 21
-47.14735888008505
 31
0.0
  0
LINE
  5
1A1
  8
0
  6
CONTINUOUS
 62
     6
 10
-17.04319704190512
 20
-47.14735888008505
 30
0.0
 11
-15.59088619236243
 21
-51.07044971023021
 31
0.0
  0
LINE
  5
1A2
  8
0
  6
CONTINUOUS
 62
     6
 10
-15.59088619236243
 20
-51.07044971023021
 30
0.0
 11
-13.72110756962675
 21
-54.73040227415112
 31
0.0
  0
LINE
  5
1A3
  8
0
  6
CONTINUOUS
 62
     6
 10
-13.72110756962675
 20
-54.73040227415112
 30
0.0
 11
-11.33988833736176
 21
-58.08534950462223
 31
0.0
  0
LINE
  5
1A4
  8
0
  6
CONTINUOUS
 62
     6
 10
-11.33988833736176
 20
-58.08534950462223
 30
0.0
 11
-8.548240296260353
 21
-61.20077165791957
 31
0.0
  0
LINE
  5
1A5
  8
0
  6
CONTINUOUS
 62
     6
 10
-8.548240296260353
 20
-61.20077165791957
 30
0.0
 11
-5.470151684041433
 21
-64.15479849469085
 31
0.0
  0
LINE
  5
1A6
  8
0
  6
CONTINUOUS
 62
     6
 10
-5.470151684041433
 20
-64.15479849469085
 30
0.0
 11
-2.229610738423979
 21
-67.0255597755833
 31
0.0
  0
LINE
  5
1A7
  8
0
  6
CONTINUOUS
 62
     6
 10
-2.229610738423979
 20
-67.0255597755833
 30
0.0
 11
1.049394302873488
 21
-69.89118526124372
 31
0.0
  0
LINE
  5
1A8
  8
0
  6
CONTINUOUS
 62
     6
 10
1.049394302873488
 20
-69.89118526124372
 30
0.0
 11
4.242875202131792
 21
-72.8298047123198
 31
0.0
  0
LINE
  5
1A9
  8
0
  6
CONTINUOUS
 62
     6
 10
4.242875202131792
 20
-72.8298047123198
 30
0.0
 11
7.231262696492088
 21
-75.91667479052666
 31
0.0
  0
LINE
  5
1AA
  8
0
  6
CONTINUOUS
 62
     6
 10
7.231262696492088
 20
-75.91667479052666
 30
0.0
 11
9.98132311819294
 21
-79.17091906926265
 31
0.0
  0
LINE
  5
1AB
  8
0
  6
CONTINUOUS
 62
     6
 10
9.98132311819294
 20
-79.17091906926265
 30
0.0
 11
12.53842711978135
 21
-82.5605547011167
 31
0.0
  0
LINE
  5
1AC
  8
0
  6
CONTINUOUS
 62
     6
 10
12.53842711978135
 20
-82.5605547011167
 30
0.0
 11
14.95081380628563
 21
-86.05173384780898
 31
0.0
  0
LINE
  5
1AD
  8
0
  6
CONTINUOUS
 62
     6
 10
14.95081380628563
 20
-86.05173384780898
 30
0.0
 11
17.26672228273376
 21
-89.61060867106011
 31
0.0
  0
LINE
  5
1AE
  8
0
  6
CONTINUOUS
 62
     6
 10
17.26672228273376
 20
-89.61060867106011
 30
0.0
 11
19.53439165415369
 21
-93.20333133259095
 31
0.0
  0
ENDBLK
  5
AA
  8
0
  0
BLOCK
  8
0
  2
DC_GROUP_7
 70
     0
 10
0.0
 20
0.0
 30
0.0
  3
DC_GROUP_7
  1

  0
LINE
  5
1AF
  8
0
  6
CONTINUOUS
 62
     7
 10
139.2482665510798
 20
-5.553868038603667
 30
0.0
 11
181.9121456637609
 21
-42.84587231544589
 31
0.0
  0
INSERT
  5
1B0
  8
0
 62
     7
  2
_OPEN30
 10
139.2482665510798
 20
-5.553868038603667
 30
0.0
 41
1.999998407630662
 42
2.000005728319971
 50
138.8436684046451
  0
LINE
  5
1B1
  8
0
  6
CONTINUOUS
 62
     7
 10
181.9121456637609
 20
-42.84587231544589
 30
0.0
 11
224.6972036326335
 21
-42.84587231544589
 31
0.0
  0
TEXT
  5
1B2
  8
0
 62
     7
 10
181.9121456637609
 20
-42.84587231544589
 30
0.0
 40
4.0
  1
3-M6×12 PCD76
 41
0.7878787878787879
  7
FDASTYLE1
 72
     5
 11
223.5121456637609
 21
-42.84587231544589
 31
0.0
  0
ENDBLK
  5
AD
  8
0
  0
BLOCK
  8
0
  2
DC_GROUP_8
 70
     0
 10
0.0
 20
0.0
 30
0.0
  3
DC_GROUP_8
  1

  0
LINE
  5
1B3
  8
0
  6
CONTINUOUS
 62
     7
 10
-91.66864843440338
 20
107.5663892191835
 30
0.0
 11
-71.47047166072126
 21
138.8624653190646
 31
0.0
  0
INSERT
  5
1B4
  8
0
 62
     7
  2
_OPEN30
 10
-91.66864843440338
 20
107.5663892191835
 30
0.0
 41
1.999998407630662
 42
2.000005728319971
 50
237.1622035196819
  0
LINE
  5
1B5
  8
0
  6
CONTINUOUS
 62
     7
 10
-71.47047166072126
 20
138.8624653190646
 30
0.0
 11
-65.07047166072125
 21
138.8624653190646
 31
0.0
  0
TEXT
  5
1B6
  8
0
 62
     7
 10
-71.47047166072126
 20
138.8624653190646
 30
0.0
 40
4.0
  1
M8
 41
0.8000000000000007
  7
FDASTYLE1
 72
     5
 11
-65.07047166072125
 21
138.8624653190646
 31
0.0
  0
ENDBLK
  5
B0
  8
0
  0
BLOCK
  8
0
  2
DC_GROUP_9
 70
     0
 10
0.0
 20
0.0
 30
0.0
  3
DC_GROUP_9
  1

  0
LINE
  5
1B7
  8
0
  6
CONTINUOUS
 62
     9
 10
-51.02575376368207
 20
34.92047763135261
 30
0.0
 11
-51.02575376368207
 21
66.42047763135261
 31
0.0
  0
INSERT
  5
1B8
  8
0
 62
     9
  2
_OPEN30
 10
-51.02575376368207
 20
34.92047763135261
 30
0.0
 41
1.999998407630662
 42
2.000005728319971
 50
270.0
  0
INSERT
  5
1B9
  8
0
 62
     9
  2
_OPEN30
 10
-51.02575376368207
 20
66.42047763135261
 30
0.0
 41
1.999998407630662
 42
2.000005728319971
 50
90.0
  0
LINE
  5
1BA
  8
0
  6
CONTINUOUS
 62
     9
 10
-99.95141385049583
 20
34.92047763135261
 30
0.0
 11
-82.7903289734442
 21
34.92047763135261
 31
0.0
  0
LINE
  5
1BB
  8
0
  6
CONTINUOUS
 62
     9
 10
-61.92627824019015
 20
34.92047763135261
 30
0.0
 11
-50.02575376368207
 21
34.92047763135261
 31
0.0
  0
TEXT
  5
1BC
  8
0
 62
     7
 10
-52.02575376368207
 20
44.27047763135261
 30
0.0
 40
4.0
  1
31.5
 50
90.0
 41
0.7999999999999998
  7
FDASTYLE1
 72
     5
 11
-52.02575376368207
 21
57.07047763135261
 31
0.0
  0
ENDBLK
  5
B3
  8
0
  0
BLOCK
  8
0
  2
_OPEN30
 70
     0
 10
0.0
 20
0.0
 30
0.0
  3
_OPEN30
  1

  0
LINE
  5
BA
  8
0
  6
BYBLOCK
 62
     0
 10
-1.0
 20
0.267949
 30
0.0
 11
0.0
 21
0.0
 31
0.0
  0
LINE
  5
BB
  8
0
  6
BYBLOCK
 62
     0
 10
0.0
 20
0.0
 30
0.0
 11
-1.0
 21
-0.267949
 31
0.0
  0
LINE
  5
BC
  8
0
  6
BYBLOCK
 62
     0
 10
0.0
 20
0.0
 30
0.0
 11
-1.0
 21
0.0
 31
0.0
  0
ENDBLK
  5
B9
  8
0
  0
BLOCK
  8
0
  2
_DOT
 70
     0
 10
0.0
 20
0.0
 30
0.0
  3
_DOT
  1

  0
POLYLINE
  5
187
  8
0
  6
BYBLOCK
 62
     0
 66
     1
 10
0.0
 20
0.0
 30
0.0
 70
     1
 40
0.5
 41
0.5
  0
VERTEX
  5
56A
  8
0
  6
BYBLOCK
 62
     0
 10
-0.25
 20
0.0
 30
0.0
 42
1.0
  0
VERTEX
  5
56B
  8
0
  6
BYBLOCK
 62
     0
 10
0.25
 20
0.0
 30
0.0
 42
1.0
  0
SEQEND
  5
569
  8
0
  6
BYBLOCK
 62
     0
  0
LINE
  5
188
  8
0
  6
BYBLOCK
 62
     0
 10
-0.5
 20
0.0
 30
0.0
 11
-1.0
 21
0.0
 31
0.0
  0
ENDBLK
  5
186
  8
0
  0
ENDSEC
  0
SECTION
  2
ENTITIES
  0
LINE
  5
1BD
  8
ZUWAKU
  6
CONTINUOUS
 62
     3
 10
-277.0
 20
-190.0
 30
0.0
 11
-277.0
 21
190.0
 31
0.0
  0
LINE
  5
1BE
  8
ZUWAKU
  6
CONTINUOUS
 62
     3
 10
277.0
 20
-190.0
 30
0.0
 11
277.0
 21
190.0
 31
0.0
  0
LINE
  5
1BF
  8
ZUWAKU
  6
CONTINUOUS
 62
     3
 10
-277.0
 20
-190.0
 30
0.0
 11
277.0
 21
-190.0
 31
0.0
  0
LINE
  5
1C0
  8
ZUWAKU
  6
CONTINUOUS
 62
     3
 10
-277.0
 20
189.9999999999999
 30
0.0
 11
277.0
 21
189.9999999999999
 31
0.0
  0
LINE
  5
1C1
  8
ZUWAKU
  6
CONTINUOUS
 62
     3
 10
97.00000000000001
 20
-190.0
 30
0.0
 11
97.00000000000001
 21
-130.0
 31
0.0
  0
LINE
  5
1C2
  8
ZUWAKU
  6
CONTINUOUS
 62
     3
 10
97.00000000000001
 20
-176.0
 30
0.0
 11
277.0
 21
-176.0
 31
0.0
  0
LINE
  5
1C3
  8
ZUWAKU
  6
CONTINUOUS
 62
     3
 10
146.0
 20
-162.0
 30
0.0
 11
277.0
 21
-162.0
 31
0.0
  0
LINE
  5
1C4
  8
ZUWAKU
  6
CONTINUOUS
 62
     3
 10
146.0
 20
-148.0
 30
0.0
 11
277.0
 21
-148.0
 31
0.0
  0
LINE
  5
1C5
  8
ZUWAKU
  6
CONTINUOUS
 62
     3
 10
146.0
 20
-138.0
 30
0.0
 11
277.0
 21
-138.0
 31
0.0
  0
LINE
  5
1C6
  8
ZUWAKU
  6
CONTINUOUS
 62
     3
 10
146.0
 20
-176.0
 30
0.0
 11
146.0
 21
-130.0
 31
0.0
  0
LINE
  5
1C7
  8
ZUWAKU
  6
CONTINUOUS
 62
     3
 10
255.0
 20
-176.0
 30
0.0
 11
255.0
 21
-130.0
 31
0.0
  0
LINE
  5
1C8
  8
ZUWAKU
  6
CONTINUOUS
 62
     3
 10
171.0
 20
-190.0
 30
0.0
 11
171.0
 21
-176.0
 31
0.0
  0
LINE
  5
1C9
  8
ZUWAKU
  6
CONTINUOUS
 62
     3
 10
97.00000000000001
 20
-130.0
 30
0.0
 11
277.0
 21
-130.0
 31
0.0
  0
LINE
  5
1CA
  8
ZUWAKU
  6
CONTINUOUS
 62
     3
 10
226.0
 20
-176.0
 30
0.0
 11
226.0
 21
-148.0
 31
0.0
  0
LINE
  5
1CB
  8
ZUWAKU
  6
CONTINUOUS
 62
     4
 10
105.0
 20
-172.0
 30
0.0
 11
105.0
 21
-130.0
 31
0.0
  0
LINE
  5
1CC
  8
ZUWAKU
  6
CONTINUOUS
 62
     4
 10
109.0
 20
-172.0
 30
0.0
 11
109.0
 21
-130.0
 31
0.0
  0
LINE
  5
1CD
  8
ZUWAKU
  6
CONTINUOUS
 62
     4
 10
121.5
 20
-176.0
 30
0.0
 11
121.5
 21
-130.0
 31
0.0
  0
LINE
  5
1CE
  8
ZUWAKU
  6
CONTINUOUS
 62
     4
 10
97.00000000000001
 20
-137.0
 30
0.0
 11
146.0
 21
-137.0
 31
0.0
  0
LINE
  5
1CF
  8
ZUWAKU
  6
CONTINUOUS
 62
     4
 10
97.00000000000001
 20
-144.0
 30
0.0
 11
146.0
 21
-144.0
 31
0.0
  0
LINE
  5
1D0
  8
ZUWAKU
  6
CONTINUOUS
 62
     4
 10
97.00000000000001
 20
-165.0
 30
0.0
 11
146.0
 21
-165.0
 31
0.0
  0
LINE
  5
1D1
  8
ZUWAKU
  6
CONTINUOUS
 62
     4
 10
97.00000000000001
 20
-172.0
 30
0.0
 11
146.0
 21
-172.0
 31
0.0
  0
LINE
  5
1D2
  8
ZUWAKU
  6
CONTINUOUS
 62
     4
 10
255.0
 20
-166.0
 30
0.0
 11
277.0
 21
-166.0
 31
0.0
  0
LINE
  5
1D3
  8
ZUWAKU
  6
CONTINUOUS
 62
     4
 10
153.0
 20
-139.5
 30
0.0
 11
153.0
 21
-130.0
 31
0.0
  0
LINE
  5
1D4
  8
ZUWAKU
  6
CONTINUOUS
 62
     4
 10
202.0
 20
-148.0
 30
0.0
 11
202.0
 21
-146.5
 31
0.0
  0
LINE
  5
1D5
  8
ZUWAKU
  6
CONTINUOUS
 62
     4
 10
226.0
 20
-148.0
 30
0.0
 11
226.0
 21
-146.5
 31
0.0
  0
LINE
  5
1D6
  8
ZUWAKU
  6
CONTINUOUS
 62
     4
 10
243.0
 20
-148.0
 30
0.0
 11
243.0
 21
-146.5
 31
0.0
  0
LINE
  5
1D7
  8
ZUWAKU
  6
CONTINUOUS
 62
     4
 10
202.0
 20
-139.5
 30
0.0
 11
202.0
 21
-130.0
 31
0.0
  0
LINE
  5
1D8
  8
ZUWAKU
  6
CONTINUOUS
 62
     4
 10
226.0
 20
-139.5
 30
0.0
 11
226.0
 21
-130.0
 31
0.0
  0
LINE
  5
1D9
  8
ZUWAKU
  6
CONTINUOUS
 62
     4
 10
243.0
 20
-139.5
 30
0.0
 11
243.0
 21
-130.0
 31
0.0
  0
LINE
  5
1DA
  8
ZUWAKU
  6
CONTINUOUS
 62
     4
 10
97.00000000000001
 20
-151.0
 30
0.0
 11
146.0
 21
-151.0
 31
0.0
  0
LINE
  5
1DB
  8
ZUWAKU
  6
CONTINUOUS
 62
     4
 10
97.00000000000001
 20
-158.0
 30
0.0
 11
146.0
 21
-158.0
 31
0.0
  0
LINE
  5
1DC
  8
ZUWAKU
  6
CONTINUOUS
 62
     4
 10
101.0
 20
-130.5
 30
0.0
 11
98.00000000000001
 21
-136.5
 31
0.0
  0
LINE
  5
1DD
  8
ZUWAKU
  6
CONTINUOUS
 62
     4
 10
101.0
 20
-130.5
 30
0.0
 11
104.0
 21
-136.5
 31
0.0
  0
LINE
  5
1DE
  8
ZUWAKU
  6
CONTINUOUS
 62
     4
 10
98.00000000000001
 20
-136.5
 30
0.0
 11
104.0
 21
-136.5
 31
0.0
  0
LINE
  5
1DF
  8
ZUWAKU
  6
CONTINUOUS
 62
     4
 10
101.0
 20
-158.5
 30
0.0
 11
98.00000000000001
 21
-164.5
 31
0.0
  0
LINE
  5
1E0
  8
ZUWAKU
  6
CONTINUOUS
 62
     4
 10
101.0
 20
-158.5
 30
0.0
 11
104.0
 21
-164.5
 31
0.0
  0
LINE
  5
1E1
  8
ZUWAKU
  6
CONTINUOUS
 62
     4
 10
98.00000000000001
 20
-164.5
 30
0.0
 11
104.0
 21
-164.5
 31
0.0
  0
LINE
  5
1E2
  8
ZUWAKU
  6
CONTINUOUS
 62
     4
 10
101.0
 20
-151.5
 30
0.0
 11
98.00000000000001
 21
-157.5
 31
0.0
  0
LINE
  5
1E3
  8
ZUWAKU
  6
CONTINUOUS
 62
     4
 10
101.0
 20
-151.5
 30
0.0
 11
104.0
 21
-157.5
 31
0.0
  0
LINE
  5
1E4
  8
ZUWAKU
  6
CONTINUOUS
 62
     4
 10
98.00000000000001
 20
-157.5
 30
0.0
 11
104.0
 21
-157.5
 31
0.0
  0
LINE
  5
1E5
  8
ZUWAKU
  6
CONTINUOUS
 62
     4
 10
101.0
 20
-144.5
 30
0.0
 11
98.00000000000001
 21
-150.5
 31
0.0
  0
LINE
  5
1E6
  8
ZUWAKU
  6
CONTINUOUS
 62
     4
 10
101.0
 20
-144.5
 30
0.0
 11
104.0
 21
-150.5
 31
0.0
  0
LINE
  5
1E7
  8
ZUWAKU
  6
CONTINUOUS
 62
     4
 10
98.00000000000001
 20
-150.5
 30
0.0
 11
104.0
 21
-150.5
 31
0.0
  0
LINE
  5
1E8
  8
ZUWAKU
  6
CONTINUOUS
 62
     4
 10
101.0
 20
-137.5
 30
0.0
 11
98.00000000000001
 21
-143.5
 31
0.0
  0
LINE
  5
1E9
  8
ZUWAKU
  6
CONTINUOUS
 62
     4
 10
101.0
 20
-137.5
 30
0.0
 11
104.0
 21
-143.5
 31
0.0
  0
LINE
  5
1EA
  8
ZUWAKU
  6
CONTINUOUS
 62
     4
 10
98.00000000000001
 20
-143.5
 30
0.0
 11
104.0
 21
-143.5
 31
0.0
  0
LINE
  5
1EB
  8
ZUWAKU
  6
CONTINUOUS
 62
     4
 10
172.6666666666666
 20
-176.0
 30
0.0
 11
172.6666666666666
 21
-162.0
 31
0.0
  0
LINE
  5
1EC
  8
ZUWAKU
  6
CONTINUOUS
 62
     4
 10
199.3333333333333
 20
-176.0
 30
0.0
 11
199.3333333333333
 21
-161.9509415757253
 31
0.0
  0
LINE
  5
1ED
  8
ZUWAKU
  6
CONTINUOUS
 62
     4
 10
212.6666666666666
 20
-167.5
 30
0.0
 11
212.6666666666666
 21
-161.9509415757253
 31
0.0
  0
LINE
  5
1EE
  8
ZUWAKU
  6
CONTINUOUS
 62
     4
 10
226.0
 20
-155.0
 30
0.0
 11
255.0
 21
-155.0
 31
0.0
  0
LINE
  5
1EF
  8
ZUWAKU
  6
CONTINUOUS
 62
     4
 10
146.0
 20
-166.0
 30
0.0
 11
226.0
 21
-166.0
 31
0.0
  0
TEXT
  5
1F1
  8
ZUWAKU
 62
     7
 10
148.3132301474747
 20
-130.821188728956
 30
0.0
 40
2.6656
  1
符号
 41
0.8
  7
FDASTYLE0
  0
TEXT
  5
1F2
  8
ZUWAKU
 62
     7
 10
162.4141311219058
 20
-135.8245525019963
 30
0.0
 40
4.0
  1
品       名
 41
0.765957446808511
  7
FDASTYLE1
 72
     5
 11
191.2141311219058
 21
-135.8245525019963
 31
0.0
  0
TEXT
  5
1F3
  8
ZUWAKU
 62
     7
 10
207.2331564413096
 20
-135.8245525019963
 30
0.0
 40
4.0
  1
材  料
 41
0.7272727272727279
  7
FDASTYLE1
 72
     5
 11
220.0331564413096
 21
-135.8245525019963
 31
0.0
  0
TEXT
  5
1F4
  8
ZUWAKU
 62
     7
 10
229.516061684855
 20
-135.8245525019963
 30
0.0
 40
4.0
  1
個 数
 41
0.7058823529411761
  7
FDASTYLE1
 72
     5
 11
239.116061684855
 21
-135.8245525019963
 31
0.0
  0
TEXT
  5
1F5
  8
ZUWAKU
 62
     7
 10
245.721810952888
 20
-133.5649080050572
 30
0.0
 40
2.5
  1
単重量
 41
0.6666666666666666
  7
FDASTYLE1
 72
     5
 11
251.721810952888
 21
-133.5649080050572
 31
0.0
  0
TEXT
  5
1F6
  8
ZUWAKU
 62
     7
 10
244.7089516236359
 20
-137.3631304897525
 30
0.0
 40
2.5
  1
(kg)
 41
0.8
  7
FDASTYLE1
 72
     5
 11
252.7089516236359
 21
-137.3631304897525
 31
0.0
  0
TEXT
  5
1F7
  8
ZUWAKU
 62
     7
 10
259.1421970654778
 20
-135.8245525019963
 30
0.0
 40
4.0
  1
記  事
 41
0.7272727272727279
  7
FDASTYLE1
 72
     5
 11
271.9421970654778
 21
-135.8245525019963
 31
0.0
  0
TEXT
  5
1F8
  8
ZUWAKU
 62
     7
 10
258.8450794551645
 20
-165.4873041997729
 30
0.0
 40
3.0
  1
コード番号
 41
0.6666666666666666
  7
FDASTYLE1
 72
     5
 11
270.8450794551645
 21
-165.4873041997729
 31
0.0
  0
TEXT
  5
1F9
  8
ZUWAKU
 62
     7
 10
101.9119920158317
 20
-175.1879010540338
 30
0.0
 40
2.5
  1
訂 正 来 歴
 41
0.717948717948718
  7
FDASTYLE1
 72
     5
 11
115.9119920158317
 21
-175.1879010540338
 31
0.0
  0
TEXT
  5
1FA
  8
ZUWAKU
 62
     7
 10
125.890334846765
 20
-175.2166697391651
 30
0.0
 40
2.5
  1
工 事 番 号
 41
0.717948717948718
  7
FDASTYLE1
 72
     5
 11
139.890334846765
 21
-175.2166697391651
 31
0.0
  0
TEXT
  5
1FB
  8
ZUWAKU
 62
     7
 10
99.96483784660289
 20
-165.9634530565915
 30
0.0
 40
2.0825
  1
記号
 41
0.8
  7
FDASTYLE0
  0
TEXT
  5
1FC
  8
ZUWAKU
 62
     7
 10
105.9042249067618
 20
-165.9634530565915
 30
0.0
 40
2.0825
  1
理由
 41
0.8
  7
FDASTYLE0
  0
TEXT
  5
1FD
  8
ZUWAKU
 62
     7
 10
111.6193667909843
 20
-169.8786046700178
 30
0.0
 40
3.0
  1
日 付
 41
0.7058823529411754
  7
FDASTYLE1
 72
     5
 11
118.8193667909843
 21
-169.8786046700178
 31
0.0
  0
TEXT
  5
1FE
  8
ZUWAKU
 62
     7
 10
153.4481689819652
 20
-165.7187911464244
 30
0.0
 40
3.0
  1
承   認
 41
0.7407407407407408
  7
FDASTYLE1
 72
     5
 11
165.4481689819652
 21
-165.7187911464244
 31
0.0
  0
TEXT
  5
1FF
  8
ZUWAKU
 62
     7
 10
179.863228033234
 20
-165.4873041997729
 30
0.0
 40
3.0
  1
検   図
 41
0.7407407407407408
  7
FDASTYLE1
 72
     5
 11
191.863228033234
 21
-165.4873041997729
 31
0.0
  0
TEXT
  5
200
  8
ZUWAKU
 62
     7
 10
201.4771920983751
 20
-165.4873041997729
 30
0.0
 40
3.0
  1
担  当
 41
0.7272727272727269
  7
FDASTYLE1
 72
     5
 11
211.0771920983751
 21
-165.4873041997729
 31
0.0
  0
TEXT
  5
201
  8
ZUWAKU
 62
     7
 10
214.6770574841112
 20
-165.4873041997729
 30
0.0
 40
3.0
  1
製  図
 41
0.7272727272727269
  7
FDASTYLE1
 72
     5
 11
224.2770574841112
 21
-165.4873041997729
 31
0.0
  0
TEXT
  5
202
  8
ZUWAKU
 62
     7
 10
226.9462372304199
 20
-153.2184960272417
 30
0.0
 40
3.0
  1
作図
 41
0.6666666666666683
  7
FDASTYLE1
 72
     5
 11
231.7462372304199
 21
-153.2184960272417
 31
0.0
  0
TEXT
  5
203
  8
ZUWAKU
 62
     7
 10
228.1036719636776
 20
-160.2371566401815
 30
0.0
 40
4.0
  1
第 三 角 法
 41
0.7179487179487182
  7
FDASTYLE1
 72
     5
 11
250.5036719636776
 21
-160.2371566401815
 31
0.0
  0
TEXT
  5
204
  8
ZUWAKU
 62
     7
 10
227.409211123723
 20
-166.413251986379
 30
0.0
 40
3.0
  1
尺度
 41
0.6666666666666683
  7
FDASTYLE1
 72
     5
 11
232.209211123723
 21
-166.413251986379
 31
0.0
  0
TEXT
  5
206
  8
ZUWAKU
 62
     3
 10
105.379154370034
 20
-185.9272077185017
 30
0.0
 40
7.0
  1
株式会社 野村製作所
 41
0.5763738641280831
  7
FDASTYLE2
 72
     5
 11
161.379154370034
 21
-185.9272077185017
 31
0.0
  0
TEXT
  5
208
  8
ZUWAKU
 62
     3
 10
183.6118217934165
 20
-187.1216685584563
 30
0.0
 40
8.0
  1
２－
 41
0.8244023083264632
  7
FDASTYLE3
 72
     5
 11
199.6118217934165
 21
-187.1216685584563
 31
0.0
  0
TEXT
  5
209
  8
ZUWAKU
 62
     3
 10
200.5237794178233
 20
-187.1216685584563
 30
0.0
 40
8.0
  1
C706117
 41
1.568451714093659
  7
FDASTYLE3
 72
     5
 11
256.5237794178233
 21
-187.1216685584563
 31
0.0
  0
TEXT
  5
20A
  8
ZUWAKU
 62
     6
 10
165.7570051766932
 20
-145.3589000228561
 30
0.0
 40
5.0
  1
外　形　図
 41
0.5833333333333334
  7
FDASTYLE1
 72
     5
 11
183.2570051766932
 21
-145.3589000228561
 31
0.0
  0
TEXT
  5
20B
  8
ZUWAKU
 62
     6
 10
155.3545934631717
 20
-157.829135039116
 30
0.0
 40
6.0
  1
GO3-6Ｓ型チャック
 41
0.6311475409836065
  7
FDASTYLE1
 72
     5
 11
201.5545934631717
 21
-157.829135039116
 31
0.0
  0
TEXT
  5
20C
  8
ZUWAKU
 62
     4
 10
239.3011788906399
 20
-172.297487439201
 30
0.0
 40
3.0
  1
1/1
 41
0.7000000000000013
  7
FDASTYLE1
 72
     5
 11
245.6011788906399
 21
-172.297487439201
 31
0.0
  0
LINE
  5
20D
  8
0
  6
CENTER
 62
     7
 10
-195.207859524785
 20
34.92047763135261
 30
0.0
 11
-100.9514138504958
 21
34.92047763135261
 31
0.0
  0
LINE
  5
20E
  8
0
  6
CENTER
 62
     7
 10
-146.5309720125779
 20
53.92047763135263
 30
0.0
 11
-128.9798932161912
 21
53.92047763135263
 31
0.0
  0
LINE
  5
20F
  8
0
  6
CENTER
 62
     7
 10
-124.3457964504337
 20
-3.079522368647389
 30
0.0
 11
-103.3666563908338
 21
-3.079522368647389
 31
0.0
  0
LINE
  5
210
  8
0
  6
CENTER
 62
     7
 10
-209.0815036588001
 20
-17.46452259752923
 30
0.0
 11
-102.2634162327252
 21
-17.46452259752923
 31
0.0
  0
LINE
  5
211
  8
0
  6
CENTER
 62
     7
 10
-124.1272063937767
 20
126.0654631630897
 30
0.0
 11
-124.1272063937767
 21
96.23479645759201
 31
0.0
  0
LINE
  5
212
  8
0
  6
CENTER
 62
     7
 10
81.2036994781883
 20
66.62847322109784
 30
0.0
 11
108.9658174246715
 21
50.60000872227741
 31
0.0
  0
LINE
  5
213
  8
0
  6
CENTER
 62
     7
 10
136.9895552004356
 20
34.42049796128416
 30
0.0
 11
217.8366114589542
 21
-12.25656657578797
 31
0.0
  0
LINE
  5
214
  8
0
  6
CENTER
 62
     7
 10
165.1493448982981
 20
50.67856039611449
 30
0.0
 11
211.3376022869078
 21
77.34536028662838
 31
0.0
  0
LINE
  5
215
  8
0
  6
CENTER
 62
     7
 10
75.35184581754797
 20
92.92048337066672
 30
0.0
 11
103.7738552368912
 21
92.92048337066672
 31
0.0
  0
LINE
  5
216
  8
0
  6
CENTER
 62
     7
 10
127.305011230893
 20
78.42048359418413
 30
0.0
 11
146.9234798844983
 21
78.42048359418411
 31
0.0
  0
LINE
  5
217
  8
0
  6
CENTER
 62
     7
 10
127.305011230893
 20
103.4204904785204
 30
0.0
 11
146.6120747118941
 21
103.4204904785204
 31
0.0
  0
LINE
  5
218
  8
0
  6
CENTER
 62
     7
 10
166.9895155108491
 20
102.5976757702521
 30
0.0
 11
166.9895155108491
 21
82.67173871150347
 31
0.0
  0
ARC
  5
219
  8
0
  6
CENTER
 62
     7
 10
136.9895164049187
 20
34.42047939205681
 30
0.0
 40
52.38499676033865
 50
14.64163234449351
 51
45.35835395723297
  0
ARC
  5
21A
  8
0
  6
CENTER
 62
     7
 10
136.9895164049187
 20
34.42047939205681
 30
0.0
 40
52.38499676033865
 50
134.6416476366288
 51
165.3583607116318
  0
ARC
  5
21B
  8
0
  6
CENTER
 62
     7
 10
136.9895164049187
 20
34.42047939205681
 30
0.0
 40
52.38499676033865
 50
254.6416341278312
 51
285.3583540330233
  0
LINE
  5
21C
  8
0
  6
CENTER
 62
     7
 10
133.7478477037468
 20
53.92048908611524
 30
0.0
 11
140.4045707262077
 21
53.92048908611524
 31
0.0
  0
LINE
  5
21D
  8
0
  6
CENTER
 62
     7
 10
155.9895164049187
 20
38.72238388745294
 30
0.0
 11
155.9895164049187
 21
30.08408036589869
 31
0.0
  0
LINE
  5
21E
  8
0
  6
CENTER
 62
     7
 10
157.1705773154646
 20
92.92048337066673
 30
0.0
 11
176.9722722753983
 21
92.92048337066667
 31
0.0
  0
LINE
  5
21F
  8
0
  6
CENTER
 62
     7
 10
121.5150267005715
 20
-48.77680327255123
 30
0.0
 11
97.49470844539617
 21
-7.172391640613256
 31
0.0
  0
LINE
  5
220
  8
0
  6
CENTER
 62
     7
 10
121.7228424119636
 20
21.86310445810356
 30
0.0
 11
118.3944809007331
 21
27.62799570151147
 31
0.0
  0
LINE
  5
221
  8
0
  6
CENTER
 62
     7
 10
155.4978545246021
 20
27.47783670878276
 30
0.0
 11
152.1694930133716
 21
21.71294546537486
 31
0.0
  0
LINE
  5
222
  8
0
  6
CENTER
 62
     7
 10
117.9895164049187
 20
38.72238388745294
 30
0.0
 11
117.9895164049187
 21
30.08408036589869
 31
0.0
  0
ARC
  5
223
  8
0
  6
CENTER
 62
     7
 10
136.9895873632844
 20
34.42047939205681
 30
0.0
 40
38.0
 50
262.1591861703578
 51
278.4709471344321
  0
ARC
  5
224
  8
0
  6
CENTER
 62
     7
 10
136.9894809257358
 20
34.42041265819694
 30
0.0
 40
37.99999999999999
 50
142.1591861703579
 51
158.4709471344321
  0
ARC
  5
225
  8
0
  6
CENTER
 62
     7
 10
136.9894809257358
 20
34.42041265819694
 30
0.0
 40
37.99999999999999
 50
22.15918617035787
 51
38.47094713443212
  0
LINE
  5
226
  8
0
  6
CENTER
 62
     7
 10
118.2302586037745
 20
1.650443543785272
 30
0.0
 11
122.2406520285629
 21
3.965845267143124
 31
0.0
  0
LINE
  5
227
  8
0
  6
CENTER
 62
     7
 10
121.0627801038019
 20
0.5059927860898057
 30
0.0
 11
118.7389968236992
 21
4.530903493006804
 31
0.0
  0
LINE
  5
228
  8
0
  6
CENTER
 62
     7
 10
99.65538135090834
 20
37.5846950839881
 30
0.0
 11
101.9791646310111
 21
33.55978437707108
 31
0.0
  0
LINE
  5
229
  8
0
  6
CENTER
 62
     7
 10
99.23024403043935
 20
34.55943412935103
 30
0.0
 11
103.2406374552276
 21
36.87483585270888
 31
0.0
  0
LINE
  5
22A
  8
0
  6
CENTER
 62
     7
 10
82.07589551765399
 20
-8.466623029879173
 30
0.0
 11
72.42236377715338
 21
8.253784417146676
 31
0.0
  0
LINE
  5
22B
  8
0
  6
CENTER
 62
     7
 10
103.726536574275
 20
4.033380412288935
 30
0.0
 11
93.91730224747234
 21
21.02347264965981
 31
0.0
  0
LINE
  5
22C
  8
0
  6
CENTER
 62
     7
 10
201.5875360286605
 20
8.307370525949651
 30
0.0
 11
191.9340042881599
 21
-8.413036921076198
 31
0.0
  0
LINE
  5
22D
  8
0
  6
CENTER
 62
     7
 10
179.9368949720395
 20
20.80737396811777
 30
0.0
 11
170.1276606452368
 21
3.817281730746899
 31
0.0
  0
LINE
  5
22E
  8
0
  6
CENTER
 62
     7
 10
76.23649485786424
 20
22.64791437114307
 30
0.0
 11
66.3356473778974
 21
39.79668524443601
 31
0.0
  0
LINE
  5
22F
  8
0
  6
CENTER
 62
     7
 10
62.94633130482131
 20
26.31276808674268
 30
0.0
 11
80.20269899190745
 21
36.27573661611697
 31
0.0
  0
LINE
  5
230
  8
0
  6
CENTER
 62
     7
 10
177.5613660294467
 20
-12.30677256936156
 30
0.0
 11
167.6605185494798
 21
-29.45554344265443
 31
0.0
  0
LINE
  5
231
  8
0
  6
CENTER
 62
     7
 10
181.0325913871051
 20
-25.64881868454658
 30
0.0
 11
163.776223700019
 21
-15.68585015517222
 31
0.0
  0
LINE
  5
232
  8
0
  6
CENTER
 62
     7
 10
-118.7556240943058
 20
104.4204776313526
 30
0.0
 11
-85.00046675335717
 21
104.4204776313526
 31
0.0
  0
LINE
  5
233
  8
0
  6
CENTER
 62
     7
 10
-118.7556240943058
 20
79.42047763135261
 30
0.0
 11
-85.1689491174191
 21
79.42047763135261
 31
0.0
  0
LINE
  5
234
  8
0
  6
CENTER
 62
     7
 10
136.9895164049187
 20
128.5659901208479
 30
0.0
 11
136.9895164049187
 21
-51.5866987835465
 31
0.0
  0
LINE
  5
235
  8
0
  6
CENTER
 62
     7
 10
48.95615759358063
 20
34.42047939205681
 30
0.0
 11
225.0228580501194
 21
34.42047939205681
 31
0.0
  0
LINE
  5
236
  8
0
  6
CENTER
 62
     7
 10
-28.7577521003283
 20
-26.63273591662033
 30
0.0
 11
8.277937233522813
 21
-5.250171093877327
 31
0.0
  0
LINE
  5
237
  8
0
  6
CENTER
 62
     7
 10
6.453506899513855
 20
-46.84287982256135
 30
0.0
 11
1.274752098846525
 21
-37.87301354885755
 31
0.0
  0
LINE
  5
238
  8
0
  6
CENTER
 62
     7
 10
-16.04704556869436
 20
-53.93521285826007
 30
0.0
 11
37.74408432571486
 21
-22.8788929648711
 31
0.0
  0
LINE
  5
239
  8
0
  6
CENTER
 62
     7
 10
58.18983380155223
 20
-11.07453530538102
 30
0.0
 11
136.9895289858859
 21
34.42048489497662
 31
0.0
  0
LINE
  5
23A
  8
0
  6
CENTER
 62
     7
 10
12.51545581749214
 20
-55.34251742498976
 30
0.0
 11
29.76545297294338
 21
-85.220389464905
 31
0.0
  0
LINE
  5
23B
  8
0
  6
DASHED2
 62
     7
 10
-107.6272015658006
 20
115.951334471282
 30
0.0
 11
-105.6272015658006
 21
113.951334471282
 31
0.0
  0
LINE
  5
23C
  8
0
  6
DASHED2
 62
     7
 10
-109.7673742704607
 20
115.951334471282
 30
0.0
 11
-107.6272015658006
 21
115.951334471282
 31
0.0
  0
LINE
  5
23D
  8
0
  6
DASHED2
 62
     7
 10
-105.6272015658006
 20
113.951334471282
 30
0.0
 11
-105.6272015658006
 21
111.7856544703068
 31
0.0
  0
LINE
  5
23E
  8
0
  6
DASHED2
 62
     7
 10
87.48950643604208
 20
95.32050389850576
 30
0.0
 11
87.48950643604208
 21
90.52046284282767
 31
0.0
  0
LINE
  5
23F
  8
0
  6
DASHED2
 62
     7
 10
93.98949861293268
 20
96.31306139456001
 30
0.0
 11
93.98949861293268
 21
89.52784812631614
 31
0.0
  0
LINE
  5
240
  8
0
  6
DASHED2
 62
     7
 10
96.98949852352571
 20
86.92048354948065
 30
0.0
 11
102.4958460156738
 21
86.92048354948065
 31
0.0
  0
LINE
  5
241
  8
0
  6
DASHED2
 62
     7
 10
96.98949852352571
 20
98.92048319185278
 30
0.0
 11
102.8181721759358
 21
98.92048319185278
 31
0.0
  0
LINE
  5
242
  8
0
  6
DASHED2
 62
     7
 10
69.53582693265136
 20
81.92047988379511
 30
0.0
 11
96.98949852352571
 21
81.92047988379511
 31
0.0
  0
LINE
  5
243
  8
0
  6
DASHED2
 62
     7
 10
96.98949852352571
 20
106.5748408738914
 30
0.0
 11
96.98949852352571
 21
81.92047988379511
 31
0.0
  0
LINE
  5
244
  8
0
  6
DASHED2
 62
     7
 10
94.61260650451887
 20
88.97047509605216
 30
0.0
 11
96.29885904825888
 21
88.97047509605216
 31
0.0
  0
LINE
  5
245
  8
0
  6
DASHED2
 62
     7
 10
94.61260650451887
 20
96.87049164528128
 30
0.0
 11
96.29885904825888
 21
96.87049164528128
 31
0.0
  0
LINE
  5
246
  8
0
  6
DASHED2
 62
     7
 10
89.78950560455731
 20
96.22046725059101
 30
0.0
 11
89.78950560455731
 21
89.62049949074242
 31
0.0
  0
LINE
  5
247
  8
0
  6
DASHED2
 62
     7
 10
94.75343749397412
 20
94.92048712575922
 30
0.0
 11
96.22557108657584
 21
94.92048712575922
 31
0.0
  0
LINE
  5
248
  8
0
  6
DASHED2
 62
     7
 10
94.75343749397412
 20
90.92047961557421
 30
0.0
 11
96.22557108657584
 21
90.92047961557421
 31
0.0
  0
LINE
  5
249
  8
0
  6
DASHED2
 62
     7
 10
89.78950997883119
 20
89.6204893029724
 30
0.0
 11
87.48950965196532
 21
90.52048922925911
 31
0.0
  0
LINE
  5
24A
  8
0
  6
DASHED2
 62
     7
 10
87.4895144212946
 20
95.32048938491312
 30
0.0
 11
89.78951474816036
 21
96.22048931119983
 31
0.0
  0
LINE
  5
24B
  8
0
  6
DASHED2
 62
     7
 10
90.78950176005783
 20
95.53358143732157
 30
0.0
 11
90.78950176005783
 21
90.24152455768365
 31
0.0
  0
LINE
  5
24C
  8
0
  6
DASHED2
 62
     7
 10
96.98949852352571
 20
95.42047948146376
 30
0.0
 11
102.445011361427
 21
95.42047948146376
 31
0.0
  0
LINE
  5
24D
  8
0
  6
DASHED2
 62
     7
 10
96.98949852352571
 20
90.42048725986967
 30
0.0
 11
102.4958460156738
 21
90.42048725986967
 31
0.0
  0
LINE
  5
24E
  8
0
  6
DASHED2
 62
     7
 10
96.98949852352571
 20
95.92048328125975
 30
0.0
 11
102.445011361427
 21
95.92048328125975
 31
0.0
  0
ARC
  5
24F
  8
0
  6
DASHED2
 62
     7
 10
93.98949861293268
 20
92.92048337066672
 30
0.0
 40
2.999999910593036
 50
0.0
 51
41.81031315512688
  0
ARC
  5
250
  8
0
  6
DASHED2
 62
     7
 10
96.98949852352571
 20
92.92048337066672
 30
0.0
 40
2.999999910593036
 50
138.1896986840186
 51
221.8102840131373
  0
ARC
  5
251
  8
0
  6
DASHED2
 62
     7
 10
93.98949861293268
 20
92.92048337066672
 30
0.0
 40
2.999999910593036
 50
318.1896868448731
 51
360.0
  0
ARC
  5
252
  8
0
  6
DASHED2
 62
     7
 10
89.78950560455731
 20
92.92048337066672
 30
0.0
 40
3.299999973177911
 50
72.3602944823007
 51
89.99998201391065
  0
ARC
  5
253
  8
0
  6
DASHED2
 62
     7
 10
89.78950560455731
 20
92.92048337066672
 30
0.0
 40
3.299999973177911
 50
270.0000179860894
 51
287.6397055176993
  0
ARC
  5
254
  8
0
  6
DASHED2
 62
     7
 10
92.19403510442994
 20
98.71644648528707
 30
0.0
 40
2.999999910593036
 50
242.1068914535913
 51
306.7619948916872
  0
ARC
  5
255
  8
0
  6
DASHED2
 62
     7
 10
92.19403510442994
 20
87.12449736786346
 30
0.0
 40
2.999999910593036
 50
53.23800510831277
 51
117.8898300556071
  0
ARC
  5
256
  8
0
  6
DASHED2
 62
     7
 10
94.92484709579931
 20
95.92048328125975
 30
0.0
 40
1.0
 50
200.7154669700721
 51
270.0000179860894
  0
ARC
  5
257
  8
0
  6
DASHED2
 62
     7
 10
94.92484709579931
 20
95.92048328125975
 30
0.0
 40
1.0
 50
108.1948751325834
 51
159.2845330299279
  0
ARC
  5
258
  8
0
  6
DASHED2
 62
     7
 10
94.92484709579931
 20
89.92048346007368
 30
0.0
 40
1.0
 50
89.99998201391065
 51
159.2845330299279
  0
ARC
  5
259
  8
0
  6
DASHED2
 62
     7
 10
95.98660701288686
 20
95.92048328125975
 30
0.0
 40
1.0
 50
0.0
 51
71.80513670656207
  0
ARC
  5
25A
  8
0
  6
DASHED2
 62
     7
 10
95.98660701288686
 20
89.92048346007368
 30
0.0
 40
1.0
 50
0.0
 51
89.99998201391065
  0
ARC
  5
25B
  8
0
  6
DASHED2
 62
     7
 10
95.98660701288686
 20
95.92048328125975
 30
0.0
 40
1.0
 50
270.0000179860894
 51
360.0
  0
ARC
  5
25C
  8
0
  6
DASHED2
 62
     7
 10
95.98660701288686
 20
89.92048346007368
 30
0.0
 40
1.0
 50
288.194863293438
 51
360.0
  0
ARC
  5
25D
  8
0
  6
DASHED2
 62
     7
 10
87.96738880705398
 20
92.92048337066672
 30
0.0
 40
1.200000071525572
 50
113.46797241713
 51
246.5320171102151
  0
ARC
  5
25E
  8
0
  6
DASHED2
 62
     7
 10
94.92484709579931
 20
89.92048346007368
 30
0.0
 40
1.0
 50
200.7154669700721
 51
251.8051248674166
  0
LINE
  5
25F
  8
0
  6
DASHED2
 62
     7
 10
66.36775704107498
 20
16.74105617594675
 30
0.0
 11
67.36775704107498
 21
15.00900536837786
 31
0.0
  0
LINE
  5
260
  8
0
  6
DASHED2
 62
     7
 10
86.36777161441019
 20
-17.89998521718789
 30
0.0
 11
85.36777161441019
 21
-16.16793440961901
 31
0.0
  0
LINE
  5
261
  8
0
  6
DASHED2
 62
     7
 10
86.36777161441019
 20
-17.89998521718789
 30
0.0
 11
88.9658478257635
 21
-16.39998521718789
 31
0.0
  0
LINE
  5
262
  8
0
  6
DASHED2
 62
     7
 10
106.6787587795327
 20
40.92098239656382
 30
0.0
 11
105.571229251308
 21
42.83927981033189
 31
0.0
  0
LINE
  5
263
  8
0
  6
DASHED2
 62
     7
 10
90.4658478257635
 20
-18.99806142854121
 30
0.0
 11
88.46584221547649
 21
-15.53395009610129
 31
0.0
  0
LINE
  5
264
  8
0
  6
DASHED2
 62
     7
 10
88.46584221547649
 20
-15.53395009610129
 30
0.0
 11
109.250451906303
 21
-3.533950096101293
 31
0.0
  0
LINE
  5
265
  8
0
  6
DASHED2
 62
     7
 10
79.87515330030169
 20
-25.11260176372169
 30
0.0
 11
136.2421225874825
 21
7.430883127635482
 31
0.0
  0
LINE
  5
266
  8
0
  6
DASHED2
 62
     7
 10
111.25045751659
 20
-6.998061428541206
 30
0.0
 11
109.250451906303
 21
-3.533950096101293
 31
0.0
  0
ARC
  5
267
  8
0
  6
DASHED2
 62
     7
 10
136.9895534089122
 20
34.42054172414942
 30
0.0
 40
31.0
 50
240.000007155384
 51
252.1042818621089
  0
LINE
  5
268
  8
0
  6
DASHED2
 62
     7
 10
128.5712381025974
 20
3.002095905364584
 30
0.0
 11
127.4637028523269
 21
4.920403230006642
 31
0.0
  0
LINE
  5
269
  8
0
  6
DASHED2
 62
     7
 10
56.87514157191018
 20
14.72458048014995
 30
0.0
 11
113.2420976176641
 21
47.2680577265658
 31
0.0
  0
ARC
  5
26A
  8
0
  6
DASHED2
 62
     7
 10
136.9895534089122
 20
34.42054172414942
 30
0.0
 40
31.0
 50
167.8957181378912
 51
179.9999928446161
  0
LINE
  5
26B
  8
0
  6
DASHED2
 62
     7
 10
105.0280143833684
 20
-30.22049040428848
 30
0.0
 11
108.0280143833684
 21
-35.41664282699512
 31
0.0
  0
LINE
  5
26C
  8
0
  6
DASHED2
 62
     7
 10
97.62610783160717
 20
-11.39998187480012
 30
0.0
 11
107.6261037188868
 21
-28.72048282704824
 31
0.0
  0
LINE
  5
26D
  8
0
  6
DASHED2
 62
     7
 10
96.76007584638303
 20
-11.89998567459611
 30
0.0
 11
106.7600717336627
 21
-29.22048662684423
 31
0.0
  0
LINE
  5
26E
  8
0
  6
DASHED2
 62
     7
 10
104.5950083016302
 20
-30.47048658214075
 30
0.0
 11
112.6396121747496
 21
-44.40414921714883
 31
0.0
  0
LINE
  5
26F
  8
0
  6
DASHED2
 62
     7
 10
104.5950083016302
 20
-30.47048658214075
 30
0.0
 11
114.1212807746758
 21
-24.97049060545416
 31
0.0
  0
LINE
  5
270
  8
0
  6
DASHED2
 62
     7
 10
108.0280143833684
 20
-35.41664282699512
 30
0.0
 11
116.6882746929377
 21
-30.41663920601306
 31
0.0
  0
LINE
  5
271
  8
0
  6
DASHED2
 62
     7
 10
114.1212807746758
 20
-24.97049060545416
 30
0.0
 11
127.1212758405273
 21
-47.48714255765351
 31
0.0
  0
LINE
  5
272
  8
0
  6
DASHED2
 62
     7
 10
113.6882746929377
 20
-25.22048678330643
 30
0.0
 11
116.6882746929377
 21
-30.41663920601306
 31
0.0
  0
LINE
  5
273
  8
0
  6
DASHED2
 62
     7
 10
101.0902092918875
 20
-9.399981964207086
 30
0.0
 11
111.0902051791671
 21
-26.72048291645521
 31
0.0
  0
LINE
  5
274
  8
0
  6
DASHED2
 62
     7
 10
101.9562214553638
 20
-8.899989608502551
 30
0.0
 11
111.9562173426434
 21
-26.22049056075068
 31
0.0
  0
LINE
  5
275
  8
0
  6
DASHED2
 62
     7
 10
96.76007584638303
 20
-11.89998567459611
 30
0.0
 11
101.9562214553638
 21
-8.899989608502551
 31
0.0
  0
CIRCLE
  5
276
  8
0
  6
DASHED2
 62
     7
 10
86.51725645949308
 20
-16.65902053108732
 30
0.0
 40
1.25
  0
CIRCLE
  5
277
  8
0
  6
DASHED2
 62
     7
 10
67.51724188615782
 20
16.24997005447844
 30
0.0
 40
1.25
  0
LINE
  5
278
  8
0
  6
DASHED2
 62
     7
 10
190.7151212671151
 20
69.3650146768837
 30
0.0
 11
206.7365912371272
 21
78.6150146768837
 31
0.0
  0
LINE
  5
279
  8
0
  6
DASHED2
 62
     7
 10
194.1151212671151
 20
63.4760419311495
 30
0.0
 11
210.1365912371273
 21
72.72604193114951
 31
0.0
  0
LINE
  5
27A
  8
0
  6
DASHED2
 62
     7
 10
196.5801847765762
 20
64.20642668887885
 30
0.0
 11
210.4365912371273
 21
72.20642668887885
 31
0.0
  0
LINE
  5
27B
  8
0
  6
DASHED2
 62
     7
 10
192.5801847765762
 20
71.13462991915435
 30
0.0
 11
196.5801847765762
 21
64.20642668887885
 31
0.0
  0
LINE
  5
27C
  8
0
  6
DASHED2
 62
     7
 10
190.7151212671151
 20
69.3650146768837
 30
0.0
 11
194.1151212671151
 21
63.4760419311495
 31
0.0
  0
LINE
  5
27D
  8
0
  6
DASHED2
 62
     7
 10
190.7151212671151
 20
69.3650146768837
 30
0.0
 11
190.5544949088003
 21
65.34629517518201
 31
0.0
  0
LINE
  5
27E
  8
0
  6
DASHED2
 62
     7
 10
194.1151212671151
 20
63.4760419311495
 30
0.0
 11
190.5544949088002
 21
65.34629517518235
 31
0.0
  0
LINE
  5
27F
  8
0
  6
DASHED2
 62
     7
 10
121.0086412746166
 20
2.09988395615548
 30
0.0
 11
120.0086412746166
 21
3.831934763724377
 31
0.0
  0
LINE
  5
280
  8
0
  6
DASHED2
 62
     7
 10
101.0086267012814
 20
36.74092534929012
 30
0.0
 11
102.0086267012814
 21
35.00887454172126
 31
0.0
  0
LINE
  5
281
  8
0
  6
DASHED2
 62
     7
 10
85.36762512323902
 20
-16.16806523627561
 30
0.0
 11
120.0086412746166
 21
3.831934763724377
 31
0.0
  0
CIRCLE
  5
282
  8
0
  6
DASHED2
 62
     7
 10
119.8590880140228
 20
2.590848642256049
 30
0.0
 40
1.249999999999999
  0
LINE
  5
283
  8
0
  6
DASHED2
 62
     7
 10
109.7503110254189
 20
-4.400116043844491
 30
0.0
 11
121.0086412746166
 21
2.09988395615548
 31
0.0
  0
LINE
  5
284
  8
0
  6
DASHED2
 62
     7
 10
67.36761054990379
 20
15.00887454172126
 30
0.0
 11
102.0086267012814
 21
35.00887454172126
 31
0.0
  0
LINE
  5
285
  8
0
  6
DASHED2
 62
     7
 10
66.36761054990379
 20
16.74092534929012
 30
0.0
 11
101.0086267012814
 21
36.74092534929012
 31
0.0
  0
CIRCLE
  5
286
  8
0
  6
DASHED2
 62
     7
 10
100.8590734406875
 20
35.49983922782178
 30
0.0
 40
1.249999999999999
  0
LINE
  5
287
  8
0
  6
DASHED2
 62
     7
 10
128.9894809257358
 20
122.4204901208926
 30
0.0
 11
128.9894809257358
 21
112.4204826107076
 31
0.0
  0
LINE
  5
288
  8
0
  6
DASHED2
 62
     7
 10
128.9894809257358
 20
112.4204826107076
 30
0.0
 11
131.4895203835286
 21
112.4204826107076
 31
0.0
  0
LINE
  5
289
  8
0
  6
DASHED2
 62
     7
 10
142.4894029391311
 20
112.4204826107076
 30
0.0
 11
144.9894809257358
 21
112.4204826107076
 31
0.0
  0
LINE
  5
28A
  8
0
  6
DASHED2
 62
     7
 10
144.9894809257358
 20
122.4204901208926
 30
0.0
 11
144.9894809257358
 21
112.4204826107076
 31
0.0
  0
ARC
  5
28B
  8
0
  6
DASHED2
 62
     7
 10
136.9894794009252
 20
34.42054172414942
 30
0.0
 40
31.0
 50
287.8957181378912
 51
299.999992844616
  0
LINE
  5
28C
  8
0
  6
DASHED2
 62
     7
 10
96.98949852352571
 20
89.92048346007368
 30
0.0
 11
102.445011361427
 21
89.92048346007368
 31
0.0
  0
LINE
  5
28D
  8
0
  6
DASHED2
 62
     7
 10
13.26066936820548
 20
-41.63323347136628
 30
0.0
 11
9.260670441089111
 21
-34.70503222372855
 31
0.0
  0
LINE
  5
28E
  8
0
  6
DASHED2
 62
     7
 10
1.9926848685704
 20
-18.1165747569417
 30
0.0
 11
0.2122589441738469
 21
-15.03278654142554
 31
0.0
  0
LINE
  5
28F
  8
0
  6
DASHED2
 62
     7
 10
1.992690290049644
 20
-18.11657161787508
 30
0.0
 11
8.920889515588563
 21
-14.11657400180371
 31
0.0
  0
LINE
  5
290
  8
0
  6
DASHED2
 62
     7
 10
1.992690290049644
 20
-18.11657161787508
 30
0.0
 11
-1.740277321301271
 21
-15.96134176258551
 31
0.0
  0
LINE
  5
291
  8
0
  6
DASHED2
 62
     7
 10
-16.1746147415196
 20
-16.42335093916444
 30
0.0
 11
-5.782310562166792
 21
-10.42335143140389
 31
0.0
  0
LINE
  5
292
  8
0
  6
DASHED2
 62
     7
 10
-13.62459228408746
 20
-20.84011947515154
 30
0.0
 11
-3.232288104734714
 21
-14.84011996739116
 31
0.0
  0
LINE
  5
293
  8
0
  6
DASHED2
 62
     7
 10
-6.007331370817802
 20
-4.260139920246729
 30
0.0
 11
0.9208732800863473
 21
-0.2601391718393984
 31
0.0
  0
LINE
  5
294
  8
0
  6
DASHED2
 62
     7
 10
-4.24819145207001
 20
-7.307059691827192
 30
0.0
 11
-6.007331370817802
 21
-4.260139920246729
 31
0.0
  0
LINE
  5
295
  8
0
  6
DASHED2
 62
     7
 10
-6.007352117904127
 20
-8.491283110283433
 30
0.0
 11
-6.007351915486645
 21
-4.260156352699994
 31
0.0
  0
LINE
  5
296
  8
0
  6
DASHED2
 62
     7
 10
7.961632397442237
 20
-35.45503220137681
 30
0.0
 11
20.51898693819697
 21
-28.20504004683801
 31
0.0
  0
LINE
  5
297
  8
0
  6
DASHED2
 62
     7
 10
8.261619943052075
 20
-35.97462586268517
 30
0.0
 11
20.81897448380682
 21
-28.72463370814631
 31
0.0
  0
LINE
  5
298
  8
0
  6
DASHED2
 62
     7
 10
11.66161373820871
 20
-41.86358775561911
 30
0.0
 11
24.21896827896345
 21
-34.61359560108014
 31
0.0
  0
LINE
  5
299
  8
0
  6
DASHED2
 62
     7
 10
11.96160128381857
 20
-42.38318141692736
 30
0.0
 11
24.51895582457328
 21
-35.1331892623885
 31
0.0
  0
LINE
  5
29A
  8
0
  6
DASHED2
 62
     7
 10
-16.1746147415196
 20
-16.42335093916444
 30
0.0
 11
-13.62459228408746
 21
-20.84011947515154
 31
0.0
  0
LINE
  5
29B
  8
0
  6
DASHED2
 62
     7
 10
-26.93055132477252
 20
-23.2684000095278
 30
0.0
 11
-15.89960565236063
 21
-16.89968067045191
 31
0.0
  0
LINE
  5
29C
  8
0
  6
DASHED2
 62
     7
 10
-24.69275731194366
 20
-26.59521118981121
 30
0.0
 11
-13.8996056725524
 21
-20.36378229724744
 31
0.0
  0
LINE
  5
29D
  8
0
  6
DASHED2
 62
     7
 10
13.03340509815179
 20
-60.23963183259931
 30
0.0
 11
23.03340098543141
 21
-77.56013278484744
 31
0.0
  0
LINE
  5
29E
  8
0
  6
DASHED2
 62
     7
 10
12.16737311292765
 20
-60.7396356323953
 30
0.0
 11
22.16736900020727
 21
-78.06013658464343
 31
0.0
  0
LINE
  5
29F
  8
0
  6
DASHED2
 62
     7
 10
12.16737311292765
 20
-60.7396356323953
 30
0.0
 11
17.36351872190842
 21
-57.73963956630174
 31
0.0
  0
LINE
  5
2A0
  8
0
  6
DASHED2
 62
     7
 10
16.49750655843214
 20
-58.23963192200628
 30
0.0
 11
26.49750244571176
 21
-75.56013287425441
 31
0.0
  0
LINE
  5
2A1
  8
0
  6
DASHED2
 62
     7
 10
17.36351872190842
 20
-57.73963956630174
 30
0.0
 11
27.36351460918804
 21
-75.06014051854987
 31
0.0
  0
LINE
  5
2A2
  8
0
  6
DASHED2
 62
     7
 10
20.435311649913
 20
-79.06014036208768
 30
0.0
 11
23.435311649913
 21
-84.25629278479431
 31
0.0
  0
LINE
  5
2A3
  8
0
  6
DASHED2
 62
     7
 10
20.00230556817486
 20
-79.31013653993995
 30
0.0
 11
24.52628342013269
 21
-87.14589603184722
 31
0.0
  0
LINE
  5
2A4
  8
0
  6
DASHED2
 62
     7
 10
20.00230556817486
 20
-79.31013653993995
 30
0.0
 11
29.52857804122046
 21
-73.81014056325336
 31
0.0
  0
LINE
  5
2A5
  8
0
  6
DASHED2
 62
     7
 10
23.435311649913
 20
-84.25629278479431
 30
0.0
 11
32.09557195948231
 21
-79.25628916381226
 31
0.0
  0
LINE
  5
2A6
  8
0
  6
DASHED2
 62
     7
 10
29.52857804122046
 20
-73.81014056325336
 30
0.0
 11
34.05255589317828
 21
-81.64590005516062
 31
0.0
  0
LINE
  5
2A7
  8
0
  6
DASHED2
 62
     7
 10
29.09557195948231
 20
-74.06013674110562
 30
0.0
 11
32.09557195948231
 21
-79.25628916381226
 31
0.0
  0
LINE
  5
2A8
  8
0
  6
DASHED2
 62
     7
 10
9.935337907529371
 20
-60.87358816105235
 30
0.0
 11
18.59559198365397
 21
-55.87358813895126
 31
0.0
  0
LINE
  5
2A9
  8
0
  6
DASHED2
 62
     7
 10
192.5802056592094
 20
71.13459451481008
 30
0.0
 11
206.4366128852016
 21
79.13459318902693
 31
0.0
  0
LINE
  5
2AA
  8
0
  6
CONTINUOUS
 62
     3
 10
-191.6272015658006
 20
-47.57952236864739
 30
0.0
 11
-107.6272015658006
 21
-47.57952236864739
 31
0.0
  0
LINE
  5
2AB
  8
0
  6
CONTINUOUS
 62
     3
 10
-191.6272015658006
 20
-35.07952236864739
 30
0.0
 11
-187.6272046175584
 21
-35.07952236864739
 31
0.0
  0
LINE
  5
2AC
  8
0
  6
CONTINUOUS
 62
     3
 10
-191.6272015658006
 20
104.9204776313526
 30
0.0
 11
-187.6272046175584
 21
104.9204776313526
 31
0.0
  0
LINE
  5
2AD
  8
0
  6
CONTINUOUS
 62
     3
 10
-187.4272046175584
 20
7.920477631352611
 30
0.0
 11
-156.6272015658006
 21
7.920477631352611
 31
0.0
  0
LINE
  5
2AE
  8
0
  6
CONTINUOUS
 62
     3
 10
-108.1272015658006
 20
64.8035800483448
 30
0.0
 11
-108.1272015658006
 21
1.920478108189769
 31
0.0
  0
LINE
  5
2AF
  8
0
  6
CONTINUOUS
 62
     3
 10
-108.1272015658006
 20
1.920478108189769
 30
0.0
 11
-105.6272015658006
 21
1.920478108189769
 31
0.0
  0
LINE
  5
2B0
  8
0
  6
CONTINUOUS
 62
     3
 10
-108.1272015658006
 20
64.8035800483448
 30
0.0
 11
-105.6272015658006
 21
64.8035800483448
 31
0.0
  0
LINE
  5
2B1
  8
0
  6
CONTINUOUS
 62
     3
 10
-154.6271979895221
 20
61.92047763135261
 30
0.0
 11
-133.1271937991861
 21
61.92047763135261
 31
0.0
  0
LINE
  5
2B2
  8
0
  6
CONTINUOUS
 62
     3
 10
-137.6272015658006
 20
66.42047763135261
 30
0.0
 11
-103.6272061255558
 21
66.42047763135261
 31
0.0
  0
LINE
  5
2B3
  8
0
  6
CONTINUOUS
 62
     3
 10
-177.6272015658006
 20
61.42047763135261
 30
0.0
 11
-177.6272015658006
 21
8.420477631352618
 31
0.0
  0
LINE
  5
2B4
  8
0
  6
CONTINUOUS
 62
     3
 10
-177.6271348325552
 20
61.42042658089795
 30
0.0
 11
-177.1271434897365
 21
61.92042555222216
 31
0.0
  0
LINE
  5
2B5
  8
0
  6
CONTINUOUS
 62
     3
 10
-177.6271963244095
 20
8.420476411910762
 30
0.0
 11
-177.1271957936147
 21
7.920475881116005
 31
0.0
  0
LINE
  5
2B6
  8
0
  6
CONTINUOUS
 62
     3
 10
-177.1271773733925
 20
18.92047763135262
 30
0.0
 11
-152.1272015658006
 21
18.92047763135262
 31
0.0
  0
LINE
  5
2B7
  8
0
  6
CONTINUOUS
 62
     3
 10
-177.1271957936147
 20
50.92047763135263
 30
0.0
 11
-152.1271927004282
 21
50.92047763135263
 31
0.0
  0
LINE
  5
2B8
  8
0
  6
CONTINUOUS
 62
     3
 10
-151.6272015658006
 20
56.42047763135263
 30
0.0
 11
-151.6272015658006
 21
13.42047763135262
 31
0.0
  0
LINE
  5
2B9
  8
0
  6
CONTINUOUS
 62
     3
 10
-144.6272015658006
 20
58.17047763135263
 30
0.0
 11
-144.6272015658006
 21
11.67047763135262
 31
0.0
  0
LINE
  5
2BA
  8
0
  6
CONTINUOUS
 62
     3
 10
-143.1272015658006
 20
58.17047763135263
 30
0.0
 11
-143.1272015658006
 21
57.22047305371591
 31
0.0
  0
LINE
  5
2BB
  8
0
  6
CONTINUOUS
 62
     3
 10
-151.6272015658006
 20
56.42047763135263
 30
0.0
 11
-144.6272015658006
 21
56.42047763135263
 31
0.0
  0
LINE
  5
2BC
  8
0
  6
CONTINUOUS
 62
     3
 10
-151.6272015658006
 20
13.42047763135262
 30
0.0
 11
-144.6272015658006
 21
13.42047763135262
 31
0.0
  0
LINE
  5
2BD
  8
0
  6
CONTINUOUS
 62
     3
 10
-144.6272015658006
 20
58.17047763135263
 30
0.0
 11
-143.1272015658006
 21
58.17047763135263
 31
0.0
  0
LINE
  5
2BE
  8
0
  6
CONTINUOUS
 62
     3
 10
-144.6272015658006
 20
11.67047763135262
 30
0.0
 11
-143.1272015658006
 21
11.67047763135262
 31
0.0
  0
LINE
  5
2BF
  8
0
  6
CONTINUOUS
 62
     3
 10
-152.1272015658006
 20
50.92047763135263
 30
0.0
 11
-152.1272015658006
 21
44.92047763135261
 31
0.0
  0
LINE
  5
2C0
  8
0
  6
CONTINUOUS
 62
     3
 10
-177.1272015658006
 20
50.92047763135263
 30
0.0
 11
-177.1272015658006
 21
44.92047763135261
 31
0.0
  0
LINE
  5
2C1
  8
0
  6
CONTINUOUS
 62
     3
 10
-177.1272015658006
 20
24.92047763135261
 30
0.0
 11
-177.1272015658006
 21
18.92047763135262
 31
0.0
  0
LINE
  5
2C2
  8
0
  6
CONTINUOUS
 62
     3
 10
-152.1272015658006
 20
24.92047763135261
 30
0.0
 11
-152.1272015658006
 21
18.92047763135262
 31
0.0
  0
LINE
  5
2C3
  8
0
  6
CONTINUOUS
 62
     3
 10
-152.1271927004282
 20
50.92045573147736
 30
0.0
 11
-151.627193139012
 21
51.42045723165067
 31
0.0
  0
LINE
  5
2C4
  8
0
  6
CONTINUOUS
 62
     3
 10
-177.1271957936147
 20
50.92047518632391
 30
0.0
 11
-177.6271963244095
 21
51.42047571711866
 31
0.0
  0
LINE
  5
2C5
  8
0
  6
CONTINUOUS
 62
     3
 10
-177.1271773733925
 20
18.92046619715612
 30
0.0
 11
-177.6271790843003
 21
18.42046684647441
 31
0.0
  0
LINE
  5
2C6
  8
0
  6
CONTINUOUS
 62
     3
 10
-152.1271928442471
 20
18.92047611018862
 30
0.0
 11
-151.6271937464467
 21
18.42047414639948
 31
0.0
  0
LINE
  5
2C7
  8
0
  6
CONTINUOUS
 62
     3
 10
-143.6272015658006
 20
11.92047763135262
 30
0.0
 11
-132.6272015658006
 21
11.92047763135262
 31
0.0
  0
LINE
  5
2C8
  8
0
  6
CONTINUOUS
 62
     3
 10
-143.6272015658006
 20
57.92047763135263
 30
0.0
 11
-132.6272015658006
 21
57.92047763135263
 31
0.0
  0
LINE
  5
2C9
  8
0
  6
CONTINUOUS
 62
     3
 10
-156.6272015658006
 20
7.920477631352611
 30
0.0
 11
-108.1272015658006
 21
7.920477631352611
 31
0.0
  0
LINE
  5
2CA
  8
0
  6
CONTINUOUS
 62
     3
 10
-143.6272015658006
 20
57.92047763135263
 30
0.0
 11
-143.6272015658006
 21
11.92047763135262
 31
0.0
  0
LINE
  5
2CB
  8
0
  6
CONTINUOUS
 62
     3
 10
-143.6272015658006
 20
18.92047763135262
 30
0.0
 11
-132.6272015658006
 21
18.92047763135262
 31
0.0
  0
LINE
  5
2CC
  8
0
  6
CONTINUOUS
 62
     3
 10
-143.1272015658006
 20
12.62047839429207
 30
0.0
 11
-143.1272015658006
 21
11.67047763135262
 31
0.0
  0
LINE
  5
2CD
  8
0
  6
CONTINUOUS
 62
     3
 10
-143.6272015658006
 20
50.92047763135263
 30
0.0
 11
-132.6272015658006
 21
50.92047763135263
 31
0.0
  0
LINE
  5
2CE
  8
0
  6
CONTINUOUS
 62
     3
 10
-187.6272046175584
 20
61.92047763135261
 30
0.0
 11
-154.6271979895221
 21
61.92047763135261
 31
0.0
  0
LINE
  5
2CF
  8
0
  6
CONTINUOUS
 62
     3
 10
-143.6272015658006
 20
51.92047763135263
 30
0.0
 11
-132.6272015658006
 21
51.92047763135263
 31
0.0
  0
LINE
  5
2D0
  8
0
  6
CONTINUOUS
 62
     3
 10
-143.6272015658006
 20
55.92047763135263
 30
0.0
 11
-132.6272015658006
 21
55.92047763135263
 31
0.0
  0
LINE
  5
2D1
  8
0
  6
CONTINUOUS
 62
     3
 10
-139.6272015658006
 20
55.92047763135263
 30
0.0
 11
-139.6272015658006
 21
51.92047763135263
 31
0.0
  0
LINE
  5
2D2
  8
0
  6
CONTINUOUS
 62
     3
 10
-135.6272015658006
 20
55.92047763135263
 30
0.0
 11
-135.6272015658006
 21
51.92047763135263
 31
0.0
  0
LINE
  5
2D3
  8
0
  6
CONTINUOUS
 62
     3
 10
-137.6272061255558
 20
123.4204852607472
 30
0.0
 11
-137.6272061255558
 21
101.4057793499065
 31
0.0
  0
LINE
  5
2D4
  8
0
  6
CONTINUOUS
 62
     3
 10
-137.6272061255558
 20
101.4057793499065
 30
0.0
 11
-137.6272061255558
 21
61.92047763135261
 31
0.0
  0
LINE
  5
2D5
  8
0
  6
CONTINUOUS
 62
     3
 10
-115.6272061255558
 20
108.4204776313526
 30
0.0
 11
-115.6272061255558
 21
100.4204776313526
 31
0.0
  0
LINE
  5
2D6
  8
0
  6
CONTINUOUS
 62
     3
 10
-115.6272061255558
 20
83.42047763135261
 30
0.0
 11
-115.6272061255558
 21
75.42047763135261
 31
0.0
  0
LINE
  5
2D7
  8
0
  6
CONTINUOUS
 62
     3
 10
-95.62720994025305
 20
110.9204776313526
 30
0.0
 11
-95.62720994025305
 21
97.92047763135261
 31
0.0
  0
LINE
  5
2D8
  8
0
  6
CONTINUOUS
 62
     3
 10
-117.1272061255558
 20
112.4204776313526
 30
0.0
 11
-102.6272061255558
 21
112.4204776313526
 31
0.0
  0
LINE
  5
2D9
  8
0
  6
CONTINUOUS
 62
     3
 10
-117.1272061255558
 20
112.4204776313526
 30
0.0
 11
-117.1272061255558
 21
71.42047763135261
 31
0.0
  0
LINE
  5
2DA
  8
0
  6
CONTINUOUS
 62
     3
 10
-117.1272061255558
 20
75.42047763135261
 30
0.0
 11
-95.62720994025305
 21
75.42047763135261
 31
0.0
  0
LINE
  5
2DB
  8
0
  6
CONTINUOUS
 62
     3
 10
-117.1272061255558
 20
83.42047763135261
 30
0.0
 11
-95.62720994025305
 21
83.42047763135261
 31
0.0
  0
LINE
  5
2DC
  8
0
  6
CONTINUOUS
 62
     3
 10
-117.1272061255558
 20
108.4204776313526
 30
0.0
 11
-95.62720994025305
 21
108.4204776313526
 31
0.0
  0
LINE
  5
2DD
  8
0
  6
CONTINUOUS
 62
     3
 10
-117.1272061255558
 20
100.4204776313526
 30
0.0
 11
-95.62720994025305
 21
100.4204776313526
 31
0.0
  0
LINE
  5
2DE
  8
0
  6
CONTINUOUS
 62
     3
 10
-117.1272061255558
 20
71.42047763135261
 30
0.0
 11
-102.6272061255558
 21
71.42047763135261
 31
0.0
  0
LINE
  5
2DF
  8
0
  6
CONTINUOUS
 62
     3
 10
-102.6272061255558
 20
75.42047763135261
 30
0.0
 11
-102.6272061255558
 21
71.42047763135261
 31
0.0
  0
LINE
  5
2E0
  8
0
  6
CONTINUOUS
 62
     3
 10
-102.6272061255558
 20
100.4204776313526
 30
0.0
 11
-102.6272061255558
 21
83.42047763135261
 31
0.0
  0
LINE
  5
2E1
  8
0
  6
CONTINUOUS
 62
     3
 10
-95.62720994025305
 20
85.92047763135261
 30
0.0
 11
-95.62720994025305
 21
72.92047763135261
 31
0.0
  0
LINE
  5
2E2
  8
0
  6
CONTINUOUS
 62
     3
 10
-102.6272061255558
 20
112.4204776313526
 30
0.0
 11
-102.6272061255558
 21
108.4204776313526
 31
0.0
  0
LINE
  5
2E3
  8
0
  6
CONTINUOUS
 62
     3
 10
-126.1272063937767
 20
115.6567904975635
 30
0.0
 11
-126.1272063937767
 21
114.1846530463917
 31
0.0
  0
LINE
  5
2E4
  8
0
  6
CONTINUOUS
 62
     3
 10
-122.1272063937767
 20
115.6567904975635
 30
0.0
 11
-122.1272063937767
 21
114.1846530463917
 31
0.0
  0
LINE
  5
2E5
  8
0
  6
CONTINUOUS
 62
     3
 10
-120.7346282687767
 20
116.4207065131885
 30
0.0
 11
-127.5198455539329
 21
116.4207065131885
 31
0.0
  0
LINE
  5
2E6
  8
0
  6
CONTINUOUS
 62
     3
 10
-121.5141692844017
 20
119.6207110908252
 30
0.0
 11
-126.8061614719017
 21
119.6207110908252
 31
0.0
  0
LINE
  5
2E7
  8
0
  6
CONTINUOUS
 62
     3
 10
-121.1272063937767
 20
113.4206454780323
 30
0.0
 11
-127.1272063937767
 21
113.4206454780323
 31
0.0
  0
LINE
  5
2E8
  8
0
  6
CONTINUOUS
 62
     3
 10
-128.077218600808
 20
115.7976291206104
 30
0.0
 11
-128.077218600808
 21
114.1113803413135
 31
0.0
  0
ARC
  5
2E9
  8
0
  6
CONTINUOUS
 62
     3
 10
-127.1272063937767
 20
114.4236056831104
 30
0.0
 40
1.0
 50
198.1988974307593
 51
359.9999710095899
  0
ARC
  5
2EA
  8
0
  6
CONTINUOUS
 62
     3
 10
-127.1272063937767
 20
115.4853732612354
 30
0.0
 40
1.0
 50
110.7154403325608
 51
161.8050913997161
  0
ARC
  5
2EB
  8
0
  6
CONTINUOUS
 62
     3
 10
-127.1272063937767
 20
115.4853732612354
 30
0.0
 40
1.0
 50
359.9999710095899
 51
429.2845236952606
  0
ARC
  5
2EC
  8
0
  6
CONTINUOUS
 62
     3
 10
-121.1272063937767
 20
115.4853732612354
 30
0.0
 40
1.0
 50
110.7154403325608
 51
179.9999776881997
  0
ARC
  5
2ED
  8
0
  6
CONTINUOUS
 62
     3
 10
-129.9232269015892
 20
118.2162005927784
 30
0.0
 40
3.0
 50
323.2379957736454
 51
387.8898190133925
  0
ARC
  5
2EE
  8
0
  6
CONTINUOUS
 62
     3
 10
-118.3312469211204
 20
118.2161700752002
 30
0.0
 40
3.0
 50
152.1068511557016
 51
216.7619682541759
  0
ARC
  5
2EF
  8
0
  6
CONTINUOUS
 62
     3
 10
-124.1272063937767
 20
116.4207065131885
 30
0.0
 40
3.0
 50
228.1896706800166
 51
269.9999701747652
  0
ARC
  5
2F0
  8
0
  6
CONTINUOUS
 62
     3
 10
-124.1272063937767
 20
113.4207065131885
 30
0.0
 40
3.0
 50
48.18968934935128
 51
131.81027467847
  0
ARC
  5
2F1
  8
0
  6
CONTINUOUS
 62
     3
 10
-124.1272063937767
 20
116.4207065131885
 30
0.0
 40
3.0
 50
269.9999906653327
 51
311.8103038204595
  0
ARC
  5
2F2
  8
0
  6
CONTINUOUS
 62
     3
 10
-121.1272063937767
 20
114.4236056831104
 30
0.0
 40
1.0
 50
179.9999776881997
 51
341.8082382956906
  0
ARC
  5
2F3
  8
0
  6
CONTINUOUS
 62
     3
 10
-121.1272063937767
 20
115.4853732612354
 30
0.0
 40
1.0
 50
18.1948640903688
 51
69.28452369526056
  0
LINE
  5
2F4
  8
0
  6
CONTINUOUS
 62
     3
 10
-120.1771941867454
 20
115.7976291206104
 30
0.0
 11
-120.1771941867454
 21
114.1114108588917
 31
0.0
  0
LINE
  5
2F5
  8
0
  6
CONTINUOUS
 62
     3
 10
-121.7272430148704
 20
122.920698883794
 30
0.0
 11
-126.5272308078392
 21
122.920698883794
 31
0.0
  0
ARC
  5
2F6
  8
0
  6
CONTINUOUS
 62
     3
 10
-124.1272063937767
 20
122.4428241279346
 30
0.0
 40
1.200000047683716
 50
23.46796137491541
 51
156.5320077755478
  0
LINE
  5
2F7
  8
0
  6
CONTINUOUS
 62
     3
 10
-121.7271235195321
 20
122.9207846035787
 30
0.0
 11
-120.8271234192106
 21
120.6207843553801
 31
0.0
  0
LINE
  5
2F8
  8
0
  6
CONTINUOUS
 62
     3
 10
-127.4271573419946
 20
120.6207144725894
 30
0.0
 11
-126.5271575360984
 21
122.9207148680006
 31
0.0
  0
LINE
  5
2F9
  8
0
  6
CONTINUOUS
 62
     3
 10
-120.8272186008079
 20
120.6207110908252
 30
0.0
 11
-127.4271941867454
 21
120.6207110908252
 31
0.0
  0
LINE
  5
2FA
  8
0
  6
CONTINUOUS
 62
     3
 10
-127.1272063937767
 20
106.3074557807666
 30
0.0
 11
-121.1272063937767
 21
106.3074557807666
 31
0.0
  0
LINE
  5
2FB
  8
0
  6
CONTINUOUS
 62
     3
 10
-126.6771941867454
 20
103.3074634101612
 30
0.0
 11
-121.5771575656517
 21
103.3074634101612
 31
0.0
  0
LINE
  5
2FC
  8
0
  6
CONTINUOUS
 62
     3
 10
-127.1271453586204
 20
106.3074557807666
 30
0.0
 11
-127.1271453586204
 21
113.4207065131885
 31
0.0
  0
LINE
  5
2FD
  8
0
  6
CONTINUOUS
 62
     3
 10
-121.1272063937767
 20
106.3074557807666
 30
0.0
 11
-121.1272063937767
 21
113.4207065131885
 31
0.0
  0
LINE
  5
2FE
  8
0
  6
CONTINUOUS
 62
     3
 10
-126.6771941867454
 20
103.3074634101612
 30
0.0
 11
-126.6771941867454
 21
113.4207065131885
 31
0.0
  0
LINE
  5
2FF
  8
0
  6
CONTINUOUS
 62
     3
 10
-121.5771575656517
 20
103.3074634101612
 30
0.0
 11
-121.5771575656517
 21
113.4207065131885
 31
0.0
  0
LINE
  5
300
  8
0
  6
CONTINUOUS
 62
     3
 10
-117.6272061255558
 20
113.4207370307667
 30
0.0
 11
-132.1272063937767
 21
113.4207370307667
 31
0.0
  0
ARC
  5
301
  8
0
  6
CONTINUOUS
 62
     3
 10
-124.1272063937767
 20
120.6207110908252
 30
0.0
 40
3.299999952316284
 50
179.9999776881997
 51
197.6396788801879
  0
ARC
  5
302
  8
0
  6
CONTINUOUS
 62
     3
 10
-124.1272063937767
 20
120.6207110908252
 30
0.0
 40
3.299999952316284
 50
342.3602834400861
 51
359.9999710095899
  0
LINE
  5
303
  8
0
  6
CONTINUOUS
 62
     3
 10
-132.1272063937767
 20
113.4207370307667
 30
0.0
 11
-132.1272063937767
 21
123.4204852607471
 31
0.0
  0
LINE
  5
304
  8
0
  6
CONTINUOUS
 62
     3
 10
-137.6272061255558
 20
123.4204852607472
 30
0.0
 11
-125.1054135148448
 21
123.4204852607472
 31
0.0
  0
LINE
  5
305
  8
0
  6
CONTINUOUS
 62
     3
 10
-123.1697971281438
 20
123.4204852607472
 30
0.0
 11
-103.6272061255558
 21
123.4204852607472
 31
0.0
  0
LINE
  5
306
  8
0
  6
CONTINUOUS
 62
     3
 10
-191.6272015658006
 20
117.4204776313526
 30
0.0
 11
-137.6272061255558
 21
117.4204776313526
 31
0.0
  0
LINE
  5
307
  8
0
  6
CONTINUOUS
 62
     3
 10
-105.6272015658006
 20
66.42047763135261
 30
0.0
 11
-105.6272015658006
 21
-45.57952236864739
 31
0.0
  0
LINE
  5
308
  8
0
  6
CONTINUOUS
 62
     3
 10
-191.6272015658006
 20
117.4204776313526
 30
0.0
 11
-191.6272015658006
 21
-12.46452259752923
 31
0.0
  0
LINE
  5
309
  8
0
  6
CONTINUOUS
 62
     3
 10
-191.6272015658006
 20
-22.46452259752923
 30
0.0
 11
-191.6272015658006
 21
-47.57952236864739
 31
0.0
  0
LINE
  5
30A
  8
0
  6
CONTINUOUS
 62
     3
 10
-187.6272046175584
 20
104.9204776313526
 30
0.0
 11
-187.6272046175584
 21
-12.46452259752923
 31
0.0
  0
LINE
  5
30B
  8
0
  6
CONTINUOUS
 62
     3
 10
-187.6272046175584
 20
-22.46452259752923
 30
0.0
 11
-187.6272046175584
 21
-35.07952236864739
 31
0.0
  0
LINE
  5
30C
  8
0
  6
CONTINUOUS
 62
     3
 10
-133.1271937991861
 20
61.92047763135261
 30
0.0
 11
-132.6272015658006
 21
61.42048539796716
 31
0.0
  0
LINE
  5
30D
  8
0
  6
CONTINUOUS
 62
     3
 10
-132.6272002908191
 20
8.420471017114245
 30
0.0
 11
-133.1272008216138
 21
7.920470486319488
 31
0.0
  0
LINE
  5
30E
  8
0
  6
CONTINUOUS
 62
     3
 10
-132.6272015658006
 20
61.42048539796716
 30
0.0
 11
-132.6272015658006
 21
8.420469742132731
 31
0.0
  0
LINE
  5
30F
  8
0
  6
CONTINUOUS
 62
     3
 10
-87.62720994025305
 20
110.9204776313526
 30
0.0
 11
-87.62720994025305
 21
97.92047763135261
 31
0.0
  0
LINE
  5
310
  8
0
  6
CONTINUOUS
 62
     3
 10
-87.62720994025305
 20
85.92047763135261
 30
0.0
 11
-87.62720994025305
 21
72.92047763135261
 31
0.0
  0
LINE
  5
311
  8
0
  6
CONTINUOUS
 62
     3
 10
150.9894800273112
 20
122.4204702484628
 30
0.0
 11
159.9895092896981
 21
120.0089199332211
 31
0.0
  0
LINE
  5
312
  8
0
  6
CONTINUOUS
 62
     3
 10
113.9894985014564
 20
120.0089323162756
 30
0.0
 11
122.9894835472698
 21
122.4204707837235
 31
0.0
  0
LINE
  5
313
  8
0
  6
CONTINUOUS
 62
     3
 10
222.6112931573185
 20
11.54484140966933
 30
0.0
 11
217.1039296362301
 21
14.72451927816438
 31
0.0
  0
LINE
  5
314
  8
0
  6
CONTINUOUS
 62
     3
 10
113.9895018315834
 20
120.0089225047747
 30
0.0
 11
113.9895018315834
 21
113.6495782118759
 31
0.0
  0
LINE
  5
315
  8
0
  6
CONTINUOUS
 62
     3
 10
74.36775504641602
 20
-28.29233675225747
 30
0.0
 11
79.87510865663055
 21
-25.11266460580815
 31
0.0
  0
LINE
  5
316
  8
0
  6
CONTINUOUS
 62
     3
 10
222.6112836815103
 20
11.54484515364872
 30
0.0
 11
220.1997431777234
 21
2.544854580763627
 31
0.0
  0
LINE
  5
317
  8
0
  6
CONTINUOUS
 62
     3
 10
199.6112801172009
 20
-28.29232614737148
 30
0.0
 11
194.1039364178601
 21
-25.11265972296788
 31
0.0
  0
LINE
  5
318
  8
0
  6
CONTINUOUS
 62
     3
 10
220.6016823423847
 20
4.044837073431552
 30
0.0
 11
163.8853387059094
 21
36.79003392712023
 31
0.0
  0
LINE
  5
319
  8
0
  6
CONTINUOUS
 62
     3
 10
131.4895203835287
 20
122.4204901208926
 30
0.0
 11
131.4895203835286
 21
111.8845984944226
 31
0.0
  0
LINE
  5
31A
  8
0
  6
CONTINUOUS
 62
     3
 10
142.4895124263089
 20
122.4204901208926
 30
0.0
 11
142.4895124263088
 21
111.8845984944227
 31
0.0
  0
LINE
  5
31B
  8
0
  6
CONTINUOUS
 62
     3
 10
131.4895203835286
 20
70.42048001790556
 30
0.0
 11
142.4895124263088
 21
70.4204800179055
 31
0.0
  0
LINE
  5
31C
  8
0
  6
CONTINUOUS
 62
     3
 10
159.9895195341624
 20
120.0089225047747
 30
0.0
 11
159.9895195341624
 21
113.6495782118759
 31
0.0
  0
LINE
  5
31D
  8
0
  6
CONTINUOUS
 62
     3
 10
121.4895130521575
 20
122.0185736289644
 30
0.0
 11
121.4895130521575
 21
56.52817770488294
 31
0.0
  0
LINE
  5
31E
  8
0
  6
CONTINUOUS
 62
     3
 10
206.1997482594296
 20
-21.70384207170136
 30
0.0
 11
199.6112776821627
 21
-28.29231320433479
 31
0.0
  0
LINE
  5
31F
  8
0
  6
CONTINUOUS
 62
     3
 10
68.87736026011518
 20
-22.80192767507802
 30
0.0
 11
125.5936811199189
 21
9.943256028493003
 31
0.0
  0
LINE
  5
320
  8
0
  6
CONTINUOUS
 62
     3
 10
131.4895203835286
 20
111.4204826107076
 30
0.0
 11
142.4895124263088
 21
111.4204826107076
 31
0.0
  0
LINE
  5
321
  8
0
  6
CONTINUOUS
 62
     3
 10
205.1016492570023
 20
-22.8019386030491
 30
0.0
 11
148.3853283170181
 21
9.9432451468141
 31
0.0
  0
LINE
  5
322
  8
0
  6
CONTINUOUS
 62
     3
 10
152.4895197576798
 20
122.0185736289644
 30
0.0
 11
152.4895197576798
 21
56.52817770488299
 31
0.0
  0
LINE
  5
323
  8
0
  6
CONTINUOUS
 62
     3
 10
142.4895124263088
 20
74.95637557828181
 30
0.0
 11
142.4895124263088
 21
65.4204901208926
 31
0.0
  0
LINE
  5
324
  8
0
  6
CONTINUOUS
 62
     3
 10
131.4895203835286
 20
74.95637557828192
 30
0.0
 11
131.4895203835286
 21
65.4204901208926
 31
0.0
  0
LINE
  5
325
  8
0
  6
CONTINUOUS
 62
     3
 10
74.36775437183243
 20
-28.29234173775014
 30
0.0
 11
67.77930402505191
 21
-21.70389083560474
 31
0.0
  0
LINE
  5
326
  8
0
  6
CONTINUOUS
 62
     3
 10
170.9895103982738
 20
92.9205009570252
 30
0.0
 11
168.9895118883903
 21
96.38459886470726
 31
0.0
  0
LINE
  5
327
  8
0
  6
CONTINUOUS
 62
     3
 10
168.9895160217629
 20
96.38458476078772
 30
0.0
 11
164.9895199556693
 21
96.38458428395093
 31
0.0
  0
LINE
  5
328
  8
0
  6
CONTINUOUS
 62
     3
 10
164.9895135267314
 20
89.45638049044412
 30
0.0
 11
168.9895095928251
 21
89.45638239779127
 31
0.0
  0
LINE
  5
329
  8
0
  6
CONTINUOUS
 62
     3
 10
168.9895105939858
 20
89.45639028308496
 30
0.0
 11
170.98950910387
 21
92.92049138374081
 31
0.0
  0
LINE
  5
32A
  8
0
  6
CONTINUOUS
 62
     3
 10
162.9895197459574
 20
92.92045294492424
 30
0.0
 11
164.9895029970299
 21
89.45638572352657
 31
0.0
  0
LINE
  5
32B
  8
0
  6
CONTINUOUS
 62
     3
 10
164.989513847299
 20
96.3845927399265
 30
0.0
 11
162.9895158142518
 21
92.92049116243369
 31
0.0
  0
LINE
  5
32C
  8
0
  6
CONTINUOUS
 62
     3
 10
131.4895203835286
 20
70.42018247152771
 30
0.0
 11
142.4895124263088
 21
70.42018247152771
 31
0.0
  0
CIRCLE
  5
32D
  8
0
  6
CONTINUOUS
 62
     3
 10
182.3562638626987
 20
60.61298349427185
 30
0.0
 40
5.499999955296517
  0
CIRCLE
  5
32E
  8
0
  6
CONTINUOUS
 62
     3
 10
91.62279183532151
 20
60.61298349427185
 30
0.0
 40
5.499999955296517
  0
CIRCLE
  5
32F
  8
0
  6
CONTINUOUS
 62
     3
 10
182.3562638626987
 20
60.61298349427185
 30
0.0
 40
8.500000223517411
  0
CIRCLE
  5
330
  8
0
  6
CONTINUOUS
 62
     3
 10
91.62279183532151
 20
60.61298349427185
 30
0.0
 40
8.500000223517411
  0
ARC
  5
331
  8
0
  6
CONTINUOUS
 62
     3
 10
136.9895164049187
 20
34.42047939205681
 30
0.0
 40
82.49999754130847
 50
220.829021698304
 51
319.1709801229288
  0
ARC
  5
332
  8
0
  6
CONTINUOUS
 62
     3
 10
136.9895164049187
 20
34.42047939205681
 30
0.0
 40
82.49999754130847
 50
340.829018207419
 51
439.1709834622331
  0
CIRCLE
  5
333
  8
0
  6
CONTINUOUS
 62
     3
 10
166.9895155108491
 20
92.92048337066667
 30
0.0
 40
2.400000143051142
  0
CIRCLE
  5
334
  8
0
  6
CONTINUOUS
 62
     3
 10
166.9895155108491
 20
92.92048337066667
 30
0.0
 40
0.7499999776482585
  0
CIRCLE
  5
335
  8
0
  6
CONTINUOUS
 62
     3
 10
166.9895155108491
 20
92.92048337066667
 30
0.0
 40
3.29999997317791
  0
CIRCLE
  5
336
  8
0
  6
CONTINUOUS
 62
     3
 10
166.9895155108491
 20
92.92048337066667
 30
0.0
 40
7.999999999999997
  0
CIRCLE
  5
337
  8
0
  6
CONTINUOUS
 62
     3
 10
136.9895164049187
 20
-17.96452809711758
 30
0.0
 40
8.500000223517411
  0
CIRCLE
  5
338
  8
0
  6
CONTINUOUS
 62
     3
 10
136.9895164049187
 20
-17.96452809711758
 30
0.0
 40
5.499999955296517
  0
CIRCLE
  5
339
  8
0
  6
CONTINUOUS
 62
     3
 10
136.9895164049187
 20
34.42048908611523
 30
0.0
 40
27.0
  0
CIRCLE
  5
33A
  8
0
  6
CONTINUOUS
 62
     3
 10
136.9895164049187
 20
34.42048908611523
 30
0.0
 40
23.0
  0
CIRCLE
  5
33B
  8
0
  6
CONTINUOUS
 62
     3
 10
136.9895164049187
 20
53.92048908611524
 30
0.0
 40
2.0
  0
CIRCLE
  5
33C
  8
0
  6
CONTINUOUS
 62
     3
 10
155.9895164049187
 20
34.42048908611523
 30
0.0
 40
2.25
  0
LINE
  5
33D
  8
0
  6
CONTINUOUS
 62
     3
 10
135.0030480174401
 20
114.6565360775044
 30
0.0
 11
135.0030480174401
 21
113.1843986263326
 31
0.0
  0
LINE
  5
33E
  8
0
  6
CONTINUOUS
 62
     3
 10
139.0030480174401
 20
114.6565360775044
 30
0.0
 11
139.0030480174401
 21
113.1843986263326
 31
0.0
  0
LINE
  5
33F
  8
0
  6
CONTINUOUS
 62
     3
 10
140.3956261424401
 20
115.4204520931294
 30
0.0
 11
133.6104088572838
 21
115.4204520931294
 31
0.0
  0
LINE
  5
340
  8
0
  6
CONTINUOUS
 62
     3
 10
139.6160851268151
 20
118.6204566707662
 30
0.0
 11
134.3240929393151
 21
118.6204566707662
 31
0.0
  0
LINE
  5
341
  8
0
  6
CONTINUOUS
 62
     3
 10
133.0530358104088
 20
114.7973747005513
 30
0.0
 11
133.0530358104088
 21
113.1111259212544
 31
0.0
  0
ARC
  5
342
  8
0
  6
CONTINUOUS
 62
     3
 10
134.0030480174401
 20
114.4851188411763
 30
0.0
 40
1.0
 50
110.7154403325608
 51
161.8050913997161
  0
ARC
  5
343
  8
0
  6
CONTINUOUS
 62
     3
 10
134.0030480174401
 20
114.4851188411763
 30
0.0
 40
1.0
 50
359.9999710095899
 51
429.2845236952606
  0
ARC
  5
344
  8
0
  6
CONTINUOUS
 62
     3
 10
140.0030480174401
 20
114.4851188411763
 30
0.0
 40
1.0
 50
110.7154403325608
 51
179.9999776881997
  0
ARC
  5
345
  8
0
  6
CONTINUOUS
 62
     3
 10
131.2070275096276
 20
117.2159461727193
 30
0.0
 40
3.0
 50
323.2379957736454
 51
387.8898190133925
  0
ARC
  5
346
  8
0
  6
CONTINUOUS
 62
     3
 10
142.7990074900963
 20
117.2159156551412
 30
0.0
 40
3.0
 50
152.1068511557016
 51
216.7619682541759
  0
ARC
  5
347
  8
0
  6
CONTINUOUS
 62
     3
 10
137.0030480174401
 20
112.4204520931294
 30
0.0
 40
3.0
 50
48.18968934935128
 51
131.81027467847
  0
ARC
  5
348
  8
0
  6
CONTINUOUS
 62
     3
 10
140.0030480174401
 20
114.4851188411763
 30
0.0
 40
1.0
 50
18.1948640903688
 51
69.28452369526056
  0
LINE
  5
349
  8
0
  6
CONTINUOUS
 62
     3
 10
140.9530602244713
 20
114.7973747005513
 30
0.0
 11
140.9530602244713
 21
113.1111564388326
 31
0.0
  0
LINE
  5
34A
  8
0
  6
CONTINUOUS
 62
     3
 10
140.3030358104088
 20
119.6204566707662
 30
0.0
 11
133.7030602244713
 21
119.6204566707662
 31
0.0
  0
ARC
  5
34B
  8
0
  6
CONTINUOUS
 62
     3
 10
137.0030480174401
 20
119.6204566707662
 30
0.0
 40
3.299999952316284
 50
179.9999776881997
 51
197.6396788801879
  0
ARC
  5
34C
  8
0
  6
CONTINUOUS
 62
     3
 10
137.0030480174401
 20
119.6204566707662
 30
0.0
 40
3.299999952316284
 50
342.3602834400861
 51
359.9999710095899
  0
LINE
  5
34D
  8
0
  6
CONTINUOUS
 62
     3
 10
139.4030113963463
 20
121.9204444637349
 30
0.0
 11
134.6030236033776
 21
121.9204444637349
 31
0.0
  0
ARC
  5
34E
  8
0
  6
CONTINUOUS
 62
     3
 10
137.0030480174401
 20
121.4425697078755
 30
0.0
 40
1.200000047683716
 50
23.46796137491541
 51
156.5320077755478
  0
ARC
  5
34F
  8
0
  6
CONTINUOUS
 62
     3
 10
134.0030480174401
 20
113.4233512630513
 30
0.0
 40
1.0
 50
198.1988974307593
 51
359.9999710095899
  0
ARC
  5
350
  8
0
  6
CONTINUOUS
 62
     3
 10
137.0030480174401
 20
115.4204520931294
 30
0.0
 40
3.0
 50
228.1896706800166
 51
269.9999701747652
  0
ARC
  5
351
  8
0
  6
CONTINUOUS
 62
     3
 10
137.0030480174401
 20
115.4204520931294
 30
0.0
 40
3.0
 50
269.9999906653327
 51
311.8103038204595
  0
ARC
  5
352
  8
0
  6
CONTINUOUS
 62
     3
 10
140.0030480174401
 20
113.4233512630513
 30
0.0
 40
1.0
 50
179.9999776881997
 51
341.8082382956906
  0
LINE
  5
353
  8
0
  6
CONTINUOUS
 62
     3
 10
139.4031308916847
 20
121.9205301835196
 30
0.0
 11
140.3031309920061
 21
119.620529935321
 31
0.0
  0
LINE
  5
354
  8
0
  6
CONTINUOUS
 62
     3
 10
133.7030970692222
 20
119.6204600525303
 30
0.0
 11
134.6030968751184
 21
121.9204604479415
 31
0.0
  0
LINE
  5
355
  8
0
  6
CONTINUOUS
 62
     3
 10
122.989513007454
 20
122.4204901208926
 30
0.0
 11
136.3075828635715
 21
122.4204901208926
 31
0.0
  0
LINE
  5
356
  8
0
  6
CONTINUOUS
 62
     3
 10
137.6985131713086
 20
122.4204901208926
 30
0.0
 11
150.9895198023833
 21
122.4204901208926
 31
0.0
  0
CIRCLE
  5
357
  8
0
  6
CONTINUOUS
 62
     3
 10
120.1020080613776
 20
24.67047190397129
 30
0.0
 40
2.0
  0
CIRCLE
  5
358
  8
0
  6
CONTINUOUS
 62
     3
 10
153.8770201740161
 20
24.67046926291501
 30
0.0
 40
2.0
  0
CIRCLE
  5
359
  8
0
  6
CONTINUOUS
 62
     3
 10
117.9895164049187
 20
34.42048908611523
 30
0.0
 40
2.25
  0
LINE
  5
35A
  8
0
  6
CONTINUOUS
 62
     3
 10
131.4895203835286
 20
111.8845984944226
 30
0.0
 11
131.4895203835286
 21
106.8845984944226
 31
0.0
  0
LINE
  5
35B
  8
0
  6
CONTINUOUS
 62
     3
 10
131.4895203835286
 20
99.95638246261814
 30
0.0
 11
131.4895203835286
 21
81.88459161008635
 31
0.0
  0
LINE
  5
35C
  8
0
  6
CONTINUOUS
 62
     3
 10
142.4895124263088
 20
111.8845984944227
 30
0.0
 11
142.4895124263088
 21
106.8845984944227
 31
0.0
  0
LINE
  5
35D
  8
0
  6
CONTINUOUS
 62
     3
 10
142.4895124263088
 20
99.956382462618
 30
0.0
 11
142.4895124263088
 21
81.8845916100864
 31
0.0
  0
LINE
  5
35E
  8
0
  6
CONTINUOUS
 62
     3
 10
69.3492124757029
 20
-9.17712983345659
 30
0.0
 11
70.80954675567449
 21
-8.334005443808152
 31
0.0
  0
ARC
  5
35F
  8
0
  6
CONTINUOUS
 62
     3
 10
69.14462787888655
 20
-8.198267198574698
 30
0.0
 40
0.9999999999999999
 50
230.7154403325607
 51
281.805091399716
  0
ARC
  5
360
  8
0
  6
CONTINUOUS
 62
     3
 10
68.17767229032771
 20
-11.98510565361407
 30
0.0
 40
3.0
 50
83.23799577364542
 51
147.8898190133925
  0
ARC
  5
361
  8
0
  6
CONTINUOUS
 62
     3
 10
63.19729486144652
 20
-8.167859902016303
 30
0.0
 40
3.299999952316284
 50
299.9999776881996
 51
317.6396788801879
  0
LINE
  5
362
  8
0
  6
CONTINUOUS
 62
     3
 10
66.4961761975799
 20
-3.953848797816576
 30
0.0
 11
67.77108462815718
 21
-3.217780072230639
 31
0.0
  0
ARC
  5
363
  8
0
  6
CONTINUOUS
 62
     3
 10
66.14462787888655
 20
-3.002114775868066
 30
0.0
 40
0.9999999999999999
 50
230.7154403325607
 51
299.9999776881996
  0
ARC
  5
364
  8
0
  6
CONTINUOUS
 62
     3
 10
62.38170872909129
 20
-1.946141251578425
 30
0.0
 40
3.0
 50
272.1068511557015
 51
336.7619682541758
  0
ARC
  5
365
  8
0
  6
CONTINUOUS
 62
     3
 10
66.14462787888655
 20
-3.002114775868066
 30
0.0
 40
0.9999999999999999
 50
138.1948640903688
 51
189.2845236952605
  0
LINE
  5
366
  8
0
  6
CONTINUOUS
 62
     3
 10
65.39920026867165
 20
-2.335508000361173
 30
0.0
 11
66.85950811964531
 21
-1.492398869501798
 31
0.0
  0
ARC
  5
367
  8
0
  6
CONTINUOUS
 62
     3
 10
63.19729486144652
 20
-8.167859902016303
 30
0.0
 40
3.299999952316284
 50
102.3602834400861
 51
119.9999710095899
  0
ARC
  5
368
  8
0
  6
CONTINUOUS
 62
     3
 10
67.06414557445748
 20
-2.471230986805566
 30
0.0
 40
0.9999999999999999
 50
299.9999776881996
 51
461.8082382956906
  0
LINE
  5
369
  8
0
  6
CONTINUOUS
 62
     3
 10
60.00533133170799
 20
-7.23936391810922
 30
0.0
 11
61.54718992519773
 21
-5.309940843723027
 31
0.0
  0
LINE
  5
36A
  8
0
  6
CONTINUOUS
 62
     3
 10
68.4961761975799
 20
-7.417950412954312
 30
0.0
 11
69.77108462815718
 21
-6.681881687368374
 31
0.0
  0
ARC
  5
36B
  8
0
  6
CONTINUOUS
 62
     3
 10
69.14462787888655
 20
-8.198267198574698
 30
0.0
 40
0.9999999999999999
 50
119.9999710095899
 51
189.2845236952605
  0
LINE
  5
36C
  8
0
  6
CONTINUOUS
 62
     3
 10
67.77916226718381
 20
-21.70395394255009
 30
0.0
 11
61.12012733912505
 21
-10.17016711777653
 31
0.0
  0
LINE
  5
36D
  8
0
  6
CONTINUOUS
 62
     3
 10
63.5291585791465
 20
-14.34273162251431
 30
0.0
 11
72.65350837918928
 21
-9.074785809279334
 31
0.0
  0
LINE
  5
36E
  8
0
  6
CONTINUOUS
 62
     3
 10
65.13831645919083
 20
-3.129798772624568
 30
0.0
 11
68.53092510176896
 21
-9.005969311767174
 31
0.0
  0
LINE
  5
36F
  8
0
  6
CONTINUOUS
 62
     3
 10
61.54730096496215
 20
-5.309986641126827
 30
0.0
 11
64.8472887579309
 21
-11.02573316290578
 31
0.0
  0
ARC
  5
370
  8
0
  6
CONTINUOUS
 62
     3
 10
70.06414557445748
 20
-7.667383409512198
 30
0.0
 40
0.9999999999999999
 50
318.1988974307593
 51
479.9999710095899
  0
LINE
  5
371
  8
0
  6
CONTINUOUS
 62
     3
 10
64.84726740686179
 20
-11.02570294529762
 30
0.0
 11
62.40540873277334
 21
-11.39628044769604
 31
0.0
  0
LINE
  5
372
  8
0
  6
CONTINUOUS
 62
     3
 10
73.0554445247864
 20
-8.8427278674218
 30
0.0
 11
67.55544850339626
 21
0.6835446830525456
 31
0.0
  0
LINE
  5
373
  8
0
  6
CONTINUOUS
 62
     3
 10
62.75680171054344
 20
-5.404903384266092
 30
0.0
 11
65.40279780429344
 21
-9.987903055269882
 31
0.0
  0
ARC
  5
374
  8
0
  6
CONTINUOUS
 62
     3
 10
69.43268173304415
 20
-4.567857613197944
 30
0.0
 40
3.0
 50
168.1896893493513
 51
251.81027467847
  0
LINE
  5
375
  8
0
  6
CONTINUOUS
 62
     3
 10
60.00546531488834
 20
-7.239424544215538
 30
0.0
 11
62.40545921137272
 21
-11.39633591078167
 31
0.0
  0
ARC
  5
376
  8
0
  6
CONTINUOUS
 62
     3
 10
61.61929868274297
 20
-9.078916420570991
 30
0.0
 40
1.200000047683716
 50
143.4679613749154
 51
276.5320077755478
  0
ARC
  5
377
  8
0
  6
CONTINUOUS
 62
     3
 10
66.83460552169083
 20
-6.067857613197944
 30
0.0
 40
3.0
 50
29.99999066533265
 51
71.81030382045954
  0
ARC
  5
378
  8
0
  6
CONTINUOUS
 62
     3
 10
66.83460552169083
 20
-6.067857613197944
 30
0.0
 40
3.0
 50
348.1896706800166
 51
389.9999701747651
  0
LINE
  5
379
  8
0
  6
CONTINUOUS
 62
     3
 10
58.02916255775642
 20
-4.816459072039962
 30
0.0
 11
67.15351235779914
 21
0.4514867411949552
 31
0.0
  0
LINE
  5
37A
  8
0
  6
CONTINUOUS
 62
     3
 10
72.65350837918928
 20
-9.074785809279334
 30
0.0
 11
76.98363539811152
 21
-6.574785809279305
 31
0.0
  0
LINE
  5
37B
  8
0
  6
CONTINUOUS
 62
     3
 10
67.15351235779914
 20
0.4514867411949552
 30
0.0
 11
71.4836393767213
 21
2.951486741194941
 31
0.0
  0
LINE
  5
37C
  8
0
  6
CONTINUOUS
 62
     3
 10
82.98364648456074
 20
-3.110677793377093
 30
0.0
 11
98.63427645473253
 21
5.925217632888788
 31
0.0
  0
LINE
  5
37D
  8
0
  6
CONTINUOUS
 62
     3
 10
77.48365046317079
 20
6.415594757097296
 30
0.0
 11
93.1342804333424
 21
15.45149018336308
 31
0.0
  0
LINE
  5
37E
  8
0
  6
CONTINUOUS
 62
     3
 10
108.5624883253808
 20
11.6572734289792
 30
0.0
 11
103.0624923039907
 21
21.18354597945354
 31
0.0
  0
LINE
  5
37F
  8
0
  6
CONTINUOUS
 62
     3
 10
108.5627460081028
 20
11.65742220216809
 30
0.0
 11
103.0627499867127
 21
21.18369475264247
 31
0.0
  0
LINE
  5
380
  8
0
  6
CONTINUOUS
 62
     3
 10
99.13429151979177
 20
18.9155981992654
 30
0.0
 11
107.3926105734694
 21
23.68354092795998
 31
0.0
  0
LINE
  5
381
  8
0
  6
CONTINUOUS
 62
     3
 10
104.6342875411818
 20
9.389325648791001
 30
0.0
 11
112.8926065948595
 21
14.15726837748566
 31
0.0
  0
LINE
  5
382
  8
0
  6
CONTINUOUS
 62
     3
 10
208.5661944910957
 20
-2.359006892503885
 30
0.0
 11
207.1058602111241
 21
-1.515882502855448
 31
0.0
  0
ARC
  5
383
  8
0
  6
CONTINUOUS
 62
     3
 10
207.8207668808809
 20
-3.025613668010792
 30
0.0
 40
0.9999999999999998
 50
350.7154403325607
 51
401.8050913997161
  0
ARC
  5
384
  8
0
  6
CONTINUOUS
 62
     3
 10
211.5837429772521
 20
-1.969602544514387
 30
0.0
 40
2.999999999999999
 50
203.2379957736454
 51
267.8898190133925
  0
ARC
  5
385
  8
0
  6
CONTINUOUS
 62
     3
 10
210.7680998983208
 20
-8.191358794159015
 30
0.0
 40
3.299999952316283
 50
59.99997768819962
 51
77.63967888018792
  0
LINE
  5
386
  8
0
  6
CONTINUOUS
 62
     3
 10
205.4692185621875
 20
-7.441449305097009
 30
0.0
 11
204.1943101316102
 21
-6.7053805795111
 31
0.0
  0
ARC
  5
387
  8
0
  6
CONTINUOUS
 62
     3
 10
204.8207668808809
 20
-8.221766090717424
 30
0.0
 40
0.9999999999999998
 50
350.7154403325607
 51
419.9999776881996
  0
ARC
  5
388
  8
0
  6
CONTINUOUS
 62
     3
 10
205.7877265580199
 20
-12.00853642897188
 30
0.0
 40
2.999999999999999
 50
32.10685115570156
 51
96.76196825417586
  0
ARC
  5
389
  8
0
  6
CONTINUOUS
 62
     3
 10
204.8207668808809
 20
-8.221766090717424
 30
0.0
 40
0.9999999999999998
 50
258.1948640903688
 51
309.2845236952605
  0
LINE
  5
38A
  8
0
  6
CONTINUOUS
 62
     3
 10
204.6161822840645
 20
-9.200628725599302
 30
0.0
 11
203.1558744330908
 21
-8.357519594739927
 31
0.0
  0
ARC
  5
38B
  8
0
  6
CONTINUOUS
 62
     3
 10
210.7680998983208
 20
-8.191358794159015
 30
0.0
 40
3.299999952316283
 50
222.3602834400861
 51
239.9999710095899
  0
ARC
  5
38C
  8
0
  6
CONTINUOUS
 62
     3
 10
203.9012491853098
 20
-7.690882301654909
 30
0.0
 40
0.9999999999999998
 50
59.99997768819962
 51
221.8082382956906
  0
LINE
  5
38D
  8
0
  6
CONTINUOUS
 62
     3
 10
211.5599805538148
 20
-11.41992829081957
 30
0.0
 11
209.1181218600036
 21
-11.04935111700721
 31
0.0
  0
LINE
  5
38E
  8
0
  6
CONTINUOUS
 62
     3
 10
207.4692185621875
 20
-3.977347689959274
 30
0.0
 11
206.1943101316102
 21
-3.241278964373365
 31
0.0
  0
ARC
  5
38F
  8
0
  6
CONTINUOUS
 62
     3
 10
207.8207668808809
 20
-3.025613668010792
 30
0.0
 40
0.9999999999999998
 50
239.9999710095899
 51
309.2845236952605
  0
LINE
  5
390
  8
0
  6
CONTINUOUS
 62
     3
 10
220.1997675025696
 20
2.544701796248276
 30
0.0
 11
213.5407325745109
 21
-8.989085028525267
 31
0.0
  0
LINE
  5
391
  8
0
  6
CONTINUOUS
 62
     3
 10
215.9497638145322
 20
-4.816520523787474
 30
0.0
 11
206.8254140144895
 21
0.4514252894475419
 31
0.0
  0
LINE
  5
392
  8
0
  6
CONTINUOUS
 62
     3
 10
205.4345001755765
 20
-9.029415345914046
 30
0.0
 11
208.8271088181547
 21
-3.15324480677144
 31
0.0
  0
LINE
  5
393
  8
0
  6
CONTINUOUS
 62
     3
 10
209.1181060018365
 20
-11.04923205504849
 30
0.0
 11
212.4180937948052
 21
-5.333485533269524
 31
0.0
  0
ARC
  5
394
  8
0
  6
CONTINUOUS
 62
     3
 10
206.9012491853098
 20
-2.494729878948277
 30
0.0
 40
0.9999999999999998
 50
78.19889743075922
 51
239.9999710095899
  0
LINE
  5
395
  8
0
  6
CONTINUOUS
 62
     3
 10
212.4180783011234
 20
-5.333519132641854
 30
0.0
 11
213.9599371693158
 21
-7.262942025654624
 31
0.0
  0
LINE
  5
396
  8
0
  6
CONTINUOUS
 62
     3
 10
206.4234778688924
 20
0.6834832313050754
 30
0.0
 11
200.9234818475023
 21
-8.842789319169285
 31
0.0
  0
LINE
  5
397
  8
0
  6
CONTINUOUS
 62
     3
 10
208.5955559398489
 20
-9.954315311909241
 30
0.0
 11
211.2415520335989
 21
-5.371315640905451
 31
0.0
  0
ARC
  5
398
  8
0
  6
CONTINUOUS
 62
     3
 10
204.5327130267232
 20
-4.59135650534067
 30
0.0
 40
2.999999999999999
 50
288.1896893493513
 51
371.81027467847
  0
LINE
  5
399
  8
0
  6
CONTINUOUS
 62
     3
 10
211.5599660659728
 20
-11.41978194492855
 30
0.0
 11
213.9599599624572
 21
-7.26287057836241
 31
0.0
  0
ARC
  5
39A
  8
0
  6
CONTINUOUS
 62
     3
 10
212.3460960770244
 20
-9.102415312713717
 30
0.0
 40
1.200000047683715
 50
263.4679613749154
 51
396.5320077755478
  0
ARC
  5
39B
  8
0
  6
CONTINUOUS
 62
     3
 10
207.1307892380765
 20
-6.09135650534067
 30
0.0
 40
2.999999999999999
 50
149.9999906653326
 51
191.8103038204595
  0
LINE
  5
39C
  8
0
  6
CONTINUOUS
 62
     3
 10
212.8452674206423
 20
-10.19366600991923
 30
0.0
 11
206.199764105105
 21
-21.7040153942974
 31
0.0
  0
ARC
  5
39D
  8
0
  6
CONTINUOUS
 62
     3
 10
207.1307892380765
 20
-6.09135650534067
 30
0.0
 40
2.999999999999999
 50
108.1896706800166
 51
149.9999701747651
  0
LINE
  5
39E
  8
0
  6
CONTINUOUS
 62
     3
 10
210.4497677931421
 20
-14.34279307426181
 30
0.0
 11
201.3254179930995
 21
-9.074847261026804
 31
0.0
  0
LINE
  5
39F
  8
0
  6
CONTINUOUS
 62
     3
 10
206.8254140144895
 20
0.4514252894475419
 30
0.0
 11
202.4952869955673
 21
2.95142528944757
 31
0.0
  0
LINE
  5
3A0
  8
0
  6
CONTINUOUS
 62
     3
 10
201.3254179930995
 20
-9.074847261026804
 30
0.0
 11
196.9952909741773
 21
-6.574847261026818
 31
0.0
  0
LINE
  5
3A1
  8
0
  6
CONTINUOUS
 62
     3
 10
196.495275909118
 20
6.415533305349769
 30
0.0
 11
180.8446459389463
 21
15.45142873161569
 31
0.0
  0
LINE
  5
3A2
  8
0
  6
CONTINUOUS
 62
     3
 10
190.9952798877278
 20
-3.110739245124464
 30
0.0
 11
175.3446499175562
 21
5.925156181141361
 31
0.0
  0
LINE
  5
3A3
  8
0
  6
CONTINUOUS
 62
     3
 10
170.916434068298
 20
21.18348452770609
 30
0.0
 11
165.4164380469079
 21
11.65721197723178
 31
0.0
  0
LINE
  5
3A4
  8
0
  6
CONTINUOUS
 62
     3
 10
170.916176385576
 20
21.18363330089503
 30
0.0
 11
165.4161803641859
 21
11.65736075042067
 31
0.0
  0
LINE
  5
3A5
  8
0
  6
CONTINUOUS
 62
     3
 10
169.3446388311068
 20
9.389264197043616
 30
0.0
 11
161.0863197774292
 21
14.15720692573825
 31
0.0
  0
LINE
  5
3A6
  8
0
  6
CONTINUOUS
 62
     3
 10
174.844634852497
 20
18.91553674751789
 30
0.0
 11
166.5863157988193
 21
23.68347947621255
 31
0.0
  0
LINE
  5
3A7
  8
0
  6
CONTINUOUS
 62
     3
 10
73.32704999208377
 20
27.68728155198018
 30
0.0
 11
75.32702858069487
 21
31.15135146525124
 31
0.0
  0
LINE
  5
3A8
  8
0
  6
CONTINUOUS
 62
     3
 10
69.3270198766804
 20
27.68725735365986
 30
0.0
 11
73.32701886060249
 21
27.68725903826858
 31
0.0
  0
LINE
  5
3A9
  8
0
  6
CONTINUOUS
 62
     3
 10
67.32702569958533
 20
31.15136484150803
 30
0.0
 11
69.32702414558489
 21
27.6872668716516
 31
0.0
  0
LINE
  5
3AA
  8
0
  6
CONTINUOUS
 62
     3
 10
75.32702784782643
 20
31.15136320078146
 30
0.0
 11
73.32702816296856
 21
34.61546045538277
 31
0.0
  0
CIRCLE
  5
3AB
  8
0
  6
CONTINUOUS
 62
     3
 10
71.32702576017201
 20
31.15136428653541
 30
0.0
 40
2.400000143051142
  0
CIRCLE
  5
3AC
  8
0
  6
CONTINUOUS
 62
     3
 10
71.32702576017201
 20
31.15136428653541
 30
0.0
 40
3.299999973177909
  0
CIRCLE
  5
3AD
  8
0
  6
CONTINUOUS
 62
     3
 10
71.32702576017201
 20
31.15136428653541
 30
0.0
 40
7.999999999999996
  0
CIRCLE
  5
3AE
  8
0
  6
CONTINUOUS
 62
     3
 10
71.32702576017201
 20
31.15136428653541
 30
0.0
 40
0.7499999776482584
  0
LINE
  5
3AF
  8
0
  6
CONTINUOUS
 62
     3
 10
73.32702083352351
 20
34.61545737976663
 30
0.0
 11
69.3270220241358
 21
34.61545634652943
 31
0.0
  0
LINE
  5
3B0
  8
0
  6
CONTINUOUS
 62
     3
 10
69.32701308622646
 20
34.61545268087376
 30
0.0
 11
67.32701555191903
 21
31.15135420994257
 31
0.0
  0
LINE
  5
3B1
  8
0
  6
CONTINUOUS
 62
     3
 10
174.6518684647344
 20
-17.34610932445619
 30
0.0
 11
170.6519066250508
 21
-17.34611201632957
 31
0.0
  0
LINE
  5
3B2
  8
0
  6
CONTINUOUS
 62
     3
 10
176.6519044787962
 20
-20.81022492113817
 30
0.0
 11
174.6519035279212
 21
-17.34612502825405
 31
0.0
  0
LINE
  5
3B3
  8
0
  6
CONTINUOUS
 62
     3
 10
174.6518964814274
 20
-24.27432442984753
 30
0.0
 11
176.6518941015214
 21
-20.8102259831543
 31
0.0
  0
LINE
  5
3B4
  8
0
  6
CONTINUOUS
 62
     3
 10
170.6518968282177
 20
-17.34611851877737
 30
0.0
 11
168.651900446982
 21
-20.81021768072581
 31
0.0
  0
CIRCLE
  5
3B5
  8
0
  6
CONTINUOUS
 62
     3
 10
172.6518969317544
 20
-20.81022248475385
 30
0.0
 40
2.400000143051141
  0
CIRCLE
  5
3B6
  8
0
  6
CONTINUOUS
 62
     3
 10
172.6518969317544
 20
-20.81022248475385
 30
0.0
 40
3.299999973177909
  0
CIRCLE
  5
3B7
  8
0
  6
CONTINUOUS
 62
     3
 10
172.6518969317544
 20
-20.81022248475385
 30
0.0
 40
7.999999999999996
  0
CIRCLE
  5
3B8
  8
0
  6
CONTINUOUS
 62
     3
 10
172.6518969317544
 20
-20.81022248475385
 30
0.0
 40
0.7499999776482583
  0
LINE
  5
3B9
  8
0
  6
CONTINUOUS
 62
     3
 10
168.6519067752662
 20
-20.81022249040335
 30
0.0
 11
170.6519070747697
 21
-24.27432255782202
 31
0.0
  0
LINE
  5
3BA
  8
0
  6
CONTINUOUS
 62
     3
 10
170.6519147182754
 20
-24.27432846545071
 30
0.0
 11
174.6519107624663
 21
-24.27432790220161
 31
0.0
  0
LINE
  5
3BB
  8
0
  6
CONTINUOUS
 62
     3
 10
53.77930200542218
 20
2.54482747803587
 30
0.0
 11
51.36775409676235
 21
11.54484568627933
 31
0.0
  0
LINE
  5
3BC
  8
0
  6
CONTINUOUS
 62
     3
 10
-95.62720994025305
 20
85.92047763135261
 30
0.0
 11
-87.62720994025305
 21
85.92047763135261
 31
0.0
  0
LINE
  5
3BD
  8
0
  6
CONTINUOUS
 62
     3
 10
-95.62720994025305
 20
110.9204776313526
 30
0.0
 11
-87.62720994025305
 21
110.9204776313526
 31
0.0
  0
LINE
  5
3BE
  8
0
  6
CONTINUOUS
 62
     3
 10
-95.62720994025305
 20
97.92047763135261
 30
0.0
 11
-87.62720994025305
 21
97.92047763135261
 31
0.0
  0
LINE
  5
3BF
  8
0
  6
CONTINUOUS
 62
     3
 10
-95.62720994025305
 20
72.92047763135261
 30
0.0
 11
-87.62720994025305
 21
72.92047763135261
 31
0.0
  0
LINE
  5
3C0
  8
0
  6
CONTINUOUS
 62
     3
 10
51.3677799130073
 20
11.54484525707689
 30
0.0
 11
56.87510874603751
 21
14.7245030984119
 31
0.0
  0
LINE
  5
3C1
  8
0
  6
CONTINUOUS
 62
     3
 10
53.37737604044443
 20
4.044832028055723
 30
0.0
 11
110.0936922651323
 21
36.79001305554129
 31
0.0
  0
ARC
  5
3C2
  8
0
  6
CONTINUOUS
 62
     3
 10
136.9895164049187
 20
34.42047939205681
 30
0.0
 40
82.49999754130847
 50
100.8290215467233
 51
199.1709799713481
  0
LINE
  5
3C3
  8
0
  6
CONTINUOUS
 62
     3
 10
60.42466218525655
 20
-8.965586136382555
 30
0.0
 11
53.77915886971917
 21
2.544763247995618
 31
0.0
  0
LINE
  5
3C4
  8
0
  6
CONTINUOUS
 62
     3
 10
-125.6272063937767
 20
99.21348771525247
 30
0.0
 11
-125.6272063937767
 21
103.3074634101612
 31
0.0
  0
LINE
  5
3C5
  8
0
  6
CONTINUOUS
 62
     3
 10
-122.6272063937767
 20
98.94269760091969
 30
0.0
 11
-122.6272063937767
 21
103.3074634101612
 31
0.0
  0
LINE
  5
3C6
  8
0
  6
CONTINUOUS
 62
     3
 10
29.40296211109924
 20
-45.59253412250899
 30
0.0
 11
24.4029613064366
 21
-36.93227884638412
 31
0.0
  0
LINE
  5
3C7
  8
0
  6
CONTINUOUS
 62
     3
 10
-0.0419033598920109
 20
-62.59249907573911
 30
0.0
 11
8.185337789681405
 21
-57.84249909809086
 31
0.0
  0
LINE
  5
3C8
  8
0
  6
CONTINUOUS
 62
     3
 10
-15.54191833555856
 20
-35.74568610165892
 30
0.0
 11
-7.31467718598514
 21
-30.99568612401077
 31
0.0
  0
LINE
  5
3C9
  8
0
  6
CONTINUOUS
 62
     3
 10
12.8407981015032
 20
-30.90599377775033
 30
0.0
 11
19.76899934914089
 21
-26.90599485063393
 31
0.0
  0
LINE
  5
3CA
  8
0
  6
CONTINUOUS
 62
     3
 10
16.84559183471871
 20
-52.84249902214509
 30
0.0
 11
29.40294637547348
 21
-45.59250686760623
 31
0.0
  0
LINE
  5
3CB
  8
0
  6
CONTINUOUS
 62
     3
 10
1.345576859052251
 20
-25.9956860480649
 30
0.0
 11
13.90293139980697
 21
-18.74569389352604
 31
0.0
  0
LINE
  5
3CC
  8
0
  6
CONTINUOUS
 62
     3
 10
12.8407981015032
 20
-30.90599377775033
 30
0.0
 11
11.21578289114337
 21
-28.09138492085208
 31
0.0
  0
LINE
  5
3CD
  8
0
  6
CONTINUOUS
 62
     3
 10
13.90360488122696
 20
-46.74686071660045
 30
0.0
 11
5.153591313720149
 21
-31.59139292277547
 31
0.0
  0
LINE
  5
3CE
  8
0
  6
CONTINUOUS
 62
     3
 10
18.34076694317617
 20
-40.43221908059462
 30
0.0
 11
25.2689681908137
 21
-36.43222015347823
 31
0.0
  0
LINE
  5
3CF
  8
0
  6
CONTINUOUS
 62
     3
 10
18.34079698391623
 20
-40.4322711126818
 30
0.0
 11
19.96579645865028
 21
-43.24685271467723
 31
0.0
  0
LINE
  5
3D0
  8
0
  6
CONTINUOUS
 62
     3
 10
14.08661600244009
 20
-46.06381481035061
 30
0.0
 11
5.836616963564985
 21
-31.77439756909433
 31
0.0
  0
LINE
  5
3D1
  8
0
  6
CONTINUOUS
 62
     3
 10
5.836616963564985
 20
-31.77439756909433
 30
0.0
 11
11.46578264527415
 21
-28.52439718911472
 31
0.0
  0
LINE
  5
3D2
  8
0
  6
CONTINUOUS
 62
     3
 10
14.08661600244009
 20
-46.06381481035061
 30
0.0
 11
19.71578168414941
 21
-42.813814430371
 31
0.0
  0
LINE
  5
3D3
  8
0
  6
CONTINUOUS
 62
     3
 10
25.26898584296168
 20
-36.43227933812256
 30
0.0
 11
24.51898586531335
 21
-35.13324129447568
 31
0.0
  0
LINE
  5
3D4
  8
0
  6
CONTINUOUS
 62
     3
 10
24.51898586531335
 20
-35.13324129447568
 30
0.0
 11
19.76898696054878
 21
-26.90600200319108
 31
0.0
  0
LINE
  5
3D5
  8
0
  6
CONTINUOUS
 62
     3
 10
1.34559223705012
 20
-25.9957126835381
 30
0.0
 11
-2.404407830005134
 21
-19.50052215558895
 31
0.0
  0
LINE
  5
3D6
  8
0
  6
CONTINUOUS
 62
     3
 10
20.5955902924486
 20
-59.33768676266101
 30
0.0
 11
16.84560757034453
 21
-52.84252627704785
 31
0.0
  0
LINE
  5
3D7
  8
0
  6
CONTINUOUS
 62
     3
 10
11.93534321570233
 20
-64.33769962304751
 30
0.0
 11
13.66738115456304
 21
-63.33770707074774
 31
0.0
  0
LINE
  5
3D8
  8
0
  6
CONTINUOUS
 62
     3
 10
-11.06465428753756
 20
-24.50053465847225
 30
0.0
 11
-2.4044001725538
 21
-19.50053470367692
 31
0.0
  0
LINE
  5
3D9
  8
0
  6
CONTINUOUS
 62
     3
 10
-7.31467718598514
 20
-30.99568612401077
 30
0.0
 11
-11.06466186727067
 21
-24.50052224499592
 31
0.0
  0
LINE
  5
3DA
  8
0
  6
CONTINUOUS
 62
     3
 10
11.93533625518305
 20
-64.33768685206786
 30
0.0
 11
8.185337789681405
 21
-57.84249909809086
 31
0.0
  0
LINE
  5
3DB
  8
0
  6
CONTINUOUS
 62
     3
 10
5.153591313720149
 20
-31.59139292277547
 30
0.0
 11
11.21578289114337
 21
-28.09138492085208
 31
0.0
  0
LINE
  5
3DC
  8
0
  6
CONTINUOUS
 62
     3
 10
13.9035905761127
 20
-46.74683593941614
 30
0.0
 11
19.965782153536
 21
-43.24682793749281
 31
0.0
  0
LINE
  5
3DD
  8
0
  6
CONTINUOUS
 62
     3
 10
-0.0419033598920109
 20
-62.59249907573911
 30
0.0
 11
-15.54191833555856
 21
-35.74568610165892
 31
0.0
  0
LINE
  5
3DE
  8
0
  6
CONTINUOUS
 62
     3
 10
-5.079101719766804
 20
10.13215118434428
 30
0.0
 11
5.00485458159006
 21
-7.333773784392719
 31
0.0
  0
LINE
  5
3DF
  8
0
  6
CONTINUOUS
 62
     3
 10
31.83116262353222
 20
-33.79827109553997
 30
0.0
 11
25.33117831445455
 21
-22.5399682258834
 31
0.0
  0
LINE
  5
3E0
  8
0
  6
CONTINUOUS
 62
     3
 10
25.33116329408446
 20
-22.53994220983987
 30
0.0
 11
32.25936949715898
 21
-18.53994042170058
 31
0.0
  0
LINE
  5
3E1
  8
0
  6
CONTINUOUS
 62
     3
 10
5.00485458159006
 20
-7.333773784392719
 30
0.0
 11
12.17088553572553
 21
-19.7457037083388
 31
0.0
  0
LINE
  5
3E2
  8
0
  6
CONTINUOUS
 62
     3
 10
31.83116262353222
 20
-33.79827109553997
 30
0.0
 11
38.75936882660682
 21
-29.79826930740074
 31
0.0
  0
LINE
  5
3E3
  8
0
  6
CONTINUOUS
 62
     3
 10
20.59557131464207
 20
-59.33771468862193
 30
0.0
 11
13.66738115456304
 21
-63.33770707074774
 31
0.0
  0
LINE
  5
3E4
  8
0
  6
CONTINUOUS
 62
     3
 10
20.51898693819697
 20
-28.20504004683801
 30
0.0
 11
26.58117851562019
 21
-24.70503204491462
 31
0.0
  0
LINE
  5
3E5
  8
0
  6
CONTINUOUS
 62
     3
 10
24.51895582457328
 20
-35.1331892623885
 30
0.0
 11
30.5811474019965
 21
-31.63318126046517
 31
0.0
  0
LINE
  5
3E6
  8
0
  6
CONTINUOUS
 62
     3
 10
18.90296242402366
 20
-27.40600151145276
 30
0.0
 11
13.90294677780489
 21
-18.74572052899924
 31
0.0
  0
LINE
  5
3E7
  8
0
  6
CONTINUOUS
 62
     3
 10
3.899454899584931
 20
-38.41911982458163
 30
0.0
 11
7.363555721613302
 21
-40.41912131189889
 31
0.0
  0
CIRCLE
  5
3E8
  8
0
  6
CONTINUOUS
 62
     3
 10
3.899442593619746
 20
-42.41911075835361
 30
0.0
 40
3.299999952316284
  0
CIRCLE
  5
3E9
  8
0
  6
CONTINUOUS
 62
     3
 10
3.899442593619746
 20
-42.41911075835361
 30
0.0
 40
2.400000095367432
  0
CIRCLE
  5
3EA
  8
0
  6
CONTINUOUS
 62
     3
 10
3.899442593619746
 20
-42.41911075835361
 30
0.0
 40
0.75
  0
LINE
  5
3EB
  8
0
  6
CONTINUOUS
 62
     3
 10
7.363548435277785
 20
-40.41909848698123
 30
0.0
 11
7.363545743378587
 21
-44.41909859284675
 31
0.0
  0
LINE
  5
3EC
  8
0
  6
CONTINUOUS
 62
     3
 10
0.4353361219883496
 20
-40.41910234665994
 30
0.0
 11
3.899437737126142
 21
-38.41910234665994
 31
0.0
  0
LINE
  5
3ED
  8
0
  6
CONTINUOUS
 62
     3
 10
0.4353482066845302
 20
-44.41908769120067
 30
0.0
 11
0.4353487699341443
 21
-40.41908771310335
 31
0.0
  0
LINE
  5
3EE
  8
0
  6
CONTINUOUS
 62
     3
 10
3.899443412108191
 20
-46.41909968261217
 30
0.0
 11
0.4353424155452572
 21
-44.4190988466666
 31
0.0
  0
LINE
  5
3EF
  8
0
  6
CONTINUOUS
 62
     3
 10
7.363549065251114
 20
-44.41911917004728
 30
0.0
 11
3.89944745011335
 21
-46.41911917004728
 31
0.0
  0
ARC
  5
3F0
  8
0
  6
CONTINUOUS
 62
     3
 10
3.899442593619746
 20
-42.41911075835361
 30
0.0
 40
8.0
 50
119.9999949910437
 51
300.0
  0
LINE
  5
3F1
  8
0
  6
CONTINUOUS
 62
     3
 10
-0.1005574602249268
 20
-35.49090755916524
 30
0.0
 11
5.528593494053276
 21
-32.24091574040375
 31
0.0
  0
LINE
  5
3F2
  8
0
  6
CONTINUOUS
 62
     3
 10
7.899442647464475
 20
-49.34731395754187
 30
0.0
 11
13.52859360174262
 21
-46.09732213878039
 31
0.0
  0
LINE
  5
3F3
  8
0
  6
CONTINUOUS
 62
     3
 10
27.67090045172319
 20
-46.59251754277506
 30
0.0
 11
44.92089760717443
 21
-76.4703895826903
 31
0.0
  0
LINE
  5
3F4
  8
0
  6
CONTINUOUS
 62
     3
 10
-132.6272015658006
 20
57.02816653516121
 30
0.0
 11
-128.1272015658006
 21
57.02816653516121
 31
0.0
  0
LINE
  5
3F5
  8
0
  6
CONTINUOUS
 62
     3
 10
-107.6272015658006
 20
-47.57952236864739
 30
0.0
 11
-105.6272015658006
 21
-45.57952236864739
 31
0.0
  0
LINE
  5
3F6
  8
0
  6
DIVIDE
 62
     9
 10
-185.1272015658006
 20
61.92047763135261
 30
0.0
 11
-183.7984051790818
 21
61.92047763135261
 31
0.0
  0
LINE
  5
3F7
  8
0
  6
DIVIDE
 62
     9
 10
-119.6272015658006
 20
61.42047763135261
 30
0.0
 11
-119.6272015658006
 21
38.87336612012214
 31
0.0
  0
LINE
  5
3F8
  8
0
  6
DIVIDE
 62
     9
 10
-120.1272050414092
 20
61.920480607683
 30
0.0
 11
-119.6272045106145
 21
61.42048007688825
 31
0.0
  0
LINE
  5
3F9
  8
0
  6
DIVIDE
 62
     9
 10
-125.0349774447068
 20
61.92047763135261
 30
0.0
 11
-120.1272015658006
 21
61.92047763135261
 31
0.0
  0
LINE
  5
3FA
  8
0
  6
CENTER
 62
     9
 10
84.99507932740637
 20
-14.02253240019371
 30
0.0
 11
88.03943359157974
 21
-19.29550866198093
 31
0.0
  0
LINE
  5
3FB
  8
0
  6
CENTER
 62
     9
 10
84.31378103049168
 20
-17.93119766317399
 30
0.0
 11
89.5867572922789
 21
-14.88684339900065
 31
0.0
  0
LINE
  5
3FC
  8
0
  6
CENTER
 62
     9
 10
65.31376645715645
 20
14.97779292239177
 30
0.0
 11
70.58674271894364
 21
18.02214718656511
 31
0.0
  0
LINE
  5
3FD
  8
0
  6
CENTER
 62
     9
 10
69.0394190182445
 20
13.61348192358483
 30
0.0
 11
65.99506475407114
 21
18.88645818537205
 31
0.0
  0
LINE
  5
3FE
  8
0
  6
CONTINUOUS
 62
     4
 10
-143.6272015658006
 20
12.62047839429207
 30
0.0
 11
-132.6272015658006
 21
12.62047839429207
 31
0.0
  0
LINE
  5
3FF
  8
0
  6
CONTINUOUS
 62
     4
 10
-117.6272015658006
 20
-6.079520461298756
 30
0.0
 11
-105.6272015658006
 21
-6.079520461298756
 31
0.0
  0
LINE
  5
400
  8
0
  6
CONTINUOUS
 62
     4
 10
-117.6272015658006
 20
-0.0795218918102307
 30
0.0
 11
-105.6272015658006
 21
-0.0795218918102307
 31
0.0
  0
LINE
  5
401
  8
0
  6
CONTINUOUS
 62
     4
 10
-206.6272015658006
 20
-21.56452107165032
 30
0.0
 11
-171.6272015658006
 21
-21.56452107165032
 31
0.0
  0
LINE
  5
402
  8
0
  6
CONTINUOUS
 62
     4
 10
-206.6272015658006
 20
-13.36452412340813
 30
0.0
 11
-171.6272015658006
 21
-13.36452412340813
 31
0.0
  0
LINE
  5
403
  8
0
  6
CONTINUOUS
 62
     4
 10
-143.6272015658006
 20
55.42047763135263
 30
0.0
 11
-132.6272015658006
 21
55.42047763135263
 31
0.0
  0
LINE
  5
404
  8
0
  6
CONTINUOUS
 62
     4
 10
-143.6272015658006
 20
52.42047763135263
 30
0.0
 11
-132.6272015658006
 21
52.42047763135263
 31
0.0
  0
LINE
  5
405
  8
0
  6
CONTINUOUS
 62
     4
 10
-117.1272061255558
 20
107.7204806831104
 30
0.0
 11
-95.62720994025305
 21
107.7204806831104
 31
0.0
  0
LINE
  5
406
  8
0
  6
CONTINUOUS
 62
     4
 10
-117.1272061255558
 20
101.1204745795948
 30
0.0
 11
-95.62720994025305
 21
101.1204745795948
 31
0.0
  0
LINE
  5
407
  8
0
  6
CONTINUOUS
 62
     4
 10
-117.1272061255558
 20
76.12048220898933
 30
0.0
 11
-95.62720994025305
 21
76.12048220898933
 31
0.0
  0
LINE
  5
408
  8
0
  6
CONTINUOUS
 62
     4
 10
-117.1272061255558
 20
82.72047305371589
 30
0.0
 11
-95.62720994025305
 21
82.72047305371589
 31
0.0
  0
LINE
  5
409
  8
0
  6
CONTINUOUS
 62
     4
 10
-103.6272061255558
 20
123.4204852607472
 30
0.0
 11
-103.6272061255558
 21
112.4204776313526
 31
0.0
  0
LINE
  5
40A
  8
0
  6
CONTINUOUS
 62
     4
 10
-103.6272061255558
 20
71.42047763135261
 30
0.0
 11
-103.6272061255558
 21
66.42047763135261
 31
0.0
  0
LINE
  5
40B
  8
0
  6
CONTINUOUS
 62
     4
 10
-104.6272061255558
 20
123.4204852607472
 30
0.0
 11
-104.6272061255558
 21
112.4204776313526
 31
0.0
  0
LINE
  5
40C
  8
0
  6
CONTINUOUS
 62
     4
 10
-104.6272061255558
 20
71.42047763135261
 30
0.0
 11
-104.6272061255558
 21
66.42047763135261
 31
0.0
  0
LINE
  5
40D
  8
0
  6
CONTINUOUS
 62
     4
 10
-143.6272015658006
 20
57.22047686841314
 30
0.0
 11
-132.6272015658006
 21
57.22047686841314
 31
0.0
  0
LINE
  5
40E
  8
0
  6
CONTINUOUS
 62
     4
 10
-151.1272015658006
 20
-31.57952236864739
 30
0.0
 11
-151.1272015658006
 21
-47.57952236864739
 31
0.0
  0
LINE
  5
40F
  8
0
  6
CONTINUOUS
 62
     4
 10
-143.1272015658006
 20
-31.57952236864739
 30
0.0
 11
-143.1272015658006
 21
-47.57952236864739
 31
0.0
  0
ARC
  5
410
  8
0
  6
CONTINUOUS
 62
     4
 10
136.9895164049187
 20
34.42047939205681
 30
0.0
 40
44.99999865889554
 50
277.9631511242996
 51
308.3427499675329
  0
ARC
  5
411
  8
0
  6
CONTINUOUS
 62
     4
 10
136.9895164049187
 20
34.42047939205681
 30
0.0
 40
50.9999984800816
 50
287.1046421584989
 51
310.7546127068695
  0
ARC
  5
412
  8
0
  6
CONTINUOUS
 62
     4
 10
136.9895164049187
 20
34.42047939205681
 30
0.0
 40
44.99999865889554
 50
110.8649600036815
 51
142.036830054785
  0
ARC
  5
413
  8
0
  6
CONTINUOUS
 62
     4
 10
136.9895164049187
 20
34.42047939205681
 30
0.0
 40
50.9999984800816
 50
108.6370069379367
 51
133.9074023008524
  0
ARC
  5
414
  8
0
  6
CONTINUOUS
 62
     4
 10
136.9895164049187
 20
34.42047939205681
 30
0.0
 40
50.9999984800816
 50
348.9222536427134
 51
372.9146369421023
  0
ARC
  5
415
  8
0
  6
CONTINUOUS
 62
     4
 10
136.9895164049187
 20
34.42047939205681
 30
0.0
 40
44.99999865889554
 50
351.3900223341801
 51
382.0368215928389
  0
ARC
  5
416
  8
0
  6
CONTINUOUS
 62
     4
 10
136.9895164049187
 20
34.42047939205681
 30
0.0
 40
44.99999865889554
 50
37.96316129379301
 51
69.14942938366689
  0
ARC
  5
417
  8
0
  6
CONTINUOUS
 62
     4
 10
136.9895164049187
 20
34.42047939205681
 30
0.0
 40
50.9999984800816
 50
166.627204953745
 51
190.7789451042069
  0
ARC
  5
418
  8
0
  6
CONTINUOUS
 62
     4
 10
136.9895164049187
 20
34.42047939205681
 30
0.0
 40
44.99999865889554
 50
157.9631782934756
 51
188.3639131570954
  0
ARC
  5
419
  8
0
  6
CONTINUOUS
 62
     4
 10
136.9895164049187
 20
34.42047939205681
 30
0.0
 40
44.99999865889554
 50
231.3784401166855
 51
262.0368302063657
  0
ARC
  5
41A
  8
0
  6
CONTINUOUS
 62
     4
 10
136.9895164049187
 20
34.42047939205681
 30
0.0
 40
50.9999984800816
 50
228.9575068861311
 51
252.8953391721665
  0
ARC
  5
41B
  8
0
  6
CONTINUOUS
 62
     4
 10
136.9895164049187
 20
34.42047939205681
 30
0.0
 40
50.9999984800816
 50
46.35595772702669
 51
71.57561502969296
  0
CIRCLE
  5
41C
  8
0
  6
CONTINUOUS
 62
     4
 10
136.9895164049187
 20
34.42048908611523
 30
0.0
 40
22.39999961853027
  0
CIRCLE
  5
41D
  8
0
  6
CONTINUOUS
 62
     4
 10
136.9895164049187
 20
53.92048908611524
 30
0.0
 40
1.5
  0
CIRCLE
  5
41E
  8
0
  6
CONTINUOUS
 62
     4
 10
120.1020080613776
 20
24.67047190397129
 30
0.0
 40
1.5
  0
CIRCLE
  5
41F
  8
0
  6
CONTINUOUS
 62
     4
 10
153.8770201740161
 20
24.67046926291501
 30
0.0
 40
1.5
  0
CIRCLE
  5
420
  8
0
  6
CONTINUOUS
 62
     4
 10
136.9895164049187
 20
-3.579520607876944
 30
0.0
 40
3.0
  0
ARC
  5
421
  8
0
  6
CONTINUOUS
 62
     4
 10
136.9895148801041
 20
34.42047675100052
 30
0.0
 40
38.99999865889553
 50
234.4921029259843
 51
264.7025555729279
  0
ARC
  5
422
  8
0
  6
CONTINUOUS
 62
     4
 10
136.9895148801041
 20
34.42047675100052
 30
0.0
 40
38.99999865889553
 50
275.3300600032171
 51
305.175761740961
  0
CIRCLE
  5
423
  8
0
  6
CONTINUOUS
 62
     4
 10
104.0805510611674
 20
53.42047410991108
 30
0.0
 40
3.0
  0
CIRCLE
  5
424
  8
0
  6
CONTINUOUS
 62
     4
 10
169.8984817486699
 20
53.42035120641651
 30
0.0
 40
2.999999999999999
  0
ARC
  5
425
  8
0
  6
CONTINUOUS
 62
     4
 10
136.9895148801041
 20
34.42047675100052
 30
0.0
 40
38.99999865889552
 50
354.4921029259843
 51
384.5622755573315
  0
ARC
  5
426
  8
0
  6
CONTINUOUS
 62
     4
 10
136.9895148801041
 20
34.42047675100052
 30
0.0
 40
38.99999865889552
 50
34.93471642956379
 51
65.17576174096102
  0
ARC
  5
427
  8
0
  6
CONTINUOUS
 62
     4
 10
136.9895164049187
 20
34.42047939205681
 30
0.0
 40
38.99999865889554
 50
114.4921029259844
 51
144.9379922183853
  0
ARC
  5
428
  8
0
  6
CONTINUOUS
 62
     4
 10
136.9895164049187
 20
34.42047939205681
 30
0.0
 40
38.99999865889554
 50
155.6048784805481
 51
185.175761740961
  0
LINE
  5
429
  8
0
  6
CONTINUOUS
 62
     4
 10
130.4894790362826
 20
120.920360915538
 30
0.0
 11
122.9895020254247
 21
120.9203613609687
 31
0.0
  0
LINE
  5
42A
  8
0
  6
CONTINUOUS
 62
     4
 10
130.4895018353794
 20
119.4203609357284
 30
0.0
 11
122.9895019363382
 21
119.4203613811605
 31
0.0
  0
LINE
  5
42B
  8
0
  6
CONTINUOUS
 62
     4
 10
130.489501746293
 20
117.9203609559201
 30
0.0
 11
122.9895018472518
 21
117.9203614013522
 31
0.0
  0
LINE
  5
42C
  8
0
  6
CONTINUOUS
 62
     4
 10
130.4895016572066
 20
116.4203609761119
 30
0.0
 11
122.9895017581654
 21
116.420361421544
 31
0.0
  0
LINE
  5
42D
  8
0
  6
CONTINUOUS
 62
     4
 10
130.4894786799369
 20
114.920360996305
 30
0.0
 11
122.989501669079
 21
114.9203614417357
 31
0.0
  0
LINE
  5
42E
  8
0
  6
CONTINUOUS
 62
     4
 10
130.4895014790337
 20
113.4203610164954
 30
0.0
 11
122.9895015799925
 21
113.4203614619275
 31
0.0
  0
LINE
  5
42F
  8
0
  6
CONTINUOUS
 62
     4
 10
150.9895090106469
 20
116.420359758597
 30
0.0
 11
143.4895091116057
 21
116.4203602040291
 31
0.0
  0
LINE
  5
430
  8
0
  6
CONTINUOUS
 62
     4
 10
150.9895092779062
 20
120.9203596980217
 30
0.0
 11
143.4894750465901
 21
120.9203601434559
 31
0.0
  0
LINE
  5
431
  8
0
  6
CONTINUOUS
 62
     4
 10
150.9895091888198
 20
119.4203597182135
 30
0.0
 11
143.4895092897786
 21
119.4203601636456
 31
0.0
  0
LINE
  5
432
  8
0
  6
CONTINUOUS
 62
     4
 10
150.9895090997334
 20
117.9203597384052
 30
0.0
 11
143.4895092006922
 21
117.9203601838373
 31
0.0
  0
LINE
  5
433
  8
0
  6
CONTINUOUS
 62
     4
 10
150.9895089215606
 20
114.9203597787887
 30
0.0
 11
143.4894746902444
 21
114.920360224223
 31
0.0
  0
LINE
  5
434
  8
0
  6
CONTINUOUS
 62
     4
 10
150.9895088324741
 20
113.4203597989805
 30
0.0
 11
143.4895089334329
 21
113.4203602444126
 31
0.0
  0
LINE
  5
435
  8
0
  6
CONTINUOUS
 62
     4
 10
130.4894988955289
 20
69.92038372295292
 30
0.0
 11
122.9894989964877
 21
69.920384168385
 31
0.0
  0
LINE
  5
436
  8
0
  6
CONTINUOUS
 62
     4
 10
130.4894989846153
 20
71.42038370276117
 30
0.0
 11
122.9894990855741
 21
71.42038414819325
 31
0.0
  0
LINE
  5
437
  8
0
  6
CONTINUOUS
 62
     4
 10
130.4894761855185
 20
72.92038368257079
 30
0.0
 11
122.9894991746605
 21
72.9203841280015
 31
0.0
  0
LINE
  5
438
  8
0
  6
CONTINUOUS
 62
     4
 10
130.4894991627882
 20
74.42038366237767
 30
0.0
 11
122.989499263747
 21
74.42038410780975
 31
0.0
  0
LINE
  5
439
  8
0
  6
CONTINUOUS
 62
     4
 10
130.4894758291728
 20
66.92038376333781
 30
0.0
 11
122.9894988183149
 21
66.92038420876853
 31
0.0
  0
LINE
  5
43A
  8
0
  6
CONTINUOUS
 62
     4
 10
130.4894988064425
 20
68.4203837431447
 30
0.0
 11
122.9894989074013
 21
68.42038418857678
 31
0.0
  0
LINE
  5
43B
  8
0
  6
CONTINUOUS
 62
     4
 10
150.9895063380557
 20
71.42038248524636
 30
0.0
 11
143.4895064390145
 21
71.42038293067844
 31
0.0
  0
LINE
  5
43C
  8
0
  6
CONTINUOUS
 62
     4
 10
150.9895064271421
 20
72.92038246505462
 30
0.0
 11
143.489472195826
 21
72.92038291048871
 31
0.0
  0
LINE
  5
43D
  8
0
  6
CONTINUOUS
 62
     4
 10
150.9895065162285
 20
74.42038244486281
 30
0.0
 11
143.4895066171874
 21
74.42038289029492
 31
0.0
  0
LINE
  5
43E
  8
0
  6
CONTINUOUS
 62
     4
 10
150.9895060707964
 20
66.92038254582164
 30
0.0
 11
143.4894718394803
 21
66.92038299125574
 31
0.0
  0
LINE
  5
43F
  8
0
  6
CONTINUOUS
 62
     4
 10
150.9895061598829
 20
68.42038252562989
 30
0.0
 11
143.4895062608417
 21
68.42038297106194
 31
0.0
  0
LINE
  5
440
  8
0
  6
CONTINUOUS
 62
     4
 10
150.9895062489693
 20
69.92038250543811
 30
0.0
 11
143.4895063499281
 21
69.92038295087019
 31
0.0
  0
LINE
  5
441
  8
0
  6
CONTINUOUS
 62
     4
 10
65.32832925356561
 20
-14.45872823138693
 30
0.0
 11
69.07831737324025
 21
-20.95389907330451
 31
0.0
  0
LINE
  5
442
  8
0
  6
CONTINUOUS
 62
     4
 10
66.62735594220848
 20
-13.70870849688505
 30
0.0
 11
70.37735550597355
 21
-20.20389916055152
 31
0.0
  0
LINE
  5
443
  8
0
  6
CONTINUOUS
 62
     4
 10
67.92639407494173
 20
-12.95870858413201
 30
0.0
 11
71.67639363870683
 21
-19.4538992477985
 31
0.0
  0
LINE
  5
444
  8
0
  6
CONTINUOUS
 62
     4
 10
69.22543220767503
 20
-12.20870867137901
 30
0.0
 11
72.9754317714401
 21
-18.70389933504545
 31
0.0
  0
LINE
  5
445
  8
0
  6
CONTINUOUS
 62
     4
 10
70.52448178449882
 20
-11.45872858037484
 30
0.0
 11
74.2744699041734
 21
-17.95389942229245
 31
0.0
  0
LINE
  5
446
  8
0
  6
CONTINUOUS
 62
     4
 10
71.82350847314163
 20
-10.70870884587296
 30
0.0
 11
75.57350803690673
 21
-17.20389950953943
 31
0.0
  0
LINE
  5
447
  8
0
  6
CONTINUOUS
 62
     4
 10
58.97542958535368
 20
5.54481908322559
 30
0.0
 11
62.72542914911875
 21
-0.9503715804408728
 31
0.0
  0
LINE
  5
448
  8
0
  6
CONTINUOUS
 62
     4
 10
56.37735331988708
 20
4.044819257719581
 30
0.0
 11
60.12735288365218
 21
-2.450371405946882
 31
0.0
  0
LINE
  5
449
  8
0
  6
CONTINUOUS
 62
     4
 10
57.67639145262038
 20
4.794819170472593
 30
0.0
 11
61.42639101638548
 21
-1.700371493193856
 31
0.0
  0
LINE
  5
44A
  8
0
  6
CONTINUOUS
 62
     4
 10
60.27446771808698
 20
6.294818995978645
 30
0.0
 11
64.0244844479877
 21
-0.2004014003111649
 31
0.0
  0
LINE
  5
44B
  8
0
  6
CONTINUOUS
 62
     4
 10
61.57350585082023
 20
7.044818908731614
 30
0.0
 11
65.32350541458536
 21
0.5496282450652075
 31
0.0
  0
LINE
  5
44C
  8
0
  6
CONTINUOUS
 62
     4
 10
97.94655441009333
 20
28.04480540536902
 30
0.0
 11
101.6965539738584
 21
21.54961474170257
 31
0.0
  0
LINE
  5
44D
  8
0
  6
CONTINUOUS
 62
     4
 10
96.64751627736003
 20
27.29480549261596
 30
0.0
 11
100.3975330072609
 21
20.79958509632623
 31
0.0
  0
LINE
  5
44E
  8
0
  6
CONTINUOUS
 62
     4
 10
95.34847814462678
 20
26.54480557986297
 30
0.0
 11
99.09847770839185
 21
20.04961491619652
 31
0.0
  0
LINE
  5
44F
  8
0
  6
CONTINUOUS
 62
     4
 10
101.8436688082932
 20
30.29480514362804
 30
0.0
 11
105.5936855381941
 21
23.79958474733827
 31
0.0
  0
LINE
  5
450
  8
0
  6
CONTINUOUS
 62
     4
 10
100.5446306755599
 20
29.54480523087501
 30
0.0
 11
104.2946302393251
 21
23.04961456720859
 31
0.0
  0
LINE
  5
451
  8
0
  6
CONTINUOUS
 62
     4
 10
99.24559254282663
 20
28.79480531812202
 30
0.0
 11
102.9955921065918
 21
22.29961465445557
 31
0.0
  0
LINE
  5
452
  8
0
  6
CONTINUOUS
 62
     4
 10
109.4955951651481
 20
11.04127756351743
 30
0.0
 11
113.2455947289132
 21
4.546086899850977
 31
0.0
  0
LINE
  5
453
  8
0
  6
CONTINUOUS
 62
     4
 10
108.1965570324148
 20
10.2912776507644
 30
0.0
 11
111.9465565961799
 21
3.796086987097951
 31
0.0
  0
LINE
  5
454
  8
0
  6
CONTINUOUS
 62
     4
 10
106.8975303437719
 20
9.541257916262552
 30
0.0
 11
110.6475184634466
 21
3.046087074344953
 31
0.0
  0
LINE
  5
455
  8
0
  6
CONTINUOUS
 62
     4
 10
105.5984807669482
 20
8.791277825258376
 30
0.0
 11
109.3484803307133
 21
2.296087161591927
 31
0.0
  0
LINE
  5
456
  8
0
  6
CONTINUOUS
 62
     4
 10
112.0936828747051
 20
12.5412575672746
 30
0.0
 11
115.8436709943798
 21
6.046086725357
 31
0.0
  0
LINE
  5
457
  8
0
  6
CONTINUOUS
 62
     4
 10
110.7946332978813
 20
11.79127747627042
 30
0.0
 11
114.5446328616465
 21
5.296086812603974
 31
0.0
  0
LINE
  5
458
  8
0
  6
CONTINUOUS
 62
     4
 10
215.1506344873592
 20
-3.200394709560229
 30
0.0
 11
218.9006233785426
 21
3.294775686926627
 31
0.0
  0
LINE
  5
459
  8
0
  6
CONTINUOUS
 62
     4
 10
213.8515849996196
 20
-2.450414464252475
 30
0.0
 11
217.6015853348957
 21
4.044775753981867
 31
0.0
  0
LINE
  5
45A
  8
0
  6
CONTINUOUS
 62
     4
 10
212.5525469559727
 20
-1.700414397197307
 30
0.0
 11
216.3025472912488
 21
4.794775821037092
 31
0.0
  0
LINE
  5
45B
  8
0
  6
CONTINUOUS
 62
     4
 10
211.2535089123258
 20
-0.9504143301420669
 30
0.0
 11
215.0035092476019
 21
5.544775888092275
 31
0.0
  0
LINE
  5
45C
  8
0
  6
CONTINUOUS
 62
     4
 10
209.9544823127718
 20
-0.2003944413393271
 30
0.0
 11
213.7044712039551
 21
6.294775955147514
 31
0.0
  0
LINE
  5
45D
  8
0
  6
CONTINUOUS
 62
     4
 10
208.6554328250321
 20
0.5495858039683839
 30
0.0
 11
212.4054331603082
 21
7.044776022202768
 31
0.0
  0
LINE
  5
45E
  8
0
  6
CONTINUOUS
 62
     4
 10
201.0035041812068
 20
-18.70394086723177
 30
0.0
 11
204.7535045164829
 21
-12.20875064899742
 31
0.0
  0
LINE
  5
45F
  8
0
  6
CONTINUOUS
 62
     4
 10
204.9006183121473
 20
-20.95394106839743
 30
0.0
 11
208.6506358135628
 21
-14.45872111754187
 31
0.0
  0
LINE
  5
460
  8
0
  6
CONTINUOUS
 62
     4
 10
203.6015802685005
 20
-20.20394100134224
 30
0.0
 11
207.3515806037767
 21
-13.70875078310786
 31
0.0
  0
LINE
  5
461
  8
0
  6
CONTINUOUS
 62
     4
 10
202.3025422248537
 20
-19.453940934287
 30
0.0
 11
206.0525425601298
 21
-12.95875071605263
 31
0.0
  0
LINE
  5
462
  8
0
  6
CONTINUOUS
 62
     4
 10
199.7044661375599
 20
-17.95394080017655
 30
0.0
 11
203.4544836389753
 21
-11.45872084932098
 31
0.0
  0
LINE
  5
463
  8
0
  6
CONTINUOUS
 62
     4
 10
198.405428093913
 20
-17.20394073312134
 30
0.0
 11
202.1554284291892
 21
-10.70875051488697
 31
0.0
  0
LINE
  5
464
  8
0
  6
CONTINUOUS
 62
     4
 10
162.0323820290583
 20
3.796050083975459
 30
0.0
 11
165.7823823643345
 21
10.2912403022098
 31
0.0
  0
LINE
  5
465
  8
0
  6
CONTINUOUS
 62
     4
 10
163.3314200727053
 20
3.046050016920248
 30
0.0
 11
167.0814375741206
 21
9.541269967775875
 31
0.0
  0
LINE
  5
466
  8
0
  6
CONTINUOUS
 62
     4
 10
164.6304581163521
 20
2.296049949865051
 30
0.0
 11
168.3804584516282
 21
8.791240168099392
 31
0.0
  0
LINE
  5
467
  8
0
  6
CONTINUOUS
 62
     4
 10
158.1352678981178
 20
6.046050285141135
 30
0.0
 11
161.8852853995331
 21
12.54127023599682
 31
0.0
  0
LINE
  5
468
  8
0
  6
CONTINUOUS
 62
     4
 10
159.4343059417647
 20
5.29605021808591
 30
0.0
 11
163.1843062770407
 21
11.79124043632029
 31
0.0
  0
LINE
  5
469
  8
0
  6
CONTINUOUS
 62
     4
 10
160.7333439854115
 20
4.546050151030698
 30
0.0
 11
164.4833443206875
 21
11.04124036926508
 31
0.0
  0
LINE
  5
46A
  8
0
  6
CONTINUOUS
 62
     4
 10
170.9833487165304
 20
22.29957668812048
 30
0.0
 11
174.7333490518066
 21
28.79476690635482
 31
0.0
  0
LINE
  5
46B
  8
0
  6
CONTINUOUS
 62
     4
 10
172.2823867601773
 20
21.54957662106526
 30
0.0
 11
176.0323870954534
 21
28.0447668392996
 31
0.0
  0
LINE
  5
46C
  8
0
  6
CONTINUOUS
 62
     4
 10
173.581436247917
 20
20.79959637575749
 30
0.0
 11
177.3314251391003
 21
27.29476677224436
 31
0.0
  0
LINE
  5
46D
  8
0
  6
CONTINUOUS
 62
     4
 10
174.8804628474711
 20
20.04957648695479
 30
0.0
 11
178.6304631827472
 21
26.54476670518913
 31
0.0
  0
LINE
  5
46E
  8
0
  6
CONTINUOUS
 62
     4
 10
168.3852840733295
 20
23.79959664397842
 30
0.0
 11
172.1352729645128
 21
30.29476704046529
 31
0.0
  0
LINE
  5
46F
  8
0
  6
CONTINUOUS
 62
     4
 10
169.6843106728836
 20
23.04957675517569
 30
0.0
 11
173.4343110081597
 21
29.54476697341006
 31
0.0
  0
LINE
  5
470
  8
0
  6
CONTINUOUS
 62
     4
 10
55.07831518715383
 20
3.29481934496657
 30
0.0
 11
58.82833191705456
 21
-3.200401051323212
 31
0.0
  0
LINE
  5
471
  8
0
  6
CONTINUOUS
 62
     4
 10
18.03695027609067
 20
-27.90599386715735
 30
0.0
 11
13.03693462987187
 21
-19.24571288470378
 31
0.0
  0
LINE
  5
472
  8
0
  6
CONTINUOUS
 62
     4
 10
28.53694996316629
 20
-46.09252647821353
 30
0.0
 11
23.53694915850371
 21
-37.43227120208877
 31
0.0
  0
LINE
  5
473
  8
0
  6
CONTINUOUS
 62
     4
 10
20.81897448380682
 20
-28.72463370814631
 30
0.0
 11
26.88116606122997
 21
-25.22462570622298
 31
0.0
  0
LINE
  5
474
  8
0
  6
CONTINUOUS
 62
     4
 10
24.21896827896345
 20
-34.61359560108014
 30
0.0
 11
30.2811598563867
 21
-31.1135875991568
 31
0.0
  0
LINE
  5
475
  8
0
  6
CONTINUOUS
 62
     3
 10
-117.6272015658006
 20
-0.0795218918102307
 30
0.0
 11
-117.6272015658006
 21
-6.079520461298756
 31
0.0
  0
LINE
  5
476
  8
0
  6
CONTINUOUS
 62
     3
 10
-120.6272015658006
 20
-0.5795218918102307
 30
0.0
 11
-120.6272015658006
 21
-5.579520461298756
 31
0.0
  0
LINE
  5
477
  8
0
  6
CONTINUOUS
 62
     3
 10
-116.6272015658006
 20
-8.714522597529225
 30
0.0
 11
-116.6272015658006
 21
-26.21452259752923
 31
0.0
  0
LINE
  5
478
  8
0
  6
CONTINUOUS
 62
     3
 10
-120.6272015658006
 20
-0.5795218918102307
 30
0.0
 11
-105.6272015658006
 21
-0.5795218918102307
 31
0.0
  0
LINE
  5
479
  8
0
  6
CONTINUOUS
 62
     3
 10
-120.6272015658006
 20
-5.579520461298756
 30
0.0
 11
-105.6272015658006
 21
-5.579520461298756
 31
0.0
  0
LINE
  5
47A
  8
0
  6
CONTINUOUS
 62
     3
 10
-187.6272046175584
 20
-22.96452259752923
 30
0.0
 11
-116.6272015658006
 21
-22.96452259752923
 31
0.0
  0
LINE
  5
47B
  8
0
  6
CONTINUOUS
 62
     3
 10
-187.6272046175584
 20
-11.96452259752923
 30
0.0
 11
-116.6272015658006
 21
-11.96452259752923
 31
0.0
  0
LINE
  5
47C
  8
0
  6
CONTINUOUS
 62
     3
 10
-116.6272015658006
 20
-26.21452259752923
 30
0.0
 11
-105.6272015658006
 21
-26.21452259752923
 31
0.0
  0
LINE
  5
47D
  8
0
  6
CONTINUOUS
 62
     3
 10
-116.6272015658006
 20
-8.714522597529225
 30
0.0
 11
-105.6272015658006
 21
-8.714522597529225
 31
0.0
  0
LINE
  5
47E
  8
0
  6
CONTINUOUS
 62
     3
 10
-122.0705832079964
 20
-3.079522539150588
 30
0.0
 11
-120.6272064947948
 21
-0.5795210803176758
 31
0.0
  0
LINE
  5
47F
  8
0
  6
CONTINUOUS
 62
     3
 10
-122.0705981743463
 20
-3.079525795301009
 30
0.0
 11
-120.6272214611447
 21
-5.579527254133922
 31
0.0
  0
LINE
  5
480
  8
0
  6
CONTINUOUS
 62
     3
 10
-206.6272015658006
 20
-12.46452259752923
 30
0.0
 11
-206.6272015658006
 21
-22.46452259752923
 31
0.0
  0
LINE
  5
481
  8
0
  6
CONTINUOUS
 62
     3
 10
-171.6272015658006
 20
-12.46452259752923
 30
0.0
 11
-171.6272015658006
 21
-22.46452259752923
 31
0.0
  0
LINE
  5
482
  8
0
  6
CONTINUOUS
 62
     3
 10
-206.6272015658006
 20
-22.46452259752923
 30
0.0
 11
-116.6272015658006
 21
-22.46452259752923
 31
0.0
  0
LINE
  5
483
  8
0
  6
CONTINUOUS
 62
     3
 10
-206.6272015658006
 20
-12.46452259752923
 30
0.0
 11
-116.6272015658006
 21
-12.46452259752923
 31
0.0
  0
LINE
  5
484
  8
0
  6
CONTINUOUS
 62
     3
 10
-116.6272015658006
 20
-25.46452259752923
 30
0.0
 11
-106.6272015658006
 21
-25.46452259752923
 31
0.0
  0
LINE
  5
485
  8
0
  6
CONTINUOUS
 62
     3
 10
-116.6272015658006
 20
-9.464522597529225
 30
0.0
 11
-106.6272015658006
 21
-9.464522597529225
 31
0.0
  0
LINE
  5
486
  8
0
  6
CONTINUOUS
 62
     3
 10
-106.6272015658006
 20
-9.464522597529225
 30
0.0
 11
-106.6272015658006
 21
-25.46452259752923
 31
0.0
  0
LINE
  5
487
  8
0
  6
CONTINUOUS
 62
     3
 10
-110.6272061255558
 20
123.4204852607472
 30
0.0
 11
-110.6272061255558
 21
112.4204776313526
 31
0.0
  0
LINE
  5
488
  8
0
  6
CONTINUOUS
 62
     3
 10
-110.6272061255558
 20
71.42047763135261
 30
0.0
 11
-110.6272061255558
 21
66.42047763135261
 31
0.0
  0
LINE
  5
489
  8
0
  6
CONTINUOUS
 62
     3
 10
-117.6272061255558
 20
76.42047763135261
 30
0.0
 11
-117.6272061255558
 21
66.42047763135261
 31
0.0
  0
LINE
  5
48A
  8
0
  6
CONTINUOUS
 62
     3
 10
-117.6272061255558
 20
123.4204852607472
 30
0.0
 11
-117.6272061255558
 21
76.42047763135261
 31
0.0
  0
LINE
  5
48B
  8
0
  6
CONTINUOUS
 62
     3
 10
-118.1272061255558
 20
57.92017545308097
 30
0.0
 11
-128.1272061255558
 21
57.92017545308097
 31
0.0
  0
LINE
  5
48C
  8
0
  6
CONTINUOUS
 62
     3
 10
-128.1272061255558
 20
66.42047763135261
 30
0.0
 11
-128.1272061255558
 21
49.06261325508356
 31
0.0
  0
LINE
  5
48D
  8
0
  6
CONTINUOUS
 62
     3
 10
-118.1272061255558
 20
66.42047763135261
 30
0.0
 11
-118.1272061255558
 21
49.06261325508356
 31
0.0
  0
LINE
  5
48E
  8
0
  6
CONTINUOUS
 62
     3
 10
-128.1272015658006
 20
49.06261325508356
 30
0.0
 11
-118.1272015658006
 21
49.06261325508356
 31
0.0
  0
LINE
  5
48F
  8
0
  6
CONTINUOUS
 62
     3
 10
-143.7272015658006
 20
-29.07952236864739
 30
0.0
 11
-147.1272015658008
 21
-26.93105611097853
 31
0.0
  0
LINE
  5
490
  8
0
  6
CONTINUOUS
 62
     3
 10
-151.1272015658006
 20
-31.57952236864739
 30
0.0
 11
-143.1272015658006
 21
-31.57952236864739
 31
0.0
  0
LINE
  5
491
  8
0
  6
CONTINUOUS
 62
     3
 10
-143.7272015658006
 20
-29.07952236864739
 30
0.0
 11
-143.7272015658006
 21
-47.57952236864739
 31
0.0
  0
LINE
  5
492
  8
0
  6
CONTINUOUS
 62
     3
 10
-150.5272015658006
 20
-29.07952236864739
 30
0.0
 11
-143.7272015658006
 21
-29.07952236864739
 31
0.0
  0
LINE
  5
493
  8
0
  6
CONTINUOUS
 62
     3
 10
-150.5272015658006
 20
-29.07952236864739
 30
0.0
 11
-147.1272015658004
 21
-26.93105611097853
 31
0.0
  0
LINE
  5
494
  8
0
  6
CONTINUOUS
 62
     3
 10
-150.5272015658006
 20
-29.07952236864739
 30
0.0
 11
-150.5272015658006
 21
-47.57952236864739
 31
0.0
  0
LINE
  5
495
  8
0
  6
CONTINUOUS
 62
     3
 10
121.4895130521575
 20
65.4204901208926
 30
0.0
 11
152.4895197576798
 21
65.4204901208926
 31
0.0
  0
ARC
  5
496
  8
0
  6
CONTINUOUS
 62
     3
 10
136.9895164049187
 20
34.42047763135261
 30
0.0
 40
31.0
 50
59.99999284461611
 51
120.000007155384
  0
LINE
  5
497
  8
0
  6
CONTINUOUS
 62
     3
 10
117.8927567517163
 20
5.497138817144233
 30
0.0
 11
102.3927533989551
 21
32.34393214161456
 31
0.0
  0
LINE
  5
498
  8
0
  6
CONTINUOUS
 62
     3
 10
117.8927197477228
 20
5.497074724347428
 30
0.0
 11
102.3927163949616
 21
32.34386804881775
 31
0.0
  0
ARC
  5
499
  8
0
  6
CONTINUOUS
 62
     3
 10
136.9895164049187
 20
34.42047763135261
 30
0.0
 40
31.0
 50
179.9999928446161
 51
240.000007155384
  0
LINE
  5
49A
  8
0
  6
CONTINUOUS
 62
     3
 10
171.5863164148759
 20
32.34386804881778
 30
0.0
 11
156.0863130621146
 21
5.497074724347485
 31
0.0
  0
ARC
  5
49B
  8
0
  6
CONTINUOUS
 62
     3
 10
136.9895164049187
 20
34.42047763135261
 30
0.0
 40
30.99999999999999
 50
299.9999928446161
 51
360.000007155384
  0
ARC
  5
49C
  8
0
  6
CONTINUOUS
 62
     3
 10
136.9895164049187
 20
34.42047763135261
 30
0.0
 40
33.0
 50
118.0146345757617
 51
181.9853919054363
  0
ARC
  5
49D
  8
0
  6
CONTINUOUS
 62
     3
 10
136.9895164049187
 20
34.42047763135261
 30
0.0
 40
33.0
 50
238.014584979118
 51
301.9853735038553
  0
ARC
  5
49E
  8
0
  6
CONTINUOUS
 62
     3
 10
136.9895164049187
 20
34.42047763135261
 30
0.0
 40
33.0
 50
358.0146418346921
 51
421.9853654242385
  0
CIRCLE
  5
49F
  8
0
  6
CONTINUOUS
 62
     3
 10
136.9895164049187
 20
34.42048908611523
 30
0.0
 40
16.0
  0
CIRCLE
  5
4A0
  8
0
  6
CONTINUOUS
 62
     3
 10
136.9895164049187
 20
-3.579520607876944
 30
0.0
 40
2.5
  0
CIRCLE
  5
4A1
  8
0
  6
CONTINUOUS
 62
     3
 10
104.0805510611674
 20
53.42047410991108
 30
0.0
 40
2.5
  0
CIRCLE
  5
4A2
  8
0
  6
CONTINUOUS
 62
     3
 10
169.8984817486699
 20
53.42035120641651
 30
0.0
 40
2.499999999999999
  0
LINE
  5
4A3
  8
0
  6
CONTINUOUS
 62
     3
 10
131.4895203835286
 20
112.4204826107076
 30
0.0
 11
142.4894029391311
 21
112.4204826107076
 31
0.0
  0
LINE
  5
4A4
  8
0
  6
CONTINUOUS
 62
     3
 10
72.18941912100195
 20
-9.3427278674218
 30
0.0
 11
66.68947784320071
 21
0.1834498643752482
 31
0.0
  0
LINE
  5
4A5
  8
0
  6
CONTINUOUS
 62
     3
 10
207.2895032726769
 20
0.1834832313050754
 30
0.0
 11
201.7895619948756
 21
-9.342694500491973
 31
0.0
  0
LINE
  5
4A6
  8
0
  6
CONTINUOUS
 62
     3
 10
32.25936981020747
 20
-18.53994024096204
 30
0.0
 11
38.75936851355828
 21
-29.79826948813934
 31
0.0
  0
LINE
  5
4A7
  8
0
  6
CONTINUOUS
 62
     3
 10
-14.54191831432561
 20
-37.47773691491722
 30
0.0
 11
14.03691926533518
 21
-20.97773704902767
 31
0.0
  0
LINE
  5
4A8
  8
0
  6
CONTINUOUS
 62
     3
 10
-1.041890355013827
 20
-60.86047382741532
 30
0.0
 11
27.53694905983904
 21
-44.36047714017224
 31
0.0
  0
LINE
  5
4A9
  8
0
  6
CONTINUOUS
 62
     3
 10
-108.1272015658006
 20
57.02817608183626
 30
0.0
 11
-118.1272015658006
 21
57.02817608183626
 31
0.0
  0
ARC
  5
4AA
  8
0
  6
CONTINUOUS
 62
     3
 10
136.9895164049187
 20
34.42047939205681
 30
0.0
 40
80.49999754130847
 50
101.1014401367075
 51
198.8985710167555
  0
ARC
  5
4AB
  8
0
  6
CONTINUOUS
 62
     3
 10
136.9894053929264
 20
34.42041001714068
 30
0.0
 40
80.49999754130846
 50
221.1014401367075
 51
318.8985710167555
  0
ARC
  5
4AC
  8
0
  6
CONTINUOUS
 62
     3
 10
136.9894053929264
 20
34.42041001714068
 30
0.0
 40
80.49999754130845
 50
341.1014401367074
 51
438.8985710167555
  0
LINE
  5
4AD
  8
0
  6
CENTER
 62
     7
 10
-147.1272015658006
 20
-25.55199049082789
 30
0.0
 11
-147.1272015658006
 21
-66.02925908412638
 31
0.0
  0
TEXT
  5
4AE
  8
0
 62
     7
 10
-206.44958554298
 20
147.3276809916974
 30
0.0
 40
4.0
  1
MIN 0
 41
0.8
  7
FDASTYLE1
 72
     5
 11
-190.44958554298
 21
147.3276809916974
 31
0.0
  0
TEXT
  5
4AF
  8
0
 62
     7
 10
-177.6238816974814
 20
-65.86087351934619
 30
0.0
 40
4.0
  1
MIN26
 41
0.8
  7
FDASTYLE1
 72
     5
 11
-161.6238816974814
 21
-65.86087351934619
 31
0.0
  0
TEXT
  5
4B0
  8
0
 62
     7
 10
-70.78864016516889
 20
67.40521113945225
 30
0.0
 40
4.0
  1
MIN
 50
90.0
 41
0.8000000000000007
  7
FDASTYLE1
 72
     5
 11
-70.78864016516889
 21
77.00521113945226
 31
0.0
  0
TEXT
  5
4B1
  8
0
 62
     7
 10
-46.30279112318398
 20
39.88713259807845
 30
0.0
 40
4.0
  1
MAX39.5
 50
90.0
 41
0.8000000000000002
  7
FDASTYLE1
 72
     5
 11
-46.30279112318398
 21
62.28713259807846
 31
0.0
  0
TEXT
  5
4B2
  8
0
 62
     7
 10
-41.78187049055375
 20
39.68207927740287
 30
0.0
 40
4.0
  1
MIN23.5
 50
90.0
 41
0.7999999999999999
  7
FDASTYLE1
 72
     5
 11
-41.78187049055375
 21
62.08207927740287
 31
0.0
  0
INSERT
  5
4B3
  8
0
  6
CONTINUOUS
  2
DA_IMAGEDIMGROUP_1
 10
0.0
 20
0.0
 30
0.0
  0
INSERT
  5
4B4
  8
0
  6
CONTINUOUS
  2
DA_IMAGEDIMGROUP_2
 10
0.0
 20
0.0
 30
0.0
  0
INSERT
  5
4B5
  8
0
  6
CONTINUOUS
  2
DA_IMAGEDIMGROUP_3
 10
0.0
 20
0.0
 30
0.0
  0
INSERT
  5
4B6
  8
0
  6
CONTINUOUS
  2
DA_IMAGEDIMGROUP_4
 10
0.0
 20
0.0
 30
0.0
  0
INSERT
  5
4B7
  8
0
  6
CONTINUOUS
  2
DA_IMAGEDIMGROUP_5
 10
0.0
 20
0.0
 30
0.0
  0
INSERT
  5
4B8
  8
0
  6
CONTINUOUS
  2
DA_IMAGEDIMGROUP_6
 10
0.0
 20
0.0
 30
0.0
  0
INSERT
  5
4B9
  8
0
  6
CONTINUOUS
  2
DA_IMAGEDIMGROUP_7
 10
0.0
 20
0.0
 30
0.0
  0
INSERT
  5
4BA
  8
0
  6
CONTINUOUS
  2
DA_IMAGEDIMGROUP_8
 10
0.0
 20
0.0
 30
0.0
  0
INSERT
  5
4BB
  8
0
  6
CONTINUOUS
  2
DA_IMAGEDIMGROUP_9
 10
0.0
 20
0.0
 30
0.0
  0
INSERT
  5
4BC
  8
0
  6
CONTINUOUS
  2
DA_IMAGEDIMGROUP_10
 10
0.0
 20
0.0
 30
0.0
  0
INSERT
  5
4BD
  8
0
  6
CONTINUOUS
  2
DA_IMAGEDIMGROUP_11
 10
0.0
 20
0.0
 30
0.0
  0
INSERT
  5
4BE
  8
0
  6
CONTINUOUS
  2
DA_IMAGEDIMGROUP_12
 10
0.0
 20
0.0
 30
0.0
  0
INSERT
  5
4BF
  8
0
  6
CONTINUOUS
  2
DA_IMAGEDIMGROUP_13
 10
0.0
 20
0.0
 30
0.0
  0
INSERT
  5
4C0
  8
0
  6
CONTINUOUS
  2
DA_IMAGEDIMGROUP_14
 10
0.0
 20
0.0
 30
0.0
  0
INSERT
  5
4C1
  8
0
  6
CONTINUOUS
  2
DA_IMAGEDIMGROUP_15
 10
0.0
 20
0.0
 30
0.0
  0
INSERT
  5
4C2
  8
0
  6
CONTINUOUS
  2
DA_IMAGEDIMGROUP_16
 10
0.0
 20
0.0
 30
0.0
  0
INSERT
  5
4C3
  8
0
  6
CONTINUOUS
  2
DA_IMAGEDIMGROUP_17
 10
0.0
 20
0.0
 30
0.0
  0
INSERT
  5
4C4
  8
0
  6
CONTINUOUS
  2
DA_IMAGEDIMGROUP_18
 10
0.0
 20
0.0
 30
0.0
  0
INSERT
  5
4C5
  8
0
  6
CONTINUOUS
  2
DC_GROUP_1
 10
0.0
 20
0.0
 30
0.0
  0
INSERT
  5
4C6
  8
0
  6
CONTINUOUS
  2
DC_GROUP_2
 10
0.0
 20
0.0
 30
0.0
  0
INSERT
  5
4C7
  8
0
  6
CONTINUOUS
  2
DA_IMAGEDIMGROUP_19
 10
0.0
 20
0.0
 30
0.0
  0
INSERT
  5
4C8
  8
0
  6
CONTINUOUS
  2
DA_IMAGEDIMGROUP_20
 10
0.0
 20
0.0
 30
0.0
  0
INSERT
  5
4C9
  8
0
  6
CONTINUOUS
  2
DA_IMAGEDIMGROUP_21
 10
0.0
 20
0.0
 30
0.0
  0
INSERT
  5
4CA
  8
0
  6
CONTINUOUS
  2
DA_IMAGEDIMGROUP_22
 10
0.0
 20
0.0
 30
0.0
  0
INSERT
  5
4CB
  8
0
  6
CONTINUOUS
  2
DC_GROUP_3
 10
0.0
 20
0.0
 30
0.0
  0
INSERT
  5
4CC
  8
0
  6
CONTINUOUS
  2
DC_GROUP_4
 10
0.0
 20
0.0
 30
0.0
  0
INSERT
  5
4CD
  8
0
  6
CONTINUOUS
  2
DA_IMAGEDIMGROUP_23
 10
0.0
 20
0.0
 30
0.0
  0
INSERT
  5
4CE
  8
0
  6
CONTINUOUS
  2
DC_GROUP_5
 10
0.0
 20
0.0
 30
0.0
  0
INSERT
  5
4CF
  8
0
  6
CONTINUOUS
  2
DA_IMAGEDIMGROUP_24
 10
0.0
 20
0.0
 30
0.0
  0
INSERT
  5
4D0
  8
0
  6
CONTINUOUS
  2
DA_IMAGEDIMGROUP_25
 10
0.0
 20
0.0
 30
0.0
  0
INSERT
  5
4D1
  8
0
  6
CONTINUOUS
  2
DA_IMAGEDIMGROUP_26
 10
0.0
 20
0.0
 30
0.0
  0
INSERT
  5
4D2
  8
0
  6
CONTINUOUS
  2
DC_GROUP_6
 10
0.0
 20
0.0
 30
0.0
  0
INSERT
  5
4D3
  8
0
  6
CONTINUOUS
  2
DC_GROUP_7
 10
0.0
 20
0.0
 30
0.0
  0
INSERT
  5
4D4
  8
0
  6
CONTINUOUS
  2
DC_GROUP_8
 10
0.0
 20
0.0
 30
0.0
  0
INSERT
  5
4D5
  8
0
  6
CONTINUOUS
  2
DC_GROUP_9
 10
0.0
 20
0.0
 30
0.0
  0
LINE
  5
4D6
  8
0
  6
CONTINUOUS
 62
     2
 10
140.0205984679057
 20
101.6704829012801
 30
0.0
 11
140.0205984679057
 21
105.1704866116692
 31
0.0
  0
LINE
  5
4D7
  8
0
  6
CONTINUOUS
 62
     2
 10
136.9895136240913
 20
99.92047936543153
 30
0.0
 11
140.0206158157161
 21
101.6704866297461
 31
0.0
  0
LINE
  5
4D8
  8
0
  6
CONTINUOUS
 62
     2
 10
133.9584250157741
 20
101.6705011987424
 30
0.0
 11
136.9895267901646
 21
99.92049320426773
 31
0.0
  0
LINE
  5
4D9
  8
0
  6
CONTINUOUS
 62
     2
 10
133.9584228978402
 20
105.1704866116692
 30
0.0
 11
133.9584228978402
 21
101.6704829012801
 31
0.0
  0
LINE
  5
4DA
  8
0
  6
CONTINUOUS
 62
     2
 10
140.020581139806
 20
105.1704454802893
 30
0.0
 11
136.989489902138
 21
106.9204487957991
 31
0.0
  0
LINE
  5
4DB
  8
0
  6
CONTINUOUS
 62
     2
 10
136.989541146833
 20
106.9204992770881
 30
0.0
 11
133.9584383293566
 21
105.1704930558594
 31
0.0
  0
LINE
  5
4DC
  8
0
  6
CONTINUOUS
 62
     2
 10
140.0205984679057
 20
76.67048746103532
 30
0.0
 11
140.0205984679057
 21
80.17047972733289
 31
0.0
  0
LINE
  5
4DD
  8
0
  6
CONTINUOUS
 62
     2
 10
136.9894873709073
 20
74.92046803350641
 30
0.0
 11
140.0205697407833
 21
76.67046385373149
 31
0.0
  0
LINE
  5
4DE
  8
0
  6
CONTINUOUS
 62
     2
 10
133.9584196156621
 20
76.67046830721117
 30
0.0
 11
136.9895114791797
 21
74.92046603478372
 31
0.0
  0
LINE
  5
4DF
  8
0
  6
CONTINUOUS
 62
     2
 10
133.9584228978402
 20
80.17047972733292
 30
0.0
 11
133.9584228978402
 21
76.67048746103535
 31
0.0
  0
LINE
  5
4E0
  8
0
  6
CONTINUOUS
 62
     2
 10
140.020595662369
 20
80.17046228925895
 30
0.0
 11
136.989504424701
 21
81.92046560476885
 31
0.0
  0
LINE
  5
4E1
  8
0
  6
CONTINUOUS
 62
     2
 10
136.9894962952021
 20
81.92048207698483
 30
0.0
 11
133.9584033886023
 21
80.1704815777974
 31
0.0
  0
CIRCLE
  5
4E2
  8
0
  6
CONTINUOUS
 62
     2
 10
136.9895164049187
 20
103.4204904785204
 30
0.0
 40
6.50000004470348
  0
CIRCLE
  5
4E3
  8
0
  6
CONTINUOUS
 62
     2
 10
136.9895164049187
 20
78.42048359418411
 30
0.0
 40
6.50000004470348
  0
LINE
  5
4E4
  8
0
  6
CONTINUOUS
 62
     2
 10
77.23365291785288
 20
3.420402330031152
 30
0.0
 11
74.20256079131619
 21
1.670400474836626
 31
0.0
  0
LINE
  5
4E5
  8
0
  6
CONTINUOUS
 62
     2
 10
98.88428963296998
 20
8.92040587112659
 30
0.0
 11
101.9153718486327
 21
10.67040200427537
 31
0.0
  0
LINE
  5
4E6
  8
0
  6
CONTINUOUS
 62
     2
 10
98.88428406359999
 20
15.92040005015353
 30
0.0
 11
95.85320184793723
 21
14.17040391700475
 31
0.0
  0
LINE
  5
4E7
  8
0
  6
CONTINUOUS
 62
     2
 10
77.23364857634894
 20
-3.579597571041532
 30
0.0
 11
80.26474070288566
 21
-1.829595715847006
 31
0.0
  0
LINE
  5
4E8
  8
0
  6
CONTINUOUS
 62
     2
 10
74.20253402665529
 20
-1.829578498248665
 30
0.0
 11
77.23363527975826
 21
-3.579587429051387
 31
0.0
  0
CIRCLE
  5
4E9
  8
0
  6
CONTINUOUS
 62
     2
 10
77.23364293064108
 20
-0.0795955260910262
 30
0.0
 40
6.500000044703479
  0
LINE
  5
4EA
  8
0
  6
CONTINUOUS
 62
     2
 10
80.26474285851757
 20
1.670407622186161
 30
0.0
 11
77.23364101500144
 21
3.420415489442689
 31
0.0
  0
LINE
  5
4EB
  8
0
  6
CONTINUOUS
 62
     2
 10
74.2026050761859
 20
1.670406033952034
 30
0.0
 11
74.20260336708145
 21
-1.829597636811783
 31
0.0
  0
LINE
  5
4EC
  8
0
  6
CONTINUOUS
 62
     2
 10
80.26472379785159
 20
-1.829603030393542
 30
0.0
 11
80.26472429069722
 21
1.670412104922036
 31
0.0
  0
LINE
  5
4ED
  8
0
  6
CONTINUOUS
 62
     2
 10
101.9153900774201
 20
10.67040873873792
 30
0.0
 11
101.915390570264
 21
14.17041242996216
 31
0.0
  0
LINE
  5
4EE
  8
0
  6
CONTINUOUS
 62
     2
 10
95.85320644280803
 20
10.67039125915126
 30
0.0
 11
98.88429778503969
 21
8.920388050398728
 31
0.0
  0
CIRCLE
  5
4EF
  8
0
  6
CONTINUOUS
 62
     2
 10
98.88428398726212
 20
12.42040791607708
 30
0.0
 40
6.500000044703479
  0
LINE
  5
4F0
  8
0
  6
CONTINUOUS
 62
     2
 10
101.9154008934556
 20
14.17039055222442
 30
0.0
 11
98.88431887168606
 21
15.92038697538764
 31
0.0
  0
LINE
  5
4F1
  8
0
  6
CONTINUOUS
 62
     2
 10
95.85321835252064
 20
14.17041020637562
 30
0.0
 11
95.8532166434161
 21
10.67040653561175
 31
0.0
  0
LINE
  5
4F2
  8
0
  6
CONTINUOUS
 62
     2
 10
193.7141913914488
 20
-1.829647256720463
 30
0.0
 11
196.7452835179856
 21
-3.579649111914975
 31
0.0
  0
LINE
  5
4F3
  8
0
  6
CONTINUOUS
 62
     2
 10
178.1257302463973
 20
14.17035237613132
 30
0.0
 11
175.0946480307345
 21
15.9203485092801
 31
0.0
  0
LINE
  5
4F4
  8
0
  6
CONTINUOUS
 62
     2
 10
172.0635602457017
 20
10.67035046340195
 30
0.0
 11
175.0946424613645
 21
8.920354330253161
 31
0.0
  0
LINE
  5
4F5
  8
0
  6
CONTINUOUS
 62
     2
 10
199.7763713030183
 20
1.670348933963183
 30
0.0
 11
196.7452791764816
 21
3.420350789157709
 31
0.0
  0
LINE
  5
4F6
  8
0
  6
CONTINUOUS
 62
     2
 10
199.7763676037192
 20
-1.829682804248591
 30
0.0
 11
199.7763691680925
 21
1.670332347782789
 31
0.0
  0
CIRCLE
  5
4F7
  8
0
  6
CONTINUOUS
 62
     2
 10
196.7452834416476
 20
-0.0796569778385106
 30
0.0
 40
6.500000044703478
  0
LINE
  5
4F8
  8
0
  6
CONTINUOUS
 62
     2
 10
193.7141862945986
 20
1.670350986973105
 30
0.0
 11
193.7141859464899
 21
-1.829664144597942
 31
0.0
  0
LINE
  5
4F9
  8
0
  6
CONTINUOUS
 62
     2
 10
196.7452565612155
 20
-3.579613539650495
 30
0.0
 11
199.776349507988
 21
-1.829613184396465
 31
0.0
  0
LINE
  5
4FA
  8
0
  6
CONTINUOUS
 62
     2
 10
196.7452939635817
 20
3.420339806242012
 30
0.0
 11
193.7141916963456
 21
1.670332665401062
 31
0.0
  0
LINE
  5
4FB
  8
0
  6
CONTINUOUS
 62
     2
 10
175.0946330841252
 20
15.92036092864173
 30
0.0
 11
172.0635407277637
 21
14.17035950984497
 31
0.0
  0
LINE
  5
4FC
  8
0
  6
CONTINUOUS
 62
     2
 10
178.1257400391973
 20
10.67036463845476
 30
0.0
 11
178.1257416035655
 21
14.17036834639471
 31
0.0
  0
CIRCLE
  5
4FD
  8
0
  6
CONTINUOUS
 62
     2
 10
175.0946423850266
 20
12.42034646432964
 30
0.0
 40
6.500000044703478
  0
LINE
  5
4FE
  8
0
  6
CONTINUOUS
 62
     2
 10
172.0635545128446
 20
14.17037938886
 30
0.0
 11
172.0635541647381
 21
10.67038714547169
 31
0.0
  0
LINE
  5
4FF
  8
0
  6
CONTINUOUS
 62
     2
 10
175.0946287623178
 20
8.920365478956242
 30
0.0
 11
178.1257217090904
 21
10.6703658342102
 31
0.0
  0
TEXT
  5
500
  8
0
 62
     5
 10
108.2038019212318
 20
-33.07951823865864
 30
0.0
 40
5.000000089406965
  1
NIKKO
 41
0.7674421258331637
  7
FDASTYLE1
 72
     5
 11
131.7752339284423
 21
-33.07951823865864
 31
0.0
  0
TEXT
  5
501
  8
0
 62
     5
 10
139.560928832004
 20
-32.57951819395515
 30
0.0
 40
4.0
  1
GO3-6S
 41
0.7692310296153833
  7
FDASTYLE1
 72
     5
 11
162.4180745629421
 21
-32.57951819395515
 31
0.0
  0
TEXT
  5
502
  8
0
 62
     5
 10
139.9180720148436
 20
-39.07951913272828
 30
0.0
 40
2.999999910593036
  1
0001
 41
0.7647060960222287
  7
FDASTYLE1
 72
     5
 11
151.0609297707771
 21
-39.07951913272828
 31
0.0
  0
TEXT
  5
503
  8
0
 62
     5
 10
108.5607672736191
 20
-39.5795206079432
 30
0.0
 40
4.0
  1
N
 41
0.7143749679811293
  7
FDASTYLE1
 72
     5
 11
111.4182671455436
 21
-39.5795206079432
 31
0.0
  0
TEXT
  5
504
  8
0
 62
     5
 10
116.5607707604907
 20
-39.44951930528373
 30
0.0
 40
4.0
  1
M
 41
0.7143750126846129
  7
FDASTYLE1
 72
     5
 11
119.4182708112291
 21
-39.44951930528373
 31
0.0
  0
TEXT
  5
505
  8
0
 62
     5
 10
112.5607632503057
 20
-39.54951777642464
 30
0.0
 40
4.0
  1
O
 41
0.7143750126846129
  7
FDASTYLE1
 72
     5
 11
115.4182633010441
 21
-39.54951777642464
 31
0.0
  0
TEXT
  5
506
  8
0
 62
     5
 10
120.5607668265842
 20
-39.54951777642464
 30
0.0
 40
4.0
  1
U
 41
0.7143750126846129
  7
FDASTYLE1
 72
     5
 11
123.4182668773227
 21
-39.54951777642464
 31
0.0
  0
TEXT
  5
507
  8
0
 62
     5
 10
124.5607628926778
 20
-39.54951777642464
 30
0.0
 40
4.0
  1
R
 41
0.7143750126846165
  7
FDASTYLE1
 72
     5
 11
127.4182629434163
 21
-39.54951777642464
 31
0.0
  0
TEXT
  5
508
  8
0
 62
     5
 10
128.5607704028628
 20
-39.64952053909983
 30
0.0
 40
4.0
  1
A
 41
0.7143750126846129
  7
FDASTYLE1
 72
     5
 11
131.4182704536013
 21
-39.64952053909983
 31
0.0
  0
TEXT
  5
509
  8
0
 62
     5
 10
215.6290492298347
 20
48.80952035153128
 30
0.0
 40
2.5
  1
N MAX 4000 AT ΣS MAX
 50
119.9
 41
1.470197415201258
  7
FDASTYLE3
 72
     5
 11
190.685635450457
 21
92.18744640318576
 31
0.0
  0
TEXT
  5
50A
  8
0
 62
     5
 10
212.1649474384529
 20
46.80952035153131
 30
0.0
 40
2.5
  1
ΣS MAX 30KN
 50
119.9000000000001
 41
1.406498962759448
  7
FDASTYLE3
 72
     5
 11
198.6087441153381
 21
70.38448047897924
 31
0.0
  0
TEXT
  5
50B
  8
0
 62
     5
 10
208.7008461239082
 20
44.80952035153131
 30
0.0
 40
2.5
  1
F MAX  28KN
 50
119.9000000000001
 41
1.535553780065157
  7
FDASTYLE3
 72
     5
 11
195.1446428007934
 21
68.38448047897924
 31
0.0
  0
TEXT
  5
50C
  8
0
 62
     5
 10
187.5818537380047
 20
70.98899515938217
 30
0.0
 40
2.5
  1
F
 50
119.9000000000002
 41
1.467648253018952
  7
FDASTYLE3
 72
     5
 11
186.4862757590541
 21
72.89426365931908
 31
0.0
  0
TEXT
  5
50D
  8
0
 62
     5
 10
190.1968355678314
 20
81.49847363889626
 30
0.0
 40
2.5
  1
N min
 50
119.9000000000001
 41
1.560037819098645
  7
FDASTYLE3
 72
     5
 11
184.0280497883778
 21
92.22632090697434
 31
0.0
  0
TEXT
  5
50E
  8
0
 62
     5
 10
180.9270685817547
 20
85.92029246162826
 30
0.0
 40
2.5
  1
ΣS
 50
119.9000000000001
 41
1.113986578763096
  7
FDASTYLE3
 72
     5
 11
178.2976821156535
 21
90.49293567304216
 31
0.0
  0
TEXT
  5
50F
  8
0
 62
     5
 10
181.8596008412187
 20
92.38294202979485
 30
0.0
 40
1.25
  1
-1
 50
119.9000000000002
 41
1.720841505331479
  7
FDASTYLE3
 72
     5
 11
180.7380032930677
 21
94.33345994741978
 31
0.0
  0
LINE
  5
510
  8
0
  6
CONTINUOUS
 62
     5
 10
187.3339729406674
 20
73.68200611515326
 30
0.0
 11
187.6084941678767
 21
74.7065336914032
 31
0.0
  0
LINE
  5
511
  8
0
  6
CONTINUOUS
 62
     5
 10
177.6243191002626
 20
81.49956285009914
 30
0.0
 11
177.0618229149599
 21
82.47383480462069
 31
0.0
  0
LINE
  5
512
  8
0
  6
CONTINUOUS
 62
     5
 10
177.6243067116701
 20
81.49955569754179
 30
0.0
 11
178.9233447940313
 21
82.24955569754178
 31
0.0
  0
LINE
  5
513
  8
0
  6
CONTINUOUS
 62
     5
 10
179.4858571826239
 20
81.27528428832825
 30
0.0
 11
178.9233571826239
 21
82.24956285009915
 31
0.0
  0
LINE
  5
514
  8
0
  6
CONTINUOUS
 62
     5
 10
189.8584368742212
 20
70.80944065452295
 30
0.0
 11
188.8339167306212
 21
71.08396000193088
 31
0.0
  0
LINE
  5
515
  8
0
  6
CONTINUOUS
 62
     5
 10
189.8585042677607
 20
70.80940547549028
 30
0.0
 11
190.13302549497
 21
71.83393305174027
 31
0.0
  0
LINE
  5
516
  8
0
  6
CONTINUOUS
 62
     5
 10
187.6084631253071
 20
74.70654295186338
 30
0.0
 11
189.8584631253071
 21
70.80942870477972
 31
0.0
  0
LINE
  5
517
  8
0
  6
CONTINUOUS
 62
     5
 10
188.6329536419286
 20
74.43203609542442
 30
0.0
 11
187.6084427101149
 21
74.70655297454161
 31
0.0
  0
LINE
  5
518
  8
0
  6
CONTINUOUS
 62
     5
 10
175.1132570212838
 20
81.34883855084709
 30
0.0
 11
177.0618133189194
 21
82.47383807400995
 31
0.0
  0
LINE
  5
519
  8
0
  6
CONTINUOUS
 62
     5
 10
186.0944083447842
 20
81.08053099000863
 30
0.0
 11
185.4735478525165
 21
81.8472297448732
 31
0.0
  0
LINE
  5
51A
  8
0
  6
CONTINUOUS
 62
     5
 10
186.0943884427668
 20
81.0805303932801
 30
0.0
 11
185.327677711988
 21
80.45966041595312
 31
0.0
  0
LINE
  5
51B
  8
0
  6
CONTINUOUS
 62
     5
 10
181.6588179131548
 20
83.51162833179167
 30
0.0
 11
181.9333391403641
 21
84.53615590804162
 31
0.0
  0
LINE
  5
51C
  8
0
  6
CONTINUOUS
 62
     5
 10
181.9333021718752
 20
84.53619556402572
 30
0.0
 11
180.9087820282752
 21
84.81071491143365
 31
0.0
  0
LINE
  5
51D
  8
0
  6
CONTINUOUS
 62
     5
 10
180.738249332592
 20
71.60605289890255
 30
0.0
 11
193.728629330298
 21
79.10605242206538
 31
0.0
  0
ARC
  5
51E
  8
0
  6
CONTINUOUS
 62
     5
 10
185.4149995527163
 20
78.54495634964859
 30
0.0
 40
2.625001907348632
 50
75.0001079549973
 51
369.999953377945
  0
LINE
  5
51F
  8
0
  6
CONTINUOUS
 62
     5
 10
180.7382594990023
 20
71.60605436364943
 30
0.0
 11
175.1132594990023
 21
81.34883998135859
 31
0.0
  0
LINE
  5
520
  8
0
  6
CONTINUOUS
 62
     5
 10
181.5348927872666
 20
80.72624477545553
 30
0.0
 11
180.7848927872666
 21
82.02528285781678
 31
0.0
  0
LINE
  5
521
  8
0
  6
CONTINUOUS
 62
     5
 10
179.4858414904066
 20
81.2752752284222
 30
0.0
 11
180.7848903095481
 21
82.0252814273053
 31
0.0
  0
LINE
  5
522
  8
0
  6
CONTINUOUS
 62
     5
 10
176.9882570212838
 20
78.10124334494407
 30
0.0
 11
189.9786312376466
 21
85.60123953024682
 31
0.0
  0
LINE
  5
523
  8
0
  6
CONTINUOUS
 62
     5
 10
193.7286494075824
 20
79.1060596088582
 30
0.0
 11
189.9786494075823
 21
85.60125002066424
 31
0.0
  0
LINE
  5
524
  8
0
  6
CONTINUOUS
 62
     5
 10
179.3702004620626
 20
83.05632845991426
 30
0.0
 11
181.933311889073
 21
84.53614155882173
 31
0.0
  0
LINE
  5
525
  8
0
  6
DASHED2
 62
     7
 10
-12.93550394280228
 20
-14.03365540689345
 30
0.0
 11
-6.007301394130813
 21
-10.03365587221066
 31
0.0
  0
LINE
  5
526
  8
0
  6
DASHED2
 62
     7
 10
-9.935531292692808
 20
-19.2297605514612
 30
0.0
 11
-3.007328744021429
 21
-15.22976101677847
 31
0.0
  0
LINE
  5
527
  8
0
  6
DASHED2
 62
     7
 10
-6.007284227994141
 20
-10.03368560483222
 30
0.0
 11
-3.007282967656742
 21
-15.2298403037691
 31
0.0
  0
LINE
  5
528
  8
0
  6
DASHED2
 62
     7
 10
-0.4738585566224103
 20
-14.86407614155928
 30
0.0
 11
-1.934193605873581
 21
-15.70720096021881
 31
0.0
  0
LINE
  5
529
  8
0
  6
DASHED2
 62
     7
 10
-4.423856711313754
 20
-8.022478525035979
 30
0.0
 11
-5.884191760564868
 21
-8.865603343695597
 31
0.0
  0
LINE
  5
52A
  8
0
  6
DASHED2
 62
     7
 10
-3.605528640001175
 20
-8.193648564076369
 30
0.0
 11
-0.212917805682018
 21
-14.06982300489284
 31
0.0
  0
LINE
  5
52B
  8
0
  6
DASHED2
 62
     7
 10
-3.57079556964225
 20
-9.781674325712118
 30
0.0
 11
-4.845703124877041
 21
-10.5177425327077
 31
0.0
  0
LINE
  5
52C
  8
0
  6
DASHED2
 62
     7
 10
-1.570807604019869
 20
-13.24575515887051
 30
0.0
 11
-2.845715159254603
 21
-13.98182336586609
 31
0.0
  0
LINE
  5
52D
  8
0
  6
DASHED2
 62
     7
 10
-12.93548677666549
 20
-14.03368513951494
 30
0.0
 11
-9.935485516328122
 21
-19.22983983845182
 31
0.0
  0
ARC
  5
52E
  8
0
  6
DASHED2
 62
     7
 10
-1.909207070490275
 20
-11.1317444409315
 30
0.0
 40
2.999999910593036
 50
168.1896978491926
 51
210.0000110043195
  0
ARC
  5
52F
  8
0
  6
DASHED2
 62
     7
 10
-4.507286846785
 20
-12.63175070499807
 30
0.0
 40
2.999999910593036
 50
348.1897269911821
 51
431.8103123203009
  0
ARC
  5
530
  8
0
  6
DASHED2
 62
     7
 10
-1.909207070490275
 20
-11.1317444409315
 30
0.0
 40
2.999999910593036
 50
210.0000283071635
 51
251.8103346321012
  0
ARC
  5
531
  8
0
  6
DASHED2
 62
     7
 10
1.728078004780436
 20
-9.031734843005864
 30
0.0
 40
3.299999973177911
 50
282.3603227894642
 51
300.0000239814525
  0
ARC
  5
532
  8
0
  6
DASHED2
 62
     7
 10
2.543678438425509
 20
-15.25347263979705
 30
0.0
 40
2.999999910593036
 50
92.11018094871233
 51
156.7620058960067
  0
ARC
  5
533
  8
0
  6
DASHED2
 62
     7
 10
-4.219281159386775
 20
-9.001320425357761
 30
0.0
 40
1.0
 50
300.0000239814525
 51
369.2845613370914
  0
ARC
  5
534
  8
0
  6
DASHED2
 62
     7
 10
-4.219281159386775
 20
-9.001320425357761
 30
0.0
 40
1.0
 50
50.71547797439155
 51
101.805135871736
  0
ARC
  5
535
  8
0
  6
DASHED2
 62
     7
 10
-1.219271492276469
 20
-14.1974849333842
 30
0.0
 40
1.0
 50
50.71547797439155
 51
120.0000289904088
  0
ARC
  5
536
  8
0
  6
DASHED2
 62
     7
 10
-1.219271492276469
 20
-14.1974849333842
 30
0.0
 40
1.0
 50
318.1949102699361
 51
369.2845613370914
  0
ARC
  5
537
  8
0
  6
DASHED2
 62
     7
 10
-5.138766459502442
 20
-9.532207263294822
 30
0.0
 40
1.0
 50
138.1948742977574
 51
210.0000110043195
  0
ARC
  5
538
  8
0
  6
DASHED2
 62
     7
 10
-2.138756792392108
 20
-14.72837177132129
 30
0.0
 40
1.0
 50
120.0000289904088
 51
210.0000110043195
  0
ARC
  5
539
  8
0
  6
DASHED2
 62
     7
 10
-5.138766459502442
 20
-9.532207263294822
 30
0.0
 40
1.0
 50
210.0000283071635
 51
300.0000239814525
  0
ARC
  5
53A
  8
0
  6
DASHED2
 62
     7
 10
-2.138756792392108
 20
-14.72837177132129
 30
0.0
 40
1.0
 50
210.0000283071635
 51
281.8051650137256
  0
LINE
  5
53B
  8
0
  6
DASHED2
 62
     7
 10
2.519941959400462
 20
-5.803279255060602
 30
0.0
 11
4.91993810393155
 21
-9.960194589967415
 31
0.0
  0
LINE
  5
53C
  8
0
  6
DASHED2
 62
     7
 10
2.519938121028709
 20
-5.803213854037296
 30
0.0
 11
0.0780795104047982
 21
-6.173791009879665
 31
0.0
  0
ARC
  5
53D
  8
0
  6
DASHED2
 62
     7
 10
1.728078004780436
 20
-9.031734843005864
 30
0.0
 40
3.299999973177911
 50
120.0000289904088
 51
137.6397165220187
  0
ARC
  5
53E
  8
0
  6
DASHED2
 62
     7
 10
3.306061436426525
 20
-8.120669831121944
 30
0.0
 40
1.200000071525572
 50
323.4679938941044
 51
456.5320385871895
  0
LINE
  5
53F
  8
0
  6
DASHED2
 62
     7
 10
0.0780734333055264
 20
-6.173871495854911
 30
0.0
 11
3.378078682057442
 21
-11.88964835452515
 31
0.0
  0
LINE
  5
540
  8
0
  6
DASHED2
 62
     7
 10
3.378052000690765
 20
-11.88959730129056
 30
0.0
 11
4.919910871093983
 21
-9.960174398757062
 31
0.0
  0
LINE
  5
541
  8
0
  6
DASHED2
 62
     7
 10
-0.444478658873912
 20
-7.268754129172066
 30
0.0
 11
2.201533974082345
 21
-11.85178252917893
 31
0.0
  0
ARC
  5
542
  8
0
  6
DASHED2
 62
     7
 10
-3.252305740260219
 20
-5.214531456138559
 30
0.0
 40
2.999999910593036
 50
263.2380334154763
 51
327.8931505139506
  0
LINE
  5
543
  8
0
  6
CONTINUOUS
 62
     6
 10
-83.25976076794183
 20
-107.9314710852049
 30
0.0
 11
-67.25975361538468
 21
-107.9314710852049
 31
0.0
  0
LINE
  5
544
  8
0
  6
CONTINUOUS
 62
     6
 10
-83.25976076794183
 20
-115.9314689394378
 30
0.0
 11
61.55217034113096
 21
-115.9314689394378
 31
0.0
  0
LINE
  5
545
  8
0
  6
CONTINUOUS
 62
     6
 10
-83.25976076794183
 20
-123.9314725157164
 30
0.0
 11
61.55217034113096
 21
-123.9314725157164
 31
0.0
  0
LINE
  5
546
  8
0
  6
CONTINUOUS
 62
     6
 10
-83.25976076794183
 20
-131.9314703699492
 30
0.0
 11
61.55217034113096
 21
-131.9314703699492
 31
0.0
  0
LINE
  5
547
  8
0
  6
CONTINUOUS
 62
     6
 10
-83.25976076794183
 20
-139.9314682241821
 30
0.0
 11
61.55217034113096
 21
-139.9314682241821
 31
0.0
  0
LINE
  5
548
  8
0
  6
CONTINUOUS
 62
     6
 10
-83.25976076794183
 20
-147.9314660784149
 30
0.0
 11
61.55217034113096
 21
-147.9314660784149
 31
0.0
  0
LINE
  5
549
  8
0
  6
CONTINUOUS
 62
     6
 10
-83.25976076794183
 20
-155.9314639326478
 30
0.0
 11
61.55217034113096
 21
-155.9314639326478
 31
0.0
  0
LINE
  5
54A
  8
0
  6
CONTINUOUS
 62
     6
 10
-83.25976076794183
 20
-163.9314675089264
 30
0.0
 11
61.55217034113096
 21
-163.9314675089264
 31
0.0
  0
LINE
  5
54B
  8
0
  6
CONTINUOUS
 62
     6
 10
-83.25976076794183
 20
-171.9314596411135
 30
0.0
 11
61.55217034113096
 21
-171.9314596411135
 31
0.0
  0
LINE
  5
54C
  8
0
  6
CONTINUOUS
 62
     6
 10
-83.25976076794183
 20
-179.9314632173921
 30
0.0
 11
61.55217034113096
 21
-179.9314632173921
 31
0.0
  0
TEXT
  5
54D
  8
0
 62
     6
 10
-80.68832527385972
 20
-114.2648163692692
 30
0.0
 40
4.0
  1
爪ﾉｽﾄﾛｰｸ
 41
0.7781458564086068
  7
FDASTYLE1
 72
     5
 11
-53.83118177809569
 21
-114.2648163692692
 31
0.0
  0
TEXT
  5
54E
  8
0
 62
     6
 10
-80.68832527385972
 20
-122.264814223502
 30
0.0
 40
4.0
  1
ピストンストローク
 41
0.6659390021124504
  7
FDASTYLE1
 72
     5
 11
-45.83118195690962
 21
-122.264814223502
 31
0.0
  0
TEXT
  5
54F
  8
0
 62
     6
 10
-80.68832527385972
 20
-130.2648120777349
 30
0.0
 40
4.0
  1
推奨シリンダー
 41
0.6638419481832335
  7
FDASTYLE1
 72
     5
 11
-53.83118177809569
 21
-130.2648120777349
 31
0.0
  0
TEXT
  5
550
  8
0
 62
     6
 10
-80.68832527385972
 20
-138.2648156540135
 30
0.0
 40
4.0
  1
許容シリンダー力
 41
0.6650247692388752
  7
FDASTYLE1
 72
     5
 11
-49.83118186750266
 21
-138.2648156540135
 31
0.0
  0
TEXT
  5
551
  8
0
 62
     6
 10
-80.68832527385972
 20
-146.2648135082463
 30
0.0
 40
4.0
  1
最大静的把握力
 41
0.6638419481832335
  7
FDASTYLE1
 72
     5
 11
-53.83118177809569
 21
-146.2648135082463
 31
0.0
  0
TEXT
  5
552
  8
0
 62
     6
 10
-80.68832527385972
 20
-154.2648170845249
 30
0.0
 40
4.0
  1
最高使用回転速度
 41
0.6650247692388752
  7
FDASTYLE1
 72
     5
 11
-49.83118186750266
 21
-154.2648170845249
 31
0.0
  0
TEXT
  5
553
  8
0
 62
     6
 10
-80.68832527385972
 20
-162.2648034946663
 30
0.0
 40
4.0
  1
慣性モーメント
 41
0.6638419481832335
  7
FDASTYLE1
 72
     5
 11
-53.83118177809569
 21
-162.2648034946663
 31
0.0
  0
TEXT
  5
554
  8
0
 62
     6
 10
-80.68832527385972
 20
-170.2648070709449
 30
0.0
 40
4.0
  1
質　量
 41
0.650685089833454
  7
FDASTYLE1
 72
     5
 11
-69.83118142046783
 21
-170.2648070709449
 31
0.0
  0
TEXT
  5
555
  8
0
 62
     6
 10
-80.68832527385972
 20
-178.2648106472234
 30
0.0
 40
4.0
  1
アンバランス量
 41
0.6638419481832335
  7
FDASTYLE1
 72
     5
 11
-53.83118177809569
 21
-178.2648106472234
 31
0.0
  0
TEXT
  5
556
  8
0
 62
     6
 10
30.50730816151961
 20
-130.0455146752128
 30
0.0
 40
4.0
  1
 36TS 型
 41
0.7781458564086069
  7
FDASTYLE1
 72
     5
 11
57.36445165728365
 21
-130.0455146752128
 31
0.0
  0
TEXT
  5
557
  8
0
 62
     6
 10
38.7596768425818
 20
-121.7692106768708
 30
0.0
 40
4.0
  1
20 mm
 41
0.7674420517061209
  7
FDASTYLE1
 72
     5
 11
57.61682051715977
 21
-121.7692106768708
 31
0.0
  0
TEXT
  5
558
  8
0
 62
     6
 10
10.72022226440434
 20
-113.9894829729338
 30
0.0
 40
4.0
  1
(直径ﾆﾃ) 32 mm
 41
0.7677904243924568
  7
FDASTYLE1
 72
     5
 11
57.57736531313354
 21
-113.9894829729338
 31
0.0
  0
TEXT
  5
559
  8
0
 62
     6
 10
10.48942927201492
 20
-178.0481167755076
 30
0.0
 40
4.0
  1
外周ﾆﾃ   3 g以内
 41
0.7481753365973297
  7
FDASTYLE1
 72
     5
 11
57.34657232074413
 21
-178.0481167755076
 31
0.0
  0
TEXT
  5
55A
  8
0
 62
     6
 10
39.2288845922702
 20
-169.9373343939367
 30
0.0
 40
4.0
  1
13 kg
 41
0.7674420517061209
  7
FDASTYLE1
 72
     5
 11
58.08602826684816
 21
-169.9373343939367
 31
0.0
  0
TEXT
  5
55B
  8
0
 62
     6
 10
18.70363190807198
 20
-161.9920679070913
 30
0.0
 40
4.0
  1
0.046 kg・m
 41
0.7780322016175856
  7
FDASTYLE1
 72
     5
 11
57.56077513561512
 21
-161.9920679070913
 31
0.0
  0
TEXT
  5
55C
  8
0
 62
     6
 10
27.13363577671133
 20
-153.8813026916577
 30
0.0
 40
4.0
  1
4000 min
 41
0.7714287558624076
  7
FDASTYLE1
 72
     5
 11
57.99077918306839
 21
-153.8813026916577
 31
0.0
  0
TEXT
  5
55D
  8
0
 62
     6
 10
30.7776061576145
 20
-145.9360190386751
 30
0.0
 40
4.0
  1
30   kN
 41
0.7704919893009594
  7
FDASTYLE1
 72
     5
 11
57.63474965337853
 21
-145.9360190386751
 31
0.0
  0
TEXT
  5
55E
  8
0
 62
     6
 10
30.78837504767442
 20
-137.9907639959211
 30
0.0
 40
4.0
  1
28   kN
 41
0.7704919893009594
  7
FDASTYLE1
 72
     5
 11
57.64551854343845
 21
-137.9907639959211
 31
0.0
  0
TEXT
  5
55F
  8
0
 62
     6
 10
59.41791702205388
 20
-159.4920678623878
 30
0.0
 40
2.0
  1
2
 41
0.7142860080514559
  7
FDASTYLE1
 72
     5
 11
60.84648903815679
 21
-159.4920678623878
 31
0.0
  0
TEXT
  5
560
  8
0
 62
     6
 10
-80.68832527385972
 20
-106.2648099319678
 30
0.0
 40
4.0
  1
仕　様
 41
0.650685089833454
  7
FDASTYLE1
 72
     5
 11
-69.83118142046783
 21
-106.2648099319678
 31
0.0
  0
TEXT
  5
561
  8
0
 62
     6
 10
-37.83366308958149
 20
-137.9307377692821
 30
0.0
 40
2.999999910593036
  1
36TS 型引側使用圧  3.0 MPa
 41
0.7483732750179843
  7
FDASTYLE1
 72
     5
 11
21.30919323584056
 21
-137.9307377692821
 31
0.0
  0
TEXT
  5
562
  8
0
 62
     6
 10
58.37368641032197
 20
-151.3292708354535
 30
0.0
 40
2.0
  1
-1
 41
0.7500002224697043
  7
FDASTYLE1
 72
     5
 11
61.8022583817214
 21
-151.3292708354535
 31
0.0
  0
VIEWPORT
  5
47
 67
     1
  8
0
 10
0.0
 20
0.0
 30
0.0
 40
1662.0
 41
1140.0
 68
     1
 69
     1
1001
ACAD
1000
MVIEW
1002
{
1070
    16
1010
0.0
1020
0.0
1030
0.0
1020
0.0
1030
0.0
1010
0.0
1020
0.0
1030
1.0
1020
0.0
1030
1.0
1040
0.0
1040
1140.0
1040
0.0
1040
0.0
1040
50.0
1040
0.0
1040
0.0
1070
     0
1070
   100
1070
     0
1070
     1
1070
     0
1070
     0
1070
     0
1070
     0
1040
0.0
1040
0.0
1040
0.0
1040
0.5
1040
0.5
1040
0.0
1040
0.0
1070
     0
1002
{
1002
}
1002
}
  0
ENDSEC
  0
EOF
