  0
SECTION
  2
HEADER
  9
$ACADVER
  1
AC1009
  9
$DWGCODEPAGE
  3
ansi_932
  9
$INSBASE
 10
0.0
 20
0.0
 30
0.0
  9
$EXTMIN
 10
-474.4276062545233
 20
-570.0
 30
0.0
  9
$EXTMAX
 10
1187.572393745477
 20
570.0
 30
0.0
  9
$LIMMIN
 10
-660.5555555555555
 20
-467.2222222222222
  9
$LIMMAX
 10
660.5555555555555
 20
467.2222222222222
  9
$ORTHOMODE
 70
     0
  9
$REGENMODE
 70
     1
  9
$FILLMODE
 70
     1
  9
$QTEXTMODE
 70
     0
  9
$MIRRTEXT
 70
     1
  9
$DRAGMODE
 70
     2
  9
$LTSCALE
 40
1.111111111111111
  9
$OSMODE
 70
    37
  9
$ATTMODE
 70
     1
  9
$TEXTSIZE
 40
0.2
  9
$TRACEWID
 40
0.05
  9
$TEXTSTYLE
  7
STANDARD
  9
$CLAYER
  8
0
  9
$CELTYPE
  6
BYLAYER
  9
$CECOLOR
 62
   256
  9
$DIMSCALE
 40
1.0
  9
$DIMASZ
 40
2.777777777777778
  9
$DIMEXO
 40
0.0625
  9
$DIMDLI
 40
0.38
  9
$DIMRND
 40
0.0
  9
$DIMDLE
 40
0.0
  9
$DIMEXE
 40
0.18
  9
$DIMTP
 40
0.0
  9
$DIMTM
 40
0.0
  9
$DIMTXT
 40
0.18
  9
$DIMCEN
 40
0.09
  9
$DIMTSZ
 40
0.0
  9
$DIMTOL
 70
     0
  9
$DIMLIM
 70
     0
  9
$DIMTIH
 70
     1
  9
$DIMTOH
 70
     1
  9
$DIMSE1
 70
     0
  9
$DIMSE2
 70
     0
  9
$DIMTAD
 70
     3
  9
$DIMZIN
 70
     0
  9
$DIMBLK
  1

  9
$DIMASO
 70
     1
  9
$DIMSHO
 70
     1
  9
$DIMPOST
  1

  9
$DIMAPOST
  1

  9
$DIMALT
 70
     0
  9
$DIMALTD
 70
     2
  9
$DIMALTF
 40
25.4
  9
$DIMLFAC
 40
1.0
  9
$DIMTOFL
 70
     0
  9
$DIMTVP
 40
0.0
  9
$DIMTIX
 70
     0
  9
$DIMSOXD
 70
     0
  9
$DIMSAH
 70
     0
  9
$DIMBLK1
  1

  9
$DIMBLK2
  1

  9
$DIMSTYLE
  2
STANDARD
  9
$DIMCLRD
 70
     0
  9
$DIMCLRE
 70
     0
  9
$DIMCLRT
 70
     0
  9
$DIMTFAC
 40
1.0
  9
$DIMGAP
 40
0.09
  9
$LUNITS
 70
     2
  9
$LUPREC
 70
     4
  9
$SKETCHINC
 40
0.1
  9
$FILLETRAD
 40
0.5
  9
$AUNITS
 70
     0
  9
$AUPREC
 70
     0
  9
$MENU
  1
.
  9
$ELEVATION
 40
0.0
  9
$PELEVATION
 40
0.0
  9
$THICKNESS
 40
0.0
  9
$LIMCHECK
 70
     0
  9
$CHAMFERA
 40
0.5
  9
$CHAMFERB
 40
0.5
  9
$SKPOLY
 70
     0
  9
$TDCREATE
 40
2455483.498187836
  9
$TDUPDATE
 40
2455483.498187847
  9
$TDINDWG
 40
0.0000000116
  9
$TDUSRTIMER
 40
0.0000000116
  9
$USRTIMER
 70
     1
  9
$ANGBASE
 50
0.0
  9
$ANGDIR
 70
     0
  9
$PDMODE
 70
     0
  9
$PDSIZE
 40
1.0
  9
$PLINEWID
 40
0.0
  9
$COORDS
 70
     1
  9
$SPLFRAME
 70
     0
  9
$SPLINETYPE
 70
     6
  9
$SPLINESEGS
 70
     8
  9
$ATTDIA
 70
     0
  9
$ATTREQ
 70
     1
  9
$HANDLING
 70
     1
  9
$HANDSEED
  5
5BA
  9
$SURFTAB1
 70
     6
  9
$SURFTAB2
 70
     6
  9
$SURFTYPE
 70
     6
  9
$SURFU
 70
     6
  9
$SURFV
 70
     6
  9
$UCSNAME
  2

  9
$UCSORG
 10
0.0
 20
0.0
 30
0.0
  9
$UCSXDIR
 10
1.0
 20
0.0
 30
0.0
  9
$UCSYDIR
 10
0.0
 20
1.0
 30
0.0
  9
$PUCSNAME
  2

  9
$PUCSORG
 10
0.0
 20
0.0
 30
0.0
  9
$PUCSXDIR
 10
1.0
 20
0.0
 30
0.0
  9
$PUCSYDIR
 10
0.0
 20
1.0
 30
0.0
  9
$USERI1
 70
     0
  9
$USERI2
 70
     0
  9
$USERI3
 70
     0
  9
$USERI4
 70
     0
  9
$USERI5
 70
     0
  9
$USERR1
 40
0.0
  9
$USERR2
 40
0.0
  9
$USERR3
 40
0.0
  9
$USERR4
 40
0.0
  9
$USERR5
 40
0.0
  9
$WORLDVIEW
 70
     1
  9
$SHADEDGE
 70
     3
  9
$SHADEDIF
 70
    70
  9
$TILEMODE
 70
     1
  9
$MAXACTVP
 70
    64
  9
$PLIMCHECK
 70
     0
  9
$PEXTMIN
 10
1.000000000000000E+20
 20
1.000000000000000E+20
 30
1.000000000000000E+20
  9
$PEXTMAX
 10
-1.000000000000000E+20
 20
-1.000000000000000E+20
 30
-1.000000000000000E+20
  9
$PLIMMIN
 10
0.0
 20
0.0
  9
$PLIMMAX
 10
12.0
 20
9.0
  9
$UNITMODE
 70
     0
  9
$VISRETAIN
 70
     0
  9
$PLINEGEN
 70
     1
  9
$PSLTSCALE
 70
     0
  0
ENDSEC
  0
SECTION
  2
TABLES
  0
TABLE
  2
VPORT
 70
     1
  0
VPORT
  2
*ACTIVE
 70
     0
 10
0.0
 20
0.0
 11
1.0
 21
1.0
 12
0.0
 22
0.0
 13
0.0
 23
0.0
 14
0.5
 24
0.5
 15
0.5
 25
0.5
 16
0.0
 26
0.0
 36
1.0
 17
356.5723937454767
 27
0.0
 37
0.0
 40
387.6
 41
1.457894736842105
 42
50.0
 43
0.0
 44
0.0
 50
0.0
 51
0.0
 71
     0
 72
  1000
 73
     1
 74
     1
 75
     0
 76
     0
 77
     0
 78
     0
  0
ENDTAB
  0
TABLE
  2
LTYPE
 70
    28
  0
LTYPE
  2
CONTINUOUS
 70
     0
  3
Solid line
 72
    65
 73
     0
 40
0.0
  0
LTYPE
  2
HIDDENX2
 70
     0
  3
CADPAC LINETYPE
 72
    65
 73
     2
 40
18.58563535911603
 49
13.93922651933703
 49
-4.646408839779008
  0
LTYPE
  2
HIDDEN
 70
     0
  3
CADPAC LINETYPE
 72
    65
 73
     2
 40
13.93922651933703
 49
9.292817679558016
 49
-4.646408839779008
  0
LTYPE
  2
HIDDEN2
 70
     0
  3
CADPAC LINETYPE
 72
    65
 73
     2
 40
11.61602209944752
 49
6.969613259668512
 49
-4.646408839779008
  0
LTYPE
  2
DASHED
 70
     0
  3
CADPAC LINETYPE
 72
    65
 73
     2
 40
13.00994475138128
 49
9.292817679558016
 49
-3.717127071823268
  0
LTYPE
  2
DASHED2
 70
     0
  3
CADPAC LINETYPE
 72
    65
 73
     2
 40
8.363535911602174
 49
5.575690607734851
 49
-2.787845303867323
  0
LTYPE
  2
DASHEDX2
 70
     0
  3
CADPAC LINETYPE
 72
    65
 73
     2
 40
22.3027624309393
 49
18.58563535911603
 49
-3.717127071823268
  0
LTYPE
  2
DOTX2
 70
     0
  3
CADPAC LINETYPE
 72
    65
 73
     2
 40
8.131215469613366
 49
0.0
 49
-8.131215469613366
  0
LTYPE
  2
DOT
 70
     0
  3
CADPAC LINETYPE
 72
    65
 73
     2
 40
6.504972375690693
 49
0.0
 49
-6.504972375690693
  0
LTYPE
  2
DOT2
 70
     0
  3
CADPAC LINETYPE
 72
    65
 73
     2
 40
4.87872928176802
 49
0.0
 49
-4.87872928176802
  0
LTYPE
  2
CENTERX2
 70
     0
  3
CADPAC LINETYPE
 72
    65
 73
     4
 40
27.87845303867405
 49
11.61602209944752
 49
-5.80801104972376
 49
4.646408839779008
 49
-5.80801104972376
  0
LTYPE
  2
CENTER
 70
     0
  3
CADPAC LINETYPE
 72
    65
 73
     4
 40
21.37348066298344
 49
9.292817679558016
 49
-4.646408839779008
 49
2.787845303867405
 49
-4.646408839779008
  0
LTYPE
  2
CENTER2
 70
     0
  3
CADPAC LINETYPE
 72
    65
 73
     4
 40
14.86850828729283
 49
6.969613259668512
 49
-3.484806629834256
 49
0.9292817679558016
 49
-3.484806629834256
  0
LTYPE
  2
DASHDOTX2
 70
     0
  3
CADPAC LINETYPE
 72
    65
 73
     4
 40
44.6055248618785
 49
22.3027624309392
 49
-7.434254143646434
 49
7.434254143646434
 49
-7.434254143646434
  0
LTYPE
  2
DASHDOT
 70
     0
  3
CADPAC LINETYPE
 72
    65
 73
     4
 40
22.3027624309394
 49
11.1513812154696
 49
-3.717127071823268
 49
3.717127071823268
 49
-3.717127071823268
  0
LTYPE
  2
DASHDOT2
 70
     0
  3
CADPAC LINETYPE
 72
    65
 73
     4
 40
14.31093922651943
 49
8.363535911602199
 49
-2.787845303867451
 49
0.3717127071823268
 49
-2.787845303867451
  0
LTYPE
  2
DIVIDEX2
 70
     0
  3
CADPAC LINETYPE
 72
    65
 73
     6
 40
59.47403314917137
 49
22.3027624309392
 49
-7.434254143646434
 49
7.434254143646434
 49
-7.434254143646434
 49
7.434254143646434
 49
-7.434254143646434
  0
LTYPE
  2
DIVIDE
 70
     0
  3
CADPAC LINETYPE
 72
    65
 73
     6
 40
29.73701657458594
 49
11.1513812154696
 49
-3.717127071823268
 49
3.717127071823268
 49
-3.717127071823268
 49
3.717127071823268
 49
-3.717127071823268
  0
LTYPE
  2
DIVIDE2
 70
     0
  3
CADPAC LINETYPE
 72
    65
 73
     6
 40
22.30276243093946
 49
8.363535911602199
 49
-2.787845303867451
 49
2.787845303867451
 49
-2.787845303867451
 49
2.787845303867451
 49
-2.787845303867451
  0
LTYPE
  2
BORDERX2
 70
     0
  3
CADPAC LINETYPE
 72
    65
 73
     6
 40
40.65607734806632
 49
11.61602209944752
 49
-5.80801104972376
 49
11.61602209944752
 49
-5.80801104972376
 49
0.0
 49
-5.80801104972376
  0
LTYPE
  2
BORDER
 70
     0
  3
CADPAC LINETYPE
 72
    65
 73
     6
 40
32.52486187845306
 49
9.292817679558016
 49
-4.646408839779008
 49
9.292817679558016
 49
-4.646408839779008
 49
0.0
 49
-4.646408839779008
  0
LTYPE
  2
BORDER2
 70
     0
  3
CADPAC LINETYPE
 72
    65
 73
     6
 40
24.16132596685078
 49
7.434254143646434
 49
-4.646408839779008
 49
2.787845303867323
 49
-4.646408839779008
 49
0.0
 49
-4.646408839779008
  0
LTYPE
  2
PHANTOMX2
 70
     0
  3
CADPAC LINETYPE
 72
    65
 73
     6
 40
34.84806629834256
 49
11.61602209944752
 49
-4.646408839779008
 49
4.646408839779008
 49
-4.646408839779008
 49
4.646408839779008
 49
-4.646408839779008
  0
LTYPE
  2
PHANTOM
 70
     0
  3
CADPAC LINETYPE
 72
    65
 73
     6
 40
28.80773480662985
 49
9.292817679558016
 49
-4.646408839779008
 49
2.787845303867405
 49
-4.646408839779008
 49
2.787845303867405
 49
-4.646408839779008
  0
LTYPE
  2
PHANTOM2
 70
     0
  3
CADPAC LINETYPE
 72
    65
 73
     6
 40
24.62596685082875
 49
6.969613259668512
 49
-4.646408839779008
 49
1.858563535911603
 49
-4.646408839779008
 49
1.858563535911603
 49
-4.646408839779008
  0
LTYPE
  2
ACAD_ISO06W100
 70
     0
  3
CADPAC LINETYPE
 72
    65
 73
     8
 40
49.25193370165719
 49
22.3027624309392
 49
-4.646408839779008
 49
2.787845303867323
 49
-4.646408839779008
 49
2.787845303867323
 49
-4.646408839779008
 49
2.787845303867323
 49
-4.646408839779008
  0
LTYPE
  2
ACAD_ISO13W100
 70
     0
  3
CADPAC LINETYPE
 72
    65
 73
     8
 40
37.17127071823207
 49
9.292817679558016
 49
-4.646408839779008
 49
9.292817679558016
 49
-4.646408839779008
 49
0.0
 49
-4.646408839779008
 49
0.0
 49
-4.646408839779008
  0
LTYPE
  2
ACAD_ISO14W100
 70
     0
  3
CADPAC LINETYPE
 72
    65
 73
     8
 40
27.87845303867405
 49
9.292817679558016
 49
-4.646408839779008
 49
0.0
 49
-4.646408839779008
 49
0.0
 49
-4.646408839779008
 49
0.0
 49
-4.646408839779008
  0
ENDTAB
  0
TABLE
  2
LAYER
 70
     3
  0
LAYER
  2
0
 70
     0
 62
     7
  6
CONTINUOUS
  0
LAYER
  2
LAYER0001
 70
     0
 62
     7
  6
CONTINUOUS
  0
LAYER
  2
LAYER0002
 70
     0
 62
     7
  6
CONTINUOUS
  0
ENDTAB
  0
TABLE
  2
STYLE
 70
     5
  0
STYLE
  2
STANDARD
 70
     0
 40
0.0
 41
1.0
 50
0.0
 71
     0
 42
0.2
  3
txt
  4

  0
STYLE
  2
FDASTYLE1
 70
     0
 40
0.0
 41
0.6213017751479297
 50
0.0
 71
     0
 42
0.2
  3
txt.shx
  4
bigfont
  0
STYLE
  2
FDASTYLE0
 70
     4
 40
0.0
 41
0.8
 50
0.0
 71
     0
 42
0.2
  3
txt.shx
  4
bigfont
  0
STYLE
  2
FDASTYLE2
 70
     0
 40
0.0
 41
0.8123476848090979
 50
0.0
 71
     0
 42
0.2
  3
MSMINCHO.TTC
  4

  0
STYLE
  2
FDASTYLE3
 70
     0
 40
0.0
 41
0.6684336356141793
 50
0.0
 71
     0
 42
0.2
  3
MSGOTHIC.TTC
  4

  0
ENDTAB
  0
TABLE
  2
VIEW
 70
     0
  0
ENDTAB
  0
TABLE
  2
UCS
 70
     0
  0
ENDTAB
  0
TABLE
  2
APPID
 70
     2
  0
APPID
  2
ACAD
 70
     0
  0
APPID
  2
DAFUSIONOUT
 70
     0
  0
ENDTAB
  0
TABLE
  2
DIMSTYLE
 70
     1
  0
DIMSTYLE
  2
STANDARD
 70
     0
  3

  4

  5

  6

  7

 40
1.0
 41
0.18
 42
0.0625
 43
0.38
 44
0.18
 45
0.0
 46
0.0
 47
0.0
 48
0.0
140
0.18
141
0.09
142
0.0
143
25.4
144
1.0
145
0.0
146
1.0
147
0.09
 71
     0
 72
     0
 73
     1
 74
     1
 75
     0
 76
     0
 77
     0
 78
     0
170
     0
171
     2
172
     0
173
     0
174
     0
175
     0
176
     0
177
     0
178
     0
  0
ENDTAB
  0
ENDSEC
  0
SECTION
  2
BLOCKS
  0
BLOCK
  8
0
  2
$MODEL_SPACE
 70
     0
 10
0.0
 20
0.0
 30
0.0
  3
$MODEL_SPACE
  1

  0
ENDBLK
  5
21
  8
0
  0
BLOCK
 67
     1
  8
0
  2
$PAPER_SPACE
 70
     0
 10
0.0
 20
0.0
 30
0.0
  3
$PAPER_SPACE
  1

  0
ENDBLK
  5
1D
 67
     1
  8
0
  0
BLOCK
  8
0
  2
DC_GROUP_1
 70
     0
 10
0.0
 20
0.0
 30
0.0
  3
DC_GROUP_1
  1

  0
LINE
  5
196
  8
LAYER0001
  6
CONTINUOUS
 62
     7
 10
184.356716091617
 20
70.43021897068596
 30
0.0
 11
139.306628200992
 21
70.43021897068596
 31
0.0
  0
LINE
  5
197
  8
LAYER0001
  6
CONTINUOUS
 62
     7
 10
187.6903189968904
 20
-3.569781029314044
 30
0.0
 11
139.306628200992
 21
-3.569781029314044
 31
0.0
  0
LINE
  5
198
  8
LAYER0001
  6
CONTINUOUS
 62
     7
 10
141.5926389431795
 20
70.43021897068596
 30
0.0
 11
141.5926389431795
 21
-3.569781029314044
 31
0.0
  0
INSERT
  5
199
  8
LAYER0001
  6
CONTINUOUS
  2
DC_GROUP_2
 10
0.0
 20
0.0
 30
0.0
  0
INSERT
  5
19A
  8
LAYER0001
  6
CONTINUOUS
  2
DC_GROUP_3
 10
0.0
 20
0.0
 30
0.0
  0
TEXT
  5
19C
  8
LAYER0001
 62
     7
 10
139.978678753191
 20
25.43302368076509
 30
0.0
 40
4.0
  1
φ74H7
 50
89.90000000000001
 41
0.6213017751479297
  7
FDASTYLE1
 72
     5
 11
140.0012337659195
 21
38.35608092087529
 31
0.0
  0
ENDBLK
  5
4E
  8
0
  0
BLOCK
  8
0
  2
DC_GROUP_2
 70
     0
 10
0.0
 20
0.0
 30
0.0
  3
DC_GROUP_2
  1

  0
LINE
  5
19D
  8
LAYER0001
  6
CONTINUOUS
 62
     7
 10
141.0567394082819
 20
68.4302205630553
 30
0.0
 11
141.5926389431795
 21
70.43021897068596
 31
0.0
  0
LINE
  5
19E
  8
LAYER0001
  6
CONTINUOUS
 62
     7
 10
141.5926389431795
 20
70.43021897068596
 30
0.0
 11
142.1285384780771
 21
68.4302205630553
 31
0.0
  0
LINE
  5
19F
  8
LAYER0001
  6
CONTINUOUS
 62
     7
 10
141.5926389431795
 20
70.43021897068596
 30
0.0
 11
141.5926389431795
 21
68.4302205630553
 31
0.0
  0
ENDBLK
  5
51
  8
0
  0
BLOCK
  8
0
  2
DC_GROUP_3
 70
     0
 10
0.0
 20
0.0
 30
0.0
  3
DC_GROUP_3
  1

  0
LINE
  5
1A0
  8
LAYER0001
  6
CONTINUOUS
 62
     7
 10
142.1285384780771
 20
-1.569782621683382
 30
0.0
 11
141.5926389431795
 21
-3.569781029314044
 31
0.0
  0
LINE
  5
1A1
  8
LAYER0001
  6
CONTINUOUS
 62
     7
 10
141.5926389431795
 20
-3.569781029314044
 30
0.0
 11
141.0567394082819
 21
-1.569782621683382
 31
0.0
  0
LINE
  5
1A2
  8
LAYER0001
  6
CONTINUOUS
 62
     7
 10
141.5926389431795
 20
-3.569781029314044
 30
0.0
 11
141.5926389431795
 21
-1.569782621683382
 31
0.0
  0
ENDBLK
  5
54
  8
0
  0
BLOCK
  8
0
  2
DC_GROUP_4
 70
     0
 10
0.0
 20
0.0
 30
0.0
  3
DC_GROUP_4
  1

  0
LINE
  5
1A3
  8
LAYER0001
  6
CONTINUOUS
 62
     7
 10
183.4903220486482
 20
128.430218970686
 30
0.0
 11
127.6434812283357
 21
128.430218970686
 31
0.0
  0
LINE
  5
1A4
  8
LAYER0001
  6
CONTINUOUS
 62
     7
 10
183.4903220486482
 20
-61.56978102931404
 30
0.0
 11
127.6434812283357
 21
-61.56978102931404
 31
0.0
  0
LINE
  5
1A5
  8
LAYER0001
  6
CONTINUOUS
 62
     7
 10
129.9294919705232
 20
128.430218970686
 30
0.0
 11
129.9294919705232
 21
-61.56978102931404
 31
0.0
  0
INSERT
  5
1A6
  8
LAYER0001
  6
DASHDOT2
  2
DC_GROUP_5
 10
0.0
 20
0.0
 30
0.0
  0
INSERT
  5
1A7
  8
LAYER0001
  6
DASHDOT2
  2
DC_GROUP_6
 10
0.0
 20
0.0
 30
0.0
  0
TEXT
  5
1A8
  8
LAYER0001
 62
     7
 10
128.3127392551493
 20
23.83302611770385
 30
0.0
 40
4.0
  1
φ190H7
 50
89.90000000000001
 41
0.6243496357960451
  7
FDASTYLE1
 72
     5
 11
128.3397636943632
 21
39.31687350216764
 31
0.0
  0
ENDBLK
  5
57
  8
0
  0
BLOCK
  8
0
  2
DC_GROUP_5
 70
     0
 10
0.0
 20
0.0
 30
0.0
  3
DC_GROUP_5
  1

  0
LINE
  5
1A9
  8
LAYER0001
  6
CONTINUOUS
 62
     7
 10
129.3935924356256
 20
126.4302205630554
 30
0.0
 11
129.9294919705232
 21
128.430218970686
 31
0.0
  0
LINE
  5
1AA
  8
LAYER0001
  6
CONTINUOUS
 62
     7
 10
129.9294919705232
 20
128.430218970686
 30
0.0
 11
130.4653915054208
 21
126.4302205630554
 31
0.0
  0
LINE
  5
1AB
  8
LAYER0001
  6
CONTINUOUS
 62
     7
 10
129.9294919705232
 20
128.430218970686
 30
0.0
 11
129.9294919705232
 21
126.4302205630554
 31
0.0
  0
ENDBLK
  5
5A
  8
0
  0
BLOCK
  8
0
  2
DC_GROUP_6
 70
     0
 10
0.0
 20
0.0
 30
0.0
  3
DC_GROUP_6
  1

  0
LINE
  5
1AC
  8
LAYER0001
  6
CONTINUOUS
 62
     7
 10
130.4653915054208
 20
-59.56978262168338
 30
0.0
 11
129.9294919705232
 21
-61.56978102931404
 31
0.0
  0
LINE
  5
1AD
  8
LAYER0001
  6
CONTINUOUS
 62
     7
 10
129.9294919705232
 20
-61.56978102931404
 30
0.0
 11
129.3935924356256
 21
-59.56978262168338
 31
0.0
  0
LINE
  5
1AE
  8
LAYER0001
  6
CONTINUOUS
 62
     7
 10
129.9294919705232
 20
-61.56978102931404
 30
0.0
 11
129.9294919705232
 21
-59.56978262168338
 31
0.0
  0
ENDBLK
  5
5D
  8
0
  0
BLOCK
  8
0
  2
DC_GROUP_7
 70
     0
 10
0.0
 20
0.0
 30
0.0
  3
DC_GROUP_7
  1

  0
LINE
  5
1AF
  8
LAYER0001
  6
CONTINUOUS
 62
     7
 10
183.4903220486482
 20
140.930218970686
 30
0.0
 11
115.543444607242
 21
140.930218970686
 31
0.0
  0
LINE
  5
1B0
  8
LAYER0001
  6
CONTINUOUS
 62
     7
 10
183.4903220486482
 20
-74.06978102931404
 30
0.0
 11
115.543444607242
 21
-74.06978102931404
 31
0.0
  0
LINE
  5
1B1
  8
LAYER0001
  6
CONTINUOUS
 62
     7
 10
117.8294553494295
 20
140.930218970686
 30
0.0
 11
117.8294553494295
 21
-74.06978102931404
 31
0.0
  0
INSERT
  5
1B2
  8
LAYER0001
  6
CONTINUOUS
  2
DC_GROUP_8
 10
0.0
 20
0.0
 30
0.0
  0
INSERT
  5
1B3
  8
LAYER0001
  6
CONTINUOUS
  2
DC_GROUP_9
 10
0.0
 20
0.0
 30
0.0
  0
TEXT
  5
1B4
  8
LAYER0001
 62
     7
 10
116.2182876848264
 20
27.03302124382635
 30
0.0
 40
4.0
  1
φ215
 50
89.90000000000001
 41
0.6167800453514744
  7
FDASTYLE1
 72
     5
 11
116.2363726111321
 21
37.39491022365166
 31
0.0
  0
ENDBLK
  5
60
  8
0
  0
BLOCK
  8
0
  2
DC_GROUP_8
 70
     0
 10
0.0
 20
0.0
 30
0.0
  3
DC_GROUP_8
  1

  0
LINE
  5
1B5
  8
LAYER0001
  6
CONTINUOUS
 62
     7
 10
117.2935558145319
 20
138.9302205630553
 30
0.0
 11
117.8294553494295
 21
140.930218970686
 31
0.0
  0
LINE
  5
1B6
  8
LAYER0001
  6
CONTINUOUS
 62
     7
 10
117.8294553494295
 20
140.930218970686
 30
0.0
 11
118.3653548843271
 21
138.9302205630553
 31
0.0
  0
LINE
  5
1B7
  8
LAYER0001
  6
CONTINUOUS
 62
     7
 10
117.8294553494295
 20
140.930218970686
 30
0.0
 11
117.8294553494295
 21
138.9302205630553
 31
0.0
  0
ENDBLK
  5
63
  8
0
  0
BLOCK
  8
0
  2
DC_GROUP_9
 70
     0
 10
0.0
 20
0.0
 30
0.0
  3
DC_GROUP_9
  1

  0
LINE
  5
1B8
  8
LAYER0001
  6
CONTINUOUS
 62
     7
 10
118.3653548843271
 20
-72.06978262168337
 30
0.0
 11
117.8294553494295
 21
-74.06978102931404
 31
0.0
  0
LINE
  5
1B9
  8
LAYER0001
  6
CONTINUOUS
 62
     7
 10
117.8294553494295
 20
-74.06978102931404
 30
0.0
 11
117.2935558145319
 21
-72.06978262168337
 31
0.0
  0
LINE
  5
1BA
  8
LAYER0001
  6
CONTINUOUS
 62
     7
 10
117.8294553494295
 20
-74.06978102931404
 30
0.0
 11
117.8294553494295
 21
-72.06978262168337
 31
0.0
  0
ENDBLK
  5
66
  8
0
  0
BLOCK
  8
0
  2
DC_GROUP_10
 70
     0
 10
0.0
 20
0.0
 30
0.0
  3
DC_GROUP_10
  1

  0
LINE
  5
1BB
  8
LAYER0001
  6
CONTINUOUS
 62
     7
 10
172.723659450992
 20
-27.24478408107186
 30
0.0
 11
151.476794216617
 21
-27.24478408107186
 31
0.0
  0
LINE
  5
1BC
  8
LAYER0001
  6
CONTINUOUS
 62
     7
 10
172.723659450992
 20
-39.24478408107186
 30
0.0
 11
151.476794216617
 21
-39.24478408107186
 31
0.0
  0
LINE
  5
1BD
  8
LAYER0001
  6
CONTINUOUS
 62
     7
 10
153.7628049588045
 20
-27.24478408107186
 30
0.0
 11
153.7628049588045
 21
-39.24478408107186
 31
0.0
  0
INSERT
  5
1BE
  8
LAYER0001
  6
CONTINUOUS
  2
DC_GROUP_11
 10
0.0
 20
0.0
 30
0.0
  0
INSERT
  5
1BF
  8
LAYER0001
  6
CONTINUOUS
  2
DC_GROUP_12
 10
0.0
 20
0.0
 30
0.0
  0
TEXT
  5
1C0
  8
LAYER0001
 62
     7
 10
152.1544298195869
 20
-38.04198424487021
 30
0.0
 40
4.0
  1
M12
 50
89.90000000000001
 41
0.7238095238095257
  7
FDASTYLE1
 72
     5
 11
152.1695892431078
 21
-29.35628318825192
 31
0.0
  0
ENDBLK
  5
69
  8
0
  0
BLOCK
  8
0
  2
DC_GROUP_11
 70
     0
 10
0.0
 20
0.0
 30
0.0
  3
DC_GROUP_11
  1

  0
LINE
  5
1C1
  8
LAYER0001
  6
CONTINUOUS
 62
     7
 10
153.2269054239069
 20
-29.24478248870252
 30
0.0
 11
153.7628049588045
 21
-27.24478408107186
 31
0.0
  0
LINE
  5
1C2
  8
LAYER0001
  6
CONTINUOUS
 62
     7
 10
153.7628049588045
 20
-27.24478408107186
 30
0.0
 11
154.2987044937021
 21
-29.24478248870252
 31
0.0
  0
LINE
  5
1C3
  8
LAYER0001
  6
CONTINUOUS
 62
     7
 10
153.7628049588045
 20
-27.24478408107186
 30
0.0
 11
153.7628049588045
 21
-29.24478248870252
 31
0.0
  0
ENDBLK
  5
6C
  8
0
  0
BLOCK
  8
0
  2
DC_GROUP_12
 70
     0
 10
0.0
 20
0.0
 30
0.0
  3
DC_GROUP_12
  1

  0
LINE
  5
1C4
  8
LAYER0001
  6
CONTINUOUS
 62
     7
 10
154.2987044937021
 20
-37.2447856734412
 30
0.0
 11
153.7628049588045
 21
-39.24478408107186
 31
0.0
  0
LINE
  5
1C5
  8
LAYER0001
  6
CONTINUOUS
 62
     7
 10
153.7628049588045
 20
-39.24478408107186
 30
0.0
 11
153.2269054239069
 21
-37.2447856734412
 31
0.0
  0
LINE
  5
1C6
  8
LAYER0001
  6
CONTINUOUS
 62
     7
 10
153.7628049588045
 20
-39.24478408107186
 30
0.0
 11
153.7628049588045
 21
-37.2447856734412
 31
0.0
  0
ENDBLK
  5
6F
  8
0
  0
BLOCK
  8
0
  2
DC_GROUP_13
 70
     0
 10
0.0
 20
0.0
 30
0.0
  3
DC_GROUP_13
  1

  0
LINE
  5
1C7
  8
LAYER0001
  6
CONTINUOUS
 62
     7
 10
251.5703220486482
 20
0.9302189706859565
 30
0.0
 11
312.2488126492341
 21
0.9302189706859565
 31
0.0
  0
LINE
  5
1C8
  8
LAYER0001
  6
CONTINUOUS
 62
     7
 10
309.9628171658357
 20
0.9302189706859565
 30
0.0
 11
309.9628171658357
 21
56.18021897068596
 31
0.0
  0
INSERT
  5
1C9
  8
LAYER0001
  6
CONTINUOUS
  2
DC_GROUP_14
 10
0.0
 20
0.0
 30
0.0
  0
TEXT
  5
1CA
  8
LAYER0001
 62
     7
 10
308.3628171658357
 20
18.6857212900219
 30
0.0
 40
4.0
  1
M65×P1.25
 50
90.0
 41
0.6294896030245746
  7
FDASTYLE1
 72
     5
 11
308.3628171658357
 21
41.85093868132624
 31
0.0
  0
ENDBLK
  5
72
  8
0
  0
BLOCK
  8
0
  2
DC_GROUP_14
 70
     0
 10
0.0
 20
0.0
 30
0.0
  3
DC_GROUP_14
  1

  0
LINE
  5
1CB
  8
LAYER0001
  6
CONTINUOUS
 62
     7
 10
310.4987167007333
 20
2.930217378316618
 30
0.0
 11
309.9628171658357
 21
0.9302189706859565
 31
0.0
  0
LINE
  5
1CC
  8
LAYER0001
  6
CONTINUOUS
 62
     7
 10
309.9628171658357
 20
0.9302189706859565
 30
0.0
 11
309.4269176309381
 21
2.930217378316619
 31
0.0
  0
LINE
  5
1CD
  8
LAYER0001
  6
CONTINUOUS
 62
     7
 10
309.9628171658357
 20
0.9302189706859565
 30
0.0
 11
309.9628171658357
 21
2.930217378316618
 31
0.0
  0
ENDBLK
  5
75
  8
0
  0
BLOCK
  8
0
  2
DC_GROUP_15
 70
     0
 10
0.0
 20
0.0
 30
0.0
  3
DC_GROUP_15
  1

  0
LINE
  5
1CE
  8
LAYER0001
  6
CONTINUOUS
 62
     7
 10
280.5703220486482
 20
-6.569781029314044
 30
0.0
 11
323.9821424221834
 21
-6.569781029314044
 31
0.0
  0
LINE
  5
1CF
  8
LAYER0001
  6
CONTINUOUS
 62
     7
 10
321.6961393093904
 20
-6.569781029314044
 30
0.0
 11
321.6961393093904
 21
56.18021897068596
 31
0.0
  0
INSERT
  5
1D0
  8
LAYER0001
  6
CONTINUOUS
  2
DC_GROUP_16
 10
0.0
 20
0.0
 30
0.0
  0
TEXT
  5
1D1
  8
LAYER0001
 62
     7
 10
320.0961393093904
 20
25.08572129002189
 30
0.0
 40
4.0
  1
φ80H7
 50
90.0
 41
0.6213017751479283
  7
FDASTYLE1
 72
     5
 11
320.0961393093904
 21
38.0087982130988
 31
0.0
  0
ENDBLK
  5
78
  8
0
  0
BLOCK
  8
0
  2
DC_GROUP_16
 70
     0
 10
0.0
 20
0.0
 30
0.0
  3
DC_GROUP_16
  1

  0
LINE
  5
1D2
  8
LAYER0001
  6
CONTINUOUS
 62
     7
 10
322.232038844288
 20
-4.569782621683383
 30
0.0
 11
321.6961393093904
 21
-6.569781029314044
 31
0.0
  0
LINE
  5
1D3
  8
LAYER0001
  6
CONTINUOUS
 62
     7
 10
321.6961393093904
 20
-6.569781029314044
 30
0.0
 11
321.1602397744928
 21
-4.569782621683383
 31
0.0
  0
LINE
  5
1D4
  8
LAYER0001
  6
CONTINUOUS
 62
     7
 10
321.6961393093904
 20
-6.569781029314044
 30
0.0
 11
321.6961393093904
 21
-4.569782621683383
 31
0.0
  0
ENDBLK
  5
7B
  8
0
  0
BLOCK
  8
0
  2
DC_GROUP_17
 70
     0
 10
0.0
 20
0.0
 30
0.0
  3
DC_GROUP_17
  1

  0
LINE
  5
1D5
  8
LAYER0001
  6
CONTINUOUS
 62
     7
 10
279.5703220486482
 20
74.93021897068596
 30
0.0
 11
336.4488095974763
 21
74.93021897068596
 31
0.0
  0
LINE
  5
1D6
  8
LAYER0001
  6
CONTINUOUS
 62
     7
 10
279.5703220486482
 20
140.930218970686
 30
0.0
 11
336.4488095974763
 21
140.930218970686
 31
0.0
  0
LINE
  5
1D7
  8
LAYER0001
  6
CONTINUOUS
 62
     7
 10
334.1627988552888
 20
74.93021897068596
 30
0.0
 11
334.1627988552888
 21
140.930218970686
 31
0.0
  0
INSERT
  5
1D8
  8
LAYER0001
  6
BORDER
  2
DC_GROUP_18
 10
0.0
 20
0.0
 30
0.0
  0
INSERT
  5
1D9
  8
LAYER0001
  6
BORDER
  2
DC_GROUP_19
 10
0.0
 20
0.0
 30
0.0
  0
TEXT
  5
1DA
  8
LAYER0001
 62
     7
 10
332.5572162414567
 20
104.7330163699489
 30
0.0
 40
4.0
  1
66
 50
89.90000000000001
 41
0.6285714285714265
  7
FDASTYLE1
 72
     5
 11
332.565992749811
 21
109.76158013957
 31
0.0
  0
ENDBLK
  5
7E
  8
0
  0
BLOCK
  8
0
  2
DC_GROUP_18
 70
     0
 10
0.0
 20
0.0
 30
0.0
  3
DC_GROUP_18
  1

  0
LINE
  5
1DB
  8
LAYER0001
  6
CONTINUOUS
 62
     7
 10
334.6986983901865
 20
76.93021737831661
 30
0.0
 11
334.1627988552888
 21
74.93021897068596
 31
0.0
  0
LINE
  5
1DC
  8
LAYER0001
  6
CONTINUOUS
 62
     7
 10
334.1627988552888
 20
74.93021897068596
 30
0.0
 11
333.6268993203912
 21
76.93021737831661
 31
0.0
  0
LINE
  5
1DD
  8
LAYER0001
  6
CONTINUOUS
 62
     7
 10
334.1627988552888
 20
74.93021897068596
 30
0.0
 11
334.1627988552888
 21
76.93021737831661
 31
0.0
  0
ENDBLK
  5
81
  8
0
  0
BLOCK
  8
0
  2
DC_GROUP_19
 70
     0
 10
0.0
 20
0.0
 30
0.0
  3
DC_GROUP_19
  1

  0
LINE
  5
1DE
  8
LAYER0001
  6
CONTINUOUS
 62
     7
 10
333.6268993203912
 20
138.9302205630553
 30
0.0
 11
334.1627988552888
 21
140.930218970686
 31
0.0
  0
LINE
  5
1DF
  8
LAYER0001
  6
CONTINUOUS
 62
     7
 10
334.1627988552888
 20
140.930218970686
 30
0.0
 11
334.6986983901865
 21
138.9302205630553
 31
0.0
  0
LINE
  5
1E0
  8
LAYER0001
  6
CONTINUOUS
 62
     7
 10
334.1627988552888
 20
140.930218970686
 30
0.0
 11
334.1627988552888
 21
138.9302205630553
 31
0.0
  0
ENDBLK
  5
84
  8
0
  0
BLOCK
  8
0
  2
DC_GROUP_20
 70
     0
 10
0.0
 20
0.0
 30
0.0
  3
DC_GROUP_20
  1

  0
LINE
  5
1E1
  8
LAYER0001
  6
CONTINUOUS
 62
     7
 10
190.2303189968904
 20
-105.3926357217896
 30
0.0
 11
228.0303220486482
 21
-105.3926357217896
 31
0.0
  0
LINE
  5
1E2
  8
LAYER0001
  6
CONTINUOUS
 62
     7
 10
190.2303342556795
 20
-64.10978102931405
 30
0.0
 11
190.2303186272748
 21
-106.3926357217895
 31
0.0
  0
LINE
  5
1E3
  8
LAYER0001
  6
CONTINUOUS
 62
     7
 10
228.0303220486482
 20
-0.6097810293140435
 30
0.0
 11
228.0303220486482
 21
-106.3926357217896
 31
0.0
  0
INSERT
  5
1E4
  8
LAYER0001
  6
DASHDOT2
  2
DC_GROUP_21
 10
0.0
 20
0.0
 30
0.0
  0
INSERT
  5
1E5
  8
LAYER0001
  6
DASHDOT2
  2
DC_GROUP_22
 10
0.0
 20
0.0
 30
0.0
  0
TEXT
  5
1E6
  8
LAYER0001
 62
     7
 10
196.3303281521638
 20
-103.7926357217896
 30
0.0
 40
4.0
  1
MAX 50.3
 41
0.6952380952380963
  7
FDASTYLE1
 72
     5
 11
218.5779471997829
 21
-103.7926357217896
 31
0.0
  0
ENDBLK
  5
87
  8
0
  0
BLOCK
  8
0
  2
DC_GROUP_21
 70
     0
 10
0.0
 20
0.0
 30
0.0
  3
DC_GROUP_21
  1

  0
LINE
  5
1E7
  8
LAYER0001
  6
CONTINUOUS
 62
     7
 10
192.2303174045211
 20
-105.9285352566872
 30
0.0
 11
190.2303189968904
 21
-105.3926357217896
 31
0.0
  0
LINE
  5
1E8
  8
LAYER0001
  6
CONTINUOUS
 62
     7
 10
190.2303189968904
 20
-105.3926357217896
 30
0.0
 11
192.2303174045211
 21
-104.856736186892
 31
0.0
  0
LINE
  5
1E9
  8
LAYER0001
  6
CONTINUOUS
 62
     7
 10
190.2303189968904
 20
-105.3926357217896
 30
0.0
 11
192.2303174045211
 21
-105.3926357217896
 31
0.0
  0
ENDBLK
  5
8A
  8
0
  0
BLOCK
  8
0
  2
DC_GROUP_22
 70
     0
 10
0.0
 20
0.0
 30
0.0
  3
DC_GROUP_22
  1

  0
LINE
  5
1EA
  8
LAYER0001
  6
CONTINUOUS
 62
     7
 10
226.0303236410175
 20
-104.856736186892
 30
0.0
 11
228.0303220486482
 21
-105.3926357217896
 31
0.0
  0
LINE
  5
1EB
  8
LAYER0001
  6
CONTINUOUS
 62
     7
 10
228.0303220486482
 20
-105.3926357217896
 30
0.0
 11
226.0303236410175
 21
-105.9285352566872
 31
0.0
  0
LINE
  5
1EC
  8
LAYER0001
  6
CONTINUOUS
 62
     7
 10
228.0303220486482
 20
-105.3926357217896
 30
0.0
 11
226.0303236410175
 21
-105.3926357217896
 31
0.0
  0
ENDBLK
  5
8D
  8
0
  0
BLOCK
  8
0
  2
DC_GROUP_23
 70
     0
 10
0.0
 20
0.0
 30
0.0
  3
DC_GROUP_23
  1

  0
LINE
  5
1ED
  8
LAYER0001
  6
CONTINUOUS
 62
     7
 10
199.0303220486482
 20
21.11728790989494
 30
0.0
 11
228.0303220486482
 21
21.11728790989494
 31
0.0
  0
INSERT
  5
1EE
  8
LAYER0001
  6
DASHDOT2
  2
DC_GROUP_24
 10
0.0
 20
0.0
 30
0.0
  0
INSERT
  5
1EF
  8
LAYER0001
  6
DASHDOT2
  2
DC_GROUP_25
 10
0.0
 20
0.0
 30
0.0
  0
TEXT
  5
1F0
  8
LAYER0001
 62
     7
 10
210.3303220486482
 20
22.71728790989494
 30
0.0
 40
4.0
  1
29
 41
0.6285714285714263
  7
FDASTYLE1
 72
     5
 11
215.3588934772196
 21
22.71728790989494
 31
0.0
  0
ENDBLK
  5
90
  8
0
  0
BLOCK
  8
0
  2
DC_GROUP_24
 70
     0
 10
0.0
 20
0.0
 30
0.0
  3
DC_GROUP_24
  1

  0
LINE
  5
1F1
  8
LAYER0001
  6
CONTINUOUS
 62
     7
 10
201.0303204562789
 20
20.58138837499733
 30
0.0
 11
199.0303220486482
 21
21.11728790989494
 31
0.0
  0
LINE
  5
1F2
  8
LAYER0001
  6
CONTINUOUS
 62
     7
 10
199.0303220486482
 20
21.11728790989494
 30
0.0
 11
201.0303204562789
 21
21.65318744479255
 31
0.0
  0
LINE
  5
1F3
  8
LAYER0001
  6
CONTINUOUS
 62
     7
 10
199.0303220486482
 20
21.11728790989494
 30
0.0
 11
201.0303204562789
 21
21.11728790989494
 31
0.0
  0
ENDBLK
  5
93
  8
0
  0
BLOCK
  8
0
  2
DC_GROUP_25
 70
     0
 10
0.0
 20
0.0
 30
0.0
  3
DC_GROUP_25
  1

  0
LINE
  5
1F4
  8
LAYER0001
  6
CONTINUOUS
 62
     7
 10
226.0303236410175
 20
21.65318744479255
 30
0.0
 11
228.0303220486482
 21
21.11728790989494
 31
0.0
  0
LINE
  5
1F5
  8
LAYER0001
  6
CONTINUOUS
 62
     7
 10
228.0303220486482
 20
21.11728790989494
 30
0.0
 11
226.0303236410175
 21
20.58138837499733
 31
0.0
  0
LINE
  5
1F6
  8
LAYER0001
  6
CONTINUOUS
 62
     7
 10
228.0303220486482
 20
21.11728790989494
 30
0.0
 11
226.0303236410175
 21
21.11728790989494
 31
0.0
  0
ENDBLK
  5
96
  8
0
  0
BLOCK
  8
0
  2
DC_GROUP_26
 70
     0
 10
0.0
 20
0.0
 30
0.0
  3
DC_GROUP_26
  1

  0
LINE
  5
1F7
  8
LAYER0001
  6
CONTINUOUS
 62
     7
 10
228.0303220486482
 20
21.11728790989494
 30
0.0
 11
240.0303220486482
 21
21.11728790989494
 31
0.0
  0
INSERT
  5
1F8
  8
LAYER0001
  6
DASHDOT2
  2
DC_GROUP_27
 10
0.0
 20
0.0
 30
0.0
  0
INSERT
  5
1F9
  8
LAYER0001
  6
CONTINUOUS
  2
DC_GROUP_28
 10
0.0
 20
0.0
 30
0.0
  0
TEXT
  5
1FA
  8
LAYER0001
 62
     7
 10
230.8303220486482
 20
22.71728790989494
 30
0.0
 40
4.0
  1
12
 41
0.5904761904761919
  7
FDASTYLE1
 72
     5
 11
235.5541315724577
 21
22.71728790989494
 31
0.0
  0
ENDBLK
  5
99
  8
0
  0
BLOCK
  8
0
  2
DC_GROUP_27
 70
     0
 10
0.0
 20
0.0
 30
0.0
  3
DC_GROUP_27
  1

  0
LINE
  5
1FB
  8
LAYER0001
  6
CONTINUOUS
 62
     7
 10
230.0303204562788
 20
20.58138837499733
 30
0.0
 11
228.0303220486482
 21
21.11728790989494
 31
0.0
  0
LINE
  5
1FC
  8
LAYER0001
  6
CONTINUOUS
 62
     7
 10
228.0303220486482
 20
21.11728790989494
 30
0.0
 11
230.0303204562788
 21
21.65318744479255
 31
0.0
  0
LINE
  5
1FD
  8
LAYER0001
  6
CONTINUOUS
 62
     7
 10
228.0303220486482
 20
21.11728790989494
 30
0.0
 11
230.0303204562788
 21
21.11728790989494
 31
0.0
  0
ENDBLK
  5
9C
  8
0
  0
BLOCK
  8
0
  2
DC_GROUP_28
 70
     0
 10
0.0
 20
0.0
 30
0.0
  3
DC_GROUP_28
  1

  0
LINE
  5
1FE
  8
LAYER0001
  6
CONTINUOUS
 62
     7
 10
238.0303236410175
 20
21.65318744479255
 30
0.0
 11
240.0303220486482
 21
21.11728790989494
 31
0.0
  0
LINE
  5
1FF
  8
LAYER0001
  6
CONTINUOUS
 62
     7
 10
240.0303220486482
 20
21.11728790989494
 30
0.0
 11
238.0303236410175
 21
20.58138837499733
 31
0.0
  0
LINE
  5
200
  8
LAYER0001
  6
CONTINUOUS
 62
     7
 10
240.0303220486482
 20
21.11728790989494
 30
0.0
 11
238.0303236410175
 21
21.11728790989494
 31
0.0
  0
ENDBLK
  5
9F
  8
0
  0
BLOCK
  8
0
  2
DC_GROUP_29
 70
     0
 10
0.0
 20
0.0
 30
0.0
  3
DC_GROUP_29
  1

  0
LINE
  5
201
  8
LAYER0001
  6
CONTINUOUS
 62
     7
 10
240.0303220486482
 20
21.11728790989494
 30
0.0
 11
249.0303220486482
 21
21.11728790989494
 31
0.0
  0
INSERT
  5
202
  8
LAYER0001
  6
CONTINUOUS
  2
DC_GROUP_30
 10
0.0
 20
0.0
 30
0.0
  0
INSERT
  5
203
  8
LAYER0001
  6
CONTINUOUS
  2
DC_GROUP_31
 10
0.0
 20
0.0
 30
0.0
  0
TEXT
  5
204
  8
LAYER0001
 62
     7
 10
242.9303220486482
 20
22.71728790989494
 30
0.0
 40
4.0
  1
9
 41
0.4952380952380935
  7
FDASTYLE1
 72
     5
 11
244.9112744296006
 21
22.71728790989494
 31
0.0
  0
ENDBLK
  5
A2
  8
0
  0
BLOCK
  8
0
  2
DC_GROUP_30
 70
     0
 10
0.0
 20
0.0
 30
0.0
  3
DC_GROUP_30
  1

  0
LINE
  5
205
  8
LAYER0001
  6
CONTINUOUS
 62
     7
 10
242.0303204562788
 20
20.58138837499733
 30
0.0
 11
240.0303220486482
 21
21.11728790989494
 31
0.0
  0
LINE
  5
206
  8
LAYER0001
  6
CONTINUOUS
 62
     7
 10
240.0303220486482
 20
21.11728790989494
 30
0.0
 11
242.0303204562788
 21
21.65318744479255
 31
0.0
  0
LINE
  5
207
  8
LAYER0001
  6
CONTINUOUS
 62
     7
 10
240.0303220486482
 20
21.11728790989494
 30
0.0
 11
242.0303204562788
 21
21.11728790989494
 31
0.0
  0
ENDBLK
  5
A5
  8
0
  0
BLOCK
  8
0
  2
DC_GROUP_31
 70
     0
 10
0.0
 20
0.0
 30
0.0
  3
DC_GROUP_31
  1

  0
LINE
  5
208
  8
LAYER0001
  6
CONTINUOUS
 62
     7
 10
247.0303236410175
 20
21.65318744479255
 30
0.0
 11
249.0303220486482
 21
21.11728790989494
 31
0.0
  0
LINE
  5
209
  8
LAYER0001
  6
CONTINUOUS
 62
     7
 10
249.0303220486482
 20
21.11728790989494
 30
0.0
 11
247.0303236410175
 21
20.58138837499733
 31
0.0
  0
LINE
  5
20A
  8
LAYER0001
  6
CONTINUOUS
 62
     7
 10
249.0303220486482
 20
21.11728790989494
 30
0.0
 11
247.0303236410175
 21
21.11728790989494
 31
0.0
  0
ENDBLK
  5
A8
  8
0
  0
BLOCK
  8
0
  2
DC_GROUP_32
 70
     0
 10
0.0
 20
0.0
 30
0.0
  3
DC_GROUP_32
  1

  0
LINE
  5
20B
  8
LAYER0001
  6
CONTINUOUS
 62
     7
 10
275.5303220486482
 20
21.11728790989494
 30
0.0
 11
278.0303220486482
 21
21.11728790989494
 31
0.0
  0
LINE
  5
20C
  8
LAYER0001
  6
CONTINUOUS
 62
     7
 10
261.9984720486482
 20
21.11728790989494
 30
0.0
 11
275.5303220486482
 21
21.11728790989494
 31
0.0
  0
LINE
  5
20D
  8
LAYER0001
  6
CONTINUOUS
 62
     7
 10
283.0303220486482
 20
21.11728790989494
 30
0.0
 11
278.0303220486482
 21
21.11728790989494
 31
0.0
  0
INSERT
  5
20E
  8
LAYER0001
  6
CONTINUOUS
  2
DC_GROUP_33
 10
0.0
 20
0.0
 30
0.0
  0
INSERT
  5
20F
  8
LAYER0001
  6
CONTINUOUS
  2
DC_GROUP_34
 10
0.0
 20
0.0
 30
0.0
  0
TEXT
  5
210
  8
LAYER0001
 62
     7
 10
262.9984866702806
 20
22.13404306220757
 30
0.0
 40
4.0
  1
2.5
 50
-0.1000000000000078
 41
0.5587301587301553
  7
FDASTYLE1
 72
     5
 11
269.7032383631087
 21
22.1223410510686
 31
0.0
  0
ENDBLK
  5
AB
  8
0
  0
BLOCK
  8
0
  2
DC_GROUP_33
 70
     0
 10
0.0
 20
0.0
 30
0.0
  3
DC_GROUP_33
  1

  0
LINE
  5
211
  8
LAYER0001
  6
CONTINUOUS
 62
     7
 10
273.5303236410176
 20
21.65318744479255
 30
0.0
 11
275.5303220486482
 21
21.11728790989494
 31
0.0
  0
LINE
  5
212
  8
LAYER0001
  6
CONTINUOUS
 62
     7
 10
275.5303220486482
 20
21.11728790989494
 30
0.0
 11
273.5303236410176
 21
20.58138837499733
 31
0.0
  0
LINE
  5
213
  8
LAYER0001
  6
CONTINUOUS
 62
     7
 10
275.5303220486482
 20
21.11728790989494
 30
0.0
 11
273.5303236410176
 21
21.11728790989494
 31
0.0
  0
ENDBLK
  5
AE
  8
0
  0
BLOCK
  8
0
  2
DC_GROUP_34
 70
     0
 10
0.0
 20
0.0
 30
0.0
  3
DC_GROUP_34
  1

  0
LINE
  5
214
  8
LAYER0001
  6
CONTINUOUS
 62
     7
 10
280.0303204562789
 20
20.58138837499733
 30
0.0
 11
278.0303220486482
 21
21.11728790989494
 31
0.0
  0
LINE
  5
215
  8
LAYER0001
  6
CONTINUOUS
 62
     7
 10
278.0303220486482
 20
21.11728790989494
 30
0.0
 11
280.0303204562789
 21
21.65318744479255
 31
0.0
  0
LINE
  5
216
  8
LAYER0001
  6
CONTINUOUS
 62
     7
 10
278.0303220486482
 20
21.11728790989494
 30
0.0
 11
280.0303204562789
 21
21.11728790989494
 31
0.0
  0
ENDBLK
  5
B1
  8
0
  0
BLOCK
  8
0
  2
DC_GROUP_35
 70
     0
 10
0.0
 20
0.0
 30
0.0
  3
DC_GROUP_35
  1

  0
LINE
  5
217
  8
LAYER0001
  6
CONTINUOUS
 62
     7
 10
305.0301914334139
 20
90.93021897068596
 30
0.0
 11
311.0386571621736
 21
90.93021897068596
 31
0.0
  0
LINE
  5
218
  8
LAYER0001
  6
CONTINUOUS
 62
     7
 10
279.5703220486482
 20
74.93021897068596
 30
0.0
 11
311.0386571621736
 21
74.93021897068596
 31
0.0
  0
LINE
  5
219
  8
LAYER0001
  6
CONTINUOUS
 62
     7
 10
310.0386571621736
 20
90.93021897068596
 30
0.0
 11
310.0386571621736
 21
74.93021897068596
 31
0.0
  0
INSERT
  5
21A
  8
LAYER0001
  6
CONTINUOUS
  2
DC_GROUP_36
 10
0.0
 20
0.0
 30
0.0
  0
INSERT
  5
21B
  8
LAYER0001
  6
CONTINUOUS
  2
DC_GROUP_37
 10
0.0
 20
0.0
 30
0.0
  0
TEXT
  5
21C
  8
LAYER0001
 62
     7
 10
303.9386570429643
 20
78.13021897068595
 30
0.0
 40
4.0
  1
MIN
 50
90.0
 41
0.5841269841269868
  7
FDASTYLE1
 72
     5
 11
303.9386570429643
 21
85.13974278020979
 31
0.0
  0
TEXT
  5
21D
  8
LAYER0001
 62
     7
 10
308.4386571621736
 20
78.13021897068595
 30
0.0
 40
4.0
  1
 10
 50
90.0
 41
0.3936507936507923
  7
FDASTYLE1
 72
     5
 11
308.4386571621736
 21
82.85402849449545
 31
0.0
  0
ENDBLK
  5
B4
  8
0
  0
BLOCK
  8
0
  2
DC_GROUP_36
 70
     0
 10
0.0
 20
0.0
 30
0.0
  3
DC_GROUP_36
  1

  0
LINE
  5
21E
  8
LAYER0001
  6
CONTINUOUS
 62
     7
 10
309.502757627276
 20
88.9302205630553
 30
0.0
 11
310.0386571621736
 21
90.93021897068596
 31
0.0
  0
LINE
  5
21F
  8
LAYER0001
  6
CONTINUOUS
 62
     7
 10
310.0386571621736
 20
90.93021897068596
 30
0.0
 11
310.5745566970712
 21
88.9302205630553
 31
0.0
  0
LINE
  5
220
  8
LAYER0001
  6
CONTINUOUS
 62
     7
 10
310.0386571621736
 20
90.93021897068596
 30
0.0
 11
310.0386571621736
 21
88.9302205630553
 31
0.0
  0
ENDBLK
  5
B7
  8
0
  0
BLOCK
  8
0
  2
DC_GROUP_37
 70
     0
 10
0.0
 20
0.0
 30
0.0
  3
DC_GROUP_37
  1

  0
LINE
  5
221
  8
LAYER0001
  6
CONTINUOUS
 62
     7
 10
310.5745566970712
 20
76.93021737831661
 30
0.0
 11
310.0386571621736
 21
74.93021897068596
 31
0.0
  0
LINE
  5
222
  8
LAYER0001
  6
CONTINUOUS
 62
     7
 10
310.0386571621736
 20
74.93021897068596
 30
0.0
 11
309.502757627276
 21
76.93021737831661
 31
0.0
  0
LINE
  5
223
  8
LAYER0001
  6
CONTINUOUS
 62
     7
 10
310.0386571621736
 20
74.93021897068596
 30
0.0
 11
310.0386571621736
 21
76.93021737831661
 31
0.0
  0
ENDBLK
  5
BA
  8
0
  0
BLOCK
  8
0
  2
DC_GROUP_38
 70
     0
 10
0.0
 20
0.0
 30
0.0
  3
DC_GROUP_38
  1

  0
LINE
  5
224
  8
LAYER0001
  6
CONTINUOUS
 62
     7
 10
199.0303220486482
 20
72.47021897068596
 30
0.0
 11
199.0303220486482
 21
163.0419285654125
 31
0.0
  0
LINE
  5
225
  8
LAYER0001
  6
CONTINUOUS
 62
     7
 10
190.2303342556795
 20
130.970218970686
 30
0.0
 11
190.2303342556795
 21
163.0419285654125
 31
0.0
  0
LINE
  5
226
  8
LAYER0001
  6
CONTINUOUS
 62
     7
 10
199.0303220486482
 20
160.7559330820141
 30
0.0
 11
190.2303189968904
 21
160.7559330820141
 31
0.0
  0
LINE
  5
227
  8
LAYER0001
  6
CONTINUOUS
 62
     7
 10
199.0303220486482
 20
160.7559330820141
 30
0.0
 11
205.3803220486482
 21
160.7559330820141
 31
0.0
  0
LINE
  5
228
  8
LAYER0001
  6
CONTINUOUS
 62
     7
 10
183.8803189968904
 20
160.7559330820141
 30
0.0
 11
190.2303189968904
 21
160.7559330820141
 31
0.0
  0
INSERT
  5
229
  8
LAYER0001
  6
DASHDOT2
  2
DC_GROUP_39
 10
0.0
 20
0.0
 30
0.0
  0
INSERT
  5
22A
  8
LAYER0001
  6
DASHDOT2
  2
DC_GROUP_40
 10
0.0
 20
0.0
 30
0.0
  0
TEXT
  5
22B
  8
LAYER0001
 62
     7
 10
162.1620176052888
 20
162.3559330820141
 30
0.0
 40
4.0
  1
MAX21.3
 41
0.6802721088435371
  7
FDASTYLE1
 72
     5
 11
181.2096366529078
 21
162.3559330820141
 31
0.0
  0
ENDBLK
  5
BD
  8
0
  0
BLOCK
  8
0
  2
DC_GROUP_39
 70
     0
 10
0.0
 20
0.0
 30
0.0
  3
DC_GROUP_39
  1

  0
LINE
  5
22C
  8
LAYER0001
  6
CONTINUOUS
 62
     7
 10
201.0303204562789
 20
160.2200335471165
 30
0.0
 11
199.0303220486482
 21
160.7559330820141
 31
0.0
  0
LINE
  5
22D
  8
LAYER0001
  6
CONTINUOUS
 62
     7
 10
199.0303220486482
 20
160.7559330820141
 30
0.0
 11
201.0303204562789
 21
161.2918326169117
 31
0.0
  0
LINE
  5
22E
  8
LAYER0001
  6
CONTINUOUS
 62
     7
 10
199.0303220486482
 20
160.7559330820141
 30
0.0
 11
201.0303204562789
 21
160.7559330820141
 31
0.0
  0
ENDBLK
  5
C0
  8
0
  0
BLOCK
  8
0
  2
DC_GROUP_40
 70
     0
 10
0.0
 20
0.0
 30
0.0
  3
DC_GROUP_40
  1

  0
LINE
  5
22F
  8
LAYER0001
  6
CONTINUOUS
 62
     7
 10
188.2303205892597
 20
161.2918326169117
 30
0.0
 11
190.2303189968904
 21
160.7559330820141
 31
0.0
  0
LINE
  5
230
  8
LAYER0001
  6
CONTINUOUS
 62
     7
 10
190.2303189968904
 20
160.7559330820141
 30
0.0
 11
188.2303205892597
 21
160.2200335471165
 31
0.0
  0
LINE
  5
231
  8
LAYER0001
  6
CONTINUOUS
 62
     7
 10
190.2303189968904
 20
160.7559330820141
 30
0.0
 11
188.2303205892597
 21
160.7559330820141
 31
0.0
  0
ENDBLK
  5
C3
  8
0
  0
BLOCK
  8
0
  2
DC_GROUP_41
 70
     0
 10
0.0
 20
0.0
 30
0.0
  3
DC_GROUP_41
  1

  0
LINE
  5
232
  8
LAYER0001
  6
CONTINUOUS
 62
     7
 10
277.0303220486482
 20
143.470218970686
 30
0.0
 11
277.0303220486482
 21
162.7712376474438
 31
0.0
  0
LINE
  5
233
  8
LAYER0001
  6
CONTINUOUS
 62
     7
 10
278.0303220486482
 20
141.470218970686
 30
0.0
 11
278.0303220486482
 21
162.7712376474438
 31
0.0
  0
LINE
  5
234
  8
LAYER0001
  6
CONTINUOUS
 62
     7
 10
277.0303220486482
 20
160.4852421640453
 30
0.0
 11
278.0303220486482
 21
160.4852421640453
 31
0.0
  0
LINE
  5
235
  8
LAYER0001
  6
CONTINUOUS
 62
     7
 10
277.0303220486482
 20
160.4852421640453
 30
0.0
 11
270.6803220486482
 21
160.4852421640453
 31
0.0
  0
LINE
  5
236
  8
LAYER0001
  6
CONTINUOUS
 62
     7
 10
284.3803220486482
 20
160.4852421640453
 30
0.0
 11
278.0303220486482
 21
160.4852421640453
 31
0.0
  0
INSERT
  5
237
  8
LAYER0001
  6
CONTINUOUS
  2
DC_GROUP_42
 10
0.0
 20
0.0
 30
0.0
  0
INSERT
  5
238
  8
LAYER0001
  6
CONTINUOUS
  2
DC_GROUP_43
 10
0.0
 20
0.0
 30
0.0
  0
TEXT
  5
239
  8
LAYER0001
 62
     7
 10
281.3957482365583
 20
162.088032252492
 30
0.0
 40
4.0
  1
1
 50
-0.1000000000000078
 41
0.1904761904761877
  7
FDASTYLE1
 72
     5
 11
282.157651838016
 21
162.086702478499
 31
0.0
  0
ENDBLK
  5
C6
  8
0
  0
BLOCK
  8
0
  2
DC_GROUP_42
 70
     0
 10
0.0
 20
0.0
 30
0.0
  3
DC_GROUP_42
  1

  0
LINE
  5
23A
  8
LAYER0001
  6
CONTINUOUS
 62
     7
 10
275.0303236410176
 20
161.0211416989429
 30
0.0
 11
277.0303220486482
 21
160.4852421640453
 31
0.0
  0
LINE
  5
23B
  8
LAYER0001
  6
CONTINUOUS
 62
     7
 10
277.0303220486482
 20
160.4852421640453
 30
0.0
 11
275.0303236410176
 21
159.9493426291477
 31
0.0
  0
LINE
  5
23C
  8
LAYER0001
  6
CONTINUOUS
 62
     7
 10
277.0303220486482
 20
160.4852421640453
 30
0.0
 11
275.0303236410176
 21
160.4852421640453
 31
0.0
  0
ENDBLK
  5
C9
  8
0
  0
BLOCK
  8
0
  2
DC_GROUP_43
 70
     0
 10
0.0
 20
0.0
 30
0.0
  3
DC_GROUP_43
  1

  0
LINE
  5
23D
  8
LAYER0001
  6
CONTINUOUS
 62
     7
 10
280.0303204562789
 20
159.9493426291477
 30
0.0
 11
278.0303220486482
 21
160.4852421640453
 31
0.0
  0
LINE
  5
23E
  8
LAYER0001
  6
CONTINUOUS
 62
     7
 10
278.0303220486482
 20
160.4852421640453
 30
0.0
 11
280.0303204562789
 21
161.0211416989429
 31
0.0
  0
LINE
  5
23F
  8
LAYER0001
  6
CONTINUOUS
 62
     7
 10
278.0303220486482
 20
160.4852421640453
 30
0.0
 11
280.0303204562789
 21
160.4852421640453
 31
0.0
  0
ENDBLK
  5
CC
  8
0
  0
BLOCK
  8
0
  2
DC_GROUP_44
 70
     0
 10
0.0
 20
0.0
 30
0.0
  3
DC_GROUP_44
  1

  0
LINE
  5
240
  8
LAYER0001
  6
CONTINUOUS
 62
     7
 10
277.0376433384828
 20
135.3107686554386
 30
0.0
 11
296.2568928555372
 21
160.4852766186441
 31
0.0
  0
LINE
  5
241
  8
LAYER0001
  6
CONTINUOUS
 62
     7
 10
296.2568921780427
 20
160.4852879404125
 30
0.0
 11
342.8865613674959
 21
160.4852879404125
 31
0.0
  0
INSERT
  5
242
  8
LAYER0001
  6
CONTINUOUS
  2
DC_GROUP_45
 10
0.0
 20
0.0
 30
0.0
  0
TEXT
  5
243
  8
LAYER0001
 62
     7
 10
296.7983121609529
 20
162.0852879404125
 30
0.0
 40
4.0
  1
ｾﾚｰｼｮﾝP1.5山60ﾟ
 41
0.6332076968855386
  7
FDASTYLE1
 72
     5
 11
332.7645093440515
 21
162.0852879404125
 31
0.0
  0
ENDBLK
  5
CF
  8
0
  0
BLOCK
  8
0
  2
DC_GROUP_45
 70
     0
 10
0.0
 20
0.0
 30
0.0
  3
DC_GROUP_45
  1

  0
LINE
  5
244
  8
LAYER0001
  6
CONTINUOUS
 62
     7
 10
278.6772291728033
 20
136.5752607407932
 30
0.0
 11
277.0376433384828
 21
135.3107686554386
 31
0.0
  0
LINE
  5
245
  8
LAYER0001
  6
CONTINUOUS
 62
     7
 10
277.0376433384828
 20
135.3107686554386
 30
0.0
 11
277.825317463056
 21
137.2256450001425
 31
0.0
  0
LINE
  5
246
  8
LAYER0001
  6
CONTINUOUS
 62
     7
 10
277.0376433384828
 20
135.3107686554386
 30
0.0
 11
278.2512733179296
 21
136.9004528704678
 31
0.0
  0
ENDBLK
  5
D2
  8
0
  0
BLOCK
  8
0
  2
DC_GROUP_46
 70
     0
 10
0.0
 20
0.0
 30
0.0
  3
DC_GROUP_46
  1

  0
LINE
  5
247
  8
LAYER0001
  6
CONTINUOUS
 62
     7
 10
291.3235500950412
 20
126.1254666240535
 30
0.0
 11
306.5970275369297
 21
148.7302228644158
 31
0.0
  0
LINE
  5
248
  8
LAYER0001
  6
CONTINUOUS
 62
     7
 10
306.5970258450349
 20
148.7302220224438
 30
0.0
 11
318.0266980862459
 21
148.7302220224438
 31
0.0
  0
INSERT
  5
249
  8
LAYER0001
  6
CONTINUOUS
  2
DC_GROUP_47
 10
0.0
 20
0.0
 30
0.0
  0
TEXT
  5
24A
  8
LAYER0001
 62
     7
 10
307.2303533291658
 20
150.3302220224438
 30
0.0
 40
4.0
  1
M10
 41
0.723809523809526
  7
FDASTYLE1
 72
     5
 11
315.9160676148801
 21
150.3302220224438
 31
0.0
  0
ENDBLK
  5
D5
  8
0
  0
BLOCK
  8
0
  2
DC_GROUP_47
 70
     0
 10
0.0
 20
0.0
 30
0.0
  3
DC_GROUP_47
  1

  0
CIRCLE
  5
24B
  8
LAYER0001
  6
CONTINUOUS
 62
     7
 10
290.7636928474519
 20
125.2968775447617
 30
0.0
 40
1.0
  0
LINE
  5
24C
  8
LAYER0001
  6
CONTINUOUS
 62
     7
 10
291.3235500950412
 20
126.1254666240535
 30
0.0
 11
291.8834073426307
 21
126.9540557033453
 31
0.0
  0
ENDBLK
  5
D8
  8
0
  0
BLOCK
  8
0
  2
DC_GROUP_48
 70
     0
 10
0.0
 20
0.0
 30
0.0
  3
DC_GROUP_48
  1

  0
LINE
  5
24D
  8
LAYER0001
  6
CONTINUOUS
 62
     7
 10
280.5703220486482
 20
130.930218970686
 30
0.0
 11
322.8011693692048
 21
130.930218970686
 31
0.0
  0
LINE
  5
24E
  8
LAYER0001
  6
CONTINUOUS
 62
     7
 10
313.7307834744295
 20
80.93021897068596
 30
0.0
 11
322.8011693692048
 21
80.93021897068596
 31
0.0
  0
LINE
  5
24F
  8
LAYER0001
  6
CONTINUOUS
 62
     7
 10
321.8011693692048
 20
130.930218970686
 30
0.0
 11
321.8011693692048
 21
80.93021897068596
 31
0.0
  0
INSERT
  5
250
  8
LAYER0001
  6
CONTINUOUS
  2
DC_GROUP_49
 10
0.0
 20
0.0
 30
0.0
  0
INSERT
  5
251
  8
LAYER0001
  6
CONTINUOUS
  2
DC_GROUP_50
 10
0.0
 20
0.0
 30
0.0
  0
TEXT
  5
252
  8
LAYER0001
 62
     7
 10
320.2011693692048
 20
102.730218970686
 30
0.0
 40
4.0
  1
50
 50
90.0
 41
0.6476190476190524
  7
FDASTYLE1
 72
     5
 11
320.2011693692048
 21
107.9111713516384
 31
0.0
  0
ENDBLK
  5
DB
  8
0
  0
BLOCK
  8
0
  2
DC_GROUP_49
 70
     0
 10
0.0
 20
0.0
 30
0.0
  3
DC_GROUP_49
  1

  0
LINE
  5
253
  8
LAYER0001
  6
CONTINUOUS
 62
     7
 10
321.2652698343072
 20
128.9302205630554
 30
0.0
 11
321.8011693692048
 21
130.930218970686
 31
0.0
  0
LINE
  5
254
  8
LAYER0001
  6
CONTINUOUS
 62
     7
 10
321.8011693692048
 20
130.930218970686
 30
0.0
 11
322.3370689041025
 21
128.9302205630554
 31
0.0
  0
LINE
  5
255
  8
LAYER0001
  6
CONTINUOUS
 62
     7
 10
321.8011693692048
 20
130.930218970686
 30
0.0
 11
321.8011693692048
 21
128.9302205630554
 31
0.0
  0
ENDBLK
  5
DE
  8
0
  0
BLOCK
  8
0
  2
DC_GROUP_50
 70
     0
 10
0.0
 20
0.0
 30
0.0
  3
DC_GROUP_50
  1

  0
LINE
  5
256
  8
LAYER0001
  6
CONTINUOUS
 62
     7
 10
322.3370689041025
 20
82.93021737831663
 30
0.0
 11
321.8011693692048
 21
80.93021897068596
 31
0.0
  0
LINE
  5
257
  8
LAYER0001
  6
CONTINUOUS
 62
     7
 10
321.8011693692048
 20
80.93021897068596
 30
0.0
 11
321.2652698343072
 21
82.93021737831663
 31
0.0
  0
LINE
  5
258
  8
LAYER0001
  6
CONTINUOUS
 62
     7
 10
321.8011693692048
 20
80.93021897068596
 30
0.0
 11
321.8011693692048
 21
82.93021737831663
 31
0.0
  0
ENDBLK
  5
E1
  8
0
  0
BLOCK
  8
0
  2
DC_GROUP_51
 70
     0
 10
0.0
 20
0.0
 30
0.0
  3
DC_GROUP_51
  1

  0
LINE
  5
259
  8
LAYER0001
  6
CONTINUOUS
 62
     7
 10
305.0301914334139
 20
90.93021897068596
 30
0.0
 11
311.0386571621736
 21
90.93021897068596
 31
0.0
  0
LINE
  5
25A
  8
LAYER0001
  6
CONTINUOUS
 62
     7
 10
305.0301914334139
 20
120.930218970686
 30
0.0
 11
311.0386571621736
 21
120.930218970686
 31
0.0
  0
LINE
  5
25B
  8
LAYER0001
  6
CONTINUOUS
 62
     7
 10
310.0386571621736
 20
90.93021897068596
 30
0.0
 11
310.0386571621736
 21
120.930218970686
 31
0.0
  0
INSERT
  5
25C
  8
LAYER0001
  6
CONTINUOUS
  2
DC_GROUP_52
 10
0.0
 20
0.0
 30
0.0
  0
INSERT
  5
25D
  8
LAYER0001
  6
CONTINUOUS
  2
DC_GROUP_53
 10
0.0
 20
0.0
 30
0.0
  0
TEXT
  5
25E
  8
LAYER0001
 62
     7
 10
308.4386571621736
 20
102.730218970686
 30
0.0
 40
4.0
  1
30
 50
90.0
 41
0.6476190476190524
  7
FDASTYLE1
 72
     5
 11
308.4386571621736
 21
107.9111713516384
 31
0.0
  0
ENDBLK
  5
E4
  8
0
  0
BLOCK
  8
0
  2
DC_GROUP_52
 70
     0
 10
0.0
 20
0.0
 30
0.0
  3
DC_GROUP_52
  1

  0
LINE
  5
25F
  8
LAYER0001
  6
CONTINUOUS
 62
     7
 10
310.5745566970712
 20
92.93021737831663
 30
0.0
 11
310.0386571621736
 21
90.93021897068596
 31
0.0
  0
LINE
  5
260
  8
LAYER0001
  6
CONTINUOUS
 62
     7
 10
310.0386571621736
 20
90.93021897068596
 30
0.0
 11
309.502757627276
 21
92.93021737831663
 31
0.0
  0
LINE
  5
261
  8
LAYER0001
  6
CONTINUOUS
 62
     7
 10
310.0386571621736
 20
90.93021897068596
 30
0.0
 11
310.0386571621736
 21
92.93021737831663
 31
0.0
  0
ENDBLK
  5
E7
  8
0
  0
BLOCK
  8
0
  2
DC_GROUP_53
 70
     0
 10
0.0
 20
0.0
 30
0.0
  3
DC_GROUP_53
  1

  0
LINE
  5
262
  8
LAYER0001
  6
CONTINUOUS
 62
     7
 10
309.502757627276
 20
118.9302205630553
 30
0.0
 11
310.0386571621736
 21
120.930218970686
 31
0.0
  0
LINE
  5
263
  8
LAYER0001
  6
CONTINUOUS
 62
     7
 10
310.0386571621736
 20
120.930218970686
 30
0.0
 11
310.5745566970712
 21
118.9302205630553
 31
0.0
  0
LINE
  5
264
  8
LAYER0001
  6
CONTINUOUS
 62
     7
 10
310.0386571621736
 20
120.930218970686
 30
0.0
 11
310.0386571621736
 21
118.9302205630553
 31
0.0
  0
ENDBLK
  5
EA
  8
0
  0
BLOCK
  8
0
  2
DC_GROUP_54
 70
     0
 10
0.0
 20
0.0
 30
0.0
  3
DC_GROUP_54
  1

  0
LINE
  5
265
  8
LAYER0001
  6
CONTINUOUS
 62
     7
 10
227.4903220486482
 20
64.68021897068596
 30
0.0
 11
152.5931577420076
 21
64.68021897068596
 31
0.0
  0
LINE
  5
266
  8
LAYER0001
  6
CONTINUOUS
 62
     7
 10
227.4903220486482
 20
2.180218970685957
 30
0.0
 11
152.5931577420076
 21
2.180218970685957
 31
0.0
  0
LINE
  5
267
  8
LAYER0001
  6
CONTINUOUS
 62
     7
 10
153.5931577420076
 20
64.68021897068596
 30
0.0
 11
153.5931577420076
 21
2.180218970685957
 31
0.0
  0
INSERT
  5
268
  8
LAYER0001
  6
DASHDOT2
  2
DC_GROUP_55
 10
0.0
 20
0.0
 30
0.0
  0
INSERT
  5
269
  8
LAYER0001
  6
DASHDOT2
  2
DC_GROUP_56
 10
0.0
 20
0.0
 30
0.0
  0
TEXT
  5
26A
  8
LAYER0001
 62
     7
 10
151.9931577420076
 20
22.23021897068597
 30
0.0
 40
4.0
  1
φ62.5H7
 50
90.0
 41
0.6265432098765423
  7
FDASTYLE1
 72
     5
 11
151.9931577420076
 21
40.27466341513039
 31
0.0
  0
ENDBLK
  5
ED
  8
0
  0
BLOCK
  8
0
  2
DC_GROUP_55
 70
     0
 10
0.0
 20
0.0
 30
0.0
  3
DC_GROUP_55
  1

  0
LINE
  5
26B
  8
LAYER0001
  6
CONTINUOUS
 62
     7
 10
153.05725820711
 20
62.68022056305529
 30
0.0
 11
153.5931577420076
 21
64.68021897068596
 31
0.0
  0
LINE
  5
26C
  8
LAYER0001
  6
CONTINUOUS
 62
     7
 10
153.5931577420076
 20
64.68021897068596
 30
0.0
 11
154.1290572769052
 21
62.68022056305529
 31
0.0
  0
LINE
  5
26D
  8
LAYER0001
  6
CONTINUOUS
 62
     7
 10
153.5931577420076
 20
64.68021897068596
 30
0.0
 11
153.5931577420076
 21
62.68022056305529
 31
0.0
  0
ENDBLK
  5
F0
  8
0
  0
BLOCK
  8
0
  2
DC_GROUP_56
 70
     0
 10
0.0
 20
0.0
 30
0.0
  3
DC_GROUP_56
  1

  0
LINE
  5
26E
  8
LAYER0001
  6
CONTINUOUS
 62
     7
 10
154.1290572769052
 20
4.18021737831662
 30
0.0
 11
153.5931577420076
 21
2.180218970685957
 31
0.0
  0
LINE
  5
26F
  8
LAYER0001
  6
CONTINUOUS
 62
     7
 10
153.5931577420076
 20
2.180218970685957
 30
0.0
 11
153.05725820711
 21
4.18021737831662
 31
0.0
  0
LINE
  5
270
  8
LAYER0001
  6
CONTINUOUS
 62
     7
 10
153.5931577420076
 20
2.180218970685957
 30
0.0
 11
153.5931577420076
 21
4.18021737831662
 31
0.0
  0
ENDBLK
  5
F3
  8
0
  0
BLOCK
  8
0
  2
DC_GROUP_57
 70
     0
 10
0.0
 20
0.0
 30
0.0
  3
DC_GROUP_57
  1

  0
LINE
  5
271
  8
LAYER0001
  6
CONTINUOUS
 62
     7
 10
197.4903220486482
 20
58.43021897068596
 30
0.0
 11
164.9179868435701
 21
58.43021897068596
 31
0.0
  0
LINE
  5
272
  8
LAYER0001
  6
CONTINUOUS
 62
     7
 10
197.4903220486482
 20
8.430218970685957
 30
0.0
 11
164.9179868435701
 21
8.430218970685957
 31
0.0
  0
LINE
  5
273
  8
LAYER0001
  6
CONTINUOUS
 62
     7
 10
165.9179868435701
 20
58.43021897068596
 30
0.0
 11
165.9179868435701
 21
8.430218970685957
 31
0.0
  0
INSERT
  5
274
  8
LAYER0001
  6
DASHDOT2
  2
DC_GROUP_58
 10
0.0
 20
0.0
 30
0.0
  0
INSERT
  5
275
  8
LAYER0001
  6
DASHDOT2
  2
DC_GROUP_59
 10
0.0
 20
0.0
 30
0.0
  0
TEXT
  5
276
  8
LAYER0001
 62
     7
 10
164.3179868435701
 20
25.43021898260687
 30
0.0
 40
4.0
  1
φ50
 50
90.0
 41
0.6093750000000011
  7
FDASTYLE1
 72
     5
 11
164.3179868435701
 21
33.23021898260689
 31
0.0
  0
TEXT
  5
277
  8
LAYER0001
 62
     7
 10
162.1179868435701
 20
36.0302189826069
 30
0.0
 40
2.2
  1
+0.5
 50
90.0
 41
0.657142857142855
  7
FDASTYLE1
 72
     5
 11
162.1179868435701
 21
41.81307612546402
 31
0.0
  0
TEXT
  5
278
  8
LAYER0001
 62
     7
 10
164.5179868435701
 20
36.0302189826069
 30
0.0
 40
2.2
  1
 0
 50
90.0
 41
0.2666666666666696
  7
FDASTYLE1
 72
     5
 11
164.5179868435701
 21
37.20355231594024
 31
0.0
  0
ENDBLK
  5
F6
  8
0
  0
BLOCK
  8
0
  2
DC_GROUP_58
 70
     0
 10
0.0
 20
0.0
 30
0.0
  3
DC_GROUP_58
  1

  0
LINE
  5
279
  8
LAYER0001
  6
CONTINUOUS
 62
     7
 10
165.3820873086725
 20
56.43022056305529
 30
0.0
 11
165.9179868435701
 21
58.43021897068596
 31
0.0
  0
LINE
  5
27A
  8
LAYER0001
  6
CONTINUOUS
 62
     7
 10
165.9179868435701
 20
58.43021897068596
 30
0.0
 11
166.4538863784677
 21
56.43022056305529
 31
0.0
  0
LINE
  5
27B
  8
LAYER0001
  6
CONTINUOUS
 62
     7
 10
165.9179868435701
 20
58.43021897068596
 30
0.0
 11
165.9179868435701
 21
56.43022056305529
 31
0.0
  0
ENDBLK
  5
F9
  8
0
  0
BLOCK
  8
0
  2
DC_GROUP_59
 70
     0
 10
0.0
 20
0.0
 30
0.0
  3
DC_GROUP_59
  1

  0
LINE
  5
27C
  8
LAYER0001
  6
CONTINUOUS
 62
     7
 10
166.4538863784677
 20
10.43021737831662
 30
0.0
 11
165.9179868435701
 21
8.430218970685957
 31
0.0
  0
LINE
  5
27D
  8
LAYER0001
  6
CONTINUOUS
 62
     7
 10
165.9179868435701
 20
8.430218970685957
 30
0.0
 11
165.3820873086725
 21
10.43021737831662
 31
0.0
  0
LINE
  5
27E
  8
LAYER0001
  6
CONTINUOUS
 62
     7
 10
165.9179868435701
 20
8.430218970685957
 30
0.0
 11
165.9179868435701
 21
10.43021737831662
 31
0.0
  0
ENDBLK
  5
FC
  8
0
  0
BLOCK
  8
0
  2
DC_GROUP_60
 70
     0
 10
0.0
 20
0.0
 30
0.0
  3
DC_GROUP_60
  1

  0
LINE
  5
27F
  8
LAYER0001
  6
CONTINUOUS
 62
     7
 10
186.0303220486482
 20
-118.864324884817
 30
0.0
 11
190.2303189968904
 21
-118.864324884817
 31
0.0
  0
LINE
  5
280
  8
LAYER0001
  6
CONTINUOUS
 62
     7
 10
186.0303220486482
 20
-76.60978102931405
 30
0.0
 11
186.0303220486482
 21
-119.864324884817
 31
0.0
  0
LINE
  5
281
  8
LAYER0001
  6
CONTINUOUS
 62
     7
 10
190.2303342556795
 20
-64.10978102931405
 30
0.0
 11
190.2303187182142
 21
-119.864324884817
 31
0.0
  0
LINE
  5
282
  8
LAYER0001
  6
CONTINUOUS
 62
     7
 10
186.0303220486482
 20
-118.864324884817
 30
0.0
 11
172.1960450947381
 21
-118.864324884817
 31
0.0
  0
LINE
  5
283
  8
LAYER0001
  6
CONTINUOUS
 62
     7
 10
196.5803189968904
 20
-118.864324884817
 30
0.0
 11
190.2303189968904
 21
-118.864324884817
 31
0.0
  0
INSERT
  5
284
  8
LAYER0001
  6
DASHDOT2
  2
DC_GROUP_61
 10
0.0
 20
0.0
 30
0.0
  0
INSERT
  5
285
  8
LAYER0001
  6
DASHDOT2
  2
DC_GROUP_62
 10
0.0
 20
0.0
 30
0.0
  0
TEXT
  5
286
  8
LAYER0001
 62
     7
 10
171.5424480567249
 20
-117.2559497455994
 30
0.0
 40
4.0
  1
4.2
 50
-0.1000000000000078
 41
0.5587301587301624
  7
FDASTYLE1
 72
     5
 11
178.2471997495531
 21
-117.2676517567384
 31
0.0
  0
ENDBLK
  5
FF
  8
0
  0
BLOCK
  8
0
  2
DC_GROUP_61
 70
     0
 10
0.0
 20
0.0
 30
0.0
  3
DC_GROUP_61
  1

  0
LINE
  5
287
  8
LAYER0001
  6
CONTINUOUS
 62
     7
 10
184.0303236410176
 20
-118.3284253499194
 30
0.0
 11
186.0303220486482
 21
-118.864324884817
 31
0.0
  0
LINE
  5
288
  8
LAYER0001
  6
CONTINUOUS
 62
     7
 10
186.0303220486482
 20
-118.864324884817
 30
0.0
 11
184.0303236410176
 21
-119.4002244197146
 31
0.0
  0
LINE
  5
289
  8
LAYER0001
  6
CONTINUOUS
 62
     7
 10
186.0303220486482
 20
-118.864324884817
 30
0.0
 11
184.0303236410176
 21
-118.864324884817
 31
0.0
  0
ENDBLK
  5
102
  8
0
  0
BLOCK
  8
0
  2
DC_GROUP_62
 70
     0
 10
0.0
 20
0.0
 30
0.0
  3
DC_GROUP_62
  1

  0
LINE
  5
28A
  8
LAYER0001
  6
CONTINUOUS
 62
     7
 10
192.2303174045211
 20
-119.4002244197146
 30
0.0
 11
190.2303189968904
 21
-118.864324884817
 31
0.0
  0
LINE
  5
28B
  8
LAYER0001
  6
CONTINUOUS
 62
     7
 10
190.2303189968904
 20
-118.864324884817
 30
0.0
 11
192.2303174045211
 21
-118.3284253499194
 31
0.0
  0
LINE
  5
28C
  8
LAYER0001
  6
CONTINUOUS
 62
     7
 10
190.2303189968904
 20
-118.864324884817
 30
0.0
 11
192.2303174045211
 21
-118.864324884817
 31
0.0
  0
ENDBLK
  5
105
  8
0
  0
BLOCK
  8
0
  2
DC_GROUP_63
 70
     0
 10
0.0
 20
0.0
 30
0.0
  3
DC_GROUP_63
  1

  0
LINE
  5
28D
  8
LAYER0001
  6
CONTINUOUS
 62
     7
 10
190.2303189968904
 20
-118.864324884817
 30
0.0
 11
278.0303220486482
 21
-118.864324884817
 31
0.0
  0
LINE
  5
28E
  8
LAYER0001
  6
CONTINUOUS
 62
     7
 10
190.2303342556795
 20
-64.10978102931405
 30
0.0
 11
190.2303187182142
 21
-119.864324884817
 31
0.0
  0
LINE
  5
28F
  8
LAYER0001
  6
CONTINUOUS
 62
     7
 10
278.0303220486482
 20
-74.60978102931405
 30
0.0
 11
278.0303220486482
 21
-119.864324884817
 31
0.0
  0
INSERT
  5
290
  8
LAYER0001
  6
DASHDOT2
  2
DC_GROUP_64
 10
0.0
 20
0.0
 30
0.0
  0
INSERT
  5
291
  8
LAYER0001
  6
CONTINUOUS
  2
DC_GROUP_65
 10
0.0
 20
0.0
 30
0.0
  0
TEXT
  5
292
  8
LAYER0001
 62
     7
 10
227.7303281521638
 20
-117.264324884817
 30
0.0
 40
4.0
  1
87.8
 41
0.6095238095238109
  7
FDASTYLE1
 72
     5
 11
237.4827091045448
 21
-117.264324884817
 31
0.0
  0
ENDBLK
  5
108
  8
0
  0
BLOCK
  8
0
  2
DC_GROUP_64
 70
     0
 10
0.0
 20
0.0
 30
0.0
  3
DC_GROUP_64
  1

  0
LINE
  5
293
  8
LAYER0001
  6
CONTINUOUS
 62
     7
 10
192.2303174045211
 20
-119.4002244197146
 30
0.0
 11
190.2303189968904
 21
-118.864324884817
 31
0.0
  0
LINE
  5
294
  8
LAYER0001
  6
CONTINUOUS
 62
     7
 10
190.2303189968904
 20
-118.864324884817
 30
0.0
 11
192.2303174045211
 21
-118.3284253499194
 31
0.0
  0
LINE
  5
295
  8
LAYER0001
  6
CONTINUOUS
 62
     7
 10
190.2303189968904
 20
-118.864324884817
 30
0.0
 11
192.2303174045211
 21
-118.864324884817
 31
0.0
  0
ENDBLK
  5
10B
  8
0
  0
BLOCK
  8
0
  2
DC_GROUP_65
 70
     0
 10
0.0
 20
0.0
 30
0.0
  3
DC_GROUP_65
  1

  0
LINE
  5
296
  8
LAYER0001
  6
CONTINUOUS
 62
     7
 10
276.0303236410176
 20
-118.3284253499194
 30
0.0
 11
278.0303220486482
 21
-118.864324884817
 31
0.0
  0
LINE
  5
297
  8
LAYER0001
  6
CONTINUOUS
 62
     7
 10
278.0303220486482
 20
-118.864324884817
 30
0.0
 11
276.0303236410176
 21
-119.4002244197146
 31
0.0
  0
LINE
  5
298
  8
LAYER0001
  6
CONTINUOUS
 62
     7
 10
278.0303220486482
 20
-118.864324884817
 30
0.0
 11
276.0303236410176
 21
-118.864324884817
 31
0.0
  0
ENDBLK
  5
10E
  8
0
  0
BLOCK
  8
0
  2
DC_GROUP_66
 70
     0
 10
0.0
 20
0.0
 30
0.0
  3
DC_GROUP_66
  1

  0
LINE
  5
299
  8
LAYER0001
  6
CONTINUOUS
 62
     7
 10
186.0303220486482
 20
-129.8296532733278
 30
0.0
 11
278.0303220486482
 21
-129.8296532733278
 31
0.0
  0
LINE
  5
29A
  8
LAYER0001
  6
CONTINUOUS
 62
     7
 10
186.0303220486482
 20
-76.60978102931405
 30
0.0
 11
186.0303220486482
 21
-130.8296532733278
 31
0.0
  0
LINE
  5
29B
  8
LAYER0001
  6
CONTINUOUS
 62
     7
 10
278.0303220486482
 20
-74.60978102931405
 30
0.0
 11
278.0303220486482
 21
-130.8296532733278
 31
0.0
  0
INSERT
  5
29C
  8
LAYER0001
  6
DASHDOT2
  2
DC_GROUP_67
 10
0.0
 20
0.0
 30
0.0
  0
INSERT
  5
29D
  8
LAYER0001
  6
CONTINUOUS
  2
DC_GROUP_68
 10
0.0
 20
0.0
 30
0.0
  0
TEXT
  5
29E
  8
LAYER0001
 62
     7
 10
228.8303220486482
 20
-128.2296532733278
 30
0.0
 40
4.0
  1
92
 41
0.6476190476190489
  7
FDASTYLE1
 72
     5
 11
234.0112744296006
 21
-128.2296532733278
 31
0.0
  0
ENDBLK
  5
111
  8
0
  0
BLOCK
  8
0
  2
DC_GROUP_67
 70
     0
 10
0.0
 20
0.0
 30
0.0
  3
DC_GROUP_67
  1

  0
LINE
  5
29F
  8
LAYER0001
  6
CONTINUOUS
 62
     7
 10
188.0303204562789
 20
-130.3655528082254
 30
0.0
 11
186.0303220486482
 21
-129.8296532733278
 31
0.0
  0
LINE
  5
2A0
  8
LAYER0001
  6
CONTINUOUS
 62
     7
 10
186.0303220486482
 20
-129.8296532733278
 30
0.0
 11
188.0303204562789
 21
-129.2937537384302
 31
0.0
  0
LINE
  5
2A1
  8
LAYER0001
  6
CONTINUOUS
 62
     7
 10
186.0303220486482
 20
-129.8296532733278
 30
0.0
 11
188.0303204562789
 21
-129.8296532733278
 31
0.0
  0
ENDBLK
  5
114
  8
0
  0
BLOCK
  8
0
  2
DC_GROUP_68
 70
     0
 10
0.0
 20
0.0
 30
0.0
  3
DC_GROUP_68
  1

  0
LINE
  5
2A2
  8
LAYER0001
  6
CONTINUOUS
 62
     7
 10
276.0303236410176
 20
-129.2937537384302
 30
0.0
 11
278.0303220486482
 21
-129.8296532733278
 31
0.0
  0
LINE
  5
2A3
  8
LAYER0001
  6
CONTINUOUS
 62
     7
 10
278.0303220486482
 20
-129.8296532733278
 30
0.0
 11
276.0303236410176
 21
-130.3655528082254
 31
0.0
  0
LINE
  5
2A4
  8
LAYER0001
  6
CONTINUOUS
 62
     7
 10
278.0303220486482
 20
-129.8296532733278
 30
0.0
 11
276.0303236410176
 21
-129.8296532733278
 31
0.0
  0
ENDBLK
  5
117
  8
0
  0
BLOCK
  8
0
  2
DC_GROUP_69
 70
     0
 10
0.0
 20
0.0
 30
0.0
  3
DC_GROUP_69
  1

  0
LINE
  5
2A5
  8
LAYER0001
  6
CONTINUOUS
 62
     7
 10
490.1803464627107
 20
-76.60978102931405
 30
0.0
 11
490.1803464627107
 21
-94.5125681997242
 31
0.0
  0
LINE
  5
2A6
  8
LAYER0001
  6
CONTINUOUS
 62
     7
 10
504.1803464627107
 20
-76.60978102931405
 30
0.0
 11
504.1803464627107
 21
-94.5125681997242
 31
0.0
  0
LINE
  5
2A7
  8
LAYER0001
  6
CONTINUOUS
 62
     7
 10
490.1803464627107
 20
-92.22656508693123
 30
0.0
 11
504.1803464627107
 21
-92.22656508693123
 31
0.0
  0
LINE
  5
2A8
  8
LAYER0001
  6
CONTINUOUS
 62
     7
 10
490.1803464627107
 20
-92.22656508693123
 30
0.0
 11
483.8303464627107
 21
-92.22656508693123
 31
0.0
  0
LINE
  5
2A9
  8
LAYER0001
  6
CONTINUOUS
 62
     7
 10
510.5303464627107
 20
-92.22656508693123
 30
0.0
 11
504.1803464627107
 21
-92.22656508693123
 31
0.0
  0
INSERT
  5
2AA
  8
LAYER0001
  6
CONTINUOUS
  2
DC_GROUP_70
 10
0.0
 20
0.0
 30
0.0
  0
INSERT
  5
2AB
  8
LAYER0001
  6
CONTINUOUS
  2
DC_GROUP_71
 10
0.0
 20
0.0
 30
0.0
  0
TEXT
  5
2AC
  8
LAYER0001
 62
     7
 10
490.7803464627107
 20
-90.62656508693124
 30
0.0
 40
4.0
  1
14H8
 41
0.6952380952380963
  7
FDASTYLE1
 72
     5
 11
501.9041559865202
 21
-90.62656508693124
 31
0.0
  0
ENDBLK
  5
11A
  8
0
  0
BLOCK
  8
0
  2
DC_GROUP_70
 70
     0
 10
0.0
 20
0.0
 30
0.0
  3
DC_GROUP_70
  1

  0
LINE
  5
2AD
  8
LAYER0001
  6
CONTINUOUS
 62
     7
 10
488.1803480550801
 20
-91.69066555203362
 30
0.0
 11
490.1803464627107
 21
-92.22656508693123
 31
0.0
  0
LINE
  5
2AE
  8
LAYER0001
  6
CONTINUOUS
 62
     7
 10
490.1803464627107
 20
-92.22656508693123
 30
0.0
 11
488.1803480550801
 21
-92.76246462182884
 31
0.0
  0
LINE
  5
2AF
  8
LAYER0001
  6
CONTINUOUS
 62
     7
 10
490.1803464627107
 20
-92.22656508693123
 30
0.0
 11
488.1803480550801
 21
-92.22656508693123
 31
0.0
  0
ENDBLK
  5
11D
  8
0
  0
BLOCK
  8
0
  2
DC_GROUP_71
 70
     0
 10
0.0
 20
0.0
 30
0.0
  3
DC_GROUP_71
  1

  0
LINE
  5
2B0
  8
LAYER0001
  6
CONTINUOUS
 62
     7
 10
506.1803448703414
 20
-92.76246462182884
 30
0.0
 11
504.1803464627107
 21
-92.22656508693123
 31
0.0
  0
LINE
  5
2B1
  8
LAYER0001
  6
CONTINUOUS
 62
     7
 10
504.1803464627107
 20
-92.22656508693123
 30
0.0
 11
506.1803448703414
 21
-91.69066555203362
 31
0.0
  0
LINE
  5
2B2
  8
LAYER0001
  6
CONTINUOUS
 62
     7
 10
504.1803464627107
 20
-92.22656508693123
 30
0.0
 11
506.1803448703414
 21
-92.22656508693123
 31
0.0
  0
ENDBLK
  5
120
  8
0
  0
BLOCK
  8
0
  2
DC_GROUP_72
 70
     0
 10
0.0
 20
0.0
 30
0.0
  3
DC_GROUP_72
  1

  0
LINE
  5
2B3
  8
LAYER0001
  6
CONTINUOUS
 62
     7
 10
479.6803464627107
 20
-76.60978102931405
 30
0.0
 11
479.6803464627107
 21
-107.8458964467945
 31
0.0
  0
LINE
  5
2B4
  8
LAYER0001
  6
CONTINUOUS
 62
     7
 10
514.6803464627108
 20
-76.60978102931405
 30
0.0
 11
514.6803464627108
 21
-107.8458964467945
 31
0.0
  0
LINE
  5
2B5
  8
LAYER0001
  6
CONTINUOUS
 62
     7
 10
479.6803464627107
 20
-105.5598933340015
 30
0.0
 11
514.6803464627108
 21
-105.5598933340015
 31
0.0
  0
INSERT
  5
2B6
  8
LAYER0001
  6
CONTINUOUS
  2
DC_GROUP_73
 10
0.0
 20
0.0
 30
0.0
  0
INSERT
  5
2B7
  8
LAYER0001
  6
CONTINUOUS
  2
DC_GROUP_74
 10
0.0
 20
0.0
 30
0.0
  0
TEXT
  5
2B8
  8
LAYER0001
 62
     7
 10
493.9803464627107
 20
-103.9598933340016
 30
0.0
 40
4.0
  1
35
 41
0.6476190476190453
  7
FDASTYLE1
 72
     5
 11
499.1612988436631
 21
-103.9598933340016
 31
0.0
  0
ENDBLK
  5
123
  8
0
  0
BLOCK
  8
0
  2
DC_GROUP_73
 70
     0
 10
0.0
 20
0.0
 30
0.0
  3
DC_GROUP_73
  1

  0
LINE
  5
2B9
  8
LAYER0001
  6
CONTINUOUS
 62
     7
 10
481.6803448703413
 20
-106.0957928688991
 30
0.0
 11
479.6803464627107
 21
-105.5598933340015
 31
0.0
  0
LINE
  5
2BA
  8
LAYER0001
  6
CONTINUOUS
 62
     7
 10
479.6803464627107
 20
-105.5598933340015
 30
0.0
 11
481.6803448703413
 21
-105.0239937991039
 31
0.0
  0
LINE
  5
2BB
  8
LAYER0001
  6
CONTINUOUS
 62
     7
 10
479.6803464627107
 20
-105.5598933340015
 30
0.0
 11
481.6803448703413
 21
-105.5598933340015
 31
0.0
  0
ENDBLK
  5
126
  8
0
  0
BLOCK
  8
0
  2
DC_GROUP_74
 70
     0
 10
0.0
 20
0.0
 30
0.0
  3
DC_GROUP_74
  1

  0
LINE
  5
2BC
  8
LAYER0001
  6
CONTINUOUS
 62
     7
 10
512.68034805508
 20
-105.0239937991039
 30
0.0
 11
514.6803464627108
 21
-105.5598933340015
 31
0.0
  0
LINE
  5
2BD
  8
LAYER0001
  6
CONTINUOUS
 62
     7
 10
514.6803464627108
 20
-105.5598933340015
 30
0.0
 11
512.68034805508
 21
-106.0957928688991
 31
0.0
  0
LINE
  5
2BE
  8
LAYER0001
  6
CONTINUOUS
 62
     7
 10
514.6803464627108
 20
-105.5598933340015
 30
0.0
 11
512.68034805508
 21
-105.5598933340015
 31
0.0
  0
ENDBLK
  5
129
  8
0
  0
BLOCK
  8
0
  2
DC_GROUP_75
 70
     0
 10
0.0
 20
0.0
 30
0.0
  3
DC_GROUP_75
  1

  0
LINE
  5
2BF
  8
LAYER0001
  6
CONTINUOUS
 62
     7
 10
528.1803464627108
 20
-91.04311721095466
 30
0.0
 11
528.1803464627108
 21
-78.84407302150154
 31
0.0
  0
LINE
  5
2C0
  8
LAYER0001
  6
CONTINUOUS
 62
     7
 10
546.1803464627108
 20
-91.04311721095466
 30
0.0
 11
546.1803464627108
 21
-78.84407302150154
 31
0.0
  0
LINE
  5
2C1
  8
LAYER0001
  6
CONTINUOUS
 62
     7
 10
528.1803464627108
 20
-79.84407302150154
 30
0.0
 11
546.1803464627108
 21
-79.84407302150154
 31
0.0
  0
INSERT
  5
2C2
  8
LAYER0001
  6
CONTINUOUS
  2
DC_GROUP_76
 10
0.0
 20
0.0
 30
0.0
  0
INSERT
  5
2C3
  8
LAYER0001
  6
CONTINUOUS
  2
DC_GROUP_77
 10
0.0
 20
0.0
 30
0.0
  0
TEXT
  5
2C4
  8
LAYER0001
 62
     7
 10
532.3803464627107
 20
-78.24407302150155
 30
0.0
 40
4.0
  1
φ18
 41
0.6093750000000053
  7
FDASTYLE1
 72
     5
 11
540.1803464627108
 21
-78.24407302150155
 31
0.0
  0
ENDBLK
  5
12C
  8
0
  0
BLOCK
  8
0
  2
DC_GROUP_76
 70
     0
 10
0.0
 20
0.0
 30
0.0
  3
DC_GROUP_76
  1

  0
LINE
  5
2C5
  8
LAYER0001
  6
CONTINUOUS
 62
     7
 10
530.1803448703414
 20
-80.37997255639915
 30
0.0
 11
528.1803464627108
 21
-79.84407302150154
 31
0.0
  0
LINE
  5
2C6
  8
LAYER0001
  6
CONTINUOUS
 62
     7
 10
528.1803464627108
 20
-79.84407302150154
 30
0.0
 11
530.1803448703414
 21
-79.30817348660393
 31
0.0
  0
LINE
  5
2C7
  8
LAYER0001
  6
CONTINUOUS
 62
     7
 10
528.1803464627108
 20
-79.84407302150154
 30
0.0
 11
530.1803448703414
 21
-79.84407302150154
 31
0.0
  0
ENDBLK
  5
12F
  8
0
  0
BLOCK
  8
0
  2
DC_GROUP_77
 70
     0
 10
0.0
 20
0.0
 30
0.0
  3
DC_GROUP_77
  1

  0
LINE
  5
2C8
  8
LAYER0001
  6
CONTINUOUS
 62
     7
 10
544.18034805508
 20
-79.30817348660393
 30
0.0
 11
546.1803464627108
 21
-79.84407302150154
 31
0.0
  0
LINE
  5
2C9
  8
LAYER0001
  6
CONTINUOUS
 62
     7
 10
546.1803464627108
 20
-79.84407302150154
 30
0.0
 11
544.18034805508
 21
-80.37997255639915
 31
0.0
  0
LINE
  5
2CA
  8
LAYER0001
  6
CONTINUOUS
 62
     7
 10
546.1803464627108
 20
-79.84407302150154
 30
0.0
 11
544.18034805508
 21
-79.84407302150154
 31
0.0
  0
ENDBLK
  5
132
  8
0
  0
BLOCK
  8
0
  2
DC_GROUP_78
 70
     0
 10
0.0
 20
0.0
 30
0.0
  3
DC_GROUP_78
  1

  0
LINE
  5
2CB
  8
LAYER0001
  6
CONTINUOUS
 62
     7
 10
497.1798886990388
 20
148.3134349130688
 30
0.0
 11
497.1798886990388
 21
158.4091160654125
 31
0.0
  0
LINE
  5
2CC
  8
LAYER0001
  6
CONTINUOUS
 62
     7
 10
423.3820120294064
 20
76.03774375597098
 30
0.0
 11
388.9454286079653
 21
95.91964981319703
 31
0.0
  0
ARC
  5
2CD
  8
LAYER0001
  6
CONTINUOUS
 62
     7
 10
497.1803464627107
 20
33.43024185886955
 30
0.0
 40
122.6928863525391
 50
89.99998201391065
 51
150.0000246646978
  0
INSERT
  5
2CE
  8
LAYER0001
  6
CONTINUOUS
  2
DC_GROUP_79
 10
0.0
 20
0.0
 30
0.0
  0
INSERT
  5
2CF
  8
LAYER0001
  6
CONTINUOUS
  2
DC_GROUP_80
 10
0.0
 20
0.0
 30
0.0
  0
TEXT
  5
2D0
  8
LAYER0001
 62
     7
 10
430.8752261373386
 20
138.6796853476567
 30
0.0
 40
4.0
  1
60ﾟ
 50
29.9
 41
0.4499999999999974
  7
FDASTYLE1
 72
     5
 11
435.5564685815909
 21
141.3715191423273
 31
0.0
  0
ENDBLK
  5
135
  8
0
  0
BLOCK
  8
0
  2
DC_GROUP_79
 70
     0
 10
0.0
 20
0.0
 30
0.0
  3
DC_GROUP_79
  1

  0
LINE
  5
2D1
  8
LAYER0001
  6
CONTINUOUS
 62
     7
 10
495.1760854007138
 20
156.642709914699
 30
0.0
 11
497.1803849780296
 21
156.1231282114026
 31
0.0
  0
LINE
  5
2D2
  8
LAYER0001
  6
CONTINUOUS
 62
     7
 10
497.1803849780296
 20
156.1231282114026
 30
0.0
 11
495.1848205879388
 21
155.5709464414839
 31
0.0
  0
LINE
  5
2D3
  8
LAYER0001
  6
CONTINUOUS
 62
     7
 10
497.1803849780296
 20
156.1231282114026
 30
0.0
 11
495.1804529943263
 21
156.1068281780915
 31
0.0
  0
ENDBLK
  5
138
  8
0
  0
BLOCK
  8
0
  2
DC_GROUP_80
 70
     0
 10
0.0
 20
0.0
 30
0.0
  3
DC_GROUP_80
  1

  0
LINE
  5
2D4
  8
LAYER0001
  6
CONTINUOUS
 62
     7
 10
392.4011490753937
 20
96.22875803818712
 30
0.0
 11
390.9251636093565
 21
94.77663929439396
 31
0.0
  0
LINE
  5
2D5
  8
LAYER0001
  6
CONTINUOUS
 62
     7
 10
390.9251636093565
 20
94.77663929439396
 30
0.0
 11
391.4773422110076
 21
96.77220456115605
 31
0.0
  0
LINE
  5
2D6
  8
LAYER0001
  6
CONTINUOUS
 62
     7
 10
390.9251636093565
 20
94.77663929439396
 30
0.0
 11
391.9392456432007
 21
96.50048129967159
 31
0.0
  0
ENDBLK
  5
13B
  8
0
  0
BLOCK
  8
0
  2
DC_GROUP_81
 70
     0
 10
0.0
 20
0.0
 30
0.0
  3
DC_GROUP_81
  1

  0
LINE
  5
2D7
  8
LAYER0001
  6
CONTINUOUS
 62
     7
 10
423.3820097128304
 20
76.03774752260351
 30
0.0
 11
388.9454511609908
 21
95.91963429785713
 31
0.0
  0
LINE
  5
2D8
  8
LAYER0001
  6
CONTINUOUS
 62
     7
 10
378.8236963534322
 20
33.43024620295813
 30
0.0
 11
372.2014649079471
 21
33.43032340374848
 31
0.0
  0
ARC
  5
2D9
  8
LAYER0001
  6
CONTINUOUS
 62
     7
 10
497.1803769802888
 20
33.43021897068596
 30
0.0
 40
122.6929244995117
 50
150.0000246646978
 51
179.9999640278213
  0
INSERT
  5
2DA
  8
LAYER0001
  6
CONTINUOUS
  2
DC_GROUP_82
 10
0.0
 20
0.0
 30
0.0
  0
INSERT
  5
2DB
  8
LAYER0001
  6
CONTINUOUS
  2
DC_GROUP_83
 10
0.0
 20
0.0
 30
0.0
  0
TEXT
  5
2DC
  8
LAYER0001
 62
     7
 10
375.8729463217802
 20
60.96803709730953
 30
0.0
 40
4.0
  1
30ﾟ
 50
74.89999999999999
 41
0.4499999999999981
  7
FDASTYLE1
 72
     5
 11
377.2796706684505
 21
66.18158930405733
 31
0.0
  0
ENDBLK
  5
13E
  8
0
  0
BLOCK
  8
0
  2
DC_GROUP_82
 70
     0
 10
0.0
 20
0.0
 30
0.0
  3
DC_GROUP_82
  1

  0
LINE
  5
2DD
  8
LAYER0001
  6
CONTINUOUS
 62
     7
 10
389.4730414426022
 20
93.30065090330716
 30
0.0
 11
390.925161090679
 21
94.77663547968248
 31
0.0
  0
LINE
  5
2DE
  8
LAYER0001
  6
CONTINUOUS
 62
     7
 10
390.925161090679
 20
94.77663547968248
 30
0.0
 11
390.4055838228054
 21
92.77233475256151
 31
0.0
  0
LINE
  5
2DF
  8
LAYER0001
  6
CONTINUOUS
 62
     7
 10
390.925161090679
 20
94.77663547968248
 30
0.0
 11
389.9393126327038
 21
93.03649282793433
 31
0.0
  0
ENDBLK
  5
141
  8
0
  0
BLOCK
  8
0
  2
DC_GROUP_83
 70
     0
 10
0.0
 20
0.0
 30
0.0
  3
DC_GROUP_83
  1

  0
LINE
  5
2E0
  8
LAYER0001
  6
CONTINUOUS
 62
     7
 10
375.0396361249844
 20
35.42585987281984
 30
0.0
 11
374.4874524808013
 21
33.43029600134759
 31
0.0
  0
LINE
  5
2E1
  8
LAYER0001
  6
CONTINUOUS
 62
     7
 10
374.4874524808013
 20
33.43029600134759
 30
0.0
 11
373.9678726599741
 21
35.43459606666162
 31
0.0
  0
LINE
  5
2E2
  8
LAYER0001
  6
CONTINUOUS
 62
     7
 10
374.4874524808013
 20
33.43029600134759
 30
0.0
 11
374.5037543924793
 21
35.43022796974073
 31
0.0
  0
ENDBLK
  5
144
  8
0
  0
BLOCK
  8
0
  2
DC_GROUP_84
 70
     0
 10
0.0
 20
0.0
 30
0.0
  3
DC_GROUP_84
  1

  0
LINE
  5
2E3
  8
LAYER0001
  6
CONTINUOUS
 62
     7
 10
436.3206803141823
 20
-9.531244749090064
 30
0.0
 11
404.6974305577525
 21
-69.53435828708777
 31
0.0
  0
LINE
  5
2E4
  8
LAYER0001
  6
CONTINUOUS
 62
     7
 10
404.6974324917634
 20
-69.53436537989998
 30
0.0
 11
372.0417289471467
 21
-69.53436537989998
 31
0.0
  0
INSERT
  5
2E5
  8
LAYER0001
  6
CONTINUOUS
  2
DC_GROUP_85
 10
0.0
 20
0.0
 30
0.0
  0
TEXT
  5
2E6
  8
LAYER0001
 62
     7
 10
373.870298550113
 20
-67.93435775050546
 30
0.0
 40
4.0
  1
PCD133.35
 41
0.7026455026455033
  7
FDASTYLE1
 72
     5
 11
399.1655366453512
 21
-67.93435775050546
 31
0.0
  0
ENDBLK
  5
147
  8
0
  0
BLOCK
  8
0
  2
DC_GROUP_85
 70
     0
 10
0.0
 20
0.0
 30
0.0
  3
DC_GROUP_85
  1

  0
LINE
  5
2E7
  8
LAYER0001
  6
CONTINUOUS
 62
     7
 10
434.9141149379802
 20
-11.05070379246637
 30
0.0
 11
436.3206803141823
 21
-9.531244749090064
 31
0.0
  0
LINE
  5
2E8
  8
LAYER0001
  6
CONTINUOUS
 62
     7
 10
436.3206803141823
 20
-9.531244749090064
 30
0.0
 11
435.8622914583829
 21
-11.55041824309883
 31
0.0
  0
LINE
  5
2E9
  8
LAYER0001
  6
CONTINUOUS
 62
     7
 10
436.3206803141823
 20
-9.531244749090064
 30
0.0
 11
435.3882031981815
 21
-11.3005610177826
 31
0.0
  0
ENDBLK
  5
14A
  8
0
  0
BLOCK
  8
0
  2
DC_GROUP_86
 70
     0
 10
0.0
 20
0.0
 30
0.0
  3
DC_GROUP_86
  1

  0
LINE
  5
2EA
  8
LAYER0001
  6
CONTINUOUS
 62
     7
 10
537.9517336284386
 20
7.371268062470364
 30
0.0
 11
573.8758595781435
 21
-54.78218927707528
 31
0.0
  0
LINE
  5
2EB
  8
LAYER0001
  6
CONTINUOUS
 62
     7
 10
573.8758725857576
 20
-54.78218718776131
 30
0.0
 11
618.9261350369295
 21
-54.78218718776131
 31
0.0
  0
INSERT
  5
2EC
  8
LAYER0001
  6
CONTINUOUS
  2
DC_GROUP_87
 10
0.0
 20
0.0
 30
0.0
  0
TEXT
  5
2ED
  8
LAYER0001
 62
     7
 10
575.4975766873201
 20
-53.18217955836678
 30
0.0
 40
4.0
  1
4-M8×15 PCD90
 41
0.6326905417814526
  7
FDASTYLE1
 72
     5
 11
608.9036372933808
 21
-53.18217955836678
 31
0.0
  0
ENDBLK
  5
14D
  8
0
  0
BLOCK
  8
0
  2
DC_GROUP_87
 70
     0
 10
0.0
 20
0.0
 30
0.0
  3
DC_GROUP_87
  1

  0
LINE
  5
2EE
  8
LAYER0001
  6
CONTINUOUS
 62
     7
 10
538.4885906746549
 20
5.371526465674279
 30
0.0
 11
537.9517336284386
 21
7.371268062470364
 31
0.0
  0
LINE
  5
2EF
  8
LAYER0001
  6
CONTINUOUS
 62
     7
 10
537.9517336284386
 20
7.371268062470364
 30
0.0
 11
539.4165384198511
 21
5.907871716607957
 31
0.0
  0
LINE
  5
2F0
  8
LAYER0001
  6
CONTINUOUS
 62
     7
 10
537.9517336284386
 20
7.371268062470364
 30
0.0
 11
538.952564547253
 21
5.639699091141111
 31
0.0
  0
ENDBLK
  5
150
  8
0
  0
BLOCK
  8
0
  2
DC_GROUP_88
 70
     0
 10
0.0
 20
0.0
 30
0.0
  3
DC_GROUP_88
  1

  0
LINE
  5
2F1
  8
LAYER0001
  6
CONTINUOUS
 62
     7
 10
378.8236808132966
 20
33.43021897068596
 30
0.0
 11
363.3946803545793
 21
33.43021897068596
 31
0.0
  0
LINE
  5
2F2
  8
LAYER0001
  6
CONTINUOUS
 62
     7
 10
419.5105552029451
 20
104.430218970686
 30
0.0
 11
363.3946803545793
 21
104.430218970686
 31
0.0
  0
LINE
  5
2F3
  8
LAYER0001
  6
CONTINUOUS
 62
     7
 10
364.3946804737886
 20
33.43021897068596
 30
0.0
 11
364.3946804737886
 21
104.430218970686
 31
0.0
  0
INSERT
  5
2F4
  8
LAYER0001
  6
CONTINUOUS
  2
DC_GROUP_89
 10
0.0
 20
0.0
 30
0.0
  0
INSERT
  5
2F5
  8
LAYER0001
  6
CONTINUOUS
  2
DC_GROUP_90
 10
0.0
 20
0.0
 30
0.0
  0
TEXT
  5
2F6
  8
LAYER0001
 62
     7
 10
362.7946804737886
 20
65.73021897068595
 30
0.0
 40
4.0
  1
71
 50
90.0
 41
0.5333333333333314
  7
FDASTYLE1
 72
     5
 11
362.7946804737886
 21
69.99688563735261
 31
0.0
  0
ENDBLK
  5
153
  8
0
  0
BLOCK
  8
0
  2
DC_GROUP_89
 70
     0
 10
0.0
 20
0.0
 30
0.0
  3
DC_GROUP_89
  1

  0
LINE
  5
2F7
  8
LAYER0001
  6
CONTINUOUS
 62
     7
 10
364.9305800086862
 20
35.43021737831662
 30
0.0
 11
364.3946804737886
 21
33.43021897068596
 31
0.0
  0
LINE
  5
2F8
  8
LAYER0001
  6
CONTINUOUS
 62
     7
 10
364.3946804737886
 20
33.43021897068596
 30
0.0
 11
363.858780938891
 21
35.43021737831662
 31
0.0
  0
LINE
  5
2F9
  8
LAYER0001
  6
CONTINUOUS
 62
     7
 10
364.3946804737886
 20
33.43021897068596
 30
0.0
 11
364.3946804737886
 21
35.43021737831662
 31
0.0
  0
ENDBLK
  5
156
  8
0
  0
BLOCK
  8
0
  2
DC_GROUP_90
 70
     0
 10
0.0
 20
0.0
 30
0.0
  3
DC_GROUP_90
  1

  0
LINE
  5
2FA
  8
LAYER0001
  6
CONTINUOUS
 62
     7
 10
363.858780938891
 20
102.4302205630553
 30
0.0
 11
364.3946804737886
 21
104.430218970686
 31
0.0
  0
LINE
  5
2FB
  8
LAYER0001
  6
CONTINUOUS
 62
     7
 10
364.3946804737886
 20
104.430218970686
 30
0.0
 11
364.9305800086862
 21
102.4302205630553
 31
0.0
  0
LINE
  5
2FC
  8
LAYER0001
  6
CONTINUOUS
 62
     7
 10
364.3946804737886
 20
104.430218970686
 30
0.0
 11
364.3946804737886
 21
102.4302205630553
 31
0.0
  0
ENDBLK
  5
159
  8
0
  0
BLOCK
  8
0
  2
DC_GROUP_91
 70
     0
 10
0.0
 20
0.0
 30
0.0
  3
DC_GROUP_91
  1

  0
LINE
  5
2FD
  8
LAYER0001
  6
CONTINUOUS
 62
     7
 10
457.1803464627107
 20
120.9963496469555
 30
0.0
 11
457.1803464627107
 21
166.843060767561
 31
0.0
  0
LINE
  5
2FE
  8
LAYER0001
  6
CONTINUOUS
 62
     7
 10
497.1803464627107
 20
151.2702372812328
 30
0.0
 11
497.1803464627107
 21
166.843060767561
 31
0.0
  0
LINE
  5
2FF
  8
LAYER0001
  6
CONTINUOUS
 62
     7
 10
457.1803464627107
 20
165.843060767561
 30
0.0
 11
497.1803464627107
 21
165.843060767561
 31
0.0
  0
INSERT
  5
300
  8
LAYER0001
  6
CONTINUOUS
  2
DC_GROUP_92
 10
0.0
 20
0.0
 30
0.0
  0
INSERT
  5
301
  8
LAYER0001
  6
CONTINUOUS
  2
DC_GROUP_93
 10
0.0
 20
0.0
 30
0.0
  0
TEXT
  5
302
  8
LAYER0001
 62
     7
 10
473.9803464627107
 20
167.443060767561
 30
0.0
 40
4.0
  1
40
 41
0.6476190476190453
  7
FDASTYLE1
 72
     5
 11
479.1612988436631
 21
167.443060767561
 31
0.0
  0
ENDBLK
  5
15C
  8
0
  0
BLOCK
  8
0
  2
DC_GROUP_92
 70
     0
 10
0.0
 20
0.0
 30
0.0
  3
DC_GROUP_92
  1

  0
LINE
  5
303
  8
LAYER0001
  6
CONTINUOUS
 62
     7
 10
459.1803448703413
 20
165.3071612326634
 30
0.0
 11
457.1803464627107
 21
165.843060767561
 31
0.0
  0
LINE
  5
304
  8
LAYER0001
  6
CONTINUOUS
 62
     7
 10
457.1803464627107
 20
165.843060767561
 30
0.0
 11
459.1803448703413
 21
166.3789603024586
 31
0.0
  0
LINE
  5
305
  8
LAYER0001
  6
CONTINUOUS
 62
     7
 10
457.1803464627107
 20
165.843060767561
 30
0.0
 11
459.1803448703413
 21
165.843060767561
 31
0.0
  0
ENDBLK
  5
15F
  8
0
  0
BLOCK
  8
0
  2
DC_GROUP_93
 70
     0
 10
0.0
 20
0.0
 30
0.0
  3
DC_GROUP_93
  1

  0
LINE
  5
306
  8
LAYER0001
  6
CONTINUOUS
 62
     7
 10
495.18034805508
 20
166.3789603024586
 30
0.0
 11
497.1803464627107
 21
165.843060767561
 31
0.0
  0
LINE
  5
307
  8
LAYER0001
  6
CONTINUOUS
 62
     7
 10
497.1803464627107
 20
165.843060767561
 30
0.0
 11
495.18034805508
 21
165.3071612326634
 31
0.0
  0
LINE
  5
308
  8
LAYER0001
  6
CONTINUOUS
 62
     7
 10
497.1803464627107
 20
165.843060767561
 30
0.0
 11
495.18034805508
 21
165.843060767561
 31
0.0
  0
ENDBLK
  5
162
  8
0
  0
BLOCK
  8
0
  2
DC_GROUP_94
 70
     0
 10
0.0
 20
0.0
 30
0.0
  3
DC_GROUP_94
  1

  0
LINE
  5
309
  8
LAYER0001
  6
CONTINUOUS
 62
     7
 10
279.5703220486482
 20
74.93021897068596
 30
0.0
 11
336.4488095974763
 21
74.93021897068596
 31
0.0
  0
LINE
  5
30A
  8
LAYER0001
  6
CONTINUOUS
 62
     7
 10
287.4304838732959
 20
33.43021897068596
 30
0.0
 11
302.6501322613777
 21
33.43021897068596
 31
0.0
  0
LINE
  5
30B
  8
LAYER0001
  6
CONTINUOUS
 62
     7
 10
322.5368987328731
 20
33.43021897068596
 30
0.0
 11
336.4488095974763
 21
33.43021897068596
 31
0.0
  0
LINE
  5
30C
  8
LAYER0001
  6
CONTINUOUS
 62
     7
 10
334.1627988552888
 20
33.43021897068596
 30
0.0
 11
334.1627988552888
 21
74.93021897068596
 31
0.0
  0
INSERT
  5
30D
  8
LAYER0001
  6
BORDER
  2
DC_GROUP_95
 10
0.0
 20
0.0
 30
0.0
  0
INSERT
  5
30E
  8
LAYER0001
  6
BORDER
  2
DC_GROUP_96
 10
0.0
 20
0.0
 30
0.0
  0
TEXT
  5
30F
  8
LAYER0001
 62
     7
 10
332.540461089144
 20
41.38303099158132
 30
0.0
 40
4.0
  1
MAX 51.5
 50
89.90000000000001
 41
0.6952380952380943
  7
FDASTYLE1
 72
     5
 11
332.5792904897415
 21
63.63061615414739
 31
0.0
  0
ENDBLK
  5
165
  8
0
  0
BLOCK
  8
0
  2
DC_GROUP_95
 70
     0
 10
0.0
 20
0.0
 30
0.0
  3
DC_GROUP_95
  1

  0
LINE
  5
310
  8
LAYER0001
  6
CONTINUOUS
 62
     7
 10
334.6986983901865
 20
35.43021737831662
 30
0.0
 11
334.1627988552888
 21
33.43021897068596
 31
0.0
  0
LINE
  5
311
  8
LAYER0001
  6
CONTINUOUS
 62
     7
 10
334.1627988552888
 20
33.43021897068596
 30
0.0
 11
333.6268993203912
 21
35.43021737831662
 31
0.0
  0
LINE
  5
312
  8
LAYER0001
  6
CONTINUOUS
 62
     7
 10
334.1627988552888
 20
33.43021897068596
 30
0.0
 11
334.1627988552888
 21
35.43021737831662
 31
0.0
  0
ENDBLK
  5
168
  8
0
  0
BLOCK
  8
0
  2
DC_GROUP_96
 70
     0
 10
0.0
 20
0.0
 30
0.0
  3
DC_GROUP_96
  1

  0
LINE
  5
313
  8
LAYER0001
  6
CONTINUOUS
 62
     7
 10
333.6268993203912
 20
72.93022056305529
 30
0.0
 11
334.1627988552888
 21
74.93021897068596
 31
0.0
  0
LINE
  5
314
  8
LAYER0001
  6
CONTINUOUS
 62
     7
 10
334.1627988552888
 20
74.93021897068596
 30
0.0
 11
334.6986983901865
 21
72.93022056305529
 31
0.0
  0
LINE
  5
315
  8
LAYER0001
  6
CONTINUOUS
 62
     7
 10
334.1627988552888
 20
74.93021897068596
 30
0.0
 11
334.1627988552888
 21
72.93022056305529
 31
0.0
  0
ENDBLK
  5
16B
  8
0
  0
BLOCK
  8
0
  2
DC_GROUP_97
 70
     0
 10
0.0
 20
0.0
 30
0.0
  3
DC_GROUP_97
  1

  0
LINE
  5
316
  8
0
  6
CONTINUOUS
 62
     7
 10
234.317604985896
 20
-74.06978102931404
 30
0.0
 11
249.2607182964396
 21
-89.11241306411111
 31
0.0
  0
LINE
  5
317
  8
0
  6
CONTINUOUS
 62
     7
 10
249.2607182964396
 20
-89.11241306411111
 30
0.0
 11
265.2607182964396
 21
-89.11241306411111
 31
0.0
  0
INSERT
  5
318
  8
0
  6
CONTINUOUS
  2
DC_GROUP_98
 10
0.0
 20
0.0
 30
0.0
  0
TEXT
  5
319
  8
0
 62
     7
 10
249.2607182964396
 20
-89.11241306411111
 30
0.0
 40
4.0
  1
M8×16
 41
0.6213017751479295
  7
FDASTYLE1
 72
     5
 11
262.1837952195165
 21
-89.11241306411111
 31
0.0
  0
ENDBLK
  5
16E
  8
0
  0
BLOCK
  8
0
  2
DC_GROUP_98
 70
     0
 10
0.0
 20
0.0
 30
0.0
  3
DC_GROUP_98
  1

  0
LINE
  5
31A
  8
0
  6
CONTINUOUS
 62
     7
 10
235.3469223283777
 20
-75.86635770468725
 30
0.0
 11
234.317604985896
 21
-74.06978102931404
 31
0.0
  0
LINE
  5
31B
  8
0
  6
CONTINUOUS
 62
     7
 10
234.317604985896
 20
-74.06978102931404
 30
0.0
 11
236.1073098224584
 21
-75.11100076597575
 31
0.0
  0
LINE
  5
31C
  8
0
  6
CONTINUOUS
 62
     7
 10
234.317604985896
 20
-74.06978102931404
 30
0.0
 11
235.727116075418
 21
-75.4886792353315
 31
0.0
  0
ENDBLK
  5
171
  8
0
  0
BLOCK
  8
0
  2
DC_GROUP_99
 70
     0
 10
0.0
 20
0.0
 30
0.0
  3
DC_GROUP_99
  1

  0
LINE
  5
31D
  8
0
  6
CONTINUOUS
 62
     9
 10
190.2303342556795
 20
-62.56978102931404
 30
0.0
 11
190.2303342556795
 21
-106.3143119475859
 31
0.0
  0
LINE
  5
31E
  8
0
  6
CONTINUOUS
 62
     9
 10
175.0303220486482
 20
-40.24478408107186
 30
0.0
 11
175.0303220486482
 21
-106.3143119475859
 31
0.0
  0
LINE
  5
31F
  8
0
  6
CONTINUOUS
 62
     9
 10
175.0303220486482
 20
-105.3143119475859
 30
0.0
 11
190.2303342556795
 21
-105.3143119475859
 31
0.0
  0
LINE
  5
320
  8
0
  6
CONTINUOUS
 62
     9
 10
158.2984720486482
 20
-105.3143119475859
 30
0.0
 11
175.0303220486482
 21
-105.3143119475859
 31
0.0
  0
LINE
  5
321
  8
0
  6
CONTINUOUS
 62
     9
 10
195.2303342556795
 20
-105.3143119475859
 30
0.0
 11
190.2303342556795
 21
-105.3143119475859
 31
0.0
  0
INSERT
  5
322
  8
0
  6
DASHDOT2
  2
DC_GROUP_100
 10
0.0
 20
0.0
 30
0.0
  0
INSERT
  5
323
  8
0
  6
CONTINUOUS
  2
DC_GROUP_101
 10
0.0
 20
0.0
 30
0.0
  0
TEXT
  5
324
  8
0
 62
     7
 10
159.2984720486482
 20
-104.3143119475859
 30
0.0
 40
4.0
  1
15.2
 41
0.5809523809523807
  7
FDASTYLE1
 72
     5
 11
168.5937101438863
 21
-104.3143119475859
 31
0.0
  0
ENDBLK
  5
174
  8
0
  0
BLOCK
  8
0
  2
DC_GROUP_100
 70
     0
 10
0.0
 20
0.0
 30
0.0
  3
DC_GROUP_100
  1

  0
LINE
  5
325
  8
0
  6
CONTINUOUS
 62
     9
 10
173.0303236410175
 20
-104.7784124126883
 30
0.0
 11
175.0303220486482
 21
-105.3143119475859
 31
0.0
  0
LINE
  5
326
  8
0
  6
CONTINUOUS
 62
     9
 10
175.0303220486482
 20
-105.3143119475859
 30
0.0
 11
173.0303236410175
 21
-105.8502114824835
 31
0.0
  0
LINE
  5
327
  8
0
  6
CONTINUOUS
 62
     9
 10
175.0303220486482
 20
-105.3143119475859
 30
0.0
 11
173.0303236410175
 21
-105.3143119475859
 31
0.0
  0
ENDBLK
  5
177
  8
0
  0
BLOCK
  8
0
  2
DC_GROUP_101
 70
     0
 10
0.0
 20
0.0
 30
0.0
  3
DC_GROUP_101
  1

  0
LINE
  5
328
  8
0
  6
CONTINUOUS
 62
     9
 10
192.2303326633101
 20
-105.8502114824835
 30
0.0
 11
190.2303342556795
 21
-105.3143119475859
 31
0.0
  0
LINE
  5
329
  8
0
  6
CONTINUOUS
 62
     9
 10
190.2303342556795
 20
-105.3143119475859
 30
0.0
 11
192.2303326633101
 21
-104.7784124126883
 31
0.0
  0
LINE
  5
32A
  8
0
  6
CONTINUOUS
 62
     9
 10
190.2303342556795
 20
-105.3143119475859
 30
0.0
 11
192.2303326633101
 21
-105.3143119475859
 31
0.0
  0
ENDBLK
  5
17A
  8
0
  0
BLOCK
  8
0
  2
DC_GROUP_102
 70
     0
 10
0.0
 20
0.0
 30
0.0
  3
DC_GROUP_102
  1

  0
LINE
  5
32B
  8
0
  6
CONTINUOUS
 62
     9
 10
234.2303342556795
 20
-78.08757689716025
 30
0.0
 11
234.2303342556795
 21
-91.11949975207813
 31
0.0
  0
LINE
  5
32C
  8
0
  6
CONTINUOUS
 62
     9
 10
190.2303342556795
 20
-62.56978102931404
 30
0.0
 11
190.2303342556795
 21
-91.11949975207813
 31
0.0
  0
LINE
  5
32D
  8
0
  6
CONTINUOUS
 62
     9
 10
190.2303342556795
 20
-90.11949975207813
 30
0.0
 11
234.2303342556795
 21
-90.11949975207813
 31
0.0
  0
INSERT
  5
32E
  8
0
  6
CONTINUOUS
  2
DC_GROUP_103
 10
0.0
 20
0.0
 30
0.0
  0
INSERT
  5
32F
  8
0
  6
CONTINUOUS
  2
DC_GROUP_104
 10
0.0
 20
0.0
 30
0.0
  0
TEXT
  5
330
  8
0
 62
     7
 10
209.0303342556795
 20
-89.11949975207813
 30
0.0
 40
4.0
  1
44
 41
0.6666666666666643
  7
FDASTYLE1
 72
     5
 11
214.3636675890128
 21
-89.11949975207813
 31
0.0
  0
ENDBLK
  5
17D
  8
0
  0
BLOCK
  8
0
  2
DC_GROUP_103
 70
     0
 10
0.0
 20
0.0
 30
0.0
  3
DC_GROUP_103
  1

  0
LINE
  5
331
  8
0
  6
CONTINUOUS
 62
     9
 10
192.2303326633101
 20
-90.65539928697575
 30
0.0
 11
190.2303342556795
 21
-90.11949975207813
 31
0.0
  0
LINE
  5
332
  8
0
  6
CONTINUOUS
 62
     9
 10
190.2303342556795
 20
-90.11949975207813
 30
0.0
 11
192.2303326633101
 21
-89.58360021718052
 31
0.0
  0
LINE
  5
333
  8
0
  6
CONTINUOUS
 62
     9
 10
190.2303342556795
 20
-90.11949975207813
 30
0.0
 11
192.2303326633101
 21
-90.11949975207813
 31
0.0
  0
ENDBLK
  5
180
  8
0
  0
BLOCK
  8
0
  2
DC_GROUP_104
 70
     0
 10
0.0
 20
0.0
 30
0.0
  3
DC_GROUP_104
  1

  0
LINE
  5
334
  8
0
  6
CONTINUOUS
 62
     9
 10
232.2303358480488
 20
-89.58360021718052
 30
0.0
 11
234.2303342556795
 21
-90.11949975207813
 31
0.0
  0
LINE
  5
335
  8
0
  6
CONTINUOUS
 62
     9
 10
234.2303342556795
 20
-90.11949975207813
 30
0.0
 11
232.2303358480488
 21
-90.65539928697575
 31
0.0
  0
LINE
  5
336
  8
0
  6
CONTINUOUS
 62
     9
 10
234.2303342556795
 20
-90.11949975207813
 30
0.0
 11
232.2303358480488
 21
-90.11949975207813
 31
0.0
  0
ENDBLK
  5
183
  8
0
  0
BLOCK
  8
0
  2
DC_GROUP_105
 70
     0
 10
0.0
 20
0.0
 30
0.0
  3
DC_GROUP_105
  1

  0
LINE
  5
337
  8
0
  6
CONTINUOUS
 62
     5
 10
582.1607416153519
 20
47.0093186294574
 30
0.0
 11
582.160740784382
 21
42.5093129074115
 31
0.0
  0
LINE
  5
338
  8
0
  6
CONTINUOUS
 62
     5
 10
582.9107284739333
 20
46.25935176721526
 30
0.0
 11
582.1607330845919
 21
47.00934724388496
 31
0.0
  0
LINE
  5
339
  8
0
  6
CONTINUOUS
 62
     5
 10
581.4107681510552
 20
46.25927956939388
 30
0.0
 11
582.1607742908775
 21
47.0092858747698
 31
0.0
  0
LINE
  5
33A
  8
0
  6
CONTINUOUS
 62
     5
 10
582.1607943436765
 20
42.50924988787665
 30
0.0
 11
582.9108004834988
 21
43.25925619325257
 31
0.0
  0
LINE
  5
33B
  8
0
  6
CONTINUOUS
 62
     5
 10
582.1607456352476
 20
42.50934430011911
 30
0.0
 11
581.4107394563133
 21
43.25935056638294
 31
0.0
  0
LINE
  5
33C
  8
0
  6
CONTINUOUS
 62
     5
 10
574.660719644251
 20
47.75933217375707
 30
0.0
 11
589.660719644251
 21
47.75932940386097
 31
0.0
  0
LINE
  5
33D
  8
0
  6
CONTINUOUS
 62
     5
 10
584.0365031142462
 20
53.28638595790132
 30
0.0
 11
583.0620771401268
 21
53.13205219265669
 31
0.0
  0
LINE
  5
33E
  8
0
  6
CONTINUOUS
 62
     5
 10
584.0365290416454
 20
53.2863922263499
 30
0.0
 11
583.8821974869888
 21
54.26080307073717
 31
0.0
  0
LINE
  5
33F
  8
0
  6
CONTINUOUS
 62
     5
 10
589.6607272736457
 20
47.75933059595246
 30
0.0
 11
589.6607286585941
 21
55.25933154962677
 31
0.0
  0
LINE
  5
340
  8
0
  6
CONTINUOUS
 62
     5
 10
574.6607200755233
 20
55.25932478278129
 30
0.0
 11
589.6607200755233
 21
55.25932201288519
 31
0.0
  0
LINE
  5
341
  8
0
  6
CONTINUOUS
 62
     5
 10
574.6607167832271
 20
47.75932764380459
 30
0.0
 11
574.6607188606491
 21
59.00932669013027
 31
0.0
  0
LINE
  5
342
  8
0
  6
CONTINUOUS
 62
     5
 10
574.6607202911605
 20
59.00932621329285
 30
0.0
 11
576.9107202911605
 21
59.00932579780844
 31
0.0
  0
LINE
  5
343
  8
0
  6
CONTINUOUS
 62
     5
 10
576.9107281896484
 20
57.88431721473809
 30
0.0
 11
576.9107283973892
 21
59.00930958534356
 31
0.0
  0
LINE
  5
344
  8
0
  6
CONTINUOUS
 62
     5
 10
576.9107200834183
 20
57.88432532097128
 30
0.0
 11
578.4107200834183
 21
57.88432504398167
 31
0.0
  0
LINE
  5
345
  8
0
  6
CONTINUOUS
 62
     5
 10
578.4107112926074
 20
56.75932647449473
 30
0.0
 11
578.4107115003496
 21
57.88432647449473
 31
0.0
  0
LINE
  5
346
  8
0
  6
CONTINUOUS
 62
     5
 10
578.4107351344632
 20
56.75931503039853
 30
0.0
 11
579.9107351344632
 21
56.75931475340892
 31
0.0
  0
LINE
  5
347
  8
0
  6
CONTINUOUS
 62
     5
 10
579.9107057704091
 20
55.25932643592466
 30
0.0
 11
579.9107060473987
 21
56.75932619750608
 31
0.0
  0
LINE
  5
348
  8
0
  6
CONTINUOUS
 62
     5
 10
581.41075745745
 20
57.60956911961436
 30
0.0
 11
582.1607635972722
 21
58.35957542499028
 31
0.0
  0
LINE
  5
349
  8
0
  6
CONTINUOUS
 62
     5
 10
579.2010985033177
 20
58.35958515575156
 30
0.0
 11
582.1607237642221
 21
58.35958460922793
 31
0.0
  0
LINE
  5
34A
  8
0
  6
CONTINUOUS
 62
     5
 10
582.1607347569196
 20
58.35961218034593
 30
0.0
 11
581.4107393675782
 21
59.10960765701563
 31
0.0
  0
ARC
  5
34B
  8
0
  6
CONTINUOUS
 62
     5
 10
582.1803464627108
 20
51.43021897068596
 30
0.0
 40
2.625001907348633
 50
45.00008720528022
 51
339.9999394584169
  0
TEXT
  5
34C
  8
0
 62
     5
 10
580.2808396778828
 20
43.80531957646066
 30
0.0
 40
2.5
  1
F
 50
89.99998941977626
 41
0.5442179498218145
  7
FDASTYLE1
 72
     5
 11
580.2808399291207
 21
45.16586445101518
 31
0.0
  0
TEXT
  5
34D
  8
0
 62
     5
 10
587.7999477436279
 20
51.59929830959693
 30
0.0
 40
2.5
  1
N min
 50
89.99998941977626
 41
0.6995393319099822
  7
FDASTYLE1
 72
     5
 11
587.7999493583372
 21
60.34353995847156
 31
0.0
  0
TEXT
  5
34E
  8
0
 62
     5
 10
586.0211038687776
 20
64.53679796752599
 30
0.0
 40
1.25
  1
-1
 50
89.99998941977626
 41
0.6149070012128496
  7
FDASTYLE1
 72
     5
 11
586.021104152649
 21
66.07406547055808
 31
0.0
  0
TEXT
  5
34F
  8
0
 62
     5
 10
581.983289021645
 20
60.06358761841061
 30
0.0
 40
2.5
  1
ΣS
 50
89.99998941977626
 41
0.7846700504791531
  7
FDASTYLE1
 72
     5
 11
581.9832898185783
 21
64.37927289604588
 31
0.0
  0
ENDBLK
  5
186
  8
0
  0
BLOCK
  8
0
  2
DC_GROUP_106
 70
     0
 10
0.0
 20
0.0
 30
0.0
  3
DC_GROUP_106
  1

  0
LINE
  5
350
  8
0
  6
CONTINUOUS
 62
     9
 10
470.1803464627107
 20
40.08926514378166
 30
0.0
 11
470.1803464627107
 21
44.96414081926447
 31
0.0
  0
LINE
  5
351
  8
0
  6
CONTINUOUS
 62
     9
 10
524.1803464627108
 20
40.08926514378166
 30
0.0
 11
524.1803464627108
 21
44.96414081926447
 31
0.0
  0
LINE
  5
352
  8
0
  6
CONTINUOUS
 62
     9
 10
470.1803464627107
 20
43.96414081926447
 30
0.0
 11
524.1803464627108
 21
43.96414081926447
 31
0.0
  0
INSERT
  5
353
  8
0
  6
CONTINUOUS
  2
DC_GROUP_107
 10
0.0
 20
0.0
 30
0.0
  0
INSERT
  5
354
  8
0
  6
CONTINUOUS
  2
DC_GROUP_108
 10
0.0
 20
0.0
 30
0.0
  0
TEXT
  5
355
  8
0
 62
     7
 10
489.1803464627107
 20
44.96414081926447
 30
0.0
 40
4.0
  1
PCD54
 41
0.7390476190476193
  7
FDASTYLE1
 72
     5
 11
503.9612988436631
 21
44.96414081926447
 31
0.0
  0
ENDBLK
  5
189
  8
0
  0
BLOCK
  8
0
  2
DC_GROUP_107
 70
     0
 10
0.0
 20
0.0
 30
0.0
  3
DC_GROUP_107
  1

  0
LINE
  5
356
  8
0
  6
CONTINUOUS
 62
     9
 10
472.1803448703413
 20
43.42824128436686
 30
0.0
 11
470.1803464627107
 21
43.96414081926447
 31
0.0
  0
LINE
  5
357
  8
0
  6
CONTINUOUS
 62
     9
 10
470.1803464627107
 20
43.96414081926447
 30
0.0
 11
472.1803448703413
 21
44.50004035416209
 31
0.0
  0
LINE
  5
358
  8
0
  6
CONTINUOUS
 62
     9
 10
470.1803464627107
 20
43.96414081926447
 30
0.0
 11
472.1803448703413
 21
43.96414081926447
 31
0.0
  0
ENDBLK
  5
18C
  8
0
  0
BLOCK
  8
0
  2
DC_GROUP_108
 70
     0
 10
0.0
 20
0.0
 30
0.0
  3
DC_GROUP_108
  1

  0
LINE
  5
359
  8
0
  6
CONTINUOUS
 62
     9
 10
522.18034805508
 20
44.50004035416209
 30
0.0
 11
524.1803464627108
 21
43.96414081926447
 31
0.0
  0
LINE
  5
35A
  8
0
  6
CONTINUOUS
 62
     9
 10
524.1803464627108
 20
43.96414081926447
 30
0.0
 11
522.18034805508
 21
43.42824128436686
 31
0.0
  0
LINE
  5
35B
  8
0
  6
CONTINUOUS
 62
     9
 10
524.1803464627108
 20
43.96414081926447
 30
0.0
 11
522.18034805508
 21
43.96414081926447
 31
0.0
  0
ENDBLK
  5
18F
  8
0
  0
BLOCK
  8
0
  2
DC_GROUP_109
 70
     0
 10
0.0
 20
0.0
 30
0.0
  3
DC_GROUP_109
  1

  0
LINE
  5
35C
  8
0
  6
CONTINUOUS
 62
     7
 10
525.1406038219519
 20
35.84639473170017
 30
0.0
 11
564.3645675447178
 21
133.6208175195219
 31
0.0
  0
LINE
  5
35D
  8
0
  6
CONTINUOUS
 62
     7
 10
564.3645675447178
 20
133.6208175195219
 30
0.0
 11
583.5645675447178
 21
133.6208175195219
 31
0.0
  0
INSERT
  5
35E
  8
0
  6
CONTINUOUS
  2
DC_GROUP_110
 10
0.0
 20
0.0
 30
0.0
  0
TEXT
  5
35F
  8
0
 62
     7
 10
564.3645675447178
 20
133.6208175195219
 30
0.0
 40
4.0
  1
2-φ5.3
 41
0.6243496357960464
  7
FDASTYLE1
 72
     5
 11
579.8484385124598
 21
133.6208175195219
 31
0.0
  0
ENDBLK
  5
192
  8
0
  0
BLOCK
  8
0
  2
DC_GROUP_110
 70
     0
 10
0.0
 20
0.0
 30
0.0
  3
DC_GROUP_110
  1

  0
LINE
  5
360
  8
0
  6
CONTINUOUS
 62
     7
 10
526.3826227802965
 20
37.50306936757201
 30
0.0
 11
525.1406038219519
 21
35.84639473170017
 31
0.0
  0
LINE
  5
361
  8
0
  6
CONTINUOUS
 62
     7
 10
525.1406038219519
 20
35.84639473170017
 30
0.0
 11
525.3878834497559
 21
37.90212689511586
 31
0.0
  0
LINE
  5
362
  8
0
  6
CONTINUOUS
 62
     7
 10
525.1406038219519
 20
35.84639473170017
 30
0.0
 11
525.8852531150262
 21
37.70259813134393
 31
0.0
  0
ENDBLK
  5
195
  8
0
  0
ENDSEC
  0
SECTION
  2
ENTITIES
  0
LINE
  5
363
  8
LAYER0002
  6
CONTINUOUS
 62
     3
 10
79.57239374547669
 20
-190.0
 30
0.0
 11
79.57239374547669
 21
190.0
 31
0.0
  0
LINE
  5
364
  8
LAYER0002
  6
CONTINUOUS
 62
     3
 10
633.5723937454767
 20
-190.0
 30
0.0
 11
633.5723937454767
 21
190.0
 31
0.0
  0
LINE
  5
365
  8
LAYER0002
  6
CONTINUOUS
 62
     3
 10
79.57239374547669
 20
-190.0
 30
0.0
 11
633.5723937454767
 21
-190.0
 31
0.0
  0
LINE
  5
366
  8
LAYER0002
  6
CONTINUOUS
 62
     3
 10
79.57239374547669
 20
189.9999999999999
 30
0.0
 11
633.5723937454767
 21
189.9999999999999
 31
0.0
  0
LINE
  5
367
  8
LAYER0002
  6
CONTINUOUS
 62
     3
 10
453.5723937454767
 20
-190.0
 30
0.0
 11
453.5723937454767
 21
-130.0
 31
0.0
  0
LINE
  5
368
  8
LAYER0002
  6
CONTINUOUS
 62
     3
 10
453.5723937454767
 20
-176.0
 30
0.0
 11
633.5723937454767
 21
-176.0
 31
0.0
  0
LINE
  5
369
  8
LAYER0002
  6
CONTINUOUS
 62
     3
 10
502.5723937454767
 20
-162.0
 30
0.0
 11
633.5723937454767
 21
-162.0
 31
0.0
  0
LINE
  5
36A
  8
LAYER0002
  6
CONTINUOUS
 62
     3
 10
502.5723937454767
 20
-148.0
 30
0.0
 11
633.5723937454767
 21
-148.0
 31
0.0
  0
LINE
  5
36B
  8
LAYER0002
  6
CONTINUOUS
 62
     3
 10
502.5723937454767
 20
-138.0
 30
0.0
 11
633.5723937454767
 21
-138.0
 31
0.0
  0
LINE
  5
36C
  8
LAYER0002
  6
CONTINUOUS
 62
     3
 10
502.5723937454767
 20
-176.0
 30
0.0
 11
502.5723937454767
 21
-130.0
 31
0.0
  0
LINE
  5
36D
  8
LAYER0002
  6
CONTINUOUS
 62
     3
 10
611.5723937454767
 20
-176.0
 30
0.0
 11
611.5723937454767
 21
-130.0
 31
0.0
  0
LINE
  5
36E
  8
LAYER0002
  6
CONTINUOUS
 62
     3
 10
527.5723937454767
 20
-190.0
 30
0.0
 11
527.5723937454767
 21
-176.0
 31
0.0
  0
LINE
  5
36F
  8
LAYER0002
  6
CONTINUOUS
 62
     3
 10
618.5723937454767
 20
-188.0
 30
0.0
 11
628.5723937454767
 21
-188.0
 31
0.0
  0
LINE
  5
370
  8
LAYER0002
  6
CONTINUOUS
 62
     3
 10
623.5723937454767
 20
-178.0
 30
0.0
 11
618.5723937454767
 21
-188.0
 31
0.0
  0
LINE
  5
371
  8
LAYER0002
  6
CONTINUOUS
 62
     3
 10
623.5723937454767
 20
-178.0
 30
0.0
 11
628.5723937454767
 21
-188.0
 31
0.0
  0
LINE
  5
372
  8
LAYER0002
  6
CONTINUOUS
 62
     3
 10
453.5723937454767
 20
-130.0
 30
0.0
 11
633.5723937454767
 21
-130.0
 31
0.0
  0
LINE
  5
373
  8
LAYER0002
  6
CONTINUOUS
 62
     3
 10
582.5723937454767
 20
-176.0
 30
0.0
 11
582.5723937454767
 21
-148.0
 31
0.0
  0
LINE
  5
374
  8
LAYER0002
  6
CONTINUOUS
 62
     4
 10
461.5723937454767
 20
-172.0
 30
0.0
 11
461.5723937454767
 21
-130.0
 31
0.0
  0
LINE
  5
375
  8
LAYER0002
  6
CONTINUOUS
 62
     4
 10
465.5723937454767
 20
-172.0
 30
0.0
 11
465.5723937454767
 21
-130.0
 31
0.0
  0
LINE
  5
376
  8
LAYER0002
  6
CONTINUOUS
 62
     4
 10
478.0723937454767
 20
-176.0
 30
0.0
 11
478.0723937454767
 21
-130.0
 31
0.0
  0
LINE
  5
377
  8
LAYER0002
  6
CONTINUOUS
 62
     4
 10
453.5723937454767
 20
-137.0
 30
0.0
 11
502.5723937454767
 21
-137.0
 31
0.0
  0
LINE
  5
378
  8
LAYER0002
  6
CONTINUOUS
 62
     4
 10
453.5723937454767
 20
-144.0
 30
0.0
 11
502.5723937454767
 21
-144.0
 31
0.0
  0
LINE
  5
379
  8
LAYER0002
  6
CONTINUOUS
 62
     4
 10
453.5723937454767
 20
-165.0
 30
0.0
 11
502.5723937454767
 21
-165.0
 31
0.0
  0
LINE
  5
37A
  8
LAYER0002
  6
CONTINUOUS
 62
     4
 10
453.5723937454767
 20
-172.0
 30
0.0
 11
502.5723937454767
 21
-172.0
 31
0.0
  0
LINE
  5
37B
  8
LAYER0002
  6
CONTINUOUS
 62
     4
 10
611.5723937454767
 20
-166.0
 30
0.0
 11
633.5723937454767
 21
-166.0
 31
0.0
  0
LINE
  5
37C
  8
LAYER0002
  6
CONTINUOUS
 62
     4
 10
509.5723937454767
 20
-139.5
 30
0.0
 11
509.5723937454767
 21
-130.0
 31
0.0
  0
LINE
  5
37D
  8
LAYER0002
  6
CONTINUOUS
 62
     4
 10
558.5723937454767
 20
-148.0
 30
0.0
 11
558.5723937454767
 21
-146.5
 31
0.0
  0
LINE
  5
37E
  8
LAYER0002
  6
CONTINUOUS
 62
     4
 10
582.5723937454767
 20
-148.0
 30
0.0
 11
582.5723937454767
 21
-146.5
 31
0.0
  0
LINE
  5
37F
  8
LAYER0002
  6
CONTINUOUS
 62
     4
 10
599.5723937454767
 20
-148.0
 30
0.0
 11
599.5723937454767
 21
-146.5
 31
0.0
  0
LINE
  5
380
  8
LAYER0002
  6
CONTINUOUS
 62
     4
 10
558.5723937454767
 20
-139.5
 30
0.0
 11
558.5723937454767
 21
-130.0
 31
0.0
  0
LINE
  5
381
  8
LAYER0002
  6
CONTINUOUS
 62
     4
 10
582.5723937454767
 20
-139.5
 30
0.0
 11
582.5723937454767
 21
-130.0
 31
0.0
  0
LINE
  5
382
  8
LAYER0002
  6
CONTINUOUS
 62
     4
 10
599.5723937454767
 20
-139.5
 30
0.0
 11
599.5723937454767
 21
-130.0
 31
0.0
  0
LINE
  5
383
  8
LAYER0002
  6
CONTINUOUS
 62
     4
 10
453.5723937454767
 20
-151.0
 30
0.0
 11
502.5723937454767
 21
-151.0
 31
0.0
  0
LINE
  5
384
  8
LAYER0002
  6
CONTINUOUS
 62
     4
 10
453.5723937454767
 20
-158.0
 30
0.0
 11
502.5723937454767
 21
-158.0
 31
0.0
  0
LINE
  5
385
  8
LAYER0002
  6
CONTINUOUS
 62
     4
 10
457.5723937454767
 20
-130.5
 30
0.0
 11
454.5723937454767
 21
-136.5
 31
0.0
  0
LINE
  5
386
  8
LAYER0002
  6
CONTINUOUS
 62
     4
 10
457.5723937454767
 20
-130.5
 30
0.0
 11
460.5723937454767
 21
-136.5
 31
0.0
  0
LINE
  5
387
  8
LAYER0002
  6
CONTINUOUS
 62
     4
 10
454.5723937454767
 20
-136.5
 30
0.0
 11
460.5723937454767
 21
-136.5
 31
0.0
  0
LINE
  5
388
  8
LAYER0002
  6
CONTINUOUS
 62
     4
 10
457.5723937454767
 20
-158.5
 30
0.0
 11
454.5723937454767
 21
-164.5
 31
0.0
  0
LINE
  5
389
  8
LAYER0002
  6
CONTINUOUS
 62
     4
 10
457.5723937454767
 20
-158.5
 30
0.0
 11
460.5723937454767
 21
-164.5
 31
0.0
  0
LINE
  5
38A
  8
LAYER0002
  6
CONTINUOUS
 62
     4
 10
454.5723937454767
 20
-164.5
 30
0.0
 11
460.5723937454767
 21
-164.5
 31
0.0
  0
LINE
  5
38B
  8
LAYER0002
  6
CONTINUOUS
 62
     4
 10
457.5723937454767
 20
-151.5
 30
0.0
 11
454.5723937454767
 21
-157.5
 31
0.0
  0
LINE
  5
38C
  8
LAYER0002
  6
CONTINUOUS
 62
     4
 10
457.5723937454767
 20
-151.5
 30
0.0
 11
460.5723937454767
 21
-157.5
 31
0.0
  0
LINE
  5
38D
  8
LAYER0002
  6
CONTINUOUS
 62
     4
 10
454.5723937454767
 20
-157.5
 30
0.0
 11
460.5723937454767
 21
-157.5
 31
0.0
  0
LINE
  5
38E
  8
LAYER0002
  6
CONTINUOUS
 62
     4
 10
457.5723937454767
 20
-144.5
 30
0.0
 11
454.5723937454767
 21
-150.5
 31
0.0
  0
LINE
  5
38F
  8
LAYER0002
  6
CONTINUOUS
 62
     4
 10
457.5723937454767
 20
-144.5
 30
0.0
 11
460.5723937454767
 21
-150.5
 31
0.0
  0
LINE
  5
390
  8
LAYER0002
  6
CONTINUOUS
 62
     4
 10
454.5723937454767
 20
-150.5
 30
0.0
 11
460.5723937454767
 21
-150.5
 31
0.0
  0
LINE
  5
391
  8
LAYER0002
  6
CONTINUOUS
 62
     4
 10
457.5723937454767
 20
-137.5
 30
0.0
 11
454.5723937454767
 21
-143.5
 31
0.0
  0
LINE
  5
392
  8
LAYER0002
  6
CONTINUOUS
 62
     4
 10
457.5723937454767
 20
-137.5
 30
0.0
 11
460.5723937454767
 21
-143.5
 31
0.0
  0
LINE
  5
393
  8
LAYER0002
  6
CONTINUOUS
 62
     4
 10
454.5723937454767
 20
-143.5
 30
0.0
 11
460.5723937454767
 21
-143.5
 31
0.0
  0
LINE
  5
394
  8
LAYER0002
  6
CONTINUOUS
 62
     4
 10
529.2390604121433
 20
-176.0
 30
0.0
 11
529.2390604121433
 21
-162.0
 31
0.0
  0
LINE
  5
395
  8
LAYER0002
  6
CONTINUOUS
 62
     4
 10
555.90572707881
 20
-176.0
 30
0.0
 11
555.90572707881
 21
-161.9509415757253
 31
0.0
  0
LINE
  5
396
  8
LAYER0002
  6
CONTINUOUS
 62
     4
 10
569.2390604121433
 20
-167.5
 30
0.0
 11
569.2390604121433
 21
-161.9509415757253
 31
0.0
  0
LINE
  5
397
  8
LAYER0002
  6
CONTINUOUS
 62
     4
 10
582.5723937454767
 20
-155.0
 30
0.0
 11
611.5723937454767
 21
-155.0
 31
0.0
  0
LINE
  5
398
  8
LAYER0002
  6
CONTINUOUS
 62
     4
 10
502.5723937454767
 20
-166.0
 30
0.0
 11
582.5723937454767
 21
-166.0
 31
0.0
  0
TEXT
  5
39A
  8
LAYER0002
 62
     7
 10
503.5661518929514
 20
-130.821188728956
 30
0.0
 40
2.44248928
  1
符号
 41
0.8
  7
FDASTYLE0
  0
TEXT
  5
39B
  8
LAYER0002
 62
     7
 10
518.9865248673825
 20
-135.8245525019963
 30
0.0
 40
4.0
  1
品       名
 41
0.6192847442281572
  7
FDASTYLE1
 72
     5
 11
542.2716312503612
 21
-135.8245525019963
 31
0.0
  0
TEXT
  5
39C
  8
LAYER0002
 62
     7
 10
563.8055501867863
 20
-135.8245525019963
 30
0.0
 40
4.0
  1
材  料
 41
0.5950413223140509
  7
FDASTYLE1
 72
     5
 11
574.2782774595136
 21
-135.8245525019963
 31
0.0
  0
TEXT
  5
39D
  8
LAYER0002
 62
     7
 10
586.0884554303317
 20
-135.8245525019963
 30
0.0
 40
4.0
  1
個 数
 41
0.5813148788927315
  7
FDASTYLE1
 72
     5
 11
593.9943377832728
 21
-135.8245525019963
 31
0.0
  0
TEXT
  5
39E
  8
LAYER0002
 62
     7
 10
602.2942046983646
 20
-133.5649080050572
 30
0.0
 40
2.5
  1
単重量
 41
0.6666666666666666
  7
FDASTYLE1
 72
     5
 11
608.2942046983646
 21
-133.5649080050572
 31
0.0
  0
TEXT
  5
39F
  8
LAYER0002
 62
     7
 10
601.2813453691126
 20
-137.3631304897525
 30
0.0
 40
2.5
  1
(kg)
 41
0.5333333333333371
  7
FDASTYLE1
 72
     5
 11
606.614678702446
 21
-137.3631304897525
 31
0.0
  0
TEXT
  5
3A0
  8
LAYER0002
 62
     7
 10
615.7145908109544
 20
-135.8245525019963
 30
0.0
 40
4.0
  1
記  事
 41
0.5950413223140509
  7
FDASTYLE1
 72
     5
 11
626.1873180836817
 21
-135.8245525019963
 31
0.0
  0
TEXT
  5
3A1
  8
LAYER0002
 62
     7
 10
615.4174732006412
 20
-165.4873041997729
 30
0.0
 40
3.0
  1
コード番号
 41
0.6666666666666666
  7
FDASTYLE1
 72
     5
 11
627.4174732006412
 21
-165.4873041997729
 31
0.0
  0
TEXT
  5
3A2
  8
LAYER0002
 62
     7
 10
458.4843857613084
 20
-175.1879010540338
 30
0.0
 40
2.5
  1
訂 正 来 歴
 41
0.5890861275476669
  7
FDASTYLE1
 72
     5
 11
469.9715652484879
 21
-175.1879010540338
 31
0.0
  0
TEXT
  5
3A3
  8
LAYER0002
 62
     7
 10
482.4627285922417
 20
-175.2166697391651
 30
0.0
 40
2.5
  1
工 事 番 号
 41
0.5890861275476669
  7
FDASTYLE1
 72
     5
 11
493.9499080794212
 21
-175.2166697391651
 31
0.0
  0
TEXT
  5
3A4
  8
LAYER0002
 62
     7
 10
455.5063940920796
 20
-165.9634530565915
 30
0.0
 40
1.90819475
  1
記号
 41
0.8
  7
FDASTYLE0
  0
TEXT
  5
3A5
  8
LAYER0002
 62
     7
 10
461.4457811522385
 20
-165.9634530565915
 30
0.0
 40
1.90819475
  1
理由
 41
0.8
  7
FDASTYLE0
  0
TEXT
  5
3A6
  8
LAYER0002
 62
     7
 10
468.191760536461
 20
-169.8786046700178
 30
0.0
 40
3.0
  1
日 付
 41
0.5813148788927344
  7
FDASTYLE1
 72
     5
 11
474.1211723011669
 21
-169.8786046700178
 31
0.0
  0
TEXT
  5
3A7
  8
LAYER0002
 62
     7
 10
510.0205627274419
 20
-165.7187911464244
 30
0.0
 40
3.0
  1
承   認
 41
0.6035665294924586
  7
FDASTYLE1
 72
     5
 11
519.7983405052197
 21
-165.7187911464244
 31
0.0
  0
TEXT
  5
3A8
  8
LAYER0002
 62
     7
 10
536.4356217787107
 20
-165.4873041997729
 30
0.0
 40
3.0
  1
検   図
 41
0.6035665294924586
  7
FDASTYLE1
 72
     5
 11
546.2133995564885
 21
-165.4873041997729
 31
0.0
  0
TEXT
  5
3A9
  8
LAYER0002
 62
     7
 10
558.0495858438518
 20
-165.4873041997729
 30
0.0
 40
3.0
  1
担  当
 41
0.5950413223140511
  7
FDASTYLE1
 72
     5
 11
565.9041312983973
 21
-165.4873041997729
 31
0.0
  0
TEXT
  5
3AA
  8
LAYER0002
 62
     7
 10
571.2494512295879
 20
-165.4873041997729
 30
0.0
 40
3.0
  1
製  図
 41
0.5950413223140511
  7
FDASTYLE1
 72
     5
 11
579.1039966841333
 21
-165.4873041997729
 31
0.0
  0
TEXT
  5
3AB
  8
LAYER0002
 62
     7
 10
583.5186309758966
 20
-153.2184960272417
 30
0.0
 40
3.0
  1
作図
 41
0.6666666666666762
  7
FDASTYLE1
 72
     5
 11
588.3186309758967
 21
-153.2184960272417
 31
0.0
  0
TEXT
  5
3AC
  8
LAYER0002
 62
     7
 10
584.6760657091543
 20
-160.2371566401815
 30
0.0
 40
4.0
  1
第 三 角 法
 41
0.5890861275476675
  7
FDASTYLE1
 72
     5
 11
603.0555528886415
 21
-160.2371566401815
 31
0.0
  0
TEXT
  5
3AD
  8
LAYER0002
 62
     7
 10
583.9816048691997
 20
-166.413251986379
 30
0.0
 40
3.0
  1
尺度
 41
0.6666666666666762
  7
FDASTYLE1
 72
     5
 11
588.7816048691998
 21
-166.413251986379
 31
0.0
  0
TEXT
  5
3AF
  8
LAYER0002
 62
     3
 10
461.9515481155107
 20
-185.9272077185017
 30
0.0
 40
7.0
  1
株式会社 野村製作所
 41
0.5976394989045255
  7
FDASTYLE2
 72
     5
 11
517.8344271000773
 21
-185.9272077185017
 31
0.0
  0
TEXT
  5
3B1
  8
LAYER0002
 62
     3
 10
533.6311292844923
 20
-187.1216685584563
 30
0.0
 40
8.0
  1
２－
 41
0.7699296059137625
  7
FDASTYLE3
 72
     5
 11
547.5206593751766
 21
-187.1216685584563
 31
0.0
  0
TEXT
  5
3B2
  8
LAYER0002
 62
     3
 10
550.5430869088992
 20
-187.1216685584563
 30
0.0
 40
8.0
  1
9308112
 41
1.375240068094065
  7
FDASTYLE3
 72
     5
 11
605.7177184408331
 21
-187.1216685584563
 31
0.0
  0
TEXT
  5
3B3
  8
LAYER0002
 62
     4
 10
590.1032971299989
 20
-145.0216474852281
 30
0.0
 40
3.0
  1
1式
 41
0.520661157024785
  7
FDASTYLE1
 72
     5
 11
593.5396607663624
 21
-145.0216474852281
 31
0.0
  0
TEXT
  5
3B4
  8
LAYER0002
 62
     4
 10
595.8735726361166
 20
-172.297487439201
 30
0.0
 40
3.0
  1
1/1
 41
0.5222222222222273
  7
FDASTYLE1
 72
     5
 11
600.5735726361166
 21
-172.297487439201
 31
0.0
  0
TEXT
  5
3B5
  8
LAYER0002
 62
     6
 10
521.6085333514537
 20
-145.7243747487088
 30
0.0
 40
5.0
  1
外　形　図
 41
0.5833333333333334
  7
FDASTYLE1
 72
     5
 11
539.1085333514537
 21
-145.7243747487088
 31
0.0
  0
TEXT
  5
3B6
  8
LAYER0002
 62
     6
 10
508.9768756015056
 20
-154.3920863201719
 30
0.0
 40
5.0
  1
日鋼プレシジォン
 41
0.5833333333333322
  7
FDASTYLE1
 72
     5
 11
536.9768756015055
 21
-154.3920863201719
 31
0.0
  0
TEXT
  5
3B7
  8
LAYER0002
 62
     6
 10
517.4424132567851
 20
-160.8053724226564
 30
0.0
 40
5.0
  1
  GO2-8型 ﾁｬｯｸ
 41
0.553604224058769
  7
FDASTYLE1
 72
     5
 11
553.9802920446639
 21
-160.8053724226564
 31
0.0
  0
CIRCLE
  5
3B8
  8
0
  6
CONTINUOUS
 62
     3
 10
470.1803464627107
 20
33.43021897068596
 30
0.0
 40
2.65
  0
CIRCLE
  5
3B9
  8
0
  6
CONTINUOUS
 62
     3
 10
524.1803464627108
 20
33.43021897068596
 30
0.0
 40
2.65
  0
LINE
  5
3BA
  8
0
  6
CONTINUOUS
 62
     3
 10
186.0303220486482
 20
140.930218970686
 30
0.0
 11
186.0303220486482
 21
-74.06978102931404
 31
0.0
  0
LINE
  5
3BB
  8
0
  6
CONTINUOUS
 62
     3
 10
278.0303220486482
 20
138.930218970686
 30
0.0
 11
278.0303220486482
 21
131.9296238779125
 31
0.0
  0
LINE
  5
3BC
  8
0
  6
CONTINUOUS
 62
     3
 10
186.0303220486482
 20
140.930218970686
 30
0.0
 11
245.0303220486482
 21
140.930218970686
 31
0.0
  0
LINE
  5
3BD
  8
0
  6
CONTINUOUS
 62
     3
 10
186.0303220486482
 20
-74.06978102931404
 30
0.0
 11
276.0303220486482
 21
-74.06978102931404
 31
0.0
  0
LINE
  5
3BE
  8
0
  6
CONTINUOUS
 62
     3
 10
277.0303078584113
 20
139.9302258229714
 30
0.0
 11
278.0303089200008
 21
138.9302247613819
 31
0.0
  0
LINE
  5
3BF
  8
0
  6
CONTINUOUS
 62
     3
 10
278.0303304991869
 20
-72.06977265254906
 30
0.0
 11
276.0303283760078
 21
-74.06977477572806
 31
0.0
  0
LINE
  5
3C0
  8
0
  6
CONTINUOUS
 62
     3
 10
190.2303342556795
 20
128.430218970686
 30
0.0
 11
190.2303342556795
 21
-61.56978102931404
 31
0.0
  0
LINE
  5
3C1
  8
0
  6
CONTINUOUS
 62
     3
 10
186.0303220486482
 20
-61.56978102931404
 30
0.0
 11
190.2303189968904
 21
-61.56978102931404
 31
0.0
  0
LINE
  5
3C2
  8
0
  6
CONTINUOUS
 62
     3
 10
186.0303220486482
 20
128.430218970686
 30
0.0
 11
190.2303189968904
 21
128.430218970686
 31
0.0
  0
LINE
  5
3C3
  8
0
  6
CONTINUOUS
 62
     3
 10
190.2303189968904
 20
-3.569781029314044
 30
0.0
 11
209.0303220486482
 21
-3.569781029314044
 31
0.0
  0
LINE
  5
3C4
  8
0
  6
CONTINUOUS
 62
     3
 10
275.5303220486482
 20
-6.569781029314044
 30
0.0
 11
278.0303220486482
 21
-6.569781029314044
 31
0.0
  0
LINE
  5
3C5
  8
0
  6
CONTINUOUS
 62
     3
 10
275.5303220486482
 20
69.39895371189689
 30
0.0
 11
275.5303220486482
 21
-6.569781029314044
 31
0.0
  0
LINE
  5
3C6
  8
0
  6
CONTINUOUS
 62
     3
 10
245.0303220486482
 20
140.930218970686
 30
0.0
 11
245.0303220486482
 21
96.43021897068596
 31
0.0
  0
LINE
  5
3C7
  8
0
  6
CONTINUOUS
 62
     3
 10
263.5303220486482
 20
73.46001938572502
 30
0.0
 11
263.5303220486482
 21
58.18400696507072
 31
0.0
  0
LINE
  5
3C8
  8
0
  6
CONTINUOUS
 62
     3
 10
245.0303220486482
 20
96.43021897068596
 30
0.0
 11
245.0303220486482
 21
70.43021897068596
 31
0.0
  0
LINE
  5
3C9
  8
0
  6
CONTINUOUS
 62
     3
 10
224.0303220486482
 20
70.43021897068596
 30
0.0
 11
248.5303220486482
 21
70.43021897068596
 31
0.0
  0
LINE
  5
3CA
  8
0
  6
CONTINUOUS
 62
     3
 10
199.0303220486482
 20
69.93021897068596
 30
0.0
 11
199.0303220486482
 21
-3.069781029314044
 31
0.0
  0
LINE
  5
3CB
  8
0
  6
CONTINUOUS
 62
     3
 10
249.0303220486482
 20
69.93021897068596
 30
0.0
 11
249.0303220486482
 21
-3.069781029314044
 31
0.0
  0
LINE
  5
3CC
  8
0
  6
CONTINUOUS
 62
     3
 10
248.5302997854259
 20
70.43022108645849
 30
0.0
 11
249.0303092091626
 21
69.93020782727174
 31
0.0
  0
LINE
  5
3CD
  8
0
  6
CONTINUOUS
 62
     3
 10
249.030337476667
 20
-3.069801904007335
 30
0.0
 11
248.5303369458722
 21
-3.569802434802085
 31
0.0
  0
LINE
  5
3CE
  8
0
  6
CONTINUOUS
 62
     3
 10
199.0303306780485
 20
69.93018070507608
 30
0.0
 11
199.5303496271887
 21
70.43018439671144
 31
0.0
  0
LINE
  5
3CF
  8
0
  6
CONTINUOUS
 62
     3
 10
199.0303429852599
 20
-3.069766347060948
 30
0.0
 11
199.5303619344001
 21
-3.569770038696305
 31
0.0
  0
LINE
  5
3D0
  8
0
  6
CONTINUOUS
 62
     3
 10
228.0303220486482
 20
64.93021897068596
 30
0.0
 11
228.0303220486482
 21
1.930218970685957
 31
0.0
  0
LINE
  5
3D1
  8
0
  6
CONTINUOUS
 62
     3
 10
238.0303220486482
 20
66.43021897068596
 30
0.0
 11
238.0303220486482
 21
0.4302189706859565
 31
0.0
  0
LINE
  5
3D2
  8
0
  6
CONTINUOUS
 62
     3
 10
230.0303220486482
 20
64.93021897068596
 30
0.0
 11
230.0303220486482
 21
1.930218970685957
 31
0.0
  0
LINE
  5
3D3
  8
0
  6
CONTINUOUS
 62
     3
 10
240.0303220486482
 20
66.43021897068596
 30
0.0
 11
240.0303220486482
 21
0.4302189706859565
 31
0.0
  0
LINE
  5
3D4
  8
0
  6
CONTINUOUS
 62
     3
 10
200.0303220486482
 20
58.43021897068596
 30
0.0
 11
227.0303220486482
 21
58.43021897068596
 31
0.0
  0
LINE
  5
3D5
  8
0
  6
CONTINUOUS
 62
     3
 10
228.0303220486482
 20
64.93021897068596
 30
0.0
 11
230.0303220486482
 21
64.93021897068596
 31
0.0
  0
LINE
  5
3D6
  8
0
  6
CONTINUOUS
 62
     3
 10
228.0303220486482
 20
1.930218970685957
 30
0.0
 11
230.0303220486482
 21
1.930218970685957
 31
0.0
  0
LINE
  5
3D7
  8
0
  6
CONTINUOUS
 62
     3
 10
238.0303220486482
 20
66.43021897068596
 30
0.0
 11
240.0303220486482
 21
66.43021897068596
 31
0.0
  0
LINE
  5
3D8
  8
0
  6
CONTINUOUS
 62
     3
 10
238.0303220486482
 20
0.4302189706859565
 30
0.0
 11
240.0303220486482
 21
0.4302189706859565
 31
0.0
  0
LINE
  5
3D9
  8
0
  6
CONTINUOUS
 62
     3
 10
200.0303220486482
 20
58.43021897068596
 30
0.0
 11
200.0303220486482
 21
50.68021897068596
 31
0.0
  0
LINE
  5
3DA
  8
0
  6
CONTINUOUS
 62
     3
 10
227.0303220486482
 20
58.43021897068596
 30
0.0
 11
227.0303220486482
 21
50.68021897068596
 31
0.0
  0
LINE
  5
3DB
  8
0
  6
CONTINUOUS
 62
     3
 10
240.0303220486482
 20
65.93021897068596
 30
0.0
 11
249.0303220486482
 21
65.93021897068596
 31
0.0
  0
LINE
  5
3DC
  8
0
  6
CONTINUOUS
 62
     3
 10
240.0303220486482
 20
0.9302189706859565
 30
0.0
 11
249.0303220486482
 21
0.9302189706859565
 31
0.0
  0
LINE
  5
3DD
  8
0
  6
CONTINUOUS
 62
     3
 10
227.030347834845
 20
58.4301981252577
 30
0.0
 11
228.0303485592226
 21
59.43021031365223
 31
0.0
  0
LINE
  5
3DE
  8
0
  6
CONTINUOUS
 62
     3
 10
200.0303363697883
 20
58.43023095243646
 30
0.0
 11
199.0303315149783
 21
59.4302282208055
 31
0.0
  0
LINE
  5
3DF
  8
0
  6
CONTINUOUS
 62
     3
 10
223.0303220486482
 20
-3.569781029314044
 30
0.0
 11
275.5303220486482
 21
-3.569781029314044
 31
0.0
  0
LINE
  5
3E0
  8
0
  6
CONTINUOUS
 62
     3
 10
209.0303220486482
 20
-3.569781029314044
 30
0.0
 11
223.0303220486482
 21
-3.569781029314044
 31
0.0
  0
LINE
  5
3E1
  8
0
  6
CONTINUOUS
 62
     3
 10
275.5303220486482
 20
69.39895371189689
 30
0.0
 11
278.0303220486482
 21
69.39895371189689
 31
0.0
  0
LINE
  5
3E2
  8
0
  6
CONTINUOUS
 62
     3
 10
263.5303220486482
 20
66.03006485691643
 30
0.0
 11
275.5303220486482
 21
66.03006485691643
 31
0.0
  0
LINE
  5
3E3
  8
0
  6
CONTINUOUS
 62
     3
 10
250.8901853298982
 20
58.18400696507072
 30
0.0
 11
263.5303220486482
 21
58.18400696507072
 31
0.0
  0
LINE
  5
3E4
  8
0
  6
CONTINUOUS
 62
     3
 10
245.0303220486482
 20
74.93021897068596
 30
0.0
 11
277.0303220486482
 21
74.93021897068596
 31
0.0
  0
LINE
  5
3E5
  8
0
  6
CONTINUOUS
 62
     3
 10
269.0303220486482
 20
140.930218970686
 30
0.0
 11
269.0303220486482
 21
130.930218970686
 31
0.0
  0
LINE
  5
3E6
  8
0
  6
CONTINUOUS
 62
     3
 10
262.0303220486482
 20
140.930218970686
 30
0.0
 11
262.0303220486482
 21
74.93021897068596
 31
0.0
  0
LINE
  5
3E7
  8
0
  6
CONTINUOUS
 62
     3
 10
245.0303220486482
 20
140.930218970686
 30
0.0
 11
277.0303220486482
 21
140.930218970686
 31
0.0
  0
LINE
  5
3E8
  8
0
  6
CONTINUOUS
 62
     3
 10
263.0303220486482
 20
130.930218970686
 30
0.0
 11
278.0303220486482
 21
130.930218970686
 31
0.0
  0
LINE
  5
3E9
  8
0
  6
CONTINUOUS
 62
     3
 10
263.0303220486482
 20
80.93021897068596
 30
0.0
 11
278.0303220486482
 21
80.93021897068596
 31
0.0
  0
LINE
  5
3EA
  8
0
  6
CONTINUOUS
 62
     3
 10
263.0303220486482
 20
130.930218970686
 30
0.0
 11
263.0303220486482
 21
80.93021897068596
 31
0.0
  0
LINE
  5
3EB
  8
0
  6
CONTINUOUS
 62
     3
 10
286.0303220486482
 20
128.930218970686
 30
0.0
 11
286.0303220486482
 21
112.930218970686
 31
0.0
  0
LINE
  5
3EC
  8
0
  6
CONTINUOUS
 62
     3
 10
296.0303220486482
 20
128.930218970686
 30
0.0
 11
296.0303220486482
 21
112.930218970686
 31
0.0
  0
LINE
  5
3ED
  8
0
  6
CONTINUOUS
 62
     3
 10
286.0303220486482
 20
82.93021897068596
 30
0.0
 11
296.0303220486482
 21
82.93021897068596
 31
0.0
  0
LINE
  5
3EE
  8
0
  6
CONTINUOUS
 62
     3
 10
286.0303220486482
 20
98.93021897068596
 30
0.0
 11
296.0303220486482
 21
98.93021897068596
 31
0.0
  0
LINE
  5
3EF
  8
0
  6
CONTINUOUS
 62
     3
 10
286.0303220486482
 20
128.930218970686
 30
0.0
 11
296.0303220486482
 21
128.930218970686
 31
0.0
  0
LINE
  5
3F0
  8
0
  6
CONTINUOUS
 62
     3
 10
286.0303220486482
 20
112.930218970686
 30
0.0
 11
296.0303220486482
 21
112.930218970686
 31
0.0
  0
LINE
  5
3F1
  8
0
  6
CONTINUOUS
 62
     3
 10
263.0303220486482
 20
95.93021897068596
 30
0.0
 11
286.0303220486482
 21
95.93021897068596
 31
0.0
  0
LINE
  5
3F2
  8
0
  6
CONTINUOUS
 62
     3
 10
263.0303220486482
 20
85.93021897068596
 30
0.0
 11
286.0303220486482
 21
85.93021897068596
 31
0.0
  0
LINE
  5
3F3
  8
0
  6
CONTINUOUS
 62
     3
 10
263.0303220486482
 20
125.930218970686
 30
0.0
 11
286.0303220486482
 21
125.930218970686
 31
0.0
  0
LINE
  5
3F4
  8
0
  6
CONTINUOUS
 62
     3
 10
263.0303220486482
 20
115.930218970686
 30
0.0
 11
286.0303220486482
 21
115.930218970686
 31
0.0
  0
LINE
  5
3F5
  8
0
  6
CONTINUOUS
 62
     3
 10
266.0303220486482
 20
125.930218970686
 30
0.0
 11
266.0303220486482
 21
115.930218970686
 31
0.0
  0
LINE
  5
3F6
  8
0
  6
CONTINUOUS
 62
     3
 10
269.0303220486482
 20
80.93021897068596
 30
0.0
 11
269.0303220486482
 21
74.93021897068596
 31
0.0
  0
LINE
  5
3F7
  8
0
  6
CONTINUOUS
 62
     3
 10
278.0303220486482
 20
85.93021897068596
 30
0.0
 11
278.0303220486482
 21
80.93021897068596
 31
0.0
  0
LINE
  5
3F8
  8
0
  6
CONTINUOUS
 62
     3
 10
286.0303220486482
 20
98.93021897068596
 30
0.0
 11
286.0303220486482
 21
82.93021897068596
 31
0.0
  0
LINE
  5
3F9
  8
0
  6
CONTINUOUS
 62
     3
 10
296.0303220486482
 20
98.93021897068596
 30
0.0
 11
296.0303220486482
 21
82.93021897068596
 31
0.0
  0
LINE
  5
3FA
  8
0
  6
CONTINUOUS
 62
     3
 10
278.0303220486482
 20
115.930218970686
 30
0.0
 11
278.0303220486482
 21
95.93021897068596
 31
0.0
  0
LINE
  5
3FB
  8
0
  6
CONTINUOUS
 62
     3
 10
278.0303220486482
 20
79.97682694187736
 30
0.0
 11
278.0303220486482
 21
-72.06978102931404
 31
0.0
  0
LINE
  5
3FC
  8
0
  6
CONTINUOUS
 62
     3
 10
278.0303220486482
 20
130.930218970686
 30
0.0
 11
278.0303220486482
 21
125.930218970686
 31
0.0
  0
LINE
  5
3FD
  8
0
  6
CONTINUOUS
 62
     3
 10
266.0303220486482
 20
95.93021897068596
 30
0.0
 11
266.0303220486482
 21
85.93021897068596
 31
0.0
  0
LINE
  5
3FE
  8
0
  6
CONTINUOUS
 62
     3
 10
263.0303220486482
 20
-7.569781029314044
 30
0.0
 11
263.0303220486482
 21
-15.56978102931404
 31
0.0
  0
LINE
  5
3FF
  8
0
  6
CONTINUOUS
 62
     3
 10
258.0303220486482
 20
-8.41978141078377
 30
0.0
 11
258.0303220486482
 21
-14.71978255519295
 31
0.0
  0
LINE
  5
400
  8
0
  6
CONTINUOUS
 62
     3
 10
258.0303220486482
 20
-14.71978255519295
 30
0.0
 11
278.0303220486482
 21
-14.71978255519295
 31
0.0
  0
LINE
  5
401
  8
0
  6
CONTINUOUS
 62
     3
 10
258.0303220486482
 20
-8.41978141078377
 30
0.0
 11
278.0303220486482
 21
-8.41978141078377
 31
0.0
  0
LINE
  5
402
  8
0
  6
CONTINUOUS
 62
     3
 10
263.0303220486482
 20
-7.569781029314044
 30
0.0
 11
278.0303220486482
 21
-7.569781029314044
 31
0.0
  0
LINE
  5
403
  8
0
  6
CONTINUOUS
 62
     3
 10
263.0303220486482
 20
-15.56978102931404
 30
0.0
 11
278.0303220486482
 21
-15.56978102931404
 31
0.0
  0
LINE
  5
404
  8
0
  6
CONTINUOUS
 62
     3
 10
256.2116487266291
 20
-11.56978681427333
 30
0.0
 11
258.0303096795144
 21
-8.419774074182413
 31
0.0
  0
LINE
  5
405
  8
0
  6
CONTINUOUS
 62
     3
 10
256.2116593556688
 20
-11.56980579820558
 30
0.0
 11
258.0303088644609
 21
-14.71979871654841
 31
0.0
  0
LINE
  5
406
  8
0
  6
CONTINUOUS
 62
     3
 10
190.2303189968904
 20
70.43021897068596
 30
0.0
 11
224.0303220486482
 21
70.43021897068596
 31
0.0
  0
LINE
  5
407
  8
0
  6
CONTINUOUS
 62
     3
 10
230.0303220486482
 20
2.180218970685957
 30
0.0
 11
238.0303220486482
 21
2.180218970685957
 31
0.0
  0
LINE
  5
408
  8
0
  6
CONTINUOUS
 62
     3
 10
230.0303220486482
 20
64.68021897068596
 30
0.0
 11
238.0303220486482
 21
64.68021897068596
 31
0.0
  0
LINE
  5
409
  8
0
  6
CONTINUOUS
 62
     3
 10
200.0303220486482
 20
8.430218970685957
 30
0.0
 11
200.0303220486482
 21
16.18021897068596
 31
0.0
  0
LINE
  5
40A
  8
0
  6
CONTINUOUS
 62
     3
 10
227.0303220486482
 20
8.430218970685957
 30
0.0
 11
227.0303220486482
 21
16.18021897068596
 31
0.0
  0
LINE
  5
40B
  8
0
  6
CONTINUOUS
 62
     3
 10
200.0303415960377
 20
8.430215762356994
 30
0.0
 11
199.0303367412277
 21
7.430218493987951
 31
0.0
  0
LINE
  5
40C
  8
0
  6
CONTINUOUS
 62
     3
 10
200.0303220486482
 20
8.430218970685957
 30
0.0
 11
227.0303220486482
 21
8.430218970685957
 31
0.0
  0
LINE
  5
40D
  8
0
  6
CONTINUOUS
 62
     3
 10
227.03034716051
 20
8.430240498361883
 30
0.0
 11
228.0303478848875
 21
7.430228309967362
 31
0.0
  0
LINE
  5
40E
  8
0
  6
CONTINUOUS
 62
     3
 10
240.0303220486482
 20
9.430218970685957
 30
0.0
 11
249.0303220486482
 21
9.430218970685957
 31
0.0
  0
LINE
  5
40F
  8
0
  6
CONTINUOUS
 62
     3
 10
240.0303220486482
 20
57.43021897068596
 30
0.0
 11
249.0303220486482
 21
57.43021897068596
 31
0.0
  0
LINE
  5
410
  8
0
  6
CONTINUOUS
 62
     3
 10
240.0303220486482
 20
58.43022278538322
 30
0.0
 11
248.0303220486482
 21
58.43022278538322
 31
0.0
  0
LINE
  5
411
  8
0
  6
CONTINUOUS
 62
     3
 10
240.0303220486482
 20
62.43022278538322
 30
0.0
 11
248.0303220486482
 21
62.43022278538322
 31
0.0
  0
LINE
  5
412
  8
0
  6
CONTINUOUS
 62
     3
 10
244.0303220486482
 20
62.43022278538322
 30
0.0
 11
244.0303220486482
 21
58.43022278538322
 31
0.0
  0
LINE
  5
413
  8
0
  6
CONTINUOUS
 62
     3
 10
248.0303220486482
 20
62.43022278538322
 30
0.0
 11
248.0303220486482
 21
58.43022278538322
 31
0.0
  0
LINE
  5
414
  8
0
  6
CONTINUOUS
 62
     3
 10
248.0303220486482
 20
61.93022278538322
 30
0.0
 11
249.0303220486482
 21
61.93022278538322
 31
0.0
  0
LINE
  5
415
  8
0
  6
CONTINUOUS
 62
     3
 10
248.0303220486482
 20
58.93022278538322
 30
0.0
 11
249.0303220486482
 21
58.93022278538322
 31
0.0
  0
LINE
  5
416
  8
0
  6
CONTINUOUS
 62
     3
 10
244.0303321687194
 20
61.68021828074419
 30
0.0
 11
244.7803329649116
 21
62.43021907693631
 31
0.0
  0
LINE
  5
417
  8
0
  6
CONTINUOUS
 62
     3
 10
244.0303267739229
 20
59.18022102156695
 30
0.0
 11
244.7803221753185
 21
58.43022562017134
 31
0.0
  0
LINE
  5
418
  8
0
  6
CONTINUOUS
 62
     3
 10
244.7803220486482
 20
62.43022278538322
 30
0.0
 11
244.7803220486482
 21
58.43022278538322
 31
0.0
  0
LINE
  5
419
  8
0
  6
CONTINUOUS
 62
     3
 10
240.0303279223614
 20
61.43022341014333
 30
0.0
 11
241.0303262865527
 21
62.43022177433457
 31
0.0
  0
LINE
  5
41A
  8
0
  6
CONTINUOUS
 62
     3
 10
240.0303279223614
 20
59.43022128696433
 30
0.0
 11
241.0303289839509
 21
58.43022022537483
 31
0.0
  0
LINE
  5
41B
  8
0
  6
CONTINUOUS
 62
     3
 10
241.0303220486482
 20
62.43022278538322
 30
0.0
 11
241.0303220486482
 21
58.43022278538322
 31
0.0
  0
LINE
  5
41C
  8
0
  6
CONTINUOUS
 62
     3
 10
514.6803464627108
 20
140.930218970686
 30
0.0
 11
514.6803464627108
 21
66.03006485691643
 31
0.0
  0
LINE
  5
41D
  8
0
  6
CONTINUOUS
 62
     3
 10
479.6803464627107
 20
140.930218970686
 30
0.0
 11
479.6803464627107
 21
66.03006485691643
 31
0.0
  0
LINE
  5
41E
  8
0
  6
CONTINUOUS
 62
     3
 10
469.6803464627107
 20
139.1669438242016
 30
0.0
 11
469.6803464627107
 21
137.3532688974438
 31
0.0
  0
LINE
  5
41F
  8
0
  6
CONTINUOUS
 62
     3
 10
524.6803464627108
 20
139.1669438242016
 30
0.0
 11
524.6803464627108
 21
137.3532688974438
 31
0.0
  0
LINE
  5
420
  8
0
  6
CONTINUOUS
 62
     3
 10
479.6803464627107
 20
140.930218970686
 30
0.0
 11
514.6803464627108
 21
140.930218970686
 31
0.0
  0
LINE
  5
421
  8
0
  6
CONTINUOUS
 62
     3
 10
469.6803555947333
 20
139.1669357326082
 30
0.0
 11
479.680355593169
 21
140.9302055903645
 31
0.0
  0
LINE
  5
422
  8
0
  6
CONTINUOUS
 62
     3
 10
514.6803296948298
 20
140.9301908475395
 30
0.0
 11
524.6803372067523
 21
139.1669196649528
 31
0.0
  0
LINE
  5
423
  8
0
  6
CONTINUOUS
 62
     3
 10
479.6803464627107
 20
74.93021897068596
 30
0.0
 11
514.6803464627108
 21
74.93021897068596
 31
0.0
  0
LINE
  5
424
  8
0
  6
CONTINUOUS
 62
     3
 10
504.1803464627107
 20
140.930218970686
 30
0.0
 11
504.1803464627107
 21
124.8032048105297
 31
0.0
  0
LINE
  5
425
  8
0
  6
CONTINUOUS
 62
     3
 10
490.1803464627107
 20
140.930218970686
 30
0.0
 11
490.1803464627107
 21
124.8032048105297
 31
0.0
  0
LINE
  5
426
  8
0
  6
CONTINUOUS
 62
     3
 10
490.1803464627107
 20
130.930218970686
 30
0.0
 11
504.1803464627107
 21
130.930218970686
 31
0.0
  0
LINE
  5
427
  8
0
  6
CONTINUOUS
 62
     3
 10
490.1803464627107
 20
80.93021897068596
 30
0.0
 11
504.1803464627107
 21
80.93021897068596
 31
0.0
  0
LINE
  5
428
  8
0
  6
CONTINUOUS
 62
     3
 10
504.1803464627107
 20
87.05723313084221
 30
0.0
 11
504.1803464627107
 21
74.93021897068596
 31
0.0
  0
LINE
  5
429
  8
0
  6
CONTINUOUS
 62
     3
 10
490.1803464627107
 20
87.05723313084221
 30
0.0
 11
490.1803464627107
 21
74.93021897068596
 31
0.0
  0
LINE
  5
42A
  8
0
  6
CONTINUOUS
 62
     3
 10
490.1803464627107
 20
117.0572331308422
 30
0.0
 11
490.1803464627107
 21
94.80320481052971
 31
0.0
  0
LINE
  5
42B
  8
0
  6
CONTINUOUS
 62
     3
 10
504.1803464627107
 20
117.0572331308422
 30
0.0
 11
504.1803464627107
 21
94.80320481052971
 31
0.0
  0
LINE
  5
42C
  8
0
  6
CONTINUOUS
 62
     3
 10
479.6803464627107
 20
-74.06978102931404
 30
0.0
 11
514.6803464627108
 21
-74.06978102931404
 31
0.0
  0
LINE
  5
42D
  8
0
  6
CONTINUOUS
 62
     3
 10
479.6803464627107
 20
0.8303730844554877
 30
0.0
 11
479.6803464627107
 21
-74.06978102931404
 31
0.0
  0
LINE
  5
42E
  8
0
  6
CONTINUOUS
 62
     3
 10
514.6803464627108
 20
0.8303730844554877
 30
0.0
 11
514.6803464627108
 21
-74.06978102931404
 31
0.0
  0
LINE
  5
42F
  8
0
  6
CONTINUOUS
 62
     3
 10
524.6803464627108
 20
-70.49283095607186
 30
0.0
 11
524.6803464627108
 21
-72.3065135122242
 31
0.0
  0
LINE
  5
430
  8
0
  6
CONTINUOUS
 62
     3
 10
469.6803464627107
 20
-70.49283095607186
 30
0.0
 11
469.6803464627107
 21
-72.3065135122242
 31
0.0
  0
LINE
  5
431
  8
0
  6
CONTINUOUS
 62
     3
 10
514.6803503200292
 20
-74.06976958746779
 30
0.0
 11
524.6803503184648
 21
-72.30649972971148
 31
0.0
  0
LINE
  5
432
  8
0
  6
CONTINUOUS
 62
     3
 10
469.6803376191949
 20
-72.30649944556305
 30
0.0
 11
479.6803376176305
 21
-74.06976930331936
 31
0.0
  0
LINE
  5
433
  8
0
  6
CONTINUOUS
 62
     3
 10
479.6803464627107
 20
-8.069781029314044
 30
0.0
 11
514.6803464627108
 21
-8.069781029314044
 31
0.0
  0
LINE
  5
434
  8
0
  6
CONTINUOUS
 62
     3
 10
490.1803464627107
 20
-8.069781029314044
 30
0.0
 11
490.1803464627107
 21
-20.19679709681893
 31
0.0
  0
LINE
  5
435
  8
0
  6
CONTINUOUS
 62
     3
 10
504.1803464627107
 20
-8.069781029314044
 30
0.0
 11
504.1803464627107
 21
-20.19679709681893
 31
0.0
  0
LINE
  5
436
  8
0
  6
CONTINUOUS
 62
     3
 10
490.1803464627107
 20
-14.06978102931404
 30
0.0
 11
504.1803464627107
 21
-14.06978102931404
 31
0.0
  0
LINE
  5
437
  8
0
  6
CONTINUOUS
 62
     3
 10
490.1803464627107
 20
-64.06978102931404
 30
0.0
 11
504.1803464627107
 21
-64.06978102931404
 31
0.0
  0
LINE
  5
438
  8
0
  6
CONTINUOUS
 62
     3
 10
504.1803464627107
 20
-27.94275923976326
 30
0.0
 11
504.1803464627107
 21
-50.19679518947029
 31
0.0
  0
LINE
  5
439
  8
0
  6
CONTINUOUS
 62
     3
 10
504.1803464627107
 20
-57.94276686915779
 30
0.0
 11
504.1803464627107
 21
-74.06978102931404
 31
0.0
  0
LINE
  5
43A
  8
0
  6
CONTINUOUS
 62
     3
 10
490.1803464627107
 20
-57.94276686915779
 30
0.0
 11
490.1803464627107
 21
-74.06978102931404
 31
0.0
  0
LINE
  5
43B
  8
0
  6
CONTINUOUS
 62
     3
 10
490.1803464627107
 20
-27.94275923976326
 30
0.0
 11
490.1803464627107
 21
-50.19679518947029
 31
0.0
  0
LINE
  5
43C
  8
0
  6
CONTINUOUS
 62
     3
 10
454.3303506126633
 20
109.3665705726678
 30
0.0
 11
451.4803511193033
 21
104.4302288423412
 31
0.0
  0
LINE
  5
43D
  8
0
  6
CONTINUOUS
 62
     3
 10
460.0303449368318
 20
109.3665593027172
 30
0.0
 11
454.3303479885896
 21
109.3665593027172
 31
0.0
  0
LINE
  5
43E
  8
0
  6
CONTINUOUS
 62
     3
 10
462.8803627957876
 20
104.4302277066215
 30
0.0
 11
460.0303623755763
 21
109.3665777429308
 31
0.0
  0
LINE
  5
43F
  8
0
  6
CONTINUOUS
 62
     3
 10
460.0303375344788
 20
99.49386222571914
 30
0.0
 11
462.8803394060628
 21
104.4302022573143
 31
0.0
  0
LINE
  5
440
  8
0
  6
CONTINUOUS
 62
     3
 10
454.3303479885896
 20
99.49387100926018
 30
0.0
 11
460.0303449368318
 21
99.49387100926018
 31
0.0
  0
LINE
  5
441
  8
0
  6
CONTINUOUS
 62
     3
 10
451.4803403974517
 20
104.4302290224646
 30
0.0
 11
454.3303375125876
 21
99.49388627289912
 31
0.0
  0
LINE
  5
442
  8
0
  6
CONTINUOUS
 62
     3
 10
519.6803464627108
 20
-93.5831248403492
 30
0.0
 11
553.746554348453
 21
-93.5831248403492
 31
0.0
  0
LINE
  5
443
  8
0
  6
CONTINUOUS
 62
     3
 10
528.1803464627108
 20
-106.5831248403492
 30
0.0
 11
528.1803464627108
 21
-93.58311721095467
 31
0.0
  0
LINE
  5
444
  8
0
  6
CONTINUOUS
 62
     3
 10
546.1803464627108
 20
-106.5831172109547
 30
0.0
 11
546.1803464627108
 21
-93.58311721095467
 31
0.0
  0
LINE
  5
445
  8
0
  6
CONTINUOUS
 62
     3
 10
528.1803464627108
 20
-106.5831248403492
 30
0.0
 11
546.1803464627108
 21
-106.5831248403492
 31
0.0
  0
LINE
  5
446
  8
0
  6
CONTINUOUS
 62
     3
 10
539.5803403591951
 20
-94.58311721095467
 30
0.0
 11
534.7803373074373
 21
-94.58311721095467
 31
0.0
  0
LINE
  5
447
  8
0
  6
CONTINUOUS
 62
     3
 10
531.4803495144685
 20
-103.0218684316578
 30
0.0
 11
531.4803495144685
 21
-106.1443736196461
 31
0.0
  0
LINE
  5
448
  8
0
  6
CONTINUOUS
 62
     3
 10
542.880343410953
 20
-103.0218684316578
 30
0.0
 11
542.880343410953
 21
-106.1443736196461
 31
0.0
  0
LINE
  5
449
  8
0
  6
CONTINUOUS
 62
     3
 10
533.8803350246664
 20
-97.28311610501666
 30
0.0
 11
534.7803356534209
 21
-94.58311387947705
 31
0.0
  0
LINE
  5
44A
  8
0
  6
CONTINUOUS
 62
     3
 10
540.4803493074011
 20
-97.28312272855507
 30
0.0
 11
539.580347990671
 21
-94.58311869354563
 31
0.0
  0
LINE
  5
44B
  8
0
  6
CONTINUOUS
 62
     3
 10
541.630343410953
 20
-102.5831172109547
 30
0.0
 11
532.7303495144685
 21
-102.5831172109547
 31
0.0
  0
LINE
  5
44C
  8
0
  6
CONTINUOUS
 62
     3
 10
540.0740079617342
 20
-103.3270060659351
 30
0.0
 11
540.0740079617342
 21
-105.8392359853687
 31
0.0
  0
LINE
  5
44D
  8
0
  6
CONTINUOUS
 62
     3
 10
534.2866849636873
 20
-103.3270060659351
 30
0.0
 11
534.2866849636873
 21
-105.8392359853687
 31
0.0
  0
LINE
  5
44E
  8
0
  6
CONTINUOUS
 62
     3
 10
533.0549034297048
 20
-116.5831254966172
 30
0.0
 11
532.8803527604197
 21
-106.5831227487608
 31
0.0
  0
LINE
  5
44F
  8
0
  6
CONTINUOUS
 62
     3
 10
541.3058003955091
 20
-116.5831179569189
 30
0.0
 11
541.480351136565
 21
-106.5831228372952
 31
0.0
  0
LINE
  5
450
  8
0
  6
CONTINUOUS
 62
     3
 10
540.0303541347282
 20
-42.50612868501136
 30
0.0
 11
542.8803536280881
 21
-37.56978695468476
 31
0.0
  0
LINE
  5
451
  8
0
  6
CONTINUOUS
 62
     3
 10
534.3303403591951
 20
-42.50612136134529
 30
0.0
 11
540.0303525662263
 21
-42.50612136134529
 31
0.0
  0
LINE
  5
452
  8
0
  6
CONTINUOUS
 62
     3
 10
531.480339632099
 20
-37.56978649857271
 30
0.0
 11
534.3303400523103
 21
-42.50613653488196
 31
0.0
  0
LINE
  5
453
  8
0
  6
CONTINUOUS
 62
     3
 10
534.3303468013875
 20
-32.63342579643333
 30
0.0
 11
531.4803449298036
 21
-37.56976582802847
 31
0.0
  0
LINE
  5
454
  8
0
  6
CONTINUOUS
 62
     3
 10
540.0303525662263
 20
-32.63343306788826
 30
0.0
 11
534.3303403591951
 21
-32.63343306788826
 31
0.0
  0
LINE
  5
455
  8
0
  6
CONTINUOUS
 62
     3
 10
542.8803400371896
 20
-37.56979250901301
 30
0.0
 11
540.0303429220537
 21
-32.63344975944753
 31
0.0
  0
ARC
  5
456
  8
0
  6
CONTINUOUS
 62
     3
 10
497.1803464627107
 20
33.43021897068596
 30
0.0
 40
107.5
 50
279.368913338515
 51
440.631086661485
  0
CIRCLE
  5
457
  8
0
  6
CONTINUOUS
 62
     3
 10
497.1803464627107
 20
33.43021897068596
 30
0.0
 40
37.0
  0
CIRCLE
  5
458
  8
0
  6
CONTINUOUS
 62
     3
 10
497.1803464627107
 20
33.43021897068596
 30
0.0
 40
32.5
  0
ARC
  5
459
  8
0
  6
CONTINUOUS
 62
     3
 10
497.1803464627107
 20
33.43021897068596
 30
0.0
 40
40.0
 50
115.9444965573391
 51
244.0554998001952
  0
ARC
  5
45A
  8
0
  6
CONTINUOUS
 62
     3
 10
497.1803464627107
 20
33.43021897068596
 30
0.0
 40
40.0
 50
295.9444778880044
 51
424.0555221119956
  0
CIRCLE
  5
45B
  8
0
  6
CONTINUOUS
 62
     3
 10
536.1514768338045
 20
55.93021134129143
 30
0.0
 40
3.150000095367432
  0
CIRCLE
  5
45C
  8
0
  6
CONTINUOUS
 62
     3
 10
458.209216091617
 20
55.93023422947502
 30
0.0
 40
3.150000095367432
  0
ARC
  5
45D
  8
0
  6
CONTINUOUS
 62
     3
 10
497.1803464627107
 20
33.43021897068596
 30
0.0
 40
105.5
 50
279.5481716532819
 51
440.4518283467181
  0
CIRCLE
  5
45E
  8
0
  6
CONTINUOUS
 62
     3
 10
536.1515073513826
 20
10.93023422947502
 30
0.0
 40
3.150000095367432
  0
CIRCLE
  5
45F
  8
0
  6
CONTINUOUS
 62
     3
 10
458.209216091617
 20
10.93021134129143
 30
0.0
 40
3.150000095367432
  0
CIRCLE
  5
460
  8
0
  6
CONTINUOUS
 62
     3
 10
554.922594997867
 20
66.76771286717033
 30
0.0
 40
7.0
  0
CIRCLE
  5
461
  8
0
  6
CONTINUOUS
 62
     3
 10
554.922594997867
 20
0.0927327035961127
 30
0.0
 40
7.0
  0
CIRCLE
  5
462
  8
0
  6
CONTINUOUS
 62
     3
 10
439.4380979275545
 20
66.76773575535393
 30
0.0
 40
7.0
  0
CIRCLE
  5
463
  8
0
  6
CONTINUOUS
 62
     3
 10
439.4380979275545
 20
66.76773575535393
 30
0.0
 40
10.0
  0
CIRCLE
  5
464
  8
0
  6
CONTINUOUS
 62
     3
 10
554.922594997867
 20
66.76771286717033
 30
0.0
 40
10.0
  0
CIRCLE
  5
465
  8
0
  6
CONTINUOUS
 62
     3
 10
554.922594997867
 20
0.0927327035961127
 30
0.0
 40
10.0
  0
CIRCLE
  5
466
  8
0
  6
CONTINUOUS
 62
     3
 10
439.4380979275545
 20
0.092709815412519
 30
0.0
 40
10.0
  0
CIRCLE
  5
467
  8
0
  6
CONTINUOUS
 62
     3
 10
457.1803464627107
 20
104.430218970686
 30
0.0
 40
9.0
  0
CIRCLE
  5
468
  8
0
  6
CONTINUOUS
 62
     3
 10
457.1803464627107
 20
104.430218970686
 30
0.0
 40
0.75
  0
CIRCLE
  5
469
  8
0
  6
CONTINUOUS
 62
     3
 10
457.1803464627107
 20
104.430218970686
 30
0.0
 40
3.299999952316284
  0
CIRCLE
  5
46A
  8
0
  6
CONTINUOUS
 62
     3
 10
457.1803464627107
 20
104.430218970686
 30
0.0
 40
2.400000095367432
  0
ARC
  5
46B
  8
0
  6
CONTINUOUS
 62
     3
 10
537.1803464627108
 20
-97.28312178859139
 30
0.0
 40
3.299999952316284
 50
343.4828250301777
 51
359.9999846699699
  0
ARC
  5
46C
  8
0
  6
CONTINUOUS
 62
     3
 10
537.1803464627108
 20
-97.28312178859139
 30
0.0
 40
3.299999952316284
 50
180.0000223118003
 51
196.517181913697
  0
ARC
  5
46D
  8
0
  6
CONTINUOUS
 62
     3
 10
541.630343410953
 20
-104.5831172109547
 30
0.0
 40
2.0
 50
270.0000043257107
 51
308.6821932938098
  0
ARC
  5
46E
  8
0
  6
CONTINUOUS
 62
     3
 10
532.7303495144685
 20
-104.5831248403492
 30
0.0
 40
2.0
 50
270.0000043257107
 51
321.0931661100998
  0
ARC
  5
46F
  8
0
  6
CONTINUOUS
 62
     3
 10
537.1803464627108
 20
-100.5831248403492
 30
0.0
 40
6.0
 50
270.000004325711
 51
298.8342353031886
  0
ARC
  5
470
  8
0
  6
CONTINUOUS
 62
     3
 10
537.1803464627108
 20
-108.5831172109547
 30
0.0
 40
6.0
 50
61.16577152700082
 51
118.8342129913882
  0
ARC
  5
471
  8
0
  6
CONTINUOUS
 62
     3
 10
537.1803464627108
 20
-100.5831248403492
 30
0.0
 40
6.0
 50
241.1657596878553
 51
270.000004325711
  0
ARC
  5
472
  8
0
  6
CONTINUOUS
 62
     3
 10
541.630343410953
 20
-104.5831172109547
 30
0.0
 40
2.0
 50
218.9068425413222
 51
269.9999974955215
  0
ARC
  5
473
  8
0
  6
CONTINUOUS
 62
     3
 10
541.630343410953
 20
-104.5831172109547
 30
0.0
 40
2.0
 50
51.31783061185255
 51
141.093116477543
  0
ARC
  5
474
  8
0
  6
CONTINUOUS
 62
     3
 10
532.7303495144685
 20
-104.5831248403492
 30
0.0
 40
2.0
 50
38.90685779556247
 51
128.6821573216311
  0
ARC
  5
475
  8
0
  6
CONTINUOUS
 62
     3
 10
532.7303495144685
 20
-104.5831248403492
 30
0.0
 40
2.0
 50
231.3178153576123
 51
269.9999974955215
  0
ARC
  5
476
  8
0
  6
CONTINUOUS
 62
     3
 10
545.9803495144685
 20
-98.61632033595467
 30
0.0
 40
5.650000095367432
 50
175.9910937775089
 51
225.0592547371508
  0
ARC
  5
477
  8
0
  6
CONTINUOUS
 62
     3
 10
528.380343410953
 20
-98.61632033595467
 30
0.0
 40
5.650000095367432
 50
314.9407502718058
 51
364.0089061088054
  0
ARC
  5
478
  8
0
  6
CONTINUOUS
 62
     3
 10
537.1803464627108
 20
-95.28312178859139
 30
0.0
 40
1.5
 50
27.8181532535261
 51
152.1818466327883
  0
CIRCLE
  5
479
  8
0
  6
CONTINUOUS
 62
     3
 10
537.1803464627108
 20
-37.56978102931404
 30
0.0
 40
9.0
  0
CIRCLE
  5
47A
  8
0
  6
CONTINUOUS
 62
     3
 10
537.1803464627108
 20
-37.56978102931404
 30
0.0
 40
0.75
  0
CIRCLE
  5
47B
  8
0
  6
CONTINUOUS
 62
     3
 10
537.1803464627108
 20
-37.56978102931404
 30
0.0
 40
3.299999952316284
  0
CIRCLE
  5
47C
  8
0
  6
CONTINUOUS
 62
     3
 10
537.1803464627108
 20
-37.56978102931404
 30
0.0
 40
2.400000095367432
  0
CIRCLE
  5
47D
  8
0
  6
CONTINUOUS
 62
     3
 10
497.1803464627107
 20
33.43021897068596
 30
0.0
 40
24.0
  0
CIRCLE
  5
47E
  8
0
  6
CONTINUOUS
 62
     3
 10
497.1803464627107
 20
60.43021897068596
 30
0.0
 40
2.0
  0
CIRCLE
  5
47F
  8
0
  6
CONTINUOUS
 62
     3
 10
473.7976560330232
 20
19.93021706333732
 30
0.0
 40
2.0
  0
CIRCLE
  5
480
  8
0
  6
CONTINUOUS
 62
     3
 10
520.5630368923983
 20
19.93021706333732
 30
0.0
 40
2.0
  0
ARC
  5
481
  8
0
  6
CONTINUOUS
 62
     3
 10
497.1803464627107
 20
33.43021897068596
 30
0.0
 40
105.5
 50
99.54819032261662
 51
260.451778714161
  0
ARC
  5
482
  8
0
  6
CONTINUOUS
 62
     3
 10
497.1803464627107
 20
33.43021897068596
 30
0.0
 40
107.5
 50
99.36893200784964
 51
260.6310575194955
  0
LINE
  5
483
  8
0
  6
CENTER
 62
     7
 10
180.5085607797969
 20
33.43021897068596
 30
0.0
 11
286.7371854519685
 21
33.43021897068596
 31
0.0
  0
LINE
  5
484
  8
0
  6
CENTER
 62
     7
 10
187.0303220486482
 20
70.43021897068596
 30
0.0
 11
188.7915525173982
 21
70.43021897068596
 31
0.0
  0
LINE
  5
485
  8
0
  6
CENTER
 62
     7
 10
259.690188381656
 20
120.930218970686
 30
0.0
 11
302.4901914334138
 21
120.930218970686
 31
0.0
  0
LINE
  5
486
  8
0
  6
CENTER
 62
     7
 10
259.690188381656
 20
90.93021897068596
 30
0.0
 11
302.4901914334138
 21
90.93021897068596
 31
0.0
  0
LINE
  5
487
  8
0
  6
CENTER
 62
     7
 10
252.5707273220857
 20
-11.56978102931404
 30
0.0
 11
284.572497341617
 21
-11.56978102931404
 31
0.0
  0
LINE
  5
488
  8
0
  6
CENTER
 62
     7
 10
168.4179258084138
 20
-33.24478408107186
 30
0.0
 11
243.258044216617
 21
-33.24478408107186
 31
0.0
  0
LINE
  5
489
  8
0
  6
CENTER
 62
     7
 10
186.5303220486482
 20
69.93021897068596
 30
0.0
 11
186.5303220486482
 21
39.48519257298088
 31
0.0
  0
LINE
  5
48A
  8
0
  6
CENTER
 62
     7
 10
261.5303220486482
 20
69.93021897068596
 30
0.0
 11
261.5303220486482
 21
39.48519257298088
 31
0.0
  0
LINE
  5
48B
  8
0
  6
CENTER
 62
     7
 10
187.03031481649
 20
70.43020059566973
 30
0.0
 11
186.5303142856953
 21
69.93020006487498
 31
0.0
  0
LINE
  5
48C
  8
0
  6
CENTER
 62
     7
 10
261.0303041414073
 20
70.43021765147594
 30
0.0
 11
261.5303135651439
 21
69.9302043922892
 31
0.0
  0
LINE
  5
48D
  8
0
  6
CENTER
 62
     7
 10
254.840807888492
 20
70.43021897068596
 30
0.0
 11
261.0303220486482
 21
70.43021897068596
 31
0.0
  0
LINE
  5
48E
  8
0
  6
CENTER
 62
     7
 10
238.3348874783357
 20
60.43021897068596
 30
0.0
 11
251.1233091091951
 21
60.43021897068596
 31
0.0
  0
LINE
  5
48F
  8
0
  6
CENTER
 62
     7
 10
238.9317502713045
 20
60.43022278538322
 30
0.0
 11
250.478014919742
 21
60.43022278538322
 31
0.0
  0
LINE
  5
490
  8
0
  6
CENTER
 62
     7
 10
425.5817072838977
 20
-7.907284874923874
 30
0.0
 11
463.4975722290015
 21
13.98344753915879
 31
0.0
  0
LINE
  5
491
  8
0
  6
CENTER
 62
     7
 10
422.0505552029451
 20
104.430218970686
 30
0.0
 11
469.5598325466951
 21
104.430218970686
 31
0.0
  0
LINE
  5
492
  8
0
  6
CENTER
 62
     7
 10
470.1803464627107
 20
39.08926514378166
 30
0.0
 11
470.1803464627107
 21
27.43021897068596
 31
0.0
  0
LINE
  5
493
  8
0
  6
CENTER
 62
     7
 10
524.1803464627108
 20
39.08926514378166
 30
0.0
 11
524.1803464627108
 21
27.43021897068596
 31
0.0
  0
LINE
  5
494
  8
0
  6
CENTER
 62
     7
 10
515.939682726194
 20
22.59956251194561
 30
0.0
 11
524.3557002152106
 21
17.74057308598779
 31
0.0
  0
LINE
  5
495
  8
0
  6
CENTER
 62
     7
 10
530.2825895990331
 20
52.54179103558002
 30
0.0
 11
568.7790170673193
 21
74.76771134167123
 31
0.0
  0
LINE
  5
496
  8
0
  6
CENTER
 62
     7
 10
485.0522641873201
 20
120.930218970686
 30
0.0
 11
509.6233396267732
 21
120.930218970686
 31
0.0
  0
LINE
  5
497
  8
0
  6
CENTER
 62
     7
 10
485.0522641873201
 20
90.93021897068596
 30
0.0
 11
509.2394284939607
 21
90.93021897068596
 31
0.0
  0
LINE
  5
498
  8
0
  6
CENTER
 62
     7
 10
425.5817158986415
 20
74.76775321961762
 30
0.0
 11
464.6088641011251
 21
52.23542118862591
 31
0.0
  0
LINE
  5
499
  8
0
  6
CENTER
 62
     7
 10
485.0136899685701
 20
-54.06978102931404
 30
0.0
 11
509.6803464627107
 21
-54.06978102931404
 31
0.0
  0
LINE
  5
49A
  8
0
  6
CENTER
 62
     7
 10
485.0136899685701
 20
-24.06978102931404
 30
0.0
 11
509.6803464627107
 21
-24.06978102931404
 31
0.0
  0
LINE
  5
49B
  8
0
  6
CENTER
 62
     7
 10
457.1803464627107
 20
118.4563496469555
 30
0.0
 11
457.1803464627107
 21
91.40884140720939
 31
0.0
  0
LINE
  5
49C
  8
0
  6
CENTER
 62
     7
 10
550.1436185574373
 20
-37.56978102931404
 30
0.0
 11
524.8008603787263
 21
-37.56978102931404
 31
0.0
  0
LINE
  5
49D
  8
0
  6
CENTER
 62
     7
 10
537.1803464627108
 20
-51.59591552028084
 30
0.0
 11
537.1803464627108
 21
-24.54840155848885
 31
0.0
  0
LINE
  5
49E
  8
0
  6
CENTER
 62
     7
 10
469.986862813757
 20
17.73004079118621
 30
0.0
 11
478.0934694011535
 21
22.41039176953976
 31
0.0
  0
LINE
  5
49F
  8
0
  6
CENTER
 62
     7
 10
530.6817719077685
 20
14.08821429489629
 30
0.0
 11
568.779028985688
 21
-7.907244904326007
 31
0.0
  0
ARC
  5
4A0
  8
0
  6
CENTER
 62
     7
 10
497.1803464627107
 20
33.43021897068596
 30
0.0
 40
45.0
 50
138.5216595380596
 51
161.4783351498226
  0
ARC
  5
4A1
  8
0
  6
CENTER
 62
     7
 10
497.1803464627107
 20
33.43021897068596
 30
0.0
 40
66.67500305175781
 50
16.21751749546094
 51
43.78246197607636
  0
ARC
  5
4A2
  8
0
  6
CENTER
 62
     7
 10
497.1803464627107
 20
33.43021897068596
 30
0.0
 40
66.67500305175781
 50
136.2175362026908
 51
163.7824721455698
  0
ARC
  5
4A3
  8
0
  6
CENTER
 62
     7
 10
497.1803464627107
 20
33.43021897068596
 30
0.0
 40
66.67500305175781
 50
196.2175141940519
 51
223.7824637973092
  0
ARC
  5
4A4
  8
0
  6
CENTER
 62
     7
 10
497.1803464627107
 20
33.43021897068596
 30
0.0
 40
66.67500305175781
 50
316.2175448541128
 51
343.7824893347282
  0
ARC
  5
4A5
  8
0
  6
CENTER
 62
     7
 10
497.1803464627107
 20
33.43021897068596
 30
0.0
 40
45.0
 50
198.521651189799
 51
221.4783268015621
  0
ARC
  5
4A6
  8
0
  6
CENTER
 62
     7
 10
497.1803464627107
 20
33.43021897068596
 30
0.0
 40
45.0
 50
18.5216476610189
 51
41.47833181051842
  0
ARC
  5
4A7
  8
0
  6
CENTER
 62
     7
 10
497.1803464627107
 20
33.43021897068596
 30
0.0
 40
45.0
 50
318.5216818498599
 51
341.4783694144541
  0
ARC
  5
4A8
  8
0
  6
CENTER
 62
     7
 10
497.1803464627107
 20
33.43021897068596
 30
0.0
 40
27.0
 50
76.14660301850807
 51
102.6533104325203
  0
ARC
  5
4A9
  8
0
  6
CENTER
 62
     7
 10
497.1803464627107
 20
33.43021897068596
 30
0.0
 40
27.0
 50
196.1466031700888
 51
222.653310584101
  0
ARC
  5
4AA
  8
0
  6
CENTER
 62
     7
 10
497.1803464627107
 20
33.43021897068596
 30
0.0
 40
27.0
 50
316.1465996792039
 51
342.6533088007635
  0
LINE
  5
4AB
  8
0
  6
CENTER
 62
     7
 10
381.3636808132966
 20
33.43021897068596
 30
0.0
 11
613.1636838650545
 21
33.43021897068596
 31
0.0
  0
LINE
  5
4AC
  8
0
  6
CENTER
 62
     7
 10
537.1803464627108
 20
-120.5224482656422
 30
0.0
 11
537.1803464627108
 21
-85.53396102198983
 31
0.0
  0
LINE
  5
4AD
  8
0
  6
CENTER
 62
     7
 10
497.1803464627107
 20
148.7302372812328
 30
0.0
 11
497.1803464627107
 21
50.41355843475981
 31
0.0
  0
LINE
  5
4AE
  8
0
  6
CENTER
 62
     7
 10
497.1803464627107
 20
41.9120533961523
 30
0.0
 11
497.1803464627107
 21
-81.80312606105233
 31
0.0
  0
LINE
  5
4AF
  8
0
  6
CENTER
 62
     7
 10
234.2303342556795
 20
-50.16994985557185
 30
0.0
 11
234.2303342556795
 21
-77.08757689716025
 31
0.0
  0
LINE
  5
4B0
  8
0
  6
CONTINUOUS
 62
     7
 10
278.0303220486482
 20
80.93021897068596
 30
0.0
 11
298.0092627453388
 21
80.93021897068596
 31
0.0
  0
LINE
  5
4B1
  8
0
  6
DASHED2
 62
     7
 10
240.607680354931
 20
60.43021607504355
 30
0.0
 11
240.0303297384759
 21
61.43021665857671
 31
0.0
  0
LINE
  5
4B2
  8
0
  6
DASHED2
 62
     7
 10
240.6076807125589
 20
60.43021957814452
 30
0.0
 11
240.0303310497781
 21
59.43022064642369
 31
0.0
  0
LINE
  5
4B3
  8
0
  6
DASHED2
 62
     7
 10
230.8303342556794
 20
-53.06978102931404
 30
0.0
 11
237.6303342556795
 21
-53.06978102931404
 31
0.0
  0
LINE
  5
4B4
  8
0
  6
DASHED2
 62
     7
 10
230.2303342556795
 20
-58.06978102931404
 30
0.0
 11
238.2303342556795
 21
-58.06978102931404
 31
0.0
  0
LINE
  5
4B5
  8
0
  6
DASHED2
 62
     7
 10
230.8303342556797
 20
-53.06978102931393
 30
0.0
 11
234.2303342556793
 21
-51.10679011406938
 31
0.0
  0
LINE
  5
4B6
  8
0
  6
DASHED2
 62
     7
 10
230.2303342556795
 20
-58.06978102931404
 30
0.0
 11
230.2303342556795
 21
-74.06978102931404
 31
0.0
  0
LINE
  5
4B7
  8
0
  6
DASHED2
 62
     7
 10
230.8303342556794
 20
-53.06978102931404
 30
0.0
 11
230.8303342556794
 21
-74.06978102931404
 31
0.0
  0
LINE
  5
4B8
  8
0
  6
DASHED2
 62
     7
 10
237.6303342556793
 20
-53.06978102931393
 30
0.0
 11
234.2303342556796
 21
-51.10679011406938
 31
0.0
  0
LINE
  5
4B9
  8
0
  6
DASHED2
 62
     7
 10
237.6303342556795
 20
-53.06978102931404
 30
0.0
 11
237.6303342556795
 21
-74.06978102931404
 31
0.0
  0
LINE
  5
4BA
  8
0
  6
DASHED2
 62
     7
 10
238.2303342556795
 20
-58.06978102931404
 30
0.0
 11
238.2303342556795
 21
-74.06978102931404
 31
0.0
  0
LINE
  5
4BB
  8
0
  6
DASHED2
 62
     7
 10
410.6803464627107
 20
36.83021897068599
 30
0.0
 11
410.6803464627107
 21
30.03021897068595
 31
0.0
  0
LINE
  5
4BC
  8
0
  6
DASHED2
 62
     7
 10
405.6803464627107
 20
37.43021897068596
 30
0.0
 11
405.6803464627107
 21
29.43021897068596
 31
0.0
  0
LINE
  5
4BD
  8
0
  6
DASHED2
 62
     7
 10
410.6803464627108
 20
36.83021897068576
 30
0.0
 11
412.6433373779554
 21
33.43021897068607
 31
0.0
  0
LINE
  5
4BE
  8
0
  6
DASHED2
 62
     7
 10
410.6803464627108
 20
30.03021897068615
 30
0.0
 11
412.6433373779554
 21
33.43021897068584
 31
0.0
  0
LINE
  5
4BF
  8
0
  6
DASHED2
 62
     7
 10
405.6803464627107
 20
37.43021897068596
 30
0.0
 11
389.6803464627107
 21
37.43021897068596
 31
0.0
  0
LINE
  5
4C0
  8
0
  6
DASHED2
 62
     7
 10
410.6803464627107
 20
36.83021897068599
 30
0.0
 11
389.6803464627107
 21
36.83021897068599
 31
0.0
  0
LINE
  5
4C1
  8
0
  6
DASHED2
 62
     7
 10
410.6803464627107
 20
30.03021897068595
 30
0.0
 11
389.6803464627107
 21
30.03021897068595
 31
0.0
  0
LINE
  5
4C2
  8
0
  6
DASHED2
 62
     7
 10
405.6803464627107
 20
29.43021897068596
 30
0.0
 11
389.6803464627107
 21
29.43021897068596
 31
0.0
  0
LINE
  5
4C3
  8
0
  6
CONTINUOUS
 62
     4
 10
240.0303220486482
 20
1.730218207746503
 30
0.0
 11
249.0303220486482
 21
1.730218207746503
 31
0.0
  0
LINE
  5
4C4
  8
0
  6
CONTINUOUS
 62
     4
 10
240.0303220486482
 20
65.13021973362541
 30
0.0
 11
249.0303220486482
 21
65.13021973362541
 31
0.0
  0
LINE
  5
4C5
  8
0
  6
CONTINUOUS
 62
     4
 10
277.0303220486482
 20
140.930218970686
 30
0.0
 11
277.0303220486482
 21
130.930218970686
 31
0.0
  0
LINE
  5
4C6
  8
0
  6
CONTINUOUS
 62
     4
 10
276.0303220486482
 20
140.930218970686
 30
0.0
 11
276.0303220486482
 21
130.930218970686
 31
0.0
  0
LINE
  5
4C7
  8
0
  6
CONTINUOUS
 62
     4
 10
263.0303220486482
 20
124.930218970686
 30
0.0
 11
286.0303220486482
 21
124.930218970686
 31
0.0
  0
LINE
  5
4C8
  8
0
  6
CONTINUOUS
 62
     4
 10
263.0303220486482
 20
116.930218970686
 30
0.0
 11
286.0303220486482
 21
116.930218970686
 31
0.0
  0
LINE
  5
4C9
  8
0
  6
CONTINUOUS
 62
     4
 10
263.0303220486482
 20
94.93021897068596
 30
0.0
 11
286.0303220486482
 21
94.93021897068596
 31
0.0
  0
LINE
  5
4CA
  8
0
  6
CONTINUOUS
 62
     4
 10
263.0303220486482
 20
86.93021897068596
 30
0.0
 11
286.0303220486482
 21
86.93021897068596
 31
0.0
  0
LINE
  5
4CB
  8
0
  6
CONTINUOUS
 62
     4
 10
276.0303220486482
 20
80.93021897068596
 30
0.0
 11
276.0303220486482
 21
74.93021897068596
 31
0.0
  0
LINE
  5
4CC
  8
0
  6
CONTINUOUS
 62
     4
 10
277.0303220486482
 20
80.93021897068596
 30
0.0
 11
277.0303220486482
 21
74.93021897068596
 31
0.0
  0
LINE
  5
4CD
  8
0
  6
CONTINUOUS
 62
     4
 10
240.5303220486482
 20
61.93022278538322
 30
0.0
 11
244.0303220486482
 21
61.93022278538322
 31
0.0
  0
LINE
  5
4CE
  8
0
  6
CONTINUOUS
 62
     4
 10
240.5303220486482
 20
58.93022278538322
 30
0.0
 11
244.0303220486482
 21
58.93022278538322
 31
0.0
  0
LINE
  5
4CF
  8
0
  6
CONTINUOUS
 62
     4
 10
248.0303220486482
 20
62.43022278538322
 30
0.0
 11
249.0303220486482
 21
62.43022278538322
 31
0.0
  0
LINE
  5
4D0
  8
0
  6
CONTINUOUS
 62
     4
 10
248.0303220486482
 20
58.43022278538322
 30
0.0
 11
249.0303220486482
 21
58.43022278538322
 31
0.0
  0
LINE
  5
4D1
  8
0
  6
CONTINUOUS
 62
     4
 10
244.2803220486482
 20
61.93022278538322
 30
0.0
 11
248.0303220486482
 21
61.93022278538322
 31
0.0
  0
LINE
  5
4D2
  8
0
  6
CONTINUOUS
 62
     4
 10
244.2803220486482
 20
58.93022278538322
 30
0.0
 11
248.0303220486482
 21
58.93022278538322
 31
0.0
  0
LINE
  5
4D3
  8
0
  6
CONTINUOUS
 62
     4
 10
480.6803464627107
 20
76.43021897068596
 30
0.0
 11
489.1803464627107
 21
76.43021897068596
 31
0.0
  0
LINE
  5
4D4
  8
0
  6
CONTINUOUS
 62
     4
 10
505.1803464627107
 20
76.43021897068596
 30
0.0
 11
513.6803464627108
 21
76.43021897068596
 31
0.0
  0
LINE
  5
4D5
  8
0
  6
CONTINUOUS
 62
     4
 10
505.1803464627107
 20
139.430218970686
 30
0.0
 11
513.6803464627108
 21
139.430218970686
 31
0.0
  0
LINE
  5
4D6
  8
0
  6
CONTINUOUS
 62
     4
 10
480.6803464627107
 20
139.430218970686
 30
0.0
 11
489.1803464627107
 21
139.430218970686
 31
0.0
  0
LINE
  5
4D7
  8
0
  6
CONTINUOUS
 62
     4
 10
480.6803464627107
 20
137.930218970686
 30
0.0
 11
489.1803464627107
 21
137.930218970686
 31
0.0
  0
LINE
  5
4D8
  8
0
  6
CONTINUOUS
 62
     4
 10
480.6803464627107
 20
136.430218970686
 30
0.0
 11
489.1803464627107
 21
136.430218970686
 31
0.0
  0
LINE
  5
4D9
  8
0
  6
CONTINUOUS
 62
     4
 10
480.6803464627107
 20
134.930218970686
 30
0.0
 11
489.1803464627107
 21
134.930218970686
 31
0.0
  0
LINE
  5
4DA
  8
0
  6
CONTINUOUS
 62
     4
 10
480.6803464627107
 20
133.430218970686
 30
0.0
 11
489.1803464627107
 21
133.430218970686
 31
0.0
  0
LINE
  5
4DB
  8
0
  6
CONTINUOUS
 62
     4
 10
480.6803464627107
 20
131.930218970686
 30
0.0
 11
489.1803464627107
 21
131.930218970686
 31
0.0
  0
LINE
  5
4DC
  8
0
  6
CONTINUOUS
 62
     4
 10
505.1803464627107
 20
137.930218970686
 30
0.0
 11
513.6803464627108
 21
137.930218970686
 31
0.0
  0
LINE
  5
4DD
  8
0
  6
CONTINUOUS
 62
     4
 10
505.1803464627107
 20
136.430218970686
 30
0.0
 11
513.6803464627108
 21
136.430218970686
 31
0.0
  0
LINE
  5
4DE
  8
0
  6
CONTINUOUS
 62
     4
 10
505.1803464627107
 20
134.930218970686
 30
0.0
 11
513.6803464627108
 21
134.930218970686
 31
0.0
  0
LINE
  5
4DF
  8
0
  6
CONTINUOUS
 62
     4
 10
505.1803464627107
 20
133.430218970686
 30
0.0
 11
513.6803464627108
 21
133.430218970686
 31
0.0
  0
LINE
  5
4E0
  8
0
  6
CONTINUOUS
 62
     4
 10
505.1803464627107
 20
131.930218970686
 30
0.0
 11
513.6803464627108
 21
131.930218970686
 31
0.0
  0
LINE
  5
4E1
  8
0
  6
CONTINUOUS
 62
     4
 10
505.1803464627107
 20
77.93021897068596
 30
0.0
 11
513.6803464627108
 21
77.93021897068596
 31
0.0
  0
LINE
  5
4E2
  8
0
  6
CONTINUOUS
 62
     4
 10
505.1803464627107
 20
79.43021897068596
 30
0.0
 11
513.6803464627108
 21
79.43021897068596
 31
0.0
  0
LINE
  5
4E3
  8
0
  6
CONTINUOUS
 62
     4
 10
505.1803464627107
 20
80.93021897068596
 30
0.0
 11
513.6803464627108
 21
80.93021897068596
 31
0.0
  0
LINE
  5
4E4
  8
0
  6
CONTINUOUS
 62
     4
 10
505.1803464627107
 20
82.43021897068596
 30
0.0
 11
513.6803464627108
 21
82.43021897068596
 31
0.0
  0
LINE
  5
4E5
  8
0
  6
CONTINUOUS
 62
     4
 10
505.1803464627107
 20
83.93021897068596
 30
0.0
 11
513.6803464627108
 21
83.93021897068596
 31
0.0
  0
LINE
  5
4E6
  8
0
  6
CONTINUOUS
 62
     4
 10
480.6803464627107
 20
77.93021897068596
 30
0.0
 11
489.1803464627107
 21
77.93021897068596
 31
0.0
  0
LINE
  5
4E7
  8
0
  6
CONTINUOUS
 62
     4
 10
480.6803464627107
 20
79.43021897068596
 30
0.0
 11
489.1803464627107
 21
79.43021897068596
 31
0.0
  0
LINE
  5
4E8
  8
0
  6
CONTINUOUS
 62
     4
 10
480.6803464627107
 20
80.93021897068596
 30
0.0
 11
489.1803464627107
 21
80.93021897068596
 31
0.0
  0
LINE
  5
4E9
  8
0
  6
CONTINUOUS
 62
     4
 10
480.6803464627107
 20
82.43021897068596
 30
0.0
 11
489.1803464627107
 21
82.43021897068596
 31
0.0
  0
LINE
  5
4EA
  8
0
  6
CONTINUOUS
 62
     4
 10
480.6803464627107
 20
83.93021897068596
 30
0.0
 11
489.1803464627107
 21
83.93021897068596
 31
0.0
  0
LINE
  5
4EB
  8
0
  6
CONTINUOUS
 62
     4
 10
540.4803495144685
 20
-97.28312178859139
 30
0.0
 11
533.880343410953
 21
-97.28312178859139
 31
0.0
  0
LINE
  5
4EC
  8
0
  6
CONTINUOUS
 62
     4
 10
539.9256772732576
 20
-98.28312178859139
 30
0.0
 11
534.3848600125155
 21
-98.28312178859139
 31
0.0
  0
LINE
  5
4ED
  8
0
  6
CONTINUOUS
 62
     4
 10
533.8549062642146
 20
-116.5831253164074
 30
0.0
 11
533.6803555949296
 21
-106.583122568551
 31
0.0
  0
LINE
  5
4EE
  8
0
  6
CONTINUOUS
 62
     4
 10
540.5057974275618
 20
-116.5831253885529
 30
0.0
 11
540.6803483017691
 21
-106.5831226406966
 31
0.0
  0
CIRCLE
  5
4EF
  8
0
  6
CONTINUOUS
 62
     4
 10
497.1803464627107
 20
33.43021897068596
 30
0.0
 40
31.70000076293945
  0
ARC
  5
4F0
  8
0
  6
CONTINUOUS
 62
     4
 10
497.1803464627107
 20
33.43021897068596
 30
0.0
 40
42.0
 50
116.8965702861255
 51
143.9217983411684
  0
ARC
  5
4F1
  8
0
  6
CONTINUOUS
 62
     4
 10
497.1803464627107
 20
33.43021897068596
 30
0.0
 40
42.0
 50
216.0781879984533
 51
243.1034297138745
  0
ARC
  5
4F2
  8
0
  6
CONTINUOUS
 62
     4
 10
497.1803464627107
 20
33.43021897068596
 30
0.0
 40
42.0
 50
336.0782254887033
 51
383.9217915867696
  0
ARC
  5
4F3
  8
0
  6
CONTINUOUS
 62
     4
 10
497.1803464627107
 20
33.43021897068596
 30
0.0
 40
48.0
 50
335.6853239793402
 51
383.0669951196898
  0
ARC
  5
4F4
  8
0
  6
CONTINUOUS
 62
     4
 10
497.1803464627107
 20
33.43021897068596
 30
0.0
 40
54.0
 50
290.6006266738457
 51
429.3993801563435
  0
ARC
  5
4F5
  8
0
  6
CONTINUOUS
 62
     4
 10
497.1803464627107
 20
33.43021897068596
 30
0.0
 40
60.0
 50
288.4614592371219
 51
321.5092134230127
  0
ARC
  5
4F6
  8
0
  6
CONTINUOUS
 62
     4
 10
497.1803464627107
 20
33.43021897068596
 30
0.0
 40
66.0
 50
286.7310034901425
 51
315.1006928115999
  0
ARC
  5
4F7
  8
0
  6
CONTINUOUS
 62
     4
 10
497.1803464627107
 20
33.43021897068596
 30
0.0
 40
72.0
 50
285.3009394628602
 51
321.5634929363468
  0
ARC
  5
4F8
  8
0
  6
CONTINUOUS
 62
     4
 10
497.1803464627107
 20
33.43021897068596
 30
0.0
 40
48.0
 50
215.6852881966374
 51
246.6820253672326
  0
ARC
  5
4F9
  8
0
  6
CONTINUOUS
 62
     4
 10
497.1803464627107
 20
33.43021897068596
 30
0.0
 40
48.0
 50
113.3179746327674
 51
144.3146981429842
  0
ARC
  5
4FA
  8
0
  6
CONTINUOUS
 62
     4
 10
497.1803464627107
 20
33.43021897068596
 30
0.0
 40
54.0
 50
110.6006385129912
 51
249.3993305237865
  0
ARC
  5
4FB
  8
0
  6
CONTINUOUS
 62
     4
 10
497.1803464627107
 20
33.43021897068596
 30
0.0
 40
60.0
 50
108.4614779064565
 51
141.5091979414015
  0
ARC
  5
4FC
  8
0
  6
CONTINUOUS
 62
     4
 10
497.1803464627107
 20
33.43021897068596
 30
0.0
 40
66.0
 50
106.7310221594771
 51
134.8967825228855
  0
ARC
  5
4FD
  8
0
  6
CONTINUOUS
 62
     4
 10
497.1803464627107
 20
33.43021897068596
 30
0.0
 40
72.0
 50
105.3009581321949
 51
141.5634842849248
  0
ARC
  5
4FE
  8
0
  6
CONTINUOUS
 62
     4
 10
497.1803464627107
 20
33.43021897068596
 30
0.0
 40
42.0
 50
296.8965447866017
 51
323.9218274831579
  0
ARC
  5
4FF
  8
0
  6
CONTINUOUS
 62
     4
 10
497.1803464627107
 20
33.43021897068596
 30
0.0
 40
48.0
 50
293.3179559634327
 51
324.3147238698792
  0
CIRCLE
  5
500
  8
0
  6
CONTINUOUS
 62
     4
 10
458.209216091617
 20
55.93023422947502
 30
0.0
 40
4.0
  0
CIRCLE
  5
501
  8
0
  6
CONTINUOUS
 62
     4
 10
536.1514768338045
 20
55.93021134129143
 30
0.0
 40
4.0
  0
ARC
  5
502
  8
0
  6
CONTINUOUS
 62
     4
 10
497.1803464627107
 20
33.43021897068596
 30
0.0
 40
72.0
 50
159.0864575439975
 51
201.5634449734418
  0
ARC
  5
503
  8
0
  6
CONTINUOUS
 62
     4
 10
497.1803464627107
 20
33.43021897068596
 30
0.0
 40
72.0
 50
218.4365020546969
 51
254.6990282074268
  0
ARC
  5
504
  8
0
  6
CONTINUOUS
 62
     4
 10
497.1803464627107
 20
33.43021897068596
 30
0.0
 40
66.0
 50
164.3745949050965
 51
195.3445850549019
  0
ARC
  5
505
  8
0
  6
CONTINUOUS
 62
     4
 10
497.1803464627107
 20
33.43021897068596
 30
0.0
 40
60.0
 50
218.4907883982202
 51
251.5385084331651
  0
ARC
  5
506
  8
0
  6
CONTINUOUS
 62
     4
 10
497.1803464627107
 20
33.43021897068596
 30
0.0
 40
48.0
 50
155.685296544898
 51
204.3146724918796
  0
ARC
  5
507
  8
0
  6
CONTINUOUS
 62
     4
 10
497.1803464627107
 20
33.43021897068596
 30
0.0
 40
42.0
 50
156.0781963467138
 51
203.9217726900638
  0
ARC
  5
508
  8
0
  6
CONTINUOUS
 62
     4
 10
497.1803464627107
 20
33.43021897068596
 30
0.0
 40
60.0
 50
158.4908104068591
 51
201.5091722902969
  0
ARC
  5
509
  8
0
  6
CONTINUOUS
 62
     4
 10
497.1803464627107
 20
33.43021897068596
 30
0.0
 40
66.0
 50
344.7573434519439
 51
374.9127942696376
  0
ARC
  5
50A
  8
0
  6
CONTINUOUS
 62
     4
 10
497.1803464627107
 20
33.43021897068596
 30
0.0
 40
72.0
 50
338.4365378373997
 51
381.5634689927895
  0
ARC
  5
50B
  8
0
  6
CONTINUOUS
 62
     4
 10
497.1803464627107
 20
33.43021897068596
 30
0.0
 40
60.0
 50
338.4908190582811
 51
381.50919289455
  0
ARC
  5
50C
  8
0
  6
CONTINUOUS
 62
     4
 10
497.1803464627107
 20
33.43021897068596
 30
0.0
 40
60.0
 50
38.49078657698732
 51
71.53854076287811
  0
ARC
  5
50D
  8
0
  6
CONTINUOUS
 62
     4
 10
497.1803464627107
 20
33.43021897068596
 30
0.0
 40
72.0
 50
38.43651047874781
 51
74.69906053713979
  0
ARC
  5
50E
  8
0
  6
CONTINUOUS
 62
     4
 10
497.1803464627107
 20
33.43021897068596
 30
0.0
 40
48.0
 50
35.68528979049918
 51
66.68204403656731
  0
ARC
  5
50F
  8
0
  6
CONTINUOUS
 62
     4
 10
497.1803464627107
 20
33.43021897068596
 30
0.0
 40
42.0
 50
36.078189592315
 51
63.10345521339831
  0
CIRCLE
  5
510
  8
0
  6
CONTINUOUS
 62
     4
 10
458.209216091617
 20
10.93021134129143
 30
0.0
 40
4.0
  0
CIRCLE
  5
511
  8
0
  6
CONTINUOUS
 62
     4
 10
536.1515073513826
 20
10.93023422947502
 30
0.0
 40
4.0
  0
ARC
  5
512
  8
0
  6
CONTINUOUS
 62
     4
 10
497.1803464627107
 20
33.43021897068596
 30
0.0
 40
66.0
 50
44.48568800773712
 51
73.26899650985754
  0
ARC
  5
513
  8
0
  6
CONTINUOUS
 62
     4
 10
497.1803464627107
 20
33.43021897068596
 30
0.0
 40
66.0
 50
224.4893337348922
 51
253.2689778405229
  0
CIRCLE
  5
514
  8
0
  6
CONTINUOUS
 62
     4
 10
497.1803464627107
 20
60.43021897068596
 30
0.0
 40
2.5
  0
CIRCLE
  5
515
  8
0
  6
CONTINUOUS
 62
     4
 10
473.7976560330232
 20
19.93021706333732
 30
0.0
 40
2.5
  0
CIRCLE
  5
516
  8
0
  6
CONTINUOUS
 62
     4
 10
520.5630368923983
 20
19.93021706333732
 30
0.0
 40
2.5
  0
LINE
  5
517
  8
0
  6
DIVIDE
 62
     9
 10
175.0303220486482
 20
-27.24478408107186
 30
0.0
 11
175.0303220486482
 21
-39.24478408107186
 31
0.0
  0
LINE
  5
518
  8
0
  6
DIVIDE
 62
     9
 10
211.0303220486482
 20
-27.24478408107186
 30
0.0
 11
211.0303220486482
 21
-39.24478408107186
 31
0.0
  0
LINE
  5
519
  8
0
  6
DIVIDE
 62
     9
 10
175.263659450992
 20
-39.24478408107186
 30
0.0
 11
236.7176694607576
 21
-39.24478408107186
 31
0.0
  0
LINE
  5
51A
  8
0
  6
DIVIDE
 62
     9
 10
175.263659450992
 20
-27.24478408107186
 30
0.0
 11
238.8335904812654
 21
-27.24478408107186
 31
0.0
  0
LINE
  5
51B
  8
0
  6
DIVIDE
 62
     9
 10
175.263659450992
 20
-38.39478560695076
 30
0.0
 11
211.0303220486482
 21
-38.39478560695076
 31
0.0
  0
LINE
  5
51C
  8
0
  6
DIVIDE
 62
     9
 10
175.263659450992
 20
-28.09478255519295
 30
0.0
 11
211.0303220486482
 21
-28.09478255519295
 31
0.0
  0
TEXT
  5
51D
  8
0
 62
     7
 10
162.2877439236482
 20
155.507611548811
 30
0.0
 40
4.0
  1
MIN-3.7
 41
0.6693877551020405
  7
FDASTYLE1
 72
     5
 11
181.0306010665053
 21
155.507611548811
 31
0.0
  0
TEXT
  5
51E
  8
0
 62
     7
 10
339.4023618435701
 20
41.40420883885002
 30
0.0
 40
4.0
  1
MIN 31.5
 50
90.0
 41
0.6571428571428566
  7
FDASTYLE1
 72
     5
 11
339.4023618435701
 21
62.43278026742143
 31
0.0
  0
TEXT
  5
51F
  8
0
 62
     7
 10
196.3951657986482
 20
-110.6822342383428
 30
0.0
 40
4.0
  1
MIN 25.3
 41
0.6571428571428566
  7
FDASTYLE1
 72
     5
 11
217.4237372272196
 21
-110.6822342383428
 31
0.0
  0
TEXT
  5
520
  8
0
 62
     7
 10
614.8348211779418
 20
-141.9015851168168
 30
0.0
 40
3.0
  1
標　準
 41
0.6666666666666604
  7
FDASTYLE1
 72
     5
 11
622.0348211779417
 21
-141.9015851168168
 31
0.0
  0
LINE
  5
521
  8
LAYER0001
  6
CONTINUOUS
 62
     7
 10
190.2303189968904
 20
160.7559330820141
 30
0.0
 11
162.6191587185701
 21
160.7559330820141
 31
0.0
  0
LINE
  5
522
  8
LAYER0001
  6
CONTINUOUS
 62
     7
 10
278.0303220486482
 20
160.4852421640453
 30
0.0
 11
284.1358060574373
 21
160.4852421640453
 31
0.0
  0
INSERT
  5
523
  8
LAYER0001
  6
CONTINUOUS
  2
DC_GROUP_1
 10
0.0
 20
0.0
 30
0.0
  0
INSERT
  5
524
  8
LAYER0001
  6
CONTINUOUS
  2
DC_GROUP_4
 10
0.0
 20
0.0
 30
0.0
  0
INSERT
  5
525
  8
LAYER0001
  6
CONTINUOUS
  2
DC_GROUP_7
 10
0.0
 20
0.0
 30
0.0
  0
INSERT
  5
526
  8
LAYER0001
  6
CONTINUOUS
  2
DC_GROUP_10
 10
0.0
 20
0.0
 30
0.0
  0
INSERT
  5
527
  8
LAYER0001
  6
CONTINUOUS
  2
DC_GROUP_13
 10
0.0
 20
0.0
 30
0.0
  0
INSERT
  5
528
  8
LAYER0001
  6
CONTINUOUS
  2
DC_GROUP_15
 10
0.0
 20
0.0
 30
0.0
  0
INSERT
  5
529
  8
LAYER0001
  6
CONTINUOUS
  2
DC_GROUP_17
 10
0.0
 20
0.0
 30
0.0
  0
INSERT
  5
52A
  8
LAYER0001
  6
CONTINUOUS
  2
DC_GROUP_20
 10
0.0
 20
0.0
 30
0.0
  0
INSERT
  5
52B
  8
LAYER0001
  6
CONTINUOUS
  2
DC_GROUP_23
 10
0.0
 20
0.0
 30
0.0
  0
INSERT
  5
52C
  8
LAYER0001
  6
CONTINUOUS
  2
DC_GROUP_26
 10
0.0
 20
0.0
 30
0.0
  0
INSERT
  5
52D
  8
LAYER0001
  6
CONTINUOUS
  2
DC_GROUP_29
 10
0.0
 20
0.0
 30
0.0
  0
INSERT
  5
52E
  8
LAYER0001
  6
CONTINUOUS
  2
DC_GROUP_32
 10
0.0
 20
0.0
 30
0.0
  0
INSERT
  5
52F
  8
LAYER0001
  6
CONTINUOUS
  2
DC_GROUP_35
 10
0.0
 20
0.0
 30
0.0
  0
INSERT
  5
530
  8
LAYER0001
  6
CONTINUOUS
  2
DC_GROUP_38
 10
0.0
 20
0.0
 30
0.0
  0
INSERT
  5
531
  8
LAYER0001
  6
CONTINUOUS
  2
DC_GROUP_41
 10
0.0
 20
0.0
 30
0.0
  0
INSERT
  5
532
  8
LAYER0001
  6
CONTINUOUS
  2
DC_GROUP_44
 10
0.0
 20
0.0
 30
0.0
  0
INSERT
  5
533
  8
LAYER0001
  6
CONTINUOUS
  2
DC_GROUP_46
 10
0.0
 20
0.0
 30
0.0
  0
INSERT
  5
534
  8
LAYER0001
  6
CONTINUOUS
  2
DC_GROUP_48
 10
0.0
 20
0.0
 30
0.0
  0
INSERT
  5
535
  8
LAYER0001
  6
CONTINUOUS
  2
DC_GROUP_51
 10
0.0
 20
0.0
 30
0.0
  0
INSERT
  5
536
  8
LAYER0001
  6
CONTINUOUS
  2
DC_GROUP_54
 10
0.0
 20
0.0
 30
0.0
  0
INSERT
  5
537
  8
LAYER0001
  6
CONTINUOUS
  2
DC_GROUP_57
 10
0.0
 20
0.0
 30
0.0
  0
INSERT
  5
538
  8
LAYER0001
  6
CONTINUOUS
  2
DC_GROUP_60
 10
0.0
 20
0.0
 30
0.0
  0
INSERT
  5
539
  8
LAYER0001
  6
CONTINUOUS
  2
DC_GROUP_63
 10
0.0
 20
0.0
 30
0.0
  0
INSERT
  5
53A
  8
LAYER0001
  6
CONTINUOUS
  2
DC_GROUP_66
 10
0.0
 20
0.0
 30
0.0
  0
INSERT
  5
53B
  8
LAYER0001
  6
CONTINUOUS
  2
DC_GROUP_69
 10
0.0
 20
0.0
 30
0.0
  0
INSERT
  5
53C
  8
LAYER0001
  6
CONTINUOUS
  2
DC_GROUP_72
 10
0.0
 20
0.0
 30
0.0
  0
INSERT
  5
53D
  8
LAYER0001
  6
CONTINUOUS
  2
DC_GROUP_75
 10
0.0
 20
0.0
 30
0.0
  0
INSERT
  5
53E
  8
LAYER0001
  6
CONTINUOUS
  2
DC_GROUP_78
 10
0.0
 20
0.0
 30
0.0
  0
INSERT
  5
53F
  8
LAYER0001
  6
CONTINUOUS
  2
DC_GROUP_81
 10
0.0
 20
0.0
 30
0.0
  0
INSERT
  5
540
  8
LAYER0001
  6
CONTINUOUS
  2
DC_GROUP_84
 10
0.0
 20
0.0
 30
0.0
  0
INSERT
  5
541
  8
LAYER0001
  6
CONTINUOUS
  2
DC_GROUP_86
 10
0.0
 20
0.0
 30
0.0
  0
INSERT
  5
542
  8
LAYER0001
  6
CONTINUOUS
  2
DC_GROUP_88
 10
0.0
 20
0.0
 30
0.0
  0
INSERT
  5
543
  8
LAYER0001
  6
CONTINUOUS
  2
DC_GROUP_91
 10
0.0
 20
0.0
 30
0.0
  0
INSERT
  5
544
  8
LAYER0001
  6
CONTINUOUS
  2
DC_GROUP_94
 10
0.0
 20
0.0
 30
0.0
  0
INSERT
  5
545
  8
0
  6
CONTINUOUS
  2
DC_GROUP_97
 10
0.0
 20
0.0
 30
0.0
  0
INSERT
  5
546
  8
0
  6
CONTINUOUS
  2
DC_GROUP_99
 10
0.0
 20
0.0
 30
0.0
  0
INSERT
  5
547
  8
0
  6
CONTINUOUS
  2
DC_GROUP_102
 10
0.0
 20
0.0
 30
0.0
  0
INSERT
  5
548
  8
0
  6
CONTINUOUS
  2
DC_GROUP_105
 10
0.0
 20
0.0
 30
0.0
  0
INSERT
  5
549
  8
0
  6
CONTINUOUS
  2
DC_GROUP_106
 10
0.0
 20
0.0
 30
0.0
  0
INSERT
  5
54A
  8
0
  6
CONTINUOUS
  2
DC_GROUP_109
 10
0.0
 20
0.0
 30
0.0
  0
LINE
  5
54B
  8
0
  6
DASHED
 62
     2
 10
439.1803464627107
 20
112.430218970686
 30
0.0
 11
450.760729763492
 21
112.430218970686
 31
0.0
  0
LINE
  5
54C
  8
0
  6
DASHED
 62
     2
 10
439.1803464627107
 20
96.43021897068596
 30
0.0
 11
450.760729763492
 21
96.43021897068596
 31
0.0
  0
LINE
  5
54D
  8
0
  6
DASHED
 62
     2
 10
439.1803464627107
 20
123.9412663339672
 30
0.0
 11
439.1803464627107
 21
93.43021897068596
 31
0.0
  0
LINE
  5
54E
  8
0
  6
DASHED
 62
     2
 10
407.9825315213045
 20
93.43021897068596
 30
0.0
 11
439.1803464627107
 21
93.43021897068596
 31
0.0
  0
LINE
  5
54F
  8
0
  6
DASHED
 62
     2
 10
427.1803464627107
 20
106.8302204965649
 30
0.0
 11
427.1803464627107
 21
102.0302174448071
 31
0.0
  0
LINE
  5
550
  8
0
  6
DASHED
 62
     2
 10
429.880358669742
 20
107.7302220224438
 30
0.0
 11
429.880358669742
 21
101.1302159189281
 31
0.0
  0
LINE
  5
551
  8
0
  6
DASHED
 62
     2
 10
435.6190976834138
 20
98.73022202244377
 30
0.0
 11
438.7415952420076
 21
98.73022202244377
 31
0.0
  0
LINE
  5
552
  8
0
  6
DASHED
 62
     2
 10
435.6190976834138
 20
110.1302159189281
 30
0.0
 11
438.7415952420076
 21
110.1302159189281
 31
0.0
  0
LINE
  5
553
  8
0
  6
DASHED
 62
     2
 10
429.8803075310976
 20
101.130164967885
 30
0.0
 11
427.1803034960881
 21
102.0301661997961
 31
0.0
  0
LINE
  5
554
  8
0
  6
DASHED
 62
     2
 10
429.8803343715619
 20
107.7301569778079
 30
0.0
 11
427.1803448123112
 21
106.830160571149
 31
0.0
  0
LINE
  5
555
  8
0
  6
DASHED
 62
     2
 10
430.880358669742
 20
107.1755497812328
 30
0.0
 11
430.880358669742
 21
101.6347401498852
 31
0.0
  0
LINE
  5
556
  8
0
  6
DASHED
 62
     2
 10
435.1803464627107
 20
108.8802159189281
 30
0.0
 11
435.1803464627107
 21
99.98022202244377
 31
0.0
  0
LINE
  5
557
  8
0
  6
DASHED
 62
     2
 10
435.9242429470857
 20
107.3238804697094
 30
0.0
 11
438.4364499783357
 21
107.3238804697094
 31
0.0
  0
LINE
  5
558
  8
0
  6
DASHED
 62
     2
 10
435.9242429470857
 20
101.5365574716625
 30
0.0
 11
438.4364499783357
 21
101.5365574716625
 31
0.0
  0
LINE
  5
559
  8
0
  6
DASHED
 62
     2
 10
439.180360840646
 20
108.5802346761997
 30
0.0
 11
445.9446503752058
 21
108.462163569493
 31
0.0
  0
LINE
  5
55A
  8
0
  6
DASHED
 62
     2
 10
439.1803091746407
 20
100.2802436414269
 30
0.0
 11
445.9003549598202
 21
100.3975424706568
 31
0.0
  0
LINE
  5
55B
  8
0
  6
DASHED
 62
     2
 10
439.1663836063077
 20
107.7803537231032
 30
0.0
 11
445.9307036537981
 21
107.6622820837913
 31
0.0
  0
LINE
  5
55C
  8
0
  6
DASHED
 62
     2
 10
439.166362453233
 20
101.0801251271286
 30
0.0
 11
445.8864082384125
 21
101.1974239563585
 31
0.0
  0
ARC
  5
55D
  8
0
  6
DASHED
 62
     2
 10
429.880358669742
 20
104.430218970686
 30
0.0
 40
3.299999952316284
 50
73.48282241201397
 51
89.99998201391055
  0
ARC
  5
55E
  8
0
  6
DASHED
 62
     2
 10
429.880358669742
 20
104.430218970686
 30
0.0
 40
3.299999952316284
 50
270.0000179860895
 51
286.5171775879861
  0
ARC
  5
55F
  8
0
  6
DASHED
 62
     2
 10
437.1803464627107
 20
108.8802159189281
 30
0.0
 40
2.0
 50
0.0
 51
38.68218896809879
  0
ARC
  5
560
  8
0
  6
DASHED
 62
     2
 10
437.1803464627107
 20
99.98022202244377
 30
0.0
 40
2.0
 50
0.0
 51
51.09316519948326
  0
ARC
  5
561
  8
0
  6
DASHED
 62
     2
 10
433.1803464627107
 20
104.430218970686
 30
0.0
 40
6.0
 50
0.0
 51
28.83423780766661
  0
ARC
  5
562
  8
0
  6
DASHED
 62
     2
 10
441.1803464627107
 20
104.430218970686
 30
0.0
 40
6.0
 50
151.1657740314789
 51
208.8342086656771
  0
ARC
  5
563
  8
0
  6
DASHED
 62
     2
 10
433.1803464627107
 20
104.430218970686
 30
0.0
 40
6.0
 50
331.1657621923334
 51
360.0
  0
ARC
  5
564
  8
0
  6
DASHED
 62
     2
 10
437.1803464627107
 20
108.8802159189281
 30
0.0
 40
2.0
 50
308.9068348005167
 51
360.0
  0
ARC
  5
565
  8
0
  6
DASHED
 62
     2
 10
437.1803464627107
 20
108.8802159189281
 30
0.0
 40
2.0
 50
141.317829701236
 51
231.0931121518319
  0
ARC
  5
566
  8
0
  6
DASHED
 62
     2
 10
437.1803464627107
 20
99.98022202244377
 30
0.0
 40
2.0
 50
128.9068568849459
 51
218.68215299592
  0
ARC
  5
567
  8
0
  6
DASHED
 62
     2
 10
437.1803464627107
 20
99.98022202244377
 30
0.0
 40
2.0
 50
321.3178110319012
 51
360.0
  0
ARC
  5
568
  8
0
  6
DASHED
 62
     2
 10
431.2135495877107
 20
113.2302220224438
 30
0.0
 40
5.650000095367432
 50
265.9910930942637
 51
315.0592540539054
  0
ARC
  5
569
  8
0
  6
DASHED
 62
     2
 10
431.2135495877107
 20
95.63021591892814
 30
0.0
 40
5.650000095367432
 50
44.94074594609464
 51
94.00890690573625
  0
ARC
  5
56A
  8
0
  6
DASHED
 62
     2
 10
427.880358669742
 20
104.430218970686
 30
0.0
 40
1.5
 50
117.8181540504568
 51
242.1818423070773
  0
LINE
  5
56B
  8
0
  6
CONTINUOUS
 62
     2
 10
497.1803333237705
 20
125.6302063315643
 30
0.0
 11
493.1100273351705
 21
123.2802198290192
 31
0.0
  0
LINE
  5
56C
  8
0
  6
CONTINUOUS
 62
     2
 10
493.1100339627107
 20
123.2802174448071
 30
0.0
 11
493.1100339627107
 21
118.5802204965649
 31
0.0
  0
LINE
  5
56D
  8
0
  6
CONTINUOUS
 62
     2
 10
493.1099978911831
 20
118.5801865944405
 30
0.0
 11
497.1803126120237
 21
116.2301847586196
 31
0.0
  0
LINE
  5
56E
  8
0
  6
CONTINUOUS
 62
     2
 10
497.1803293265943
 20
116.230236108976
 30
0.0
 11
501.2506353151943
 21
118.5802227515915
 31
0.0
  0
LINE
  5
56F
  8
0
  6
CONTINUOUS
 62
     2
 10
501.2506589627107
 20
118.5802128671703
 30
0.0
 11
501.2506589627107
 21
123.2802098154125
 31
0.0
  0
LINE
  5
570
  8
0
  6
CONTINUOUS
 62
     2
 10
501.2506299648664
 20
123.2801942888728
 30
0.0
 11
497.1803163645925
 21
125.6301983658268
 31
0.0
  0
LINE
  5
571
  8
0
  6
CONTINUOUS
 62
     2
 10
497.1803924225893
 20
95.63023229200192
 30
0.0
 11
493.1100600049754
 21
93.28023053069595
 31
0.0
  0
LINE
  5
572
  8
0
  6
CONTINUOUS
 62
     2
 10
493.1100339627107
 20
93.28021744480705
 30
0.0
 11
493.1100339627107
 21
88.58022049656486
 31
0.0
  0
LINE
  5
573
  8
0
  6
CONTINUOUS
 62
     2
 10
493.1100152055612
 20
88.58018423522756
 30
0.0
 11
497.1803167119094
 21
86.23019002881213
 31
0.0
  0
LINE
  5
574
  8
0
  6
CONTINUOUS
 62
     2
 10
497.1803761221035
 20
86.23022323823264
 30
0.0
 11
501.2506821107035
 21
88.58020988084812
 31
0.0
  0
LINE
  5
575
  8
0
  6
CONTINUOUS
 62
     2
 10
501.2506589627107
 20
88.58021286717033
 30
0.0
 11
501.2506589627107
 21
93.28020981541252
 31
0.0
  0
LINE
  5
576
  8
0
  6
CONTINUOUS
 62
     2
 10
501.2506335958266
 20
93.28017203482798
 30
0.0
 11
497.180306781064
 21
95.63018374119477
 31
0.0
  0
LINE
  5
577
  8
0
  6
CONTINUOUS
 62
     2
 10
434.3718650231303
 20
3.017716458422484
 30
0.0
 11
439.4381219683264
 21
5.942714279867261
 31
0.0
  0
LINE
  5
578
  8
0
  6
CONTINUOUS
 62
     2
 10
439.438107762857
 20
5.942724543655942
 30
0.0
 11
444.5043573856148
 21
3.017714169459879
 31
0.0
  0
LINE
  5
579
  8
0
  6
CONTINUOUS
 62
     2
 10
444.5043515896638
 20
3.0177052377758
 30
0.0
 11
444.5043515896638
 21
-2.832293236345294
 31
0.0
  0
LINE
  5
57A
  8
0
  6
CONTINUOUS
 62
     2
 10
444.5043608492326
 20
-2.832289834062493
 30
0.0
 11
439.4381039040365
 21
-5.75728765550727
 31
0.0
  0
LINE
  5
57B
  8
0
  6
CONTINUOUS
 62
     2
 10
439.4380885340913
 20
-5.757290833847009
 30
0.0
 11
434.3718338642727
 21
-2.832281690487406
 31
0.0
  0
LINE
  5
57C
  8
0
  6
CONTINUOUS
 62
     2
 10
434.3718442654451
 20
-2.832283699602129
 30
0.0
 11
434.3718442654451
 21
3.017714774518964
 31
0.0
  0
LINE
  5
57D
  8
0
  6
CONTINUOUS
 62
     2
 10
497.1803559935594
 20
-19.3697620240832
 30
0.0
 11
493.1100235759456
 21
-21.71976378538918
 31
0.0
  0
LINE
  5
57E
  8
0
  6
CONTINUOUS
 62
     2
 10
493.1100339627107
 20
-21.71977683314705
 30
0.0
 11
493.1100339627107
 21
-26.41977950343514
 31
0.0
  0
LINE
  5
57F
  8
0
  6
CONTINUOUS
 62
     2
 10
493.1100050038846
 20
-26.4197717889592
 30
0.0
 11
497.1803329392175
 21
-28.76978125418552
 31
0.0
  0
LINE
  5
580
  8
0
  6
CONTINUOUS
 62
     2
 10
497.1803863932057
 20
-28.76981802013049
 30
0.0
 11
501.2506923818057
 21
-26.41983137751501
 31
0.0
  0
LINE
  5
581
  8
0
  6
CONTINUOUS
 62
     2
 10
501.2506589627107
 20
-26.41978713282967
 30
0.0
 11
501.2506589627107
 21
-21.71978446254158
 31
0.0
  0
LINE
  5
582
  8
0
  6
CONTINUOUS
 62
     2
 10
501.2506577634274
 20
-21.71978998104075
 30
0.0
 11
497.1803573776421
 21
-19.3697935334994
 31
0.0
  0
LINE
  5
583
  8
0
  6
CONTINUOUS
 62
     2
 10
497.1803460903715
 20
-49.36975387772392
 30
0.0
 11
493.1100136727577
 21
-51.7197556390299
 31
0.0
  0
LINE
  5
584
  8
0
  6
CONTINUOUS
 62
     2
 10
493.1100339627107
 20
-51.71978255519295
 30
0.0
 11
493.1100339627107
 21
-56.41977950343514
 31
0.0
  0
LINE
  5
585
  8
0
  6
CONTINUOUS
 62
     2
 10
493.1100138036652
 20
-56.41977363709245
 30
0.0
 11
497.1803417389981
 21
-58.76978310231877
 31
0.0
  0
LINE
  5
586
  8
0
  6
CONTINUOUS
 62
     2
 10
497.1804067597011
 20
-58.76984614963564
 30
0.0
 11
501.2507127483011
 21
-56.41985950702016
 31
0.0
  0
LINE
  5
587
  8
0
  6
CONTINUOUS
 62
     2
 10
501.2506589627107
 20
-56.41978713282967
 30
0.0
 11
501.2506589627107
 21
-51.71979018458748
 31
0.0
  0
LINE
  5
588
  8
0
  6
CONTINUOUS
 62
     2
 10
501.2506695348845
 20
-51.71979050599927
 30
0.0
 11
497.1803691490993
 21
-49.36979405845793
 31
0.0
  0
CIRCLE
  5
589
  8
0
  6
CONTINUOUS
 62
     2
 10
497.1803464627107
 20
120.930218970686
 30
0.0
 40
8.0
  0
CIRCLE
  5
58A
  8
0
  6
CONTINUOUS
 62
     2
 10
497.1803464627107
 20
90.93021897068596
 30
0.0
 40
8.0
  0
CIRCLE
  5
58B
  8
0
  6
CONTINUOUS
 62
     2
 10
439.4380979275545
 20
0.092709815412519
 30
0.0
 40
9.0
  0
CIRCLE
  5
58C
  8
0
  6
CONTINUOUS
 62
     2
 10
497.1803464627107
 20
-24.06978102931404
 30
0.0
 40
8.0
  0
CIRCLE
  5
58D
  8
0
  6
CONTINUOUS
 62
     2
 10
497.1803464627107
 20
-54.06978102931404
 30
0.0
 40
8.0
  0
TEXT
  5
58E
  8
0
 62
     5
 10
405.6803464627107
 20
62.21592656365013
 30
0.0
 40
5.0
  1
NIKKO
 50
-90.00000000000001
 41
0.635880610320819
  7
FDASTYLE1
 72
     5
 11
405.6803464627107
 21
46.31891130562966
 31
0.0
  0
TEXT
  5
58F
  8
0
 62
     5
 10
406.1803464627107
 20
30.85879877796745
 30
0.0
 40
4.0
  1
 GO2-8
 50
-90.00000000000001
 41
0.628815836182819
  7
FDASTYLE1
 72
     5
 11
406.1803464627107
 21
15.76721870957979
 31
0.0
  0
TEXT
  5
590
  8
0
 62
     5
 10
399.6803464627107
 20
30.50165561428642
 30
0.0
 40
3.0
  1
 0001
 50
-90.00000000000001
 41
0.4970100895327013
  7
FDASTYLE1
 72
     5
 11
399.6803464627107
 21
23.0465042712959
 31
0.0
  0
TEXT
  5
591
  8
0
 62
     5
 10
586.1303770279726
 20
6.35099700680351
 30
0.0
 40
2.900000095367432
  1
F MAX   17KN
 50
90.0
 41
0.7578772623475146
  7
FDASTYLE1
 72
     5
 11
586.1303770279726
 21
32.72512660381872
 31
0.0
  0
TEXT
  5
592
  8
0
 62
     5
 10
591.1303770279726
 20
6.35099700680351
 30
0.0
 40
2.900000095367432
  1
ΣS MAX  18KN
 50
90.0
 41
0.6460331050684558
  7
FDASTYLE1
 72
     5
 11
591.1303770279726
 21
29.2076490157738
 31
0.0
  0
TEXT
  5
593
  8
0
 62
     5
 10
596.1303617691835
 20
6.351000821500776
 30
0.0
 40
2.900000095367432
  1
N MAX 2700 AT ΣS MAX
 50
90.0
 41
0.6445640600045172
  7
FDASTYLE1
 72
     5
 11
596.1303617691835
 21
44.10956469826786
 31
0.0
  0
LINE
  5
594
  8
0
  6
CONTINUOUS
 62
     6
 10
296.2758796233928
 20
-166.4841696028847
 30
0.0
 11
441.0878150481975
 21
-166.4841696028847
 31
0.0
  0
LINE
  5
595
  8
0
  6
CONTINUOUS
 62
     6
 10
296.2758796233928
 20
-158.4841696028847
 30
0.0
 11
441.0878150481975
 21
-158.4841696028847
 31
0.0
  0
LINE
  5
596
  8
0
  6
CONTINUOUS
 62
     6
 10
296.2758796233928
 20
-150.4841696028847
 30
0.0
 11
441.0878150481975
 21
-150.4841696028847
 31
0.0
  0
LINE
  5
597
  8
0
  6
CONTINUOUS
 62
     6
 10
296.2758796233928
 20
-142.4841696028847
 30
0.0
 11
441.0878150481975
 21
-142.4841696028847
 31
0.0
  0
LINE
  5
598
  8
0
  6
CONTINUOUS
 62
     6
 10
296.2758796233928
 20
-134.4841696028847
 30
0.0
 11
441.0878150481975
 21
-134.4841696028847
 31
0.0
  0
LINE
  5
599
  8
0
  6
CONTINUOUS
 62
     6
 10
296.2758796233928
 20
-126.4841696028847
 30
0.0
 11
441.0878150481975
 21
-126.4841696028847
 31
0.0
  0
LINE
  5
59A
  8
0
  6
CONTINUOUS
 62
     6
 10
296.2758796233928
 20
-118.4841696028847
 30
0.0
 11
441.0878150481975
 21
-118.4841696028847
 31
0.0
  0
LINE
  5
59B
  8
0
  6
CONTINUOUS
 62
     6
 10
296.2758796233928
 20
-110.4841696028847
 30
0.0
 11
441.0878150481975
 21
-110.4841696028847
 31
0.0
  0
LINE
  5
59C
  8
0
  6
CONTINUOUS
 62
     6
 10
296.2758796233928
 20
-102.4841696028847
 30
0.0
 11
441.0878150481975
 21
-102.4841696028847
 31
0.0
  0
LINE
  5
59D
  8
0
  6
CONTINUOUS
 62
     6
 10
296.2758796233928
 20
-94.48416960288469
 30
0.0
 11
312.2758758086956
 21
-94.48416960288469
 31
0.0
  0
TEXT
  5
59E
  8
0
 62
     6
 10
298.8473037500179
 20
-164.8175131087441
 30
0.0
 40
4.0
  1
アンバランス量
 41
0.6638419631282793
  7
FDASTYLE1
 72
     5
 11
321.1523937111281
 21
-164.8175131087441
 31
0.0
  0
TEXT
  5
59F
  8
0
 62
     6
 10
298.8473037500179
 20
-156.8175131087441
 30
0.0
 40
4.0
  1
質 量
 41
0.60647527043494
  7
FDASTYLE1
 72
     5
 11
307.0953674279331
 21
-156.8175131087441
 31
0.0
  0
TEXT
  5
5A0
  8
0
 62
     6
 10
298.8473037500179
 20
-148.8175131087441
 30
0.0
 40
4.0
  1
慣性モーメント
 41
0.6638419631282793
  7
FDASTYLE1
 72
     5
 11
321.1523937111281
 21
-148.8175131087441
 31
0.0
  0
TEXT
  5
5A1
  8
0
 62
     6
 10
298.8473037500179
 20
-140.8175131087441
 30
0.0
 40
4.0
  1
最高使用回転速度
 41
0.6650247841349815
  7
FDASTYLE1
 72
     5
 11
324.3842554608012
 21
-140.8175131087441
 31
0.0
  0
TEXT
  5
5A2
  8
0
 62
     6
 10
298.8473037500179
 20
-132.8175131087441
 30
0.0
 40
4.0
  1
最大静的把握力
 41
0.6638419631282793
  7
FDASTYLE1
 72
     5
 11
321.1523937111281
 21
-132.8175131087441
 31
0.0
  0
TEXT
  5
5A3
  8
0
 62
     6
 10
298.8473037500179
 20
-124.8175131087441
 30
0.0
 40
4.0
  1
許容シリンダ力
 41
0.6638419631282793
  7
FDASTYLE1
 72
     5
 11
321.1523937111281
 21
-124.8175131087441
 31
0.0
  0
TEXT
  5
5A4
  8
0
 62
     6
 10
298.8473037500179
 20
-116.8175131087441
 30
0.0
 40
4.0
  1
推奨シリンダ
 41
0.6622518130451897
  7
FDASTYLE1
 72
     5
 11
317.9201559657194
 21
-116.8175131087441
 31
0.0
  0
TEXT
  5
5A5
  8
0
 62
     6
 10
298.8473037500179
 20
-108.8175131087441
 30
0.0
 40
4.0
  1
ピストンストローク
 41
0.6659390169707115
  7
FDASTYLE1
 72
     5
 11
327.6158692831526
 21
-108.8175131087441
 31
0.0
  0
TEXT
  5
5A6
  8
0
 62
     6
 10
298.8473037500179
 20
-100.8175131087441
 30
0.0
 40
4.0
  1
爪ﾉｽﾄﾛｰｸ
 41
0.6268397317836794
  7
FDASTYLE1
 72
     5
 11
316.9002880253879
 21
-100.8175131087441
 31
0.0
  0
TEXT
  5
5A7
  8
0
 62
     6
 10
298.8473037500179
 20
-92.81751310874407
 30
0.0
 40
4.0
  1
仕 様
 41
0.60647527043494
  7
FDASTYLE1
 72
     5
 11
307.0953674279331
 21
-92.81751310874407
 31
0.0
  0
TEXT
  5
5A8
  8
0
 62
     6
 10
418.295317055682
 20
-108.3219076399941
 30
0.0
 40
4.0
  1
25 mm
 41
0.8332228179823205
  7
FDASTYLE1
 72
     5
 11
434.9597734153284
 21
-108.3219076399941
 31
0.0
  0
TEXT
  5
5A9
  8
0
 62
     6
 10
402.9848815272821
 20
-116.9201159414005
 30
0.0
 40
4.0
  1
52TS-ＴA1型
 41
0.6180345897269353
  7
FDASTYLE1
 72
     5
 11
426.2229821010149
 21
-116.9201159414005
 31
0.0
  0
TEXT
  5
5AA
  8
0
 62
     6
 10
410.3240188379085
 20
-124.5434805159706
 30
0.0
 40
4.0
  1
１７．２ kN
 41
0.5969676618624894
  7
FDASTYLE1
 72
     5
 11
428.9494098880181
 21
-124.5434805159706
 31
0.0
  0
TEXT
  5
5AB
  8
0
 62
     6
 10
410.3132461328304
 20
-132.4887319808144
 30
0.0
 40
4.0
  1
  １８ kN
 41
0.6166361924888014
  7
FDASTYLE1
 72
     5
 11
428.5656774304989
 21
-132.4887319808144
 31
0.0
  0
TEXT
  5
5AC
  8
0
 62
     6
 10
406.6692794580257
 20
-140.4339987044472
 30
0.0
 40
4.0
  1
2700 min
 41
0.6933675281693734
  7
FDASTYLE1
 72
     5
 11
428.8570403594457
 21
-140.4339987044472
 31
0.0
  0
TEXT
  5
5AD
  8
0
 62
     6
 10
398.2392715234554
 20
-148.5447775130409
 30
0.0
 40
4.0
  1
0.163 kg・m
 41
0.6254768818636797
  7
FDASTYLE1
 72
     5
 11
423.7587283034935
 21
-148.5447775130409
 31
0.0
  0
TEXT
  5
5AE
  8
0
 62
     6
 10
437.9535575527942
 20
-146.0447774534363
 30
0.0
 40
2.0
  1
2
 41
0.4761906862258911
  7
FDASTYLE1
 72
     5
 11
438.905938925246
 21
-146.0447774534363
 31
0.0
  0
TEXT
  5
5AF
  8
0
 62
     6
 10
418.7645248193538
 20
-156.4900442366738
 30
0.0
 40
4.0
  1
21 kg
 41
0.6578074878807797
  7
FDASTYLE1
 72
     5
 11
431.9206745769694
 21
-156.4900442366738
 31
0.0
  0
TEXT
  5
5B0
  8
0
 62
     6
 10
390.025068642596
 20
-164.6008230452675
 30
0.0
 40
4.0
  1
外周ﾆﾃ   4 g以内
 41
0.6078924744357128
  7
FDASTYLE1
 72
     5
 11
421.1491633337045
 21
-164.6008230452675
 31
0.0
  0
TEXT
  5
5B1
  8
0
 62
     6
 10
333.0343937092532
 20
-124.4834371810097
 30
0.0
 40
3.0
  1
52TS-ＴA1型 引側使用圧  2.7 MPa
 41
0.6069880513585384
  7
FDASTYLE1
 72
     5
 11
379.2868832227738
 21
-124.4834371810097
 31
0.0
  0
TEXT
  5
5B2
  8
0
 62
     6
 10
390.2558578271663
 20
-100.5421835189003
 30
0.0
 40
4.0
  1
(直径ﾆﾃ) ４０ mm
 41
0.6078924744357139
  7
FDASTYLE1
 72
     5
 11
421.3799525182749
 21
-100.5421835189003
 31
0.0
  0
TEXT
  5
5B3
  8
0
 62
     6
 10
438.3835654873645
 20
-137.9339986448426
 30
0.0
 40
2.0
  1
-1
 41
0.5892859038098806
  7
FDASTYLE1
 72
     5
 11
440.7407091026041
 21
-137.9339986448426
 31
0.0
  0
VIEWPORT
  5
48
 67
     1
  8
0
 10
356.5723937454768
 20
0.0
 30
0.0
 40
1662.0
 41
1140.0
 68
     1
 69
     1
1001
ACAD
1000
MVIEW
1002
{
1070
    16
1010
0.0
1020
0.0
1030
0.0
1020
0.0
1030
0.0
1010
0.0
1020
0.0
1030
1.0
1020
0.0
1030
1.0
1040
0.0
1040
1140.0
1040
356.5723937454768
1040
0.0
1040
50.0
1040
0.0
1040
0.0
1070
     0
1070
   100
1070
     0
1070
     1
1070
     0
1070
     0
1070
     0
1070
     0
1040
0.0
1040
0.0
1040
0.0
1040
0.5
1040
0.5
1040
0.0
1040
0.0
1070
     0
1002
{
1002
}
1002
}
  0
ENDSEC
  0
EOF
