  0
SECTION
  2
HEADER
  9
$ACADVER
  1
AC1009
  9
$DWGCODEPAGE
  3
ansi_932
  9
$INSBASE
 10
0.0
 20
0.0
 30
0.0
  9
$EXTMIN
 10
-831.0
 20
-569.9999999999999
 30
0.0
  9
$EXTMAX
 10
831.0
 20
569.9999999999999
 30
0.0
  9
$LIMMIN
 10
-297.0
 20
-210.0
  9
$LIMMAX
 10
297.0
 20
210.0
  9
$ORTHOMODE
 70
     0
  9
$REGENMODE
 70
     1
  9
$FILLMODE
 70
     1
  9
$QTEXTMODE
 70
     0
  9
$MIRRTEXT
 70
     1
  9
$DRAGMODE
 70
     2
  9
$LTSCALE
 40
0.25
  9
$OSMODE
 70
    37
  9
$ATTMODE
 70
     1
  9
$TEXTSIZE
 40
0.2
  9
$TRACEWID
 40
0.05
  9
$TEXTSTYLE
  7
STANDARD
  9
$CLAYER
  8
0
  9
$CELTYPE
  6
BYLAYER
  9
$CECOLOR
 62
   256
  9
$DIMSCALE
 40
1.0
  9
$DIMASZ
 40
2.499996185302734
  9
$DIMEXO
 40
1.0
  9
$DIMDLI
 40
10.0
  9
$DIMRND
 40
0.0
  9
$DIMDLE
 40
0.0
  9
$DIMEXE
 40
1.0
  9
$DIMTP
 40
0.0
  9
$DIMTM
 40
0.0
  9
$DIMTXT
 40
4.0
  9
$DIMCEN
 40
0.0
  9
$DIMTSZ
 40
0.0
  9
$DIMTOL
 70
     0
  9
$DIMLIM
 70
     0
  9
$DIMTIH
 70
     0
  9
$DIMTOH
 70
     0
  9
$DIMSE1
 70
     0
  9
$DIMSE2
 70
     0
  9
$DIMTAD
 70
     1
  9
$DIMZIN
 70
     8
  9
$DIMBLK
  1

  9
$DIMASO
 70
     1
  9
$DIMSHO
 70
     1
  9
$DIMPOST
  1

  9
$DIMAPOST
  1

  9
$DIMALT
 70
     0
  9
$DIMALTD
 70
     2
  9
$DIMALTF
 40
0.0393700787401575
  9
$DIMLFAC
 40
1.0
  9
$DIMTOFL
 70
     0
  9
$DIMTVP
 40
0.0
  9
$DIMTIX
 70
     0
  9
$DIMSOXD
 70
     0
  9
$DIMSAH
 70
     0
  9
$DIMBLK1
  1

  9
$DIMBLK2
  1

  9
$DIMSTYLE
  2
STANDARD
  9
$DIMCLRD
 70
     0
  9
$DIMCLRE
 70
     0
  9
$DIMCLRT
 70
     0
  9
$DIMTFAC
 40
0.65
  9
$DIMGAP
 40
0.09
  9
$LUNITS
 70
     2
  9
$LUPREC
 70
     4
  9
$SKETCHINC
 40
0.1
  9
$FILLETRAD
 40
0.5
  9
$AUNITS
 70
     0
  9
$AUPREC
 70
     0
  9
$MENU
  1
.
  9
$ELEVATION
 40
0.0
  9
$PELEVATION
 40
0.0
  9
$THICKNESS
 40
0.0
  9
$LIMCHECK
 70
     0
  9
$CHAMFERA
 40
0.0
  9
$CHAMFERB
 40
0.0
  9
$SKPOLY
 70
     0
  9
$TDCREATE
 40
2459766.384936412
  9
$TDUPDATE
 40
2459766.384936771
  9
$TDINDWG
 40
0.0000000116
  9
$TDUSRTIMER
 40
0.0000000116
  9
$USRTIMER
 70
     1
  9
$ANGBASE
 50
0.0
  9
$ANGDIR
 70
     0
  9
$PDMODE
 70
     0
  9
$PDSIZE
 40
1.0
  9
$PLINEWID
 40
0.0
  9
$COORDS
 70
     1
  9
$SPLFRAME
 70
     0
  9
$SPLINETYPE
 70
     6
  9
$SPLINESEGS
 70
     8
  9
$ATTDIA
 70
     0
  9
$ATTREQ
 70
     1
  9
$HANDLING
 70
     1
  9
$HANDSEED
  5
464
  9
$SURFTAB1
 70
     6
  9
$SURFTAB2
 70
     6
  9
$SURFTYPE
 70
     6
  9
$SURFU
 70
     6
  9
$SURFV
 70
     6
  9
$UCSNAME
  2

  9
$UCSORG
 10
0.0
 20
0.0
 30
0.0
  9
$UCSXDIR
 10
1.0
 20
0.0
 30
0.0
  9
$UCSYDIR
 10
0.0
 20
1.0
 30
0.0
  9
$PUCSNAME
  2

  9
$PUCSORG
 10
0.0
 20
0.0
 30
0.0
  9
$PUCSXDIR
 10
1.0
 20
0.0
 30
0.0
  9
$PUCSYDIR
 10
0.0
 20
1.0
 30
0.0
  9
$USERI1
 70
     0
  9
$USERI2
 70
     0
  9
$USERI3
 70
     0
  9
$USERI4
 70
     0
  9
$USERI5
 70
     0
  9
$USERR1
 40
0.0
  9
$USERR2
 40
0.0
  9
$USERR3
 40
0.0
  9
$USERR4
 40
0.0
  9
$USERR5
 40
0.0
  9
$WORLDVIEW
 70
     1
  9
$SHADEDGE
 70
     3
  9
$SHADEDIF
 70
    70
  9
$TILEMODE
 70
     1
  9
$MAXACTVP
 70
    64
  9
$PLIMCHECK
 70
     0
  9
$PEXTMIN
 10
1.000000000000000E+20
 20
1.000000000000000E+20
 30
1.000000000000000E+20
  9
$PEXTMAX
 10
-1.000000000000000E+20
 20
-1.000000000000000E+20
 30
-1.000000000000000E+20
  9
$PLIMMIN
 10
0.0
 20
0.0
  9
$PLIMMAX
 10
12.0
 20
9.0
  9
$UNITMODE
 70
     0
  9
$VISRETAIN
 70
     0
  9
$PLINEGEN
 70
     1
  9
$PSLTSCALE
 70
     0
  0
ENDSEC
  0
SECTION
  2
TABLES
  0
TABLE
  2
VPORT
 70
     1
  0
VPORT
  2
*ACTIVE
 70
     0
 10
0.0
 20
0.0
 11
1.0
 21
1.0
 12
0.0
 22
0.0
 13
0.0
 23
0.0
 14
0.5
 24
0.5
 15
0.5
 25
0.5
 16
0.0
 26
0.0
 36
1.0
 17
-0.0000000000000036
 27
0.0
 37
0.0
 40
387.6
 41
1.457894736842106
 42
50.0
 43
0.0
 44
0.0
 50
0.0
 51
0.0
 71
     0
 72
  1000
 73
     1
 74
     1
 75
     0
 76
     0
 77
     0
 78
     0
  0
ENDTAB
  0
TABLE
  2
LTYPE
 70
    67
  0
LTYPE
  2
CONTINUOUS
 70
     0
  3
Solid line
 72
    65
 73
     0
 40
0.0
  0
LTYPE
  2
HIDDENX2
 70
     0
  3
Hidden (2x) ____ ____ ____ ____ ____ ____ ____ 
 72
    65
 73
     2
 40
19.05
 49
12.7
 49
-6.35
  0
LTYPE
  2
HIDDEN
 70
     0
  3
Hidden __ __ __ __ __ __ __ __ __ __ __ __ __ __
 72
    65
 73
     2
 40
9.524999999999999
 49
6.35
 49
-3.175
  0
LTYPE
  2
HIDDEN2
 70
     0
  3
Hidden (.5x) _ _ _ _ _ _ _ _ _ _ _ _ _ _ _ _ _ 
 72
    65
 73
     2
 40
4.762499999999999
 49
3.175
 49
-1.5875
  0
LTYPE
  2
DASHED
 70
     0
  3
Dashed __ __ __ __ __ __ __ __ __ __ __ __ __ _
 72
    65
 73
     2
 40
19.05
 49
12.7
 49
-6.35
  0
LTYPE
  2
DASHED2
 70
     0
  3
Dashed (.5x) _ _ _ _ _ _ _ _ _ _ _ _ _ _ _ _ _ 
 72
    65
 73
     2
 40
9.524999999999999
 49
6.35
 49
-3.175
  0
LTYPE
  2
DASHEDX2
 70
     0
  3
Dashed (2x) ____  ____  ____  ____  ____  ___
 72
    65
 73
     2
 40
38.09999999999999
 49
25.4
 49
-12.7
  0
LTYPE
  2
DOTX2
 70
     0
  3
Dot (2x) .  .  .  .  .  .  .  .  .  .  .  .  .  .
 72
    65
 73
     2
 40
12.7
 49
0.0
 49
-12.7
  0
LTYPE
  2
DOT
 70
     0
  3
Dot . . . . . . . . . . . . . . . . . . . . . . . .
 72
    65
 73
     2
 40
6.35
 49
0.0
 49
-6.35
  0
LTYPE
  2
DOT2
 70
     0
  3
Dot (.5x) ........................................
 72
    65
 73
     2
 40
3.175
 49
0.0
 49
-3.175
  0
LTYPE
  2
CENTERX2
 70
     0
  3
Center (2x) ________  __  ________  __  _____
 72
    65
 73
     4
 40
101.6
 49
63.5
 49
-12.7
 49
12.7
 49
-12.7
  0
LTYPE
  2
CENTER
 70
     0
  3
Center ____ _ ____ _ ____ _ ____ _ ____ _ ____
 72
    65
 73
     4
 40
50.8
 49
31.75
 49
-6.35
 49
6.35
 49
-6.35
  0
LTYPE
  2
CENTER2
 70
     0
  3
Center (.5x) ___ _ ___ _ ___ _ ___ _ ___ _ ___
 72
    65
 73
     4
 40
28.575
 49
19.05
 49
-3.175
 49
3.175
 49
-3.175
  0
LTYPE
  2
DASHDOTX2
 70
     0
  3
Dash dot (2x) ____  .  ____  .  ____  .  ___
 72
    65
 73
     4
 40
50.8
 49
25.4
 49
-12.7
 49
0.0
 49
-12.7
  0
LTYPE
  2
DASHDOT
 70
     0
  3
Dash dot __ . __ . __ . __ . __ . __ . __ . __
 72
    65
 73
     4
 40
25.4
 49
12.7
 49
-6.35
 49
0.0
 49
-6.35
  0
LTYPE
  2
DASHDOT2
 70
     0
  3
Dash dot (.5x) _._._._._._._._._._._._._._._.
 72
    65
 73
     4
 40
12.7
 49
6.35
 49
-3.175
 49
0.0
 49
-3.175
  0
LTYPE
  2
DIVIDEX2
 70
     0
  3
Divide (2x) ________  .  .  ________  .  .  _
 72
    65
 73
     6
 40
63.5
 49
25.4
 49
-12.7
 49
0.0
 49
-12.7
 49
0.0
 49
-12.7
  0
LTYPE
  2
DIVIDE
 70
     0
  3
Divide ____ . . ____ . . ____ . . ____ . . ____
 72
    65
 73
     6
 40
31.75
 49
12.7
 49
-6.35
 49
0.0
 49
-6.35
 49
0.0
 49
-6.35
  0
LTYPE
  2
DIVIDE2
 70
     0
  3
Divide (.5x) __..__..__..__..__..__..__..__.._
 72
    65
 73
     6
 40
15.875
 49
6.35
 49
-3.175
 49
0.0
 49
-3.175
 49
0.0
 49
-3.175
  0
LTYPE
  2
BORDERX2
 70
     0
  3
Border (2x) ____  ____  .  ____  ____  .  ___
 72
    65
 73
     6
 40
88.89999999999999
 49
25.4
 49
-12.7
 49
25.4
 49
-12.7
 49
0.0
 49
-12.7
  0
LTYPE
  2
BORDER
 70
     0
  3
Border __ __ . __ __ . __ __ . __ __ . __ __ .
 72
    65
 73
     6
 40
44.45
 49
12.7
 49
-6.35
 49
12.7
 49
-6.35
 49
0.0
 49
-6.35
  0
LTYPE
  2
BORDER2
 70
     0
  3
Border (.5x) __.__.__.__.__.__.__.__.__.__.__.
 72
    65
 73
     6
 40
22.225
 49
6.35
 49
-3.175
 49
6.35
 49
-3.175
 49
0.0
 49
-3.175
  0
LTYPE
  2
PHANTOMX2
 70
     0
  3
Phantom (2x) ____________    ____    ____   _
 72
    65
 73
     6
 40
127.0
 49
63.5
 49
-12.7
 49
12.7
 49
-12.7
 49
12.7
 49
-12.7
  0
LTYPE
  2
PHANTOM
 70
     0
  3
Phantom ______  __  __  ______  __  __  ______ 
 72
    65
 73
     6
 40
63.5
 49
31.75
 49
-6.35
 49
6.35
 49
-6.35
 49
6.35
 49
-6.35
  0
LTYPE
  2
PHANTOM2
 70
     0
  3
Phantom (.5x) ___ _ _ ___ _ _ ___ _ _ ___ _ _
 72
    65
 73
     6
 40
31.75
 49
15.875
 49
-3.175
 49
3.175
 49
-3.175
 49
3.175
 49
-3.175
  0
LTYPE
  2
ACAD_ISO06W100
 70
     0
  3
ISO long-dash triple-dot ____ ... ____ ... ____
 72
    65
 73
     8
 40
36.0
 49
24.0
 49
-3.0
 49
0.0
 49
-3.0
 49
0.0
 49
-3.0
 49
0.0
 49
-3.0
  0
LTYPE
  2
ACAD_ISO13W100
 70
     0
  3
ISO double-dash double-dot __ __ . . __ __ . . _
 72
    65
 73
     8
 40
36.0
 49
12.0
 49
-3.0
 49
12.0
 49
-3.0
 49
0.0
 49
-3.0
 49
0.0
 49
-3.0
  0
LTYPE
  2
ACAD_ISO14W100
 70
     0
  3
ISO dash triple-dot __ . . . __ . . . __ . . . _
 72
    65
 73
     8
 40
24.0
 49
12.0
 49
-3.0
 49
0.0
 49
-3.0
 49
0.0
 49
-3.0
 49
0.0
 49
-3.0
  0
LTYPE
  2
ACAD_ISO02W100
 70
     0
  3
ISO dash __ __ __ __ __ __ __ __ __ __ __ __ __
 72
    65
 73
     2
 40
15.0
 49
12.0
 49
-3.0
  0
LTYPE
  2
ACAD_ISO03W100
 70
     0
  3
ISO dash space __    __    __    __    __    __
 72
    65
 73
     2
 40
30.0
 49
12.0
 49
-18.0
  0
LTYPE
  2
ACAD_ISO04W100
 70
     0
  3
ISO long-dash dot ____ . ____ . ____ . ____ . _
 72
    65
 73
     4
 40
30.0
 49
24.0
 49
-3.0
 49
0.0
 49
-3.0
  0
LTYPE
  2
ACAD_ISO05W100
 70
     0
  3
ISO long-dash double-dot ____ .. ____ .. ____ . 
 72
    65
 73
     6
 40
33.0
 49
24.0
 49
-3.0
 49
0.0
 49
-3.0
 49
0.0
 49
-3.0
  0
LTYPE
  2
ACAD_ISO07W100
 70
     0
  3
ISO dot . . . . . . . . . . . . . . . . . . . . 
 72
    65
 73
     2
 40
3.0
 49
0.0
 49
-3.0
  0
LTYPE
  2
ACAD_ISO08W100
 70
     0
  3
ISO long-dash short-dash ____ __ ____ __ ____ _
 72
    65
 73
     4
 40
36.0
 49
24.0
 49
-3.0
 49
6.0
 49
-3.0
  0
LTYPE
  2
ACAD_ISO09W100
 70
     0
  3
ISO long-dash double-short-dash ____ __ __ ____
 72
    65
 73
     6
 40
45.0
 49
24.0
 49
-3.0
 49
6.0
 49
-3.0
 49
6.0
 49
-3.0
  0
LTYPE
  2
ACAD_ISO10W100
 70
     0
  3
ISO dash dot __ . __ . __ . __ . __ . __ . __ . 
 72
    65
 73
     4
 40
18.0
 49
12.0
 49
-3.0
 49
0.0
 49
-3.0
  0
LTYPE
  2
ACAD_ISO11W100
 70
     0
  3
ISO double-dash dot __ __ . __ __ . __ __ . __ _
 72
    65
 73
     6
 40
33.0
 49
12.0
 49
-3.0
 49
12.0
 49
-3.0
 49
0.0
 49
-3.0
  0
LTYPE
  2
ACAD_ISO12W100
 70
     0
  3
ISO dash double-dot __ . . __ . . __ . . __ . . 
 72
    65
 73
     6
 40
21.0
 49
12.0
 49
-3.0
 49
0.0
 49
-3.0
 49
0.0
 49
-3.0
  0
LTYPE
  2
ACAD_ISO15W100
 70
     0
  3
ISO double-dash triple-dot __ __ . . . __ __ . .
 72
    65
 73
    10
 40
39.0
 49
12.0
 49
-3.0
 49
12.0
 49
-3.0
 49
0.0
 49
-3.0
 49
0.0
 49
-3.0
 49
0.0
 49
-3.0
  0
LTYPE
  2
JIS_02_0_7
 70
     0
  3
HIDDEN0.75 _ _ _ _ _ _ _ _ _ _ _ _ _ _ _ _ _ 
 72
    65
 73
     2
 40
1.35
 49
0.75
 49
-0.6
  0
LTYPE
  2
JIS_02_1_0
 70
     0
  3
HIDDEN01 _ _ _ _ _ _ _ _ _ _ _ _ _ _ _ _ _ 
 72
    65
 73
     2
 40
2.0
 49
1.0
 49
-1.0
  0
LTYPE
  2
JIS_02_1_2
 70
     0
  3
HIDDEN01.25  _ _ _ _ _ _ _ _ _ _ _ _ _ _ _ _ _ 
 72
    65
 73
     2
 40
2.5
 49
1.25
 49
-1.25
  0
LTYPE
  2
JIS_02_2_0
 70
     0
  3
HIDDEN02 __ __ __ __ __ __ __ __ __ __ __ 
 72
    65
 73
     2
 40
3.0
 49
2.0
 49
-1.0
  0
LTYPE
  2
JIS_02_4_0
 70
     0
  3
HIDDEN04 ____ ____ ____ ____ ____ ____ ____ 
 72
    65
 73
     2
 40
5.5
 49
4.0
 49
-1.5
  0
LTYPE
  2
JIS_08_11
 70
     0
  3
1SASEN11 ___ _ ___ _ ___ _ ___ _ ___ _ ___
 72
    65
 73
     4
 40
12.8
 49
11.0
 49
-0.6
 49
0.6
 49
-0.6
  0
LTYPE
  2
JIS_08_15
 70
     0
  3
1SASEN15 ____ _ ____ _ ____ _ ____ _ ____ 
 72
    65
 73
     4
 40
17.25
 49
15.0
 49
-0.75
 49
0.75
 49
-0.75
  0
LTYPE
  2
JIS_08_25
 70
     0
  3
1SASEN25 ________  __  ________  __  _____
 72
    65
 73
     4
 40
28.0
 49
25.0
 49
-1.125
 49
0.75
 49
-1.125
  0
LTYPE
  2
JIS_08_37
 70
     0
  3
1SASEN37 ________  __  ________  __  _____
 72
    65
 73
     4
 40
40.5
 49
37.5
 49
-1.125
 49
0.75
 49
-1.125
  0
LTYPE
  2
JIS_08_50
 70
     0
  3
1SASEN50 _______________  __  ____________
 72
    65
 73
     4
 40
53.0
 49
50.0
 49
-1.125
 49
0.75
 49
-1.125
  0
LTYPE
  2
JIS_09_08
 70
     0
  3
2SASEN8 __ _ _ __ _ _ __ _ _ __ _ _ __ _ _ 
 72
    65
 73
     6
 40
10.75
 49
8.0
 49
-0.55
 49
0.55
 49
-0.55
 49
0.55
 49
-0.55
  0
LTYPE
  2
JIS_09_15
 70
     0
  3
2SASEN15 ___ _ _ ___ _ _ ___ _ _ ___ _ _ ___ 
 72
    65
 73
     6
 40
18.9
 49
15.0
 49
-0.9
 49
0.6
 49
-0.9
 49
0.6
 49
-0.9
  0
LTYPE
  2
JIS_09_29
 70
     0
  3
2SASEN29 ______　__  __  ______　__  __  ___
 72
    65
 73
     6
 40
34.0
 49
29.0
 49
-1.2
 49
0.7
 49
-1.2
 49
0.7
 49
-1.2
  0
LTYPE
  2
JIS_09_50
 70
     0
  3
2SASEN50 ____________　__  __  _____________
 72
    65
 73
     6
 40
55.0
 49
50.0
 49
-1.2
 49
0.7
 49
-1.2
 49
0.7
 49
-1.2
  0
LTYPE
  2
SXF_破線
 70
     0
  3
02 dashed -- -- -- -- -- --
 72
    65
 73
     2
 40
7.5
 49
6.0
 49
-1.5
  0
LTYPE
  2
SXF_跳び破線
 70
     0
  3
03 dashed_spaced --  --  --  --
 72
    65
 73
     2
 40
12.0
 49
6.0
 49
-6.0
  0
LTYPE
  2
SXF_一点長鎖線
 70
     0
  3
04 long_dashed_dotted ---- . ---- . ----
 72
    65
 73
     4
 40
15.25
 49
12.0
 49
-1.5
 49
0.25
 49
-1.5
  0
LTYPE
  2
SXF_二点長鎖線
 70
     0
  3
05 long_dashed_double-dotted ---- . . ---- 
 72
    65
 73
     6
 40
17.0
 49
12.0
 49
-1.5
 49
0.25
 49
-1.5
 49
0.25
 49
-1.5
  0
LTYPE
  2
SXF_三点長鎖線
 70
     0
  3
06 long_dashed_triplicate-dotted ---- ... ---- 
 72
    65
 73
     8
 40
18.75
 49
12.0
 49
-1.5
 49
0.25
 49
-1.5
 49
0.25
 49
-1.5
 49
0.25
 49
-1.5
  0
LTYPE
  2
SXF_点線
 70
     0
  3
07 dotted . . . . . . . . . . . . 
 72
    65
 73
     2
 40
1.75
 49
0.25
 49
-1.5
  0
LTYPE
  2
SXF_一点鎖線
 70
     0
  3
08 chain ---- - --- - --- - ---
 72
    65
 73
     4
 40
18.5
 49
12.0
 49
-1.5
 49
3.5
 49
-1.5
  0
LTYPE
  2
SXF_二点鎖線
 70
     0
  3
09 chain_double_dash ---- - - ---- - - ----
 72
    65
 73
     6
 40
23.5
 49
12.0
 49
-1.5
 49
3.5
 49
-1.5
 49
3.5
 49
-1.5
  0
LTYPE
  2
SXF_一点短鎖線
 70
     0
  3
10 dashed_dotted -- . -- . -- . --
 72
    65
 73
     4
 40
9.25
 49
6.0
 49
-1.5
 49
0.25
 49
-1.5
  0
LTYPE
  2
SXF_一点二短鎖線
 70
     0
  3
11 double-dashed_dotted -- -- . -- --
 72
    65
 73
     6
 40
16.75
 49
6.0
 49
-1.5
 49
6.0
 49
-1.5
 49
0.25
 49
-1.5
  0
LTYPE
  2
SXF_二点短鎖線
 70
     0
  3
12 dashed_double_dotted -- . . -- . . --
 72
    65
 73
     6
 40
11.0
 49
6.0
 49
-1.5
 49
0.25
 49
-1.5
 49
0.25
 49
-1.5
  0
LTYPE
  2
SXF_二点二短鎖線
 70
     0
  3
13 double-dashed_double-dotted -- -- . . -- --
 72
    65
 73
     8
 40
18.5
 49
6.0
 49
-1.5
 49
6.0
 49
-1.5
 49
0.25
 49
-1.5
 49
0.25
 49
-1.5
  0
LTYPE
  2
SXF_三点短鎖線
 70
     0
  3
14 dashed triplicate-dotted -- . . . -- . . . --
 72
    65
 73
     8
 40
12.75
 49
6.0
 49
-1.5
 49
0.25
 49
-1.5
 49
0.25
 49
-1.5
 49
0.25
 49
-1.5
  0
LTYPE
  2
SXF_三点二短鎖線
 70
     0
  3
15 double-dashed triplicate-dotted -- -- . . . -- -- 
 72
    65
 73
    10
 40
20.25
 49
6.0
 49
-1.5
 49
6.0
 49
-1.5
 49
0.25
 49
-1.5
 49
0.25
 49
-1.5
 49
0.25
 49
-1.5
  0
ENDTAB
  0
TABLE
  2
LAYER
 70
     3
  0
LAYER
  2
0
 70
     0
 62
     7
  6
CONTINUOUS
  0
LAYER
  2
LAYER0014
 70
     0
 62
     7
  6
CONTINUOUS
  0
LAYER
  2
ZUWAKU
 70
     0
 62
     7
  6
CONTINUOUS
  0
ENDTAB
  0
TABLE
  2
STYLE
 70
     5
  0
STYLE
  2
STANDARD
 70
     0
 40
0.0
 41
1.0
 50
0.0
 71
     0
 42
0.2
  3
txt.shx
  4
bigfont.shx
  0
STYLE
  2
DCSTYLE1
 70
     0
 40
0.0
 41
0.8
 50
0.0
 71
     0
 42
0.2
  3
txt.shx
  4
bigfont
  0
STYLE
  2
DCSTYLE0
 70
     4
 40
0.0
 41
0.8
 50
0.0
 71
     0
 42
0.2
  3
txt.shx
  4
bigfont
  0
STYLE
  2
DCSTYLE2
 70
     0
 40
0.0
 41
0.8
 50
0.0
 71
     0
 42
0.2
  3
ＭＳ 明朝
  4

  0
STYLE
  2
DCSTYLE3
 70
     0
 40
0.0
 41
1.0
 50
0.0
 71
     0
 42
0.2
  3
ＭＳ ゴシック
  4

  0
ENDTAB
  0
TABLE
  2
VIEW
 70
     0
  0
ENDTAB
  0
TABLE
  2
UCS
 70
     0
  0
ENDTAB
  0
TABLE
  2
APPID
 70
     2
  0
APPID
  2
ACAD
 70
     0
  0
APPID
  2
DAFUSIONOUT
 70
     0
  0
ENDTAB
  0
TABLE
  2
DIMSTYLE
 70
     1
  0
DIMSTYLE
  2
STANDARD
 70
     0
  3

  4

  5

  6

  7

 40
1.0
 41
0.18
 42
0.0625
 43
0.38
 44
0.18
 45
0.0
 46
0.0
 47
0.0
 48
0.0
140
0.18
141
0.09
142
0.0
143
25.4
144
1.0
145
0.0
146
1.0
147
0.09
 71
     0
 72
     0
 73
     1
 74
     1
 75
     0
 76
     0
 77
     0
 78
     0
170
     0
171
     2
172
     0
173
     0
174
     0
175
     0
176
     0
177
     0
178
     0
  0
ENDTAB
  0
ENDSEC
  0
SECTION
  2
BLOCKS
  0
BLOCK
  8
0
  2
$MODEL_SPACE
 70
     0
 10
0.0
 20
0.0
 30
0.0
  3
$MODEL_SPACE
  1

  0
ENDBLK
  5
21
  8
0
  0
BLOCK
 67
     1
  8
0
  2
$PAPER_SPACE
 70
     0
 10
0.0
 20
0.0
 30
0.0
  3
$PAPER_SPACE
  1

  0
ENDBLK
  5
1D
 67
     1
  8
0
  0
BLOCK
  8
0
  2
DC_IMAGEDIMGROUP_1
 70
     0
 10
0.0
 20
0.0
 30
0.0
  3
DC_IMAGEDIMGROUP_1
  1

  0
LINE
  5
120
  8
LAYER0014
  6
CONTINUOUS
 62
     7
 10
-187.0053246502166
 20
84.66666207054072
 30
0.0
 11
-229.7666246990447
 21
84.66666207054072
 31
0.0
  0
LINE
  5
121
  8
LAYER0014
  6
CONTINUOUS
 62
     7
 10
-187.0053246502166
 20
-13.33333602211065
 30
0.0
 11
-229.7666246990447
 21
-13.33333602211065
 31
0.0
  0
LINE
  5
122
  8
LAYER0014
  6
CONTINUOUS
 62
     7
 10
-227.4806292156462
 20
84.66666207054072
 30
0.0
 11
-227.4806292156462
 21
-13.33333602211065
 31
0.0
  0
INSERT
  5
129
  8
LAYER0014
 62
     7
  2
_OPEN30
 10
-227.4806292156462
 20
84.66666207054072
 30
0.0
 41
2.499995396844351
 42
2.500007167085477
 50
90.0
  0
INSERT
  5
12A
  8
LAYER0014
 62
     7
  2
_OPEN30
 10
-227.4806292156462
 20
-13.33333602211065
 30
0.0
 41
2.499995396844351
 42
2.500007167085477
 50
270.0
  0
TEXT
  5
12C
  8
LAYER0014
 62
     7
 10
-229.0937915421186
 20
28.12660843741027
 30
0.0
 40
4.0
  1
φ98H7
 50
89.90000000000005
 41
0.8659793814432992
  7
DCSTYLE1
 72
     5
 11
-229.0658662882643
 21
44.12658406802288
 31
0.0
  0
ENDBLK
  5
B6
  8
0
  0
BLOCK
  8
0
  2
DC_IMAGEDIMGROUP_2
 70
     0
 10
0.0
 20
0.0
 30
0.0
  3
DC_IMAGEDIMGROUP_2
  1

  0
LINE
  5
12D
  8
LAYER0014
  6
CONTINUOUS
 62
     7
 10
-191.2053368572478
 20
148.1666696999353
 30
0.0
 11
-242.0596544842009
 21
148.1666696999353
 31
0.0
  0
LINE
  5
12E
  8
LAYER0014
  6
CONTINUOUS
 62
     7
 10
-190.0786455871219
 20
-76.83333792945928
 30
0.0
 11
-242.0596544842009
 21
-76.83333792945928
 31
0.0
  0
LINE
  5
12F
  8
LAYER0014
  6
CONTINUOUS
 62
     7
 10
-239.7736590008025
 20
148.1666696999353
 30
0.0
 11
-239.7736590008025
 21
-76.83333792945928
 31
0.0
  0
INSERT
  5
130
  8
LAYER0014
 62
     7
  2
_OPEN30
 10
-239.7736590008025
 20
148.1666696999353
 30
0.0
 41
2.499995396844351
 42
2.500007167085477
 50
90.0
  0
INSERT
  5
131
  8
LAYER0014
 62
     7
  2
_OPEN30
 10
-239.7736590008025
 20
-76.83333792945928
 30
0.0
 41
2.499995396844351
 42
2.500007167085477
 50
270.0
  0
TEXT
  5
132
  8
LAYER0014
 62
     7
 10
-241.3896138526603
 20
26.52661087434902
 30
0.0
 40
4.0
  1
φ225H7
 50
89.89999999999999
 41
0.8615384615384609
  7
DCSTYLE1
 72
     5
 11
-241.3561035480351
 21
45.72658163108413
 31
0.0
  0
ENDBLK
  5
B9
  8
0
  0
BLOCK
  8
0
  2
DC_IMAGEDIMGROUP_3
 70
     0
 10
0.0
 20
0.0
 30
0.0
  3
DC_IMAGEDIMGROUP_3
  1

  0
LINE
  5
133
  8
LAYER0014
  6
CONTINUOUS
 62
     7
 10
-191.2053368572478
 20
160.6666696999353
 30
0.0
 11
-254.352653751779
 21
160.6666696999353
 31
0.0
  0
LINE
  5
134
  8
LAYER0014
  6
CONTINUOUS
 62
     7
 10
-190.2321542242513
 20
-89.33333792945928
 30
0.0
 11
-254.352653751779
 21
-89.33333792945928
 31
0.0
  0
LINE
  5
135
  8
LAYER0014
  6
CONTINUOUS
 62
     7
 10
-252.0666582683806
 20
160.6666696999353
 30
0.0
 11
-252.0666582683806
 21
-89.33333792945928
 31
0.0
  0
INSERT
  5
136
  8
LAYER0014
 62
     7
  2
_OPEN30
 10
-252.0666582683806
 20
160.6666696999353
 30
0.0
 41
2.499995396844351
 42
2.500007167085477
 50
90.0
  0
INSERT
  5
137
  8
LAYER0014
 62
     7
  2
_OPEN30
 10
-252.0666582683806
 20
-89.33333792945928
 30
0.0
 41
2.499995396844351
 42
2.500007167085477
 50
270.0
  0
TEXT
  5
138
  8
LAYER0014
 62
     7
 10
-253.6770280694676
 20
29.72660600047156
 30
0.0
 40
4.0
  1
φ250
 50
89.89999999999999
 41
0.8959999999999988
  7
DCSTYLE1
 72
     5
 11
-253.6546878663841
 21
42.52658650496162
 31
0.0
  0
ENDBLK
  5
BC
  8
0
  0
BLOCK
  8
0
  2
DC_IMAGEDIMGROUP_4
 70
     0
 10
0.0
 20
0.0
 30
0.0
  3
DC_IMAGEDIMGROUP_4
  1

  0
LINE
  5
139
  8
LAYER0014
  6
CONTINUOUS
 62
     7
 10
-76.12535211603686
 20
-16.83333602211065
 30
0.0
 11
-32.1834261516814
 21
-16.83333602211065
 31
0.0
  0
LINE
  5
13A
  8
LAYER0014
  6
CONTINUOUS
 62
     7
 10
-34.46942926447437
 20
-16.83333602211065
 30
0.0
 11
-34.46942926447437
 21
68.91666207054072
 31
0.0
  0
INSERT
  5
13B
  8
LAYER0014
 62
     7
  2
_OPEN30
 10
-34.46942926447437
 20
-16.83333602211065
 30
0.0
 41
2.499995396844351
 42
2.500007167085477
 50
270.0
  0
TEXT
  5
13C
  8
LAYER0014
 62
     7
 10
-36.06942926447437
 20
26.77462076881342
 30
0.0
 40
4.0
  1
φ105H7
 50
90.0
 41
0.8615384615384617
  7
DCSTYLE1
 72
     5
 11
-36.06942926447437
 21
45.97462076881342
 31
0.0
  0
ENDBLK
  5
BF
  8
0
  0
BLOCK
  8
0
  2
DC_IMAGEDIMGROUP_5
 70
     0
 10
0.0
 20
0.0
 30
0.0
  3
DC_IMAGEDIMGROUP_5
  1

  0
LINE
  5
13D
  8
LAYER0014
  6
CONTINUOUS
 62
     7
 10
-77.12535211603686
 20
160.6666696999353
 30
0.0
 11
-20.16464258234546
 21
160.6666696999353
 31
0.0
  0
LINE
  5
13E
  8
LAYER0014
  6
CONTINUOUS
 62
     7
 10
-22.45064569513843
 20
91.66666207054072
 30
0.0
 11
-22.45064569513843
 21
160.6666696999353
 31
0.0
  0
INSERT
  5
13F
  8
LAYER0014
 62
     7
  2
_OPEN30
 10
-22.45064569513843
 20
91.66666207054072
 30
0.0
 41
2.499995396844351
 42
2.500007167085477
 50
270.0
  0
INSERT
  5
140
  8
LAYER0014
 62
     7
  2
_OPEN30
 10
-22.45064569513843
 20
160.6666696999353
 30
0.0
 41
2.499995396844351
 42
2.500007167085477
 50
90.0
  0
TEXT
  5
141
  8
LAYER0014
 62
     7
 10
-24.05543044545452
 20
123.4266011265941
 30
0.0
 40
4.0
  1
69
 50
89.90000000000002
 41
0.9333333333333361
  7
DCSTYLE1
 72
     5
 11
-24.04426034391278
 21
129.8265913788391
 31
0.0
  0
ENDBLK
  5
C2
  8
0
  0
BLOCK
  8
0
  2
DC_IMAGEDIMGROUP_6
 70
     0
 10
0.0
 20
0.0
 30
0.0
  3
DC_IMAGEDIMGROUP_6
  1

  0
LINE
  5
142
  8
LAYER0014
  6
CONTINUOUS
 62
     7
 10
-204.2053368572478
 20
-25.00833907386846
 30
0.0
 11
-218.5711901287322
 21
-25.00833907386846
 31
0.0
  0
LINE
  5
143
  8
LAYER0014
  6
CONTINUOUS
 62
     7
 10
-204.2053368572478
 20
-37.0083409812171
 30
0.0
 11
-218.5711901287322
 21
-37.0083409812171
 31
0.0
  0
LINE
  5
144
  8
LAYER0014
  6
CONTINUOUS
 62
     7
 10
-216.2851946453337
 20
-25.00833907386846
 30
0.0
 11
-216.2851946453337
 21
-37.0083409812171
 31
0.0
  0
INSERT
  5
145
  8
LAYER0014
 62
     7
  2
_OPEN30
 10
-216.2851946453337
 20
-25.00833907386846
 30
0.0
 41
2.499995396844351
 42
2.500007167085477
 50
90.0
  0
INSERT
  5
146
  8
LAYER0014
 62
     7
  2
_OPEN30
 10
-216.2851946453337
 20
-37.0083409812171
 30
0.0
 41
2.499995396844351
 42
2.500007167085477
 50
270.0
  0
TEXT
  5
147
  8
LAYER0014
 62
     7
 10
-217.8927719210353
 20
-35.34839948822503
 30
0.0
 40
4.0
  1
M12
 50
89.90000000000008
 41
0.8262295081967229
  7
DCSTYLE1
 72
     5
 11
-217.8760167687226
 21
-25.74841410985745
 31
0.0
  0
ENDBLK
  5
C5
  8
0
  0
BLOCK
  8
0
  2
DC_IMAGEDIMGROUP_7
 70
     0
 10
0.0
 20
0.0
 30
0.0
  3
DC_IMAGEDIMGROUP_7
  1

  0
LINE
  5
148
  8
LAYER0014
  6
CONTINUOUS
 62
     7
 10
-188.6653368572478
 20
-143.4715596701819
 30
0.0
 11
-78.66535211603687
 21
-143.4715596701819
 31
0.0
  0
INSERT
  5
149
  8
LAYER0014
 62
     7
  2
_OPEN30
 10
-188.6653368572478
 20
-143.4715596701819
 30
0.0
 41
2.499995396844351
 42
2.500007167085477
 50
180.0
  0
INSERT
  5
14A
  8
LAYER0014
 62
     7
  2
_OPEN30
 10
-78.66535211603687
 20
-143.4715596701819
 30
0.0
 41
2.499995396844351
 42
2.500007167085477
 50
360.0
  0
LINE
  5
14B
  8
LAYER0014
  6
CONTINUOUS
 62
     7
 10
-188.6653521160369
 20
-90.74588399441834
 30
0.0
 11
-188.6653365678482
 21
-144.4715596701819
 31
0.0
  0
LINE
  5
14C
  8
LAYER0014
  6
CONTINUOUS
 62
     7
 10
-78.66535211603687
 20
-89.8733379294593
 30
0.0
 11
-78.66535211603687
 21
-144.4715596701819
 31
0.0
  0
TEXT
  5
14D
  8
LAYER0014
 62
     7
 10
-138.008209762979
 20
-141.8715596701819
 30
0.0
 40
4.0
  1
110
 41
0.8842105263157916
  7
DCSTYLE1
 72
     5
 11
-128.408209762979
 21
-141.8715596701819
 31
0.0
  0
ENDBLK
  5
C8
  8
0
  0
BLOCK
  8
0
  2
DC_GROUP_1
 70
     0
 10
0.0
 20
0.0
 30
0.0
  3
DC_GROUP_1
  1

  0
LINE
  5
14E
  8
LAYER0014
  6
CONTINUOUS
 62
     7
 10
-79.78154705193256
 20
154.3759768936604
 30
0.0
 11
-60.91844198487743
 21
175.9338080851296
 31
0.0
  0
INSERT
  5
14F
  8
LAYER0014
 62
     7
  2
_OPEN30
 10
-79.78154705193256
 20
154.3759768936604
 30
0.0
 41
2.499995396844351
 42
2.500007167085477
 50
228.8140706578444
  0
LINE
  5
150
  8
LAYER0014
  6
CONTINUOUS
 62
     7
 10
-60.91844202082203
 20
175.9338053200524
 30
0.0
 11
-14.2887728313689
 21
175.9338053200524
 31
0.0
  0
TEXT
  5
151
  8
LAYER0014
 62
     7
 10
-60.29661584894703
 20
177.5338053200524
 30
0.0
 40
4.0
  1
ｾﾚｰｼｮﾝP1.5山60ﾟ
 41
0.9333333333333335
  7
DCSTYLE1
 72
     5
 11
-15.49661584894702
 21
177.5338053200524
 31
0.0
  0
ENDBLK
  5
CB
  8
0
  0
BLOCK
  8
0
  2
DC_GROUP_2
 70
     0
 10
0.0
 20
0.0
 30
0.0
  3
DC_GROUP_2
  1

  0
LINE
  5
152
  8
LAYER0014
  6
CONTINUOUS
 62
     7
 10
-63.01972914508397
 20
142.5947780635158
 30
0.0
 11
-47.7711594325182
 21
166.6184526102095
 31
0.0
  0
INSERT
  5
153
  8
LAYER0014
 62
     7
  2
_OPEN30
 10
-63.01972914508397
 20
142.5947780635158
 30
0.0
 41
2.499995396844351
 42
2.500007167085477
 50
237.5954398158039
  0
LINE
  5
154
  8
LAYER0014
  6
CONTINUOUS
 62
     7
 10
-47.77116418879078
 20
166.6184671852868
 30
0.0
 11
-36.34149576227711
 21
166.6184671852868
 31
0.0
  0
TEXT
  5
155
  8
LAYER0014
 62
     7
 10
-47.62730051081226
 20
168.2184671852868
 30
0.0
 40
4.0
  1
M12
 41
0.8262295081967216
  7
DCSTYLE1
 72
     5
 11
-38.02730051081226
 21
168.2184671852868
 31
0.0
  0
ENDBLK
  5
CE
  8
0
  0
BLOCK
  8
0
  2
DC_IMAGEDIMGROUP_8
 70
     0
 10
0.0
 20
0.0
 30
0.0
  3
DC_IMAGEDIMGROUP_8
  1

  0
LINE
  5
156
  8
LAYER0014
  6
CONTINUOUS
 62
     7
 10
-47.01062128107593
 20
107.6666620705407
 30
0.0
 11
-32.2293245891814
 21
107.6666620705407
 31
0.0
  0
LINE
  5
157
  8
LAYER0014
  6
CONTINUOUS
 62
     7
 10
-34.51532770197437
 20
107.6666620705407
 30
0.0
 11
-34.51532770197437
 21
91.66666207054072
 31
0.0
  0
INSERT
  5
158
  8
LAYER0014
 62
     7
  2
_OPEN30
 10
-34.51532770197437
 20
107.6666620705407
 30
0.0
 41
2.499995396844351
 42
2.500007167085477
 50
90.0
  0
INSERT
  5
159
  8
LAYER0014
 62
     7
  2
_OPEN30
 10
-34.51532770197437
 20
91.66666207054072
 30
0.0
 41
2.499995396844351
 42
2.500007167085477
 50
270.0
  0
TEXT
  5
15A
  8
LAYER0014
 62
     7
 10
-36.12714363222381
 20
92.8980358653915
 30
0.0
 40
3.6
  1
MIN13
 50
89.90000000000002
 41
0.9230769230769231
  7
DCSTYLE1
 72
     5
 11
-36.10201090375487
 21
107.2980139329429
 31
0.0
  0
ENDBLK
  5
D1
  8
0
  0
BLOCK
  8
0
  2
DC_IMAGEDIMGROUP_9
 70
     0
 10
0.0
 20
0.0
 30
0.0
  3
DC_IMAGEDIMGROUP_9
  1

  0
LINE
  5
15B
  8
LAYER0014
  6
CONTINUOUS
 62
     7
 10
-47.1555340008025
 20
137.6666696999353
 30
0.0
 11
-33.51532770197437
 21
137.6666696999353
 31
0.0
  0
LINE
  5
15C
  8
LAYER0014
  6
CONTINUOUS
 62
     7
 10
-34.51532770197437
 20
107.6666620705407
 30
0.0
 11
-34.51532770197437
 21
137.6666696999353
 31
0.0
  0
INSERT
  5
15D
  8
LAYER0014
 62
     7
  2
_OPEN30
 10
-34.51532770197437
 20
107.6666620705407
 30
0.0
 41
2.499995396844351
 42
2.500007167085477
 50
270.0
  0
INSERT
  5
15E
  8
LAYER0014
 62
     7
  2
_OPEN30
 10
-34.51532770197437
 20
137.6666696999353
 30
0.0
 41
2.499995396844351
 42
2.500007167085477
 50
90.0
  0
TEXT
  5
15F
  8
LAYER0014
 62
     7
 10
-36.11532770197437
 20
119.9236696872991
 30
0.0
 40
4.0
  1
30
 50
90.0
 41
0.9081081081081089
  7
DCSTYLE1
 72
     5
 11
-36.11532770197437
 21
126.3236696872991
 31
0.0
  0
ENDBLK
  5
D4
  8
0
  0
BLOCK
  8
0
  2
DC_GROUP_3
 70
     0
 10
0.0
 20
0.0
 30
0.0
  3
DC_GROUP_3
  1

  0
LINE
  5
160
  8
0
  6
DIVIDE
 62
     7
 10
-161.3179579259604
 20
-22.32726373441257
 30
0.0
 11
-160.4593389812919
 21
-23.26444347589551
 31
0.0
  0
LINE
  5
161
  8
0
  6
DIVIDE
 62
     7
 10
-160.4593389812919
 20
-23.26444347589551
 30
0.0
 11
-159.6634028911241
 21
-24.21526402461383
 31
0.0
  0
LINE
  5
162
  8
0
  6
DIVIDE
 62
     7
 10
-159.6634028911241
 20
-24.21526402461383
 30
0.0
 11
-158.9928325099573
 21
-25.19336618780287
 31
0.0
  0
LINE
  5
163
  8
0
  6
DIVIDE
 62
     7
 10
-158.9928325099573
 20
-25.19336618780287
 30
0.0
 11
-158.510310692292
 21
-26.21239077269801
 31
0.0
  0
LINE
  5
164
  8
0
  6
DIVIDE
 62
     7
 10
-158.510310692292
 20
-26.21239077269801
 30
0.0
 11
-158.2778584093212
 21
-27.28584238969494
 31
0.0
  0
LINE
  5
165
  8
0
  6
DIVIDE
 62
     7
 10
-158.2778584093212
 20
-27.28584238969494
 30
0.0
 11
-158.3029855468611
 21
-28.41600881161732
 31
0.0
  0
LINE
  5
166
  8
0
  6
DIVIDE
 62
     7
 10
-158.3029855468611
 20
-28.41600881161732
 30
0.0
 11
-158.498882284693
 21
-29.58576948699782
 31
0.0
  0
LINE
  5
167
  8
0
  6
DIVIDE
 62
     7
 10
-158.498882284693
 20
-29.58576948699782
 30
0.0
 11
-158.769356948183
 21
-30.77607334443228
 31
0.0
  0
LINE
  5
168
  8
0
  6
DIVIDE
 62
     7
 10
-158.769356948183
 20
-30.77607334443228
 30
0.0
 11
-159.0182178626975
 21
-31.96786931251653
 31
0.0
  0
LINE
  5
169
  8
0
  6
DIVIDE
 62
     7
 10
-159.0182178626975
 20
-31.96786931251653
 30
0.0
 11
-159.1492733536027
 21
-33.14210631984642
 31
0.0
  0
LINE
  5
16A
  8
0
  6
DIVIDE
 62
     7
 10
-159.1492733536027
 20
-33.14210631984642
 30
0.0
 11
-159.0685302700217
 21
-34.28015045727169
 31
0.0
  0
LINE
  5
16B
  8
0
  6
DIVIDE
 62
     7
 10
-159.0685302700217
 20
-34.28015045727169
 30
0.0
 11
-158.7508621038497
 21
-35.37643502213827
 31
0.0
  0
LINE
  5
16C
  8
0
  6
DIVIDE
 62
     7
 10
-158.7508621038497
 20
-35.37643502213827
 30
0.0
 11
-158.2520329797954
 21
-36.44074202867509
 31
0.0
  0
LINE
  5
16D
  8
0
  6
DIVIDE
 62
     7
 10
-158.2520329797954
 20
-36.44074202867509
 30
0.0
 11
-157.6324298838196
 21
-37.48373066299204
 31
0.0
  0
LINE
  5
16E
  8
0
  6
DIVIDE
 62
     7
 10
-157.6324298838196
 20
-37.48373066299204
 30
0.0
 11
-156.9524398018831
 21
-38.51606011119905
 31
0.0
  0
ENDBLK
  5
D7
  8
0
  0
BLOCK
  8
0
  2
DC_IMAGEDIMGROUP_10
 70
     0
 10
0.0
 20
0.0
 30
0.0
  3
DC_IMAGEDIMGROUP_10
  1

  0
LINE
  5
16F
  8
0
  6
CONTINUOUS
 62
     9
 10
-79.66535211603687
 20
171.30447969576
 30
0.0
 11
-78.66535211603687
 21
171.30447969576
 31
0.0
  0
LINE
  5
170
  8
0
  6
CONTINUOUS
 62
     9
 10
-79.66535211603687
 20
161.6666696999353
 30
0.0
 11
-79.66535211603687
 21
172.30447969576
 31
0.0
  0
LINE
  5
171
  8
0
  6
CONTINUOUS
 62
     9
 10
-78.66535211603687
 20
159.6666696999353
 30
0.0
 11
-78.66535211603687
 21
172.30447969576
 31
0.0
  0
LINE
  5
172
  8
0
  6
CONTINUOUS
 62
     9
 10
-71.05054211603688
 20
171.30447969576
 30
0.0
 11
-78.66535211603687
 21
171.30447969576
 31
0.0
  0
INSERT
  5
173
  8
0
 62
     9
  2
_OPEN30
 10
-78.66535211603687
 20
171.30447969576
 30
0.0
 41
2.499995396844351
 42
2.500007167085477
 50
180.0
  0
LINE
  5
174
  8
0
  6
CONTINUOUS
 62
     9
 10
-84.66535211603687
 20
171.30447969576
 30
0.0
 11
-79.66535211603687
 21
171.30447969576
 31
0.0
  0
INSERT
  5
175
  8
0
 62
     9
  2
_OPEN30
 10
-79.66535211603687
 20
171.30447969576
 30
0.0
 41
2.499995396844351
 42
2.500007167085477
 50
360.0
  0
TEXT
  5
176
  8
0
 62
     7
 10
-75.25054211603687
 20
172.30447969576
 30
0.0
 40
4.0
  1
1
 41
1.527272727272729
  7
DCSTYLE1
 72
     5
 11
-72.05054211603687
 21
172.30447969576
 31
0.0
  0
ENDBLK
  5
DA
  8
0
  0
BLOCK
  8
0
  2
DC_IMAGEDIMGROUP_11
 70
     0
 10
0.0
 20
0.0
 30
0.0
  3
DC_IMAGEDIMGROUP_11
  1

  0
LINE
  5
177
  8
LAYER0014
  6
CONTINUOUS
 62
     7
 10
-171.9959948162322
 20
18.53804764488154
 30
0.0
 11
-142.9959948162322
 21
18.53804764488154
 31
0.0
  0
INSERT
  5
178
  8
LAYER0014
 62
     7
  2
_OPEN30
 10
-171.9959948162322
 20
18.53804764488154
 30
0.0
 41
2.499995396844351
 42
2.500007167085477
 50
180.0
  0
INSERT
  5
179
  8
LAYER0014
 62
     7
  2
_OPEN30
 10
-142.9959948162322
 20
18.53804764488154
 30
0.0
 41
2.499995396844351
 42
2.500007167085477
 50
360.0
  0
TEXT
  5
17A
  8
LAYER0014
 62
     7
 10
-160.2388677219634
 20
20.13804764488154
 30
0.0
 40
4.0
  1
29
 41
0.93333333333333
  7
DCSTYLE1
 72
     5
 11
-153.8388677219634
 21
20.13804764488154
 31
0.0
  0
ENDBLK
  5
DD
  8
0
  0
BLOCK
  8
0
  2
DC_IMAGEDIMGROUP_12
 70
     0
 10
0.0
 20
0.0
 30
0.0
  3
DC_IMAGEDIMGROUP_12
  1

  0
LINE
  5
17B
  8
LAYER0014
  6
CONTINUOUS
 62
     7
 10
-142.9959948162322
 20
18.53804764488154
 30
0.0
 11
-124.9959948162322
 21
18.53804764488154
 31
0.0
  0
INSERT
  5
17C
  8
LAYER0014
 62
     7
  2
_OPEN30
 10
-142.9959948162322
 20
18.53804764488154
 30
0.0
 41
2.499995396844351
 42
2.500007167085477
 50
180.0
  0
INSERT
  5
17D
  8
LAYER0014
 62
     7
  2
_OPEN30
 10
-124.9959948162322
 20
18.53804764488154
 30
0.0
 41
2.499995396844351
 42
2.500007167085477
 50
360.0
  0
TEXT
  5
17E
  8
LAYER0014
 62
     7
 10
-136.7388677219634
 20
20.13804764488154
 30
0.0
 40
4.0
  1
18
 41
0.9081081081081049
  7
DCSTYLE1
 72
     5
 11
-130.3388677219634
 21
20.13804764488154
 31
0.0
  0
ENDBLK
  5
E0
  8
0
  0
BLOCK
  8
0
  2
DC_IMAGEDIMGROUP_13
 70
     0
 10
0.0
 20
0.0
 30
0.0
  3
DC_IMAGEDIMGROUP_13
  1

  0
LINE
  5
17F
  8
LAYER0014
  6
CONTINUOUS
 62
     7
 10
-124.9959948162322
 20
18.53804764488154
 30
0.0
 11
-114.9960100750212
 21
18.53804764488154
 31
0.0
  0
INSERT
  5
180
  8
LAYER0014
 62
     7
  2
_OPEN30
 10
-124.9959948162322
 20
18.53804764488154
 30
0.0
 41
2.499995396844351
 42
2.500007167085477
 50
180.0
  0
INSERT
  5
181
  8
LAYER0014
 62
     7
  2
_OPEN30
 10
-114.9960100750212
 20
18.53804764488154
 30
0.0
 41
2.499995396844351
 42
2.500007167085477
 50
360.0
  0
TEXT
  5
182
  8
LAYER0014
 62
     7
 10
-122.7388677219634
 20
20.13804764488154
 30
0.0
 40
4.0
  1
10
 41
0.9081081081081089
  7
DCSTYLE1
 72
     5
 11
-116.3388677219634
 21
20.13804764488154
 31
0.0
  0
ENDBLK
  5
E3
  8
0
  0
BLOCK
  8
0
  2
DC_IMAGEDIMGROUP_14
 70
     0
 10
0.0
 20
0.0
 30
0.0
  3
DC_IMAGEDIMGROUP_14
  1

  0
LINE
  5
183
  8
LAYER0014
  6
CONTINUOUS
 62
     7
 10
-201.6653368572478
 20
-119.2792455222327
 30
0.0
 11
-184.4653246502166
 21
-119.2792455222327
 31
0.0
  0
LINE
  5
184
  8
LAYER0014
  6
CONTINUOUS
 62
     7
 10
-201.6653521160369
 20
-39.54834098121709
 30
0.0
 11
-201.6653366658692
 21
-120.2792455222327
 31
0.0
  0
LINE
  5
185
  8
LAYER0014
  6
CONTINUOUS
 62
     7
 10
-184.4653246502166
 20
-109.2792455222327
 30
0.0
 11
-184.4653246502166
 21
-120.2792455222327
 31
0.0
  0
LINE
  5
186
  8
LAYER0014
  6
CONTINUOUS
 62
     7
 10
-220.3290368572478
 20
-119.2792455222327
 30
0.0
 11
-201.6653368572478
 21
-119.2792455222327
 31
0.0
  0
INSERT
  5
187
  8
LAYER0014
 62
     7
  2
_OPEN30
 10
-201.6653368572478
 20
-119.2792455222327
 30
0.0
 41
2.499995396844351
 42
2.500007167085477
 50
360.0
  0
LINE
  5
188
  8
LAYER0014
  6
CONTINUOUS
 62
     7
 10
-179.4653246502166
 20
-119.2792455222327
 30
0.0
 11
-184.4653246502166
 21
-119.2792455222327
 31
0.0
  0
INSERT
  5
189
  8
LAYER0014
 62
     7
  2
_OPEN30
 10
-184.4653246502166
 20
-119.2792455222327
 30
0.0
 41
2.499995396844351
 42
2.500007167085477
 50
180.0
  0
TEXT
  5
18A
  8
LAYER0014
 62
     7
 10
-219.3290368572478
 20
-118.2792455222327
 30
0.0
 40
4.0
  1
17.2
 41
1.002985074626866
  7
DCSTYLE1
 72
     5
 11
-206.5290368572478
 21
-118.2792455222327
 31
0.0
  0
ENDBLK
  5
E6
  8
0
  0
BLOCK
  8
0
  2
DC_IMAGEDIMGROUP_15
 70
     0
 10
0.0
 20
0.0
 30
0.0
  3
DC_IMAGEDIMGROUP_15
  1

  0
LINE
  5
18B
  8
LAYER0014
  6
CONTINUOUS
 62
     7
 10
-184.4653246502166
 20
-119.2792455222327
 30
0.0
 11
-142.9959948162322
 21
-119.2792455222327
 31
0.0
  0
INSERT
  5
18C
  8
LAYER0014
 62
     7
  2
_OPEN30
 10
-184.4653246502166
 20
-119.2792455222327
 30
0.0
 41
2.499995396844351
 42
2.500007167085477
 50
180.0
  0
INSERT
  5
18D
  8
LAYER0014
 62
     7
  2
_OPEN30
 10
-142.9959948162322
 20
-119.2792455222327
 30
0.0
 41
2.499995396844351
 42
2.500007167085477
 50
360.0
  0
LINE
  5
18E
  8
LAYER0014
  6
CONTINUOUS
 62
     7
 10
-184.4653246502166
 20
-109.2792455222327
 30
0.0
 11
-184.4653246502166
 21
-120.2792455222327
 31
0.0
  0
LINE
  5
18F
  8
LAYER0014
  6
CONTINUOUS
 62
     7
 10
-142.9960100750212
 20
-10.87333602211065
 30
0.0
 11
-142.9959946754761
 21
-120.2792455222327
 31
0.0
  0
TEXT
  5
190
  8
LAYER0014
 62
     7
 10
-174.9306597332244
 20
-118.2792455222327
 30
0.0
 40
4.0
  1
MAX56.5
 41
0.9116279069767432
  7
DCSTYLE1
 72
     5
 11
-152.5306597332244
 21
-118.2792455222327
 31
0.0
  0
ENDBLK
  5
E9
  8
0
  0
BLOCK
  8
0
  2
DC_IMAGEDIMGROUP_16
 70
     0
 10
0.0
 20
0.0
 30
0.0
  3
DC_IMAGEDIMGROUP_16
  1

  0
LINE
  5
191
  8
LAYER0014
  6
CONTINUOUS
 62
     7
 10
-112.4560100750212
 20
-9.33333602211065
 30
0.0
 11
-44.52047754328296
 21
-9.33333602211065
 31
0.0
  0
LINE
  5
192
  8
LAYER0014
  6
CONTINUOUS
 62
     7
 10
-46.80648065607593
 20
-9.33333602211065
 30
0.0
 11
-46.80648065607593
 21
68.91666207054072
 31
0.0
  0
INSERT
  5
193
  8
LAYER0014
 62
     7
  2
_OPEN30
 10
-46.80648065607593
 20
-9.33333602211065
 30
0.0
 41
2.499995396844351
 42
2.500007167085477
 50
270.0
  0
TEXT
  5
194
  8
LAYER0014
 62
     7
 10
-48.43081308409009
 20
21.72661818516523
 30
0.0
 40
4.0
  1
M90×P1.25
 50
89.9
 41
0.8894117647058819
  7
DCSTYLE1
 72
     5
 11
-48.38054762715222
 21
50.52657432026791
 31
0.0
  0
ENDBLK
  5
EC
  8
0
  0
BLOCK
  8
0
  2
DC_IMAGEDIMGROUP_17
 70
     0
 10
0.0
 20
0.0
 30
0.0
  3
DC_IMAGEDIMGROUP_17
  1

  0
LINE
  5
195
  8
0
  6
CONTINUOUS
 62
     9
 10
-171.9959613434484
 20
84.66659770200727
 30
0.0
 11
-171.9959613434484
 21
172.0845657944633
 31
0.0
  0
LINE
  5
196
  8
0
  6
CONTINUOUS
 62
     9
 10
-184.4653246502166
 20
149.1666696999353
 30
0.0
 11
-184.4653246502166
 21
172.0845657944633
 31
0.0
  0
LINE
  5
197
  8
0
  6
CONTINUOUS
 62
     9
 10
-184.4653246502166
 20
171.0845657944633
 30
0.0
 11
-171.9959613434484
 21
171.0845657944633
 31
0.0
  0
LINE
  5
198
  8
0
  6
CONTINUOUS
 62
     9
 10
-210.7971746502166
 20
171.0845657944633
 30
0.0
 11
-184.4653246502166
 21
171.0845657944633
 31
0.0
  0
INSERT
  5
199
  8
0
 62
     9
  2
_OPEN30
 10
-184.4653246502166
 20
171.0845657944633
 30
0.0
 41
2.499995396844351
 42
2.500007167085477
 50
360.0
  0
LINE
  5
19A
  8
0
  6
CONTINUOUS
 62
     9
 10
-166.9959613434484
 20
171.0845657944633
 30
0.0
 11
-171.9959613434484
 21
171.0845657944633
 31
0.0
  0
INSERT
  5
19B
  8
0
 62
     9
  2
_OPEN30
 10
-171.9959613434484
 20
171.0845657944633
 30
0.0
 41
2.499995396844351
 42
2.500007167085477
 50
180.0
  0
TEXT
  5
19C
  8
0
 62
     7
 10
-209.7971746502166
 20
172.0845657944633
 30
0.0
 40
4.0
  1
MAX27.5
 41
0.9116279069767443
  7
DCSTYLE1
 72
     5
 11
-187.3971746502166
 21
172.0845657944633
 31
0.0
  0
ENDBLK
  5
EF
  8
0
  0
BLOCK
  8
0
  2
DC_GROUP_4
 70
     0
 10
0.0
 20
0.0
 30
0.0
  3
DC_GROUP_4
  1

  0
LINE
  5
19D
  8
0
  6
CONTINUOUS
 62
     7
 10
-132.2404418013611
 20
-89.33333792945928
 30
0.0
 11
-124.0464992973532
 21
-99.33411936808024
 31
0.0
  0
INSERT
  5
19E
  8
0
 62
     7
  2
_OPEN30
 10
-132.2404418013611
 20
-89.33333792945928
 30
0.0
 41
2.499995396844351
 42
2.500007167085477
 50
129.3287988482994
  0
LINE
  5
19F
  8
0
  6
CONTINUOUS
 62
     7
 10
-124.0464992973532
 20
-99.33411936808024
 30
0.0
 11
-104.8464992973532
 21
-99.33411936808024
 31
0.0
  0
TEXT
  5
1A0
  8
0
 62
     7
 10
-124.0464992973532
 20
-99.33411936808024
 30
0.0
 40
4.0
  1
M10×20
 41
0.847058823529412
  7
DCSTYLE1
 72
     5
 11
-104.8464992973532
 21
-99.33411936808024
 31
0.0
  0
ENDBLK
  5
F2
  8
0
  0
BLOCK
  8
0
  2
DC_IMAGEDIMGROUP_18
 70
     0
 10
0.0
 20
0.0
 30
0.0
  3
DC_IMAGEDIMGROUP_18
  1

  0
LINE
  5
1A1
  8
0
  6
CONTINUOUS
 62
     9
 10
-215.1163495192683
 20
-8.083337929459276
 30
0.0
 11
-215.1163495192683
 21
79.41666207054071
 31
0.0
  0
INSERT
  5
1A2
  8
0
 62
     9
  2
_OPEN30
 10
-215.1163495192683
 20
-8.083337929459276
 30
0.0
 41
2.499995396844351
 42
2.500007167085477
 50
270.0
  0
INSERT
  5
1A3
  8
0
 62
     9
  2
_OPEN30
 10
-215.1163495192683
 20
79.41666207054071
 30
0.0
 41
2.499995396844351
 42
2.500007167085477
 50
90.0
  0
LINE
  5
1A4
  8
0
  6
CONTINUOUS
 62
     9
 10
-141.9960100750212
 20
-8.083337929459276
 30
0.0
 11
-216.1163495192683
 21
-8.083337929459276
 31
0.0
  0
LINE
  5
1A5
  8
0
  6
CONTINUOUS
 62
     9
 10
-141.9960100750212
 20
79.41666207054071
 30
0.0
 11
-216.1163495192683
 21
79.41666207054071
 31
0.0
  0
TEXT
  5
1A6
  8
0
 62
     7
 10
-216.1163495192683
 20
24.46666207054073
 30
0.0
 40
4.0
  1
φ87.5Ｈ7
 50
90.0
 41
0.9560975609756088
  7
DCSTYLE1
 72
     5
 11
-216.1163495192683
 21
46.86666207054071
 31
0.0
  0
ENDBLK
  5
F5
  8
0
  0
BLOCK
  8
0
  2
DC_IMAGEDIMGROUP_19
 70
     0
 10
0.0
 20
0.0
 30
0.0
  3
DC_IMAGEDIMGROUP_19
  1

  0
LINE
  5
1A7
  8
0
  6
CONTINUOUS
 62
     9
 10
-203.2570408586509
 20
0.6666620705407167
 30
0.0
 11
-203.2570408586509
 21
70.66666207054072
 31
0.0
  0
INSERT
  5
1A8
  8
0
 62
     9
  2
_OPEN30
 10
-203.2570408586509
 20
0.6666620705407167
 30
0.0
 41
2.499995396844351
 42
2.500007167085477
 50
270.0
  0
INSERT
  5
1A9
  8
0
 62
     9
  2
_OPEN30
 10
-203.2570408586509
 20
70.66666207054072
 30
0.0
 41
2.499995396844351
 42
2.500007167085477
 50
90.0
  0
LINE
  5
1AA
  8
0
  6
CONTINUOUS
 62
     9
 10
-171.9960100750212
 20
0.6666620705407169
 30
0.0
 11
-204.2570408586509
 21
0.6666620705407168
 31
0.0
  0
LINE
  5
1AB
  8
0
  6
CONTINUOUS
 62
     9
 10
-171.9960100750212
 20
70.66666207054072
 30
0.0
 11
-204.2570408586509
 21
70.66666207054072
 31
0.0
  0
TEXT
  5
1AC
  8
0
 62
     7
 10
-204.2570408586509
 20
26.84666207054072
 30
0.0
 40
4.0
  1
φ70
 50
90.0
 41
0.9163636363636387
  7
DCSTYLE1
 72
     5
 11
-204.2570408586509
 21
36.44666207054074
 31
0.0
  0
TEXT
  5
1AD
  8
0
 62
     7
 10
-206.4570408586509
 20
37.44666207054074
 30
0.0
 40
2.2
  1
+0.5
 50
90.0
 41
0.9205479452054783
  7
DCSTYLE1
 72
     5
 11
-206.4570408586509
 21
44.48666207054073
 31
0.0
  0
TEXT
  5
1AE
  8
0
 62
     7
 10
-204.0570408586509
 20
37.44666207054074
 30
0.0
 40
2.2
  1
　0
 50
90.0
 41
0.9600000000000027
  7
DCSTYLE1
 72
     5
 11
-204.0570408586509
 21
40.96666207054075
 31
0.0
  0
ENDBLK
  5
F8
  8
0
  0
BLOCK
  8
0
  2
DC_IMAGEDIMGROUP_20
 70
     0
 10
0.0
 20
0.0
 30
0.0
  3
DC_IMAGEDIMGROUP_20
  1

  0
LINE
  5
1AF
  8
0
  6
CONTINUOUS
 62
     9
 10
-188.6653521160369
 20
-90.33333792945928
 30
0.0
 11
-188.6653521160369
 21
-134.4715596701819
 31
0.0
  0
LINE
  5
1B0
  8
0
  6
CONTINUOUS
 62
     9
 10
-184.4653246502166
 20
-77.83333792945928
 30
0.0
 11
-184.4653246502166
 21
-134.4715596701819
 31
0.0
  0
LINE
  5
1B1
  8
0
  6
CONTINUOUS
 62
     9
 10
-188.6653521160369
 20
-133.4715596701819
 30
0.0
 11
-184.4653246502166
 21
-133.4715596701819
 31
0.0
  0
LINE
  5
1B2
  8
0
  6
CONTINUOUS
 62
     9
 10
-78.66535211603687
 20
-88.33333792945928
 30
0.0
 11
-78.66535211603687
 21
-134.4715596701819
 31
0.0
  0
LINE
  5
1B3
  8
0
  6
CONTINUOUS
 62
     9
 10
-202.1972021160369
 20
-133.4715596701819
 30
0.0
 11
-188.6653521160369
 21
-133.4715596701819
 31
0.0
  0
INSERT
  5
1B4
  8
0
 62
     9
  2
_OPEN30
 10
-188.6653521160369
 20
-133.4715596701819
 30
0.0
 41
2.499995396844351
 42
2.500007167085477
 50
360.0
  0
LINE
  5
1B5
  8
0
  6
CONTINUOUS
 62
     9
 10
-184.4653246502166
 20
-133.4715596701819
 30
0.0
 11
-78.66535211603687
 21
-133.4715596701819
 31
0.0
  0
INSERT
  5
1B6
  8
0
 62
     9
  2
_OPEN30
 10
-184.4653246502166
 20
-133.4715596701819
 30
0.0
 41
2.499995396844351
 42
2.500007167085477
 50
180.0
  0
INSERT
  5
1B7
  8
0
 62
     9
  2
_OPEN30
 10
-78.66535211603687
 20
-133.4715596701819
 30
0.0
 41
2.499995396844351
 42
2.500007167085477
 50
360.0
  0
TEXT
  5
1B8
  8
0
 62
     7
 10
-201.1972021160369
 20
-132.4715596701819
 30
0.0
 40
4.0
  1
4.2
 41
1.072340425531914
  7
DCSTYLE1
 72
     5
 11
-191.5972021160369
 21
-132.4715596701819
 31
0.0
  0
TEXT
  5
1B9
  8
0
 62
     7
 10
-139.5653383831267
 20
-132.4715596701819
 30
0.0
 40
4.0
  1
105.8
 41
0.9655172413793105
  7
DCSTYLE1
 72
     5
 11
-123.5653383831267
 21
-132.4715596701819
 31
0.0
  0
ENDBLK
  5
FB
  8
0
  0
BLOCK
  8
0
  2
DC_IMAGEDIMGROUP_21
 70
     0
 10
0.0
 20
0.0
 30
0.0
  3
DC_IMAGEDIMGROUP_21
  1

  0
LINE
  5
1BA
  8
0
  6
CONTINUOUS
 62
     9
 10
-131.9653399090056
 20
-95.86178640335736
 30
0.0
 11
-131.9653399090056
 21
-108.8406946017364
 31
0.0
  0
LINE
  5
1BB
  8
0
  6
CONTINUOUS
 62
     9
 10
-184.4653399090056
 20
-77.83333792945928
 30
0.0
 11
-184.4653399090056
 21
-108.8406946017364
 31
0.0
  0
LINE
  5
1BC
  8
0
  6
CONTINUOUS
 62
     9
 10
-184.4653399090056
 20
-107.8406946017364
 30
0.0
 11
-131.9653399090056
 21
-107.8406946017364
 31
0.0
  0
INSERT
  5
1BD
  8
0
 62
     9
  2
_OPEN30
 10
-184.4653399090056
 20
-107.8406946017364
 30
0.0
 41
2.499995396844351
 42
2.500007167085477
 50
180.0
  0
INSERT
  5
1BE
  8
0
 62
     9
  2
_OPEN30
 10
-131.9653399090056
 20
-107.8406946017364
 30
0.0
 41
2.499995396844351
 42
2.500007167085477
 50
360.0
  0
TEXT
  5
1BF
  8
0
 62
     7
 10
-164.6153399090056
 20
-106.8406946017364
 30
0.0
 40
4.0
  1
52.5
 41
1.002985074626866
  7
DCSTYLE1
 72
     5
 11
-151.8153399090056
 21
-106.8406946017364
 31
0.0
  0
ENDBLK
  5
FE
  8
0
  0
BLOCK
  8
0
  2
DC_GROUP_5
 70
     0
 10
0.0
 20
0.0
 30
0.0
  3
DC_GROUP_5
  1

  0
LINE
  5
1C0
  8
0
  6
CONTINUOUS
 62
     5
 10
213.9827976313725
 20
98.4167027947936
 30
0.0
 11
216.2327995536211
 21
94.51958305583042
 31
0.0
  0
LINE
  5
1C1
  8
0
  6
CONTINUOUS
 62
     5
 10
215.0072887065107
 20
98.14220582436315
 30
0.0
 11
213.9827759363051
 21
98.41672331023554
 31
0.0
  0
LINE
  5
1C2
  8
0
  6
CONTINUOUS
 62
     5
 10
213.7083210441335
 20
97.39216321081827
 30
0.0
 11
213.9828423065503
 21
98.4166907661629
 31
0.0
  0
LINE
  5
1C3
  8
0
  6
CONTINUOUS
 62
     5
 10
216.2328774470957
 20
94.51955525895627
 30
0.0
 11
216.5073987095125
 21
95.5440828143009
 31
0.0
  0
LINE
  5
1C4
  8
0
  6
CONTINUOUS
 62
     5
 10
216.2327880582417
 20
94.51961266814564
 30
0.0
 11
215.208260549178
 21
94.79413410328488
 31
0.0
  0
LINE
  5
1C5
  8
0
  6
CONTINUOUS
 62
     5
 10
207.1125812548119
 20
95.31622296551387
 30
0.0
 11
220.1029638665634
 21
102.81621983627
 31
0.0
  0
LINE
  5
1C6
  8
0
  6
CONTINUOUS
 62
     5
 10
212.4687214035666
 20
104.7906832917516
 30
0.0
 11
211.7020106199327
 21
104.1698133890297
 31
0.0
  0
LINE
  5
1C7
  8
0
  6
CONTINUOUS
 62
     5
 10
212.4687407231292
 20
104.7907016840857
 30
0.0
 11
211.8478802996982
 21
105.557400470281
 31
0.0
  0
LINE
  5
1C8
  8
0
  6
CONTINUOUS
 62
     5
 10
220.1029698777675
 20
102.8162246833485
 30
0.0
 11
216.3529709655525
 21
109.3114168151306
 31
0.0
  0
LINE
  5
1C9
  8
0
  6
CONTINUOUS
 62
     5
 10
203.3625856890139
 20
101.811407393779
 30
0.0
 11
216.3529683007655
 21
109.3114042645351
 31
0.0
  0
LINE
  5
1CA
  8
0
  6
CONTINUOUS
 62
     5
 10
207.1125810420686
 20
95.31621761194813
 30
0.0
 11
201.4875838658384
 21
105.0590037448555
 31
0.0
  0
LINE
  5
1CB
  8
0
  6
CONTINUOUS
 62
     5
 10
201.4875853431163
 20
105.0590040471578
 30
0.0
 11
203.4361427348791
 21
106.1840035777713
 31
0.0
  0
LINE
  5
1CC
  8
0
  6
CONTINUOUS
 62
     5
 10
203.9986538119218
 20
105.2097215018475
 30
0.0
 11
203.4361578613108
 21
106.1839935904786
 31
0.0
  0
LINE
  5
1CD
  8
0
  6
CONTINUOUS
 62
     5
 10
203.9986427386042
 20
105.2097244689367
 30
0.0
 11
205.2976809997794
 21
105.9597241560124
 31
0.0
  0
LINE
  5
1CE
  8
0
  6
CONTINUOUS
 62
     5
 10
205.8601726166741
 20
104.9854424074578
 30
0.0
 11
205.2976728513674
 21
105.9597211033391
 31
0.0
  0
LINE
  5
1CF
  8
0
  6
CONTINUOUS
 62
     5
 10
205.8601989863747
 20
104.9854444175064
 30
0.0
 11
207.1592372475499
 21
105.735444104582
 31
0.0
  0
LINE
  5
1D0
  8
0
  6
CONTINUOUS
 62
     5
 10
207.9092059032311
 20
104.4364014172315
 30
0.0
 11
207.1592063353647
 21
105.7354394719301
 31
0.0
  0
LINE
  5
1D1
  8
0
  6
CONTINUOUS
 62
     5
 10
208.0331675608056
 20
107.2217970834808
 30
0.0
 11
208.3076888232225
 21
108.2463246388254
 31
0.0
  0
LINE
  5
1D2
  8
0
  6
CONTINUOUS
 62
     5
 10
205.7445387662334
 20
106.7665006630593
 30
0.0
 11
208.3076497346703
 21
108.2463126760855
 31
0.0
  0
LINE
  5
1D3
  8
0
  6
CONTINUOUS
 62
     5
 10
208.3076454690681
 20
108.2463420497227
 30
0.0
 11
207.2831326988625
 21
108.5208595355951
 31
0.0
  0
ARC
  5
1D4
  8
0
  6
CONTINUOUS
 62
     5
 10
211.7893259721117
 20
102.255117270736
 30
0.0
 40
2.625001907348633
 50
75.00008446424582
 51
9.999936717382647
  0
TEXT
  5
1D5
  8
0
 62
     5
 10
213.9567541697806
 20
94.70200730293992
 30
0.0
 40
2.5
  1
F
 50
119.9999866787421
 41
1.085973374983852
  7
DCSTYLE1
 72
     5
 11
212.857852982862
 21
96.60536101315836
 31
0.0
  0
TEXT
  5
1D6
  8
0
 62
     5
 10
216.5715038655479
 20
105.211344639494
 30
0.0
 40
2.5
  1
N min
 50
119.9999866787419
 41
1.082812500000001
  7
DCSTYLE1
 72
     5
 11
210.3840063572636
 21
115.9284104499187
 31
0.0
  0
TEXT
  5
1D7
  8
0
 62
     5
 10
208.5622306501688
 20
115.5261263019258
 30
0.0
 40
1.25
  1
-1
 50
119.9999866787418
 41
1.021621743408411
  7
DCSTYLE1
 72
     5
 11
207.4372309690976
 21
117.4746839542892
 31
0.0
  0
TEXT
  5
1D8
  8
0
 62
     5
 10
207.3019853401748
 20
109.633305222084
 30
0.0
 40
2.5
  1
ΣS
 50
119.9999866787419
 41
1.265934348106386
  7
DCSTYLE1
 72
     5
 11
204.6646231770233
 21
114.201352939368
 31
0.0
  0
ENDBLK
  5
101
  8
0
  0
BLOCK
  8
0
  2
DC_GROUP_6
 70
     0
 10
0.0
 20
0.0
 30
0.0
  3
DC_GROUP_6
  1

  0
LINE
  5
1D9
  8
LAYER0014
  6
CONTINUOUS
 62
     7
 10
109.3720036530546
 20
-36.86407429484186
 30
0.0
 11
77.70471686907878
 21
-97.16666960124553
 31
0.0
  0
INSERT
  5
1DA
  8
LAYER0014
 62
     7
  2
_OPEN30
 10
109.3720036530546
 20
-36.86407429484186
 30
0.0
 41
2.499995396844351
 42
2.500007167085477
 50
62.29425282686245
  0
LINE
  5
1DB
  8
LAYER0014
  6
CONTINUOUS
 62
     7
 10
77.70471598676012
 20
-97.16666617652959
 30
0.0
 11
47.075046797307
 21
-97.16666617652959
 31
0.0
  0
TEXT
  5
1DC
  8
LAYER0014
 62
     7
 10
48.23805186322497
 20
-95.5666661765296
 30
0.0
 40
4.0
  1
PCD133.35
 41
0.8894117647058821
  7
DCSTYLE1
 72
     5
 11
77.03805186322496
 21
-95.5666661765296
 31
0.0
  0
ENDBLK
  5
104
  8
0
  0
BLOCK
  8
0
  2
DC_GROUP_7
 70
     0
 10
0.0
 20
0.0
 30
0.0
  3
DC_GROUP_7
  1

  0
LINE
  5
1DD
  8
LAYER0014
  6
CONTINUOUS
 62
     7
 10
134.2441715969923
 20
-27.91074410884164
 30
0.0
 11
188.3713721662319
 21
-97.16665505101741
 31
0.0
  0
INSERT
  5
1DE
  8
LAYER0014
 62
     7
  2
_OPEN30
 10
134.2441715969923
 20
-27.91074410884164
 30
0.0
 41
2.499995396844351
 42
2.500007167085477
 50
128.009529784548
  0
LINE
  5
1DF
  8
LAYER0014
  6
CONTINUOUS
 62
     7
 10
188.3713877396898
 20
-97.16666617652959
 30
0.0
 11
235.0856516557054
 21
-97.16666617652959
 31
0.0
  0
TEXT
  5
1E0
  8
LAYER0014
 62
     7
 10
189.3713724809007
 20
-95.5666661765296
 30
0.0
 40
4.0
  1
3-M8×16 PCD120
 41
0.8138408304498271
  7
DCSTYLE1
 72
     5
 11
234.1713724809007
 21
-95.5666661765296
 31
0.0
  0
ENDBLK
  5
107
  8
0
  0
BLOCK
  8
0
  2
DC_IMAGEDIMGROUP_22
 70
     0
 10
0.0
 20
0.0
 30
0.0
  3
DC_IMAGEDIMGROUP_22
  1

  0
LINE
  5
1E1
  8
LAYER0014
  6
CONTINUOUS
 62
     7
 10
17.00184239854114
 20
-19.44308235409301
 30
0.0
 11
1.009402811922556
 21
-28.6763246570049
 31
0.0
  0
LINE
  5
1E2
  8
LAYER0014
  6
CONTINUOUS
 62
     7
 10
27.00185530279468
 20
-36.76360047238376
 30
0.0
 11
11.00941117369247
 21
-45.99684539790065
 31
0.0
  0
LINE
  5
1E3
  8
LAYER0014
  6
CONTINUOUS
 62
     7
 10
2.989171642885836
 20
-27.53330705278461
 30
0.0
 11
12.98917092762987
 21
-44.85381151397622
 31
0.0
  0
INSERT
  5
1E4
  8
LAYER0014
 62
     7
  2
_OPEN30
 10
2.989171642885836
 20
-27.53330705278461
 30
0.0
 41
2.499995396844351
 42
2.500007167085477
 50
120.0000034028506
  0
INSERT
  5
1E5
  8
LAYER0014
 62
     7
  2
_OPEN30
 10
12.98917092762987
 20
-44.85381151397622
 30
0.0
 41
2.499995396844351
 42
2.500007167085477
 50
300.0000034028507
  0
TEXT
  5
1E6
  8
LAYER0014
 62
     7
 10
6.174772831545692
 20
-29.85102009621544
 30
0.0
 40
4.0
  1
20H8
 50
300.0
 41
0.8506329113924049
  7
DCSTYLE1
 72
     5
 11
12.57477283154569
 21
-40.93614526465625
 31
0.0
  0
ENDBLK
  5
10A
  8
0
  0
BLOCK
  8
0
  2
DC_IMAGEDIMGROUP_23
 70
     0
 10
0.0
 20
0.0
 30
0.0
  3
DC_IMAGEDIMGROUP_23
  1

  0
LINE
  5
1E7
  8
LAYER0014
  6
CONTINUOUS
 62
     7
 10
33.25183038711312
 20
-47.58890725746161
 30
0.0
 11
5.756614346264442
 21
-63.46327304768307
 31
0.0
  0
LINE
  5
1E8
  8
LAYER0014
  6
CONTINUOUS
 62
     7
 10
10.75182369773642
 20
-8.617767596576263
 30
0.0
 11
-16.74338795780902
 21
-24.49213478606192
 31
0.0
  0
LINE
  5
1E9
  8
LAYER0014
  6
CONTINUOUS
 62
     7
 10
7.736374817034417
 20
-62.32026216165446
 30
0.0
 11
-14.7636257492096
 21
-23.34911638719314
 31
0.0
  0
INSERT
  5
1EA
  8
LAYER0014
 62
     7
  2
_OPEN30
 10
7.736374817034417
 20
-62.32026216165446
 30
0.0
 41
2.499995396844351
 42
2.500007167085477
 50
299.9999989665127
  0
INSERT
  5
1EB
  8
LAYER0014
 62
     7
  2
_OPEN30
 10
-14.7636257492096
 20
-23.34911638719314
 30
0.0
 41
2.499995396844351
 42
2.500007167085477
 50
119.9999989665127
  0
TEXT
  5
1EC
  8
LAYER0014
 62
     7
 10
-3.728004268063684
 20
-39.26342992836471
 30
0.0
 40
4.0
  1
45
 50
300.0
 41
0.9081081081081079
  7
DCSTYLE1
 72
     5
 11
-0.5280042680636834
 21
-44.80599251258511
 31
0.0
  0
ENDBLK
  5
10D
  8
0
  0
BLOCK
  8
0
  2
DC_IMAGEDIMGROUP_24
 70
     0
 10
0.0
 20
0.0
 30
0.0
  3
DC_IMAGEDIMGROUP_24
  1

  0
LINE
  5
1ED
  8
LAYER0014
  6
CONTINUOUS
 62
     7
 10
270.4114182572679
 20
35.66666207054072
 30
0.0
 11
271.6405222611742
 21
35.66666207054072
 31
0.0
  0
LINE
  5
1EE
  8
LAYER0014
  6
CONTINUOUS
 62
     7
 10
246.0980562221029
 20
101.2786662469146
 30
0.0
 11
252.9931523334039
 21
105.2595408696802
 31
0.0
  0
ARC
  5
1EF
  8
LAYER0014
  6
CONTINUOUS
 62
     7
 10
132.4547312455492
 20
35.66666207054072
 30
0.0
 40
136.8997802734375
 50
0.0
 51
29.99999741973147
  0
INSERT
  5
1F0
  8
LAYER0014
 62
     7
  2
_OPEN30
 10
269.3545115189867
 20
35.66666207054072
 30
0.0
 41
2.499995396844351
 42
2.500007167085477
 50
270.5231536162098
  0
INSERT
  5
1F1
  8
LAYER0014
 62
     7
  2
_OPEN30
 10
251.0134218174385
 20
104.1165468680659
 30
0.0
 41
2.499995396844351
 42
2.500007167085477
 50
119.4768438035222
  0
TEXT
  5
1F2
  8
LAYER0014
 62
     7
 10
264.9929122790493
 20
76.14948274424385
 30
0.0
 40
4.0
  1
30ﾟ
 50
285.0
 41
0.9163636363636395
  7
DCSTYLE1
 72
     5
 11
267.4775751120335
 21
66.87659481186877
 31
0.0
  0
ENDBLK
  5
110
  8
0
  0
BLOCK
  8
0
  2
DC_IMAGEDIMGROUP_25
 70
     0
 10
0.0
 20
0.0
 30
0.0
  3
DC_IMAGEDIMGROUP_25
  1

  0
LINE
  5
1F3
  8
LAYER0014
  6
CONTINUOUS
 62
     7
 10
132.4547556486557
 20
171.403192689954
 30
0.0
 11
132.4547920894168
 21
174.2756072409396
 31
0.0
  0
LINE
  5
1F4
  8
LAYER0014
  6
CONTINUOUS
 62
     7
 10
72.66901744909902
 20
95.45239696254765
 30
0.0
 11
34.44337239173309
 21
133.6779743541754
 31
0.0
  0
ARC
  5
1F5
  8
LAYER0014
  6
CONTINUOUS
 62
     7
 10
132.4547159867601
 20
35.66667732932978
 30
0.0
 40
136.3229370117188
 50
89.99998201391067
 51
135.000014002001
  0
INSERT
  5
1F6
  8
LAYER0014
 62
     7
  2
_OPEN30
 10
132.4547587807764
 20
171.9896143410418
 30
0.0
 41
2.499995396844351
 42
2.500007167085477
 50
0.5253493268391666
  0
INSERT
  5
1F7
  8
LAYER0014
 62
     7
  2
_OPEN30
 10
36.05981923743271
 20
132.0615269645024
 30
0.0
 41
2.499995396844351
 42
2.500007167085477
 50
224.4746466890726
  0
TEXT
  5
1F8
  8
LAYER0014
 62
     7
 10
75.2386567274598
 20
161.2627894339524
 30
0.0
 40
4.0
  1
45ﾟ
 50
22.39999999999999
 41
0.9163636363636356
  7
DCSTYLE1
 72
     5
 11
84.114298650138
 21
164.921065046915
 31
0.0
  0
ENDBLK
  5
113
  8
0
  0
BLOCK
  8
0
  2
DC_IMAGEDIMGROUP_26
 70
     0
 10
0.0
 20
0.0
 30
0.0
  3
DC_IMAGEDIMGROUP_26
  1

  0
LINE
  5
1F9
  8
LAYER0014
  6
CONTINUOUS
 62
     7
 10
72.66903416738819
 20
95.45240182440403
 30
0.0
 11
34.44339885225453
 21
133.6779855846896
 31
0.0
  0
LINE
  5
1FA
  8
LAYER0014
  6
CONTINUOUS
 62
     7
 10
51.10927650737295
 20
57.46310823246744
 30
0.0
 11
-1.431234226462138
 21
71.54127782340515
 31
0.0
  0
ARC
  5
1FB
  8
LAYER0014
  6
CONTINUOUS
 62
     7
 10
132.4547388749437
 20
35.66665444114619
 30
0.0
 40
136.3229522705078
 50
135.000014002001
 51
165.0000080066379
  0
INSERT
  5
1FC
  8
LAYER0014
 62
     7
  2
_OPEN30
 10
36.05983133602045
 20
132.0615148659094
 30
0.0
 41
2.499995396844351
 42
2.500007167085477
 50
45.52538125612436
  0
INSERT
  5
1FD
  8
LAYER0014
 62
     7
  2
_OPEN30
 10
0.7768736303690105
 20
70.9496123724022
 30
0.0
 41
2.499995396844351
 42
2.500007167085477
 50
254.4746407525147
  0
TEXT
  5
1FE
  8
LAYER0014
 62
     7
 10
10.60994371839056
 20
100.4711781206566
 30
0.0
 40
4.0
  1
30ﾟ
 50
60.00000000000001
 41
0.9163636363636377
  7
DCSTYLE1
 72
     5
 11
15.40994371839057
 21
108.7850219969873
 31
0.0
  0
ENDBLK
  5
116
  8
0
  0
BLOCK
  8
0
  2
DC_GROUP_8
 70
     0
 10
0.0
 20
0.0
 30
0.0
  3
DC_GROUP_8
  1

  0
LINE
  5
1FF
  8
LAYER0014
  6
CONTINUOUS
 62
     7
 10
-77.12535211603686
 20
91.66666207054072
 30
0.0
 11
-20.16464258234546
 21
91.66666207054072
 31
0.0
  0
LINE
  5
200
  8
LAYER0014
  6
CONTINUOUS
 62
     7
 10
-67.57137116355132
 20
35.66666207054072
 30
0.0
 11
-54.01231426233014
 21
35.66666207054072
 31
0.0
  0
LINE
  5
201
  8
LAYER0014
  6
CONTINUOUS
 62
     7
 10
-32.5995078531833
 20
35.66666207054072
 30
0.0
 11
-20.16464258234546
 21
35.66666207054072
 31
0.0
  0
LINE
  5
202
  8
LAYER0014
  6
CONTINUOUS
 62
     7
 10
-22.45064569513843
 20
35.66666207054072
 30
0.0
 11
-22.45064569513843
 21
91.66666207054072
 31
0.0
  0
INSERT
  5
203
  8
LAYER0014
 62
     7
  2
_OPEN30
 10
-22.45064569513843
 20
35.66666207054072
 30
0.0
 41
2.499995396844351
 42
2.500007167085477
 50
270.0
  0
INSERT
  5
204
  8
LAYER0014
 62
     7
  2
_OPEN30
 10
-22.45064569513843
 20
91.66666207054072
 30
0.0
 41
2.499995396844351
 42
2.500007167085477
 50
90.0
  0
TEXT
  5
205
  8
LAYER0014
 62
     7
 10
-24.06939307238171
 20
52.92661331128775
 30
0.0
 40
4.0
  1
MAX66.5
 50
89.9
 41
0.9116279069767445
  7
DCSTYLE1
 72
     5
 11
-24.03029771698559
 21
75.32657919414541
 31
0.0
  0
ENDBLK
  5
119
  8
0
  0
BLOCK
  8
0
  2
DC_IMAGEDIMGROUP_27
 70
     0
 10
0.0
 20
0.0
 30
0.0
  3
DC_IMAGEDIMGROUP_27
  1

  0
LINE
  5
206
  8
0
  6
CONTINUOUS
 62
     9
 10
92.95471610806749
 20
42.33268540168933
 30
0.0
 11
92.95471610806749
 21
50.16764821358462
 31
0.0
  0
LINE
  5
207
  8
0
  6
CONTINUOUS
 62
     9
 10
171.9547158654527
 20
42.33268540168933
 30
0.0
 11
171.9547158654527
 21
50.16764821358462
 31
0.0
  0
LINE
  5
208
  8
0
  6
CONTINUOUS
 62
     9
 10
92.95471610806749
 20
49.16764821358462
 30
0.0
 11
171.9547158654527
 21
49.16764821358462
 31
0.0
  0
INSERT
  5
209
  8
0
 62
     9
  2
_OPEN30
 10
92.95471610806749
 20
49.16764821358462
 30
0.0
 41
2.499995396844351
 42
2.500007167085477
 50
180.0
  0
INSERT
  5
20A
  8
0
 62
     9
  2
_OPEN30
 10
171.9547158654527
 20
49.16764821358462
 30
0.0
 41
2.499995396844351
 42
2.500007167085477
 50
360.0
  0
TEXT
  5
20B
  8
0
 62
     7
 10
124.4547159867601
 20
50.16764821358462
 30
0.0
 40
4.0
  1
PCD79
 41
0.8484848484848485
  7
DCSTYLE1
 72
     5
 11
140.4547159867601
 21
50.16764821358462
 31
0.0
  0
ENDBLK
  5
11C
  8
0
  0
BLOCK
  8
0
  2
DC_GROUP_9
 70
     0
 10
0.0
 20
0.0
 30
0.0
  3
DC_GROUP_9
  1

  0
LINE
  5
20C
  8
0
  6
CONTINUOUS
 62
     7
 10
173.6318648402404
 20
38.27380834970241
 30
0.0
 11
207.9570736814553
 21
150.6726868210966
 31
0.0
  0
INSERT
  5
20D
  8
0
 62
     7
  2
_OPEN30
 10
173.6318648402404
 20
38.27380834970241
 30
0.0
 41
2.499995396844351
 42
2.500007167085477
 50
253.0179854755657
  0
LINE
  5
20E
  8
0
  6
CONTINUOUS
 62
     7
 10
207.9570736814553
 20
150.6726868210966
 30
0.0
 11
227.1570736814553
 21
150.6726868210966
 31
0.0
  0
TEXT
  5
20F
  8
0
 62
     7
 10
207.9570736814553
 20
150.6726868210966
 30
0.0
 40
4.0
  1
2-φ6.2
 41
0.9081081081081089
  7
DCSTYLE1
 72
     5
 11
227.1570736814553
 21
150.6726868210966
 31
0.0
  0
ENDBLK
  5
11F
  8
0
  0
BLOCK
  8
0
  2
_OPEN30
 70
     0
 10
0.0
 20
0.0
 30
0.0
  3
_OPEN30
  1

  0
LINE
  5
126
  8
0
  6
BYBLOCK
 62
     0
 10
-1.0
 20
0.267949
 30
0.0
 11
0.0
 21
0.0
 31
0.0
  0
LINE
  5
127
  8
0
  6
BYBLOCK
 62
     0
 10
0.0
 20
0.0
 30
0.0
 11
-1.0
 21
-0.267949
 31
0.0
  0
LINE
  5
128
  8
0
  6
BYBLOCK
 62
     0
 10
0.0
 20
0.0
 30
0.0
 11
-1.0
 21
0.0
 31
0.0
  0
ENDBLK
  5
125
  8
0
  0
ENDSEC
  0
SECTION
  2
ENTITIES
  0
LINE
  5
210
  8
ZUWAKU
  6
CONTINUOUS
 62
     3
 10
-277.0
 20
-190.0
 30
0.0
 11
-277.0
 21
190.0
 31
0.0
  0
LINE
  5
211
  8
ZUWAKU
  6
CONTINUOUS
 62
     3
 10
277.0
 20
-190.0
 30
0.0
 11
277.0
 21
190.0
 31
0.0
  0
LINE
  5
212
  8
ZUWAKU
  6
CONTINUOUS
 62
     3
 10
-277.0
 20
-190.0
 30
0.0
 11
277.0
 21
-190.0
 31
0.0
  0
LINE
  5
213
  8
ZUWAKU
  6
CONTINUOUS
 62
     3
 10
-277.0
 20
189.9999999999999
 30
0.0
 11
277.0
 21
189.9999999999999
 31
0.0
  0
LINE
  5
214
  8
ZUWAKU
  6
CONTINUOUS
 62
     3
 10
97.00000000000001
 20
-190.0
 30
0.0
 11
97.00000000000001
 21
-130.0
 31
0.0
  0
LINE
  5
215
  8
ZUWAKU
  6
CONTINUOUS
 62
     3
 10
97.00000000000001
 20
-176.0
 30
0.0
 11
277.0
 21
-176.0
 31
0.0
  0
LINE
  5
216
  8
ZUWAKU
  6
CONTINUOUS
 62
     3
 10
146.0
 20
-162.0
 30
0.0
 11
277.0
 21
-162.0
 31
0.0
  0
LINE
  5
217
  8
ZUWAKU
  6
CONTINUOUS
 62
     3
 10
146.0
 20
-148.0
 30
0.0
 11
277.0
 21
-148.0
 31
0.0
  0
LINE
  5
218
  8
ZUWAKU
  6
CONTINUOUS
 62
     3
 10
146.0
 20
-138.0
 30
0.0
 11
277.0
 21
-138.0
 31
0.0
  0
LINE
  5
219
  8
ZUWAKU
  6
CONTINUOUS
 62
     3
 10
146.0
 20
-176.0
 30
0.0
 11
146.0
 21
-130.0
 31
0.0
  0
LINE
  5
21A
  8
ZUWAKU
  6
CONTINUOUS
 62
     3
 10
255.0
 20
-176.0
 30
0.0
 11
255.0
 21
-130.0
 31
0.0
  0
LINE
  5
21B
  8
ZUWAKU
  6
CONTINUOUS
 62
     3
 10
171.0
 20
-190.0
 30
0.0
 11
171.0
 21
-176.0
 31
0.0
  0
LINE
  5
21C
  8
ZUWAKU
  6
CONTINUOUS
 62
     3
 10
262.0
 20
-188.0
 30
0.0
 11
272.0
 21
-188.0
 31
0.0
  0
LINE
  5
21D
  8
ZUWAKU
  6
CONTINUOUS
 62
     3
 10
267.0
 20
-178.0
 30
0.0
 11
262.0
 21
-188.0
 31
0.0
  0
LINE
  5
21E
  8
ZUWAKU
  6
CONTINUOUS
 62
     3
 10
267.0
 20
-178.0
 30
0.0
 11
272.0
 21
-188.0
 31
0.0
  0
LINE
  5
21F
  8
ZUWAKU
  6
CONTINUOUS
 62
     3
 10
97.00000000000001
 20
-130.0
 30
0.0
 11
277.0
 21
-130.0
 31
0.0
  0
LINE
  5
220
  8
ZUWAKU
  6
CONTINUOUS
 62
     3
 10
226.0
 20
-176.0
 30
0.0
 11
226.0
 21
-148.0
 31
0.0
  0
LINE
  5
221
  8
ZUWAKU
  6
CONTINUOUS
 62
     4
 10
105.0
 20
-172.0
 30
0.0
 11
105.0
 21
-130.0
 31
0.0
  0
LINE
  5
222
  8
ZUWAKU
  6
CONTINUOUS
 62
     4
 10
109.0
 20
-172.0
 30
0.0
 11
109.0
 21
-130.0
 31
0.0
  0
LINE
  5
223
  8
ZUWAKU
  6
CONTINUOUS
 62
     4
 10
121.5
 20
-176.0
 30
0.0
 11
121.5
 21
-130.0
 31
0.0
  0
LINE
  5
224
  8
ZUWAKU
  6
CONTINUOUS
 62
     4
 10
97.00000000000001
 20
-137.0
 30
0.0
 11
146.0
 21
-137.0
 31
0.0
  0
LINE
  5
225
  8
ZUWAKU
  6
CONTINUOUS
 62
     4
 10
97.00000000000001
 20
-144.0
 30
0.0
 11
146.0
 21
-144.0
 31
0.0
  0
LINE
  5
226
  8
ZUWAKU
  6
CONTINUOUS
 62
     4
 10
97.00000000000001
 20
-165.0
 30
0.0
 11
146.0
 21
-165.0
 31
0.0
  0
LINE
  5
227
  8
ZUWAKU
  6
CONTINUOUS
 62
     4
 10
97.00000000000001
 20
-172.0
 30
0.0
 11
146.0
 21
-172.0
 31
0.0
  0
LINE
  5
228
  8
ZUWAKU
  6
CONTINUOUS
 62
     4
 10
255.0
 20
-166.0
 30
0.0
 11
277.0
 21
-166.0
 31
0.0
  0
LINE
  5
229
  8
ZUWAKU
  6
CONTINUOUS
 62
     4
 10
153.0
 20
-139.5
 30
0.0
 11
153.0
 21
-130.0
 31
0.0
  0
LINE
  5
22A
  8
ZUWAKU
  6
CONTINUOUS
 62
     4
 10
202.0
 20
-148.0
 30
0.0
 11
202.0
 21
-146.5
 31
0.0
  0
LINE
  5
22B
  8
ZUWAKU
  6
CONTINUOUS
 62
     4
 10
226.0
 20
-148.0
 30
0.0
 11
226.0
 21
-146.5
 31
0.0
  0
LINE
  5
22C
  8
ZUWAKU
  6
CONTINUOUS
 62
     4
 10
243.0
 20
-148.0
 30
0.0
 11
243.0
 21
-146.5
 31
0.0
  0
LINE
  5
22D
  8
ZUWAKU
  6
CONTINUOUS
 62
     4
 10
202.0
 20
-139.5
 30
0.0
 11
202.0
 21
-130.0
 31
0.0
  0
LINE
  5
22E
  8
ZUWAKU
  6
CONTINUOUS
 62
     4
 10
226.0
 20
-139.5
 30
0.0
 11
226.0
 21
-130.0
 31
0.0
  0
LINE
  5
22F
  8
ZUWAKU
  6
CONTINUOUS
 62
     4
 10
243.0
 20
-139.5
 30
0.0
 11
243.0
 21
-130.0
 31
0.0
  0
LINE
  5
230
  8
ZUWAKU
  6
CONTINUOUS
 62
     4
 10
97.00000000000001
 20
-151.0
 30
0.0
 11
146.0
 21
-151.0
 31
0.0
  0
LINE
  5
231
  8
ZUWAKU
  6
CONTINUOUS
 62
     4
 10
97.00000000000001
 20
-158.0
 30
0.0
 11
146.0
 21
-158.0
 31
0.0
  0
LINE
  5
232
  8
ZUWAKU
  6
CONTINUOUS
 62
     4
 10
101.0
 20
-130.5
 30
0.0
 11
98.00000000000001
 21
-136.5
 31
0.0
  0
LINE
  5
233
  8
ZUWAKU
  6
CONTINUOUS
 62
     4
 10
101.0
 20
-130.5
 30
0.0
 11
104.0
 21
-136.5
 31
0.0
  0
LINE
  5
234
  8
ZUWAKU
  6
CONTINUOUS
 62
     4
 10
98.00000000000001
 20
-136.5
 30
0.0
 11
104.0
 21
-136.5
 31
0.0
  0
LINE
  5
235
  8
ZUWAKU
  6
CONTINUOUS
 62
     4
 10
101.0
 20
-158.5
 30
0.0
 11
98.00000000000001
 21
-164.5
 31
0.0
  0
LINE
  5
236
  8
ZUWAKU
  6
CONTINUOUS
 62
     4
 10
101.0
 20
-158.5
 30
0.0
 11
104.0
 21
-164.5
 31
0.0
  0
LINE
  5
237
  8
ZUWAKU
  6
CONTINUOUS
 62
     4
 10
98.00000000000001
 20
-164.5
 30
0.0
 11
104.0
 21
-164.5
 31
0.0
  0
LINE
  5
238
  8
ZUWAKU
  6
CONTINUOUS
 62
     4
 10
101.0
 20
-151.5
 30
0.0
 11
98.00000000000001
 21
-157.5
 31
0.0
  0
LINE
  5
239
  8
ZUWAKU
  6
CONTINUOUS
 62
     4
 10
101.0
 20
-151.5
 30
0.0
 11
104.0
 21
-157.5
 31
0.0
  0
LINE
  5
23A
  8
ZUWAKU
  6
CONTINUOUS
 62
     4
 10
98.00000000000001
 20
-157.5
 30
0.0
 11
104.0
 21
-157.5
 31
0.0
  0
LINE
  5
23B
  8
ZUWAKU
  6
CONTINUOUS
 62
     4
 10
101.0
 20
-144.5
 30
0.0
 11
98.00000000000001
 21
-150.5
 31
0.0
  0
LINE
  5
23C
  8
ZUWAKU
  6
CONTINUOUS
 62
     4
 10
101.0
 20
-144.5
 30
0.0
 11
104.0
 21
-150.5
 31
0.0
  0
LINE
  5
23D
  8
ZUWAKU
  6
CONTINUOUS
 62
     4
 10
98.00000000000001
 20
-150.5
 30
0.0
 11
104.0
 21
-150.5
 31
0.0
  0
LINE
  5
23E
  8
ZUWAKU
  6
CONTINUOUS
 62
     4
 10
101.0
 20
-137.5
 30
0.0
 11
98.00000000000001
 21
-143.5
 31
0.0
  0
LINE
  5
23F
  8
ZUWAKU
  6
CONTINUOUS
 62
     4
 10
101.0
 20
-137.5
 30
0.0
 11
104.0
 21
-143.5
 31
0.0
  0
LINE
  5
240
  8
ZUWAKU
  6
CONTINUOUS
 62
     4
 10
98.00000000000001
 20
-143.5
 30
0.0
 11
104.0
 21
-143.5
 31
0.0
  0
LINE
  5
241
  8
ZUWAKU
  6
CONTINUOUS
 62
     4
 10
172.6666666666666
 20
-176.0
 30
0.0
 11
172.6666666666666
 21
-162.0
 31
0.0
  0
LINE
  5
242
  8
ZUWAKU
  6
CONTINUOUS
 62
     4
 10
199.3333333333333
 20
-176.0
 30
0.0
 11
199.3333333333333
 21
-161.9509415757253
 31
0.0
  0
LINE
  5
243
  8
ZUWAKU
  6
CONTINUOUS
 62
     4
 10
212.6666666666666
 20
-167.5
 30
0.0
 11
212.6666666666666
 21
-161.9509415757253
 31
0.0
  0
LINE
  5
244
  8
ZUWAKU
  6
CONTINUOUS
 62
     4
 10
226.0
 20
-155.0
 30
0.0
 11
255.0
 21
-155.0
 31
0.0
  0
LINE
  5
245
  8
ZUWAKU
  6
CONTINUOUS
 62
     4
 10
146.0
 20
-166.0
 30
0.0
 11
226.0
 21
-166.0
 31
0.0
  0
TEXT
  5
247
  8
ZUWAKU
 62
     7
 10
149.5932301474747
 20
-130.8211887289559
 30
0.0
 40
2.6656
  1
符号
 41
0.8
  7
DCSTYLE0
  0
TEXT
  5
248
  8
ZUWAKU
 62
     7
 10
162.4141311219058
 20
-135.8245525019963
 30
0.0
 40
4.0
  1
品       名
 41
0.8400000000000003
  7
DCSTYLE1
 72
     5
 11
191.2141311219058
 21
-135.8245525019963
 31
0.0
  0
TEXT
  5
249
  8
ZUWAKU
 62
     7
 10
207.2331564413096
 20
-135.8245525019963
 30
0.0
 40
4.0
  1
材  料
 41
0.8960000000000009
  7
DCSTYLE1
 72
     5
 11
220.0331564413096
 21
-135.8245525019963
 31
0.0
  0
TEXT
  5
24A
  8
ZUWAKU
 62
     7
 10
229.516061684855
 20
-135.8245525019963
 30
0.0
 40
4.0
  1
個 数
 41
0.9333333333333329
  7
DCSTYLE1
 72
     5
 11
239.116061684855
 21
-135.8245525019963
 31
0.0
  0
TEXT
  5
24B
  8
ZUWAKU
 62
     7
 10
245.721810952888
 20
-133.5649080050572
 30
0.0
 40
2.5
  1
単重量
 41
0.9882352941176471
  7
DCSTYLE1
 72
     5
 11
251.721810952888
 21
-133.5649080050572
 31
0.0
  0
TEXT
  5
24C
  8
ZUWAKU
 62
     7
 10
244.7089516236359
 20
-137.3631304897525
 30
0.0
 40
2.5
  1
(kg)
 41
1.12
  7
DCSTYLE1
 72
     5
 11
252.7089516236359
 21
-137.3631304897525
 31
0.0
  0
TEXT
  5
24D
  8
ZUWAKU
 62
     7
 10
259.1421970654778
 20
-135.8245525019963
 30
0.0
 40
4.0
  1
記  事
 41
0.8960000000000009
  7
DCSTYLE1
 72
     5
 11
271.9421970654778
 21
-135.8245525019963
 31
0.0
  0
TEXT
  5
24E
  8
ZUWAKU
 62
     7
 10
258.8450794551645
 20
-165.4873041997729
 30
0.0
 40
3.0
  1
コード番号
 41
0.9655172413793105
  7
DCSTYLE1
 72
     5
 11
270.8450794551645
 21
-165.4873041997729
 31
0.0
  0
TEXT
  5
24F
  8
ZUWAKU
 62
     7
 10
101.9119920158317
 20
-175.1879010540338
 30
0.0
 40
2.5
  1
訂 正 来 歴
 41
0.8909090909090911
  7
DCSTYLE1
 72
     5
 11
115.9119920158317
 21
-175.1879010540338
 31
0.0
  0
TEXT
  5
250
  8
ZUWAKU
 62
     7
 10
125.890334846765
 20
-175.2166697391651
 30
0.0
 40
2.5
  1
工 事 番 号
 41
0.8909090909090911
  7
DCSTYLE1
 72
     5
 11
139.890334846765
 21
-175.2166697391651
 31
0.0
  0
TEXT
  5
251
  8
ZUWAKU
 62
     7
 10
100.9648378466029
 20
-165.9634530565915
 30
0.0
 40
2.0825
  1
記号
 41
0.8
  7
DCSTYLE0
  0
TEXT
  5
252
  8
ZUWAKU
 62
     7
 10
106.9042249067618
 20
-165.9634530565915
 30
0.0
 40
2.0825
  1
理由
 41
0.8
  7
DCSTYLE0
  0
TEXT
  5
253
  8
ZUWAKU
 62
     7
 10
111.6193667909843
 20
-169.8786046700178
 30
0.0
 40
3.0
  1
日 付
 41
0.9333333333333319
  7
DCSTYLE1
 72
     5
 11
118.8193667909843
 21
-169.8786046700178
 31
0.0
  0
TEXT
  5
254
  8
ZUWAKU
 62
     7
 10
153.4481689819652
 20
-165.7187911464244
 30
0.0
 40
3.0
  1
承   認
 41
0.875
  7
DCSTYLE1
 72
     5
 11
165.4481689819652
 21
-165.7187911464244
 31
0.0
  0
TEXT
  5
255
  8
ZUWAKU
 62
     7
 10
179.863228033234
 20
-165.4873041997729
 30
0.0
 40
3.0
  1
検   図
 41
0.875
  7
DCSTYLE1
 72
     5
 11
191.863228033234
 21
-165.4873041997729
 31
0.0
  0
TEXT
  5
256
  8
ZUWAKU
 62
     7
 10
201.4771920983751
 20
-165.4873041997729
 30
0.0
 40
3.0
  1
担  当
 41
0.8959999999999996
  7
DCSTYLE1
 72
     5
 11
211.0771920983751
 21
-165.4873041997729
 31
0.0
  0
TEXT
  5
257
  8
ZUWAKU
 62
     7
 10
214.6770574841112
 20
-165.4873041997729
 30
0.0
 40
3.0
  1
製  図
 41
0.8959999999999996
  7
DCSTYLE1
 72
     5
 11
224.2770574841112
 21
-165.4873041997729
 31
0.0
  0
TEXT
  5
258
  8
ZUWAKU
 62
     7
 10
226.9462372304199
 20
-153.2184960272417
 30
0.0
 40
3.0
  1
作図
 41
1.018181818181821
  7
DCSTYLE1
 72
     5
 11
231.7462372304199
 21
-153.2184960272417
 31
0.0
  0
TEXT
  5
259
  8
ZUWAKU
 62
     7
 10
228.1036719636776
 20
-160.2371566401815
 30
0.0
 40
4.0
  1
第 三 角 法
 41
0.8909090909090912
  7
DCSTYLE1
 72
     5
 11
250.5036719636776
 21
-160.2371566401815
 31
0.0
  0
TEXT
  5
25A
  8
ZUWAKU
 62
     7
 10
227.409211123723
 20
-166.413251986379
 30
0.0
 40
3.0
  1
尺度
 41
1.018181818181821
  7
DCSTYLE1
 72
     5
 11
232.209211123723
 21
-166.413251986379
 31
0.0
  0
TEXT
  5
25C
  8
ZUWAKU
 62
     3
 10
105.379154370034
 20
-185.9272077185016
 30
0.0
 40
7.0
  1
株式会社 野村製作所
 41
0.5756623947008424
  7
DCSTYLE2
 72
     5
 11
161.379154370034
 21
-185.9272077185016
 31
0.0
  0
TEXT
  5
25E
  8
ZUWAKU
 62
     3
 10
177.8624671645867
 20
-187.1216685584563
 30
0.0
 40
8.0
  1
２－
 41
0.7689423076923078
  7
DCSTYLE3
 72
     5
 11
193.8624671645867
 21
-187.1216685584563
 31
0.0
  0
TEXT
  5
25F
  8
ZUWAKU
 62
     3
 10
194.7744247889935
 20
-187.1216685584563
 30
0.0
 40
8.0
  1
9310047
 41
1.537884615384616
  7
DCSTYLE3
 72
     5
 11
250.7744247889935
 21
-187.1216685584563
 31
0.0
  0
TEXT
  5
260
  8
ZUWAKU
 62
     6
 10
231.3155727792442
 20
-146.0216474852281
 30
0.0
 40
4.0
  1
一式
 41
0.8909090909090901
  7
DCSTYLE1
 72
     5
 11
236.9155727792442
 21
-146.0216474852281
 31
0.0
  0
TEXT
  5
261
  8
ZUWAKU
 62
     6
 10
162.2812187032356
 20
-145.8589000228561
 30
0.0
 40
6.0
  1
外 形 図
 41
0.7903225806451614
  7
DCSTYLE1
 72
     5
 11
183.2812187032356
 21
-145.8589000228561
 31
0.0
  0
TEXT
  5
262
  8
ZUWAKU
 62
     6
 10
149.274786315161
 20
-154.2619116635389
 30
0.0
 40
5.0
  1
日鋼プレシジォン
 41
0.8340425531914895
  7
DCSTYLE1
 72
     5
 11
177.274786315161
 21
-154.2619116635389
 31
0.0
  0
TEXT
  5
263
  8
ZUWAKU
 62
     6
 10
172.5966285499721
 20
-160.4523460920329
 30
0.0
 40
5.0
  1
ＧＯ3－１0型ﾁｬｯｸ
 41
0.8125628140703519
  7
DCSTYLE1
 72
     5
 11
211.0966285499721
 21
-160.4523460920329
 31
0.0
  0
TEXT
  5
264
  8
ZUWAKU
 62
     4
 10
236.744629548433
 20
-172.297487439201
 30
0.0
 40
3.0
  1
1/1
 41
0.8320754716981147
  7
DCSTYLE1
 72
     5
 11
243.044629548433
 21
-172.297487439201
 31
0.0
  0
TEXT
  5
265
  8
0
 62
     7
 10
258.2243685381495
 20
-142.9749378353619
 30
0.0
 40
3.0
  1
標　準
 41
0.9882352941176457
  7
DCSTYLE1
 72
     5
 11
265.4243685381495
 21
-142.9749378353619
 31
0.0
  0
TEXT
  5
266
  8
0
 62
     7
 10
-16.49932123224781
 20
52.61583351829462
 30
0.0
 40
4.0
  1
MIN45.5
 50
90.0
 41
0.9719008264462813
  7
DCSTYLE1
 72
     5
 11
-16.49932123224781
 21
75.01583351829463
 31
0.0
  0
TEXT
  5
267
  8
0
 62
     7
 10
-174.9683380995686
 20
-124.9821993521854
 30
0.0
 40
4.0
  1
MIN26.5
 41
0.9719008264462813
  7
DCSTYLE1
 72
     5
 11
-152.5683380995686
 21
-124.9821993521854
 31
0.0
  0
TEXT
  5
268
  8
0
 62
     7
 10
-210.0421185690803
 20
165.8011859842476
 30
0.0
 40
4.0
  1
MIN-2.5
 41
0.9259842519685042
  7
DCSTYLE1
 72
     5
 11
-187.6421185690803
 21
165.8011859842476
 31
0.0
  0
LINE
  5
269
  8
0
  6
CENTER
 62
     7
 10
-199.4319994549041
 20
35.66666207054072
 30
0.0
 11
-69.16533685724781
 21
35.66666207054072
 31
0.0
  0
LINE
  5
26A
  8
0
  6
CENTER
 62
     7
 10
-105.6053698162322
 20
-24.33333602211065
 30
0.0
 11
-72.54088617365406
 21
-24.33333602211065
 31
0.0
  0
LINE
  5
26B
  8
0
  6
CENTER
 62
     7
 10
-102.2985460857634
 20
137.6666696999353
 30
0.0
 11
-49.6955340008025
 21
137.6666696999353
 31
0.0
  0
LINE
  5
26C
  8
0
  6
CENTER
 62
     7
 10
-102.44345880549
 20
107.6666620705407
 30
0.0
 11
-49.55062128107593
 21
107.6666620705407
 31
0.0
  0
LINE
  5
26D
  8
0
  6
CENTER
 62
     7
 10
-209.3752062420134
 20
-31.0083409812171
 30
0.0
 11
-154.4968358570897
 21
-31.0083409812171
 31
0.0
  0
LINE
  5
26E
  8
0
  6
CENTER
 62
     7
 10
-131.9653399090056
 20
-57.91048105591538
 30
0.0
 11
-131.9653399090056
 21
-94.86178640335736
 31
0.0
  0
LINE
  5
26F
  8
0
  6
CENTER
 62
     7
 10
94.47693700195373
 20
13.74017936813754
 30
0.0
 11
102.1438696942996
 21
18.16668453287334
 31
0.0
  0
LINE
  5
270
  8
0
  6
CENTER
 62
     7
 10
170.4324949715665
 20
13.74017936813754
 30
0.0
 11
162.7655622792206
 21
18.16668453287334
 31
0.0
  0
LINE
  5
271
  8
0
  6
CENTER
 62
     7
 10
213.4948992872503
 20
82.45523339230897
 30
0.0
 11
245.4956684211308
 21
100.93088606603
 31
0.0
  0
LINE
  5
272
  8
0
  6
DASHED2
 62
     7
 10
-126.9653399090056
 20
-69.33333792945928
 30
0.0
 11
-126.9653399090056
 21
-89.33333792945928
 31
0.0
  0
LINE
  5
273
  8
0
  6
DASHED2
 62
     7
 10
-136.9653399090056
 20
-69.33333792945928
 30
0.0
 11
-136.9653399090056
 21
-89.33333792945928
 31
0.0
  0
LINE
  5
274
  8
0
  6
DASHED2
 62
     7
 10
-136.9653399090056
 20
-69.33333792945928
 30
0.0
 11
-126.9653399090056
 21
-69.33333792945928
 31
0.0
  0
LINE
  5
275
  8
0
  6
DASHED2
 62
     7
 10
-136.2653399090056
 20
-63.33333792945928
 30
0.0
 11
-127.6653399090056
 21
-63.33333792945928
 31
0.0
  0
LINE
  5
276
  8
0
  6
DASHED2
 62
     7
 10
-127.6653399090056
 20
-63.33333792945928
 30
0.0
 11
-127.6653399090056
 21
-89.33333792945928
 31
0.0
  0
LINE
  5
277
  8
0
  6
DASHED2
 62
     7
 10
-136.2653399090056
 20
-63.33333792945928
 30
0.0
 11
-136.2653399090056
 21
-89.33333792945928
 31
0.0
  0
LINE
  5
278
  8
0
  6
DASHED2
 62
     7
 10
-127.6653399090056
 20
-63.33333792945928
 30
0.0
 11
-131.9653399090056
 21
-60.85073177194388
 31
0.0
  0
LINE
  5
279
  8
0
  6
DASHED2
 62
     7
 10
-136.2653399090056
 20
-63.33333792945928
 30
0.0
 11
-131.9653399090056
 21
-60.85073177194388
 31
0.0
  0
LINE
  5
27A
  8
0
  6
DASHED2
 62
     7
 10
225.887383523533
 20
83.83653481015872
 30
0.0
 11
220.887383523533
 21
92.49678884800309
 31
0.0
  0
LINE
  5
27B
  8
0
  6
DASHED2
 62
     7
 10
220.3412311008264
 20
81.4427525928078
 30
0.0
 11
216.0412311008264
 21
88.89057106535398
 31
0.0
  0
LINE
  5
27C
  8
0
  6
DASHED2
 62
     7
 10
216.0412311008264
 20
88.89057106535398
 30
0.0
 11
216.0412311008264
 21
83.92535875032323
 31
0.0
  0
LINE
  5
27D
  8
0
  6
DASHED2
 62
     7
 10
220.3412311008263
 20
81.44275259280784
 30
0.0
 11
216.0412311008264
 21
83.92535875032323
 31
0.0
  0
LINE
  5
27E
  8
0
  6
DASHED2
 62
     7
 10
220.887383523533
 20
92.49678884800309
 30
0.0
 11
238.2078915992218
 21
102.4967888480031
 31
0.0
  0
LINE
  5
27F
  8
0
  6
DASHED2
 62
     7
 10
225.887383523533
 20
83.83653481015872
 30
0.0
 11
243.2078915992218
 21
93.83653481015872
 31
0.0
  0
LINE
  5
280
  8
0
  6
DASHED2
 62
     7
 10
216.0412311008264
 20
88.89057106535398
 30
0.0
 11
238.5578915992218
 21
101.890571065354
 31
0.0
  0
LINE
  5
281
  8
0
  6
DASHED2
 62
     7
 10
220.3412311008264
 20
81.4427525928078
 30
0.0
 11
242.8578915992218
 21
94.4427525928078
 31
0.0
  0
LINE
  5
282
  8
0
  6
CONTINUOUS
 62
     3
 10
-188.6653521160369
 20
160.6666696999353
 30
0.0
 11
-188.6653521160369
 21
-89.33333792945928
 31
0.0
  0
LINE
  5
283
  8
0
  6
CONTINUOUS
 62
     3
 10
-78.66535211603687
 20
158.6666696999353
 30
0.0
 11
-78.66535211603687
 21
150.6666696999353
 31
0.0
  0
LINE
  5
284
  8
0
  6
CONTINUOUS
 62
     3
 10
-188.6653368572478
 20
-89.33333792945928
 30
0.0
 11
-80.66535211603687
 21
-89.33333792945928
 31
0.0
  0
LINE
  5
285
  8
0
  6
CONTINUOUS
 62
     3
 10
-188.6653368572478
 20
160.6666696999353
 30
0.0
 11
-122.6653368572478
 21
160.6666696999353
 31
0.0
  0
LINE
  5
286
  8
0
  6
CONTINUOUS
 62
     3
 10
-79.6653487929922
 20
159.6666550676791
 30
0.0
 11
-78.6653477314027
 21
158.6666540060896
 31
0.0
  0
LINE
  5
287
  8
0
  6
CONTINUOUS
 62
     3
 10
-78.665353463374
 20
-87.33333706792692
 30
0.0
 11
-80.66534479695997
 21
-89.33332840151289
 31
0.0
  0
LINE
  5
288
  8
0
  6
CONTINUOUS
 62
     3
 10
-184.4653399090056
 20
148.1666696999353
 30
0.0
 11
-184.4653399090056
 21
-76.83333792945928
 31
0.0
  0
LINE
  5
289
  8
0
  6
CONTINUOUS
 62
     3
 10
-188.6653368572478
 20
148.1666696999353
 30
0.0
 11
-184.4653246502166
 21
148.1666696999353
 31
0.0
  0
LINE
  5
28A
  8
0
  6
CONTINUOUS
 62
     3
 10
-188.6653368572478
 20
-76.83333792945928
 30
0.0
 11
-184.4653246502166
 21
-76.83333792945928
 31
0.0
  0
LINE
  5
28B
  8
0
  6
CONTINUOUS
 62
     3
 10
-184.4653246502166
 20
-13.33333602211065
 30
0.0
 11
-147.9959948162322
 21
-13.33333602211065
 31
0.0
  0
LINE
  5
28C
  8
0
  6
CONTINUOUS
 62
     3
 10
-81.16535211603687
 20
-16.83333602211065
 30
0.0
 11
-78.66535211603687
 21
-16.83333602211065
 31
0.0
  0
LINE
  5
28D
  8
0
  6
CONTINUOUS
 62
     3
 10
-81.16535211603687
 20
83.10082802513057
 30
0.0
 11
-81.16535211603687
 21
-16.83333602211065
 31
0.0
  0
LINE
  5
28E
  8
0
  6
CONTINUOUS
 62
     3
 10
-96.66535211603687
 20
89.87956032493526
 30
0.0
 11
-96.66535211603687
 21
72.33749947288447
 31
0.0
  0
LINE
  5
28F
  8
0
  6
CONTINUOUS
 62
     3
 10
-81.16535211603687
 20
83.10082802513057
 30
0.0
 11
-78.66535211603687
 21
83.10082802513057
 31
0.0
  0
LINE
  5
290
  8
0
  6
CONTINUOUS
 62
     3
 10
-96.66535211603687
 20
79.19538674095088
 30
0.0
 11
-81.16535211603687
 21
79.19538674095088
 31
0.0
  0
LINE
  5
291
  8
0
  6
CONTINUOUS
 62
     3
 10
-112.3487932781462
 20
72.33749947288447
 30
0.0
 11
-96.66535211603687
 21
72.33749947288447
 31
0.0
  0
LINE
  5
292
  8
0
  6
CONTINUOUS
 62
     3
 10
-122.6653521160369
 20
160.6666696999353
 30
0.0
 11
-122.6653521160369
 21
116.6666620705407
 31
0.0
  0
LINE
  5
293
  8
0
  6
CONTINUOUS
 62
     3
 10
-122.6653368572478
 20
160.6666696999353
 30
0.0
 11
-79.66535211603687
 21
160.6666696999353
 31
0.0
  0
LINE
  5
294
  8
0
  6
CONTINUOUS
 62
     3
 10
-99.66535211603687
 20
-21.18333640358038
 30
0.0
 11
-99.66535211603687
 21
-27.48333754798956
 31
0.0
  0
LINE
  5
295
  8
0
  6
CONTINUOUS
 62
     3
 10
-99.66535211603687
 20
-27.48333754798956
 30
0.0
 11
-78.66535211603687
 21
-27.48333754798956
 31
0.0
  0
LINE
  5
296
  8
0
  6
CONTINUOUS
 62
     3
 10
-99.66535211603687
 20
-21.18333640358038
 30
0.0
 11
-78.66535211603687
 21
-21.18333640358038
 31
0.0
  0
LINE
  5
297
  8
0
  6
CONTINUOUS
 62
     3
 10
-101.484023115724
 20
-24.33335017976083
 30
0.0
 11
-99.66536597753648
 21
-21.18334404691928
 31
0.0
  0
LINE
  5
298
  8
0
  6
CONTINUOUS
 62
     3
 10
-101.4840207282087
 20
-24.33335551536164
 30
0.0
 11
-99.66536359002114
 21
-27.48336164820319
 31
0.0
  0
LINE
  5
299
  8
0
  6
CONTINUOUS
 62
     3
 10
-122.6653521160369
 20
116.6666620705407
 30
0.0
 11
-122.6653521160369
 21
84.66666207054072
 31
0.0
  0
LINE
  5
29A
  8
0
  6
CONTINUOUS
 62
     3
 10
-122.6653368572478
 20
91.66666207054072
 30
0.0
 11
-79.66535211603687
 21
91.66666207054072
 31
0.0
  0
LINE
  5
29B
  8
0
  6
CONTINUOUS
 62
     3
 10
-90.66535211603687
 20
160.6666696999353
 30
0.0
 11
-90.66535211603687
 21
150.6666696999353
 31
0.0
  0
LINE
  5
29C
  8
0
  6
CONTINUOUS
 62
     3
 10
-99.66535211603687
 20
160.6666696999353
 30
0.0
 11
-99.66535211603687
 21
91.66666207054072
 31
0.0
  0
LINE
  5
29D
  8
0
  6
CONTINUOUS
 62
     3
 10
-98.66535211603687
 20
94.66666207054072
 30
0.0
 11
-78.16535211603687
 21
94.66666207054072
 31
0.0
  0
LINE
  5
29E
  8
0
  6
CONTINUOUS
 62
     3
 10
-98.66535211603687
 20
150.6666696999353
 30
0.0
 11
-78.16535211603687
 21
150.6666696999353
 31
0.0
  0
LINE
  5
29F
  8
0
  6
CONTINUOUS
 62
     3
 10
-98.66535211603687
 20
150.6666696999353
 30
0.0
 11
-98.66535211603687
 21
94.66666207054072
 31
0.0
  0
LINE
  5
2A0
  8
0
  6
CONTINUOUS
 62
     3
 10
-78.16535211603687
 20
150.6666696999353
 30
0.0
 11
-78.16535211603687
 21
143.6666696999353
 31
0.0
  0
LINE
  5
2A1
  8
0
  6
CONTINUOUS
 62
     3
 10
-90.66535211603687
 20
94.66666207054072
 30
0.0
 11
-90.66535211603687
 21
91.66666207054072
 31
0.0
  0
LINE
  5
2A2
  8
0
  6
CONTINUOUS
 62
     3
 10
-78.66535211603687
 20
93.27932533958369
 30
0.0
 11
-78.66535211603687
 21
-87.33333792945928
 31
0.0
  0
LINE
  5
2A3
  8
0
  6
CONTINUOUS
 62
     3
 10
-78.16535211603687
 20
131.6666696999353
 30
0.0
 11
-78.16535211603687
 21
113.6666620705407
 31
0.0
  0
LINE
  5
2A4
  8
0
  6
CONTINUOUS
 62
     3
 10
-78.16535211603687
 20
101.6666620705407
 30
0.0
 11
-78.16535211603687
 21
94.66666207054072
 31
0.0
  0
LINE
  5
2A5
  8
0
  6
CONTINUOUS
 62
     3
 10
-67.66535211603687
 20
116.6666620705407
 30
0.0
 11
-67.66535211603687
 21
98.66666207054072
 31
0.0
  0
LINE
  5
2A6
  8
0
  6
CONTINUOUS
 62
     3
 10
-67.66535211603687
 20
146.6666696999353
 30
0.0
 11
-67.66535211603687
 21
128.6666620705407
 31
0.0
  0
LINE
  5
2A7
  8
0
  6
CONTINUOUS
 62
     3
 10
-55.66535211603687
 20
146.6666696999353
 30
0.0
 11
-55.66535211603687
 21
128.6666620705407
 31
0.0
  0
LINE
  5
2A8
  8
0
  6
CONTINUOUS
 62
     3
 10
-55.66535211603687
 20
116.6666620705407
 30
0.0
 11
-55.66535211603687
 21
98.66666207054072
 31
0.0
  0
LINE
  5
2A9
  8
0
  6
CONTINUOUS
 62
     3
 10
-92.66535211603687
 20
113.6666620705407
 30
0.0
 11
-92.66535211603687
 21
101.6666620705407
 31
0.0
  0
LINE
  5
2AA
  8
0
  6
CONTINUOUS
 62
     3
 10
-92.66535211603687
 20
143.6666696999353
 30
0.0
 11
-92.66535211603687
 21
131.6666696999353
 31
0.0
  0
LINE
  5
2AB
  8
0
  6
CONTINUOUS
 62
     3
 10
-98.66535211603687
 20
143.6666696999353
 30
0.0
 11
-67.66535211603687
 21
143.6666696999353
 31
0.0
  0
LINE
  5
2AC
  8
0
  6
CONTINUOUS
 62
     3
 10
-98.66535211603687
 20
131.6666696999353
 30
0.0
 11
-67.66535211603687
 21
131.6666696999353
 31
0.0
  0
LINE
  5
2AD
  8
0
  6
CONTINUOUS
 62
     3
 10
-98.66535211603687
 20
101.6666620705407
 30
0.0
 11
-67.66535211603687
 21
101.6666620705407
 31
0.0
  0
LINE
  5
2AE
  8
0
  6
CONTINUOUS
 62
     3
 10
-98.66535211603687
 20
113.6666620705407
 30
0.0
 11
-67.66535211603687
 21
113.6666620705407
 31
0.0
  0
LINE
  5
2AF
  8
0
  6
CONTINUOUS
 62
     3
 10
-67.66535211603687
 20
98.66666207054072
 30
0.0
 11
-55.66535211603687
 21
98.66666207054072
 31
0.0
  0
LINE
  5
2B0
  8
0
  6
CONTINUOUS
 62
     3
 10
-67.66535211603687
 20
116.6666620705407
 30
0.0
 11
-55.66535211603687
 21
116.6666620705407
 31
0.0
  0
LINE
  5
2B1
  8
0
  6
CONTINUOUS
 62
     3
 10
-67.66535211603687
 20
146.6666696999353
 30
0.0
 11
-55.66535211603687
 21
146.6666696999353
 31
0.0
  0
LINE
  5
2B2
  8
0
  6
CONTINUOUS
 62
     3
 10
-67.66535211603687
 20
128.6666620705407
 30
0.0
 11
-55.66535211603687
 21
128.6666620705407
 31
0.0
  0
LINE
  5
2B3
  8
0
  6
CONTINUOUS
 62
     3
 10
-147.9959948162322
 20
-13.33333602211065
 30
0.0
 11
-81.16535211603687
 21
-13.33333602211065
 31
0.0
  0
LINE
  5
2B4
  8
0
  6
CONTINUOUS
 62
     3
 10
-142.9959948162322
 20
79.66666207054072
 30
0.0
 11
-140.9959948162322
 21
79.66666207054072
 31
0.0
  0
LINE
  5
2B5
  8
0
  6
CONTINUOUS
 62
     3
 10
-126.9959948162322
 20
81.16666207054072
 30
0.0
 11
-124.9959948162322
 21
81.16666207054072
 31
0.0
  0
LINE
  5
2B6
  8
0
  6
CONTINUOUS
 62
     3
 10
-115.9959976738687
 20
84.66666581130823
 30
0.0
 11
-114.9959966122792
 21
83.66666474971873
 31
0.0
  0
LINE
  5
2B7
  8
0
  6
CONTINUOUS
 62
     3
 10
-124.9959948162322
 20
2.41666397788935
 30
0.0
 11
-114.9960100750212
 21
2.41666397788935
 31
0.0
  0
LINE
  5
2B8
  8
0
  6
CONTINUOUS
 62
     3
 10
-142.9959948162322
 20
-8.33333602211065
 30
0.0
 11
-140.9959948162322
 21
-8.33333602211065
 31
0.0
  0
LINE
  5
2B9
  8
0
  6
CONTINUOUS
 62
     3
 10
-126.9959948162322
 20
-9.83333602211065
 30
0.0
 11
-124.9959948162322
 21
-9.83333602211065
 31
0.0
  0
LINE
  5
2BA
  8
0
  6
CONTINUOUS
 62
     3
 10
-124.9959948162322
 20
-8.58333602211065
 30
0.0
 11
-114.9960100750212
 21
-8.58333602211065
 31
0.0
  0
LINE
  5
2BB
  8
0
  6
CONTINUOUS
 62
     3
 10
-171.9960100750212
 20
83.66666207054072
 30
0.0
 11
-171.9960100750212
 21
-12.33333602211065
 31
0.0
  0
LINE
  5
2BC
  8
0
  6
CONTINUOUS
 62
     3
 10
-171.9959613434484
 20
83.66659770200727
 30
0.0
 11
-170.9959418214484
 21
84.66660196666703
 31
0.0
  0
LINE
  5
2BD
  8
0
  6
CONTINUOUS
 62
     3
 10
-184.4653399090056
 20
84.66666207054072
 30
0.0
 11
-115.9960100750212
 21
84.66666207054072
 31
0.0
  0
LINE
  5
2BE
  8
0
  6
CONTINUOUS
 62
     3
 10
-142.9960100750212
 20
79.66666207054072
 30
0.0
 11
-142.9960100750212
 21
-8.33333602211065
 31
0.0
  0
LINE
  5
2BF
  8
0
  6
CONTINUOUS
 62
     3
 10
-140.9960100750212
 20
79.66666207054072
 30
0.0
 11
-140.9960100750212
 21
-8.33333602211065
 31
0.0
  0
LINE
  5
2C0
  8
0
  6
CONTINUOUS
 62
     3
 10
-140.9959948162322
 20
79.41666207054072
 30
0.0
 11
-126.9959948162322
 21
79.41666207054072
 31
0.0
  0
LINE
  5
2C1
  8
0
  6
CONTINUOUS
 62
     3
 10
-114.9960100750212
 20
83.66666207054072
 30
0.0
 11
-114.9960100750212
 21
-12.33333602211065
 31
0.0
  0
LINE
  5
2C2
  8
0
  6
CONTINUOUS
 62
     3
 10
-124.9960100750212
 20
81.16666207054072
 30
0.0
 11
-124.9960100750212
 21
-9.83333602211065
 31
0.0
  0
LINE
  5
2C3
  8
0
  6
CONTINUOUS
 62
     3
 10
-126.9960100750212
 20
81.16666207054072
 30
0.0
 11
-126.9960100750212
 21
-9.83333602211065
 31
0.0
  0
LINE
  5
2C4
  8
0
  6
CONTINUOUS
 62
     3
 10
-124.9960100750212
 20
79.91666207054072
 30
0.0
 11
-114.9960100750212
 21
79.91666207054072
 31
0.0
  0
LINE
  5
2C5
  8
0
  6
CONTINUOUS
 62
     3
 10
-171.9959492040342
 20
-12.33326010171573
 30
0.0
 11
-170.9959557288857
 21
-13.33326883403993
 31
0.0
  0
LINE
  5
2C6
  8
0
  6
CONTINUOUS
 62
     3
 10
-140.9959948162322
 20
-8.08333602211065
 30
0.0
 11
-126.9959948162322
 21
-8.08333602211065
 31
0.0
  0
LINE
  5
2C7
  8
0
  6
CONTINUOUS
 62
     3
 10
-114.9960087505714
 20
-12.3333521948282
 30
0.0
 11
-115.9960098121609
 21
-13.3333532564177
 31
0.0
  0
LINE
  5
2C8
  8
0
  6
CONTINUOUS
 62
     3
 10
-170.9960100750212
 20
70.66666207054072
 30
0.0
 11
-143.9960100750212
 21
70.66666207054072
 31
0.0
  0
LINE
  5
2C9
  8
0
  6
CONTINUOUS
 62
     3
 10
-143.9959905689929
 20
70.66663938716806
 30
0.0
 11
-142.9959875686463
 21
71.66663859429421
 31
0.0
  0
LINE
  5
2CA
  8
0
  6
CONTINUOUS
 62
     3
 10
-170.9960106422185
 20
70.66667366548677
 30
0.0
 11
-171.9960097650509
 21
71.66667666583338
 31
0.0
  0
LINE
  5
2CB
  8
0
  6
CONTINUOUS
 62
     3
 10
-170.9960100750212
 20
0.6666620705407169
 30
0.0
 11
-143.9960100750212
 21
0.6666620705407169
 31
0.0
  0
LINE
  5
2CC
  8
0
  6
CONTINUOUS
 62
     3
 10
-170.9959947126589
 20
0.6666334329799994
 30
0.0
 11
-171.9959887778349
 21
-0.3333530458369367
 31
0.0
  0
LINE
  5
2CD
  8
0
  6
CONTINUOUS
 62
     3
 10
-119.9960100750212
 20
78.16666207054071
 30
0.0
 11
-119.9960100750212
 21
72.16666207054071
 31
0.0
  0
LINE
  5
2CE
  8
0
  6
CONTINUOUS
 62
     3
 10
-115.9960100750212
 20
78.16666207054071
 30
0.0
 11
-115.9960100750212
 21
72.16666207054071
 31
0.0
  0
LINE
  5
2CF
  8
0
  6
CONTINUOUS
 62
     3
 10
-124.9960100750212
 20
70.66666207054071
 30
0.0
 11
-114.9960100750212
 21
70.66666207054071
 31
0.0
  0
LINE
  5
2D0
  8
0
  6
CONTINUOUS
 62
     3
 10
-124.9960100750212
 20
78.16666207054071
 30
0.0
 11
-114.9960100750212
 21
78.16666207054071
 31
0.0
  0
LINE
  5
2D1
  8
0
  6
CONTINUOUS
 62
     3
 10
-124.9960100750212
 20
72.16666207054071
 30
0.0
 11
-114.9960100750212
 21
72.16666207054071
 31
0.0
  0
LINE
  5
2D2
  8
0
  6
CONTINUOUS
 62
     3
 10
12.95153852001361
 20
-7.347765475808423
 30
0.0
 11
83.50773870158103
 21
33.38787119146468
 31
0.0
  0
LINE
  5
2D3
  8
0
  6
CONTINUOUS
 62
     3
 10
35.45154903136735
 20
-46.31891589912554
 30
0.0
 11
106.0077492129348
 21
-5.583279231852437
 31
0.0
  0
LINE
  5
2D4
  8
0
  6
CONTINUOUS
 62
     3
 10
158.9017205902031
 20
-5.583250997205376
 30
0.0
 11
229.4579249013017
 21
-46.31889004866412
 31
0.0
  0
LINE
  5
2D5
  8
0
  6
CONTINUOUS
 62
     3
 10
181.401709849296
 20
33.38790839248417
 30
0.0
 11
251.9579141603946
 21
-7.347730658974577
 31
0.0
  0
LINE
  5
2D6
  8
0
  6
CONTINUOUS
 62
     3
 10
41.97858988175302
 20
-54.09753285688763
 30
0.0
 11
44.17452917975551
 21
-52.82970685213369
 31
0.0
  0
LINE
  5
2D7
  8
0
  6
CONTINUOUS
 62
     3
 10
9.478572989991422
 20
2.194117626076135
 30
0.0
 11
11.67451889524372
 21
3.461947445527116
 31
0.0
  0
LINE
  5
2D8
  8
0
  6
CONTINUOUS
 62
     3
 10
12.95154205648869
 20
-7.347769360878665
 30
0.0
 11
35.45154569237214
 21
-46.31891348352764
 31
0.0
  0
LINE
  5
2D9
  8
0
  6
CONTINUOUS
 62
     3
 10
229.4579256803548
 20
-46.3188998752778
 30
0.0
 11
251.9579283625638
 21
-7.347757404441161
 31
0.0
  0
LINE
  5
2DA
  8
0
  6
CONTINUOUS
 62
     3
 10
9.478565791791283
 20
2.19411768211237
 30
0.0
 11
12.95153006514265
 21
-7.347772895813797
 31
0.0
  0
LINE
  5
2DB
  8
0
  6
CONTINUOUS
 62
     3
 10
222.9308282208407
 20
-54.09748564292136
 30
0.0
 11
229.4578650812022
 21
-46.31886698425411
 31
0.0
  0
LINE
  5
2DC
  8
0
  6
CONTINUOUS
 62
     3
 10
35.45156780312449
 20
-46.31889655407856
 30
0.0
 11
41.97860466348597
 21
-54.09751521274581
 31
0.0
  0
LINE
  5
2DD
  8
0
  6
CONTINUOUS
 62
     3
 10
72.70729441547452
 20
27.15223948597815
 30
0.0
 11
95.2072961440091
 21
-11.81890133304615
 31
0.0
  0
LINE
  5
2DE
  8
0
  6
CONTINUOUS
 62
     3
 10
169.7021871062374
 20
-11.81890339195275
 30
0.0
 11
192.2021897884464
 21
27.15223907888389
 31
0.0
  0
LINE
  5
2DF
  8
0
  6
CONTINUOUS
 62
     3
 10
175.952168627436
 20
-0.9935740069561305
 30
0.0
 11
235.7079245287727
 21
-35.49357195059589
 31
0.0
  0
LINE
  5
2E0
  8
0
  6
CONTINUOUS
 62
     3
 10
185.9521510021929
 20
16.32693597209731
 30
0.0
 11
245.7079069035295
 21
-18.17306197154245
 31
0.0
  0
LINE
  5
2E1
  8
0
  6
CONTINUOUS
 62
     3
 10
29.20154279664656
 20
-35.49360161575434
 30
0.0
 11
88.9572945684521
 21
-0.99360605630023
 31
0.0
  0
LINE
  5
2E2
  8
0
  6
CONTINUOUS
 62
     3
 10
19.20154151499351
 20
-18.17308273085293
 30
0.0
 11
78.95729700337706
 21
16.32691497436826
 31
0.0
  0
LINE
  5
2E3
  8
0
  6
CONTINUOUS
 62
     3
 10
76.35922281050786
 20
14.82691534690468
 30
0.0
 11
86.35922304892632
 21
-2.493590766099267
 31
0.0
  0
LINE
  5
2E4
  8
0
  6
CONTINUOUS
 62
     3
 10
27.86178858230976
 20
-13.17308639049683
 30
0.0
 11
37.86178882072822
 21
-30.49359250350077
 31
0.0
  0
LINE
  5
2E5
  8
0
  6
CONTINUOUS
 62
     3
 10
178.5502640160179
 20
-2.493586217756508
 30
0.0
 11
188.5502652081108
 21
14.82692154705978
 31
0.0
  0
LINE
  5
2E6
  8
0
  6
CONTINUOUS
 62
     3
 10
227.0476649136093
 20
-30.4935951407199
 30
0.0
 11
237.0476737350976
 21
-13.17307416140489
 31
0.0
  0
LINE
  5
2E7
  8
0
  6
CONTINUOUS
 62
     3
 10
220.7349362383152
 20
-52.82968049060015
 30
0.0
 11
222.9308425000686
 21
-54.0974874218689
 31
0.0
  0
LINE
  5
2E8
  8
0
  6
CONTINUOUS
 62
     3
 10
109.9547159867601
 20
160.6666696999353
 30
0.0
 11
154.9547312455492
 21
160.6666696999353
 31
0.0
  0
LINE
  5
2E9
  8
0
  6
CONTINUOUS
 62
     3
 10
154.9547312455492
 20
160.6666696999353
 30
0.0
 11
154.9547312455492
 21
79.19538674095088
 31
0.0
  0
LINE
  5
2EA
  8
0
  6
CONTINUOUS
 62
     3
 10
109.9547159867601
 20
160.6666696999353
 30
0.0
 11
109.9547159867601
 21
79.19538674095088
 31
0.0
  0
LINE
  5
2EB
  8
0
  6
CONTINUOUS
 62
     3
 10
99.95471598676012
 20
158.9034098122399
 30
0.0
 11
99.95471598676012
 21
156.3677500222009
 31
0.0
  0
LINE
  5
2EC
  8
0
  6
CONTINUOUS
 62
     3
 10
164.9547312455492
 20
158.9034098122399
 30
0.0
 11
164.9547312455492
 21
156.3677500222009
 31
0.0
  0
LINE
  5
2ED
  8
0
  6
CONTINUOUS
 62
     3
 10
99.95471550640958
 20
158.903396620575
 30
0.0
 11
109.9547004778718
 21
160.6666638286704
 31
0.0
  0
LINE
  5
2EE
  8
0
  6
CONTINUOUS
 62
     3
 10
154.9547105465512
 20
160.6666549331751
 30
0.0
 11
164.9547105449868
 21
158.9033850754188
 31
0.0
  0
LINE
  5
2EF
  8
0
  6
CONTINUOUS
 62
     3
 10
109.9547159867601
 20
91.66666207054072
 30
0.0
 11
154.9547312455492
 21
91.66666207054072
 31
0.0
  0
LINE
  5
2F0
  8
0
  6
CONTINUOUS
 62
     3
 10
122.4547159867601
 20
160.6666696999353
 30
0.0
 11
122.4547159867601
 21
91.66666207054072
 31
0.0
  0
LINE
  5
2F1
  8
0
  6
CONTINUOUS
 62
     3
 10
142.4547159867601
 20
160.6666696999353
 30
0.0
 11
142.4547159867601
 21
91.66666207054072
 31
0.0
  0
LINE
  5
2F2
  8
0
  6
CONTINUOUS
 62
     3
 10
122.4547159867601
 20
150.6666696999353
 30
0.0
 11
142.4547159867601
 21
150.6666696999353
 31
0.0
  0
LINE
  5
2F3
  8
0
  6
CONTINUOUS
 62
     3
 10
122.4547159867601
 20
94.66666207054072
 30
0.0
 11
142.4547159867601
 21
94.66666207054072
 31
0.0
  0
CIRCLE
  5
2F4
  8
0
  6
CONTINUOUS
 62
     3
 10
85.30836131146715
 20
82.81300911643916
 30
0.0
 40
7.0
  0
CIRCLE
  5
2F5
  8
0
  6
CONTINUOUS
 62
     3
 10
68.051609297307
 20
52.9234217140954
 30
0.0
 40
7.0
  0
CIRCLE
  5
2F6
  8
0
  6
CONTINUOUS
 62
     3
 10
179.6010630326585
 20
82.81300911643916
 30
0.0
 40
7.0
  0
CIRCLE
  5
2F7
  8
0
  6
CONTINUOUS
 62
     3
 10
196.8578226762132
 20
52.9234217140954
 30
0.0
 40
7.0
  0
CIRCLE
  5
2F8
  8
0
  6
CONTINUOUS
 62
     3
 10
149.7114756303148
 20
-28.73644461891241
 30
0.0
 40
7.0
  0
CIRCLE
  5
2F9
  8
0
  6
CONTINUOUS
 62
     3
 10
115.1979487138109
 20
-28.73644461891241
 30
0.0
 40
10.0
  0
CIRCLE
  5
2FA
  8
0
  6
CONTINUOUS
 62
     3
 10
149.7114756303148
 20
-28.73644461891241
 30
0.0
 40
10.0
  0
CIRCLE
  5
2FB
  8
0
  6
CONTINUOUS
 62
     3
 10
132.4547159867601
 20
-24.33333602211065
 30
0.0
 40
3.150000095367432
  0
ARC
  5
2FC
  8
0
  6
CONTINUOUS
 62
     3
 10
132.4547159867601
 20
35.66666207054072
 30
0.0
 40
123.0
 50
220.5402686209525
 51
319.4597263700912
  0
ARC
  5
2FD
  8
0
  6
CONTINUOUS
 62
     3
 10
132.4547159867601
 20
35.66666207054072
 30
0.0
 40
125.0
 50
220.369746118134
 51
319.6302488729097
  0
ARC
  5
2FE
  8
0
  6
CONTINUOUS
 62
     3
 10
132.4547159867601
 20
35.66666207054072
 30
0.0
 40
52.5
 50
115.3769488184461
 51
184.6230458694361
  0
ARC
  5
2FF
  8
0
  6
CONTINUOUS
 62
     3
 10
132.4547159867601
 20
35.66666207054072
 30
0.0
 40
52.5
 50
235.376914819081
 51
304.6230835870573
  0
ARC
  5
300
  8
0
  6
CONTINUOUS
 62
     3
 10
132.4547159867601
 20
35.66666207054072
 30
0.0
 40
52.5
 50
355.3769510286705
 51
64.6230698508886
  0
CIRCLE
  5
301
  8
0
  6
CONTINUOUS
 62
     3
 10
132.4547159867601
 20
35.66666207054072
 30
0.0
 40
49.0
  0
CIRCLE
  5
302
  8
0
  6
CONTINUOUS
 62
     3
 10
184.4162485795335
 20
65.66665444114619
 30
0.0
 40
3.150000095367432
  0
CIRCLE
  5
303
  8
0
  6
CONTINUOUS
 62
     3
 10
80.49319865277575
 20
65.66667732932979
 30
0.0
 40
3.150000095367432
  0
ARC
  5
304
  8
0
  6
CONTINUOUS
 62
     3
 10
132.4547159867601
 20
35.66666207054072
 30
0.0
 40
123.0
 50
100.5403026203176
 51
199.4596784071862
  0
CIRCLE
  5
305
  8
0
  6
CONTINUOUS
 62
     3
 10
196.8578226762132
 20
52.9234217140954
 30
0.0
 40
10.0
  0
CIRCLE
  5
306
  8
0
  6
CONTINUOUS
 62
     3
 10
179.6010630326585
 20
82.81300911643916
 30
0.0
 40
10.0
  0
CIRCLE
  5
307
  8
0
  6
CONTINUOUS
 62
     3
 10
85.30836131146715
 20
82.81300911643916
 30
0.0
 40
10.0
  0
CIRCLE
  5
308
  8
0
  6
CONTINUOUS
 62
     3
 10
68.051609297307
 20
52.9234217140954
 30
0.0
 40
10.0
  0
LINE
  5
309
  8
0
  6
CONTINUOUS
 62
     3
 10
251.9579245765239
 20
-7.347692879772929
 30
0.0
 11
255.4308648351792
 21
2.194131718320698
 31
0.0
  0
ARC
  5
30A
  8
0
  6
CONTINUOUS
 62
     3
 10
132.4547159867601
 20
35.66666207054072
 30
0.0
 40
123.0
 50
340.5402958659188
 51
79.45971604901702
  0
ARC
  5
30B
  8
0
  6
CONTINUOUS
 62
     3
 10
132.4547159867601
 20
35.66666207054072
 30
0.0
 40
125.0
 50
340.3697682404584
 51
0.0
  0
ARC
  5
30C
  8
0
  6
CONTINUOUS
 62
     3
 10
132.4547159867601
 20
35.66666207054072
 30
0.0
 40
125.0
 50
0.0
 51
79.63023855183556
  0
ARC
  5
30D
  8
0
  6
CONTINUOUS
 62
     3
 10
132.4547159867601
 20
35.66666207054072
 30
0.0
 40
125.0
 50
100.3697801174991
 51
199.6302009100047
  0
CIRCLE
  5
30E
  8
0
  6
CONTINUOUS
 62
     3
 10
92.95471610806749
 20
35.66666977668933
 30
0.0
 40
3.099999904632568
  0
CIRCLE
  5
30F
  8
0
  6
CONTINUOUS
 62
     3
 10
171.9547161080675
 20
35.66666977668933
 30
0.0
 40
3.099999904632568
  0
LINE
  5
310
  8
0
  6
CONTINUOUS
 62
     3
 10
-143.9959905689929
 20
0.6666847539133727
 30
0.0
 11
-142.9959875686463
 21
-0.333314453212779
 31
0.0
  0
CIRCLE
  5
311
  8
0
  6
CONTINUOUS
 62
     3
 10
132.4547154469454
 20
35.66668134479621
 30
0.0
 40
45.0
  0
LINE
  5
312
  8
0
  6
CONTINUOUS
 62
     4
 10
-94.66535211603687
 20
-20.33333602211065
 30
0.0
 11
-94.66535211603687
 21
-28.33333602211065
 31
0.0
  0
LINE
  5
313
  8
0
  6
CONTINUOUS
 62
     4
 10
-94.66535211603687
 20
-20.33333602211065
 30
0.0
 11
-78.66535211603687
 21
-20.33333602211065
 31
0.0
  0
LINE
  5
314
  8
0
  6
CONTINUOUS
 62
     4
 10
-94.66535211603687
 20
-28.33333602211065
 30
0.0
 11
-78.66535211603687
 21
-28.33333602211065
 31
0.0
  0
LINE
  5
315
  8
0
  6
CONTINUOUS
 62
     4
 10
-79.66535211603687
 20
160.6666696999353
 30
0.0
 11
-79.66535211603687
 21
150.6666696999353
 31
0.0
  0
LINE
  5
316
  8
0
  6
CONTINUOUS
 62
     4
 10
-80.66535211603687
 20
160.6666696999353
 30
0.0
 11
-80.66535211603687
 21
150.6666696999353
 31
0.0
  0
LINE
  5
317
  8
0
  6
CONTINUOUS
 62
     4
 10
-79.66535211603687
 20
94.66666207054072
 30
0.0
 11
-79.66535211603687
 21
91.66666207054072
 31
0.0
  0
LINE
  5
318
  8
0
  6
CONTINUOUS
 62
     4
 10
-80.66535211603687
 20
94.66666207054072
 30
0.0
 11
-80.66535211603687
 21
91.66666207054072
 31
0.0
  0
LINE
  5
319
  8
0
  6
CONTINUOUS
 62
     4
 10
-98.66535211603687
 20
112.7666605446618
 30
0.0
 11
-67.66535211603687
 21
112.7666605446618
 31
0.0
  0
LINE
  5
31A
  8
0
  6
CONTINUOUS
 62
     4
 10
-98.66535211603687
 20
102.5666635964196
 30
0.0
 11
-67.66535211603687
 21
102.5666635964196
 31
0.0
  0
LINE
  5
31B
  8
0
  6
CONTINUOUS
 62
     4
 10
-98.66535211603687
 20
142.7666758034509
 30
0.0
 11
-67.66535211603687
 21
142.7666758034509
 31
0.0
  0
LINE
  5
31C
  8
0
  6
CONTINUOUS
 62
     4
 10
-98.66535211603687
 20
132.5666635964196
 30
0.0
 11
-67.66535211603687
 21
132.5666635964196
 31
0.0
  0
LINE
  5
31D
  8
0
  6
CONTINUOUS
 62
     4
 10
-124.9959948162322
 20
-9.33333602211065
 30
0.0
 11
-114.9960100750212
 21
-9.33333602211065
 31
0.0
  0
LINE
  5
31E
  8
0
  6
CONTINUOUS
 62
     4
 10
-124.9959948162322
 20
80.66666207054072
 30
0.0
 11
-114.9960100750212
 21
80.66666207054072
 31
0.0
  0
LINE
  5
31F
  8
0
  6
CONTINUOUS
 62
     4
 10
-143.9960100750212
 20
70.66666207054072
 30
0.0
 11
-143.9960100750212
 21
57.76929650047236
 31
0.0
  0
LINE
  5
320
  8
0
  6
CONTINUOUS
 62
     4
 10
-170.9960100750212
 20
70.66666207054072
 30
0.0
 11
-170.9960100750212
 21
58.04998573997431
 31
0.0
  0
LINE
  5
321
  8
0
  6
CONTINUOUS
 62
     4
 10
-170.9960100750212
 20
12.44680008628779
 30
0.0
 11
-170.9960100750212
 21
0.6666620705407169
 31
0.0
  0
LINE
  5
322
  8
0
  6
CONTINUOUS
 62
     4
 10
-143.9960100750212
 20
13.00817856529169
 30
0.0
 11
-143.9960100750212
 21
0.6666620705407169
 31
0.0
  0
LINE
  5
323
  8
0
  6
CONTINUOUS
 62
     4
 10
-124.9960100750212
 20
77.66666207054071
 30
0.0
 11
-114.9960100750212
 21
77.66666207054071
 31
0.0
  0
LINE
  5
324
  8
0
  6
CONTINUOUS
 62
     4
 10
-124.9960100750212
 20
72.66666207054071
 30
0.0
 11
-114.9960100750212
 21
72.66666207054071
 31
0.0
  0
LINE
  5
325
  8
0
  6
CONTINUOUS
 62
     4
 10
228.6588876575983
 20
-44.70287439763002
 30
0.0
 11
233.908888283447
 21
-35.60960782110147
 31
0.0
  0
LINE
  5
326
  8
0
  6
CONTINUOUS
 62
     4
 10
244.9088857800515
 20
-16.55705588705292
 30
0.0
 11
250.158890220598
 21
-7.463782703275008
 31
0.0
  0
LINE
  5
327
  8
0
  6
CONTINUOUS
 62
     4
 10
171.5011911898104
 20
-11.70287604882675
 30
0.0
 11
176.7511918156591
 21
-2.609609472298196
 31
0.0
  0
LINE
  5
328
  8
0
  6
CONTINUOUS
 62
     4
 10
187.7511931269613
 20
16.44294906899972
 30
0.0
 11
193.0011937528101
 21
25.53621564552827
 31
0.0
  0
LINE
  5
329
  8
0
  6
CONTINUOUS
 62
     4
 10
243.6098306684938
 20
-15.80705477549987
 30
0.0
 11
248.8598312943426
 21
-6.713788198971322
 31
0.0
  0
LINE
  5
32A
  8
0
  6
CONTINUOUS
 62
     4
 10
242.3108228298278
 20
-15.05706333763442
 30
0.0
 11
247.5608272703743
 21
-5.963790153856515
 31
0.0
  0
LINE
  5
32B
  8
0
  6
CONTINUOUS
 62
     4
 10
241.0117885621643
 20
-14.3070566409781
 30
0.0
 11
246.261789188013
 21
-5.213790064449547
 31
0.0
  0
LINE
  5
32C
  8
0
  6
CONTINUOUS
 62
     4
 10
239.7127372653043
 20
-13.55704892217569
 30
0.0
 11
244.9627378911531
 21
-4.463782345647139
 31
0.0
  0
LINE
  5
32D
  8
0
  6
CONTINUOUS
 62
     4
 10
238.4137294266383
 20
-12.80705748431024
 30
0.0
 11
243.6637338671848
 21
-3.713784300532332
 31
0.0
  0
LINE
  5
32E
  8
0
  6
CONTINUOUS
 62
     4
 10
227.3598287313429
 20
-43.95287989332633
 30
0.0
 11
232.6098293571916
 21
-34.85961331679778
 31
0.0
  0
LINE
  5
32F
  8
0
  6
CONTINUOUS
 62
     4
 10
226.0608247073745
 20
-43.20288184821153
 30
0.0
 11
231.3108253332233
 21
-34.10961527168298
 31
0.0
  0
LINE
  5
330
  8
0
  6
CONTINUOUS
 62
     4
 10
224.7617866250133
 20
-42.45288175880456
 30
0.0
 11
230.0117872508621
 21
-33.35961518227601
 31
0.0
  0
LINE
  5
331
  8
0
  6
CONTINUOUS
 62
     4
 10
223.4627353281534
 20
-41.70287404000215
 30
0.0
 11
228.7127397686999
 21
-32.60960085622424
 31
0.0
  0
LINE
  5
332
  8
0
  6
CONTINUOUS
 62
     4
 10
222.1637274894873
 20
-40.9528826021367
 30
0.0
 11
227.4137281153361
 21
-31.85961602560815
 31
0.0
  0
LINE
  5
333
  8
0
  6
CONTINUOUS
 62
     4
 10
172.8002633305645
 20
-12.45287818252587
 30
0.0
 11
178.0502639564132
 21
-3.359611605997323
 31
0.0
  0
LINE
  5
334
  8
0
  6
CONTINUOUS
 62
     4
 10
174.0992673545328
 20
-13.20287622764068
 30
0.0
 11
179.3492679803816
 21
-4.10960965111213
 31
0.0
  0
LINE
  5
335
  8
0
  6
CONTINUOUS
 62
     4
 10
175.3983016221963
 20
-13.95288292429701
 30
0.0
 11
180.6483060627428
 21
-4.859609740519097
 31
0.0
  0
LINE
  5
336
  8
0
  6
CONTINUOUS
 62
     4
 10
176.6973435192552
 20
-14.70287640645461
 30
0.0
 11
181.9473479598017
 21
-5.609603222676704
 31
0.0
  0
LINE
  5
337
  8
0
  6
CONTINUOUS
 62
     4
 10
177.9963986308129
 20
-15.45287751800766
 30
0.0
 11
183.2463992566617
 21
-6.359610941479112
 31
0.0
  0
LINE
  5
338
  8
0
  6
CONTINUOUS
 62
     4
 10
189.0502652677154
 20
15.69294693530059
 30
0.0
 11
194.3002697082619
 21
24.7862201190785
 31
0.0
  0
LINE
  5
339
  8
0
  6
CONTINUOUS
 62
     4
 10
190.3492692916838
 20
14.94294889018578
 30
0.0
 11
195.5992699175325
 21
24.03621546671433
 31
0.0
  0
LINE
  5
33A
  8
0
  6
CONTINUOUS
 62
     4
 10
191.6483035593473
 20
14.19294219352945
 30
0.0
 11
196.8983118145915
 21
23.28622198455673
 31
0.0
  0
LINE
  5
33B
  8
0
  6
CONTINUOUS
 62
     4
 10
192.9473492711039
 20
13.44295531862121
 30
0.0
 11
198.1973498969527
 21
22.53622189514976
 31
0.0
  0
LINE
  5
33C
  8
0
  6
CONTINUOUS
 62
     4
 10
194.2464005679639
 20
12.6929475998188
 30
0.0
 11
199.4964050085104
 21
21.78622078359671
 31
0.0
  0
LINE
  5
33D
  8
0
  6
CONTINUOUS
 62
     4
 10
110.9547159867601
 20
93.16666207054072
 30
0.0
 11
121.4547159867601
 21
93.16666207054072
 31
0.0
  0
LINE
  5
33E
  8
0
  6
CONTINUOUS
 62
     4
 10
143.4547312455492
 20
93.16666207054072
 30
0.0
 11
153.9547312455492
 21
93.16666207054072
 31
0.0
  0
LINE
  5
33F
  8
0
  6
CONTINUOUS
 62
     4
 10
143.4547312455492
 20
159.1666696999353
 30
0.0
 11
153.9547312455492
 21
159.1666696999353
 31
0.0
  0
LINE
  5
340
  8
0
  6
CONTINUOUS
 62
     4
 10
110.9547159867601
 20
159.1666696999353
 30
0.0
 11
121.4547159867601
 21
159.1666696999353
 31
0.0
  0
LINE
  5
341
  8
0
  6
CONTINUOUS
 62
     4
 10
110.9547159867601
 20
94.66666207054072
 30
0.0
 11
121.4547159867601
 21
94.66666207054072
 31
0.0
  0
LINE
  5
342
  8
0
  6
CONTINUOUS
 62
     4
 10
110.9547159867601
 20
96.16666207054072
 30
0.0
 11
121.4547159867601
 21
96.16666207054072
 31
0.0
  0
LINE
  5
343
  8
0
  6
CONTINUOUS
 62
     4
 10
110.9547159867601
 20
97.66666207054072
 30
0.0
 11
121.4547159867601
 21
97.66666207054072
 31
0.0
  0
LINE
  5
344
  8
0
  6
CONTINUOUS
 62
     4
 10
110.9547159867601
 20
99.16666207054072
 30
0.0
 11
121.4547159867601
 21
99.16666207054072
 31
0.0
  0
LINE
  5
345
  8
0
  6
CONTINUOUS
 62
     4
 10
110.9547159867601
 20
100.6666620705407
 30
0.0
 11
121.4547159867601
 21
100.6666620705407
 31
0.0
  0
LINE
  5
346
  8
0
  6
CONTINUOUS
 62
     4
 10
143.4547312455492
 20
94.66666207054072
 30
0.0
 11
153.9547312455492
 21
94.66666207054072
 31
0.0
  0
LINE
  5
347
  8
0
  6
CONTINUOUS
 62
     4
 10
143.4547312455492
 20
96.16666207054072
 30
0.0
 11
153.9547312455492
 21
96.16666207054072
 31
0.0
  0
LINE
  5
348
  8
0
  6
CONTINUOUS
 62
     4
 10
143.4547312455492
 20
97.66666207054072
 30
0.0
 11
153.9547312455492
 21
97.66666207054072
 31
0.0
  0
LINE
  5
349
  8
0
  6
CONTINUOUS
 62
     4
 10
143.4547312455492
 20
99.16666207054072
 30
0.0
 11
153.9547312455492
 21
99.16666207054072
 31
0.0
  0
LINE
  5
34A
  8
0
  6
CONTINUOUS
 62
     4
 10
143.4547312455492
 20
100.6666620705407
 30
0.0
 11
153.9547312455492
 21
100.6666620705407
 31
0.0
  0
LINE
  5
34B
  8
0
  6
CONTINUOUS
 62
     4
 10
143.4547312455492
 20
157.6666696999353
 30
0.0
 11
153.9547312455492
 21
157.6666696999353
 31
0.0
  0
LINE
  5
34C
  8
0
  6
CONTINUOUS
 62
     4
 10
143.4547312455492
 20
156.1666696999353
 30
0.0
 11
153.9547312455492
 21
156.1666696999353
 31
0.0
  0
LINE
  5
34D
  8
0
  6
CONTINUOUS
 62
     4
 10
143.4547312455492
 20
154.6666696999353
 30
0.0
 11
153.9547312455492
 21
154.6666696999353
 31
0.0
  0
LINE
  5
34E
  8
0
  6
CONTINUOUS
 62
     4
 10
143.4547312455492
 20
153.1666696999353
 30
0.0
 11
153.9547312455492
 21
153.1666696999353
 31
0.0
  0
LINE
  5
34F
  8
0
  6
CONTINUOUS
 62
     4
 10
143.4547312455492
 20
151.6666696999353
 30
0.0
 11
153.9547312455492
 21
151.6666696999353
 31
0.0
  0
LINE
  5
350
  8
0
  6
CONTINUOUS
 62
     4
 10
110.9547159867601
 20
157.6666696999353
 30
0.0
 11
121.4547159867601
 21
157.6666696999353
 31
0.0
  0
LINE
  5
351
  8
0
  6
CONTINUOUS
 62
     4
 10
110.9547159867601
 20
156.1666696999353
 30
0.0
 11
121.4547159867601
 21
156.1666696999353
 31
0.0
  0
LINE
  5
352
  8
0
  6
CONTINUOUS
 62
     4
 10
110.9547159867601
 20
154.6666696999353
 30
0.0
 11
121.4547159867601
 21
154.6666696999353
 31
0.0
  0
LINE
  5
353
  8
0
  6
CONTINUOUS
 62
     4
 10
110.9547159867601
 20
153.1666696999353
 30
0.0
 11
121.4547159867601
 21
153.1666696999353
 31
0.0
  0
LINE
  5
354
  8
0
  6
CONTINUOUS
 62
     4
 10
110.9547159867601
 20
151.6666696999353
 30
0.0
 11
121.4547159867601
 21
151.6666696999353
 31
0.0
  0
CIRCLE
  5
355
  8
0
  6
CONTINUOUS
 62
     4
 10
132.4547159867601
 20
-24.33333602211065
 30
0.0
 40
4.0
  0
ARC
  5
356
  8
0
  6
CONTINUOUS
 62
     4
 10
132.4547159867601
 20
35.66666207054072
 30
0.0
 40
58.0
 50
114.4433575815537
 51
128.040010256623
  0
ARC
  5
357
  8
0
  6
CONTINUOUS
 62
     4
 10
132.4547159867601
 20
35.66666207054072
 30
0.0
 40
58.0
 50
234.4433235821886
 51
248.0399694270687
  0
ARC
  5
358
  8
0
  6
CONTINUOUS
 62
     4
 10
132.4547159867601
 20
35.66666207054072
 30
0.0
 40
58.0
 50
354.4433504002681
 51
8.03998642675126
  0
ARC
  5
359
  8
0
  6
CONTINUOUS
 62
     4
 10
132.4547159867601
 20
35.66666207054072
 30
0.0
 40
64.0
 50
352.0243274882473
 51
5.177956164502912
  0
ARC
  5
35A
  8
0
  6
CONTINUOUS
 62
     4
 10
132.4547159867601
 20
35.66666207054072
 30
0.0
 40
70.0
 50
350.0510542474056
 51
5.757180965555733
  0
ARC
  5
35B
  8
0
  6
CONTINUOUS
 62
     4
 10
132.4547159867601
 20
35.66666207054072
 30
0.0
 40
76.0
 50
348.4084927897605
 51
9.58100602332672
  0
ARC
  5
35C
  8
0
  6
CONTINUOUS
 62
     4
 10
132.4547159867601
 20
35.66666207054072
 30
0.0
 40
82.0
 50
347.018657722916
 51
72.95477365709111
  0
ARC
  5
35D
  8
0
  6
CONTINUOUS
 62
     4
 10
132.4547159867601
 20
35.66666207054072
 30
0.0
 40
88.0
 50
345.826630057077
 51
74.38182557094937
  0
ARC
  5
35E
  8
0
  6
CONTINUOUS
 62
     4
 10
132.4547159867601
 20
35.66666207054072
 30
0.0
 40
94.0
 50
344.7925086808858
 51
75.5337916159854
  0
ARC
  5
35F
  8
0
  6
CONTINUOUS
 62
     4
 10
132.4547159867601
 20
35.66666207054072
 30
0.0
 40
64.0
 50
232.0243028046019
 51
245.1779357497257
  0
ARC
  5
360
  8
0
  6
CONTINUOUS
 62
     4
 10
132.4547159867601
 20
35.66666207054072
 30
0.0
 40
70.0
 50
230.0510338326285
 51
245.7571631120995
  0
ARC
  5
361
  8
0
  6
CONTINUOUS
 62
     4
 10
132.4547159867601
 20
35.66666207054072
 30
0.0
 40
76.0
 50
228.4084689598888
 51
249.5809830472286
  0
ARC
  5
362
  8
0
  6
CONTINUOUS
 62
     4
 10
132.4547159867601
 20
35.66666207054072
 30
0.0
 40
82.0
 50
227.018634746818
 51
312.7221716406967
  0
ARC
  5
363
  8
0
  6
CONTINUOUS
 62
     4
 10
132.4547159867601
 20
35.66666207054072
 30
0.0
 40
88.0
 50
225.8266028121106
 51
314.0672612845148
  0
ARC
  5
364
  8
0
  6
CONTINUOUS
 62
     4
 10
132.4547159867601
 20
35.66666207054072
 30
0.0
 40
94.0
 50
224.792484851014
 51
315.2354900099646
  0
ARC
  5
365
  8
0
  6
CONTINUOUS
 62
     4
 10
132.4547159867601
 20
35.66666207054072
 30
0.0
 40
64.0
 50
112.0243299737778
 51
125.1779834094692
  0
ARC
  5
366
  8
0
  6
CONTINUOUS
 62
     4
 10
132.4547159867601
 20
35.66666207054072
 30
0.0
 40
70.0
 50
110.0510610018044
 51
125.7571971114646
  0
ARC
  5
367
  8
0
  6
CONTINUOUS
 62
     4
 10
132.4547159867601
 20
35.66666207054072
 30
0.0
 40
76.0
 50
108.4084961290648
 51
129.5810238767829
  0
ARC
  5
368
  8
0
  6
CONTINUOUS
 62
     4
 10
132.4547159867601
 20
35.66666207054072
 30
0.0
 40
58.0
 50
261.9599905782031
 51
265.0222171001191
  0
ARC
  5
369
  8
0
  6
CONTINUOUS
 62
     4
 10
132.4547159867601
 20
35.66666207054072
 30
0.0
 40
58.0
 50
291.9600119035966
 51
305.5566782390442
  0
ARC
  5
36A
  8
0
  6
CONTINUOUS
 62
     4
 10
132.4547159867601
 20
35.66666207054072
 30
0.0
 40
64.0
 50
294.8220455809396
 51
307.9757024317256
  0
ARC
  5
36B
  8
0
  6
CONTINUOUS
 62
     4
 10
132.4547159867601
 20
35.66666207054072
 30
0.0
 40
64.0
 50
264.822024255546
 51
266.5091287918633
  0
ARC
  5
36C
  8
0
  6
CONTINUOUS
 62
     4
 10
132.4547159867601
 20
35.66666207054072
 30
0.0
 40
64.0
 50
273.490852538802
 51
275.1779570751194
  0
ARC
  5
36D
  8
0
  6
CONTINUOUS
 62
     4
 10
132.4547159867601
 20
35.66666207054072
 30
0.0
 40
58.0
 50
274.9777642305463
 51
278.0399839222731
  0
ARC
  5
36E
  8
0
  6
CONTINUOUS
 62
     4
 10
132.4547159867601
 20
35.66666207054072
 30
0.0
 40
70.0
 50
264.2427968931722
 51
275.7571776073039
  0
ARC
  5
36F
  8
0
  6
CONTINUOUS
 62
     4
 10
132.4547159867601
 20
35.66666207054072
 30
0.0
 40
70.0
 50
294.2428182185658
 51
309.948971403699
  0
ARC
  5
370
  8
0
  6
CONTINUOUS
 62
     4
 10
132.4547159867601
 20
35.66666207054072
 30
0.0
 40
76.0
 50
290.4189914532475
 51
311.591532861344
  0
ARC
  5
371
  8
0
  6
CONTINUOUS
 62
     4
 10
132.4547159867601
 20
35.66666207054072
 30
0.0
 40
76.0
 50
260.3205812528599
 51
279.568621239657
  0
CIRCLE
  5
372
  8
0
  6
CONTINUOUS
 62
     4
 10
80.49319865277575
 20
65.66667732932979
 30
0.0
 40
4.0
  0
CIRCLE
  5
373
  8
0
  6
CONTINUOUS
 62
     4
 10
184.4162485795335
 20
65.66665444114619
 30
0.0
 40
4.0
  0
ARC
  5
374
  8
0
  6
CONTINUOUS
 62
     4
 10
132.4547159867601
 20
35.66666207054072
 30
0.0
 40
94.0
 50
104.5235391706749
 51
195.2074758375031
  0
ARC
  5
375
  8
0
  6
CONTINUOUS
 62
     4
 10
132.4547159867601
 20
35.66666207054072
 30
0.0
 40
88.0
 50
105.7413618996881
 51
194.1733442160281
  0
ARC
  5
376
  8
0
  6
CONTINUOUS
 62
     4
 10
132.4547159867601
 20
35.66666207054072
 30
0.0
 40
82.0
 50
107.0790612788243
 51
192.9813259416991
  0
ARC
  5
377
  8
0
  6
CONTINUOUS
 62
     4
 10
132.4547159867601
 20
35.66666207054072
 30
0.0
 40
76.0
 50
139.911111260537
 51
159.5810315417982
  0
ARC
  5
378
  8
0
  6
CONTINUOUS
 62
     4
 10
132.4547159867601
 20
35.66666207054072
 30
0.0
 40
64.0
 50
174.8220659199264
 51
187.9756578839152
  0
ARC
  5
379
  8
0
  6
CONTINUOUS
 62
     4
 10
132.4547159867601
 20
35.66666207054072
 30
0.0
 40
58.0
 50
154.9777709091547
 51
158.0400042612599
  0
ARC
  5
37A
  8
0
  6
CONTINUOUS
 62
     4
 10
132.4547159867601
 20
35.66666207054072
 30
0.0
 40
58.0
 50
141.9600314077574
 51
145.0222510994842
  0
ARC
  5
37B
  8
0
  6
CONTINUOUS
 62
     4
 10
132.4547159867601
 20
35.66666207054072
 30
0.0
 40
70.0
 50
144.2428445529157
 51
155.7572047764799
  0
ARC
  5
37C
  8
0
  6
CONTINUOUS
 62
     4
 10
132.4547159867601
 20
35.66666207054072
 30
0.0
 40
58.0
 50
171.9600390727726
 51
185.5566371063285
  0
ARC
  5
37D
  8
0
  6
CONTINUOUS
 62
     4
 10
132.4547159867601
 20
35.66666207054072
 30
0.0
 40
70.0
 50
174.2428385575526
 51
189.9489268558886
  0
ARC
  5
37E
  8
0
  6
CONTINUOUS
 62
     4
 10
132.4547159867601
 20
35.66666207054072
 30
0.0
 40
76.0
 50
170.4190117922343
 51
191.5914917286283
  0
ARC
  5
37F
  8
0
  6
CONTINUOUS
 62
     4
 10
132.4547159867601
 20
35.66666207054072
 30
0.0
 40
58.0
 50
34.97775049437755
 51
38.03999067667191
  0
ARC
  5
380
  8
0
  6
CONTINUOUS
 62
     4
 10
132.4547159867601
 20
35.66666207054072
 30
0.0
 40
58.0
 50
21.96000928543292
 51
25.02222897715976
  0
ARC
  5
381
  8
0
  6
CONTINUOUS
 62
     4
 10
132.4547159867601
 20
35.66666207054072
 30
0.0
 40
64.0
 50
54.8220455051492
 51
67.97568869555687
  0
ARC
  5
382
  8
0
  6
CONTINUOUS
 62
     4
 10
132.4547159867601
 20
35.66666207054072
 30
0.0
 40
70.0
 50
24.24281560040209
 51
35.75717753151356
  0
ARC
  5
383
  8
0
  6
CONTINUOUS
 62
     4
 10
132.4547159867601
 20
35.66666207054072
 30
0.0
 40
76.0
 50
20.41899395772569
 51
40.49668336262584
  0
ARC
  5
384
  8
0
  6
CONTINUOUS
 62
     4
 10
132.4547159867601
 20
35.66666207054072
 30
0.0
 40
58.0
 50
51.96000841271169
 51
65.55666108778097
  0
ARC
  5
385
  8
0
  6
CONTINUOUS
 62
     4
 10
132.4547159867601
 20
35.66666207054072
 30
0.0
 40
70.0
 50
54.24282155787002
 51
69.94895766753024
  0
ARC
  5
386
  8
0
  6
CONTINUOUS
 62
     4
 10
132.4547159867601
 20
35.66666207054072
 30
0.0
 40
76.0
 50
50.41899137745716
 51
71.59152254026992
  0
CIRCLE
  5
387
  8
0
  6
CONTINUOUS
 62
     4
 10
132.4547161080675
 20
75.16666977668932
 30
0.0
 40
2.5
  0
CIRCLE
  5
388
  8
0
  6
CONTINUOUS
 62
     4
 10
98.24678951583644
 20
15.91662540313287
 30
0.0
 40
2.499999999999999
  0
CIRCLE
  5
389
  8
0
  6
CONTINUOUS
 62
     4
 10
166.6627964148071
 20
15.91671415024577
 30
0.0
 40
2.5
  0
CIRCLE
  5
38A
  8
0
  6
CONTINUOUS
 62
     4
 10
132.4547154469454
 20
35.66668134479621
 30
0.0
 40
44.20000076293945
  0
LINE
  5
38B
  8
0
  6
DIVIDE
 62
     9
 10
-201.6653521160369
 20
-25.00833907386846
 30
0.0
 11
-201.6653521160369
 21
-37.0083409812171
 31
0.0
  0
LINE
  5
38C
  8
0
  6
DIVIDE
 62
     9
 10
-201.6653368572478
 20
-25.90834059974737
 30
0.0
 11
-158.510310692292
 21
-25.90834059974737
 31
0.0
  0
LINE
  5
38D
  8
0
  6
DIVIDE
 62
     9
 10
-201.6653368572478
 20
-36.10833945533819
 30
0.0
 11
-158.7508621038497
 21
-36.10833945533819
 31
0.0
  0
LINE
  5
38E
  8
0
  6
DIVIDE
 62
     9
 10
-201.6653368572478
 20
-25.00833907386846
 30
0.0
 11
-158.9928325099573
 21
-25.00833907386846
 31
0.0
  0
LINE
  5
38F
  8
0
  6
DIVIDE
 62
     9
 10
-201.6653368572478
 20
-37.0083409812171
 30
0.0
 11
-157.6324298838196
 21
-37.0083409812171
 31
0.0
  0
LINE
  5
390
  8
0
  6
DIVIDE
 62
     9
 10
-100.9960220537141
 20
84.66664993690154
 30
0.0
 11
-99.99602478534504
 21
83.66664499779779
 31
0.0
  0
LINE
  5
391
  8
0
  6
DIVIDE
 62
     9
 10
-107.585304508615
 20
84.66666207054072
 30
0.0
 11
-100.9960100750212
 21
84.66666207054072
 31
0.0
  0
LINE
  5
392
  8
0
  6
DIVIDE
 62
     9
 10
-186.9960100750212
 20
83.66665444114619
 30
0.0
 11
-186.9960100750212
 21
45.21269020774775
 31
0.0
  0
LINE
  5
393
  8
0
  6
DIVIDE
 62
     9
 10
-185.9960580611531
 20
84.66669362958851
 30
0.0
 11
-186.9960553295222
 21
83.66668869048476
 31
0.0
  0
LINE
  5
394
  8
0
  6
DIVIDE
 62
     9
 10
-99.99601007502125
 20
83.66665444114619
 30
0.0
 11
-99.99601007502125
 21
45.21269020774775
 31
0.0
  0
LINE
  5
395
  8
LAYER0014
  6
CONTINUOUS
 62
     7
 10
-78.66535211603687
 20
8.925948951033881
 30
0.0
 11
-66.13135553400562
 21
8.925948951033881
 31
0.0
  0
LINE
  5
396
  8
LAYER0014
  6
CONTINUOUS
 62
     7
 10
-81.16535211603687
 20
8.925948951033881
 30
0.0
 11
-78.66535211603687
 21
8.925948951033881
 31
0.0
  0
LINE
  5
397
  8
LAYER0014
  6
CONTINUOUS
 62
     7
 10
-81.16535211603687
 20
8.925948951033881
 30
0.0
 11
-87.51535211603687
 21
8.925948951033881
 31
0.0
  0
INSERT
  5
398
  8
LAYER0014
 62
     7
  2
_OPEN30
 10
-81.16535211603687
 20
8.925948951033881
 30
0.0
 41
2.499995396844351
 42
2.500007167085477
 50
360.0
  0
LINE
  5
399
  8
LAYER0014
  6
CONTINUOUS
 62
     7
 10
-72.31535211603688
 20
8.925948951033881
 30
0.0
 11
-78.66535211603687
 21
8.925948951033881
 31
0.0
  0
INSERT
  5
39A
  8
LAYER0014
 62
     7
  2
_OPEN30
 10
-78.66535211603687
 20
8.925948951033881
 30
0.0
 41
2.499995396844351
 42
2.500007167085477
 50
180.0
  0
TEXT
  5
39B
  8
LAYER0014
 62
     7
 10
-74.81427903124792
 20
10.53352622673541
 30
0.0
 40
4.0
  1
2.5
 50
359.9
 41
1.072340425531915
  7
DCSTYLE1
 72
     5
 11
-65.21429365288036
 21
10.51677107442278
 31
0.0
  0
INSERT
  5
39C
  8
LAYER0014
  6
CONTINUOUS
  2
DC_IMAGEDIMGROUP_1
 10
0.0
 20
0.0
 30
0.0
  0
INSERT
  5
39D
  8
LAYER0014
  6
CONTINUOUS
  2
DC_IMAGEDIMGROUP_2
 10
0.0
 20
0.0
 30
0.0
  0
INSERT
  5
39E
  8
LAYER0014
  6
CONTINUOUS
  2
DC_IMAGEDIMGROUP_3
 10
0.0
 20
0.0
 30
0.0
  0
INSERT
  5
39F
  8
LAYER0014
  6
CONTINUOUS
  2
DC_IMAGEDIMGROUP_4
 10
0.0
 20
0.0
 30
0.0
  0
INSERT
  5
3A0
  8
LAYER0014
  6
CONTINUOUS
  2
DC_IMAGEDIMGROUP_5
 10
0.0
 20
0.0
 30
0.0
  0
INSERT
  5
3A1
  8
LAYER0014
  6
CONTINUOUS
  2
DC_IMAGEDIMGROUP_6
 10
0.0
 20
0.0
 30
0.0
  0
INSERT
  5
3A2
  8
LAYER0014
  6
CONTINUOUS
  2
DC_IMAGEDIMGROUP_7
 10
0.0
 20
0.0
 30
0.0
  0
INSERT
  5
3A3
  8
LAYER0014
  6
CONTINUOUS
  2
DC_GROUP_1
 10
0.0
 20
0.0
 30
0.0
  0
INSERT
  5
3A4
  8
LAYER0014
  6
CONTINUOUS
  2
DC_GROUP_2
 10
0.0
 20
0.0
 30
0.0
  0
INSERT
  5
3A5
  8
LAYER0014
  6
CONTINUOUS
  2
DC_IMAGEDIMGROUP_8
 10
0.0
 20
0.0
 30
0.0
  0
INSERT
  5
3A6
  8
LAYER0014
  6
CONTINUOUS
  2
DC_IMAGEDIMGROUP_9
 10
0.0
 20
0.0
 30
0.0
  0
INSERT
  5
3A7
  8
LAYER0014
  6
CONTINUOUS
  2
DC_IMAGEDIMGROUP_11
 10
0.0
 20
0.0
 30
0.0
  0
INSERT
  5
3A8
  8
LAYER0014
  6
CONTINUOUS
  2
DC_IMAGEDIMGROUP_12
 10
0.0
 20
0.0
 30
0.0
  0
INSERT
  5
3A9
  8
LAYER0014
  6
CONTINUOUS
  2
DC_IMAGEDIMGROUP_13
 10
0.0
 20
0.0
 30
0.0
  0
INSERT
  5
3AA
  8
LAYER0014
  6
CONTINUOUS
  2
DC_IMAGEDIMGROUP_14
 10
0.0
 20
0.0
 30
0.0
  0
INSERT
  5
3AB
  8
LAYER0014
  6
CONTINUOUS
  2
DC_IMAGEDIMGROUP_15
 10
0.0
 20
0.0
 30
0.0
  0
INSERT
  5
3AC
  8
LAYER0014
  6
CONTINUOUS
  2
DC_IMAGEDIMGROUP_16
 10
0.0
 20
0.0
 30
0.0
  0
INSERT
  5
3AD
  8
LAYER0014
  6
CONTINUOUS
  2
DC_GROUP_6
 10
0.0
 20
0.0
 30
0.0
  0
INSERT
  5
3AE
  8
LAYER0014
  6
CONTINUOUS
  2
DC_GROUP_7
 10
0.0
 20
0.0
 30
0.0
  0
INSERT
  5
3AF
  8
LAYER0014
  6
CONTINUOUS
  2
DC_IMAGEDIMGROUP_22
 10
0.0
 20
0.0
 30
0.0
  0
INSERT
  5
3B0
  8
LAYER0014
  6
CONTINUOUS
  2
DC_IMAGEDIMGROUP_23
 10
0.0
 20
0.0
 30
0.0
  0
INSERT
  5
3B1
  8
LAYER0014
  6
CONTINUOUS
  2
DC_IMAGEDIMGROUP_24
 10
0.0
 20
0.0
 30
0.0
  0
INSERT
  5
3B2
  8
LAYER0014
  6
CONTINUOUS
  2
DC_IMAGEDIMGROUP_25
 10
0.0
 20
0.0
 30
0.0
  0
INSERT
  5
3B3
  8
LAYER0014
  6
CONTINUOUS
  2
DC_IMAGEDIMGROUP_26
 10
0.0
 20
0.0
 30
0.0
  0
INSERT
  5
3B4
  8
LAYER0014
  6
CONTINUOUS
  2
DC_GROUP_8
 10
0.0
 20
0.0
 30
0.0
  0
LINE
  5
3B5
  8
0
  6
CENTER
 62
     7
 10
2.421416517901719
 20
35.66666207054072
 30
0.0
 11
267.8714897600892
 21
35.66666207054072
 31
0.0
  0
LINE
  5
3B6
  8
0
  6
CENTER
 62
     7
 10
-129.0141222576384
 20
75.16666207054071
 30
0.0
 11
-111.2733233074431
 21
75.16666207054071
 31
0.0
  0
LINE
  5
3B7
  8
0
  6
CENTER
 62
     7
 10
16.18630377990759
 20
-31.4609427971978
 30
0.0
 11
132.4547378602219
 21
35.66666150094033
 31
0.0
  0
LINE
  5
3B8
  8
0
  6
CENTER
 62
     7
 10
111.3156626521882
 20
-43.2253365314175
 30
0.0
 11
119.0802360894931
 21
-14.24755754388674
 31
0.0
  0
LINE
  5
3B9
  8
0
  6
CENTER
 62
     7
 10
145.8291836788359
 20
-14.24755454789989
 30
0.0
 11
153.5937558819952
 21
-43.22532892953746
 31
0.0
  0
LINE
  5
3BA
  8
0
  6
CENTER
 62
     7
 10
182.3689267429006
 20
49.04113000121714
 30
0.0
 11
211.3467011245382
 21
56.80570041623713
 31
0.0
  0
LINE
  5
3BB
  8
0
  6
CENTER
 62
     7
 10
53.56272058697563
 20
56.805695710012
 30
0.0
 11
83.09003882465403
 21
48.89387547828164
 31
0.0
  0
LINE
  5
3BC
  8
0
  6
CENTER
 62
     7
 10
74.46508556757398
 20
93.6563332562007
 30
0.0
 11
96.10564736257892
 21
72.01577328535859
 31
0.0
  0
LINE
  5
3BD
  8
0
  6
CENTER
 62
     7
 10
168.9944822203544
 20
72.20640439811518
 30
0.0
 11
190.2076870810416
 21
93.4196074706631
 31
0.0
  0
LINE
  5
3BE
  8
0
  6
CENTER
 62
     7
 10
75.03254574951951
 20
68.81939632419301
 30
0.0
 11
85.87145826408359
 21
62.56154795756583
 31
0.0
  0
LINE
  5
3BF
  8
0
  6
CENTER
 62
     7
 10
179.1878884865255
 20
62.64805561415937
 30
0.0
 11
189.7229104566904
 21
68.73045271255774
 31
0.0
  0
LINE
  5
3C0
  8
0
  6
CENTER
 62
     7
 10
132.4547432500671
 20
35.66667880256841
 30
0.0
 11
248.2004265912741
 21
-31.15911524897161
 31
0.0
  0
LINE
  5
3C1
  8
0
  6
CENTER
 62
     7
 10
52.03100611737536
 20
124.6666620705407
 30
0.0
 11
87.49044444134996
 21
124.6666620705407
 31
0.0
  0
LINE
  5
3C2
  8
0
  6
CENTER
 62
     7
 10
36.15508915950751
 20
-1.537492234392296
 30
0.0
 11
52.12965180143341
 21
-29.20624256392239
 31
0.0
  0
LINE
  5
3C3
  8
0
  6
CENTER
 62
     7
 10
212.7223980079515
 20
-29.30568409984131
 30
0.0
 11
228.8037521588848
 21
-1.451965476263247
 31
0.0
  0
LINE
  5
3C4
  8
0
  6
CENTER
 62
     7
 10
186.7012216826719
 20
-14.37565206028854
 30
0.0
 11
202.6757910003188
 21
13.29310983192794
 31
0.0
  0
LINE
  5
3C5
  8
0
  6
CENTER
 62
     7
 10
62.06944931718785
 20
13.57752029156108
 30
0.0
 11
78.15080728281886
 21
-14.27620493926634
 31
0.0
  0
LINE
  5
3C6
  8
0
  6
CENTER
 62
     7
 10
116.1669886308031
 20
137.6666696999353
 30
0.0
 11
148.737903852971
 21
137.6666696999353
 31
0.0
  0
LINE
  5
3C7
  8
0
  6
CENTER
 62
     7
 10
116.1669886308031
 20
107.6666620705407
 30
0.0
 11
148.737903852971
 21
107.6666620705407
 31
0.0
  0
ARC
  5
3C8
  8
0
  6
CENTER
 62
     7
 10
132.4547159867601
 20
35.66666207054072
 30
0.0
 40
66.67500305175781
 50
2.082722113092583
 51
27.91727637385595
  0
ARC
  5
3C9
  8
0
  6
CENTER
 62
     7
 10
132.4547159867601
 20
35.66666207054072
 30
0.0
 40
66.67500305175781
 50
122.0827465832946
 51
147.9172950810858
  0
ARC
  5
3CA
  8
0
  6
CENTER
 62
     7
 10
132.4547159867601
 20
35.66666207054072
 30
0.0
 40
66.67500305175781
 50
242.0826989235511
 51
267.9172542515315
  0
ARC
  5
3CB
  8
0
  6
CENTER
 62
     7
 10
132.4547159867601
 20
35.66666207054072
 30
0.0
 40
66.67500305175781
 50
272.0827270791338
 51
297.9172824071143
  0
ARC
  5
3CC
  8
0
  6
CENTER
 62
     7
 10
132.4547159867601
 20
35.66666207054072
 30
0.0
 40
66.67500305175781
 50
152.0827405879314
 51
177.917302746101
  0
ARC
  5
3CD
  8
0
  6
CENTER
 62
     7
 10
132.4547159867601
 20
35.66666207054072
 30
0.0
 40
66.67500305175781
 50
32.08272017315429
 51
57.91727891622929
  0
ARC
  5
3CE
  8
0
  6
CENTER
 62
     7
 10
132.4547159867601
 20
35.66666207054072
 30
0.0
 40
60.0
 50
263.3116781847594
 51
276.6883031459059
  0
ARC
  5
3CF
  8
0
  6
CENTER
 62
     7
 10
132.4547159867601
 20
35.66666207054072
 30
0.0
 40
60.0
 50
22.33773240691296
 51
37.66224364952976
  0
ARC
  5
3D0
  8
0
  6
CENTER
 62
     7
 10
132.4547159867601
 20
35.66666207054072
 30
0.0
 40
60.0
 50
142.3377545292374
 51
157.6622538190232
  0
LINE
  5
3D1
  8
0
  6
CENTER
 62
     7
 10
128.3133205392198
 20
75.16666977668932
 30
0.0
 11
136.9924576916182
 21
75.16666977668932
 31
0.0
  0
LINE
  5
3D2
  8
0
  6
CENTER
 62
     7
 10
92.95471610806749
 20
41.33268540168933
 30
0.0
 11
92.95471610806749
 21
29.66666977668933
 31
0.0
  0
LINE
  5
3D3
  8
0
  6
CENTER
 62
     7
 10
100.3174873002603
 20
12.33007163339049
 30
0.0
 11
95.9779187240611
 21
19.84642489029686
 31
0.0
  0
LINE
  5
3D4
  8
0
  6
CENTER
 62
     7
 10
168.7334941992309
 20
19.50326791998818
 30
0.0
 11
164.3939256230317
 21
11.98691466308183
 31
0.0
  0
LINE
  5
3D5
  8
0
  6
CENTER
 62
     7
 10
171.9547158654527
 20
41.33268540168933
 30
0.0
 11
171.9547158654527
 21
29.66666977668933
 31
0.0
  0
LINE
  5
3D6
  8
0
  6
CENTER
 62
     7
 10
132.4547722307923
 20
168.8631723854821
 30
0.0
 11
132.4547722307923
 21
56.64310954063606
 31
0.0
  0
LINE
  5
3D7
  8
0
  6
CENTER
 62
     7
 10
132.4547722307923
 20
46.96898311739302
 30
0.0
 11
132.4547722307923
 21
-93.27051359452275
 31
0.0
  0
INSERT
  5
3D8
  8
0
  6
CONTINUOUS
  2
DC_GROUP_3
 10
0.0
 20
0.0
 30
0.0
  0
INSERT
  5
3D9
  8
0
  6
CONTINUOUS
  2
DC_IMAGEDIMGROUP_10
 10
0.0
 20
0.0
 30
0.0
  0
INSERT
  5
3DA
  8
0
  6
CONTINUOUS
  2
DC_IMAGEDIMGROUP_17
 10
0.0
 20
0.0
 30
0.0
  0
INSERT
  5
3DB
  8
0
  6
CONTINUOUS
  2
DC_GROUP_4
 10
0.0
 20
0.0
 30
0.0
  0
INSERT
  5
3DC
  8
0
  6
CONTINUOUS
  2
DC_IMAGEDIMGROUP_18
 10
0.0
 20
0.0
 30
0.0
  0
INSERT
  5
3DD
  8
0
  6
CONTINUOUS
  2
DC_IMAGEDIMGROUP_19
 10
0.0
 20
0.0
 30
0.0
  0
INSERT
  5
3DE
  8
0
  6
CONTINUOUS
  2
DC_IMAGEDIMGROUP_20
 10
0.0
 20
0.0
 30
0.0
  0
INSERT
  5
3DF
  8
0
  6
CONTINUOUS
  2
DC_IMAGEDIMGROUP_21
 10
0.0
 20
0.0
 30
0.0
  0
INSERT
  5
3E0
  8
0
  6
CONTINUOUS
  2
DC_GROUP_5
 10
0.0
 20
0.0
 30
0.0
  0
INSERT
  5
3E1
  8
0
  6
CONTINUOUS
  2
DC_IMAGEDIMGROUP_27
 10
0.0
 20
0.0
 30
0.0
  0
INSERT
  5
3E2
  8
0
  6
CONTINUOUS
  2
DC_GROUP_9
 10
0.0
 20
0.0
 30
0.0
  0
LINE
  5
3E3
  8
0
  6
CONTINUOUS
 62
     6
 10
-64.2559859227547
 20
-173.6497250412134
 30
0.0
 11
80.55594950204998
 21
-173.6497250412134
 31
0.0
  0
LINE
  5
3E4
  8
0
  6
CONTINUOUS
 62
     6
 10
-64.2559859227547
 20
-165.6497250412134
 30
0.0
 11
80.55594950204998
 21
-165.6497250412134
 31
0.0
  0
LINE
  5
3E5
  8
0
  6
CONTINUOUS
 62
     6
 10
-64.2559859227547
 20
-157.6497250412134
 30
0.0
 11
80.55594950204998
 21
-157.6497250412134
 31
0.0
  0
LINE
  5
3E6
  8
0
  6
CONTINUOUS
 62
     6
 10
-64.2559859227547
 20
-149.6497250412134
 30
0.0
 11
80.55594950204998
 21
-149.6497250412134
 31
0.0
  0
LINE
  5
3E7
  8
0
  6
CONTINUOUS
 62
     6
 10
-64.2559859227547
 20
-141.6497250412134
 30
0.0
 11
80.55594950204998
 21
-141.6497250412134
 31
0.0
  0
LINE
  5
3E8
  8
0
  6
CONTINUOUS
 62
     6
 10
-64.2559859227547
 20
-133.6497250412134
 30
0.0
 11
80.55594950204998
 21
-133.6497250412134
 31
0.0
  0
LINE
  5
3E9
  8
0
  6
CONTINUOUS
 62
     6
 10
-64.2559859227547
 20
-125.6497403000024
 30
0.0
 11
80.55594950204998
 21
-125.6497403000024
 31
0.0
  0
LINE
  5
3EA
  8
0
  6
CONTINUOUS
 62
     6
 10
-64.2559859227547
 20
-117.6497326706079
 30
0.0
 11
80.55594950204998
 21
-117.6497326706079
 31
0.0
  0
LINE
  5
3EB
  8
0
  6
CONTINUOUS
 62
     6
 10
-64.2559859227547
 20
-109.6497326706079
 30
0.0
 11
-48.2559859227547
 21
-109.6497326706079
 31
0.0
  0
TEXT
  5
3EC
  8
0
 62
     6
 10
-61.68455798143238
 20
-171.9830685470727
 30
0.0
 40
4.0
  1
アンバランス量
 41
1.146341517204192
  7
DCSTYLE1
 72
     5
 11
-34.82741386407703
 21
-171.9830685470727
 31
0.0
  0
TEXT
  5
3ED
  8
0
 62
     6
 10
-61.68455798143238
 20
-163.9830685470727
 30
0.0
 40
4.0
  1
質 量
 41
1.055555678076214
  7
DCSTYLE1
 72
     5
 11
-50.82741386407703
 21
-163.9830685470727
 31
0.0
  0
TEXT
  5
3EE
  8
0
 62
     6
 10
-61.68455798143238
 20
-155.9830685470727
 30
0.0
 40
4.0
  1
慣性モーメント
 41
1.146341517204192
  7
DCSTYLE1
 72
     5
 11
-34.82741386407703
 21
-155.9830685470727
 31
0.0
  0
TEXT
  5
3EF
  8
0
 62
     6
 10
-61.68455798143238
 20
-147.9830685470727
 30
0.0
 40
4.0
  1
最高使用回転速度
 41
1.148936217135571
  7
DCSTYLE1
 72
     5
 11
-30.82741386407703
 21
-147.9830685470727
 31
0.0
  0
TEXT
  5
3F0
  8
0
 62
     6
 10
-61.68455798143238
 20
-139.9830685470727
 30
0.0
 40
4.0
  1
最大静的把握力
 41
1.146341517204192
  7
DCSTYLE1
 72
     5
 11
-34.82741386407703
 21
-139.9830685470727
 31
0.0
  0
TEXT
  5
3F1
  8
0
 62
     6
 10
-61.68455798143238
 20
-131.9830685470727
 30
0.0
 40
4.0
  1
許容シリンダ力
 41
1.146341517204192
  7
DCSTYLE1
 72
     5
 11
-34.82741386407703
 21
-131.9830685470727
 31
0.0
  0
TEXT
  5
3F2
  8
0
 62
     6
 10
-61.68455798143238
 20
-123.9830761764673
 30
0.0
 40
4.0
  1
ピストンストローク
 41
1.150943437837205
  7
DCSTYLE1
 72
     5
 11
-26.82741386407703
 21
-123.9830761764673
 31
0.0
  0
TEXT
  5
3F3
  8
0
 62
     6
 10
-61.68455798143238
 20
-115.9830761764673
 30
0.0
 40
4.0
  1
爪ﾉｽﾄﾛｰｸ
 41
1.146341517204192
  7
DCSTYLE1
 72
     5
 11
-34.82741386407703
 21
-115.9830761764673
 31
0.0
  0
TEXT
  5
3F4
  8
0
 62
     6
 10
29.72399800306469
 20
-115.7077465866235
 30
0.0
 40
4.0
  1
(直径ﾆﾃ) ４２ mm
 41
1.05128207955605
  7
DCSTYLE1
 72
     5
 11
76.58114212042004
 21
-115.7077465866235
 31
0.0
  0
TEXT
  5
3F5
  8
0
 62
     6
 10
57.76345532423169
 20
-123.4874707077173
 30
0.0
 40
4.0
  1
30 mm
 41
0.8461539027018425
  7
DCSTYLE1
 72
     5
 11
76.62059944158703
 21
-123.4874707077173
 31
0.0
  0
TEXT
  5
3F6
  8
0
 62
     6
 10
49.79215710645825
 20
-131.7090359542993
 30
0.0
 40
4.0
  1
33.4 kN
 41
1.119047671556473
  7
DCSTYLE1
 72
     5
 11
76.6493012238136
 21
-131.7090359542993
 31
0.0
  0
TEXT
  5
3F7
  8
0
 62
     6
 10
49.78138440138012
 20
-139.6542874191431
 30
0.0
 40
4.0
  1
37.8 kN
 41
1.119047671556473
  7
DCSTYLE1
 72
     5
 11
76.63852851873547
 21
-139.6542874191431
 31
0.0
  0
TEXT
  5
3F8
  8
0
 62
     6
 10
46.13741772657544
 20
-147.5995541427759
 30
0.0
 40
4.0
  1
2000 min
 41
1.051948094909841
  7
DCSTYLE1
 72
     5
 11
76.99456184393078
 21
-147.5995541427759
 31
0.0
  0
TEXT
  5
3F9
  8
0
 62
     6
 10
77.85170375591427
 20
-145.0995540831712
 30
0.0
 40
2.0
  1
-1
 41
0.9729731517869074
  7
DCSTYLE1
 72
     5
 11
81.28027581459195
 21
-145.0995540831712
 31
0.0
  0
TEXT
  5
3FA
  8
0
 62
     6
 10
37.70740979200512
 20
-155.7103329513696
 30
0.0
 40
4.0
  1
 0.45 kg・m
 41
1.062500034458935
  7
DCSTYLE1
 72
     5
 11
76.56455390936047
 21
-155.7103329513696
 31
0.0
  0
TEXT
  5
3FB
  8
0
 62
     6
 10
77.42169582134396
 20
-153.210332891765
 30
0.0
 40
2.0
  1
2
 41
0.8823533303597394
  7
DCSTYLE1
 72
     5
 11
78.85026788002163
 21
-153.210332891765
 31
0.0
  0
TEXT
  5
3FC
  8
0
 62
     6
 10
58.23266308790356
 20
-163.6555996750024
 30
0.0
 40
4.0
  1
40 kg
 41
1.064516200173286
  7
DCSTYLE1
 72
     5
 11
77.08980720525891
 21
-163.6555996750024
 31
0.0
  0
TEXT
  5
3FD
  8
0
 62
     6
 10
29.49320881849438
 20
-171.7663784835962
 30
0.0
 40
4.0
  1
外周ﾆﾃ   8 g以内
 41
1.078947397439103
  7
DCSTYLE1
 72
     5
 11
76.35035293584973
 21
-171.7663784835962
 31
0.0
  0
TEXT
  5
3FE
  8
0
 62
     6
 10
-61.68455798143238
 20
-107.9830761764673
 30
0.0
 40
4.0
  1
仕 様
 41
1.055555678076214
  7
DCSTYLE1
 72
     5
 11
-50.82741386407703
 21
-107.9830761764673
 31
0.0
  0
LINE
  5
3FF
  8
0
  6
CONTINUOUS
 62
     2
 10
110.1317084948922
 20
-25.811436969316
 30
0.0
 11
115.1979654400883
 21
-22.88643914787122
 31
0.0
  0
LINE
  5
400
  8
0
  6
CONTINUOUS
 62
     2
 10
115.1979603037285
 20
-22.88645478826437
 30
0.0
 11
120.2642033192424
 21
-25.81146134775361
 31
0.0
  0
LINE
  5
401
  8
0
  6
CONTINUOUS
 62
     2
 10
120.2642023759203
 20
-25.81145110389776
 30
0.0
 11
120.2642023759203
 21
-31.66144767067022
 31
0.0
  0
LINE
  5
402
  8
0
  6
CONTINUOUS
 62
     2
 10
120.2641968285233
 20
-31.66146080206205
 30
0.0
 11
115.1979464905807
 21
-34.58645480881638
 31
0.0
  0
LINE
  5
403
  8
0
  6
CONTINUOUS
 62
     2
 10
115.1979468259086
 20
-34.58643544870325
 30
0.0
 11
110.1317086742055
 21
-31.66143584210045
 31
0.0
  0
LINE
  5
404
  8
0
  6
CONTINUOUS
 62
     2
 10
110.1317026810961
 20
-31.66144004127569
 30
0.0
 11
110.1317026810961
 21
-25.81143965980596
 31
0.0
  0
LINE
  5
405
  8
0
  6
CONTINUOUS
 62
     2
 10
39.05387873003407
 20
-12.40834012384835
 30
0.0
 11
44.12013567523015
 21
-9.483342302403578
 31
0.0
  0
LINE
  5
406
  8
0
  6
CONTINUOUS
 62
     2
 10
44.12013301798542
 20
-9.483351533993904
 30
0.0
 11
49.18637603349934
 21
-12.40835809348315
 31
0.0
  0
LINE
  5
407
  8
0
  6
CONTINUOUS
 62
     2
 10
49.186374922307
 20
-12.40834632179327
 30
0.0
 11
49.186374922307
 21
-18.25834479591436
 31
0.0
  0
LINE
  5
408
  8
0
  6
CONTINUOUS
 62
     2
 10
49.1863683914918
 20
-18.25834336823846
 30
0.0
 11
44.12011144629572
 21
-21.18334118968324
 31
0.0
  0
LINE
  5
409
  8
0
  6
CONTINUOUS
 62
     2
 10
44.12012334439454
 20
-21.18333346749865
 30
0.0
 11
39.05387858544522
 21
-18.25833004619313
 31
0.0
  0
LINE
  5
40A
  8
0
  6
CONTINUOUS
 62
     2
 10
39.05387522748278
 20
-18.2583352591712
 30
0.0
 11
39.05387522748278
 21
-12.4083367850501
 31
0.0
  0
LINE
  5
40B
  8
0
  6
CONTINUOUS
 62
     2
 10
65.0346402580782
 20
2.591661134888675
 30
0.0
 11
70.10089720327427
 21
5.516658956333451
 31
0.0
  0
LINE
  5
40C
  8
0
  6
CONTINUOUS
 62
     2
 10
70.10090076520477
 20
5.516659415829956
 30
0.0
 11
75.16714047709674
 21
2.591654763694116
 31
0.0
  0
LINE
  5
40D
  8
0
  6
CONTINUOUS
 62
     2
 10
75.16713740399645
 20
2.591652247695258
 30
0.0
 11
75.16713740399645
 21
-3.258346703262994
 31
0.0
  0
LINE
  5
40E
  8
0
  6
CONTINUOUS
 62
     2
 10
75.16712947692703
 20
-3.258348972286747
 30
0.0
 11
70.10087913898441
 21
-6.183342979041079
 31
0.0
  0
LINE
  5
40F
  8
0
  6
CONTINUOUS
 62
     2
 10
70.10088029570387
 20
-6.183339547719022
 30
0.0
 11
65.03463223313146
 21
-3.258334219062142
 31
0.0
  0
LINE
  5
410
  8
0
  6
CONTINUOUS
 62
     2
 10
65.03463770917223
 20
-3.25833716651983
 30
0.0
 11
65.03463770917223
 21
2.591661784438422
 31
0.0
  0
LINE
  5
411
  8
0
  6
CONTINUOUS
 62
     2
 10
189.7423121423079
 20
2.591677025643314
 30
0.0
 11
194.808569087504
 21
5.51667484708809
 31
0.0
  0
LINE
  5
412
  8
0
  6
CONTINUOUS
 62
     2
 10
194.808596542813
 20
5.516697954381691
 30
0.0
 11
199.8748461655708
 21
2.591687580185628
 31
0.0
  0
LINE
  5
413
  8
0
  6
CONTINUOUS
 62
     2
 10
199.8747904496507
 20
2.591669413832953
 30
0.0
 11
199.8747904496507
 21
-3.258329537125299
 31
0.0
  0
LINE
  5
414
  8
0
  6
CONTINUOUS
 62
     2
 10
199.8748098757554
 20
-3.25833257046839
 30
0.0
 11
194.8085529305594
 21
-6.183330391913167
 31
0.0
  0
LINE
  5
415
  8
0
  6
CONTINUOUS
 62
     2
 10
194.8085492983868
 20
-6.183322084390291
 30
0.0
 11
189.7422979321913
 21
-3.258314848382049
 31
0.0
  0
LINE
  5
416
  8
0
  6
CONTINUOUS
 62
     2
 10
189.7423289017992
 20
-3.258320000382135
 30
0.0
 11
189.7423289017992
 21
2.591678950576117
 31
0.0
  0
LINE
  5
417
  8
0
  6
CONTINUOUS
 62
     2
 10
215.7230627025609
 20
-12.40832609005179
 30
0.0
 11
220.7893328622639
 21
-9.483320639226129
 31
0.0
  0
LINE
  5
418
  8
0
  6
CONTINUOUS
 62
     2
 10
220.7893596206062
 20
-9.483299953081094
 30
0.0
 11
225.8555960288762
 21
-12.40830269786353
 31
0.0
  0
LINE
  5
419
  8
0
  6
CONTINUOUS
 62
     2
 10
225.855564375432
 20
-12.40832915565557
 30
0.0
 11
225.855564375432
 21
-18.25832762977667
 31
0.0
  0
LINE
  5
41A
  8
0
  6
CONTINUOUS
 62
     2
 10
225.8555868650222
 20
-18.25832042740172
 30
0.0
 11
220.7893299198262
 21
-21.1833182488465
 31
0.0
  0
LINE
  5
41B
  8
0
  6
CONTINUOUS
 62
     2
 10
220.7892890288462
 20
-21.18332930541079
 30
0.0
 11
215.7230376626507
 21
-18.25832206940255
 31
0.0
  0
LINE
  5
41C
  8
0
  6
CONTINUOUS
 62
     2
 10
215.7230570512132
 20
-18.2583180930335
 30
0.0
 11
215.7230570512132
 21
-12.40831961891241
 31
0.0
  0
LINE
  5
41D
  8
0
  6
CONTINUOUS
 62
     2
 10
127.3884674933894
 20
140.5916497616806
 30
0.0
 11
132.4547244385855
 21
143.5166475831254
 31
0.0
  0
LINE
  5
41E
  8
0
  6
CONTINUOUS
 62
     2
 10
132.4547548879792
 20
143.5166853935475
 30
0.0
 11
137.5209979034931
 21
140.5916788340583
 31
0.0
  0
LINE
  5
41F
  8
0
  6
CONTINUOUS
 62
     2
 10
137.520962019475
 20
140.591657492904
 30
0.0
 11
137.520962019475
 21
134.7416666481774
 31
0.0
  0
LINE
  5
420
  8
0
  6
CONTINUOUS
 62
     2
 10
137.5209556901108
 20
134.7416566837026
 30
0.0
 11
132.4546987449147
 21
131.8166588622578
 31
0.0
  0
LINE
  5
421
  8
0
  6
CONTINUOUS
 62
     2
 10
132.4547003687388
 20
131.8166518531141
 30
0.0
 11
127.3884556097895
 21
134.7416552744196
 31
0.0
  0
LINE
  5
422
  8
0
  6
CONTINUOUS
 62
     2
 10
127.3884699540453
 20
134.7416666481774
 30
0.0
 11
127.3884699540453
 21
140.5916727516931
 31
0.0
  0
LINE
  5
423
  8
0
  6
CONTINUOUS
 62
     2
 10
127.3884592497065
 20
110.5916711865764
 30
0.0
 11
132.4547161949025
 21
113.5166690080212
 31
0.0
  0
LINE
  5
424
  8
0
  6
CONTINUOUS
 62
     2
 10
132.4547471875968
 20
113.5166865452588
 30
0.0
 11
137.5209935067327
 21
110.5916780784162
 31
0.0
  0
LINE
  5
425
  8
0
  6
CONTINUOUS
 62
     2
 10
137.520962019475
 20
110.591657492904
 30
0.0
 11
137.520962019475
 21
104.7416590187829
 31
0.0
  0
LINE
  5
426
  8
0
  6
CONTINUOUS
 62
     2
 10
137.5209588904992
 20
104.7416582868379
 30
0.0
 11
132.4547019453031
 21
101.8166604653932
 31
0.0
  0
LINE
  5
427
  8
0
  6
CONTINUOUS
 62
     2
 10
132.4547044686245
 20
101.8166571233066
 30
0.0
 11
127.3884597096752
 21
104.7416605446122
 31
0.0
  0
LINE
  5
428
  8
0
  6
CONTINUOUS
 62
     2
 10
127.3884699540453
 20
104.7416666481774
 30
0.0
 11
127.3884699540453
 21
110.5916651222985
 31
0.0
  0
CIRCLE
  5
429
  8
0
  6
CONTINUOUS
 62
     2
 10
115.1979487138109
 20
-28.73644461891241
 30
0.0
 40
9.0
  0
CIRCLE
  5
42A
  8
0
  6
CONTINUOUS
 62
     2
 10
44.12012507489489
 20
-15.33333983680792
 30
0.0
 40
9.0
  0
CIRCLE
  5
42B
  8
0
  6
CONTINUOUS
 62
     2
 10
70.10088755658434
 20
-0.3333407904822323
 30
0.0
 40
9.0
  0
CIRCLE
  5
42C
  8
0
  6
CONTINUOUS
 62
     2
 10
194.8085825639085
 20
-0.333323624344537
 30
0.0
 40
9.0
  0
CIRCLE
  5
42D
  8
0
  6
CONTINUOUS
 62
     2
 10
220.7893107133226
 20
-15.33332267067022
 30
0.0
 40
9.0
  0
CIRCLE
  5
42E
  8
0
  6
CONTINUOUS
 62
     2
 10
132.4547159867601
 20
137.6666696999353
 30
0.0
 40
9.0
  0
CIRCLE
  5
42F
  8
0
  6
CONTINUOUS
 62
     2
 10
132.4547159867601
 20
107.6666620705407
 30
0.0
 40
9.0
  0
LINE
  5
430
  8
0
  6
DASHED
 62
     2
 10
70.45471598676012
 20
144.2069834206384
 30
0.0
 11
70.45471598676012
 21
112.6666620705407
 31
0.0
  0
LINE
  5
431
  8
0
  6
DASHED
 62
     2
 10
33.98644663861559
 20
112.6666620705407
 30
0.0
 11
70.45471598676012
 21
112.6666620705407
 31
0.0
  0
LINE
  5
432
  8
0
  6
DASHED
 62
     2
 10
70.45471598676012
 20
133.6666696999353
 30
0.0
 11
84.30415751508043
 21
133.6666696999353
 31
0.0
  0
LINE
  5
433
  8
0
  6
DASHED
 62
     2
 10
70.45471598676012
 20
115.6666620705407
 30
0.0
 11
83.59609629681871
 21
115.6666620705407
 31
0.0
  0
LINE
  5
434
  8
0
  6
DASHED
 62
     2
 10
58.45471598676012
 20
127.0666635964196
 30
0.0
 11
58.45471598676012
 21
122.2666605446618
 31
0.0
  0
LINE
  5
435
  8
0
  6
DASHED
 62
     2
 10
61.15471674969957
 20
127.9666651222985
 30
0.0
 11
61.15471674969957
 21
121.3666590187829
 31
0.0
  0
LINE
  5
436
  8
0
  6
DASHED
 62
     2
 10
66.89346720746325
 20
118.9666651222985
 30
0.0
 11
70.015964766057
 21
118.9666651222985
 31
0.0
  0
LINE
  5
437
  8
0
  6
DASHED
 62
     2
 10
66.89346720746325
 20
130.3666590187829
 30
0.0
 11
70.015964766057
 21
130.3666590187829
 31
0.0
  0
LINE
  5
438
  8
0
  6
DASHED
 62
     2
 10
61.15469084845638
 20
121.366622443592
 30
0.0
 11
58.45469405132629
 21
122.266621262877
 31
0.0
  0
LINE
  5
439
  8
0
  6
DASHED
 62
     2
 10
61.15472742738747
 20
127.9666112806588
 30
0.0
 11
58.45473063025737
 21
127.0666124613738
 31
0.0
  0
LINE
  5
43A
  8
0
  6
DASHED
 62
     2
 10
62.15471674969957
 20
127.4119928810876
 30
0.0
 11
62.15471674969957
 21
121.8711832497399
 31
0.0
  0
LINE
  5
43B
  8
0
  6
DASHED
 62
     2
 10
66.45471598676012
 20
129.1166590187829
 30
0.0
 11
66.45471598676012
 21
120.2166651222985
 31
0.0
  0
LINE
  5
43C
  8
0
  6
DASHED
 62
     2
 10
67.19860484174059
 20
127.5603235695642
 30
0.0
 11
69.71082713177965
 21
127.5603235695642
 31
0.0
  0
LINE
  5
43D
  8
0
  6
DASHED
 62
     2
 10
67.19860484174059
 20
121.7730005715173
 30
0.0
 11
69.71082713177965
 21
121.7730005715173
 31
0.0
  0
LINE
  5
43E
  8
0
  6
DASHED
 62
     2
 10
70.4547178106399
 20
128.8166905497859
 30
0.0
 11
77.15515140967175
 21
128.6997340525203
 31
0.0
  0
LINE
  5
43F
  8
0
  6
DASHED
 62
     2
 10
70.4547189954392
 20
120.5166805457532
 30
0.0
 11
77.16593128720798
 21
120.6338251857903
 31
0.0
  0
LINE
  5
440
  8
0
  6
DASHED
 62
     2
 10
70.45472528953763
 20
128.1165792008127
 30
0.0
 11
77.14294227397767
 21
127.9998359453367
 31
0.0
  0
LINE
  5
441
  8
0
  6
DASHED
 62
     2
 10
70.45471884610427
 20
121.2167917615751
 30
0.0
 11
77.15371452328125
 21
121.3337231598227
 31
0.0
  0
ARC
  5
442
  8
0
  6
DASHED
 62
     2
 10
61.15471674969957
 20
124.6666620705407
 30
0.0
 40
3.299999952316284
 50
73.48282241201396
 51
89.99998201391067
  0
ARC
  5
443
  8
0
  6
DASHED
 62
     2
 10
61.15471674969957
 20
124.6666620705407
 30
0.0
 40
3.299999952316284
 50
270.0000179860893
 51
286.5171775879861
  0
ARC
  5
444
  8
0
  6
DASHED
 62
     2
 10
68.45471598676012
 20
129.1166590187829
 30
0.0
 40
2.0
 50
0.0
 51
38.68218896809859
  0
ARC
  5
445
  8
0
  6
DASHED
 62
     2
 10
68.45471598676012
 20
120.2166651222985
 30
0.0
 40
2.0
 50
0.0
 51
51.09316519948327
  0
ARC
  5
446
  8
0
  6
DASHED
 62
     2
 10
64.45471598676012
 20
124.6666620705407
 30
0.0
 40
6.0
 50
0.0
 51
28.83423780766662
  0
ARC
  5
447
  8
0
  6
DASHED
 62
     2
 10
72.45471598676012
 20
124.6666620705407
 30
0.0
 40
6.0
 50
151.1657740314789
 51
208.8342086656771
  0
ARC
  5
448
  8
0
  6
DASHED
 62
     2
 10
64.45471598676012
 20
124.6666620705407
 30
0.0
 40
6.0
 50
331.1657621923334
 51
0.0
  0
ARC
  5
449
  8
0
  6
DASHED
 62
     2
 10
68.45471598676012
 20
129.1166590187829
 30
0.0
 40
2.0
 50
308.9068348005167
 51
0.0
  0
ARC
  5
44A
  8
0
  6
DASHED
 62
     2
 10
68.45471598676012
 20
129.1166590187829
 30
0.0
 40
2.0
 50
141.3178297012361
 51
231.0931121518317
  0
ARC
  5
44B
  8
0
  6
DASHED
 62
     2
 10
68.45471598676012
 20
120.2166651222985
 30
0.0
 40
2.0
 50
128.906856884946
 51
218.6821529959199
  0
ARC
  5
44C
  8
0
  6
DASHED
 62
     2
 10
68.45471598676012
 20
120.2166651222985
 30
0.0
 40
2.0
 50
321.3178110319014
 51
0.0
  0
ARC
  5
44D
  8
0
  6
DASHED
 62
     2
 10
62.48791148236559
 20
133.4666727516931
 30
0.0
 40
5.650000095367432
 50
265.9910930942638
 51
315.0592540539054
  0
ARC
  5
44E
  8
0
  6
DASHED
 62
     2
 10
62.48791148236559
 20
115.8666590187829
 30
0.0
 40
5.650000095367432
 50
44.94074594609464
 51
94.00890690573628
  0
ARC
  5
44F
  8
0
  6
DASHED
 62
     2
 10
59.15471674969957
 20
124.6666620705407
 30
0.0
 40
1.5
 50
117.818154050457
 51
242.1818423070773
  0
TEXT
  5
450
  8
0
 62
     5
 10
103.6690007644014
 20
-71.83333792945928
 30
0.0
 40
5.0
  1
NIKKO
 41
1.08791221838731
  7
DCSTYLE1
 72
     5
 11
127.2404321627931
 21
-71.83333792945928
 31
0.0
  0
TEXT
  5
451
  8
0
 62
     5
 10
135.0261285500841
 20
-71.33333792945928
 30
0.0
 40
4.0
  1
 GO3-10
 41
0.9591837780816215
  7
DCSTYLE1
 72
     5
 11
161.8832743363695
 21
-71.33333792945928
 31
0.0
  0
TEXT
  5
452
  8
0
 62
     5
 10
135.3832717137651
 20
-77.83333792945928
 30
0.0
 40
3.0
  1
 0001
 41
1.076086987619815
  7
DCSTYLE1
 72
     5
 11
149.5261292653398
 21
-77.83333792945928
 31
0.0
  0
TEXT
  5
453
  8
0
 62
     5
 10
237.3167180508063
 20
64.94038568143044
 30
0.0
 40
2.900000095367432
  1
F MAX   33KN
 50
120.0
 41
1.054848850532508
  7
DCSTYLE1
 72
     5
 11
219.6178606837676
 21
95.59570587705625
 31
0.0
  0
TEXT
  5
454
  8
0
 62
     5
 10
241.6468266933845
 20
67.44038568143044
 30
0.0
 40
2.900000095367432
  1
ΣS MAX  37KN
 50
120.0
 41
1.059207730080162
  7
DCSTYLE1
 72
     5
 11
223.9479693263457
 21
98.09570587705625
 31
0.0
  0
TEXT
  5
455
  8
0
 62
     5
 10
245.9769658535407
 20
69.94038568143046
 30
0.0
 40
2.900000095367432
  1
N MAX 2000 AT ΣS MAX
 50
120.0
 41
1.078454297564629
  7
DCSTYLE1
 72
     5
 11
216.1910842746184
 21
121.5310459243537
 31
0.0
  0
CIRCLE
  5
456
  8
0
  6
CONTINUOUS
 62
     3
 10
132.4547161080675
 20
75.16666977668932
 30
0.0
 40
3.0
  0
CIRCLE
  5
457
  8
0
  6
CONTINUOUS
 62
     3
 10
132.4547161080675
 20
75.16666977668932
 30
0.0
 40
3.0
  0
CIRCLE
  5
458
  8
0
  6
CONTINUOUS
 62
     3
 10
132.454767346237
 20
35.66666977668933
 30
0.0
 40
35.0
  0
CIRCLE
  5
459
  8
0
  6
CONTINUOUS
 62
     3
 10
98.24678951583644
 20
15.91662540313287
 30
0.0
 40
2.999999999999999
  0
CIRCLE
  5
45A
  8
0
  6
CONTINUOUS
 62
     3
 10
98.24678951583644
 20
15.91662540313287
 30
0.0
 40
2.999999999999999
  0
CIRCLE
  5
45B
  8
0
  6
CONTINUOUS
 62
     3
 10
166.6627964148071
 20
15.91671415024577
 30
0.0
 40
3.0
  0
CIRCLE
  5
45C
  8
0
  6
CONTINUOUS
 62
     3
 10
166.6627964148071
 20
15.91671415024577
 30
0.0
 40
3.0
  0
VIEWPORT
  5
B3
 67
     1
  8
0
 10
0.0
 20
0.0
 30
0.0
 40
1662.0
 41
1140.0
 68
     1
 69
     1
1001
ACAD
1000
MVIEW
1002
{
1070
    16
1010
0.0
1020
0.0
1030
0.0
1010
0.0
1020
0.0
1030
1.0
1040
0.0
1040
1140.0
1040
0.0
1040
0.0
1040
50.0
1040
0.0
1040
0.0
1070
     0
1070
   100
1070
     0
1070
     3
1070
     0
1070
     0
1070
     0
1070
     0
1040
0.0
1040
0.0
1040
0.0
1040
0.5
1040
0.5
1040
0.0
1040
0.0
1070
     0
1002
{
1002
}
1002
}
  0
ENDSEC
  0
EOF
