  0
SECTION
  2
HEADER
  9
$ACADVER
  1
AC1009
  9
$DWGCODEPAGE
  3
ansi_932
  9
$INSBASE
 10
0.0
 20
0.0
 30
0.0
  9
$EXTMIN
 10
-831.0
 20
-569.9999999999999
 30
0.0
  9
$EXTMAX
 10
831.0
 20
569.9999999999999
 30
0.0
  9
$LIMMIN
 10
-297.0
 20
-210.0
  9
$LIMMAX
 10
297.0
 20
210.0
  9
$ORTHOMODE
 70
     0
  9
$REGENMODE
 70
     1
  9
$FILLMODE
 70
     1
  9
$QTEXTMODE
 70
     0
  9
$MIRRTEXT
 70
     1
  9
$DRAGMODE
 70
     2
  9
$LTSCALE
 40
0.25
  9
$OSMODE
 70
    37
  9
$ATTMODE
 70
     1
  9
$TEXTSIZE
 40
0.2
  9
$TRACEWID
 40
0.05
  9
$TEXTSTYLE
  7
STANDARD
  9
$CLAYER
  8
0
  9
$CELTYPE
  6
BYLAYER
  9
$CECOLOR
 62
   256
  9
$DIMSCALE
 40
1.0
  9
$DIMASZ
 40
2.499996185302734
  9
$DIMEXO
 40
1.0
  9
$DIMDLI
 40
10.0
  9
$DIMRND
 40
0.0
  9
$DIMDLE
 40
0.0
  9
$DIMEXE
 40
1.0
  9
$DIMTP
 40
0.0
  9
$DIMTM
 40
0.0
  9
$DIMTXT
 40
4.0
  9
$DIMCEN
 40
0.0
  9
$DIMTSZ
 40
0.0
  9
$DIMTOL
 70
     0
  9
$DIMLIM
 70
     0
  9
$DIMTIH
 70
     0
  9
$DIMTOH
 70
     0
  9
$DIMSE1
 70
     0
  9
$DIMSE2
 70
     0
  9
$DIMTAD
 70
     1
  9
$DIMZIN
 70
     8
  9
$DIMBLK
  1

  9
$DIMASO
 70
     1
  9
$DIMSHO
 70
     1
  9
$DIMPOST
  1

  9
$DIMAPOST
  1

  9
$DIMALT
 70
     0
  9
$DIMALTD
 70
     2
  9
$DIMALTF
 40
0.0393700787401575
  9
$DIMLFAC
 40
1.0
  9
$DIMTOFL
 70
     0
  9
$DIMTVP
 40
0.0
  9
$DIMTIX
 70
     0
  9
$DIMSOXD
 70
     0
  9
$DIMSAH
 70
     0
  9
$DIMBLK1
  1

  9
$DIMBLK2
  1

  9
$DIMSTYLE
  2
STANDARD
  9
$DIMCLRD
 70
     0
  9
$DIMCLRE
 70
     0
  9
$DIMCLRT
 70
     0
  9
$DIMTFAC
 40
0.65
  9
$DIMGAP
 40
0.09
  9
$LUNITS
 70
     2
  9
$LUPREC
 70
     4
  9
$SKETCHINC
 40
0.1
  9
$FILLETRAD
 40
0.5
  9
$AUNITS
 70
     0
  9
$AUPREC
 70
     0
  9
$MENU
  1
.
  9
$ELEVATION
 40
0.0
  9
$PELEVATION
 40
0.0
  9
$THICKNESS
 40
0.0
  9
$LIMCHECK
 70
     0
  9
$CHAMFERA
 40
0.0
  9
$CHAMFERB
 40
0.0
  9
$SKPOLY
 70
     0
  9
$TDCREATE
 40
2459766.385365243
  9
$TDUPDATE
 40
2459766.385365602
  9
$TDINDWG
 40
0.0000000116
  9
$TDUSRTIMER
 40
0.0000000116
  9
$USRTIMER
 70
     1
  9
$ANGBASE
 50
0.0
  9
$ANGDIR
 70
     0
  9
$PDMODE
 70
     0
  9
$PDSIZE
 40
1.0
  9
$PLINEWID
 40
0.0
  9
$COORDS
 70
     1
  9
$SPLFRAME
 70
     0
  9
$SPLINETYPE
 70
     6
  9
$SPLINESEGS
 70
     8
  9
$ATTDIA
 70
     0
  9
$ATTREQ
 70
     1
  9
$HANDLING
 70
     1
  9
$HANDSEED
  5
48E
  9
$SURFTAB1
 70
     6
  9
$SURFTAB2
 70
     6
  9
$SURFTYPE
 70
     6
  9
$SURFU
 70
     6
  9
$SURFV
 70
     6
  9
$UCSNAME
  2

  9
$UCSORG
 10
0.0
 20
0.0
 30
0.0
  9
$UCSXDIR
 10
1.0
 20
0.0
 30
0.0
  9
$UCSYDIR
 10
0.0
 20
1.0
 30
0.0
  9
$PUCSNAME
  2

  9
$PUCSORG
 10
0.0
 20
0.0
 30
0.0
  9
$PUCSXDIR
 10
1.0
 20
0.0
 30
0.0
  9
$PUCSYDIR
 10
0.0
 20
1.0
 30
0.0
  9
$USERI1
 70
     0
  9
$USERI2
 70
     0
  9
$USERI3
 70
     0
  9
$USERI4
 70
     0
  9
$USERI5
 70
     0
  9
$USERR1
 40
0.0
  9
$USERR2
 40
0.0
  9
$USERR3
 40
0.0
  9
$USERR4
 40
0.0
  9
$USERR5
 40
0.0
  9
$WORLDVIEW
 70
     1
  9
$SHADEDGE
 70
     3
  9
$SHADEDIF
 70
    70
  9
$TILEMODE
 70
     1
  9
$MAXACTVP
 70
    64
  9
$PLIMCHECK
 70
     0
  9
$PEXTMIN
 10
1.000000000000000E+20
 20
1.000000000000000E+20
 30
1.000000000000000E+20
  9
$PEXTMAX
 10
-1.000000000000000E+20
 20
-1.000000000000000E+20
 30
-1.000000000000000E+20
  9
$PLIMMIN
 10
0.0
 20
0.0
  9
$PLIMMAX
 10
12.0
 20
9.0
  9
$UNITMODE
 70
     0
  9
$VISRETAIN
 70
     0
  9
$PLINEGEN
 70
     1
  9
$PSLTSCALE
 70
     0
  0
ENDSEC
  0
SECTION
  2
TABLES
  0
TABLE
  2
VPORT
 70
     1
  0
VPORT
  2
*ACTIVE
 70
     0
 10
0.0
 20
0.0
 11
1.0
 21
1.0
 12
0.0
 22
0.0
 13
0.0
 23
0.0
 14
0.5
 24
0.5
 15
0.5
 25
0.5
 16
0.0
 26
0.0
 36
1.0
 17
-0.0000000000000036
 27
0.0
 37
0.0
 40
387.6
 41
1.457894736842106
 42
50.0
 43
0.0
 44
0.0
 50
0.0
 51
0.0
 71
     0
 72
  1000
 73
     1
 74
     1
 75
     0
 76
     0
 77
     0
 78
     0
  0
ENDTAB
  0
TABLE
  2
LTYPE
 70
    67
  0
LTYPE
  2
CONTINUOUS
 70
     0
  3
Solid line
 72
    65
 73
     0
 40
0.0
  0
LTYPE
  2
HIDDENX2
 70
     0
  3
Hidden (2x) ____ ____ ____ ____ ____ ____ ____ 
 72
    65
 73
     2
 40
19.05
 49
12.7
 49
-6.35
  0
LTYPE
  2
HIDDEN
 70
     0
  3
Hidden __ __ __ __ __ __ __ __ __ __ __ __ __ __
 72
    65
 73
     2
 40
9.524999999999999
 49
6.35
 49
-3.175
  0
LTYPE
  2
HIDDEN2
 70
     0
  3
Hidden (.5x) _ _ _ _ _ _ _ _ _ _ _ _ _ _ _ _ _ 
 72
    65
 73
     2
 40
4.762499999999999
 49
3.175
 49
-1.5875
  0
LTYPE
  2
DASHED
 70
     0
  3
Dashed __ __ __ __ __ __ __ __ __ __ __ __ __ _
 72
    65
 73
     2
 40
19.05
 49
12.7
 49
-6.35
  0
LTYPE
  2
DASHED2
 70
     0
  3
Dashed (.5x) _ _ _ _ _ _ _ _ _ _ _ _ _ _ _ _ _ 
 72
    65
 73
     2
 40
9.524999999999999
 49
6.35
 49
-3.175
  0
LTYPE
  2
DASHEDX2
 70
     0
  3
Dashed (2x) ____  ____  ____  ____  ____  ___
 72
    65
 73
     2
 40
38.09999999999999
 49
25.4
 49
-12.7
  0
LTYPE
  2
DOTX2
 70
     0
  3
Dot (2x) .  .  .  .  .  .  .  .  .  .  .  .  .  .
 72
    65
 73
     2
 40
12.7
 49
0.0
 49
-12.7
  0
LTYPE
  2
DOT
 70
     0
  3
Dot . . . . . . . . . . . . . . . . . . . . . . . .
 72
    65
 73
     2
 40
6.35
 49
0.0
 49
-6.35
  0
LTYPE
  2
DOT2
 70
     0
  3
Dot (.5x) ........................................
 72
    65
 73
     2
 40
3.175
 49
0.0
 49
-3.175
  0
LTYPE
  2
CENTERX2
 70
     0
  3
Center (2x) ________  __  ________  __  _____
 72
    65
 73
     4
 40
101.6
 49
63.5
 49
-12.7
 49
12.7
 49
-12.7
  0
LTYPE
  2
CENTER
 70
     0
  3
Center ____ _ ____ _ ____ _ ____ _ ____ _ ____
 72
    65
 73
     4
 40
50.8
 49
31.75
 49
-6.35
 49
6.35
 49
-6.35
  0
LTYPE
  2
CENTER2
 70
     0
  3
Center (.5x) ___ _ ___ _ ___ _ ___ _ ___ _ ___
 72
    65
 73
     4
 40
28.575
 49
19.05
 49
-3.175
 49
3.175
 49
-3.175
  0
LTYPE
  2
DASHDOTX2
 70
     0
  3
Dash dot (2x) ____  .  ____  .  ____  .  ___
 72
    65
 73
     4
 40
50.8
 49
25.4
 49
-12.7
 49
0.0
 49
-12.7
  0
LTYPE
  2
DASHDOT
 70
     0
  3
Dash dot __ . __ . __ . __ . __ . __ . __ . __
 72
    65
 73
     4
 40
25.4
 49
12.7
 49
-6.35
 49
0.0
 49
-6.35
  0
LTYPE
  2
DASHDOT2
 70
     0
  3
Dash dot (.5x) _._._._._._._._._._._._._._._.
 72
    65
 73
     4
 40
12.7
 49
6.35
 49
-3.175
 49
0.0
 49
-3.175
  0
LTYPE
  2
DIVIDEX2
 70
     0
  3
Divide (2x) ________  .  .  ________  .  .  _
 72
    65
 73
     6
 40
63.5
 49
25.4
 49
-12.7
 49
0.0
 49
-12.7
 49
0.0
 49
-12.7
  0
LTYPE
  2
DIVIDE
 70
     0
  3
Divide ____ . . ____ . . ____ . . ____ . . ____
 72
    65
 73
     6
 40
31.75
 49
12.7
 49
-6.35
 49
0.0
 49
-6.35
 49
0.0
 49
-6.35
  0
LTYPE
  2
DIVIDE2
 70
     0
  3
Divide (.5x) __..__..__..__..__..__..__..__.._
 72
    65
 73
     6
 40
15.875
 49
6.35
 49
-3.175
 49
0.0
 49
-3.175
 49
0.0
 49
-3.175
  0
LTYPE
  2
BORDERX2
 70
     0
  3
Border (2x) ____  ____  .  ____  ____  .  ___
 72
    65
 73
     6
 40
88.89999999999999
 49
25.4
 49
-12.7
 49
25.4
 49
-12.7
 49
0.0
 49
-12.7
  0
LTYPE
  2
BORDER
 70
     0
  3
Border __ __ . __ __ . __ __ . __ __ . __ __ .
 72
    65
 73
     6
 40
44.45
 49
12.7
 49
-6.35
 49
12.7
 49
-6.35
 49
0.0
 49
-6.35
  0
LTYPE
  2
BORDER2
 70
     0
  3
Border (.5x) __.__.__.__.__.__.__.__.__.__.__.
 72
    65
 73
     6
 40
22.225
 49
6.35
 49
-3.175
 49
6.35
 49
-3.175
 49
0.0
 49
-3.175
  0
LTYPE
  2
PHANTOMX2
 70
     0
  3
Phantom (2x) ____________    ____    ____   _
 72
    65
 73
     6
 40
127.0
 49
63.5
 49
-12.7
 49
12.7
 49
-12.7
 49
12.7
 49
-12.7
  0
LTYPE
  2
PHANTOM
 70
     0
  3
Phantom ______  __  __  ______  __  __  ______ 
 72
    65
 73
     6
 40
63.5
 49
31.75
 49
-6.35
 49
6.35
 49
-6.35
 49
6.35
 49
-6.35
  0
LTYPE
  2
PHANTOM2
 70
     0
  3
Phantom (.5x) ___ _ _ ___ _ _ ___ _ _ ___ _ _
 72
    65
 73
     6
 40
31.75
 49
15.875
 49
-3.175
 49
3.175
 49
-3.175
 49
3.175
 49
-3.175
  0
LTYPE
  2
ACAD_ISO06W100
 70
     0
  3
ISO long-dash triple-dot ____ ... ____ ... ____
 72
    65
 73
     8
 40
36.0
 49
24.0
 49
-3.0
 49
0.0
 49
-3.0
 49
0.0
 49
-3.0
 49
0.0
 49
-3.0
  0
LTYPE
  2
ACAD_ISO13W100
 70
     0
  3
ISO double-dash double-dot __ __ . . __ __ . . _
 72
    65
 73
     8
 40
36.0
 49
12.0
 49
-3.0
 49
12.0
 49
-3.0
 49
0.0
 49
-3.0
 49
0.0
 49
-3.0
  0
LTYPE
  2
ACAD_ISO14W100
 70
     0
  3
ISO dash triple-dot __ . . . __ . . . __ . . . _
 72
    65
 73
     8
 40
24.0
 49
12.0
 49
-3.0
 49
0.0
 49
-3.0
 49
0.0
 49
-3.0
 49
0.0
 49
-3.0
  0
LTYPE
  2
ACAD_ISO02W100
 70
     0
  3
ISO dash __ __ __ __ __ __ __ __ __ __ __ __ __
 72
    65
 73
     2
 40
15.0
 49
12.0
 49
-3.0
  0
LTYPE
  2
ACAD_ISO03W100
 70
     0
  3
ISO dash space __    __    __    __    __    __
 72
    65
 73
     2
 40
30.0
 49
12.0
 49
-18.0
  0
LTYPE
  2
ACAD_ISO04W100
 70
     0
  3
ISO long-dash dot ____ . ____ . ____ . ____ . _
 72
    65
 73
     4
 40
30.0
 49
24.0
 49
-3.0
 49
0.0
 49
-3.0
  0
LTYPE
  2
ACAD_ISO05W100
 70
     0
  3
ISO long-dash double-dot ____ .. ____ .. ____ . 
 72
    65
 73
     6
 40
33.0
 49
24.0
 49
-3.0
 49
0.0
 49
-3.0
 49
0.0
 49
-3.0
  0
LTYPE
  2
ACAD_ISO07W100
 70
     0
  3
ISO dot . . . . . . . . . . . . . . . . . . . . 
 72
    65
 73
     2
 40
3.0
 49
0.0
 49
-3.0
  0
LTYPE
  2
ACAD_ISO08W100
 70
     0
  3
ISO long-dash short-dash ____ __ ____ __ ____ _
 72
    65
 73
     4
 40
36.0
 49
24.0
 49
-3.0
 49
6.0
 49
-3.0
  0
LTYPE
  2
ACAD_ISO09W100
 70
     0
  3
ISO long-dash double-short-dash ____ __ __ ____
 72
    65
 73
     6
 40
45.0
 49
24.0
 49
-3.0
 49
6.0
 49
-3.0
 49
6.0
 49
-3.0
  0
LTYPE
  2
ACAD_ISO10W100
 70
     0
  3
ISO dash dot __ . __ . __ . __ . __ . __ . __ . 
 72
    65
 73
     4
 40
18.0
 49
12.0
 49
-3.0
 49
0.0
 49
-3.0
  0
LTYPE
  2
ACAD_ISO11W100
 70
     0
  3
ISO double-dash dot __ __ . __ __ . __ __ . __ _
 72
    65
 73
     6
 40
33.0
 49
12.0
 49
-3.0
 49
12.0
 49
-3.0
 49
0.0
 49
-3.0
  0
LTYPE
  2
ACAD_ISO12W100
 70
     0
  3
ISO dash double-dot __ . . __ . . __ . . __ . . 
 72
    65
 73
     6
 40
21.0
 49
12.0
 49
-3.0
 49
0.0
 49
-3.0
 49
0.0
 49
-3.0
  0
LTYPE
  2
ACAD_ISO15W100
 70
     0
  3
ISO double-dash triple-dot __ __ . . . __ __ . .
 72
    65
 73
    10
 40
39.0
 49
12.0
 49
-3.0
 49
12.0
 49
-3.0
 49
0.0
 49
-3.0
 49
0.0
 49
-3.0
 49
0.0
 49
-3.0
  0
LTYPE
  2
JIS_02_0_7
 70
     0
  3
HIDDEN0.75 _ _ _ _ _ _ _ _ _ _ _ _ _ _ _ _ _ 
 72
    65
 73
     2
 40
1.35
 49
0.75
 49
-0.6
  0
LTYPE
  2
JIS_02_1_0
 70
     0
  3
HIDDEN01 _ _ _ _ _ _ _ _ _ _ _ _ _ _ _ _ _ 
 72
    65
 73
     2
 40
2.0
 49
1.0
 49
-1.0
  0
LTYPE
  2
JIS_02_1_2
 70
     0
  3
HIDDEN01.25  _ _ _ _ _ _ _ _ _ _ _ _ _ _ _ _ _ 
 72
    65
 73
     2
 40
2.5
 49
1.25
 49
-1.25
  0
LTYPE
  2
JIS_02_2_0
 70
     0
  3
HIDDEN02 __ __ __ __ __ __ __ __ __ __ __ 
 72
    65
 73
     2
 40
3.0
 49
2.0
 49
-1.0
  0
LTYPE
  2
JIS_02_4_0
 70
     0
  3
HIDDEN04 ____ ____ ____ ____ ____ ____ ____ 
 72
    65
 73
     2
 40
5.5
 49
4.0
 49
-1.5
  0
LTYPE
  2
JIS_08_11
 70
     0
  3
1SASEN11 ___ _ ___ _ ___ _ ___ _ ___ _ ___
 72
    65
 73
     4
 40
12.8
 49
11.0
 49
-0.6
 49
0.6
 49
-0.6
  0
LTYPE
  2
JIS_08_15
 70
     0
  3
1SASEN15 ____ _ ____ _ ____ _ ____ _ ____ 
 72
    65
 73
     4
 40
17.25
 49
15.0
 49
-0.75
 49
0.75
 49
-0.75
  0
LTYPE
  2
JIS_08_25
 70
     0
  3
1SASEN25 ________  __  ________  __  _____
 72
    65
 73
     4
 40
28.0
 49
25.0
 49
-1.125
 49
0.75
 49
-1.125
  0
LTYPE
  2
JIS_08_37
 70
     0
  3
1SASEN37 ________  __  ________  __  _____
 72
    65
 73
     4
 40
40.5
 49
37.5
 49
-1.125
 49
0.75
 49
-1.125
  0
LTYPE
  2
JIS_08_50
 70
     0
  3
1SASEN50 _______________  __  ____________
 72
    65
 73
     4
 40
53.0
 49
50.0
 49
-1.125
 49
0.75
 49
-1.125
  0
LTYPE
  2
JIS_09_08
 70
     0
  3
2SASEN8 __ _ _ __ _ _ __ _ _ __ _ _ __ _ _ 
 72
    65
 73
     6
 40
10.75
 49
8.0
 49
-0.55
 49
0.55
 49
-0.55
 49
0.55
 49
-0.55
  0
LTYPE
  2
JIS_09_15
 70
     0
  3
2SASEN15 ___ _ _ ___ _ _ ___ _ _ ___ _ _ ___ 
 72
    65
 73
     6
 40
18.9
 49
15.0
 49
-0.9
 49
0.6
 49
-0.9
 49
0.6
 49
-0.9
  0
LTYPE
  2
JIS_09_29
 70
     0
  3
2SASEN29 ______　__  __  ______　__  __  ___
 72
    65
 73
     6
 40
34.0
 49
29.0
 49
-1.2
 49
0.7
 49
-1.2
 49
0.7
 49
-1.2
  0
LTYPE
  2
JIS_09_50
 70
     0
  3
2SASEN50 ____________　__  __  _____________
 72
    65
 73
     6
 40
55.0
 49
50.0
 49
-1.2
 49
0.7
 49
-1.2
 49
0.7
 49
-1.2
  0
LTYPE
  2
SXF_破線
 70
     0
  3
02 dashed -- -- -- -- -- --
 72
    65
 73
     2
 40
7.5
 49
6.0
 49
-1.5
  0
LTYPE
  2
SXF_跳び破線
 70
     0
  3
03 dashed_spaced --  --  --  --
 72
    65
 73
     2
 40
12.0
 49
6.0
 49
-6.0
  0
LTYPE
  2
SXF_一点長鎖線
 70
     0
  3
04 long_dashed_dotted ---- . ---- . ----
 72
    65
 73
     4
 40
15.25
 49
12.0
 49
-1.5
 49
0.25
 49
-1.5
  0
LTYPE
  2
SXF_二点長鎖線
 70
     0
  3
05 long_dashed_double-dotted ---- . . ---- 
 72
    65
 73
     6
 40
17.0
 49
12.0
 49
-1.5
 49
0.25
 49
-1.5
 49
0.25
 49
-1.5
  0
LTYPE
  2
SXF_三点長鎖線
 70
     0
  3
06 long_dashed_triplicate-dotted ---- ... ---- 
 72
    65
 73
     8
 40
18.75
 49
12.0
 49
-1.5
 49
0.25
 49
-1.5
 49
0.25
 49
-1.5
 49
0.25
 49
-1.5
  0
LTYPE
  2
SXF_点線
 70
     0
  3
07 dotted . . . . . . . . . . . . 
 72
    65
 73
     2
 40
1.75
 49
0.25
 49
-1.5
  0
LTYPE
  2
SXF_一点鎖線
 70
     0
  3
08 chain ---- - --- - --- - ---
 72
    65
 73
     4
 40
18.5
 49
12.0
 49
-1.5
 49
3.5
 49
-1.5
  0
LTYPE
  2
SXF_二点鎖線
 70
     0
  3
09 chain_double_dash ---- - - ---- - - ----
 72
    65
 73
     6
 40
23.5
 49
12.0
 49
-1.5
 49
3.5
 49
-1.5
 49
3.5
 49
-1.5
  0
LTYPE
  2
SXF_一点短鎖線
 70
     0
  3
10 dashed_dotted -- . -- . -- . --
 72
    65
 73
     4
 40
9.25
 49
6.0
 49
-1.5
 49
0.25
 49
-1.5
  0
LTYPE
  2
SXF_一点二短鎖線
 70
     0
  3
11 double-dashed_dotted -- -- . -- --
 72
    65
 73
     6
 40
16.75
 49
6.0
 49
-1.5
 49
6.0
 49
-1.5
 49
0.25
 49
-1.5
  0
LTYPE
  2
SXF_二点短鎖線
 70
     0
  3
12 dashed_double_dotted -- . . -- . . --
 72
    65
 73
     6
 40
11.0
 49
6.0
 49
-1.5
 49
0.25
 49
-1.5
 49
0.25
 49
-1.5
  0
LTYPE
  2
SXF_二点二短鎖線
 70
     0
  3
13 double-dashed_double-dotted -- -- . . -- --
 72
    65
 73
     8
 40
18.5
 49
6.0
 49
-1.5
 49
6.0
 49
-1.5
 49
0.25
 49
-1.5
 49
0.25
 49
-1.5
  0
LTYPE
  2
SXF_三点短鎖線
 70
     0
  3
14 dashed triplicate-dotted -- . . . -- . . . --
 72
    65
 73
     8
 40
12.75
 49
6.0
 49
-1.5
 49
0.25
 49
-1.5
 49
0.25
 49
-1.5
 49
0.25
 49
-1.5
  0
LTYPE
  2
SXF_三点二短鎖線
 70
     0
  3
15 double-dashed triplicate-dotted -- -- . . . -- -- 
 72
    65
 73
    10
 40
20.25
 49
6.0
 49
-1.5
 49
6.0
 49
-1.5
 49
0.25
 49
-1.5
 49
0.25
 49
-1.5
 49
0.25
 49
-1.5
  0
ENDTAB
  0
TABLE
  2
LAYER
 70
     3
  0
LAYER
  2
0
 70
     0
 62
     7
  6
CONTINUOUS
  0
LAYER
  2
LAYER0014
 70
     0
 62
     7
  6
CONTINUOUS
  0
LAYER
  2
ZUWAKU
 70
     0
 62
     7
  6
CONTINUOUS
  0
ENDTAB
  0
TABLE
  2
STYLE
 70
     5
  0
STYLE
  2
STANDARD
 70
     0
 40
0.0
 41
1.0
 50
0.0
 71
     0
 42
0.2
  3
txt.shx
  4
bigfont.shx
  0
STYLE
  2
DCSTYLE1
 70
     0
 40
0.0
 41
0.8
 50
0.0
 71
     0
 42
0.2
  3
txt.shx
  4
bigfont
  0
STYLE
  2
DCSTYLE0
 70
     4
 40
0.0
 41
0.8
 50
0.0
 71
     0
 42
0.2
  3
txt.shx
  4
bigfont
  0
STYLE
  2
DCSTYLE2
 70
     0
 40
0.0
 41
0.8
 50
0.0
 71
     0
 42
0.2
  3
ＭＳ 明朝
  4

  0
STYLE
  2
DCSTYLE3
 70
     0
 40
0.0
 41
1.0
 50
0.0
 71
     0
 42
0.2
  3
ＭＳ ゴシック
  4

  0
ENDTAB
  0
TABLE
  2
VIEW
 70
     0
  0
ENDTAB
  0
TABLE
  2
UCS
 70
     0
  0
ENDTAB
  0
TABLE
  2
APPID
 70
     2
  0
APPID
  2
ACAD
 70
     0
  0
APPID
  2
DAFUSIONOUT
 70
     0
  0
ENDTAB
  0
TABLE
  2
DIMSTYLE
 70
     1
  0
DIMSTYLE
  2
STANDARD
 70
     0
  3

  4

  5

  6

  7

 40
1.0
 41
0.18
 42
0.0625
 43
0.38
 44
0.18
 45
0.0
 46
0.0
 47
0.0
 48
0.0
140
0.18
141
0.09
142
0.0
143
25.4
144
1.0
145
0.0
146
1.0
147
0.09
 71
     0
 72
     0
 73
     1
 74
     1
 75
     0
 76
     0
 77
     0
 78
     0
170
     0
171
     2
172
     0
173
     0
174
     0
175
     0
176
     0
177
     0
178
     0
  0
ENDTAB
  0
ENDSEC
  0
SECTION
  2
BLOCKS
  0
BLOCK
  8
0
  2
$MODEL_SPACE
 70
     0
 10
0.0
 20
0.0
 30
0.0
  3
$MODEL_SPACE
  1

  0
ENDBLK
  5
21
  8
0
  0
BLOCK
 67
     1
  8
0
  2
$PAPER_SPACE
 70
     0
 10
0.0
 20
0.0
 30
0.0
  3
$PAPER_SPACE
  1

  0
ENDBLK
  5
1D
 67
     1
  8
0
  0
BLOCK
  8
0
  2
DC_IMAGEDIMGROUP_1
 70
     0
 10
0.0
 20
0.0
 30
0.0
  3
DC_IMAGEDIMGROUP_1
  1

  0
LINE
  5
12C
  8
LAYER0014
  6
CONTINUOUS
 62
     7
 10
-14.49012246690864
 20
96.38752730210282
 30
0.0
 11
-16.09502347475142
 21
97.31408826225316
 31
0.0
  0
LINE
  5
12D
  8
LAYER0014
  6
CONTINUOUS
 62
     7
 10
31.6881317354883
 20
44.25926273783153
 30
0.0
 11
-31.10209873959945
 21
61.08377949318884
 31
0.0
  0
ARC
  5
12E
  8
LAYER0014
  6
CONTINUOUS
 62
     7
 10
113.9996209001148
 20
22.2039905228874
 30
0.0
 40
147.934326171875
 50
150.0000110043194
 51
165.0000353273946
  0
INSERT
  5
135
  8
LAYER0014
 62
     7
  2
_OPEN30
 10
-14.11527786271188
 20
96.17112900287302
 30
0.0
 41
2.499995396844351
 42
2.500007167085477
 50
61.04573587892084
  0
INSERT
  5
136
  8
LAYER0014
 62
     7
  2
_OPEN30
 10
-28.8939889516694
 20
60.49212345533494
 30
0.0
 41
2.499995396844351
 42
2.500007167085477
 50
253.9543104527934
  0
TEXT
  5
138
  8
LAYER0014
 62
     7
 10
-25.98898214707992
 20
74.9936255307121
 30
0.0
 40
4.0
  1
15ﾟ
 50
67.49999999999997
 41
0.9163636363636369
  7
DCSTYLE1
 72
     5
 11
-22.31522119637505
 21
83.86286904282045
 31
0.0
  0
ENDBLK
  5
B6
  8
0
  0
BLOCK
  8
0
  2
DC_GROUP_1
 70
     0
 10
0.0
 20
0.0
 30
0.0
  3
DC_GROUP_1
  1

  0
LINE
  5
139
  8
0
  6
CONTINUOUS
 62
     5
 10
206.7859346614264
 20
91.45406367206704
 30
0.0
 11
209.035936583675
 21
87.55694393310387
 31
0.0
  0
LINE
  5
13A
  8
0
  6
CONTINUOUS
 62
     5
 10
207.8104257365646
 20
91.17956670163659
 30
0.0
 11
206.7859129663591
 21
91.45408418750901
 31
0.0
  0
LINE
  5
13B
  8
0
  6
CONTINUOUS
 62
     5
 10
206.5114580741874
 20
90.42952408809171
 30
0.0
 11
206.7859793366042
 21
91.45405164343634
 31
0.0
  0
LINE
  5
13C
  8
0
  6
CONTINUOUS
 62
     5
 10
209.0360144771496
 20
87.55691613622972
 30
0.0
 11
209.3105357395665
 21
88.58144369157435
 31
0.0
  0
LINE
  5
13D
  8
0
  6
CONTINUOUS
 62
     5
 10
209.0359250882956
 20
87.55697354541911
 30
0.0
 11
208.0113975792318
 21
87.83149498055832
 31
0.0
  0
LINE
  5
13E
  8
0
  6
CONTINUOUS
 62
     5
 10
199.9157182848658
 20
88.35358384278732
 30
0.0
 11
212.9061008966173
 21
95.85358071354347
 31
0.0
  0
LINE
  5
13F
  8
0
  6
CONTINUOUS
 62
     5
 10
205.2718584336205
 20
97.82804416902508
 30
0.0
 11
204.5051476499866
 21
97.20717426630318
 31
0.0
  0
LINE
  5
140
  8
0
  6
CONTINUOUS
 62
     5
 10
205.2718777531831
 20
97.82806256135916
 30
0.0
 11
204.6510173297521
 21
98.59476134755448
 31
0.0
  0
LINE
  5
141
  8
0
  6
CONTINUOUS
 62
     5
 10
212.9061069078214
 20
95.85358556062198
 30
0.0
 11
209.1561079956064
 21
102.348777692404
 31
0.0
  0
LINE
  5
142
  8
0
  6
CONTINUOUS
 62
     5
 10
196.1657227190679
 20
94.84876827105245
 30
0.0
 11
209.1561053308194
 21
102.3487651418086
 31
0.0
  0
LINE
  5
143
  8
0
  6
CONTINUOUS
 62
     5
 10
199.9157180721225
 20
88.3535784892216
 30
0.0
 11
194.2907208958923
 21
98.09636462212899
 31
0.0
  0
LINE
  5
144
  8
0
  6
CONTINUOUS
 62
     5
 10
194.2907223731703
 20
98.09636492443127
 30
0.0
 11
196.239279764933
 21
99.2213644550447
 31
0.0
  0
LINE
  5
145
  8
0
  6
CONTINUOUS
 62
     5
 10
196.8017908419758
 20
98.24708237912091
 30
0.0
 11
196.2392948913647
 21
99.22135446775201
 31
0.0
  0
LINE
  5
146
  8
0
  6
CONTINUOUS
 62
     5
 10
196.8017797686582
 20
98.24708534621018
 30
0.0
 11
198.1008180298333
 21
98.9970850332858
 31
0.0
  0
LINE
  5
147
  8
0
  6
CONTINUOUS
 62
     5
 10
198.663309646728
 20
98.02280328473122
 30
0.0
 11
198.1008098814213
 21
98.99708198061259
 31
0.0
  0
LINE
  5
148
  8
0
  6
CONTINUOUS
 62
     5
 10
198.6633360164286
 20
98.0228052947798
 30
0.0
 11
199.9623742776038
 21
98.77280498185542
 31
0.0
  0
LINE
  5
149
  8
0
  6
CONTINUOUS
 62
     5
 10
200.712342933285
 20
97.47376229450498
 30
0.0
 11
199.9623433654187
 21
98.77280034920358
 31
0.0
  0
LINE
  5
14A
  8
0
  6
CONTINUOUS
 62
     5
 10
200.8363045908596
 20
100.2591579607543
 30
0.0
 11
201.1108258532763
 21
101.2836855160989
 31
0.0
  0
LINE
  5
14B
  8
0
  6
CONTINUOUS
 62
     5
 10
198.5476757962873
 20
99.80386154033272
 30
0.0
 11
201.1107867647242
 21
101.283673553359
 31
0.0
  0
LINE
  5
14C
  8
0
  6
CONTINUOUS
 62
     5
 10
201.1107824991219
 20
101.2837029269961
 30
0.0
 11
200.0862697289164
 21
101.5582204128685
 31
0.0
  0
ARC
  5
14D
  8
0
  6
CONTINUOUS
 62
     5
 10
204.5924630021656
 20
95.29247814800948
 30
0.0
 40
2.625001907348633
 50
75.00008446424582
 51
9.999936717382647
  0
TEXT
  5
14E
  8
0
 62
     5
 10
206.7598911998346
 20
87.73936818021339
 30
0.0
 40
2.5
  1
F
 50
119.9999866787418
 41
1.085973374983833
  7
DCSTYLE1
 72
     5
 11
205.660990012916
 21
89.6427218904318
 31
0.0
  0
TEXT
  5
14F
  8
0
 62
     5
 10
209.3746408956019
 20
98.24870551676744
 30
0.0
 40
2.5
  1
N min
 50
119.9999866787419
 41
1.082812500000001
  7
DCSTYLE1
 72
     5
 11
203.1871433873175
 21
108.9657713271922
 31
0.0
  0
TEXT
  5
150
  8
0
 62
     5
 10
201.3653676802226
 20
108.5634871791992
 30
0.0
 40
1.25
  1
-1
 50
119.9999866787418
 41
1.021621743408411
  7
DCSTYLE1
 72
     5
 11
200.2403679991515
 21
110.5120448315626
 31
0.0
  0
TEXT
  5
151
  8
0
 62
     5
 10
200.1051223702287
 20
102.6706660993575
 30
0.0
 40
2.5
  1
ΣS
 50
119.999986678742
 41
1.265934348106383
  7
DCSTYLE1
 72
     5
 11
197.4677602070773
 21
107.2387138166414
 31
0.0
  0
ENDBLK
  5
B9
  8
0
  0
BLOCK
  8
0
  2
DC_GROUP_2
 70
     0
 10
0.0
 20
0.0
 30
0.0
  3
DC_GROUP_2
  1

  0
LINE
  5
152
  8
LAYER0014
  6
CONTINUOUS
 62
     7
 10
115.7186610707156
 20
-41.40770238585895
 30
0.0
 11
164.3400828308578
 21
-121.2138968348265
 31
0.0
  0
INSERT
  5
153
  8
LAYER0014
 62
     7
  2
_OPEN30
 10
115.7186610707156
 20
-41.40770238585895
 30
0.0
 41
2.499995396844351
 42
2.500007167085477
 50
121.3515993661879
  0
LINE
  5
154
  8
LAYER0014
  6
CONTINUOUS
 62
     7
 10
164.3400978898609
 20
-121.2139000258186
 30
0.0
 11
211.0543770646656
 21
-121.2139000258186
 31
0.0
  0
TEXT
  5
155
  8
LAYER0014
 62
     7
 10
165.3400978898609
 20
-119.6139000258187
 30
0.0
 40
4.0
  1
3-M8×16 PCD120
 41
0.8138408304498271
  7
DCSTYLE1
 72
     5
 11
210.1400978898609
 21
-119.6139000258187
 31
0.0
  0
ENDBLK
  5
BC
  8
0
  0
BLOCK
  8
0
  2
DC_GROUP_3
 70
     0
 10
0.0
 20
0.0
 30
0.0
  3
DC_GROUP_3
  1

  0
LINE
  5
156
  8
LAYER0014
  6
CONTINUOUS
 62
     7
 10
89.263296159519
 20
-48.47655246064807
 30
0.0
 11
35.37626985671352
 21
-109.06139449758
 31
0.0
  0
INSERT
  5
157
  8
LAYER0014
 62
     7
  2
_OPEN30
 10
89.263296159519
 20
-48.47655246064807
 30
0.0
 41
2.499995396844351
 42
2.500007167085477
 50
48.34859164718967
  0
LINE
  5
158
  8
LAYER0014
  6
CONTINUOUS
 62
     7
 10
35.37627075668217
 20
-109.0613960585335
 30
0.0
 11
4.746600613554733
 21
-109.0613960585335
 31
0.0
  0
TEXT
  5
159
  8
LAYER0014
 62
     7
 10
5.66293114181401
 20
-107.461388429139
 30
0.0
 40
4.0
  1
PCD133.35
 41
0.8894117647058822
  7
DCSTYLE1
 72
     5
 11
34.46293114181401
 21
-107.461388429139
 31
0.0
  0
ENDBLK
  5
BF
  8
0
  0
BLOCK
  8
0
  2
DC_IMAGEDIMGROUP_2
 70
     0
 10
0.0
 20
0.0
 30
0.0
  3
DC_IMAGEDIMGROUP_2
  1

  0
LINE
  5
15A
  8
LAYER0014
  6
CONTINUOUS
 62
     7
 10
53.74341112749434
 20
82.4601396334815
 30
0.0
 11
7.777751174289847
 21
128.4257220944417
 31
0.0
  0
LINE
  5
15B
  8
LAYER0014
  6
CONTINUOUS
 62
     7
 10
-14.4901108328631
 20
96.38754713833325
 30
0.0
 11
-16.09501498369297
 21
97.31411819455872
 31
0.0
  0
ARC
  5
15C
  8
LAYER0014
  6
CONTINUOUS
 62
     7
 10
113.9994759416187
 20
22.20406872418135
 30
0.0
 40
147.9341583251953
 50
135.000014002001
 51
150.0000110043194
  0
INSERT
  5
15D
  8
LAYER0014
 62
     7
  2
_OPEN30
 10
9.394203857215118
 20
126.8092896815114
 30
0.0
 41
2.499995396844351
 42
2.500007167085477
 50
45.48414569896106
  0
INSERT
  5
15E
  8
LAYER0014
 62
     7
  2
_OPEN30
 10
-14.1152774617033
 20
96.17112328085506
 30
0.0
 41
2.499995396844351
 42
2.500007167085477
 50
239.515879307359
  0
TEXT
  5
15F
  8
LAYER0014
 62
     7
 10
-7.556026598514913
 20
109.4265781964357
 30
0.0
 40
4.0
  1
15ﾟ
 50
52.5
 41
0.9163636363636369
  7
DCSTYLE1
 72
     5
 11
-1.711916880031191
 21
117.0427702632315
 31
0.0
  0
ENDBLK
  5
C2
  8
0
  0
BLOCK
  8
0
  2
DC_IMAGEDIMGROUP_3
 70
     0
 10
0.0
 20
0.0
 30
0.0
  3
DC_IMAGEDIMGROUP_3
  1

  0
LINE
  5
160
  8
LAYER0014
  6
CONTINUOUS
 62
     7
 10
243.6283804372287
 20
-52.63719567347437
 30
0.0
 11
249.0070592117105
 21
-55.74257678362228
 31
0.0
  0
LINE
  5
161
  8
LAYER0014
  6
CONTINUOUS
 62
     7
 10
265.8895583390797
 20
22.20390278485029
 30
0.0
 11
269.8927712297046
 21
22.20390278485029
 31
0.0
  0
ARC
  5
162
  8
LAYER0014
  6
CONTINUOUS
 62
     7
 10
113.9995598649586
 20
22.20402294781416
 30
0.0
 40
153.6071929931641
 50
330.0000025802685
 51
0.0
  0
INSERT
  5
163
  8
LAYER0014
 62
     7
  2
_OPEN30
 10
247.0272946598446
 20
-54.59956755797284
 30
0.0
 41
2.499995396844351
 42
2.500007167085477
 50
240.4662542818508
  0
INSERT
  5
164
  8
LAYER0014
 62
     7
  2
_OPEN30
 10
267.6067528581226
 20
22.20402294781412
 30
0.0
 41
2.499995396844351
 42
2.500007167085477
 50
89.53374829841773
  0
TEXT
  5
165
  8
LAYER0014
 62
     7
 10
265.1114109946586
 20
-13.54518472043539
 30
0.0
 40
4.0
  1
30ﾟ
 50
254.9000000000001
 41
0.9163636363636387
  7
DCSTYLE1
 72
     5
 11
262.6105677116892
 21
-22.81372197687597
 31
0.0
  0
ENDBLK
  5
C5
  8
0
  0
BLOCK
  8
0
  2
DC_IMAGEDIMGROUP_4
 70
     0
 10
0.0
 20
0.0
 30
0.0
  3
DC_IMAGEDIMGROUP_4
  1

  0
LINE
  5
166
  8
LAYER0014
  6
CONTINUOUS
 62
     7
 10
265.8895583390797
 20
22.20390278485029
 30
0.0
 11
269.8927407121265
 21
22.20390278485029
 31
0.0
  0
LINE
  5
167
  8
LAYER0014
  6
CONTINUOUS
 62
     7
 10
242.7788760517608
 20
96.55480498908608
 30
0.0
 11
249.0070045729073
 21
100.150626922474
 31
0.0
  0
ARC
  5
168
  8
LAYER0014
  6
CONTINUOUS
 62
     7
 10
113.999536976775
 20
22.20402294781416
 30
0.0
 40
153.6072082519531
 50
0.0
 51
30.00000424992063
  0
INSERT
  5
169
  8
LAYER0014
 62
     7
  2
_OPEN30
 10
267.6067452287281
 20
22.20402294781416
 30
0.0
 41
2.499995396844351
 42
2.500007167085477
 50
270.4662516552661
  0
INSERT
  5
16A
  8
LAYER0014
 62
     7
  2
_OPEN30
 10
247.027275830457
 20
99.00763694113783
 30
0.0
 41
2.499995396844351
 42
2.500007167085477
 50
119.5337525946546
  0
TEXT
  5
16B
  8
LAYER0014
 62
     7
 10
262.6758558276579
 20
67.01105474212277
 30
0.0
 40
4.0
  1
30ﾟ
 50
285.0
 41
0.9163636363636395
  7
DCSTYLE1
 72
     5
 11
265.1605186606421
 21
57.73816680974768
 31
0.0
  0
ENDBLK
  5
C8
  8
0
  0
BLOCK
  8
0
  2
DC_IMAGEDIMGROUP_5
 70
     0
 10
0.0
 20
0.0
 30
0.0
  3
DC_IMAGEDIMGROUP_5
  1

  0
LINE
  5
16C
  8
LAYER0014
  6
CONTINUOUS
 62
     7
 10
-245.723551005382
 20
-28.79595456826034
 30
0.0
 11
-245.723551005382
 21
73.20404543173967
 31
0.0
  0
INSERT
  5
16D
  8
LAYER0014
 62
     7
  2
_OPEN30
 10
-245.723551005382
 20
-28.79595456826034
 30
0.0
 41
2.499995396844351
 42
2.500007167085477
 50
270.0
  0
INSERT
  5
16E
  8
LAYER0014
 62
     7
  2
_OPEN30
 10
-245.723551005382
 20
73.20404543173967
 30
0.0
 41
2.499995396844351
 42
2.500007167085477
 50
90.0
  0
LINE
  5
16F
  8
LAYER0014
  6
CONTINUOUS
 62
     7
 10
-208.6650803130536
 20
-28.79595456826034
 30
0.0
 11
-246.723551005382
 21
-28.79595456826034
 31
0.0
  0
LINE
  5
170
  8
LAYER0014
  6
CONTINUOUS
 62
     7
 10
-211.030162100163
 20
73.20404543173967
 30
0.0
 11
-246.723551005382
 21
73.20404543173967
 31
0.0
  0
TEXT
  5
171
  8
LAYER0014
 62
     7
 10
-246.7403061576946
 20
12.60406005337208
 30
0.0
 40
4.0
  1
φ102H7
 50
89.89999999999999
 41
0.8615384615384621
  7
DCSTYLE1
 72
     5
 11
-246.7067958530694
 21
31.80403081010722
 31
0.0
  0
ENDBLK
  5
CB
  8
0
  0
BLOCK
  8
0
  2
DC_IMAGEDIMGROUP_6
 70
     0
 10
0.0
 20
0.0
 30
0.0
  3
DC_IMAGEDIMGROUP_6
  1

  0
LINE
  5
172
  8
LAYER0014
  6
CONTINUOUS
 62
     7
 10
-256.0821769019467
 20
-105.2959545682603
 30
0.0
 11
-256.0821769019467
 21
149.7040454317397
 31
0.0
  0
INSERT
  5
173
  8
LAYER0014
 62
     7
  2
_OPEN30
 10
-256.0821769019467
 20
-105.2959545682603
 30
0.0
 41
2.499995396844351
 42
2.500007167085477
 50
270.0
  0
INSERT
  5
174
  8
LAYER0014
 62
     7
  2
_OPEN30
 10
-256.0821769019467
 20
149.7040454317397
 30
0.0
 41
2.499995396844351
 42
2.500007167085477
 50
90.0
  0
LINE
  5
175
  8
LAYER0014
  6
CONTINUOUS
 62
     7
 10
-214.3650925200849
 20
-105.2959545682603
 30
0.0
 11
-257.0821769019467
 21
-105.2959545682603
 31
0.0
  0
LINE
  5
176
  8
LAYER0014
  6
CONTINUOUS
 62
     7
 10
-214.3650925200849
 20
149.7040454317397
 30
0.0
 11
-257.0821769019467
 21
149.7040454317397
 31
0.0
  0
TEXT
  5
177
  8
LAYER0014
 62
     7
 10
-257.0989320542593
 20
12.60406005337208
 30
0.0
 40
4.0
  1
φ255H7
 50
89.90000000000008
 41
0.8615384615384621
  7
DCSTYLE1
 72
     5
 11
-257.0654217496341
 21
31.80403081010722
 31
0.0
  0
ENDBLK
  5
CE
  8
0
  0
BLOCK
  8
0
  2
DC_IMAGEDIMGROUP_7
 70
     0
 10
0.0
 20
0.0
 30
0.0
  3
DC_IMAGEDIMGROUP_7
  1

  0
LINE
  5
178
  8
LAYER0014
  6
CONTINUOUS
 62
     7
 10
-191.8250925200849
 20
5.362797873145912
 30
0.0
 11
-159.8250925200849
 21
5.362797873145912
 31
0.0
  0
INSERT
  5
179
  8
LAYER0014
 62
     7
  2
_OPEN30
 10
-191.8250925200849
 20
5.362797873145912
 30
0.0
 41
2.499995396844351
 42
2.500007167085477
 50
180.0
  0
INSERT
  5
17A
  8
LAYER0014
 62
     7
  2
_OPEN30
 10
-159.8250925200849
 20
5.362797873145912
 30
0.0
 41
2.499995396844351
 42
2.500007167085477
 50
360.0
  0
TEXT
  5
17B
  8
LAYER0014
 62
     7
 10
-179.0250925200849
 20
6.362797873145912
 30
0.0
 40
4.0
  1
32
 41
0.9081081081081049
  7
DCSTYLE1
 72
     5
 11
-172.6250925200849
 21
6.362797873145912
 31
0.0
  0
ENDBLK
  5
D1
  8
0
  0
BLOCK
  8
0
  2
DC_IMAGEDIMGROUP_8
 70
     0
 10
0.0
 20
0.0
 30
0.0
  3
DC_IMAGEDIMGROUP_8
  1

  0
LINE
  5
17C
  8
LAYER0014
  6
CONTINUOUS
 62
     7
 10
-231.1650803130536
 20
-38.47095762001815
 30
0.0
 11
-239.6193430083662
 21
-38.47095762001815
 31
0.0
  0
LINE
  5
17D
  8
LAYER0014
  6
CONTINUOUS
 62
     7
 10
-231.1650803130536
 20
-50.47095762001815
 30
0.0
 11
-239.6193430083662
 21
-50.47095762001815
 31
0.0
  0
LINE
  5
17E
  8
LAYER0014
  6
CONTINUOUS
 62
     7
 10
-237.3333322661787
 20
-38.47095762001815
 30
0.0
 11
-237.3333322661787
 21
-50.47095762001815
 31
0.0
  0
INSERT
  5
17F
  8
LAYER0014
 62
     7
  2
_OPEN30
 10
-237.3333322661787
 20
-38.47095762001815
 30
0.0
 41
2.499995396844351
 42
2.500007167085477
 50
90.0
  0
INSERT
  5
180
  8
LAYER0014
 62
     7
  2
_OPEN30
 10
-237.3333322661787
 20
-50.47095762001815
 30
0.0
 41
2.499995396844351
 42
2.500007167085477
 50
270.0
  0
TEXT
  5
181
  8
LAYER0014
 62
     7
 10
-238.9417074053962
 20
-49.26815778381651
 30
0.0
 40
4.0
  1
M12
 50
89.90000000000008
 41
0.8262295081967227
  7
DCSTYLE1
 72
     5
 11
-238.9249522530836
 21
-39.66817240544893
 31
0.0
  0
ENDBLK
  5
D4
  8
0
  0
BLOCK
  8
0
  2
DC_IMAGEDIMGROUP_9
 70
     0
 10
0.0
 20
0.0
 30
0.0
  3
DC_IMAGEDIMGROUP_9
  1

  0
LINE
  5
182
  8
LAYER0014
  6
CONTINUOUS
 62
     7
 10
-141.8250925200849
 20
5.362797873145912
 30
0.0
 11
-131.8250772612959
 21
5.362797873145912
 31
0.0
  0
INSERT
  5
183
  8
LAYER0014
 62
     7
  2
_OPEN30
 10
-141.8250925200849
 20
5.362797873145912
 30
0.0
 41
2.499995396844351
 42
2.500007167085477
 50
180.0
  0
INSERT
  5
184
  8
LAYER0014
 62
     7
  2
_OPEN30
 10
-131.8250772612959
 20
5.362797873145912
 30
0.0
 41
2.499995396844351
 42
2.500007167085477
 50
360.0
  0
TEXT
  5
185
  8
LAYER0014
 62
     7
 10
-140.0250800168129
 20
6.368382923916787
 30
0.0
 40
4.0
  1
10
 50
359.9
 41
0.9081081081081027
  7
DCSTYLE1
 72
     5
 11
-133.6250897645679
 21
6.357212822375037
 31
0.0
  0
ENDBLK
  5
D7
  8
0
  0
BLOCK
  8
0
  2
DC_IMAGEDIMGROUP_10
 70
     0
 10
0.0
 20
0.0
 30
0.0
  3
DC_IMAGEDIMGROUP_10
  1

  0
LINE
  5
186
  8
LAYER0014
  6
CONTINUOUS
 62
     7
 10
-141.8250925200849
 20
5.362797873145912
 30
0.0
 11
-159.8250925200849
 21
5.362797873145912
 31
0.0
  0
INSERT
  5
187
  8
LAYER0014
 62
     7
  2
_OPEN30
 10
-141.8250925200849
 20
5.362797873145912
 30
0.0
 41
2.499995396844351
 42
2.500007167085477
 50
360.0
  0
INSERT
  5
188
  8
LAYER0014
 62
     7
  2
_OPEN30
 10
-159.8250925200849
 20
5.362797873145912
 30
0.0
 41
2.499995396844351
 42
2.500007167085477
 50
180.0
  0
TEXT
  5
189
  8
LAYER0014
 62
     7
 10
-154.0250925200849
 20
6.362797873145912
 30
0.0
 40
4.0
  1
18
 41
0.9081081081081049
  7
DCSTYLE1
 72
     5
 11
-147.6250925200849
 21
6.362797873145912
 31
0.0
  0
ENDBLK
  5
DA
  8
0
  0
BLOCK
  8
0
  2
DC_IMAGEDIMGROUP_11
 70
     0
 10
0.0
 20
0.0
 30
0.0
  3
DC_IMAGEDIMGROUP_11
  1

  0
LINE
  5
18A
  8
LAYER0014
  6
CONTINUOUS
 62
     7
 10
-128.8250772612959
 20
5.362797873145912
 30
0.0
 11
-131.8250772612959
 21
5.362797873145912
 31
0.0
  0
LINE
  5
18B
  8
LAYER0014
  6
CONTINUOUS
 62
     7
 10
-121.322291006413
 20
5.362797873145912
 30
0.0
 11
-128.8250772612959
 21
5.362797873145912
 31
0.0
  0
INSERT
  5
18C
  8
LAYER0014
 62
     7
  2
_OPEN30
 10
-128.8250772612959
 20
5.362797873145912
 30
0.0
 41
2.499995396844351
 42
2.500007167085477
 50
180.0
  0
LINE
  5
18D
  8
LAYER0014
  6
CONTINUOUS
 62
     7
 10
-136.8250772612959
 20
5.362797873145912
 30
0.0
 11
-131.8250772612959
 21
5.362797873145912
 31
0.0
  0
INSERT
  5
18E
  8
LAYER0014
 62
     7
  2
_OPEN30
 10
-131.8250772612959
 20
5.362797873145912
 30
0.0
 41
2.499995396844351
 42
2.500007167085477
 50
360.0
  0
TEXT
  5
18F
  8
LAYER0014
 62
     7
 10
-125.522291006413
 20
6.362797873145912
 30
0.0
 40
4.0
  1
3
 41
0.9882352941176479
  7
DCSTYLE1
 72
     5
 11
-122.322291006413
 21
6.362797873145912
 31
0.0
  0
ENDBLK
  5
DD
  8
0
  0
BLOCK
  8
0
  2
DC_IMAGEDIMGROUP_12
 70
     0
 10
0.0
 20
0.0
 30
0.0
  3
DC_IMAGEDIMGROUP_12
  1

  0
LINE
  5
190
  8
LAYER0014
  6
CONTINUOUS
 62
     7
 10
-267.2864049125167
 20
-117.7959545682603
 30
0.0
 11
-267.2864049125167
 21
162.2040454317397
 31
0.0
  0
INSERT
  5
191
  8
LAYER0014
 62
     7
  2
_OPEN30
 10
-267.2864049125167
 20
-117.7959545682603
 30
0.0
 41
2.499995396844351
 42
2.500007167085477
 50
270.0
  0
INSERT
  5
192
  8
LAYER0014
 62
     7
  2
_OPEN30
 10
-267.2864049125167
 20
162.2040454317397
 30
0.0
 41
2.499995396844351
 42
2.500007167085477
 50
90.0
  0
LINE
  5
193
  8
LAYER0014
  6
CONTINUOUS
 62
     7
 10
-214.3650925200849
 20
-117.7959545682603
 30
0.0
 11
-268.2864049125167
 21
-117.7959545682603
 31
0.0
  0
LINE
  5
194
  8
LAYER0014
  6
CONTINUOUS
 62
     7
 10
-214.3650925200849
 20
162.2040454317397
 30
0.0
 11
-268.2864049125167
 21
162.2040454317397
 31
0.0
  0
TEXT
  5
195
  8
LAYER0014
 62
     7
 10
-268.2975750140585
 20
15.80405517949465
 30
0.0
 40
4.0
  1
φ280
 50
89.89999999999999
 41
0.8959999999999966
  7
DCSTYLE1
 72
     5
 11
-268.275234810975
 21
28.60403568398468
 31
0.0
  0
ENDBLK
  5
E0
  8
0
  0
BLOCK
  8
0
  2
DC_IMAGEDIMGROUP_13
 70
     0
 10
0.0
 20
0.0
 30
0.0
  3
DC_IMAGEDIMGROUP_13
  1

  0
LINE
  5
196
  8
LAYER0014
  6
CONTINUOUS
 62
     7
 10
-68.9893054306171
 20
-22.79595456826034
 30
0.0
 11
-68.9893054306171
 21
47.20404543173967
 31
0.0
  0
INSERT
  5
197
  8
LAYER0014
 62
     7
  2
_OPEN30
 10
-68.9893054306171
 20
-22.79595456826034
 30
0.0
 41
2.499995396844351
 42
2.500007167085477
 50
270.0
  0
LINE
  5
198
  8
LAYER0014
  6
CONTINUOUS
 62
     7
 10
-130.3199435943037
 20
-22.79595456826034
 30
0.0
 11
-67.9893054306171
 21
-22.79595456826034
 31
0.0
  0
TEXT
  5
199
  8
LAYER0014
 62
     7
 10
-70.58930543061709
 20
7.828959219581453
 30
0.0
 40
4.0
  1
M90×P1.25
 50
90.0
 41
0.8894117647058825
  7
DCSTYLE1
 72
     5
 11
-70.58930543061709
 21
36.62895921958146
 31
0.0
  0
ENDBLK
  5
E3
  8
0
  0
BLOCK
  8
0
  2
DC_IMAGEDIMGROUP_14
 70
     0
 10
0.0
 20
0.0
 30
0.0
  3
DC_IMAGEDIMGROUP_14
  1

  0
LINE
  5
19A
  8
LAYER0014
  6
CONTINUOUS
 62
     7
 10
-96.62509557184272
 20
164.7440454317397
 30
0.0
 11
-96.62509557184272
 21
175.5415088106459
 31
0.0
  0
LINE
  5
19B
  8
LAYER0014
  6
CONTINUOUS
 62
     7
 10
-95.62509557184272
 20
161.7440454317397
 30
0.0
 11
-95.62509557184272
 21
175.5415088106459
 31
0.0
  0
LINE
  5
19C
  8
LAYER0014
  6
CONTINUOUS
 62
     7
 10
-96.62509557184272
 20
173.2555133272475
 30
0.0
 11
-95.62509557184272
 21
173.2555133272475
 31
0.0
  0
LINE
  5
19D
  8
LAYER0014
  6
CONTINUOUS
 62
     7
 10
-96.62509557184272
 20
173.2555133272475
 30
0.0
 11
-102.9750955718427
 21
173.2555133272475
 31
0.0
  0
INSERT
  5
19E
  8
LAYER0014
 62
     7
  2
_OPEN30
 10
-96.62509557184272
 20
173.2555133272475
 30
0.0
 41
2.499995396844351
 42
2.500007167085477
 50
360.0
  0
LINE
  5
19F
  8
LAYER0014
  6
CONTINUOUS
 62
     7
 10
-89.27509557184273
 20
173.2555133272475
 30
0.0
 11
-95.62509557184272
 21
173.2555133272475
 31
0.0
  0
INSERT
  5
1A0
  8
LAYER0014
 62
     7
  2
_OPEN30
 10
-95.62509557184272
 20
173.2555133272475
 30
0.0
 41
2.499995396844351
 42
2.500007167085477
 50
180.0
  0
TEXT
  5
1A1
  8
LAYER0014
 62
     7
 10
-91.99325092690138
 20
174.8583034156942
 30
0.0
 40
4.0
  1
1
 50
359.9000000000003
 41
1.527272727272725
  7
DCSTYLE1
 72
     5
 11
-88.79325580077887
 21
174.8527183649233
 31
0.0
  0
ENDBLK
  5
E6
  8
0
  0
BLOCK
  8
0
  2
DC_IMAGEDIMGROUP_15
 70
     0
 10
0.0
 20
0.0
 30
0.0
  3
DC_IMAGEDIMGROUP_15
  1

  0
LINE
  5
1A2
  8
LAYER0014
  6
CONTINUOUS
 62
     7
 10
-206.1250803130537
 20
-142.5000103543931
 30
0.0
 11
-159.8250925200849
 21
-142.5000103543931
 31
0.0
  0
INSERT
  5
1A3
  8
LAYER0014
 62
     7
  2
_OPEN30
 10
-206.1250803130537
 20
-142.5000103543931
 30
0.0
 41
2.499995396844351
 42
2.500007167085477
 50
180.0
  0
INSERT
  5
1A4
  8
LAYER0014
 62
     7
  2
_OPEN30
 10
-159.8250925200849
 20
-142.5000103543931
 30
0.0
 41
2.499995396844351
 42
2.500007167085477
 50
360.0
  0
LINE
  5
1A5
  8
LAYER0014
  6
CONTINUOUS
 62
     7
 10
-206.1250803130537
 20
-107.8359545682603
 30
0.0
 11
-206.1250803130537
 21
-143.5000103543931
 31
0.0
  0
LINE
  5
1A6
  8
LAYER0014
  6
CONTINUOUS
 62
     7
 10
-159.8250925200849
 20
-22.42558346036942
 30
0.0
 11
-159.8250925200849
 21
-143.5000103543931
 31
0.0
  0
TEXT
  5
1A7
  8
LAYER0014
 62
     7
 10
-195.0125573390088
 20
-141.5000103543931
 30
0.0
 40
4.0
  1
MAX64.3
 41
0.9116279069767432
  7
DCSTYLE1
 72
     5
 11
-172.6125573390088
 21
-141.5000103543931
 31
0.0
  0
ENDBLK
  5
E9
  8
0
  0
BLOCK
  8
0
  2
DC_IMAGEDIMGROUP_16
 70
     0
 10
0.0
 20
0.0
 30
0.0
  3
DC_IMAGEDIMGROUP_16
  1

  0
LINE
  5
1A8
  8
LAYER0014
  6
CONTINUOUS
 62
     7
 10
-211.8250925200849
 20
-152.8473309110338
 30
0.0
 11
-206.1250803130537
 21
-152.8473309110338
 31
0.0
  0
LINE
  5
1A9
  8
LAYER0014
  6
CONTINUOUS
 62
     7
 10
-211.8250925200849
 20
-120.3359545682603
 30
0.0
 11
-211.8250925200849
 21
-153.8473309110338
 31
0.0
  0
LINE
  5
1AA
  8
LAYER0014
  6
CONTINUOUS
 62
     7
 10
-206.1250803130537
 20
-107.8359545682603
 30
0.0
 11
-206.1250803130537
 21
-153.8473309110338
 31
0.0
  0
LINE
  5
1AB
  8
LAYER0014
  6
CONTINUOUS
 62
     7
 10
-226.1456837703594
 20
-152.8473309110338
 30
0.0
 11
-211.8250925200849
 21
-152.8473309110338
 31
0.0
  0
INSERT
  5
1AC
  8
LAYER0014
 62
     7
  2
_OPEN30
 10
-211.8250925200849
 20
-152.8473309110338
 30
0.0
 41
2.499995396844351
 42
2.500007167085477
 50
360.0
  0
LINE
  5
1AD
  8
LAYER0014
  6
CONTINUOUS
 62
     7
 10
-201.1250803130537
 20
-152.8473309110338
 30
0.0
 11
-206.1250803130537
 21
-152.8473309110338
 31
0.0
  0
INSERT
  5
1AE
  8
LAYER0014
 62
     7
  2
_OPEN30
 10
-206.1250803130537
 20
-152.8473309110338
 30
0.0
 41
2.499995396844351
 42
2.500007167085477
 50
180.0
  0
TEXT
  5
1AF
  8
LAYER0014
 62
     7
 10
-225.145669148727
 20
-151.8305757587212
 30
0.0
 40
4.0
  1
5.7
 50
359.9000000000001
 41
1.072340425531915
  7
DCSTYLE1
 72
     5
 11
-215.5456837703594
 21
-151.8473309110338
 31
0.0
  0
ENDBLK
  5
EC
  8
0
  0
BLOCK
  8
0
  2
DC_IMAGEDIMGROUP_17
 70
     0
 10
0.0
 20
0.0
 30
0.0
  3
DC_IMAGEDIMGROUP_17
  1

  0
LINE
  5
1B0
  8
LAYER0014
  6
CONTINUOUS
 62
     7
 10
-206.1250803130537
 20
-152.8473309110338
 30
0.0
 11
-95.62509557184272
 21
-152.8473309110338
 31
0.0
  0
INSERT
  5
1B1
  8
LAYER0014
 62
     7
  2
_OPEN30
 10
-206.1250803130537
 20
-152.8473309110338
 30
0.0
 41
2.499995396844351
 42
2.500007167085477
 50
180.0
  0
INSERT
  5
1B2
  8
LAYER0014
 62
     7
  2
_OPEN30
 10
-95.62509557184272
 20
-152.8473309110338
 30
0.0
 41
2.499995396844351
 42
2.500007167085477
 50
360.0
  0
LINE
  5
1B3
  8
LAYER0014
  6
CONTINUOUS
 62
     7
 10
-206.1250803130537
 20
-107.8359545682603
 30
0.0
 11
-206.1250803130537
 21
-153.8473309110338
 31
0.0
  0
LINE
  5
1B4
  8
LAYER0014
  6
CONTINUOUS
 62
     7
 10
-95.62509557184272
 20
-117.3359545682603
 30
0.0
 11
-95.62509557184272
 21
-153.8473309110338
 31
0.0
  0
TEXT
  5
1B5
  8
LAYER0014
 62
     7
 10
-158.8750879424482
 20
-151.8473309110338
 30
0.0
 40
4.0
  1
110.5
 41
0.9655172413793105
  7
DCSTYLE1
 72
     5
 11
-142.8750879424482
 21
-151.8473309110338
 31
0.0
  0
ENDBLK
  5
EF
  8
0
  0
BLOCK
  8
0
  2
DC_IMAGEDIMGROUP_18
 70
     0
 10
0.0
 20
0.0
 30
0.0
  3
DC_IMAGEDIMGROUP_18
  1

  0
LINE
  5
1B6
  8
LAYER0014
  6
CONTINUOUS
 62
     7
 10
-211.8250925200849
 20
-162.8903149198228
 30
0.0
 11
-95.62509557184272
 21
-162.8903149198228
 31
0.0
  0
INSERT
  5
1B7
  8
LAYER0014
 62
     7
  2
_OPEN30
 10
-211.8250925200849
 20
-162.8903149198228
 30
0.0
 41
2.499995396844351
 42
2.500007167085477
 50
180.0
  0
INSERT
  5
1B8
  8
LAYER0014
 62
     7
  2
_OPEN30
 10
-95.62509557184272
 20
-162.8903149198228
 30
0.0
 41
2.499995396844351
 42
2.500007167085477
 50
360.0
  0
LINE
  5
1B9
  8
LAYER0014
  6
CONTINUOUS
 62
     7
 10
-211.8250925200849
 20
-120.3359545682603
 30
0.0
 11
-211.8250925200849
 21
-163.8903149198228
 31
0.0
  0
LINE
  5
1BA
  8
LAYER0014
  6
CONTINUOUS
 62
     7
 10
-95.62509557184272
 20
-117.3359545682603
 30
0.0
 11
-95.62509557184272
 21
-163.8903149198228
 31
0.0
  0
TEXT
  5
1BB
  8
LAYER0014
 62
     7
 10
-161.7250940459638
 20
-161.8903149198228
 30
0.0
 40
4.0
  1
116.2
 41
0.9655172413793105
  7
DCSTYLE1
 72
     5
 11
-145.7250940459638
 21
-161.8903149198228
 31
0.0
  0
ENDBLK
  5
F2
  8
0
  0
BLOCK
  8
0
  2
DC_IMAGEDIMGROUP_19
 70
     0
 10
0.0
 20
0.0
 30
0.0
  3
DC_IMAGEDIMGROUP_19
  1

  0
LINE
  5
1BC
  8
LAYER0014
  6
CONTINUOUS
 62
     7
 10
-98.12509557184272
 20
-4.37585721718612
 30
0.0
 11
-95.62509557184272
 21
-4.37585721718612
 31
0.0
  0
LINE
  5
1BD
  8
LAYER0014
  6
CONTINUOUS
 62
     7
 10
-82.09324557184273
 20
-4.37585721718612
 30
0.0
 11
-95.62509557184272
 21
-4.37585721718612
 31
0.0
  0
INSERT
  5
1BE
  8
LAYER0014
 62
     7
  2
_OPEN30
 10
-95.62509557184272
 20
-4.37585721718612
 30
0.0
 41
2.499995396844351
 42
2.500007167085477
 50
180.0
  0
LINE
  5
1BF
  8
LAYER0014
  6
CONTINUOUS
 62
     7
 10
-103.1250955718427
 20
-4.37585721718612
 30
0.0
 11
-98.12509557184272
 21
-4.37585721718612
 31
0.0
  0
INSERT
  5
1C0
  8
LAYER0014
 62
     7
  2
_OPEN30
 10
-98.12509557184272
 20
-4.37585721718612
 30
0.0
 41
2.499995396844351
 42
2.500007167085477
 50
360.0
  0
TEXT
  5
1C1
  8
LAYER0014
 62
     7
 10
-92.69324557184272
 20
-3.37585721718612
 30
0.0
 40
4.0
  1
2.5
 50
359.9
 41
1.072340425531916
  7
DCSTYLE1
 72
     5
 11
-83.09326019347515
 21
-3.392612369498745
 31
0.0
  0
ENDBLK
  5
F5
  8
0
  0
BLOCK
  8
0
  2
DC_IMAGEDIMGROUP_20
 70
     0
 10
0.0
 20
0.0
 30
0.0
  3
DC_IMAGEDIMGROUP_20
  1

  0
LINE
  5
1C2
  8
LAYER0014
  6
CONTINUOUS
 62
     7
 10
-228.6250803130537
 20
-142.5000103543931
 30
0.0
 11
-206.1250803130537
 21
-142.5000103543931
 31
0.0
  0
INSERT
  5
1C3
  8
LAYER0014
 62
     7
  2
_OPEN30
 10
-228.6250803130537
 20
-142.5000103543931
 30
0.0
 41
2.499995396844351
 42
2.500007167085477
 50
180.0
  0
INSERT
  5
1C4
  8
LAYER0014
 62
     7
  2
_OPEN30
 10
-206.1250803130537
 20
-142.5000103543931
 30
0.0
 41
2.499995396844351
 42
2.500007167085477
 50
360.0
  0
LINE
  5
1C5
  8
LAYER0014
  6
CONTINUOUS
 62
     7
 10
-228.6250803130537
 20
-53.01095762001815
 30
0.0
 11
-228.6250803130537
 21
-143.5000103543931
 31
0.0
  0
LINE
  5
1C6
  8
LAYER0014
  6
CONTINUOUS
 62
     7
 10
-206.1250803130537
 20
-107.8359545682603
 30
0.0
 11
-206.1250803130537
 21
-143.5000103543931
 31
0.0
  0
TEXT
  5
1C7
  8
LAYER0014
 62
     7
 10
-225.7278363794758
 20
-141.4888402528514
 30
0.0
 40
4.0
  1
22.5
 50
359.9
 41
1.002985074626868
  7
DCSTYLE1
 72
     5
 11
-212.9278558749857
 21
-141.5111804559349
 31
0.0
  0
ENDBLK
  5
F8
  8
0
  0
BLOCK
  8
0
  2
DC_IMAGEDIMGROUP_21
 70
     0
 10
0.0
 20
0.0
 30
0.0
  3
DC_IMAGEDIMGROUP_21
  1

  0
LINE
  5
1C8
  8
0
  6
CONTINUOUS
 62
     9
 10
-233.9555882521416
 20
-21.54595456826033
 30
0.0
 11
-233.9555882521416
 21
65.95404543173964
 31
0.0
  0
INSERT
  5
1C9
  8
0
 62
     9
  2
_OPEN30
 10
-233.9555882521416
 20
-21.54595456826033
 30
0.0
 41
2.499995396844351
 42
2.500007167085477
 50
270.0
  0
INSERT
  5
1CA
  8
0
 62
     9
  2
_OPEN30
 10
-233.9555882521416
 20
65.95404543173964
 30
0.0
 41
2.499995396844351
 42
2.500007167085477
 50
90.0
  0
LINE
  5
1CB
  8
0
  6
CONTINUOUS
 62
     9
 10
-161.8250925200849
 20
-21.54595456826033
 30
0.0
 11
-234.9555882521416
 21
-21.54595456826033
 31
0.0
  0
LINE
  5
1CC
  8
0
  6
CONTINUOUS
 62
     9
 10
-161.8250925200849
 20
65.95404543173964
 30
0.0
 11
-234.9555882521416
 21
65.95404543173964
 31
0.0
  0
TEXT
  5
1CD
  8
0
 62
     7
 10
-234.9555882521416
 20
11.00404543173967
 30
0.0
 40
4.0
  1
φ87.5Ｈ7
 50
90.0
 41
0.9560975609756087
  7
DCSTYLE1
 72
     5
 11
-234.9555882521416
 21
33.40404543173965
 31
0.0
  0
ENDBLK
  5
FB
  8
0
  0
BLOCK
  8
0
  2
DC_IMAGEDIMGROUP_22
 70
     0
 10
0.0
 20
0.0
 30
0.0
  3
DC_IMAGEDIMGROUP_22
  1

  0
LINE
  5
1CE
  8
0
  6
CONTINUOUS
 62
     9
 10
-223.0861233037146
 20
-12.79595456826034
 30
0.0
 11
-223.0861233037146
 21
57.20404543173967
 31
0.0
  0
INSERT
  5
1CF
  8
0
 62
     9
  2
_OPEN30
 10
-223.0861233037146
 20
-12.79595456826034
 30
0.0
 41
2.499995396844351
 42
2.500007167085477
 50
270.0
  0
INSERT
  5
1D0
  8
0
 62
     9
  2
_OPEN30
 10
-223.0861233037146
 20
57.20404543173967
 30
0.0
 41
2.499995396844351
 42
2.500007167085477
 50
90.0
  0
LINE
  5
1D1
  8
0
  6
CONTINUOUS
 62
     9
 10
-191.8250925200849
 20
-12.79595456826034
 30
0.0
 11
-224.0861233037146
 21
-12.79595456826034
 31
0.0
  0
LINE
  5
1D2
  8
0
  6
CONTINUOUS
 62
     9
 10
-191.8250925200849
 20
57.20404543173967
 30
0.0
 11
-224.0861233037146
 21
57.20404543173967
 31
0.0
  0
TEXT
  5
1D3
  8
0
 62
     7
 10
-224.0861233037146
 20
13.38404543173966
 30
0.0
 40
4.0
  1
φ70
 50
90.0
 41
0.9163636363636387
  7
DCSTYLE1
 72
     5
 11
-224.0861233037146
 21
22.98404543173968
 31
0.0
  0
TEXT
  5
1D4
  8
0
 62
     7
 10
-226.2861233037146
 20
23.98404543173968
 30
0.0
 40
2.2
  1
+0.5
 50
90.0
 41
0.9205479452054783
  7
DCSTYLE1
 72
     5
 11
-226.2861233037146
 21
31.02404543173968
 31
0.0
  0
TEXT
  5
1D5
  8
0
 62
     7
 10
-223.8861233037146
 20
23.98404543173968
 30
0.0
 40
2.2
  1
　0
 50
90.0
 41
0.9600000000000027
  7
DCSTYLE1
 72
     5
 11
-223.8861233037146
 21
27.50404543173969
 31
0.0
  0
ENDBLK
  5
FE
  8
0
  0
BLOCK
  8
0
  2
DC_GROUP_4
 70
     0
 10
0.0
 20
0.0
 30
0.0
  3
DC_GROUP_4
  1

  0
LINE
  5
1D6
  8
0
  6
DIVIDE
 62
     7
 10
-188.2776861229772
 20
-35.78988037321362
 30
0.0
 11
-187.4190671783088
 21
-36.72706011469656
 31
0.0
  0
LINE
  5
1D7
  8
0
  6
DIVIDE
 62
     7
 10
-187.4190671783088
 20
-36.72706011469656
 30
0.0
 11
-186.6231310881408
 21
-37.67788066341488
 31
0.0
  0
LINE
  5
1D8
  8
0
  6
DIVIDE
 62
     7
 10
-186.6231310881408
 20
-37.67788066341488
 30
0.0
 11
-185.9525607069741
 21
-38.65598282660392
 31
0.0
  0
LINE
  5
1D9
  8
0
  6
DIVIDE
 62
     7
 10
-185.9525607069741
 20
-38.65598282660392
 30
0.0
 11
-185.4700388893088
 21
-39.67500741149906
 31
0.0
  0
LINE
  5
1DA
  8
0
  6
DIVIDE
 62
     7
 10
-185.4700388893088
 20
-39.67500741149906
 30
0.0
 11
-185.237586606338
 21
-40.74845902849599
 31
0.0
  0
LINE
  5
1DB
  8
0
  6
DIVIDE
 62
     7
 10
-185.237586606338
 20
-40.74845902849599
 30
0.0
 11
-185.2627137438779
 21
-41.87862545041838
 31
0.0
  0
LINE
  5
1DC
  8
0
  6
DIVIDE
 62
     7
 10
-185.2627137438779
 20
-41.87862545041838
 30
0.0
 11
-185.4586104817098
 21
-43.04838612579887
 31
0.0
  0
LINE
  5
1DD
  8
0
  6
DIVIDE
 62
     7
 10
-185.4586104817098
 20
-43.04838612579887
 30
0.0
 11
-185.7290851451998
 21
-44.23868998323333
 31
0.0
  0
LINE
  5
1DE
  8
0
  6
DIVIDE
 62
     7
 10
-185.7290851451998
 20
-44.23868998323333
 30
0.0
 11
-185.9779460597143
 21
-45.43048595131758
 31
0.0
  0
LINE
  5
1DF
  8
0
  6
DIVIDE
 62
     7
 10
-185.9779460597143
 20
-45.43048595131758
 30
0.0
 11
-186.1090015506195
 21
-46.60472295864747
 31
0.0
  0
LINE
  5
1E0
  8
0
  6
DIVIDE
 62
     7
 10
-186.1090015506195
 20
-46.60472295864747
 30
0.0
 11
-186.0282584670385
 21
-47.74276709607274
 31
0.0
  0
LINE
  5
1E1
  8
0
  6
DIVIDE
 62
     7
 10
-186.0282584670385
 20
-47.74276709607274
 30
0.0
 11
-185.7105903008664
 21
-48.83905166093933
 31
0.0
  0
LINE
  5
1E2
  8
0
  6
DIVIDE
 62
     7
 10
-185.7105903008664
 20
-48.83905166093933
 30
0.0
 11
-185.2117611768122
 21
-49.90335866747614
 31
0.0
  0
LINE
  5
1E3
  8
0
  6
DIVIDE
 62
     7
 10
-185.2117611768122
 20
-49.90335866747614
 30
0.0
 11
-184.5921580808364
 21
-50.94634730179309
 31
0.0
  0
LINE
  5
1E4
  8
0
  6
DIVIDE
 62
     7
 10
-184.5921580808364
 20
-50.94634730179309
 30
0.0
 11
-183.9121679988999
 21
-51.9786767500001
 31
0.0
  0
ENDBLK
  5
101
  8
0
  0
BLOCK
  8
0
  2
DC_IMAGEDIMGROUP_23
 70
     0
 10
0.0
 20
0.0
 30
0.0
  3
DC_IMAGEDIMGROUP_23
  1

  0
LINE
  5
1E5
  8
0
  6
CONTINUOUS
 62
     9
 10
-206.1250803130537
 20
-142.5000103543931
 30
0.0
 11
-206.1250803130537
 21
-128.7249064661686
 31
0.0
  0
LINE
  5
1E6
  8
0
  6
CONTINUOUS
 62
     9
 10
-151.1250955718427
 20
-124.532206399315
 30
0.0
 11
-151.1250955718427
 21
-130.7249064661686
 31
0.0
  0
LINE
  5
1E7
  8
0
  6
CONTINUOUS
 62
     9
 10
-206.1250803130537
 20
-129.7249064661686
 30
0.0
 11
-151.1250955718427
 21
-129.7249064661686
 31
0.0
  0
INSERT
  5
1E8
  8
0
 62
     9
  2
_OPEN30
 10
-206.1250803130537
 20
-129.7249064661686
 30
0.0
 41
2.499995396844351
 42
2.500007167085477
 50
180.0
  0
INSERT
  5
1E9
  8
0
 62
     9
  2
_OPEN30
 10
-151.1250955718427
 20
-129.7249064661686
 30
0.0
 41
2.499995396844351
 42
2.500007167085477
 50
360.0
  0
TEXT
  5
1EA
  8
0
 62
     7
 10
-181.8250879424482
 20
-128.7249064661686
 30
0.0
 40
4.0
  1
55
 41
0.9081081081081049
  7
DCSTYLE1
 72
     5
 11
-175.4250879424482
 21
-128.7249064661686
 31
0.0
  0
ENDBLK
  5
104
  8
0
  0
BLOCK
  8
0
  2
DC_GROUP_5
 70
     0
 10
0.0
 20
0.0
 30
0.0
  3
DC_GROUP_5
  1

  0
LINE
  5
1EB
  8
0
  6
CONTINUOUS
 62
     7
 10
-151.0924615756502
 20
-117.7959545682603
 30
0.0
 11
-137.1202268221743
 21
-136.1834970982419
 31
0.0
  0
INSERT
  5
1EC
  8
0
 62
     7
  2
_OPEN30
 10
-151.0924615756502
 20
-117.7959545682603
 30
0.0
 41
2.499995396844351
 42
2.500007167085477
 50
127.2302956438795
  0
LINE
  5
1ED
  8
0
  6
CONTINUOUS
 62
     7
 10
-137.1202268221743
 20
-136.1834970982419
 30
0.0
 11
-117.9202268221743
 21
-136.1834970982419
 31
0.0
  0
TEXT
  5
1EE
  8
0
 62
     7
 10
-137.1202268221743
 20
-136.1834970982419
 30
0.0
 40
4.0
  1
M12×25
 41
0.847058823529412
  7
DCSTYLE1
 72
     5
 11
-117.9202268221743
 21
-136.1834970982419
 31
0.0
  0
ENDBLK
  5
107
  8
0
  0
BLOCK
  8
0
  2
DC_IMAGEDIMGROUP_24
 70
     0
 10
0.0
 20
0.0
 30
0.0
  3
DC_IMAGEDIMGROUP_24
  1

  0
LINE
  5
1EF
  8
0
  6
CONTINUOUS
 62
     9
 10
-79.7002655413507
 20
3.03005813729207
 30
0.0
 11
-79.7002655413507
 21
68.20404543173967
 31
0.0
  0
INSERT
  5
1F0
  8
0
 62
     9
  2
_OPEN30
 10
-79.7002655413507
 20
68.20404543173967
 30
0.0
 41
2.499995396844351
 42
2.500007167085477
 50
90.0
  0
LINE
  5
1F1
  8
0
  6
CONTINUOUS
 62
     9
 10
-127.8250772612958
 20
68.20404543173967
 30
0.0
 11
-78.7002655413507
 21
68.20404543173967
 31
0.0
  0
TEXT
  5
1F2
  8
0
 62
     7
 10
-80.7002655413507
 20
17.40404543173966
 30
0.0
 40
4.0
  1
φ91
 50
90.0
 41
1.028571428571428
  7
DCSTYLE1
 72
     5
 11
-80.7002655413507
 21
27.00404543173966
 31
0.0
  0
ENDBLK
  5
10A
  8
0
  0
BLOCK
  8
0
  2
DC_IMAGEDIMGROUP_25
 70
     0
 10
0.0
 20
0.0
 30
0.0
  3
DC_IMAGEDIMGROUP_25
  1

  0
LINE
  5
1F3
  8
LAYER0014
  6
CONTINUOUS
 62
     7
 10
-93.08509557184273
 20
-30.29595456826034
 30
0.0
 11
-56.78714009698921
 21
-30.29595456826034
 31
0.0
  0
LINE
  5
1F4
  8
LAYER0014
  6
CONTINUOUS
 62
     7
 10
-59.07313939508492
 20
-30.29595456826034
 30
0.0
 11
-59.07313939508492
 21
47.20404543173967
 31
0.0
  0
INSERT
  5
1F5
  8
LAYER0014
 62
     7
  2
_OPEN30
 10
-59.07313939508492
 20
-30.29595456826034
 30
0.0
 41
2.499995396844351
 42
2.500007167085477
 50
270.0
  0
TEXT
  5
1F6
  8
LAYER0014
 62
     7
 10
-60.67313939508492
 20
13.1622920442885
 30
0.0
 40
4.0
  1
φ105H7
 50
90.0
 41
0.8615384615384616
  7
DCSTYLE1
 72
     5
 11
-60.67313939508492
 21
32.36229204428849
 31
0.0
  0
ENDBLK
  5
10D
  8
0
  0
BLOCK
  8
0
  2
DC_GROUP_6
 70
     0
 10
0.0
 20
0.0
 30
0.0
  3
DC_GROUP_6
  1

  0
LINE
  5
1F7
  8
LAYER0014
  6
CONTINUOUS
 62
     7
 10
-81.21989353800892
 20
142.9303138985061
 30
0.0
 11
-61.06532575861444
 21
167.9609838508212
 31
0.0
  0
INSERT
  5
1F8
  8
LAYER0014
 62
     7
  2
_OPEN30
 10
-81.21989353800892
 20
142.9303138985061
 30
0.0
 41
2.499995396844351
 42
2.500007167085477
 50
231.1591597473411
  0
LINE
  5
1F9
  8
LAYER0014
  6
CONTINUOUS
 62
     7
 10
-61.06532308038765
 20
167.960972921974
 30
0.0
 11
-49.63565465387398
 21
167.960972921974
 31
0.0
  0
TEXT
  5
1FA
  8
LAYER0014
 62
     7
 10
-60.74024220880562
 20
169.560972921974
 30
0.0
 40
4.0
  1
M12
 41
0.8262295081967216
  7
DCSTYLE1
 72
     5
 11
-51.14024220880562
 21
169.560972921974
 31
0.0
  0
ENDBLK
  5
110
  8
0
  0
BLOCK
  8
0
  2
DC_IMAGEDIMGROUP_26
 70
     0
 10
0.0
 20
0.0
 30
0.0
  3
DC_IMAGEDIMGROUP_26
  1

  0
LINE
  5
1FB
  8
LAYER0014
  6
CONTINUOUS
 62
     7
 10
-64.51232640680367
 20
137.2040454317397
 30
0.0
 11
-58.07313939508492
 21
137.2040454317397
 31
0.0
  0
LINE
  5
1FC
  8
LAYER0014
  6
CONTINUOUS
 62
     7
 10
-64.51232640680367
 20
102.2040454317397
 30
0.0
 11
-58.07313939508492
 21
102.2040454317397
 31
0.0
  0
LINE
  5
1FD
  8
LAYER0014
  6
CONTINUOUS
 62
     7
 10
-59.07313939508492
 20
137.2040454317397
 30
0.0
 11
-59.07313939508492
 21
102.2040454317397
 31
0.0
  0
INSERT
  5
1FE
  8
LAYER0014
 62
     7
  2
_OPEN30
 10
-59.07313939508492
 20
137.2040454317397
 30
0.0
 41
2.499995396844351
 42
2.500007167085477
 50
90.0
  0
INSERT
  5
1FF
  8
LAYER0014
 62
     7
  2
_OPEN30
 10
-59.07313939508492
 20
102.2040454317397
 30
0.0
 41
2.499995396844351
 42
2.500007167085477
 50
270.0
  0
TEXT
  5
200
  8
LAYER0014
 62
     7
 10
-60.07313939508492
 20
116.5040454317397
 30
0.0
 40
4.0
  1
35
 50
90.0
 41
0.9081081081081089
  7
DCSTYLE1
 72
     5
 11
-60.07313939508492
 21
122.9040454317397
 31
0.0
  0
ENDBLK
  5
113
  8
0
  0
BLOCK
  8
0
  2
DC_IMAGEDIMGROUP_27
 70
     0
 10
0.0
 20
0.0
 30
0.0
  3
DC_IMAGEDIMGROUP_27
  1

  0
LINE
  5
201
  8
LAYER0014
  6
CONTINUOUS
 62
     7
 10
-57.71841161188179
 20
22.20404543173966
 30
0.0
 11
-47.72047444757515
 21
22.20404543173966
 31
0.0
  0
LINE
  5
202
  8
LAYER0014
  6
CONTINUOUS
 62
     7
 10
-94.08509557184273
 20
82.20404543173967
 30
0.0
 11
-47.72047444757515
 21
82.20404543173967
 31
0.0
  0
LINE
  5
203
  8
LAYER0014
  6
CONTINUOUS
 62
     7
 10
-50.00647374567085
 20
22.20404543173966
 30
0.0
 11
-50.00647374567085
 21
82.20404543173967
 31
0.0
  0
INSERT
  5
204
  8
LAYER0014
 62
     7
  2
_OPEN30
 10
-50.00647374567085
 20
22.20404543173966
 30
0.0
 41
2.499995396844351
 42
2.500007167085477
 50
270.0
  0
INSERT
  5
205
  8
LAYER0014
 62
     7
  2
_OPEN30
 10
-50.00647374567085
 20
82.20404543173967
 30
0.0
 41
2.499995396844351
 42
2.500007167085477
 50
90.0
  0
TEXT
  5
206
  8
LAYER0014
 62
     7
 10
-51.00647374567085
 20
41.00404543173966
 30
0.0
 40
4.0
  1
MAX72.5
 50
90.0
 41
0.9116279069767443
  7
DCSTYLE1
 72
     5
 11
-51.00647374567085
 21
63.40404543173967
 31
0.0
  0
ENDBLK
  5
116
  8
0
  0
BLOCK
  8
0
  2
DC_IMAGEDIMGROUP_28
 70
     0
 10
0.0
 20
0.0
 30
0.0
  3
DC_IMAGEDIMGROUP_28
  1

  0
LINE
  5
207
  8
LAYER0014
  6
CONTINUOUS
 62
     7
 10
-94.08509557184273
 20
82.20404543173967
 30
0.0
 11
-47.72047444757515
 21
82.20404543173967
 31
0.0
  0
LINE
  5
208
  8
LAYER0014
  6
CONTINUOUS
 62
     7
 10
-94.08509557184273
 20
162.2040454317397
 30
0.0
 11
-47.72047444757515
 21
162.2040454317397
 31
0.0
  0
LINE
  5
209
  8
LAYER0014
  6
CONTINUOUS
 62
     7
 10
-50.00647374567085
 20
82.20404543173967
 30
0.0
 11
-50.00647374567085
 21
162.2040454317397
 31
0.0
  0
INSERT
  5
20A
  8
LAYER0014
 62
     7
  2
_OPEN30
 10
-50.00647374567085
 20
82.20404543173967
 30
0.0
 41
2.499995396844351
 42
2.500007167085477
 50
270.0
  0
INSERT
  5
20B
  8
LAYER0014
 62
     7
  2
_OPEN30
 10
-50.00647374567085
 20
162.2040454317397
 30
0.0
 41
2.499995396844351
 42
2.500007167085477
 50
90.0
  0
TEXT
  5
20C
  8
LAYER0014
 62
     7
 10
-51.00647374567085
 20
119.0040454317397
 30
0.0
 40
4.0
  1
80
 50
90.0
 41
0.9081081081081089
  7
DCSTYLE1
 72
     5
 11
-51.00647374567085
 21
125.4040454317397
 31
0.0
  0
ENDBLK
  5
119
  8
0
  0
BLOCK
  8
0
  2
DC_IMAGEDIMGROUP_29
 70
     0
 10
0.0
 20
0.0
 30
0.0
  3
DC_IMAGEDIMGROUP_29
  1

  0
LINE
  5
20D
  8
LAYER0014
  6
CONTINUOUS
 62
     7
 10
-64.51232640680367
 20
102.2040454317397
 30
0.0
 11
-56.78714009698921
 21
102.2040454317397
 31
0.0
  0
LINE
  5
20E
  8
LAYER0014
  6
CONTINUOUS
 62
     7
 10
-94.08509557184273
 20
82.20404543173967
 30
0.0
 11
-56.78714009698921
 21
82.20404543173967
 31
0.0
  0
LINE
  5
20F
  8
LAYER0014
  6
CONTINUOUS
 62
     7
 10
-59.07313939508492
 20
102.2040454317397
 30
0.0
 11
-59.07313939508492
 21
82.20404543173967
 31
0.0
  0
INSERT
  5
210
  8
LAYER0014
 62
     7
  2
_OPEN30
 10
-59.07313939508492
 20
102.2040454317397
 30
0.0
 41
2.499995396844351
 42
2.500007167085477
 50
90.0
  0
INSERT
  5
211
  8
LAYER0014
 62
     7
  2
_OPEN30
 10
-59.07313939508492
 20
82.20404543173967
 30
0.0
 41
2.499995396844351
 42
2.500007167085477
 50
270.0
  0
TEXT
  5
212
  8
LAYER0014
 62
     7
 10
-60.0871020220121
 20
84.20405761643336
 30
0.0
 40
4.0
  1
MIN13
 50
89.90000000000002
 41
0.9230769230769236
  7
DCSTYLE1
 72
     5
 11
-60.05917676815773
 21
100.204033247046
 31
0.0
  0
ENDBLK
  5
11C
  8
0
  0
BLOCK
  8
0
  2
DC_GROUP_7
 70
     0
 10
0.0
 20
0.0
 30
0.0
  3
DC_GROUP_7
  1

  0
LINE
  5
213
  8
LAYER0014
  6
CONTINUOUS
 62
     7
 10
-96.63708578698275
 20
154.4858626212707
 30
0.0
 11
-74.72512158382447
 21
176.7021716466828
 31
0.0
  0
INSERT
  5
214
  8
LAYER0014
 62
     7
  2
_OPEN30
 10
-96.63708578698275
 20
154.4858626212707
 30
0.0
 41
2.499995396844351
 42
2.500007167085477
 50
225.3951524970939
  0
LINE
  5
215
  8
LAYER0014
  6
CONTINUOUS
 62
     7
 10
-74.72512456354194
 20
176.702168600685
 30
0.0
 11
-28.09545155939156
 21
176.702168600685
 31
0.0
  0
TEXT
  5
216
  8
LAYER0014
 62
     7
 10
-73.81210729059272
 20
178.302168600685
 30
0.0
 40
4.0
  1
ｾﾚｰｼｮﾝP1.5山60ﾟ
 41
0.9333333333333335
  7
DCSTYLE1
 72
     5
 11
-29.01210729059272
 21
178.302168600685
 31
0.0
  0
ENDBLK
  5
11F
  8
0
  0
BLOCK
  8
0
  2
DC_IMAGEDIMGROUP_30
 70
     0
 10
0.0
 20
0.0
 30
0.0
  3
DC_IMAGEDIMGROUP_30
  1

  0
LINE
  5
217
  8
0
  6
CONTINUOUS
 62
     7
 10
-3.110059845327709
 20
-56.95623889670595
 30
0.0
 11
-17.39721266946518
 21
-65.20493314775375
 31
0.0
  0
LINE
  5
218
  8
0
  6
CONTINUOUS
 62
     7
 10
-13.11006541392895
 20
-39.63572689170793
 30
0.0
 11
-27.39721823806642
 21
-47.88442114275573
 31
0.0
  0
LINE
  5
219
  8
0
  6
CONTINUOUS
 62
     7
 10
-16.53118733712812
 20
-64.70493302400328
 30
0.0
 11
-26.53119290572936
 21
-47.38442101900527
 31
0.0
  0
INSERT
  5
21A
  8
0
 62
     7
  2
_OPEN30
 10
-16.53118733712812
 20
-64.70493302400328
 30
0.0
 41
2.499995396844351
 42
2.500007167085477
 50
300.0000081872651
  0
INSERT
  5
21B
  8
0
 62
     7
  2
_OPEN30
 10
-26.53119290572936
 20
-47.38442101900527
 30
0.0
 41
2.499995396844351
 42
2.500007167085477
 50
120.000008187265
  0
TEXT
  5
21C
  8
0
 62
     7
 10
-24.29817824726316
 20
-50.25211483267182
 30
0.0
 40
4.0
  1
20H8
 50
300.000008187265
 41
0.8506329113924055
  7
DCSTYLE1
 72
     5
 11
-17.89817666325725
 21
-61.33723908658625
 31
0.0
  0
ENDBLK
  5
122
  8
0
  0
BLOCK
  8
0
  2
DC_IMAGEDIMGROUP_31
 70
     0
 10
0.0
 20
0.0
 30
0.0
  3
DC_IMAGEDIMGROUP_31
  1

  0
LINE
  5
21D
  8
0
  6
CONTINUOUS
 62
     7
 10
3.139969846940321
 20
-67.78152794305169
 30
0.0
 11
-21.29596015296466
 21
-81.88964927821243
 31
0.0
  0
LINE
  5
21E
  8
0
  6
CONTINUOUS
 62
     7
 10
-19.36006464368429
 20
-28.81040948250252
 30
0.0
 11
-43.79599464358925
 21
-42.91853081766326
 31
0.0
  0
LINE
  5
21F
  8
0
  6
CONTINUOUS
 62
     7
 10
-20.42993521834322
 20
-81.38964846559915
 30
0.0
 11
-42.92996970896782
 21
-42.41853000504997
 31
0.0
  0
INSERT
  5
220
  8
0
 62
     7
  2
_OPEN30
 10
-20.42993521834322
 20
-81.38964846559915
 30
0.0
 41
2.499995396844351
 42
2.500007167085477
 50
300.0000537620767
  0
INSERT
  5
221
  8
0
 62
     7
  2
_OPEN30
 10
-42.92996970896782
 20
-42.41853000504997
 30
0.0
 41
2.499995396844351
 42
2.500007167085477
 50
120.0000537620767
  0
TEXT
  5
222
  8
0
 62
     7
 10
-32.84694259670731
 20
-58.88280903822934
 30
0.0
 40
4.0
  1
45
 50
300.0000537620767
 41
0.9081081081081082
  7
DCSTYLE1
 72
     5
 11
-29.6469373959823
 21
-64.4253686198065
 31
0.0
  0
ENDBLK
  5
125
  8
0
  0
BLOCK
  8
0
  2
DC_IMAGEDIMGROUP_32
 70
     0
 10
0.0
 20
0.0
 30
0.0
  3
DC_IMAGEDIMGROUP_32
  1

  0
LINE
  5
223
  8
0
  6
CONTINUOUS
 62
     7
 10
74.49946559526106
 20
28.87001608888865
 30
0.0
 11
74.49946559526106
 21
37.96114519427405
 31
0.0
  0
LINE
  5
224
  8
0
  6
CONTINUOUS
 62
     7
 10
153.4994653526463
 20
28.87001608888865
 30
0.0
 11
153.4994653526463
 21
37.96114519427405
 31
0.0
  0
LINE
  5
225
  8
0
  6
CONTINUOUS
 62
     7
 10
74.49946559526106
 20
36.96114519427405
 30
0.0
 11
153.4994653526463
 21
36.96114519427405
 31
0.0
  0
INSERT
  5
226
  8
0
 62
     7
  2
_OPEN30
 10
74.49946559526106
 20
36.96114519427405
 30
0.0
 41
2.499995396844351
 42
2.500007167085477
 50
180.0
  0
INSERT
  5
227
  8
0
 62
     7
  2
_OPEN30
 10
153.4994653526463
 20
36.96114519427405
 30
0.0
 41
2.499995396844351
 42
2.500007167085477
 50
360.0
  0
TEXT
  5
228
  8
0
 62
     7
 10
105.9994654739537
 20
37.46114519427405
 30
0.0
 40
4.0
  1
PCD79
 41
0.8484848484848485
  7
DCSTYLE1
 72
     5
 11
121.9994654739537
 21
37.46114519427405
 31
0.0
  0
ENDBLK
  5
128
  8
0
  0
BLOCK
  8
0
  2
DC_GROUP_8
 70
     0
 10
0.0
 20
0.0
 30
0.0
  3
DC_GROUP_8
  1

  0
LINE
  5
229
  8
0
  6
CONTINUOUS
 62
     7
 10
154.8398552371168
 20
25.12857749720911
 30
0.0
 11
222.7784594410362
 21
152.8548057259714
 31
0.0
  0
INSERT
  5
22A
  8
0
 62
     7
  2
_OPEN30
 10
154.8398552371168
 20
25.12857749720911
 30
0.0
 41
2.499995396844351
 42
2.500007167085477
 50
241.9911306024739
  0
LINE
  5
22B
  8
0
  6
CONTINUOUS
 62
     7
 10
222.7784594410362
 20
152.8548057259714
 30
0.0
 11
241.9784594410363
 21
152.8548057259714
 31
0.0
  0
TEXT
  5
22C
  8
0
 62
     7
 10
222.7784594410362
 20
153.3548057259714
 30
0.0
 40
4.0
  1
2-φ6.2
 41
0.9081081081081089
  7
DCSTYLE1
 72
     5
 11
241.9784594410363
 21
153.3548057259714
 31
0.0
  0
ENDBLK
  5
12B
  8
0
  0
BLOCK
  8
0
  2
_OPEN30
 70
     0
 10
0.0
 20
0.0
 30
0.0
  3
_OPEN30
  1

  0
LINE
  5
132
  8
0
  6
BYBLOCK
 62
     0
 10
-1.0
 20
0.267949
 30
0.0
 11
0.0
 21
0.0
 31
0.0
  0
LINE
  5
133
  8
0
  6
BYBLOCK
 62
     0
 10
0.0
 20
0.0
 30
0.0
 11
-1.0
 21
-0.267949
 31
0.0
  0
LINE
  5
134
  8
0
  6
BYBLOCK
 62
     0
 10
0.0
 20
0.0
 30
0.0
 11
-1.0
 21
0.0
 31
0.0
  0
ENDBLK
  5
131
  8
0
  0
ENDSEC
  0
SECTION
  2
ENTITIES
  0
LINE
  5
22D
  8
ZUWAKU
  6
CONTINUOUS
 62
     3
 10
277.0
 20
-190.0
 30
0.0
 11
277.0
 21
190.0
 31
0.0
  0
LINE
  5
22E
  8
ZUWAKU
  6
CONTINUOUS
 62
     3
 10
-277.0
 20
-190.0
 30
0.0
 11
277.0
 21
-190.0
 31
0.0
  0
LINE
  5
22F
  8
ZUWAKU
  6
CONTINUOUS
 62
     3
 10
-277.0
 20
189.9999999999999
 30
0.0
 11
277.0
 21
189.9999999999999
 31
0.0
  0
LINE
  5
230
  8
ZUWAKU
  6
CONTINUOUS
 62
     3
 10
97.00000000000001
 20
-190.0
 30
0.0
 11
97.00000000000001
 21
-130.0
 31
0.0
  0
LINE
  5
231
  8
ZUWAKU
  6
CONTINUOUS
 62
     3
 10
97.00000000000001
 20
-176.0
 30
0.0
 11
277.0
 21
-176.0
 31
0.0
  0
LINE
  5
232
  8
ZUWAKU
  6
CONTINUOUS
 62
     3
 10
146.0
 20
-162.0
 30
0.0
 11
277.0
 21
-162.0
 31
0.0
  0
LINE
  5
233
  8
ZUWAKU
  6
CONTINUOUS
 62
     3
 10
146.0
 20
-148.0
 30
0.0
 11
277.0
 21
-148.0
 31
0.0
  0
LINE
  5
234
  8
ZUWAKU
  6
CONTINUOUS
 62
     3
 10
146.0
 20
-138.0
 30
0.0
 11
277.0
 21
-138.0
 31
0.0
  0
LINE
  5
235
  8
ZUWAKU
  6
CONTINUOUS
 62
     3
 10
146.0
 20
-176.0
 30
0.0
 11
146.0
 21
-130.0
 31
0.0
  0
LINE
  5
236
  8
ZUWAKU
  6
CONTINUOUS
 62
     3
 10
255.0
 20
-176.0
 30
0.0
 11
255.0
 21
-130.0
 31
0.0
  0
LINE
  5
237
  8
ZUWAKU
  6
CONTINUOUS
 62
     3
 10
171.0
 20
-190.0
 30
0.0
 11
171.0
 21
-176.0
 31
0.0
  0
LINE
  5
238
  8
ZUWAKU
  6
CONTINUOUS
 62
     3
 10
262.0
 20
-188.0
 30
0.0
 11
272.0
 21
-188.0
 31
0.0
  0
LINE
  5
239
  8
ZUWAKU
  6
CONTINUOUS
 62
     3
 10
267.0
 20
-178.0
 30
0.0
 11
262.0
 21
-188.0
 31
0.0
  0
LINE
  5
23A
  8
ZUWAKU
  6
CONTINUOUS
 62
     3
 10
267.0
 20
-178.0
 30
0.0
 11
272.0
 21
-188.0
 31
0.0
  0
LINE
  5
23B
  8
ZUWAKU
  6
CONTINUOUS
 62
     3
 10
97.00000000000001
 20
-130.0
 30
0.0
 11
277.0
 21
-130.0
 31
0.0
  0
LINE
  5
23C
  8
ZUWAKU
  6
CONTINUOUS
 62
     3
 10
226.0
 20
-176.0
 30
0.0
 11
226.0
 21
-148.0
 31
0.0
  0
LINE
  5
23D
  8
ZUWAKU
  6
CONTINUOUS
 62
     3
 10
-277.0
 20
-190.0
 30
0.0
 11
-277.0
 21
190.0
 31
0.0
  0
LINE
  5
23E
  8
ZUWAKU
  6
CONTINUOUS
 62
     4
 10
105.0
 20
-172.0
 30
0.0
 11
105.0
 21
-130.0
 31
0.0
  0
LINE
  5
23F
  8
ZUWAKU
  6
CONTINUOUS
 62
     4
 10
109.0
 20
-172.0
 30
0.0
 11
109.0
 21
-130.0
 31
0.0
  0
LINE
  5
240
  8
ZUWAKU
  6
CONTINUOUS
 62
     4
 10
121.5
 20
-176.0
 30
0.0
 11
121.5
 21
-130.0
 31
0.0
  0
LINE
  5
241
  8
ZUWAKU
  6
CONTINUOUS
 62
     4
 10
97.00000000000001
 20
-137.0
 30
0.0
 11
146.0
 21
-137.0
 31
0.0
  0
LINE
  5
242
  8
ZUWAKU
  6
CONTINUOUS
 62
     4
 10
97.00000000000001
 20
-144.0
 30
0.0
 11
146.0
 21
-144.0
 31
0.0
  0
LINE
  5
243
  8
ZUWAKU
  6
CONTINUOUS
 62
     4
 10
97.00000000000001
 20
-165.0
 30
0.0
 11
146.0
 21
-165.0
 31
0.0
  0
LINE
  5
244
  8
ZUWAKU
  6
CONTINUOUS
 62
     4
 10
97.00000000000001
 20
-172.0
 30
0.0
 11
146.0
 21
-172.0
 31
0.0
  0
LINE
  5
245
  8
ZUWAKU
  6
CONTINUOUS
 62
     4
 10
255.0
 20
-166.0
 30
0.0
 11
277.0
 21
-166.0
 31
0.0
  0
LINE
  5
246
  8
ZUWAKU
  6
CONTINUOUS
 62
     4
 10
153.0
 20
-139.5
 30
0.0
 11
153.0
 21
-130.0
 31
0.0
  0
LINE
  5
247
  8
ZUWAKU
  6
CONTINUOUS
 62
     4
 10
202.0
 20
-148.0
 30
0.0
 11
202.0
 21
-146.5
 31
0.0
  0
LINE
  5
248
  8
ZUWAKU
  6
CONTINUOUS
 62
     4
 10
226.0
 20
-148.0
 30
0.0
 11
226.0
 21
-146.5
 31
0.0
  0
LINE
  5
249
  8
ZUWAKU
  6
CONTINUOUS
 62
     4
 10
243.0
 20
-148.0
 30
0.0
 11
243.0
 21
-146.5
 31
0.0
  0
LINE
  5
24A
  8
ZUWAKU
  6
CONTINUOUS
 62
     4
 10
202.0
 20
-139.5
 30
0.0
 11
202.0
 21
-130.0
 31
0.0
  0
LINE
  5
24B
  8
ZUWAKU
  6
CONTINUOUS
 62
     4
 10
226.0
 20
-139.5
 30
0.0
 11
226.0
 21
-130.0
 31
0.0
  0
LINE
  5
24C
  8
ZUWAKU
  6
CONTINUOUS
 62
     4
 10
243.0
 20
-139.5
 30
0.0
 11
243.0
 21
-130.0
 31
0.0
  0
LINE
  5
24D
  8
ZUWAKU
  6
CONTINUOUS
 62
     4
 10
97.00000000000001
 20
-151.0
 30
0.0
 11
146.0
 21
-151.0
 31
0.0
  0
LINE
  5
24E
  8
ZUWAKU
  6
CONTINUOUS
 62
     4
 10
97.00000000000001
 20
-158.0
 30
0.0
 11
146.0
 21
-158.0
 31
0.0
  0
LINE
  5
24F
  8
ZUWAKU
  6
CONTINUOUS
 62
     4
 10
101.0
 20
-130.5
 30
0.0
 11
98.00000000000001
 21
-136.5
 31
0.0
  0
LINE
  5
250
  8
ZUWAKU
  6
CONTINUOUS
 62
     4
 10
101.0
 20
-130.5
 30
0.0
 11
104.0
 21
-136.5
 31
0.0
  0
LINE
  5
251
  8
ZUWAKU
  6
CONTINUOUS
 62
     4
 10
98.00000000000001
 20
-136.5
 30
0.0
 11
104.0
 21
-136.5
 31
0.0
  0
LINE
  5
252
  8
ZUWAKU
  6
CONTINUOUS
 62
     4
 10
101.0
 20
-158.5
 30
0.0
 11
98.00000000000001
 21
-164.5
 31
0.0
  0
LINE
  5
253
  8
ZUWAKU
  6
CONTINUOUS
 62
     4
 10
101.0
 20
-158.5
 30
0.0
 11
104.0
 21
-164.5
 31
0.0
  0
LINE
  5
254
  8
ZUWAKU
  6
CONTINUOUS
 62
     4
 10
98.00000000000001
 20
-164.5
 30
0.0
 11
104.0
 21
-164.5
 31
0.0
  0
LINE
  5
255
  8
ZUWAKU
  6
CONTINUOUS
 62
     4
 10
101.0
 20
-151.5
 30
0.0
 11
98.00000000000001
 21
-157.5
 31
0.0
  0
LINE
  5
256
  8
ZUWAKU
  6
CONTINUOUS
 62
     4
 10
101.0
 20
-151.5
 30
0.0
 11
104.0
 21
-157.5
 31
0.0
  0
LINE
  5
257
  8
ZUWAKU
  6
CONTINUOUS
 62
     4
 10
98.00000000000001
 20
-157.5
 30
0.0
 11
104.0
 21
-157.5
 31
0.0
  0
LINE
  5
258
  8
ZUWAKU
  6
CONTINUOUS
 62
     4
 10
101.0
 20
-144.5
 30
0.0
 11
98.00000000000001
 21
-150.5
 31
0.0
  0
LINE
  5
259
  8
ZUWAKU
  6
CONTINUOUS
 62
     4
 10
101.0
 20
-144.5
 30
0.0
 11
104.0
 21
-150.5
 31
0.0
  0
LINE
  5
25A
  8
ZUWAKU
  6
CONTINUOUS
 62
     4
 10
98.00000000000001
 20
-150.5
 30
0.0
 11
104.0
 21
-150.5
 31
0.0
  0
LINE
  5
25B
  8
ZUWAKU
  6
CONTINUOUS
 62
     4
 10
101.0
 20
-137.5
 30
0.0
 11
98.00000000000001
 21
-143.5
 31
0.0
  0
LINE
  5
25C
  8
ZUWAKU
  6
CONTINUOUS
 62
     4
 10
101.0
 20
-137.5
 30
0.0
 11
104.0
 21
-143.5
 31
0.0
  0
LINE
  5
25D
  8
ZUWAKU
  6
CONTINUOUS
 62
     4
 10
98.00000000000001
 20
-143.5
 30
0.0
 11
104.0
 21
-143.5
 31
0.0
  0
LINE
  5
25E
  8
ZUWAKU
  6
CONTINUOUS
 62
     4
 10
172.6666666666666
 20
-176.0
 30
0.0
 11
172.6666666666666
 21
-162.0
 31
0.0
  0
LINE
  5
25F
  8
ZUWAKU
  6
CONTINUOUS
 62
     4
 10
199.3333333333333
 20
-176.0
 30
0.0
 11
199.3333333333333
 21
-161.9509415757253
 31
0.0
  0
LINE
  5
260
  8
ZUWAKU
  6
CONTINUOUS
 62
     4
 10
212.6666666666666
 20
-167.5
 30
0.0
 11
212.6666666666666
 21
-161.9509415757253
 31
0.0
  0
LINE
  5
261
  8
ZUWAKU
  6
CONTINUOUS
 62
     4
 10
226.0
 20
-155.0
 30
0.0
 11
255.0
 21
-155.0
 31
0.0
  0
LINE
  5
262
  8
ZUWAKU
  6
CONTINUOUS
 62
     4
 10
146.0
 20
-166.0
 30
0.0
 11
226.0
 21
-166.0
 31
0.0
  0
TEXT
  5
264
  8
ZUWAKU
 62
     7
 10
149.5932301474747
 20
-130.8211887289559
 30
0.0
 40
2.6656
  1
符号
 41
0.8
  7
DCSTYLE0
  0
TEXT
  5
265
  8
ZUWAKU
 62
     7
 10
162.4141311219058
 20
-135.8245525019963
 30
0.0
 40
4.0
  1
品       名
 41
0.8400000000000003
  7
DCSTYLE1
 72
     5
 11
191.2141311219058
 21
-135.8245525019963
 31
0.0
  0
TEXT
  5
266
  8
ZUWAKU
 62
     7
 10
207.2331564413096
 20
-135.8245525019963
 30
0.0
 40
4.0
  1
材  料
 41
0.8960000000000009
  7
DCSTYLE1
 72
     5
 11
220.0331564413096
 21
-135.8245525019963
 31
0.0
  0
TEXT
  5
267
  8
ZUWAKU
 62
     7
 10
229.516061684855
 20
-135.8245525019963
 30
0.0
 40
4.0
  1
個 数
 41
0.9333333333333329
  7
DCSTYLE1
 72
     5
 11
239.116061684855
 21
-135.8245525019963
 31
0.0
  0
TEXT
  5
268
  8
ZUWAKU
 62
     7
 10
245.721810952888
 20
-133.5649080050572
 30
0.0
 40
2.5
  1
単重量
 41
0.9882352941176471
  7
DCSTYLE1
 72
     5
 11
251.721810952888
 21
-133.5649080050572
 31
0.0
  0
TEXT
  5
269
  8
ZUWAKU
 62
     7
 10
244.7089516236359
 20
-137.3631304897525
 30
0.0
 40
2.5
  1
(kg)
 41
1.12
  7
DCSTYLE1
 72
     5
 11
252.7089516236359
 21
-137.3631304897525
 31
0.0
  0
TEXT
  5
26A
  8
ZUWAKU
 62
     7
 10
259.1421970654778
 20
-135.8245525019963
 30
0.0
 40
4.0
  1
記  事
 41
0.8960000000000009
  7
DCSTYLE1
 72
     5
 11
271.9421970654778
 21
-135.8245525019963
 31
0.0
  0
TEXT
  5
26B
  8
ZUWAKU
 62
     7
 10
258.8450794551645
 20
-165.4873041997729
 30
0.0
 40
3.0
  1
コード番号
 41
0.9655172413793105
  7
DCSTYLE1
 72
     5
 11
270.8450794551645
 21
-165.4873041997729
 31
0.0
  0
TEXT
  5
26C
  8
ZUWAKU
 62
     7
 10
101.9119920158317
 20
-175.1879010540338
 30
0.0
 40
2.5
  1
訂 正 来 歴
 41
0.8909090909090911
  7
DCSTYLE1
 72
     5
 11
115.9119920158317
 21
-175.1879010540338
 31
0.0
  0
TEXT
  5
26D
  8
ZUWAKU
 62
     7
 10
125.890334846765
 20
-175.2166697391651
 30
0.0
 40
2.5
  1
工 事 番 号
 41
0.8909090909090911
  7
DCSTYLE1
 72
     5
 11
139.890334846765
 21
-175.2166697391651
 31
0.0
  0
TEXT
  5
26E
  8
ZUWAKU
 62
     7
 10
100.9648378466029
 20
-165.9634530565915
 30
0.0
 40
2.0825
  1
記号
 41
0.8
  7
DCSTYLE0
  0
TEXT
  5
26F
  8
ZUWAKU
 62
     7
 10
106.9042249067618
 20
-165.9634530565915
 30
0.0
 40
2.0825
  1
理由
 41
0.8
  7
DCSTYLE0
  0
TEXT
  5
270
  8
ZUWAKU
 62
     7
 10
111.6193667909843
 20
-169.8786046700178
 30
0.0
 40
3.0
  1
日 付
 41
0.9333333333333319
  7
DCSTYLE1
 72
     5
 11
118.8193667909843
 21
-169.8786046700178
 31
0.0
  0
TEXT
  5
271
  8
ZUWAKU
 62
     7
 10
153.4481689819652
 20
-165.7187911464244
 30
0.0
 40
3.0
  1
承   認
 41
0.875
  7
DCSTYLE1
 72
     5
 11
165.4481689819652
 21
-165.7187911464244
 31
0.0
  0
TEXT
  5
272
  8
ZUWAKU
 62
     7
 10
179.863228033234
 20
-165.4873041997729
 30
0.0
 40
3.0
  1
検   図
 41
0.875
  7
DCSTYLE1
 72
     5
 11
191.863228033234
 21
-165.4873041997729
 31
0.0
  0
TEXT
  5
273
  8
ZUWAKU
 62
     7
 10
201.4771920983751
 20
-165.4873041997729
 30
0.0
 40
3.0
  1
担  当
 41
0.8959999999999996
  7
DCSTYLE1
 72
     5
 11
211.0771920983751
 21
-165.4873041997729
 31
0.0
  0
TEXT
  5
274
  8
ZUWAKU
 62
     7
 10
214.6770574841112
 20
-165.4873041997729
 30
0.0
 40
3.0
  1
製  図
 41
0.8959999999999996
  7
DCSTYLE1
 72
     5
 11
224.2770574841112
 21
-165.4873041997729
 31
0.0
  0
TEXT
  5
275
  8
ZUWAKU
 62
     7
 10
226.9462372304199
 20
-153.2184960272417
 30
0.0
 40
3.0
  1
作図
 41
1.018181818181821
  7
DCSTYLE1
 72
     5
 11
231.7462372304199
 21
-153.2184960272417
 31
0.0
  0
TEXT
  5
276
  8
ZUWAKU
 62
     7
 10
228.1036719636776
 20
-160.2371566401815
 30
0.0
 40
4.0
  1
第 三 角 法
 41
0.8909090909090912
  7
DCSTYLE1
 72
     5
 11
250.5036719636776
 21
-160.2371566401815
 31
0.0
  0
TEXT
  5
277
  8
ZUWAKU
 62
     7
 10
227.409211123723
 20
-166.413251986379
 30
0.0
 40
3.0
  1
尺度
 41
1.018181818181821
  7
DCSTYLE1
 72
     5
 11
232.209211123723
 21
-166.413251986379
 31
0.0
  0
TEXT
  5
279
  8
ZUWAKU
 62
     3
 10
105.379154370034
 20
-185.9272077185016
 30
0.0
 40
7.0
  1
株式会社 野村製作所
 41
0.5756623947008424
  7
DCSTYLE2
 72
     5
 11
161.379154370034
 21
-185.9272077185016
 31
0.0
  0
TEXT
  5
27B
  8
ZUWAKU
 62
     3
 10
177.8624671645867
 20
-187.1216685584563
 30
0.0
 40
8.0
  1
２－
 41
0.7689423076923078
  7
DCSTYLE3
 72
     5
 11
193.8624671645867
 21
-187.1216685584563
 31
0.0
  0
TEXT
  5
27C
  8
ZUWAKU
 62
     3
 10
194.7744247889935
 20
-187.1216685584563
 30
0.0
 40
8.0
  1
9312027
 41
1.537884615384616
  7
DCSTYLE3
 72
     5
 11
250.7744247889935
 21
-187.1216685584563
 31
0.0
  0
TEXT
  5
27D
  8
ZUWAKU
 62
     6
 10
231.3155727792442
 20
-146.0216474852281
 30
0.0
 40
4.0
  1
一式
 41
0.8909090909090901
  7
DCSTYLE1
 72
     5
 11
236.9155727792442
 21
-146.0216474852281
 31
0.0
  0
TEXT
  5
27E
  8
ZUWAKU
 62
     6
 10
162.2812187032356
 20
-145.8589000228561
 30
0.0
 40
6.0
  1
外 形 図
 41
0.7903225806451614
  7
DCSTYLE1
 72
     5
 11
183.2812187032356
 21
-145.8589000228561
 31
0.0
  0
TEXT
  5
27F
  8
ZUWAKU
 62
     6
 10
149.274786315161
 20
-154.2619116635389
 30
0.0
 40
5.0
  1
日鋼プレシジォン
 41
0.8340425531914895
  7
DCSTYLE1
 72
     5
 11
177.274786315161
 21
-154.2619116635389
 31
0.0
  0
TEXT
  5
280
  8
ZUWAKU
 62
     6
 10
172.5966285499721
 20
-160.4523460920329
 30
0.0
 40
5.0
  1
ＧＯ3－１2型ﾁｬｯｸ
 41
0.8125628140703519
  7
DCSTYLE1
 72
     5
 11
211.0966285499721
 21
-160.4523460920329
 31
0.0
  0
TEXT
  5
281
  8
ZUWAKU
 62
     4
 10
236.744629548433
 20
-172.297487439201
 30
0.0
 40
3.0
  1
1/1
 41
0.8320754716981147
  7
DCSTYLE1
 72
     5
 11
243.044629548433
 21
-172.297487439201
 31
0.0
  0
LINE
  5
282
  8
0
  6
CONTINUOUS
 62
     6
 10
-74.03471903125883
 20
-178.0581196613581
 30
0.0
 11
70.77721639354584
 21
-178.0581196613581
 31
0.0
  0
LINE
  5
283
  8
0
  6
CONTINUOUS
 62
     6
 10
-74.03471903125883
 20
-170.0581196613581
 30
0.0
 11
70.77721639354584
 21
-170.0581196613581
 31
0.0
  0
LINE
  5
284
  8
0
  6
CONTINUOUS
 62
     6
 10
-74.03471903125883
 20
-162.0581196613581
 30
0.0
 11
70.77721639354584
 21
-162.0581196613581
 31
0.0
  0
LINE
  5
285
  8
0
  6
CONTINUOUS
 62
     6
 10
-74.03471903125883
 20
-154.0581196613581
 30
0.0
 11
70.77721639354584
 21
-154.0581196613581
 31
0.0
  0
LINE
  5
286
  8
0
  6
CONTINUOUS
 62
     6
 10
-74.03471903125883
 20
-146.0581196613581
 30
0.0
 11
70.77721639354584
 21
-146.0581196613581
 31
0.0
  0
LINE
  5
287
  8
0
  6
CONTINUOUS
 62
     6
 10
-74.03471903125883
 20
-138.0581196613581
 30
0.0
 11
70.77721639354584
 21
-138.0581196613581
 31
0.0
  0
LINE
  5
288
  8
0
  6
CONTINUOUS
 62
     6
 10
-74.03471903125883
 20
-130.0581349201472
 30
0.0
 11
70.77721639354584
 21
-130.0581349201472
 31
0.0
  0
LINE
  5
289
  8
0
  6
CONTINUOUS
 62
     6
 10
-74.03471903125883
 20
-122.0581349201472
 30
0.0
 11
70.77721639354584
 21
-122.0581349201472
 31
0.0
  0
LINE
  5
28A
  8
0
  6
CONTINUOUS
 62
     6
 10
-74.03471903125883
 20
-114.0581349201472
 30
0.0
 11
-58.0347228459561
 21
-114.0581349201472
 31
0.0
  0
TEXT
  5
28B
  8
0
 62
     6
 10
-71.4632910899365
 20
-176.3914631672175
 30
0.0
 40
4.0
  1
アンバランス量
 41
1.146341517204192
  7
DCSTYLE1
 72
     5
 11
-44.60614697258116
 21
-176.3914631672175
 31
0.0
  0
TEXT
  5
28C
  8
0
 62
     6
 10
-71.4632910899365
 20
-168.3914631672175
 30
0.0
 40
4.0
  1
質 量
 41
1.055555678076214
  7
DCSTYLE1
 72
     5
 11
-60.60614697258116
 21
-168.3914631672175
 31
0.0
  0
TEXT
  5
28D
  8
0
 62
     6
 10
-71.4632910899365
 20
-160.3914631672175
 30
0.0
 40
4.0
  1
慣性モーメント
 41
1.146341517204192
  7
DCSTYLE1
 72
     5
 11
-44.60614697258116
 21
-160.3914631672175
 31
0.0
  0
TEXT
  5
28E
  8
0
 62
     6
 10
-71.4632910899365
 20
-152.3914631672175
 30
0.0
 40
4.0
  1
最高使用回転速度
 41
1.148936217135571
  7
DCSTYLE1
 72
     5
 11
-40.60614697258116
 21
-152.3914631672175
 31
0.0
  0
TEXT
  5
28F
  8
0
 62
     6
 10
-71.4632910899365
 20
-144.3914631672175
 30
0.0
 40
4.0
  1
最大静的把握力
 41
1.146341517204192
  7
DCSTYLE1
 72
     5
 11
-44.60614697258116
 21
-144.3914631672175
 31
0.0
  0
TEXT
  5
290
  8
0
 62
     6
 10
-71.4632910899365
 20
-136.3914631672175
 30
0.0
 40
4.0
  1
許容シリンダ力
 41
1.146341517204192
  7
DCSTYLE1
 72
     5
 11
-44.60614697258116
 21
-136.3914631672175
 31
0.0
  0
TEXT
  5
291
  8
0
 62
     6
 10
-71.4632910899365
 20
-128.3914784260065
 30
0.0
 40
4.0
  1
ピストンストローク
 41
1.150943437837205
  7
DCSTYLE1
 72
     5
 11
-36.60614697258116
 21
-128.3914784260065
 31
0.0
  0
TEXT
  5
292
  8
0
 62
     6
 10
-71.4632910899365
 20
-120.3914784260065
 30
0.0
 40
4.0
  1
爪ﾉｽﾄﾛｰｸ
 41
1.146341517204192
  7
DCSTYLE1
 72
     5
 11
-44.60614697258116
 21
-120.3914784260065
 31
0.0
  0
TEXT
  5
293
  8
0
 62
     6
 10
-71.4632910899365
 20
-112.3914784260065
 30
0.0
 40
4.0
  1
仕 様
 41
1.055555678076214
  7
DCSTYLE1
 72
     5
 11
-60.60614697258116
 21
-112.3914784260065
 31
0.0
  0
TEXT
  5
294
  8
0
 62
     6
 10
19.94525917251466
 20
-120.1161488361628
 30
0.0
 40
4.0
  1
(直径ﾆﾃ) 50 mm
 41
1.033613473176956
  7
DCSTYLE1
 72
     5
 11
66.80240328987
 21
-120.1161488361628
 31
0.0
  0
TEXT
  5
295
  8
0
 62
     6
 10
47.98471840103029
 20
-127.8958729572565
 30
0.0
 40
4.0
  1
35 mm
 41
0.8461539027018422
  7
DCSTYLE1
 72
     5
 11
66.84186251838562
 21
-127.8958729572565
 31
0.0
  0
TEXT
  5
296
  8
0
 62
     6
 10
40.01342018325685
 20
-136.1174305744441
 30
0.0
 40
4.0
  1
33.4 kN
 41
1.119047671556473
  7
DCSTYLE1
 72
     5
 11
66.87056430061219
 21
-136.1174305744441
 31
0.0
  0
TEXT
  5
297
  8
0
 62
     6
 10
40.00264747817872
 20
-144.0626820392878
 30
0.0
 40
4.0
  1
37.8 kN
 41
1.119047671556473
  7
DCSTYLE1
 72
     5
 11
66.85979159553406
 21
-144.0626820392878
 31
0.0
  0
TEXT
  5
298
  8
0
 62
     6
 10
36.35868080337404
 20
-152.0079487629206
 30
0.0
 40
4.0
  1
2000 min
 41
1.051948094909841
  7
DCSTYLE1
 72
     5
 11
67.21582492072937
 21
-152.0079487629206
 31
0.0
  0
TEXT
  5
299
  8
0
 62
     6
 10
68.07296683271286
 20
-149.507948703316
 30
0.0
 40
2.0
  1
-1
 41
0.9729731517869074
  7
DCSTYLE1
 72
     5
 11
71.50153889139054
 21
-149.507948703316
 31
0.0
  0
TEXT
  5
29A
  8
0
 62
     6
 10
27.92867286880372
 20
-160.1187275715144
 30
0.0
 40
4.0
  1
 0.58 kg・m
 41
1.062500034458935
  7
DCSTYLE1
 72
     5
 11
66.78581698615906
 21
-160.1187275715144
 31
0.0
  0
TEXT
  5
29B
  8
0
 62
     6
 10
67.64295889814255
 20
-157.6187275119097
 30
0.0
 40
2.0
  1
2
 41
0.8823533303597394
  7
DCSTYLE1
 72
     5
 11
69.07153095682023
 21
-157.6187275119097
 31
0.0
  0
TEXT
  5
29C
  8
0
 62
     6
 10
48.45392616470216
 20
-168.0639942951472
 30
0.0
 40
4.0
  1
44 kg
 41
1.064516200173285
  7
DCSTYLE1
 72
     5
 11
67.3110702820575
 21
-168.0639942951472
 31
0.0
  0
TEXT
  5
29D
  8
0
 62
     6
 10
19.71446998794435
 20
-176.1747731037409
 30
0.0
 40
4.0
  1
外周ﾆﾃ   9 g以内
 41
1.078947397439103
  7
DCSTYLE1
 72
     5
 11
66.57161410529969
 21
-176.1747731037409
 31
0.0
  0
LINE
  5
29E
  8
0
  6
CONTINUOUS
 62
     3
 10
10.53299935761618
 20
-75.06017764348286
 30
0.0
 11
12.31813289832655
 21
-74.0295304270822
 31
0.0
  0
LINE
  5
29F
  8
0
  6
CONTINUOUS
 62
     3
 10
-18.49406057457809
 20
-28.31041543179357
 30
0.0
 11
4.00594544549142
 21
-67.28156368397339
 31
0.0
  0
LINE
  5
2A0
  8
0
  6
CONTINUOUS
 62
     3
 10
-21.96701720711769
 20
-18.76852072889387
 30
0.0
 11
-18.4940547685054
 21
-28.31040626591603
 31
0.0
  0
LINE
  5
2A1
  8
0
  6
CONTINUOUS
 62
     3
 10
4.005994781561753
 20
-67.2815271304384
 30
0.0
 11
10.53303164192323
 21
-75.06014578910566
 31
0.0
  0
LINE
  5
2A2
  8
0
  6
CONTINUOUS
 62
     3
 10
-1.851751645704887
 20
-33.1357267308062
 30
0.0
 11
8.148250500062431
 21
-50.45623614743483
 31
0.0
  0
LINE
  5
2A3
  8
0
  6
CONTINUOUS
 62
     3
 10
142.3861766593084
 20
-20.16575173408723
 30
0.0
 11
223.993118610438
 21
-67.28153643187096
 31
0.0
  0
LINE
  5
2A4
  8
0
  6
CONTINUOUS
 62
     3
 10
164.8861678257498
 20
18.80541095922722
 30
0.0
 11
246.493122991379
 21
-28.31038136795059
 31
0.0
  0
LINE
  5
2A5
  8
0
  6
CONTINUOUS
 62
     3
 10
248.1809574040391
 20
-17.73785638904674
 30
0.0
 11
249.9661041592491
 21
-18.76851123484148
 31
0.0
  0
LINE
  5
2A6
  8
0
  6
CONTINUOUS
 62
     3
 10
223.993134545662
 20
-67.28154682679491
 30
0.0
 11
246.4931353205222
 21
-28.31040765958296
 31
0.0
  0
LINE
  5
2A7
  8
0
  6
CONTINUOUS
 62
     3
 10
246.4931212171493
 20
-28.31031955989847
 30
0.0
 11
249.9660575616946
 21
-18.76850571573341
 31
0.0
  0
LINE
  5
2A8
  8
0
  6
CONTINUOUS
 62
     3
 10
50.78799173694676
 20
11.68959830295267
 30
0.0
 11
73.28799823385353
 21
-27.28155077513334
 31
0.0
  0
LINE
  5
2A9
  8
0
  6
CONTINUOUS
 62
     3
 10
154.7110864572004
 20
-27.28154103627726
 30
0.0
 11
177.2110872320606
 21
11.68959813093471
 31
0.0
  0
LINE
  5
2AA
  8
0
  6
CONTINUOUS
 62
     3
 10
170.9610611072721
 20
0.8643134085835342
 30
0.0
 11
240.2431101494084
 21
-39.13569183662475
 31
0.0
  0
LINE
  5
2AB
  8
0
  6
CONTINUOUS
 62
     3
 10
160.9610540739244
 20
-16.45620876282528
 30
0.0
 11
230.2430899015611
 21
-56.45620637863949
 31
0.0
  0
LINE
  5
2AC
  8
0
  6
CONTINUOUS
 62
     3
 10
50.97582048636571
 20
-2.635729378164065
 30
0.0
 11
60.9758216784586
 21
-19.95623714298035
 31
0.0
  0
LINE
  5
2AD
  8
0
  6
CONTINUOUS
 62
     3
 10
167.0232630125953
 20
-19.95622740412427
 30
0.0
 11
177.0232603899905
 21
-2.635726246557347
 31
0.0
  0
LINE
  5
2AE
  8
0
  6
CONTINUOUS
 62
     3
 10
219.8508306318303
 20
-50.456228758529
 30
0.0
 11
229.8508375459698
 21
-33.13571108283868
 31
0.0
  0
LINE
  5
2AF
  8
0
  6
CONTINUOUS
 62
     3
 10
217.4660246772552
 20
-75.06012643471712
 30
0.0
 11
223.9930615376167
 21
-67.28150777604986
 31
0.0
  0
LINE
  5
2B0
  8
0
  6
CONTINUOUS
 62
     3
 10
215.6809310048423
 20
-74.02949854383832
 30
0.0
 11
217.4660777600523
 21
-75.06015338963306
 31
0.0
  0
LINE
  5
2B1
  8
0
  6
CONTINUOUS
 62
     3
 10
103.9995217179859
 20
162.2040229478142
 30
0.0
 11
103.9995217179859
 21
82.20402294781417
 31
0.0
  0
LINE
  5
2B2
  8
0
  6
CONTINUOUS
 62
     3
 10
123.9995217179859
 20
162.2040229478142
 30
0.0
 11
123.9995217179859
 21
82.20402294781417
 31
0.0
  0
LINE
  5
2B3
  8
0
  6
CONTINUOUS
 62
     3
 10
136.4995217179859
 20
162.2040229478142
 30
0.0
 11
136.4995217179859
 21
67.9724631943962
 31
0.0
  0
LINE
  5
2B4
  8
0
  6
CONTINUOUS
 62
     3
 10
91.49952171798591
 20
162.2040229478142
 30
0.0
 11
91.49952171798591
 21
67.9724631943962
 31
0.0
  0
LINE
  5
2B5
  8
0
  6
CONTINUOUS
 62
     3
 10
91.49952171798591
 20
162.2040229478142
 30
0.0
 11
136.4995217179859
 21
162.2040229478142
 31
0.0
  0
LINE
  5
2B6
  8
0
  6
CONTINUOUS
 62
     3
 10
81.49952171798591
 20
160.4407478013298
 30
0.0
 11
81.49952171798591
 21
158.3794685044548
 31
0.0
  0
LINE
  5
2B7
  8
0
  6
CONTINUOUS
 62
     3
 10
146.4995217179859
 20
160.4407630601189
 30
0.0
 11
146.4995217179859
 21
158.3794685044548
 31
0.0
  0
LINE
  5
2B8
  8
0
  6
CONTINUOUS
 62
     3
 10
81.49952081018196
 20
160.440713075024
 30
0.0
 11
91.49952080861763
 21
162.2039829327803
 31
0.0
  0
LINE
  5
2B9
  8
0
  6
CONTINUOUS
 62
     3
 10
136.4995175662808
 20
162.2040057426332
 30
0.0
 11
146.4995175647165
 21
160.4407358848769
 31
0.0
  0
LINE
  5
2BA
  8
0
  6
CONTINUOUS
 62
     3
 10
91.49952171798591
 20
82.20402294781417
 30
0.0
 11
136.4995217179859
 21
82.20402294781417
 31
0.0
  0
LINE
  5
2BB
  8
0
  6
CONTINUOUS
 62
     3
 10
103.9995217179859
 20
150.2040229478142
 30
0.0
 11
123.9995217179859
 21
150.2040229478142
 31
0.0
  0
LINE
  5
2BC
  8
0
  6
CONTINUOUS
 62
     3
 10
103.9995217179859
 20
89.20402294781417
 30
0.0
 11
123.9995217179859
 21
89.20402294781417
 31
0.0
  0
CIRCLE
  5
2BD
  8
0
  6
CONTINUOUS
 62
     3
 10
66.8531708573902
 20
69.3503699937126
 30
0.0
 40
7.0
  0
CIRCLE
  5
2BE
  8
0
  6
CONTINUOUS
 62
     3
 10
161.1458687638844
 20
69.3503699937126
 30
0.0
 40
7.0
  0
CIRCLE
  5
2BF
  8
0
  6
CONTINUOUS
 62
     3
 10
178.402628407439
 20
39.46078259136885
 30
0.0
 40
7.0
  0
CIRCLE
  5
2C0
  8
0
  6
CONTINUOUS
 62
     3
 10
131.2562813615406
 20
-42.19908374163897
 30
0.0
 40
7.0
  0
CIRCLE
  5
2C1
  8
0
  6
CONTINUOUS
 62
     3
 10
96.74276207443123
 20
-42.19908374163897
 30
0.0
 40
10.0
  0
CIRCLE
  5
2C2
  8
0
  6
CONTINUOUS
 62
     3
 10
131.2562813615406
 20
-42.19908374163897
 30
0.0
 40
10.0
  0
CIRCLE
  5
2C3
  8
0
  6
CONTINUOUS
 62
     3
 10
113.9995217179859
 20
-37.79597705218584
 30
0.0
 40
3.150000095367432
  0
ARC
  5
2C4
  8
0
  6
CONTINUOUS
 62
     3
 10
113.9995217179859
 20
22.20402294781416
 30
0.0
 40
52.5
 50
115.3769488184461
 51
184.6230322090578
  0
ARC
  5
2C5
  8
0
  6
CONTINUOUS
 62
     3
 10
113.9995217179859
 20
22.20402294781416
 30
0.0
 40
52.5
 50
235.376914819081
 51
304.6230835870573
  0
CIRCLE
  5
2C6
  8
0
  6
CONTINUOUS
 62
     3
 10
113.9995217179859
 20
22.20402294781416
 30
0.0
 40
51.0
  0
ARC
  5
2C7
  8
0
  6
CONTINUOUS
 62
     3
 10
113.9995217179859
 20
22.20402294781416
 30
0.0
 40
52.5
 50
355.3769510286705
 51
64.6230698508886
  0
ARC
  5
2C8
  8
0
  6
CONTINUOUS
 62
     3
 10
113.9995217179859
 20
22.20402294781416
 30
0.0
 40
140.0
 50
339.2483655844109
 51
0.0
  0
CIRCLE
  5
2C9
  8
0
  6
CONTINUOUS
 62
     3
 10
113.9995217179859
 20
22.20402294781416
 30
0.0
 40
45.0
  0
ARC
  5
2CA
  8
0
  6
CONTINUOUS
 62
     3
 10
113.9995217179859
 20
22.20402294781416
 30
0.0
 40
140.0
 50
0.0
 51
80.75163950033577
  0
CIRCLE
  5
2CB
  8
0
  6
CONTINUOUS
 62
     3
 10
62.03800438400151
 20
52.20403820660322
 30
0.0
 40
3.150000095367432
  0
CIRCLE
  5
2CC
  8
0
  6
CONTINUOUS
 62
     3
 10
165.9610543107594
 20
52.20401531841963
 30
0.0
 40
3.150000095367432
  0
CIRCLE
  5
2CD
  8
0
  6
CONTINUOUS
 62
     3
 10
66.8531708573902
 20
69.3503699937126
 30
0.0
 40
10.0
  0
CIRCLE
  5
2CE
  8
0
  6
CONTINUOUS
 62
     3
 10
161.1458687638844
 20
69.3503699937126
 30
0.0
 40
10.0
  0
CIRCLE
  5
2CF
  8
0
  6
CONTINUOUS
 62
     3
 10
178.402628407439
 20
39.46078259136885
 30
0.0
 40
10.0
  0
ARC
  5
2D0
  8
0
  6
CONTINUOUS
 62
     3
 10
113.9995217179859
 20
22.20402294781416
 30
0.0
 40
137.0
 50
339.452726551925
 51
80.54728707055814
  0
ARC
  5
2D1
  8
0
  6
CONTINUOUS
 62
     3
 10
113.9995217179859
 20
22.20402294781416
 30
0.0
 40
140.0
 50
219.2483383394446
 51
320.7516498214098
  0
ARC
  5
2D2
  8
0
  6
CONTINUOUS
 62
     3
 10
113.9995217179859
 20
22.20402294781416
 30
0.0
 40
137.0
 50
219.4526975994114
 51
320.5472973916322
  0
LINE
  5
2D3
  8
0
  6
CONTINUOUS
 62
     3
 10
-18.49403970906285
 20
-28.31040866988924
 30
0.0
 11
63.11289563481688
 21
18.80537221319747
 31
0.0
  0
LINE
  5
2D4
  8
0
  6
CONTINUOUS
 62
     3
 10
4.005957110954114
 20
-67.28156589669419
 30
0.0
 11
85.6128990620837
 21
-20.16578119891046
 31
0.0
  0
LINE
  5
2D5
  8
0
  6
CONTINUOUS
 62
     3
 10
-2.244034512990645
 20
-56.45623877295549
 30
0.0
 11
67.03800461827099
 21
-16.45623924979277
 31
0.0
  0
LINE
  5
2D6
  8
0
  6
CONTINUOUS
 62
     3
 10
-12.24404008159188
 20
-39.13572676795747
 30
0.0
 11
57.03799904966974
 21
0.8642727552052563
 31
0.0
  0
CIRCLE
  5
2D7
  8
0
  6
CONTINUOUS
 62
     3
 10
49.59641502853276
 20
39.46078259136885
 30
0.0
 40
7.0
  0
ARC
  5
2D8
  8
0
  6
CONTINUOUS
 62
     3
 10
113.9995217179859
 20
22.20402294781416
 30
0.0
 40
137.0
 50
99.45273159877654
 51
200.5472494287274
  0
ARC
  5
2D9
  8
0
  6
CONTINUOUS
 62
     3
 10
113.9995217179859
 20
22.20402294781416
 30
0.0
 40
140.0
 50
99.24837916899891
 51
200.7516086886941
  0
CIRCLE
  5
2DA
  8
0
  6
CONTINUOUS
 62
     3
 10
49.59641502853276
 20
39.46078259136885
 30
0.0
 40
10.0
  0
CIRCLE
  5
2DB
  8
0
  6
CONTINUOUS
 62
     3
 10
74.49946559526106
 20
22.20400046388865
 30
0.0
 40
3.099999904632568
  0
CIRCLE
  5
2DC
  8
0
  6
CONTINUOUS
 62
     3
 10
153.4994655952611
 20
22.20400046388865
 30
0.0
 40
3.099999904632568
  0
LINE
  5
2DD
  8
0
  6
CONTINUOUS
 62
     3
 10
-21.96700251992991
 20
-18.76851692627822
 30
0.0
 11
-20.18186897921953
 21
-17.73786970987755
 31
0.0
  0
LINE
  5
2DE
  8
0
  6
CONTINUOUS
 62
     3
 10
-211.8250925200849
 20
162.2040454317397
 30
0.0
 11
-211.8250925200849
 21
-117.7959545682603
 31
0.0
  0
LINE
  5
2DF
  8
0
  6
CONTINUOUS
 62
     3
 10
-211.8250925200849
 20
-117.7959545682603
 30
0.0
 11
-98.62511083063178
 21
-117.7959545682603
 31
0.0
  0
LINE
  5
2E0
  8
0
  6
CONTINUOUS
 62
     3
 10
-211.8250925200849
 20
162.2040454317397
 30
0.0
 11
-139.6250955718427
 21
162.2040454317397
 31
0.0
  0
LINE
  5
2E1
  8
0
  6
CONTINUOUS
 62
     3
 10
-206.1250803130537
 20
149.7040454317397
 30
0.0
 11
-206.1250803130537
 21
-105.2959545682603
 31
0.0
  0
LINE
  5
2E2
  8
0
  6
CONTINUOUS
 62
     3
 10
-211.8250925200849
 20
149.7040454317397
 30
0.0
 11
-206.1250803130537
 21
149.7040454317397
 31
0.0
  0
LINE
  5
2E3
  8
0
  6
CONTINUOUS
 62
     3
 10
-211.8250925200849
 20
-105.2959545682603
 30
0.0
 11
-206.1250803130537
 21
-105.2959545682603
 31
0.0
  0
LINE
  5
2E4
  8
0
  6
CONTINUOUS
 62
     3
 10
-113.6250955718427
 20
67.9724856783217
 30
0.0
 11
-98.12509557184272
 21
67.9724856783217
 31
0.0
  0
LINE
  5
2E5
  8
0
  6
CONTINUOUS
 62
     3
 10
-113.6250955718427
 20
80.55933107627092
 30
0.0
 11
-113.6250955718427
 21
61.50735201132951
 31
0.0
  0
LINE
  5
2E6
  8
0
  6
CONTINUOUS
 62
     3
 10
-139.6250955718427
 20
162.2040454317397
 30
0.0
 11
-96.62509557184272
 21
162.2040454317397
 31
0.0
  0
LINE
  5
2E7
  8
0
  6
CONTINUOUS
 62
     3
 10
-206.1250803130537
 20
73.20404543173967
 30
0.0
 11
-129.8250620025068
 21
73.20404543173967
 31
0.0
  0
LINE
  5
2E8
  8
0
  6
CONTINUOUS
 62
     3
 10
-139.6250955718427
 20
162.2040454317397
 30
0.0
 11
-139.6250955718427
 21
73.20404543173967
 31
0.0
  0
LINE
  5
2E9
  8
0
  6
CONTINUOUS
 62
     3
 10
-139.6250955718427
 20
82.20404543173967
 30
0.0
 11
-96.62509557184272
 21
82.20404543173967
 31
0.0
  0
LINE
  5
2EA
  8
0
  6
CONTINUOUS
 62
     3
 10
-107.6250955718427
 20
162.2040454317397
 30
0.0
 11
-107.6250955718427
 21
150.2040454317397
 31
0.0
  0
LINE
  5
2EB
  8
0
  6
CONTINUOUS
 62
     3
 10
-116.6250955718427
 20
162.2040454317397
 30
0.0
 11
-116.6250955718427
 21
82.20404543173967
 31
0.0
  0
LINE
  5
2EC
  8
0
  6
CONTINUOUS
 62
     3
 10
-115.6250955718427
 20
89.20404543173967
 30
0.0
 11
-95.12509557184272
 21
89.20404543173967
 31
0.0
  0
LINE
  5
2ED
  8
0
  6
CONTINUOUS
 62
     3
 10
-115.6250955718427
 20
150.2040454317397
 30
0.0
 11
-95.12509557184272
 21
150.2040454317397
 31
0.0
  0
LINE
  5
2EE
  8
0
  6
CONTINUOUS
 62
     3
 10
-115.6250955718427
 20
150.2040454317397
 30
0.0
 11
-115.6250955718427
 21
89.20404543173967
 31
0.0
  0
LINE
  5
2EF
  8
0
  6
CONTINUOUS
 62
     3
 10
-107.6250955718427
 20
89.20404543173967
 30
0.0
 11
-107.6250955718427
 21
82.20404543173967
 31
0.0
  0
LINE
  5
2F0
  8
0
  6
CONTINUOUS
 62
     3
 10
-109.6250955718427
 20
108.2040454317397
 30
0.0
 11
-109.6250955718427
 21
96.20404543173967
 31
0.0
  0
LINE
  5
2F1
  8
0
  6
CONTINUOUS
 62
     3
 10
-109.6250955718427
 20
143.2040454317397
 30
0.0
 11
-109.6250955718427
 21
131.2040454317397
 31
0.0
  0
LINE
  5
2F2
  8
0
  6
CONTINUOUS
 62
     3
 10
-191.8250925200849
 20
72.20404543173967
 30
0.0
 11
-191.8250925200849
 21
-27.79595456826034
 31
0.0
  0
LINE
  5
2F3
  8
0
  6
CONTINUOUS
 62
     3
 10
-128.8250772612959
 20
72.20404543173967
 30
0.0
 11
-128.8250772612959
 21
-27.79595456826034
 31
0.0
  0
LINE
  5
2F4
  8
0
  6
CONTINUOUS
 62
     3
 10
-191.8250833073065
 20
72.20404633903249
 30
0.0
 11
-190.825082245717
 21
73.20404740062199
 31
0.0
  0
LINE
  5
2F5
  8
0
  6
CONTINUOUS
 62
     3
 10
-129.8250498575366
 20
73.20403661102895
 30
0.0
 11
-128.8250487959471
 21
72.20403554943945
 31
0.0
  0
LINE
  5
2F6
  8
0
  6
CONTINUOUS
 62
     3
 10
-128.8250541907436
 20
-27.79594652919074
 30
0.0
 11
-129.8250552523331
 21
-28.79594759078024
 31
0.0
  0
LINE
  5
2F7
  8
0
  6
CONTINUOUS
 62
     3
 10
-191.8250833073065
 20
-27.79593034480119
 30
0.0
 11
-190.825082245717
 21
-28.79593140639069
 31
0.0
  0
LINE
  5
2F8
  8
0
  6
CONTINUOUS
 62
     3
 10
-159.8250925200849
 20
66.20404543173967
 30
0.0
 11
-159.8250925200849
 21
-21.79595456826034
 31
0.0
  0
LINE
  5
2F9
  8
0
  6
CONTINUOUS
 62
     3
 10
-143.8250925200849
 20
67.70404543173967
 30
0.0
 11
-143.8250925200849
 21
42.20404543173967
 31
0.0
  0
LINE
  5
2FA
  8
0
  6
CONTINUOUS
 62
     3
 10
-157.8250925200849
 20
66.20404543173967
 30
0.0
 11
-157.8250925200849
 21
42.20404543173967
 31
0.0
  0
LINE
  5
2FB
  8
0
  6
CONTINUOUS
 62
     3
 10
-141.8250925200849
 20
67.70404543173967
 30
0.0
 11
-141.8250925200849
 21
-23.29595456826034
 31
0.0
  0
LINE
  5
2FC
  8
0
  6
CONTINUOUS
 62
     3
 10
-159.8250925200849
 20
-21.79595456826034
 30
0.0
 11
-157.8250925200849
 21
-21.79595456826034
 31
0.0
  0
LINE
  5
2FD
  8
0
  6
CONTINUOUS
 62
     3
 10
-159.8250925200849
 20
66.20404543173967
 30
0.0
 11
-157.8250925200849
 21
66.20404543173967
 31
0.0
  0
LINE
  5
2FE
  8
0
  6
CONTINUOUS
 62
     3
 10
-143.8250925200849
 20
-23.29595456826034
 30
0.0
 11
-141.8250925200849
 21
-23.29595456826034
 31
0.0
  0
LINE
  5
2FF
  8
0
  6
CONTINUOUS
 62
     3
 10
-143.8250925200849
 20
67.70404543173967
 30
0.0
 11
-141.8250925200849
 21
67.70404543173967
 31
0.0
  0
LINE
  5
300
  8
0
  6
CONTINUOUS
 62
     3
 10
-141.8250925200849
 20
67.20404543173967
 30
0.0
 11
-131.8250772612959
 21
67.20404543173967
 31
0.0
  0
LINE
  5
301
  8
0
  6
CONTINUOUS
 62
     3
 10
-141.8250925200849
 20
-22.79595456826034
 30
0.0
 11
-131.8250772612959
 21
-22.79595456826034
 31
0.0
  0
LINE
  5
302
  8
0
  6
CONTINUOUS
 62
     3
 10
-206.1250803130537
 20
-28.79595456826034
 30
0.0
 11
-98.12509557184272
 21
-28.79595456826034
 31
0.0
  0
LINE
  5
303
  8
0
  6
CONTINUOUS
 62
     3
 10
-157.8250925200849
 20
2.204045431739662
 30
0.0
 11
-157.8250925200849
 21
-21.79595456826034
 31
0.0
  0
LINE
  5
304
  8
0
  6
CONTINUOUS
 62
     3
 10
-143.8250925200849
 20
2.204045431739662
 30
0.0
 11
-143.8250925200849
 21
-23.29595456826034
 31
0.0
  0
LINE
  5
305
  8
0
  6
CONTINUOUS
 62
     3
 10
-127.4758188384443
 20
61.50735201132951
 30
0.0
 11
-113.6250955718427
 21
61.50735201132951
 31
0.0
  0
LINE
  5
306
  8
0
  6
CONTINUOUS
 62
     3
 10
-131.8250772612959
 20
68.20404543173967
 30
0.0
 11
-131.8250772612959
 21
-23.79595456826034
 31
0.0
  0
LINE
  5
307
  8
0
  6
CONTINUOUS
 62
     3
 10
-131.8250772612959
 20
68.20404543173967
 30
0.0
 11
-128.8250772612959
 21
68.20404543173967
 31
0.0
  0
LINE
  5
308
  8
0
  6
CONTINUOUS
 62
     3
 10
-131.8250772612959
 20
-23.79595456826034
 30
0.0
 11
-128.8250772612959
 21
-23.79595456826034
 31
0.0
  0
LINE
  5
309
  8
0
  6
CONTINUOUS
 62
     3
 10
-115.6250955718427
 20
131.2040454317397
 30
0.0
 11
-84.62509557184272
 21
131.2040454317397
 31
0.0
  0
LINE
  5
30A
  8
0
  6
CONTINUOUS
 62
     3
 10
-115.6250955718427
 20
143.2040454317397
 30
0.0
 11
-84.62509557184272
 21
143.2040454317397
 31
0.0
  0
LINE
  5
30B
  8
0
  6
CONTINUOUS
 62
     3
 10
-115.6250955718427
 20
108.2040454317397
 30
0.0
 11
-84.62509557184272
 21
108.2040454317397
 31
0.0
  0
LINE
  5
30C
  8
0
  6
CONTINUOUS
 62
     3
 10
-115.6250955718427
 20
96.20404543173967
 30
0.0
 11
-84.62509557184272
 21
96.20404543173967
 31
0.0
  0
LINE
  5
30D
  8
0
  6
CONTINUOUS
 62
     3
 10
-190.8250925200849
 20
57.20404543173967
 30
0.0
 11
-160.8250925200849
 21
57.20404543173967
 31
0.0
  0
LINE
  5
30E
  8
0
  6
CONTINUOUS
 62
     3
 10
-190.8250925200849
 20
-12.79595456826034
 30
0.0
 11
-160.8250925200849
 21
-12.79595456826034
 31
0.0
  0
LINE
  5
30F
  8
0
  6
CONTINUOUS
 62
     3
 10
-160.8250730140566
 20
57.204022748367
 30
0.0
 11
-159.8250700137099
 21
58.20402195549315
 31
0.0
  0
LINE
  5
310
  8
0
  6
CONTINUOUS
 62
     3
 10
-190.8250930872822
 20
57.20405702668571
 30
0.0
 11
-191.8250922101146
 21
58.20406002703232
 31
0.0
  0
LINE
  5
311
  8
0
  6
CONTINUOUS
 62
     3
 10
-157.8250925200849
 20
65.95404543173964
 30
0.0
 11
-143.8250925200849
 21
65.95404543173964
 31
0.0
  0
LINE
  5
312
  8
0
  6
CONTINUOUS
 62
     3
 10
-157.8250925200849
 20
-21.54595456826033
 30
0.0
 11
-143.8250925200849
 21
-21.54595456826033
 31
0.0
  0
LINE
  5
313
  8
0
  6
CONTINUOUS
 62
     3
 10
-190.8250771577226
 20
-12.79598320582106
 30
0.0
 11
-191.8250712228986
 21
-13.79596968463799
 31
0.0
  0
LINE
  5
314
  8
0
  6
CONTINUOUS
 62
     3
 10
-160.8250730140566
 20
-12.79593188488768
 30
0.0
 11
-159.8250700137099
 21
-13.79593109201383
 31
0.0
  0
LINE
  5
315
  8
0
  6
CONTINUOUS
 62
     3
 10
-136.8250925200849
 20
64.70404543173964
 30
0.0
 11
-136.8250925200849
 21
58.70404543173965
 31
0.0
  0
LINE
  5
316
  8
0
  6
CONTINUOUS
 62
     3
 10
-141.8250925200849
 20
57.20404543173965
 30
0.0
 11
-131.8250925200849
 21
57.20404543173965
 31
0.0
  0
LINE
  5
317
  8
0
  6
CONTINUOUS
 62
     3
 10
-141.8250925200849
 20
64.70404543173964
 30
0.0
 11
-131.8250925200849
 21
64.70404543173964
 31
0.0
  0
LINE
  5
318
  8
0
  6
CONTINUOUS
 62
     3
 10
-141.8250925200849
 20
58.70404543173965
 30
0.0
 11
-131.8250925200849
 21
58.70404543173965
 31
0.0
  0
LINE
  5
319
  8
0
  6
CONTINUOUS
 62
     3
 10
-132.8250925200849
 20
64.70404543173964
 30
0.0
 11
-132.8250925200849
 21
58.70404543173965
 31
0.0
  0
LINE
  5
31A
  8
0
  6
CONTINUOUS
 62
     3
 10
-95.62511092725275
 20
-114.7959620116269
 30
0.0
 11
-98.62511411202125
 21
-117.7959651963954
 31
0.0
  0
LINE
  5
31B
  8
0
  6
CONTINUOUS
 62
     3
 10
-98.12509557184272
 20
-30.29595456826034
 30
0.0
 11
-95.62509557184272
 21
-30.29595456826034
 31
0.0
  0
LINE
  5
31C
  8
0
  6
CONTINUOUS
 62
     3
 10
-98.12509557184272
 20
69.63821138632952
 30
0.0
 11
-98.12509557184272
 21
-30.29595456826034
 31
0.0
  0
LINE
  5
31D
  8
0
  6
CONTINUOUS
 62
     3
 10
-95.62509557184272
 20
87.89479555380998
 30
0.0
 11
-95.62509557184272
 21
-114.7959545682603
 31
0.0
  0
LINE
  5
31E
  8
0
  6
CONTINUOUS
 62
     3
 10
-95.62509557184272
 20
159.2040454317397
 30
0.0
 11
-95.62509557184272
 21
151.3614703584975
 31
0.0
  0
LINE
  5
31F
  8
0
  6
CONTINUOUS
 62
     3
 10
-96.62507557396576
 20
160.204050744766
 30
0.0
 11
-95.62508530196929
 21
159.2040604727696
 31
0.0
  0
LINE
  5
320
  8
0
  6
CONTINUOUS
 62
     3
 10
-98.12509557184272
 20
69.63821138632952
 30
0.0
 11
-95.62509557184272
 21
69.63821138632952
 31
0.0
  0
LINE
  5
321
  8
0
  6
CONTINUOUS
 62
     3
 10
-95.12509557184272
 20
150.2040454317397
 30
0.0
 11
-95.12509557184272
 21
143.2040454317397
 31
0.0
  0
LINE
  5
322
  8
0
  6
CONTINUOUS
 62
     3
 10
-95.12509557184272
 20
131.2040454317397
 30
0.0
 11
-95.12509557184272
 21
108.2040454317397
 31
0.0
  0
LINE
  5
323
  8
0
  6
CONTINUOUS
 62
     3
 10
-95.12509557184272
 20
96.20404543173967
 30
0.0
 11
-95.12509557184272
 21
89.20404543173967
 31
0.0
  0
LINE
  5
324
  8
0
  6
CONTINUOUS
 62
     3
 10
-84.62509557184272
 20
146.2040454317397
 30
0.0
 11
-84.62509557184272
 21
128.2040454317397
 31
0.0
  0
LINE
  5
325
  8
0
  6
CONTINUOUS
 62
     3
 10
-84.62509557184272
 20
111.2040454317397
 30
0.0
 11
-84.62509557184272
 21
93.20404543173967
 31
0.0
  0
LINE
  5
326
  8
0
  6
CONTINUOUS
 62
     3
 10
-72.62509557184272
 20
146.2040454317397
 30
0.0
 11
-72.62509557184272
 21
128.2040454317397
 31
0.0
  0
LINE
  5
327
  8
0
  6
CONTINUOUS
 62
     3
 10
-72.62509557184272
 20
111.2040454317397
 30
0.0
 11
-72.62509557184272
 21
93.20404543173967
 31
0.0
  0
LINE
  5
328
  8
0
  6
CONTINUOUS
 62
     3
 10
-84.62509557184272
 20
111.2040454317397
 30
0.0
 11
-72.62509557184272
 21
111.2040454317397
 31
0.0
  0
LINE
  5
329
  8
0
  6
CONTINUOUS
 62
     3
 10
-84.62509557184272
 20
93.20404543173967
 30
0.0
 11
-72.62509557184272
 21
93.20404543173967
 31
0.0
  0
LINE
  5
32A
  8
0
  6
CONTINUOUS
 62
     3
 10
-84.62509557184272
 20
128.2040454317397
 30
0.0
 11
-72.62509557184272
 21
128.2040454317397
 31
0.0
  0
LINE
  5
32B
  8
0
  6
CONTINUOUS
 62
     3
 10
-84.62509557184272
 20
146.2040454317397
 30
0.0
 11
-72.62509557184272
 21
146.2040454317397
 31
0.0
  0
LINE
  5
32C
  8
0
  6
CONTINUOUS
 62
     3
 10
-141.8250925200849
 20
-12.79595456826033
 30
0.0
 11
-131.8250925200849
 21
-12.79595456826033
 31
0.0
  0
LINE
  5
32D
  8
0
  6
CENTER
 62
     7
 10
6.57846214925479
 20
-21.73726460849936
 30
0.0
 11
22.54900600713228
 21
-49.39905420082767
 31
0.0
  0
LINE
  5
32E
  8
0
  6
CENTER
 62
     7
 10
92.86046835565176
 20
-56.68797200386411
 30
0.0
 11
100.625040311982
 21
-27.71019854340518
 31
0.0
  0
LINE
  5
32F
  8
0
  6
CENTER
 62
     7
 10
127.3739936665665
 20
-27.71019900872188
 30
0.0
 11
135.1385658697258
 21
-56.68797339035945
 31
0.0
  0
LINE
  5
330
  8
0
  6
CENTER
 62
     7
 10
164.0250584496582
 20
35.60831743485073
 30
0.0
 11
193.8574507866918
 21
43.60188201640744
 31
0.0
  0
LINE
  5
331
  8
0
  6
CENTER
 62
     7
 10
55.53946956731181
 20
80.66409515785591
 30
0.0
 11
77.50749756155474
 21
58.69606901537917
 31
0.0
  0
LINE
  5
332
  8
0
  6
CENTER
 62
     7
 10
150.511551613019
 20
58.71603372429473
 30
0.0
 11
172.4595925588309
 21
80.6640728200253
 31
0.0
  0
LINE
  5
333
  8
0
  6
CENTER
 62
     7
 10
205.6399836769462
 20
-49.07013657669285
 30
0.0
 11
221.4475188255111
 21
-21.69068631224509
 31
0.0
  0
LINE
  5
334
  8
0
  6
CENTER
 62
     7
 10
175.3084519887472
 20
-31.60585886567896
 30
0.0
 11
191.2451566168217
 21
-4.00268053061945
 31
0.0
  0
LINE
  5
335
  8
0
  6
CENTER
 62
     7
 10
113.9995505416202
 20
22.20403909064867
 30
0.0
 11
241.4286817652111
 21
-51.36719599559928
 31
0.0
  0
LINE
  5
336
  8
0
  6
CENTER
 62
     7
 10
160.137288010583
 20
48.84166087785552
 30
0.0
 11
240.5792330669558
 21
95.28483437915776
 31
0.0
  0
LINE
  5
337
  8
0
  6
CENTER
 62
     7
 10
97.80292747970466
 20
137.2040229478142
 30
0.0
 11
130.2360863542164
 21
137.2040229478142
 31
0.0
  0
LINE
  5
338
  8
0
  6
CENTER
 62
     7
 10
97.80292747970466
 20
102.2040229478142
 30
0.0
 11
130.2360863542164
 21
102.2040229478142
 31
0.0
  0
ARC
  5
339
  8
0
  6
CENTER
 62
     7
 10
113.9995217179859
 20
22.20402294781416
 30
0.0
 40
66.67500305175781
 50
1.21752657627973
 51
27.91156121306793
  0
ARC
  5
33A
  8
0
  6
CENTER
 62
     7
 10
113.9995217179859
 20
22.20402294781416
 30
0.0
 40
66.67500305175781
 50
121.2175392003724
 51
148.0169748618329
  0
ARC
  5
33B
  8
0
  6
CENTER
 62
     7
 10
113.9995217179859
 20
22.20402294781416
 30
0.0
 40
66.67500305175781
 50
242.0826989235511
 51
267.9172542515315
  0
ARC
  5
33C
  8
0
  6
CENTER
 62
     7
 10
113.9995217179859
 20
22.20402294781416
 30
0.0
 40
66.67500305175781
 50
272.0827270791338
 51
297.9172824071143
  0
ARC
  5
33D
  8
0
  6
CENTER
 62
     7
 10
113.9995217179859
 20
22.20402294781416
 30
0.0
 40
66.67500305175781
 50
32.04414326472205
 51
58.78247263877315
  0
ARC
  5
33E
  8
0
  6
CENTER
 62
     7
 10
113.9995217179859
 20
22.20402294781416
 30
0.0
 40
60.0
 50
24.26257192257635
 51
36.6836209754395
  0
ARC
  5
33F
  8
0
  6
CENTER
 62
     7
 10
113.9995217179859
 20
22.20402294781416
 30
0.0
 40
60.0
 50
263.5222460866818
 51
277.3378951171092
  0
ARC
  5
340
  8
0
  6
CENTER
 62
     7
 10
113.9995217179859
 20
22.20402294781416
 30
0.0
 40
60.0
 50
143.7867381805206
 51
156.1449136345265
  0
LINE
  5
341
  8
0
  6
CENTER
 62
     7
 10
-14.22657442393915
 20
-51.82735091355148
 30
0.0
 11
113.9995232724234
 21
22.20401292945035
 31
0.0
  0
LINE
  5
342
  8
0
  6
CENTER
 62
     7
 10
-32.09997487553866
 20
22.20402294781416
 30
0.0
 11
263.3495430802906
 21
22.20402294781416
 31
0.0
  0
LINE
  5
343
  8
0
  6
CENTER
 62
     7
 10
34.1415998301901
 20
43.60187295519062
 30
0.0
 11
64.40684479797198
 21
35.49232587316617
 31
0.0
  0
LINE
  5
344
  8
0
  6
CENTER
 62
     7
 10
-12.29039170499424
 20
95.11756318704653
 30
0.0
 11
67.92490320913763
 21
48.80524619192169
 31
0.0
  0
LINE
  5
345
  8
0
  6
CENTER
 62
     7
 10
21.53877495284917
 20
122.2040229478142
 30
0.0
 11
61.67375801559331
 21
122.2040229478142
 31
0.0
  0
LINE
  5
346
  8
0
  6
CENTER
 62
     7
 10
36.8309978770244
 20
-4.13618669472573
 30
0.0
 11
52.68429318576852
 21
-31.59489587069534
 31
0.0
  0
ARC
  5
347
  8
0
  6
CENTER
 62
     7
 10
113.9995217179859
 20
22.20402294781416
 30
0.0
 40
66.67500305175781
 50
151.9557127297475
 51
178.7824964686449
  0
LINE
  5
348
  8
0
  6
CENTER
 62
     7
 10
109.8580700264134
 20
61.70400046388865
 30
0.0
 11
118.5372071788118
 21
61.70400046388865
 31
0.0
  0
LINE
  5
349
  8
0
  6
CENTER
 62
     7
 10
74.49946559526106
 20
27.87001608888865
 30
0.0
 11
74.49946559526106
 21
16.20400046388865
 31
0.0
  0
LINE
  5
34A
  8
0
  6
CENTER
 62
     7
 10
153.4994653526463
 20
27.87001608888865
 30
0.0
 11
153.4994653526463
 21
16.20400046388865
 31
0.0
  0
LINE
  5
34B
  8
0
  6
CENTER
 62
     7
 10
150.2782436864245
 20
6.040598607187505
 30
0.0
 11
145.9386751102253
 21
-1.475754649718837
 31
0.0
  0
LINE
  5
34C
  8
0
  6
CENTER
 62
     7
 10
81.86223678745384
 20
-1.132597679410182
 30
0.0
 11
77.52266821125465
 21
6.383755577496188
 31
0.0
  0
LINE
  5
34D
  8
0
  6
CENTER
 62
     7
 10
113.9995217179859
 20
167.5818581440338
 30
0.0
 11
113.9995217179859
 21
43.48835766685905
 31
0.0
  0
LINE
  5
34E
  8
0
  6
CENTER
 62
     7
 10
113.9995217179859
 20
35.42658564748987
 30
0.0
 11
113.9995217179859
 21
-125.0904290922404
 31
0.0
  0
LINE
  5
34F
  8
0
  6
CENTER
 62
     7
 10
-215.3374100982018
 20
22.20404543173966
 30
0.0
 11
-91.57296012584752
 21
22.20404543173966
 31
0.0
  0
LINE
  5
350
  8
0
  6
CENTER
 62
     7
 10
-121.6472818511396
 20
-37.79595456826033
 30
0.0
 11
-90.18623753961616
 21
-37.79595456826033
 31
0.0
  0
LINE
  5
351
  8
0
  6
CENTER
 62
     7
 10
-235.0110361236005
 20
-44.47095762001815
 30
0.0
 11
-182.9027101017292
 21
-44.47095762001815
 31
0.0
  0
LINE
  5
352
  8
0
  6
CENTER
 62
     7
 10
-118.7356760161787
 20
137.2040454317397
 30
0.0
 11
-67.05232640680366
 21
137.2040454317397
 31
0.0
  0
LINE
  5
353
  8
0
  6
CENTER
 62
     7
 10
-118.9689981597333
 20
102.2040454317397
 30
0.0
 11
-67.05232640680366
 21
102.2040454317397
 31
0.0
  0
LINE
  5
354
  8
0
  6
CENTER
 62
     7
 10
-145.8432047027021
 20
61.70404543173965
 30
0.0
 11
-128.1024057525068
 21
61.70404543173965
 31
0.0
  0
LINE
  5
355
  8
0
  6
CENTER
 62
     7
 10
-151.1250955718427
 20
-78.73090635048689
 30
0.0
 11
-151.1250955718427
 21
-123.532206399315
 31
0.0
  0
LINE
  5
356
  8
0
  6
DASHED
 62
     7
 10
207.4322331391
 20
70.37389738976003
 30
0.0
 11
202.4322331391
 21
79.03415127216817
 31
0.0
  0
LINE
  5
357
  8
0
  6
DASHED
 62
     7
 10
202.4322438096611
 20
79.0341425234119
 30
0.0
 11
202.4322438096611
 21
73.26064398825565
 31
0.0
  0
LINE
  5
358
  8
0
  6
DASHED
 62
     7
 10
202.4322331391
 20
79.03415127216817
 30
0.0
 11
232.6317235033025
 21
96.46983547626974
 31
0.0
  0
LINE
  5
359
  8
0
  6
DASHED
 62
     7
 10
207.4322406359811
 20
70.3738859995101
 30
0.0
 11
202.4322443255647
 21
73.26063526708822
 31
0.0
  0
LINE
  5
35A
  8
0
  6
DASHED
 62
     7
 10
207.9944108567857
 20
83.40017666040899
 30
0.0
 11
232.1317235033025
 21
97.33586086451055
 31
0.0
  0
LINE
  5
35B
  8
0
  6
DASHED
 62
     7
 10
213.9944108567857
 20
73.00787200151922
 30
0.0
 11
207.9944108567857
 21
83.40017666040899
 31
0.0
  0
LINE
  5
35C
  8
0
  6
DASHED
 62
     7
 10
213.9944108567857
 20
73.00787200151922
 30
0.0
 11
238.1317235033025
 21
86.94355620562078
 31
0.0
  0
LINE
  5
35D
  8
0
  6
DASHED
 62
     7
 10
207.4322331391
 20
70.37389738976003
 30
0.0
 11
237.6317235033025
 21
87.8095815938616
 31
0.0
  0
LINE
  5
35E
  8
0
  6
CONTINUOUS
 62
     2
 10
39.65124362837821
 20
-14.87097920139122
 30
0.0
 11
44.71750057357428
 21
-11.94598137994644
 31
0.0
  0
LINE
  5
35F
  8
0
  6
CONTINUOUS
 62
     2
 10
44.7174856837475
 20
-23.64597460695718
 30
0.0
 11
39.65124092479817
 21
-20.72097118565166
 31
0.0
  0
LINE
  5
360
  8
0
  6
CONTINUOUS
 62
     2
 10
39.65123985763432
 20
-20.72097628924639
 30
0.0
 11
39.65123985763432
 21
-14.8709778151253
 31
0.0
  0
LINE
  5
361
  8
0
  6
CONTINUOUS
 62
     2
 10
9.340346567808297
 20
-32.37097719898436
 30
0.0
 11
14.40660351300437
 21
-29.44597937753958
 31
0.0
  0
LINE
  5
362
  8
0
  6
CONTINUOUS
 62
     2
 10
14.40659867223133
 20
-29.44601243994402
 30
0.0
 11
19.47284003593427
 21
-32.37101804575657
 31
0.0
  0
LINE
  5
363
  8
0
  6
CONTINUOUS
 62
     2
 10
19.4728417253101
 20
-32.3709892592171
 30
0.0
 11
19.4728417253101
 21
-38.22098773333818
 31
0.0
  0
LINE
  5
364
  8
0
  6
CONTINUOUS
 62
     2
 10
19.4728415680039
 20
-38.22098396830564
 30
0.0
 11
14.40658462280783
 21
-41.14598178975042
 31
0.0
  0
LINE
  5
365
  8
0
  6
CONTINUOUS
 62
     2
 10
14.40659711899855
 20
-41.14596170272507
 30
0.0
 11
9.340352360049224
 21
-38.22095828141955
 31
0.0
  0
LINE
  5
366
  8
0
  6
CONTINUOUS
 62
     2
 10
9.340349659880417
 20
-38.22097628924639
 30
0.0
 11
9.340349659880417
 21
-32.3709778151253
 31
0.0
  0
CIRCLE
  5
367
  8
0
  6
CONTINUOUS
 62
     2
 10
14.40659569259526
 20
-35.29598086688311
 30
0.0
 40
9.0
  0
LINE
  5
368
  8
0
  6
CONTINUOUS
 62
     2
 10
91.67651595902649
 20
-39.27408636549848
 30
0.0
 11
96.74277290422256
 21
-36.34908854405371
 31
0.0
  0
LINE
  5
369
  8
0
  6
CONTINUOUS
 62
     2
 10
96.74277166019763
 20
-36.34909858483463
 30
0.0
 11
101.8090080684676
 21
-39.27410132961706
 31
0.0
  0
LINE
  5
36A
  8
0
  6
CONTINUOUS
 62
     2
 10
101.8090081071461
 20
-39.27409213397295
 30
0.0
 11
101.8090081071461
 21
-45.12409060809404
 31
0.0
  0
LINE
  5
36B
  8
0
  6
CONTINUOUS
 62
     2
 10
101.8090103888473
 20
-45.12409786895541
 30
0.0
 11
96.74276005090465
 21
-48.04909187570974
 31
0.0
  0
LINE
  5
36C
  8
0
  6
CONTINUOUS
 62
     2
 10
96.74274774184082
 20
-48.04907240477218
 30
0.0
 11
91.67650298289149
 21
-45.12406898346666
 31
0.0
  0
LINE
  5
36D
  8
0
  6
CONTINUOUS
 62
     2
 10
91.67650841232185
 20
-45.12407916400225
 30
0.0
 11
91.67650841232185
 21
-39.27408068988115
 31
0.0
  0
LINE
  5
36E
  8
0
  6
CONTINUOUS
 62
     2
 10
49.78373955245854
 20
-14.87098735186846
 30
0.0
 11
49.78373955245854
 21
-20.72098582598955
 31
0.0
  0
LINE
  5
36F
  8
0
  6
CONTINUOUS
 62
     2
 10
178.2153164838489
 20
-14.87096804274479
 30
0.0
 11
183.2815734290449
 21
-11.94597022130001
 31
0.0
  0
LINE
  5
370
  8
0
  6
CONTINUOUS
 62
     2
 10
183.2815854614311
 20
-11.94594441164845
 30
0.0
 11
188.3478350841889
 21
-14.87095478584451
 31
0.0
  0
LINE
  5
371
  8
0
  6
CONTINUOUS
 62
     2
 10
188.3478188371265
 20
-14.87097018573077
 30
0.0
 11
188.3478188371265
 21
-20.72096865985186
 31
0.0
  0
LINE
  5
372
  8
0
  6
CONTINUOUS
 62
     2
 10
188.3478274318033
 20
-20.7209700094756
 30
0.0
 11
183.2815704866072
 21
-23.64596783092038
 31
0.0
  0
LINE
  5
373
  8
0
  6
CONTINUOUS
 62
     2
 10
183.2815337876565
 20
-23.64596229501076
 30
0.0
 11
178.215282421461
 21
-20.72095505900252
 31
0.0
  0
LINE
  5
374
  8
0
  6
CONTINUOUS
 62
     2
 10
178.2153115129078
 20
-20.7209591231087
 30
0.0
 11
178.2153115129078
 21
-14.8709606489876
 31
0.0
  0
LINE
  5
375
  8
0
  6
CONTINUOUS
 62
     2
 10
208.52619374975
 20
-32.37097955653935
 30
0.0
 11
213.5924506949461
 21
-29.44598173509457
 31
0.0
  0
LINE
  5
376
  8
0
  6
CONTINUOUS
 62
     2
 10
213.5924795335633
 20
-29.44593536311113
 30
0.0
 11
218.6587291563211
 21
-32.3709457373072
 31
0.0
  0
LINE
  5
377
  8
0
  6
CONTINUOUS
 62
     2
 10
218.6587014054859
 20
-32.37097018573077
 30
0.0
 11
218.6587014054859
 21
-38.22096865985186
 31
0.0
  0
LINE
  5
378
  8
0
  6
CONTINUOUS
 62
     2
 10
218.6587008830139
 20
-38.22097491601671
 30
0.0
 11
213.5924439378179
 21
-41.14597273746148
 31
0.0
  0
LINE
  5
379
  8
0
  6
CONTINUOUS
 62
     2
 10
213.5924362462503
 20
-41.14596852938229
 30
0.0
 11
208.5261848800548
 21
-38.22096129337405
 31
0.0
  0
LINE
  5
37A
  8
0
  6
CONTINUOUS
 62
     2
 10
208.5262093400562
 20
-38.22095721576006
 30
0.0
 11
208.5262093400562
 21
-32.37095874163897
 31
0.0
  0
LINE
  5
37B
  8
0
  6
CONTINUOUS
 62
     2
 10
108.9332875189292
 20
105.1290382722471
 30
0.0
 11
113.9995312496184
 21
108.054028464311
 31
0.0
  0
LINE
  5
37C
  8
0
  6
CONTINUOUS
 62
     2
 10
113.9995590083885
 20
108.0540539306513
 30
0.0
 11
119.0658020239024
 21
105.129047371162
 31
0.0
  0
LINE
  5
37D
  8
0
  6
CONTINUOUS
 62
     2
 10
119.0657753800953
 20
105.1290183701774
 30
0.0
 11
119.0657753800953
 21
99.27901989605635
 31
0.0
  0
LINE
  5
37E
  8
0
  6
CONTINUOUS
 62
     2
 10
119.0657588233629
 20
99.27901341737362
 30
0.0
 11
113.9995018781669
 21
96.35401559592884
 31
0.0
  0
LINE
  5
37F
  8
0
  6
CONTINUOUS
 62
     2
 10
113.9995068486752
 20
96.35400335503147
 30
0.0
 11
108.9332620897259
 21
99.27900677633698
 31
0.0
  0
LINE
  5
380
  8
0
  6
CONTINUOUS
 62
     2
 10
108.9332680558765
 20
99.27902752545089
 30
0.0
 11
108.9332680558765
 21
105.129025999572
 31
0.0
  0
LINE
  5
381
  8
0
  6
CONTINUOUS
 62
     2
 10
108.9332646219824
 20
140.1290187308476
 30
0.0
 11
113.9995215671785
 21
143.0540165522924
 31
0.0
  0
LINE
  5
382
  8
0
  6
CONTINUOUS
 62
     2
 10
113.9995575306985
 20
143.0540586269405
 30
0.0
 11
119.0658005462124
 21
140.1290520674513
 31
0.0
  0
LINE
  5
383
  8
0
  6
CONTINUOUS
 62
     2
 10
119.0657753800953
 20
140.1290107407829
 30
0.0
 11
119.0657753800953
 21
134.2790198960564
 31
0.0
  0
LINE
  5
384
  8
0
  6
CONTINUOUS
 62
     2
 10
119.0657717552464
 20
134.2790233713702
 30
0.0
 11
113.9995148100503
 21
131.3540255499254
 31
0.0
  0
LINE
  5
385
  8
0
  6
CONTINUOUS
 62
     2
 10
113.9994987618522
 20
131.3539991138248
 30
0.0
 11
108.9332540029028
 21
134.2790025351304
 31
0.0
  0
LINE
  5
386
  8
0
  6
CONTINUOUS
 62
     2
 10
108.9332680558765
 20
134.2790198960564
 30
0.0
 11
108.9332680558765
 21
140.129025999572
 31
0.0
  0
CIRCLE
  5
387
  8
0
  6
CONTINUOUS
 62
     2
 10
96.74276207443123
 20
-42.19908374163897
 30
0.0
 40
9.0
  0
CIRCLE
  5
388
  8
0
  6
CONTINUOUS
 62
     2
 10
183.2815651750172
 20
-17.79596370074541
 30
0.0
 40
9.0
  0
CIRCLE
  5
389
  8
0
  6
CONTINUOUS
 62
     2
 10
213.5924477433765
 20
-35.29596179339678
 30
0.0
 40
9.0
  0
CIRCLE
  5
38A
  8
0
  6
CONTINUOUS
 62
     2
 10
113.9995217179859
 20
102.2040229478142
 30
0.0
 40
9.0
  0
CIRCLE
  5
38B
  8
0
  6
CONTINUOUS
 62
     2
 10
113.9995217179859
 20
137.2040229478142
 30
0.0
 40
9.0
  0
LINE
  5
38C
  8
0
  6
CONTINUOUS
 62
     2
 10
44.71749721002965
 20
-11.94599221564477
 30
0.0
 11
49.78374022554357
 21
-14.87099877513402
 31
0.0
  0
LINE
  5
38D
  8
0
  6
CONTINUOUS
 62
     2
 10
49.78373424350855
 20
-20.72098409759469
 30
0.0
 11
44.71748390556593
 21
-23.64597810434902
 31
0.0
  0
CIRCLE
  5
38E
  8
0
  6
CONTINUOUS
 62
     2
 10
44.71748970504643
 20
-17.79598086688311
 30
0.0
 40
9.0
  0
LINE
  5
38F
  8
0
  6
DASHED
 62
     2
 10
38.99952171798589
 20
140.4199348130485
 30
0.0
 11
38.99952171798589
 21
110.2040229478142
 31
0.0
  0
LINE
  5
390
  8
0
  6
DASHED
 62
     2
 10
5.114260182341354
 20
110.2040229478142
 30
0.0
 11
38.99952171798589
 21
110.2040229478142
 31
0.0
  0
LINE
  5
391
  8
0
  6
DASHED
 62
     2
 10
26.99952171798589
 20
124.6040244736931
 30
0.0
 11
26.99952171798589
 21
119.8040214219353
 31
0.0
  0
LINE
  5
392
  8
0
  6
DASHED
 62
     2
 10
29.69952248092534
 20
125.504025999572
 30
0.0
 11
29.69952248092534
 21
118.9040198960564
 31
0.0
  0
LINE
  5
393
  8
0
  6
DASHED
 62
     2
 10
35.43827293868901
 20
116.504025999572
 30
0.0
 11
38.56077049728276
 21
116.504025999572
 31
0.0
  0
LINE
  5
394
  8
0
  6
DASHED
 62
     2
 10
35.43827293868901
 20
127.9040198960564
 30
0.0
 11
38.56077049728276
 21
127.9040198960564
 31
0.0
  0
LINE
  5
395
  8
0
  6
DASHED
 62
     2
 10
29.69949906259603
 20
118.9039617828054
 30
0.0
 11
26.99950226546594
 21
119.8039606020904
 31
0.0
  0
LINE
  5
396
  8
0
  6
DASHED
 62
     2
 10
29.69954987853509
 20
125.5039609552107
 30
0.0
 11
26.999553081405
 21
124.6039621359258
 31
0.0
  0
LINE
  5
397
  8
0
  6
DASHED
 62
     2
 10
30.69952248092534
 20
124.949353758361
 30
0.0
 11
30.69952248092534
 21
119.4085441270134
 31
0.0
  0
LINE
  5
398
  8
0
  6
DASHED
 62
     2
 10
34.99952171798589
 20
126.6540198960564
 30
0.0
 11
34.99952171798589
 21
117.754025999572
 31
0.0
  0
LINE
  5
399
  8
0
  6
DASHED
 62
     2
 10
35.74341057296635
 20
125.0976844468376
 30
0.0
 11
38.25563286300542
 21
125.0976844468376
 31
0.0
  0
LINE
  5
39A
  8
0
  6
DASHED
 62
     2
 10
35.74341057296635
 20
119.3103614487907
 30
0.0
 11
38.25563286300542
 21
119.3103614487907
 31
0.0
  0
LINE
  5
39B
  8
0
  6
DASHED
 62
     2
 10
38.99952635291658
 20
126.3540466527341
 30
0.0
 11
45.47322789989806
 21
126.2410477779468
 31
0.0
  0
LINE
  5
39C
  8
0
  6
DASHED
 62
     2
 10
38.99951760169216
 20
118.0540481213048
 30
0.0
 11
45.26079384696169
 21
118.1633390988566
 31
0.0
  0
LINE
  5
39D
  8
0
  6
DASHED
 62
     2
 10
38.98556450819481
 20
125.5541730615676
 30
0.0
 11
45.4592660551763
 21
125.4411741867803
 31
0.0
  0
LINE
  5
39E
  8
0
  6
DASHED
 62
     2
 10
38.98556325205178
 20
118.8539294738552
 30
0.0
 11
45.2468394973213
 21
118.963220451407
 31
0.0
  0
ARC
  5
39F
  8
0
  6
DASHED
 62
     2
 10
29.69952248092534
 20
122.2040229478142
 30
0.0
 40
3.299999952316284
 50
73.48282241201396
 51
89.99998201391067
  0
ARC
  5
3A0
  8
0
  6
DASHED
 62
     2
 10
29.69952248092534
 20
122.2040229478142
 30
0.0
 40
3.299999952316284
 50
270.0000179860893
 51
286.5171775879861
  0
ARC
  5
3A1
  8
0
  6
DASHED
 62
     2
 10
36.99952171798589
 20
126.6540198960564
 30
0.0
 40
2.0
 50
0.0
 51
38.68218896809859
  0
ARC
  5
3A2
  8
0
  6
DASHED
 62
     2
 10
36.99952171798589
 20
117.754025999572
 30
0.0
 40
2.0
 50
0.0
 51
51.09316519948327
  0
ARC
  5
3A3
  8
0
  6
DASHED
 62
     2
 10
32.99952171798589
 20
122.2040229478142
 30
0.0
 40
6.0
 50
0.0
 51
28.83423780766662
  0
ARC
  5
3A4
  8
0
  6
DASHED
 62
     2
 10
40.99952171798589
 20
122.2040229478142
 30
0.0
 40
6.0
 50
151.1657740314789
 51
208.8342086656771
  0
ARC
  5
3A5
  8
0
  6
DASHED
 62
     2
 10
32.99952171798589
 20
122.2040229478142
 30
0.0
 40
6.0
 50
331.1657621923334
 51
0.0
  0
ARC
  5
3A6
  8
0
  6
DASHED
 62
     2
 10
36.99952171798589
 20
126.6540198960564
 30
0.0
 40
2.0
 50
308.9068348005167
 51
0.0
  0
ARC
  5
3A7
  8
0
  6
DASHED
 62
     2
 10
36.99952171798589
 20
126.6540198960564
 30
0.0
 40
2.0
 50
141.3178297012361
 51
231.0931121518317
  0
ARC
  5
3A8
  8
0
  6
DASHED
 62
     2
 10
36.99952171798589
 20
117.754025999572
 30
0.0
 40
2.0
 50
128.906856884946
 51
218.6821529959199
  0
ARC
  5
3A9
  8
0
  6
DASHED
 62
     2
 10
36.99952171798589
 20
117.754025999572
 30
0.0
 40
2.0
 50
321.3178110319014
 51
0.0
  0
ARC
  5
3AA
  8
0
  6
DASHED
 62
     2
 10
31.03271721359135
 20
131.004025999572
 30
0.0
 40
5.650000095367432
 50
265.9910930942638
 51
315.0592540539054
  0
ARC
  5
3AB
  8
0
  6
DASHED
 62
     2
 10
31.03271721359135
 20
113.4040198960564
 30
0.0
 40
5.650000095367432
 50
44.94074594609464
 51
94.00890690573628
  0
ARC
  5
3AC
  8
0
  6
DASHED
 62
     2
 10
27.69952248092534
 20
122.2040229478142
 30
0.0
 40
1.5
 50
117.818154050457
 51
242.1818423070773
  0
LINE
  5
3AD
  8
0
  6
DASHED
 62
     2
 10
38.99952171798589
 20
132.2040229478142
 30
0.0
 11
57.42351387496831
 21
132.2040229478142
 31
0.0
  0
LINE
  5
3AE
  8
0
  6
DASHED
 62
     2
 10
38.99952171798589
 20
112.2040229478142
 30
0.0
 11
57.42351387496831
 21
112.2040229478142
 31
0.0
  0
ARC
  5
3AF
  8
0
  6
CONTINUOUS
 62
     4
 10
113.9995217179859
 20
22.20402294781416
 30
0.0
 40
69.0
 50
174.5247477853557
 51
189.6455571737133
  0
ARC
  5
3B0
  8
0
  6
CONTINUOUS
 62
     4
 10
113.9995217179859
 20
22.20402294781416
 30
0.0
 40
75.0
 50
171.4315873366887
 51
191.3370398612886
  0
LINE
  5
3B1
  8
0
  6
CONTINUOUS
 62
     4
 10
156.5101188771197
 20
-27.16552564831745
 30
0.0
 11
161.7601195029685
 21
-18.0722590717889
 31
0.0
  0
LINE
  5
3B2
  8
0
  6
CONTINUOUS
 62
     4
 10
172.7601208142707
 20
0.9802994695090135
 30
0.0
 11
178.0101214401194
 21
10.07356604603756
 31
0.0
  0
LINE
  5
3B3
  8
0
  6
CONTINUOUS
 62
     4
 10
239.4440833382088
 20
-37.51969190554991
 30
0.0
 11
244.6940763346621
 21
-28.42643854352009
 31
0.0
  0
LINE
  5
3B4
  8
0
  6
CONTINUOUS
 62
     4
 10
223.1940775863601
 20
-65.66552363062573
 30
0.0
 11
228.4440782122089
 21
-56.57225705409719
 31
0.0
  0
LINE
  5
3B5
  8
0
  6
CONTINUOUS
 62
     4
 10
157.8091588668298
 20
-27.91552243409974
 30
0.0
 11
163.0591594926786
 21
-18.82225585757119
 31
0.0
  0
LINE
  5
3B6
  8
0
  6
CONTINUOUS
 62
     4
 10
159.1081950418422
 20
-28.66552582713139
 30
0.0
 11
164.3581956676909
 21
-19.57225925060284
 31
0.0
  0
LINE
  5
3B7
  8
0
  6
CONTINUOUS
 62
     4
 10
160.4072501533998
 20
-29.41552693868443
 30
0.0
 11
165.6572526865974
 21
-20.3222570585312
 31
0.0
  0
LINE
  5
3B8
  8
0
  6
CONTINUOUS
 62
     4
 10
161.7062731139135
 20
-30.16552270232064
 30
0.0
 11
166.9562737397622
 21
-21.07225612579209
 31
0.0
  0
LINE
  5
3B9
  8
0
  6
CONTINUOUS
 62
     4
 10
163.0053111962747
 20
-30.91552279172761
 30
0.0
 11
168.2553118221234
 21
-21.82225621519906
 31
0.0
  0
LINE
  5
3BA
  8
0
  6
CONTINUOUS
 62
     4
 10
174.0591588966319
 20
0.2302993801020463
 30
0.0
 11
179.3091595224807
 21
9.323565956630596
 31
0.0
  0
LINE
  5
3BB
  8
0
  6
CONTINUOUS
 62
     4
 10
175.3581969789931
 20
-0.5197007093049208
 30
0.0
 11
180.6081976048419
 21
8.573565867223628
 31
0.0
  0
LINE
  5
3BC
  8
0
  6
CONTINUOUS
 62
     4
 10
176.6572520905508
 20
-1.269701820857968
 30
0.0
 11
181.9072527163995
 21
7.823564755670581
 31
0.0
  0
LINE
  5
3BD
  8
0
  6
CONTINUOUS
 62
     4
 10
177.9562769584133
 20
-2.019694280869494
 30
0.0
 11
183.206277584262
 21
7.073572295659055
 31
0.0
  0
LINE
  5
3BE
  8
0
  6
CONTINUOUS
 62
     4
 10
179.2553188554722
 20
-2.7696877630271
 30
0.0
 11
184.505319481321
 21
6.323578813501449
 31
0.0
  0
LINE
  5
3BF
  8
0
  6
CONTINUOUS
 62
     4
 10
238.1450376264521
 20
-36.76970503064167
 30
0.0
 11
243.3950382523009
 21
-27.67643845411312
 31
0.0
  0
LINE
  5
3C0
  8
0
  6
CONTINUOUS
 62
     4
 10
236.8460203879851
 20
-36.01969935613142
 30
0.0
 11
242.0960210138338
 21
-26.92643277960287
 31
0.0
  0
LINE
  5
3C1
  8
0
  6
CONTINUOUS
 62
     4
 10
235.5469823056239
 20
-35.26969926672445
 30
0.0
 11
240.7969829314726
 21
-26.17643269019591
 31
0.0
  0
LINE
  5
3C2
  8
0
  6
CONTINUOUS
 62
     4
 10
234.2479310087639
 20
-34.51969154792204
 30
0.0
 11
239.4979240052172
 21
-25.42643818589222
 31
0.0
  0
LINE
  5
3C3
  8
0
  6
CONTINUOUS
 62
     4
 10
232.9488852970073
 20
-33.7697046730138
 30
0.0
 11
238.198885922856
 21
-24.67643809648525
 31
0.0
  0
LINE
  5
3C4
  8
0
  6
CONTINUOUS
 62
     4
 10
221.8950356893012
 20
-64.91553014846812
 30
0.0
 11
227.14503631515
 21
-55.82226357193958
 31
0.0
  0
LINE
  5
3C5
  8
0
  6
CONTINUOUS
 62
     4
 10
220.5960184508341
 20
-64.16552447395787
 30
0.0
 11
225.8460190766829
 21
-55.07225789742933
 31
0.0
  0
LINE
  5
3C6
  8
0
  6
CONTINUOUS
 62
     4
 10
219.296978461124
 20
-63.41552768817559
 30
0.0
 11
224.5469790869728
 21
-54.32226111164704
 31
0.0
  0
LINE
  5
3C7
  8
0
  6
CONTINUOUS
 62
     4
 10
217.9979252569152
 20
-62.66552327299787
 30
0.0
 11
223.247925882764
 21
-53.57225669646932
 31
0.0
  0
LINE
  5
3C8
  8
0
  6
CONTINUOUS
 62
     4
 10
216.6988833598563
 20
-61.91552979084026
 30
0.0
 11
221.9488839857051
 21
-52.82226321431171
 31
0.0
  0
LINE
  5
3C9
  8
0
  6
CONTINUOUS
 62
     4
 10
92.49952171798591
 20
83.70402294781417
 30
0.0
 11
102.9995217179859
 21
83.70402294781417
 31
0.0
  0
LINE
  5
3CA
  8
0
  6
CONTINUOUS
 62
     4
 10
124.9995217179859
 20
83.70402294781417
 30
0.0
 11
135.4995217179859
 21
83.70402294781417
 31
0.0
  0
LINE
  5
3CB
  8
0
  6
CONTINUOUS
 62
     4
 10
92.49952171798591
 20
160.7040229478142
 30
0.0
 11
102.9995217179859
 21
160.7040229478142
 31
0.0
  0
LINE
  5
3CC
  8
0
  6
CONTINUOUS
 62
     4
 10
124.9995217179859
 20
160.7040229478142
 30
0.0
 11
135.4995217179859
 21
160.7040229478142
 31
0.0
  0
LINE
  5
3CD
  8
0
  6
CONTINUOUS
 62
     4
 10
124.9995217179859
 20
85.20402294781417
 30
0.0
 11
135.4995217179859
 21
85.20402294781417
 31
0.0
  0
LINE
  5
3CE
  8
0
  6
CONTINUOUS
 62
     4
 10
124.9995217179859
 20
86.70402294781417
 30
0.0
 11
135.4995217179859
 21
86.70402294781417
 31
0.0
  0
LINE
  5
3CF
  8
0
  6
CONTINUOUS
 62
     4
 10
124.9995217179859
 20
88.20402294781417
 30
0.0
 11
135.4995217179859
 21
88.20402294781417
 31
0.0
  0
LINE
  5
3D0
  8
0
  6
CONTINUOUS
 62
     4
 10
124.9995217179859
 20
89.70402294781417
 30
0.0
 11
135.4995217179859
 21
89.70402294781417
 31
0.0
  0
LINE
  5
3D1
  8
0
  6
CONTINUOUS
 62
     4
 10
124.9995217179859
 20
91.20402294781417
 30
0.0
 11
135.4995217179859
 21
91.20402294781417
 31
0.0
  0
LINE
  5
3D2
  8
0
  6
CONTINUOUS
 62
     4
 10
92.49952171798591
 20
85.20402294781417
 30
0.0
 11
102.9995217179859
 21
85.20402294781417
 31
0.0
  0
LINE
  5
3D3
  8
0
  6
CONTINUOUS
 62
     4
 10
92.49952171798591
 20
86.70402294781417
 30
0.0
 11
102.9995217179859
 21
86.70402294781417
 31
0.0
  0
LINE
  5
3D4
  8
0
  6
CONTINUOUS
 62
     4
 10
92.49952171798591
 20
88.20402294781417
 30
0.0
 11
102.9995217179859
 21
88.20402294781417
 31
0.0
  0
LINE
  5
3D5
  8
0
  6
CONTINUOUS
 62
     4
 10
92.49952171798591
 20
89.70402294781417
 30
0.0
 11
102.9995217179859
 21
89.70402294781417
 31
0.0
  0
LINE
  5
3D6
  8
0
  6
CONTINUOUS
 62
     4
 10
92.49952171798591
 20
91.20402294781417
 30
0.0
 11
102.9995217179859
 21
91.20402294781417
 31
0.0
  0
LINE
  5
3D7
  8
0
  6
CONTINUOUS
 62
     4
 10
92.49952171798591
 20
159.2040229478142
 30
0.0
 11
102.9995217179859
 21
159.2040229478142
 31
0.0
  0
LINE
  5
3D8
  8
0
  6
CONTINUOUS
 62
     4
 10
92.49952171798591
 20
157.7040229478142
 30
0.0
 11
102.9995217179859
 21
157.7040229478142
 31
0.0
  0
LINE
  5
3D9
  8
0
  6
CONTINUOUS
 62
     4
 10
92.49952171798591
 20
156.2040229478142
 30
0.0
 11
102.9995217179859
 21
156.2040229478142
 31
0.0
  0
LINE
  5
3DA
  8
0
  6
CONTINUOUS
 62
     4
 10
92.49952171798591
 20
154.7040229478142
 30
0.0
 11
102.9995217179859
 21
154.7040229478142
 31
0.0
  0
LINE
  5
3DB
  8
0
  6
CONTINUOUS
 62
     4
 10
92.49952171798591
 20
153.2040229478142
 30
0.0
 11
102.9995217179859
 21
153.2040229478142
 31
0.0
  0
LINE
  5
3DC
  8
0
  6
CONTINUOUS
 62
     4
 10
124.9995217179859
 20
159.2040229478142
 30
0.0
 11
135.4995217179859
 21
159.2040229478142
 31
0.0
  0
LINE
  5
3DD
  8
0
  6
CONTINUOUS
 62
     4
 10
124.9995217179859
 20
157.7040229478142
 30
0.0
 11
135.4995217179859
 21
157.7040229478142
 31
0.0
  0
LINE
  5
3DE
  8
0
  6
CONTINUOUS
 62
     4
 10
124.9995217179859
 20
156.2040229478142
 30
0.0
 11
135.4995217179859
 21
156.2040229478142
 31
0.0
  0
LINE
  5
3DF
  8
0
  6
CONTINUOUS
 62
     4
 10
124.9995217179859
 20
154.7040229478142
 30
0.0
 11
135.4995217179859
 21
154.7040229478142
 31
0.0
  0
LINE
  5
3E0
  8
0
  6
CONTINUOUS
 62
     4
 10
124.9995217179859
 20
153.2040229478142
 30
0.0
 11
135.4995217179859
 21
153.2040229478142
 31
0.0
  0
CIRCLE
  5
3E1
  8
0
  6
CONTINUOUS
 62
     4
 10
113.9995217179859
 20
-37.79597705218584
 30
0.0
 40
4.0
  0
ARC
  5
3E2
  8
0
  6
CONTINUOUS
 62
     4
 10
113.9995217179859
 20
22.20402294781416
 30
0.0
 40
57.0
 50
114.9010758785929
 51
129.2199800772561
  0
ARC
  5
3E3
  8
0
  6
CONTINUOUS
 62
     4
 10
113.9995217179859
 20
22.20402294781416
 30
0.0
 40
57.0
 50
234.9010418792278
 51
249.2199392477018
  0
ARC
  5
3E4
  8
0
  6
CONTINUOUS
 62
     4
 10
113.9995217179859
 20
22.20402294781416
 30
0.0
 40
57.0
 50
354.9010780888174
 51
9.2199613700262
  0
ARC
  5
3E5
  8
0
  6
CONTINUOUS
 62
     4
 10
113.9995217179859
 20
22.20402294781416
 30
0.0
 40
63.0
 50
352.3927017883008
 51
5.355267448469619
  0
ARC
  5
3E6
  8
0
  6
CONTINUOUS
 62
     4
 10
113.9995217179859
 20
22.20402294781416
 30
0.0
 40
69.0
 50
350.3544179531654
 51
5.475276860394506
  0
ARC
  5
3E7
  8
0
  6
CONTINUOUS
 62
     4
 10
113.9995217179859
 20
22.20402294781416
 30
0.0
 40
75.0
 50
348.6629369731374
 51
8.568427917551391
  0
ARC
  5
3E8
  8
0
  6
CONTINUOUS
 62
     4
 10
113.9995217179859
 20
22.20402294781416
 30
0.0
 40
63.0
 50
112.3927025662841
 51
125.3552814599444
  0
ARC
  5
3E9
  8
0
  6
CONTINUOUS
 62
     4
 10
113.9995217179859
 20
22.20402294781416
 30
0.0
 40
69.0
 50
110.3544238537905
 51
125.4753015440399
  0
ARC
  5
3EA
  8
0
  6
CONTINUOUS
 62
     4
 10
113.9995217179859
 20
22.20402294781416
 30
0.0
 40
75.0
 50
108.6629411662152
 51
128.5684483323285
  0
ARC
  5
3EB
  8
0
  6
CONTINUOUS
 62
     4
 10
113.9995217179859
 20
22.20402294781416
 30
0.0
 40
63.0
 50
232.392668566919
 51
245.3552474605793
  0
ARC
  5
3EC
  8
0
  6
CONTINUOUS
 62
     4
 10
113.9995217179859
 20
22.20402294781416
 30
0.0
 40
69.0
 50
230.3543898544254
 51
245.4752538842964
  0
ARC
  5
3ED
  8
0
  6
CONTINUOUS
 62
     4
 10
113.9995217179859
 20
22.20402294781416
 30
0.0
 40
75.0
 50
228.6629071668501
 51
248.5684075027742
  0
ARC
  5
3EE
  8
0
  6
CONTINUOUS
 62
     4
 10
113.9995217179859
 20
22.20402294781416
 30
0.0
 40
81.0
 50
227.2352746869124
 51
312.7880488152414
  0
ARC
  5
3EF
  8
0
  6
CONTINUOUS
 62
     4
 10
113.9995217179859
 20
22.20402294781416
 30
0.0
 40
87.0
 50
226.0133811651538
 51
314.1562313286434
  0
ARC
  5
3F0
  8
0
  6
CONTINUOUS
 62
     4
 10
113.9995217179859
 20
22.20402294781416
 30
0.0
 40
57.0
 50
260.78002075757
 51
265.4824489067728
  0
ARC
  5
3F1
  8
0
  6
CONTINUOUS
 62
     4
 10
113.9995217179859
 20
22.20402294781416
 30
0.0
 40
57.0
 50
274.5175324238925
 51
279.2199605730953
  0
ARC
  5
3F2
  8
0
  6
CONTINUOUS
 62
     4
 10
113.9995217179859
 20
22.20402294781416
 30
0.0
 40
57.0
 50
290.7800352527744
 51
305.0989531118158
  0
ARC
  5
3F3
  8
0
  6
CONTINUOUS
 62
     4
 10
113.9995217179859
 20
22.20402294781416
 30
0.0
 40
63.0
 50
294.6447270398968
 51
307.6073264241247
  0
ARC
  5
3F4
  8
0
  6
CONTINUOUS
 62
     4
 10
113.9995217179859
 20
22.20402294781416
 30
0.0
 40
63.0
 50
274.2969309740794
 51
275.3552687859729
  0
ARC
  5
3F5
  8
0
  6
CONTINUOUS
 62
     4
 10
113.9995217179859
 20
22.20402294781416
 30
0.0
 40
63.0
 50
264.6447125446924
 51
265.7030503565859
  0
ARC
  5
3F6
  8
0
  6
CONTINUOUS
 62
     4
 10
113.9995217179859
 20
22.20402294781416
 30
0.0
 40
69.0
 50
264.5247061209753
 51
275.47527520969
  0
ARC
  5
3F7
  8
0
  6
CONTINUOUS
 62
     4
 10
113.9995217179859
 20
22.20402294781416
 30
0.0
 40
69.0
 50
294.5247206161797
 51
309.6456119668074
  0
ARC
  5
3F8
  8
0
  6
CONTINUOUS
 62
     4
 10
113.9995217179859
 20
22.20402294781416
 30
0.0
 40
75.0
 50
291.4315738278911
 51
311.3370912392882
  0
ARC
  5
3F9
  8
0
  6
CONTINUOUS
 62
     4
 10
113.9995217179859
 20
22.20402294781416
 30
0.0
 40
75.0
 50
261.4315525024975
 51
278.5684288281678
  0
CIRCLE
  5
3FA
  8
0
  6
CONTINUOUS
 62
     4
 10
113.9995217179859
 20
22.20402294781416
 30
0.0
 40
44.20000076293945
  0
CIRCLE
  5
3FB
  8
0
  6
CONTINUOUS
 62
     4
 10
165.9610543107594
 20
52.20401531841963
 30
0.0
 40
4.0
  0
CIRCLE
  5
3FC
  8
0
  6
CONTINUOUS
 62
     4
 10
62.03800438400151
 20
52.20403820660322
 30
0.0
 40
4.0
  0
ARC
  5
3FD
  8
0
  6
CONTINUOUS
 62
     4
 10
113.9995217179859
 20
22.20402294781416
 30
0.0
 40
69.0
 50
144.5247401203405
 51
155.4752955486768
  0
ARC
  5
3FE
  8
0
  6
CONTINUOUS
 62
     4
 10
113.9995217179859
 20
22.20402294781416
 30
0.0
 40
57.0
 50
140.7800615871243
 51
145.4824692457597
  0
ARC
  5
3FF
  8
0
  6
CONTINUOUS
 62
     4
 10
113.9995217179859
 20
22.20402294781416
 30
0.0
 40
57.0
 50
170.7800555917612
 51
185.0989051489109
  0
ARC
  5
400
  8
0
  6
CONTINUOUS
 62
     4
 10
113.9995217179859
 20
22.20402294781416
 30
0.0
 40
57.0
 50
154.5175391025009
 51
159.2199740818929
  0
ARC
  5
401
  8
0
  6
CONTINUOUS
 62
     4
 10
113.9995217179859
 20
22.20402294781416
 30
0.0
 40
63.0
 50
174.6447542090728
 51
187.6072784612197
  0
ARC
  5
402
  8
0
  6
CONTINUOUS
 62
     4
 10
113.9995217179859
 20
22.20402294781416
 30
0.0
 40
75.0
 50
51.43157033700614
 51
71.33707750311945
  0
ARC
  5
403
  8
0
  6
CONTINUOUS
 62
     4
 10
113.9995217179859
 20
22.20402294781416
 30
0.0
 40
69.0
 50
54.52472395548396
 51
69.64559481554413
  0
ARC
  5
404
  8
0
  6
CONTINUOUS
 62
     4
 10
113.9995217179859
 20
22.20402294781416
 30
0.0
 40
63.0
 50
54.64473037920108
 51
67.60731610305058
  0
ARC
  5
405
  8
0
  6
CONTINUOUS
 62
     4
 10
113.9995217179859
 20
22.20402294781416
 30
0.0
 40
57.0
 50
50.78003517698403
 51
65.09893596055257
  0
ARC
  5
406
  8
0
  6
CONTINUOUS
 62
     4
 10
113.9995217179859
 20
22.20402294781416
 30
0.0
 40
57.0
 50
34.51752210281834
 51
39.21996391239954
  0
ARC
  5
407
  8
0
  6
CONTINUOUS
 62
     4
 10
113.9995217179859
 20
22.20402294781416
 30
0.0
 40
57.0
 50
20.78003604970527
 51
25.48245736871897
  0
ARC
  5
408
  8
0
  6
CONTINUOUS
 62
     4
 10
113.9995217179859
 20
22.20402294781416
 30
0.0
 40
69.0
 50
24.5247231206579
 51
35.4752785489942
  0
ARC
  5
409
  8
0
  6
CONTINUOUS
 62
     4
 10
113.9995217179859
 20
22.20402294781416
 30
0.0
 40
75.0
 50
21.43157120972737
 51
38.56842875237744
  0
ARC
  5
40A
  8
0
  6
CONTINUOUS
 62
     4
 10
113.9995217179859
 20
22.20402294781416
 30
0.0
 40
105.0
 50
343.1663874885729
 51
76.96313847340478
  0
ARC
  5
40B
  8
0
  6
CONTINUOUS
 62
     4
 10
113.9995217179859
 20
22.20402294781416
 30
0.0
 40
99.0
 50
343.8679896427585
 51
75.87499371597337
  0
ARC
  5
40C
  8
0
  6
CONTINUOUS
 62
     4
 10
113.9995217179859
 20
22.20402294781416
 30
0.0
 40
93.0
 50
344.7931473035732
 51
75.04475007141248
  0
ARC
  5
40D
  8
0
  6
CONTINUOUS
 62
     4
 10
113.9995217179859
 20
22.20402294781416
 30
0.0
 40
87.0
 50
345.7547064575694
 51
73.98660350481576
  0
ARC
  5
40E
  8
0
  6
CONTINUOUS
 62
     4
 10
113.9995217179859
 20
22.20402294781416
 30
0.0
 40
81.0
 50
347.0247656195813
 51
72.76471681324634
  0
ARC
  5
40F
  8
0
  6
CONTINUOUS
 62
     4
 10
113.9995217179859
 20
22.20402294781416
 30
0.0
 40
81.0
 50
107.2353018560883
 51
193.2219535061587
  0
ARC
  5
410
  8
0
  6
CONTINUOUS
 62
     4
 10
113.9995217179859
 20
22.20402294781416
 30
0.0
 40
87.0
 50
106.0134151645189
 51
194.2676418077093
  0
ARC
  5
411
  8
0
  6
CONTINUOUS
 62
     4
 10
113.9995217179859
 20
22.20402294781416
 30
0.0
 40
93.0
 50
104.9552685979222
 51
195.0348906175552
  0
ARC
  5
412
  8
0
  6
CONTINUOUS
 62
     4
 10
113.9995217179859
 20
22.20402294781416
 30
0.0
 40
99.0
 50
104.0296823427371
 51
196.0253500094771
  0
ARC
  5
413
  8
0
  6
CONTINUOUS
 62
     4
 10
113.9995217179859
 20
22.20402294781416
 30
0.0
 40
105.0
 50
103.2129966236787
 51
196.6109294477789
  0
ARC
  5
414
  8
0
  6
CONTINUOUS
 62
     4
 10
113.9995217179859
 20
22.20402294781416
 30
0.0
 40
93.0
 50
224.9552345985571
 51
315.0571810914923
  0
ARC
  5
415
  8
0
  6
CONTINUOUS
 62
     4
 10
113.9995217179859
 20
22.20402294781416
 30
0.0
 40
99.0
 50
224.0296483433719
 51
315.8491449408498
  0
ARC
  5
416
  8
0
  6
CONTINUOUS
 62
     4
 10
113.9995217179859
 20
22.20402294781416
 30
0.0
 40
105.0
 50
223.2129626243135
 51
316.9236873765492
  0
ARC
  5
417
  8
0
  6
CONTINUOUS
 62
     4
 10
113.9995217179859
 20
22.20402294781416
 30
0.0
 40
75.0
 50
141.4315933320518
 51
158.5684423369654
  0
CIRCLE
  5
418
  8
0
  6
CONTINUOUS
 62
     4
 10
113.9994655952611
 20
61.70400046388865
 30
0.0
 40
2.5
  0
CIRCLE
  5
419
  8
0
  6
CONTINUOUS
 62
     4
 10
148.2075459020006
 20
2.454044837445096
 30
0.0
 40
2.5
  0
CIRCLE
  5
41A
  8
0
  6
CONTINUOUS
 62
     4
 10
79.79153900303001
 20
2.453956090332198
 30
0.0
 40
2.499999999999999
  0
LINE
  5
41B
  8
0
  6
CONTINUOUS
 62
     4
 10
-141.8250925200849
 20
-21.99595533119979
 30
0.0
 11
-131.8250772612959
 21
-21.99595533119979
 31
0.0
  0
LINE
  5
41C
  8
0
  6
CONTINUOUS
 62
     4
 10
-141.8250925200849
 20
66.40404237998186
 30
0.0
 11
-131.8250772612959
 21
66.40404237998186
 31
0.0
  0
LINE
  5
41D
  8
0
  6
CONTINUOUS
 62
     4
 10
-115.6250955718427
 20
97.10404695761858
 30
0.0
 11
-84.62509557184272
 21
97.10404695761858
 31
0.0
  0
LINE
  5
41E
  8
0
  6
CONTINUOUS
 62
     4
 10
-115.6250955718427
 20
107.3040439058608
 30
0.0
 11
-84.62509557184272
 21
107.3040439058608
 31
0.0
  0
LINE
  5
41F
  8
0
  6
CONTINUOUS
 62
     4
 10
-115.6250955718427
 20
132.104039328224
 30
0.0
 11
-84.62509557184272
 21
132.104039328224
 31
0.0
  0
LINE
  5
420
  8
0
  6
CONTINUOUS
 62
     4
 10
-115.6250955718427
 20
142.3040515352553
 30
0.0
 11
-84.62509557184272
 21
142.3040515352553
 31
0.0
  0
LINE
  5
421
  8
0
  6
CONTINUOUS
 62
     4
 10
-160.8250925200849
 20
57.20404543173967
 30
0.0
 11
-160.8250925200849
 21
44.30667986167131
 31
0.0
  0
LINE
  5
422
  8
0
  6
CONTINUOUS
 62
     4
 10
-190.8250925200849
 20
57.20404543173967
 30
0.0
 11
-190.8250925200849
 21
44.58736910117326
 31
0.0
  0
LINE
  5
423
  8
0
  6
CONTINUOUS
 62
     4
 10
-190.8250925200849
 20
-1.015816552513268
 30
0.0
 11
-190.8250925200849
 21
-12.79595456826034
 31
0.0
  0
LINE
  5
424
  8
0
  6
CONTINUOUS
 62
     4
 10
-160.8250925200849
 20
-0.4544380735093618
 30
0.0
 11
-160.8250925200849
 21
-12.79595456826034
 31
0.0
  0
LINE
  5
425
  8
0
  6
CONTINUOUS
 62
     4
 10
-141.8250925200849
 20
64.20404543173964
 30
0.0
 11
-131.8250925200849
 21
64.20404543173964
 31
0.0
  0
LINE
  5
426
  8
0
  6
CONTINUOUS
 62
     4
 10
-141.8250925200849
 20
59.20404543173965
 30
0.0
 11
-131.8250925200849
 21
59.20404543173965
 31
0.0
  0
LINE
  5
427
  8
0
  6
CONTINUOUS
 62
     4
 10
-96.62509557184272
 20
162.2040454317397
 30
0.0
 11
-96.62509557184272
 21
150.2040454317397
 31
0.0
  0
LINE
  5
428
  8
0
  6
CONTINUOUS
 62
     4
 10
-97.62509557184272
 20
162.2040454317397
 30
0.0
 11
-97.62509557184272
 21
150.2040454317397
 31
0.0
  0
LINE
  5
429
  8
0
  6
CONTINUOUS
 62
     4
 10
-96.62509557184272
 20
89.20404543173967
 30
0.0
 11
-96.62509557184272
 21
82.20404543173967
 31
0.0
  0
LINE
  5
42A
  8
0
  6
CONTINUOUS
 62
     4
 10
-97.62509557184272
 20
89.20404543173967
 30
0.0
 11
-97.62509557184272
 21
82.20404543173967
 31
0.0
  0
INSERT
  5
42B
  8
LAYER0014
  6
CONTINUOUS
  2
DC_IMAGEDIMGROUP_1
 10
0.0
 20
0.0
 30
0.0
  0
INSERT
  5
42C
  8
LAYER0014
  6
CONTINUOUS
  2
DC_GROUP_2
 10
0.0
 20
0.0
 30
0.0
  0
INSERT
  5
42D
  8
LAYER0014
  6
CONTINUOUS
  2
DC_GROUP_3
 10
0.0
 20
0.0
 30
0.0
  0
INSERT
  5
42E
  8
LAYER0014
  6
CONTINUOUS
  2
DC_IMAGEDIMGROUP_2
 10
0.0
 20
0.0
 30
0.0
  0
INSERT
  5
42F
  8
LAYER0014
  6
CONTINUOUS
  2
DC_IMAGEDIMGROUP_3
 10
0.0
 20
0.0
 30
0.0
  0
INSERT
  5
430
  8
LAYER0014
  6
CONTINUOUS
  2
DC_IMAGEDIMGROUP_4
 10
0.0
 20
0.0
 30
0.0
  0
INSERT
  5
431
  8
LAYER0014
  6
CONTINUOUS
  2
DC_IMAGEDIMGROUP_5
 10
0.0
 20
0.0
 30
0.0
  0
INSERT
  5
432
  8
LAYER0014
  6
CONTINUOUS
  2
DC_IMAGEDIMGROUP_6
 10
0.0
 20
0.0
 30
0.0
  0
INSERT
  5
433
  8
LAYER0014
  6
CONTINUOUS
  2
DC_IMAGEDIMGROUP_7
 10
0.0
 20
0.0
 30
0.0
  0
INSERT
  5
434
  8
LAYER0014
  6
CONTINUOUS
  2
DC_IMAGEDIMGROUP_8
 10
0.0
 20
0.0
 30
0.0
  0
INSERT
  5
435
  8
LAYER0014
  6
CONTINUOUS
  2
DC_IMAGEDIMGROUP_9
 10
0.0
 20
0.0
 30
0.0
  0
INSERT
  5
436
  8
LAYER0014
  6
CONTINUOUS
  2
DC_IMAGEDIMGROUP_10
 10
0.0
 20
0.0
 30
0.0
  0
INSERT
  5
437
  8
LAYER0014
  6
CONTINUOUS
  2
DC_IMAGEDIMGROUP_11
 10
0.0
 20
0.0
 30
0.0
  0
INSERT
  5
438
  8
LAYER0014
  6
CONTINUOUS
  2
DC_IMAGEDIMGROUP_12
 10
0.0
 20
0.0
 30
0.0
  0
INSERT
  5
439
  8
LAYER0014
  6
CONTINUOUS
  2
DC_IMAGEDIMGROUP_13
 10
0.0
 20
0.0
 30
0.0
  0
INSERT
  5
43A
  8
LAYER0014
  6
CONTINUOUS
  2
DC_IMAGEDIMGROUP_14
 10
0.0
 20
0.0
 30
0.0
  0
INSERT
  5
43B
  8
LAYER0014
  6
CONTINUOUS
  2
DC_IMAGEDIMGROUP_15
 10
0.0
 20
0.0
 30
0.0
  0
INSERT
  5
43C
  8
LAYER0014
  6
CONTINUOUS
  2
DC_IMAGEDIMGROUP_16
 10
0.0
 20
0.0
 30
0.0
  0
INSERT
  5
43D
  8
LAYER0014
  6
CONTINUOUS
  2
DC_IMAGEDIMGROUP_17
 10
0.0
 20
0.0
 30
0.0
  0
INSERT
  5
43E
  8
LAYER0014
  6
CONTINUOUS
  2
DC_IMAGEDIMGROUP_18
 10
0.0
 20
0.0
 30
0.0
  0
INSERT
  5
43F
  8
LAYER0014
  6
CONTINUOUS
  2
DC_IMAGEDIMGROUP_19
 10
0.0
 20
0.0
 30
0.0
  0
INSERT
  5
440
  8
LAYER0014
  6
CONTINUOUS
  2
DC_IMAGEDIMGROUP_20
 10
0.0
 20
0.0
 30
0.0
  0
INSERT
  5
441
  8
LAYER0014
  6
CONTINUOUS
  2
DC_IMAGEDIMGROUP_25
 10
0.0
 20
0.0
 30
0.0
  0
INSERT
  5
442
  8
LAYER0014
  6
CONTINUOUS
  2
DC_GROUP_6
 10
0.0
 20
0.0
 30
0.0
  0
INSERT
  5
443
  8
LAYER0014
  6
CONTINUOUS
  2
DC_IMAGEDIMGROUP_26
 10
0.0
 20
0.0
 30
0.0
  0
INSERT
  5
444
  8
LAYER0014
  6
CONTINUOUS
  2
DC_IMAGEDIMGROUP_27
 10
0.0
 20
0.0
 30
0.0
  0
INSERT
  5
445
  8
LAYER0014
  6
CONTINUOUS
  2
DC_IMAGEDIMGROUP_28
 10
0.0
 20
0.0
 30
0.0
  0
INSERT
  5
446
  8
LAYER0014
  6
CONTINUOUS
  2
DC_IMAGEDIMGROUP_29
 10
0.0
 20
0.0
 30
0.0
  0
INSERT
  5
447
  8
LAYER0014
  6
CONTINUOUS
  2
DC_GROUP_7
 10
0.0
 20
0.0
 30
0.0
  0
TEXT
  5
448
  8
0
 62
     5
 10
230.1198550808603
 20
57.97774655870388
 30
0.0
 40
2.900000095367432
  1
F MAX   33KN
 50
120.0
 41
1.054848850532506
  7
DCSTYLE1
 72
     5
 11
212.4209977138216
 21
88.63306675432966
 31
0.0
  0
TEXT
  5
449
  8
0
 62
     5
 10
234.4499789822275
 20
60.47774655870388
 30
0.0
 40
2.900000095367432
  1
ΣS MAX  37KN
 50
120.0
 41
1.059207730080161
  7
DCSTYLE1
 72
     5
 11
216.7511216151888
 21
91.13306675432966
 31
0.0
  0
TEXT
  5
44A
  8
0
 62
     5
 10
238.7801028835947
 20
62.97774655870388
 30
0.0
 40
2.900000095367432
  1
N MAX 2000 AT ΣS MAX
 50
120.0
 41
1.078454297564628
  7
DCSTYLE1
 72
     5
 11
208.9942213046724
 21
114.5684068016271
 31
0.0
  0
TEXT
  5
44B
  8
0
 62
     5
 10
85.21380649562721
 20
-98.29597705218583
 30
0.0
 40
5.0
  1
NIKKO
 41
1.08791221838731
  7
DCSTYLE1
 72
     5
 11
108.7852378940189
 21
-98.29597705218583
 31
0.0
  0
TEXT
  5
44C
  8
0
 62
     5
 10
116.5709342813099
 20
-97.79597705218583
 30
0.0
 40
4.0
  1
 GO3-12
 41
0.9591837780816215
  7
DCSTYLE1
 72
     5
 11
143.4280800675953
 21
-97.79597705218583
 31
0.0
  0
TEXT
  5
44D
  8
0
 62
     5
 10
116.9280774449909
 20
-104.2959770521858
 30
0.0
 40
3.0
  1
 0001
 41
1.076086987619815
  7
DCSTYLE1
 72
     5
 11
131.0709349965656
 21
-104.2959770521858
 31
0.0
  0
INSERT
  5
44E
  8
0
  6
CONTINUOUS
  2
DC_GROUP_1
 10
0.0
 20
0.0
 30
0.0
  0
INSERT
  5
44F
  8
0
  6
CONTINUOUS
  2
DC_IMAGEDIMGROUP_21
 10
0.0
 20
0.0
 30
0.0
  0
INSERT
  5
450
  8
0
  6
CONTINUOUS
  2
DC_IMAGEDIMGROUP_22
 10
0.0
 20
0.0
 30
0.0
  0
INSERT
  5
451
  8
0
  6
CONTINUOUS
  2
DC_GROUP_4
 10
0.0
 20
0.0
 30
0.0
  0
INSERT
  5
452
  8
0
  6
CONTINUOUS
  2
DC_IMAGEDIMGROUP_23
 10
0.0
 20
0.0
 30
0.0
  0
INSERT
  5
453
  8
0
  6
CONTINUOUS
  2
DC_GROUP_5
 10
0.0
 20
0.0
 30
0.0
  0
INSERT
  5
454
  8
0
  6
CONTINUOUS
  2
DC_IMAGEDIMGROUP_24
 10
0.0
 20
0.0
 30
0.0
  0
INSERT
  5
455
  8
0
  6
CONTINUOUS
  2
DC_IMAGEDIMGROUP_30
 10
0.0
 20
0.0
 30
0.0
  0
INSERT
  5
456
  8
0
  6
CONTINUOUS
  2
DC_IMAGEDIMGROUP_31
 10
0.0
 20
0.0
 30
0.0
  0
INSERT
  5
457
  8
0
  6
CONTINUOUS
  2
DC_IMAGEDIMGROUP_32
 10
0.0
 20
0.0
 30
0.0
  0
INSERT
  5
458
  8
0
  6
CONTINUOUS
  2
DC_GROUP_8
 10
0.0
 20
0.0
 30
0.0
  0
CIRCLE
  5
459
  8
0
  6
CONTINUOUS
 62
     3
 10
113.9994655952611
 20
61.70400046388865
 30
0.0
 40
3.0
  0
CIRCLE
  5
45A
  8
0
  6
CONTINUOUS
 62
     3
 10
113.9994655952611
 20
61.70400046388865
 30
0.0
 40
3.0
  0
CIRCLE
  5
45B
  8
0
  6
CONTINUOUS
 62
     3
 10
113.9995168334306
 20
22.20400046388865
 30
0.0
 40
35.0
  0
CIRCLE
  5
45C
  8
0
  6
CONTINUOUS
 62
     3
 10
148.2075459020006
 20
2.454044837445096
 30
0.0
 40
3.0
  0
CIRCLE
  5
45D
  8
0
  6
CONTINUOUS
 62
     3
 10
148.2075459020006
 20
2.454044837445096
 30
0.0
 40
3.0
  0
CIRCLE
  5
45E
  8
0
  6
CONTINUOUS
 62
     3
 10
79.79153900303001
 20
2.453956090332198
 30
0.0
 40
2.999999999999999
  0
CIRCLE
  5
45F
  8
0
  6
CONTINUOUS
 62
     3
 10
79.79153900303001
 20
2.453956090332198
 30
0.0
 40
2.999999999999999
  0
TEXT
  5
460
  8
0
 62
     7
 10
256.7888669335077
 20
-143.3819982773465
 30
0.0
 40
3.0
  1
標　準
 41
0.9882352941176457
  7
DCSTYLE1
 72
     5
 11
263.9888669335077
 21
-143.3819982773465
 31
0.0
  0
TEXT
  5
461
  8
0
 62
     7
 10
-230.7140024321943
 20
167.9405719209975
 30
0.0
 40
4.0
  1
MIN-2.7
 41
0.9259842519685042
  7
DCSTYLE1
 72
     5
 11
-208.3140024321943
 21
167.9405719209975
 31
0.0
  0
TEXT
  5
462
  8
0
 62
     7
 10
-194.911854098122
 20
-147.2935535781372
 30
0.0
 40
4.0
  1
MIN29.3
 41
0.9719008264462813
  7
DCSTYLE1
 72
     5
 11
-172.511854098122
 21
-147.2935535781372
 31
0.0
  0
TEXT
  5
463
  8
0
 62
     7
 10
-44.5138589995771
 20
40.96298937094865
 30
0.0
 40
4.0
  1
MIN47.5
 50
90.0
 41
0.9719008264462813
  7
DCSTYLE1
 72
     5
 11
-44.5138589995771
 21
63.36298937094865
 31
0.0
  0
LINE
  5
464
  8
0
  6
DASHED2
 62
     7
 10
-116.6250955718427
 20
-34.64595304238143
 30
0.0
 11
-95.62509557184272
 21
-34.64595304238143
 31
0.0
  0
LINE
  5
465
  8
0
  6
DASHED2
 62
     7
 10
-116.6250955718427
 20
-40.94595609413924
 30
0.0
 11
-95.62509557184272
 21
-40.94595609413924
 31
0.0
  0
LINE
  5
466
  8
0
  6
DASHED2
 62
     7
 10
-111.6250955718427
 20
-33.79595456826033
 30
0.0
 11
-95.62509557184272
 21
-33.79595456826033
 31
0.0
  0
LINE
  5
467
  8
0
  6
DASHED2
 62
     7
 10
-111.6250955718427
 20
-41.79595456826033
 30
0.0
 11
-95.62509557184272
 21
-41.79595456826033
 31
0.0
  0
LINE
  5
468
  8
0
  6
DASHED2
 62
     7
 10
-111.6250955718427
 20
-33.79595456826033
 30
0.0
 11
-111.6250955718427
 21
-41.79595456826033
 31
0.0
  0
LINE
  5
469
  8
0
  6
DASHED2
 62
     7
 10
-116.6250955718427
 20
-34.64595304238143
 30
0.0
 11
-116.6250955718427
 21
-40.94595609413924
 31
0.0
  0
LINE
  5
46A
  8
0
  6
DASHED2
 62
     7
 10
-118.4437842961569
 20
-37.79594634407673
 30
0.0
 11
-116.6251271579693
 21
-34.64594021123518
 31
0.0
  0
LINE
  5
46B
  8
0
  6
DASHED2
 62
     7
 10
-118.4437715008764
 20
-37.79596311967865
 30
0.0
 11
-116.6251143626889
 21
-40.94596925252021
 31
0.0
  0
LINE
  5
46C
  8
0
  6
DASHED2
 62
     7
 10
-156.125090547302
 20
-82.79595314118353
 30
0.0
 11
-151.1250942368855
 21
-79.9092038736054
 31
0.0
  0
LINE
  5
46D
  8
0
  6
DASHED2
 62
     7
 10
-156.1250955718427
 20
-82.79595456826033
 30
0.0
 11
-146.1250955718427
 21
-82.79595456826033
 31
0.0
  0
LINE
  5
46E
  8
0
  6
DASHED2
 62
     7
 10
-146.1251026977928
 20
-82.79595994583875
 30
0.0
 11
-151.1251056154587
 21
-79.90920686356336
 31
0.0
  0
LINE
  5
46F
  8
0
  6
DASHED2
 62
     7
 10
-157.1250955718427
 20
-89.79595456826033
 30
0.0
 11
-145.1250955718427
 21
-89.79595456826033
 31
0.0
  0
LINE
  5
470
  8
0
  6
DASHED2
 62
     7
 10
-145.1250955718427
 20
-89.79595456826033
 30
0.0
 11
-145.1250955718427
 21
-117.6673229764635
 31
0.0
  0
LINE
  5
471
  8
0
  6
DASHED2
 62
     7
 10
-157.1250955718427
 20
-89.79595456826033
 30
0.0
 11
-157.1250955718427
 21
-117.6673229764635
 31
0.0
  0
LINE
  5
472
  8
0
  6
DASHED2
 62
     7
 10
-146.1250955718427
 20
-82.79595456826033
 30
0.0
 11
-146.1250955718427
 21
-117.6673229764635
 31
0.0
  0
LINE
  5
473
  8
0
  6
DASHED2
 62
     7
 10
-156.1250955718427
 20
-82.79595456826033
 30
0.0
 11
-156.1250955718427
 21
-117.6673229764635
 31
0.0
  0
LINE
  5
474
  8
0
  6
DIVIDE
 62
     9
 10
-228.6250803130537
 20
-49.62095914589705
 30
0.0
 11
-186.0282584670385
 21
-49.62095914589705
 31
0.0
  0
LINE
  5
475
  8
0
  6
DIVIDE
 62
     9
 10
-228.6250803130537
 20
-39.32095609413924
 30
0.0
 11
-185.237586606338
 21
-39.32095609413924
 31
0.0
  0
LINE
  5
476
  8
0
  6
DIVIDE
 62
     9
 10
-228.6250803130537
 20
-50.47095762001815
 30
0.0
 11
-184.5921580808364
 21
-50.47095762001815
 31
0.0
  0
LINE
  5
477
  8
0
  6
DIVIDE
 62
     9
 10
-228.6250803130537
 20
-38.47095762001815
 30
0.0
 11
-186.6231310881408
 21
-38.47095762001815
 31
0.0
  0
LINE
  5
478
  8
0
  6
DIVIDE
 62
     9
 10
-228.6250803130537
 20
-38.47095762001815
 30
0.0
 11
-228.6250803130537
 21
-50.47095762001815
 31
0.0
  0
LINE
  5
479
  8
0
  6
DIVIDE
 62
     9
 10
-208.8250925200849
 20
72.20404543173967
 30
0.0
 11
-208.8250925200849
 21
29.85765756858049
 31
0.0
  0
LINE
  5
47A
  8
0
  6
DIVIDE
 62
     9
 10
-110.8250772612958
 20
72.20404543173967
 30
0.0
 11
-110.8250772612958
 21
29.85765756858049
 31
0.0
  0
LINE
  5
47B
  8
0
  6
DIVIDE
 62
     9
 10
-207.8250895031455
 20
73.20403661102895
 30
0.0
 11
-208.825090564735
 21
72.20403554943945
 31
0.0
  0
LINE
  5
47C
  8
0
  6
DIVIDE
 62
     9
 10
-111.8250590716072
 20
73.20405144671938
 30
0.0
 11
-110.8250580100177
 21
72.20405038512988
 31
0.0
  0
LINE
  5
47D
  8
0
  6
DIVIDE
 62
     9
 10
-122.2873880523115
 20
73.20404543173967
 30
0.0
 11
-111.8250772612958
 21
73.20404543173967
 31
0.0
  0
LINE
  5
47E
  8
LAYER0014
  6
CONTINUOUS
 62
     7
 10
-206.1250803130537
 20
173.2555133272475
 30
0.0
 11
-232.1997894182002
 21
173.2555133272475
 31
0.0
  0
LINE
  5
47F
  8
LAYER0014
  6
CONTINUOUS
 62
     7
 10
-191.8250925200849
 20
74.74404543173966
 30
0.0
 11
-191.8250925200849
 21
175.5415088106459
 31
0.0
  0
LINE
  5
480
  8
LAYER0014
  6
CONTINUOUS
 62
     7
 10
-206.1250803130537
 20
152.2440454317397
 30
0.0
 11
-206.1250803130537
 21
175.5415088106459
 31
0.0
  0
LINE
  5
481
  8
LAYER0014
  6
CONTINUOUS
 62
     7
 10
-191.8250925200849
 20
173.2555133272475
 30
0.0
 11
-206.1250803130537
 21
173.2555133272475
 31
0.0
  0
INSERT
  5
482
  8
LAYER0014
 62
     7
  2
_OPEN30
 10
-191.8250925200849
 20
173.2555133272475
 30
0.0
 41
2.499995396844351
 42
2.500007167085477
 50
360.0
  0
INSERT
  5
483
  8
LAYER0014
 62
     7
  2
_OPEN30
 10
-206.1250803130537
 20
173.2555133272475
 30
0.0
 41
2.499995396844351
 42
2.500007167085477
 50
180.0
  0
TEXT
  5
484
  8
LAYER0014
 62
     7
 10
-230.7876352446943
 20
174.8555133272475
 30
0.0
 40
4.0
  1
MAX32.3
 41
0.9116279069767432
  7
DCSTYLE1
 72
     5
 11
-208.3876352446943
 21
174.8555133272475
 31
0.0
  0
LINE
  5
485
  8
LAYER0014
  6
CONTINUOUS
 62
     7
 10
-128.8250772612959
 20
5.362797873145912
 30
0.0
 11
-122.7794382232099
 21
5.362797873145912
 31
0.0
  0
LINE
  5
486
  8
LAYER0014
  6
CONTINUOUS
 62
     7
 10
-95.62509557184272
 20
-4.37585721718612
 30
0.0
 11
-82.40346166070991
 21
-4.37585721718612
 31
0.0
  0
VIEWPORT
  5
B3
 67
     1
  8
0
 10
0.0
 20
0.0
 30
0.0
 40
1662.0
 41
1140.0
 68
     1
 69
     1
1001
ACAD
1000
MVIEW
1002
{
1070
    16
1010
0.0
1020
0.0
1030
0.0
1010
0.0
1020
0.0
1030
1.0
1040
0.0
1040
1140.0
1040
0.0
1040
0.0
1040
50.0
1040
0.0
1040
0.0
1070
     0
1070
   100
1070
     0
1070
     3
1070
     0
1070
     0
1070
     0
1070
     0
1040
0.0
1040
0.0
1040
0.0
1040
0.5
1040
0.5
1040
0.0
1040
0.0
1070
     0
1002
{
1002
}
1002
}
  0
ENDSEC
  0
EOF
