  0
SECTION
  2
HEADER
  9
$ACADVER
  1
AC1009
  9
$DWGCODEPAGE
  3
ansi_932
  9
$INSBASE
 10
0.0
 20
0.0
 30
0.0
  9
$EXTMIN
 10
-1669.20189354449
 20
-1140.0
 30
0.0
  9
$EXTMAX
 10
1654.79810645551
 20
1140.0
 30
0.0
  9
$LIMMIN
 10
-594.5
 20
-420.5
  9
$LIMMAX
 10
594.5
 20
420.5
  9
$ORTHOMODE
 70
     0
  9
$REGENMODE
 70
     1
  9
$FILLMODE
 70
     1
  9
$QTEXTMODE
 70
     0
  9
$MIRRTEXT
 70
     1
  9
$DRAGMODE
 70
     2
  9
$LTSCALE
 40
1.0
  9
$OSMODE
 70
    37
  9
$ATTMODE
 70
     1
  9
$TEXTSIZE
 40
0.2
  9
$TRACEWID
 40
0.05
  9
$TEXTSTYLE
  7
STANDARD
  9
$CLAYER
  8
0
  9
$CELTYPE
  6
BYLAYER
  9
$CECOLOR
 62
   256
  9
$DIMSCALE
 40
1.0
  9
$DIMASZ
 40
2.5
  9
$DIMEXO
 40
0.0625
  9
$DIMDLI
 40
0.38
  9
$DIMRND
 40
0.0
  9
$DIMDLE
 40
0.0
  9
$DIMEXE
 40
0.18
  9
$DIMTP
 40
0.0
  9
$DIMTM
 40
0.0
  9
$DIMTXT
 40
0.18
  9
$DIMCEN
 40
0.09
  9
$DIMTSZ
 40
0.0
  9
$DIMTOL
 70
     0
  9
$DIMLIM
 70
     0
  9
$DIMTIH
 70
     1
  9
$DIMTOH
 70
     1
  9
$DIMSE1
 70
     0
  9
$DIMSE2
 70
     0
  9
$DIMTAD
 70
     3
  9
$DIMZIN
 70
     0
  9
$DIMBLK
  1

  9
$DIMASO
 70
     1
  9
$DIMSHO
 70
     1
  9
$DIMPOST
  1

  9
$DIMAPOST
  1

  9
$DIMALT
 70
     0
  9
$DIMALTD
 70
     2
  9
$DIMALTF
 40
25.4
  9
$DIMLFAC
 40
1.0
  9
$DIMTOFL
 70
     0
  9
$DIMTVP
 40
0.0
  9
$DIMTIX
 70
     0
  9
$DIMSOXD
 70
     0
  9
$DIMSAH
 70
     0
  9
$DIMBLK1
  1

  9
$DIMBLK2
  1

  9
$DIMSTYLE
  2
STANDARD
  9
$DIMCLRD
 70
     0
  9
$DIMCLRE
 70
     0
  9
$DIMCLRT
 70
     0
  9
$DIMTFAC
 40
1.0
  9
$DIMGAP
 40
0.09
  9
$LUNITS
 70
     2
  9
$LUPREC
 70
     4
  9
$SKETCHINC
 40
0.1
  9
$FILLETRAD
 40
0.5
  9
$AUNITS
 70
     0
  9
$AUPREC
 70
     0
  9
$MENU
  1
.
  9
$ELEVATION
 40
0.0
  9
$PELEVATION
 40
0.0
  9
$THICKNESS
 40
0.0
  9
$LIMCHECK
 70
     0
  9
$CHAMFERA
 40
0.5
  9
$CHAMFERB
 40
0.5
  9
$SKPOLY
 70
     0
  9
$TDCREATE
 40
2456329.575231933
  9
$TDUPDATE
 40
2456329.575231945
  9
$TDINDWG
 40
0.0000000116
  9
$TDUSRTIMER
 40
0.0000000116
  9
$USRTIMER
 70
     1
  9
$ANGBASE
 50
0.0
  9
$ANGDIR
 70
     0
  9
$PDMODE
 70
     0
  9
$PDSIZE
 40
1.0
  9
$PLINEWID
 40
0.0
  9
$COORDS
 70
     1
  9
$SPLFRAME
 70
     0
  9
$SPLINETYPE
 70
     6
  9
$SPLINESEGS
 70
     8
  9
$ATTDIA
 70
     0
  9
$ATTREQ
 70
     1
  9
$HANDLING
 70
     1
  9
$HANDSEED
  5
562
  9
$SURFTAB1
 70
     6
  9
$SURFTAB2
 70
     6
  9
$SURFTYPE
 70
     6
  9
$SURFU
 70
     6
  9
$SURFV
 70
     6
  9
$UCSNAME
  2

  9
$UCSORG
 10
0.0
 20
0.0
 30
0.0
  9
$UCSXDIR
 10
1.0
 20
0.0
 30
0.0
  9
$UCSYDIR
 10
0.0
 20
1.0
 30
0.0
  9
$PUCSNAME
  2

  9
$PUCSORG
 10
0.0
 20
0.0
 30
0.0
  9
$PUCSXDIR
 10
1.0
 20
0.0
 30
0.0
  9
$PUCSYDIR
 10
0.0
 20
1.0
 30
0.0
  9
$USERI1
 70
     0
  9
$USERI2
 70
     0
  9
$USERI3
 70
     0
  9
$USERI4
 70
     0
  9
$USERI5
 70
     0
  9
$USERR1
 40
0.0
  9
$USERR2
 40
0.0
  9
$USERR3
 40
0.0
  9
$USERR4
 40
0.0
  9
$USERR5
 40
0.0
  9
$WORLDVIEW
 70
     1
  9
$SHADEDGE
 70
     3
  9
$SHADEDIF
 70
    70
  9
$TILEMODE
 70
     1
  9
$MAXACTVP
 70
    64
  9
$PLIMCHECK
 70
     0
  9
$PEXTMIN
 10
1.000000000000000E+20
 20
1.000000000000000E+20
 30
1.000000000000000E+20
  9
$PEXTMAX
 10
-1.000000000000000E+20
 20
-1.000000000000000E+20
 30
-1.000000000000000E+20
  9
$PLIMMIN
 10
0.0
 20
0.0
  9
$PLIMMAX
 10
12.0
 20
9.0
  9
$UNITMODE
 70
     0
  9
$VISRETAIN
 70
     0
  9
$PLINEGEN
 70
     1
  9
$PSLTSCALE
 70
     0
  0
ENDSEC
  0
SECTION
  2
TABLES
  0
TABLE
  2
VPORT
 70
     1
  0
VPORT
  2
*ACTIVE
 70
     0
 10
0.0
 20
0.0
 11
1.0
 21
1.0
 12
0.0
 22
0.0
 13
0.0
 23
0.0
 14
0.5
 24
0.5
 15
0.5
 25
0.5
 16
0.0
 26
0.0
 36
1.0
 17
-7.201893544489852
 27
0.0
 37
0.0
 40
775.1999999999998
 41
1.457894736842106
 42
50.0
 43
0.0
 44
0.0
 50
0.0
 51
0.0
 71
     0
 72
  1000
 73
     1
 74
     1
 75
     0
 76
     0
 77
     0
 78
     0
  0
ENDTAB
  0
TABLE
  2
LTYPE
 70
    28
  0
LTYPE
  2
CONTINUOUS
 70
     0
  3
Solid line
 72
    65
 73
     0
 40
0.0
  0
LTYPE
  2
HIDDENX2
 70
     0
  3
CADPAC LINETYPE
 72
    65
 73
     2
 40
20.63803680981596
 49
15.47852760736197
 49
-5.15950920245399
  0
LTYPE
  2
HIDDEN
 70
     0
  3
CADPAC LINETYPE
 72
    65
 73
     2
 40
15.47852760736197
 49
10.31901840490798
 49
-5.15950920245399
  0
LTYPE
  2
HIDDEN2
 70
     0
  3
CADPAC LINETYPE
 72
    65
 73
     2
 40
12.89877300613497
 49
7.739263803680984
 49
-5.15950920245399
  0
LTYPE
  2
DASHED
 70
     0
  3
CADPAC LINETYPE
 72
    65
 73
     2
 40
14.44662576687119
 49
10.31901840490798
 49
-4.127607361963214
  0
LTYPE
  2
DASHED2
 70
     0
  3
CADPAC LINETYPE
 72
    65
 73
     2
 40
9.287116564417147
 49
6.191411042944765
 49
-3.095705521472382
  0
LTYPE
  2
DASHEDX2
 70
     0
  3
CADPAC LINETYPE
 72
    65
 73
     2
 40
24.76564417177917
 49
20.63803680981596
 49
-4.127607361963214
  0
LTYPE
  2
DOTX2
 70
     0
  3
CADPAC LINETYPE
 72
    65
 73
     2
 40
9.029141104294496
 49
0.0
 49
-9.029141104294496
  0
LTYPE
  2
DOT
 70
     0
  3
CADPAC LINETYPE
 72
    65
 73
     2
 40
7.223312883435597
 49
0.0
 49
-7.223312883435597
  0
LTYPE
  2
DOT2
 70
     0
  3
CADPAC LINETYPE
 72
    65
 73
     2
 40
5.417484662576698
 49
0.0
 49
-5.417484662576698
  0
LTYPE
  2
CENTERX2
 70
     0
  3
CADPAC LINETYPE
 72
    65
 73
     4
 40
30.95705521472394
 49
12.89877300613497
 49
-6.449386503067487
 49
5.15950920245399
 49
-6.449386503067487
  0
LTYPE
  2
CENTER
 70
     0
  3
CADPAC LINETYPE
 72
    65
 73
     4
 40
23.73374233128835
 49
10.31901840490798
 49
-5.15950920245399
 49
3.095705521472393
 49
-5.15950920245399
  0
LTYPE
  2
CENTER2
 70
     0
  3
CADPAC LINETYPE
 72
    65
 73
     4
 40
16.51042944785277
 49
7.739263803680984
 49
-3.869631901840492
 49
1.031901840490798
 49
-3.869631901840492
  0
LTYPE
  2
DASHDOTX2
 70
     0
  3
CADPAC LINETYPE
 72
    65
 73
     4
 40
49.53128834355846
 49
24.76564417177917
 49
-8.255214723926429
 49
8.255214723926429
 49
-8.255214723926429
  0
LTYPE
  2
DASHDOT
 70
     0
  3
CADPAC LINETYPE
 72
    65
 73
     4
 40
24.76564417177929
 49
12.38282208588964
 49
-4.127607361963214
 49
4.127607361963214
 49
-4.127607361963214
  0
LTYPE
  2
DASHDOT2
 70
     0
  3
CADPAC LINETYPE
 72
    65
 73
     4
 40
15.89128834355838
 49
9.287116564417232
 49
-3.095705521472411
 49
0.4127607361963215
 49
-3.095705521472411
  0
LTYPE
  2
DIVIDEX2
 70
     0
  3
CADPAC LINETYPE
 72
    65
 73
     6
 40
66.04171779141132
 49
24.76564417177917
 49
-8.255214723926429
 49
8.255214723926429
 49
-8.255214723926429
 49
8.255214723926429
 49
-8.255214723926429
  0
LTYPE
  2
DIVIDE
 70
     0
  3
CADPAC LINETYPE
 72
    65
 73
     6
 40
33.02085889570572
 49
12.38282208588964
 49
-4.127607361963214
 49
4.127607361963214
 49
-4.127607361963214
 49
4.127607361963214
 49
-4.127607361963214
  0
LTYPE
  2
DIVIDE2
 70
     0
  3
CADPAC LINETYPE
 72
    65
 73
     6
 40
24.76564417177929
 49
9.287116564417232
 49
-3.095705521472411
 49
3.095705521472411
 49
-3.095705521472411
 49
3.095705521472411
 49
-3.095705521472411
  0
LTYPE
  2
BORDERX2
 70
     0
  3
CADPAC LINETYPE
 72
    65
 73
     6
 40
45.14570552147241
 49
12.89877300613497
 49
-6.449386503067487
 49
12.89877300613497
 49
-6.449386503067487
 49
0.0
 49
-6.449386503067487
  0
LTYPE
  2
BORDER
 70
     0
  3
CADPAC LINETYPE
 72
    65
 73
     6
 40
36.11656441717793
 49
10.31901840490798
 49
-5.15950920245399
 49
10.31901840490798
 49
-5.15950920245399
 49
0.0
 49
-5.15950920245399
  0
LTYPE
  2
BORDER2
 70
     0
  3
CADPAC LINETYPE
 72
    65
 73
     6
 40
26.82944785276067
 49
8.255214723926429
 49
-5.159509202453933
 49
3.095705521472382
 49
-5.159509202453933
 49
0.0
 49
-5.15950920245399
  0
LTYPE
  2
PHANTOMX2
 70
     0
  3
CADPAC LINETYPE
 72
    65
 73
     6
 40
38.69631901840492
 49
12.89877300613497
 49
-5.15950920245399
 49
5.15950920245399
 49
-5.15950920245399
 49
5.15950920245399
 49
-5.15950920245399
  0
LTYPE
  2
PHANTOM
 70
     0
  3
CADPAC LINETYPE
 72
    65
 73
     6
 40
31.98895705521473
 49
10.31901840490798
 49
-5.15950920245399
 49
3.095705521472393
 49
-5.15950920245399
 49
3.095705521472393
 49
-5.15950920245399
  0
LTYPE
  2
PHANTOM2
 70
     0
  3
CADPAC LINETYPE
 72
    65
 73
     6
 40
27.34539877300615
 49
7.739263803680984
 49
-5.15950920245399
 49
2.063803680981596
 49
-5.15950920245399
 49
2.063803680981596
 49
-5.15950920245399
  0
LTYPE
  2
ACAD_ISO06W100
 70
     0
  3
CADPAC LINETYPE
 72
    65
 73
     8
 40
54.69079754601205
 49
24.76564417177917
 49
-5.159509202453933
 49
3.095705521472382
 49
-5.159509202453933
 49
3.095705521472382
 49
-5.159509202453933
 49
3.095705521472382
 49
-5.159509202453933
  0
LTYPE
  2
ACAD_ISO13W100
 70
     0
  3
CADPAC LINETYPE
 72
    65
 73
     8
 40
41.27607361963192
 49
10.31901840490798
 49
-5.15950920245399
 49
10.31901840490798
 49
-5.15950920245399
 49
0.0
 49
-5.15950920245399
 49
0.0
 49
-5.15950920245399
  0
LTYPE
  2
ACAD_ISO14W100
 70
     0
  3
CADPAC LINETYPE
 72
    65
 73
     8
 40
30.95705521472394
 49
10.31901840490798
 49
-5.15950920245399
 49
0.0
 49
-5.15950920245399
 49
0.0
 49
-5.15950920245399
 49
0.0
 49
-5.15950920245399
  0
ENDTAB
  0
TABLE
  2
LAYER
 70
     3
  0
LAYER
  2
0
 70
     0
 62
     7
  6
CONTINUOUS
  0
LAYER
  2
LAYER0014
 70
     0
 62
     7
  6
CONTINUOUS
  0
LAYER
  2
LAYER0002
 70
     0
 62
     7
  6
CONTINUOUS
  0
ENDTAB
  0
TABLE
  2
STYLE
 70
     5
  0
STYLE
  2
STANDARD
 70
     0
 40
0.0
 41
1.0
 50
0.0
 71
     0
 42
0.2
  3
txt
  4

  0
STYLE
  2
FDASTYLE1
 70
     0
 40
0.0
 41
0.8791213035583326
 50
0.0
 71
     0
 42
0.2
  3
txt.shx
  4
bigfont
  0
STYLE
  2
FDASTYLE0
 70
     4
 40
0.0
 41
0.8
 50
0.0
 71
     0
 42
0.2
  3
txt.shx
  4
bigfont
  0
STYLE
  2
FDASTYLE2
 70
     0
 40
0.0
 41
0.8123476848090985
 50
0.0
 71
     0
 42
0.2
  3
MSMINCHO.TTC
  4

  0
STYLE
  2
FDASTYLE3
 70
     0
 40
0.0
 41
0.6347897774113767
 50
0.0
 71
     0
 42
0.2
  3
MSGOTHIC.TTC
  4

  0
ENDTAB
  0
TABLE
  2
VIEW
 70
     0
  0
ENDTAB
  0
TABLE
  2
UCS
 70
     0
  0
ENDTAB
  0
TABLE
  2
APPID
 70
     2
  0
APPID
  2
ACAD
 70
     0
  0
APPID
  2
DAFUSIONOUT
 70
     0
  0
ENDTAB
  0
TABLE
  2
DIMSTYLE
 70
     1
  0
DIMSTYLE
  2
STANDARD
 70
     0
  3

  4

  5

  6

  7

 40
1.0
 41
0.18
 42
0.0625
 43
0.38
 44
0.18
 45
0.0
 46
0.0
 47
0.0
 48
0.0
140
0.18
141
0.09
142
0.0
143
25.4
144
1.0
145
0.0
146
1.0
147
0.09
 71
     0
 72
     0
 73
     1
 74
     1
 75
     0
 76
     0
 77
     0
 78
     0
170
     0
171
     2
172
     0
173
     0
174
     0
175
     0
176
     0
177
     0
178
     0
  0
ENDTAB
  0
ENDSEC
  0
SECTION
  2
BLOCKS
  0
BLOCK
  8
0
  2
$MODEL_SPACE
 70
     0
 10
0.0
 20
0.0
 30
0.0
  3
$MODEL_SPACE
  1

  0
ENDBLK
  5
21
  8
0
  0
BLOCK
 67
     1
  8
0
  2
$PAPER_SPACE
 70
     0
 10
0.0
 20
0.0
 30
0.0
  3
$PAPER_SPACE
  1

  0
ENDBLK
  5
1D
 67
     1
  8
0
  0
BLOCK
  8
0
  2
DC_GROUP_1
 70
     0
 10
0.0
 20
0.0
 30
0.0
  3
DC_GROUP_1
  1

  0
LINE
  5
169
  8
LAYER0014
  6
CONTINUOUS
 62
     7
 10
-70.12150145217569
 20
182.2999509230047
 30
0.0
 11
-69.04970238238047
 21
186.299947738266
 31
0.0
  0
LINE
  5
16A
  8
LAYER0014
  6
CONTINUOUS
 62
     7
 10
-69.04970238238047
 20
186.299947738266
 30
0.0
 11
-67.97790331258526
 21
182.2999509230047
 31
0.0
  0
LINE
  5
16B
  8
LAYER0014
  6
CONTINUOUS
 62
     7
 10
-69.04970238238047
 20
186.299947738266
 30
0.0
 11
-69.04970238238047
 21
182.2999509230047
 31
0.0
  0
ENDBLK
  5
4E
  8
0
  0
BLOCK
  8
0
  2
DC_GROUP_2
 70
     0
 10
0.0
 20
0.0
 30
0.0
  3
DC_GROUP_2
  1

  0
LINE
  5
16C
  8
LAYER0014
  6
CONTINUOUS
 62
     7
 10
-152.9349225863137
 20
304.3444183168503
 30
0.0
 11
-148.9349257710524
 21
303.2726192470551
 31
0.0
  0
LINE
  5
16D
  8
LAYER0014
  6
CONTINUOUS
 62
     7
 10
-148.9349257710524
 20
303.2726192470551
 30
0.0
 11
-152.9349225863137
 21
302.2008201772599
 31
0.0
  0
LINE
  5
16E
  8
LAYER0014
  6
CONTINUOUS
 62
     7
 10
-148.9349257710524
 20
303.2726192470551
 30
0.0
 11
-152.9349225863137
 21
303.2726192470551
 31
0.0
  0
ENDBLK
  5
51
  8
0
  0
BLOCK
  8
0
  2
DC_GROUP_3
 70
     0
 10
0.0
 20
0.0
 30
0.0
  3
DC_GROUP_3
  1

  0
LINE
  5
16F
  8
LAYER0014
  6
CONTINUOUS
 62
     7
 10
-154.4349225863137
 20
64.4832122621628
 30
0.0
 11
-150.4349257710524
 21
63.41141319236758
 31
0.0
  0
LINE
  5
170
  8
LAYER0014
  6
CONTINUOUS
 62
     7
 10
-150.4349257710524
 20
63.41141319236758
 30
0.0
 11
-154.4349225863137
 21
62.33961412257236
 31
0.0
  0
LINE
  5
171
  8
LAYER0014
  6
CONTINUOUS
 62
     7
 10
-150.4349257710524
 20
63.41141319236758
 30
0.0
 11
-154.4349225863137
 21
63.41141319236758
 31
0.0
  0
ENDBLK
  5
54
  8
0
  0
BLOCK
  8
0
  2
DC_GROUP_4
 70
     0
 10
0.0
 20
0.0
 30
0.0
  3
DC_GROUP_4
  1

  0
LINE
  5
172
  8
LAYER0014
  6
CONTINUOUS
 62
     7
 10
-203.5724958285012
 20
77.49011686421358
 30
0.0
 11
-199.5724990132399
 21
76.41831779441836
 31
0.0
  0
LINE
  5
173
  8
LAYER0014
  6
CONTINUOUS
 62
     7
 10
-199.5724990132399
 20
76.41831779441836
 30
0.0
 11
-203.5724958285012
 21
75.34651872462314
 31
0.0
  0
LINE
  5
174
  8
LAYER0014
  6
CONTINUOUS
 62
     7
 10
-199.5724990132399
 20
76.41831779441836
 30
0.0
 11
-203.5724958285012
 21
76.41831779441836
 31
0.0
  0
ENDBLK
  5
57
  8
0
  0
BLOCK
  8
0
  2
DC_GROUP_5
 70
     0
 10
0.0
 20
0.0
 30
0.0
  3
DC_GROUP_5
  1

  0
LINE
  5
175
  8
LAYER0014
  6
CONTINUOUS
 62
     7
 10
-67.97790331258526
 20
209.2999445535273
 30
0.0
 11
-69.04970238238047
 21
205.299947738266
 31
0.0
  0
LINE
  5
176
  8
LAYER0014
  6
CONTINUOUS
 62
     7
 10
-69.04970238238047
 20
205.299947738266
 30
0.0
 11
-70.12150145217569
 21
209.2999445535273
 31
0.0
  0
LINE
  5
177
  8
LAYER0014
  6
CONTINUOUS
 62
     7
 10
-69.04970238238047
 20
205.299947738266
 30
0.0
 11
-69.04970238238047
 21
209.2999445535273
 31
0.0
  0
ENDBLK
  5
5A
  8
0
  0
BLOCK
  8
0
  2
DC_GROUP_6
 70
     0
 10
0.0
 20
0.0
 30
0.0
  3
DC_GROUP_6
  1

  0
LINE
  5
178
  8
LAYER0014
  6
CONTINUOUS
 62
     7
 10
-143.934928955791
 20
302.2008201772599
 30
0.0
 11
-147.9349257710524
 21
303.2726192470551
 31
0.0
  0
LINE
  5
179
  8
LAYER0014
  6
CONTINUOUS
 62
     7
 10
-147.9349257710524
 20
303.2726192470551
 30
0.0
 11
-143.934928955791
 21
304.3444183168503
 31
0.0
  0
LINE
  5
17A
  8
LAYER0014
  6
CONTINUOUS
 62
     7
 10
-147.9349257710524
 20
303.2726192470551
 30
0.0
 11
-143.934928955791
 21
303.2726192470551
 31
0.0
  0
ENDBLK
  5
5D
  8
0
  0
BLOCK
  8
0
  2
DC_GROUP_7
 70
     0
 10
0.0
 20
0.0
 30
0.0
  3
DC_GROUP_7
  1

  0
LINE
  5
17B
  8
LAYER0014
  6
CONTINUOUS
 62
     7
 10
-143.934928955791
 20
62.33961412257236
 30
0.0
 11
-147.9349257710524
 21
63.41141319236758
 31
0.0
  0
LINE
  5
17C
  8
LAYER0014
  6
CONTINUOUS
 62
     7
 10
-147.9349257710524
 20
63.41141319236758
 30
0.0
 11
-143.934928955791
 21
64.4832122621628
 31
0.0
  0
LINE
  5
17D
  8
LAYER0014
  6
CONTINUOUS
 62
     7
 10
-147.9349257710524
 20
63.41141319236758
 30
0.0
 11
-143.934928955791
 21
63.41141319236758
 31
0.0
  0
ENDBLK
  5
60
  8
0
  0
BLOCK
  8
0
  2
DC_GROUP_8
 70
     0
 10
0.0
 20
0.0
 30
0.0
  3
DC_GROUP_8
  1

  0
LINE
  5
17E
  8
LAYER0014
  6
CONTINUOUS
 62
     7
 10
-179.5725021979785
 20
75.34651872462312
 30
0.0
 11
-183.5724990132399
 21
76.41831779441836
 31
0.0
  0
LINE
  5
17F
  8
LAYER0014
  6
CONTINUOUS
 62
     7
 10
-183.5724990132399
 20
76.41831779441836
 30
0.0
 11
-179.5725021979785
 21
77.49011686421356
 31
0.0
  0
LINE
  5
180
  8
LAYER0014
  6
CONTINUOUS
 62
     7
 10
-183.5724990132399
 20
76.41831779441836
 30
0.0
 11
-179.5725021979785
 21
76.41831779441834
 31
0.0
  0
ENDBLK
  5
63
  8
0
  0
BLOCK
  8
0
  2
DC_GROUP_9
 70
     0
 10
0.0
 20
0.0
 30
0.0
  3
DC_GROUP_9
  1

  0
CIRCLE
  5
181
  8
LAYER0014
  6
CONTINUOUS
 62
     7
 10
-185.5724990132399
 20
76.41831779441836
 30
0.0
 40
2.0
  0
LINE
  5
182
  8
LAYER0014
  6
CONTINUOUS
 62
     7
 10
-187.5724990132399
 20
76.41831779441836
 30
0.0
 11
-189.5724990132399
 21
76.41831779441836
 31
0.0
  0
ENDBLK
  5
66
  8
0
  0
BLOCK
  8
0
  2
DC_GROUP_10
 70
     0
 10
0.0
 20
0.0
 30
0.0
  3
DC_GROUP_10
  1

  0
LINE
  5
183
  8
LAYER0014
  6
CONTINUOUS
 62
     7
 10
-262.5724958285012
 20
304.5658538637254
 30
0.0
 11
-258.5724990132399
 21
303.4940547939301
 31
0.0
  0
LINE
  5
184
  8
LAYER0014
  6
CONTINUOUS
 62
     7
 10
-258.5724990132399
 20
303.4940547939301
 30
0.0
 11
-262.5724958285012
 21
302.4222557241349
 31
0.0
  0
LINE
  5
185
  8
LAYER0014
  6
CONTINUOUS
 62
     7
 10
-258.5724990132399
 20
303.4940547939301
 30
0.0
 11
-262.5724958285012
 21
303.4940547939301
 31
0.0
  0
ENDBLK
  5
69
  8
0
  0
BLOCK
  8
0
  2
DC_GROUP_11
 70
     0
 10
0.0
 20
0.0
 30
0.0
  3
DC_GROUP_11
  1

  0
LINE
  5
186
  8
LAYER0014
  6
CONTINUOUS
 62
     7
 10
-272.9349289557911
 20
302.4222557241349
 30
0.0
 11
-276.9349257710524
 21
303.4940547939301
 31
0.0
  0
LINE
  5
187
  8
LAYER0014
  6
CONTINUOUS
 62
     7
 10
-276.9349257710524
 20
303.4940547939301
 30
0.0
 11
-272.9349289557911
 21
304.5658538637254
 31
0.0
  0
LINE
  5
188
  8
LAYER0014
  6
CONTINUOUS
 62
     7
 10
-276.9349257710524
 20
303.4940547939301
 30
0.0
 11
-272.9349289557911
 21
303.4940547939301
 31
0.0
  0
ENDBLK
  5
6C
  8
0
  0
BLOCK
  8
0
  2
DC_GROUP_12
 70
     0
 10
0.0
 20
0.0
 30
0.0
  3
DC_GROUP_12
  1

  0
LINE
  5
189
  8
0
  6
CONTINUOUS
 62
     5
 10
293.4094671202822
 20
-45.67393969211005
 30
0.0
 11
287.4154594212691
 21
-45.67393969211007
 31
0.0
  0
LINE
  5
18A
  8
0
  6
CONTINUOUS
 62
     5
 10
292.4105114313734
 20
-46.67292238508185
 30
0.0
 11
293.409505234698
 21
-45.6739283291306
 31
0.0
  0
LINE
  5
18B
  8
0
  6
CONTINUOUS
 62
     5
 10
292.4104148949336
 20
-44.67497520927755
 30
0.0
 11
293.4094234910456
 21
-45.67398321591878
 31
0.0
  0
LINE
  5
18C
  8
0
  6
CONTINUOUS
 62
     5
 10
287.4153754792611
 20
-45.67401103310679
 30
0.0
 11
288.4143840753729
 21
-46.67301903974811
 31
0.0
  0
LINE
  5
18D
  8
0
  6
CONTINUOUS
 62
     5
 10
287.4155012363576
 20
-45.67394615345543
 30
0.0
 11
288.414509411419
 21
-44.67493772576367
 31
0.0
  0
LINE
  5
18E
  8
0
  6
CONTINUOUS
 62
     5
 10
294.4084833294078
 20
-35.68392053322494
 30
0.0
 11
294.4084833294078
 21
-55.66391037087125
 31
0.0
  0
LINE
  5
18F
  8
0
  6
CONTINUOUS
 62
     5
 10
301.7705213708973
 20
-48.17245249688685
 30
0.0
 11
301.5649485532655
 21
-46.8745171205936
 31
0.0
  0
LINE
  5
190
  8
0
  6
CONTINUOUS
 62
     5
 10
301.7705297204772
 20
-48.17248703218137
 30
0.0
 11
303.0684449439673
 21
-47.96691715905705
 31
0.0
  0
LINE
  5
191
  8
0
  6
CONTINUOUS
 62
     5
 10
294.4084849172756
 20
-55.66392053322494
 30
0.0
 11
304.3984863163158
 21
-55.66392053322491
 31
0.0
  0
LINE
  5
192
  8
0
  6
CONTINUOUS
 62
     5
 10
304.3984736133738
 20
-35.68390630249655
 30
0.0
 11
304.3984736133738
 21
-55.66390910057703
 31
0.0
  0
LINE
  5
193
  8
0
  6
CONTINUOUS
 62
     5
 10
294.4084833294078
 20
-35.68390630249647
 30
0.0
 11
309.3934762183351
 21
-35.6839063024966
 31
0.0
  0
LINE
  5
194
  8
0
  6
CONTINUOUS
 62
     5
 10
309.393475583188
 20
-35.68390820793789
 30
0.0
 11
309.393475583188
 21
-38.68090824656171
 31
0.0
  0
LINE
  5
195
  8
0
  6
CONTINUOUS
 62
     5
 10
307.8949641312283
 20
-38.68091904406246
 30
0.0
 11
309.3934539881865
 21
-38.68091904406246
 31
0.0
  0
LINE
  5
196
  8
0
  6
CONTINUOUS
 62
     5
 10
307.8949749287291
 20
-38.6809082465617
 30
0.0
 11
307.8949749287291
 21
-40.67890827231092
 31
0.0
  0
LINE
  5
197
  8
0
  6
CONTINUOUS
 62
     5
 10
306.3964768148585
 20
-40.67889683966305
 30
0.0
 11
307.8949768341703
 21
-40.67889683966304
 31
0.0
  0
LINE
  5
198
  8
0
  6
CONTINUOUS
 62
     5
 10
306.396461571328
 20
-40.67892859701821
 30
0.0
 11
306.396461571328
 21
-42.67692862276739
 31
0.0
  0
LINE
  5
199
  8
0
  6
CONTINUOUS
 62
     5
 10
304.3984771066828
 20
-42.67688987879416
 30
0.0
 11
306.3964768148585
 21
-42.67688987879414
 31
0.0
  0
LINE
  5
19A
  8
0
  6
CONTINUOUS
 62
     5
 10
307.5290007706649
 20
-44.67495817360101
 30
0.0
 11
308.5280093667769
 21
-45.67396618024229
 31
0.0
  0
LINE
  5
19B
  8
0
  6
CONTINUOUS
 62
     5
 10
308.5280216001718
 20
-41.73169222428655
 30
0.0
 11
308.5280216001718
 21
-45.67391312261658
 31
0.0
  0
LINE
  5
19C
  8
0
  6
CONTINUOUS
 62
     5
 10
308.5280583249041
 20
-45.67392776488306
 30
0.0
 11
309.5270521282288
 21
-44.67493370893186
 31
0.0
  0
ARC
  5
19D
  8
0
  6
CONTINUOUS
 62
     5
 10
299.2981064555103
 20
-45.70005226173402
 30
0.0
 40
3.496502585649523
 50
315.0000977855037
 51
609.9999500386407
  0
TEXT
  5
19F
  8
0
 62
     5
 10
289.1417398642969
 20
-43.16991106720819
 30
0.0
 40
3.330000042915344
  1
F
 41
0.8791213035583326
  7
FDASTYLE1
 72
     5
 11
292.069213842874
 21
-43.16991106720819
 31
0.0
  0
TEXT
  5
1A0
  8
0
 62
     5
 10
299.5233215200773
 20
-53.1853612227943
 30
0.0
 40
3.330000042915344
  1
N min
 41
0.7983872809842211
  7
FDASTYLE1
 72
     5
 11
312.8164699197799
 21
-53.1853612227943
 31
0.0
  0
TEXT
  5
1A1
  8
0
 62
     5
 10
317.6301958007088
 20
-47.74209148215779
 30
0.0
 40
1.665000021457672
  1
-1
 41
0.7826089106345603
  7
FDASTYLE1
 72
     5
 11
320.2362835067078
 21
-47.74209148215779
 31
0.0
  0
TEXT
  5
1A2
  8
0
 62
     5
 10
310.7977535940111
 20
-45.43756962333002
 30
0.0
 40
3.330000042915344
  1
ΣS
 41
0.8718556116435068
  7
FDASTYLE1
 72
     5
 11
317.1849678872266
 21
-45.43756962333002
 31
0.0
  0
ENDBLK
  5
6F
  8
0
  0
BLOCK
  8
0
  2
DC_GROUP_13
 70
     0
 10
0.0
 20
0.0
 30
0.0
  3
DC_GROUP_13
  1

  0
LINE
  5
1A3
  8
0
  6
CONTINUOUS
 62
     9
 10
264.2981064555104
 20
300.1511016617529
 30
0.0
 11
264.2981064555104
 21
292.2079524990082
 31
0.0
  0
LINE
  5
1A4
  8
0
  6
CONTINUOUS
 62
     9
 10
166.3726674185498
 20
273.912056236613
 30
0.0
 11
193.0607321267578
 21
227.6869785464281
 31
0.0
  0
ARC
  5
1A5
  8
0
  6
CONTINUOUS
 62
     9
 10
264.2981064555104
 20
104.3002437346448
 30
0.0
 40
193.8508579271081
 50
90.0
 51
120.0000034028506
  0
INSERT
  5
1A6
  8
0
  6
HIDDENX2
  2
DC_GROUP_14
 10
0.0
 20
0.0
 30
0.0
  0
INSERT
  5
1A7
  8
0
  6
BORDER
  2
DC_GROUP_15
 10
0.0
 20
0.0
 30
0.0
  0
TEXT
  5
1A8
  8
0
 62
     7
 10
204.3352809480024
 20
290.992980893701
 30
0.0
 40
8.0
  1
30°
 50
15.00000170142533
 41
0.7031249999999998
  7
FDASTYLE1
 72
     5
 11
221.721945682862
 21
295.6517242218516
 31
0.0
  0
ENDBLK
  5
72
  8
0
  0
BLOCK
  8
0
  2
DC_GROUP_14
 70
     0
 10
0.0
 20
0.0
 30
0.0
  3
DC_GROUP_14
  1

  0
LINE
  5
1A9
  8
0
  6
CONTINUOUS
 62
     9
 10
260.2872647538416
 20
299.1815756363242
 30
0.0
 11
264.2981064555104
 21
298.1511016617529
 31
0.0
  0
LINE
  5
1AA
  8
0
  6
CONTINUOUS
 62
     9
 10
264.2981064555104
 20
298.1511016617529
 30
0.0
 11
260.3093803013561
 21
297.0380915830563
 31
0.0
  0
LINE
  5
1AB
  8
0
  6
CONTINUOUS
 62
     9
 10
264.2981064555104
 20
298.1511016617529
 30
0.0
 11
260.2983225275988
 21
298.1098336096903
 31
0.0
  0
ENDBLK
  5
75
  8
0
  0
BLOCK
  8
0
  2
DC_GROUP_15
 70
     0
 10
0.0
 20
0.0
 30
0.0
  3
DC_GROUP_15
  1

  0
LINE
  5
1AC
  8
0
  6
CONTINUOUS
 62
     9
 10
171.3835106778028
 20
273.2104738009008
 30
0.0
 11
167.372667521418
 21
272.1800054884351
 31
0.0
  0
LINE
  5
1AD
  8
0
  6
CONTINUOUS
 62
     9
 10
167.372667521418
 20
272.1800054884351
 30
0.0
 11
170.3309211662301
 21
275.0778431548806
 31
0.0
  0
LINE
  5
1AE
  8
0
  6
CONTINUOUS
 62
     9
 10
167.372667521418
 20
272.1800054884351
 30
0.0
 11
170.8572159220164
 21
274.1441584778906
 31
0.0
  0
ENDBLK
  5
78
  8
0
  0
BLOCK
  8
0
  2
DC_GROUP_16
 70
     0
 10
0.0
 20
0.0
 30
0.0
  3
DC_GROUP_16
  1

  0
LINE
  5
1AF
  8
0
  6
CONTINUOUS
 62
     9
 10
94.70185972683505
 20
202.2164772218745
 30
0.0
 11
103.12665110571
 21
197.3524221888049
 31
0.0
  0
ARC
  5
1B0
  8
0
  6
CONTINUOUS
 62
     9
 10
264.2982748083842
 20
104.2999521389537
 30
0.0
 40
193.8330663928525
 50
120.0000034028506
 51
150.0000027410345
  0
INSERT
  5
1B1
  8
0
  6
CONTINUOUS
  2
DC_GROUP_17
 10
0.0
 20
0.0
 30
0.0
  0
INSERT
  5
1B2
  8
0
  6
CONTINUOUS
  2
DC_GROUP_18
 10
0.0
 20
0.0
 30
0.0
  0
TEXT
  5
1B3
  8
0
 62
     7
 10
133.1551610081652
 20
250.0539695642385
 30
0.0
 40
8.0
  1
30°
 50
39.17303174302572
 41
0.7031250000000013
  7
FDASTYLE1
 72
     5
 11
147.1095150189131
 21
261.4239301685118
 31
0.0
  0
ENDBLK
  5
7B
  8
0
  0
BLOCK
  8
0
  2
DC_GROUP_17
 70
     0
 10
0.0
 20
0.0
 30
0.0
  3
DC_GROUP_17
  1

  0
LINE
  5
1B4
  8
0
  6
CONTINUOUS
 62
     9
 10
163.3930049709594
 20
271.0512977475199
 30
0.0
 11
167.3817316423348
 21
272.1643059726347
 31
0.0
  0
LINE
  5
1B5
  8
0
  6
CONTINUOUS
 62
     9
 10
167.3817316423348
 20
272.1643059726347
 30
0.0
 11
164.483901480596
 21
269.206044976402
 31
0.0
  0
LINE
  5
1B6
  8
0
  6
CONTINUOUS
 62
     9
 10
167.3817316423348
 20
272.1643059726347
 30
0.0
 11
163.9384532257777
 21
270.128671361961
 31
0.0
  0
ENDBLK
  5
7E
  8
0
  0
BLOCK
  8
0
  2
DC_GROUP_18
 70
     0
 10
0.0
 20
0.0
 30
0.0
  3
DC_GROUP_18
  1

  0
LINE
  5
1B7
  8
0
  6
CONTINUOUS
 62
     9
 10
99.39217126773932
 20
204.114307783692
 30
0.0
 11
96.43391058224395
 21
201.2164773047359
 31
0.0
  0
LINE
  5
1B8
  8
0
  6
CONTINUOUS
 62
     9
 10
96.43391058224395
 20
201.2164773047359
 30
0.0
 11
97.54691837964349
 21
205.2052040954603
 31
0.0
  0
LINE
  5
1B9
  8
0
  6
CONTINUOUS
 62
     9
 10
96.43391058224395
 20
201.2164773047359
 30
0.0
 11
98.46954482369141
 21
204.6597559395761
 31
0.0
  0
ENDBLK
  5
81
  8
0
  0
BLOCK
  8
0
  2
DC_GROUP_19
 70
     0
 10
0.0
 20
0.0
 30
0.0
  3
DC_GROUP_19
  1

  0
LINE
  5
1BA
  8
0
  6
CONTINUOUS
 62
     9
 10
68.48582796358014
 20
104.299947738266
 30
0.0
 11
72.72552039593984
 21
104.299947738266
 31
0.0
  0
ARC
  5
1BB
  8
0
  6
CONTINUOUS
 62
     9
 10
264.298282430601
 20
104.299947738266
 30
0.0
 40
193.8124544670209
 50
150.0000027410347
 51
180.0
  0
INSERT
  5
1BC
  8
0
  6
CONTINUOUS
  2
DC_GROUP_20
 10
0.0
 20
0.0
 30
0.0
  0
INSERT
  5
1BD
  8
0
  6
CONTINUOUS
  2
DC_GROUP_21
 10
0.0
 20
0.0
 30
0.0
  0
TEXT
  5
1BE
  8
0
 62
     7
 10
72.67331172840957
 20
145.7070477065492
 30
0.0
 40
8.0
  1
30°
 50
75.00000137051734
 41
0.7031249999999998
  7
FDASTYLE1
 72
     5
 11
77.33205412436523
 21
163.0937126911897
 31
0.0
  0
ENDBLK
  5
84
  8
0
  0
BLOCK
  8
0
  2
DC_GROUP_20
 70
     0
 10
0.0
 20
0.0
 30
0.0
  3
DC_GROUP_20
  1

  0
LINE
  5
1BF
  8
0
  6
CONTINUOUS
 62
     9
 10
93.55393735476497
 20
198.2479070623101
 30
0.0
 11
96.45176865634466
 21
201.2061669419859
 31
0.0
  0
LINE
  5
1C0
  8
0
  6
CONTINUOUS
 62
     9
 10
96.45176865634466
 20
201.2061669419859
 30
0.0
 11
95.42130897344951
 21
197.1953215684964
 31
0.0
  0
LINE
  5
1C1
  8
0
  6
CONTINUOUS
 62
     9
 10
96.45176865634466
 20
201.2061669419859
 30
0.0
 11
94.48762316410723
 21
197.7216143154033
 31
0.0
  0
ENDBLK
  5
87
  8
0
  0
BLOCK
  8
0
  2
DC_GROUP_21
 70
     0
 10
0.0
 20
0.0
 30
0.0
  3
DC_GROUP_21
  1

  0
LINE
  5
1C2
  8
0
  6
CONTINUOUS
 62
     9
 10
71.5988461965412
 20
108.2886716170537
 30
0.0
 11
70.48582796358014
 21
104.299947738266
 31
0.0
  0
LINE
  5
1C3
  8
0
  6
CONTINUOUS
 62
     9
 10
70.48582796358014
 20
104.299947738266
 30
0.0
 11
69.45536218848923
 21
108.3107915465538
 31
0.0
  0
LINE
  5
1C4
  8
0
  6
CONTINUOUS
 62
     9
 10
70.48582796358014
 20
104.299947738266
 30
0.0
 11
70.52710419251523
 21
108.2997315818038
 31
0.0
  0
ENDBLK
  5
8A
  8
0
  0
BLOCK
  8
0
  2
DC_GROUP_22
 70
     0
 10
0.0
 20
0.0
 30
0.0
  3
DC_GROUP_22
  1

  0
LINE
  5
1C5
  8
0
  6
CONTINUOUS
 62
     7
 10
261.7184537973894
 20
22.01679560888159
 30
0.0
 11
179.733264236296
 21
-114.1081350639128
 31
0.0
  0
LINE
  5
1C6
  8
0
  6
CONTINUOUS
 62
     7
 10
179.733264236296
 20
-114.1081350639128
 30
0.0
 11
83.73326423629601
 21
-114.1081350639128
 31
0.0
  0
INSERT
  5
1C7
  8
0
  6
CONTINUOUS
  2
DC_GROUP_23
 10
0.0
 20
0.0
 30
0.0
  0
TEXT
  5
1C8
  8
0
 62
     7
 10
83.73326423629601
 20
-114.1081350639128
 30
0.0
 40
8.0
  1
3-M10×20 PCD156
 41
0.7790858725761775
  7
FDASTYLE1
 72
     5
 11
178.4701063415592
 21
-114.1081350639128
 31
0.0
  0
ENDBLK
  5
8D
  8
0
  0
BLOCK
  8
0
  2
DC_GROUP_23
 70
     0
 10
0.0
 20
0.0
 30
0.0
  3
DC_GROUP_23
  1

  0
LINE
  5
1C9
  8
0
  6
CONTINUOUS
 62
     7
 10
258.7365976203836
 20
19.14325049739183
 30
0.0
 11
261.7184537973894
 21
22.01679560888159
 31
0.0
  0
LINE
  5
1CA
  8
0
  6
CONTINUOUS
 62
     7
 10
261.7184537973894
 20
22.01679560888159
 30
0.0
 11
260.5728690076098
 21
18.03730276964438
 31
0.0
  0
LINE
  5
1CB
  8
0
  6
CONTINUOUS
 62
     7
 10
261.7184537973894
 20
22.01679560888159
 30
0.0
 11
259.6547333139966
 21
18.59027663351811
 31
0.0
  0
ENDBLK
  5
90
  8
0
  0
BLOCK
  8
0
  2
DC_GROUP_24
 70
     0
 10
0.0
 20
0.0
 30
0.0
  3
DC_GROUP_24
  1

  0
LINE
  5
1CC
  8
0
  6
CONTINUOUS
 62
     9
 10
-282.6349379780837
 20
-72.70005226173399
 30
0.0
 11
-282.6349379780837
 21
-143.7668908369803
 31
0.0
  0
LINE
  5
1CD
  8
0
  6
CONTINUOUS
 62
     9
 10
-276.9349257710524
 20
-57.70005226173399
 30
0.0
 11
-276.9349257710524
 21
-143.7668908369803
 31
0.0
  0
LINE
  5
1CE
  8
0
  6
CONTINUOUS
 62
     9
 10
-282.6349379780837
 20
-141.7668908369803
 30
0.0
 11
-276.9349257710524
 21
-141.7668908369803
 31
0.0
  0
LINE
  5
1CF
  8
0
  6
CONTINUOUS
 62
     9
 10
-147.9349257710524
 20
-69.7000064853668
 30
0.0
 11
-147.9349257710524
 21
-143.7668908369803
 31
0.0
  0
LINE
  5
1D0
  8
0
  6
CONTINUOUS
 62
     9
 10
-309.6986379780835
 20
-141.7668908369803
 30
0.0
 11
-282.6349379780837
 21
-141.7668908369803
 31
0.0
  0
LINE
  5
1D1
  8
0
  6
CONTINUOUS
 62
     9
 10
-276.9349257710524
 20
-141.7668908369803
 30
0.0
 11
-147.9349257710524
 21
-141.7668908369803
 31
0.0
  0
INSERT
  5
1D2
  8
0
  6
DASHED2
  2
DC_GROUP_25
 10
0.0
 20
0.0
 30
0.0
  0
INSERT
  5
1D3
  8
0
  6
CONTINUOUS
  2
DC_GROUP_26
 10
0.0
 20
0.0
 30
0.0
  0
INSERT
  5
1D4
  8
0
  6
CONTINUOUS
  2
DC_GROUP_27
 10
0.0
 20
0.0
 30
0.0
  0
TEXT
  5
1D5
  8
0
 62
     7
 10
-307.6986379780835
 20
-139.7668908369803
 30
0.0
 40
8.0
  1
5.7
 41
0.7999999999999995
  7
FDASTYLE1
 72
     5
 11
-288.4986379780835
 21
-139.7668908369803
 31
0.0
  0
TEXT
  5
1D6
  8
0
 62
     7
 10
-222.0349257710523
 20
-139.7668908369803
 30
0.0
 40
8.0
  1
129
 41
0.7999999999999995
  7
FDASTYLE1
 72
     5
 11
-202.8349257710524
 21
-139.7668908369803
 31
0.0
  0
ENDBLK
  5
93
  8
0
  0
BLOCK
  8
0
  2
DC_GROUP_25
 70
     0
 10
0.0
 20
0.0
 30
0.0
  3
DC_GROUP_25
  1

  0
LINE
  5
1D7
  8
0
  6
CONTINUOUS
 62
     9
 10
-286.6349347933449
 20
-140.6950917671851
 30
0.0
 11
-282.6349379780837
 21
-141.7668908369803
 31
0.0
  0
LINE
  5
1D8
  8
0
  6
CONTINUOUS
 62
     9
 10
-282.6349379780837
 20
-141.7668908369803
 30
0.0
 11
-286.6349347933449
 21
-142.8386899067755
 31
0.0
  0
LINE
  5
1D9
  8
0
  6
CONTINUOUS
 62
     9
 10
-282.6349379780837
 20
-141.7668908369803
 30
0.0
 11
-286.6349347933449
 21
-141.7668908369803
 31
0.0
  0
ENDBLK
  5
96
  8
0
  0
BLOCK
  8
0
  2
DC_GROUP_26
 70
     0
 10
0.0
 20
0.0
 30
0.0
  3
DC_GROUP_26
  1

  0
LINE
  5
1DA
  8
0
  6
CONTINUOUS
 62
     9
 10
-272.9349289557911
 20
-142.8386899067755
 30
0.0
 11
-276.9349257710524
 21
-141.7668908369803
 31
0.0
  0
LINE
  5
1DB
  8
0
  6
CONTINUOUS
 62
     9
 10
-276.9349257710524
 20
-141.7668908369803
 30
0.0
 11
-272.9349289557911
 21
-140.6950917671851
 31
0.0
  0
LINE
  5
1DC
  8
0
  6
CONTINUOUS
 62
     9
 10
-276.9349257710524
 20
-141.7668908369803
 30
0.0
 11
-272.9349289557911
 21
-141.7668908369803
 31
0.0
  0
ENDBLK
  5
99
  8
0
  0
BLOCK
  8
0
  2
DC_GROUP_27
 70
     0
 10
0.0
 20
0.0
 30
0.0
  3
DC_GROUP_27
  1

  0
LINE
  5
1DD
  8
0
  6
CONTINUOUS
 62
     9
 10
-151.9349225863137
 20
-140.6950917671851
 30
0.0
 11
-147.9349257710524
 21
-141.7668908369803
 31
0.0
  0
LINE
  5
1DE
  8
0
  6
CONTINUOUS
 62
     9
 10
-147.9349257710524
 20
-141.7668908369803
 30
0.0
 11
-151.9349225863137
 21
-142.8386899067755
 31
0.0
  0
LINE
  5
1DF
  8
0
  6
CONTINUOUS
 62
     9
 10
-147.9349257710524
 20
-141.7668908369803
 30
0.0
 11
-151.9349225863137
 21
-141.7668908369803
 31
0.0
  0
ENDBLK
  5
9C
  8
0
  0
BLOCK
  8
0
  2
DC_GROUP_28
 70
     0
 10
0.0
 20
0.0
 30
0.0
  3
DC_GROUP_28
  1

  0
LINE
  5
1E0
  8
0
  6
CONTINUOUS
 62
     9
 10
-226.9349257710524
 20
-77.16267494372445
 30
0.0
 11
-226.9349257710524
 21
-91.61094588423853
 31
0.0
  0
LINE
  5
1E1
  8
0
  6
CONTINUOUS
 62
     9
 10
-276.9349257710524
 20
-57.70005226173399
 30
0.0
 11
-276.9349257710524
 21
-91.61094588423853
 31
0.0
  0
LINE
  5
1E2
  8
0
  6
CONTINUOUS
 62
     9
 10
-276.9349257710524
 20
-89.61094588423853
 30
0.0
 11
-226.9349257710524
 21
-89.61094588423853
 31
0.0
  0
INSERT
  5
1E3
  8
0
  6
CONTINUOUS
  2
DC_GROUP_29
 10
0.0
 20
0.0
 30
0.0
  0
INSERT
  5
1E4
  8
0
  6
CONTINUOUS
  2
DC_GROUP_30
 10
0.0
 20
0.0
 30
0.0
  0
TEXT
  5
1E5
  8
0
 62
     7
 10
-258.3349257710523
 20
-87.61094588423853
 30
0.0
 40
8.0
  1
50
 41
0.8000000000000007
  7
FDASTYLE1
 72
     5
 11
-245.5349257710523
 21
-87.61094588423853
 31
0.0
  0
ENDBLK
  5
9F
  8
0
  0
BLOCK
  8
0
  2
DC_GROUP_29
 70
     0
 10
0.0
 20
0.0
 30
0.0
  3
DC_GROUP_29
  1

  0
LINE
  5
1E6
  8
0
  6
CONTINUOUS
 62
     9
 10
-272.9349289557911
 20
-90.68274495403375
 30
0.0
 11
-276.9349257710524
 21
-89.61094588423853
 31
0.0
  0
LINE
  5
1E7
  8
0
  6
CONTINUOUS
 62
     9
 10
-276.9349257710524
 20
-89.61094588423853
 30
0.0
 11
-272.9349289557911
 21
-88.53914681444331
 31
0.0
  0
LINE
  5
1E8
  8
0
  6
CONTINUOUS
 62
     9
 10
-276.9349257710524
 20
-89.61094588423853
 30
0.0
 11
-272.9349289557911
 21
-89.61094588423853
 31
0.0
  0
ENDBLK
  5
A2
  8
0
  0
BLOCK
  8
0
  2
DC_GROUP_30
 70
     0
 10
0.0
 20
0.0
 30
0.0
  3
DC_GROUP_30
  1

  0
LINE
  5
1E9
  8
0
  6
CONTINUOUS
 62
     9
 10
-230.9349225863137
 20
-88.53914681444331
 30
0.0
 11
-226.9349257710524
 21
-89.61094588423853
 31
0.0
  0
LINE
  5
1EA
  8
0
  6
CONTINUOUS
 62
     9
 10
-226.9349257710524
 20
-89.61094588423853
 30
0.0
 11
-230.9349225863137
 21
-90.68274495403375
 31
0.0
  0
LINE
  5
1EB
  8
0
  6
CONTINUOUS
 62
     9
 10
-226.9349257710524
 20
-89.61094588423853
 30
0.0
 11
-230.9349225863137
 21
-89.61094588423853
 31
0.0
  0
ENDBLK
  5
A5
  8
0
  0
BLOCK
  8
0
  2
DC_GROUP_31
 70
     0
 10
0.0
 20
0.0
 30
0.0
  3
DC_GROUP_31
  1

  0
LINE
  5
1EC
  8
0
  6
CONTINUOUS
 62
     9
 10
-276.9349257710524
 20
-57.70005226173399
 30
0.0
 11
-276.9349257710524
 21
-91.41076080330048
 31
0.0
  0
LINE
  5
1ED
  8
0
  6
CONTINUOUS
 62
     9
 10
-304.9349257710524
 20
-25.17505836524961
 30
0.0
 11
-304.9349257710524
 21
-91.41076080330048
 31
0.0
  0
LINE
  5
1EE
  8
0
  6
CONTINUOUS
 62
     9
 10
-304.9349257710524
 20
-89.41076080330048
 30
0.0
 11
-276.9349257710524
 21
-89.41076080330048
 31
0.0
  0
INSERT
  5
1EF
  8
0
  6
CONTINUOUS
  2
DC_GROUP_32
 10
0.0
 20
0.0
 30
0.0
  0
INSERT
  5
1F0
  8
0
  6
CONTINUOUS
  2
DC_GROUP_33
 10
0.0
 20
0.0
 30
0.0
  0
TEXT
  5
1F1
  8
0
 62
     7
 10
-297.3349257710523
 20
-87.41076080330048
 30
0.0
 40
8.0
  1
28
 41
0.7999999999999972
  7
FDASTYLE1
 72
     5
 11
-284.5349257710524
 21
-87.41076080330048
 31
0.0
  0
ENDBLK
  5
A8
  8
0
  0
BLOCK
  8
0
  2
DC_GROUP_32
 70
     0
 10
0.0
 20
0.0
 30
0.0
  3
DC_GROUP_32
  1

  0
LINE
  5
1F2
  8
0
  6
CONTINUOUS
 62
     9
 10
-300.934928955791
 20
-90.4825598730957
 30
0.0
 11
-304.9349257710524
 21
-89.41076080330048
 31
0.0
  0
LINE
  5
1F3
  8
0
  6
CONTINUOUS
 62
     9
 10
-304.9349257710524
 20
-89.41076080330048
 30
0.0
 11
-300.934928955791
 21
-88.33896173350524
 31
0.0
  0
LINE
  5
1F4
  8
0
  6
CONTINUOUS
 62
     9
 10
-304.9349257710524
 20
-89.41076080330048
 30
0.0
 11
-300.934928955791
 21
-89.41076080330048
 31
0.0
  0
ENDBLK
  5
AB
  8
0
  0
BLOCK
  8
0
  2
DC_GROUP_33
 70
     0
 10
0.0
 20
0.0
 30
0.0
  3
DC_GROUP_33
  1

  0
LINE
  5
1F5
  8
0
  6
CONTINUOUS
 62
     9
 10
-280.9349225863137
 20
-88.33896173350524
 30
0.0
 11
-276.9349257710524
 21
-89.41076080330048
 31
0.0
  0
LINE
  5
1F6
  8
0
  6
CONTINUOUS
 62
     9
 10
-276.9349257710524
 20
-89.41076080330048
 30
0.0
 11
-280.9349225863137
 21
-90.4825598730957
 31
0.0
  0
LINE
  5
1F7
  8
0
  6
CONTINUOUS
 62
     9
 10
-276.9349257710524
 20
-89.41076080330048
 30
0.0
 11
-280.9349225863137
 21
-89.41076080330048
 31
0.0
  0
ENDBLK
  5
AE
  8
0
  0
BLOCK
  8
0
  2
DC_GROUP_34
 70
     0
 10
0.0
 20
0.0
 30
0.0
  3
DC_GROUP_34
  1

  0
LINE
  5
1F8
  8
0
  6
CONTINUOUS
 62
     9
 10
314.2981064555102
 20
112.2632579799652
 30
0.0
 11
314.2981064555102
 21
122.5418138987043
 31
0.0
  0
LINE
  5
1F9
  8
0
  6
CONTINUOUS
 62
     9
 10
214.2981064555102
 20
112.6428890224457
 30
0.0
 11
214.2981064555102
 21
122.5418138987043
 31
0.0
  0
LINE
  5
1FA
  8
0
  6
CONTINUOUS
 62
     9
 10
214.2981064555102
 20
120.5418138987043
 30
0.0
 11
314.2981064555102
 21
120.5418138987043
 31
0.0
  0
INSERT
  5
1FB
  8
0
  6
CONTINUOUS
  2
DC_GROUP_35
 10
0.0
 20
0.0
 30
0.0
  0
INSERT
  5
1FC
  8
0
  6
CONTINUOUS
  2
DC_GROUP_36
 10
0.0
 20
0.0
 30
0.0
  0
TEXT
  5
1FD
  8
0
 62
     7
 10
245.0981064555102
 20
122.5418138987043
 30
0.0
 40
8.0
  1
PCD100
 41
0.7999999999999995
  7
FDASTYLE1
 72
     5
 11
283.4981064555101
 21
122.5418138987043
 31
0.0
  0
ENDBLK
  5
B1
  8
0
  0
BLOCK
  8
0
  2
DC_GROUP_35
 70
     0
 10
0.0
 20
0.0
 30
0.0
  3
DC_GROUP_35
  1

  0
LINE
  5
1FE
  8
0
  6
CONTINUOUS
 62
     9
 10
218.2981032707715
 20
119.4700148289091
 30
0.0
 11
214.2981064555102
 21
120.5418138987043
 31
0.0
  0
LINE
  5
1FF
  8
0
  6
CONTINUOUS
 62
     9
 10
214.2981064555102
 20
120.5418138987043
 30
0.0
 11
218.2981032707715
 21
121.6136129684995
 31
0.0
  0
LINE
  5
200
  8
0
  6
CONTINUOUS
 62
     9
 10
214.2981064555102
 20
120.5418138987043
 30
0.0
 11
218.2981032707715
 21
120.5418138987043
 31
0.0
  0
ENDBLK
  5
B4
  8
0
  0
BLOCK
  8
0
  2
DC_GROUP_36
 70
     0
 10
0.0
 20
0.0
 30
0.0
  3
DC_GROUP_36
  1

  0
LINE
  5
201
  8
0
  6
CONTINUOUS
 62
     9
 10
310.2981096402489
 20
121.6136129684995
 30
0.0
 11
314.2981064555102
 21
120.5418138987043
 31
0.0
  0
LINE
  5
202
  8
0
  6
CONTINUOUS
 62
     9
 10
314.2981064555102
 20
120.5418138987043
 30
0.0
 11
310.2981096402489
 21
119.4700148289091
 31
0.0
  0
LINE
  5
203
  8
0
  6
CONTINUOUS
 62
     9
 10
314.2981064555102
 20
120.5418138987043
 30
0.0
 11
310.2981096402489
 21
120.5418138987043
 31
0.0
  0
ENDBLK
  5
B7
  8
0
  0
BLOCK
  8
0
  2
DC_GROUP_37
 70
     0
 10
0.0
 20
0.0
 30
0.0
  3
DC_GROUP_37
  1

  0
LINE
  5
204
  8
0
  6
CONTINUOUS
 62
     7
 10
315.9209940990014
 20
106.9412040880597
 30
0.0
 11
422.6737771792376
 21
224.0745103171486
 31
0.0
  0
LINE
  5
205
  8
0
  6
CONTINUOUS
 62
     7
 10
422.6737771792376
 20
224.0745103171486
 30
0.0
 11
461.0737771792374
 21
224.0745103171486
 31
0.0
  0
INSERT
  5
206
  8
0
  6
ACAD_ISO06W100
  2
DC_GROUP_38
 10
0.0
 20
0.0
 30
0.0
  0
TEXT
  5
207
  8
0
 62
     7
 10
422.6737771792376
 20
224.0745103171486
 30
0.0
 40
8.0
  1
2-φ6.2
 41
0.7492195629552543
  7
FDASTYLE1
 72
     5
 11
459.8350675018182
 21
224.0745103171486
 31
0.0
  0
ENDBLK
  5
BA
  8
0
  0
BLOCK
  8
0
  2
DC_GROUP_38
 70
     0
 10
0.0
 20
0.0
 30
0.0
  3
DC_GROUP_38
  1

  0
LINE
  5
208
  8
0
  6
CONTINUOUS
 62
     7
 10
319.4075484028372
 20
109.1756317227166
 30
0.0
 11
315.9209940990013
 21
106.9412040880597
 31
0.0
  0
LINE
  5
209
  8
0
  6
CONTINUOUS
 62
     7
 10
315.9209940990013
 20
106.9412040880597
 30
0.0
 11
317.8232194692823
 21
110.6195551328588
 31
0.0
  0
LINE
  5
20A
  8
0
  6
CONTINUOUS
 62
     7
 10
315.9209940990013
 20
106.9412040880597
 30
0.0
 11
318.6153839360597
 21
109.8975934277877
 31
0.0
  0
ENDBLK
  5
BD
  8
0
  0
BLOCK
  8
0
  2
DC_GROUP_39
 70
     0
 10
0.0
 20
0.0
 30
0.0
  3
DC_GROUP_39
  1

  0
LINE
  5
20B
  8
LAYER0014
  6
CONTINUOUS
 62
     7
 10
-260.1124990132398
 20
149.549947738266
 30
0.0
 11
-325.1417128804274
 21
149.549947738266
 31
0.0
  0
LINE
  5
20C
  8
LAYER0014
  6
CONTINUOUS
 62
     7
 10
-260.1124990132398
 20
59.04994392356875
 30
0.0
 11
-325.1417128804274
 21
59.04994392356875
 31
0.0
  0
LINE
  5
20D
  8
LAYER0014
  6
CONTINUOUS
 62
     7
 10
-320.5697219136305
 20
149.549947738266
 30
0.0
 11
-320.5697219136305
 21
59.04994392356875
 31
0.0
  0
INSERT
  5
20E
  8
LAYER0014
  6
CONTINUOUS
  2
DC_GROUP_40
 10
0.0
 20
0.0
 30
0.0
  0
INSERT
  5
20F
  8
LAYER0014
  6
CONTINUOUS
  2
DC_GROUP_41
 10
0.0
 20
0.0
 30
0.0
  0
TEXT
  5
210
  8
LAYER0014
 62
     7
 10
-322.5976471674849
 20
80.25997020030479
 30
0.0
 40
8.0
  1
φ90.5
 50
89.90000000000001
 41
0.7396449704142011
  7
FDASTYLE1
 72
     5
 11
-322.5439447562265
 21
111.029154105329
 31
0.0
  0
TEXT
  5
211
  8
LAYER0014
 62
     7
 10
-326.9382993014627
 20
114.2675978601665
 30
0.0
 40
4.4
  1
+0.5
 50
89.90000000000001
 41
0.7999999999999991
  7
FDASTYLE1
 72
     5
 11
-326.9137250780709
 21
128.3475764151056
 31
0.0
  0
TEXT
  5
212
  8
LAYER0014
 62
     7
 10
-322.138306612279
 20
114.2592202840102
 30
0.0
 40
4.4
  1
 0
 50
89.90000000000001
 41
0.8000000000000015
  7
FDASTYLE1
 72
     5
 11
-322.1260195005831
 21
121.2992095614798
 31
0.0
  0
ENDBLK
  5
C0
  8
0
  0
BLOCK
  8
0
  2
DC_GROUP_40
 70
     0
 10
0.0
 20
0.0
 30
0.0
  3
DC_GROUP_40
  1

  0
LINE
  5
213
  8
LAYER0014
  6
CONTINUOUS
 62
     7
 10
-321.6415209834257
 20
145.5499509230047
 30
0.0
 11
-320.5697219136305
 21
149.549947738266
 31
0.0
  0
LINE
  5
214
  8
LAYER0014
  6
CONTINUOUS
 62
     7
 10
-320.5697219136305
 20
149.549947738266
 30
0.0
 11
-319.4979228438352
 21
145.5499509230047
 31
0.0
  0
LINE
  5
215
  8
LAYER0014
  6
CONTINUOUS
 62
     7
 10
-320.5697219136305
 20
149.549947738266
 30
0.0
 11
-320.5697219136305
 21
145.5499509230047
 31
0.0
  0
ENDBLK
  5
C3
  8
0
  0
BLOCK
  8
0
  2
DC_GROUP_41
 70
     0
 10
0.0
 20
0.0
 30
0.0
  3
DC_GROUP_41
  1

  0
LINE
  5
216
  8
LAYER0014
  6
CONTINUOUS
 62
     7
 10
-319.4979228438352
 20
63.04994073883007
 30
0.0
 11
-320.5697219136305
 21
59.04994392356875
 31
0.0
  0
LINE
  5
217
  8
LAYER0014
  6
CONTINUOUS
 62
     7
 10
-320.5697219136305
 20
59.04994392356875
 30
0.0
 11
-321.6415209834257
 21
63.04994073883007
 31
0.0
  0
LINE
  5
218
  8
LAYER0014
  6
CONTINUOUS
 62
     7
 10
-320.5697219136305
 20
59.04994392356875
 30
0.0
 11
-320.5697219136305
 21
63.04994073883007
 31
0.0
  0
ENDBLK
  5
C6
  8
0
  0
BLOCK
  8
0
  2
DC_GROUP_42
 70
     0
 10
0.0
 20
0.0
 30
0.0
  3
DC_GROUP_42
  1

  0
LINE
  5
219
  8
LAYER0014
  6
CONTINUOUS
 62
     7
 10
-145.3949257710524
 20
34.29994392356875
 30
0.0
 11
-64.47770378618907
 21
34.29994392356875
 31
0.0
  0
LINE
  5
21A
  8
LAYER0014
  6
CONTINUOUS
 62
     7
 10
-69.04970238238047
 20
34.29994392356875
 30
0.0
 11
-69.04970238238047
 21
149.549947738266
 31
0.0
  0
INSERT
  5
21B
  8
LAYER0014
  6
DASHED2
  2
DC_GROUP_43
 10
0.0
 20
0.0
 30
0.0
  0
TEXT
  5
21C
  8
LAYER0014
 62
     7
 10
-72.24970238238048
 20
83.65773372612001
 30
0.0
 40
8.0
  1
φ140H7
 50
90.0
 41
0.7492195629552552
  7
FDASTYLE1
 72
     5
 11
-72.24970238238048
 21
120.8190240487007
 31
0.0
  0
ENDBLK
  5
C9
  8
0
  0
BLOCK
  8
0
  2
DC_GROUP_43
 70
     0
 10
0.0
 20
0.0
 30
0.0
  3
DC_GROUP_43
  1

  0
LINE
  5
21D
  8
LAYER0014
  6
CONTINUOUS
 62
     7
 10
-67.97790331258526
 20
38.29994073883007
 30
0.0
 11
-69.04970238238047
 21
34.29994392356875
 31
0.0
  0
LINE
  5
21E
  8
LAYER0014
  6
CONTINUOUS
 62
     7
 10
-69.04970238238047
 20
34.29994392356875
 30
0.0
 11
-70.12150145217569
 21
38.29994073883007
 31
0.0
  0
LINE
  5
21F
  8
LAYER0014
  6
CONTINUOUS
 62
     7
 10
-69.04970238238047
 20
34.29994392356875
 30
0.0
 11
-69.04970238238047
 21
38.29994073883007
 31
0.0
  0
ENDBLK
  5
CC
  8
0
  0
BLOCK
  8
0
  2
DC_GROUP_44
 70
     0
 10
0.0
 20
0.0
 30
0.0
  3
DC_GROUP_44
  1

  0
LINE
  5
220
  8
LAYER0014
  6
CONTINUOUS
 62
     7
 10
-224.1124990132398
 20
158.8499507900238
 30
0.0
 11
-352.4292800190992
 21
158.8499507900238
 31
0.0
  0
LINE
  5
221
  8
LAYER0014
  6
CONTINUOUS
 62
     7
 10
-224.1124990132398
 20
49.7499446865082
 30
0.0
 11
-352.4292800190992
 21
49.7499446865082
 31
0.0
  0
LINE
  5
222
  8
LAYER0014
  6
CONTINUOUS
 62
     7
 10
-347.8572890523024
 20
158.8499507900238
 30
0.0
 11
-347.8572890523024
 21
49.7499446865082
 31
0.0
  0
INSERT
  5
223
  8
LAYER0014
  6
CONTINUOUS
  2
DC_GROUP_45
 10
0.0
 20
0.0
 30
0.0
  0
INSERT
  5
224
  8
LAYER0014
  6
CONTINUOUS
  2
DC_GROUP_46
 10
0.0
 20
0.0
 30
0.0
  0
TEXT
  5
225
  8
LAYER0014
 62
     7
 10
-349.9019694584694
 20
78.69998672928583
 30
0.0
 40
8.0
  1
φ109.1Ｈ7
 50
89.90000000000001
 41
0.7256235827664407
  7
FDASTYLE1
 72
     5
 11
-349.8168639229132
 21
127.4618172225814
 31
0.0
  0
ENDBLK
  5
CF
  8
0
  0
BLOCK
  8
0
  2
DC_GROUP_45
 70
     0
 10
0.0
 20
0.0
 30
0.0
  3
DC_GROUP_45
  1

  0
LINE
  5
226
  8
LAYER0014
  6
CONTINUOUS
 62
     7
 10
-348.9290881220975
 20
154.8499539747625
 30
0.0
 11
-347.8572890523024
 21
158.8499507900238
 31
0.0
  0
LINE
  5
227
  8
LAYER0014
  6
CONTINUOUS
 62
     7
 10
-347.8572890523024
 20
158.8499507900238
 30
0.0
 11
-346.7854899825071
 21
154.8499539747625
 31
0.0
  0
LINE
  5
228
  8
LAYER0014
  6
CONTINUOUS
 62
     7
 10
-347.8572890523024
 20
158.8499507900238
 30
0.0
 11
-347.8572890523024
 21
154.8499539747625
 31
0.0
  0
ENDBLK
  5
D2
  8
0
  0
BLOCK
  8
0
  2
DC_GROUP_46
 70
     0
 10
0.0
 20
0.0
 30
0.0
  3
DC_GROUP_46
  1

  0
LINE
  5
229
  8
LAYER0014
  6
CONTINUOUS
 62
     7
 10
-346.7854899825071
 20
53.74994150176953
 30
0.0
 11
-347.8572890523024
 21
49.7499446865082
 31
0.0
  0
LINE
  5
22A
  8
LAYER0014
  6
CONTINUOUS
 62
     7
 10
-347.8572890523024
 20
49.7499446865082
 30
0.0
 11
-348.9290881220975
 21
53.74994150176953
 31
0.0
  0
LINE
  5
22B
  8
LAYER0014
  6
CONTINUOUS
 62
     7
 10
-347.8572890523024
 20
49.7499446865082
 30
0.0
 11
-347.8572890523024
 21
53.74994150176953
 31
0.0
  0
ENDBLK
  5
D5
  8
0
  0
BLOCK
  8
0
  2
DC_GROUP_47
 70
     0
 10
0.0
 20
0.0
 30
0.0
  3
DC_GROUP_47
  1

  0
LINE
  5
22C
  8
LAYER0014
  6
CONTINUOUS
 62
     7
 10
-279.4749257710524
 20
171.799947738266
 30
0.0
 11
-381.4964186909742
 21
171.799947738266
 31
0.0
  0
LINE
  5
22D
  8
LAYER0014
  6
CONTINUOUS
 62
     7
 10
-279.4749257710524
 20
36.79994392356875
 30
0.0
 11
-381.4964186909742
 21
36.79994392356875
 31
0.0
  0
LINE
  5
22E
  8
LAYER0014
  6
CONTINUOUS
 62
     7
 10
-376.9244277241774
 20
171.799947738266
 30
0.0
 11
-376.9244277241774
 21
36.79994392356875
 31
0.0
  0
INSERT
  5
22F
  8
LAYER0014
  6
CONTINUOUS
  2
DC_GROUP_48
 10
0.0
 20
0.0
 30
0.0
  0
INSERT
  5
230
  8
LAYER0014
  6
CONTINUOUS
  2
DC_GROUP_49
 10
0.0
 20
0.0
 30
0.0
  0
TEXT
  5
231
  8
LAYER0014
 62
     7
 10
-378.9579380288026
 20
85.09997507418227
 30
0.0
 40
8.0
  1
φ135H7
 50
89.90000000000001
 41
0.7492195629552543
  7
FDASTYLE1
 72
     5
 11
-378.8930793746893
 21
122.2612087968954
 31
0.0
  0
ENDBLK
  5
D8
  8
0
  0
BLOCK
  8
0
  2
DC_GROUP_48
 70
     0
 10
0.0
 20
0.0
 30
0.0
  3
DC_GROUP_48
  1

  0
LINE
  5
232
  8
LAYER0014
  6
CONTINUOUS
 62
     7
 10
-377.9962267939725
 20
167.7999509230047
 30
0.0
 11
-376.9244277241774
 21
171.799947738266
 31
0.0
  0
LINE
  5
233
  8
LAYER0014
  6
CONTINUOUS
 62
     7
 10
-376.9244277241774
 20
171.799947738266
 30
0.0
 11
-375.8526286543821
 21
167.7999509230047
 31
0.0
  0
LINE
  5
234
  8
LAYER0014
  6
CONTINUOUS
 62
     7
 10
-376.9244277241774
 20
171.799947738266
 30
0.0
 11
-376.9244277241774
 21
167.7999509230047
 31
0.0
  0
ENDBLK
  5
DB
  8
0
  0
BLOCK
  8
0
  2
DC_GROUP_49
 70
     0
 10
0.0
 20
0.0
 30
0.0
  3
DC_GROUP_49
  1

  0
LINE
  5
235
  8
LAYER0014
  6
CONTINUOUS
 62
     7
 10
-375.8526286543821
 20
40.79994073883007
 30
0.0
 11
-376.9244277241774
 21
36.79994392356875
 31
0.0
  0
LINE
  5
236
  8
LAYER0014
  6
CONTINUOUS
 62
     7
 10
-376.9244277241774
 20
36.79994392356875
 30
0.0
 11
-377.9962267939725
 21
40.79994073883007
 31
0.0
  0
LINE
  5
237
  8
LAYER0014
  6
CONTINUOUS
 62
     7
 10
-376.9244277241774
 20
36.79994392356875
 30
0.0
 11
-376.9244277241774
 21
40.79994073883007
 31
0.0
  0
ENDBLK
  5
DE
  8
0
  0
BLOCK
  8
0
  2
DC_GROUP_50
 70
     0
 10
0.0
 20
0.0
 30
0.0
  3
DC_GROUP_50
  1

  0
LINE
  5
238
  8
LAYER0014
  6
CONTINUOUS
 62
     7
 10
-285.1749379780837
 20
264.2999629970551
 30
0.0
 11
-409.3771865132399
 21
264.2999629970551
 31
0.0
  0
LINE
  5
239
  8
LAYER0014
  6
CONTINUOUS
 62
     7
 10
-285.1749379780837
 20
-55.70005226173399
 30
0.0
 11
-409.3771865132399
 21
-55.70005226173399
 31
0.0
  0
LINE
  5
23A
  8
LAYER0014
  6
CONTINUOUS
 62
     7
 10
-404.805195546443
 20
264.299947738266
 30
0.0
 11
-404.805195546443
 21
-55.70005226173399
 31
0.0
  0
INSERT
  5
23B
  8
LAYER0014
  6
CONTINUOUS
  2
DC_GROUP_51
 10
0.0
 20
0.0
 30
0.0
  0
INSERT
  5
23C
  8
LAYER0014
  6
CONTINUOUS
  2
DC_GROUP_52
 10
0.0
 20
0.0
 30
0.0
  0
TEXT
  5
23D
  8
LAYER0014
 62
     7
 10
-406.8387058510683
 20
85.09997698153093
 30
0.0
 40
8.0
  1
φ320H7
 50
89.90000000000001
 41
0.7492195629552543
  7
FDASTYLE1
 72
     5
 11
-406.7738471969549
 21
122.261210704244
 31
0.0
  0
ENDBLK
  5
E1
  8
0
  0
BLOCK
  8
0
  2
DC_GROUP_51
 70
     0
 10
0.0
 20
0.0
 30
0.0
  3
DC_GROUP_51
  1

  0
LINE
  5
23E
  8
LAYER0014
  6
CONTINUOUS
 62
     7
 10
-405.8769946162382
 20
260.2999509230046
 30
0.0
 11
-404.805195546443
 21
264.299947738266
 31
0.0
  0
LINE
  5
23F
  8
LAYER0014
  6
CONTINUOUS
 62
     7
 10
-404.805195546443
 20
264.299947738266
 30
0.0
 11
-403.7333964766478
 21
260.2999509230046
 31
0.0
  0
LINE
  5
240
  8
LAYER0014
  6
CONTINUOUS
 62
     7
 10
-404.805195546443
 20
264.299947738266
 30
0.0
 11
-404.805195546443
 21
260.2999509230046
 31
0.0
  0
ENDBLK
  5
E4
  8
0
  0
BLOCK
  8
0
  2
DC_GROUP_52
 70
     0
 10
0.0
 20
0.0
 30
0.0
  3
DC_GROUP_52
  1

  0
LINE
  5
241
  8
LAYER0014
  6
CONTINUOUS
 62
     7
 10
-403.7333964766478
 20
-51.70005544647267
 30
0.0
 11
-404.805195546443
 21
-55.70005226173399
 31
0.0
  0
LINE
  5
242
  8
LAYER0014
  6
CONTINUOUS
 62
     7
 10
-404.805195546443
 20
-55.70005226173399
 30
0.0
 11
-405.8769946162382
 21
-51.70005544647267
 31
0.0
  0
LINE
  5
243
  8
LAYER0014
  6
CONTINUOUS
 62
     7
 10
-404.805195546443
 20
-55.70005226173399
 30
0.0
 11
-404.805195546443
 21
-51.70005544647267
 31
0.0
  0
ENDBLK
  5
E7
  8
0
  0
BLOCK
  8
0
  2
DC_GROUP_53
 70
     0
 10
0.0
 20
0.0
 30
0.0
  3
DC_GROUP_53
  1

  0
LINE
  5
244
  8
LAYER0014
  6
CONTINUOUS
 62
     7
 10
-285.1749379780837
 20
279.2999629970551
 30
0.0
 11
-437.8511550190992
 21
279.2999629970551
 31
0.0
  0
LINE
  5
245
  8
LAYER0014
  6
CONTINUOUS
 62
     7
 10
-285.1749379780837
 20
-70.70005226173399
 30
0.0
 11
-437.8511550190992
 21
-70.70005226173399
 31
0.0
  0
LINE
  5
246
  8
LAYER0014
  6
CONTINUOUS
 62
     7
 10
-433.2791640523024
 20
279.2999629970551
 30
0.0
 11
-433.2791640523024
 21
-70.70005226173399
 31
0.0
  0
INSERT
  5
247
  8
LAYER0014
  6
CONTINUOUS
  2
DC_GROUP_54
 10
0.0
 20
0.0
 30
0.0
  0
INSERT
  5
248
  8
LAYER0014
  6
CONTINUOUS
  2
DC_GROUP_55
 10
0.0
 20
0.0
 30
0.0
  0
TEXT
  5
249
  8
LAYER0014
 62
     7
 10
-435.3015042553859
 20
91.49997486317048
 30
0.0
 40
8.0
  1
φ350
 50
89.90000000000001
 41
0.7256235827664407
  7
FDASTYLE1
 72
     5
 11
-435.2589514876078
 21
115.8808901098183
 31
0.0
  0
ENDBLK
  5
EA
  8
0
  0
BLOCK
  8
0
  2
DC_GROUP_54
 70
     0
 10
0.0
 20
0.0
 30
0.0
  3
DC_GROUP_54
  1

  0
LINE
  5
24A
  8
LAYER0014
  6
CONTINUOUS
 62
     7
 10
-434.3509631220976
 20
275.2999661817938
 30
0.0
 11
-433.2791640523024
 21
279.2999629970551
 31
0.0
  0
LINE
  5
24B
  8
LAYER0014
  6
CONTINUOUS
 62
     7
 10
-433.2791640523024
 20
279.2999629970551
 30
0.0
 11
-432.2073649825072
 21
275.2999661817938
 31
0.0
  0
LINE
  5
24C
  8
LAYER0014
  6
CONTINUOUS
 62
     7
 10
-433.2791640523024
 20
279.2999629970551
 30
0.0
 11
-433.2791640523024
 21
275.2999661817938
 31
0.0
  0
ENDBLK
  5
ED
  8
0
  0
BLOCK
  8
0
  2
DC_GROUP_55
 70
     0
 10
0.0
 20
0.0
 30
0.0
  3
DC_GROUP_55
  1

  0
LINE
  5
24D
  8
LAYER0014
  6
CONTINUOUS
 62
     7
 10
-432.2073649825072
 20
-66.70005544647268
 30
0.0
 11
-433.2791640523024
 21
-70.70005226173399
 31
0.0
  0
LINE
  5
24E
  8
LAYER0014
  6
CONTINUOUS
 62
     7
 10
-433.2791640523024
 20
-70.70005226173399
 30
0.0
 11
-434.3509631220976
 21
-66.70005544647266
 31
0.0
  0
LINE
  5
24F
  8
LAYER0014
  6
CONTINUOUS
 62
     7
 10
-433.2791640523024
 20
-70.70005226173399
 30
0.0
 11
-433.2791640523024
 21
-66.70005544647266
 31
0.0
  0
ENDBLK
  5
F0
  8
0
  0
BLOCK
  8
0
  2
DC_GROUP_56
 70
     0
 10
0.0
 20
0.0
 30
0.0
  3
DC_GROUP_56
  1

  0
LINE
  5
250
  8
LAYER0014
  6
CONTINUOUS
 62
     7
 10
-67.4009453633375
 20
104.299947738266
 30
0.0
 11
-36.59695122271251
 21
104.299947738266
 31
0.0
  0
LINE
  5
251
  8
LAYER0014
  6
CONTINUOUS
 62
     7
 10
-41.16894981890391
 20
104.299947738266
 30
0.0
 11
-41.16894981890391
 21
186.299947738266
 31
0.0
  0
INSERT
  5
252
  8
LAYER0014
  6
CONTINUOUS
  2
DC_GROUP_57
 10
0.0
 20
0.0
 30
0.0
  0
INSERT
  5
253
  8
LAYER0014
  6
CONTINUOUS
  2
DC_GROUP_58
 10
0.0
 20
0.0
 30
0.0
  0
TEXT
  5
254
  8
LAYER0014
 62
     7
 10
-43.16894981890391
 20
119.699947738266
 30
0.0
 40
8.0
  1
MAX 94.5
 50
90.0
 41
0.8
  7
FDASTYLE1
 72
     5
 11
-43.16894981890391
 21
170.899947738266
 31
0.0
  0
ENDBLK
  5
F3
  8
0
  0
BLOCK
  8
0
  2
DC_GROUP_57
 70
     0
 10
0.0
 20
0.0
 30
0.0
  3
DC_GROUP_57
  1

  0
LINE
  5
255
  8
LAYER0014
  6
CONTINUOUS
 62
     7
 10
-40.09715074910869
 20
108.2999445535273
 30
0.0
 11
-41.16894981890391
 21
104.299947738266
 31
0.0
  0
LINE
  5
256
  8
LAYER0014
  6
CONTINUOUS
 62
     7
 10
-41.16894981890391
 20
104.299947738266
 30
0.0
 11
-42.24074888869912
 21
108.2999445535273
 31
0.0
  0
LINE
  5
257
  8
LAYER0014
  6
CONTINUOUS
 62
     7
 10
-41.16894981890391
 20
104.299947738266
 30
0.0
 11
-41.16894981890391
 21
108.2999445535273
 31
0.0
  0
ENDBLK
  5
F6
  8
0
  0
BLOCK
  8
0
  2
DC_GROUP_58
 70
     0
 10
0.0
 20
0.0
 30
0.0
  3
DC_GROUP_58
  1

  0
LINE
  5
258
  8
LAYER0014
  6
CONTINUOUS
 62
     7
 10
-42.24074888869912
 20
182.2999509230047
 30
0.0
 11
-41.16894981890391
 21
186.299947738266
 31
0.0
  0
LINE
  5
259
  8
LAYER0014
  6
CONTINUOUS
 62
     7
 10
-41.16894981890391
 20
186.299947738266
 30
0.0
 11
-40.09715074910869
 21
182.2999509230047
 31
0.0
  0
LINE
  5
25A
  8
LAYER0014
  6
CONTINUOUS
 62
     7
 10
-41.16894981890391
 20
186.299947738266
 30
0.0
 11
-41.16894981890391
 21
182.2999509230047
 31
0.0
  0
ENDBLK
  5
F9
  8
0
  0
BLOCK
  8
0
  2
DC_GROUP_59
 70
     0
 10
0.0
 20
0.0
 30
0.0
  3
DC_GROUP_59
  1

  0
LINE
  5
25B
  8
LAYER0014
  6
CONTINUOUS
 62
     7
 10
-146.8867165425368
 20
186.299947738266
 30
0.0
 11
-36.59695122271251
 21
186.299947738266
 31
0.0
  0
LINE
  5
25C
  8
LAYER0014
  6
CONTINUOUS
 62
     7
 10
-146.3949257710524
 20
279.2999629970551
 30
0.0
 11
-36.59695122271251
 21
279.2999629970551
 31
0.0
  0
LINE
  5
25D
  8
LAYER0014
  6
CONTINUOUS
 62
     7
 10
-41.16894981890391
 20
186.299947738266
 30
0.0
 11
-41.16894981890391
 21
279.2999629970551
 31
0.0
  0
INSERT
  5
25E
  8
LAYER0014
  6
CONTINUOUS
  2
DC_GROUP_60
 10
0.0
 20
0.0
 30
0.0
  0
INSERT
  5
25F
  8
LAYER0014
  6
CONTINUOUS
  2
DC_GROUP_61
 10
0.0
 20
0.0
 30
0.0
  0
TEXT
  5
260
  8
LAYER0014
 62
     7
 10
-43.18011992044566
 20
226.3999651154155
 30
0.0
 40
8.0
  1
93
 50
89.90000000000001
 41
0.8000000000000007
  7
FDASTYLE1
 72
     5
 11
-43.15777971736216
 21
239.1999456199056
 31
0.0
  0
ENDBLK
  5
FC
  8
0
  0
BLOCK
  8
0
  2
DC_GROUP_60
 70
     0
 10
0.0
 20
0.0
 30
0.0
  3
DC_GROUP_60
  1

  0
LINE
  5
261
  8
LAYER0014
  6
CONTINUOUS
 62
     7
 10
-40.09715074910869
 20
190.2999445535273
 30
0.0
 11
-41.16894981890391
 21
186.299947738266
 31
0.0
  0
LINE
  5
262
  8
LAYER0014
  6
CONTINUOUS
 62
     7
 10
-41.16894981890391
 20
186.299947738266
 30
0.0
 11
-42.24074888869912
 21
190.2999445535273
 31
0.0
  0
LINE
  5
263
  8
LAYER0014
  6
CONTINUOUS
 62
     7
 10
-41.16894981890391
 20
186.299947738266
 30
0.0
 11
-41.16894981890391
 21
190.2999445535273
 31
0.0
  0
ENDBLK
  5
FF
  8
0
  0
BLOCK
  8
0
  2
DC_GROUP_61
 70
     0
 10
0.0
 20
0.0
 30
0.0
  3
DC_GROUP_61
  1

  0
LINE
  5
264
  8
LAYER0014
  6
CONTINUOUS
 62
     7
 10
-42.24074888869912
 20
275.2999661817938
 30
0.0
 11
-41.16894981890391
 21
279.2999629970551
 31
0.0
  0
LINE
  5
265
  8
LAYER0014
  6
CONTINUOUS
 62
     7
 10
-41.16894981890391
 20
279.2999629970551
 30
0.0
 11
-40.09715074910869
 21
275.2999661817938
 31
0.0
  0
LINE
  5
266
  8
LAYER0014
  6
CONTINUOUS
 62
     7
 10
-41.16894981890391
 20
279.2999629970551
 30
0.0
 11
-41.16894981890391
 21
275.2999661817938
 31
0.0
  0
ENDBLK
  5
102
  8
0
  0
BLOCK
  8
0
  2
DC_GROUP_62
 70
     0
 10
0.0
 20
0.0
 30
0.0
  3
DC_GROUP_62
  1

  0
LINE
  5
267
  8
LAYER0014
  6
CONTINUOUS
 62
     7
 10
-183.0324990132399
 20
48.29994392356875
 30
0.0
 11
-89.67696831255626
 21
48.29994392356875
 31
0.0
  0
LINE
  5
268
  8
LAYER0014
  6
CONTINUOUS
 62
     7
 10
-94.24896690874766
 20
149.549947738266
 30
0.0
 11
-94.24896690874766
 21
48.29994392356875
 31
0.0
  0
INSERT
  5
269
  8
LAYER0014
  6
CONTINUOUS
  2
DC_GROUP_63
 10
0.0
 20
0.0
 30
0.0
  0
TEXT
  5
26A
  8
LAYER0014
 62
     7
 10
-97.49763176477597
 20
76.41985996751504
 30
0.0
 40
8.0
  1
M112×P1.5
 50
89.90000000000001
 41
0.7655954631379964
  7
FDASTYLE1
 72
     5
 11
-97.39928630554971
 21
132.7676002318464
 31
0.0
  0
ENDBLK
  5
105
  8
0
  0
BLOCK
  8
0
  2
DC_GROUP_63
 70
     0
 10
0.0
 20
0.0
 30
0.0
  3
DC_GROUP_63
  1

  0
LINE
  5
26B
  8
LAYER0014
  6
CONTINUOUS
 62
     7
 10
-93.17716783895244
 20
52.29994073883007
 30
0.0
 11
-94.24896690874766
 21
48.29994392356875
 31
0.0
  0
LINE
  5
26C
  8
LAYER0014
  6
CONTINUOUS
 62
     7
 10
-94.24896690874766
 20
48.29994392356875
 30
0.0
 11
-95.32076597854288
 21
52.29994073883007
 31
0.0
  0
LINE
  5
26D
  8
LAYER0014
  6
CONTINUOUS
 62
     7
 10
-94.24896690874766
 20
48.29994392356875
 30
0.0
 11
-94.24896690874766
 21
52.29994073883007
 31
0.0
  0
ENDBLK
  5
108
  8
0
  0
BLOCK
  8
0
  2
DC_GROUP_64
 70
     0
 10
0.0
 20
0.0
 30
0.0
  3
DC_GROUP_64
  1

  0
LINE
  5
26E
  8
LAYER0014
  6
CONTINUOUS
 62
     7
 10
-258.5724990132399
 20
76.41831779441836
 30
0.0
 11
-221.5724990132399
 21
76.41831779441836
 31
0.0
  0
INSERT
  5
26F
  8
LAYER0014
  6
CONTINUOUS
  2
DC_GROUP_65
 10
0.0
 20
0.0
 30
0.0
  0
INSERT
  5
270
  8
LAYER0014
  6
CONTINUOUS
  2
DC_GROUP_66
 10
0.0
 20
0.0
 30
0.0
  0
TEXT
  5
271
  8
LAYER0014
 62
     7
 10
-246.4724990132399
 20
78.41831779441836
 30
0.0
 40
8.0
  1
37
 41
0.8000000000000007
  7
FDASTYLE1
 72
     5
 11
-233.6724990132398
 21
78.41831779441836
 31
0.0
  0
ENDBLK
  5
10B
  8
0
  0
BLOCK
  8
0
  2
DC_GROUP_65
 70
     0
 10
0.0
 20
0.0
 30
0.0
  3
DC_GROUP_65
  1

  0
LINE
  5
272
  8
LAYER0014
  6
CONTINUOUS
 62
     7
 10
-254.5725021979785
 20
75.34651872462314
 30
0.0
 11
-258.5724990132399
 21
76.41831779441836
 31
0.0
  0
LINE
  5
273
  8
LAYER0014
  6
CONTINUOUS
 62
     7
 10
-258.5724990132399
 20
76.41831779441836
 30
0.0
 11
-254.5725021979785
 21
77.49011686421358
 31
0.0
  0
LINE
  5
274
  8
LAYER0014
  6
CONTINUOUS
 62
     7
 10
-258.5724990132399
 20
76.41831779441836
 30
0.0
 11
-254.5725021979785
 21
76.41831779441836
 31
0.0
  0
ENDBLK
  5
10E
  8
0
  0
BLOCK
  8
0
  2
DC_GROUP_66
 70
     0
 10
0.0
 20
0.0
 30
0.0
  3
DC_GROUP_66
  1

  0
LINE
  5
275
  8
LAYER0014
  6
CONTINUOUS
 62
     7
 10
-225.5724958285012
 20
77.49011686421358
 30
0.0
 11
-221.5724990132399
 21
76.41831779441836
 31
0.0
  0
LINE
  5
276
  8
LAYER0014
  6
CONTINUOUS
 62
     7
 10
-221.5724990132399
 20
76.41831779441836
 30
0.0
 11
-225.5724958285012
 21
75.34651872462314
 31
0.0
  0
LINE
  5
277
  8
LAYER0014
  6
CONTINUOUS
 62
     7
 10
-221.5724990132399
 20
76.41831779441836
 30
0.0
 11
-225.5724958285012
 21
76.41831779441836
 31
0.0
  0
ENDBLK
  5
111
  8
0
  0
BLOCK
  8
0
  2
DC_GROUP_67
 70
     0
 10
0.0
 20
0.0
 30
0.0
  3
DC_GROUP_67
  1

  0
LINE
  5
278
  8
LAYER0014
  6
CONTINUOUS
 62
     7
 10
-221.5724990132399
 20
76.41831779441836
 30
0.0
 11
-199.5724990132399
 21
76.41831779441836
 31
0.0
  0
INSERT
  5
279
  8
LAYER0014
  6
CONTINUOUS
  2
DC_GROUP_68
 10
0.0
 20
0.0
 30
0.0
  0
INSERT
  5
27A
  8
LAYER0014
  6
CONTINUOUS
  2
DC_GROUP_69
 10
0.0
 20
0.0
 30
0.0
  0
TEXT
  5
27B
  8
LAYER0014
 62
     7
 10
-216.9724990132399
 20
78.41831779441836
 30
0.0
 40
8.0
  1
22
 41
0.8000000000000007
  7
FDASTYLE1
 72
     5
 11
-204.1724990132398
 21
78.41831779441836
 31
0.0
  0
ENDBLK
  5
114
  8
0
  0
BLOCK
  8
0
  2
DC_GROUP_68
 70
     0
 10
0.0
 20
0.0
 30
0.0
  3
DC_GROUP_68
  1

  0
LINE
  5
27C
  8
LAYER0014
  6
CONTINUOUS
 62
     7
 10
-217.5725021979785
 20
75.34651872462314
 30
0.0
 11
-221.5724990132399
 21
76.41831779441836
 31
0.0
  0
LINE
  5
27D
  8
LAYER0014
  6
CONTINUOUS
 62
     7
 10
-221.5724990132399
 20
76.41831779441836
 30
0.0
 11
-217.5725021979785
 21
77.49011686421358
 31
0.0
  0
LINE
  5
27E
  8
LAYER0014
  6
CONTINUOUS
 62
     7
 10
-221.5724990132399
 20
76.41831779441836
 30
0.0
 11
-217.5725021979785
 21
76.41831779441836
 31
0.0
  0
ENDBLK
  5
117
  8
0
  0
BLOCK
  8
0
  2
DC_GROUP_69
 70
     0
 10
0.0
 20
0.0
 30
0.0
  3
DC_GROUP_69
  1

  0
LINE
  5
27F
  8
LAYER0014
  6
CONTINUOUS
 62
     7
 10
-203.5724958285012
 20
77.49011686421358
 30
0.0
 11
-199.5724990132399
 21
76.41831779441836
 31
0.0
  0
LINE
  5
280
  8
LAYER0014
  6
CONTINUOUS
 62
     7
 10
-199.5724990132399
 20
76.41831779441836
 30
0.0
 11
-203.5724958285012
 21
75.34651872462314
 31
0.0
  0
LINE
  5
281
  8
LAYER0014
  6
CONTINUOUS
 62
     7
 10
-199.5724990132399
 20
76.41831779441836
 30
0.0
 11
-203.5724958285012
 21
76.41831779441836
 31
0.0
  0
ENDBLK
  5
11A
  8
0
  0
BLOCK
  8
0
  2
DC_GROUP_70
 70
     0
 10
0.0
 20
0.0
 30
0.0
  3
DC_GROUP_70
  1

  0
LINE
  5
282
  8
LAYER0014
  6
CONTINUOUS
 62
     7
 10
-307.4749257710524
 20
-3.175058365249612
 30
0.0
 11
-335.3929946187087
 21
-3.175058365249612
 31
0.0
  0
LINE
  5
283
  8
LAYER0014
  6
CONTINUOUS
 62
     7
 10
-307.4749257710524
 20
-23.17505836524961
 30
0.0
 11
-335.3929946187087
 21
-23.17505836524961
 31
0.0
  0
LINE
  5
284
  8
LAYER0014
  6
CONTINUOUS
 62
     7
 10
-330.8210036519117
 20
-3.175058365249612
 30
0.0
 11
-330.8210036519117
 21
-23.17505836524961
 31
0.0
  0
LINE
  5
285
  8
LAYER0014
  6
CONTINUOUS
 62
     7
 10
-330.8210036519117
 20
28.37505315630119
 30
0.0
 11
-330.8210036519117
 21
-3.175058365249612
 31
0.0
  0
LINE
  5
286
  8
LAYER0014
  6
CONTINUOUS
 62
     7
 10
-330.8210036519117
 20
-33.17505836524961
 30
0.0
 11
-330.8210036519117
 21
-23.17505836524961
 31
0.0
  0
INSERT
  5
287
  8
LAYER0014
  6
CONTINUOUS
  2
DC_GROUP_71
 10
0.0
 20
0.0
 30
0.0
  0
INSERT
  5
288
  8
LAYER0014
  6
CONTINUOUS
  2
DC_GROUP_72
 10
0.0
 20
0.0
 30
0.0
  0
TEXT
  5
289
  8
LAYER0014
 62
     7
 10
-332.8210036519117
 20
5.57504915630113
 30
0.0
 40
8.0
  1
M20
 50
89.90000000000001
 41
0.7999999999999995
  7
FDASTYLE1
 72
     5
 11
-332.7874933472865
 21
24.77501991303624
 31
0.0
  0
ENDBLK
  5
11D
  8
0
  0
BLOCK
  8
0
  2
DC_GROUP_71
 70
     0
 10
0.0
 20
0.0
 30
0.0
  3
DC_GROUP_71
  1

  0
LINE
  5
28A
  8
LAYER0014
  6
CONTINUOUS
 62
     7
 10
-329.7492045821165
 20
0.8249384500117118
 30
0.0
 11
-330.8210036519117
 21
-3.175058365249612
 31
0.0
  0
LINE
  5
28B
  8
LAYER0014
  6
CONTINUOUS
 62
     7
 10
-330.8210036519117
 20
-3.175058365249612
 30
0.0
 11
-331.892802721707
 21
0.8249384500117122
 31
0.0
  0
LINE
  5
28C
  8
LAYER0014
  6
CONTINUOUS
 62
     7
 10
-330.8210036519117
 20
-3.175058365249612
 30
0.0
 11
-330.8210036519117
 21
0.824938450011712
 31
0.0
  0
ENDBLK
  5
120
  8
0
  0
BLOCK
  8
0
  2
DC_GROUP_72
 70
     0
 10
0.0
 20
0.0
 30
0.0
  3
DC_GROUP_72
  1

  0
LINE
  5
28D
  8
LAYER0014
  6
CONTINUOUS
 62
     7
 10
-331.892802721707
 20
-27.17505518051093
 30
0.0
 11
-330.8210036519117
 21
-23.17505836524961
 31
0.0
  0
LINE
  5
28E
  8
LAYER0014
  6
CONTINUOUS
 62
     7
 10
-330.8210036519117
 20
-23.17505836524961
 30
0.0
 11
-329.7492045821165
 21
-27.17505518051093
 31
0.0
  0
LINE
  5
28F
  8
LAYER0014
  6
CONTINUOUS
 62
     7
 10
-330.8210036519117
 20
-23.17505836524961
 30
0.0
 11
-330.8210036519117
 21
-27.17505518051093
 31
0.0
  0
ENDBLK
  5
123
  8
0
  0
BLOCK
  8
0
  2
DC_GROUP_73
 70
     0
 10
0.0
 20
0.0
 30
0.0
  3
DC_GROUP_73
  1

  0
LINE
  5
290
  8
LAYER0014
  6
CONTINUOUS
 62
     7
 10
-276.9349257710524
 20
-110.3737702339391
 30
0.0
 11
-221.5724990132399
 21
-110.3737702339391
 31
0.0
  0
LINE
  5
291
  8
LAYER0014
  6
CONTINUOUS
 62
     7
 10
-276.9349257710524
 20
-107.7304782871246
 30
0.0
 11
-276.9349257710524
 21
-112.3737702339391
 31
0.0
  0
LINE
  5
292
  8
LAYER0014
  6
CONTINUOUS
 62
     7
 10
-221.5724990132399
 20
47.55097862205508
 30
0.0
 11
-221.5724990132399
 21
-112.3737702339391
 31
0.0
  0
INSERT
  5
293
  8
LAYER0014
  6
CONTINUOUS
  2
DC_GROUP_74
 10
0.0
 20
0.0
 30
0.0
  0
INSERT
  5
294
  8
LAYER0014
  6
CONTINUOUS
  2
DC_GROUP_75
 10
0.0
 20
0.0
 30
0.0
  0
TEXT
  5
295
  8
LAYER0014
 62
     7
 10
-271.6537123921461
 20
-108.3737702339391
 30
0.0
 40
8.0
  1
MAX77.9
 41
0.7999999999999997
  7
FDASTYLE1
 72
     5
 11
-226.8537123921461
 21
-108.3737702339391
 31
0.0
  0
ENDBLK
  5
126
  8
0
  0
BLOCK
  8
0
  2
DC_GROUP_74
 70
     0
 10
0.0
 20
0.0
 30
0.0
  3
DC_GROUP_74
  1

  0
LINE
  5
296
  8
LAYER0014
  6
CONTINUOUS
 62
     7
 10
-272.9349289557911
 20
-111.4455693037343
 30
0.0
 11
-276.9349257710524
 21
-110.3737702339391
 31
0.0
  0
LINE
  5
297
  8
LAYER0014
  6
CONTINUOUS
 62
     7
 10
-276.9349257710524
 20
-110.3737702339391
 30
0.0
 11
-272.9349289557911
 21
-109.3019711641439
 31
0.0
  0
LINE
  5
298
  8
LAYER0014
  6
CONTINUOUS
 62
     7
 10
-276.9349257710524
 20
-110.3737702339391
 30
0.0
 11
-272.9349289557911
 21
-110.3737702339391
 31
0.0
  0
ENDBLK
  5
129
  8
0
  0
BLOCK
  8
0
  2
DC_GROUP_75
 70
     0
 10
0.0
 20
0.0
 30
0.0
  3
DC_GROUP_75
  1

  0
LINE
  5
299
  8
LAYER0014
  6
CONTINUOUS
 62
     7
 10
-225.5724958285012
 20
-109.3019711641439
 30
0.0
 11
-221.5724990132399
 21
-110.3737702339391
 31
0.0
  0
LINE
  5
29A
  8
LAYER0014
  6
CONTINUOUS
 62
     7
 10
-221.5724990132399
 20
-110.3737702339391
 30
0.0
 11
-225.5724958285012
 21
-111.4455693037343
 31
0.0
  0
LINE
  5
29B
  8
LAYER0014
  6
CONTINUOUS
 62
     7
 10
-221.5724990132399
 20
-110.3737702339391
 30
0.0
 11
-225.5724958285012
 21
-110.3737702339391
 31
0.0
  0
ENDBLK
  5
12C
  8
0
  0
BLOCK
  8
0
  2
DC_GROUP_76
 70
     0
 10
0.0
 20
0.0
 30
0.0
  3
DC_GROUP_76
  1

  0
LINE
  5
29C
  8
LAYER0014
  6
CONTINUOUS
 62
     7
 10
-147.9349257710524
 20
-71.36998085060118
 30
0.0
 11
-147.9349257710524
 21
-167.9422702793121
 31
0.0
  0
LINE
  5
29D
  8
LAYER0014
  6
CONTINUOUS
 62
     7
 10
-282.6349379780837
 20
-74.07272438087462
 30
0.0
 11
-282.6349379780837
 21
-167.9422702793121
 31
0.0
  0
LINE
  5
29E
  8
LAYER0014
  6
CONTINUOUS
 62
     7
 10
-147.9349257710524
 20
-163.3702640537262
 30
0.0
 11
-282.6349379780837
 21
-163.3702640537262
 31
0.0
  0
INSERT
  5
29F
  8
LAYER0014
  6
CONTINUOUS
  2
DC_GROUP_77
 10
0.0
 20
0.0
 30
0.0
  0
INSERT
  5
2A0
  8
LAYER0014
  6
DASHED2
  2
DC_GROUP_78
 10
0.0
 20
0.0
 30
0.0
  0
TEXT
  5
2A1
  8
LAYER0014
 62
     7
 10
-233.2277918745679
 20
-161.3702640537262
 30
0.0
 40
8.0
  1
134.7
 41
0.758454318653903
  7
FDASTYLE1
 72
     5
 11
-202.8896191284118
 21
-161.3702640537262
 31
0.0
  0
ENDBLK
  5
12F
  8
0
  0
BLOCK
  8
0
  2
DC_GROUP_77
 70
     0
 10
0.0
 20
0.0
 30
0.0
  3
DC_GROUP_77
  1

  0
LINE
  5
2A2
  8
LAYER0014
  6
CONTINUOUS
 62
     7
 10
-151.9349225863137
 20
-162.298464983931
 30
0.0
 11
-147.9349257710524
 21
-163.3702640537262
 31
0.0
  0
LINE
  5
2A3
  8
LAYER0014
  6
CONTINUOUS
 62
     7
 10
-147.9349257710524
 20
-163.3702640537262
 30
0.0
 11
-151.9349225863137
 21
-164.4420631235214
 31
0.0
  0
LINE
  5
2A4
  8
LAYER0014
  6
CONTINUOUS
 62
     7
 10
-147.9349257710524
 20
-163.3702640537262
 30
0.0
 11
-151.9349225863137
 21
-163.3702640537262
 31
0.0
  0
ENDBLK
  5
132
  8
0
  0
BLOCK
  8
0
  2
DC_GROUP_78
 70
     0
 10
0.0
 20
0.0
 30
0.0
  3
DC_GROUP_78
  1

  0
LINE
  5
2A5
  8
LAYER0014
  6
CONTINUOUS
 62
     7
 10
-278.6349411628223
 20
-164.4420631235214
 30
0.0
 11
-282.6349379780837
 21
-163.3702640537262
 31
0.0
  0
LINE
  5
2A6
  8
LAYER0014
  6
CONTINUOUS
 62
     7
 10
-282.6349379780837
 20
-163.3702640537262
 30
0.0
 11
-278.6349411628223
 21
-162.298464983931
 31
0.0
  0
LINE
  5
2A7
  8
LAYER0014
  6
CONTINUOUS
 62
     7
 10
-282.6349379780837
 20
-163.3702640537262
 30
0.0
 11
-278.6349411628223
 21
-163.3702640537262
 31
0.0
  0
ENDBLK
  5
135
  8
0
  0
BLOCK
  8
0
  2
DC_GROUP_79
 70
     0
 10
0.0
 20
0.0
 30
0.0
  3
DC_GROUP_79
  1

  0
LINE
  5
2A8
  8
LAYER0014
  6
CONTINUOUS
 62
     7
 10
-148.669907742034
 20
271.6557755273067
 30
0.0
 11
-108.7571370865694
 21
322.5335894235747
 31
0.0
  0
LINE
  5
2A9
  8
LAYER0014
  6
CONTINUOUS
 62
     7
 10
-108.7571379902906
 20
322.533575057602
 30
0.0
 11
-15.49779579668711
 21
322.533575057602
 31
0.0
  0
INSERT
  5
2AA
  8
LAYER0014
  6
CONTINUOUS
  2
DC_GROUP_80
 10
0.0
 20
0.0
 30
0.0
  0
TEXT
  5
2AB
  8
LAYER0014
 62
     7
 10
-107.4413344624587
 20
325.7335750576019
 30
0.0
 40
8.0
  1
ｾﾚｰｼｮﾝP1.5山60ﾟ
 41
0.7776234874032931
  7
FDASTYLE1
 72
     5
 11
-19.10330629344456
 21
325.7335750576019
 31
0.0
  0
ENDBLK
  5
138
  8
0
  0
BLOCK
  8
0
  2
DC_GROUP_80
 70
     0
 10
0.0
 20
0.0
 30
0.0
  3
DC_GROUP_80
  1

  0
LINE
  5
2AC
  8
LAYER0014
  6
CONTINUOUS
 62
     7
 10
-145.3577409910419
 20
274.1413899748301
 30
0.0
 11
-148.669907742034
 21
271.6557755273067
 31
0.0
  0
LINE
  5
2AD
  8
LAYER0014
  6
CONTINUOUS
 62
     7
 10
-148.669907742034
 20
271.6557755273067
 30
0.0
 11
-147.0443000207951
 21
275.4644665497924
 31
0.0
  0
LINE
  5
2AE
  8
LAYER0014
  6
CONTINUOUS
 62
     7
 10
-148.669907742034
 20
271.6557755273067
 30
0.0
 11
-146.2010205059185
 21
274.8029282623113
 31
0.0
  0
ENDBLK
  5
13B
  8
0
  0
BLOCK
  8
0
  2
DC_GROUP_81
 70
     0
 10
0.0
 20
0.0
 30
0.0
  3
DC_GROUP_81
  1

  0
LINE
  5
2AF
  8
LAYER0014
  6
CONTINUOUS
 62
     7
 10
105.2939493658849
 20
24.62326004052113
 30
0.0
 11
78.02758936447492
 21
8.881021493118823
 31
0.0
  0
LINE
  5
2B0
  8
LAYER0014
  6
CONTINUOUS
 62
     7
 10
115.7939812358753
 20
6.436650468884139
 30
0.0
 11
88.52762322463332
 21
-9.305588012961863
 31
0.0
  0
LINE
  5
2B1
  8
LAYER0014
  6
CONTINUOUS
 62
     7
 10
81.98706235527595
 20
11.1669799893152
 30
0.0
 11
92.48705982207866
 21
-7.019551111814536
 31
0.0
  0
LINE
  5
2B2
  8
LAYER0014
  6
CONTINUOUS
 62
     7
 10
55.62246338610764
 20
56.83180997023101
 30
0.0
 11
81.98706235527595
 21
11.1669799893152
 31
0.0
  0
LINE
  5
2B3
  8
LAYER0014
  6
CONTINUOUS
 62
     7
 10
97.48705940777145
 20
-15.6798053888593
 30
0.0
 11
92.48705982207866
 21
-7.019551111814536
 31
0.0
  0
INSERT
  5
2B4
  8
LAYER0014
  6
CONTINUOUS
  2
DC_GROUP_82
 10
0.0
 20
0.0
 30
0.0
  0
INSERT
  5
2B5
  8
LAYER0014
  6
DASHDOT2
  2
DC_GROUP_83
 10
0.0
 20
0.0
 30
0.0
  0
TEXT
  5
2B6
  8
LAYER0014
 62
     7
 10
58.35451298438989
 20
56.09975835399828
 30
0.0
 40
8.0
  1
21H8
 50
-59.99999999999999
 41
0.7560977769928862
  7
FDASTYLE1
 72
     5
 11
70.45207741627607
 21
35.1461621101333
 31
0.0
  0
ENDBLK
  5
13E
  8
0
  0
BLOCK
  8
0
  2
DC_GROUP_82
 70
     0
 10
0.0
 20
0.0
 30
0.0
  3
DC_GROUP_82
  1

  0
LINE
  5
2B7
  8
LAYER0014
  6
CONTINUOUS
 62
     7
 10
80.91526936120071
 20
15.16697843256063
 30
0.0
 11
81.98706235527595
 21
11.1669799893152
 31
0.0
  0
LINE
  5
2B8
  8
LAYER0014
  6
CONTINUOUS
 62
     7
 10
81.98706235527595
 20
11.1669799893152
 30
0.0
 11
79.05885886553539
 21
14.09517945157623
 31
0.0
  0
LINE
  5
2B9
  8
LAYER0014
  6
CONTINUOUS
 62
     7
 10
81.98706235527595
 20
11.1669799893152
 30
0.0
 11
79.98706411336805
 21
14.63107894206843
 31
0.0
  0
ENDBLK
  5
141
  8
0
  0
BLOCK
  8
0
  2
DC_GROUP_83
 70
     0
 10
0.0
 20
0.0
 30
0.0
  3
DC_GROUP_83
  1

  0
LINE
  5
2BA
  8
LAYER0014
  6
CONTINUOUS
 62
     7
 10
93.5588528161539
 20
-11.01954955505997
 30
0.0
 11
92.48705982207866
 21
-7.019551111814536
 31
0.0
  0
LINE
  5
2BB
  8
LAYER0014
  6
CONTINUOUS
 62
     7
 10
92.48705982207866
 20
-7.019551111814536
 30
0.0
 11
95.41526331181925
 21
-9.947750574075563
 31
0.0
  0
LINE
  5
2BC
  8
LAYER0014
  6
CONTINUOUS
 62
     7
 10
92.48705982207866
 20
-7.019551111814536
 30
0.0
 11
94.48705806398657
 21
-10.48365006456777
 31
0.0
  0
ENDBLK
  5
144
  8
0
  0
BLOCK
  8
0
  2
DC_GROUP_84
 70
     0
 10
0.0
 20
0.0
 30
0.0
  3
DC_GROUP_84
  1

  0
LINE
  5
2BD
  8
LAYER0014
  6
CONTINUOUS
 62
     7
 10
98.04396607895095
 20
37.18058557608435
 30
0.0
 11
48.22980611699006
 21
8.420370090075409
 31
0.0
  0
LINE
  5
2BE
  8
LAYER0014
  6
CONTINUOUS
 62
     7
 10
123.0439854288952
 20
-6.120704018014671
 30
0.0
 11
73.22982065156998
 21
-34.88092940634047
 31
0.0
  0
LINE
  5
2BF
  8
LAYER0014
  6
CONTINUOUS
 62
     7
 10
52.18926488961256
 20
10.70637227529332
 30
0.0
 11
77.1892595847994
 21
-32.59489052949803
 31
0.0
  0
INSERT
  5
2C0
  8
LAYER0014
  6
BORDER
  2
DC_GROUP_85
 10
0.0
 20
0.0
 30
0.0
  0
INSERT
  5
2C1
  8
LAYER0014
  6
CONTINUOUS
  2
DC_GROUP_86
 10
0.0
 20
0.0
 30
0.0
  0
TEXT
  5
2C2
  8
LAYER0014
 62
     7
 10
64.60340265829541
 20
-4.395542724232946
 30
0.0
 40
8.0
  1
50
 50
-59.99999999999999
 41
0.7435899794543256
  7
FDASTYLE1
 72
     5
 11
70.55212249393001
 21
-14.69902771954486
 31
0.0
  0
ENDBLK
  5
147
  8
0
  0
BLOCK
  8
0
  2
DC_GROUP_85
 70
     0
 10
0.0
 20
0.0
 30
0.0
  3
DC_GROUP_85
  1

  0
LINE
  5
2C3
  8
LAYER0014
  6
CONTINUOUS
 62
     7
 10
53.26105800289703
 20
6.706373863989816
 30
0.0
 11
52.18926488961256
 21
10.70637227529332
 31
0.0
  0
LINE
  5
2C4
  8
LAYER0014
  6
CONTINUOUS
 62
     7
 10
52.18926488961256
 20
10.70637227529332
 30
0.0
 11
55.11746846662027
 21
7.778172900299554
 31
0.0
  0
LINE
  5
2C5
  8
LAYER0014
  6
CONTINUOUS
 62
     7
 10
52.18926488961256
 20
10.70637227529332
 30
0.0
 11
54.18926323475866
 21
7.242273382144683
 31
0.0
  0
ENDBLK
  5
14A
  8
0
  0
BLOCK
  8
0
  2
DC_GROUP_86
 70
     0
 10
0.0
 20
0.0
 30
0.0
  3
DC_GROUP_86
  1

  0
LINE
  5
2C6
  8
LAYER0014
  6
CONTINUOUS
 62
     7
 10
76.11746647151492
 20
-28.59489211819453
 30
0.0
 11
77.1892595847994
 21
-32.59489052949803
 31
0.0
  0
LINE
  5
2C7
  8
LAYER0014
  6
CONTINUOUS
 62
     7
 10
77.1892595847994
 20
-32.59489052949803
 30
0.0
 11
74.26105600779169
 21
-29.66669115450426
 31
0.0
  0
LINE
  5
2C8
  8
LAYER0014
  6
CONTINUOUS
 62
     7
 10
77.1892595847994
 20
-32.59489052949803
 30
0.0
 11
75.18926123965332
 21
-29.13079163634939
 31
0.0
  0
ENDBLK
  5
14D
  8
0
  0
BLOCK
  8
0
  2
DC_GROUP_87
 70
     0
 10
0.0
 20
0.0
 30
0.0
  3
DC_GROUP_87
  1

  0
LINE
  5
2C9
  8
LAYER0014
  6
CONTINUOUS
 62
     7
 10
-127.2094327547407
 20
257.563098226885
 30
0.0
 11
-96.01104344997248
 21
298.9718989840136
 31
0.0
  0
LINE
  5
2CA
  8
LAYER0014
  6
CONTINUOUS
 62
     7
 10
-96.01104424029063
 20
298.9718990322114
 30
0.0
 11
-73.15170738726329
 21
298.9718990322114
 31
0.0
  0
INSERT
  5
2CB
  8
LAYER0014
  6
CONTINUOUS
  2
DC_GROUP_88
 10
0.0
 20
0.0
 30
0.0
  0
TEXT
  5
2CC
  8
LAYER0014
 62
     7
 10
-94.87655327349376
 20
302.1718990322113
 30
0.0
 40
8.0
  1
M16
 41
0.8000000000000002
  7
FDASTYLE1
 72
     5
 11
-75.67655327349375
 21
302.1718990322113
 31
0.0
  0
ENDBLK
  5
150
  8
0
  0
BLOCK
  8
0
  2
DC_GROUP_88
 70
     0
 10
0.0
 20
0.0
 30
0.0
  3
DC_GROUP_88
  1

  0
LINE
  5
2CD
  8
LAYER0014
  6
CONTINUOUS
 62
     7
 10
-123.9464090880367
 20
260.1128833783526
 30
0.0
 11
-127.2094327547407
 21
257.563098226885
 31
0.0
  0
LINE
  5
2CE
  8
LAYER0014
  6
CONTINUOUS
 62
     7
 10
-127.2094327547407
 20
257.563098226885
 30
0.0
 11
-125.6584695904941
 21
261.4027910572121
 31
0.0
  0
LINE
  5
2CF
  8
LAYER0014
  6
CONTINUOUS
 62
     7
 10
-127.2094327547407
 20
257.563098226885
 30
0.0
 11
-124.8024393392654
 21
260.7578372177823
 31
0.0
  0
ENDBLK
  5
153
  8
0
  0
BLOCK
  8
0
  2
DC_GROUP_89
 70
     0
 10
0.0
 20
0.0
 30
0.0
  3
DC_GROUP_89
  1

  0
LINE
  5
2D0
  8
LAYER0014
  6
CONTINUOUS
 62
     7
 10
-226.7405744121587
 20
-70.88797286474724
 30
0.0
 11
-198.9206592463711
 21
-107.7305194893741
 31
0.0
  0
LINE
  5
2D1
  8
LAYER0014
  6
CONTINUOUS
 62
     7
 10
-198.9206588032789
 20
-107.7305088047027
 30
0.0
 11
-158.7823939403503
 21
-107.7305088047027
 31
0.0
  0
INSERT
  5
2D2
  8
LAYER0014
  6
DOT2
  2
DC_GROUP_90
 10
0.0
 20
0.0
 30
0.0
  0
TEXT
  5
2D3
  8
LAYER0014
 62
     7
 10
-197.0409133198805
 20
-104.5305088047028
 30
0.0
 40
8.0
  1
M12×23
 41
0.7492195629552548
  7
FDASTYLE1
 72
     5
 11
-159.8796229972998
 21
-104.5305088047028
 31
0.0
  0
ENDBLK
  5
156
  8
0
  0
BLOCK
  8
0
  2
DC_GROUP_90
 70
     0
 10
0.0
 20
0.0
 30
0.0
  3
DC_GROUP_90
  1

  0
LINE
  5
2D4
  8
LAYER0014
  6
CONTINUOUS
 62
     7
 10
-225.1855034720641
 20
-74.72600388851296
 30
0.0
 11
-226.7405744121587
 21
-70.88797286474724
 31
0.0
  0
LINE
  5
2D5
  8
LAYER0014
  6
CONTINUOUS
 62
     7
 10
-226.7405744121587
 20
-70.88797286474724
 30
0.0
 11
-223.4748242156365
 21
-73.43426495758152
 31
0.0
  0
LINE
  5
2D6
  8
LAYER0014
  6
CONTINUOUS
 62
     7
 10
-226.7405744121587
 20
-70.88797286474724
 30
0.0
 11
-224.3301638438503
 21
-74.08013442304724
 31
0.0
  0
ENDBLK
  5
159
  8
0
  0
BLOCK
  8
0
  2
DC_GROUP_91
 70
     0
 10
0.0
 20
0.0
 30
0.0
  3
DC_GROUP_91
  1

  0
LINE
  5
2D7
  8
LAYER0014
  6
CONTINUOUS
 62
     7
 10
194.5429106509096
 20
-9.337083867377629
 30
0.0
 11
142.4051719618703
 21
-91.58887274097756
 31
0.0
  0
LINE
  5
2D8
  8
LAYER0014
  6
CONTINUOUS
 62
     7
 10
142.4051773783617
 20
-91.58887672462461
 30
0.0
 11
67.00252802464098
 21
-91.58887672462461
 31
0.0
  0
INSERT
  5
2D9
  8
LAYER0014
  6
CONTINUOUS
  2
DC_GROUP_92
 10
0.0
 20
0.0
 30
0.0
  0
TEXT
  5
2DA
  8
LAYER0014
 62
     7
 10
73.68195062555409
 20
-88.38887672462461
 30
0.0
 40
8.0
  1
PCD234.95
 41
0.762533187669286
  7
FDASTYLE1
 72
     5
 11
128.5843401377427
 21
-88.38887672462461
 31
0.0
  0
ENDBLK
  5
15C
  8
0
  0
BLOCK
  8
0
  2
DC_GROUP_92
 70
     0
 10
0.0
 20
0.0
 30
0.0
  3
DC_GROUP_92
  1

  0
LINE
  5
2DB
  8
LAYER0014
  6
CONTINUOUS
 62
     7
 10
191.4961341157599
 20
-12.14170157982539
 30
0.0
 11
194.5429106509096
 21
-9.337083867377629
 31
0.0
  0
LINE
  5
2DC
  8
LAYER0014
  6
CONTINUOUS
 62
     7
 10
194.5429106509096
 20
-9.337083867377629
 30
0.0
 11
193.306639442172
 21
-13.28934414050755
 31
0.0
  0
LINE
  5
2DD
  8
LAYER0014
  6
CONTINUOUS
 62
     7
 10
194.5429106509096
 20
-9.337083867377629
 30
0.0
 11
192.4013867789659
 21
-12.71552286016647
 31
0.0
  0
ENDBLK
  5
15F
  8
0
  0
BLOCK
  8
0
  2
DC_GROUP_93
 70
     0
 10
0.0
 20
0.0
 30
0.0
  3
DC_GROUP_93
  1

  0
LINE
  5
2DE
  8
LAYER0014
  6
CONTINUOUS
 62
     7
 10
-107.3815438130445
 20
250.299947738266
 30
0.0
 11
-67.04970238238047
 21
250.299947738266
 31
0.0
  0
LINE
  5
2DF
  8
LAYER0014
  6
CONTINUOUS
 62
     7
 10
-69.04970238238047
 20
205.299947738266
 30
0.0
 11
-69.04970238238047
 21
250.299947738266
 31
0.0
  0
INSERT
  5
2E0
  8
LAYER0014
  6
DASHED2
  2
DC_GROUP_94
 10
0.0
 20
0.0
 30
0.0
  0
INSERT
  5
2E1
  8
LAYER0014
  6
DASHED2
  2
DC_GROUP_95
 10
0.0
 20
0.0
 30
0.0
  0
TEXT
  5
2E2
  8
LAYER0014
 62
     7
 10
-71.04970238238047
 20
221.399947738266
 30
0.0
 40
8.0
  1
45
 50
90.0
 41
0.8000000000000007
  7
FDASTYLE1
 72
     5
 11
-71.04970238238047
 21
234.199947738266
 31
0.0
  0
ENDBLK
  5
162
  8
0
  0
BLOCK
  8
0
  2
DC_GROUP_94
 70
     0
 10
0.0
 20
0.0
 30
0.0
  3
DC_GROUP_94
  1

  0
LINE
  5
2E3
  8
LAYER0014
  6
CONTINUOUS
 62
     7
 10
-67.97790331258526
 20
209.2999445535273
 30
0.0
 11
-69.04970238238047
 21
205.299947738266
 31
0.0
  0
LINE
  5
2E4
  8
LAYER0014
  6
CONTINUOUS
 62
     7
 10
-69.04970238238047
 20
205.299947738266
 30
0.0
 11
-70.12150145217569
 21
209.2999445535273
 31
0.0
  0
LINE
  5
2E5
  8
LAYER0014
  6
CONTINUOUS
 62
     7
 10
-69.04970238238047
 20
205.299947738266
 30
0.0
 11
-69.04970238238047
 21
209.2999445535273
 31
0.0
  0
ENDBLK
  5
165
  8
0
  0
BLOCK
  8
0
  2
DC_GROUP_95
 70
     0
 10
0.0
 20
0.0
 30
0.0
  3
DC_GROUP_95
  1

  0
LINE
  5
2E6
  8
LAYER0014
  6
CONTINUOUS
 62
     7
 10
-70.12150145217569
 20
246.2999509230047
 30
0.0
 11
-69.04970238238047
 21
250.299947738266
 31
0.0
  0
LINE
  5
2E7
  8
LAYER0014
  6
CONTINUOUS
 62
     7
 10
-69.04970238238047
 20
250.299947738266
 30
0.0
 11
-67.97790331258526
 21
246.2999509230047
 31
0.0
  0
LINE
  5
2E8
  8
LAYER0014
  6
CONTINUOUS
 62
     7
 10
-69.04970238238047
 20
250.299947738266
 30
0.0
 11
-69.04970238238047
 21
246.2999509230047
 31
0.0
  0
ENDBLK
  5
168
  8
0
  0
ENDSEC
  0
SECTION
  2
ENTITIES
  0
LINE
  5
2E9
  8
LAYER0002
  6
CONTINUOUS
 62
     3
 10
-561.2018935444899
 20
-379.9999999999999
 30
0.0
 11
-561.2018935444899
 21
379.9999999999999
 31
0.0
  0
LINE
  5
2EA
  8
LAYER0002
  6
CONTINUOUS
 62
     3
 10
546.7981064555102
 20
-379.9999999999999
 30
0.0
 11
546.7981064555102
 21
379.9999999999999
 31
0.0
  0
LINE
  5
2EB
  8
LAYER0002
  6
CONTINUOUS
 62
     3
 10
-561.2018935444899
 20
-379.9999999999999
 30
0.0
 11
546.7981064555102
 21
-379.9999999999999
 31
0.0
  0
LINE
  5
2EC
  8
LAYER0002
  6
CONTINUOUS
 62
     3
 10
-561.2018935444899
 20
379.9999999999998
 30
0.0
 11
546.7981064555102
 21
379.9999999999998
 31
0.0
  0
LINE
  5
2ED
  8
LAYER0002
  6
CONTINUOUS
 62
     3
 10
186.7981064555102
 20
-379.9999999999999
 30
0.0
 11
186.7981064555102
 21
-259.9999999999999
 31
0.0
  0
LINE
  5
2EE
  8
LAYER0002
  6
CONTINUOUS
 62
     3
 10
186.7981064555102
 20
-351.9999999999999
 30
0.0
 11
546.7981064555102
 21
-351.9999999999999
 31
0.0
  0
LINE
  5
2EF
  8
LAYER0002
  6
CONTINUOUS
 62
     3
 10
284.7981064555102
 20
-323.9999999999999
 30
0.0
 11
546.7981064555102
 21
-323.9999999999999
 31
0.0
  0
LINE
  5
2F0
  8
LAYER0002
  6
CONTINUOUS
 62
     3
 10
284.7981064555102
 20
-295.9999999999999
 30
0.0
 11
546.7981064555102
 21
-295.9999999999999
 31
0.0
  0
LINE
  5
2F1
  8
LAYER0002
  6
CONTINUOUS
 62
     3
 10
284.7981064555102
 20
-275.9999999999999
 30
0.0
 11
546.7981064555102
 21
-275.9999999999999
 31
0.0
  0
LINE
  5
2F2
  8
LAYER0002
  6
CONTINUOUS
 62
     3
 10
284.7981064555102
 20
-351.9999999999999
 30
0.0
 11
284.7981064555102
 21
-259.9999999999999
 31
0.0
  0
LINE
  5
2F3
  8
LAYER0002
  6
CONTINUOUS
 62
     3
 10
502.7981064555102
 20
-351.9999999999999
 30
0.0
 11
502.7981064555102
 21
-259.9999999999999
 31
0.0
  0
LINE
  5
2F4
  8
LAYER0002
  6
CONTINUOUS
 62
     3
 10
334.7981064555102
 20
-379.9999999999999
 30
0.0
 11
334.7981064555102
 21
-351.9999999999999
 31
0.0
  0
LINE
  5
2F5
  8
LAYER0002
  6
CONTINUOUS
 62
     3
 10
516.7981064555102
 20
-375.9999999999999
 30
0.0
 11
536.7981064555102
 21
-375.9999999999999
 31
0.0
  0
LINE
  5
2F6
  8
LAYER0002
  6
CONTINUOUS
 62
     3
 10
526.7981064555102
 20
-355.9999999999999
 30
0.0
 11
516.7981064555102
 21
-375.9999999999999
 31
0.0
  0
LINE
  5
2F7
  8
LAYER0002
  6
CONTINUOUS
 62
     3
 10
526.7981064555102
 20
-355.9999999999999
 30
0.0
 11
536.7981064555102
 21
-375.9999999999999
 31
0.0
  0
LINE
  5
2F8
  8
LAYER0002
  6
CONTINUOUS
 62
     3
 10
186.7981064555102
 20
-259.9999999999999
 30
0.0
 11
546.7981064555102
 21
-259.9999999999999
 31
0.0
  0
LINE
  5
2F9
  8
LAYER0002
  6
CONTINUOUS
 62
     3
 10
444.79810645551
 20
-351.9999999999999
 30
0.0
 11
444.79810645551
 21
-295.9999999999999
 31
0.0
  0
LINE
  5
2FA
  8
LAYER0002
  6
CONTINUOUS
 62
     4
 10
202.7981064555102
 20
-343.9999999999999
 30
0.0
 11
202.7981064555102
 21
-259.9999999999999
 31
0.0
  0
LINE
  5
2FB
  8
LAYER0002
  6
CONTINUOUS
 62
     4
 10
210.7981064555102
 20
-343.9999999999999
 30
0.0
 11
210.7981064555102
 21
-259.9999999999999
 31
0.0
  0
LINE
  5
2FC
  8
LAYER0002
  6
CONTINUOUS
 62
     4
 10
235.7981064555102
 20
-351.9999999999999
 30
0.0
 11
235.7981064555102
 21
-259.9999999999999
 31
0.0
  0
LINE
  5
2FD
  8
LAYER0002
  6
CONTINUOUS
 62
     4
 10
186.7981064555102
 20
-273.9999999999999
 30
0.0
 11
284.7981064555102
 21
-273.9999999999999
 31
0.0
  0
LINE
  5
2FE
  8
LAYER0002
  6
CONTINUOUS
 62
     4
 10
186.7981064555102
 20
-287.9999999999999
 30
0.0
 11
284.7981064555102
 21
-287.9999999999999
 31
0.0
  0
LINE
  5
2FF
  8
LAYER0002
  6
CONTINUOUS
 62
     4
 10
186.7981064555102
 20
-329.9999999999999
 30
0.0
 11
284.7981064555102
 21
-329.9999999999999
 31
0.0
  0
LINE
  5
300
  8
LAYER0002
  6
CONTINUOUS
 62
     4
 10
186.7981064555102
 20
-343.9999999999999
 30
0.0
 11
284.7981064555102
 21
-343.9999999999999
 31
0.0
  0
LINE
  5
301
  8
LAYER0002
  6
CONTINUOUS
 62
     4
 10
502.7981064555102
 20
-331.9999999999999
 30
0.0
 11
546.7981064555102
 21
-331.9999999999999
 31
0.0
  0
LINE
  5
302
  8
LAYER0002
  6
CONTINUOUS
 62
     4
 10
298.7981064555102
 20
-278.9999999999999
 30
0.0
 11
298.7981064555102
 21
-259.9999999999999
 31
0.0
  0
LINE
  5
303
  8
LAYER0002
  6
CONTINUOUS
 62
     4
 10
396.7981064555102
 20
-295.9999999999999
 30
0.0
 11
396.7981064555102
 21
-292.9999999999999
 31
0.0
  0
LINE
  5
304
  8
LAYER0002
  6
CONTINUOUS
 62
     4
 10
444.7981064555102
 20
-295.9999999999999
 30
0.0
 11
444.7981064555102
 21
-292.9999999999999
 31
0.0
  0
LINE
  5
305
  8
LAYER0002
  6
CONTINUOUS
 62
     4
 10
478.7981064555102
 20
-295.9999999999999
 30
0.0
 11
478.7981064555102
 21
-292.9999999999999
 31
0.0
  0
LINE
  5
306
  8
LAYER0002
  6
CONTINUOUS
 62
     4
 10
396.7981064555102
 20
-278.9999999999999
 30
0.0
 11
396.7981064555102
 21
-259.9999999999999
 31
0.0
  0
LINE
  5
307
  8
LAYER0002
  6
CONTINUOUS
 62
     4
 10
444.7981064555102
 20
-278.9999999999999
 30
0.0
 11
444.7981064555102
 21
-259.9999999999999
 31
0.0
  0
LINE
  5
308
  8
LAYER0002
  6
CONTINUOUS
 62
     4
 10
478.7981064555102
 20
-278.9999999999999
 30
0.0
 11
478.7981064555102
 21
-259.9999999999999
 31
0.0
  0
LINE
  5
309
  8
LAYER0002
  6
CONTINUOUS
 62
     4
 10
186.7981064555102
 20
-301.9999999999999
 30
0.0
 11
284.7981064555102
 21
-301.9999999999999
 31
0.0
  0
LINE
  5
30A
  8
LAYER0002
  6
CONTINUOUS
 62
     4
 10
186.7981064555102
 20
-315.9999999999999
 30
0.0
 11
284.7981064555102
 21
-315.9999999999999
 31
0.0
  0
LINE
  5
30B
  8
LAYER0002
  6
CONTINUOUS
 62
     4
 10
194.7981064555102
 20
-260.9999999999999
 30
0.0
 11
188.7981064555102
 21
-272.9999999999999
 31
0.0
  0
LINE
  5
30C
  8
LAYER0002
  6
CONTINUOUS
 62
     4
 10
194.7981064555102
 20
-260.9999999999999
 30
0.0
 11
200.7981064555102
 21
-272.9999999999999
 31
0.0
  0
LINE
  5
30D
  8
LAYER0002
  6
CONTINUOUS
 62
     4
 10
188.7981064555102
 20
-272.9999999999999
 30
0.0
 11
200.7981064555102
 21
-272.9999999999999
 31
0.0
  0
LINE
  5
30E
  8
LAYER0002
  6
CONTINUOUS
 62
     4
 10
194.7981064555102
 20
-316.9999999999999
 30
0.0
 11
188.7981064555102
 21
-328.9999999999999
 31
0.0
  0
LINE
  5
30F
  8
LAYER0002
  6
CONTINUOUS
 62
     4
 10
194.7981064555102
 20
-316.9999999999999
 30
0.0
 11
200.7981064555102
 21
-328.9999999999999
 31
0.0
  0
LINE
  5
310
  8
LAYER0002
  6
CONTINUOUS
 62
     4
 10
188.7981064555102
 20
-328.9999999999999
 30
0.0
 11
200.7981064555102
 21
-328.9999999999999
 31
0.0
  0
LINE
  5
311
  8
LAYER0002
  6
CONTINUOUS
 62
     4
 10
194.7981064555102
 20
-302.9999999999999
 30
0.0
 11
188.7981064555102
 21
-314.9999999999999
 31
0.0
  0
LINE
  5
312
  8
LAYER0002
  6
CONTINUOUS
 62
     4
 10
194.7981064555102
 20
-302.9999999999999
 30
0.0
 11
200.7981064555102
 21
-314.9999999999999
 31
0.0
  0
LINE
  5
313
  8
LAYER0002
  6
CONTINUOUS
 62
     4
 10
188.7981064555102
 20
-314.9999999999999
 30
0.0
 11
200.7981064555102
 21
-314.9999999999999
 31
0.0
  0
LINE
  5
314
  8
LAYER0002
  6
CONTINUOUS
 62
     4
 10
194.7981064555102
 20
-288.9999999999999
 30
0.0
 11
188.7981064555102
 21
-300.9999999999999
 31
0.0
  0
LINE
  5
315
  8
LAYER0002
  6
CONTINUOUS
 62
     4
 10
194.7981064555102
 20
-288.9999999999999
 30
0.0
 11
200.7981064555102
 21
-300.9999999999999
 31
0.0
  0
LINE
  5
316
  8
LAYER0002
  6
CONTINUOUS
 62
     4
 10
188.7981064555102
 20
-300.9999999999999
 30
0.0
 11
200.7981064555102
 21
-300.9999999999999
 31
0.0
  0
LINE
  5
317
  8
LAYER0002
  6
CONTINUOUS
 62
     4
 10
194.7981064555102
 20
-274.9999999999999
 30
0.0
 11
188.7981064555102
 21
-286.9999999999999
 31
0.0
  0
LINE
  5
318
  8
LAYER0002
  6
CONTINUOUS
 62
     4
 10
194.7981064555102
 20
-274.9999999999999
 30
0.0
 11
200.7981064555102
 21
-286.9999999999999
 31
0.0
  0
LINE
  5
319
  8
LAYER0002
  6
CONTINUOUS
 62
     4
 10
188.7981064555102
 20
-286.9999999999999
 30
0.0
 11
200.7981064555102
 21
-286.9999999999999
 31
0.0
  0
LINE
  5
31A
  8
LAYER0002
  6
CONTINUOUS
 62
     4
 10
338.1314397888435
 20
-351.9999999999999
 30
0.0
 11
338.1314397888435
 21
-323.9999999999999
 31
0.0
  0
LINE
  5
31B
  8
LAYER0002
  6
CONTINUOUS
 62
     4
 10
391.4647731221767
 20
-351.9999999999999
 30
0.0
 11
391.4647731221767
 21
-323.9018831514505
 31
0.0
  0
LINE
  5
31C
  8
LAYER0002
  6
CONTINUOUS
 62
     4
 10
418.1314397888435
 20
-334.9999999999999
 30
0.0
 11
418.1314397888435
 21
-323.9018831514505
 31
0.0
  0
LINE
  5
31D
  8
LAYER0002
  6
CONTINUOUS
 62
     4
 10
444.79810645551
 20
-309.9999999999999
 30
0.0
 11
502.79810645551
 21
-309.9999999999999
 31
0.0
  0
LINE
  5
31E
  8
LAYER0002
  6
CONTINUOUS
 62
     4
 10
284.7981064555102
 20
-331.9999999999999
 30
0.0
 11
444.79810645551
 21
-331.9999999999999
 31
0.0
  0
TEXT
  5
320
  8
LAYER0002
 62
     7
 10
286.7856227504596
 20
-261.6423774579119
 30
0.0
 40
4.88497856
  1
符号
 41
0.8
  7
FDASTYLE0
  0
TEXT
  5
321
  8
LAYER0002
 62
     7
 10
317.6263686993219
 20
-271.6491050039925
 30
0.0
 40
8.0
  1
品       名
 41
0.7333635129017656
  7
FDASTYLE1
 72
     5
 11
372.7753048695346
 21
-271.6491050039925
 31
0.0
  0
TEXT
  5
322
  8
LAYER0002
 62
     7
 10
407.2644193381294
 20
-271.6491050039925
 30
0.0
 40
8.0
  1
材  料
 41
0.6611570247933895
  7
FDASTYLE1
 72
     5
 11
430.5371466108567
 21
-271.6491050039925
 31
0.0
  0
TEXT
  5
323
  8
LAYER0002
 62
     7
 10
451.8302298252202
 20
-271.6491050039925
 30
0.0
 40
8.0
  1
個 数
 41
0.6228373702422144
  7
FDASTYLE1
 72
     5
 11
468.7714062958084
 21
-271.6491050039925
 31
0.0
  0
TEXT
  5
324
  8
LAYER0002
 62
     7
 10
484.2417283612862
 20
-267.1298160101144
 30
0.0
 40
5.0
  1
単重量
 41
0.5555555555555556
  7
FDASTYLE1
 72
     5
 11
494.2417283612862
 21
-267.1298160101144
 31
0.0
  0
TEXT
  5
325
  8
LAYER0002
 62
     7
 10
482.2160097027821
 20
-274.7262609795049
 30
0.0
 40
5.0
  1
(kg)
 41
0.8
  7
FDASTYLE1
 72
     5
 11
498.2160097027821
 21
-274.7262609795049
 31
0.0
  0
TEXT
  5
326
  8
LAYER0002
 62
     7
 10
511.0825005864658
 20
-271.6491050039925
 30
0.0
 40
8.0
  1
記  事
 41
0.6611570247933878
  7
FDASTYLE1
 72
     5
 11
534.3552278591931
 21
-271.6491050039925
 31
0.0
  0
TEXT
  5
327
  8
LAYER0002
 62
     7
 10
510.4882653658392
 20
-330.9746083995458
 30
0.0
 40
6.0
  1
コード番号
 41
0.5555555555555556
  7
FDASTYLE1
 72
     5
 11
530.4882653658392
 21
-330.9746083995458
 31
0.0
  0
TEXT
  5
328
  8
LAYER0002
 62
     7
 10
196.6220904871734
 20
-350.3758021080676
 30
0.0
 40
5.0
  1
訂 正 来 歴
 41
0.64431295200526
  7
FDASTYLE1
 72
     5
 11
221.7502956153786
 21
-350.3758021080676
 31
0.0
  0
TEXT
  5
329
  8
LAYER0002
 62
     7
 10
244.57877614904
 20
-350.4333394783303
 30
0.0
 40
5.0
  1
工 事 番 号
 41
0.64431295200526
  7
FDASTYLE1
 72
     5
 11
269.7069812772452
 21
-350.4333394783303
 31
0.0
  0
TEXT
  5
32A
  8
LAYER0002
 62
     7
 10
190.666107148716
 20
-331.926906113183
 30
0.0
 40
3.8163895
  1
記号
 41
0.8
  7
FDASTYLE0
  0
TEXT
  5
32B
  8
LAYER0002
 62
     7
 10
202.5448812690339
 20
-331.926906113183
 30
0.0
 40
3.8163895
  1
理由
 41
0.8
  7
FDASTYLE0
  0
TEXT
  5
32C
  8
LAYER0002
 62
     7
 10
216.0368400374788
 20
-339.7572093400356
 30
0.0
 40
6.0
  1
日 付
 41
0.6228373702422138
  7
FDASTYLE1
 72
     5
 11
228.7427223904199
 21
-339.7572093400356
 31
0.0
  0
TEXT
  5
32D
  8
LAYER0002
 62
     7
 10
505.8929942772385
 20
-284.7050618140164
 30
0.0
 40
6.0
  1
標　準
 41
0.4861111111111112
  7
FDASTYLE1
 72
     5
 11
516.3929942772385
 21
-284.7050618140164
 31
0.0
  0
TEXT
  5
32E
  8
LAYER0002
 62
     7
 10
299.6944444194406
 20
-331.4375822928488
 30
0.0
 40
6.0
  1
承   認
 41
0.6858710562414269
  7
FDASTYLE1
 72
     5
 11
321.9166666416629
 21
-331.4375822928488
 31
0.0
  0
TEXT
  5
32F
  8
LAYER0002
 62
     7
 10
352.5245625219782
 20
-330.9746083995458
 30
0.0
 40
6.0
  1
検   図
 41
0.6858710562414269
  7
FDASTYLE1
 72
     5
 11
374.7467847442004
 21
-330.9746083995458
 31
0.0
  0
TEXT
  5
330
  8
LAYER0002
 62
     7
 10
395.7524906522602
 20
-330.9746083995458
 30
0.0
 40
6.0
  1
担  当
 41
0.6611570247933879
  7
FDASTYLE1
 72
     5
 11
413.2070361068057
 21
-330.9746083995458
 31
0.0
  0
TEXT
  5
331
  8
LAYER0002
 62
     7
 10
422.1522214237326
 20
-330.9746083995458
 30
0.0
 40
6.0
  1
製  図
 41
0.6611570247933879
  7
FDASTYLE1
 72
     5
 11
439.606766878278
 21
-330.9746083995458
 31
0.0
  0
TEXT
  5
332
  8
LAYER0002
 62
     7
 10
446.69058091635
 20
-306.4369920544834
 30
0.0
 40
6.0
  1
作図
 41
0.5555555555555556
  7
FDASTYLE1
 72
     5
 11
454.69058091635
 21
-306.4369920544834
 31
0.0
  0
TEXT
  5
333
  8
LAYER0002
 62
     7
 10
449.0054503828653
 20
-320.4743132803631
 30
0.0
 40
8.0
  1
第 三 角 法
 41
0.6443129520052602
  7
FDASTYLE1
 72
     5
 11
489.2105785879935
 21
-320.4743132803631
 31
0.0
  0
TEXT
  5
334
  8
LAYER0002
 62
     7
 10
447.6165287029562
 20
-332.826503972758
 30
0.0
 40
6.0
  1
尺度
 41
0.5555555555555556
  7
FDASTYLE1
 72
     5
 11
455.6165287029562
 21
-332.826503972758
 31
0.0
  0
TEXT
  5
336
  8
LAYER0002
 62
     3
 10
203.5564151955782
 20
-371.8544154370033
 30
0.0
 40
14.0
  1
株式会社 野村製作所
 41
0.431482156107264
  7
FDASTYLE2
 72
     5
 11
284.2487561735099
 21
-371.8544154370033
 31
0.0
  0
TEXT
  5
338
  8
LAYER0002
 62
     3
 10
344.8826337891586
 20
-374.2433371169125
 30
0.0
 40
16.0
  1
２－
 41
0.7311772135933162
  7
FDASTYLE3
 72
     5
 11
371.2635076556054
 21
-374.2433371169125
 31
0.0
  0
TEXT
  5
339
  8
LAYER0002
 62
     6
 10
378.7065490379721
 20
-374.2433371169125
 30
0.0
 40
16.0
  1
9314021
 41
0.681678
  7
FDASTYLE1
 72
     5
 11
455.0544850379721
 21
-374.2433371169125
 31
0.0
  0
TEXT
  5
33A
  8
LAYER0002
 62
     6
 10
455.5667310035021
 20
-290.2356392984342
 30
0.0
 40
8.0
  1
一式
 41
0.4861111111111102
  7
FDASTYLE1
 72
     5
 11
464.9000643368354
 21
-290.2356392984342
 31
0.0
  0
TEXT
  5
33B
  8
LAYER0002
 62
     6
 10
320.2454665273568
 20
-290.204241348737
 30
0.0
 40
10.0
  1
外　形　図
 41
0.4861111111111114
  7
FDASTYLE1
 72
     5
 11
349.4121331940235
 21
-290.204241348737
 31
0.0
  0
TEXT
  5
33C
  8
LAYER0002
 62
     4
 10
471.40046423679
 20
-344.594974878402
 30
0.0
 40
6.0
  1
1/2
 41
0.7000000000000013
  7
FDASTYLE1
 72
     5
 11
484.00046423679
 21
-344.594974878402
 31
0.0
  0
LINE
  5
33D
  8
0
  6
CENTER
 62
     7
 10
-296.2482192280837
 20
104.299947738266
 30
0.0
 11
-131.6782881978102
 21
104.299947738266
 31
0.0
  0
LINE
  5
33E
  8
0
  6
CENTER
 62
     7
 10
74.72552039593984
 20
104.299947738266
 30
0.0
 11
454.3440964457445
 21
104.299947738266
 31
0.0
  0
LINE
  5
33F
  8
0
  6
CENTER
 62
     7
 10
194.0606859222985
 20
-17.35500233802523
 30
0.0
 11
217.0606810347168
 21
22.4821523065535
 31
0.0
  0
LINE
  5
340
  8
0
  6
CENTER
 62
     7
 10
194.060732229626
 20
225.9549277982502
 30
0.0
 11
217.0607330640908
 21
186.1177632427974
 31
0.0
  0
LINE
  5
341
  8
0
  6
CENTER
 62
     7
 10
104.8587019611189
 20
196.3524222716663
 30
0.0
 11
180.7515162888257
 21
152.5356903309638
 31
0.0
  0
LINE
  5
342
  8
0
  6
CENTER
 62
     7
 10
311.5357523372537
 20
22.48225225947189
 30
0.0
 11
334.5357474496719
 21
-17.35490238510684
 31
0.0
  0
LINE
  5
343
  8
0
  6
CENTER
 62
     7
 10
323.9522118081713
 20
138.7411870537077
 30
0.0
 11
340.70087650803
 21
148.4110320583946
 31
0.0
  0
LINE
  5
344
  8
0
  6
CENTER
 62
     7
 10
311.5356907711353
 20
186.1176467717556
 30
0.0
 11
333.7040283747443
 21
224.5143285541522
 31
0.0
  0
LINE
  5
345
  8
0
  6
CENTER
 62
     7
 10
149.5461228129321
 20
231.799947738266
 30
0.0
 11
194.5015976664477
 21
231.799947738266
 31
0.0
  0
LINE
  5
346
  8
0
  6
CENTER
 62
     7
 10
214.2981064555102
 20
110.6428890224457
 30
0.0
 11
214.2981064555102
 21
97.00826835594179
 31
0.0
  0
LINE
  5
347
  8
0
  6
CENTER
 62
     7
 10
314.2981064555102
 20
110.2632579799652
 30
0.0
 11
314.2981064555102
 21
96.6464290615082
 31
0.0
  0
LINE
  5
348
  8
0
  6
CENTER
 62
     7
 10
-176.7317702534743
 20
250.299947738266
 30
0.0
 11
-109.9215438130446
 21
250.299947738266
 31
0.0
  0
LINE
  5
349
  8
0
  6
CENTER
 62
     7
 10
-176.7317702534743
 20
205.299947738266
 30
0.0
 11
-110.2120253804274
 21
205.299947738266
 31
0.0
  0
LINE
  5
34A
  8
0
  6
CENTER
 62
     7
 10
-202.8909804585524
 20
154.299947738266
 30
0.0
 11
-181.3256270649977
 21
154.299947738266
 31
0.0
  0
LINE
  5
34B
  8
0
  6
CENTER
 62
     7
 10
-312.3110171207235
 20
-13.17505836524961
 30
0.0
 11
-234.2538497212477
 21
-13.17505836524961
 31
0.0
  0
LINE
  5
34C
  8
0
  6
CENTER
 62
     7
 10
-179.5946056847841
 20
26.29994392356875
 30
0.0
 11
-144.1509279638264
 21
26.29994392356875
 31
0.0
  0
LINE
  5
34D
  8
0
  6
CENTER
 62
     7
 10
103.2784929550538
 20
11.33521419517737
 30
0.0
 11
264.2981224080133
 21
104.2999303337357
 31
0.0
  0
LINE
  5
34E
  8
0
  6
CENTER
 62
     7
 10
264.298152109172
 20
104.2999701213736
 30
0.0
 11
423.5165395463704
 21
12.37520143059518
 31
0.0
  0
LINE
  5
34F
  8
0
  6
CENTER
 62
     7
 10
128.6745225830692
 20
47.20694587110401
 30
0.0
 11
146.6199592926442
 21
16.12454198929399
 31
0.0
  0
LINE
  5
350
  8
0
  6
CENTER
 62
     7
 10
381.7702847036102
 20
15.76769308033144
 30
0.0
 11
399.781997971379
 21
46.96489131253892
 31
0.0
  0
LINE
  5
351
  8
0
  6
CENTER
 62
     7
 10
342.9005134622216
 20
38.44315378798601
 30
0.0
 11
360.9122267299903
 21
69.64035202019349
 31
0.0
  0
LINE
  5
352
  8
0
  6
CENTER
 62
     7
 10
167.9484957176404
 20
69.18244578836433
 30
0.0
 11
185.6223431156646
 21
38.57044832843312
 31
0.0
  0
LINE
  5
353
  8
0
  6
CENTER
 62
     7
 10
186.9068830751449
 20
148.9818880525525
 30
0.0
 11
204.3984669442826
 21
138.8831185128846
 31
0.0
  0
LINE
  5
354
  8
0
  6
CENTER
 62
     7
 10
259.5076248881273
 20
154.299947738266
 30
0.0
 11
268.9690659281665
 21
154.299947738266
 31
0.0
  0
LINE
  5
355
  8
0
  6
CENTER
 62
     7
 10
246.5109207865648
 20
250.299947738266
 30
0.0
 11
282.1961472269945
 21
250.299947738266
 31
0.0
  0
LINE
  5
356
  8
0
  6
CENTER
 62
     7
 10
246.131297373479
 20
205.299947738266
 30
0.0
 11
282.5757858988695
 21
205.299947738266
 31
0.0
  0
LINE
  5
357
  8
0
  6
CENTER
 62
     7
 10
223.3920805805224
 20
75.15126336266994
 30
0.0
 11
218.6613524311084
 21
83.34512472718606
 31
0.0
  0
LINE
  5
358
  8
0
  6
CENTER
 62
     7
 10
309.9946226827673
 20
83.44863409542504
 30
0.0
 11
305.2638945333533
 21
75.25477273090891
 31
0.0
  0
ARC
  5
359
  8
0
  6
CENTER
 62
     7
 10
264.2981064555102
 20
104.299947738266
 30
0.0
 40
117.4749984741211
 50
0.0
 51
11.21458663598689
  0
ARC
  5
35A
  8
0
  6
CENTER
 62
     7
 10
264.2981064555102
 20
104.299947738266
 30
0.0
 40
78.0
 50
261.7286384106364
 51
279.1018802627241
  0
ARC
  5
35B
  8
0
  6
CENTER
 62
     7
 10
264.2981064555102
 20
104.299947738266
 30
0.0
 40
117.4749984741211
 50
48.76424486233275
 51
71.23569017507975
  0
ARC
  5
35C
  8
0
  6
CENTER
 62
     7
 10
264.2981064555102
 20
104.299947738266
 30
0.0
 40
117.4749984741211
 50
108.7642397017957
 51
131.2356918447319
  0
ARC
  5
35D
  8
0
  6
CENTER
 62
     7
 10
264.2981064555102
 20
104.299947738266
 30
0.0
 40
117.4749984741211
 50
168.7014377820295
 51
191.235693514384
  0
ARC
  5
35E
  8
0
  6
CENTER
 62
     7
 10
264.2981064555102
 20
104.299947738266
 30
0.0
 40
117.4749984741211
 50
228.7642535137548
 51
251.235705656691
  0
ARC
  5
35F
  8
0
  6
CENTER
 62
     7
 10
264.2981064555102
 20
104.299947738266
 30
0.0
 40
117.4749984741211
 50
288.7642825041635
 51
311.2357380621943
  0
ARC
  5
360
  8
0
  6
CENTER
 62
     7
 10
264.2981064555102
 20
104.299947738266
 30
0.0
 40
117.4749984741211
 50
348.7642747823056
 51
360.0
  0
ARC
  5
361
  8
0
  6
CENTER
 62
     7
 10
264.2981064555102
 20
104.299947738266
 30
0.0
 40
78.0
 50
21.9130705179093
 51
38.08683552909443
  0
ARC
  5
362
  8
0
  6
CENTER
 62
     7
 10
264.2981064555102
 20
104.299947738266
 30
0.0
 40
78.0
 50
141.913094347781
 51
158.0868593589662
  0
LINE
  5
363
  8
0
  6
CENTER
 62
     7
 10
264.2981064555104
 20
290.2079524990082
 30
0.0
 11
264.2981064555104
 21
131.4374209309426
 31
0.0
  0
LINE
  5
364
  8
0
  6
CENTER
 62
     7
 10
264.2981064555104
 20
118.1477119050734
 30
0.0
 11
264.2981064555104
 21
-79.26374244728092
 31
0.0
  0
LINE
  5
365
  8
0
  6
CENTER
 62
     7
 10
-226.9349257710524
 20
-34.82432224599086
 30
0.0
 11
-226.9349257710524
 21
-75.16267494372445
 31
0.0
  0
LINE
  5
366
  8
0
  6
DASHED2
 62
     7
 10
129.6622805558355
 20
175.1038444820361
 30
0.0
 11
135.6622812710912
 21
185.4961491409259
 31
0.0
  0
LINE
  5
367
  8
0
  6
DASHED2
 62
     7
 10
109.8327982675096
 20
186.552423547435
 30
0.0
 11
129.6622839782839
 21
175.1038658992863
 31
0.0
  0
LINE
  5
368
  8
0
  6
DASHED2
 62
     7
 10
115.8328020394129
 20
196.9447265373948
 30
0.0
 11
135.6622902279059
 21
185.4961674587348
 31
0.0
  0
LINE
  5
369
  8
0
  6
DASHED2
 62
     7
 10
-232.9349257710524
 20
-47.70005226173399
 30
0.0
 11
-220.9349257710524
 21
-47.70005226173399
 31
0.0
  0
LINE
  5
36A
  8
0
  6
DASHED2
 62
     7
 10
-232.9349257710524
 20
-47.70005226173399
 30
0.0
 11
-232.9349257710524
 21
-70.70005226173399
 31
0.0
  0
LINE
  5
36B
  8
0
  6
DASHED2
 62
     7
 10
-220.9349257710524
 20
-47.70005226173399
 30
0.0
 11
-220.9349257710524
 21
-70.70005226173399
 31
0.0
  0
LINE
  5
36C
  8
0
  6
DASHED
 62
     7
 10
136.2244616367505
 20
172.4698675456956
 30
0.0
 11
141.2244546034015
 21
181.130108213605
 31
0.0
  0
LINE
  5
36D
  8
0
  6
DASHED
 62
     7
 10
110.3055563504791
 20
187.4341594851353
 30
0.0
 11
136.2244577576307
 21
172.4698764338999
 31
0.0
  0
LINE
  5
36E
  8
0
  6
DASHED
 62
     7
 10
115.3055663558067
 20
196.094443253612
 30
0.0
 11
141.2244694147707
 21
181.1301592487023
 31
0.0
  0
LINE
  5
36F
  8
0
  6
DASHED
 62
     7
 10
141.2244522807055
 20
175.3566188808441
 30
0.0
 11
141.2244522807055
 21
181.1301174160004
 31
0.0
  0
LINE
  5
370
  8
0
  6
DASHED
 62
     7
 10
136.2244561179681
 20
172.4698794117859
 30
0.0
 11
141.2244527725119
 21
175.3566285073003
 31
0.0
  0
LINE
  5
371
  8
0
  6
DASHED
 62
     7
 10
-231.9349257710524
 20
-40.70005226173399
 30
0.0
 11
-221.9349257710524
 21
-40.70005226173399
 31
0.0
  0
LINE
  5
372
  8
0
  6
DASHED
 62
     7
 10
-231.9349257710524
 20
-40.70005226173399
 30
0.0
 11
-231.9349257710524
 21
-70.70005226173399
 31
0.0
  0
LINE
  5
373
  8
0
  6
DASHED
 62
     7
 10
-221.9349257710524
 20
-40.70005226173399
 30
0.0
 11
-221.9349257710524
 21
-70.70005226173399
 31
0.0
  0
LINE
  5
374
  8
0
  6
DASHED
 62
     7
 10
-231.9349295295953
 20
-40.70004692652893
 30
0.0
 11
-226.9349328750515
 21
-37.81329783101447
 31
0.0
  0
LINE
  5
375
  8
0
  6
DASHED
 62
     7
 10
-226.9349495445254
 20
-37.81332210389738
 30
0.0
 11
-221.9349528899816
 21
-40.70007119941184
 31
0.0
  0
LINE
  5
376
  8
0
  6
CONTINUOUS
 62
     3
 10
-147.9349257710524
 20
276.2999629970551
 30
0.0
 11
-147.9349257710524
 21
264.9272823329926
 31
0.0
  0
LINE
  5
377
  8
0
  6
CONTINUOUS
 62
     3
 10
-282.6349379780837
 20
279.2999629970551
 30
0.0
 11
-282.6349379780837
 21
-70.70005226173399
 31
0.0
  0
LINE
  5
378
  8
0
  6
CONTINUOUS
 62
     3
 10
-282.6349379780837
 20
264.2999629970551
 30
0.0
 11
-276.9349257710524
 21
264.2999629970551
 31
0.0
  0
LINE
  5
379
  8
0
  6
CONTINUOUS
 62
     3
 10
-282.6349379780837
 20
-55.70005226173399
 30
0.0
 11
-276.9349257710524
 21
-55.70005226173399
 31
0.0
  0
LINE
  5
37A
  8
0
  6
CONTINUOUS
 62
     3
 10
-282.6349379780837
 20
279.2999629970551
 30
0.0
 11
-148.9349257710524
 21
279.2999629970551
 31
0.0
  0
LINE
  5
37B
  8
0
  6
CONTINUOUS
 62
     3
 10
-282.6349379780837
 20
-70.70005226173399
 30
0.0
 11
-150.9349715474195
 21
-70.70005226173399
 31
0.0
  0
LINE
  5
37C
  8
0
  6
CONTINUOUS
 62
     3
 10
-276.9349257710524
 20
264.299947738266
 30
0.0
 11
-276.9349257710524
 21
-55.70005226173399
 31
0.0
  0
LINE
  5
37D
  8
0
  6
CONTINUOUS
 62
     3
 10
-167.9349257710524
 20
185.0806789394379
 30
0.0
 11
-167.9349257710524
 21
160.0879421230316
 31
0.0
  0
LINE
  5
37E
  8
0
  6
CONTINUOUS
 62
     3
 10
-194.9349257710524
 20
186.299947738266
 30
0.0
 11
-148.9349257710524
 21
186.299947738266
 31
0.0
  0
LINE
  5
37F
  8
0
  6
CONTINUOUS
 62
     3
 10
-194.9349257710524
 20
279.2999629970551
 30
0.0
 11
-194.9349257710524
 21
171.799947738266
 31
0.0
  0
LINE
  5
380
  8
0
  6
CONTINUOUS
 62
     3
 10
-160.9349257710524
 20
279.2999629970551
 30
0.0
 11
-160.9349257710524
 21
264.299947738266
 31
0.0
  0
LINE
  5
381
  8
0
  6
CONTINUOUS
 62
     3
 10
-172.7349288228102
 20
279.2999629970551
 30
0.0
 11
-172.7349288228102
 21
186.299947738266
 31
0.0
  0
LINE
  5
382
  8
0
  6
CONTINUOUS
 62
     3
 10
-146.4349257710524
 20
264.299947738266
 30
0.0
 11
-146.4349257710524
 21
258.299947738266
 31
0.0
  0
LINE
  5
383
  8
0
  6
CONTINUOUS
 62
     3
 10
-171.9349257710524
 20
264.2999629970551
 30
0.0
 11
-146.4349257710524
 21
264.2999629970551
 31
0.0
  0
LINE
  5
384
  8
0
  6
CONTINUOUS
 62
     3
 10
-171.9349257710524
 20
191.299947738266
 30
0.0
 11
-146.4349257710524
 21
191.299947738266
 31
0.0
  0
LINE
  5
385
  8
0
  6
CONTINUOUS
 62
     3
 10
-146.4349257710524
 20
242.299947738266
 30
0.0
 11
-146.4349257710524
 21
213.299947738266
 31
0.0
  0
LINE
  5
386
  8
0
  6
CONTINUOUS
 62
     3
 10
-171.9349257710524
 20
264.2999629970551
 30
0.0
 11
-171.9349257710524
 21
191.299947738266
 31
0.0
  0
LINE
  5
387
  8
0
  6
CONTINUOUS
 62
     3
 10
-147.9349257710524
 20
190.2448940273285
 30
0.0
 11
-147.9349257710524
 21
-67.7000064853668
 31
0.0
  0
LINE
  5
388
  8
0
  6
CONTINUOUS
 62
     3
 10
-160.9349257710524
 20
191.299947738266
 30
0.0
 11
-160.9349257710524
 21
186.299947738266
 31
0.0
  0
LINE
  5
389
  8
0
  6
CONTINUOUS
 62
     3
 10
-171.9349257710524
 20
197.299947738266
 30
0.0
 11
-132.9349257710524
 21
197.299947738266
 31
0.0
  0
LINE
  5
38A
  8
0
  6
CONTINUOUS
 62
     3
 10
-171.9349257710524
 20
213.299947738266
 30
0.0
 11
-132.9349257710524
 21
213.299947738266
 31
0.0
  0
LINE
  5
38B
  8
0
  6
CONTINUOUS
 62
     3
 10
-171.9349257710524
 20
258.299947738266
 30
0.0
 11
-132.9349257710524
 21
258.299947738266
 31
0.0
  0
LINE
  5
38C
  8
0
  6
CONTINUOUS
 62
     3
 10
-171.9349257710524
 20
242.299947738266
 30
0.0
 11
-132.9349257710524
 21
242.299947738266
 31
0.0
  0
LINE
  5
38D
  8
0
  6
CONTINUOUS
 62
     3
 10
-132.9349257710524
 20
238.299947738266
 30
0.0
 11
-116.9349257710524
 21
238.299947738266
 31
0.0
  0
LINE
  5
38E
  8
0
  6
CONTINUOUS
 62
     3
 10
-132.9349257710524
 20
262.2999629970551
 30
0.0
 11
-116.9349257710524
 21
262.2999629970551
 31
0.0
  0
LINE
  5
38F
  8
0
  6
CONTINUOUS
 62
     3
 10
-132.9349257710524
 20
193.299947738266
 30
0.0
 11
-116.9349257710524
 21
193.299947738266
 31
0.0
  0
LINE
  5
390
  8
0
  6
CONTINUOUS
 62
     3
 10
-132.9349257710524
 20
217.299947738266
 30
0.0
 11
-116.9349257710524
 21
217.299947738266
 31
0.0
  0
LINE
  5
391
  8
0
  6
CONTINUOUS
 62
     3
 10
-132.9349257710524
 20
262.299947738266
 30
0.0
 11
-132.9349257710524
 21
238.299947738266
 31
0.0
  0
LINE
  5
392
  8
0
  6
CONTINUOUS
 62
     3
 10
-167.9349257710524
 20
258.299947738266
 30
0.0
 11
-167.9349257710524
 21
242.299947738266
 31
0.0
  0
LINE
  5
393
  8
0
  6
CONTINUOUS
 62
     3
 10
-116.9349257710524
 20
262.299947738266
 30
0.0
 11
-116.9349257710524
 21
238.299947738266
 31
0.0
  0
LINE
  5
394
  8
0
  6
CONTINUOUS
 62
     3
 10
-167.9349257710524
 20
213.299947738266
 30
0.0
 11
-167.9349257710524
 21
197.299947738266
 31
0.0
  0
LINE
  5
395
  8
0
  6
CONTINUOUS
 62
     3
 10
-132.9349257710524
 20
217.299947738266
 30
0.0
 11
-132.9349257710524
 21
193.299947738266
 31
0.0
  0
LINE
  5
396
  8
0
  6
CONTINUOUS
 62
     3
 10
-116.9349257710524
 20
217.299947738266
 30
0.0
 11
-116.9349257710524
 21
193.299947738266
 31
0.0
  0
LINE
  5
397
  8
0
  6
CONTINUOUS
 62
     3
 10
-146.4349257710524
 20
197.299947738266
 30
0.0
 11
-146.4349257710524
 21
191.299947738266
 31
0.0
  0
LINE
  5
398
  8
0
  6
CONTINUOUS
 62
     3
 10
-258.5724990132399
 20
170.799947738266
 30
0.0
 11
-258.5724990132399
 21
37.79994392356875
 31
0.0
  0
LINE
  5
399
  8
0
  6
CONTINUOUS
 62
     3
 10
-183.5724990132399
 20
170.799947738266
 30
0.0
 11
-183.5724990132399
 21
37.79994392356875
 31
0.0
  0
LINE
  5
39A
  8
0
  6
CONTINUOUS
 62
     3
 10
-276.9349257710524
 20
171.799947738266
 30
0.0
 11
-184.5724837544508
 21
171.799947738266
 31
0.0
  0
LINE
  5
39B
  8
0
  6
CONTINUOUS
 62
     3
 10
-257.5724990132399
 20
59.04994392356875
 30
0.0
 11
-222.5724990132399
 21
59.04994392356875
 31
0.0
  0
LINE
  5
39C
  8
0
  6
CONTINUOUS
 62
     3
 10
-257.5724990132399
 20
149.549947738266
 30
0.0
 11
-222.5724990132399
 21
149.549947738266
 31
0.0
  0
LINE
  5
39D
  8
0
  6
CONTINUOUS
 62
     3
 10
-221.5724990132399
 20
49.7499446865082
 30
0.0
 11
-201.5724990132399
 21
49.7499446865082
 31
0.0
  0
LINE
  5
39E
  8
0
  6
CONTINUOUS
 62
     3
 10
-221.5724990132399
 20
158.8499507900238
 30
0.0
 11
-201.5724990132399
 21
158.8499507900238
 31
0.0
  0
LINE
  5
39F
  8
0
  6
CONTINUOUS
 62
     3
 10
-201.5724990132399
 20
160.799947738266
 30
0.0
 11
-199.5724990132399
 21
160.799947738266
 31
0.0
  0
LINE
  5
3A0
  8
0
  6
CONTINUOUS
 62
     3
 10
-201.5724990132399
 20
47.79994392356875
 30
0.0
 11
-199.5724990132399
 21
47.79994392356875
 31
0.0
  0
LINE
  5
3A1
  8
0
  6
CONTINUOUS
 62
     3
 10
-221.5724990132399
 20
158.8499507900238
 30
0.0
 11
-221.5724990132399
 21
49.7499446865082
 31
0.0
  0
LINE
  5
3A2
  8
0
  6
CONTINUOUS
 62
     3
 10
-201.5724990132399
 20
160.799947738266
 30
0.0
 11
-201.5724990132399
 21
47.79994392356875
 31
0.0
  0
LINE
  5
3A3
  8
0
  6
CONTINUOUS
 62
     3
 10
-185.5724990132399
 20
47.79994392356875
 30
0.0
 11
-183.5724990132399
 21
47.79994392356875
 31
0.0
  0
LINE
  5
3A4
  8
0
  6
CONTINUOUS
 62
     3
 10
-185.5724990132399
 20
160.799947738266
 30
0.0
 11
-183.5724990132399
 21
160.799947738266
 31
0.0
  0
LINE
  5
3A5
  8
0
  6
CONTINUOUS
 62
     3
 10
-199.5724990132399
 20
48.29994392356875
 30
0.0
 11
-185.5724990132399
 21
48.29994392356875
 31
0.0
  0
LINE
  5
3A6
  8
0
  6
CONTINUOUS
 62
     3
 10
-199.5724990132399
 20
160.299947738266
 30
0.0
 11
-185.5724990132399
 21
160.299947738266
 31
0.0
  0
LINE
  5
3A7
  8
0
  6
CONTINUOUS
 62
     3
 10
-222.5724990132399
 20
149.549947738266
 30
0.0
 11
-222.5724990132399
 21
136.299947738266
 31
0.0
  0
LINE
  5
3A8
  8
0
  6
CONTINUOUS
 62
     3
 10
-257.5724990132399
 20
149.549947738266
 30
0.0
 11
-257.5724990132399
 21
136.299947738266
 31
0.0
  0
LINE
  5
3A9
  8
0
  6
CONTINUOUS
 62
     3
 10
-222.5724990132399
 20
72.29994392356875
 30
0.0
 11
-222.5724990132399
 21
59.04994392356875
 31
0.0
  0
LINE
  5
3AA
  8
0
  6
CONTINUOUS
 62
     3
 10
-257.5724990132399
 20
72.29994392356875
 30
0.0
 11
-257.5724990132399
 21
59.04994392356875
 31
0.0
  0
LINE
  5
3AB
  8
0
  6
CONTINUOUS
 62
     3
 10
-184.572480883541
 20
171.799954900532
 30
0.0
 11
-183.5724798219515
 21
170.7999538389425
 31
0.0
  0
LINE
  5
3AC
  8
0
  6
CONTINUOUS
 62
     3
 10
-183.5724717297566
 20
37.79990705647796
 30
0.0
 11
-184.5724727913461
 21
36.79990599488846
 31
0.0
  0
LINE
  5
3AD
  8
0
  6
CONTINUOUS
 62
     3
 10
-258.5724542426319
 20
37.79996100444313
 30
0.0
 11
-257.5724531810424
 21
36.79995994285363
 31
0.0
  0
LINE
  5
3AE
  8
0
  6
CONTINUOUS
 62
     3
 10
-258.5724110842598
 20
170.7998648248
 30
0.0
 11
-257.5724100226703
 21
171.7998658863895
 31
0.0
  0
LINE
  5
3AF
  8
0
  6
CONTINUOUS
 62
     3
 10
-257.5725724423064
 20
149.5499192122275
 30
0.0
 11
-258.5725912897797
 21
150.549945730601
 31
0.0
  0
LINE
  5
3B0
  8
0
  6
CONTINUOUS
 62
     3
 10
-222.5724155692529
 20
149.5498837126675
 30
0.0
 11
-221.5724161092599
 21
150.5498755862605
 31
0.0
  0
LINE
  5
3B1
  8
0
  6
CONTINUOUS
 62
     3
 10
-222.5723514712441
 20
59.05011218406398
 30
0.0
 11
-221.5723484708975
 21
58.05011297693781
 31
0.0
  0
LINE
  5
3B2
  8
0
  6
CONTINUOUS
 62
     3
 10
-257.5724291653783
 20
59.04986645217704
 30
0.0
 11
-258.5724340201882
 21
58.049869183808
 31
0.0
  0
LINE
  5
3B3
  8
0
  6
CONTINUOUS
 62
     3
 10
-199.5724990132399
 20
160.799947738266
 30
0.0
 11
-199.5724990132399
 21
47.79994392356875
 31
0.0
  0
LINE
  5
3B4
  8
0
  6
CONTINUOUS
 62
     3
 10
-185.5724990132399
 20
160.799947738266
 30
0.0
 11
-185.5724990132399
 21
47.79994392356875
 31
0.0
  0
LINE
  5
3B5
  8
0
  6
CONTINUOUS
 62
     3
 10
-199.5724990132399
 20
59.04994392356875
 30
0.0
 11
-185.5724990132399
 21
59.04994392356875
 31
0.0
  0
LINE
  5
3B6
  8
0
  6
CONTINUOUS
 62
     3
 10
-199.5724990132399
 20
149.549947738266
 30
0.0
 11
-185.5724990132399
 21
149.549947738266
 31
0.0
  0
LINE
  5
3B7
  8
0
  6
CONTINUOUS
 62
     3
 10
-276.9349257710524
 20
36.79994392356875
 30
0.0
 11
-150.4349257710524
 21
36.79994392356875
 31
0.0
  0
LINE
  5
3B8
  8
0
  6
CONTINUOUS
 62
     3
 10
-150.4349257710524
 20
34.29994392356875
 30
0.0
 11
-147.9349257710524
 21
34.29994392356875
 31
0.0
  0
LINE
  5
3B9
  8
0
  6
CONTINUOUS
 62
     3
 10
-150.4349257710524
 20
169.5869503017426
 30
0.0
 11
-150.4349257710524
 21
34.29994392356875
 31
0.0
  0
LINE
  5
3BA
  8
0
  6
CONTINUOUS
 62
     3
 10
-150.4349257710524
 20
169.5869503017426
 30
0.0
 11
-147.9349257710524
 21
169.5869503017426
 31
0.0
  0
LINE
  5
3BB
  8
0
  6
CONTINUOUS
 62
     3
 10
-167.9349257710524
 20
166.8989467617035
 30
0.0
 11
-150.4349257710524
 21
166.8989467617035
 31
0.0
  0
LINE
  5
3BC
  8
0
  6
CONTINUOUS
 62
     3
 10
-182.0557601216383
 20
160.0879421230316
 30
0.0
 11
-167.9349257710524
 21
160.0879421230316
 31
0.0
  0
LINE
  5
3BD
  8
0
  6
CONTINUOUS
 62
     3
 10
-173.9349257710524
 20
30.59994316062929
 30
0.0
 11
-173.9349257710524
 21
21.9999446865082
 31
0.0
  0
LINE
  5
3BE
  8
0
  6
CONTINUOUS
 62
     3
 10
-173.9349257710524
 20
30.59994316062929
 30
0.0
 11
-147.9349257710524
 21
30.59994316062929
 31
0.0
  0
LINE
  5
3BF
  8
0
  6
CONTINUOUS
 62
     3
 10
-173.9349257710524
 20
21.9999446865082
 30
0.0
 11
-147.9349257710524
 21
21.9999446865082
 31
0.0
  0
LINE
  5
3C0
  8
0
  6
CONTINUOUS
 62
     3
 10
-176.417578335193
 20
26.29994546428142
 30
0.0
 11
-173.9349768734724
 21
21.99995418741273
 31
0.0
  0
LINE
  5
3C1
  8
0
  6
CONTINUOUS
 62
     3
 10
-176.4176099615966
 20
26.29995788710366
 30
0.0
 11
-173.9350046851783
 21
30.59995577122172
 31
0.0
  0
LINE
  5
3C2
  8
0
  6
CONTINUOUS
 62
     3
 10
-148.9349109521058
 20
277.3000534112331
 30
0.0
 11
-147.9349098905163
 21
276.3000523496436
 31
0.0
  0
LINE
  5
3C3
  8
0
  6
CONTINUOUS
 62
     3
 10
-150.9349724180466
 20
-70.70004088729084
 30
0.0
 11
-147.934936864499
 21
-67.70000533374324
 31
0.0
  0
LINE
  5
3C4
  8
0
  6
CONTINUOUS
 62
     3
 10
100.243671640058
 20
38.45059195366602
 30
0.0
 11
125.2436784349879
 21
-4.850684065624051
 31
0.0
  0
LINE
  5
3C5
  8
0
  6
CONTINUOUS
 62
     3
 10
403.3526332139422
 20
-4.850704932036393
 30
0.0
 11
428.3526361941745
 21
38.45056448000432
 31
0.0
  0
LINE
  5
3C6
  8
0
  6
CONTINUOUS
 62
     3
 10
125.2436853191967
 20
-4.850699624850137
 30
0.0
 11
222.4986100451343
 21
51.29945114210941
 31
0.0
  0
LINE
  5
3C7
  8
0
  6
CONTINUOUS
 62
     3
 10
100.2436706653204
 20
38.45058547085031
 30
0.0
 11
197.4986019985078
 21
94.60074005250689
 31
0.0
  0
LINE
  5
3C8
  8
0
  6
CONTINUOUS
 62
     3
 10
306.097660657354
 20
51.29948432249748
 30
0.0
 11
403.3525985977913
 21
-4.850674073856141
 31
0.0
  0
LINE
  5
3C9
  8
0
  6
CONTINUOUS
 62
     3
 10
331.097659167238
 20
94.60075671477043
 30
0.0
 11
428.3525971076751
 21
38.45059831841681
 31
0.0
  0
LINE
  5
3CA
  8
0
  6
CONTINUOUS
 62
     3
 10
95.72881830620796
 20
50.85504366979635
 30
0.0
 11
97.35977167246865
 21
51.79667493080942
 31
0.0
  0
LINE
  5
3CB
  8
0
  6
CONTINUOUS
 62
     3
 10
133.7288397461479
 20
-14.96290090700146
 30
0.0
 11
135.3597931124087
 21
-14.02126964598838
 31
0.0
  0
LINE
  5
3CC
  8
0
  6
CONTINUOUS
 62
     3
 10
393.2364511610804
 20
-14.02122120681216
 30
0.0
 11
394.8674375635902
 21
-14.96287154131042
 31
0.0
  0
LINE
  5
3CD
  8
0
  6
CONTINUOUS
 62
     3
 10
431.2364753251031
 20
51.79669757065457
 30
0.0
 11
432.8674352986137
 21
50.85506249494446
 31
0.0
  0
LINE
  5
3CE
  8
0
  6
CONTINUOUS
 62
     3
 10
428.3525950504396
 20
38.45056760732277
 30
0.0
 11
432.8674479167498
 21
50.85502346548728
 31
0.0
  0
LINE
  5
3CF
  8
0
  6
CONTINUOUS
 62
     3
 10
95.72881531637935
 20
50.85504891173852
 30
0.0
 11
100.2436685088656
 21
38.4505921574133
 31
0.0
  0
LINE
  5
3D0
  8
0
  6
CONTINUOUS
 62
     3
 10
125.2436368535718
 20
-4.850674987821009
 30
0.0
 11
133.7287798679613
 21
-14.96287339963365
 31
0.0
  0
LINE
  5
3D1
  8
0
  6
CONTINUOUS
 62
     3
 10
394.867277326552
 20
-14.96281640535872
 30
0.0
 11
403.3524252450221
 21
-4.85061214909129
 31
0.0
  0
LINE
  5
3D2
  8
0
  6
CONTINUOUS
 62
     3
 10
180.7840753194448
 20
84.95060005226318
 30
0.0
 11
205.7840840217237
 21
41.64932072934843
 31
0.0
  0
LINE
  5
3D3
  8
0
  6
CONTINUOUS
 62
     3
 10
322.8122456785491
 20
41.64931586998645
 30
0.0
 11
347.8122486587814
 21
84.95058528202716
 31
0.0
  0
LINE
  5
3D4
  8
0
  6
CONTINUOUS
 62
     3
 10
330.0622467748181
 20
54.2067185772863
 30
0.0
 11
341.4856266972055
 21
47.61142783270097
 31
0.0
  0
LINE
  5
3D5
  8
0
  6
CONTINUOUS
 62
     3
 10
340.5622120905759
 20
72.39325502632946
 30
0.0
 11
351.9855655839643
 21
65.79797954053228
 31
0.0
  0
LINE
  5
3D6
  8
0
  6
CONTINUOUS
 62
     3
 10
107.4936740478838
 20
25.89320986984134
 30
0.0
 11
127.5772621979772
 21
37.48847361352418
 31
0.0
  0
LINE
  5
3D7
  8
0
  6
CONTINUOUS
 62
     3
 10
117.9936753293835
 20
7.706672161461796
 30
0.0
 11
138.0772634794768
 21
19.30193590514463
 31
0.0
  0
LINE
  5
3D8
  8
0
  6
CONTINUOUS
 62
     3
 10
334.3923505958342
 20
51.70664405795887
 30
0.0
 11
344.8923671063225
 21
69.89320364001341
 31
0.0
  0
LINE
  5
3D9
  8
0
  6
CONTINUOUS
 62
     3
 10
397.612208025998
 20
15.20670782360557
 30
0.0
 11
408.1122092776955
 21
33.39324097666267
 31
0.0
  0
LINE
  5
3DA
  8
0
  6
CONTINUOUS
 62
     3
 10
183.7039247208596
 20
69.89321306233259
 30
0.0
 11
194.2039183431617
 21
51.70669312377422
 31
0.0
  0
LINE
  5
3DB
  8
0
  6
CONTINUOUS
 62
     3
 10
120.4840656572335
 20
33.39321862206757
 30
0.0
 11
130.9840650015821
 21
15.20668877263515
 31
0.0
  0
LINE
  5
3DC
  8
0
  6
CONTINUOUS
 62
     3
 10
137.6395684800768
 20
43.29794821232085
 30
0.0
 11
166.5484073510228
 21
59.98847227241967
 31
0.0
  0
LINE
  5
3DD
  8
0
  6
CONTINUOUS
 62
     3
 10
176.6107070258726
 20
65.7979430565193
 30
0.0
 11
188.0340340902615
 21
72.39320328352832
 31
0.0
  0
LINE
  5
3DE
  8
0
  6
CONTINUOUS
 62
     3
 10
187.1107215218719
 20
47.61141297753383
 30
0.0
 11
198.534048586261
 21
54.20667320454285
 31
0.0
  0
LINE
  5
3DF
  8
0
  6
CONTINUOUS
 62
     3
 10
148.1395763688263
 20
25.11141431863834
 30
0.0
 11
177.0484086325226
 21
41.80193456404012
 31
0.0
  0
LINE
  5
3E0
  8
0
  6
CONTINUOUS
 62
     3
 10
362.0478784733136
 20
59.98850112703858
 30
0.0
 11
390.9567107370099
 21
43.29798088163679
 31
0.0
  0
LINE
  5
3E1
  8
0
  6
CONTINUOUS
 62
     3
 10
401.0190236263592
 20
37.48850246814308
 30
0.0
 11
421.1025787402036
 21
25.89325779794544
 31
0.0
  0
LINE
  5
3E2
  8
0
  6
CONTINUOUS
 62
     3
 10
390.5190054526029
 20
19.30199653667623
 30
0.0
 11
410.6026134244457
 21
7.706721348902278
 31
0.0
  0
LINE
  5
3E3
  8
0
  6
CONTINUOUS
 62
     3
 10
351.5478867285565
 20
41.80197993678357
 30
0.0
 11
380.4567189922528
 21
25.11145969138178
 31
0.0
  0
LINE
  5
3E4
  8
0
  6
CONTINUOUS
 62
     3
 10
239.2981064555102
 20
279.299947738266
 30
0.0
 11
289.2981064555102
 21
279.299947738266
 31
0.0
  0
LINE
  5
3E5
  8
0
  6
CONTINUOUS
 62
     3
 10
239.2981064555102
 20
279.299947738266
 30
0.0
 11
239.2981064555102
 21
166.9996242519379
 31
0.0
  0
LINE
  5
3E6
  8
0
  6
CONTINUOUS
 62
     3
 10
289.2981064555102
 20
279.299947738266
 30
0.0
 11
289.2981064555102
 21
166.9996242519379
 31
0.0
  0
LINE
  5
3E7
  8
0
  6
CONTINUOUS
 62
     3
 10
302.2981064555102
 20
277.007696151352
 30
0.0
 11
302.2981064555102
 21
275.1244258876801
 31
0.0
  0
LINE
  5
3E8
  8
0
  6
CONTINUOUS
 62
     3
 10
226.2981064555102
 20
277.007696151352
 30
0.0
 11
226.2981064555102
 21
275.1244258876801
 31
0.0
  0
LINE
  5
3E9
  8
0
  6
CONTINUOUS
 62
     3
 10
226.2981062212671
 20
277.0076649343342
 30
0.0
 11
239.2981212462069
 21
279.2999183990784
 31
0.0
  0
LINE
  5
3EA
  8
0
  6
CONTINUOUS
 62
     3
 10
289.2980814113549
 20
279.2998728273284
 30
0.0
 11
302.2980814093211
 21
277.0076220122452
 31
0.0
  0
LINE
  5
3EB
  8
0
  6
CONTINUOUS
 62
     3
 10
239.2981064555102
 20
186.299947738266
 30
0.0
 11
289.2981064555102
 21
186.299947738266
 31
0.0
  0
LINE
  5
3EC
  8
0
  6
CONTINUOUS
 62
     3
 10
253.7981064555102
 20
279.299947738266
 30
0.0
 11
253.7981064555102
 21
256.1094264980317
 31
0.0
  0
LINE
  5
3ED
  8
0
  6
CONTINUOUS
 62
     3
 10
274.7981064555102
 20
279.299947738266
 30
0.0
 11
274.7981064555102
 21
256.1094264980317
 31
0.0
  0
LINE
  5
3EE
  8
0
  6
CONTINUOUS
 62
     3
 10
253.7981064555102
 20
191.299947738266
 30
0.0
 11
274.7981064555102
 21
191.299947738266
 31
0.0
  0
LINE
  5
3EF
  8
0
  6
CONTINUOUS
 62
     3
 10
253.7981064555102
 20
264.299947738266
 30
0.0
 11
274.7981064555102
 21
264.299947738266
 31
0.0
  0
LINE
  5
3F0
  8
0
  6
CONTINUOUS
 62
     3
 10
253.7981064555102
 20
199.4904689785004
 30
0.0
 11
253.7981064555102
 21
186.299947738266
 31
0.0
  0
LINE
  5
3F1
  8
0
  6
CONTINUOUS
 62
     3
 10
253.7981064555102
 20
244.4904689785004
 30
0.0
 11
253.7981064555102
 21
211.1094264980316
 31
0.0
  0
LINE
  5
3F2
  8
0
  6
CONTINUOUS
 62
     3
 10
274.7981064555102
 20
244.4904689785004
 30
0.0
 11
274.7981064555102
 21
211.1094264980316
 31
0.0
  0
LINE
  5
3F3
  8
0
  6
CONTINUOUS
 62
     3
 10
274.7981064555102
 20
199.4904689785004
 30
0.0
 11
274.7981064555102
 21
186.299947738266
 31
0.0
  0
LINE
  5
3F4
  8
0
  6
CONTINUOUS
 62
     3
 10
-199.5724990132399
 20
151.299947738266
 30
0.0
 11
-185.5724990132399
 21
151.299947738266
 31
0.0
  0
LINE
  5
3F5
  8
0
  6
CONTINUOUS
 62
     3
 10
-199.5724990132399
 20
157.299947738266
 30
0.0
 11
-185.5724990132399
 21
157.299947738266
 31
0.0
  0
LINE
  5
3F6
  8
0
  6
CONTINUOUS
 62
     3
 10
-193.5724990132399
 20
157.299947738266
 30
0.0
 11
-193.5724990132399
 21
151.299947738266
 31
0.0
  0
LINE
  5
3F7
  8
0
  6
CONTINUOUS
 62
     3
 10
-187.5724990132399
 20
157.299947738266
 30
0.0
 11
-187.5724990132399
 21
151.299947738266
 31
0.0
  0
ARC
  5
3F8
  8
0
  6
CONTINUOUS
 62
     3
 10
264.2981064555102
 20
104.299947738266
 30
0.0
 40
175.0
 50
0.0
 51
81.78678881999704
  0
CIRCLE
  5
3F9
  8
0
  6
CONTINUOUS
 62
     3
 10
205.5606034037523
 20
206.036275863266
 30
0.0
 40
10.5
  0
CIRCLE
  5
3FA
  8
0
  6
CONTINUOUS
 62
     3
 10
146.8231003519946
 20
104.299947738266
 30
0.0
 40
10.5
  0
CIRCLE
  5
3FB
  8
0
  6
CONTINUOUS
 62
     3
 10
323.035624766057
 20
2.563604354476951
 30
0.0
 40
10.5
  0
CIRCLE
  5
3FC
  8
0
  6
CONTINUOUS
 62
     3
 10
381.7731125590258
 20
104.299947738266
 30
0.0
 40
10.5
  0
CIRCLE
  5
3FD
  8
0
  6
CONTINUOUS
 62
     3
 10
323.035624766057
 20
206.036275863266
 30
0.0
 40
10.5
  0
CIRCLE
  5
3FE
  8
0
  6
CONTINUOUS
 62
     3
 10
146.8231003519946
 20
104.299947738266
 30
0.0
 40
16.0
  0
CIRCLE
  5
3FF
  8
0
  6
CONTINUOUS
 62
     3
 10
205.5606034037523
 20
2.563604354476951
 30
0.0
 40
16.0
  0
CIRCLE
  5
400
  8
0
  6
CONTINUOUS
 62
     3
 10
323.035624766057
 20
2.563604354476951
 30
0.0
 40
16.0
  0
CIRCLE
  5
401
  8
0
  6
CONTINUOUS
 62
     3
 10
381.7731125590258
 20
104.299947738266
 30
0.0
 40
16.0
  0
ARC
  5
402
  8
0
  6
CONTINUOUS
 62
     3
 10
264.2981064555102
 20
104.299947738266
 30
0.0
 40
70.0
 50
230.9248062727699
 51
309.0751682277063
  0
ARC
  5
403
  8
0
  6
CONTINUOUS
 62
     3
 10
264.2981064555102
 20
104.299947738266
 30
0.0
 40
172.0
 50
218.3574631056215
 51
321.6425216401384
  0
ARC
  5
404
  8
0
  6
CONTINUOUS
 62
     3
 10
264.2981064555102
 20
104.299947738266
 30
0.0
 40
70.0
 50
110.9248539325133
 51
189.0751270949905
  0
ARC
  5
405
  8
0
  6
CONTINUOUS
 62
     3
 10
264.2981064555102
 20
104.299947738266
 30
0.0
 40
172.0
 50
98.35749710498664
 51
201.6424839225172
  0
CIRCLE
  5
406
  8
0
  6
CONTINUOUS
 62
     3
 10
264.2981064555102
 20
104.299947738266
 30
0.0
 40
45.25
  0
ARC
  5
407
  8
0
  6
CONTINUOUS
 62
     3
 10
264.2981064555102
 20
104.299947738266
 30
0.0
 40
175.0
 50
218.2131958499725
 51
321.7867888957874
  0
CIRCLE
  5
408
  8
0
  6
CONTINUOUS
 62
     3
 10
264.2981064555102
 20
104.299947738266
 30
0.0
 40
56.0
  0
CIRCLE
  5
409
  8
0
  6
CONTINUOUS
 62
     3
 10
314.2981064555102
 20
104.299947738266
 30
0.0
 40
3.099999904632568
  0
CIRCLE
  5
40A
  8
0
  6
CONTINUOUS
 62
     3
 10
214.2981064555102
 20
104.299947738266
 30
0.0
 40
3.099999904632568
  0
CIRCLE
  5
40B
  8
0
  6
CONTINUOUS
 62
     3
 10
264.2981064555102
 20
104.299947738266
 30
0.0
 40
67.5
  0
CIRCLE
  5
40C
  8
0
  6
CONTINUOUS
 62
     3
 10
264.2981064555102
 20
26.29994773826601
 30
0.0
 40
4.0
  0
ARC
  5
40D
  8
0
  6
CONTINUOUS
 62
     3
 10
264.2981064555102
 20
104.299947738266
 30
0.0
 40
172.0
 50
338.3574818128514
 51
441.642521564348
  0
ARC
  5
40E
  8
0
  6
CONTINUOUS
 62
     3
 10
264.2981064555102
 20
104.299947738266
 30
0.0
 40
175.0
 50
338.2132111421078
 51
360.0
  0
ARC
  5
40F
  8
0
  6
CONTINUOUS
 62
     3
 10
264.2981064555102
 20
104.299947738266
 30
0.0
 40
70.0
 50
350.9248275413207
 51
429.0751647368213
  0
CIRCLE
  5
410
  8
0
  6
CONTINUOUS
 62
     3
 10
205.5606949564867
 20
206.0363368984223
 30
0.0
 40
16.0
  0
CIRCLE
  5
411
  8
0
  6
CONTINUOUS
 62
     3
 10
323.0356552836352
 20
206.0362453456879
 30
0.0
 40
16.0
  0
CIRCLE
  5
412
  8
0
  6
CONTINUOUS
 62
     3
 10
196.7481491801196
 20
143.3000011440277
 30
0.0
 40
4.0
  0
CIRCLE
  5
413
  8
0
  6
CONTINUOUS
 62
     3
 10
331.848124766057
 20
143.2999019618988
 30
0.0
 40
4.0
  0
ARC
  5
414
  8
0
  6
CONTINUOUS
 62
     3
 10
264.2981064555102
 20
104.299947738266
 30
0.0
 40
175.0
 50
98.21322984933764
 51
201.7867511781662
  0
CIRCLE
  5
415
  8
0
  6
CONTINUOUS
 62
     3
 10
264.2981064555102
 20
154.299947738266
 30
0.0
 40
3.0
  0
CIRCLE
  5
416
  8
0
  6
CONTINUOUS
 62
     3
 10
220.9968369242602
 20
79.29994773826601
 30
0.0
 40
3.0
  0
CIRCLE
  5
417
  8
0
  6
CONTINUOUS
 62
     3
 10
307.5993759867602
 20
79.29994773826601
 30
0.0
 40
3.0
  0
LINE
  5
418
  8
0
  6
DASHED
 62
     2
 10
172.2981064555102
 20
253.165655135727
 30
0.0
 11
172.2981064555102
 21
219.299947738266
 31
0.0
  0
LINE
  5
419
  8
0
  6
DASHED
 62
     2
 10
172.2981064555102
 20
219.799947738266
 30
0.0
 11
189.5664017435961
 21
219.799947738266
 31
0.0
  0
LINE
  5
41A
  8
0
  6
DASHED
 62
     2
 10
172.2981064555102
 20
243.799947738266
 30
0.0
 11
191.084910654729
 21
243.799947738266
 31
0.0
  0
LINE
  5
41B
  8
0
  6
DASHED
 62
     2
 10
132.3890488383227
 20
219.299947738266
 30
0.0
 11
172.2981064555102
 21
219.299947738266
 31
0.0
  0
LINE
  5
41C
  8
0
  6
DASHED
 62
     2
 10
160.2981064555102
 20
234.1999416347504
 30
0.0
 11
160.2981064555102
 21
229.3999538417816
 31
0.0
  0
LINE
  5
41D
  8
0
  6
DASHED
 62
     2
 10
162.9981034037523
 20
235.0999507900238
 30
0.0
 11
162.9981034037523
 21
228.4999446865082
 31
0.0
  0
LINE
  5
41E
  8
0
  6
DASHED
 62
     2
 10
168.7368576762133
 20
226.0999507900238
 30
0.0
 11
171.8593552348071
 21
226.0999507900238
 31
0.0
  0
LINE
  5
41F
  8
0
  6
DASHED
 62
     2
 10
168.7368576762133
 20
237.4999446865082
 30
0.0
 11
171.8593552348071
 21
237.4999446865082
 31
0.0
  0
LINE
  5
420
  8
0
  6
DASHED
 62
     2
 10
162.9980188756859
 20
228.4996617695566
 30
0.0
 11
160.2980148406764
 21
229.3996630014677
 31
0.0
  0
LINE
  5
421
  8
0
  6
DASHED
 62
     2
 10
162.9981591208094
 20
235.0997467786879
 30
0.0
 11
160.2981406100411
 21
234.1997407215245
 31
0.0
  0
LINE
  5
422
  8
0
  6
DASHED
 62
     2
 10
163.9981034037523
 20
234.5452785488129
 30
0.0
 11
163.9981034037523
 21
229.0044765468598
 31
0.0
  0
LINE
  5
423
  8
0
  6
DASHED
 62
     2
 10
168.2981064555102
 20
236.2499446865082
 30
0.0
 11
168.2981064555102
 21
227.3499507900238
 31
0.0
  0
LINE
  5
424
  8
0
  6
DASHED
 62
     2
 10
169.0420029398852
 20
234.6936092372895
 30
0.0
 11
171.5542099711352
 21
234.6936092372895
 31
0.0
  0
LINE
  5
425
  8
0
  6
DASHED
 62
     2
 10
169.0420029398852
 20
228.9062862392426
 30
0.0
 11
171.5542099711352
 21
228.9062862392426
 31
0.0
  0
LINE
  5
426
  8
0
  6
DASHED
 62
     2
 10
382.7181587474489
 20
-7.94848292131465
 30
0.0
 11
393.2364511610804
 21
-14.02122120681216
 31
0.0
  0
LINE
  5
427
  8
0
  6
DASHED
 62
     2
 10
421.6344234579165
 20
57.34044418846369
 30
0.0
 11
431.2364753251031
 21
51.79669757065457
 31
0.0
  0
ARC
  5
428
  8
0
  6
DASHED
 62
     2
 10
162.9981034037523
 20
231.799947738266
 30
0.0
 40
3.299999952316284
 50
73.48282241201368
 51
89.99998201391081
  0
ARC
  5
429
  8
0
  6
DASHED
 62
     2
 10
162.9981034037523
 20
231.799947738266
 30
0.0
 40
3.299999952316284
 50
270.0000179860892
 51
286.5171775879863
  0
ARC
  5
42A
  8
0
  6
DASHED
 62
     2
 10
170.2981064555102
 20
236.2499446865082
 30
0.0
 40
2.0
 50
0.0
 51
38.68218896809879
  0
ARC
  5
42B
  8
0
  6
DASHED
 62
     2
 10
170.2981064555102
 20
227.3499507900238
 30
0.0
 40
2.0
 50
0.0
 51
51.09316519948301
  0
ARC
  5
42C
  8
0
  6
DASHED
 62
     2
 10
166.2981064555102
 20
231.799947738266
 30
0.0
 40
6.0
 50
0.0
 51
28.83423780766661
  0
ARC
  5
42D
  8
0
  6
DASHED
 62
     2
 10
174.2981064555102
 20
231.799947738266
 30
0.0
 40
6.0
 50
151.165774031479
 51
208.834208665677
  0
ARC
  5
42E
  8
0
  6
DASHED
 62
     2
 10
166.2981064555102
 20
231.799947738266
 30
0.0
 40
6.0
 50
331.1657621923334
 51
360.0
  0
ARC
  5
42F
  8
0
  6
DASHED
 62
     2
 10
170.2981064555102
 20
236.2499446865082
 30
0.0
 40
2.0
 50
308.906834800517
 51
360.0
  0
ARC
  5
430
  8
0
  6
DASHED
 62
     2
 10
170.2981064555102
 20
236.2499446865082
 30
0.0
 40
2.0
 50
141.317829701236
 51
231.0931121518313
  0
ARC
  5
431
  8
0
  6
DASHED
 62
     2
 10
170.2981064555102
 20
227.3499507900238
 30
0.0
 40
2.0
 50
128.9068568849459
 51
218.6821529959194
  0
ARC
  5
432
  8
0
  6
DASHED
 62
     2
 10
170.2981064555102
 20
227.3499507900238
 30
0.0
 40
2.0
 50
321.3178110319012
 51
360.0
  0
ARC
  5
433
  8
0
  6
DASHED
 62
     2
 10
164.3313095805102
 20
240.5999507900238
 30
0.0
 40
5.650000095367432
 50
265.9910930942637
 51
315.0592540539054
  0
ARC
  5
434
  8
0
  6
DASHED
 62
     2
 10
164.3313095805102
 20
222.9999446865082
 30
0.0
 40
5.650000095367432
 50
44.94074594609464
 51
94.00890690573625
  0
ARC
  5
435
  8
0
  6
DASHED
 62
     2
 10
160.9981034037523
 20
231.799947738266
 30
0.0
 40
1.5
 50
117.8181540504575
 51
242.1818423070773
  0
LINE
  5
436
  8
0
  6
CONTINUOUS
 62
     2
 10
196.9870226663772
 20
7.513587088135495
 30
0.0
 11
205.5606710845043
 21
12.46358079090678
 31
0.0
  0
LINE
  5
437
  8
0
  6
CONTINUOUS
 62
     2
 10
205.560642963586
 20
12.46362385463871
 30
0.0
 11
214.1342866610281
 21
7.513622775797188
 31
0.0
  0
LINE
  5
438
  8
0
  6
CONTINUOUS
 62
     2
 10
214.1342728373461
 20
7.513601302719138
 30
0.0
 11
214.1342728373461
 21
-2.386392593765237
 31
0.0
  0
LINE
  5
439
  8
0
  6
CONTINUOUS
 62
     2
 10
214.1342954204361
 20
-2.38648111607418
 30
0.0
 11
205.5606487725659
 21
-7.336476884145128
 31
0.0
  0
LINE
  5
43A
  8
0
  6
CONTINUOUS
 62
     2
 10
205.5606297022428
 20
-7.336390713793122
 30
0.0
 11
196.9869842345439
 21
-2.386392585379696
 31
0.0
  0
LINE
  5
43B
  8
0
  6
CONTINUOUS
 62
     2
 10
196.9869644877367
 20
-2.386392593765237
 30
0.0
 11
196.9869644877367
 21
7.513608932113669
 31
0.0
  0
LINE
  5
43C
  8
0
  6
CONTINUOUS
 62
     2
 10
383.6797140407562
 20
35.37497102203051
 30
0.0
 11
390.7378464701305
 21
39.44997569948245
 31
0.0
  0
LINE
  5
43D
  8
0
  6
CONTINUOUS
 62
     2
 10
390.7378565518616
 20
39.44998971160985
 30
0.0
 11
397.7959787798704
 21
35.37496681743377
 31
0.0
  0
LINE
  5
43E
  8
0
  6
CONTINUOUS
 62
     2
 10
397.7959397074633
 20
35.3749332424164
 30
0.0
 11
397.7959397074633
 21
27.22493553123476
 31
0.0
  0
LINE
  5
43F
  8
0
  6
CONTINUOUS
 62
     2
 10
397.7958498178472
 20
27.22508465543487
 30
0.0
 11
390.737717388473
 21
23.15007973509327
 31
0.0
  0
LINE
  5
440
  8
0
  6
CONTINUOUS
 62
     2
 10
390.7378274227199
 20
23.14989383917109
 30
0.0
 11
383.6797027658145
 21
27.22491187555406
 31
0.0
  0
LINE
  5
441
  8
0
  6
CONTINUOUS
 62
     2
 10
383.6797287699633
 20
27.22495079002383
 30
0.0
 11
383.6797287699633
 21
35.3749446865082
 31
0.0
  0
LINE
  5
442
  8
0
  6
CONTINUOUS
 62
     2
 10
344.7085827545529
 20
57.87497255143589
 30
0.0
 11
351.7666887549136
 21
61.94996197012696
 31
0.0
  0
LINE
  5
443
  8
0
  6
CONTINUOUS
 62
     2
 10
351.7667421788506
 20
61.94998060342786
 30
0.0
 11
358.8248379778839
 21
57.87497296808087
 31
0.0
  0
LINE
  5
444
  8
0
  6
CONTINUOUS
 62
     2
 10
358.8248093363695
 20
57.8749332424164
 30
0.0
 11
358.8248093363695
 21
49.72493362388613
 31
0.0
  0
LINE
  5
445
  8
0
  6
CONTINUOUS
 62
     2
 10
358.8247555171188
 20
49.72501944175255
 30
0.0
 11
351.7666495167583
 21
45.65002978017273
 31
0.0
  0
LINE
  5
446
  8
0
  6
CONTINUOUS
 62
     2
 10
351.7666960979408
 20
45.64991281118691
 30
0.0
 11
344.7085978700201
 21
49.72491558875899
 31
0.0
  0
LINE
  5
447
  8
0
  6
CONTINUOUS
 62
     2
 10
344.7085983988695
 20
49.72494697532656
 30
0.0
 11
344.7085983988695
 21
57.8749446865082
 31
0.0
  0
LINE
  5
448
  8
0
  6
CONTINUOUS
 62
     2
 10
169.7714363198862
 20
57.87497349281065
 30
0.0
 11
176.8295555347536
 21
61.94997054088216
 31
0.0
  0
LINE
  5
449
  8
0
  6
CONTINUOUS
 62
     2
 10
176.8295726926976
 20
61.94997077944854
 30
0.0
 11
183.8876684917309
 21
57.87496314410154
 31
0.0
  0
LINE
  5
44A
  8
0
  6
CONTINUOUS
 62
     2
 10
183.887645029729
 20
57.8749446865082
 30
0.0
 11
183.887645029729
 21
49.72494697532656
 31
0.0
  0
LINE
  5
44B
  8
0
  6
CONTINUOUS
 62
     2
 10
183.887614105071
 20
49.72500265356538
 30
0.0
 11
176.8295081047104
 21
45.65001299198556
 31
0.0
  0
LINE
  5
44C
  8
0
  6
CONTINUOUS
 62
     2
 10
176.8295361889672
 20
45.64994369595351
 30
0.0
 11
169.7714379610466
 21
49.72494647352559
 31
0.0
  0
LINE
  5
44D
  8
0
  6
CONTINUOUS
 62
     2
 10
169.771434092229
 20
49.72496032676699
 30
0.0
 11
169.771434092229
 21
57.87495803794863
 31
0.0
  0
LINE
  5
44E
  8
0
  6
CONTINUOUS
 62
     2
 10
130.8002878974013
 20
35.37496830521272
 30
0.0
 11
137.8584071122688
 21
39.44996535328423
 31
0.0
  0
LINE
  5
44F
  8
0
  6
CONTINUOUS
 62
     2
 10
137.8584142025707
 20
39.44997070931149
 30
0.0
 11
144.9165100016039
 21
35.37496307396449
 31
0.0
  0
LINE
  5
450
  8
0
  6
CONTINUOUS
 62
     2
 10
144.9165146586352
 20
35.3749446865082
 30
0.0
 11
144.9165146586352
 21
27.22494697532656
 31
0.0
  0
LINE
  5
451
  8
0
  6
CONTINUOUS
 62
     2
 10
144.9164533532985
 20
27.22500222105245
 30
0.0
 11
137.858347352938
 21
23.15001255947263
 31
0.0
  0
LINE
  5
452
  8
0
  6
CONTINUOUS
 62
     2
 10
137.8583811444419
 20
23.14995698465336
 30
0.0
 11
130.8002829165212
 21
27.22495976222544
 31
0.0
  0
LINE
  5
453
  8
0
  6
CONTINUOUS
 62
     2
 10
130.8002960917407
 20
27.22495841941836
 30
0.0
 11
130.8002960917407
 21
35.37495994529726
 31
0.0
  0
LINE
  5
454
  8
0
  6
CONTINUOUS
 62
     2
 10
257.2399822984933
 20
254.3749365237814
 30
0.0
 11
264.2981147278676
 21
258.4499412012334
 31
0.0
  0
LINE
  5
455
  8
0
  6
CONTINUOUS
 62
     2
 10
264.2981432249613
 20
258.4500092562163
 30
0.0
 11
271.3562390239945
 21
254.3750016208693
 31
0.0
  0
LINE
  5
456
  8
0
  6
CONTINUOUS
 62
     2
 10
271.3562119242602
 20
254.3749446865082
 30
0.0
 11
271.3562119242602
 21
246.2249355312348
 31
0.0
  0
LINE
  5
457
  8
0
  6
CONTINUOUS
 62
     2
 10
271.3562189840492
 20
246.2249233599892
 30
0.0
 11
264.298086554675
 21
242.1499184396476
 31
0.0
  0
LINE
  5
458
  8
0
  6
CONTINUOUS
 62
     2
 10
264.2980787065721
 20
242.1498654859921
 30
0.0
 11
257.2399870858977
 21
246.2248644488614
 31
0.0
  0
LINE
  5
459
  8
0
  6
CONTINUOUS
 62
     2
 10
257.2400009867602
 20
246.2249507900238
 30
0.0
 11
257.2400009867602
 21
254.3749446865082
 31
0.0
  0
LINE
  5
45A
  8
0
  6
CONTINUOUS
 62
     2
 10
257.2399962911339
 20
209.3749521838559
 30
0.0
 11
264.2981287205083
 21
213.4499568613079
 31
0.0
  0
LINE
  5
45B
  8
0
  6
CONTINUOUS
 62
     2
 10
264.2981349366015
 20
213.4499887987737
 30
0.0
 11
271.3562307356347
 21
209.3749811634267
 31
0.0
  0
LINE
  5
45C
  8
0
  6
CONTINUOUS
 62
     2
 10
271.3562119242602
 20
209.3749446865082
 30
0.0
 11
271.3562119242602
 21
201.2249507900238
 31
0.0
  0
LINE
  5
45D
  8
0
  6
CONTINUOUS
 62
     2
 10
271.3562269855764
 20
201.2249507381135
 30
0.0
 11
264.2980945562019
 21
197.1499458177719
 31
0.0
  0
LINE
  5
45E
  8
0
  6
CONTINUOUS
 62
     2
 10
264.2980846192555
 20
197.1499263862175
 30
0.0
 11
257.2399863913348
 21
201.2249291637896
 31
0.0
  0
LINE
  5
45F
  8
0
  6
CONTINUOUS
 62
     2
 10
257.2400009867602
 20
201.2249507900238
 30
0.0
 11
257.2400009867602
 21
209.3749446865082
 31
0.0
  0
CIRCLE
  5
460
  8
0
  6
CONTINUOUS
 62
     2
 10
205.5606186625415
 20
2.563604354476951
 30
0.0
 40
15.0
  0
CIRCLE
  5
461
  8
0
  6
CONTINUOUS
 62
     2
 10
390.7378342387133
 20
31.29994392356875
 30
0.0
 40
12.0
  0
CIRCLE
  5
462
  8
0
  6
CONTINUOUS
 62
     2
 10
351.7667038676195
 20
53.79994201622012
 30
0.0
 40
12.0
  0
CIRCLE
  5
463
  8
0
  6
CONTINUOUS
 62
     2
 10
176.829539560979
 20
53.79995536766054
 30
0.0
 40
12.0
  0
CIRCLE
  5
464
  8
0
  6
CONTINUOUS
 62
     2
 10
137.8584091898852
 20
31.29995536766054
 30
0.0
 40
12.0
  0
CIRCLE
  5
465
  8
0
  6
CONTINUOUS
 62
     2
 10
264.2981064555102
 20
250.299947738266
 30
0.0
 40
12.0
  0
CIRCLE
  5
466
  8
0
  6
CONTINUOUS
 62
     2
 10
264.2981064555102
 20
205.299947738266
 30
0.0
 40
12.0
  0
LINE
  5
467
  8
0
  6
CONTINUOUS
 62
     4
 10
-149.9349257710524
 20
279.2999629970551
 30
0.0
 11
-149.9349257710524
 21
264.299947738266
 31
0.0
  0
LINE
  5
468
  8
0
  6
CONTINUOUS
 62
     4
 10
-148.9349257710524
 20
279.2999629970551
 30
0.0
 11
-148.9349257710524
 21
264.299947738266
 31
0.0
  0
LINE
  5
469
  8
0
  6
CONTINUOUS
 62
     4
 10
-149.9349257710524
 20
191.299947738266
 30
0.0
 11
-149.9349257710524
 21
186.299947738266
 31
0.0
  0
LINE
  5
46A
  8
0
  6
CONTINUOUS
 62
     4
 10
-148.9349257710524
 20
191.299947738266
 30
0.0
 11
-148.9349257710524
 21
186.299947738266
 31
0.0
  0
LINE
  5
46B
  8
0
  6
CONTINUOUS
 62
     4
 10
-171.9349257710524
 20
212.299947738266
 30
0.0
 11
-132.9349257710524
 21
212.299947738266
 31
0.0
  0
LINE
  5
46C
  8
0
  6
CONTINUOUS
 62
     4
 10
-171.9349257710524
 20
198.299947738266
 30
0.0
 11
-132.9349257710524
 21
198.299947738266
 31
0.0
  0
LINE
  5
46D
  8
0
  6
CONTINUOUS
 62
     4
 10
-171.9349257710524
 20
257.299947738266
 30
0.0
 11
-132.9349257710524
 21
257.299947738266
 31
0.0
  0
LINE
  5
46E
  8
0
  6
CONTINUOUS
 62
     4
 10
-171.9349257710524
 20
243.299947738266
 30
0.0
 11
-132.9349257710524
 21
243.299947738266
 31
0.0
  0
LINE
  5
46F
  8
0
  6
CONTINUOUS
 62
     4
 10
-199.5724990132399
 20
49.09994316062929
 30
0.0
 11
-185.5724990132399
 21
49.09994316062929
 31
0.0
  0
LINE
  5
470
  8
0
  6
CONTINUOUS
 62
     4
 10
-199.5724990132399
 20
159.4999446865082
 30
0.0
 11
-185.5724990132399
 21
159.4999446865082
 31
0.0
  0
LINE
  5
471
  8
0
  6
CONTINUOUS
 62
     4
 10
-167.9349257710524
 20
31.29994392356875
 30
0.0
 11
-167.9349257710524
 21
21.29994392356875
 31
0.0
  0
LINE
  5
472
  8
0
  6
CONTINUOUS
 62
     4
 10
-167.9349257710524
 20
31.29994392356875
 30
0.0
 11
-147.9349257710524
 21
31.29994392356875
 31
0.0
  0
LINE
  5
473
  8
0
  6
CONTINUOUS
 62
     4
 10
-167.9349257710524
 20
21.29994392356875
 30
0.0
 11
-147.9349257710524
 21
21.29994392356875
 31
0.0
  0
LINE
  5
474
  8
0
  6
CONTINUOUS
 62
     4
 10
401.2545118802249
 20
-2.48463563290116
 30
0.0
 11
407.504512625283
 21
8.340681720109018
 31
0.0
  0
LINE
  5
475
  8
0
  6
CONTINUOUS
 62
     4
 10
419.0045139961899
 20
28.25926564964775
 30
0.0
 11
425.2545147412479
 21
39.08458300265792
 31
0.0
  0
LINE
  5
476
  8
0
  6
CONTINUOUS
 62
     4
 10
343.6602975898435
 20
71.75925762075312
 30
0.0
 11
349.9102983349017
 21
82.5845749737633
 31
0.0
  0
LINE
  5
477
  8
0
  6
CONTINUOUS
 62
     4
 10
325.9102878444833
 20
41.01534312370549
 30
0.0
 11
332.1602885895413
 21
51.84066047671567
 31
0.0
  0
LINE
  5
478
  8
0
  6
CONTINUOUS
 62
     4
 10
398.6564545151045
 20
-0.984663927376829
 30
0.0
 11
404.9064552601627
 21
9.840653425633349
 31
0.0
  0
LINE
  5
479
  8
0
  6
CONTINUOUS
 62
     4
 10
396.0584124087749
 20
0.5153342071449458
 30
0.0
 11
402.308413153833
 21
11.34065156015512
 31
0.0
  0
LINE
  5
47A
  8
0
  6
CONTINUOUS
 62
     4
 10
393.4603550436545
 20
2.015305912669277
 30
0.0
 11
399.7103557887127
 21
12.84062326567945
 31
0.0
  0
LINE
  5
47B
  8
0
  6
CONTINUOUS
 62
     4
 10
390.8622072213353
 20
3.515365082354578
 30
0.0
 11
397.1122079663933
 21
14.34068243536476
 31
0.0
  0
LINE
  5
47C
  8
0
  6
CONTINUOUS
 62
     4
 10
388.2641498562148
 20
5.015336787878908
 30
0.0
 11
394.5141506012728
 21
15.84065414088909
 31
0.0
  0
LINE
  5
47D
  8
0
  6
CONTINUOUS
 62
     4
 10
416.4064718898604
 20
29.75926378416952
 30
0.0
 11
422.6564726349184
 21
40.5845811371797
 31
0.0
  0
LINE
  5
47E
  8
0
  6
CONTINUOUS
 62
     4
 10
413.8084145247399
 20
31.25923548969385
 30
0.0
 11
420.0584152697979
 21
42.08455284270403
 31
0.0
  0
LINE
  5
47F
  8
0
  6
CONTINUOUS
 62
     4
 10
411.2103571596194
 20
32.75920719521818
 30
0.0
 11
417.4603579046774
 21
43.58452454822836
 31
0.0
  0
LINE
  5
480
  8
0
  6
CONTINUOUS
 62
     4
 10
408.6122093373002
 20
34.25926636490348
 30
0.0
 11
414.8622100823582
 21
45.08458371791366
 31
0.0
  0
LINE
  5
481
  8
0
  6
CONTINUOUS
 62
     4
 10
406.0141672309705
 20
35.75926449942526
 30
0.0
 11
412.2641679760287
 21
46.58458185243543
 31
0.0
  0
LINE
  5
482
  8
0
  6
CONTINUOUS
 62
     4
 10
346.2584001835634
 20
70.2592421831483
 30
0.0
 11
352.5084009286215
 21
81.08455953615848
 31
0.0
  0
LINE
  5
483
  8
0
  6
CONTINUOUS
 62
     4
 10
348.8564687188904
 20
68.75922878983565
 30
0.0
 11
355.1064694639485
 21
79.58454614284582
 31
0.0
  0
LINE
  5
484
  8
0
  6
CONTINUOUS
 62
     4
 10
351.4545525130084
 20
67.25924182552043
 30
0.0
 11
357.7045532580664
 21
78.08455917853061
 31
0.0
  0
LINE
  5
485
  8
0
  6
CONTINUOUS
 62
     4
 10
354.7268993879929
 20
66.92711261475378
 30
0.0
 11
360.3026294227889
 21
76.58455899971668
 31
0.0
  0
LINE
  5
486
  8
0
  6
CONTINUOUS
 62
     4
 10
328.5083980675985
 20
39.5153409005994
 30
0.0
 11
334.7583988126567
 21
50.34065825360958
 31
0.0
  0
LINE
  5
487
  8
0
  6
CONTINUOUS
 62
     4
 10
331.1064513441348
 20
38.0153010782893
 30
0.0
 11
337.3564520891928
 21
48.84061843129948
 31
0.0
  0
LINE
  5
488
  8
0
  6
CONTINUOUS
 62
     4
 10
333.7045503970435
 20
36.51534054297153
 30
0.0
 11
339.9545511421015
 21
47.34065789598171
 31
0.0
  0
LINE
  5
489
  8
0
  6
CONTINUOUS
 62
     4
 10
336.3026189323705
 20
35.01532714965887
 30
0.0
 11
341.9163738740431
 21
44.7386345962519
 31
0.0
  0
LINE
  5
48A
  8
0
  6
CONTINUOUS
 62
     4
 10
240.2981064555102
 20
189.299947738266
 30
0.0
 11
252.7981064555102
 21
189.299947738266
 31
0.0
  0
LINE
  5
48B
  8
0
  6
CONTINUOUS
 62
     4
 10
275.7981064555102
 20
189.299947738266
 30
0.0
 11
288.2981064555102
 21
189.299947738266
 31
0.0
  0
LINE
  5
48C
  8
0
  6
CONTINUOUS
 62
     4
 10
275.7981064555102
 20
276.299947738266
 30
0.0
 11
288.2981064555102
 21
276.299947738266
 31
0.0
  0
LINE
  5
48D
  8
0
  6
CONTINUOUS
 62
     4
 10
240.2981064555102
 20
276.299947738266
 30
0.0
 11
252.7981064555102
 21
276.299947738266
 31
0.0
  0
LINE
  5
48E
  8
0
  6
CONTINUOUS
 62
     4
 10
240.2981064555102
 20
192.299947738266
 30
0.0
 11
252.7981064555102
 21
192.299947738266
 31
0.0
  0
LINE
  5
48F
  8
0
  6
CONTINUOUS
 62
     4
 10
240.2981064555102
 20
195.299947738266
 30
0.0
 11
252.7981064555102
 21
195.299947738266
 31
0.0
  0
LINE
  5
490
  8
0
  6
CONTINUOUS
 62
     4
 10
240.2981064555102
 20
198.299947738266
 30
0.0
 11
252.7981064555102
 21
198.299947738266
 31
0.0
  0
LINE
  5
491
  8
0
  6
CONTINUOUS
 62
     4
 10
240.2981064555102
 20
201.299947738266
 30
0.0
 11
251.2403366801195
 21
201.299947738266
 31
0.0
  0
LINE
  5
492
  8
0
  6
CONTINUOUS
 62
     4
 10
275.7981064555102
 20
192.299947738266
 30
0.0
 11
288.2981064555102
 21
192.299947738266
 31
0.0
  0
LINE
  5
493
  8
0
  6
CONTINUOUS
 62
     4
 10
275.7981064555102
 20
195.299947738266
 30
0.0
 11
288.2981064555102
 21
195.299947738266
 31
0.0
  0
LINE
  5
494
  8
0
  6
CONTINUOUS
 62
     4
 10
275.7981064555102
 20
198.299947738266
 30
0.0
 11
288.2981064555102
 21
198.299947738266
 31
0.0
  0
LINE
  5
495
  8
0
  6
CONTINUOUS
 62
     4
 10
277.1470139262133
 20
201.299947738266
 30
0.0
 11
288.2981064555102
 21
201.299947738266
 31
0.0
  0
LINE
  5
496
  8
0
  6
CONTINUOUS
 62
     4
 10
275.7981064555102
 20
273.299947738266
 30
0.0
 11
288.2981064555102
 21
273.299947738266
 31
0.0
  0
LINE
  5
497
  8
0
  6
CONTINUOUS
 62
     4
 10
275.7981064555102
 20
270.299947738266
 30
0.0
 11
288.2981064555102
 21
270.299947738266
 31
0.0
  0
LINE
  5
498
  8
0
  6
CONTINUOUS
 62
     4
 10
275.7981064555102
 20
267.299947738266
 30
0.0
 11
288.2981064555102
 21
267.299947738266
 31
0.0
  0
LINE
  5
499
  8
0
  6
CONTINUOUS
 62
     4
 10
275.7981064555102
 20
264.299947738266
 30
0.0
 11
288.2981064555102
 21
264.299947738266
 31
0.0
  0
LINE
  5
49A
  8
0
  6
CONTINUOUS
 62
     4
 10
240.2981064555102
 20
273.299947738266
 30
0.0
 11
252.7981064555102
 21
273.299947738266
 31
0.0
  0
LINE
  5
49B
  8
0
  6
CONTINUOUS
 62
     4
 10
240.2981064555102
 20
270.299947738266
 30
0.0
 11
252.7981064555102
 21
270.299947738266
 31
0.0
  0
LINE
  5
49C
  8
0
  6
CONTINUOUS
 62
     4
 10
240.2981064555102
 20
267.299947738266
 30
0.0
 11
252.7981064555102
 21
267.299947738266
 31
0.0
  0
LINE
  5
49D
  8
0
  6
CONTINUOUS
 62
     4
 10
240.2981064555102
 20
264.299947738266
 30
0.0
 11
252.7981064555102
 21
264.299947738266
 31
0.0
  0
LINE
  5
49E
  8
0
  6
CONTINUOUS
 62
     4
 10
240.2981064555102
 20
261.299947738266
 30
0.0
 11
252.7981064555102
 21
261.299947738266
 31
0.0
  0
LINE
  5
49F
  8
0
  6
CONTINUOUS
 62
     4
 10
275.7981064555102
 20
261.299947738266
 30
0.0
 11
288.2981064555102
 21
261.299947738266
 31
0.0
  0
LINE
  5
4A0
  8
0
  6
CONTINUOUS
 62
     4
 10
-199.5724990132399
 20
156.799947738266
 30
0.0
 11
-185.5724990132399
 21
156.799947738266
 31
0.0
  0
LINE
  5
4A1
  8
0
  6
CONTINUOUS
 62
     4
 10
-199.5724990132399
 20
151.799947738266
 30
0.0
 11
-185.5724990132399
 21
151.799947738266
 31
0.0
  0
ARC
  5
4A2
  8
0
  6
CONTINUOUS
 62
     4
 10
264.2981064555102
 20
104.299947738266
 30
0.0
 40
123.0
 50
102.6803989627686
 51
111.8275453936006
  0
ARC
  5
4A3
  8
0
  6
CONTINUOUS
 62
     4
 10
264.2981064555102
 20
104.299947738266
 30
0.0
 40
117.0
 50
103.3423808971262
 51
107.8924821674595
  0
ARC
  5
4A4
  8
0
  6
CONTINUOUS
 62
     4
 10
264.2981064555102
 20
104.299947738266
 30
0.0
 40
111.0
 50
104.0780537424391
 51
111.5654027332555
  0
ARC
  5
4A5
  8
0
  6
CONTINUOUS
 62
     4
 10
264.2981064555102
 20
104.299947738266
 30
0.0
 40
105.0
 50
104.9006134241838
 51
113.3020398014338
  0
ARC
  5
4A6
  8
0
  6
CONTINUOUS
 62
     4
 10
264.2981064555102
 20
104.299947738266
 30
0.0
 40
99.0
 50
105.8266368114757
 51
194.1733442160281
  0
ARC
  5
4A7
  8
0
  6
CONTINUOUS
 62
     4
 10
264.2981064555102
 20
104.299947738266
 30
0.0
 40
93.0
 50
106.877290660553
 51
193.1226971971401
  0
ARC
  5
4A8
  8
0
  6
CONTINUOUS
 62
     4
 10
264.2981064555102
 20
104.299947738266
 30
0.0
 40
87.0
 50
108.0800323318788
 51
191.9199418654359
  0
ARC
  5
4A9
  8
0
  6
CONTINUOUS
 62
     4
 10
264.2981064555102
 20
104.299947738266
 30
0.0
 40
81.0
 50
109.4712394129729
 51
145.4398352049605
  0
ARC
  5
4AA
  8
0
  6
CONTINUOUS
 62
     4
 10
264.2981064555102
 20
104.299947738266
 30
0.0
 40
123.0
 50
248.228079667
 51
291.8275813657792
  0
ARC
  5
4AB
  8
0
  6
CONTINUOUS
 62
     4
 10
264.2981064555102
 20
104.299947738266
 30
0.0
 40
117.0
 50
252.6119204725568
 51
287.4949738091867
  0
ARC
  5
4AC
  8
0
  6
CONTINUOUS
 62
     4
 10
264.2981064555102
 20
104.299947738266
 30
0.0
 40
111.0
 50
248.3412763921147
 51
291.5654455356233
  0
ARC
  5
4AD
  8
0
  6
CONTINUOUS
 62
     4
 10
264.2981064555102
 20
104.299947738266
 30
0.0
 40
105.0
 50
246.6689728757287
 51
293.3020826038016
  0
ARC
  5
4AE
  8
0
  6
CONTINUOUS
 62
     4
 10
264.2981064555102
 20
104.299947738266
 30
0.0
 40
99.0
 50
225.8266028121106
 51
314.1733785185548
  0
ARC
  5
4AF
  8
0
  6
CONTINUOUS
 62
     4
 10
264.2981064555102
 20
104.299947738266
 30
0.0
 40
93.0
 50
226.8772498309987
 51
313.1227212543829
  0
ARC
  5
4B0
  8
0
  6
CONTINUOUS
 62
     4
 10
264.2981064555102
 20
104.299947738266
 30
0.0
 40
87.0
 50
228.0799915023245
 51
311.9199864132462
  0
ARC
  5
4B1
  8
0
  6
CONTINUOUS
 62
     4
 10
264.2981064555102
 20
104.299947738266
 30
0.0
 40
81.0
 50
274.6001503920929
 51
310.5287827472466
  0
ARC
  5
4B2
  8
0
  6
CONTINUOUS
 62
     4
 10
264.2981064555102
 20
104.299947738266
 30
0.0
 40
75.0
 50
274.7234831179359
 51
308.8998031207662
  0
ARC
  5
4B3
  8
0
  6
CONTINUOUS
 62
     4
 10
264.2981064555102
 20
104.299947738266
 30
0.0
 40
75.0
 50
111.1002122092642
 51
145.2608432675711
  0
ARC
  5
4B4
  8
0
  6
CONTINUOUS
 62
     4
 10
264.2981064555102
 20
104.299947738266
 30
0.0
 40
75.0
 50
231.1001782098991
 51
265.2829390811168
  0
ARC
  5
4B5
  8
0
  6
CONTINUOUS
 62
     4
 10
264.2981064555102
 20
104.299947738266
 30
0.0
 40
81.0
 50
229.4711917532294
 51
265.0857173688327
  0
ARC
  5
4B6
  8
0
  6
CONTINUOUS
 62
     4
 10
264.2981064555102
 20
104.299947738266
 30
0.0
 40
75.0
 50
351.1001935020344
 51
385.2608279754358
  0
ARC
  5
4B7
  8
0
  6
CONTINUOUS
 62
     4
 10
264.2981064555102
 20
104.299947738266
 30
0.0
 40
81.0
 50
349.4712172906484
 51
385.4398216203725
  0
ARC
  5
4B8
  8
0
  6
CONTINUOUS
 62
     4
 10
264.2981064555102
 20
104.299947738266
 30
0.0
 40
105.0
 50
306.6979243021779
 51
315.0994019058467
  0
ARC
  5
4B9
  8
0
  6
CONTINUOUS
 62
     4
 10
264.2981064555102
 20
104.299947738266
 30
0.0
 40
111.0
 50
308.4345647854508
 51
315.9219581724968
  0
ARC
  5
4BA
  8
0
  6
CONTINUOUS
 62
     4
 10
264.2981064555102
 20
104.299947738266
 30
0.0
 40
117.0
 50
312.4322779217538
 51
316.6576344329042
  0
ARC
  5
4BB
  8
0
  6
CONTINUOUS
 62
     4
 10
264.2981064555102
 20
104.299947738266
 30
0.0
 40
123.0
 50
308.1724255402003
 51
317.3196197823565
  0
CIRCLE
  5
4BC
  8
0
  6
CONTINUOUS
 62
     4
 10
264.2981064555102
 20
104.299947738266
 30
0.0
 40
55.20000076293945
  0
CIRCLE
  5
4BD
  8
0
  6
CONTINUOUS
 62
     4
 10
264.2981064555102
 20
26.29994773826601
 30
0.0
 40
5.0
  0
ARC
  5
4BE
  8
0
  6
CONTINUOUS
 62
     4
 10
264.2981064555102
 20
104.299947738266
 30
0.0
 40
123.0
 50
222.6803717935926
 51
231.8275660357488
  0
ARC
  5
4BF
  8
0
  6
CONTINUOUS
 62
     4
 10
264.2981064555102
 20
104.299947738266
 30
0.0
 40
117.0
 50
223.3423400675719
 51
227.5205443677871
  0
ARC
  5
4C0
  8
0
  6
CONTINUOUS
 62
     4
 10
264.2981064555102
 20
104.299947738266
 30
0.0
 40
111.0
 50
224.078019743074
 51
231.5654233754037
  0
ARC
  5
4C1
  8
0
  6
CONTINUOUS
 62
     4
 10
264.2981064555102
 20
104.299947738266
 30
0.0
 40
105.0
 50
224.9005794248186
 51
233.3020536133928
  0
ARC
  5
4C2
  8
0
  6
CONTINUOUS
 62
     4
 10
264.2981064555102
 20
104.299947738266
 30
0.0
 40
87.0
 50
348.0800110633281
 51
431.9199863374558
  0
ARC
  5
4C3
  8
0
  6
CONTINUOUS
 62
     4
 10
264.2981064555102
 20
104.299947738266
 30
0.0
 40
93.0
 50
346.8772685382285
 51
433.1227280087817
  0
ARC
  5
4C4
  8
0
  6
CONTINUOUS
 62
     4
 10
264.2981064555102
 20
104.299947738266
 30
0.0
 40
99.0
 50
345.8266181042459
 51
434.1733818578588
  0
ARC
  5
4C5
  8
0
  6
CONTINUOUS
 62
     4
 10
264.2981064555102
 20
104.299947738266
 30
0.0
 40
105.0
 50
344.9005947169539
 51
353.3020736012832
  0
ARC
  5
4C6
  8
0
  6
CONTINUOUS
 62
     4
 10
264.2981064555102
 20
104.299947738266
 30
0.0
 40
111.0
 50
344.0780384503038
 51
351.5654420826336
  0
ARC
  5
4C7
  8
0
  6
CONTINUOUS
 62
     4
 10
264.2981064555102
 20
104.299947738266
 30
0.0
 40
117.0
 50
343.3423621898963
 51
347.5453079966063
  0
ARC
  5
4C8
  8
0
  6
CONTINUOUS
 62
     4
 10
264.2981064555102
 20
104.299947738266
 30
0.0
 40
123.0
 50
342.6803802555388
 51
351.8275804741105
  0
CIRCLE
  5
4C9
  8
0
  6
CONTINUOUS
 62
     4
 10
331.848124766057
 20
143.2999019618988
 30
0.0
 40
5.0
  0
CIRCLE
  5
4CA
  8
0
  6
CONTINUOUS
 62
     4
 10
196.7481491801196
 20
143.3000011440277
 30
0.0
 40
5.0
  0
ARC
  5
4CB
  8
0
  6
CONTINUOUS
 62
     4
 10
264.2981064555102
 20
104.299947738266
 30
0.0
 40
123.0
 50
188.172398295234
 51
197.3195925373902
  0
ARC
  5
4CC
  8
0
  6
CONTINUOUS
 62
     4
 10
264.2981064555102
 20
104.299947738266
 30
0.0
 40
117.0
 50
192.2445297576389
 51
196.6576106030325
  0
ARC
  5
4CD
  8
0
  6
CONTINUOUS
 62
     4
 10
264.2981064555102
 20
104.299947738266
 30
0.0
 40
111.0
 50
188.4345409555791
 51
195.9219445879088
  0
ARC
  5
4CE
  8
0
  6
CONTINUOUS
 62
     4
 10
264.2981064555102
 20
104.299947738266
 30
0.0
 40
105.0
 50
186.69791071759
 51
195.0993849061642
  0
ARC
  5
4CF
  8
0
  6
CONTINUOUS
 62
     4
 10
264.2981064555102
 20
104.299947738266
 30
0.0
 40
123.0
 50
127.9416555325748
 51
171.827601704766
  0
ARC
  5
4D0
  8
0
  6
CONTINUOUS
 62
     4
 10
264.2981064555102
 20
104.299947738266
 30
0.0
 40
117.0
 50
132.2793447499098
 51
167.2160219017135
  0
ARC
  5
4D1
  8
0
  6
CONTINUOUS
 62
     4
 10
264.2981064555102
 20
104.299947738266
 30
0.0
 40
111.0
 50
128.1759037003496
 51
171.565459044421
  0
ARC
  5
4D2
  8
0
  6
CONTINUOUS
 62
     4
 10
264.2981064555102
 20
104.299947738266
 30
0.0
 40
105.0
 50
126.6087167952901
 51
173.30208928241
  0
ARC
  5
4D3
  8
0
  6
CONTINUOUS
 62
     4
 10
264.2981064555102
 20
104.299947738266
 30
0.0
 40
81.0
 50
154.5601048414084
 51
190.528741614531
  0
ARC
  5
4D4
  8
0
  6
CONTINUOUS
 62
     4
 10
264.2981064555102
 20
104.299947738266
 30
0.0
 40
75.0
 50
154.7390967787978
 51
188.8997688182396
  0
ARC
  5
4D5
  8
0
  6
CONTINUOUS
 62
     4
 10
264.2981064555102
 20
104.299947738266
 30
0.0
 40
123.0
 50
68.17239131346406
 51
77.31961970656612
  0
ARC
  5
4D6
  8
0
  6
CONTINUOUS
 62
     4
 10
264.2981064555102
 20
104.299947738266
 30
0.0
 40
117.0
 50
72.22713311424212
 51
76.65763777220846
  0
ARC
  5
4D7
  8
0
  6
CONTINUOUS
 62
     4
 10
264.2981064555102
 20
104.299947738266
 30
0.0
 40
111.0
 50
68.43452714361999
 51
75.92196492689556
  0
ARC
  5
4D8
  8
0
  6
CONTINUOUS
 62
     4
 10
264.2981064555102
 20
104.299947738266
 30
0.0
 40
105.0
 50
66.69791056600921
 51
75.09940524515091
  0
ARC
  5
4D9
  8
0
  6
CONTINUOUS
 62
     4
 10
264.2981064555102
 20
104.299947738266
 30
0.0
 40
81.0
 50
34.56009467191503
 51
70.52877925636179
  0
ARC
  5
4DA
  8
0
  6
CONTINUOUS
 62
     4
 10
264.2981064555102
 20
104.299947738266
 30
0.0
 40
75.0
 50
34.73908660930438
 51
68.89980646007041
  0
ARC
  5
4DB
  8
0
  6
CONTINUOUS
 62
     4
 10
264.2981064555102
 20
104.299947738266
 30
0.0
 40
105.0
 50
6.697925544943217
 51
53.52949367642682
  0
ARC
  5
4DC
  8
0
  6
CONTINUOUS
 62
     4
 10
264.2981064555102
 20
104.299947738266
 30
0.0
 40
111.0
 50
8.434558771140081
 51
51.75493881307122
  0
ARC
  5
4DD
  8
0
  6
CONTINUOUS
 62
     4
 10
264.2981064555102
 20
104.299947738266
 30
0.0
 40
117.0
 50
12.39705374453525
 51
47.6588470470579
  0
ARC
  5
4DE
  8
0
  6
CONTINUOUS
 62
     4
 10
264.2981064555102
 20
104.299947738266
 30
0.0
 40
123.0
 50
8.172420379663226
 51
51.77317883324973
  0
CIRCLE
  5
4DF
  8
0
  6
CONTINUOUS
 62
     4
 10
264.2981064555102
 20
154.299947738266
 30
0.0
 40
2.5
  0
CIRCLE
  5
4E0
  8
0
  6
CONTINUOUS
 62
     4
 10
220.9968369242602
 20
79.29994773826601
 30
0.0
 40
2.5
  0
CIRCLE
  5
4E1
  8
0
  6
CONTINUOUS
 62
     4
 10
307.5993759867602
 20
79.29994773826601
 30
0.0
 40
2.5
  0
LINE
  5
4E2
  8
0
  6
DIVIDE
 62
     9
 10
-280.0724990132399
 20
171.799947738266
 30
0.0
 11
-278.6522109273024
 21
171.799947738266
 31
0.0
  0
LINE
  5
4E3
  8
0
  6
DIVIDE
 62
     9
 10
-304.9349257710524
 20
-3.175058365249612
 30
0.0
 11
-304.9349257710524
 21
-23.17505836524961
 31
0.0
  0
LINE
  5
4E4
  8
0
  6
DIVIDE
 62
     9
 10
-304.9349257710524
 20
-3.175058365249612
 30
0.0
 11
-237.8141371968337
 21
-3.175058365249612
 31
0.0
  0
LINE
  5
4E5
  8
0
  6
DIVIDE
 62
     9
 10
-304.9349257710524
 20
-23.17505836524961
 30
0.0
 11
-239.8909804585524
 21
-23.17505836524961
 31
0.0
  0
LINE
  5
4E6
  8
0
  6
DIVIDE
 62
     9
 10
-304.9349257710524
 20
-21.67505836524961
 30
0.0
 11
-252.9349257710524
 21
-21.67505836524961
 31
0.0
  0
LINE
  5
4E7
  8
0
  6
DIVIDE
 62
     9
 10
-304.9349257710524
 20
-4.675058365249612
 30
0.0
 11
-252.9349257710524
 21
-4.675058365249612
 31
0.0
  0
LINE
  5
4E8
  8
0
  6
DIVIDE
 62
     9
 10
-252.9349257710524
 20
-3.175058365249612
 30
0.0
 11
-252.9349257710524
 21
-23.17505836524961
 31
0.0
  0
LINE
  5
4E9
  8
0
  6
DIVIDE
 62
     9
 10
-281.0724990132399
 20
170.799932479477
 30
0.0
 11
-281.0724990132399
 21
114.5368556972504
 31
0.0
  0
LINE
  5
4EA
  8
0
  6
DIVIDE
 62
     9
 10
-161.0724990132399
 20
170.799947738266
 30
0.0
 11
-161.0724990132399
 21
114.5368556972504
 31
0.0
  0
LINE
  5
4EB
  8
0
  6
DIVIDE
 62
     9
 10
-280.0723356302951
 20
171.7997557477989
 30
0.0
 11
-281.0723291054438
 21
170.7997470154747
 31
0.0
  0
LINE
  5
4EC
  8
0
  6
DIVIDE
 62
     9
 10
-162.0724866691581
 20
171.7999360187442
 30
0.0
 11
-161.0724856075686
 21
170.7999349571547
 31
0.0
  0
LINE
  5
4ED
  8
0
  6
DIVIDE
 62
     9
 10
-173.1678359273024
 20
171.799947738266
 30
0.0
 11
-162.0724990132399
 21
171.799947738266
 31
0.0
  0
TEXT
  5
4EE
  8
0
 62
     7
 10
-272.1433387104672
 20
-119.8116528017179
 30
0.0
 40
8.0
  1
MIN32.9
 41
0.8000000000000002
  7
FDASTYLE1
 72
     5
 11
-227.3433387104672
 21
-119.8116528017179
 31
0.0
  0
TEXT
  5
4EF
  8
0
 62
     7
 10
-31.28973603645667
 20
119.2109995791793
 30
0.0
 40
8.0
  1
MIN 69.5
 50
90.0
 41
0.8
  7
FDASTYLE1
 72
     5
 11
-31.28973603645667
 21
170.4109995791793
 31
0.0
  0
TEXT
  5
4F0
  8
0
 62
     7
 10
-327.3758493056877
 20
293.4621320268296
 30
0.0
 40
8.0
  1
MIN-4.1
 41
0.8000000000000002
  7
FDASTYLE1
 72
     5
 11
-282.5758493056877
 21
293.4621320268296
 31
0.0
  0
TEXT
  5
4F1
  8
0
 62
     5
 10
198.8456854229825
 20
-39.86407723750671
 30
0.0
 40
3.0
  1
F MAX   40KN
 41
0.7991006861508763
  7
FDASTYLE1
 72
     5
 11
227.613310124414
 21
-39.86407723750671
 31
0.0
  0
TEXT
  5
4F2
  8
0
 62
     5
 10
198.8456854229825
 20
-45.024065640827
 30
0.0
 40
3.0
  1
ΣS MAX  51KN
 41
0.7910609183082057
  7
FDASTYLE1
 72
     5
 11
227.7985150330628
 21
-45.024065640827
 31
0.0
  0
TEXT
  5
4F3
  8
0
 62
     5
 10
198.8456854229825
 20
-50.18408456172543
 30
0.0
 40
3.0
  1
N MAX 1800 AT ΣS MAX
 41
0.7957580726157757
  7
FDASTYLE1
 72
     5
 11
247.0686246234986
 21
-50.18408456172543
 31
0.0
  0
TEXT
  5
4F4
  8
0
 62
     5
 10
223.436964297002
 20
-28.69605445899961
 30
0.0
 40
8.0
  1
NIKKO
 41
0.7674421177096604
  7
FDASTYLE1
 72
     5
 11
254.1346490053884
 21
-28.69605445899961
 31
0.0
  0
TEXT
  5
4F5
  8
0
 62
     5
 10
266.1574982640202
 20
-26.69605445899961
 30
0.0
 40
4.0
  1
 　GO3-1
 41
0.7565307107734043
  7
FDASTYLE1
 72
     5
 11
287.9455827342942
 21
-26.69605445899961
 31
0.0
  0
LINE
  5
4F6
  8
LAYER0014
  6
CONTINUOUS
 62
     7
 10
-69.04970238238047
 20
186.299947738266
 30
0.0
 11
-69.04970238238047
 21
173.599947738266
 31
0.0
  0
LINE
  5
4F7
  8
LAYER0014
  6
CONTINUOUS
 62
     7
 10
-148.9349257710524
 20
303.2726192470551
 30
0.0
 11
-161.6349257710523
 21
303.2726192470551
 31
0.0
  0
LINE
  5
4F8
  8
LAYER0014
  6
CONTINUOUS
 62
     7
 10
-150.4349257710524
 20
63.41141319236758
 30
0.0
 11
-163.1349257710523
 21
63.41141319236758
 31
0.0
  0
LINE
  5
4F9
  8
LAYER0014
  6
CONTINUOUS
 62
     7
 10
-199.5724990132399
 20
76.41831779441836
 30
0.0
 11
-212.2724990132398
 21
76.41831779441836
 31
0.0
  0
LINE
  5
4FA
  8
LAYER0014
  6
CONTINUOUS
 62
     7
 10
-69.04970238238047
 20
217.999947738266
 30
0.0
 11
-69.04970238238047
 21
205.299947738266
 31
0.0
  0
LINE
  5
4FB
  8
LAYER0014
  6
CONTINUOUS
 62
     7
 10
-135.2349257710524
 20
303.2726192470551
 30
0.0
 11
-147.9349257710524
 21
303.2726192470551
 31
0.0
  0
LINE
  5
4FC
  8
LAYER0014
  6
CONTINUOUS
 62
     7
 10
-135.2349257710524
 20
63.41141319236758
 30
0.0
 11
-147.9349257710524
 21
63.41141319236758
 31
0.0
  0
LINE
  5
4FD
  8
LAYER0014
  6
CONTINUOUS
 62
     7
 10
-170.8724990132399
 20
76.41831779441836
 30
0.0
 11
-183.5724990132399
 21
76.41831779441836
 31
0.0
  0
LINE
  5
4FE
  8
LAYER0014
  6
CONTINUOUS
 62
     7
 10
-69.04970238238047
 20
186.299947738266
 30
0.0
 11
-69.04970238238047
 21
205.299947738266
 31
0.0
  0
LINE
  5
4FF
  8
LAYER0014
  6
CONTINUOUS
 62
     7
 10
-107.6720253804273
 20
205.299947738266
 30
0.0
 11
-64.47770378618907
 21
205.299947738266
 31
0.0
  0
LINE
  5
500
  8
LAYER0014
  6
CONTINUOUS
 62
     7
 10
-147.9349257710524
 20
303.2726192470551
 30
0.0
 11
-137.2043044331618
 21
303.2726192470551
 31
0.0
  0
LINE
  5
501
  8
LAYER0014
  6
CONTINUOUS
 62
     7
 10
-148.9349257710524
 20
303.2726192470551
 30
0.0
 11
-147.9349257710524
 21
303.2726192470551
 31
0.0
  0
LINE
  5
502
  8
LAYER0014
  6
CONTINUOUS
 62
     7
 10
-148.9349257710524
 20
281.8399629970551
 30
0.0
 11
-148.9349257710524
 21
307.844610213852
 31
0.0
  0
LINE
  5
503
  8
LAYER0014
  6
CONTINUOUS
 62
     7
 10
-147.9349257710524
 20
278.8399629970551
 30
0.0
 11
-147.9349257710524
 21
307.844610213852
 31
0.0
  0
LINE
  5
504
  8
LAYER0014
  6
CONTINUOUS
 62
     7
 10
-147.9349257710524
 20
63.41141319236758
 30
0.0
 11
-124.2364575046499
 21
63.41141319236758
 31
0.0
  0
LINE
  5
505
  8
LAYER0014
  6
CONTINUOUS
 62
     7
 10
-150.4349257710524
 20
63.41141319236758
 30
0.0
 11
-147.9349257710524
 21
63.41141319236758
 31
0.0
  0
LINE
  5
506
  8
LAYER0014
  6
CONTINUOUS
 62
     7
 10
-183.5724990132399
 20
76.41831779441836
 30
0.0
 11
-172.1946913960524
 21
76.41831779441836
 31
0.0
  0
LINE
  5
507
  8
LAYER0014
  6
CONTINUOUS
 62
     7
 10
-185.5724990132399
 20
76.41831779441836
 30
0.0
 11
-183.5724990132399
 21
76.41831779441836
 31
0.0
  0
LINE
  5
508
  8
LAYER0014
  6
CONTINUOUS
 62
     7
 10
-276.9349257710524
 20
303.4940547939301
 30
0.0
 11
-330.8782554961575
 21
303.4940547939301
 31
0.0
  0
LINE
  5
509
  8
LAYER0014
  6
CONTINUOUS
 62
     7
 10
-258.5724990132399
 20
173.339947738266
 30
0.0
 11
-258.5724990132399
 21
308.066045760727
 31
0.0
  0
LINE
  5
50A
  8
LAYER0014
  6
CONTINUOUS
 62
     7
 10
-276.9349257710524
 20
266.839947738266
 30
0.0
 11
-276.9349257710524
 21
308.066045760727
 31
0.0
  0
LINE
  5
50B
  8
LAYER0014
  6
CONTINUOUS
 62
     7
 10
-199.5724990132399
 20
76.41831779441836
 30
0.0
 11
-186.5724990132399
 21
76.41831779441836
 31
0.0
  0
LINE
  5
50C
  8
LAYER0014
  6
CONTINUOUS
 62
     7
 10
-258.5724990132399
 20
303.4940547939301
 30
0.0
 11
-276.9349257710524
 21
303.4940547939301
 31
0.0
  0
INSERT
  5
50D
  8
LAYER0014
  6
DASHED2
  2
DC_GROUP_1
 10
0.0
 20
0.0
 30
0.0
  0
INSERT
  5
50E
  8
LAYER0014
  6
DASHED2
  2
DC_GROUP_5
 10
0.0
 20
0.0
 30
0.0
  0
INSERT
  5
50F
  8
LAYER0014
  6
CONTINUOUS
  2
DC_GROUP_2
 10
0.0
 20
0.0
 30
0.0
  0
INSERT
  5
510
  8
LAYER0014
  6
CONTINUOUS
  2
DC_GROUP_3
 10
0.0
 20
0.0
 30
0.0
  0
INSERT
  5
511
  8
LAYER0014
  6
CONTINUOUS
  2
DC_GROUP_4
 10
0.0
 20
0.0
 30
0.0
  0
INSERT
  5
512
  8
LAYER0014
  6
CONTINUOUS
  2
DC_GROUP_6
 10
0.0
 20
0.0
 30
0.0
  0
INSERT
  5
513
  8
LAYER0014
  6
CONTINUOUS
  2
DC_GROUP_7
 10
0.0
 20
0.0
 30
0.0
  0
INSERT
  5
514
  8
LAYER0014
  6
CONTINUOUS
  2
DC_GROUP_8
 10
0.0
 20
0.0
 30
0.0
  0
INSERT
  5
515
  8
LAYER0014
  6
CONTINUOUS
  2
DC_GROUP_9
 10
0.0
 20
0.0
 30
0.0
  0
INSERT
  5
516
  8
LAYER0014
  6
CONTINUOUS
  2
DC_GROUP_10
 10
0.0
 20
0.0
 30
0.0
  0
INSERT
  5
517
  8
LAYER0014
  6
CONTINUOUS
  2
DC_GROUP_11
 10
0.0
 20
0.0
 30
0.0
  0
INSERT
  5
518
  8
LAYER0014
  6
CONTINUOUS
  2
DC_GROUP_39
 10
0.0
 20
0.0
 30
0.0
  0
INSERT
  5
519
  8
LAYER0014
  6
CONTINUOUS
  2
DC_GROUP_42
 10
0.0
 20
0.0
 30
0.0
  0
INSERT
  5
51A
  8
LAYER0014
  6
CONTINUOUS
  2
DC_GROUP_44
 10
0.0
 20
0.0
 30
0.0
  0
INSERT
  5
51B
  8
LAYER0014
  6
CONTINUOUS
  2
DC_GROUP_47
 10
0.0
 20
0.0
 30
0.0
  0
INSERT
  5
51C
  8
LAYER0014
  6
CONTINUOUS
  2
DC_GROUP_50
 10
0.0
 20
0.0
 30
0.0
  0
INSERT
  5
51D
  8
LAYER0014
  6
CONTINUOUS
  2
DC_GROUP_53
 10
0.0
 20
0.0
 30
0.0
  0
INSERT
  5
51E
  8
LAYER0014
  6
CONTINUOUS
  2
DC_GROUP_56
 10
0.0
 20
0.0
 30
0.0
  0
INSERT
  5
51F
  8
LAYER0014
  6
CONTINUOUS
  2
DC_GROUP_59
 10
0.0
 20
0.0
 30
0.0
  0
INSERT
  5
520
  8
LAYER0014
  6
CONTINUOUS
  2
DC_GROUP_62
 10
0.0
 20
0.0
 30
0.0
  0
INSERT
  5
521
  8
LAYER0014
  6
CONTINUOUS
  2
DC_GROUP_64
 10
0.0
 20
0.0
 30
0.0
  0
INSERT
  5
522
  8
LAYER0014
  6
CONTINUOUS
  2
DC_GROUP_67
 10
0.0
 20
0.0
 30
0.0
  0
INSERT
  5
523
  8
LAYER0014
  6
CONTINUOUS
  2
DC_GROUP_70
 10
0.0
 20
0.0
 30
0.0
  0
INSERT
  5
524
  8
LAYER0014
  6
CONTINUOUS
  2
DC_GROUP_73
 10
0.0
 20
0.0
 30
0.0
  0
INSERT
  5
525
  8
LAYER0014
  6
CONTINUOUS
  2
DC_GROUP_76
 10
0.0
 20
0.0
 30
0.0
  0
INSERT
  5
526
  8
LAYER0014
  6
CONTINUOUS
  2
DC_GROUP_79
 10
0.0
 20
0.0
 30
0.0
  0
INSERT
  5
527
  8
LAYER0014
  6
CONTINUOUS
  2
DC_GROUP_81
 10
0.0
 20
0.0
 30
0.0
  0
INSERT
  5
528
  8
LAYER0014
  6
CONTINUOUS
  2
DC_GROUP_84
 10
0.0
 20
0.0
 30
0.0
  0
INSERT
  5
529
  8
LAYER0014
  6
CONTINUOUS
  2
DC_GROUP_87
 10
0.0
 20
0.0
 30
0.0
  0
INSERT
  5
52A
  8
LAYER0014
  6
CONTINUOUS
  2
DC_GROUP_89
 10
0.0
 20
0.0
 30
0.0
  0
INSERT
  5
52B
  8
LAYER0014
  6
CONTINUOUS
  2
DC_GROUP_91
 10
0.0
 20
0.0
 30
0.0
  0
INSERT
  5
52C
  8
LAYER0014
  6
CONTINUOUS
  2
DC_GROUP_93
 10
0.0
 20
0.0
 30
0.0
  0
TEXT
  5
52D
  8
LAYER0014
 62
     7
 10
-70.08837011364578
 20
183.4399424220642
 30
0.0
 40
8.0
  1
 14
 50
90.0
 41
0.7999999999999995
  7
FDASTYLE1
 72
     5
 11
-70.08837011364578
 21
202.6399424220642
 31
0.0
  0
TEXT
  5
52E
  8
LAYER0014
 62
     7
 10
-60.73268638722846
 20
187.37088168001
 30
0.0
 40
6.4
  1
MIN
 50
90.0
 41
0.7600002100000238
  7
FDASTYLE1
 72
     5
 11
-60.73268638722846
 21
201.9628857120105
 31
0.0
  0
TEXT
  5
52F
  8
LAYER0014
 62
     7
 10
-141.7701520201279
 20
306.4766036969163
 30
0.0
 40
8.0
  1
1
 50
-0.1000000000000078
 41
0.7999999999999989
  7
FDASTYLE1
 72
     5
 11
-135.3701617678828
 21
306.4654335953746
 31
0.0
  0
TEXT
  5
530
  8
LAYER0014
 62
     7
 10
-143.9493841306689
 20
65.00630161558182
 30
0.0
 40
8.0
  1
2.5
 50
-0.1000000000000078
 41
0.8000000000000002
  7
FDASTYLE1
 72
     5
 11
-124.7494133739337
 21
64.97279131095657
 31
0.0
  0
TEXT
  5
531
  8
LAYER0014
 62
     7
 10
-199.9300834684252
 20
78.22951825597082
 30
0.0
 40
8.0
  1
14
 41
0.8000000000000007
  7
FDASTYLE1
 72
     5
 11
-187.1300834684252
 21
78.22951825597082
 31
0.0
  0
TEXT
  5
532
  8
LAYER0014
 62
     7
 10
-178.3808051112073
 20
78.00203611609088
 30
0.0
 40
8.0
  1
2
 50
-0.1000000000000078
 41
0.8000000000000025
  7
FDASTYLE1
 72
     5
 11
-171.9808148589622
 21
77.99086601454913
 31
0.0
  0
TEXT
  5
533
  8
LAYER0014
 62
     7
 10
-327.3833078681664
 20
305.1316553131766
 30
0.0
 40
8.0
  1
MAX40.9
 41
0.7999999999999992
  7
FDASTYLE1
 72
     5
 11
-282.5833078681664
 21
305.1316553131766
 31
0.0
  0
INSERT
  5
534
  8
0
  6
CONTINUOUS
  2
DC_GROUP_12
 10
0.0
 20
0.0
 30
0.0
  0
INSERT
  5
535
  8
0
  6
CONTINUOUS
  2
DC_GROUP_13
 10
0.0
 20
0.0
 30
0.0
  0
INSERT
  5
536
  8
0
  6
CONTINUOUS
  2
DC_GROUP_16
 10
0.0
 20
0.0
 30
0.0
  0
INSERT
  5
537
  8
0
  6
CONTINUOUS
  2
DC_GROUP_19
 10
0.0
 20
0.0
 30
0.0
  0
INSERT
  5
538
  8
0
  6
CONTINUOUS
  2
DC_GROUP_22
 10
0.0
 20
0.0
 30
0.0
  0
INSERT
  5
539
  8
0
  6
CONTINUOUS
  2
DC_GROUP_24
 10
0.0
 20
0.0
 30
0.0
  0
INSERT
  5
53A
  8
0
  6
CONTINUOUS
  2
DC_GROUP_28
 10
0.0
 20
0.0
 30
0.0
  0
INSERT
  5
53B
  8
0
  6
CONTINUOUS
  2
DC_GROUP_31
 10
0.0
 20
0.0
 30
0.0
  0
INSERT
  5
53C
  8
0
  6
CONTINUOUS
  2
DC_GROUP_34
 10
0.0
 20
0.0
 30
0.0
  0
INSERT
  5
53D
  8
0
  6
CONTINUOUS
  2
DC_GROUP_37
 10
0.0
 20
0.0
 30
0.0
  0
LINE
  5
53E
  8
0
  6
CONTINUOUS
 62
     6
 10
-161.2302229168959
 20
-344.9742854323991
 30
0.0
 11
128.3936479327136
 21
-344.9742854323991
 31
0.0
  0
LINE
  5
53F
  8
0
  6
CONTINUOUS
 62
     6
 10
-161.2302229168959
 20
-328.9742854323991
 30
0.0
 11
128.3936479327136
 21
-328.9742854323991
 31
0.0
  0
LINE
  5
540
  8
0
  6
CONTINUOUS
 62
     6
 10
-161.2302229168959
 20
-312.9742854323991
 30
0.0
 11
128.3936479327136
 21
-312.9742854323991
 31
0.0
  0
LINE
  5
541
  8
0
  6
CONTINUOUS
 62
     6
 10
-161.2302229168959
 20
-296.9742854323991
 30
0.0
 11
128.3936479327136
 21
-296.9742854323991
 31
0.0
  0
LINE
  5
542
  8
0
  6
CONTINUOUS
 62
     6
 10
-161.2302229168959
 20
-280.9742854323991
 30
0.0
 11
128.3936479327136
 21
-280.9742854323991
 31
0.0
  0
LINE
  5
543
  8
0
  6
CONTINUOUS
 62
     6
 10
-161.2302229168959
 20
-264.9742854323991
 30
0.0
 11
128.3936479327136
 21
-264.9742854323991
 31
0.0
  0
LINE
  5
544
  8
0
  6
CONTINUOUS
 62
     6
 10
-161.2302229168959
 20
-249.0030822753906
 30
0.0
 11
128.3936479327136
 21
-249.0030822753906
 31
0.0
  0
LINE
  5
545
  8
0
  6
CONTINUOUS
 62
     6
 10
-161.2302229168959
 20
-233.0030975341796
 30
0.0
 11
128.3936479327136
 21
-233.0030975341796
 31
0.0
  0
LINE
  5
546
  8
0
  6
CONTINUOUS
 62
     6
 10
-161.2302229168959
 20
-217.0030975341796
 30
0.0
 11
-129.2302229168959
 21
-217.0030975341796
 31
0.0
  0
TEXT
  5
547
  8
0
 62
     6
 10
-156.0873670342513
 20
-341.6409724441178
 30
0.0
 40
8.0
  1
アンバランス量
 41
0.5532016359402325
  7
FDASTYLE1
 72
     5
 11
-118.9122170990676
 21
-341.6409724441178
 31
0.0
  0
TEXT
  5
548
  8
0
 62
     6
 10
-156.0873670342513
 20
-325.6409724441178
 30
0.0
 40
8.0
  1
質　量
 41
0.5422375877676109
  7
FDASTYLE1
 72
     5
 11
-140.4709245065441
 21
-325.6409724441178
 31
0.0
  0
TEXT
  5
549
  8
0
 62
     6
 10
-156.0873670342513
 20
-309.6409724441178
 30
0.0
 40
8.0
  1
慣性モーメント
 41
0.5532016359402325
  7
FDASTYLE1
 72
     5
 11
-118.9122170990676
 21
-309.6409724441178
 31
0.0
  0
TEXT
  5
54A
  8
0
 62
     6
 10
-156.0873670342513
 20
-293.6409724441178
 30
0.0
 40
8.0
  1
最高使用回転速度
 41
0.5541873201124842
  7
FDASTYLE1
 72
     5
 11
-113.5257808496125
 21
-293.6409724441178
 31
0.0
  0
TEXT
  5
54B
  8
0
 62
     6
 10
-156.0873670342513
 20
-277.6409724441178
 30
0.0
 40
8.0
  1
最大静的把握力
 41
0.5532016359402325
  7
FDASTYLE1
 72
     5
 11
-118.9122170990676
 21
-277.6409724441178
 31
0.0
  0
TEXT
  5
54C
  8
0
 62
     6
 10
-156.0873670342513
 20
-261.6409724441178
 30
0.0
 40
8.0
  1
許容シリンダ力
 41
0.5532016359402325
  7
FDASTYLE1
 72
     5
 11
-118.9122170990676
 21
-261.6409724441178
 31
0.0
  0
TEXT
  5
54D
  8
0
 62
     6
 10
-156.0873670342513
 20
-245.6697845458984
 30
0.0
 40
8.0
  1
ピストンストローク
 41
0.5549491808089264
  7
FDASTYLE1
 72
     5
 11
-108.13975781236
 21
-245.6697845458984
 31
0.0
  0
TEXT
  5
54E
  8
0
 62
     6
 10
-156.0873670342513
 20
-229.6697845458984
 30
0.0
 40
8.0
  1
爪ﾉｽﾄﾛｰｸ
 41
0.7565307107734053
  7
FDASTYLE1
 72
     5
 11
-112.5111980937031
 21
-229.6697845458984
 31
0.0
  0
TEXT
  5
54F
  8
0
 62
     6
 10
-156.0873670342513
 20
-213.6697845458984
 30
0.0
 40
8.0
  1
仕　様
 41
0.5422375877676109
  7
FDASTYLE1
 72
     5
 11
-140.4709245065441
 21
-213.6697845458984
 31
0.0
  0
TEXT
  5
550
  8
0
 62
     6
 10
39.26544136737189
 20
-229.1191253662109
 30
0.0
 40
8.0
  1
(直径ﾆﾃ) 50 mm
 41
0.7430230077746118
  7
FDASTYLE1
 72
     5
 11
112.9733237386134
 21
-229.1191253662109
 31
0.0
  0
TEXT
  5
551
  8
0
 62
     6
 10
82.80865957707692
 20
-244.6785736083984
 30
0.0
 40
8.0
  1
45 mm
 41
0.7674420691942423
  7
FDASTYLE1
 72
     5
 11
113.5063423448466
 21
-244.6785736083984
 31
0.0
  0
TEXT
  5
552
  8
0
 62
     6
 10
69.92355007631758
 20
-261.0929072585709
 30
0.0
 40
8.0
  1
40.2 kN
 41
0.7704920065688553
  7
FDASTYLE1
 72
     5
 11
113.0711024441735
 21
-261.0929072585709
 31
0.0
  0
TEXT
  5
553
  8
0
 62
     6
 10
71.12499944007637
 20
-276.9834101882584
 30
0.0
 40
8.0
  1
51.5 kN
 41
0.7704920065688555
  7
FDASTYLE1
 72
     5
 11
114.2725518079323
 21
-276.9834101882584
 31
0.0
  0
TEXT
  5
554
  8
0
 62
     6
 10
66.89455302525454
 20
-292.8739436355241
 30
0.0
 40
8.0
  1
1800 min
 41
0.7714287730626142
  7
FDASTYLE1
 72
     5
 11
116.2659945012618
 21
-292.8739436355241
 31
0.0
  0
TEXT
  5
555
  8
0
 62
     6
 10
116.8720279916589
 20
-286.6238360984132
 30
0.0
 40
4.0
  1
-1
 41
0.7500002412125806
  7
FDASTYLE1
 72
     5
 11
122.8720299213595
 21
-286.6238360984132
 31
0.0
  0
TEXT
  5
556
  8
0
 62
     6
 10
54.31501886481647
 20
-309.0955012527116
 30
0.0
 40
8.0
  1
 1.75 kg・m
 41
0.762776685199609
  7
FDASTYLE1
 72
     5
 11
116.5575963771046
 21
-309.0955012527116
 31
0.0
  0
TEXT
  5
557
  8
0
 62
     6
 10
116.094839433514
 20
-302.9302132302524
 30
0.0
 40
4.0
  1
2
 41
0.7142860293388367
  7
FDASTYLE1
 72
     5
 11
118.9519835508693
 21
-302.9302132302524
 31
0.0
  0
TEXT
  5
558
  8
0
 62
     6
 10
83.74707510442067
 20
-324.9860346999772
 30
0.0
 40
8.0
  1
80 kg
 41
0.7674420691942423
  7
FDASTYLE1
 72
     5
 11
114.4447578721904
 21
-324.9860346999772
 31
0.0
  0
TEXT
  5
559
  8
0
 62
     6
 10
42.16709862649756
 20
-341.2075923171647
 30
0.0
 40
8.0
  1
外周ﾆﾃ  16 g以内
 41
0.7014143935796692
  7
FDASTYLE1
 72
     5
 11
113.9919325290557
 21
-341.2075923171647
 31
0.0
  0
TEXT
  5
55A
  8
0
 62
     6
 10
299.2091359141758
 20
-308.2423833446773
 30
0.0
 40
10.0
  1
日鋼プレシジォン
 41
0.4861111111111113
  7
FDASTYLE1
 72
     5
 11
345.8758025808425
 21
-308.2423833446773
 31
0.0
  0
TEXT
  5
55B
  8
0
 62
     6
 10
349.1366677636594
 20
-319.6814543941912
 30
0.0
 40
10.0
  1
GO3-14型チャック
 41
0.5881944444444448
  7
FDASTYLE1
 72
     5
 11
419.7200010969928
 21
-319.6814543941912
 31
0.0
  0
VIEWPORT
  5
48
 67
     1
  8
0
 10
-7.201893544489849
 20
0.0
 30
0.0
 40
3324.0
 41
2279.999999999999
 68
     1
 69
     1
1001
ACAD
1000
MVIEW
1002
{
1070
    16
1010
0.0
1020
0.0
1030
0.0
1020
0.0
1030
0.0
1010
0.0
1020
0.0
1030
1.0
1020
0.0
1030
1.0
1040
0.0
1040
2279.999999999999
1040
-7.201893544489849
1040
0.0
1040
50.0
1040
0.0
1040
0.0
1070
     0
1070
   100
1070
     0
1070
     1
1070
     0
1070
     0
1070
     0
1070
     0
1040
0.0
1040
0.0
1040
0.0
1040
0.5
1040
0.5
1040
0.0
1040
0.0
1070
     0
1002
{
1002
}
1002
}
  0
ENDSEC
  0
EOF
