  0
SECTION
  2
HEADER
  9
$ACADVER
  1
AC1009
  9
$DWGCODEPAGE
  3
ansi_932
  9
$INSBASE
 10
0.0
 20
0.0
 30
0.0
  9
$EXTMIN
 10
-831.0
 20
-569.9999999999999
 30
0.0
  9
$EXTMAX
 10
831.0
 20
569.9999999999999
 30
0.0
  9
$LIMMIN
 10
-297.0
 20
-210.0
  9
$LIMMAX
 10
297.0
 20
210.0
  9
$ORTHOMODE
 70
     0
  9
$REGENMODE
 70
     1
  9
$FILLMODE
 70
     1
  9
$QTEXTMODE
 70
     0
  9
$MIRRTEXT
 70
     1
  9
$DRAGMODE
 70
     2
  9
$LTSCALE
 40
1.0
  9
$OSMODE
 70
    37
  9
$ATTMODE
 70
     1
  9
$TEXTSIZE
 40
0.2
  9
$TRACEWID
 40
0.05
  9
$TEXTSTYLE
  7
STANDARD
  9
$CLAYER
  8
0
  9
$CELTYPE
  6
BYLAYER
  9
$CECOLOR
 62
   256
  9
$DIMSCALE
 40
1.0
  9
$DIMASZ
 40
2.5
  9
$DIMEXO
 40
0.0625
  9
$DIMDLI
 40
0.38
  9
$DIMRND
 40
0.0
  9
$DIMDLE
 40
0.0
  9
$DIMEXE
 40
0.18
  9
$DIMTP
 40
0.0
  9
$DIMTM
 40
0.0
  9
$DIMTXT
 40
0.18
  9
$DIMCEN
 40
0.09
  9
$DIMTSZ
 40
0.0
  9
$DIMTOL
 70
     0
  9
$DIMLIM
 70
     0
  9
$DIMTIH
 70
     1
  9
$DIMTOH
 70
     1
  9
$DIMSE1
 70
     0
  9
$DIMSE2
 70
     0
  9
$DIMTAD
 70
     3
  9
$DIMZIN
 70
     0
  9
$DIMBLK
  1

  9
$DIMASO
 70
     1
  9
$DIMSHO
 70
     1
  9
$DIMPOST
  1

  9
$DIMAPOST
  1

  9
$DIMALT
 70
     0
  9
$DIMALTD
 70
     2
  9
$DIMALTF
 40
25.4
  9
$DIMLFAC
 40
1.0
  9
$DIMTOFL
 70
     0
  9
$DIMTVP
 40
0.0
  9
$DIMTIX
 70
     0
  9
$DIMSOXD
 70
     0
  9
$DIMSAH
 70
     0
  9
$DIMBLK1
  1

  9
$DIMBLK2
  1

  9
$DIMSTYLE
  2
STANDARD
  9
$DIMCLRD
 70
     0
  9
$DIMCLRE
 70
     0
  9
$DIMCLRT
 70
     0
  9
$DIMTFAC
 40
1.0
  9
$DIMGAP
 40
0.09
  9
$LUNITS
 70
     2
  9
$LUPREC
 70
     4
  9
$SKETCHINC
 40
0.1
  9
$FILLETRAD
 40
0.5
  9
$AUNITS
 70
     0
  9
$AUPREC
 70
     0
  9
$MENU
  1
.
  9
$ELEVATION
 40
0.0
  9
$PELEVATION
 40
0.0
  9
$THICKNESS
 40
0.0
  9
$LIMCHECK
 70
     0
  9
$CHAMFERA
 40
0.5
  9
$CHAMFERB
 40
0.5
  9
$SKPOLY
 70
     0
  9
$TDCREATE
 40
2454912.604274514
  9
$TDUPDATE
 40
2454912.604274525
  9
$TDINDWG
 40
0.0000000116
  9
$TDUSRTIMER
 40
0.0000000116
  9
$USRTIMER
 70
     1
  9
$ANGBASE
 50
0.0
  9
$ANGDIR
 70
     0
  9
$PDMODE
 70
     0
  9
$PDSIZE
 40
1.0
  9
$PLINEWID
 40
0.0
  9
$COORDS
 70
     1
  9
$SPLFRAME
 70
     0
  9
$SPLINETYPE
 70
     6
  9
$SPLINESEGS
 70
     8
  9
$ATTDIA
 70
     0
  9
$ATTREQ
 70
     1
  9
$HANDLING
 70
     1
  9
$HANDSEED
  5
4D1
  9
$SURFTAB1
 70
     6
  9
$SURFTAB2
 70
     6
  9
$SURFTYPE
 70
     6
  9
$SURFU
 70
     6
  9
$SURFV
 70
     6
  9
$UCSNAME
  2

  9
$UCSORG
 10
0.0
 20
0.0
 30
0.0
  9
$UCSXDIR
 10
1.0
 20
0.0
 30
0.0
  9
$UCSYDIR
 10
0.0
 20
1.0
 30
0.0
  9
$PUCSNAME
  2

  9
$PUCSORG
 10
0.0
 20
0.0
 30
0.0
  9
$PUCSXDIR
 10
1.0
 20
0.0
 30
0.0
  9
$PUCSYDIR
 10
0.0
 20
1.0
 30
0.0
  9
$USERI1
 70
     0
  9
$USERI2
 70
     0
  9
$USERI3
 70
     0
  9
$USERI4
 70
     0
  9
$USERI5
 70
     0
  9
$USERR1
 40
0.0
  9
$USERR2
 40
0.0
  9
$USERR3
 40
0.0
  9
$USERR4
 40
0.0
  9
$USERR5
 40
0.0
  9
$WORLDVIEW
 70
     1
  9
$SHADEDGE
 70
     3
  9
$SHADEDIF
 70
    70
  9
$TILEMODE
 70
     1
  9
$MAXACTVP
 70
    64
  9
$PLIMCHECK
 70
     0
  9
$PEXTMIN
 10
1.000000000000000E+20
 20
1.000000000000000E+20
 30
1.000000000000000E+20
  9
$PEXTMAX
 10
-1.000000000000000E+20
 20
-1.000000000000000E+20
 30
-1.000000000000000E+20
  9
$PLIMMIN
 10
0.0
 20
0.0
  9
$PLIMMAX
 10
12.0
 20
9.0
  9
$UNITMODE
 70
     0
  9
$VISRETAIN
 70
     0
  9
$PLINEGEN
 70
     1
  9
$PSLTSCALE
 70
     0
  0
ENDSEC
  0
SECTION
  2
TABLES
  0
TABLE
  2
VPORT
 70
     1
  0
VPORT
  2
*ACTIVE
 70
     0
 10
0.0
 20
0.0
 11
1.0
 21
1.0
 12
0.0
 22
0.0
 13
0.0
 23
0.0
 14
0.5
 24
0.5
 15
0.5
 25
0.5
 16
0.0
 26
0.0
 36
1.0
 17
-0.0000000000000036
 27
0.0
 37
0.0
 40
387.6
 41
1.457894736842106
 42
50.0
 43
0.0
 44
0.0
 50
0.0
 51
0.0
 71
     0
 72
  1000
 73
     1
 74
     1
 75
     0
 76
     0
 77
     0
 78
     0
  0
ENDTAB
  0
TABLE
  2
LTYPE
 70
    28
  0
LTYPE
  2
CONTINUOUS
 70
     0
  3
Solid line
 72
    65
 73
     0
 40
0.0
  0
LTYPE
  2
HIDDENX2
 70
     0
  3
CADPAC LINETYPE
 72
    65
 73
     2
 40
7.516463235602544
 49
5.637347426701908
 49
-1.879115808900636
  0
LTYPE
  2
HIDDEN
 70
     0
  3
CADPAC LINETYPE
 72
    65
 73
     2
 40
5.637347426701908
 49
3.758231617801272
 49
-1.879115808900636
  0
LTYPE
  2
HIDDEN2
 70
     0
  3
CADPAC LINETYPE
 72
    65
 73
     2
 40
4.69778952225159
 49
2.818673713350954
 49
-1.879115808900636
  0
LTYPE
  2
DASHED
 70
     0
  3
CADPAC LINETYPE
 72
    65
 73
     2
 40
5.261524264921803
 49
3.758231617801272
 49
-1.503292647120532
  0
LTYPE
  2
DASHED2
 70
     0
  3
CADPAC LINETYPE
 72
    65
 73
     2
 40
3.382408456021182
 49
2.254938970680797
 49
-1.127469485340384
  0
LTYPE
  2
DASHEDX2
 70
     0
  3
CADPAC LINETYPE
 72
    65
 73
     2
 40
9.019755882723075
 49
7.516463235602544
 49
-1.503292647120532
  0
LTYPE
  2
DOTX2
 70
     0
  3
CADPAC LINETYPE
 72
    65
 73
     2
 40
3.288452665576109
 49
0.0
 49
-3.288452665576109
  0
LTYPE
  2
DOT
 70
     0
  3
CADPAC LINETYPE
 72
    65
 73
     2
 40
2.630762132460887
 49
0.0
 49
-2.630762132460887
  0
LTYPE
  2
DOT2
 70
     0
  3
CADPAC LINETYPE
 72
    65
 73
     2
 40
1.973071599345666
 49
0.0
 49
-1.973071599345666
  0
LTYPE
  2
CENTERX2
 70
     0
  3
CADPAC LINETYPE
 72
    65
 73
     4
 40
11.27469485340382
 49
4.69778952225159
 49
-2.348894761125795
 49
1.879115808900636
 49
-2.348894761125795
  0
LTYPE
  2
CENTER
 70
     0
  3
CADPAC LINETYPE
 72
    65
 73
     4
 40
8.643932720942924
 49
3.758231617801272
 49
-1.879115808900636
 49
1.127469485340382
 49
-1.879115808900636
  0
LTYPE
  2
CENTER2
 70
     0
  3
CADPAC LINETYPE
 72
    65
 73
     4
 40
6.013170588482035
 49
2.818673713350954
 49
-1.409336856675477
 49
0.3758231617801272
 49
-1.409336856675477
  0
LTYPE
  2
DASHDOTX2
 70
     0
  3
CADPAC LINETYPE
 72
    65
 73
     4
 40
18.03951176544609
 49
9.019755882723075
 49
-3.006585294241006
 49
3.006585294241006
 49
-3.006585294241006
  0
LTYPE
  2
DASHDOT
 70
     0
  3
CADPAC LINETYPE
 72
    65
 73
     4
 40
9.019755882723132
 49
4.509877941361538
 49
-1.503292647120532
 49
1.503292647120532
 49
-1.503292647120532
  0
LTYPE
  2
DASHDOT2
 70
     0
  3
CADPAC LINETYPE
 72
    65
 73
     4
 40
5.787676691414004
 49
3.382408456021153
 49
-1.127469485340399
 49
0.1503292647120532
 49
-1.127469485340399
  0
LTYPE
  2
DIVIDEX2
 70
     0
  3
CADPAC LINETYPE
 72
    65
 73
     6
 40
24.05268235392811
 49
9.019755882723075
 49
-3.006585294241006
 49
3.006585294241006
 49
-3.006585294241006
 49
3.006585294241006
 49
-3.006585294241006
  0
LTYPE
  2
DIVIDE
 70
     0
  3
CADPAC LINETYPE
 72
    65
 73
     6
 40
12.0263411769642
 49
4.509877941361538
 49
-1.503292647120532
 49
1.503292647120532
 49
-1.503292647120532
 49
1.503292647120532
 49
-1.503292647120532
  0
LTYPE
  2
DIVIDE2
 70
     0
  3
CADPAC LINETYPE
 72
    65
 73
     6
 40
9.019755882723146
 49
3.382408456021153
 49
-1.127469485340399
 49
1.127469485340399
 49
-1.127469485340399
 49
1.127469485340399
 49
-1.127469485340399
  0
LTYPE
  2
BORDERX2
 70
     0
  3
CADPAC LINETYPE
 72
    65
 73
     6
 40
16.44226332788056
 49
4.69778952225159
 49
-2.348894761125795
 49
4.69778952225159
 49
-2.348894761125795
 49
0.0
 49
-2.348894761125795
  0
LTYPE
  2
BORDER
 70
     0
  3
CADPAC LINETYPE
 72
    65
 73
     6
 40
13.15381066230445
 49
3.758231617801272
 49
-1.879115808900636
 49
3.758231617801272
 49
-1.879115808900636
 49
0.0
 49
-1.879115808900636
  0
LTYPE
  2
BORDER2
 70
     0
  3
CADPAC LINETYPE
 72
    65
 73
     6
 40
9.77140220628327
 49
3.006585294241006
 49
-1.879115808900622
 49
1.127469485340384
 49
-1.879115808900622
 49
0.0
 49
-1.879115808900636
  0
LTYPE
  2
PHANTOMX2
 70
     0
  3
CADPAC LINETYPE
 72
    65
 73
     6
 40
14.09336856675477
 49
4.69778952225159
 49
-1.879115808900636
 49
1.879115808900636
 49
-1.879115808900636
 49
1.879115808900636
 49
-1.879115808900636
  0
LTYPE
  2
PHANTOM
 70
     0
  3
CADPAC LINETYPE
 72
    65
 73
     6
 40
11.65051801518394
 49
3.758231617801272
 49
-1.879115808900636
 49
1.127469485340382
 49
-1.879115808900636
 49
1.127469485340382
 49
-1.879115808900636
  0
LTYPE
  2
PHANTOM2
 70
     0
  3
CADPAC LINETYPE
 72
    65
 73
     6
 40
9.95931378717337
 49
2.818673713350954
 49
-1.879115808900636
 49
0.7516463235602544
 49
-1.879115808900636
 49
0.7516463235602544
 49
-1.879115808900636
  0
LTYPE
  2
ACAD_ISO06W100
 70
     0
  3
CADPAC LINETYPE
 72
    65
 73
     8
 40
19.91862757434672
 49
9.019755882723075
 49
-1.879115808900622
 49
1.127469485340384
 49
-1.879115808900622
 49
1.127469485340384
 49
-1.879115808900622
 49
1.127469485340384
 49
-1.879115808900622
  0
LTYPE
  2
ACAD_ISO13W100
 70
     0
  3
CADPAC LINETYPE
 72
    65
 73
     8
 40
15.03292647120509
 49
3.758231617801272
 49
-1.879115808900636
 49
3.758231617801272
 49
-1.879115808900636
 49
0.0
 49
-1.879115808900636
 49
0.0
 49
-1.879115808900636
  0
LTYPE
  2
ACAD_ISO14W100
 70
     0
  3
CADPAC LINETYPE
 72
    65
 73
     8
 40
11.27469485340382
 49
3.758231617801272
 49
-1.879115808900636
 49
0.0
 49
-1.879115808900636
 49
0.0
 49
-1.879115808900636
 49
0.0
 49
-1.879115808900636
  0
ENDTAB
  0
TABLE
  2
LAYER
 70
     3
  0
LAYER
  2
0
 70
     0
 62
     7
  6
CONTINUOUS
  0
LAYER
  2
LAYER0014
 70
     0
 62
     7
  6
CONTINUOUS
  0
LAYER
  2
ZUWAKU
 70
     0
 62
     7
  6
CONTINUOUS
  0
ENDTAB
  0
TABLE
  2
STYLE
 70
     5
  0
STYLE
  2
STANDARD
 70
     0
 40
0.0
 41
1.0
 50
0.0
 71
     0
 42
0.2
  3
txt
  4

  0
STYLE
  2
FDASTYLE1
 70
     0
 40
4.0
 41
0.7843137254901962
 50
0.0
 71
     0
 42
0.2
  3
txt.shx
  4
bigfont
  0
STYLE
  2
FDASTYLE0
 70
     4
 40
2.6656
 41
0.8
 50
0.0
 71
     0
 42
0.2
  3
txt.shx
  4
bigfont
  0
STYLE
  2
FDASTYLE2
 70
     0
 40
7.0
 41
0.8123476848090983
 50
0.0
 71
     0
 42
0.2
  3
MSMINCHO.TTC
  4

  0
STYLE
  2
FDASTYLE3
 70
     0
 40
8.0
 41
0.77
 50
0.0
 71
     0
 42
0.2
  3
MSGOTHIC.TTC
  4

  0
ENDTAB
  0
TABLE
  2
VIEW
 70
     0
  0
ENDTAB
  0
TABLE
  2
UCS
 70
     0
  0
ENDTAB
  0
TABLE
  2
APPID
 70
     2
  0
APPID
  2
ACAD
 70
     0
  0
APPID
  2
DAFUSIONOUT
 70
     0
  0
ENDTAB
  0
TABLE
  2
DIMSTYLE
 70
     1
  0
DIMSTYLE
  2
STANDARD
 70
     0
  3

  4

  5

  6

  7

 40
1.0
 41
0.18
 42
0.0625
 43
0.38
 44
0.18
 45
0.0
 46
0.0
 47
0.0
 48
0.0
140
0.18
141
0.09
142
0.0
143
25.4
144
1.0
145
0.0
146
1.0
147
0.09
 71
     0
 72
     0
 73
     1
 74
     1
 75
     0
 76
     0
 77
     0
 78
     0
170
     0
171
     2
172
     0
173
     0
174
     0
175
     0
176
     0
177
     0
178
     0
  0
ENDTAB
  0
ENDSEC
  0
SECTION
  2
BLOCKS
  0
BLOCK
  8
0
  2
$MODEL_SPACE
 70
     0
 10
0.0
 20
0.0
 30
0.0
  3
$MODEL_SPACE
  1

  0
ENDBLK
  5
21
  8
0
  0
BLOCK
 67
     1
  8
0
  2
$PAPER_SPACE
 70
     0
 10
0.0
 20
0.0
 30
0.0
  3
$PAPER_SPACE
  1

  0
ENDBLK
  5
1D
 67
     1
  8
0
  0
BLOCK
  8
0
  2
DA_IMAGEDIMGROUP_1
 70
     0
 10
0.0
 20
0.0
 30
0.0
  3
DA_IMAGEDIMGROUP_1
  1

  0
LINE
  5
CD
  8
LAYER0014
  6
CONTINUOUS
 62
     7
 10
113.3741690337984
 20
36.36875036510828
 30
0.0
 11
113.3741690337984
 21
40.14042257580164
 31
0.0
  0
LINE
  5
CE
  8
LAYER0014
  6
CONTINUOUS
 62
     7
 10
167.3741690337984
 20
36.99428442272546
 30
0.0
 11
167.3741690337984
 21
40.14042257580164
 31
0.0
  0
LINE
  5
CF
  8
LAYER0014
  6
CONTINUOUS
 62
     7
 10
113.3741690337984
 20
39.14042257580164
 30
0.0
 11
167.3741690337984
 21
39.14042257580164
 31
0.0
  0
INSERT
  5
D6
  8
LAYER0014
 62
     7
  2
_OPEN30
 10
113.3741690337984
 20
39.14042257580164
 30
0.0
 41
1.999998407630662
 42
2.000005728319971
 50
180.0
  0
INSERT
  5
D7
  8
LAYER0014
 62
     7
  2
_OPEN30
 10
167.3741690337984
 20
39.14042257580164
 30
0.0
 41
1.999998407630662
 42
2.000005728319971
 50
360.0
  0
TEXT
  5
D9
  8
LAYER0014
 62
     7
 10
124.3741690337984
 20
40.14042257580164
 30
0.0
 40
4.0
  1
φ5.3 PCD54
 41
0.7843137254901962
  7
FDASTYLE1
 72
     5
 11
156.3741690337984
 21
40.14042257580164
 31
0.0
  0
ENDBLK
  5
4E
  8
0
  0
BLOCK
  8
0
  2
DA_IMAGEDIMGROUP_2
 70
     0
 10
0.0
 20
0.0
 30
0.0
  3
DA_IMAGEDIMGROUP_2
  1

  0
LINE
  5
DA
  8
LAYER0014
  6
CONTINUOUS
 62
     7
 10
54.43292566797711
 20
-41.44295343511342
 30
0.0
 11
22.7617515100704
 21
-59.72831468892227
 31
0.0
  0
LINE
  5
DB
  8
LAYER0014
  6
CONTINUOUS
 62
     7
 10
36.93294608007546
 20
-11.13202964788761
 30
0.0
 11
5.261777637955639
 21
-29.41738978146984
 31
0.0
  0
LINE
  5
DC
  8
LAYER0014
  6
CONTINUOUS
 62
     7
 10
24.74147333547804
 20
-58.58531089957555
 30
0.0
 11
7.241477478000668
 21
-28.27442767953716
 31
0.0
  0
INSERT
  5
DD
  8
LAYER0014
 62
     7
  2
_OPEN30
 10
24.74147333547804
 20
-58.58531089957555
 30
0.0
 41
1.999998407630662
 42
2.000005728319971
 50
299.9999989665127
  0
INSERT
  5
DE
  8
LAYER0014
 62
     7
  2
_OPEN30
 10
7.241477478000668
 20
-28.27442767953716
 30
0.0
 41
1.999998407630662
 42
2.000005728319971
 50
119.9999989665127
  0
TEXT
  5
DF
  8
LAYER0014
 62
     7
 10
15.77712115751467
 20
-39.8586048173909
 30
0.0
 40
4.0
  1
35
 50
-59.99999999999999
 41
0.7999999999999998
  7
FDASTYLE1
 72
     5
 11
18.97712115751467
 21
-45.4011674016113
 31
0.0
  0
ENDBLK
  5
51
  8
0
  0
BLOCK
  8
0
  2
DA_IMAGEDIMGROUP_3
 70
     0
 10
0.0
 20
0.0
 30
0.0
  3
DA_IMAGEDIMGROUP_3
  1

  0
LINE
  5
E0
  8
LAYER0014
  6
CONTINUOUS
 62
     7
 10
42.18290976226685
 20
-20.22529486981715
 30
0.0
 11
22.90243177196884
 21
-31.35688356391827
 31
0.0
  0
LINE
  5
E1
  8
LAYER0014
  6
CONTINUOUS
 62
     7
 10
49.18289330374807
 20
-32.34966066783731
 30
0.0
 11
29.90241531345006
 21
-43.48124936193844
 31
0.0
  0
LINE
  5
E2
  8
LAYER0014
  6
CONTINUOUS
 62
     7
 10
24.88221819200668
 20
-30.21391473468137
 30
0.0
 11
31.88221741714622
 21
-42.33827183042402
 31
0.0
  0
INSERT
  5
E3
  8
LAYER0014
 62
     7
  2
_OPEN30
 10
24.88221819200668
 20
-30.21391473468137
 30
0.0
 41
1.999998407630662
 42
2.000005728319971
 50
119.9999943014067
  0
INSERT
  5
E4
  8
LAYER0014
 62
     7
  2
_OPEN30
 10
31.88221741714622
 20
-42.33827183042402
 30
0.0
 41
1.999998407630662
 42
2.000005728319971
 50
299.9999943014067
  0
TEXT
  5
E5
  8
LAYER0014
 62
     7
 10
26.56783675657473
 20
-29.9335149315307
 30
0.0
 40
4.0
  1
14H8
 50
-59.99999999999999
 41
0.7999999999999998
  7
FDASTYLE1
 72
     5
 11
32.96783675657473
 21
-41.01864009997151
 31
0.0
  0
ENDBLK
  5
54
  8
0
  0
BLOCK
  8
0
  2
DA_IMAGEDIMGROUP_4
 70
     0
 10
0.0
 20
0.0
 30
0.0
  3
DA_IMAGEDIMGROUP_4
  1

  0
LINE
  5
E6
  8
0
  6
CONTINUOUS
 62
     9
 10
100.3741948789553
 20
115.8092038563192
 30
0.0
 11
100.3741948789553
 21
144.3271875812239
 31
0.0
  0
LINE
  5
E7
  8
0
  6
CONTINUOUS
 62
     9
 10
100.3741948789553
 20
143.3271875812239
 30
0.0
 11
140.3741690337984
 21
143.3271875812239
 31
0.0
  0
INSERT
  5
E8
  8
0
 62
     9
  2
_OPEN30
 10
100.3741948789553
 20
143.3271875812239
 30
0.0
 41
1.999998407630662
 42
2.000005728319971
 50
180.0
  0
INSERT
  5
E9
  8
0
 62
     9
  2
_OPEN30
 10
140.3741690337984
 20
143.3271875812239
 30
0.0
 41
1.999998407630662
 42
2.000005728319971
 50
360.0
  0
TEXT
  5
EA
  8
0
 62
     7
 10
117.1741819563769
 20
144.3271875812239
 30
0.0
 40
4.0
  1
40
 41
0.8000000000000007
  7
FDASTYLE1
 72
     5
 11
123.5741819563769
 21
144.3271875812239
 31
0.0
  0
ENDBLK
  5
57
  8
0
  0
BLOCK
  8
0
  2
DA_IMAGEDIMGROUP_5
 70
     0
 10
0.0
 20
0.0
 30
0.0
  3
DA_IMAGEDIMGROUP_5
  1

  0
LINE
  5
EB
  8
0
  6
CONTINUOUS
 62
     9
 10
10.95098328418019
 20
28.38261438540026
 30
0.0
 11
4.051179247172132
 21
28.38261438540026
 31
0.0
  0
LINE
  5
EC
  8
0
  6
CONTINUOUS
 62
     9
 10
66.16633860472129
 20
102.8824918201864
 30
0.0
 11
4.051179247172132
 21
102.8824918201864
 31
0.0
  0
LINE
  5
ED
  8
0
  6
CONTINUOUS
 62
     9
 10
5.051179247172132
 20
28.38261438540026
 30
0.0
 11
5.051179247172132
 21
102.8824918201864
 31
0.0
  0
INSERT
  5
EE
  8
0
 62
     9
  2
_OPEN30
 10
5.051179247172132
 20
28.38261438540026
 30
0.0
 41
1.999998407630662
 42
2.000005728319971
 50
270.0
  0
INSERT
  5
EF
  8
0
 62
     9
  2
_OPEN30
 10
5.051179247172132
 20
102.8824918201864
 30
0.0
 41
1.999998407630662
 42
2.000005728319971
 50
90.0
  0
TEXT
  5
F0
  8
0
 62
     7
 10
4.051179247172132
 20
59.23255310279334
 30
0.0
 40
4.0
  1
74.5
 50
90.0
 41
0.8000000000000003
  7
FDASTYLE1
 72
     5
 11
4.051179247172132
 21
72.03255310279334
 31
0.0
  0
ENDBLK
  5
5A
  8
0
  0
BLOCK
  8
0
  2
DA_IMAGEDIMGROUP_6
 70
     0
 10
0.0
 20
0.0
 30
0.0
  3
DA_IMAGEDIMGROUP_6
  1

  0
LINE
  5
F1
  8
LAYER0014
  6
CONTINUOUS
 62
     7
 10
53.17805158662772
 20
-78.54044798889537
 30
0.0
 11
62.67134059209398
 21
-73.0594949277211
 31
0.0
  0
LINE
  5
F2
  8
LAYER0014
  6
CONTINUOUS
 62
     7
 10
44.17805158662772
 20
-62.95199100056071
 30
0.0
 11
53.67134059209398
 21
-57.47103793938645
 31
0.0
  0
LINE
  5
F3
  8
LAYER0014
  6
CONTINUOUS
 62
     7
 10
61.80531520385316
 20
-73.5594949277211
 30
0.0
 11
52.80531520385316
 21
-57.97103793938645
 31
0.0
  0
INSERT
  5
F4
  8
LAYER0014
 62
     7
  2
_OPEN30
 10
61.80531520385316
 20
-73.5594949277211
 30
0.0
 41
1.999998407630662
 42
2.000005728319971
 50
300.0000004452921
  0
INSERT
  5
F5
  8
LAYER0014
 62
     7
  2
_OPEN30
 10
52.80531520385316
 20
-57.97103793938645
 30
0.0
 41
1.999998407630662
 42
2.000005728319971
 50
120.0000004452921
  0
TEXT
  5
F6
  8
LAYER0014
 62
     7
 10
56.51945805974561
 20
-61.20412148704615
 30
0.0
 40
4.0
  1
φ18
 50
-59.99999999999999
 41
0.7499999999999992
  7
FDASTYLE1
 72
     5
 11
61.31945805974561
 21
-69.51796536337675
 31
0.0
  0
ENDBLK
  5
5D
  8
0
  0
BLOCK
  8
0
  2
DC_GROUP_1
 70
     0
 10
0.0
 20
0.0
 30
0.0
  3
DC_GROUP_1
  1

  0
LINE
  5
F7
  8
LAYER0014
  6
CONTINUOUS
 62
     7
 10
41.2804633143352
 20
-77.14580619170043
 30
0.0
 11
52.8585893290789
 21
-97.21455850298422
 31
0.0
  0
LINE
  5
F8
  8
LAYER0014
  6
CONTINUOUS
 62
     7
 10
52.85858966732305
 20
-97.214557241176
 30
0.0
 11
83.26158954525275
 21
-97.214557241176
 31
0.0
  0
TEXT
  5
F9
  8
LAYER0014
 62
     7
 10
59.0335889043836
 20
-95.614557241176
 30
0.0
 40
4.0
  1
A-PT1/8
 41
0.7999999999999999
  7
FDASTYLE1
 72
     5
 11
81.4335889043836
 21
-95.614557241176
 31
0.0
  0
ENDBLK
  5
60
  8
0
  0
BLOCK
  8
0
  2
DA_IMAGEDIMGROUP_7
 70
     0
 10
0.0
 20
0.0
 30
0.0
  3
DA_IMAGEDIMGROUP_7
  1

  0
LINE
  5
FA
  8
LAYER0014
  6
CONTINUOUS
 62
     7
 10
-155.284097281983
 20
65.38248342152696
 30
0.0
 11
-212.6369805827642
 21
65.38248342152696
 31
0.0
  0
LINE
  5
FB
  8
LAYER0014
  6
CONTINUOUS
 62
     7
 10
-155.284097281983
 20
-8.61752039317031
 30
0.0
 11
-212.6369805827642
 21
-8.61752039317031
 31
0.0
  0
LINE
  5
FC
  8
LAYER0014
  6
CONTINUOUS
 62
     7
 10
-210.3510003581549
 20
65.38248342152696
 30
0.0
 11
-210.3510003581549
 21
-8.61752039317031
 31
0.0
  0
INSERT
  5
FD
  8
LAYER0014
 62
     7
  2
_OPEN30
 10
-210.3510003581549
 20
65.38248342152696
 30
0.0
 41
1.999998407630662
 42
2.000005728319971
 50
90.0
  0
INSERT
  5
FE
  8
LAYER0014
 62
     7
  2
_OPEN30
 10
-210.3510003581549
 20
-8.61752039317031
 30
0.0
 41
1.999998407630662
 42
2.000005728319971
 50
270.0
  0
TEXT
  5
FF
  8
LAYER0014
 62
     7
 10
-211.364962985082
 20
20.38249369887203
 30
0.0
 40
4.0
  1
φ74H7
 50
89.90000000000001
 41
0.7692307692307688
  7
FDASTYLE1
 72
     5
 11
-211.3370377312277
 21
36.38246932948462
 31
0.0
  0
ENDBLK
  5
63
  8
0
  0
BLOCK
  8
0
  2
DA_IMAGEDIMGROUP_8
 70
     0
 10
0.0
 20
0.0
 30
0.0
  3
DA_IMAGEDIMGROUP_8
  1

  0
LINE
  5
100
  8
LAYER0014
  6
CONTINUOUS
 62
     7
 10
-173.2841277995611
 20
135.882483421527
 30
0.0
 11
-260.9648614421392
 21
135.882483421527
 31
0.0
  0
LINE
  5
101
  8
LAYER0014
  6
CONTINUOUS
 62
     7
 10
-173.2841277995611
 20
-79.11751657847304
 30
0.0
 11
-260.9648614421392
 21
-79.11751657847304
 31
0.0
  0
LINE
  5
102
  8
LAYER0014
  6
CONTINUOUS
 62
     7
 10
-258.6788506999517
 20
135.8824681627379
 30
0.0
 11
-258.6788506999517
 21
-79.11753183726211
 31
0.0
  0
INSERT
  5
103
  8
LAYER0014
 62
     7
  2
_OPEN30
 10
-258.6788506999517
 20
135.8824681627379
 30
0.0
 41
1.999998407630662
 42
2.000005728319971
 50
90.0
  0
INSERT
  5
104
  8
LAYER0014
 62
     7
  2
_OPEN30
 10
-258.6788506999517
 20
-79.11753183726211
 30
0.0
 41
1.999998407630662
 42
2.000005728319971
 50
270.0
  0
TEXT
  5
105
  8
LAYER0014
 62
     7
 10
-259.6900208014935
 20
21.98247791049288
 30
0.0
 40
4.0
  1
φ215
 50
89.90000000000001
 41
0.7619047619047609
  7
FDASTYLE1
 72
     5
 11
-259.66768059841
 21
34.78245841498294
 31
0.0
  0
ENDBLK
  5
66
  8
0
  0
BLOCK
  8
0
  2
DA_IMAGEDIMGROUP_9
 70
     0
 10
0.0
 20
0.0
 30
0.0
  3
DA_IMAGEDIMGROUP_9
  1

  0
LINE
  5
106
  8
LAYER0014
  6
CONTINUOUS
 62
     7
 10
-138.6272454753424
 20
12.77365392323594
 30
0.0
 11
-109.6272454753424
 21
12.77365392323594
 31
0.0
  0
INSERT
  5
107
  8
LAYER0014
 62
     7
  2
_OPEN30
 10
-138.6272454753424
 20
12.77365392323594
 30
0.0
 41
1.999998407630662
 42
2.000005728319971
 50
180.0
  0
INSERT
  5
108
  8
LAYER0014
 62
     7
  2
_OPEN30
 10
-109.6272454753424
 20
12.77365392323594
 30
0.0
 41
1.999998407630662
 42
2.000005728319971
 50
360.0
  0
TEXT
  5
109
  8
LAYER0014
 62
     7
 10
-127.3272149577642
 20
14.37365392323594
 30
0.0
 40
4.0
  1
29
 41
0.8000000000000007
  7
FDASTYLE1
 72
     5
 11
-120.9272149577642
 21
14.37365392323594
 31
0.0
  0
ENDBLK
  5
69
  8
0
  0
BLOCK
  8
0
  2
DA_IMAGEDIMGROUP_10
 70
     0
 10
0.0
 20
0.0
 30
0.0
  3
DA_IMAGEDIMGROUP_10
  1

  0
LINE
  5
10A
  8
LAYER0014
  6
CONTINUOUS
 62
     7
 10
-109.6272454753424
 20
12.77365392323594
 30
0.0
 11
-97.62724547534236
 21
12.77365392323594
 31
0.0
  0
INSERT
  5
10B
  8
LAYER0014
 62
     7
  2
_OPEN30
 10
-109.6272454753424
 20
12.77365392323594
 30
0.0
 41
1.999998407630662
 42
2.000005728319971
 50
180.0
  0
INSERT
  5
10C
  8
LAYER0014
 62
     7
  2
_OPEN30
 10
-97.62724547534236
 20
12.77365392323594
 30
0.0
 41
1.999998407630662
 42
2.000005728319971
 50
360.0
  0
TEXT
  5
10D
  8
LAYER0014
 62
     7
 10
-106.8272149577642
 20
14.37365392323594
 30
0.0
 40
4.0
  1
12
 41
0.8000000000000007
  7
FDASTYLE1
 72
     5
 11
-100.4272149577642
 21
14.37365392323594
 31
0.0
  0
ENDBLK
  5
6C
  8
0
  0
BLOCK
  8
0
  2
DA_IMAGEDIMGROUP_11
 70
     0
 10
0.0
 20
0.0
 30
0.0
  3
DA_IMAGEDIMGROUP_11
  1

  0
LINE
  5
10E
  8
LAYER0014
  6
CONTINUOUS
 62
     7
 10
-97.62724547534236
 20
12.77365392323594
 30
0.0
 11
-88.62724547534236
 21
12.77365392323594
 31
0.0
  0
LINE
  5
10F
  8
LAYER0014
  6
CONTINUOUS
 62
     7
 10
-97.62724547534236
 20
12.77365392323594
 30
0.0
 11
-103.9772454753424
 21
12.77365392323594
 31
0.0
  0
INSERT
  5
110
  8
LAYER0014
 62
     7
  2
_OPEN30
 10
-97.62724547534236
 20
12.77365392323594
 30
0.0
 41
1.999998407630662
 42
2.000005728319971
 50
360.0
  0
LINE
  5
111
  8
LAYER0014
  6
CONTINUOUS
 62
     7
 10
-82.27724547534237
 20
12.77365392323594
 30
0.0
 11
-88.62724547534236
 21
12.77365392323594
 31
0.0
  0
INSERT
  5
112
  8
LAYER0014
 62
     7
  2
_OPEN30
 10
-88.62724547534236
 20
12.77365392323594
 30
0.0
 41
1.999998407630662
 42
2.000005728319971
 50
180.0
  0
TEXT
  5
113
  8
LAYER0014
 62
     7
 10
-94.72724547534236
 20
14.37365392323594
 30
0.0
 40
4.0
  1
9
 41
0.7999999999999972
  7
FDASTYLE1
 72
     5
 11
-91.52724547534237
 21
14.37365392323594
 31
0.0
  0
ENDBLK
  5
6F
  8
0
  0
BLOCK
  8
0
  2
DA_IMAGEDIMGROUP_12
 70
     0
 10
0.0
 20
0.0
 30
0.0
  3
DA_IMAGEDIMGROUP_12
  1

  0
LINE
  5
114
  8
LAYER0014
  6
CONTINUOUS
 62
     7
 10
-74.74408965258846
 20
136.4224681627379
 30
0.0
 11
-74.74408965258846
 21
150.3692693101988
 31
0.0
  0
LINE
  5
115
  8
LAYER0014
  6
CONTINUOUS
 62
     7
 10
-75.74412017016658
 20
137.7224864732848
 30
0.0
 11
-75.74412017016658
 21
150.3692693101988
 31
0.0
  0
LINE
  5
116
  8
LAYER0014
  6
CONTINUOUS
 62
     7
 10
-74.74412017016658
 20
148.0832890855895
 30
0.0
 11
-75.74412017016658
 21
148.0832890855895
 31
0.0
  0
LINE
  5
117
  8
LAYER0014
  6
CONTINUOUS
 62
     7
 10
-74.74412017016658
 20
148.0832890855895
 30
0.0
 11
-68.39412017016659
 21
148.0832890855895
 31
0.0
  0
INSERT
  5
118
  8
LAYER0014
 62
     7
  2
_OPEN30
 10
-74.74412017016658
 20
148.0832890855895
 30
0.0
 41
1.999998407630662
 42
2.000005728319971
 50
180.0
  0
LINE
  5
119
  8
LAYER0014
  6
CONTINUOUS
 62
     7
 10
-82.09412017016658
 20
148.0832890855895
 30
0.0
 11
-75.74412017016658
 21
148.0832890855895
 31
0.0
  0
INSERT
  5
11A
  8
LAYER0014
 62
     7
  2
_OPEN30
 10
-75.74412017016658
 20
148.0832890855895
 30
0.0
 41
1.999998407630662
 42
2.000005728319971
 50
360.0
  0
TEXT
  5
11B
  8
LAYER0014
 62
     7
 10
-82.01404204516658
 20
149.6832890855895
 30
0.0
 40
4.0
  1
1
 41
0.7999999999999972
  7
FDASTYLE1
 72
     5
 11
-78.81404204516659
 21
149.6832890855895
 31
0.0
  0
ENDBLK
  5
72
  8
0
  0
BLOCK
  8
0
  2
DA_IMAGEDIMGROUP_13
 70
     0
 10
0.0
 20
0.0
 30
0.0
  3
DA_IMAGEDIMGROUP_13
  1

  0
LINE
  5
11C
  8
LAYER0014
  6
CONTINUOUS
 62
     7
 10
-190.2841583171392
 20
-32.29250818613906
 30
0.0
 11
-200.1961541667486
 21
-32.29250818613906
 31
0.0
  0
LINE
  5
11D
  8
LAYER0014
  6
CONTINUOUS
 62
     7
 10
-190.2841583171392
 20
-44.29250818613906
 30
0.0
 11
-200.1961541667486
 21
-44.29250818613906
 31
0.0
  0
LINE
  5
11E
  8
LAYER0014
  6
CONTINUOUS
 62
     7
 10
-197.9101739421392
 20
-32.29252344492812
 30
0.0
 11
-197.9101739421392
 21
-44.29252344492812
 31
0.0
  0
INSERT
  5
11F
  8
LAYER0014
 62
     7
  2
_OPEN30
 10
-197.9101739421392
 20
-32.29252344492812
 30
0.0
 41
1.999998407630662
 42
2.000005728319971
 50
90.0
  0
INSERT
  5
120
  8
LAYER0014
 62
     7
  2
_OPEN30
 10
-197.9101739421392
 20
-44.29252344492812
 30
0.0
 41
1.999998407630662
 42
2.000005728319971
 50
270.0
  0
TEXT
  5
121
  8
LAYER0014
 62
     7
 10
-198.9185515182955
 20
-43.09251613411191
 30
0.0
 40
4.0
  1
M12
 50
89.90000000000001
 41
0.8000000000000019
  7
FDASTYLE1
 72
     5
 11
-198.9017963659829
 21
-33.49253075574433
 31
0.0
  0
ENDBLK
  5
75
  8
0
  0
BLOCK
  8
0
  2
DA_IMAGEDIMGROUP_14
 70
     0
 10
0.0
 20
0.0
 30
0.0
  3
DA_IMAGEDIMGROUP_14
  1

  0
LINE
  5
122
  8
LAYER0014
  6
CONTINUOUS
 62
     7
 10
-173.2841277995611
 20
120.882483421527
 30
0.0
 11
-248.0455499187017
 21
120.882483421527
 31
0.0
  0
LINE
  5
123
  8
LAYER0014
  6
CONTINUOUS
 62
     7
 10
-173.2841277995611
 20
-64.11751657847304
 30
0.0
 11
-248.0455499187017
 21
-64.11751657847304
 31
0.0
  0
LINE
  5
124
  8
LAYER0014
  6
CONTINUOUS
 62
     7
 10
-245.7595391765142
 20
120.882483421527
 30
0.0
 11
-245.7595391765142
 21
-64.11751657847304
 31
0.0
  0
INSERT
  5
125
  8
LAYER0014
 62
     7
  2
_OPEN30
 10
-245.7595391765142
 20
120.882483421527
 30
0.0
 41
1.999998407630662
 42
2.000005728319971
 50
90.0
  0
INSERT
  5
126
  8
LAYER0014
 62
     7
  2
_OPEN30
 10
-245.7595391765142
 20
-64.11751657847304
 30
0.0
 41
1.999998407630662
 42
2.000005728319971
 50
270.0
  0
TEXT
  5
127
  8
LAYER0014
 62
     7
 10
-246.770709278056
 20
21.98249316928191
 30
0.0
 40
4.0
  1
φ185
 50
89.90000000000001
 41
0.7619047619047625
  7
FDASTYLE1
 72
     5
 11
-246.7483690749725
 21
34.782473673772
 31
0.0
  0
ENDBLK
  5
78
  8
0
  0
BLOCK
  8
0
  2
DA_IMAGEDIMGROUP_15
 70
     0
 10
0.0
 20
0.0
 30
0.0
  3
DA_IMAGEDIMGROUP_15
  1

  0
LINE
  5
128
  8
LAYER0014
  6
CONTINUOUS
 62
     7
 10
-172.2841277995611
 20
81.56998342152696
 30
0.0
 11
-236.0831780925299
 21
81.56998342152696
 31
0.0
  0
LINE
  5
129
  8
LAYER0014
  6
CONTINUOUS
 62
     7
 10
-172.2841277995611
 20
-24.80502039317031
 30
0.0
 11
-236.0831780925299
 21
-24.80502039317031
 31
0.0
  0
LINE
  5
12A
  8
LAYER0014
  6
CONTINUOUS
 62
     7
 10
-233.7971978679205
 20
81.56998342152696
 30
0.0
 11
-233.7971978679205
 21
-24.80502039317031
 31
0.0
  0
INSERT
  5
12B
  8
LAYER0014
 62
     7
  2
_OPEN30
 10
-233.7971978679205
 20
81.56998342152696
 30
0.0
 41
1.999998407630662
 42
2.000005728319971
 50
90.0
  0
INSERT
  5
12C
  8
LAYER0014
 62
     7
  2
_OPEN30
 10
-233.7971978679205
 20
-24.80502039317031
 30
0.0
 41
1.999998407630662
 42
2.000005728319971
 50
270.0
  0
TEXT
  5
12D
  8
LAYER0014
 62
     7
 10
-234.8474633248584
 20
-0.4174746209243736
 30
0.0
 40
4.0
  1
φ106.375(A2-6テーパー）
 50
89.90000000000001
 41
0.7500000000000003
  7
FDASTYLE1
 72
     5
 11
-234.7469324109826
 21
57.18243764928102
 31
0.0
  0
ENDBLK
  5
7B
  8
0
  0
BLOCK
  8
0
  2
DA_IMAGEDIMGROUP_16
 70
     0
 10
0.0
 20
0.0
 30
0.0
  3
DA_IMAGEDIMGROUP_16
  1

  0
LINE
  5
12E
  8
LAYER0014
  6
CONTINUOUS
 62
     7
 10
-225.6829180827642
 20
28.38247960682969
 30
0.0
 11
-217.5888176243805
 21
28.38247960682969
 31
0.0
  0
LINE
  5
12F
  8
LAYER0014
  6
CONTINUOUS
 62
     7
 10
-225.164302360108
 20
95.08249562855821
 30
0.0
 11
-217.9632426298207
 21
95.08249562855821
 31
0.0
  0
LINE
  5
130
  8
LAYER0014
  6
CONTINUOUS
 62
     7
 10
-222.3133416667486
 20
28.38247960682969
 30
0.0
 11
-222.3133416667486
 21
95.08248036976914
 31
0.0
  0
INSERT
  5
131
  8
LAYER0014
 62
     7
  2
_OPEN30
 10
-222.3133416667486
 20
28.38247960682969
 30
0.0
 41
1.999998407630662
 42
2.000005728319971
 50
270.0
  0
INSERT
  5
132
  8
LAYER0014
 62
     7
  2
_OPEN30
 10
-222.3133416667486
 20
95.08248036976914
 30
0.0
 41
1.999998407630662
 42
2.000005728319971
 50
90.0
  0
TEXT
  5
133
  8
LAYER0014
 62
     7
 10
-223.3133416667486
 20
53.73247998829942
 30
0.0
 40
4.0
  1
R66.7
 50
90.0
 41
0.8
  7
FDASTYLE1
 72
     5
 11
-223.3133416667486
 21
69.73247998829942
 31
0.0
  0
ENDBLK
  5
7E
  8
0
  0
BLOCK
  8
0
  2
DA_IMAGEDIMGROUP_17
 70
     0
 10
0.0
 20
0.0
 30
0.0
  3
DA_IMAGEDIMGROUP_17
  1

  0
LINE
  5
134
  8
LAYER0014
  6
CONTINUOUS
 62
     7
 10
-172.2841277995611
 20
104.8124760973082
 30
0.0
 11
-211.8273528531681
 21
104.8124760973082
 31
0.0
  0
LINE
  5
135
  8
LAYER0014
  6
CONTINUOUS
 62
     7
 10
-172.2841277995611
 20
85.35251515980821
 30
0.0
 11
-211.9958441056162
 21
85.35251515980821
 31
0.0
  0
LINE
  5
136
  8
LAYER0014
  6
CONTINUOUS
 62
     7
 10
-210.3510003581549
 20
104.8124760973082
 30
0.0
 11
-210.3510003581549
 21
85.35248464223008
 31
0.0
  0
INSERT
  5
137
  8
LAYER0014
 62
     7
  2
_OPEN30
 10
-210.3510003581549
 20
104.8124760973082
 30
0.0
 41
1.999998407630662
 42
2.000005728319971
 50
90.0
  0
INSERT
  5
138
  8
LAYER0014
 62
     7
  2
_OPEN30
 10
-210.3510003581549
 20
85.35248464223008
 30
0.0
 41
1.999998407630662
 42
2.000005728319971
 50
270.0
  0
TEXT
  5
139
  8
LAYER0014
 62
     7
 10
-211.9733381243828
 20
87.47119017012929
 30
0.0
 40
4.0
  1
φ19.46
 50
89.90000000000001
 41
0.7741935483870969
  7
FDASTYLE1
 72
     5
 11
-211.9398278197576
 21
106.6711609268644
 31
0.0
  0
TEXT
  5
13A
  8
LAYER0014
 62
     7
 10
-214.5380785313662
 20
107.6756972575291
 30
0.0
 40
2.6
  1
+0.1
 50
89.90000000000001
 41
0.8
  7
FDASTYLE1
 72
     5
 11
-214.523557399362
 21
115.9956845854476
 31
0.0
  0
TEXT
  5
13B
  8
LAYER0014
 62
     7
 10
-211.738082796009
 20
107.6708103381045
 30
0.0
 40
2.6
  1
 0
 50
89.90000000000001
 41
0.7999999999999986
  7
FDASTYLE1
 72
     5
 11
-211.7308222300069
 21
111.8308040020638
 31
0.0
  0
ENDBLK
  5
81
  8
0
  0
BLOCK
  8
0
  2
DA_IMAGEDIMGROUP_18
 70
     0
 10
0.0
 20
0.0
 30
0.0
  3
DA_IMAGEDIMGROUP_18
  1

  0
LINE
  5
13C
  8
LAYER0014
  6
CONTINUOUS
 62
     7
 10
-237.2612870798168
 20
-24.80467094735123
 30
0.0
 11
-220.028643036156
 21
-24.80507323027756
 31
0.0
  0
LINE
  5
13D
  8
LAYER0014
  6
CONTINUOUS
 62
     7
 10
-172.2644114255005
 20
-25.12005046182249
 30
0.0
 11
-224.1769589074179
 21
-31.60906978370181
 31
0.0
  0
ARC
  5
13E
  8
LAYER0014
  6
CONTINUOUS
 62
     7
 10
-169.7441277995611
 20
-24.80502039317031
 30
0.0
 40
52.57047271728516
 50
179.9999776881997
 51
187.1249714831685
  0
ARC
  5
13F
  8
LAYER0014
  6
CONTINUOUS
 62
     7
 10
-169.7441277995611
 20
-24.80502039317031
 30
0.0
 40
52.57047271728516
 50
180.2042005427077
 51
187.1249714831685
  0
INSERT
  5
140
  8
LAYER0014
 62
     7
  2
_OPEN30
 10
-221.9086499512459
 20
-31.32554417621221
 30
0.0
 41
1.999998407630662
 42
2.000005728319971
 50
276.0350868962078
  0
ARC
  5
141
  8
LAYER0014
  6
CONTINUOUS
 62
     7
 10
-169.7441277995611
 20
-24.80502039317031
 30
0.0
 40
52.57047271728516
 50
179.9999776881997
 51
186.9207486286604
  0
INSERT
  5
142
  8
LAYER0014
 62
     7
  2
_OPEN30
 10
-222.3146005168423
 20
-24.80499992147237
 30
0.0
 41
1.999998407630662
 42
2.000005728319971
 50
91.08986227516027
  0
ENDBLK
  5
84
  8
0
  0
BLOCK
  8
0
  2
DA_IMAGEDIMGROUP_19
 70
     0
 10
0.0
 20
0.0
 30
0.0
  3
DA_IMAGEDIMGROUP_19
  1

  0
LINE
  5
143
  8
LAYER0014
  6
CONTINUOUS
 62
     7
 10
-187.744097281983
 20
-46.83252344492812
 30
0.0
 11
-187.744097281983
 21
-59.50848871592422
 31
0.0
  0
LINE
  5
144
  8
LAYER0014
  6
CONTINUOUS
 62
     7
 10
-187.7441583171392
 20
-57.22250086192031
 30
0.0
 11
-169.7441277995611
 21
-57.22250086192031
 31
0.0
  0
INSERT
  5
145
  8
LAYER0014
 62
     7
  2
_OPEN30
 10
-187.7441583171392
 20
-57.22250086192031
 30
0.0
 41
1.999998407630662
 42
2.000005728319971
 50
180.0
  0
INSERT
  5
146
  8
LAYER0014
 62
     7
  2
_OPEN30
 10
-169.7441277995611
 20
-57.22250086192031
 30
0.0
 41
1.999998407630662
 42
2.000005728319971
 50
360.0
  0
TEXT
  5
147
  8
LAYER0014
 62
     7
 10
-181.9441381844727
 20
-56.21691581114943
 30
0.0
 40
4.0
  1
18
 50
-0.1000000000000078
 41
0.7999999999999954
  7
FDASTYLE1
 72
     5
 11
-175.5441479322277
 21
-56.22808591269119
 31
0.0
  0
ENDBLK
  5
87
  8
0
  0
BLOCK
  8
0
  2
DA_IMAGEDIMGROUP_20
 70
     0
 10
0.0
 20
0.0
 30
0.0
  3
DA_IMAGEDIMGROUP_20
  1

  0
LINE
  5
148
  8
LAYER0014
  6
CONTINUOUS
 62
     7
 10
-110.1672454753424
 20
59.63247960682969
 30
0.0
 11
-200.1961541667486
 21
59.63247960682969
 31
0.0
  0
LINE
  5
149
  8
LAYER0014
  6
CONTINUOUS
 62
     7
 10
-110.1672454753424
 20
-2.86752039317031
 30
0.0
 11
-200.1961541667486
 21
-2.86752039317031
 31
0.0
  0
LINE
  5
14A
  8
LAYER0014
  6
CONTINUOUS
 62
     7
 10
-197.9101739421392
 20
59.63248723622422
 30
0.0
 11
-197.9101739421392
 21
-2.86752039317031
 31
0.0
  0
INSERT
  5
14B
  8
LAYER0014
 62
     7
  2
_OPEN30
 10
-197.9101739421392
 20
59.63248723622422
 30
0.0
 41
1.999998407630662
 42
2.000005728319971
 50
90.0
  0
INSERT
  5
14C
  8
LAYER0014
 62
     7
  2
_OPEN30
 10
-197.9101739421392
 20
-2.86752039317031
 30
0.0
 41
1.999998407630662
 42
2.000005728319971
 50
270.0
  0
TEXT
  5
14D
  8
LAYER0014
 62
     7
 10
-198.9297216198373
 20
17.18250048009815
 30
0.0
 40
4.0
  1
φ62.5H7
 50
89.90000000000001
 41
0.7777777777777771
  7
FDASTYLE1
 72
     5
 11
-198.8906262644412
 21
39.58246636295577
 31
0.0
  0
ENDBLK
  5
8A
  8
0
  0
BLOCK
  8
0
  2
DA_IMAGEDIMGROUP_21
 70
     0
 10
0.0
 20
0.0
 30
0.0
  3
DA_IMAGEDIMGROUP_21
  1

  0
LINE
  5
14E
  8
LAYER0014
  6
CONTINUOUS
 62
     7
 10
-169.7441277995611
 20
-111.117516578473
 30
0.0
 11
-109.6272454753424
 21
-111.117516578473
 31
0.0
  0
INSERT
  5
14F
  8
LAYER0014
 62
     7
  2
_OPEN30
 10
-169.7441277995611
 20
-111.117516578473
 30
0.0
 41
1.999998407630662
 42
2.000005728319971
 50
180.0
  0
INSERT
  5
150
  8
LAYER0014
 62
     7
  2
_OPEN30
 10
-109.6272454753424
 20
-111.117516578473
 30
0.0
 41
1.999998407630662
 42
2.000005728319971
 50
360.0
  0
LINE
  5
151
  8
LAYER0014
  6
CONTINUOUS
 62
     7
 10
-169.7441277995611
 20
-66.65751657847304
 30
0.0
 11
-169.7441277995611
 21
-112.117516578473
 31
0.0
  0
LINE
  5
152
  8
LAYER0014
  6
CONTINUOUS
 62
     7
 10
-109.6272454753424
 20
-5.907520393170309
 30
0.0
 11
-109.6272454753424
 21
-112.117516578473
 31
0.0
  0
TEXT
  5
153
  8
LAYER0014
 62
     7
 10
-149.2856866374517
 20
-109.5175165784731
 30
0.0
 40
4.0
  1
MAX 72
 41
0.7999999999999995
  7
FDASTYLE1
 72
     5
 11
-130.0856866374517
 21
-109.5175165784731
 31
0.0
  0
ENDBLK
  5
8D
  8
0
  0
BLOCK
  8
0
  2
DA_IMAGEDIMGROUP_22
 70
     0
 10
0.0
 20
0.0
 30
0.0
  3
DA_IMAGEDIMGROUP_22
  1

  0
LINE
  5
154
  8
LAYER0014
  6
CONTINUOUS
 62
     7
 10
-169.7441277995611
 20
-66.65751657847304
 30
0.0
 11
-169.7441277995611
 21
-92.11751657847304
 31
0.0
  0
LINE
  5
155
  8
LAYER0014
  6
CONTINUOUS
 62
     7
 10
-152.744097281983
 20
-25.22002420786757
 30
0.0
 11
-152.744097281983
 21
-92.11751657847304
 31
0.0
  0
LINE
  5
156
  8
LAYER0014
  6
CONTINUOUS
 62
     7
 10
-169.7441277995611
 20
-91.11751657847304
 30
0.0
 11
-152.744097281983
 21
-91.11751657847304
 31
0.0
  0
INSERT
  5
157
  8
LAYER0014
 62
     7
  2
_OPEN30
 10
-169.7441277995611
 20
-91.11751657847304
 30
0.0
 41
1.999998407630662
 42
2.000005728319971
 50
180.0
  0
INSERT
  5
158
  8
LAYER0014
 62
     7
  2
_OPEN30
 10
-152.744097281983
 20
-91.11751657847304
 30
0.0
 41
1.999998407630662
 42
2.000005728319971
 50
360.0
  0
TEXT
  5
159
  8
LAYER0014
 62
     7
 10
-164.444112540772
 20
-90.11751657847304
 30
0.0
 40
4.0
  1
17
 41
0.7999999999999972
  7
FDASTYLE1
 72
     5
 11
-158.0441125407721
 21
-90.11751657847304
 31
0.0
  0
ENDBLK
  5
90
  8
0
  0
BLOCK
  8
0
  2
DA_IMAGEDIMGROUP_23
 70
     0
 10
0.0
 20
0.0
 30
0.0
  3
DA_IMAGEDIMGROUP_23
  1

  0
LINE
  5
15A
  8
LAYER0014
  6
CONTINUOUS
 62
     7
 10
-169.7441277995611
 20
123.422483421527
 30
0.0
 11
-169.7441277995611
 21
150.3692693101988
 31
0.0
  0
LINE
  5
15B
  8
LAYER0014
  6
CONTINUOUS
 62
     7
 10
-163.244097281983
 20
107.3524760973082
 30
0.0
 11
-163.244097281983
 21
150.3692693101988
 31
0.0
  0
LINE
  5
15C
  8
LAYER0014
  6
CONTINUOUS
 62
     7
 10
-169.7441277995611
 20
148.0832890855895
 30
0.0
 11
-163.2441277995611
 21
148.0832890855895
 31
0.0
  0
LINE
  5
15D
  8
LAYER0014
  6
CONTINUOUS
 62
     7
 10
-169.7441277995611
 20
148.0832890855895
 30
0.0
 11
-176.0941277995611
 21
148.0832890855895
 31
0.0
  0
INSERT
  5
15E
  8
LAYER0014
 62
     7
  2
_OPEN30
 10
-169.7441277995611
 20
148.0832890855895
 30
0.0
 41
1.999998407630662
 42
2.000005728319971
 50
360.0
  0
LINE
  5
15F
  8
LAYER0014
  6
CONTINUOUS
 62
     7
 10
-156.8941277995611
 20
148.0832890855895
 30
0.0
 11
-163.2441277995611
 21
148.0832890855895
 31
0.0
  0
INSERT
  5
160
  8
LAYER0014
 62
     7
  2
_OPEN30
 10
-163.2441277995611
 20
148.0832890855895
 30
0.0
 41
1.999998407630662
 42
2.000005728319971
 50
180.0
  0
TEXT
  5
161
  8
LAYER0014
 62
     7
 10
-167.9900889496876
 20
149.691664224807
 30
0.0
 40
4.0
  1
6.5
 50
-0.1000000000000078
 41
0.8000000000000025
  7
FDASTYLE1
 72
     5
 11
-158.39010357132
 21
149.6749090724944
 31
0.0
  0
ENDBLK
  5
93
  8
0
  0
BLOCK
  8
0
  2
DA_IMAGEDIMGROUP_24
 70
     0
 10
0.0
 20
0.0
 30
0.0
  3
DA_IMAGEDIMGROUP_24
  1

  0
LINE
  5
162
  8
LAYER0014
  6
CONTINUOUS
 62
     7
 10
-140.1672454753423
 20
53.38247960682969
 30
0.0
 11
-188.2338128581549
 21
53.38247960682969
 31
0.0
  0
LINE
  5
163
  8
LAYER0014
  6
CONTINUOUS
 62
     7
 10
-140.1672454753423
 20
3.382479606829691
 30
0.0
 11
-188.2338128581549
 21
3.382479606829691
 31
0.0
  0
LINE
  5
164
  8
LAYER0014
  6
CONTINUOUS
 62
     7
 10
-185.9478326335455
 20
53.38247960682969
 30
0.0
 11
-185.9478326335455
 21
3.382479606829691
 31
0.0
  0
INSERT
  5
165
  8
LAYER0014
 62
     7
  2
_OPEN30
 10
-185.9478326335455
 20
53.38247960682969
 30
0.0
 41
1.999998407630662
 42
2.000005728319971
 50
90.0
  0
INSERT
  5
166
  8
LAYER0014
 62
     7
  2
_OPEN30
 10
-185.9478326335455
 20
3.382479606829691
 30
0.0
 41
1.999998407630662
 42
2.000005728319971
 50
270.0
  0
TEXT
  5
167
  8
LAYER0014
 62
     7
 10
-186.9562102097018
 20
18.92248691764591
 30
0.0
 40
4.0
  1
φ50
 50
89.90000000000001
 41
0.7500000000000014
  7
FDASTYLE1
 72
     5
 11
-186.9394550573892
 21
28.52247229601349
 31
0.0
  0
TEXT
  5
168
  8
LAYER0014
 62
     7
 10
-189.1377063782325
 20
29.52631049533175
 30
0.0
 40
2.2
  1
+0.5
 50
89.90000000000001
 41
0.7999999999999991
  7
FDASTYLE1
 72
     5
 11
-189.1254192665366
 21
36.56629977280129
 31
0.0
  0
TEXT
  5
169
  8
LAYER0014
 62
     7
 10
-186.7377100336406
 20
29.52212170725359
 30
0.0
 40
2.2
  1
 0
 50
89.90000000000001
 41
0.8000000000000023
  7
FDASTYLE1
 72
     5
 11
-186.7315664777927
 21
33.04211634598838
 31
0.0
  0
ENDBLK
  5
96
  8
0
  0
BLOCK
  8
0
  2
DA_IMAGEDIMGROUP_25
 70
     0
 10
0.0
 20
0.0
 30
0.0
  3
DA_IMAGEDIMGROUP_25
  1

  0
LINE
  5
16A
  8
LAYER0014
  6
CONTINUOUS
 62
     7
 10
-77.24412017016658
 20
3.729769645892191
 30
0.0
 11
-74.74412017016658
 21
3.729769645892191
 31
0.0
  0
LINE
  5
16B
  8
LAYER0014
  6
CONTINUOUS
 62
     7
 10
-77.24412017016658
 20
3.729769645892191
 30
0.0
 11
-83.59412017016658
 21
3.729769645892191
 31
0.0
  0
INSERT
  5
16C
  8
LAYER0014
 62
     7
  2
_OPEN30
 10
-77.24412017016658
 20
3.729769645892191
 30
0.0
 41
1.999998407630662
 42
2.000005728319971
 50
360.0
  0
LINE
  5
16D
  8
LAYER0014
  6
CONTINUOUS
 62
     7
 10
-68.39412017016659
 20
3.729769645892191
 30
0.0
 11
-74.74412017016658
 21
3.729769645892191
 31
0.0
  0
INSERT
  5
16E
  8
LAYER0014
 62
     7
  2
_OPEN30
 10
-74.74412017016658
 20
3.729769645892191
 30
0.0
 41
1.999998407630662
 42
2.000005728319971
 50
180.0
  0
TEXT
  5
16F
  8
LAYER0014
 62
     7
 10
-66.99230910349618
 20
5.338144785109762
 30
0.0
 40
4.0
  1
2.5
 50
-0.1000000000000078
 41
0.8000000000000013
  7
FDASTYLE1
 72
     5
 11
-57.39232372512861
 21
5.321389632797136
 31
0.0
  0
ENDBLK
  5
99
  8
0
  0
BLOCK
  8
0
  2
DA_IMAGEDIMGROUP_26
 70
     0
 10
0.0
 20
0.0
 30
0.0
  3
DA_IMAGEDIMGROUP_26
  1

  0
LINE
  5
170
  8
LAYER0014
  6
CONTINUOUS
 62
     7
 10
-170.7441277995611
 20
-131.117516578473
 30
0.0
 11
-74.74412017016658
 21
-131.117516578473
 31
0.0
  0
INSERT
  5
171
  8
LAYER0014
 62
     7
  2
_OPEN30
 10
-170.7441277995611
 20
-131.117516578473
 30
0.0
 41
1.999998407630662
 42
2.000005728319971
 50
180.0
  0
INSERT
  5
172
  8
LAYER0014
 62
     7
  2
_OPEN30
 10
-74.74412017016658
 20
-131.117516578473
 30
0.0
 41
1.999998407630662
 42
2.000005728319971
 50
360.0
  0
LINE
  5
173
  8
LAYER0014
  6
CONTINUOUS
 62
     7
 10
-170.7441277995611
 20
-81.65753183726211
 30
0.0
 11
-170.7441277995611
 21
-132.117516578473
 31
0.0
  0
LINE
  5
174
  8
LAYER0014
  6
CONTINUOUS
 62
     7
 10
-74.74408965258846
 20
-79.65751657847305
 30
0.0
 11
-74.74412076320152
 21
-132.1175165784729
 31
0.0
  0
TEXT
  5
175
  8
LAYER0014
 62
     7
 10
-125.9441239848639
 20
-130.117516578473
 30
0.0
 40
4.0
  1
96
 41
0.8000000000000007
  7
FDASTYLE1
 72
     5
 11
-119.5441239848638
 21
-130.117516578473
 31
0.0
  0
ENDBLK
  5
9C
  8
0
  0
BLOCK
  8
0
  2
DA_IMAGEDIMGROUP_27
 70
     0
 10
0.0
 20
0.0
 30
0.0
  3
DA_IMAGEDIMGROUP_27
  1

  0
LINE
  5
176
  8
LAYER0014
  6
CONTINUOUS
 62
     7
 10
-86.08724547534234
 20
-4.11752039317031
 30
0.0
 11
-45.37714629321345
 21
-4.11752039317031
 31
0.0
  0
LINE
  5
177
  8
LAYER0014
  6
CONTINUOUS
 62
     7
 10
-47.66315703540095
 20
-4.11752039317031
 30
0.0
 11
-47.66315703540095
 21
51.20202916737657
 31
0.0
  0
INSERT
  5
178
  8
LAYER0014
 62
     7
  2
_OPEN30
 10
-47.66315703540095
 20
-4.11752039317031
 30
0.0
 41
1.999998407630662
 42
2.000005728319971
 50
270.0
  0
TEXT
  5
179
  8
LAYER0014
 62
     7
 10
-48.66315703540095
 20
15.8492334763077
 30
0.0
 40
4.0
  1
M65×P1.25
 50
90.0
 41
0.782608695652174
  7
FDASTYLE1
 72
     5
 11
-48.66315703540095
 21
44.6492334763077
 31
0.0
  0
ENDBLK
  5
9F
  8
0
  0
BLOCK
  8
0
  2
DA_IMAGEDIMGROUP_28
 70
     0
 10
0.0
 20
0.0
 30
0.0
  3
DA_IMAGEDIMGROUP_28
  1

  0
LINE
  5
17A
  8
LAYER0014
  6
CONTINUOUS
 62
     7
 10
-41.13745452075251
 20
85.18250173207383
 30
0.0
 11
-34.7008157268072
 21
85.18250173207383
 31
0.0
  0
LINE
  5
17B
  8
LAYER0014
  6
CONTINUOUS
 62
     7
 10
-41.13745452075251
 20
115.1824712144957
 30
0.0
 11
-34.7008157268072
 21
115.1824712144957
 31
0.0
  0
LINE
  5
17C
  8
LAYER0014
  6
CONTINUOUS
 62
     7
 10
-35.7008157268072
 20
85.18250173207383
 30
0.0
 11
-35.7008157268072
 21
115.1824712144957
 31
0.0
  0
INSERT
  5
17D
  8
LAYER0014
 62
     7
  2
_OPEN30
 10
-35.7008157268072
 20
85.18250173207383
 30
0.0
 41
1.999998407630662
 42
2.000005728319971
 50
270.0
  0
INSERT
  5
17E
  8
LAYER0014
 62
     7
  2
_OPEN30
 10
-35.7008157268072
 20
115.1824712144957
 30
0.0
 41
1.999998407630662
 42
2.000005728319971
 50
90.0
  0
TEXT
  5
17F
  8
LAYER0014
 62
     7
 10
-36.7008157268072
 20
96.98248647328477
 30
0.0
 40
4.0
  1
30
 50
90.0
 41
0.8000000000000007
  7
FDASTYLE1
 72
     5
 11
-36.7008157268072
 21
103.3824864732848
 31
0.0
  0
ENDBLK
  5
A2
  8
0
  0
BLOCK
  8
0
  2
DA_IMAGEDIMGROUP_29
 70
     0
 10
0.0
 20
0.0
 30
0.0
  3
DA_IMAGEDIMGROUP_29
  1

  0
LINE
  5
180
  8
LAYER0014
  6
CONTINUOUS
 62
     7
 10
-72.20412017016656
 20
-11.61752039317031
 30
0.0
 11
-33.41481261401423
 21
-11.61752039317031
 31
0.0
  0
LINE
  5
181
  8
LAYER0014
  6
CONTINUOUS
 62
     7
 10
-35.7008157268072
 20
-11.61752039317031
 30
0.0
 11
-35.7008157268072
 21
51.13247960682969
 31
0.0
  0
INSERT
  5
182
  8
LAYER0014
 62
     7
  2
_OPEN30
 10
-35.7008157268072
 20
-11.61752039317031
 30
0.0
 41
1.999998407630662
 42
2.000005728319971
 50
270.0
  0
TEXT
  5
183
  8
LAYER0014
 62
     7
 10
-36.7008157268072
 20
21.50686673698893
 30
0.0
 40
4.0
  1
φ80H7
 50
90.0
 41
0.7692307692307692
  7
FDASTYLE1
 72
     5
 11
-36.7008157268072
 21
37.50686673698893
 31
0.0
  0
ENDBLK
  5
A5
  8
0
  0
BLOCK
  8
0
  2
DC_GROUP_2
 70
     0
 10
0.0
 20
0.0
 30
0.0
  3
DC_GROUP_2
  1

  0
LINE
  5
184
  8
LAYER0014
  6
CONTINUOUS
 62
     7
 10
-75.7281371073671
 20
130.4851292210626
 30
0.0
 11
-49.56427323912504
 21
161.3273372795119
 31
0.0
  0
INSERT
  5
185
  8
LAYER0014
 62
     7
  2
_OPEN30
 10
-75.7281371073671
 20
130.4851292210626
 30
0.0
 41
1.999998407630662
 42
2.000005728319971
 50
229.6916058454911
  0
LINE
  5
186
  8
LAYER0014
  6
CONTINUOUS
 62
     7
 10
-49.56428008227595
 20
161.3273534166441
 30
0.0
 11
-2.934610892822825
 21
161.3273534166441
 31
0.0
  0
TEXT
  5
187
  8
LAYER0014
 62
     7
 10
-49.04447417407283
 20
162.9273534166441
 30
0.0
 40
4.0
  1
ｾﾚｰｼｮﾝP1.5山60ﾟ
 41
0.7887323943661972
  7
FDASTYLE1
 72
     5
 11
-4.244474174072821
 21
162.9273534166441
 31
0.0
  0
ENDBLK
  5
A8
  8
0
  0
BLOCK
  8
0
  2
DC_GROUP_3
 70
     0
 10
0.0
 20
0.0
 30
0.0
  3
DC_GROUP_3
  1

  0
LINE
  5
188
  8
LAYER0014
  6
CONTINUOUS
 62
     7
 10
-62.9425816101521
 20
120.1972310910707
 30
0.0
 11
-41.73001445415303
 21
147.438643217672
 31
0.0
  0
INSERT
  5
189
  8
LAYER0014
 62
     7
  2
_OPEN30
 10
-62.9425816101521
 20
120.1972310910707
 30
0.0
 41
1.999998407630662
 42
2.000005728319971
 50
232.0925276204666
  0
LINE
  5
18A
  8
LAYER0014
  6
CONTINUOUS
 62
     7
 10
-41.73002104907283
 20
147.438651024066
 30
0.0
 11
-30.30034880786189
 21
147.438651024066
 31
0.0
  0
TEXT
  5
18B
  8
LAYER0014
 62
     7
 10
-41.28344969897517
 20
149.038651024066
 30
0.0
 40
4.0
  1
M10
 41
0.8000000000000002
  7
FDASTYLE1
 72
     5
 11
-31.68344969897517
 21
149.038651024066
 31
0.0
  0
ENDBLK
  5
AB
  8
0
  0
BLOCK
  8
0
  2
DC_GROUP_4
 70
     0
 10
0.0
 20
0.0
 30
0.0
  3
DC_GROUP_4
  1

  0
LINE
  5
18C
  8
LAYER0014
  6
CONTINUOUS
 62
     7
 10
-73.20412017016656
 20
135.1824712144957
 30
0.0
 11
-21.45247130542048
 21
135.1824712144957
 31
0.0
  0
LINE
  5
18D
  8
LAYER0014
  6
CONTINUOUS
 62
     7
 10
-73.20412017016656
 20
70.68250173207383
 30
0.0
 11
-41.66794685376561
 21
70.68250173207383
 31
0.0
  0
LINE
  5
18E
  8
LAYER0014
  6
CONTINUOUS
 62
     7
 10
-36.51502076287445
 20
70.68250173207383
 30
0.0
 11
-21.45247130542048
 21
70.68250173207383
 31
0.0
  0
LINE
  5
18F
  8
LAYER0014
  6
CONTINUOUS
 62
     7
 10
-23.73847441821345
 20
70.68248647328477
 30
0.0
 11
-23.73847441821345
 21
135.1824864732848
 31
0.0
  0
INSERT
  5
190
  8
LAYER0014
 62
     7
  2
_OPEN30
 10
-23.73847441821345
 20
70.68248647328477
 30
0.0
 41
1.999998407630662
 42
2.000005728319971
 50
270.0
  0
INSERT
  5
191
  8
LAYER0014
 62
     7
  2
_OPEN30
 10
-23.73847441821345
 20
135.1824864732848
 30
0.0
 41
1.999998407630662
 42
2.000005728319971
 50
90.0
  0
TEXT
  5
192
  8
LAYER0014
 62
     7
 10
-25.33847441821344
 20
96.53250173207383
 30
0.0
 40
4.0
  1
64.5
 50
90.0
 41
0.8000000000000007
  7
FDASTYLE1
 72
     5
 11
-25.33847441821344
 21
109.3325017320738
 31
0.0
  0
ENDBLK
  5
AE
  8
0
  0
BLOCK
  8
0
  2
DC_GROUP_5
 70
     0
 10
0.0
 20
0.0
 30
0.0
  3
DC_GROUP_5
  1

  0
LINE
  5
193
  8
LAYER0014
  6
CONTINUOUS
 62
     7
 10
-41.13745452075251
 20
85.18250173207383
 30
0.0
 11
-33.41481261401423
 21
85.18250173207383
 31
0.0
  0
LINE
  5
194
  8
LAYER0014
  6
CONTINUOUS
 62
     7
 10
-35.7008157268072
 20
70.68248647328477
 30
0.0
 11
-35.7008157268072
 21
85.18248647328477
 31
0.0
  0
LINE
  5
195
  8
LAYER0014
  6
CONTINUOUS
 62
     7
 10
-73.20412017016656
 20
70.68250173207383
 30
0.0
 11
-41.66794685376561
 21
70.68250173207383
 31
0.0
  0
LINE
  5
196
  8
LAYER0014
  6
CONTINUOUS
 62
     7
 10
-36.51502076287445
 20
70.68250173207383
 30
0.0
 11
-33.41481261401423
 21
70.68250173207383
 31
0.0
  0
LINE
  5
197
  8
LAYER0014
  6
CONTINUOUS
 62
     7
 10
-35.7008157268072
 20
65.68248647328477
 30
0.0
 11
-35.7008157268072
 21
70.68248647328477
 31
0.0
  0
INSERT
  5
198
  8
LAYER0014
 62
     7
  2
_OPEN30
 10
-35.7008157268072
 20
70.68248647328477
 30
0.0
 41
1.999998407630662
 42
2.000005728319971
 50
90.0
  0
LINE
  5
199
  8
LAYER0014
  6
CONTINUOUS
 62
     7
 10
-35.7008157268072
 20
90.18248647328477
 30
0.0
 11
-35.7008157268072
 21
85.18248647328477
 31
0.0
  0
INSERT
  5
19A
  8
LAYER0014
 62
     7
  2
_OPEN30
 10
-35.7008157268072
 20
85.18248647328477
 30
0.0
 41
1.999998407630662
 42
2.000005728319971
 50
270.0
  0
TEXT
  5
19B
  8
LAYER0014
 62
     7
 10
-36.7008157268072
 20
67.19860008825307
 30
0.0
 40
4.0
  1
MIN10
 50
90.0
 41
0.8
  7
FDASTYLE1
 72
     5
 11
-36.7008157268072
 21
83.19860008825307
 31
0.0
  0
ENDBLK
  5
B1
  8
0
  0
BLOCK
  8
0
  2
DC_GROUP_6
 70
     0
 10
0.0
 20
0.0
 30
0.0
  3
DC_GROUP_6
  1

  0
LINE
  5
19C
  8
LAYER0014
  6
CONTINUOUS
 62
     7
 10
-20.53654631762751
 20
28.38247960682969
 30
0.0
 11
-33.78683715014704
 21
28.38247960682969
 31
0.0
  0
LINE
  5
19D
  8
LAYER0014
  6
CONTINUOUS
 62
     7
 10
-73.20412017016656
 20
70.68250173207383
 30
0.0
 11
-41.66794685376561
 21
70.68250173207383
 31
0.0
  0
LINE
  5
19E
  8
LAYER0014
  6
CONTINUOUS
 62
     7
 10
-36.51502076287445
 20
70.68250173207383
 30
0.0
 11
-21.45247130542048
 21
70.68250173207383
 31
0.0
  0
LINE
  5
19F
  8
LAYER0014
  6
CONTINUOUS
 62
     7
 10
-23.73847441821345
 20
28.38247960682969
 30
0.0
 11
-23.73847441821345
 21
70.68248647328477
 31
0.0
  0
INSERT
  5
1A0
  8
LAYER0014
 62
     7
  2
_OPEN30
 10
-23.73847441821345
 20
28.38247960682969
 30
0.0
 41
1.999998407630662
 42
2.000005728319971
 50
270.0
  0
INSERT
  5
1A1
  8
LAYER0014
 62
     7
  2
_OPEN30
 10
-23.73847441821345
 20
70.68248647328477
 30
0.0
 41
1.999998407630662
 42
2.000005728319971
 50
90.0
  0
TEXT
  5
1A2
  8
LAYER0014
 62
     7
 10
-25.33847441821344
 20
38.33247350331406
 30
0.0
 40
4.0
  1
MAX43.9
 50
90.0
 41
0.8000000000000002
  7
FDASTYLE1
 72
     5
 11
-25.33847441821344
 21
60.73247350331407
 31
0.0
  0
ENDBLK
  5
B4
  8
0
  0
BLOCK
  8
0
  2
DA_IMAGEDIMGROUP_30
 70
     0
 10
0.0
 20
0.0
 30
0.0
  3
DA_IMAGEDIMGROUP_30
  1

  0
LINE
  5
1A3
  8
0
  6
CONTINUOUS
 62
     9
 10
-170.7441277995611
 20
-80.11753183726211
 30
0.0
 11
-170.7441277995611
 21
-122.117516578473
 31
0.0
  0
LINE
  5
1A4
  8
0
  6
CONTINUOUS
 62
     9
 10
-169.7441277995611
 20
-65.11751657847304
 30
0.0
 11
-169.7441277995611
 21
-122.117516578473
 31
0.0
  0
LINE
  5
1A5
  8
0
  6
CONTINUOUS
 62
     9
 10
-170.7441277995611
 20
-121.117516578473
 30
0.0
 11
-169.7441277995611
 21
-121.117516578473
 31
0.0
  0
LINE
  5
1A6
  8
0
  6
CONTINUOUS
 62
     9
 10
-74.74408965258846
 20
-78.11751657847304
 30
0.0
 11
-74.74408965258846
 21
-122.117516578473
 31
0.0
  0
LINE
  5
1A7
  8
0
  6
CONTINUOUS
 62
     9
 10
-177.8759777995611
 20
-121.117516578473
 30
0.0
 11
-170.7441277995611
 21
-121.117516578473
 31
0.0
  0
INSERT
  5
1A8
  8
0
 62
     9
  2
_OPEN30
 10
-170.7441277995611
 20
-121.117516578473
 30
0.0
 41
1.999998407630662
 42
2.000005728319971
 50
360.0
  0
LINE
  5
1A9
  8
0
  6
CONTINUOUS
 62
     9
 10
-169.7441277995611
 20
-121.117516578473
 30
0.0
 11
-74.74408965258846
 21
-121.117516578473
 31
0.0
  0
INSERT
  5
1AA
  8
0
 62
     9
  2
_OPEN30
 10
-169.7441277995611
 20
-121.117516578473
 30
0.0
 41
1.999998407630662
 42
2.000005728319971
 50
180.0
  0
INSERT
  5
1AB
  8
0
 62
     9
  2
_OPEN30
 10
-74.74408965258846
 20
-121.117516578473
 30
0.0
 41
1.999998407630662
 42
2.000005728319971
 50
360.0
  0
TEXT
  5
1AC
  8
0
 62
     7
 10
-176.8759777995611
 20
-120.117516578473
 30
0.0
 40
4.0
  1
1
 41
0.7999999999999972
  7
FDASTYLE1
 72
     5
 11
-173.6759777995611
 21
-120.117516578473
 31
0.0
  0
TEXT
  5
1AD
  8
0
 62
     7
 10
-125.4441087260748
 20
-120.117516578473
 30
0.0
 40
4.0
  1
95
 41
0.8000000000000007
  7
FDASTYLE1
 72
     5
 11
-119.0441087260748
 21
-120.117516578473
 31
0.0
  0
ENDBLK
  5
B7
  8
0
  0
BLOCK
  8
0
  2
DA_IMAGEDIMGROUP_31
 70
     0
 10
0.0
 20
0.0
 30
0.0
  3
DA_IMAGEDIMGROUP_31
  1

  0
LINE
  5
1AE
  8
0
  6
CONTINUOUS
 62
     9
 10
-114.744097281983
 20
-85.42481333140273
 30
0.0
 11
-114.744097281983
 21
-101.9252157333657
 31
0.0
  0
LINE
  5
1AF
  8
0
  6
CONTINUOUS
 62
     9
 10
-169.7441277995611
 20
-65.11751657847304
 30
0.0
 11
-169.7441277995611
 21
-101.9252157333657
 31
0.0
  0
LINE
  5
1B0
  8
0
  6
CONTINUOUS
 62
     9
 10
-169.7441277995611
 20
-100.9252157333657
 30
0.0
 11
-114.744097281983
 21
-100.9252157333657
 31
0.0
  0
INSERT
  5
1B1
  8
0
 62
     9
  2
_OPEN30
 10
-169.7441277995611
 20
-100.9252157333657
 30
0.0
 41
1.999998407630662
 42
2.000005728319971
 50
180.0
  0
INSERT
  5
1B2
  8
0
 62
     9
  2
_OPEN30
 10
-114.744097281983
 20
-100.9252157333657
 30
0.0
 41
1.999998407630662
 42
2.000005728319971
 50
360.0
  0
TEXT
  5
1B3
  8
0
 62
     7
 10
-145.444112540772
 20
-99.92521573336565
 30
0.0
 40
4.0
  1
55
 41
0.7999999999999972
  7
FDASTYLE1
 72
     5
 11
-139.0441125407721
 21
-99.92521573336565
 31
0.0
  0
ENDBLK
  5
BA
  8
0
  0
BLOCK
  8
0
  2
DC_GROUP_7
 70
     0
 10
0.0
 20
0.0
 30
0.0
  3
DC_GROUP_7
  1

  0
LINE
  5
1B4
  8
0
  6
CONTINUOUS
 62
     7
 10
-114.744097281983
 20
-79.2864686221025
 30
0.0
 11
-101.9079038237648
 21
-97.12726918267819
 31
0.0
  0
INSERT
  5
1B5
  8
0
 62
     7
  2
_OPEN30
 10
-114.744097281983
 20
-79.2864686221025
 30
0.0
 41
1.999998407630662
 42
2.000005728319971
 50
125.7344600596188
  0
LINE
  5
1B6
  8
0
  6
CONTINUOUS
 62
     7
 10
-101.9079038237648
 20
-97.12726918267819
 30
0.0
 11
-85.9079038237648
 21
-97.12726918267819
 31
0.0
  0
TEXT
  5
1B7
  8
0
 62
     7
 10
-101.9079038237648
 20
-97.12726918267819
 30
0.0
 40
4.0
  1
Ｍ8×16
 41
0.7407407407407407
  7
FDASTYLE1
 72
     5
 11
-85.9079038237648
 21
-97.12726918267819
 31
0.0
  0
ENDBLK
  5
BD
  8
0
  0
BLOCK
  8
0
  2
DA_IMAGEDIMGROUP_32
 70
     0
 10
0.0
 20
0.0
 30
0.0
  3
DA_IMAGEDIMGROUP_32
  1

  0
LINE
  5
1B8
  8
LAYER0014
  6
CONTINUOUS
 62
     7
 10
262.9141739460222
 20
28.38240026745203
 30
0.0
 11
265.8176096149675
 21
28.38240026745203
 31
0.0
  0
LINE
  5
1B9
  8
LAYER0014
  6
CONTINUOUS
 62
     7
 10
190.2316970224842
 20
57.16781431257049
 30
0.0
 11
249.0114128029361
 21
91.10422432725608
 31
0.0
  0
ARC
  5
1BA
  8
LAYER0014
  6
CONTINUOUS
 62
     7
 10
140.3741815754167
 20
28.3824918201864
 30
0.0
 40
123.1574554443359
 50
0.0
 51
29.99999741973147
  0
INSERT
  5
1BB
  8
LAYER0014
 62
     7
  2
_OPEN30
 10
263.5316370197527
 20
28.3824918201864
 30
0.0
 41
1.999998407630662
 42
2.000005728319971
 50
270.4652235444232
  0
INSERT
  5
1BC
  8
LAYER0014
 62
     7
  2
_OPEN30
 10
247.0316694288092
 20
89.96121473912177
 30
0.0
 41
1.999998407630662
 42
2.000005728319971
 50
119.5347738753099
  0
TEXT
  5
1BD
  8
LAYER0014
 62
     7
 10
259.6382613515926
 20
65.30853453978799
 30
0.0
 40
4.0
  1
30ﾟ
 50
-74.99999999999997
 41
0.800000000000002
  7
FDASTYLE1
 72
     5
 11
262.1229241845768
 21
56.03564660741291
 31
0.0
  0
ENDBLK
  5
C0
  8
0
  0
BLOCK
  8
0
  2
DC_GROUP_8
 70
     0
 10
0.0
 20
0.0
 30
0.0
  3
DC_GROUP_8
  1

  0
LINE
  5
1BE
  8
0
  6
CONTINUOUS
 62
     7
 10
141.8428804884818
 20
-20.33722022196716
 30
0.0
 11
181.114583473827
 21
-115.8269182757911
 31
0.0
  0
INSERT
  5
1BF
  8
0
 62
     7
  2
_OPEN30
 10
141.8428804884818
 20
-20.33722022196716
 30
0.0
 41
1.999998407630662
 42
2.000005728319971
 50
112.3557182674354
  0
LINE
  5
1C0
  8
0
  6
CONTINUOUS
 62
     7
 10
181.1145761677019
 20
-115.8269198009074
 30
0.0
 11
226.0034311481706
 21
-115.8269198009074
 31
0.0
  0
TEXT
  5
1C1
  8
0
 62
     7
 10
183.4891489216081
 20
-114.2269198009074
 30
0.0
 40
4.0
  1
3-M8×15 PCD90
 41
0.7878787878787879
  7
FDASTYLE1
 72
     5
 11
225.0891489216081
 21
-114.2269198009074
 31
0.0
  0
ENDBLK
  5
C3
  8
0
  0
BLOCK
  8
0
  2
DC_GROUP_9
 70
     0
 10
0.0
 20
0.0
 30
0.0
  3
DC_GROUP_9
  1

  0
LINE
  5
1C2
  8
LAYER0014
  6
CONTINUOUS
 62
     7
 10
164.8241308515928
 20
-43.85085351598954
 30
0.0
 11
186.824132702875
 21
-93.85085195151405
 31
0.0
  0
INSERT
  5
1C3
  8
LAYER0014
 62
     7
  2
_OPEN30
 10
164.8241308515928
 20
-43.85085351598954
 30
0.0
 41
1.999998407630662
 42
2.000005728319971
 50
113.7494969310589
  0
LINE
  5
1C4
  8
LAYER0014
  6
CONTINUOUS
 62
     7
 10
186.8241251178972
 20
-93.85085321155188
 30
0.0
 11
218.53843481028
 21
-93.85085321155188
 31
0.0
  0
TEXT
  5
1C5
  8
LAYER0014
 62
     7
 10
188.8241556354753
 20
-92.25085321155189
 30
0.0
 40
4.0
  1
PCD133.35
 41
0.8000000000000003
  7
FDASTYLE1
 72
     5
 11
217.6241556354753
 21
-92.25085321155189
 31
0.0
  0
ENDBLK
  5
C6
  8
0
  0
BLOCK
  8
0
  2
DA_IMAGEDIMGROUP_33
 70
     0
 10
0.0
 20
0.0
 30
0.0
  3
DA_IMAGEDIMGROUP_33
  1

  0
LINE
  5
1C6
  8
LAYER0014
  6
CONTINUOUS
 62
     7
 10
80.82518322999341
 20
87.93150603433649
 30
0.0
 11
49.56523748493939
 21
119.1913648239726
 31
0.0
  0
LINE
  5
1C7
  8
LAYER0014
  6
CONTINUOUS
 62
     7
 10
59.0287156516037
 20
50.17890296133804
 30
0.0
 11
16.32687520635929
 21
61.62078437046526
 31
0.0
  0
ARC
  5
1C8
  8
LAYER0014
  6
CONTINUOUS
 62
     7
 10
140.3741815754167
 20
28.38246130260828
 30
0.0
 40
126.1372146606445
 50
135.0000276623794
 51
165.0000216670162
  0
INSERT
  5
1C9
  8
LAYER0014
 62
     7
  2
_OPEN30
 10
51.18165866680872
 20
117.5748980870294
 30
0.0
 41
1.999998407630662
 42
2.000005728319971
 50
45.45426115800515
  0
INSERT
  5
1CA
  8
LAYER0014
 62
     7
  2
_OPEN30
 10
18.53497593283441
 20
61.02912867816222
 30
0.0
 41
1.999998407630662
 42
2.000005728319971
 50
254.5457881713905
  0
TEXT
  5
1CB
  8
LAYER0014
 62
     7
 10
27.35050381998661
 20
88.09411236248984
 30
0.0
 40
4.0
  1
30ﾟ
 50
59.99999999999999
 41
0.8000000000000012
  7
FDASTYLE1
 72
     5
 11
32.15050381998662
 21
96.40795623882046
 31
0.0
  0
ENDBLK
  5
C9
  8
0
  0
BLOCK
  8
0
  2
DA_IMAGEDIMGROUP_34
 70
     0
 10
0.0
 20
0.0
 30
0.0
  3
DA_IMAGEDIMGROUP_34
  1

  0
LINE
  5
1CC
  8
LAYER0014
  6
CONTINUOUS
 62
     7
 10
59.02872969514183
 20
50.17893846053156
 30
0.0
 11
16.32688242294668
 21
61.62081440534681
 31
0.0
  0
LINE
  5
1CD
  8
LAYER0014
  6
CONTINUOUS
 62
     7
 10
17.8341887820563
 20
28.38253645237378
 30
0.0
 11
11.95099580393573
 21
28.38261305335279
 31
0.0
  0
ARC
  5
1CE
  8
LAYER0014
  6
CONTINUOUS
 62
     7
 10
140.3741205402605
 20
28.3824918201864
 30
0.0
 40
126.1371383666992
 50
165.0000216670162
 51
179.9999640278213
  0
INSERT
  5
1CF
  8
LAYER0014
 62
     7
  2
_OPEN30
 10
18.53498859197779
 20
61.02913944944214
 30
0.0
 41
1.999998407630662
 42
2.000005728319971
 50
75.45425543738476
  0
INSERT
  5
1D0
  8
LAYER0014
 62
     7
  2
_OPEN30
 10
14.2369821735861
 20
28.38257101323901
 30
0.0
 41
1.999998407630662
 42
2.000005728319971
 50
269.5457302574527
  0
TEXT
  5
1D1
  8
LAYER0014
 62
     7
 10
13.09533108660819
 20
40.3005008498279
 30
0.0
 40
4.0
  1
15ﾟ
 50
82.40000000000002
 41
0.8000000000000003
  7
FDASTYLE1
 72
     5
 11
14.36499243307656
 21
49.8161700362427
 31
0.0
  0
ENDBLK
  5
CC
  8
0
  0
BLOCK
  8
0
  2
_OPEN30
 70
     0
 10
0.0
 20
0.0
 30
0.0
  3
_OPEN30
  1

  0
LINE
  5
D3
  8
0
  6
BYBLOCK
 62
     0
 10
-1.0
 20
0.267949
 30
0.0
 11
0.0
 21
0.0
 31
0.0
  0
LINE
  5
D4
  8
0
  6
BYBLOCK
 62
     0
 10
0.0
 20
0.0
 30
0.0
 11
-1.0
 21
-0.267949
 31
0.0
  0
LINE
  5
D5
  8
0
  6
BYBLOCK
 62
     0
 10
0.0
 20
0.0
 30
0.0
 11
-1.0
 21
0.0
 31
0.0
  0
ENDBLK
  5
D2
  8
0
  0
ENDSEC
  0
SECTION
  2
ENTITIES
  0
LINE
  5
1D2
  8
ZUWAKU
  6
CONTINUOUS
 62
     3
 10
-277.0
 20
-190.0
 30
0.0
 11
-277.0
 21
190.0
 31
0.0
  0
LINE
  5
1D3
  8
ZUWAKU
  6
CONTINUOUS
 62
     3
 10
277.0
 20
-190.0
 30
0.0
 11
277.0
 21
190.0
 31
0.0
  0
LINE
  5
1D4
  8
ZUWAKU
  6
CONTINUOUS
 62
     3
 10
-277.0
 20
-190.0
 30
0.0
 11
277.0
 21
-190.0
 31
0.0
  0
LINE
  5
1D5
  8
ZUWAKU
  6
CONTINUOUS
 62
     3
 10
-277.0
 20
189.9999999999999
 30
0.0
 11
277.0
 21
189.9999999999999
 31
0.0
  0
LINE
  5
1D6
  8
ZUWAKU
  6
CONTINUOUS
 62
     3
 10
97.00000000000001
 20
-190.0
 30
0.0
 11
97.00000000000001
 21
-130.0
 31
0.0
  0
LINE
  5
1D7
  8
ZUWAKU
  6
CONTINUOUS
 62
     3
 10
97.00000000000001
 20
-176.0
 30
0.0
 11
277.0
 21
-176.0
 31
0.0
  0
LINE
  5
1D8
  8
ZUWAKU
  6
CONTINUOUS
 62
     3
 10
146.0
 20
-162.0
 30
0.0
 11
277.0
 21
-162.0
 31
0.0
  0
LINE
  5
1D9
  8
ZUWAKU
  6
CONTINUOUS
 62
     3
 10
146.0
 20
-148.0
 30
0.0
 11
277.0
 21
-148.0
 31
0.0
  0
LINE
  5
1DA
  8
ZUWAKU
  6
CONTINUOUS
 62
     3
 10
146.0
 20
-138.0
 30
0.0
 11
277.0
 21
-138.0
 31
0.0
  0
LINE
  5
1DB
  8
ZUWAKU
  6
CONTINUOUS
 62
     3
 10
146.0
 20
-176.0
 30
0.0
 11
146.0
 21
-130.0
 31
0.0
  0
LINE
  5
1DC
  8
ZUWAKU
  6
CONTINUOUS
 62
     3
 10
255.0
 20
-176.0
 30
0.0
 11
255.0
 21
-130.0
 31
0.0
  0
LINE
  5
1DD
  8
ZUWAKU
  6
CONTINUOUS
 62
     3
 10
171.0
 20
-190.0
 30
0.0
 11
171.0
 21
-176.0
 31
0.0
  0
LINE
  5
1DE
  8
ZUWAKU
  6
CONTINUOUS
 62
     3
 10
262.0
 20
-188.0
 30
0.0
 11
272.0
 21
-188.0
 31
0.0
  0
LINE
  5
1DF
  8
ZUWAKU
  6
CONTINUOUS
 62
     3
 10
267.0
 20
-178.0
 30
0.0
 11
262.0
 21
-188.0
 31
0.0
  0
LINE
  5
1E0
  8
ZUWAKU
  6
CONTINUOUS
 62
     3
 10
267.0
 20
-178.0
 30
0.0
 11
272.0
 21
-188.0
 31
0.0
  0
LINE
  5
1E1
  8
ZUWAKU
  6
CONTINUOUS
 62
     3
 10
97.00000000000001
 20
-130.0
 30
0.0
 11
277.0
 21
-130.0
 31
0.0
  0
LINE
  5
1E2
  8
ZUWAKU
  6
CONTINUOUS
 62
     3
 10
226.0
 20
-176.0
 30
0.0
 11
226.0
 21
-148.0
 31
0.0
  0
LINE
  5
1E3
  8
ZUWAKU
  6
CONTINUOUS
 62
     4
 10
105.0
 20
-172.0
 30
0.0
 11
105.0
 21
-130.0
 31
0.0
  0
LINE
  5
1E4
  8
ZUWAKU
  6
CONTINUOUS
 62
     4
 10
109.0
 20
-172.0
 30
0.0
 11
109.0
 21
-130.0
 31
0.0
  0
LINE
  5
1E5
  8
ZUWAKU
  6
CONTINUOUS
 62
     4
 10
121.5
 20
-176.0
 30
0.0
 11
121.5
 21
-130.0
 31
0.0
  0
LINE
  5
1E6
  8
ZUWAKU
  6
CONTINUOUS
 62
     4
 10
97.00000000000001
 20
-137.0
 30
0.0
 11
146.0
 21
-137.0
 31
0.0
  0
LINE
  5
1E7
  8
ZUWAKU
  6
CONTINUOUS
 62
     4
 10
97.00000000000001
 20
-144.0
 30
0.0
 11
146.0
 21
-144.0
 31
0.0
  0
LINE
  5
1E8
  8
ZUWAKU
  6
CONTINUOUS
 62
     4
 10
97.00000000000001
 20
-165.0
 30
0.0
 11
146.0
 21
-165.0
 31
0.0
  0
LINE
  5
1E9
  8
ZUWAKU
  6
CONTINUOUS
 62
     4
 10
97.00000000000001
 20
-172.0
 30
0.0
 11
146.0
 21
-172.0
 31
0.0
  0
LINE
  5
1EA
  8
ZUWAKU
  6
CONTINUOUS
 62
     4
 10
255.0
 20
-166.0
 30
0.0
 11
277.0
 21
-166.0
 31
0.0
  0
LINE
  5
1EB
  8
ZUWAKU
  6
CONTINUOUS
 62
     4
 10
202.0
 20
-148.0
 30
0.0
 11
202.0
 21
-146.5
 31
0.0
  0
LINE
  5
1EC
  8
ZUWAKU
  6
CONTINUOUS
 62
     4
 10
226.0
 20
-148.0
 30
0.0
 11
226.0
 21
-146.5
 31
0.0
  0
LINE
  5
1ED
  8
ZUWAKU
  6
CONTINUOUS
 62
     4
 10
243.0
 20
-148.0
 30
0.0
 11
243.0
 21
-146.5
 31
0.0
  0
LINE
  5
1EE
  8
ZUWAKU
  6
CONTINUOUS
 62
     4
 10
97.00000000000001
 20
-151.0
 30
0.0
 11
146.0
 21
-151.0
 31
0.0
  0
LINE
  5
1EF
  8
ZUWAKU
  6
CONTINUOUS
 62
     4
 10
97.00000000000001
 20
-158.0
 30
0.0
 11
146.0
 21
-158.0
 31
0.0
  0
LINE
  5
1F0
  8
ZUWAKU
  6
CONTINUOUS
 62
     4
 10
101.0
 20
-130.5
 30
0.0
 11
98.00000000000001
 21
-136.5
 31
0.0
  0
LINE
  5
1F1
  8
ZUWAKU
  6
CONTINUOUS
 62
     4
 10
101.0
 20
-130.5
 30
0.0
 11
104.0
 21
-136.5
 31
0.0
  0
LINE
  5
1F2
  8
ZUWAKU
  6
CONTINUOUS
 62
     4
 10
98.00000000000001
 20
-136.5
 30
0.0
 11
104.0
 21
-136.5
 31
0.0
  0
LINE
  5
1F3
  8
ZUWAKU
  6
CONTINUOUS
 62
     4
 10
101.0
 20
-158.5
 30
0.0
 11
98.00000000000001
 21
-164.5
 31
0.0
  0
LINE
  5
1F4
  8
ZUWAKU
  6
CONTINUOUS
 62
     4
 10
101.0
 20
-158.5
 30
0.0
 11
104.0
 21
-164.5
 31
0.0
  0
LINE
  5
1F5
  8
ZUWAKU
  6
CONTINUOUS
 62
     4
 10
98.00000000000001
 20
-164.5
 30
0.0
 11
104.0
 21
-164.5
 31
0.0
  0
LINE
  5
1F6
  8
ZUWAKU
  6
CONTINUOUS
 62
     4
 10
101.0
 20
-151.5
 30
0.0
 11
98.00000000000001
 21
-157.5
 31
0.0
  0
LINE
  5
1F7
  8
ZUWAKU
  6
CONTINUOUS
 62
     4
 10
101.0
 20
-151.5
 30
0.0
 11
104.0
 21
-157.5
 31
0.0
  0
LINE
  5
1F8
  8
ZUWAKU
  6
CONTINUOUS
 62
     4
 10
98.00000000000001
 20
-157.5
 30
0.0
 11
104.0
 21
-157.5
 31
0.0
  0
LINE
  5
1F9
  8
ZUWAKU
  6
CONTINUOUS
 62
     4
 10
101.0
 20
-144.5
 30
0.0
 11
98.00000000000001
 21
-150.5
 31
0.0
  0
LINE
  5
1FA
  8
ZUWAKU
  6
CONTINUOUS
 62
     4
 10
101.0
 20
-144.5
 30
0.0
 11
104.0
 21
-150.5
 31
0.0
  0
LINE
  5
1FB
  8
ZUWAKU
  6
CONTINUOUS
 62
     4
 10
98.00000000000001
 20
-150.5
 30
0.0
 11
104.0
 21
-150.5
 31
0.0
  0
LINE
  5
1FC
  8
ZUWAKU
  6
CONTINUOUS
 62
     4
 10
101.0
 20
-137.5
 30
0.0
 11
98.00000000000001
 21
-143.5
 31
0.0
  0
LINE
  5
1FD
  8
ZUWAKU
  6
CONTINUOUS
 62
     4
 10
101.0
 20
-137.5
 30
0.0
 11
104.0
 21
-143.5
 31
0.0
  0
LINE
  5
1FE
  8
ZUWAKU
  6
CONTINUOUS
 62
     4
 10
98.00000000000001
 20
-143.5
 30
0.0
 11
104.0
 21
-143.5
 31
0.0
  0
LINE
  5
1FF
  8
ZUWAKU
  6
CONTINUOUS
 62
     4
 10
172.6666666666666
 20
-176.0
 30
0.0
 11
172.6666666666666
 21
-162.0
 31
0.0
  0
LINE
  5
200
  8
ZUWAKU
  6
CONTINUOUS
 62
     4
 10
199.3333333333333
 20
-176.0
 30
0.0
 11
199.3333333333333
 21
-161.9509415757253
 31
0.0
  0
LINE
  5
201
  8
ZUWAKU
  6
CONTINUOUS
 62
     4
 10
212.6666666666666
 20
-167.5
 30
0.0
 11
212.6666666666666
 21
-161.9509415757253
 31
0.0
  0
LINE
  5
202
  8
ZUWAKU
  6
CONTINUOUS
 62
     4
 10
226.0
 20
-155.0
 30
0.0
 11
255.0
 21
-155.0
 31
0.0
  0
LINE
  5
203
  8
ZUWAKU
  6
CONTINUOUS
 62
     4
 10
146.0
 20
-166.0
 30
0.0
 11
226.0
 21
-166.0
 31
0.0
  0
LINE
  5
204
  8
ZUWAKU
  6
CONTINUOUS
 62
     4
 10
153.0
 20
-139.5
 30
0.0
 11
153.0
 21
-130.0
 31
0.0
  0
LINE
  5
205
  8
ZUWAKU
  6
CONTINUOUS
 62
     4
 10
202.0
 20
-139.5
 30
0.0
 11
202.0
 21
-130.0
 31
0.0
  0
LINE
  5
206
  8
ZUWAKU
  6
CONTINUOUS
 62
     4
 10
226.0
 20
-139.5
 30
0.0
 11
226.0
 21
-130.0
 31
0.0
  0
LINE
  5
207
  8
ZUWAKU
  6
CONTINUOUS
 62
     4
 10
243.0
 20
-139.5
 30
0.0
 11
243.0
 21
-130.0
 31
0.0
  0
TEXT
  5
209
  8
ZUWAKU
 62
     7
 10
148.3132301474747
 20
-130.821188728956
 30
0.0
 40
2.6656
  1
符号
 41
0.8
  7
FDASTYLE0
  0
TEXT
  5
20A
  8
ZUWAKU
 62
     7
 10
162.4141311219058
 20
-135.8245525019963
 30
0.0
 40
4.0
  1
品       名
 41
0.765957446808511
  7
FDASTYLE1
 72
     5
 11
191.2141311219058
 21
-135.8245525019963
 31
0.0
  0
TEXT
  5
20B
  8
ZUWAKU
 62
     7
 10
207.2331564413096
 20
-135.8245525019963
 30
0.0
 40
4.0
  1
材  料
 41
0.7272727272727279
  7
FDASTYLE1
 72
     5
 11
220.0331564413096
 21
-135.8245525019963
 31
0.0
  0
TEXT
  5
20C
  8
ZUWAKU
 62
     7
 10
229.516061684855
 20
-135.8245525019963
 30
0.0
 40
4.0
  1
個 数
 41
0.7058823529411761
  7
FDASTYLE1
 72
     5
 11
239.116061684855
 21
-135.8245525019963
 31
0.0
  0
TEXT
  5
20D
  8
ZUWAKU
 62
     7
 10
245.721810952888
 20
-133.5649080050572
 30
0.0
 40
2.5
  1
単重量
 41
0.6666666666666666
  7
FDASTYLE1
 72
     5
 11
251.721810952888
 21
-133.5649080050572
 31
0.0
  0
TEXT
  5
20E
  8
ZUWAKU
 62
     7
 10
244.7089516236359
 20
-137.3631304897525
 30
0.0
 40
2.5
  1
(kg)
 41
0.8
  7
FDASTYLE1
 72
     5
 11
252.7089516236359
 21
-137.3631304897525
 31
0.0
  0
TEXT
  5
20F
  8
ZUWAKU
 62
     7
 10
259.1421970654778
 20
-135.8245525019963
 30
0.0
 40
4.0
  1
記  事
 41
0.7272727272727279
  7
FDASTYLE1
 72
     5
 11
271.9421970654778
 21
-135.8245525019963
 31
0.0
  0
TEXT
  5
210
  8
ZUWAKU
 62
     7
 10
258.8450794551645
 20
-165.4873041997729
 30
0.0
 40
3.0
  1
コード番号
 41
0.6666666666666666
  7
FDASTYLE1
 72
     5
 11
270.8450794551645
 21
-165.4873041997729
 31
0.0
  0
TEXT
  5
211
  8
ZUWAKU
 62
     7
 10
101.9119920158317
 20
-175.1879010540338
 30
0.0
 40
2.5
  1
訂 正 来 歴
 41
0.717948717948718
  7
FDASTYLE1
 72
     5
 11
115.9119920158317
 21
-175.1879010540338
 31
0.0
  0
TEXT
  5
212
  8
ZUWAKU
 62
     7
 10
125.890334846765
 20
-175.2166697391651
 30
0.0
 40
2.5
  1
工 事 番 号
 41
0.717948717948718
  7
FDASTYLE1
 72
     5
 11
139.890334846765
 21
-175.2166697391651
 31
0.0
  0
TEXT
  5
213
  8
ZUWAKU
 62
     7
 10
99.96483784660289
 20
-165.9634530565915
 30
0.0
 40
2.0825
  1
記号
 41
0.8
  7
FDASTYLE0
  0
TEXT
  5
214
  8
ZUWAKU
 62
     7
 10
105.9042249067618
 20
-165.9634530565915
 30
0.0
 40
2.0825
  1
理由
 41
0.8
  7
FDASTYLE0
  0
TEXT
  5
215
  8
ZUWAKU
 62
     7
 10
111.6193667909843
 20
-169.8786046700178
 30
0.0
 40
3.0
  1
日 付
 41
0.7058823529411754
  7
FDASTYLE1
 72
     5
 11
118.8193667909843
 21
-169.8786046700178
 31
0.0
  0
TEXT
  5
216
  8
ZUWAKU
 62
     7
 10
256.5474439108642
 20
-142.8525309070082
 30
0.0
 40
3.5
  1
標　準
 41
0.5833333333333352
  7
FDASTYLE1
 72
     5
 11
263.8974439108642
 21
-142.8525309070082
 31
0.0
  0
TEXT
  5
217
  8
ZUWAKU
 62
     7
 10
153.4481689819652
 20
-165.7187911464244
 30
0.0
 40
3.0
  1
承   認
 41
0.7407407407407408
  7
FDASTYLE1
 72
     5
 11
165.4481689819652
 21
-165.7187911464244
 31
0.0
  0
TEXT
  5
218
  8
ZUWAKU
 62
     7
 10
179.863228033234
 20
-165.4873041997729
 30
0.0
 40
3.0
  1
検   図
 41
0.7407407407407408
  7
FDASTYLE1
 72
     5
 11
191.863228033234
 21
-165.4873041997729
 31
0.0
  0
TEXT
  5
219
  8
ZUWAKU
 62
     7
 10
201.4771920983751
 20
-165.4873041997729
 30
0.0
 40
3.0
  1
担  当
 41
0.7272727272727269
  7
FDASTYLE1
 72
     5
 11
211.0771920983751
 21
-165.4873041997729
 31
0.0
  0
TEXT
  5
21A
  8
ZUWAKU
 62
     7
 10
214.6770574841112
 20
-165.4873041997729
 30
0.0
 40
3.0
  1
製  図
 41
0.7272727272727269
  7
FDASTYLE1
 72
     5
 11
224.2770574841112
 21
-165.4873041997729
 31
0.0
  0
TEXT
  5
21B
  8
ZUWAKU
 62
     7
 10
226.9462372304199
 20
-153.2184960272417
 30
0.0
 40
3.0
  1
作図
 41
0.6666666666666683
  7
FDASTYLE1
 72
     5
 11
231.7462372304199
 21
-153.2184960272417
 31
0.0
  0
TEXT
  5
21C
  8
ZUWAKU
 62
     7
 10
228.1036719636776
 20
-160.2371566401815
 30
0.0
 40
4.0
  1
第 三 角 法
 41
0.7179487179487182
  7
FDASTYLE1
 72
     5
 11
250.5036719636776
 21
-160.2371566401815
 31
0.0
  0
TEXT
  5
21D
  8
ZUWAKU
 62
     7
 10
227.409211123723
 20
-166.413251986379
 30
0.0
 40
3.0
  1
尺度
 41
0.6666666666666683
  7
FDASTYLE1
 72
     5
 11
232.209211123723
 21
-166.413251986379
 31
0.0
  0
TEXT
  5
21F
  8
ZUWAKU
 62
     3
 10
105.379154370034
 20
-185.9272077185017
 30
0.0
 40
7.0
  1
株式会社 野村製作所
 41
0.5763738641280831
  7
FDASTYLE2
 72
     5
 11
161.379154370034
 21
-185.9272077185017
 31
0.0
  0
TEXT
  5
221
  8
ZUWAKU
 62
     3
 10
176.0422636668242
 20
-187.1216685584563
 30
0.0
 40
8.0
  1
２－
 41
0.8244023083264632
  7
FDASTYLE3
 72
     5
 11
192.0422636668242
 21
-187.1216685584563
 31
0.0
  0
TEXT
  5
222
  8
ZUWAKU
 62
     3
 10
192.954221291231
 20
-187.1216685584563
 30
0.0
 40
8.0
  1
820802
 41
1.567398119122257
  7
FDASTYLE3
 72
     5
 11
240.954221291231
 21
-187.1216685584563
 31
0.0
  0
TEXT
  5
223
  8
ZUWAKU
 62
     6
 10
231.384312273996
 20
-145.1178196492171
 30
0.0
 40
4.0
  1
一式
 41
0.5833333333333328
  7
FDASTYLE1
 72
     5
 11
236.984312273996
 21
-145.1178196492171
 31
0.0
  0
TEXT
  5
224
  8
ZUWAKU
 62
     6
 10
163.7236800359233
 20
-145.1021206743685
 30
0.0
 40
5.0
  1
外　形　図
 41
0.5833333333333334
  7
FDASTYLE1
 72
     5
 11
181.2236800359233
 21
-145.1021206743685
 31
0.0
  0
TEXT
  5
225
  8
ZUWAKU
 62
     4
 10
237.4612965606293
 20
-172.4797619591963
 30
0.0
 40
4.0
  1
1/1
 41
0.7000000000000005
  7
FDASTYLE1
 72
     5
 11
245.8612965606293
 21
-172.4797619591963
 31
0.0
  0
TEXT
  5
226
  8
0
 62
     6
 10
153.751689452146
 20
-154.3880453471329
 30
0.0
 40
5.0
  1
日鋼プレシジォン
 41
0.6666666666666666
  7
FDASTYLE1
 72
     5
 11
185.751689452146
 21
-154.3880453471329
 31
0.0
  0
TEXT
  5
227
  8
0
 62
     6
 10
170.4103460444692
 20
-160.9091595284539
 30
0.0
 40
5.0
  1
HDM3-215A6型チャック
 41
0.65625
  7
FDASTYLE1
 72
     5
 11
222.9103460444692
 21
-160.9091595284539
 31
0.0
  0
TEXT
  5
228
  8
0
 62
     6
 10
-67.54438484033052
 20
-105.0929547848358
 30
0.0
 40
3.899999856948853
  1
 仕  様
 41
0.8988766729733497
  7
FDASTYLE1
 72
     5
 11
-44.91581118424837
 21
-105.0929547848358
 31
0.0
  0
TEXT
  5
229
  8
0
 62
     6
 10
-67.54438484033052
 20
-112.5929547848358
 30
0.0
 40
3.899999856948853
  1
 1.爪ｽﾄﾛ-ｸ         
 41
0.915045033875279
  7
FDASTYLE1
 72
     5
 11
17.48419090787466
 21
-112.5929547848358
 31
0.0
  0
TEXT
  5
22A
  8
0
 62
     6
 10
18.68418966288264
 20
-112.1054548027172
 30
0.0
 40
2.924999892711639
  1
直径ﾆﾃ
 41
0.8957797606707526
  7
FDASTYLE1
 72
     5
 11
32.05561978424485
 21
-112.1054548027172
 31
0.0
  0
TEXT
  5
22B
  8
0
 62
     6
 10
33.25561853925283
 20
-112.5929547848358
 30
0.0
 40
3.899999856948853
  1
    6.2   mm
 41
0.9085875668059618
  7
FDASTYLE1
 72
     5
 11
89.48419332186276
 21
-112.5929547848358
 31
0.0
  0
TEXT
  5
22C
  8
0
 62
     6
 10
-67.54438484033052
 20
-120.0929547848358
 30
0.0
 40
3.899999856948853
  1
 2.ピｽﾄﾝｽﾄﾛ-ｸ              25   mm
 41
0.9129874409281825
  7
FDASTYLE1
 72
     5
 11
89.48419332186278
 21
-120.0929547848358
 31
0.0
  0
TEXT
  5
22D
  8
0
 62
     6
 10
-67.54438484033052
 20
-127.5929547848358
 30
0.0
 40
3.899999856948853
  1
 3.推奨ｼﾘﾝダ　             52TS-TA1　型
 41
0.8927443053056511
  7
FDASTYLE1
 72
     5
 11
89.48419332186278
 21
-127.5929547848358
 31
0.0
  0
TEXT
  5
22E
  8
0
 62
     6
 10
-67.54438484033052
 20
-135.0929547848358
 30
0.0
 40
3.899999856948853
  1
 4.許容ｼﾘﾝダ推力　            23.3   kN
 41
0.8927443053056511
  7
FDASTYLE1
 72
     5
 11
89.48419332186278
 21
-135.0929547848358
 31
0.0
  0
TEXT
  5
22F
  8
0
 62
     6
 10
-67.54438484033052
 20
-142.5929547848358
 30
0.0
 40
3.899999856948853
  1
 5.最大使用圧力    
 41
0.866074953992472
  7
FDASTYLE1
 72
     5
 11
-6.515809896788042
 21
-142.5929547848358
 31
0.0
  0
TEXT
  5
230
  8
0
 62
     6
 10
-5.315811141780067
 20
-142.1054548027172
 30
0.0
 40
2.924999892711639
  1
(52TS-TA1型使用時)
 41
0.8874511689217373
  7
FDASTYLE1
 72
     5
 11
44.0556201865762
 21
-142.1054548027172
 31
0.0
  0
TEXT
  5
231
  8
0
 62
     6
 10
38.05561870018537
 20
-142.5929547848358
 30
0.0
 40
3.899999856948853
  1
   3.6  MPa
 41
0.9084030351605031
  7
FDASTYLE1
 72
     5
 11
89.48419332186276
 21
-142.5929547848358
 31
0.0
  0
TEXT
  5
232
  8
0
 62
     6
 10
-67.54438484033052
 20
-150.0929547848358
 30
0.0
 40
3.899999856948853
  1
 6.最大静的把握力              93.2   kN
 41
0.8888029240060212
  7
FDASTYLE1
 72
     5
 11
89.48419332186278
 21
-150.0929547848358
 31
0.0
  0
TEXT
  5
233
  8
0
 62
     6
 10
-67.54438484033052
 20
-157.5929547848358
 30
0.0
 40
3.899999856948853
  1
 7.最高使用回転速度             5000  min
 41
0.8848961913838067
  7
FDASTYLE1
 72
     5
 11
89.48419332186278
 21
-157.5929547848358
 31
0.0
  0
TEXT
  5
234
  8
0
 62
     6
 10
-67.54438484033052
 20
-165.0929547848358
 30
0.0
 40
3.899999856948853
  1
 8.慣性モーメント             0.１6３ kg・m
 41
0.8771848605190151
  7
FDASTYLE1
 72
     5
 11
89.48419332186278
 21
-165.0929547848358
 31
0.0
  0
TEXT
  5
235
  8
0
 62
     6
 10
90.51276368329819
 20
-162.317954749073
 30
0.0
 40
1.949999928474426
  1
2
 41
0.8791213174644367
  7
FDASTYLE1
 72
     5
 11
92.22705018947418
 21
-162.317954749073
 31
0.0
  0
TEXT
  5
236
  8
0
 62
     6
 10
-67.54438484033052
 20
-172.5929547848358
 30
0.0
 40
3.899999856948853
  1
 9.質 量                    21   kg
 41
0.9088657026940743
  7
FDASTYLE1
 72
     5
 11
89.48419332186278
 21
-172.5929547848358
 31
0.0
  0
TEXT
  5
237
  8
0
 62
     6
 10
-67.69786869863198
 20
-180.2960517333614
 30
0.0
 40
3.9
  1
10.アンバランス量
 41
0.8411937735813929
  7
FDASTYLE1
 72
     5
 11
-21.06930669863198
 21
-180.2960517333614
 31
0.0
  0
TEXT
  5
238
  8
0
 62
     6
 10
4.607240311447171
 20
-180.5077129595759
 30
0.0
 40
3.9
  1
ﾁｬｯｸ外周ﾆﾃ 　1.5　 g以内
 41
0.8781870086179673
  7
FDASTYLE1
 72
     5
 11
89.63579351144716
 21
-180.5077129595759
 31
0.0
  0
TEXT
  5
239
  8
0
 62
     6
 10
90.51276368329819
 20
-154.817954749073
 30
0.0
 40
1.949999928474426
  1
-1
 41
0.8971966190941251
  7
FDASTYLE1
 72
     5
 11
94.62705026994046
 21
-154.817954749073
 31
0.0
  0
LINE
  5
23A
  8
0
  6
CENTER
 62
     7
 10
36.45112828808274
 20
-31.61750931379882
 30
0.0
 11
140.3741704668506
 21
28.38248043420268
 31
0.0
  0
LINE
  5
23B
  8
0
  6
CENTER
 62
     7
 10
92.84623425592903
 20
55.82280496939976
 30
0.0
 11
109.1972911800025
 21
46.38251889573215
 31
0.0
  0
LINE
  5
23C
  8
0
  6
CENTER
 62
     7
 10
59.20313959282552
 20
-4.625171239040554
 30
0.0
 11
71.20314722222079
 21
-25.40979129360031
 31
0.0
  0
LINE
  5
23D
  8
0
  6
CENTER
 62
     7
 10
209.5452151061826
 20
-25.40977968393744
 30
0.0
 11
221.5452146293452
 21
-4.625173669782583
 31
0.0
  0
LINE
  5
23E
  8
0
  6
CENTER
 62
     7
 10
183.5644872434644
 20
-10.40984144962667
 30
0.0
 11
195.5644905813248
 21
10.37477117177755
 31
0.0
  0
LINE
  5
23F
  8
0
  6
CENTER
 62
     7
 10
85.18391817571396
 20
10.37482601120237
 30
0.0
 11
97.18392342092315
 21
-10.40978991382653
 31
0.0
  0
LINE
  5
240
  8
0
  6
CENTER
 62
     7
 10
127.9712835967867
 20
115.1824796131552
 30
0.0
 11
152.5542837798922
 21
115.1824796131552
 31
0.0
  0
LINE
  5
241
  8
0
  6
CENTER
 62
     7
 10
127.9712835967867
 20
85.18247961315515
 30
0.0
 11
152.5542837798922
 21
85.18247961315515
 31
0.0
  0
LINE
  5
242
  8
0
  6
CENTER
 62
     7
 10
113.3741690337984
 20
34.3824918201864
 30
0.0
 11
113.3741690337984
 21
22.3824918201864
 31
0.0
  0
LINE
  5
243
  8
0
  6
CENTER
 62
     7
 10
167.3741690337984
 20
34.3824918201864
 30
0.0
 11
167.3741690337984
 21
22.3824918201864
 31
0.0
  0
LINE
  5
244
  8
0
  6
CENTER
 62
     7
 10
136.9986426055758
 20
55.3824918201864
 30
0.0
 11
143.7996527374117
 21
55.3824918201864
 31
0.0
  0
LINE
  5
245
  8
0
  6
CENTER
 62
     7
 10
140.3741775698148
 20
28.38253713475243
 30
0.0
 11
244.2972114895204
 21
-31.61744784487777
 31
0.0
  0
LINE
  5
246
  8
0
  6
CENTER
 62
     7
 10
171.5510865892872
 20
46.38247936131907
 30
0.0
 11
188.2285119216328
 21
56.01119430253962
 31
0.0
  0
LINE
  5
247
  8
0
  6
CENTER
 62
     7
 10
67.16633860472129
 20
102.8824918201864
 30
0.0
 11
111.7989029206637
 21
102.8824918201864
 31
0.0
  0
LINE
  5
248
  8
0
  6
CENTER
 62
     7
 10
118.6792476939096
 20
11.95920022112503
 30
0.0
 11
115.2787426279916
 21
17.84904766097796
 31
0.0
  0
LINE
  5
249
  8
0
  6
CENTER
 62
     7
 10
165.4446185397042
 20
17.80578159743041
 30
0.0
 11
162.0441134737863
 21
11.91593415757748
 31
0.0
  0
ARC
  5
24A
  8
0
  6
CENTER
 62
     7
 10
140.3741690337984
 20
28.3824918201864
 30
0.0
 40
45.0
 50
138.5216731984379
 51
161.478348810201
  0
ARC
  5
24B
  8
0
  6
CENTER
 62
     7
 10
140.3741690337984
 20
28.3824918201864
 30
0.0
 40
45.0
 50
258.5216391990728
 51
281.4783421315925
  0
ARC
  5
24C
  8
0
  6
CENTER
 62
     7
 10
140.3741690337984
 20
28.3824918201864
 30
0.0
 40
45.0
 50
18.52166644403911
 51
41.47834205580217
  0
LINE
  5
24D
  8
0
  6
CENTER
 62
     7
 10
20.37417094114706
 20
28.3824918201864
 30
0.0
 11
260.3741766631929
 21
28.3824918201864
 31
0.0
  0
LINE
  5
24E
  8
0
  6
CENTER
 62
     7
 10
100.3741948789553
 20
114.8092038563192
 30
0.0
 11
100.3741948789553
 21
90.5947720936239
 31
0.0
  0
LINE
  5
24F
  8
0
  6
CENTER
 62
     7
 10
102.2637647234461
 20
-54.60830364230455
 30
0.0
 11
89.24048744073127
 21
-32.05132611244275
 31
0.0
  0
LINE
  5
250
  8
0
  6
CENTER
 62
     7
 10
84.55036131128452
 20
-50.03543193270011
 30
0.0
 11
106.4967794458227
 21
-37.36466128755851
 31
0.0
  0
LINE
  5
251
  8
0
  6
CENTER
 62
     7
 10
230.8128761628883
 20
36.02689766937525
 30
0.0
 11
218.4979042390602
 21
14.69674098635929
 31
0.0
  0
LINE
  5
252
  8
0
  6
CENTER
 62
     7
 10
235.2219288089251
 20
19.81014678083889
 30
0.0
 11
214.2516029261075
 21
31.91737029158108
 31
0.0
  0
LINE
  5
253
  8
0
  6
CENTER
 62
     7
 10
14.71335321303084
 20
-90.355747595625
 30
0.0
 11
51.96287114687745
 21
-68.84972800333985
 31
0.0
  0
LINE
  5
254
  8
0
  6
CENTER
 62
     7
 10
140.3741690337984
 20
145.4272027811023
 30
0.0
 11
140.3741690337984
 21
45.26198406444321
 31
0.0
  0
LINE
  5
255
  8
0
  6
CENTER
 62
     7
 10
140.3741690337984
 20
38.0471484827163
 30
0.0
 11
140.3741690337984
 21
-84.69000474510922
 31
0.0
  0
LINE
  5
256
  8
0
  6
CENTER
 62
     7
 10
-178.4185357585455
 20
28.38247960682969
 30
0.0
 11
-69.06777434497127
 21
28.38247960682969
 31
0.0
  0
LINE
  5
257
  8
0
  6
CENTER
 62
     7
 10
-98.50264220385799
 20
-16.61752039317031
 30
0.0
 11
-71.50261931567439
 21
-16.61752039317031
 31
0.0
  0
LINE
  5
258
  8
0
  6
CENTER
 62
     7
 10
-192.5081048503424
 20
-38.29250818613906
 30
0.0
 11
-68.72098784594783
 21
-38.29250818613906
 31
0.0
  0
LINE
  5
259
  8
0
  6
CENTER
 62
     7
 10
-99.33465819506893
 20
55.38247960682969
 30
0.0
 11
-87.24525694995174
 21
55.38247960682969
 31
0.0
  0
LINE
  5
25A
  8
0
  6
CENTER
 62
     7
 10
-207.4800286784674
 20
95.08249562855821
 30
0.0
 11
-156.6132073894049
 21
95.08249562855821
 31
0.0
  0
LINE
  5
25B
  8
0
  6
CENTER
 62
     7
 10
-114.744097281983
 20
-54.36273260116403
 30
0.0
 11
-114.744097281983
 21
-84.42481333140273
 31
0.0
  0
LINE
  5
25C
  8
0
  6
CENTER
 62
     7
 10
-91.74412779956111
 20
115.1824712144957
 30
0.0
 11
-43.67745452075251
 21
115.1824712144957
 31
0.0
  0
LINE
  5
25D
  8
0
  6
CENTER
 62
     7
 10
-91.74412779956111
 20
85.18250173207383
 30
0.0
 11
-43.67745452075251
 21
85.18250173207383
 31
0.0
  0
LINE
  5
25E
  8
0
  6
DASHED2
 62
     7
 10
82.37416903379844
 20
110.8824918201864
 30
0.0
 11
91.32713381651328
 21
110.8824918201864
 31
0.0
  0
LINE
  5
25F
  8
0
  6
DASHED2
 62
     7
 10
82.37416903379844
 20
94.8824918201864
 30
0.0
 11
91.67965762022422
 21
94.8824918201864
 31
0.0
  0
LINE
  5
260
  8
0
  6
DASHED2
 62
     7
 10
82.37416903379844
 20
118.8935391834677
 30
0.0
 11
82.37416903379844
 21
91.8824918201864
 31
0.0
  0
LINE
  5
261
  8
0
  6
DASHED2
 62
     7
 10
53.63317267301962
 20
91.8824918201864
 30
0.0
 11
82.37416903379844
 21
91.8824918201864
 31
0.0
  0
LINE
  5
262
  8
0
  6
DASHED2
 62
     7
 10
70.37417094114707
 20
105.2824857166708
 30
0.0
 11
70.37417094114707
 21
100.482497923702
 31
0.0
  0
LINE
  5
263
  8
0
  6
DASHED2
 62
     7
 10
73.07418314817832
 20
106.1824948719442
 30
0.0
 11
73.07418314817832
 21
99.58248876842859
 31
0.0
  0
LINE
  5
264
  8
0
  6
DASHED2
 62
     7
 10
78.81292025450156
 20
97.18247961315515
 30
0.0
 11
81.93541781309531
 21
97.18247961315515
 31
0.0
  0
LINE
  5
265
  8
0
  6
DASHED2
 62
     7
 10
78.81292025450156
 20
108.5825040272177
 30
0.0
 11
81.93541781309531
 21
108.5825040272177
 31
0.0
  0
LINE
  5
266
  8
0
  6
DASHED2
 62
     7
 10
73.07414214497482
 20
99.58241342921457
 30
0.0
 11
70.37414534784472
 21
100.4824122484995
 31
0.0
  0
LINE
  5
267
  8
0
  6
DASHED2
 62
     7
 10
73.07419149071743
 20
106.1823870953193
 30
0.0
 11
70.37418745570798
 21
105.2823858634082
 31
0.0
  0
LINE
  5
268
  8
0
  6
DASHED2
 62
     7
 10
74.07418314817832
 20
105.6278226307333
 30
0.0
 11
74.07418314817832
 21
100.0870206287802
 31
0.0
  0
LINE
  5
269
  8
0
  6
DASHED2
 62
     7
 10
78.37416903379844
 20
107.3324887684286
 30
0.0
 11
78.37416903379844
 21
98.43249487194422
 31
0.0
  0
LINE
  5
26A
  8
0
  6
DASHED2
 62
     7
 10
79.11805788877891
 20
105.7761685779989
 30
0.0
 11
81.63028017881797
 21
105.7761685779989
 31
0.0
  0
LINE
  5
26B
  8
0
  6
DASHED2
 62
     7
 10
79.11805788877891
 20
99.9888150623739
 30
0.0
 11
81.63028017881797
 21
99.9888150623739
 31
0.0
  0
LINE
  5
26C
  8
0
  6
DASHED2
 62
     7
 10
136.3741690337984
 20
-63.1175081798136
 30
0.0
 11
144.3741690337984
 21
-63.1175081798136
 31
0.0
  0
LINE
  5
26D
  8
0
  6
DASHED2
 62
     7
 10
137.3741690337984
 20
-58.1175081798136
 30
0.0
 11
143.3741690337984
 21
-58.1175081798136
 31
0.0
  0
LINE
  5
26E
  8
0
  6
DASHED2
 62
     7
 10
137.3741690337984
 20
-58.1175081798136
 30
0.0
 11
137.3741690337984
 21
-79.0756380626261
 31
0.0
  0
LINE
  5
26F
  8
0
  6
DASHED2
 62
     7
 10
143.3741690337984
 20
-58.1175081798136
 30
0.0
 11
143.3741690337984
 21
-79.0756380626261
 31
0.0
  0
LINE
  5
270
  8
0
  6
DASHED2
 62
     7
 10
136.3741690337984
 20
-63.1175081798136
 30
0.0
 11
136.3741690337984
 21
-79.04306054797766
 31
0.0
  0
LINE
  5
271
  8
0
  6
DASHED2
 62
     7
 10
144.3741690337984
 20
-63.1175081798136
 30
0.0
 11
144.3741690337984
 21
-79.04306054797766
 31
0.0
  0
LINE
  5
272
  8
0
  6
DASHED2
 62
     7
 10
137.3741789357178
 20
-58.11751218397248
 30
0.0
 11
140.3741775891691
 21
-56.3854623451941
 31
0.0
  0
LINE
  5
273
  8
0
  6
DASHED2
 62
     7
 10
140.3741711317233
 20
-56.38545786529579
 30
0.0
 11
143.3741730887995
 21
-58.11750961142269
 31
0.0
  0
ARC
  5
274
  8
0
  6
DASHED2
 62
     7
 10
73.07418314817832
 20
102.8824918201864
 30
0.0
 40
3.299999952316284
 50
73.48282241201396
 51
89.99998201391065
  0
ARC
  5
275
  8
0
  6
DASHED2
 62
     7
 10
73.07418314817832
 20
102.8824918201864
 30
0.0
 40
3.299999952316284
 50
270.0000179860894
 51
286.5171775879861
  0
ARC
  5
276
  8
0
  6
DASHED2
 62
     7
 10
80.37416903379844
 20
107.3325040272177
 30
0.0
 40
2.0
 50
0.0
 51
38.68218896809859
  0
ARC
  5
277
  8
0
  6
DASHED2
 62
     7
 10
80.37416903379844
 20
98.43247961315515
 30
0.0
 40
2.0
 50
0.0
 51
51.09316519948327
  0
ARC
  5
278
  8
0
  6
DASHED2
 62
     7
 10
76.37416903379844
 20
102.8824918201864
 30
0.0
 40
6.0
 50
0.0
 51
28.83423780766662
  0
ARC
  5
279
  8
0
  6
DASHED2
 62
     7
 10
84.37416903379844
 20
102.8824918201864
 30
0.0
 40
6.0
 50
151.1657740314789
 51
208.8342086656771
  0
ARC
  5
27A
  8
0
  6
DASHED2
 62
     7
 10
76.37416903379844
 20
102.8824918201864
 30
0.0
 40
6.0
 50
331.1657621923334
 51
360.0
  0
ARC
  5
27B
  8
0
  6
DASHED2
 62
     7
 10
80.37416903379844
 20
107.3325040272177
 30
0.0
 40
2.0
 50
308.9068348005167
 51
360.0
  0
ARC
  5
27C
  8
0
  6
DASHED2
 62
     7
 10
80.37416903379844
 20
107.3325040272177
 30
0.0
 40
2.0
 50
141.3178297012361
 51
231.0931121518317
  0
ARC
  5
27D
  8
0
  6
DASHED2
 62
     7
 10
80.37416903379844
 20
98.43247961315515
 30
0.0
 40
2.0
 50
128.906856884946
 51
218.6821529959199
  0
ARC
  5
27E
  8
0
  6
DASHED2
 62
     7
 10
74.40737406614707
 20
111.6824796131552
 30
0.0
 40
5.650000095367432
 50
265.9910930942637
 51
315.0592540539054
  0
ARC
  5
27F
  8
0
  6
DASHED2
 62
     7
 10
74.40737406614707
 20
94.08250402721765
 30
0.0
 40
5.650000095367432
 50
44.94074594609464
 51
94.00890690573628
  0
ARC
  5
280
  8
0
  6
DASHED2
 62
     7
 10
71.07418314817832
 20
102.8824918201864
 30
0.0
 40
1.5
 50
117.818154050457
 51
242.1818423070773
  0
LINE
  5
281
  8
0
  6
DASHED2
 62
     7
 10
-169.7441277995611
 20
-45.29250818613906
 30
0.0
 11
-87.74412779956111
 21
-45.29250818613906
 31
0.0
  0
LINE
  5
282
  8
0
  6
DASHED2
 62
     7
 10
-169.7441277995611
 20
-31.29250818613906
 30
0.0
 11
-87.74412779956111
 21
-31.29250818613906
 31
0.0
  0
LINE
  5
283
  8
0
  6
DASHED2
 62
     7
 10
-87.74412779956111
 20
-48.29250818613906
 30
0.0
 11
-74.74412017016658
 21
-48.29250818613906
 31
0.0
  0
LINE
  5
284
  8
0
  6
DASHED2
 62
     7
 10
-87.74412779956111
 20
-28.29250818613906
 30
0.0
 11
-74.74412017016658
 21
-28.29250818613906
 31
0.0
  0
LINE
  5
285
  8
0
  6
DASHED2
 62
     7
 10
-87.74412779956111
 20
-28.29252344492812
 30
0.0
 11
-87.74412779956111
 21
-48.29252344492812
 31
0.0
  0
LINE
  5
286
  8
0
  6
DASHED2
 62
     7
 10
-163.244097281983
 20
104.8124760973082
 30
0.0
 11
-163.244097281983
 21
85.35248464223008
 31
0.0
  0
LINE
  5
287
  8
0
  6
DASHED2
 62
     7
 10
-169.7441277995611
 20
104.8124760973082
 30
0.0
 11
-163.2441277995611
 21
104.8124760973082
 31
0.0
  0
LINE
  5
288
  8
0
  6
DASHED2
 62
     7
 10
-169.7441277995611
 20
85.35251515980821
 30
0.0
 11
-163.2441277995611
 21
85.35251515980821
 31
0.0
  0
LINE
  5
289
  8
0
  6
DASHED2
 62
     7
 10
-163.2441538364799
 20
100.1824372402875
 30
0.0
 11
-160.2996802188698
 21
95.08246003254084
 31
0.0
  0
LINE
  5
28A
  8
0
  6
DASHED2
 62
     7
 10
-163.2441797078984
 20
89.98252349926753
 30
0.0
 11
-160.2996936925206
 21
95.08252218057459
 31
0.0
  0
LINE
  5
28B
  8
0
  6
CONTINUOUS
 62
     3
 10
224.1157561907363
 20
-40.17301481995159
 30
0.0
 11
241.6157659062943
 21
-9.86211301702437
 31
0.0
  0
LINE
  5
28C
  8
0
  6
CONTINUOUS
 62
     3
 10
39.13261092100108
 20
-9.86206009412345
 30
0.0
 11
56.63261443767529
 21
-40.17295116027046
 31
0.0
  0
LINE
  5
28D
  8
0
  6
CONTINUOUS
 62
     3
 10
39.13261931822577
 20
-9.862079571218459
 30
0.0
 11
103.3918899084538
 21
27.23802350308748
 31
0.0
  0
LINE
  5
28E
  8
0
  6
CONTINUOUS
 62
     3
 10
56.63261776407236
 20
-40.17296173121119
 30
0.0
 11
120.8918784434256
 21
-3.072864378950811
 31
0.0
  0
LINE
  5
28F
  8
0
  6
CONTINUOUS
 62
     3
 10
159.8564664583371
 20
-3.072874143375287
 30
0.0
 11
224.1157502630647
 21
-40.1729848470753
 31
0.0
  0
LINE
  5
290
  8
0
  6
CONTINUOUS
 62
     3
 10
177.3564637817873
 20
27.23807473712773
 30
0.0
 11
241.6157608010145
 21
-9.862043595966355
 31
0.0
  0
LINE
  5
291
  8
0
  6
CONTINUOUS
 62
     3
 10
63.1596960745953
 20
-47.95158349035314
 30
0.0
 11
64.12416789288247
 21
-47.39474548795978
 31
0.0
  0
LINE
  5
292
  8
0
  6
CONTINUOUS
 62
     3
 10
35.65968159479365
 20
-0.3201502179986591
 30
0.0
 11
36.62417529959583
 21
0.2367004205786429
 31
0.0
  0
LINE
  5
293
  8
0
  6
CONTINUOUS
 62
     3
 10
216.6241849919294
 20
-47.39472902756856
 30
0.0
 11
217.5886452475293
 21
-47.95156035424211
 31
0.0
  0
LINE
  5
294
  8
0
  6
CONTINUOUS
 62
     3
 10
244.1241798119846
 20
0.2367255062187326
 30
0.0
 11
245.0886532820842
 21
-0.3201134498488898
 31
0.0
  0
LINE
  5
295
  8
0
  6
CONTINUOUS
 62
     3
 10
241.6156938918317
 20
-9.862067855930349
 30
0.0
 11
245.088656330444
 21
-0.3201823189081949
 31
0.0
  0
LINE
  5
296
  8
0
  6
CONTINUOUS
 62
     3
 10
35.65964840029928
 20
-0.3201573831994722
 30
0.0
 11
39.13261149126324
 21
-9.862044712543053
 31
0.0
  0
LINE
  5
297
  8
0
  6
CONTINUOUS
 62
     3
 10
56.63266183057757
 20
-40.17292627632688
 30
0.0
 11
63.15969869093905
 21
-47.95154493499413
 31
0.0
  0
LINE
  5
298
  8
0
  6
CONTINUOUS
 62
     3
 10
217.5885597910138
 20
-47.95149059146283
 30
0.0
 11
224.1155966513753
 21
-40.17287193279557
 31
0.0
  0
LINE
  5
299
  8
0
  6
CONTINUOUS
 62
     3
 10
94.9912988177492
 20
22.38795190001966
 30
0.0
 11
100.2413013509468
 21
13.29468201986643
 31
0.0
  0
LINE
  5
29A
  8
0
  6
CONTINUOUS
 62
     3
 10
168.2571140862466
 20
-7.922973102361397
 30
0.0
 11
173.5071185267931
 21
1.170300081416514
 31
0.0
  0
LINE
  5
29B
  8
0
  6
CONTINUOUS
 62
     3
 10
44.38264057239632
 20
-18.95532881578788
 30
0.0
 11
58.34903945151211
 21
-10.89182555419214
 31
0.0
  0
LINE
  5
29C
  8
0
  6
CONTINUOUS
 62
     3
 10
51.38263732837603
 20
-31.07968781887905
 30
0.0
 11
65.34904198883541
 21
-23.0161812194234
 31
0.0
  0
LINE
  5
29D
  8
0
  6
CONTINUOUS
 62
     3
 10
173.5070624502995
 20
1.170337890699926
 30
0.0
 11
182.7103337548586
 21
-4.143172687365535
 31
0.0
  0
LINE
  5
29E
  8
0
  6
CONTINUOUS
 62
     3
 10
180.5070704107253
 20
13.29466289469579
 30
0.0
 11
189.7103351080346
 21
7.981156131327367
 31
0.0
  0
LINE
  5
29F
  8
0
  6
CONTINUOUS
 62
     3
 10
178.0200019144698
 20
18.19468281154732
 30
0.0
 11
182.0070741360154
 21
15.89274584548198
 31
0.0
  0
LINE
  5
2A0
  8
0
  6
CONTINUOUS
 62
     3
 10
168.0200129324631
 20
0.8741766471909216
 30
0.0
 11
172.007071939509
 21
-1.427752689480343
 31
0.0
  0
LINE
  5
2A1
  8
0
  6
CONTINUOUS
 62
     3
 10
98.74129501597093
 20
15.8927288660731
 30
0.0
 11
102.7283441121421
 21
18.19465248069881
 31
0.0
  0
LINE
  5
2A2
  8
0
  6
CONTINUOUS
 62
     3
 10
108.7412981319165
 20
-1.427763632009572
 30
0.0
 11
112.7283439244628
 21
0.8741580752676157
 31
0.0
  0
LINE
  5
2A3
  8
0
  6
CONTINUOUS
 62
     3
 10
107.2413021854119
 20
1.17032658449503
 30
0.0
 11
112.4913028112606
 21
-7.92293999203352
 31
0.0
  0
LINE
  5
2A4
  8
0
  6
CONTINUOUS
 62
     3
 10
180.5071155465604
 20
13.29464890953855
 30
0.0
 11
185.7571161724091
 21
22.3879154860671
 31
0.0
  0
LINE
  5
2A5
  8
0
  6
CONTINUOUS
 62
     3
 10
53.04290260879821
 20
-13.95534755610885
 30
0.0
 11
60.0429053506121
 21
-26.07970629510493
 31
0.0
  0
LINE
  5
2A6
  8
0
  6
CONTINUOUS
 62
     3
 10
96.34420508673404
 20
11.04468112197927
 30
0.0
 11
103.3442049675246
 21
-1.079672661579792
 31
0.0
  0
LINE
  5
2A7
  8
0
  6
CONTINUOUS
 62
     3
 10
177.4042157446803
 20
-1.079699164658308
 30
0.0
 11
184.4042165791453
 21
11.04465627071309
 31
0.0
  0
LINE
  5
2A8
  8
0
  6
CONTINUOUS
 62
     3
 10
220.7054955786681
 20
-26.07969935233891
 30
0.0
 11
227.7054964131331
 21
-13.95534391696751
 31
0.0
  0
LINE
  5
2A9
  8
0
  6
CONTINUOUS
 62
     3
 10
65.05725630347399
 20
-7.018835176825036
 30
0.0
 11
84.32980784231324
 21
4.108176412760969
 31
0.0
  0
LINE
  5
2AA
  8
0
  6
CONTINUOUS
 62
     3
 10
72.05724480039143
 20
-19.14319894828751
 30
0.0
 11
91.32981120554277
 21
-8.016178775633165
 31
0.0
  0
LINE
  5
2AB
  8
0
  6
CONTINUOUS
 62
     3
 10
98.03801319119256
 20
-4.143196981334398
 30
0.0
 11
107.2412844957517
 21
1.170313596731063
 31
0.0
  0
LINE
  5
2AC
  8
0
  6
CONTINUOUS
 62
     3
 10
91.03801643521285
 20
7.981162021756774
 30
0.0
 11
100.2412811325222
 21
13.2946687851252
 31
0.0
  0
LINE
  5
2AD
  8
0
  6
CONTINUOUS
 62
     3
 10
62.9156212240289
 20
-11.05543542711158
 30
0.0
 11
60.62811968548549
 21
-15.01750718664383
 31
0.0
  0
LINE
  5
2AE
  8
0
  6
CONTINUOUS
 62
     3
 10
60.62816855287277
 20
-15.01750100648914
 30
0.0
 11
62.91566579988406
 21
-18.97956533286433
 31
0.0
  0
LINE
  5
2AF
  8
0
  6
CONTINUOUS
 62
     3
 10
62.91564432981894
 20
-18.9795687266886
 30
0.0
 11
67.49064127806113
 21
-18.9795687266886
 31
0.0
  0
LINE
  5
2B0
  8
0
  6
CONTINUOUS
 62
     3
 10
67.49061352747054
 20
-18.97956105607177
 30
0.0
 11
69.77811185705016
 21
-15.01749827043769
 31
0.0
  0
LINE
  5
2B1
  8
0
  6
CONTINUOUS
 62
     3
 10
69.77813467792564
 20
-15.01749765011405
 30
0.0
 11
67.49063729606016
 21
-11.05542892934832
 31
0.0
  0
LINE
  5
2B2
  8
0
  6
CONTINUOUS
 62
     3
 10
67.49064127806113
 20
-11.05543542590735
 30
0.0
 11
62.91564432981894
 21
-11.05543542590735
 31
0.0
  0
LINE
  5
2B3
  8
0
  6
CONTINUOUS
 62
     3
 10
88.89638596612335
 20
3.944587693524824
 30
0.0
 11
86.60888394850585
 21
-0.0174783003279515
 31
0.0
  0
LINE
  5
2B4
  8
0
  6
CONTINUOUS
 62
     3
 10
86.60888398801777
 20
-0.0174961558986695
 30
0.0
 11
88.89638205310226
 21
-3.979559936891718
 31
0.0
  0
LINE
  5
2B5
  8
0
  6
CONTINUOUS
 62
     3
 10
88.8964010894625
 20
-3.979629761844848
 30
0.0
 11
93.47140566709922
 21
-3.979629761844848
 31
0.0
  0
LINE
  5
2B6
  8
0
  6
CONTINUOUS
 62
     3
 10
93.47141506470766
 20
-3.979562042789752
 30
0.0
 11
95.75891599304836
 21
-0.0174998979431109
 31
0.0
  0
LINE
  5
2B7
  8
0
  6
CONTINUOUS
 62
     3
 10
95.75888848472332
 20
-0.0175132637868671
 30
0.0
 11
93.47138633225072
 21
3.944557124455997
 31
0.0
  0
LINE
  5
2B8
  8
0
  6
CONTINUOUS
 62
     3
 10
93.47140566709922
 20
3.944564574092652
 30
0.0
 11
88.89640871885703
 21
3.944564574092652
 31
0.0
  0
LINE
  5
2B9
  8
0
  6
CONTINUOUS
 62
     3
 10
187.276818511462
 20
3.944642722797795
 30
0.0
 11
184.9893184011945
 21
-0.0174199674309818
 31
0.0
  0
LINE
  5
2BA
  8
0
  6
CONTINUOUS
 62
     3
 10
184.989404802959
 20
-0.0175050216356283
 30
0.0
 11
187.2769028680435
 21
-3.979568802628677
 31
0.0
  0
LINE
  5
2BB
  8
0
  6
CONTINUOUS
 62
     3
 10
187.2769324004977
 20
-3.979538209110473
 30
0.0
 11
191.8519293487398
 21
-3.979538209110473
 31
0.0
  0
LINE
  5
2BC
  8
0
  6
CONTINUOUS
 62
     3
 10
191.8518981536382
 20
-3.979560281810194
 30
0.0
 11
194.1393990819789
 21
-0.0174981369635532
 31
0.0
  0
LINE
  5
2BD
  8
0
  6
CONTINUOUS
 62
     3
 10
194.1393499053614
 20
-0.0175464280422091
 30
0.0
 11
191.8518515675858
 21
3.94451735295084
 31
0.0
  0
LINE
  5
2BE
  8
0
  6
CONTINUOUS
 62
     3
 10
191.8519293487398
 20
3.944564574092652
 30
0.0
 11
187.2769476592867
 21
3.944564574092652
 31
0.0
  0
LINE
  5
2BF
  8
0
  6
CONTINUOUS
 62
     3
 10
213.2574877310486
 20
-11.05537714568467
 30
0.0
 11
210.9699904840373
 21
-15.01744147205986
 31
0.0
  0
LINE
  5
2C0
  8
0
  6
CONTINUOUS
 62
     3
 10
210.9700458058393
 20
-15.01758171515471
 30
0.0
 11
213.2575430528505
 21
-18.97964604152989
 31
0.0
  0
LINE
  5
2C1
  8
0
  6
CONTINUOUS
 62
     3
 10
213.2577063262789
 20
-18.9795687266886
 30
0.0
 11
217.8327032745211
 21
-18.9795687266886
 31
0.0
  0
LINE
  5
2C2
  8
0
  6
CONTINUOUS
 62
     3
 10
217.8326032748442
 20
-18.97952327465495
 30
0.0
 11
220.1201020216564
 21
-15.01745976635297
 31
0.0
  0
LINE
  5
2C3
  8
0
  6
CONTINUOUS
 62
     3
 10
220.1200920550483
 20
-15.01759716752426
 30
0.0
 11
217.8325927658367
 21
-11.05552514313226
 31
0.0
  0
LINE
  5
2C4
  8
0
  6
CONTINUOUS
 62
     3
 10
217.8327032745211
 20
-11.05543542590735
 30
0.0
 11
213.2577063262789
 21
-11.05543542590735
 31
0.0
  0
LINE
  5
2C5
  8
0
  6
CONTINUOUS
 62
     3
 10
196.4185304864346
 20
4.108178151725639
 30
0.0
 11
215.6910853288988
 21
-7.018835345208885
 31
0.0
  0
LINE
  5
2C6
  8
0
  6
CONTINUOUS
 62
     3
 10
222.399307136298
 20
-10.89182858359877
 30
0.0
 11
236.3656985822578
 21
-18.95532755366034
 31
0.0
  0
LINE
  5
2C7
  8
0
  6
CONTINUOUS
 62
     3
 10
215.3992925686224
 20
-23.01614977289759
 30
0.0
 11
229.3656972290818
 21
-31.07965637235324
 31
0.0
  0
LINE
  5
2C8
  8
0
  6
CONTINUOUS
 62
     3
 10
189.4185291332586
 20
-8.016150666967263
 30
0.0
 11
208.6910971902224
 21
-19.14317179329586
 31
0.0
  0
LINE
  5
2C9
  8
0
  6
CONTINUOUS
 62
     3
 10
130.6241690337984
 20
70.68248724254968
 30
0.0
 11
130.6241690337984
 21
66.14408087047937
 31
0.0
  0
LINE
  5
2CA
  8
0
  6
CONTINUOUS
 62
     3
 10
150.1241690337984
 20
70.68248724254968
 30
0.0
 11
150.1241690337984
 21
66.14408087047937
 31
0.0
  0
LINE
  5
2CB
  8
0
  6
CONTINUOUS
 62
     3
 10
122.8741461456148
 20
70.68247961315515
 30
0.0
 11
133.3741690337984
 21
70.68247961315515
 31
0.0
  0
LINE
  5
2CC
  8
0
  6
CONTINUOUS
 62
     3
 10
147.3741690337984
 20
70.68247961315515
 30
0.0
 11
157.8741995513766
 21
70.68247961315515
 31
0.0
  0
LINE
  5
2CD
  8
0
  6
CONTINUOUS
 62
     3
 10
133.3741690337984
 20
75.18247961315515
 30
0.0
 11
147.3741690337984
 21
75.18247961315515
 31
0.0
  0
LINE
  5
2CE
  8
0
  6
CONTINUOUS
 62
     3
 10
133.3741690337984
 20
125.1824796131552
 30
0.0
 11
147.3741690337984
 21
125.1824796131552
 31
0.0
  0
LINE
  5
2CF
  8
0
  6
CONTINUOUS
 62
     3
 10
133.3741690337984
 20
81.30950903210047
 30
0.0
 11
133.3741690337984
 21
70.68248724254968
 31
0.0
  0
LINE
  5
2D0
  8
0
  6
CONTINUOUS
 62
     3
 10
133.3741690337984
 20
111.3095014027059
 30
0.0
 11
133.3741690337984
 21
89.05547308239343
 31
0.0
  0
LINE
  5
2D1
  8
0
  6
CONTINUOUS
 62
     3
 10
147.3741690337984
 20
111.3095014027059
 30
0.0
 11
147.3741690337984
 21
89.05547308239343
 31
0.0
  0
LINE
  5
2D2
  8
0
  6
CONTINUOUS
 62
     3
 10
147.3741690337984
 20
81.30950903210047
 30
0.0
 11
147.3741690337984
 21
70.68248724254968
 31
0.0
  0
ARC
  5
2D3
  8
0
  6
CONTINUOUS
 62
     3
 10
140.3741690337984
 20
28.3824918201864
 30
0.0
 40
40.0
 50
115.9444965573391
 51
184.0554844701647
  0
CIRCLE
  5
2D4
  8
0
  6
CONTINUOUS
 62
     3
 10
140.3741690337984
 20
28.3824918201864
 30
0.0
 40
37.0
  0
ARC
  5
2D5
  8
0
  6
CONTINUOUS
 62
     3
 10
140.3741690337984
 20
28.3824918201864
 30
0.0
 40
105.5
 50
99.54819032261662
 51
150.0000110043195
  0
ARC
  5
2D6
  8
0
  6
CONTINUOUS
 62
     3
 10
140.3741690337984
 20
28.3824918201864
 30
0.0
 40
105.5
 50
219.5481563232515
 51
270.0000179860894
  0
ARC
  5
2D7
  8
0
  6
CONTINUOUS
 62
     3
 10
140.3741690337984
 20
28.3824918201864
 30
0.0
 40
105.5
 50
339.5481750304813
 51
390.000000834826
  0
ARC
  5
2D8
  8
0
  6
CONTINUOUS
 62
     3
 10
140.3741690337984
 20
28.3824918201864
 30
0.0
 40
107.5
 50
219.3688911782953
 51
320.6310867372754
  0
ARC
  5
2D9
  8
0
  6
CONTINUOUS
 62
     3
 10
140.3741690337984
 20
28.3824918201864
 30
0.0
 40
107.5
 50
339.3689184232617
 51
360.0
  0
ARC
  5
2DA
  8
0
  6
CONTINUOUS
 62
     3
 10
140.3741690337984
 20
28.3824918201864
 30
0.0
 40
40.0
 50
235.944462557974
 51
304.0555187726914
  0
ARC
  5
2DB
  8
0
  6
CONTINUOUS
 62
     3
 10
140.3741690337984
 20
28.3824918201864
 30
0.0
 40
40.0
 50
355.9444833996379
 51
424.0555221119956
  0
ARC
  5
2DC
  8
0
  6
CONTINUOUS
 62
     3
 10
140.3741690337984
 20
28.3824918201864
 30
0.0
 40
39.0
 50
63.33854349444098
 51
116.6614751748937
  0
ARC
  5
2DD
  8
0
  6
CONTINUOUS
 62
     3
 10
140.3741690337984
 20
28.3824918201864
 30
0.0
 40
39.0
 50
303.3385435702314
 51
356.6614609499755
  0
CIRCLE
  5
2DE
  8
0
  6
CONTINUOUS
 62
     3
 10
91.18392245176719
 20
-0.0175020762979727
 30
0.0
 40
8.0
  0
CIRCLE
  5
2DF
  8
0
  6
CONTINUOUS
 62
     3
 10
65.20315043333457
 20
-15.01750207629797
 30
0.0
 40
8.0
  0
CIRCLE
  5
2E0
  8
0
  6
CONTINUOUS
 62
     3
 10
189.5644232452242
 20
-0.0175020762979727
 30
0.0
 40
8.0
  0
CIRCLE
  5
2E1
  8
0
  6
CONTINUOUS
 62
     3
 10
215.5451971710055
 20
-15.01750207629797
 30
0.0
 40
8.0
  0
ARC
  5
2E2
  8
0
  6
CONTINUOUS
 62
     3
 10
140.3741690337984
 20
28.3824918201864
 30
0.0
 40
105.5
 50
270.0000179860894
 51
320.4518284225084
  0
ARC
  5
2E3
  8
0
  6
CONTINUOUS
 62
     3
 10
80.37416903379844
 20
98.43247961315515
 30
0.0
 40
2.0
 50
321.3178110319014
 51
360.0
  0
CIRCLE
  5
2E4
  8
0
  6
CONTINUOUS
 62
     3
 10
140.3741690337984
 20
28.3824918201864
 30
0.0
 40
31.82341766357422
  0
ARC
  5
2E5
  8
0
  6
CONTINUOUS
 62
     3
 10
140.3741690337984
 20
28.3824918201864
 30
0.0
 40
39.0
 50
183.3385231554542
 51
236.6614275151502
  0
ARC
  5
2E6
  8
0
  6
CONTINUOUS
 62
     3
 10
140.3741690337984
 20
28.3824918201864
 30
0.0
 40
105.5
 50
150.0000110043195
 51
200.4517907048872
  0
ARC
  5
2E7
  8
0
  6
CONTINUOUS
 62
     3
 10
140.3741690337984
 20
28.3824918201864
 30
0.0
 40
105.5
 50
30.00000083482606
 51
80.45182834671805
  0
CIRCLE
  5
2E8
  8
0
  6
CONTINUOUS
 62
     3
 10
140.3741690337984
 20
28.3824918201864
 30
0.0
 40
24.0
  0
LINE
  5
2E9
  8
0
  6
CONTINUOUS
 62
     3
 10
122.8741461456148
 20
135.1824796131552
 30
0.0
 11
157.8741995513766
 21
135.1824796131552
 31
0.0
  0
LINE
  5
2EA
  8
0
  6
CONTINUOUS
 62
     3
 10
112.8741814334136
 20
133.4191542904552
 30
0.0
 11
122.8741588913891
 21
135.1824201737201
 31
0.0
  0
LINE
  5
2EB
  8
0
  6
CONTINUOUS
 62
     3
 10
157.8741881669058
 20
135.1824127565857
 30
0.0
 11
167.8741581113946
 21
133.4191481981513
 31
0.0
  0
LINE
  5
2EC
  8
0
  6
CONTINUOUS
 62
     3
 10
112.8741690337984
 20
133.4192044666708
 30
0.0
 11
112.8741690337984
 21
132.3055417469442
 31
0.0
  0
LINE
  5
2ED
  8
0
  6
CONTINUOUS
 62
     3
 10
167.8741690337984
 20
133.4191739490927
 30
0.0
 11
167.8741690337984
 21
132.3055417469442
 31
0.0
  0
LINE
  5
2EE
  8
0
  6
CONTINUOUS
 62
     3
 10
122.8741690337984
 20
135.1824796131552
 30
0.0
 11
122.8741690337984
 21
60.98233770641687
 31
0.0
  0
LINE
  5
2EF
  8
0
  6
CONTINUOUS
 62
     3
 10
157.8741690337984
 20
135.1824796131552
 30
0.0
 11
157.8741690337984
 21
60.98233770641687
 31
0.0
  0
LINE
  5
2F0
  8
0
  6
CONTINUOUS
 62
     3
 10
112.8741690337984
 20
133.4192044666708
 30
0.0
 11
112.8741690337984
 21
132.3055417469442
 31
0.0
  0
LINE
  5
2F1
  8
0
  6
CONTINUOUS
 62
     3
 10
167.8741690337984
 20
133.4191739490927
 30
0.0
 11
167.8741690337984
 21
132.3055417469442
 31
0.0
  0
LINE
  5
2F2
  8
0
  6
CONTINUOUS
 62
     3
 10
133.3741690337984
 20
135.1824796131552
 30
0.0
 11
133.3741690337984
 21
119.0554730823934
 31
0.0
  0
LINE
  5
2F3
  8
0
  6
CONTINUOUS
 62
     3
 10
147.3741690337984
 20
135.1824796131552
 30
0.0
 11
147.3741690337984
 21
119.0554730823934
 31
0.0
  0
ARC
  5
2F4
  8
0
  6
CONTINUOUS
 62
     3
 10
140.3741690337984
 20
28.3824918201864
 30
0.0
 40
107.5
 50
0.0
 51
80.63108666148504
  0
ARC
  5
2F5
  8
0
  6
CONTINUOUS
 62
     3
 10
140.3741690337984
 20
28.3824918201864
 30
0.0
 40
107.5
 50
99.36893200784964
 51
200.631042189465
  0
LINE
  5
2F6
  8
0
  6
CONTINUOUS
 62
     3
 10
103.2241950504358
 20
107.8188334741703
 30
0.0
 11
97.52419810219365
 21
107.8188344278442
 31
0.0
  0
LINE
  5
2F7
  8
0
  6
CONTINUOUS
 62
     3
 10
93.00530685662997
 20
-38.57217910226089
 30
0.0
 11
90.15530336379675
 21
-43.5085253150074
 31
0.0
  0
LINE
  5
2F8
  8
0
  6
CONTINUOUS
 62
     3
 10
90.15530229055446
 20
-43.50852454504943
 30
0.0
 11
93.00529991530982
 21
-48.44486729461491
 31
0.0
  0
LINE
  5
2F9
  8
0
  6
CONTINUOUS
 62
     3
 10
98.70530297221706
 20
-38.57226587024329
 30
0.0
 11
93.00530602397487
 21
-38.57226587024329
 31
0.0
  0
LINE
  5
2FA
  8
0
  6
CONTINUOUS
 62
     3
 10
93.00529839458034
 20
-48.44489312854407
 30
0.0
 11
98.70530297221706
 21
-48.44489312854407
 31
0.0
  0
CIRCLE
  5
2FB
  8
0
  6
CONTINUOUS
 62
     3
 10
95.85530449809596
 20
-43.50852609363196
 30
0.0
 40
0.75
  0
CIRCLE
  5
2FC
  8
0
  6
CONTINUOUS
 62
     3
 10
95.85530449809596
 20
-43.50852609363196
 30
0.0
 40
2.400000095367432
  0
CIRCLE
  5
2FD
  8
0
  6
CONTINUOUS
 62
     3
 10
95.85530449809596
 20
-43.50852609363196
 30
0.0
 40
3.299999952316284
  0
LINE
  5
2FE
  8
0
  6
CONTINUOUS
 62
     3
 10
227.7430913633303
 20
30.70985388073328
 30
0.0
 11
222.0430944150882
 21
30.70985388073328
 31
0.0
  0
LINE
  5
2FF
  8
0
  6
CONTINUOUS
 62
     3
 10
219.1931529925165
 20
25.77355111821285
 30
0.0
 11
222.0431514666376
 21
20.83720904813995
 31
0.0
  0
LINE
  5
300
  8
0
  6
CONTINUOUS
 62
     3
 10
222.0430791562991
 20
20.83716654095056
 30
0.0
 11
227.7430913633303
 21
20.83716654095056
 31
0.0
  0
LINE
  5
301
  8
0
  6
CONTINUOUS
 62
     3
 10
227.7430787883938
 20
20.83716914489301
 30
0.0
 11
230.5930817567056
 21
25.77351748246852
 31
0.0
  0
CIRCLE
  5
302
  8
0
  6
CONTINUOUS
 62
     3
 10
224.8930852598147
 20
25.77350782665613
 30
0.0
 40
0.75
  0
LINE
  5
303
  8
0
  6
CONTINUOUS
 62
     3
 10
106.0741981777024
 20
102.8824927057528
 30
0.0
 11
103.2241996648386
 21
107.8188394384364
 31
0.0
  0
CIRCLE
  5
304
  8
0
  6
CONTINUOUS
 62
     3
 10
100.3741948789553
 20
102.8824918201864
 30
0.0
 40
3.299999952316284
  0
LINE
  5
305
  8
0
  6
CONTINUOUS
 62
     3
 10
97.52419771544771
 20
107.818840980654
 30
0.0
 11
94.67419440738911
 21
102.8824926430785
 31
0.0
  0
CIRCLE
  5
306
  8
0
  6
CONTINUOUS
 62
     3
 10
100.3741948789553
 20
102.8824918201864
 30
0.0
 40
9.0
  0
LINE
  5
307
  8
0
  6
CONTINUOUS
 62
     3
 10
97.52419651871551
 20
97.94614954783323
 30
0.0
 11
103.2241934669577
 21
97.94614716364825
 31
0.0
  0
LINE
  5
308
  8
0
  6
CONTINUOUS
 62
     3
 10
103.2241898635484
 20
97.9461434259014
 30
0.0
 11
106.0741917351324
 21
102.8824834574965
 31
0.0
  0
CIRCLE
  5
309
  8
0
  6
CONTINUOUS
 62
     3
 10
100.3741948789553
 20
102.8824918201864
 30
0.0
 40
0.75
  0
CIRCLE
  5
30A
  8
0
  6
CONTINUOUS
 62
     3
 10
100.3741948789553
 20
102.8824918201864
 30
0.0
 40
2.400000095367432
  0
LINE
  5
30B
  8
0
  6
CONTINUOUS
 62
     3
 10
94.6741886414776
 20
102.882489913551
 30
0.0
 11
97.52418766396124
 21
97.94614386036042
 31
0.0
  0
LINE
  5
30C
  8
0
  6
CONTINUOUS
 62
     3
 10
98.70530174286171
 20
-48.44487115796127
 30
0.0
 11
101.5553027680614
 21
-43.50852770261582
 31
0.0
  0
LINE
  5
30D
  8
0
  6
CONTINUOUS
 62
     3
 10
101.5553037149108
 20
-43.50852612758703
 30
0.0
 11
98.70530727926746
 21
-38.57218269852896
 31
0.0
  0
CIRCLE
  5
30E
  8
0
  6
CONTINUOUS
 62
     3
 10
95.85530449809596
 20
-43.50852609363196
 30
0.0
 40
9.0
  0
LINE
  5
30F
  8
0
  6
CONTINUOUS
 62
     3
 10
222.0430925613551
 20
30.70985389379726
 30
0.0
 11
219.1930920487563
 21
25.77351284296324
 31
0.0
  0
LINE
  5
310
  8
0
  6
CONTINUOUS
 62
     3
 10
230.593107742911
 20
25.77351988473825
 30
0.0
 11
227.7431054540926
 21
30.70986856206051
 31
0.0
  0
CIRCLE
  5
311
  8
0
  6
CONTINUOUS
 62
     3
 10
224.8930852598147
 20
25.77350782665613
 30
0.0
 40
9.0
  0
CIRCLE
  5
312
  8
0
  6
CONTINUOUS
 62
     3
 10
224.8930852598147
 20
25.77350782665613
 30
0.0
 40
2.400000095367432
  0
CIRCLE
  5
313
  8
0
  6
CONTINUOUS
 62
     3
 10
224.8930852598147
 20
25.77350782665613
 30
0.0
 40
3.299999952316284
  0
LINE
  5
314
  8
0
  6
CONTINUOUS
 62
     3
 10
30.72001702375487
 20
-70.72199101765641
 30
0.0
 11
41.97834707088546
 21
-64.22199101765641
 31
0.0
  0
LINE
  5
315
  8
0
  6
CONTINUOUS
 62
     3
 10
39.72001702375487
 20
-86.31044800599106
 30
0.0
 11
50.97834707088546
 21
-79.81044800599106
 31
0.0
  0
LINE
  5
316
  8
0
  6
CONTINUOUS
 62
     3
 10
30.72001802662899
 20
-70.7219946684085
 30
0.0
 11
39.72001909951259
 21
-86.31045165674316
 31
0.0
  0
LINE
  5
317
  8
0
  6
CONTINUOUS
 62
     3
 10
46.81232244558409
 20
-74.59468176505156
 30
0.0
 11
44.41232091970519
 21
-70.43775725859591
 31
0.0
  0
LINE
  5
318
  8
0
  6
CONTINUOUS
 62
     3
 10
44.92405565136075
 20
-76.72410536371358
 30
0.0
 11
41.62405641430021
 21
-71.00833912277408
 31
0.0
  0
LINE
  5
319
  8
0
  6
CONTINUOUS
 62
     3
 10
35.45415205815882
 20
-71.79925209842808
 30
0.0
 11
32.74998824588433
 21
-73.36050183139928
 31
0.0
  0
LINE
  5
31A
  8
0
  6
CONTINUOUS
 62
     3
 10
41.15415282109827
 20
-81.67194284582324
 30
0.0
 11
38.44998900882379
 21
-83.23319257879443
 31
0.0
  0
LINE
  5
31B
  8
0
  6
CONTINUOUS
 62
     3
 10
41.62405434700988
 20
-71.00834091223929
 30
0.0
 11
44.41232278834266
 21
-70.43776375089442
 31
0.0
  0
LINE
  5
31C
  8
0
  6
CONTINUOUS
 62
     3
 10
44.92405336395157
 20
-76.72410659636266
 30
0.0
 11
46.81232224684256
 21
-74.59468347964371
 31
0.0
  0
LINE
  5
31D
  8
0
  6
CONTINUOUS
 62
     3
 10
43.78069414251447
 20
-76.74374512067247
 30
0.0
 11
41.01028932684064
 21
-71.94526330851618
 31
0.0
  0
LINE
  5
31E
  8
0
  6
CONTINUOUS
 62
     3
 10
40.90912086553649
 20
-80.37003645384498
 30
0.0
 11
36.45912010259703
 21
-72.66240917705186
 31
0.0
  0
LINE
  5
31F
  8
0
  6
CONTINUOUS
 62
     3
 10
39.48672269178737
 20
-79.39414826244324
 30
0.0
 11
37.31107440770906
 21
-80.65025940746277
 31
0.0
  0
LINE
  5
320
  8
0
  6
CONTINUOUS
 62
     3
 10
36.59306119276393
 20
-74.3821796161847
 30
0.0
 11
34.41741290868563
 21
-75.63829076120423
 31
0.0
  0
LINE
  5
321
  8
0
  6
CONTINUOUS
 62
     3
 10
30.66879829084316
 20
-86.67516274377174
 30
0.0
 11
37.70174413402801
 21
-82.85658487792124
 31
0.0
  0
ARC
  5
322
  8
0
  6
CONTINUOUS
 62
     3
 10
43.27405406856817
 20
-73.86622197506271
 30
0.0
 40
3.299999952316284
 50
283.4828250680728
 51
299.9999846699695
  0
ARC
  5
323
  8
0
  6
CONTINUOUS
 62
     3
 10
43.27405406856817
 20
-73.86622197506271
 30
0.0
 40
3.299999952316284
 50
120.0000169996826
 51
136.5171766015793
  0
ARC
  5
324
  8
0
  6
CONTINUOUS
 62
     3
 10
39.17706920528692
 20
-81.37003667232834
 30
0.0
 40
2.0
 50
210.0000026560589
 51
248.6821916241575
  0
ARC
  5
325
  8
0
  6
CONTINUOUS
 62
     3
 10
34.72706844234747
 20
-73.6624103295549
 30
0.0
 40
2.0
 50
210.0000026560589
 51
261.0931644404476
  0
ARC
  5
326
  8
0
  6
CONTINUOUS
 62
     3
 10
40.41617061519903
 20
-75.51622350094162
 30
0.0
 40
6.0
 50
210.0000026560589
 51
238.8342336335363
  0
ARC
  5
327
  8
0
  6
CONTINUOUS
 62
     3
 10
33.48796703243536
 20
-79.51622350094162
 30
0.0
 40
6.0
 50
1.165774019495132
 51
58.83421132173599
  0
ARC
  5
328
  8
0
  6
CONTINUOUS
 62
     3
 10
40.41617061519903
 20
-75.51622350094162
 30
0.0
 40
6.0
 50
181.1657580182031
 51
210.0000026560589
  0
ARC
  5
329
  8
0
  6
CONTINUOUS
 62
     3
 10
39.17706920528692
 20
-81.37003667232834
 30
0.0
 40
2.0
 50
158.9068372292045
 51
209.9999990135932
  0
ARC
  5
32A
  8
0
  6
CONTINUOUS
 62
     3
 10
39.17706920528692
 20
-81.37003667232834
 30
0.0
 40
2.0
 50
351.317829795974
 51
441.0931148078906
  0
ARC
  5
32B
  8
0
  6
CONTINUOUS
 62
     3
 10
34.72706844234747
 20
-73.6624103295549
 30
0.0
 40
2.0
 50
338.9068561259103
 51
428.6821556519788
  0
ARC
  5
32C
  8
0
  6
CONTINUOUS
 62
     3
 10
34.72706844234747
 20
-73.6624103295549
 30
0.0
 40
2.0
 50
171.3178100454946
 51
209.9999990135932
  0
ARC
  5
32D
  8
0
  6
CONTINUOUS
 62
     3
 10
46.51947070980352
 20
-82.15384251949631
 30
0.0
 40
5.650000095367432
 50
115.9910921078569
 51
165.0592530674986
  0
ARC
  5
32E
  8
0
  6
CONTINUOUS
 62
     3
 10
37.71947147274297
 20
-66.9117999779924
 30
0.0
 40
5.650000095367432
 50
254.9407486021535
 51
304.0089061467006
  0
ARC
  5
32F
  8
0
  6
CONTINUOUS
 62
     3
 10
45.00610401058477
 20
-72.86622197506271
 30
0.0
 40
1.5
 50
327.8181532914213
 51
452.1818449631362
  0
LINE
  5
330
  8
0
  6
CONTINUOUS
 62
     3
 10
19.38697841754608
 20
-85.34802772124299
 30
0.0
 11
27.2918155696407
 21
-80.78416778166779
 31
0.0
  0
LINE
  5
331
  8
0
  6
CONTINUOUS
 62
     3
 10
36.98786133382773
 20
-55.57821849104623
 30
0.0
 11
55.78640559749365
 21
-88.13824779819508
 31
0.0
  0
LINE
  5
332
  8
0
  6
CONTINUOUS
 62
     3
 10
25.89642014819676
 20
-78.36728164385981
 30
0.0
 11
30.68720746246711
 21
-86.66516754231502
 31
0.0
  0
LINE
  5
333
  8
0
  6
CONTINUOUS
 62
     3
 10
25.87856045778337
 20
-78.3782245981984
 30
0.0
 11
32.70201864087814
 21
-74.19680411858887
 31
0.0
  0
LINE
  5
334
  8
0
  6
CONTINUOUS
 62
     3
 10
21.02749780156389
 20
-89.0196755083371
 30
0.0
 11
29.2918155696407
 21
-84.24826933463105
 31
0.0
  0
LINE
  5
335
  8
0
  6
CONTINUOUS
 62
     3
 10
-74.74408965258846
 20
133.8824681627379
 30
0.0
 11
-74.74408965258846
 21
125.1824712144957
 31
0.0
  0
LINE
  5
336
  8
0
  6
CONTINUOUS
 62
     3
 10
-170.7441277995611
 20
-79.11751657847304
 30
0.0
 11
-76.74412017016658
 21
-79.11751657847304
 31
0.0
  0
LINE
  5
337
  8
0
  6
CONTINUOUS
 62
     3
 10
-77.24412017016658
 20
-11.61752039317031
 30
0.0
 11
-74.74412017016658
 21
-11.61752039317031
 31
0.0
  0
LINE
  5
338
  8
0
  6
CONTINUOUS
 62
     3
 10
-77.24412017016658
 20
67.38248342152696
 30
0.0
 11
-77.24412017016658
 21
-11.61752039317031
 31
0.0
  0
LINE
  5
339
  8
0
  6
CONTINUOUS
 62
     3
 10
-95.34410338549861
 20
70.03247731801133
 30
0.0
 11
-95.34410338549861
 21
65.38248342152696
 31
0.0
  0
LINE
  5
33A
  8
0
  6
CONTINUOUS
 62
     3
 10
-102.8440728679205
 20
70.03247731801133
 30
0.0
 11
-102.8440728679205
 21
65.38248342152696
 31
0.0
  0
LINE
  5
33B
  8
0
  6
CONTINUOUS
 62
     3
 10
-102.8441033854986
 20
-13.26751428965468
 30
0.0
 11
-95.34410338549861
 21
-13.26751428965468
 31
0.0
  0
LINE
  5
33C
  8
0
  6
CONTINUOUS
 62
     3
 10
-102.8441033854986
 20
70.03247731801133
 30
0.0
 11
-95.34410338549861
 21
70.03247731801133
 31
0.0
  0
LINE
  5
33D
  8
0
  6
CONTINUOUS
 62
     3
 10
-75.74410278013943
 20
134.8824873527206
 30
0.0
 11
-74.74410171854993
 21
133.882486291131
 31
0.0
  0
LINE
  5
33E
  8
0
  6
CONTINUOUS
 62
     3
 10
-74.74411722858991
 20
-77.11754281722944
 30
0.0
 11
-76.74410856217588
 21
-79.1175341508154
 31
0.0
  0
LINE
  5
33F
  8
0
  6
CONTINUOUS
 62
     3
 10
-102.8440728679205
 20
-8.61752039317031
 30
0.0
 11
-102.8440728679205
 21
-13.26752191904922
 31
0.0
  0
LINE
  5
340
  8
0
  6
CONTINUOUS
 62
     3
 10
-95.34410338549861
 20
-8.61752039317031
 30
0.0
 11
-95.34410338549861
 21
-13.26752191904922
 31
0.0
  0
LINE
  5
341
  8
0
  6
CONTINUOUS
 62
     3
 10
-127.2441277995611
 20
135.8824681627379
 30
0.0
 11
-127.2441277995611
 21
109.3090886461363
 31
0.0
  0
LINE
  5
342
  8
0
  6
CONTINUOUS
 62
     3
 10
-92.74409728198299
 20
-19.96752649668593
 30
0.0
 11
-74.74412017016658
 21
-19.96752649668593
 31
0.0
  0
LINE
  5
343
  8
0
  6
CONTINUOUS
 62
     3
 10
-92.74409728198299
 20
-13.26751428965468
 30
0.0
 11
-74.74412017016658
 21
-13.26751428965468
 31
0.0
  0
LINE
  5
344
  8
0
  6
CONTINUOUS
 62
     3
 10
-92.74409728198299
 20
-13.26752191904922
 30
0.0
 11
-92.74409728198299
 21
-19.9675188672914
 31
0.0
  0
LINE
  5
345
  8
0
  6
CONTINUOUS
 62
     3
 10
-94.67828559784749
 20
-16.61748016544703
 30
0.0
 11
-92.74418044785062
 21
-13.26751223794514
 31
0.0
  0
LINE
  5
346
  8
0
  6
CONTINUOUS
 62
     3
 10
-94.6783267163533
 20
-16.61760073687248
 30
0.0
 11
-92.74421393696099
 21
-19.96758187887309
 31
0.0
  0
LINE
  5
347
  8
0
  6
CONTINUOUS
 62
     3
 10
-138.6272149577642
 20
64.38247960682969
 30
0.0
 11
-138.6272149577642
 21
-7.61752039317031
 31
0.0
  0
LINE
  5
348
  8
0
  6
CONTINUOUS
 62
     3
 10
-88.62724547534236
 20
64.38247960682969
 30
0.0
 11
-88.62724547534236
 21
-7.61752039317031
 31
0.0
  0
LINE
  5
349
  8
0
  6
CONTINUOUS
 62
     3
 10
-152.744097281983
 20
65.38248342152696
 30
0.0
 11
-89.62724547534236
 21
65.38248342152696
 31
0.0
  0
LINE
  5
34A
  8
0
  6
CONTINUOUS
 62
     3
 10
-109.6272454753424
 20
60.13247960682969
 30
0.0
 11
-109.6272454753424
 21
-3.36752039317031
 31
0.0
  0
LINE
  5
34B
  8
0
  6
CONTINUOUS
 62
     3
 10
-107.6272454753424
 20
60.13247960682969
 30
0.0
 11
-107.6272454753424
 21
51.13247960682969
 31
0.0
  0
LINE
  5
34C
  8
0
  6
CONTINUOUS
 62
     3
 10
-99.62724547534236
 20
61.38247960682969
 30
0.0
 11
-99.62724547534236
 21
51.17740911122422
 31
0.0
  0
LINE
  5
34D
  8
0
  6
CONTINUOUS
 62
     3
 10
-97.62724547534236
 20
61.38247960682969
 30
0.0
 11
-97.62724547534236
 21
-4.61752039317031
 31
0.0
  0
LINE
  5
34E
  8
0
  6
CONTINUOUS
 62
     3
 10
-107.6272454753424
 20
5.632481514178323
 30
0.0
 11
-107.6272454753424
 21
-3.36752039317031
 31
0.0
  0
LINE
  5
34F
  8
0
  6
CONTINUOUS
 62
     3
 10
-99.62724547534236
 20
-4.61752039317031
 30
0.0
 11
-97.62724547534236
 21
-4.61752039317031
 31
0.0
  0
LINE
  5
350
  8
0
  6
CONTINUOUS
 62
     3
 10
-99.62724547534236
 20
61.38247960682969
 30
0.0
 11
-97.62724547534236
 21
61.38247960682969
 31
0.0
  0
LINE
  5
351
  8
0
  6
CONTINUOUS
 62
     3
 10
-97.62724547534236
 20
-4.11752039317031
 30
0.0
 11
-88.62724547534236
 21
-4.11752039317031
 31
0.0
  0
LINE
  5
352
  8
0
  6
CONTINUOUS
 62
     3
 10
-97.62724547534236
 20
60.88247960682969
 30
0.0
 11
-88.62724547534236
 21
60.88247960682969
 31
0.0
  0
LINE
  5
353
  8
0
  6
CONTINUOUS
 62
     3
 10
-152.744097281983
 20
-8.61752039317031
 30
0.0
 11
-77.24412017016658
 21
-8.61752039317031
 31
0.0
  0
LINE
  5
354
  8
0
  6
CONTINUOUS
 62
     3
 10
-138.6272071000402
 20
64.38240509281553
 30
0.0
 11
-137.6271952488576
 21
65.38241694399807
 31
0.0
  0
LINE
  5
355
  8
0
  6
CONTINUOUS
 62
     3
 10
-88.62721875812332
 20
64.38249140955981
 30
0.0
 11
-89.62721981971282
 21
65.38249247114931
 31
0.0
  0
LINE
  5
356
  8
0
  6
CONTINUOUS
 62
     3
 10
-88.62717020495467
 20
-7.61754726130863
 30
0.0
 11
-89.6271820561372
 21
-8.617559112491165
 31
0.0
  0
LINE
  5
357
  8
0
  6
CONTINUOUS
 62
     3
 10
-138.6271963104471
 20
-7.617531076919079
 30
0.0
 11
-137.6271952488576
 21
-8.61753213850858
 31
0.0
  0
LINE
  5
358
  8
0
  6
CONTINUOUS
 62
     3
 10
-83.74408965258846
 20
135.1824864732848
 30
0.0
 11
-83.74408965258846
 21
125.1824712144957
 31
0.0
  0
LINE
  5
359
  8
0
  6
CONTINUOUS
 62
     3
 10
-88.44414000659236
 20
70.68248647328477
 30
0.0
 11
-88.44414000659236
 21
65.38248342152696
 31
0.0
  0
LINE
  5
35A
  8
0
  6
CONTINUOUS
 62
     3
 10
-95.34410338549861
 20
72.58248036976914
 30
0.0
 11
-95.34410338549861
 21
70.03247731801133
 31
0.0
  0
LINE
  5
35B
  8
0
  6
CONTINUOUS
 62
     3
 10
-95.34410338549861
 20
67.38248342152696
 30
0.0
 11
-88.44410948901424
 21
67.38248342152696
 31
0.0
  0
LINE
  5
35C
  8
0
  6
CONTINUOUS
 62
     3
 10
-77.24412017016658
 20
67.38248342152696
 30
0.0
 11
-74.74412017016658
 21
67.38248342152696
 31
0.0
  0
LINE
  5
35D
  8
0
  6
CONTINUOUS
 62
     3
 10
-90.74412779956111
 20
135.1824864732848
 30
0.0
 11
-90.74412779956111
 21
67.38248342152696
 31
0.0
  0
LINE
  5
35E
  8
0
  6
CONTINUOUS
 62
     3
 10
-87.63841490893611
 20
64.06418126698594
 30
0.0
 11
-77.24412017016658
 21
64.06418126698594
 31
0.0
  0
LINE
  5
35F
  8
0
  6
CONTINUOUS
 62
     3
 10
-170.7441277995611
 20
135.882483421527
 30
0.0
 11
-127.2441583171392
 21
135.882483421527
 31
0.0
  0
LINE
  5
360
  8
0
  6
CONTINUOUS
 62
     3
 10
-89.74412779956111
 20
125.1824712144957
 30
0.0
 11
-74.24410491137752
 21
125.1824712144957
 31
0.0
  0
LINE
  5
361
  8
0
  6
CONTINUOUS
 62
     3
 10
-89.74412779956111
 20
75.18247121449571
 30
0.0
 11
-74.24410491137752
 21
75.18247121449571
 31
0.0
  0
LINE
  5
362
  8
0
  6
CONTINUOUS
 62
     3
 10
-74.24408965258846
 20
125.1824712144957
 30
0.0
 11
-74.24408965258846
 21
120.1824712144957
 31
0.0
  0
LINE
  5
363
  8
0
  6
CONTINUOUS
 62
     3
 10
-83.74408965258846
 20
75.18248647328477
 30
0.0
 11
-83.74408965258846
 21
70.68248647328477
 31
0.0
  0
LINE
  5
364
  8
0
  6
CONTINUOUS
 62
     3
 10
-89.74412779956111
 20
125.1824712144957
 30
0.0
 11
-89.74412779956111
 21
75.18248647328477
 31
0.0
  0
LINE
  5
365
  8
0
  6
CONTINUOUS
 62
     3
 10
-74.24408965258846
 20
110.1824712144957
 30
0.0
 11
-74.24408965258846
 21
90.18247121449571
 31
0.0
  0
LINE
  5
366
  8
0
  6
CONTINUOUS
 62
     3
 10
-74.74408965258846
 20
75.18248647328477
 30
0.0
 11
-74.74408965258846
 21
-77.11751657847304
 31
0.0
  0
LINE
  5
367
  8
0
  6
CONTINUOUS
 62
     3
 10
-74.24408965258846
 20
80.18248647328477
 30
0.0
 11
-74.24408965258846
 21
75.18248647328477
 31
0.0
  0
LINE
  5
368
  8
0
  6
CONTINUOUS
 62
     3
 10
-66.74412017016658
 20
123.1824712144957
 30
0.0
 11
-66.74412017016658
 21
107.1824864732848
 31
0.0
  0
LINE
  5
369
  8
0
  6
CONTINUOUS
 62
     3
 10
-89.74412779956111
 20
110.1824712144957
 30
0.0
 11
-66.74412017016658
 21
110.1824712144957
 31
0.0
  0
LINE
  5
36A
  8
0
  6
CONTINUOUS
 62
     3
 10
-89.74412779956111
 20
120.1824712144957
 30
0.0
 11
-66.74412017016658
 21
120.1824712144957
 31
0.0
  0
LINE
  5
36B
  8
0
  6
CONTINUOUS
 62
     3
 10
-89.74412779956111
 20
90.18247121449571
 30
0.0
 11
-66.74412017016658
 21
90.18247121449571
 31
0.0
  0
LINE
  5
36C
  8
0
  6
CONTINUOUS
 62
     3
 10
-89.74412779956111
 20
80.18247121449571
 30
0.0
 11
-66.74412017016658
 21
80.18247121449571
 31
0.0
  0
LINE
  5
36D
  8
0
  6
CONTINUOUS
 62
     3
 10
-66.74412017016658
 20
93.18248647328477
 30
0.0
 11
-66.74412017016658
 21
77.18248647328477
 31
0.0
  0
LINE
  5
36E
  8
0
  6
CONTINUOUS
 62
     3
 10
-86.74412779956111
 20
120.1824712144957
 30
0.0
 11
-86.74412779956111
 21
110.1824864732848
 31
0.0
  0
LINE
  5
36F
  8
0
  6
CONTINUOUS
 62
     3
 10
-86.74412779956111
 20
90.18248647328477
 30
0.0
 11
-86.74412779956111
 21
80.18248647328477
 31
0.0
  0
LINE
  5
370
  8
0
  6
CONTINUOUS
 62
     3
 10
-127.2441583171392
 20
135.1824712144957
 30
0.0
 11
-75.74412017016658
 21
135.1824712144957
 31
0.0
  0
LINE
  5
371
  8
0
  6
CONTINUOUS
 62
     3
 10
-88.44414000659236
 20
70.68250173207383
 30
0.0
 11
-75.74412017016658
 21
70.68250173207383
 31
0.0
  0
LINE
  5
372
  8
0
  6
CONTINUOUS
 62
     3
 10
-170.7441277995611
 20
135.8824681627379
 30
0.0
 11
-170.7441277995611
 21
-79.11753183726211
 31
0.0
  0
LINE
  5
373
  8
0
  6
CONTINUOUS
 62
     3
 10
-169.7441277995611
 20
120.882483421527
 30
0.0
 11
-169.7441277995611
 21
-64.11751657847304
 31
0.0
  0
LINE
  5
374
  8
0
  6
CONTINUOUS
 62
     3
 10
-152.744097281983
 20
79.44498342152696
 30
0.0
 11
-152.744097281983
 21
-22.68002420786758
 31
0.0
  0
LINE
  5
375
  8
0
  6
CONTINUOUS
 62
     3
 10
-170.7441277995611
 20
120.882483421527
 30
0.0
 11
-169.7441277995611
 21
120.882483421527
 31
0.0
  0
LINE
  5
376
  8
0
  6
CONTINUOUS
 62
     3
 10
-170.7441277995611
 20
-64.11751657847304
 30
0.0
 11
-169.7441277995611
 21
-64.11751657847304
 31
0.0
  0
LINE
  5
377
  8
0
  6
CONTINUOUS
 62
     3
 10
-169.7441355127376
 20
-24.80502166159882
 30
0.0
 11
-152.744138749893
 21
-22.68002704441911
 31
0.0
  0
LINE
  5
378
  8
0
  6
CONTINUOUS
 62
     3
 10
-169.7441225359174
 20
81.57001747295698
 30
0.0
 11
-152.7441560549918
 21
79.44502664100827
 31
0.0
  0
LINE
  5
379
  8
0
  6
CONTINUOUS
 62
     3
 10
-137.6272454753424
 20
53.38247960682969
 30
0.0
 11
-110.6272149577642
 21
53.38247960682969
 31
0.0
  0
LINE
  5
37A
  8
0
  6
CONTINUOUS
 62
     3
 10
-137.6272454753424
 20
3.382479606829691
 30
0.0
 11
-110.6272149577642
 21
3.382479606829691
 31
0.0
  0
LINE
  5
37B
  8
0
  6
CONTINUOUS
 62
     3
 10
-107.6272454753424
 20
-2.86752039317031
 30
0.0
 11
-99.62724547534236
 21
-2.86752039317031
 31
0.0
  0
LINE
  5
37C
  8
0
  6
CONTINUOUS
 62
     3
 10
-109.6272454753424
 20
-3.36752039317031
 30
0.0
 11
-107.6272454753424
 21
-3.36752039317031
 31
0.0
  0
LINE
  5
37D
  8
0
  6
CONTINUOUS
 62
     3
 10
-109.6272454753424
 20
60.13247960682969
 30
0.0
 11
-107.6272454753424
 21
60.13247960682969
 31
0.0
  0
LINE
  5
37E
  8
0
  6
CONTINUOUS
 62
     3
 10
-107.6272454753424
 20
59.63247960682969
 30
0.0
 11
-99.62724547534236
 21
59.63247960682969
 31
0.0
  0
LINE
  5
37F
  8
0
  6
CONTINUOUS
 62
     3
 10
-110.6272863898865
 20
53.38250800832196
 30
0.0
 11
-109.6272999110695
 21
54.38250215779084
 31
0.0
  0
LINE
  5
380
  8
0
  6
CONTINUOUS
 62
     3
 10
-137.6272022251604
 20
53.38249529960962
 30
0.0
 11
-138.6272013479928
 21
54.38249829995624
 31
0.0
  0
LINE
  5
381
  8
0
  6
CONTINUOUS
 62
     3
 10
-110.6271679987047
 20
3.382524743406464
 30
0.0
 11
-109.6271688758723
 21
2.38252174305984
 31
0.0
  0
LINE
  5
382
  8
0
  6
CONTINUOUS
 62
     3
 10
-137.6271634276412
 20
3.382458973775954
 30
0.0
 11
-138.6271668494567
 21
2.382460272412516
 31
0.0
  0
LINE
  5
383
  8
0
  6
CONTINUOUS
 62
     3
 10
-137.6272149577642
 20
53.38247960682969
 30
0.0
 11
-137.6272149577642
 21
46.38247960682969
 31
0.0
  0
LINE
  5
384
  8
0
  6
CONTINUOUS
 62
     3
 10
-110.6272149577642
 20
53.38247960682969
 30
0.0
 11
-110.6272149577642
 21
46.38247960682969
 31
0.0
  0
LINE
  5
385
  8
0
  6
CONTINUOUS
 62
     3
 10
-137.6272149577642
 20
10.38247960682969
 30
0.0
 11
-137.6272149577642
 21
3.382479606829691
 31
0.0
  0
LINE
  5
386
  8
0
  6
CONTINUOUS
 62
     3
 10
-110.6272149577642
 20
10.38247960682969
 30
0.0
 11
-110.6272149577642
 21
3.382479606829691
 31
0.0
  0
LINE
  5
387
  8
0
  6
CONTINUOUS
 62
     3
 10
-97.62724547534236
 20
4.382479606829691
 30
0.0
 11
-88.62724547534236
 21
4.382479606829691
 31
0.0
  0
LINE
  5
388
  8
0
  6
CONTINUOUS
 62
     3
 10
-97.62724547534236
 20
52.38247960682969
 30
0.0
 11
-88.62724547534236
 21
52.38247960682969
 31
0.0
  0
LINE
  5
389
  8
0
  6
CONTINUOUS
 62
     3
 10
-99.62724547534236
 20
5.700718818865823
 30
0.0
 11
-99.62724547534236
 21
-4.61752039317031
 31
0.0
  0
LINE
  5
38A
  8
0
  6
CONTINUOUS
 62
     3
 10
-111.744097281983
 20
-58.11752039317031
 30
0.0
 11
-111.744097281983
 21
-79.11751657847304
 31
0.0
  0
LINE
  5
38B
  8
0
  6
CONTINUOUS
 62
     3
 10
-117.744097281983
 20
-58.11752039317031
 30
0.0
 11
-117.744097281983
 21
-79.11751657847304
 31
0.0
  0
LINE
  5
38C
  8
0
  6
CONTINUOUS
 62
     3
 10
-117.744097281983
 20
-58.11752039317031
 30
0.0
 11
-111.744097281983
 21
-58.11752039317031
 31
0.0
  0
LINE
  5
38D
  8
0
  6
CONTINUOUS
 62
     3
 10
-114.7440966968823
 20
-56.38549064949604
 30
0.0
 11
-111.7440947398061
 21
-58.11754239562293
 31
0.0
  0
LINE
  5
38E
  8
0
  6
CONTINUOUS
 62
     3
 10
-117.7440840038425
 20
-58.11752054917048
 30
0.0
 11
-114.7441018685158
 21
-56.38548024713469
 31
0.0
  0
LINE
  5
38F
  8
0
  6
CONTINUOUS
 62
     3
 10
-97.62724547534236
 20
57.38247960682969
 30
0.0
 11
-88.62724547534236
 21
57.38247960682969
 31
0.0
  0
LINE
  5
390
  8
0
  6
CONTINUOUS
 62
     3
 10
-97.62724547534236
 20
53.38247960682969
 30
0.0
 11
-88.62724547534236
 21
53.38247960682969
 31
0.0
  0
LINE
  5
391
  8
0
  6
CONTINUOUS
 62
     3
 10
-93.62724547534236
 20
57.38247960682969
 30
0.0
 11
-93.62724547534236
 21
53.38247960682969
 31
0.0
  0
LINE
  5
392
  8
0
  6
CONTINUOUS
 62
     3
 10
-89.62724547534236
 20
57.38247960682969
 30
0.0
 11
-89.62724547534236
 21
53.38247960682969
 31
0.0
  0
LINE
  5
393
  8
0
  6
CONTINUOUS
 62
     3
 10
-56.74412017016658
 20
123.1824712144957
 30
0.0
 11
-56.74412017016658
 21
107.1824864732848
 31
0.0
  0
LINE
  5
394
  8
0
  6
CONTINUOUS
 62
     3
 10
-56.74412017016658
 20
93.18248647328477
 30
0.0
 11
-56.74412017016658
 21
77.18248647328477
 31
0.0
  0
LINE
  5
395
  8
0
  6
CONTINUOUS
 62
     3
 10
-66.74412017016658
 20
123.1824712144957
 30
0.0
 11
-56.74411254077204
 21
123.1824712144957
 31
0.0
  0
LINE
  5
396
  8
0
  6
CONTINUOUS
 62
     3
 10
-66.74412017016658
 20
107.1825017320738
 30
0.0
 11
-56.74411254077204
 21
107.1825017320738
 31
0.0
  0
LINE
  5
397
  8
0
  6
CONTINUOUS
 62
     3
 10
-66.74412017016658
 20
77.18247121449571
 30
0.0
 11
-56.74411254077204
 21
77.18247121449571
 31
0.0
  0
LINE
  5
398
  8
0
  6
CONTINUOUS
 62
     3
 10
-66.74412017016658
 20
93.18247121449571
 30
0.0
 11
-56.74411254077204
 21
93.18247121449571
 31
0.0
  0
CIRCLE
  5
399
  8
0
  6
CONTINUOUS
 62
     3
 10
93.22781927072921
 20
75.5288541248739
 30
0.0
 40
7.0
  0
CIRCLE
  5
39A
  8
0
  6
CONTINUOUS
 62
     3
 10
93.22781927072921
 20
75.5288541248739
 30
0.0
 40
10.0
  0
CIRCLE
  5
39B
  8
0
  6
CONTINUOUS
 62
     3
 10
75.97107488596359
 20
45.63926672253015
 30
0.0
 40
7.0
  0
CIRCLE
  5
39C
  8
0
  6
CONTINUOUS
 62
     3
 10
75.97107488596359
 20
45.63923620495203
 30
0.0
 40
10.0
  0
CIRCLE
  5
39D
  8
0
  6
CONTINUOUS
 62
     3
 10
187.5205362507097
 20
75.5288541248739
 30
0.0
 40
7.0
  0
CIRCLE
  5
39E
  8
0
  6
CONTINUOUS
 62
     3
 10
187.5205362507097
 20
75.5288541248739
 30
0.0
 40
10.0
  0
CIRCLE
  5
39F
  8
0
  6
CONTINUOUS
 62
     3
 10
204.7772501178972
 20
45.63926672253015
 30
0.0
 40
7.0
  0
CIRCLE
  5
3A0
  8
0
  6
CONTINUOUS
 62
     3
 10
204.7772501178972
 20
45.63923620495203
 30
0.0
 40
10.0
  0
CIRCLE
  5
3A1
  8
0
  6
CONTINUOUS
 62
     3
 10
157.6309564777605
 20
-36.02061486926672
 30
0.0
 40
10.0
  0
CIRCLE
  5
3A2
  8
0
  6
CONTINUOUS
 62
     3
 10
123.117406673073
 20
-36.02061486926672
 30
0.0
 40
10.0
  0
CIRCLE
  5
3A3
  8
0
  6
CONTINUOUS
 62
     3
 10
123.117406673073
 20
-36.02061486926672
 30
0.0
 40
7.0
  0
LINE
  5
3A4
  8
0
  6
CONTINUOUS
 62
     4
 10
182.3061338667781
 20
13.41068565246556
 30
0.0
 11
186.5561343734176
 21
20.77190145251248
 31
0.0
  0
LINE
  5
3A5
  8
0
  6
CONTINUOUS
 62
     4
 10
170.0561209623712
 20
-7.806956181182471
 30
0.0
 11
174.3061329131038
 21
-0.4457205593874676
 31
0.0
  0
LINE
  5
3A6
  8
0
  6
CONTINUOUS
 62
     4
 10
235.5666914288905
 20
-17.33932462046946
 30
0.0
 11
239.81669193553
 21
-9.978108820422534
 31
0.0
  0
LINE
  5
3A7
  8
0
  6
CONTINUOUS
 62
     4
 10
223.3166823391813
 20
-38.55695984686813
 30
0.0
 11
227.5666904752162
 21
-31.19573083232248
 31
0.0
  0
LINE
  5
3A8
  8
0
  6
CONTINUOUS
 62
     4
 10
222.0176670080631
 20
-37.8069508687332
 30
0.0
 11
226.2676770514468
 21
-30.44571855056287
 31
0.0
  0
LINE
  5
3A9
  8
0
  6
CONTINUOUS
 62
     4
 10
220.7186023597611
 20
-37.05696627530355
 30
0.0
 11
224.9686143104937
 21
-29.69573065350855
 31
0.0
  0
LINE
  5
3AA
  8
0
  6
CONTINUOUS
 62
     4
 10
219.4195832139452
 20
-36.30696390441798
 30
0.0
 11
223.669593257329
 21
-28.94573158624766
 31
0.0
  0
LINE
  5
3AB
  8
0
  6
CONTINUOUS
 62
     4
 10
218.1205129805399
 20
-35.55695846709418
 30
0.0
 11
222.3705211165749
 21
-28.19572945254853
 31
0.0
  0
LINE
  5
3AC
  8
0
  6
CONTINUOUS
 62
     4
 10
234.2676818198189
 20
-16.58930573146049
 30
0.0
 11
238.5176823264584
 21
-9.228089931413564
 31
0.0
  0
LINE
  5
3AD
  8
0
  6
CONTINUOUS
 62
     4
 10
232.9686152641681
 20
-15.83932444165552
 30
0.0
 11
237.2186157708075
 21
-8.4781086416086
 31
0.0
  0
LINE
  5
3AE
  8
0
  6
CONTINUOUS
 62
     4
 10
231.6695942110033
 20
-15.08932537439463
 30
0.0
 11
235.9195947176428
 21
-7.728109574347712
 31
0.0
  0
LINE
  5
3AF
  8
0
  6
CONTINUOUS
 62
     4
 10
230.3705220702492
 20
-14.33932324069551
 30
0.0
 11
234.6205225768887
 21
-6.978107440648586
 31
0.0
  0
LINE
  5
3B0
  8
0
  6
CONTINUOUS
 62
     4
 10
183.6051406832981
 20
12.66067718540367
 30
0.0
 11
187.8551411899376
 21
20.02189298545059
 31
0.0
  0
LINE
  5
3B1
  8
0
  6
CONTINUOUS
 62
     4
 10
184.9042166387499
 20
11.91068165895391
 30
0.0
 11
189.1542171453894
 21
19.27189745900083
 31
0.0
  0
LINE
  5
3B2
  8
0
  6
CONTINUOUS
 62
     4
 10
186.2032925942018
 20
11.16068613250414
 30
0.0
 11
190.4532931008413
 21
18.52190193255106
 31
0.0
  0
LINE
  5
3B3
  8
0
  6
CONTINUOUS
 62
     4
 10
187.502295596024
 20
10.41067105819289
 30
0.0
 11
191.7522961026635
 21
17.77188685823981
 31
0.0
  0
LINE
  5
3B4
  8
0
  6
CONTINUOUS
 62
     4
 10
171.3551315935889
 20
-8.556958040994999
 30
0.0
 11
175.6051397296238
 21
-1.195729026449357
 31
0.0
  0
LINE
  5
3B5
  8
0
  6
CONTINUOUS
 62
     4
 10
172.6542056416919
 20
-9.306956871069446
 30
0.0
 11
176.9042156850756
 21
-1.945724552899122
 31
0.0
  0
LINE
  5
3B6
  8
0
  6
CONTINUOUS
 62
     4
 10
173.9532796897948
 20
-10.05695570114389
 30
0.0
 11
178.2032916405275
 21
-2.695720079348888
 31
0.0
  0
LINE
  5
3B7
  8
0
  6
CONTINUOUS
 62
     4
 10
175.2522884136637
 20
-10.8069608645811
 30
0.0
 11
179.5022984570474
 21
-3.445728546410777
 31
0.0
  0
LINE
  5
3B8
  8
0
  6
CONTINUOUS
 62
     4
 10
123.8741690337984
 20
72.18247961315515
 30
0.0
 11
132.3741690337984
 21
72.18247961315515
 31
0.0
  0
LINE
  5
3B9
  8
0
  6
CONTINUOUS
 62
     4
 10
148.3741690337984
 20
72.18247961315515
 30
0.0
 11
156.8741690337984
 21
72.18247961315515
 31
0.0
  0
LINE
  5
3BA
  8
0
  6
CONTINUOUS
 62
     4
 10
123.8741690337984
 20
73.68247961315515
 30
0.0
 11
132.3741690337984
 21
73.68247961315515
 31
0.0
  0
LINE
  5
3BB
  8
0
  6
CONTINUOUS
 62
     4
 10
123.8741690337984
 20
75.18247961315515
 30
0.0
 11
132.3741690337984
 21
75.18247961315515
 31
0.0
  0
LINE
  5
3BC
  8
0
  6
CONTINUOUS
 62
     4
 10
123.8741690337984
 20
76.68247961315515
 30
0.0
 11
132.3741690337984
 21
76.68247961315515
 31
0.0
  0
LINE
  5
3BD
  8
0
  6
CONTINUOUS
 62
     4
 10
123.8741690337984
 20
78.18247961315515
 30
0.0
 11
132.3741690337984
 21
78.18247961315515
 31
0.0
  0
LINE
  5
3BE
  8
0
  6
CONTINUOUS
 62
     4
 10
148.3741690337984
 20
73.68247961315515
 30
0.0
 11
156.8741690337984
 21
73.68247961315515
 31
0.0
  0
LINE
  5
3BF
  8
0
  6
CONTINUOUS
 62
     4
 10
148.3741690337984
 20
75.18247961315515
 30
0.0
 11
156.8741690337984
 21
75.18247961315515
 31
0.0
  0
LINE
  5
3C0
  8
0
  6
CONTINUOUS
 62
     4
 10
148.3741690337984
 20
76.68247961315515
 30
0.0
 11
156.8741690337984
 21
76.68247961315515
 31
0.0
  0
LINE
  5
3C1
  8
0
  6
CONTINUOUS
 62
     4
 10
148.3741690337984
 20
78.18247961315515
 30
0.0
 11
156.8741690337984
 21
78.18247961315515
 31
0.0
  0
LINE
  5
3C2
  8
0
  6
CONTINUOUS
 62
     4
 10
148.3741690337984
 20
132.1824796131552
 30
0.0
 11
156.8741690337984
 21
132.1824796131552
 31
0.0
  0
LINE
  5
3C3
  8
0
  6
CONTINUOUS
 62
     4
 10
148.3741690337984
 20
130.6824796131552
 30
0.0
 11
156.8741690337984
 21
130.6824796131552
 31
0.0
  0
LINE
  5
3C4
  8
0
  6
CONTINUOUS
 62
     4
 10
148.3741690337984
 20
129.1824796131552
 30
0.0
 11
156.8741690337984
 21
129.1824796131552
 31
0.0
  0
LINE
  5
3C5
  8
0
  6
CONTINUOUS
 62
     4
 10
148.3741690337984
 20
127.6824796131552
 30
0.0
 11
156.8741690337984
 21
127.6824796131552
 31
0.0
  0
LINE
  5
3C6
  8
0
  6
CONTINUOUS
 62
     4
 10
123.8741690337984
 20
132.1824796131552
 30
0.0
 11
132.3741690337984
 21
132.1824796131552
 31
0.0
  0
LINE
  5
3C7
  8
0
  6
CONTINUOUS
 62
     4
 10
123.8741690337984
 20
130.6824796131552
 30
0.0
 11
132.3741690337984
 21
130.6824796131552
 31
0.0
  0
LINE
  5
3C8
  8
0
  6
CONTINUOUS
 62
     4
 10
123.8741690337984
 20
129.1824796131552
 30
0.0
 11
132.3741690337984
 21
129.1824796131552
 31
0.0
  0
LINE
  5
3C9
  8
0
  6
CONTINUOUS
 62
     4
 10
123.8741690337984
 20
127.6824796131552
 30
0.0
 11
132.3741690337984
 21
127.6824796131552
 31
0.0
  0
CIRCLE
  5
3CA
  8
0
  6
CONTINUOUS
 62
     4
 10
140.3741690337984
 20
-16.6175081798136
 30
0.0
 40
3.349999904632568
  0
CIRCLE
  5
3CB
  8
0
  6
CONTINUOUS
 62
     4
 10
140.3741690337984
 20
-16.6175081798136
 30
0.0
 40
4.0
  0
CIRCLE
  5
3CC
  8
0
  6
CONTINUOUS
 62
     4
 10
140.3741690337984
 20
28.3824918201864
 30
0.0
 40
32.5
  0
CIRCLE
  5
3CD
  8
0
  6
CONTINUOUS
 62
     4
 10
179.3453070342867
 20
50.8824918201864
 30
0.0
 40
3.349999904632568
  0
CIRCLE
  5
3CE
  8
0
  6
CONTINUOUS
 62
     4
 10
101.4030386627047
 20
50.8824918201864
 30
0.0
 40
3.349999904632568
  0
CIRCLE
  5
3CF
  8
0
  6
CONTINUOUS
 62
     4
 10
101.4030386627047
 20
50.8824918201864
 30
0.0
 40
4.0
  0
CIRCLE
  5
3D0
  8
0
  6
CONTINUOUS
 62
     4
 10
179.3453070342867
 20
50.8824918201864
 30
0.0
 40
4.0
  0
CIRCLE
  5
3D1
  8
0
  6
CONTINUOUS
 62
     4
 10
140.3741690337984
 20
55.3824918201864
 30
0.0
 40
2.0
  0
CIRCLE
  5
3D2
  8
0
  6
CONTINUOUS
 62
     4
 10
140.3741690337984
 20
55.3824918201864
 30
0.0
 40
1.5
  0
CIRCLE
  5
3D3
  8
0
  6
CONTINUOUS
 62
     4
 10
116.9914862335055
 20
14.8824918201864
 30
0.0
 40
1.5
  0
CIRCLE
  5
3D4
  8
0
  6
CONTINUOUS
 62
     4
 10
116.9914862335055
 20
14.8824918201864
 30
0.0
 40
2.0
  0
CIRCLE
  5
3D5
  8
0
  6
CONTINUOUS
 62
     4
 10
163.7568518340914
 20
14.8824918201864
 30
0.0
 40
1.5
  0
CIRCLE
  5
3D6
  8
0
  6
CONTINUOUS
 62
     4
 10
163.7568518340914
 20
14.8824918201864
 30
0.0
 40
2.0
  0
LINE
  5
3D7
  8
0
  6
CONTINUOUS
 62
     4
 10
148.3741690337984
 20
133.6824796131552
 30
0.0
 11
156.8741690337984
 21
133.6824796131552
 31
0.0
  0
LINE
  5
3D8
  8
0
  6
CONTINUOUS
 62
     4
 10
123.8741690337984
 20
133.6824796131552
 30
0.0
 11
132.3741690337984
 21
133.6824796131552
 31
0.0
  0
LINE
  5
3D9
  8
0
  6
CONTINUOUS
 62
     4
 10
30.287069830619
 20
-85.97210634898981
 30
0.0
 11
37.32001567380384
 21
-82.15352848313931
 31
0.0
  0
LINE
  5
3DA
  8
0
  6
CONTINUOUS
 62
     4
 10
26.29655690439952
 20
-79.06033281670356
 30
0.0
 11
33.12001508749429
 21
-74.87891233709404
 31
0.0
  0
LINE
  5
3DB
  8
0
  6
CONTINUOUS
 62
     4
 10
-89.74412779956111
 20
-20.61752039317031
 30
0.0
 11
-74.74412017016658
 21
-20.61752039317031
 31
0.0
  0
LINE
  5
3DC
  8
0
  6
CONTINUOUS
 62
     4
 10
-89.74412779956111
 20
-12.61752039317031
 30
0.0
 11
-74.74412017016658
 21
-12.61752039317031
 31
0.0
  0
LINE
  5
3DD
  8
0
  6
CONTINUOUS
 62
     4
 10
-89.74412779956111
 20
-12.61752039317031
 30
0.0
 11
-89.74412779956111
 21
-20.61752039317031
 31
0.0
  0
LINE
  5
3DE
  8
0
  6
CONTINUOUS
 62
     4
 10
-97.62724547534236
 20
-3.44094568613906
 30
0.0
 11
-88.62724547534236
 21
-3.44094568613906
 31
0.0
  0
LINE
  5
3DF
  8
0
  6
CONTINUOUS
 62
     4
 10
-97.62724547534236
 20
60.20590489979844
 30
0.0
 11
-88.62724547534236
 21
60.20590489979844
 31
0.0
  0
LINE
  5
3E0
  8
0
  6
CONTINUOUS
 62
     4
 10
-75.74412017016658
 20
135.1824864732848
 30
0.0
 11
-75.74412017016658
 21
125.1824712144957
 31
0.0
  0
LINE
  5
3E1
  8
0
  6
CONTINUOUS
 62
     4
 10
-76.74412017016658
 20
135.1824864732848
 30
0.0
 11
-76.74412017016658
 21
125.1824712144957
 31
0.0
  0
LINE
  5
3E2
  8
0
  6
CONTINUOUS
 62
     4
 10
-76.74412017016658
 20
75.18248647328477
 30
0.0
 11
-76.74412017016658
 21
70.68248647328477
 31
0.0
  0
LINE
  5
3E3
  8
0
  6
CONTINUOUS
 62
     4
 10
-75.74412017016658
 20
75.18248647328477
 30
0.0
 11
-75.74412017016658
 21
70.68248647328477
 31
0.0
  0
LINE
  5
3E4
  8
0
  6
CONTINUOUS
 62
     4
 10
-89.74412779956111
 20
81.03250783558946
 30
0.0
 11
-66.74412017016658
 21
81.03250783558946
 31
0.0
  0
LINE
  5
3E5
  8
0
  6
CONTINUOUS
 62
     4
 10
-89.74412779956111
 20
89.33249562855821
 30
0.0
 11
-66.74412017016658
 21
89.33249562855821
 31
0.0
  0
LINE
  5
3E6
  8
0
  6
CONTINUOUS
 62
     4
 10
-89.74412779956111
 20
111.0325078355895
 30
0.0
 11
-66.74412017016658
 21
111.0325078355895
 31
0.0
  0
LINE
  5
3E7
  8
0
  6
CONTINUOUS
 62
     4
 10
-89.74412779956111
 20
119.3324651109801
 30
0.0
 11
-66.74412017016658
 21
119.3324651109801
 31
0.0
  0
LINE
  5
3E8
  8
0
  6
CONTINUOUS
 62
     4
 10
-65.74414043446137
 20
83.02782569854941
 30
0.0
 11
-63.74414573699374
 21
84.18252304793697
 31
0.0
  0
LINE
  5
3E9
  8
0
  6
CONTINUOUS
 62
     4
 10
-65.7441288983303
 20
113.0278546773018
 30
0.0
 11
-63.74413750448758
 21
114.1825501193409
 31
0.0
  0
LINE
  5
3EA
  8
0
  6
CONTINUOUS
 62
     4
 10
-65.74411253649731
 20
109.5637095597198
 30
0.0
 11
-63.35181238122157
 21
108.1825145736861
 31
0.0
  0
LINE
  5
3EB
  8
0
  6
CONTINUOUS
 62
     4
 10
-65.74412926824402
 20
79.56370791351486
 30
0.0
 11
-63.35181589846865
 21
78.18250529808705
 31
0.0
  0
LINE
  5
3EC
  8
0
  6
CONTINUOUS
 62
     4
 10
-110.744097281983
 20
-63.11751657847304
 30
0.0
 11
-110.744097281983
 21
-79.11751657847304
 31
0.0
  0
LINE
  5
3ED
  8
0
  6
CONTINUOUS
 62
     4
 10
-118.744097281983
 20
-63.11751657847304
 30
0.0
 11
-118.744097281983
 21
-79.11751657847304
 31
0.0
  0
LINE
  5
3EE
  8
0
  6
CONTINUOUS
 62
     4
 10
-118.744097281983
 20
-63.11751657847304
 30
0.0
 11
-110.744097281983
 21
-63.11751657847304
 31
0.0
  0
LINE
  5
3EF
  8
0
  6
CONTINUOUS
 62
     4
 10
-97.62724547534236
 20
56.88247960682969
 30
0.0
 11
-88.62724547534236
 21
56.88247960682969
 31
0.0
  0
LINE
  5
3F0
  8
0
  6
CONTINUOUS
 62
     4
 10
-97.62724547534236
 20
53.88247960682969
 30
0.0
 11
-88.62724547534236
 21
53.88247960682969
 31
0.0
  0
LINE
  5
3F1
  8
0
  6
CONTINUOUS
 62
     4
 10
-61.74411755601812
 20
84.18248370814212
 30
0.0
 11
-57.7441017320836
 21
81.87307375057884
 31
0.0
  0
LINE
  5
3F2
  8
0
  6
CONTINUOUS
 62
     4
 10
-61.74411104080826
 20
114.182528693947
 30
0.0
 11
-57.744121645873
 21
111.8731339951718
 31
0.0
  0
LINE
  5
3F3
  8
0
  6
CONTINUOUS
 62
     4
 10
-59.74412079611152
 20
84.18249891584441
 30
0.0
 11
-57.74411949139408
 21
83.02779775175981
 31
0.0
  0
LINE
  5
3F4
  8
0
  6
CONTINUOUS
 62
     4
 10
-59.74412204723574
 20
114.1824999323812
 30
0.0
 11
-57.7441207425183
 21
113.0277987682966
 31
0.0
  0
LINE
  5
3F5
  8
0
  6
CONTINUOUS
 62
     4
 10
-62.13644048984343
 20
108.1825511209282
 30
0.0
 11
-57.74413242260044
 21
110.7184510857435
 31
0.0
  0
LINE
  5
3F6
  8
0
  6
CONTINUOUS
 62
     4
 10
-60.13645936285712
 20
108.182540102055
 30
0.0
 11
-57.74414599308175
 21
109.5637427174829
 31
0.0
  0
LINE
  5
3F7
  8
0
  6
CONTINUOUS
 62
     4
 10
-62.13645304811876
 20
78.18253917137241
 30
0.0
 11
-57.74414167725086
 21
80.7184410435363
 31
0.0
  0
LINE
  5
3F8
  8
0
  6
CONTINUOUS
 62
     4
 10
-60.13644549213318
 20
78.18254341128744
 30
0.0
 11
-57.74413212235782
 21
79.56374602671525
 31
0.0
  0
LINE
  5
3F9
  8
0
  6
CONTINUOUS
 62
     4
 10
-65.74412036558152
 20
111.8731766896775
 30
0.0
 11
-61.74412766702135
 21
114.1825732958011
 31
0.0
  0
LINE
  5
3FA
  8
0
  6
CONTINUOUS
 62
     4
 10
-65.74412352405426
 20
81.87317897676559
 30
0.0
 11
-61.74412091461937
 21
84.18258130493479
 31
0.0
  0
LINE
  5
3FB
  8
0
  6
CONTINUOUS
 62
     4
 10
-65.74413063243793
 20
110.7184702287653
 30
0.0
 11
-59.74413993278522
 21
114.182566091625
 31
0.0
  0
LINE
  5
3FC
  8
0
  6
CONTINUOUS
 62
     4
 10
-65.74412768479471
 20
109.5637713972472
 30
0.0
 11
-57.74412246592492
 21
114.1825760535856
 31
0.0
  0
LINE
  5
3FD
  8
0
  6
CONTINUOUS
 62
     4
 10
-65.74413032225704
 20
108.4090517218354
 30
0.0
 11
-57.74412840701216
 21
113.0278544708253
 31
0.0
  0
LINE
  5
3FE
  8
0
  6
CONTINUOUS
 62
     4
 10
-64.13645134945392
 20
108.1825449736646
 30
0.0
 11
-57.74413206661875
 21
111.8731518246102
 31
0.0
  0
LINE
  5
3FF
  8
0
  6
CONTINUOUS
 62
     4
 10
-63.74412101521448
 20
114.1825211156387
 30
0.0
 11
-57.74413031556178
 21
110.718425252779
 31
0.0
  0
LINE
  5
400
  8
0
  6
CONTINUOUS
 62
     4
 10
-65.74412336022664
 20
114.1825267518302
 30
0.0
 11
-57.74411814135686
 21
109.5637220954918
 31
0.0
  0
LINE
  5
401
  8
0
  6
CONTINUOUS
 62
     4
 10
-65.74411309337023
 20
113.027820290918
 30
0.0
 11
-57.74410787450045
 21
108.4090156345796
 31
0.0
  0
LINE
  5
402
  8
0
  6
CONTINUOUS
 62
     4
 10
-65.74413497755865
 20
111.8731191779193
 30
0.0
 11
-59.35183221284802
 21
108.1825218637163
 31
0.0
  0
LINE
  5
403
  8
0
  6
CONTINUOUS
 62
     4
 10
-65.74413601785335
 20
110.7184236500261
 30
0.0
 11
-61.35183455786017
 21
108.1825274999077
 31
0.0
  0
LINE
  5
404
  8
0
  6
CONTINUOUS
 62
     4
 10
-65.74412667258872
 20
80.71846781595212
 30
0.0
 11
-59.7441293656862
 21
84.18256749350888
 31
0.0
  0
LINE
  5
405
  8
0
  6
CONTINUOUS
 62
     4
 10
-65.74412651749827
 20
79.56375856248718
 30
0.0
 11
-57.74411799500359
 21
84.1825651261741
 31
0.0
  0
LINE
  5
406
  8
0
  6
CONTINUOUS
 62
     4
 10
-65.7441212883744
 20
78.40907866751428
 30
0.0
 11
-57.74412928400425
 21
83.0278756944586
 31
0.0
  0
LINE
  5
407
  8
0
  6
CONTINUOUS
 62
     4
 10
-64.13645730047944
 20
78.1825368388059
 30
0.0
 11
-57.74413801764427
 21
81.87314368975143
 31
0.0
  0
LINE
  5
408
  8
0
  6
CONTINUOUS
 62
     4
 10
-63.7441331155299
 20
84.18249697372761
 30
0.0
 11
-57.74412920137757
 21
80.71839348147381
 31
0.0
  0
LINE
  5
409
  8
0
  6
CONTINUOUS
 62
     4
 10
-65.74412796808798
 20
84.18248506965023
 30
0.0
 11
-57.74411614196838
 21
79.56367659861479
 31
0.0
  0
LINE
  5
40A
  8
0
  6
CONTINUOUS
 62
     4
 10
-65.74411579388305
 20
83.02778191236297
 30
0.0
 11
-57.74412378951291
 21
78.40898488541865
 31
0.0
  0
LINE
  5
40B
  8
0
  6
CONTINUOUS
 62
     4
 10
-65.74412146560906
 20
81.87310888017595
 30
0.0
 11
-59.35181870089843
 21
78.18251156597302
 31
0.0
  0
LINE
  5
40C
  8
0
  6
CONTINUOUS
 62
     4
 10
-65.74412536692654
 20
80.71840839684541
 30
0.0
 11
-61.35179747793409
 21
78.18249698793892
 31
0.0
  0
ARC
  5
40D
  8
0
  6
CONTINUOUS
 62
     4
 10
140.3741815754167
 20
28.3824918201864
 30
0.0
 40
66.0
 50
147.9018725139399
 51
152.1471492718047
  0
ARC
  5
40E
  8
0
  6
CONTINUOUS
 62
     4
 10
140.3741815754167
 20
28.3824918201864
 30
0.0
 40
66.0
 50
27.4017746764384
 51
32.42009395211248
  0
ARC
  5
40F
  8
0
  6
CONTINUOUS
 62
     4
 10
140.3741815754167
 20
28.3824918201864
 30
0.0
 40
54.0
 50
108.9095041650635
 51
191.0904700322512
  0
ARC
  5
410
  8
0
  6
CONTINUOUS
 62
     4
 10
140.3741815754167
 20
28.3824918201864
 30
0.0
 40
72.0
 50
142.6794279122781
 51
157.3914777995672
  0
ARC
  5
411
  8
0
  6
CONTINUOUS
 62
     4
 10
140.3741815754167
 20
28.3824918201864
 30
0.0
 40
60.0
 50
143.0088206151912
 51
157.2610894883116
  0
ARC
  5
412
  8
0
  6
CONTINUOUS
 62
     4
 10
140.3741815754167
 20
28.3824918201864
 30
0.0
 40
60.0
 50
106.9577776097324
 51
127.5576896181934
  0
ARC
  5
413
  8
0
  6
CONTINUOUS
 62
     4
 10
140.3741815754167
 20
28.3824918201864
 30
0.0
 40
66.0
 50
105.3759740998491
 51
121.9959348789437
  0
ARC
  5
414
  8
0
  6
CONTINUOUS
 62
     4
 10
140.3741815754167
 20
28.3824918201864
 30
0.0
 40
72.0
 50
104.0669683454162
 51
127.5692189775124
  0
ARC
  5
415
  8
0
  6
CONTINUOUS
 62
     4
 10
140.3741815754167
 20
28.3824918201864
 30
0.0
 40
42.0
 50
114.6243302738024
 51
146.512557395246
  0
ARC
  5
416
  8
0
  6
CONTINUOUS
 62
     4
 10
140.3741815754167
 20
28.3824918201864
 30
0.0
 40
48.0
 50
111.3819575125273
 51
146.737858015208
  0
ARC
  5
417
  8
0
  6
CONTINUOUS
 62
     4
 10
140.3741815754167
 20
28.3824918201864
 30
0.0
 40
72.0
 50
172.9038892537983
 51
195.9330058518985
  0
ARC
  5
418
  8
0
  6
CONTINUOUS
 62
     4
 10
140.3741815754167
 20
28.3824918201864
 30
0.0
 40
60.0
 50
172.790986226818
 51
193.0421965875823
  0
ARC
  5
419
  8
0
  6
CONTINUOUS
 62
     4
 10
140.3741815754167
 20
28.3824918201864
 30
0.0
 40
48.0
 50
153.2621503330526
 51
188.6180235149766
  0
ARC
  5
41A
  8
0
  6
CONTINUOUS
 62
     4
 10
140.3741815754167
 20
28.3824918201864
 30
0.0
 40
42.0
 50
153.4874509530146
 51
185.3756370933232
  0
ARC
  5
41B
  8
0
  6
CONTINUOUS
 62
     4
 10
140.3741815754167
 20
28.3824918201864
 30
0.0
 40
66.0
 50
177.992147959026
 51
194.6240000974655
  0
ARC
  5
41C
  8
0
  6
CONTINUOUS
 62
     4
 10
140.3741815754167
 20
28.3824918201864
 30
0.0
 40
72.0
 50
52.71851458041994
 51
75.93305032391848
  0
ARC
  5
41D
  8
0
  6
CONTINUOUS
 62
     4
 10
140.3741815754167
 20
28.3824918201864
 30
0.0
 40
66.0
 50
57.76611999970774
 51
74.62404456948555
  0
ARC
  5
41E
  8
0
  6
CONTINUOUS
 62
     4
 10
140.3741815754167
 20
28.3824918201864
 30
0.0
 40
60.0
 50
52.48380878997079
 51
73.04224105960229
  0
ARC
  5
41F
  8
0
  6
CONTINUOUS
 62
     4
 10
140.3741815754167
 20
28.3824918201864
 30
0.0
 40
54.0
 50
348.9094905804756
 51
431.0905145042711
  0
ARC
  5
420
  8
0
  6
CONTINUOUS
 62
     4
 10
140.3741815754167
 20
28.3824918201864
 30
0.0
 40
48.0
 50
33.2621538239375
 51
68.6180611568074
  0
ARC
  5
421
  8
0
  6
CONTINUOUS
 62
     4
 10
140.3741815754167
 20
28.3824918201864
 30
0.0
 40
42.0
 50
33.48744078352121
 51
65.37568156534314
  0
ARC
  5
422
  8
0
  6
CONTINUOUS
 62
     4
 10
140.3741815754167
 20
28.3824918201864
 30
0.0
 40
60.0
 50
22.50849738144704
 51
37.5234098093655
  0
ARC
  5
423
  8
0
  6
CONTINUOUS
 62
     4
 10
140.3741815754167
 20
28.3824918201864
 30
0.0
 40
72.0
 50
22.77198046641674
 51
37.12413061086489
  0
ARC
  5
424
  8
0
  6
CONTINUOUS
 62
     4
 10
140.3741815754167
 20
28.3824918201864
 30
0.0
 40
60.0
 50
346.9577657326917
 51
367.3811813841313
  0
ARC
  5
425
  8
0
  6
CONTINUOUS
 62
     4
 10
140.3741815754167
 20
28.3824918201864
 30
0.0
 40
72.0
 50
344.0669547608282
 51
366.9435656144799
  0
ARC
  5
426
  8
0
  6
CONTINUOUS
 62
     4
 10
140.3741815754167
 20
28.3824918201864
 30
0.0
 40
48.0
 50
351.381944781713
 51
386.7378512608092
  0
ARC
  5
427
  8
0
  6
CONTINUOUS
 62
     4
 10
140.3741815754167
 20
28.3824918201864
 30
0.0
 40
42.0
 50
354.6243209580826
 51
386.5125608861309
  0
ARC
  5
428
  8
0
  6
CONTINUOUS
 62
     4
 10
140.3741815754167
 20
28.3824918201864
 30
0.0
 40
66.0
 50
345.3759588077139
 51
361.6508721970394
  0
ARC
  5
429
  8
0
  6
CONTINUOUS
 62
     4
 10
140.3741815754167
 20
28.3824918201864
 30
0.0
 40
48.0
 50
273.2621504846333
 51
308.6180578175032
  0
ARC
  5
42A
  8
0
  6
CONTINUOUS
 62
     4
 10
140.3741815754167
 20
28.3824918201864
 30
0.0
 40
54.0
 50
228.9094633355092
 51
311.0905145800615
  0
ARC
  5
42B
  8
0
  6
CONTINUOUS
 62
     4
 10
140.3741815754167
 20
28.3824918201864
 30
0.0
 40
60.0
 50
291.7490888318375
 51
313.0422377202981
  0
ARC
  5
42C
  8
0
  6
CONTINUOUS
 62
     4
 10
140.3741815754167
 20
28.3824918201864
 30
0.0
 40
66.0
 50
293.6255671930826
 51
314.6240446452759
  0
ARC
  5
42D
  8
0
  6
CONTINUOUS
 62
     4
 10
140.3741815754167
 20
28.3824918201864
 30
0.0
 40
72.0
 50
292.0038412275006
 51
315.9330469846142
  0
ARC
  5
42E
  8
0
  6
CONTINUOUS
 62
     4
 10
140.3741815754167
 20
28.3824918201864
 30
0.0
 40
72.0
 50
262.0038267322962
 51
277.9961545983691
  0
ARC
  5
42F
  8
0
  6
CONTINUOUS
 62
     4
 10
140.3741815754167
 20
28.3824918201864
 30
0.0
 40
66.0
 50
263.625545867689
 51
276.3744286327872
  0
ARC
  5
430
  8
0
  6
CONTINUOUS
 62
     4
 10
140.3741815754167
 20
28.3824918201864
 30
0.0
 40
60.0
 50
261.7490675064439
 51
278.2509069940323
  0
ARC
  5
431
  8
0
  6
CONTINUOUS
 62
     4
 10
140.3741815754167
 20
28.3824918201864
 30
0.0
 40
48.0
 50
231.3819235131622
 51
266.7378308460321
  0
ARC
  5
432
  8
0
  6
CONTINUOUS
 62
     4
 10
140.3741815754167
 20
28.3824918201864
 30
0.0
 40
42.0
 50
234.6242962744372
 51
266.51253022607
  0
ARC
  5
433
  8
0
  6
CONTINUOUS
 62
     4
 10
140.3741815754167
 20
28.3824918201864
 30
0.0
 40
60.0
 50
226.9577367801781
 51
248.2508924988279
  0
ARC
  5
434
  8
0
  6
CONTINUOUS
 62
     4
 10
140.3741815754167
 20
28.3824918201864
 30
0.0
 40
66.0
 50
225.3759332702948
 51
246.3744141375827
  0
ARC
  5
435
  8
0
  6
CONTINUOUS
 62
     4
 10
140.3741815754167
 20
28.3824918201864
 30
0.0
 40
72.0
 50
224.0669275158619
 51
247.9961332729756
  0
ARC
  5
436
  8
0
  6
CONTINUOUS
 62
     4
 10
140.3741815754167
 20
28.3824918201864
 30
0.0
 40
42.0
 50
273.4874511045953
 51
305.3756850562281
  0
LINE
  5
437
  8
0
  6
CONTINUOUS
 62
     2
 10
140.3741712286184
 20
89.88247877119616
 30
0.0
 11
136.3038388110046
 21
87.53247700989019
 31
0.0
  0
LINE
  5
438
  8
0
  6
CONTINUOUS
 62
     2
 10
136.3038565337984
 20
87.53248571667078
 30
0.0
 11
136.3038565337984
 21
82.83248876842859
 31
0.0
  0
LINE
  5
439
  8
0
  6
CONTINUOUS
 62
     2
 10
136.3038393770777
 20
82.83246283237637
 30
0.0
 11
140.3741540979182
 21
80.48246099655549
 31
0.0
  0
LINE
  5
43A
  8
0
  6
CONTINUOUS
 62
     2
 10
140.374155367018
 20
80.48249770691851
 30
0.0
 11
144.4444877846318
 21
82.83249960829576
 31
0.0
  0
LINE
  5
43B
  8
0
  6
CONTINUOUS
 62
     2
 10
144.4444815337984
 20
82.83248113903406
 30
0.0
 11
144.4444815337984
 21
87.53247808727625
 31
0.0
  0
LINE
  5
43C
  8
0
  6
CONTINUOUS
 62
     2
 10
144.4444925882063
 20
87.53245660483131
 30
0.0
 11
140.3741789879324
 21
89.88246068178538
 31
0.0
  0
LINE
  5
43D
  8
0
  6
CONTINUOUS
 62
     2
 10
140.374182970697
 20
119.8824826985939
 30
0.0
 11
136.3038505530832
 21
117.5324809372879
 31
0.0
  0
LINE
  5
43E
  8
0
  6
CONTINUOUS
 62
     2
 10
136.3038565337984
 20
117.5324857166708
 30
0.0
 11
136.3038565337984
 21
112.8324887684286
 31
0.0
  0
LINE
  5
43F
  8
0
  6
CONTINUOUS
 62
     2
 10
136.3038572618217
 20
112.8324536789975
 30
0.0
 11
140.3741719826622
 21
110.4824518431766
 31
0.0
  0
LINE
  5
440
  8
0
  6
CONTINUOUS
 62
     2
 10
140.3741653811365
 20
110.482503733164
 30
0.0
 11
144.4444977987504
 21
112.8325056345413
 31
0.0
  0
LINE
  5
441
  8
0
  6
CONTINUOUS
 62
     2
 10
144.4444815337984
 20
112.8324811390341
 30
0.0
 11
144.4444815337984
 21
117.5324780872763
 31
0.0
  0
LINE
  5
442
  8
0
  6
CONTINUOUS
 62
     2
 10
144.4444726762523
 20
117.5324354007036
 30
0.0
 11
140.3741557723562
 21
119.8824413850108
 31
0.0
  0
CIRCLE
  5
443
  8
0
  6
CONTINUOUS
 62
     2
 10
140.3741690337984
 20
85.18247961315515
 30
0.0
 40
8.0
  0
CIRCLE
  5
444
  8
0
  6
CONTINUOUS
 62
     2
 10
140.3741690337984
 20
115.1824796131552
 30
0.0
 40
8.0
  0
LINE
  5
445
  8
0
  6
CONTINUOUS
 62
     2
 10
152.5646766180837
 20
-33.09560909042907
 30
0.0
 11
157.6309335632797
 21
-30.17061126898429
 31
0.0
  0
LINE
  5
446
  8
0
  6
CONTINUOUS
 62
     2
 10
157.6309394130189
 20
-30.17062481877392
 30
0.0
 11
162.6971890357767
 21
-33.09563519296998
 31
0.0
  0
LINE
  5
447
  8
0
  6
CONTINUOUS
 62
     2
 10
162.6971743515312
 20
-38.94561868654077
 30
0.0
 11
157.6309174063351
 21
-41.87061650798555
 31
0.0
  0
LINE
  5
448
  8
0
  6
CONTINUOUS
 62
     2
 10
157.6309194023581
 20
-41.87062762388618
 30
0.0
 11
152.5646680361626
 21
-38.94562038787794
 31
0.0
  0
LINE
  5
449
  8
0
  6
CONTINUOUS
 62
     2
 10
162.6971796222917
 20
-33.09562707629797
 30
0.0
 11
162.6971796222917
 21
-38.94562555041907
 31
0.0
  0
LINE
  5
44A
  8
0
  6
CONTINUOUS
 62
     2
 10
152.564672298073
 20
-38.94561410632727
 30
0.0
 11
152.564672298073
 21
-33.09561563220618
 31
0.0
  0
CIRCLE
  5
44B
  8
0
  6
CONTINUOUS
 62
     2
 10
157.6308954426042
 20
-36.02061486926672
 30
0.0
 40
9.0
  0
LINE
  5
44C
  8
0
  6
CONTINUOUS
 62
     5
 10
214.1659891911005
 20
87.53204811572854
 30
0.0
 11
210.4159890718912
 21
94.02723873401119
 31
0.0
  0
LINE
  5
44D
  8
0
  6
CONTINUOUS
 62
     5
 10
208.0457987792944
 20
83.13252907454793
 30
0.0
 11
210.2957987792944
 21
79.23541482746427
 31
0.0
  0
LINE
  5
44E
  8
0
  6
CONTINUOUS
 62
     5
 10
210.2957762535317
 20
79.23543052285018
 30
0.0
 11
209.2712487405025
 21
79.50995184489071
 31
0.0
  0
LINE
  5
44F
  8
0
  6
CONTINUOUS
 62
     5
 10
210.2958395432221
 20
79.23540100253572
 30
0.0
 11
210.5703607704314
 21
80.25992857878569
 31
0.0
  0
LINE
  5
450
  8
0
  6
CONTINUOUS
 62
     5
 10
207.7713100584861
 20
82.10800114854069
 30
0.0
 11
208.0458312856955
 21
83.13252872479066
 31
0.0
  0
LINE
  5
451
  8
0
  6
CONTINUOUS
 62
     5
 10
209.0702940085554
 20
82.85802964846621
 30
0.0
 11
208.0457812343844
 21
83.13254702124155
 31
0.0
  0
LINE
  5
452
  8
0
  6
CONTINUOUS
 62
     5
 10
201.1755800311422
 20
80.03203616056416
 30
0.0
 11
214.1659608547544
 21
87.53203616056416
 31
0.0
  0
LINE
  5
453
  8
0
  6
CONTINUOUS
 62
     5
 10
201.1755951529895
 20
80.03204048633401
 30
0.0
 11
195.5505931264316
 21
89.77482961414439
 31
0.0
  0
LINE
  5
454
  8
0
  6
CONTINUOUS
 62
     5
 10
195.5505931264316
 20
89.77482961414439
 30
0.0
 11
197.4991502499734
 21
90.89982961414439
 31
0.0
  0
LINE
  5
455
  8
0
  6
CONTINUOUS
 62
     5
 10
202.0961624004031
 20
91.93762139054721
 30
0.0
 11
202.3706836276125
 21
92.96214896679717
 31
0.0
  0
LINE
  5
456
  8
0
  6
CONTINUOUS
 62
     5
 10
202.3706406961447
 20
92.96218961072569
 30
0.0
 11
201.3461205525447
 21
93.23670895813362
 31
0.0
  0
LINE
  5
457
  8
0
  6
CONTINUOUS
 62
     5
 10
199.8075307858672
 20
91.48231618535142
 30
0.0
 11
202.3706413869714
 21
92.96212880742174
 31
0.0
  0
LINE
  5
458
  8
0
  6
CONTINUOUS
 62
     5
 10
198.0616521573221
 20
89.9255477487488
 30
0.0
 11
197.4991540646707
 21
90.89982300689503
 31
0.0
  0
LINE
  5
459
  8
0
  6
CONTINUOUS
 62
     5
 10
198.0616389428234
 20
89.92554011935427
 30
0.0
 11
199.3606770251846
 21
90.67554011935427
 31
0.0
  0
LINE
  5
45A
  8
0
  6
CONTINUOUS
 62
     5
 10
199.9231902396833
 20
89.70126918697788
 30
0.0
 11
199.3606902396833
 21
90.6755477487488
 31
0.0
  0
LINE
  5
45B
  8
0
  6
CONTINUOUS
 62
     5
 10
201.9722283220445
 20
89.15223110461666
 30
0.0
 11
201.2222283220445
 21
90.45126918697788
 31
0.0
  0
LINE
  5
45C
  8
0
  6
CONTINUOUS
 62
     5
 10
199.9231751178359
 20
89.70126486120803
 30
0.0
 11
201.2222264146959
 21
90.45127249060256
 31
0.0
  0
LINE
  5
45D
  8
0
  6
CONTINUOUS
 62
     5
 10
197.4255950337802
 20
86.52723110461666
 30
0.0
 11
210.4159626428937
 21
94.02722347522213
 31
0.0
  0
LINE
  5
45E
  8
0
  6
CONTINUOUS
 62
     5
 10
206.5317335842079
 20
89.50652087642962
 30
0.0
 11
205.765022853429
 21
88.88565089910267
 31
0.0
  0
LINE
  5
45F
  8
0
  6
CONTINUOUS
 62
     5
 10
206.5317418504058
 20
89.5065138992467
 30
0.0
 11
205.9108813581382
 21
90.27321265411129
 31
0.0
  0
ARC
  5
460
  8
0
  6
CONTINUOUS
 62
     5
 10
205.8523413360445
 20
86.97093939098718
 30
0.0
 40
2.625001907348633
 50
75.00010795499728
 51
369.999953377945
  0
TEXT
  5
461
  8
0
 62
     5
 10
231.543252861006
 20
50.07300995731535
 30
0.0
 40
3.0
  1
F MAX  23KN
 50
120.0
 41
0.7894738964517465
  7
FDASTYLE1
 72
     5
 11
215.0432524437735
 21
78.65184900486977
 31
0.0
  0
TEXT
  5
462
  8
0
 62
     5
 10
201.6570406312773
 20
94.34327182849494
 30
0.0
 40
3.0
  1
ΣS
 50
120.0
 41
0.9090909271529234
  7
FDASTYLE1
 72
     5
 11
198.6570405716727
 21
99.53942435443985
 31
0.0
  0
TEXT
  5
463
  8
0
 62
     5
 10
208.3461665863821
 20
79.35249451785978
 30
0.0
 40
3.0
  1
F
 50
120.0
 41
0.8791213035583497
  7
FDASTYLE1
 72
     5
 11
207.0274846310446
 21
81.63651866352865
 31
0.0
  0
TEXT
  5
464
  8
0
 62
     5
 10
210.9447603578398
 20
89.88978794342113
 30
0.0
 40
3.0
  1
N min
 50
120.0
 41
0.7983872414958763
  7
FDASTYLE1
 72
     5
 11
203.5197607631514
 21
102.7502644875998
 31
0.0
  0
TEXT
  5
465
  8
0
 62
     5
 10
201.3336298890336
 20
102.267523152558
 30
0.0
 40
1.5
  1
-1
 50
120.0
 41
0.7826088684192838
  7
FDASTYLE1
 72
     5
 11
199.983629805587
 21
104.6057918873095
 31
0.0
  0
TEXT
  5
466
  8
0
 62
     5
 10
235.8733767623732
 20
52.57300995731535
 30
0.0
 40
3.0
  1
ΣS MAX 93KN
 50
120.0
 41
0.7947978833512004
  7
FDASTYLE1
 72
     5
 11
219.3733763451407
 21
81.15184900486977
 31
0.0
  0
TEXT
  5
467
  8
0
 62
     5
 10
240.2035006637404
 20
55.07300995731536
 30
0.0
 40
3.0
  1
N MAX 5000 AT ΣS MAX
 50
120.0
 41
0.7943487080139173
  7
FDASTYLE1
 72
     5
 11
209.8435003216097
 21
107.6580730676942
 31
0.0
  0
TEXT
  5
468
  8
0
 62
     5
 10
111.8884568631976
 20
-63.41750741687415
 30
0.0
 40
5.0
  1
NIKKO
 41
0.7674421159044379
  7
FDASTYLE1
 72
     5
 11
135.4598882615893
 21
-63.41750741687415
 31
0.0
  0
TEXT
  5
469
  8
0
 62
     5
 10
147.2455922782748
 20
-62.91750741687415
 30
0.0
 40
4.0
  1
HDM3-215A6
 41
0.7727275194893263
  7
FDASTYLE1
 72
     5
 11
186.1027387798159
 21
-62.91750741687415
 31
0.0
  0
TEXT
  5
46A
  8
0
 62
     5
 10
147.6027354419558
 20
-69.41751123157141
 30
0.0
 40
3.0
  1
0001
 41
0.7647060767727455
  7
FDASTYLE1
 72
     5
 11
158.7455931127398
 21
-69.41751123157141
 31
0.0
  0
INSERT
  5
46B
  8
LAYER0014
  6
CONTINUOUS
  2
DA_IMAGEDIMGROUP_1
 10
0.0
 20
0.0
 30
0.0
  0
INSERT
  5
46C
  8
LAYER0014
  6
CONTINUOUS
  2
DA_IMAGEDIMGROUP_2
 10
0.0
 20
0.0
 30
0.0
  0
INSERT
  5
46D
  8
LAYER0014
  6
CONTINUOUS
  2
DA_IMAGEDIMGROUP_3
 10
0.0
 20
0.0
 30
0.0
  0
INSERT
  5
46E
  8
LAYER0014
  6
CONTINUOUS
  2
DA_IMAGEDIMGROUP_6
 10
0.0
 20
0.0
 30
0.0
  0
INSERT
  5
46F
  8
LAYER0014
  6
CONTINUOUS
  2
DC_GROUP_1
 10
0.0
 20
0.0
 30
0.0
  0
INSERT
  5
470
  8
LAYER0014
  6
CONTINUOUS
  2
DA_IMAGEDIMGROUP_7
 10
0.0
 20
0.0
 30
0.0
  0
INSERT
  5
471
  8
LAYER0014
  6
CONTINUOUS
  2
DA_IMAGEDIMGROUP_8
 10
0.0
 20
0.0
 30
0.0
  0
INSERT
  5
472
  8
LAYER0014
  6
CONTINUOUS
  2
DA_IMAGEDIMGROUP_9
 10
0.0
 20
0.0
 30
0.0
  0
INSERT
  5
473
  8
LAYER0014
  6
CONTINUOUS
  2
DA_IMAGEDIMGROUP_10
 10
0.0
 20
0.0
 30
0.0
  0
INSERT
  5
474
  8
LAYER0014
  6
CONTINUOUS
  2
DA_IMAGEDIMGROUP_11
 10
0.0
 20
0.0
 30
0.0
  0
INSERT
  5
475
  8
LAYER0014
  6
CONTINUOUS
  2
DA_IMAGEDIMGROUP_12
 10
0.0
 20
0.0
 30
0.0
  0
INSERT
  5
476
  8
LAYER0014
  6
CONTINUOUS
  2
DA_IMAGEDIMGROUP_13
 10
0.0
 20
0.0
 30
0.0
  0
INSERT
  5
477
  8
LAYER0014
  6
CONTINUOUS
  2
DA_IMAGEDIMGROUP_14
 10
0.0
 20
0.0
 30
0.0
  0
INSERT
  5
478
  8
LAYER0014
  6
CONTINUOUS
  2
DA_IMAGEDIMGROUP_15
 10
0.0
 20
0.0
 30
0.0
  0
INSERT
  5
479
  8
LAYER0014
  6
CONTINUOUS
  2
DA_IMAGEDIMGROUP_16
 10
0.0
 20
0.0
 30
0.0
  0
INSERT
  5
47A
  8
LAYER0014
  6
CONTINUOUS
  2
DA_IMAGEDIMGROUP_17
 10
0.0
 20
0.0
 30
0.0
  0
INSERT
  5
47B
  8
LAYER0014
  6
CONTINUOUS
  2
DA_IMAGEDIMGROUP_18
 10
0.0
 20
0.0
 30
0.0
  0
INSERT
  5
47C
  8
LAYER0014
  6
CONTINUOUS
  2
DA_IMAGEDIMGROUP_19
 10
0.0
 20
0.0
 30
0.0
  0
INSERT
  5
47D
  8
LAYER0014
  6
CONTINUOUS
  2
DA_IMAGEDIMGROUP_20
 10
0.0
 20
0.0
 30
0.0
  0
INSERT
  5
47E
  8
LAYER0014
  6
CONTINUOUS
  2
DA_IMAGEDIMGROUP_21
 10
0.0
 20
0.0
 30
0.0
  0
INSERT
  5
47F
  8
LAYER0014
  6
CONTINUOUS
  2
DA_IMAGEDIMGROUP_22
 10
0.0
 20
0.0
 30
0.0
  0
INSERT
  5
480
  8
LAYER0014
  6
CONTINUOUS
  2
DA_IMAGEDIMGROUP_23
 10
0.0
 20
0.0
 30
0.0
  0
INSERT
  5
481
  8
LAYER0014
  6
CONTINUOUS
  2
DA_IMAGEDIMGROUP_24
 10
0.0
 20
0.0
 30
0.0
  0
INSERT
  5
482
  8
LAYER0014
  6
CONTINUOUS
  2
DA_IMAGEDIMGROUP_25
 10
0.0
 20
0.0
 30
0.0
  0
INSERT
  5
483
  8
LAYER0014
  6
CONTINUOUS
  2
DA_IMAGEDIMGROUP_26
 10
0.0
 20
0.0
 30
0.0
  0
INSERT
  5
484
  8
LAYER0014
  6
CONTINUOUS
  2
DA_IMAGEDIMGROUP_27
 10
0.0
 20
0.0
 30
0.0
  0
INSERT
  5
485
  8
LAYER0014
  6
CONTINUOUS
  2
DA_IMAGEDIMGROUP_28
 10
0.0
 20
0.0
 30
0.0
  0
INSERT
  5
486
  8
LAYER0014
  6
CONTINUOUS
  2
DA_IMAGEDIMGROUP_29
 10
0.0
 20
0.0
 30
0.0
  0
INSERT
  5
487
  8
LAYER0014
  6
CONTINUOUS
  2
DC_GROUP_2
 10
0.0
 20
0.0
 30
0.0
  0
INSERT
  5
488
  8
LAYER0014
  6
CONTINUOUS
  2
DC_GROUP_3
 10
0.0
 20
0.0
 30
0.0
  0
INSERT
  5
489
  8
LAYER0014
  6
CONTINUOUS
  2
DC_GROUP_4
 10
0.0
 20
0.0
 30
0.0
  0
INSERT
  5
48A
  8
LAYER0014
  6
CONTINUOUS
  2
DC_GROUP_5
 10
0.0
 20
0.0
 30
0.0
  0
INSERT
  5
48B
  8
LAYER0014
  6
CONTINUOUS
  2
DC_GROUP_6
 10
0.0
 20
0.0
 30
0.0
  0
INSERT
  5
48C
  8
LAYER0014
  6
CONTINUOUS
  2
DA_IMAGEDIMGROUP_32
 10
0.0
 20
0.0
 30
0.0
  0
INSERT
  5
48D
  8
LAYER0014
  6
CONTINUOUS
  2
DC_GROUP_9
 10
0.0
 20
0.0
 30
0.0
  0
INSERT
  5
48E
  8
LAYER0014
  6
CONTINUOUS
  2
DA_IMAGEDIMGROUP_33
 10
0.0
 20
0.0
 30
0.0
  0
INSERT
  5
48F
  8
LAYER0014
  6
CONTINUOUS
  2
DA_IMAGEDIMGROUP_34
 10
0.0
 20
0.0
 30
0.0
  0
INSERT
  5
490
  8
0
  6
CONTINUOUS
  2
DA_IMAGEDIMGROUP_4
 10
0.0
 20
0.0
 30
0.0
  0
INSERT
  5
491
  8
0
  6
CONTINUOUS
  2
DA_IMAGEDIMGROUP_5
 10
0.0
 20
0.0
 30
0.0
  0
INSERT
  5
492
  8
0
  6
CONTINUOUS
  2
DA_IMAGEDIMGROUP_30
 10
0.0
 20
0.0
 30
0.0
  0
INSERT
  5
493
  8
0
  6
CONTINUOUS
  2
DA_IMAGEDIMGROUP_31
 10
0.0
 20
0.0
 30
0.0
  0
INSERT
  5
494
  8
0
  6
CONTINUOUS
  2
DC_GROUP_7
 10
0.0
 20
0.0
 30
0.0
  0
INSERT
  5
495
  8
0
  6
CONTINUOUS
  2
DC_GROUP_8
 10
0.0
 20
0.0
 30
0.0
  0
CIRCLE
  5
496
  8
0
  6
CONTINUOUS
 62
     3
 10
113.3741690337984
 20
28.3824918201864
 30
0.0
 40
2.65
  0
CIRCLE
  5
497
  8
0
  6
CONTINUOUS
 62
     3
 10
167.3741690337984
 20
28.3824918201864
 30
0.0
 40
2.65
  0
LINE
  5
498
  8
0
  6
DIVIDE
 62
     9
 10
-76.74408965258846
 20
64.38247960682969
 30
0.0
 11
-76.74408965258846
 21
32.72768682118516
 31
0.0
  0
LINE
  5
499
  8
0
  6
DIVIDE
 62
     9
 10
-151.744097281983
 20
64.38247960682969
 30
0.0
 11
-151.744097281983
 21
32.55071538563828
 31
0.0
  0
LINE
  5
49A
  8
0
  6
DIVIDE
 62
     9
 10
-76.74412204916717
 20
64.38251298874587
 30
0.0
 11
-77.74411232116364
 21
65.38250326074234
 31
0.0
  0
LINE
  5
49B
  8
0
  6
DIVIDE
 62
     9
 10
-151.7440290348912
 20
64.38244825118767
 30
0.0
 11
-150.7440387628947
 21
65.38243852318414
 31
0.0
  0
LINE
  5
49C
  8
0
  6
DIVIDE
 62
     9
 10
-82.15220122485408
 20
65.38248342152696
 30
0.0
 11
-77.74408965258846
 21
65.38248342152696
 31
0.0
  0
LINE
  5
49D
  8
0
  6
DIVIDE
 62
     9
 10
-75.74412017016658
 20
-29.29252344492812
 30
0.0
 11
-75.74412017016658
 21
-47.29252344492812
 31
0.0
  0
LINE
  5
49E
  8
0
  6
DIVIDE
 62
     9
 10
-187.744097281983
 20
-32.29252344492812
 30
0.0
 11
-187.744097281983
 21
-44.29252344492812
 31
0.0
  0
LINE
  5
49F
  8
0
  6
DIVIDE
 62
     9
 10
-187.7441583171392
 20
-43.29250818613906
 30
0.0
 11
-151.744097281983
 21
-43.29250818613906
 31
0.0
  0
LINE
  5
4A0
  8
0
  6
DIVIDE
 62
     9
 10
-187.7441583171392
 20
-33.29250818613906
 30
0.0
 11
-151.744097281983
 21
-33.29250818613906
 31
0.0
  0
LINE
  5
4A1
  8
0
  6
DIVIDE
 62
     9
 10
-187.7441583171392
 20
-44.29250818613906
 30
0.0
 11
-87.74412779956111
 21
-44.29250818613906
 31
0.0
  0
LINE
  5
4A2
  8
0
  6
DIVIDE
 62
     9
 10
-187.7441583171392
 20
-32.29250818613906
 30
0.0
 11
-87.74412779956111
 21
-32.29250818613906
 31
0.0
  0
LINE
  5
4A3
  8
0
  6
DIVIDE
 62
     9
 10
-87.74412779956111
 20
-47.29253870371718
 30
0.0
 11
-75.74412017016658
 21
-47.29253870371718
 31
0.0
  0
LINE
  5
4A4
  8
0
  6
DIVIDE
 62
     9
 10
-87.74412779956111
 20
-29.29250818613906
 30
0.0
 11
-75.74412017016658
 21
-29.29250818613906
 31
0.0
  0
LINE
  5
4A5
  8
0
  6
DIVIDE
 62
     9
 10
-151.744097281983
 20
-32.29252344492812
 30
0.0
 11
-151.744097281983
 21
-44.29252344492812
 31
0.0
  0
TEXT
  5
4A6
  8
0
 62
     7
 10
-198.3213311687017
 20
155.824622093402
 30
0.0
 40
4.0
  1
MIN 18
 41
0.7999999999999995
  7
FDASTYLE1
 72
     5
 11
-179.1213311687017
 21
155.824622093402
 31
0.0
  0
TEXT
  5
4A7
  8
0
 62
     7
 10
-226.0552545085455
 20
-47.09282556895155
 30
0.0
 40
4.0
  1
7ﾟ7′30″
 50
90.0
 41
0.7567567567567569
  7
FDASTYLE1
 72
     5
 11
-226.0552545085455
 21
-24.69282556895155
 31
0.0
  0
TEXT
  5
4A8
  8
0
 62
     7
 10
-149.394405509522
 20
-115.948619405496
 30
0.0
 40
4.0
  1
MIN 47
 41
0.7999999999999995
  7
FDASTYLE1
 72
     5
 11
-130.1944055095221
 21
-115.948619405496
 31
0.0
  0
TEXT
  5
4A9
  8
0
 62
     7
 10
-18.69709258227595
 20
38.42203649159531
 30
0.0
 40
4.0
  1
MIN40.8
 50
90.0
 41
0.7999999999999999
  7
FDASTYLE1
 72
     5
 11
-18.69709258227595
 21
60.82203649159531
 31
0.0
  0
LINE
  5
4AA
  8
LAYER0014
  6
CONTINUOUS
 62
     7
 10
-75.74412017016658
 20
148.0832890855895
 30
0.0
 11
-81.55690245776424
 21
148.0832890855895
 31
0.0
  0
LINE
  5
4AB
  8
LAYER0014
  6
CONTINUOUS
 62
     7
 10
-163.2441277995611
 20
148.0832890855895
 30
0.0
 11
-158.8500237956549
 21
148.0832890855895
 31
0.0
  0
LINE
  5
4AC
  8
LAYER0014
  6
CONTINUOUS
 62
     7
 10
-74.74412017016658
 20
3.729769645892191
 30
0.0
 11
-56.05245452075251
 21
3.729769645892191
 31
0.0
  0
LINE
  5
4AD
  8
LAYER0014
  6
CONTINUOUS
 62
     7
 10
-151.744097281983
 20
67.59659764882188
 30
0.0
 11
-151.744097281983
 21
162.8291539537535
 31
0.0
  0
LINE
  5
4AE
  8
LAYER0014
  6
CONTINUOUS
 62
     7
 10
-169.7441277995611
 20
123.5344524156676
 30
0.0
 11
-169.7441277995611
 21
162.8291539537535
 31
0.0
  0
LINE
  5
4AF
  8
LAYER0014
  6
CONTINUOUS
 62
     7
 10
-169.7441277995611
 20
160.543127952777
 30
0.0
 11
-197.9351678386236
 21
160.543127952777
 31
0.0
  0
LINE
  5
4B0
  8
LAYER0014
  6
CONTINUOUS
 62
     7
 10
-151.744097281983
 20
160.543127952777
 30
0.0
 11
-169.7441277995611
 21
160.543127952777
 31
0.0
  0
INSERT
  5
4B1
  8
LAYER0014
 62
     7
  2
_OPEN30
 10
-151.744097281983
 20
160.543127952777
 30
0.0
 41
1.999998407630662
 42
2.000005728319971
 50
360.0
  0
INSERT
  5
4B2
  8
LAYER0014
 62
     7
  2
_OPEN30
 10
-169.7441277995611
 20
160.543127952777
 30
0.0
 41
1.999998407630662
 42
2.000005728319971
 50
180.0
  0
TEXT
  5
4B3
  8
LAYER0014
 62
     7
 10
-198.3923150554205
 20
162.143127952777
 30
0.0
 40
4.0
  1
MAX 43
 41
0.7999999999999995
  7
FDASTYLE1
 72
     5
 11
-179.1923150554205
 21
162.143127952777
 31
0.0
  0
LINE
  5
4B4
  8
0
  6
CONTINUOUS
 62
     6
 10
-68.23010748942797
 20
-144.3929548563614
 30
0.0
 11
92.91650086323317
 21
-144.3929548563614
 31
0.0
  0
LINE
  5
4B5
  8
0
  6
CONTINUOUS
 62
     6
 10
-68.23010748942797
 20
-136.8929548563614
 30
0.0
 11
92.91650086323317
 21
-136.8929548563614
 31
0.0
  0
LINE
  5
4B6
  8
0
  6
CONTINUOUS
 62
     6
 10
-68.23010748942797
 20
-129.3929548563614
 30
0.0
 11
92.91650086323317
 21
-129.3929548563614
 31
0.0
  0
LINE
  5
4B7
  8
0
  6
CONTINUOUS
 62
     6
 10
-68.23010748942797
 20
-121.8929548563614
 30
0.0
 11
92.91650086323317
 21
-121.8929548563614
 31
0.0
  0
LINE
  5
4B8
  8
0
  6
CONTINUOUS
 62
     6
 10
-68.23010748942797
 20
-114.3929548563614
 30
0.0
 11
92.91650086323317
 21
-114.3929548563614
 31
0.0
  0
LINE
  5
4B9
  8
0
  6
CONTINUOUS
 62
     6
 10
-68.23010748942797
 20
-106.8929548563614
 30
0.0
 11
-38.80180281718676
 21
-106.8929548563614
 31
0.0
  0
LINE
  5
4BA
  8
0
  6
CONTINUOUS
 62
     6
 10
-68.23010748942797
 20
-151.8929548563614
 30
0.0
 11
92.91650086323317
 21
-151.8929548563614
 31
0.0
  0
LINE
  5
4BB
  8
0
  6
CONTINUOUS
 62
     6
 10
-68.23010748942797
 20
-159.3929548563614
 30
0.0
 11
92.91650086323317
 21
-159.3929548563614
 31
0.0
  0
LINE
  5
4BC
  8
0
  6
CONTINUOUS
 62
     6
 10
-68.23010748942797
 20
-166.8929548563614
 30
0.0
 11
92.91650086323317
 21
-166.8929548563614
 31
0.0
  0
LINE
  5
4BD
  8
0
  6
CONTINUOUS
 62
     6
 10
-68.23010748942797
 20
-174.3929548563614
 30
0.0
 11
92.91650086323317
 21
-174.3929548563614
 31
0.0
  0
LINE
  5
4BE
  8
0
  6
CONTINUOUS
 62
     6
 10
-68.25093912764142
 20
-182.0321466918299
 30
0.0
 11
92.91650086323317
 21
-182.0321466918299
 31
0.0
  0
LINE
  5
4BF
  8
0
  6
CENTER
 62
     7
 10
82.62122414239204
 20
86.1354514347519
 30
0.0
 11
103.8344276543801
 21
64.92224971090312
 31
0.0
  0
ARC
  5
4C0
  8
0
  6
CENTER
 62
     7
 10
140.3741815754167
 20
28.3824918201864
 30
0.0
 40
66.67500305175781
 50
122.0827465832946
 51
147.9172950810858
  0
ARC
  5
4C1
  8
0
  6
CENTER
 62
     7
 10
140.3741815754167
 20
28.3824918201864
 30
0.0
 40
66.67500305175781
 50
152.0827542483098
 51
177.9173164064794
  0
LINE
  5
4C2
  8
0
  6
CENTER
 62
     7
 10
61.48218392020604
 20
49.52150679987601
 30
0.0
 11
90.45996060479021
 21
41.7569357677834
 31
0.0
  0
LINE
  5
4C3
  8
0
  6
CENTER
 62
     7
 10
176.9139443576225
 20
64.92224616149284
 30
0.0
 11
198.1271492183098
 21
86.13544923404075
 31
0.0
  0
ARC
  5
4C4
  8
0
  6
CENTER
 62
     7
 10
140.3741815754167
 20
28.3824918201864
 30
0.0
 40
66.67500305175781
 50
32.08272017315429
 51
57.91727891622929
  0
LINE
  5
4C5
  8
0
  6
CENTER
 62
     7
 10
190.2883705872381
 20
41.75695516548913
 30
0.0
 11
219.2661449688757
 21
49.52152558050912
 31
0.0
  0
ARC
  5
4C6
  8
0
  6
CENTER
 62
     7
 10
140.3741815754167
 20
28.3824918201864
 30
0.0
 40
66.67500305175781
 50
2.082718697997998
 51
27.91727295876136
  0
LINE
  5
4C7
  8
0
  6
CENTER
 62
     7
 10
153.7486341233846
 20
-21.53173141223178
 30
0.0
 11
161.5132043519111
 21
-50.50949842444024
 31
0.0
  0
ARC
  5
4C8
  8
0
  6
CENTER
 62
     7
 10
140.3741815754167
 20
28.3824918201864
 30
0.0
 40
66.67500305175781
 50
272.2467745626192
 51
297.9172824071142
  0
LINE
  5
4C9
  8
0
  6
CENTER
 62
     7
 10
119.235105572788
 20
-50.50950003333978
 30
0.0
 11
126.9996772822891
 21
-21.53172749405948
 31
0.0
  0
ARC
  5
4CA
  8
0
  6
CENTER
 62
     7
 10
140.3741815754167
 20
28.3824918201864
 30
0.0
 40
66.67500305175781
 50
242.0826989235511
 51
267.6936816694295
  0
VIEWPORT
  5
48
 67
     1
  8
0
 10
0.0
 20
0.0
 30
0.0
 40
1662.0
 41
1140.0
 68
     1
 69
     1
1001
ACAD
1000
MVIEW
1002
{
1070
    16
1010
0.0
1020
0.0
1030
0.0
1020
0.0
1030
0.0
1010
0.0
1020
0.0
1030
1.0
1020
0.0
1030
1.0
1040
0.0
1040
1140.0
1040
0.0
1040
0.0
1040
50.0
1040
0.0
1040
0.0
1070
     0
1070
   100
1070
     0
1070
     1
1070
     0
1070
     0
1070
     0
1070
     0
1040
0.0
1040
0.0
1040
0.0
1040
0.5
1040
0.5
1040
0.0
1040
0.0
1070
     0
1002
{
1002
}
1002
}
  0
ENDSEC
  0
EOF
