  0
SECTION
  2
HEADER
  9
$ACADVER
  1
AC1009
  9
$DWGCODEPAGE
  3
ansi_932
  9
$INSBASE
 10
0.0
 20
0.0
 30
0.0
  9
$EXTMIN
 10
-831.3976442572021
 20
-570.0
 30
0.0
  9
$EXTMAX
 10
830.602355742798
 20
570.0
 30
0.0
  9
$LIMMIN
 10
-297.25
 20
-210.25
  9
$LIMMAX
 10
297.25
 20
210.25
  9
$ORTHOMODE
 70
     0
  9
$REGENMODE
 70
     1
  9
$FILLMODE
 70
     1
  9
$QTEXTMODE
 70
     0
  9
$MIRRTEXT
 70
     1
  9
$DRAGMODE
 70
     2
  9
$LTSCALE
 40
0.5
  9
$OSMODE
 70
    37
  9
$ATTMODE
 70
     1
  9
$TEXTSIZE
 40
0.2
  9
$TRACEWID
 40
0.05
  9
$TEXTSTYLE
  7
STANDARD
  9
$CLAYER
  8
0
  9
$CELTYPE
  6
BYLAYER
  9
$CECOLOR
 62
   256
  9
$DIMSCALE
 40
1.0
  9
$DIMASZ
 40
1.25
  9
$DIMEXO
 40
0.0625
  9
$DIMDLI
 40
0.38
  9
$DIMRND
 40
0.0
  9
$DIMDLE
 40
0.0
  9
$DIMEXE
 40
0.18
  9
$DIMTP
 40
0.0
  9
$DIMTM
 40
0.0
  9
$DIMTXT
 40
0.18
  9
$DIMCEN
 40
0.09
  9
$DIMTSZ
 40
0.0
  9
$DIMTOL
 70
     0
  9
$DIMLIM
 70
     0
  9
$DIMTIH
 70
     1
  9
$DIMTOH
 70
     1
  9
$DIMSE1
 70
     0
  9
$DIMSE2
 70
     0
  9
$DIMTAD
 70
     3
  9
$DIMZIN
 70
     0
  9
$DIMBLK
  1

  9
$DIMASO
 70
     1
  9
$DIMSHO
 70
     1
  9
$DIMPOST
  1

  9
$DIMAPOST
  1

  9
$DIMALT
 70
     0
  9
$DIMALTD
 70
     2
  9
$DIMALTF
 40
25.4
  9
$DIMLFAC
 40
1.0
  9
$DIMTOFL
 70
     0
  9
$DIMTVP
 40
0.0
  9
$DIMTIX
 70
     0
  9
$DIMSOXD
 70
     0
  9
$DIMSAH
 70
     0
  9
$DIMBLK1
  1

  9
$DIMBLK2
  1

  9
$DIMSTYLE
  2
STANDARD
  9
$DIMCLRD
 70
     0
  9
$DIMCLRE
 70
     0
  9
$DIMCLRT
 70
     0
  9
$DIMTFAC
 40
1.0
  9
$DIMGAP
 40
0.09
  9
$LUNITS
 70
     2
  9
$LUPREC
 70
     4
  9
$SKETCHINC
 40
0.1
  9
$FILLETRAD
 40
0.5
  9
$AUNITS
 70
     0
  9
$AUPREC
 70
     0
  9
$MENU
  1
.
  9
$ELEVATION
 40
0.0
  9
$PELEVATION
 40
0.0
  9
$THICKNESS
 40
0.0
  9
$LIMCHECK
 70
     0
  9
$CHAMFERA
 40
0.5
  9
$CHAMFERB
 40
0.5
  9
$SKPOLY
 70
     0
  9
$TDCREATE
 40
2456329.469290625
  9
$TDUPDATE
 40
2456329.469290637
  9
$TDINDWG
 40
0.0000000116
  9
$TDUSRTIMER
 40
0.0000000116
  9
$USRTIMER
 70
     1
  9
$ANGBASE
 50
0.0
  9
$ANGDIR
 70
     0
  9
$PDMODE
 70
     0
  9
$PDSIZE
 40
1.0
  9
$PLINEWID
 40
0.0
  9
$COORDS
 70
     1
  9
$SPLFRAME
 70
     0
  9
$SPLINETYPE
 70
     6
  9
$SPLINESEGS
 70
     8
  9
$ATTDIA
 70
     0
  9
$ATTREQ
 70
     1
  9
$HANDLING
 70
     1
  9
$HANDSEED
  5
526
  9
$SURFTAB1
 70
     6
  9
$SURFTAB2
 70
     6
  9
$SURFTYPE
 70
     6
  9
$SURFU
 70
     6
  9
$SURFV
 70
     6
  9
$UCSNAME
  2

  9
$UCSORG
 10
0.0
 20
0.0
 30
0.0
  9
$UCSXDIR
 10
1.0
 20
0.0
 30
0.0
  9
$UCSYDIR
 10
0.0
 20
1.0
 30
0.0
  9
$PUCSNAME
  2

  9
$PUCSORG
 10
0.0
 20
0.0
 30
0.0
  9
$PUCSXDIR
 10
1.0
 20
0.0
 30
0.0
  9
$PUCSYDIR
 10
0.0
 20
1.0
 30
0.0
  9
$USERI1
 70
     0
  9
$USERI2
 70
     0
  9
$USERI3
 70
     0
  9
$USERI4
 70
     0
  9
$USERI5
 70
     0
  9
$USERR1
 40
0.0
  9
$USERR2
 40
0.0
  9
$USERR3
 40
0.0
  9
$USERR4
 40
0.0
  9
$USERR5
 40
0.0
  9
$WORLDVIEW
 70
     1
  9
$SHADEDGE
 70
     3
  9
$SHADEDIF
 70
    70
  9
$TILEMODE
 70
     1
  9
$MAXACTVP
 70
    64
  9
$PLIMCHECK
 70
     0
  9
$PEXTMIN
 10
1.000000000000000E+20
 20
1.000000000000000E+20
 30
1.000000000000000E+20
  9
$PEXTMAX
 10
-1.000000000000000E+20
 20
-1.000000000000000E+20
 30
-1.000000000000000E+20
  9
$PLIMMIN
 10
0.0
 20
0.0
  9
$PLIMMAX
 10
12.0
 20
9.0
  9
$UNITMODE
 70
     0
  9
$VISRETAIN
 70
     0
  9
$PLINEGEN
 70
     1
  9
$PSLTSCALE
 70
     0
  0
ENDSEC
  0
SECTION
  2
TABLES
  0
TABLE
  2
VPORT
 70
     1
  0
VPORT
  2
*ACTIVE
 70
     0
 10
0.0
 20
0.0
 11
1.0
 21
1.0
 12
0.0
 22
0.0
 13
0.0
 23
0.0
 14
0.5
 24
0.5
 15
0.5
 25
0.5
 16
0.0
 26
0.0
 36
1.0
 17
-0.3976442572019927
 27
0.0
 37
0.0
 40
387.6
 41
1.457894736842105
 42
50.0
 43
0.0
 44
0.0
 50
0.0
 51
0.0
 71
     0
 72
  1000
 73
     1
 74
     1
 75
     0
 76
     0
 77
     0
 78
     0
  0
ENDTAB
  0
TABLE
  2
LTYPE
 70
    28
  0
LTYPE
  2
CONTINUOUS
 70
     0
  3
Solid line
 72
    65
 73
     0
 40
0.0
  0
LTYPE
  2
HIDDENX2
 70
     0
  3
CADPAC LINETYPE
 72
    65
 73
     2
 40
20.63803680981596
 49
15.47852760736197
 49
-5.15950920245399
  0
LTYPE
  2
HIDDEN
 70
     0
  3
CADPAC LINETYPE
 72
    65
 73
     2
 40
15.47852760736197
 49
10.31901840490798
 49
-5.15950920245399
  0
LTYPE
  2
HIDDEN2
 70
     0
  3
CADPAC LINETYPE
 72
    65
 73
     2
 40
12.89877300613497
 49
7.739263803680984
 49
-5.15950920245399
  0
LTYPE
  2
DASHED
 70
     0
  3
CADPAC LINETYPE
 72
    65
 73
     2
 40
14.44662576687119
 49
10.31901840490798
 49
-4.127607361963214
  0
LTYPE
  2
DASHED2
 70
     0
  3
CADPAC LINETYPE
 72
    65
 73
     2
 40
9.287116564417147
 49
6.191411042944765
 49
-3.095705521472382
  0
LTYPE
  2
DASHEDX2
 70
     0
  3
CADPAC LINETYPE
 72
    65
 73
     2
 40
24.76564417177917
 49
20.63803680981596
 49
-4.127607361963214
  0
LTYPE
  2
DOTX2
 70
     0
  3
CADPAC LINETYPE
 72
    65
 73
     2
 40
9.029141104294496
 49
0.0
 49
-9.029141104294496
  0
LTYPE
  2
DOT
 70
     0
  3
CADPAC LINETYPE
 72
    65
 73
     2
 40
7.223312883435597
 49
0.0
 49
-7.223312883435597
  0
LTYPE
  2
DOT2
 70
     0
  3
CADPAC LINETYPE
 72
    65
 73
     2
 40
5.417484662576698
 49
0.0
 49
-5.417484662576698
  0
LTYPE
  2
CENTERX2
 70
     0
  3
CADPAC LINETYPE
 72
    65
 73
     4
 40
30.95705521472394
 49
12.89877300613497
 49
-6.449386503067487
 49
5.15950920245399
 49
-6.449386503067487
  0
LTYPE
  2
CENTER
 70
     0
  3
CADPAC LINETYPE
 72
    65
 73
     4
 40
23.73374233128835
 49
10.31901840490798
 49
-5.15950920245399
 49
3.095705521472393
 49
-5.15950920245399
  0
LTYPE
  2
CENTER2
 70
     0
  3
CADPAC LINETYPE
 72
    65
 73
     4
 40
16.51042944785277
 49
7.739263803680984
 49
-3.869631901840492
 49
1.031901840490798
 49
-3.869631901840492
  0
LTYPE
  2
DASHDOTX2
 70
     0
  3
CADPAC LINETYPE
 72
    65
 73
     4
 40
49.53128834355846
 49
24.76564417177917
 49
-8.255214723926429
 49
8.255214723926429
 49
-8.255214723926429
  0
LTYPE
  2
DASHDOT
 70
     0
  3
CADPAC LINETYPE
 72
    65
 73
     4
 40
24.76564417177929
 49
12.38282208588964
 49
-4.127607361963214
 49
4.127607361963214
 49
-4.127607361963214
  0
LTYPE
  2
DASHDOT2
 70
     0
  3
CADPAC LINETYPE
 72
    65
 73
     4
 40
15.89128834355838
 49
9.287116564417232
 49
-3.095705521472411
 49
0.4127607361963215
 49
-3.095705521472411
  0
LTYPE
  2
DIVIDEX2
 70
     0
  3
CADPAC LINETYPE
 72
    65
 73
     6
 40
66.04171779141132
 49
24.76564417177917
 49
-8.255214723926429
 49
8.255214723926429
 49
-8.255214723926429
 49
8.255214723926429
 49
-8.255214723926429
  0
LTYPE
  2
DIVIDE
 70
     0
  3
CADPAC LINETYPE
 72
    65
 73
     6
 40
33.02085889570572
 49
12.38282208588964
 49
-4.127607361963214
 49
4.127607361963214
 49
-4.127607361963214
 49
4.127607361963214
 49
-4.127607361963214
  0
LTYPE
  2
DIVIDE2
 70
     0
  3
CADPAC LINETYPE
 72
    65
 73
     6
 40
24.76564417177929
 49
9.287116564417232
 49
-3.095705521472411
 49
3.095705521472411
 49
-3.095705521472411
 49
3.095705521472411
 49
-3.095705521472411
  0
LTYPE
  2
BORDERX2
 70
     0
  3
CADPAC LINETYPE
 72
    65
 73
     6
 40
45.14570552147241
 49
12.89877300613497
 49
-6.449386503067487
 49
12.89877300613497
 49
-6.449386503067487
 49
0.0
 49
-6.449386503067487
  0
LTYPE
  2
BORDER
 70
     0
  3
CADPAC LINETYPE
 72
    65
 73
     6
 40
36.11656441717793
 49
10.31901840490798
 49
-5.15950920245399
 49
10.31901840490798
 49
-5.15950920245399
 49
0.0
 49
-5.15950920245399
  0
LTYPE
  2
BORDER2
 70
     0
  3
CADPAC LINETYPE
 72
    65
 73
     6
 40
26.82944785276067
 49
8.255214723926429
 49
-5.159509202453933
 49
3.095705521472382
 49
-5.159509202453933
 49
0.0
 49
-5.15950920245399
  0
LTYPE
  2
PHANTOMX2
 70
     0
  3
CADPAC LINETYPE
 72
    65
 73
     6
 40
38.69631901840492
 49
12.89877300613497
 49
-5.15950920245399
 49
5.15950920245399
 49
-5.15950920245399
 49
5.15950920245399
 49
-5.15950920245399
  0
LTYPE
  2
PHANTOM
 70
     0
  3
CADPAC LINETYPE
 72
    65
 73
     6
 40
31.98895705521473
 49
10.31901840490798
 49
-5.15950920245399
 49
3.095705521472393
 49
-5.15950920245399
 49
3.095705521472393
 49
-5.15950920245399
  0
LTYPE
  2
PHANTOM2
 70
     0
  3
CADPAC LINETYPE
 72
    65
 73
     6
 40
27.34539877300615
 49
7.739263803680984
 49
-5.15950920245399
 49
2.063803680981596
 49
-5.15950920245399
 49
2.063803680981596
 49
-5.15950920245399
  0
LTYPE
  2
ACAD_ISO06W100
 70
     0
  3
CADPAC LINETYPE
 72
    65
 73
     8
 40
54.69079754601205
 49
24.76564417177917
 49
-5.159509202453933
 49
3.095705521472382
 49
-5.159509202453933
 49
3.095705521472382
 49
-5.159509202453933
 49
3.095705521472382
 49
-5.159509202453933
  0
LTYPE
  2
ACAD_ISO13W100
 70
     0
  3
CADPAC LINETYPE
 72
    65
 73
     8
 40
41.27607361963192
 49
10.31901840490798
 49
-5.15950920245399
 49
10.31901840490798
 49
-5.15950920245399
 49
0.0
 49
-5.15950920245399
 49
0.0
 49
-5.15950920245399
  0
LTYPE
  2
ACAD_ISO14W100
 70
     0
  3
CADPAC LINETYPE
 72
    65
 73
     8
 40
30.95705521472394
 49
10.31901840490798
 49
-5.15950920245399
 49
0.0
 49
-5.15950920245399
 49
0.0
 49
-5.15950920245399
 49
0.0
 49
-5.15950920245399
  0
ENDTAB
  0
TABLE
  2
LAYER
 70
     3
  0
LAYER
  2
0
 70
     0
 62
     7
  6
CONTINUOUS
  0
LAYER
  2
LAYER0001
 70
     0
 62
     7
  6
CONTINUOUS
  0
LAYER
  2
LAYER0002
 70
     0
 62
     7
  6
CONTINUOUS
  0
ENDTAB
  0
TABLE
  2
STYLE
 70
     5
  0
STYLE
  2
STANDARD
 70
     0
 40
0.0
 41
1.0
 50
0.0
 71
     0
 42
0.2
  3
txt
  4

  0
STYLE
  2
FDASTYLE1
 70
     0
 40
0.0
 41
0.5974055530268544
 50
0.0
 71
     0
 42
0.2
  3
txt.shx
  4
bigfont
  0
STYLE
  2
FDASTYLE0
 70
     4
 40
0.0
 41
0.8
 50
0.0
 71
     0
 42
0.2
  3
txt.shx
  4
bigfont
  0
STYLE
  2
FDASTYLE2
 70
     0
 40
0.0
 41
0.8123476848090981
 50
0.0
 71
     0
 42
0.2
  3
MSMINCHO.TTC
  4

  0
STYLE
  2
FDASTYLE3
 70
     0
 40
0.0
 41
0.5928457965535972
 50
0.0
 71
     0
 42
0.2
  3
MSGOTHIC.TTC
  4

  0
ENDTAB
  0
TABLE
  2
VIEW
 70
     0
  0
ENDTAB
  0
TABLE
  2
UCS
 70
     0
  0
ENDTAB
  0
TABLE
  2
APPID
 70
     2
  0
APPID
  2
ACAD
 70
     0
  0
APPID
  2
DAFUSIONOUT
 70
     0
  0
ENDTAB
  0
TABLE
  2
DIMSTYLE
 70
     1
  0
DIMSTYLE
  2
STANDARD
 70
     0
  3

  4

  5

  6

  7

 40
1.0
 41
0.18
 42
0.0625
 43
0.38
 44
0.18
 45
0.0
 46
0.0
 47
0.0
 48
0.0
140
0.18
141
0.09
142
0.0
143
25.4
144
1.0
145
0.0
146
1.0
147
0.09
 71
     0
 72
     0
 73
     1
 74
     1
 75
     0
 76
     0
 77
     0
 78
     0
170
     0
171
     2
172
     0
173
     0
174
     0
175
     0
176
     0
177
     0
178
     0
  0
ENDTAB
  0
ENDSEC
  0
SECTION
  2
BLOCKS
  0
BLOCK
  8
0
  2
$MODEL_SPACE
 70
     0
 10
0.0
 20
0.0
 30
0.0
  3
$MODEL_SPACE
  1

  0
ENDBLK
  5
21
  8
0
  0
BLOCK
 67
     1
  8
0
  2
$PAPER_SPACE
 70
     0
 10
0.0
 20
0.0
 30
0.0
  3
$PAPER_SPACE
  1

  0
ENDBLK
  5
1D
 67
     1
  8
0
  0
BLOCK
  8
0
  2
DC_GROUP_1
 70
     0
 10
0.0
 20
0.0
 30
0.0
  3
DC_GROUP_1
  1

  0
LINE
  5
16C
  8
LAYER0001
  6
CONTINUOUS
 62
     7
 10
-176.8189832941076
 20
166.4049758312382
 30
0.0
 11
-174.8189848864769
 21
165.8690762963406
 31
0.0
  0
LINE
  5
16D
  8
LAYER0001
  6
CONTINUOUS
 62
     7
 10
-174.8189848864769
 20
165.8690762963406
 30
0.0
 11
-176.8189832941076
 21
165.333176761443
 31
0.0
  0
LINE
  5
16E
  8
LAYER0001
  6
CONTINUOUS
 62
     7
 10
-174.8189848864769
 20
165.8690762963406
 30
0.0
 11
-176.8189832941076
 21
165.8690762963406
 31
0.0
  0
ENDBLK
  5
4E
  8
0
  0
BLOCK
  8
0
  2
DC_GROUP_2
 70
     0
 10
0.0
 20
0.0
 30
0.0
  3
DC_GROUP_2
  1

  0
LINE
  5
16F
  8
LAYER0001
  6
CONTINUOUS
 62
     7
 10
-187.7972579632213
 20
165.333176761443
 30
0.0
 11
-189.7972563708519
 21
165.8690762963406
 31
0.0
  0
LINE
  5
170
  8
LAYER0001
  6
CONTINUOUS
 62
     7
 10
-189.7972563708519
 20
165.8690762963406
 30
0.0
 11
-187.7972579632213
 21
166.4049758312382
 31
0.0
  0
LINE
  5
171
  8
LAYER0001
  6
CONTINUOUS
 62
     7
 10
-189.7972563708519
 20
165.8690762963406
 30
0.0
 11
-187.7972579632213
 21
165.8690762963406
 31
0.0
  0
ENDBLK
  5
51
  8
0
  0
BLOCK
  8
0
  2
DC_GROUP_3
 70
     0
 10
0.0
 20
0.0
 30
0.0
  3
DC_GROUP_3
  1

  0
LINE
  5
172
  8
LAYER0001
  6
CONTINUOUS
 62
     7
 10
-74.56134462892305
 20
-14.11534607239594
 30
0.0
 11
-75.09724416382066
 21
-16.1153444800266
 31
0.0
  0
LINE
  5
173
  8
LAYER0001
  6
CONTINUOUS
 62
     7
 10
-75.09724416382066
 20
-16.1153444800266
 30
0.0
 11
-75.63314369871827
 21
-14.11534607239594
 31
0.0
  0
LINE
  5
174
  8
LAYER0001
  6
CONTINUOUS
 62
     7
 10
-75.09724416382066
 20
-16.1153444800266
 30
0.0
 11
-75.09724416382066
 21
-14.11534607239594
 31
0.0
  0
ENDBLK
  5
54
  8
0
  0
BLOCK
  8
0
  2
DC_GROUP_4
 70
     0
 10
0.0
 20
0.0
 30
0.0
  3
DC_GROUP_4
  1

  0
LINE
  5
175
  8
LAYER0001
  6
CONTINUOUS
 62
     7
 10
-192.337256370852
 20
77.88465551997339
 30
0.0
 11
-233.4888457263207
 21
77.88465551997339
 31
0.0
  0
LINE
  5
176
  8
LAYER0001
  6
CONTINUOUS
 62
     7
 10
-192.337256370852
 20
-20.1153444800266
 30
0.0
 11
-233.4888457263207
 21
-20.1153444800266
 31
0.0
  0
LINE
  5
177
  8
LAYER0001
  6
CONTINUOUS
 62
     7
 10
-231.2028502429223
 20
77.88465551997339
 30
0.0
 11
-231.2028502429223
 21
-20.1153444800266
 31
0.0
  0
INSERT
  5
178
  8
LAYER0001
  6
CONTINUOUS
  2
DC_GROUP_5
 10
0.0
 20
0.0
 30
0.0
  0
INSERT
  5
179
  8
LAYER0001
  6
CONTINUOUS
  2
DC_GROUP_6
 10
0.0
 20
0.0
 30
0.0
  0
TEXT
  5
17B
  8
LAYER0001
 62
     7
 10
-232.8168104329107
 20
20.88746023005254
 30
0.0
 40
4.0
  1
φ98H7
 50
89.90000000000001
 41
0.5974055530268544
  7
FDASTYLE1
 72
     5
 11
-232.7951229206717
 21
33.31347680708155
 31
0.0
  0
ENDBLK
  5
57
  8
0
  0
BLOCK
  8
0
  2
DC_GROUP_5
 70
     0
 10
0.0
 20
0.0
 30
0.0
  3
DC_GROUP_5
  1

  0
LINE
  5
17C
  8
LAYER0001
  6
CONTINUOUS
 62
     7
 10
-231.7387497778199
 20
75.88465711234274
 30
0.0
 11
-231.2028502429223
 21
77.88465551997339
 31
0.0
  0
LINE
  5
17D
  8
LAYER0001
  6
CONTINUOUS
 62
     7
 10
-231.2028502429223
 20
77.88465551997339
 30
0.0
 11
-230.6669507080247
 21
75.88465711234274
 31
0.0
  0
LINE
  5
17E
  8
LAYER0001
  6
CONTINUOUS
 62
     7
 10
-231.2028502429223
 20
77.88465551997339
 30
0.0
 11
-231.2028502429223
 21
75.88465711234274
 31
0.0
  0
ENDBLK
  5
5A
  8
0
  0
BLOCK
  8
0
  2
DC_GROUP_6
 70
     0
 10
0.0
 20
0.0
 30
0.0
  3
DC_GROUP_6
  1

  0
LINE
  5
17F
  8
LAYER0001
  6
CONTINUOUS
 62
     7
 10
-230.6669507080247
 20
-18.11534607239594
 30
0.0
 11
-231.2028502429223
 21
-20.1153444800266
 31
0.0
  0
LINE
  5
180
  8
LAYER0001
  6
CONTINUOUS
 62
     7
 10
-231.2028502429223
 20
-20.1153444800266
 30
0.0
 11
-231.7387497778199
 21
-18.11534607239594
 31
0.0
  0
LINE
  5
181
  8
LAYER0001
  6
CONTINUOUS
 62
     7
 10
-231.2028502429223
 20
-20.1153444800266
 30
0.0
 11
-231.2028502429223
 21
-18.11534607239594
 31
0.0
  0
ENDBLK
  5
5D
  8
0
  0
BLOCK
  8
0
  2
DC_GROUP_7
 70
     0
 10
0.0
 20
0.0
 30
0.0
  3
DC_GROUP_7
  1

  0
LINE
  5
182
  8
LAYER0001
  6
CONTINUOUS
 62
     7
 10
-196.537253319094
 20
141.3846555199734
 30
0.0
 11
-245.4888457263207
 21
141.3846555199734
 31
0.0
  0
LINE
  5
183
  8
LAYER0001
  6
CONTINUOUS
 62
     7
 10
-196.537253319094
 20
-83.61534448002661
 30
0.0
 11
-245.4888457263207
 21
-83.61534448002661
 31
0.0
  0
LINE
  5
184
  8
LAYER0001
  6
CONTINUOUS
 62
     7
 10
-243.2028502429223
 20
141.3846555199734
 30
0.0
 11
-243.2028502429223
 21
-83.61534448002661
 31
0.0
  0
INSERT
  5
185
  8
LAYER0001
  6
CONTINUOUS
  2
DC_GROUP_8
 10
0.0
 20
0.0
 30
0.0
  0
INSERT
  5
186
  8
LAYER0001
  6
CONTINUOUS
  2
DC_GROUP_9
 10
0.0
 20
0.0
 30
0.0
  0
TEXT
  5
187
  8
LAYER0001
 62
     7
 10
-244.8196029582962
 20
19.28746266699128
 30
0.0
 40
4.0
  1
φ225H7
 50
89.90000000000001
 41
0.6042093249639144
  7
FDASTYLE1
 72
     5
 11
-244.793450275186
 21
34.27183110356914
 31
0.0
  0
ENDBLK
  5
60
  8
0
  0
BLOCK
  8
0
  2
DC_GROUP_8
 70
     0
 10
0.0
 20
0.0
 30
0.0
  3
DC_GROUP_8
  1

  0
LINE
  5
188
  8
LAYER0001
  6
CONTINUOUS
 62
     7
 10
-243.7387497778199
 20
139.3846571123427
 30
0.0
 11
-243.2028502429223
 21
141.3846555199734
 31
0.0
  0
LINE
  5
189
  8
LAYER0001
  6
CONTINUOUS
 62
     7
 10
-243.2028502429223
 20
141.3846555199734
 30
0.0
 11
-242.6669507080246
 21
139.3846571123427
 31
0.0
  0
LINE
  5
18A
  8
LAYER0001
  6
CONTINUOUS
 62
     7
 10
-243.2028502429223
 20
141.3846555199734
 30
0.0
 11
-243.2028502429223
 21
139.3846571123427
 31
0.0
  0
ENDBLK
  5
63
  8
0
  0
BLOCK
  8
0
  2
DC_GROUP_9
 70
     0
 10
0.0
 20
0.0
 30
0.0
  3
DC_GROUP_9
  1

  0
LINE
  5
18B
  8
LAYER0001
  6
CONTINUOUS
 62
     7
 10
-242.6669507080246
 20
-81.61534607239595
 30
0.0
 11
-243.2028502429223
 21
-83.61534448002661
 31
0.0
  0
LINE
  5
18C
  8
LAYER0001
  6
CONTINUOUS
 62
     7
 10
-243.2028502429223
 20
-83.61534448002661
 30
0.0
 11
-243.7387497778199
 21
-81.61534607239595
 31
0.0
  0
LINE
  5
18D
  8
LAYER0001
  6
CONTINUOUS
 62
     7
 10
-243.2028502429223
 20
-83.61534448002661
 30
0.0
 11
-243.2028502429223
 21
-81.61534607239595
 31
0.0
  0
ENDBLK
  5
66
  8
0
  0
BLOCK
  8
0
  2
DC_GROUP_10
 70
     0
 10
0.0
 20
0.0
 30
0.0
  3
DC_GROUP_10
  1

  0
LINE
  5
18E
  8
LAYER0001
  6
CONTINUOUS
 62
     7
 10
-196.537253319094
 20
153.8846555199734
 30
0.0
 11
-257.4888457263207
 21
153.8846555199734
 31
0.0
  0
LINE
  5
18F
  8
LAYER0001
  6
CONTINUOUS
 62
     7
 10
-195.2661995568608
 20
-96.11534448002661
 30
0.0
 11
-257.4888457263207
 21
-96.11534448002661
 31
0.0
  0
LINE
  5
190
  8
LAYER0001
  6
CONTINUOUS
 62
     7
 10
-255.2028502429223
 20
153.8846555199734
 30
0.0
 11
-255.2028502429223
 21
-96.11534448002661
 31
0.0
  0
INSERT
  5
191
  8
LAYER0001
  6
CONTINUOUS
  2
DC_GROUP_11
 10
0.0
 20
0.0
 30
0.0
  0
INSERT
  5
192
  8
LAYER0001
  6
CONTINUOUS
  2
DC_GROUP_12
 10
0.0
 20
0.0
 30
0.0
  0
TEXT
  5
193
  8
LAYER0001
 62
     7
 10
-256.8140179075253
 20
22.48745779311382
 30
0.0
 40
4.0
  1
φ250
 50
89.90000000000001
 41
0.5874095670014038
  7
FDASTYLE1
 72
     5
 11
-256.7967941681865
 21
32.35592348818554
 31
0.0
  0
ENDBLK
  5
69
  8
0
  0
BLOCK
  8
0
  2
DC_GROUP_11
 70
     0
 10
0.0
 20
0.0
 30
0.0
  3
DC_GROUP_11
  1

  0
LINE
  5
194
  8
LAYER0001
  6
CONTINUOUS
 62
     7
 10
-255.7387497778199
 20
151.8846571123427
 30
0.0
 11
-255.2028502429223
 21
153.8846555199734
 31
0.0
  0
LINE
  5
195
  8
LAYER0001
  6
CONTINUOUS
 62
     7
 10
-255.2028502429223
 20
153.8846555199734
 30
0.0
 11
-254.6669507080246
 21
151.8846571123427
 31
0.0
  0
LINE
  5
196
  8
LAYER0001
  6
CONTINUOUS
 62
     7
 10
-255.2028502429223
 20
153.8846555199734
 30
0.0
 11
-255.2028502429223
 21
151.8846571123427
 31
0.0
  0
ENDBLK
  5
6C
  8
0
  0
BLOCK
  8
0
  2
DC_GROUP_12
 70
     0
 10
0.0
 20
0.0
 30
0.0
  3
DC_GROUP_12
  1

  0
LINE
  5
197
  8
LAYER0001
  6
CONTINUOUS
 62
     7
 10
-254.6669507080246
 20
-94.11534607239594
 30
0.0
 11
-255.2028502429223
 21
-96.11534448002661
 31
0.0
  0
LINE
  5
198
  8
LAYER0001
  6
CONTINUOUS
 62
     7
 10
-255.2028502429223
 20
-96.11534448002661
 30
0.0
 11
-255.7387497778199
 21
-94.11534607239594
 31
0.0
  0
LINE
  5
199
  8
LAYER0001
  6
CONTINUOUS
 62
     7
 10
-255.2028502429223
 20
-96.11534448002661
 30
0.0
 11
-255.2028502429223
 21
-94.11534607239594
 31
0.0
  0
ENDBLK
  5
6F
  8
0
  0
BLOCK
  8
0
  2
DC_GROUP_13
 70
     0
 10
0.0
 20
0.0
 30
0.0
  3
DC_GROUP_13
  1

  0
LINE
  5
19A
  8
LAYER0001
  6
CONTINUOUS
 62
     7
 10
-174.8189848864769
 20
9.956844851028087
 30
0.0
 11
-145.8189848864769
 21
9.956844851028087
 31
0.0
  0
INSERT
  5
19B
  8
LAYER0001
  6
CONTINUOUS
  2
DC_GROUP_14
 10
0.0
 20
0.0
 30
0.0
  0
INSERT
  5
19C
  8
LAYER0001
  6
CONTINUOUS
  2
DC_GROUP_15
 10
0.0
 20
0.0
 30
0.0
  0
TEXT
  5
19D
  8
LAYER0001
 62
     7
 10
-163.518984886477
 20
11.55684485102809
 30
0.0
 40
4.0
  1
29
 41
0.6285714285714263
  7
FDASTYLE1
 72
     5
 11
-158.4904134579056
 21
11.55684485102809
 31
0.0
  0
ENDBLK
  5
72
  8
0
  0
BLOCK
  8
0
  2
DC_GROUP_14
 70
     0
 10
0.0
 20
0.0
 30
0.0
  3
DC_GROUP_14
  1

  0
LINE
  5
19E
  8
LAYER0001
  6
CONTINUOUS
 62
     7
 10
-172.8189864788463
 20
9.42094531613048
 30
0.0
 11
-174.8189848864769
 21
9.956844851028087
 31
0.0
  0
LINE
  5
19F
  8
LAYER0001
  6
CONTINUOUS
 62
     7
 10
-174.8189848864769
 20
9.956844851028087
 30
0.0
 11
-172.8189864788463
 21
10.4927443859257
 31
0.0
  0
LINE
  5
1A0
  8
LAYER0001
  6
CONTINUOUS
 62
     7
 10
-174.8189848864769
 20
9.956844851028087
 30
0.0
 11
-172.8189864788463
 21
9.956844851028087
 31
0.0
  0
ENDBLK
  5
75
  8
0
  0
BLOCK
  8
0
  2
DC_GROUP_15
 70
     0
 10
0.0
 20
0.0
 30
0.0
  3
DC_GROUP_15
  1

  0
LINE
  5
1A1
  8
LAYER0001
  6
CONTINUOUS
 62
     7
 10
-147.8189832941076
 20
10.4927443859257
 30
0.0
 11
-145.8189848864769
 21
9.956844851028087
 31
0.0
  0
LINE
  5
1A2
  8
LAYER0001
  6
CONTINUOUS
 62
     7
 10
-145.8189848864769
 20
9.956844851028087
 30
0.0
 11
-147.8189832941076
 21
9.42094531613048
 31
0.0
  0
LINE
  5
1A3
  8
LAYER0001
  6
CONTINUOUS
 62
     7
 10
-145.8189848864769
 20
9.956844851028087
 30
0.0
 11
-147.8189832941076
 21
9.956844851028087
 31
0.0
  0
ENDBLK
  5
78
  8
0
  0
BLOCK
  8
0
  2
DC_GROUP_16
 70
     0
 10
0.0
 20
0.0
 30
0.0
  3
DC_GROUP_16
  1

  0
LINE
  5
1A4
  8
LAYER0001
  6
CONTINUOUS
 62
     7
 10
-145.8189848864769
 20
9.956844851028087
 30
0.0
 11
-127.8189848864769
 21
9.956844851028087
 31
0.0
  0
INSERT
  5
1A5
  8
LAYER0001
  6
CONTINUOUS
  2
DC_GROUP_17
 10
0.0
 20
0.0
 30
0.0
  0
INSERT
  5
1A6
  8
LAYER0001
  6
CONTINUOUS
  2
DC_GROUP_18
 10
0.0
 20
0.0
 30
0.0
  0
TEXT
  5
1A7
  8
LAYER0001
 62
     7
 10
-140.018984886477
 20
11.55684485102809
 30
0.0
 40
4.0
  1
18
 41
0.5904761904761884
  7
FDASTYLE1
 72
     5
 11
-135.2951753626675
 21
11.55684485102809
 31
0.0
  0
ENDBLK
  5
7B
  8
0
  0
BLOCK
  8
0
  2
DC_GROUP_17
 70
     0
 10
0.0
 20
0.0
 30
0.0
  3
DC_GROUP_17
  1

  0
LINE
  5
1A8
  8
LAYER0001
  6
CONTINUOUS
 62
     7
 10
-143.8189864788463
 20
9.42094531613048
 30
0.0
 11
-145.8189848864769
 21
9.956844851028087
 31
0.0
  0
LINE
  5
1A9
  8
LAYER0001
  6
CONTINUOUS
 62
     7
 10
-145.8189848864769
 20
9.956844851028087
 30
0.0
 11
-143.8189864788463
 21
10.4927443859257
 31
0.0
  0
LINE
  5
1AA
  8
LAYER0001
  6
CONTINUOUS
 62
     7
 10
-145.8189848864769
 20
9.956844851028087
 30
0.0
 11
-143.8189864788463
 21
9.956844851028087
 31
0.0
  0
ENDBLK
  5
7E
  8
0
  0
BLOCK
  8
0
  2
DC_GROUP_18
 70
     0
 10
0.0
 20
0.0
 30
0.0
  3
DC_GROUP_18
  1

  0
LINE
  5
1AB
  8
LAYER0001
  6
CONTINUOUS
 62
     7
 10
-129.8189832941076
 20
10.4927443859257
 30
0.0
 11
-127.8189848864769
 21
9.956844851028087
 31
0.0
  0
LINE
  5
1AC
  8
LAYER0001
  6
CONTINUOUS
 62
     7
 10
-127.8189848864769
 20
9.956844851028087
 30
0.0
 11
-129.8189832941076
 21
9.42094531613048
 31
0.0
  0
LINE
  5
1AD
  8
LAYER0001
  6
CONTINUOUS
 62
     7
 10
-127.8189848864769
 20
9.956844851028087
 30
0.0
 11
-129.8189832941076
 21
9.956844851028087
 31
0.0
  0
ENDBLK
  5
81
  8
0
  0
BLOCK
  8
0
  2
DC_GROUP_19
 70
     0
 10
0.0
 20
0.0
 30
0.0
  3
DC_GROUP_19
  1

  0
LINE
  5
1AE
  8
LAYER0001
  6
CONTINUOUS
 62
     7
 10
-127.8189848864769
 20
9.956844851028087
 30
0.0
 11
-117.8189848864769
 21
9.956844851028087
 31
0.0
  0
INSERT
  5
1AF
  8
LAYER0001
  6
CONTINUOUS
  2
DC_GROUP_20
 10
0.0
 20
0.0
 30
0.0
  0
INSERT
  5
1B0
  8
LAYER0001
  6
CONTINUOUS
  2
DC_GROUP_21
 10
0.0
 20
0.0
 30
0.0
  0
TEXT
  5
1B1
  8
LAYER0001
 62
     7
 10
-126.0189848864769
 20
11.55684485102809
 30
0.0
 40
4.0
  1
10
 41
0.5904761904761902
  7
FDASTYLE1
 72
     5
 11
-121.2951753626674
 21
11.55684485102809
 31
0.0
  0
ENDBLK
  5
84
  8
0
  0
BLOCK
  8
0
  2
DC_GROUP_20
 70
     0
 10
0.0
 20
0.0
 30
0.0
  3
DC_GROUP_20
  1

  0
LINE
  5
1B2
  8
LAYER0001
  6
CONTINUOUS
 62
     7
 10
-125.8189864788463
 20
9.42094531613048
 30
0.0
 11
-127.8189848864769
 21
9.956844851028087
 31
0.0
  0
LINE
  5
1B3
  8
LAYER0001
  6
CONTINUOUS
 62
     7
 10
-127.8189848864769
 20
9.956844851028087
 30
0.0
 11
-125.8189864788463
 21
10.4927443859257
 31
0.0
  0
LINE
  5
1B4
  8
LAYER0001
  6
CONTINUOUS
 62
     7
 10
-127.8189848864769
 20
9.956844851028087
 30
0.0
 11
-125.8189864788463
 21
9.956844851028087
 31
0.0
  0
ENDBLK
  5
87
  8
0
  0
BLOCK
  8
0
  2
DC_GROUP_21
 70
     0
 10
0.0
 20
0.0
 30
0.0
  3
DC_GROUP_21
  1

  0
LINE
  5
1B5
  8
LAYER0001
  6
CONTINUOUS
 62
     7
 10
-119.8189832941076
 20
10.4927443859257
 30
0.0
 11
-117.8189848864769
 21
9.956844851028087
 31
0.0
  0
LINE
  5
1B6
  8
LAYER0001
  6
CONTINUOUS
 62
     7
 10
-117.8189848864769
 20
9.956844851028087
 30
0.0
 11
-119.8189832941076
 21
9.42094531613048
 31
0.0
  0
LINE
  5
1B7
  8
LAYER0001
  6
CONTINUOUS
 62
     7
 10
-117.8189848864769
 20
9.956844851028087
 30
0.0
 11
-119.8189832941076
 21
9.956844851028087
 31
0.0
  0
ENDBLK
  5
8A
  8
0
  0
BLOCK
  8
0
  2
DC_GROUP_22
 70
     0
 10
0.0
 20
0.0
 30
0.0
  3
DC_GROUP_22
  1

  0
LINE
  5
1B8
  8
LAYER0001
  6
CONTINUOUS
 62
     7
 10
-214.537253319094
 20
-31.79034753178441
 30
0.0
 11
-233.4888457263207
 21
-31.79034753178441
 31
0.0
  0
LINE
  5
1B9
  8
LAYER0001
  6
CONTINUOUS
 62
     7
 10
-214.537253319094
 20
-43.79034753178441
 30
0.0
 11
-233.4888457263207
 21
-43.79034753178441
 31
0.0
  0
LINE
  5
1BA
  8
LAYER0001
  6
CONTINUOUS
 62
     7
 10
-231.2028502429223
 20
-31.79034753178441
 30
0.0
 11
-231.2028502429223
 21
-43.79034753178441
 31
0.0
  0
INSERT
  5
1BB
  8
LAYER0001
  6
CONTINUOUS
  2
DC_GROUP_23
 10
0.0
 20
0.0
 30
0.0
  0
INSERT
  5
1BC
  8
LAYER0001
  6
CONTINUOUS
  2
DC_GROUP_24
 10
0.0
 20
0.0
 30
0.0
  0
TEXT
  5
1BD
  8
LAYER0001
 62
     7
 10
-232.8112253821399
 20
-42.58754769558276
 30
0.0
 40
4.0
  1
M12
 50
89.90000000000001
 41
0.7238095238095257
  7
FDASTYLE1
 72
     5
 11
-232.7960659586189
 21
-33.90184663896446
 31
0.0
  0
ENDBLK
  5
8D
  8
0
  0
BLOCK
  8
0
  2
DC_GROUP_23
 70
     0
 10
0.0
 20
0.0
 30
0.0
  3
DC_GROUP_23
  1

  0
LINE
  5
1BE
  8
LAYER0001
  6
CONTINUOUS
 62
     7
 10
-231.7387497778199
 20
-33.79034593941508
 30
0.0
 11
-231.2028502429223
 21
-31.79034753178441
 31
0.0
  0
LINE
  5
1BF
  8
LAYER0001
  6
CONTINUOUS
 62
     7
 10
-231.2028502429223
 20
-31.79034753178441
 30
0.0
 11
-230.6669507080247
 21
-33.79034593941508
 31
0.0
  0
LINE
  5
1C0
  8
LAYER0001
  6
CONTINUOUS
 62
     7
 10
-231.2028502429223
 20
-31.79034753178441
 30
0.0
 11
-231.2028502429223
 21
-33.79034593941508
 31
0.0
  0
ENDBLK
  5
90
  8
0
  0
BLOCK
  8
0
  2
DC_GROUP_24
 70
     0
 10
0.0
 20
0.0
 30
0.0
  3
DC_GROUP_24
  1

  0
LINE
  5
1C1
  8
LAYER0001
  6
CONTINUOUS
 62
     7
 10
-230.6669507080247
 20
-41.79034912415375
 30
0.0
 11
-231.2028502429223
 21
-43.79034753178441
 31
0.0
  0
LINE
  5
1C2
  8
LAYER0001
  6
CONTINUOUS
 62
     7
 10
-231.2028502429223
 20
-43.79034753178441
 30
0.0
 11
-231.7387497778199
 21
-41.79034912415375
 31
0.0
  0
LINE
  5
1C3
  8
LAYER0001
  6
CONTINUOUS
 62
     7
 10
-231.2028502429223
 20
-43.79034753178441
 30
0.0
 11
-231.2028502429223
 21
-41.79034912415375
 31
0.0
  0
ENDBLK
  5
93
  8
0
  0
BLOCK
  8
0
  2
DC_GROUP_25
 70
     0
 10
0.0
 20
0.0
 30
0.0
  3
DC_GROUP_25
  1

  0
LINE
  5
1C4
  8
LAYER0001
  6
CONTINUOUS
 62
     7
 10
-101.4972533190941
 20
9.956844851028087
 30
0.0
 11
-98.9972533190941
 21
9.956844851028087
 31
0.0
  0
LINE
  5
1C5
  8
LAYER0001
  6
CONTINUOUS
 62
     7
 10
-101.4972533190941
 20
9.956844851028087
 30
0.0
 11
-107.8472533190942
 21
9.956844851028087
 31
0.0
  0
LINE
  5
1C6
  8
LAYER0001
  6
CONTINUOUS
 62
     7
 10
-92.64725331909411
 20
9.956844851028087
 30
0.0
 11
-98.9972533190941
 21
9.956844851028087
 31
0.0
  0
INSERT
  5
1C7
  8
LAYER0001
  6
CONTINUOUS
  2
DC_GROUP_26
 10
0.0
 20
0.0
 30
0.0
  0
INSERT
  5
1C8
  8
LAYER0001
  6
CONTINUOUS
  2
DC_GROUP_27
 10
0.0
 20
0.0
 30
0.0
  0
TEXT
  5
1C9
  8
LAYER0001
 62
     7
 10
-94.77841649558776
 20
11.56521999024566
 30
0.0
 40
4.0
  1
2.5
 50
-0.1000000000000078
 41
0.5587301587301612
  7
FDASTYLE1
 72
     5
 11
-88.0736648027596
 21
11.55351797910668
 31
0.0
  0
ENDBLK
  5
96
  8
0
  0
BLOCK
  8
0
  2
DC_GROUP_26
 70
     0
 10
0.0
 20
0.0
 30
0.0
  3
DC_GROUP_26
  1

  0
LINE
  5
1CA
  8
LAYER0001
  6
CONTINUOUS
 62
     7
 10
-103.4972517267248
 20
10.4927443859257
 30
0.0
 11
-101.4972533190941
 21
9.956844851028087
 31
0.0
  0
LINE
  5
1CB
  8
LAYER0001
  6
CONTINUOUS
 62
     7
 10
-101.4972533190941
 20
9.956844851028087
 30
0.0
 11
-103.4972517267248
 21
9.42094531613048
 31
0.0
  0
LINE
  5
1CC
  8
LAYER0001
  6
CONTINUOUS
 62
     7
 10
-101.4972533190941
 20
9.956844851028087
 30
0.0
 11
-103.4972517267248
 21
9.956844851028087
 31
0.0
  0
ENDBLK
  5
99
  8
0
  0
BLOCK
  8
0
  2
DC_GROUP_27
 70
     0
 10
0.0
 20
0.0
 30
0.0
  3
DC_GROUP_27
  1

  0
LINE
  5
1CD
  8
LAYER0001
  6
CONTINUOUS
 62
     7
 10
-96.99725491146344
 20
9.42094531613048
 30
0.0
 11
-98.9972533190941
 21
9.956844851028087
 31
0.0
  0
LINE
  5
1CE
  8
LAYER0001
  6
CONTINUOUS
 62
     7
 10
-98.9972533190941
 20
9.956844851028087
 30
0.0
 11
-96.99725491146344
 21
10.4927443859257
 31
0.0
  0
LINE
  5
1CF
  8
LAYER0001
  6
CONTINUOUS
 62
     7
 10
-98.9972533190941
 20
9.956844851028087
 30
0.0
 11
-96.99725491146344
 21
9.956844851028087
 31
0.0
  0
ENDBLK
  5
9C
  8
0
  0
BLOCK
  8
0
  2
DC_GROUP_28
 70
     0
 10
0.0
 20
0.0
 30
0.0
  3
DC_GROUP_28
  1

  0
LINE
  5
1D0
  8
LAYER0001
  6
CONTINUOUS
 62
     7
 10
-193.9972533190942
 20
-142.0724189762034
 30
0.0
 11
-98.9972533190941
 21
-142.0724189762034
 31
0.0
  0
LINE
  5
1D1
  8
LAYER0001
  6
CONTINUOUS
 62
     7
 10
-193.9972685778831
 20
-120.631281369675
 30
0.0
 11
-193.9972526074346
 21
-143.0724189762031
 31
0.0
  0
LINE
  5
1D2
  8
LAYER0001
  6
CONTINUOUS
 62
     7
 10
-98.9972533190941
 20
-96.6553444800266
 30
0.0
 11
-98.9972533190941
 21
-143.0724189762034
 31
0.0
  0
INSERT
  5
1D3
  8
LAYER0001
  6
CONTINUOUS
  2
DC_GROUP_29
 10
0.0
 20
0.0
 30
0.0
  0
INSERT
  5
1D4
  8
LAYER0001
  6
CONTINUOUS
  2
DC_GROUP_30
 10
0.0
 20
0.0
 30
0.0
  0
TEXT
  5
1D5
  8
LAYER0001
 62
     7
 10
-149.6944559198312
 20
-140.4668363623712
 30
0.0
 40
4.0
  1
95
 50
-0.1000000000000078
 41
0.6476190476190452
  7
FDASTYLE1
 72
     5
 11
-144.5135114299185
 21
-140.475878825524
 31
0.0
  0
ENDBLK
  5
9F
  8
0
  0
BLOCK
  8
0
  2
DC_GROUP_29
 70
     0
 10
0.0
 20
0.0
 30
0.0
  3
DC_GROUP_29
  1

  0
LINE
  5
1D6
  8
LAYER0001
  6
CONTINUOUS
 62
     7
 10
-191.9972549114635
 20
-142.608318511101
 30
0.0
 11
-193.9972533190942
 21
-142.0724189762034
 31
0.0
  0
LINE
  5
1D7
  8
LAYER0001
  6
CONTINUOUS
 62
     7
 10
-193.9972533190942
 20
-142.0724189762034
 30
0.0
 11
-191.9972549114635
 21
-141.5365194413058
 31
0.0
  0
LINE
  5
1D8
  8
LAYER0001
  6
CONTINUOUS
 62
     7
 10
-193.9972533190942
 20
-142.0724189762034
 30
0.0
 11
-191.9972549114635
 21
-142.0724189762034
 31
0.0
  0
ENDBLK
  5
A2
  8
0
  0
BLOCK
  8
0
  2
DC_GROUP_30
 70
     0
 10
0.0
 20
0.0
 30
0.0
  3
DC_GROUP_30
  1

  0
LINE
  5
1D9
  8
LAYER0001
  6
CONTINUOUS
 62
     7
 10
-100.9972517267248
 20
-141.5365194413058
 30
0.0
 11
-98.9972533190941
 21
-142.0724189762034
 31
0.0
  0
LINE
  5
1DA
  8
LAYER0001
  6
CONTINUOUS
 62
     7
 10
-98.9972533190941
 20
-142.0724189762034
 30
0.0
 11
-100.9972517267248
 21
-142.608318511101
 31
0.0
  0
LINE
  5
1DB
  8
LAYER0001
  6
CONTINUOUS
 62
     7
 10
-98.9972533190941
 20
-142.0724189762034
 30
0.0
 11
-100.9972517267248
 21
-142.0724189762034
 31
0.0
  0
ENDBLK
  5
A5
  8
0
  0
BLOCK
  8
0
  2
DC_GROUP_31
 70
     0
 10
0.0
 20
0.0
 30
0.0
  3
DC_GROUP_31
  1

  0
LINE
  5
1DC
  8
LAYER0001
  6
CONTINUOUS
 62
     7
 10
-98.9972533190941
 20
154.4246555199734
 30
0.0
 11
-98.9972533190941
 21
166.8690762963406
 31
0.0
  0
LINE
  5
1DD
  8
LAYER0001
  6
CONTINUOUS
 62
     7
 10
-99.9972533190941
 20
156.4246555199734
 30
0.0
 11
-99.9972533190941
 21
166.8690762963406
 31
0.0
  0
LINE
  5
1DE
  8
LAYER0001
  6
CONTINUOUS
 62
     7
 10
-98.9972533190941
 20
165.8690762963406
 30
0.0
 11
-99.9972533190941
 21
165.8690762963406
 31
0.0
  0
LINE
  5
1DF
  8
LAYER0001
  6
CONTINUOUS
 62
     7
 10
-98.9972533190941
 20
165.8690762963406
 30
0.0
 11
-92.64725331909411
 21
165.8690762963406
 31
0.0
  0
LINE
  5
1E0
  8
LAYER0001
  6
CONTINUOUS
 62
     7
 10
-106.3472533190942
 20
165.8690762963406
 30
0.0
 11
-99.9972533190941
 21
165.8690762963406
 31
0.0
  0
INSERT
  5
1E1
  8
LAYER0001
  6
CONTINUOUS
  2
DC_GROUP_32
 10
0.0
 20
0.0
 30
0.0
  0
INSERT
  5
1E2
  8
LAYER0001
  6
CONTINUOUS
  2
DC_GROUP_33
 10
0.0
 20
0.0
 30
0.0
  0
TEXT
  5
1E3
  8
LAYER0001
 62
     7
 10
-95.24391317016831
 20
167.4690762963406
 30
0.0
 40
4.0
  1
1
 41
0.1904761904761898
  7
FDASTYLE1
 72
     5
 11
-94.48200840826355
 21
167.4690762963406
 31
0.0
  0
ENDBLK
  5
A8
  8
0
  0
BLOCK
  8
0
  2
DC_GROUP_32
 70
     0
 10
0.0
 20
0.0
 30
0.0
  3
DC_GROUP_32
  1

  0
LINE
  5
1E4
  8
LAYER0001
  6
CONTINUOUS
 62
     7
 10
-96.99725491146344
 20
165.333176761443
 30
0.0
 11
-98.9972533190941
 21
165.8690762963406
 31
0.0
  0
LINE
  5
1E5
  8
LAYER0001
  6
CONTINUOUS
 62
     7
 10
-98.9972533190941
 20
165.8690762963406
 30
0.0
 11
-96.99725491146344
 21
166.4049758312382
 31
0.0
  0
LINE
  5
1E6
  8
LAYER0001
  6
CONTINUOUS
 62
     7
 10
-98.9972533190941
 20
165.8690762963406
 30
0.0
 11
-96.99725491146344
 21
165.8690762963406
 31
0.0
  0
ENDBLK
  5
AB
  8
0
  0
BLOCK
  8
0
  2
DC_GROUP_33
 70
     0
 10
0.0
 20
0.0
 30
0.0
  3
DC_GROUP_33
  1

  0
LINE
  5
1E7
  8
LAYER0001
  6
CONTINUOUS
 62
     7
 10
-101.9972517267248
 20
166.4049758312382
 30
0.0
 11
-99.9972533190941
 21
165.8690762963406
 31
0.0
  0
LINE
  5
1E8
  8
LAYER0001
  6
CONTINUOUS
 62
     7
 10
-99.9972533190941
 20
165.8690762963406
 30
0.0
 11
-101.9972517267248
 21
165.333176761443
 31
0.0
  0
LINE
  5
1E9
  8
LAYER0001
  6
CONTINUOUS
 62
     7
 10
-99.9972533190941
 20
165.8690762963406
 30
0.0
 11
-101.9972517267248
 21
165.8690762963406
 31
0.0
  0
ENDBLK
  5
AE
  8
0
  0
BLOCK
  8
0
  2
DC_GROUP_34
 70
     0
 10
0.0
 20
0.0
 30
0.0
  3
DC_GROUP_34
  1

  0
LINE
  5
1EA
  8
LAYER0001
  6
CONTINUOUS
 62
     7
 10
-65.15488515503161
 20
100.8846555199734
 30
0.0
 11
-60.81124868042223
 21
100.8846555199734
 31
0.0
  0
LINE
  5
1EB
  8
LAYER0001
  6
CONTINUOUS
 62
     7
 10
-98.70760627174003
 20
81.88465551997339
 30
0.0
 11
-60.81124868042223
 21
81.88465551997339
 31
0.0
  0
LINE
  5
1EC
  8
LAYER0001
  6
CONTINUOUS
 62
     7
 10
-63.09724797851793
 20
100.8846555199734
 30
0.0
 11
-63.09724797851793
 21
81.88465551997339
 31
0.0
  0
INSERT
  5
1ED
  8
LAYER0001
  6
CONTINUOUS
  2
DC_GROUP_35
 10
0.0
 20
0.0
 30
0.0
  0
INSERT
  5
1EE
  8
LAYER0001
  6
CONTINUOUS
  2
DC_GROUP_36
 10
0.0
 20
0.0
 30
0.0
  0
TEXT
  5
1EF
  8
LAYER0001
 62
     7
 10
-64.71120816850639
 20
83.38746023005253
 30
0.0
 40
4.0
  1
NIN13
 50
89.90000000000001
 41
0.6476190476190473
  7
FDASTYLE1
 72
     5
 11
-64.68860201062428
 21
96.33982145483415
 31
0.0
  0
ENDBLK
  5
B1
  8
0
  0
BLOCK
  8
0
  2
DC_GROUP_35
 70
     0
 10
0.0
 20
0.0
 30
0.0
  3
DC_GROUP_35
  1

  0
LINE
  5
1F0
  8
LAYER0001
  6
CONTINUOUS
 62
     7
 10
-63.63314751341554
 20
98.88465711234274
 30
0.0
 11
-63.09724797851793
 21
100.8846555199734
 31
0.0
  0
LINE
  5
1F1
  8
LAYER0001
  6
CONTINUOUS
 62
     7
 10
-63.09724797851793
 20
100.8846555199734
 30
0.0
 11
-62.56134844362031
 21
98.88465711234274
 31
0.0
  0
LINE
  5
1F2
  8
LAYER0001
  6
CONTINUOUS
 62
     7
 10
-63.09724797851793
 20
100.8846555199734
 30
0.0
 11
-63.09724797851793
 21
98.88465711234274
 31
0.0
  0
ENDBLK
  5
B4
  8
0
  0
BLOCK
  8
0
  2
DC_GROUP_36
 70
     0
 10
0.0
 20
0.0
 30
0.0
  3
DC_GROUP_36
  1

  0
LINE
  5
1F3
  8
LAYER0001
  6
CONTINUOUS
 62
     7
 10
-62.56134844362031
 20
83.88465392760405
 30
0.0
 11
-63.09724797851793
 21
81.88465551997339
 31
0.0
  0
LINE
  5
1F4
  8
LAYER0001
  6
CONTINUOUS
 62
     7
 10
-63.09724797851793
 20
81.88465551997339
 30
0.0
 11
-63.63314751341554
 21
83.88465392760405
 31
0.0
  0
LINE
  5
1F5
  8
LAYER0001
  6
CONTINUOUS
 62
     7
 10
-63.09724797851793
 20
81.88465551997339
 30
0.0
 11
-63.09724797851793
 21
83.88465392760405
 31
0.0
  0
ENDBLK
  5
B7
  8
0
  0
BLOCK
  8
0
  2
DC_GROUP_37
 70
     0
 10
0.0
 20
0.0
 30
0.0
  3
DC_GROUP_37
  1

  0
LINE
  5
1F6
  8
LAYER0001
  6
CONTINUOUS
 62
     7
 10
-59.38120732910387
 20
28.8846555199734
 30
0.0
 11
-48.79460134155504
 21
28.8846555199734
 31
0.0
  0
LINE
  5
1F7
  8
LAYER0001
  6
CONTINUOUS
 62
     7
 10
-96.45725331909409
 20
81.88465551997339
 30
0.0
 11
-48.79460134155504
 21
81.88465551997339
 31
0.0
  0
LINE
  5
1F8
  8
LAYER0001
  6
CONTINUOUS
 62
     7
 10
-51.08060445434801
 20
28.8846555199734
 30
0.0
 11
-51.08060445434801
 21
81.88465551997339
 31
0.0
  0
INSERT
  5
1F9
  8
LAYER0001
  6
CONTINUOUS
  2
DC_GROUP_38
 10
0.0
 20
0.0
 30
0.0
  0
INSERT
  5
1FA
  8
LAYER0001
  6
CONTINUOUS
  2
DC_GROUP_39
 10
0.0
 20
0.0
 30
0.0
  0
TEXT
  5
1FB
  8
LAYER0001
 62
     7
 10
-52.70294222049277
 20
42.58746754086873
 30
0.0
 40
4.0
  1
MAX 54.9
 50
89.90000000000001
 41
0.690476190476191
  7
FDASTYLE1
 72
     5
 11
-52.66437877469387
 21
64.68267198314329
 31
0.0
  0
ENDBLK
  5
BA
  8
0
  0
BLOCK
  8
0
  2
DC_GROUP_38
 70
     0
 10
0.0
 20
0.0
 30
0.0
  3
DC_GROUP_38
  1

  0
LINE
  5
1FC
  8
LAYER0001
  6
CONTINUOUS
 62
     7
 10
-50.5447049194504
 20
30.88465392760406
 30
0.0
 11
-51.08060445434801
 21
28.8846555199734
 31
0.0
  0
LINE
  5
1FD
  8
LAYER0001
  6
CONTINUOUS
 62
     7
 10
-51.08060445434801
 20
28.8846555199734
 30
0.0
 11
-51.61650398924562
 21
30.88465392760406
 31
0.0
  0
LINE
  5
1FE
  8
LAYER0001
  6
CONTINUOUS
 62
     7
 10
-51.08060445434801
 20
28.8846555199734
 30
0.0
 11
-51.08060445434801
 21
30.88465392760406
 31
0.0
  0
ENDBLK
  5
BD
  8
0
  0
BLOCK
  8
0
  2
DC_GROUP_39
 70
     0
 10
0.0
 20
0.0
 30
0.0
  3
DC_GROUP_39
  1

  0
LINE
  5
1FF
  8
LAYER0001
  6
CONTINUOUS
 62
     7
 10
-51.61650398924562
 20
79.88465711234272
 30
0.0
 11
-51.08060445434801
 21
81.88465551997339
 31
0.0
  0
LINE
  5
200
  8
LAYER0001
  6
CONTINUOUS
 62
     7
 10
-51.08060445434801
 20
81.88465551997339
 30
0.0
 11
-50.5447049194504
 21
79.88465711234272
 31
0.0
  0
LINE
  5
201
  8
LAYER0001
  6
CONTINUOUS
 62
     7
 10
-51.08060445434801
 20
81.88465551997339
 30
0.0
 11
-51.08060445434801
 21
79.88465711234272
 31
0.0
  0
ENDBLK
  5
C0
  8
0
  0
BLOCK
  8
0
  2
DC_GROUP_40
 70
     0
 10
0.0
 20
0.0
 30
0.0
  3
DC_GROUP_40
  1

  0
LINE
  5
202
  8
LAYER0001
  6
CONTINUOUS
 62
     7
 10
-95.45725331909409
 20
81.88465551997339
 30
0.0
 11
-36.79460134155504
 21
81.88465551997339
 31
0.0
  0
LINE
  5
203
  8
LAYER0001
  6
CONTINUOUS
 62
     7
 10
-95.526200157473
 20
153.8846555199734
 30
0.0
 11
-36.79460134155504
 21
153.8846555199734
 31
0.0
  0
LINE
  5
204
  8
LAYER0001
  6
CONTINUOUS
 62
     7
 10
-39.08060445434801
 20
81.88465551997339
 30
0.0
 11
-39.08060445434801
 21
153.8846555199734
 31
0.0
  0
INSERT
  5
205
  8
LAYER0001
  6
CONTINUOUS
  2
DC_GROUP_41
 10
0.0
 20
0.0
 30
0.0
  0
INSERT
  5
206
  8
LAYER0001
  6
CONTINUOUS
  2
DC_GROUP_42
 10
0.0
 20
0.0
 30
0.0
  0
TEXT
  5
207
  8
LAYER0001
 62
     7
 10
-40.68618706818013
 20
114.6874529192363
 30
0.0
 40
4.0
  1
72
 50
89.90000000000001
 41
0.6476190476190488
  7
FDASTYLE1
 72
     5
 11
-40.67714460502729
 21
119.868397409149
 31
0.0
  0
ENDBLK
  5
C3
  8
0
  0
BLOCK
  8
0
  2
DC_GROUP_41
 70
     0
 10
0.0
 20
0.0
 30
0.0
  3
DC_GROUP_41
  1

  0
LINE
  5
208
  8
LAYER0001
  6
CONTINUOUS
 62
     7
 10
-38.5447049194504
 20
83.88465392760404
 30
0.0
 11
-39.08060445434801
 21
81.88465551997339
 31
0.0
  0
LINE
  5
209
  8
LAYER0001
  6
CONTINUOUS
 62
     7
 10
-39.08060445434801
 20
81.88465551997339
 30
0.0
 11
-39.61650398924562
 21
83.88465392760405
 31
0.0
  0
LINE
  5
20A
  8
LAYER0001
  6
CONTINUOUS
 62
     7
 10
-39.08060445434801
 20
81.88465551997339
 30
0.0
 11
-39.08060445434801
 21
83.88465392760405
 31
0.0
  0
ENDBLK
  5
C6
  8
0
  0
BLOCK
  8
0
  2
DC_GROUP_42
 70
     0
 10
0.0
 20
0.0
 30
0.0
  3
DC_GROUP_42
  1

  0
LINE
  5
20B
  8
LAYER0001
  6
CONTINUOUS
 62
     7
 10
-39.61650398924562
 20
151.8846571123427
 30
0.0
 11
-39.08060445434801
 21
153.8846555199734
 31
0.0
  0
LINE
  5
20C
  8
LAYER0001
  6
CONTINUOUS
 62
     7
 10
-39.08060445434801
 20
153.8846555199734
 30
0.0
 11
-38.5447049194504
 21
151.8846571123427
 31
0.0
  0
LINE
  5
20D
  8
LAYER0001
  6
CONTINUOUS
 62
     7
 10
-39.08060445434801
 20
153.8846555199734
 30
0.0
 11
-39.08060445434801
 21
151.8846571123427
 31
0.0
  0
ENDBLK
  5
C9
  8
0
  0
BLOCK
  8
0
  2
DC_GROUP_43
 70
     0
 10
0.0
 20
0.0
 30
0.0
  3
DC_GROUP_43
  1

  0
LINE
  5
20E
  8
LAYER0001
  6
CONTINUOUS
 62
     7
 10
-82.66647369567083
 20
136.1303659843058
 30
0.0
 11
-58.69075209205781
 21
165.8812647129716
 31
0.0
  0
LINE
  5
20F
  8
LAYER0001
  6
CONTINUOUS
 62
     7
 10
-58.69075383789293
 20
165.8812680688015
 30
0.0
 11
-45.80574407226793
 21
165.8812680688015
 31
0.0
  0
INSERT
  5
210
  8
LAYER0001
  6
CONTINUOUS
  2
DC_GROUP_44
 10
0.0
 20
0.0
 30
0.0
  0
TEXT
  5
211
  8
LAYER0001
 62
     7
 10
-57.2343138659691
 20
167.4812680688015
 30
0.0
 40
4.0
  1
M12
 41
0.7238095238095236
  7
FDASTYLE1
 72
     5
 11
-48.54859958025482
 21
167.4812680688015
 31
0.0
  0
ENDBLK
  5
CC
  8
0
  0
BLOCK
  8
0
  2
DC_GROUP_44
 70
     0
 10
0.0
 20
0.0
 30
0.0
  3
DC_GROUP_44
  1

  0
LINE
  5
212
  8
LAYER0001
  6
CONTINUOUS
 62
     7
 10
-80.99423984688339
 20
137.351355704573
 30
0.0
 11
-82.66647369567083
 21
136.1303659843058
 31
0.0
  0
LINE
  5
213
  8
LAYER0001
  6
CONTINUOUS
 62
     7
 10
-82.66647369567083
 20
136.1303659843058
 30
0.0
 11
-81.8287743472345
 21
138.0238922565445
 31
0.0
  0
LINE
  5
214
  8
LAYER0001
  6
CONTINUOUS
 62
     7
 10
-82.66647369567083
 20
136.1303659843058
 30
0.0
 11
-81.41150709705893
 21
137.6876239805587
 31
0.0
  0
ENDBLK
  5
CF
  8
0
  0
BLOCK
  8
0
  2
DC_GROUP_45
 70
     0
 10
0.0
 20
0.0
 30
0.0
  3
DC_GROUP_45
  1

  0
LINE
  5
215
  8
LAYER0001
  6
CONTINUOUS
 62
     7
 10
-66.74385915405505
 20
100.8846555199734
 30
0.0
 11
-62.09724797851793
 21
100.8846555199734
 31
0.0
  0
LINE
  5
216
  8
LAYER0001
  6
CONTINUOUS
 62
     7
 10
-66.74385915405505
 20
130.8846555199734
 30
0.0
 11
-62.09724797851793
 21
130.8846555199734
 31
0.0
  0
LINE
  5
217
  8
LAYER0001
  6
CONTINUOUS
 62
     7
 10
-63.09724797851793
 20
100.8846555199734
 30
0.0
 11
-63.09724797851793
 21
130.8846555199734
 31
0.0
  0
INSERT
  5
218
  8
LAYER0001
  6
CONTINUOUS
  2
DC_GROUP_46
 10
0.0
 20
0.0
 30
0.0
  0
INSERT
  5
219
  8
LAYER0001
  6
CONTINUOUS
  2
DC_GROUP_47
 10
0.0
 20
0.0
 30
0.0
  0
TEXT
  5
21A
  8
LAYER0001
 62
     7
 10
-64.69724797851792
 20
112.6846555199734
 30
0.0
 40
4.0
  1
30
 50
90.0
 41
0.6476190476190489
  7
FDASTYLE1
 72
     5
 11
-64.69724797851792
 21
117.8656079009258
 31
0.0
  0
ENDBLK
  5
D2
  8
0
  0
BLOCK
  8
0
  2
DC_GROUP_46
 70
     0
 10
0.0
 20
0.0
 30
0.0
  3
DC_GROUP_46
  1

  0
LINE
  5
21B
  8
LAYER0001
  6
CONTINUOUS
 62
     7
 10
-62.56134844362031
 20
102.8846539276041
 30
0.0
 11
-63.09724797851793
 21
100.8846555199734
 31
0.0
  0
LINE
  5
21C
  8
LAYER0001
  6
CONTINUOUS
 62
     7
 10
-63.09724797851793
 20
100.8846555199734
 30
0.0
 11
-63.63314751341554
 21
102.8846539276041
 31
0.0
  0
LINE
  5
21D
  8
LAYER0001
  6
CONTINUOUS
 62
     7
 10
-63.09724797851793
 20
100.8846555199734
 30
0.0
 11
-63.09724797851793
 21
102.8846539276041
 31
0.0
  0
ENDBLK
  5
D5
  8
0
  0
BLOCK
  8
0
  2
DC_GROUP_47
 70
     0
 10
0.0
 20
0.0
 30
0.0
  3
DC_GROUP_47
  1

  0
LINE
  5
21E
  8
LAYER0001
  6
CONTINUOUS
 62
     7
 10
-63.63314751341554
 20
128.8846571123427
 30
0.0
 11
-63.09724797851793
 21
130.8846555199734
 31
0.0
  0
LINE
  5
21F
  8
LAYER0001
  6
CONTINUOUS
 62
     7
 10
-63.09724797851793
 20
130.8846555199734
 30
0.0
 11
-62.56134844362031
 21
128.8846571123427
 31
0.0
  0
LINE
  5
220
  8
LAYER0001
  6
CONTINUOUS
 62
     7
 10
-63.09724797851793
 20
130.8846555199734
 30
0.0
 11
-63.09724797851793
 21
128.8846571123427
 31
0.0
  0
ENDBLK
  5
D8
  8
0
  0
BLOCK
  8
0
  2
DC_GROUP_48
 70
     0
 10
0.0
 20
0.0
 30
0.0
  3
DC_GROUP_48
  1

  0
LINE
  5
221
  8
LAYER0001
  6
CONTINUOUS
 62
     7
 10
-59.38504491455309
 20
87.88465551997339
 30
0.0
 11
-50.08060445434801
 21
87.88465551997339
 31
0.0
  0
LINE
  5
222
  8
LAYER0001
  6
CONTINUOUS
 62
     7
 10
-95.45725331909409
 20
143.8846555199734
 30
0.0
 11
-50.08060445434801
 21
143.8846555199734
 31
0.0
  0
LINE
  5
223
  8
LAYER0001
  6
CONTINUOUS
 62
     7
 10
-51.08060445434801
 20
87.88465551997339
 30
0.0
 11
-51.08060445434801
 21
143.8846555199734
 31
0.0
  0
INSERT
  5
224
  8
LAYER0001
  6
CONTINUOUS
  2
DC_GROUP_49
 10
0.0
 20
0.0
 30
0.0
  0
INSERT
  5
225
  8
LAYER0001
  6
CONTINUOUS
  2
DC_GROUP_50
 10
0.0
 20
0.0
 30
0.0
  0
TEXT
  5
226
  8
LAYER0001
 62
     7
 10
-52.68060445434801
 20
112.6846555199734
 30
0.0
 40
4.0
  1
56
 50
90.0
 41
0.6476190476190489
  7
FDASTYLE1
 72
     5
 11
-52.68060445434801
 21
117.8656079009258
 31
0.0
  0
ENDBLK
  5
DB
  8
0
  0
BLOCK
  8
0
  2
DC_GROUP_49
 70
     0
 10
0.0
 20
0.0
 30
0.0
  3
DC_GROUP_49
  1

  0
LINE
  5
227
  8
LAYER0001
  6
CONTINUOUS
 62
     7
 10
-50.5447049194504
 20
89.88465392760405
 30
0.0
 11
-51.08060445434801
 21
87.88465551997339
 31
0.0
  0
LINE
  5
228
  8
LAYER0001
  6
CONTINUOUS
 62
     7
 10
-51.08060445434801
 20
87.88465551997339
 30
0.0
 11
-51.61650398924562
 21
89.88465392760405
 31
0.0
  0
LINE
  5
229
  8
LAYER0001
  6
CONTINUOUS
 62
     7
 10
-51.08060445434801
 20
87.88465551997339
 30
0.0
 11
-51.08060445434801
 21
89.88465392760405
 31
0.0
  0
ENDBLK
  5
DE
  8
0
  0
BLOCK
  8
0
  2
DC_GROUP_50
 70
     0
 10
0.0
 20
0.0
 30
0.0
  3
DC_GROUP_50
  1

  0
LINE
  5
22A
  8
LAYER0001
  6
CONTINUOUS
 62
     7
 10
-51.61650398924562
 20
141.8846571123427
 30
0.0
 11
-51.08060445434801
 21
143.8846555199734
 31
0.0
  0
LINE
  5
22B
  8
LAYER0001
  6
CONTINUOUS
 62
     7
 10
-51.08060445434801
 20
143.8846555199734
 30
0.0
 11
-50.5447049194504
 21
141.8846571123427
 31
0.0
  0
LINE
  5
22C
  8
LAYER0001
  6
CONTINUOUS
 62
     7
 10
-51.08060445434801
 20
143.8846555199734
 30
0.0
 11
-51.08060445434801
 21
141.8846571123427
 31
0.0
  0
ENDBLK
  5
E1
  8
0
  0
BLOCK
  8
0
  2
DC_GROUP_51
 70
     0
 10
0.0
 20
0.0
 30
0.0
  3
DC_GROUP_51
  1

  0
LINE
  5
22D
  8
LAYER0001
  6
CONTINUOUS
 62
     7
 10
-189.7972563708519
 20
-116.3832430395969
 30
0.0
 11
-145.8189848864769
 21
-116.3832430395969
 31
0.0
  0
LINE
  5
22E
  8
LAYER0001
  6
CONTINUOUS
 62
     7
 10
-189.7972563708519
 20
-86.1553444800266
 30
0.0
 11
-189.7972563708519
 21
-117.3832430395969
 31
0.0
  0
LINE
  5
22F
  8
LAYER0001
  6
CONTINUOUS
 62
     7
 10
-145.8189848864769
 20
-17.6553444800266
 30
0.0
 11
-145.8189848864769
 21
-117.3832430395969
 31
0.0
  0
INSERT
  5
230
  8
LAYER0001
  6
CONTINUOUS
  2
DC_GROUP_52
 10
0.0
 20
0.0
 30
0.0
  0
INSERT
  5
231
  8
LAYER0001
  6
CONTINUOUS
  2
DC_GROUP_53
 10
0.0
 20
0.0
 30
0.0
  0
TEXT
  5
232
  8
LAYER0001
 62
     7
 10
-180.6081206286644
 20
-115.3832430395969
 30
0.0
 40
4.0
  1
MAX 60.3
 41
0.6952380952380963
  7
FDASTYLE1
 72
     5
 11
-158.3605015810454
 21
-115.3832430395969
 31
0.0
  0
ENDBLK
  5
E4
  8
0
  0
BLOCK
  8
0
  2
DC_GROUP_52
 70
     0
 10
0.0
 20
0.0
 30
0.0
  3
DC_GROUP_52
  1

  0
LINE
  5
233
  8
LAYER0001
  6
CONTINUOUS
 62
     7
 10
-187.7972579632213
 20
-116.9191425744945
 30
0.0
 11
-189.7972563708519
 21
-116.3832430395969
 31
0.0
  0
LINE
  5
234
  8
LAYER0001
  6
CONTINUOUS
 62
     7
 10
-189.7972563708519
 20
-116.3832430395969
 30
0.0
 11
-187.7972579632212
 21
-115.8473435046993
 31
0.0
  0
LINE
  5
235
  8
LAYER0001
  6
CONTINUOUS
 62
     7
 10
-189.7972563708519
 20
-116.3832430395969
 30
0.0
 11
-187.7972579632213
 21
-116.3832430395969
 31
0.0
  0
ENDBLK
  5
E7
  8
0
  0
BLOCK
  8
0
  2
DC_GROUP_53
 70
     0
 10
0.0
 20
0.0
 30
0.0
  3
DC_GROUP_53
  1

  0
LINE
  5
236
  8
LAYER0001
  6
CONTINUOUS
 62
     7
 10
-147.8189832941076
 20
-115.8473435046993
 30
0.0
 11
-145.8189848864769
 21
-116.3832430395969
 31
0.0
  0
LINE
  5
237
  8
LAYER0001
  6
CONTINUOUS
 62
     7
 10
-145.8189848864769
 20
-116.3832430395969
 30
0.0
 11
-147.8189832941076
 21
-116.9191425744945
 31
0.0
  0
LINE
  5
238
  8
LAYER0001
  6
CONTINUOUS
 62
     7
 10
-145.8189848864769
 20
-116.3832430395969
 30
0.0
 11
-147.8189832941076
 21
-116.3832430395969
 31
0.0
  0
ENDBLK
  5
EA
  8
0
  0
BLOCK
  8
0
  2
DC_GROUP_54
 70
     0
 10
0.0
 20
0.0
 30
0.0
  3
DC_GROUP_54
  1

  0
LINE
  5
239
  8
LAYER0001
  6
CONTINUOUS
 62
     7
 10
-95.54840932495347
 20
-23.6153444800266
 30
0.0
 11
-60.81124868042223
 21
-23.6153444800266
 31
0.0
  0
LINE
  5
23A
  8
LAYER0001
  6
CONTINUOUS
 62
     7
 10
-63.09724797851793
 20
-23.6153444800266
 30
0.0
 11
-63.09724797851793
 21
53.8846555199734
 31
0.0
  0
INSERT
  5
23B
  8
LAYER0001
  6
CONTINUOUS
  2
DC_GROUP_55
 10
0.0
 20
0.0
 30
0.0
  0
TEXT
  5
23C
  8
LAYER0001
 62
     7
 10
-64.69724797851792
 20
19.61798758174098
 30
0.0
 40
4.0
  1
φ105H7
 50
90.0
 41
0.604209324963915
  7
FDASTYLE1
 72
     5
 11
-64.69724797851792
 21
34.60237884084607
 31
0.0
  0
ENDBLK
  5
ED
  8
0
  0
BLOCK
  8
0
  2
DC_GROUP_55
 70
     0
 10
0.0
 20
0.0
 30
0.0
  3
DC_GROUP_55
  1

  0
LINE
  5
23D
  8
LAYER0001
  6
CONTINUOUS
 62
     7
 10
-62.56134844362031
 20
-21.61534607239594
 30
0.0
 11
-63.09724797851793
 21
-23.6153444800266
 31
0.0
  0
LINE
  5
23E
  8
LAYER0001
  6
CONTINUOUS
 62
     7
 10
-63.09724797851793
 20
-23.6153444800266
 30
0.0
 11
-63.63314751341554
 21
-21.61534607239594
 31
0.0
  0
LINE
  5
23F
  8
LAYER0001
  6
CONTINUOUS
 62
     7
 10
-63.09724797851793
 20
-23.6153444800266
 30
0.0
 11
-63.09724797851793
 21
-21.61534607239594
 31
0.0
  0
ENDBLK
  5
F0
  8
0
  0
BLOCK
  8
0
  2
DC_GROUP_56
 70
     0
 10
0.0
 20
0.0
 30
0.0
  3
DC_GROUP_56
  1

  0
LINE
  5
240
  8
LAYER0001
  6
CONTINUOUS
 62
     7
 10
-211.9972533190942
 20
-116.3832430395969
 30
0.0
 11
-189.7972563708519
 21
-116.3832430395969
 31
0.0
  0
LINE
  5
241
  8
LAYER0001
  6
CONTINUOUS
 62
     7
 10
-211.9972685778831
 20
-46.33034753178441
 30
0.0
 11
-211.997253101276
 21
-117.3832430395969
 31
0.0
  0
LINE
  5
242
  8
LAYER0001
  6
CONTINUOUS
 62
     7
 10
-189.7972563708519
 20
-86.1553444800266
 30
0.0
 11
-189.7972563708519
 21
-117.3832430395969
 31
0.0
  0
INSERT
  5
243
  8
LAYER0001
  6
CONTINUOUS
  2
DC_GROUP_57
 10
0.0
 20
0.0
 30
0.0
  0
INSERT
  5
244
  8
LAYER0001
  6
CONTINUOUS
  2
DC_GROUP_58
 10
0.0
 20
0.0
 30
0.0
  0
TEXT
  5
245
  8
LAYER0001
 62
     7
 10
-207.6809905017113
 20
-114.7832430395969
 30
0.0
 40
4.0
  1
22.2
 41
0.6095238095238109
  7
FDASTYLE1
 72
     5
 11
-197.9286095493304
 21
-114.7832430395969
 31
0.0
  0
ENDBLK
  5
F3
  8
0
  0
BLOCK
  8
0
  2
DC_GROUP_57
 70
     0
 10
0.0
 20
0.0
 30
0.0
  3
DC_GROUP_57
  1

  0
LINE
  5
246
  8
LAYER0001
  6
CONTINUOUS
 62
     7
 10
-209.9972549114635
 20
-116.9191425744945
 30
0.0
 11
-211.9972533190942
 21
-116.3832430395969
 31
0.0
  0
LINE
  5
247
  8
LAYER0001
  6
CONTINUOUS
 62
     7
 10
-211.9972533190942
 20
-116.3832430395969
 30
0.0
 11
-209.9972549114635
 21
-115.8473435046993
 31
0.0
  0
LINE
  5
248
  8
LAYER0001
  6
CONTINUOUS
 62
     7
 10
-211.9972533190942
 20
-116.3832430395969
 30
0.0
 11
-209.9972549114635
 21
-116.3832430395969
 31
0.0
  0
ENDBLK
  5
F6
  8
0
  0
BLOCK
  8
0
  2
DC_GROUP_58
 70
     0
 10
0.0
 20
0.0
 30
0.0
  3
DC_GROUP_58
  1

  0
LINE
  5
249
  8
LAYER0001
  6
CONTINUOUS
 62
     7
 10
-191.7972547784826
 20
-115.8473435046993
 30
0.0
 11
-189.7972563708519
 21
-116.3832430395969
 31
0.0
  0
LINE
  5
24A
  8
LAYER0001
  6
CONTINUOUS
 62
     7
 10
-189.7972563708519
 20
-116.3832430395969
 30
0.0
 11
-191.7972547784826
 21
-116.9191425744945
 31
0.0
  0
LINE
  5
24B
  8
LAYER0001
  6
CONTINUOUS
 62
     7
 10
-189.7972563708519
 20
-116.3832430395969
 30
0.0
 11
-191.7972547784826
 21
-116.3832430395969
 31
0.0
  0
ENDBLK
  5
F9
  8
0
  0
BLOCK
  8
0
  2
DC_GROUP_59
 70
     0
 10
0.0
 20
0.0
 30
0.0
  3
DC_GROUP_59
  1

  0
LINE
  5
24C
  8
LAYER0001
  6
CONTINUOUS
 62
     7
 10
-100.0139360570267
 20
147.5513277142183
 30
0.0
 11
-76.41319390084952
 21
175.8377072687112
 31
0.0
  0
LINE
  5
24D
  8
LAYER0001
  6
CONTINUOUS
 62
     7
 10
-76.41319265014879
 20
175.8377042260281
 30
0.0
 11
-29.78352155334703
 21
175.8377042260281
 31
0.0
  0
INSERT
  5
24E
  8
LAYER0001
  6
CONTINUOUS
  2
DC_GROUP_60
 10
0.0
 20
0.0
 30
0.0
  0
TEXT
  5
24F
  8
LAYER0001
 62
     7
 10
-76.13889302856676
 20
177.4377042260281
 30
0.0
 40
4.0
  1
ｾﾚｰｼｮﾝP1.5山60ﾟ
 41
0.6242892786195452
  7
FDASTYLE1
 72
     5
 11
-40.67926200297659
 21
177.4377042260281
 31
0.0
  0
ENDBLK
  5
FC
  8
0
  0
BLOCK
  8
0
  2
DC_GROUP_60
 70
     0
 10
0.0
 20
0.0
 30
0.0
  3
DC_GROUP_60
  1

  0
LINE
  5
250
  8
LAYER0001
  6
CONTINUOUS
 62
     7
 10
-98.32116345864142
 20
148.7436795382135
 30
0.0
 11
-100.0139360570267
 21
147.5513277142183
 31
0.0
  0
LINE
  5
251
  8
LAYER0001
  6
CONTINUOUS
 62
     7
 10
-100.0139360570267
 20
147.5513277142183
 30
0.0
 11
-99.14413066016314
 21
149.4303222628043
 31
0.0
  0
LINE
  5
252
  8
LAYER0001
  6
CONTINUOUS
 62
     7
 10
-100.0139360570267
 20
147.5513277142183
 30
0.0
 11
-98.7326470594023
 21
149.0870009005089
 31
0.0
  0
ENDBLK
  5
FF
  8
0
  0
BLOCK
  8
0
  2
DC_GROUP_61
 70
     0
 10
0.0
 20
0.0
 30
0.0
  3
DC_GROUP_61
  1

  0
LINE
  5
253
  8
LAYER0001
  6
CONTINUOUS
 62
     7
 10
75.30454344870832
 20
85.44513305171924
 30
0.0
 11
43.7753261492624
 21
155.7350406246339
 31
0.0
  0
LINE
  5
254
  8
LAYER0001
  6
CONTINUOUS
 62
     7
 10
43.77532355418821
 20
155.7350430932156
 30
0.0
 11
17.0631371547007
 21
155.7350430932156
 31
0.0
  0
INSERT
  5
255
  8
LAYER0001
  6
CONTINUOUS
  2
DC_GROUP_62
 10
0.0
 20
0.0
 30
0.0
  0
TEXT
  5
256
  8
LAYER0001
 62
     7
 10
17.69036719432502
 20
157.3350430932156
 30
0.0
 40
4.0
  1
PCD133.35
 41
0.6148148148148146
  7
FDASTYLE1
 72
     5
 11
39.82370052765835
 21
157.3350430932156
 31
0.0
  0
ENDBLK
  5
102
  8
0
  0
BLOCK
  8
0
  2
DC_GROUP_62
 70
     0
 10
0.0
 20
0.0
 30
0.0
  3
DC_GROUP_62
  1

  0
LINE
  5
257
  8
LAYER0001
  6
CONTINUOUS
 62
     7
 10
74.97496259468171
 20
87.48928529719603
 30
0.0
 11
75.30454344870832
 21
85.44513305171924
 31
0.0
  0
LINE
  5
258
  8
LAYER0001
  6
CONTINUOUS
 62
     7
 10
75.30454344870832
 20
85.44513305171924
 30
0.0
 11
73.99703957195091
 21
87.05062847503666
 31
0.0
  0
LINE
  5
259
  8
LAYER0001
  6
CONTINUOUS
 62
     7
 10
75.30454344870832
 20
85.44513305171924
 30
0.0
 11
74.48600108331631
 21
87.26995688611635
 31
0.0
  0
ENDBLK
  5
105
  8
0
  0
BLOCK
  8
0
  2
DC_GROUP_63
 70
     0
 10
0.0
 20
0.0
 30
0.0
  3
DC_GROUP_63
  1

  0
LINE
  5
25A
  8
LAYER0001
  6
CONTINUOUS
 62
     7
 10
69.5630612456231
 20
86.31234449506292
 30
0.0
 11
25.68841204514102
 21
130.1868457615364
 31
0.0
  0
LINE
  5
25B
  8
LAYER0001
  6
CONTINUOUS
 62
     7
 10
-10.65127872013919
 20
28.88469679628025
 30
0.0
 11
-16.27230758240535
 21
28.88477824652988
 31
0.0
  0
ARC
  5
25C
  8
LAYER0001
  6
CONTINUOUS
 62
     7
 10
126.9907623969616
 20
28.8846555199734
 30
0.0
 40
140.97705078125
 50
135.0000413227577
 51
179.9999640278213
  0
INSERT
  5
25D
  8
LAYER0001
  6
CONTINUOUS
  2
DC_GROUP_64
 10
0.0
 20
0.0
 30
0.0
  0
INSERT
  5
25E
  8
LAYER0001
  6
CONTINUOUS
  2
DC_GROUP_65
 10
0.0
 20
0.0
 30
0.0
  0
TEXT
  5
25F
  8
LAYER0001
 62
     7
 10
-6.346241026781684
 20
79.57159956771396
 30
0.0
 40
4.0
  1
45ﾟ
 50
67.40000000000001
 41
0.3999999999999999
  7
FDASTYLE1
 72
     5
 11
-4.501623478014627
 21
84.00300860985627
 31
0.0
  0
ENDBLK
  5
108
  8
0
  0
BLOCK
  8
0
  2
DC_GROUP_64
 70
     0
 10
0.0
 20
0.0
 30
0.0
  3
DC_GROUP_64
  1

  0
LINE
  5
260
  8
LAYER0001
  6
CONTINUOUS
 62
     7
 10
25.51910063856541
 20
127.5224434028553
 30
0.0
 11
27.3048619026538
 21
128.570412223818
 31
0.0
  0
LINE
  5
261
  8
LAYER0001
  6
CONTINUOUS
 62
     7
 10
27.3048619026538
 20
128.570412223818
 30
0.0
 11
26.28233434196442
 21
126.7699624662132
 31
0.0
  0
LINE
  5
262
  8
LAYER0001
  6
CONTINUOUS
 62
     7
 10
27.3048619026538
 20
128.570412223818
 30
0.0
 11
25.90071749026491
 21
127.1462029345343
 31
0.0
  0
ENDBLK
  5
10B
  8
0
  0
BLOCK
  8
0
  2
DC_GROUP_65
 70
     0
 10
0.0
 20
0.0
 30
0.0
  3
DC_GROUP_65
  1

  0
LINE
  5
263
  8
LAYER0001
  6
CONTINUOUS
 62
     7
 10
-13.43621450999669
 20
30.88089048628256
 30
0.0
 11
-13.98628838426049
 21
28.8847440300121
 31
0.0
  0
LINE
  5
264
  8
LAYER0001
  6
CONTINUOUS
 62
     7
 10
-13.98628838426049
 20
28.8847440300121
 30
0.0
 11
-14.50798661102348
 21
30.88849374048519
 31
0.0
  0
LINE
  5
265
  8
LAYER0001
  6
CONTINUOUS
 62
     7
 10
-13.98628838426049
 20
28.8847440300121
 30
0.0
 11
-13.97210056051009
 21
30.88469211338387
 31
0.0
  0
ENDBLK
  5
10E
  8
0
  0
BLOCK
  8
0
  2
DC_GROUP_66
 70
     0
 10
0.0
 20
0.0
 30
0.0
  3
DC_GROUP_66
  1

  0
LINE
  5
266
  8
LAYER0001
  6
CONTINUOUS
 62
     7
 10
-10.65125786671018
 20
28.88426642085231
 30
0.0
 11
-16.27229149708128
 21
28.88426642085231
 31
0.0
  0
LINE
  5
267
  8
LAYER0001
  6
CONTINUOUS
 62
     7
 10
67.0487838636199
 20
-5.72284502543453
 30
0.0
 11
2.92128245145021
 21
-42.74680729887458
 31
0.0
  0
ARC
  5
268
  8
LAYER0001
  6
CONTINUOUS
 62
     7
 10
126.9907318793836
 20
28.8846555199734
 30
0.0
 40
140.9770202636719
 50
179.9999813306654
 51
209.9999753353022
  0
INSERT
  5
269
  8
LAYER0001
  6
CONTINUOUS
  2
DC_GROUP_67
 10
0.0
 20
0.0
 30
0.0
  0
INSERT
  5
26A
  8
LAYER0001
  6
CONTINUOUS
  2
DC_GROUP_68
 10
0.0
 20
0.0
 30
0.0
  0
TEXT
  5
26B
  8
LAYER0001
 62
     7
 10
-8.716386856885595
 20
-3.13263454875236
 30
0.0
 40
4.0
  1
30ﾟ
 50
-75.10000000000002
 41
0.3999999999999996
  7
FDASTYLE1
 72
     5
 11
-7.482149449743057
 21
-7.771239729494736
 31
0.0
  0
ENDBLK
  5
111
  8
0
  0
BLOCK
  8
0
  2
DC_GROUP_67
 70
     0
 10
0.0
 20
0.0
 30
0.0
  3
DC_GROUP_67
  1

  0
LINE
  5
26C
  8
LAYER0001
  6
CONTINUOUS
 62
     7
 10
-14.5079885188914
 20
26.8809522423742
 30
0.0
 11
-13.98628838428078
 21
28.88470145611726
 31
0.0
  0
LINE
  5
26D
  8
LAYER0001
  6
CONTINUOUS
 62
     7
 10
-13.98628838428078
 20
28.88470145611726
 30
0.0
 11
-13.43621641062579
 21
26.88855447610104
 31
0.0
  0
LINE
  5
26E
  8
LAYER0001
  6
CONTINUOUS
 62
     7
 10
-13.98628838428078
 20
28.88470145611726
 30
0.0
 11
-13.97210246475859
 21
26.88475335923762
 31
0.0
  0
ENDBLK
  5
114
  8
0
  0
BLOCK
  8
0
  2
DC_GROUP_68
 70
     0
 10
0.0
 20
0.0
 30
0.0
  3
DC_GROUP_68
  1

  0
LINE
  5
26F
  8
LAYER0001
  6
CONTINUOUS
 62
     7
 10
4.379324965881011
 20
-39.60005167888811
 30
0.0
 11
4.901020637314517
 21
-41.60380205466752
 31
0.0
  0
LINE
  5
270
  8
LAYER0001
  6
CONTINUOUS
 62
     7
 10
4.901020637314517
 20
-41.60380205466752
 30
0.0
 11
3.447341575869416
 21
-40.12935330060904
 31
0.0
  0
LINE
  5
271
  8
LAYER0001
  6
CONTINUOUS
 62
     7
 10
4.901020637314517
 20
-41.60380205466752
 30
0.0
 11
3.913333270875214
 21
-39.86470248974857
 31
0.0
  0
ENDBLK
  5
117
  8
0
  0
BLOCK
  8
0
  2
DC_GROUP_69
 70
     0
 10
0.0
 20
0.0
 30
0.0
  3
DC_GROUP_69
  1

  0
LINE
  5
272
  8
LAYER0001
  6
CONTINUOUS
 62
     7
 10
116.990739508778
 20
161.3761587541326
 30
0.0
 11
136.9907395087782
 21
161.3761587541326
 31
0.0
  0
LINE
  5
273
  8
LAYER0001
  6
CONTINUOUS
 62
     7
 10
116.990739508778
 20
154.8404050948705
 30
0.0
 11
116.990739508778
 21
162.3761587541326
 31
0.0
  0
LINE
  5
274
  8
LAYER0001
  6
CONTINUOUS
 62
     7
 10
136.9907395087782
 20
155.0898908354318
 30
0.0
 11
136.9907395087782
 21
162.3761587541326
 31
0.0
  0
INSERT
  5
275
  8
LAYER0001
  6
CONTINUOUS
  2
DC_GROUP_70
 10
0.0
 20
0.0
 30
0.0
  0
INSERT
  5
276
  8
LAYER0001
  6
CONTINUOUS
  2
DC_GROUP_71
 10
0.0
 20
0.0
 30
0.0
  0
TEXT
  5
277
  8
LAYER0001
 62
     7
 10
121.3907395087781
 20
162.3761587541326
 30
0.0
 40
4.0
  1
20H8
 41
0.633333333333332
  7
FDASTYLE1
 72
     5
 11
131.5240728421114
 21
162.3761587541326
 31
0.0
  0
ENDBLK
  5
11A
  8
0
  0
BLOCK
  8
0
  2
DC_GROUP_70
 70
     0
 10
0.0
 20
0.0
 30
0.0
  3
DC_GROUP_70
  1

  0
LINE
  5
278
  8
LAYER0001
  6
CONTINUOUS
 62
     7
 10
118.9907379164087
 20
160.840259219235
 30
0.0
 11
116.990739508778
 21
161.3761587541326
 31
0.0
  0
LINE
  5
279
  8
LAYER0001
  6
CONTINUOUS
 62
     7
 10
116.990739508778
 20
161.3761587541326
 30
0.0
 11
118.9907379164087
 21
161.9120582890302
 31
0.0
  0
LINE
  5
27A
  8
LAYER0001
  6
CONTINUOUS
 62
     7
 10
116.990739508778
 20
161.3761587541326
 30
0.0
 11
118.9907379164087
 21
161.3761587541326
 31
0.0
  0
ENDBLK
  5
11D
  8
0
  0
BLOCK
  8
0
  2
DC_GROUP_71
 70
     0
 10
0.0
 20
0.0
 30
0.0
  3
DC_GROUP_71
  1

  0
LINE
  5
27B
  8
LAYER0001
  6
CONTINUOUS
 62
     7
 10
134.9907411011475
 20
161.9120582890302
 30
0.0
 11
136.9907395087782
 21
161.3761587541326
 31
0.0
  0
LINE
  5
27C
  8
LAYER0001
  6
CONTINUOUS
 62
     7
 10
136.9907395087782
 20
161.3761587541326
 30
0.0
 11
134.9907411011475
 21
160.840259219235
 31
0.0
  0
LINE
  5
27D
  8
LAYER0001
  6
CONTINUOUS
 62
     7
 10
136.9907395087782
 20
161.3761587541326
 30
0.0
 11
134.9907411011475
 21
161.3761587541326
 31
0.0
  0
ENDBLK
  5
120
  8
0
  0
BLOCK
  8
0
  2
DC_GROUP_72
 70
     0
 10
0.0
 20
0.0
 30
0.0
  3
DC_GROUP_72
  1

  0
LINE
  5
27E
  8
LAYER0001
  6
CONTINUOUS
 62
     7
 10
104.490739508778
 20
172.4589556230054
 30
0.0
 11
149.4907395087782
 21
172.4589556230054
 31
0.0
  0
LINE
  5
27F
  8
LAYER0001
  6
CONTINUOUS
 62
     7
 10
104.490739508778
 20
155.1064496235221
 30
0.0
 11
104.490739508778
 21
173.4589556230054
 31
0.0
  0
LINE
  5
280
  8
LAYER0001
  6
CONTINUOUS
 62
     7
 10
149.4907395087782
 20
155.3206099494907
 30
0.0
 11
149.4907395087782
 21
173.4589556230054
 31
0.0
  0
INSERT
  5
281
  8
LAYER0001
  6
CONTINUOUS
  2
DC_GROUP_73
 10
0.0
 20
0.0
 30
0.0
  0
INSERT
  5
282
  8
LAYER0001
  6
CONTINUOUS
  2
DC_GROUP_74
 10
0.0
 20
0.0
 30
0.0
  0
TEXT
  5
283
  8
LAYER0001
 62
     7
 10
124.1907395087781
 20
173.4589556230054
 30
0.0
 40
4.0
  1
45
 41
0.5666666666666682
  7
FDASTYLE1
 72
     5
 11
128.7240728421115
 21
173.4589556230054
 31
0.0
  0
ENDBLK
  5
123
  8
0
  0
BLOCK
  8
0
  2
DC_GROUP_73
 70
     0
 10
0.0
 20
0.0
 30
0.0
  3
DC_GROUP_73
  1

  0
LINE
  5
284
  8
LAYER0001
  6
CONTINUOUS
 62
     7
 10
106.4907379164087
 20
171.9230560881078
 30
0.0
 11
104.490739508778
 21
172.4589556230054
 31
0.0
  0
LINE
  5
285
  8
LAYER0001
  6
CONTINUOUS
 62
     7
 10
104.490739508778
 20
172.4589556230054
 30
0.0
 11
106.4907379164087
 21
172.994855157903
 31
0.0
  0
LINE
  5
286
  8
LAYER0001
  6
CONTINUOUS
 62
     7
 10
104.490739508778
 20
172.4589556230054
 30
0.0
 11
106.4907379164087
 21
172.4589556230054
 31
0.0
  0
ENDBLK
  5
126
  8
0
  0
BLOCK
  8
0
  2
DC_GROUP_74
 70
     0
 10
0.0
 20
0.0
 30
0.0
  3
DC_GROUP_74
  1

  0
LINE
  5
287
  8
LAYER0001
  6
CONTINUOUS
 62
     7
 10
147.4907411011475
 20
172.994855157903
 30
0.0
 11
149.4907395087782
 21
172.4589556230054
 31
0.0
  0
LINE
  5
288
  8
LAYER0001
  6
CONTINUOUS
 62
     7
 10
149.4907395087782
 20
172.4589556230054
 30
0.0
 11
147.4907411011475
 21
171.9230560881078
 31
0.0
  0
LINE
  5
289
  8
LAYER0001
  6
CONTINUOUS
 62
     7
 10
149.4907395087782
 20
172.4589556230054
 30
0.0
 11
147.4907411011475
 21
172.4589556230054
 31
0.0
  0
ENDBLK
  5
129
  8
0
  0
BLOCK
  8
0
  2
DC_GROUP_75
 70
     0
 10
0.0
 20
0.0
 30
0.0
  3
DC_GROUP_75
  1

  0
LINE
  5
28A
  8
LAYER0001
  6
CONTINUOUS
 62
     7
 10
72.76450447997841
 20
-4.439062062733136
 30
0.0
 11
21.79164807978172
 21
-80.30020574731364
 31
0.0
  0
LINE
  5
28B
  8
LAYER0001
  6
CONTINUOUS
 62
     7
 10
21.7916485511365
 20
-80.3002047095188
 30
0.0
 11
-18.74738809548946
 21
-80.3002047095188
 31
0.0
  0
INSERT
  5
28C
  8
LAYER0001
  6
CONTINUOUS
  2
DC_GROUP_76
 10
0.0
 20
0.0
 30
0.0
  0
TEXT
  5
28D
  8
LAYER0001
 62
     7
 10
-18.0750232017932
 20
-78.7002047095188
 30
0.0
 40
4.0
  1
4-M8×15 PCD120
 41
0.546253118792102
  7
FDASTYLE1
 72
     5
 11
12.95215394559819
 21
-78.7002047095188
 31
0.0
  0
ENDBLK
  5
12C
  8
0
  0
BLOCK
  8
0
  2
DC_GROUP_76
 70
     0
 10
0.0
 20
0.0
 30
0.0
  3
DC_GROUP_76
  1

  0
LINE
  5
28E
  8
LAYER0001
  6
CONTINUOUS
 62
     7
 10
71.20425789504712
 20
-5.800242629828766
 30
0.0
 11
72.76450447997841
 21
-4.439062062733136
 31
0.0
  0
LINE
  5
28F
  8
LAYER0001
  6
CONTINUOUS
 62
     7
 10
72.76450447997841
 20
-4.439062062733136
 30
0.0
 11
72.09388446658751
 21
-6.398003291986392
 31
0.0
  0
LINE
  5
290
  8
LAYER0001
  6
CONTINUOUS
 62
     7
 10
72.76450447997841
 20
-4.439062062733136
 30
0.0
 11
71.6490711808173
 21
-6.099122960907579
 31
0.0
  0
ENDBLK
  5
12F
  8
0
  0
BLOCK
  8
0
  2
DC_GROUP_77
 70
     0
 10
0.0
 20
0.0
 30
0.0
  3
DC_GROUP_77
  1

  0
LINE
  5
291
  8
0
  6
CONTINUOUS
 62
     9
 10
-144.8189848864769
 20
-14.86534448002659
 30
0.0
 11
-220.8773516835133
 21
-14.86534448002659
 31
0.0
  0
LINE
  5
292
  8
0
  6
CONTINUOUS
 62
     9
 10
-144.8189848864769
 20
72.63465551997339
 30
0.0
 11
-220.8773516835133
 21
72.63465551997339
 31
0.0
  0
LINE
  5
293
  8
0
  6
CONTINUOUS
 62
     9
 10
-219.8773516835133
 20
-14.86534448002659
 30
0.0
 11
-219.8773516835133
 21
72.63465551997339
 31
0.0
  0
INSERT
  5
294
  8
0
  6
CONTINUOUS
  2
DC_GROUP_78
 10
0.0
 20
0.0
 30
0.0
  0
INSERT
  5
295
  8
0
  6
CONTINUOUS
  2
DC_GROUP_79
 10
0.0
 20
0.0
 30
0.0
  0
TEXT
  5
296
  8
0
 62
     7
 10
-220.8773516835133
 20
17.68465551997341
 30
0.0
 40
4.0
  1
φ87.5Ｈ7
 50
90.0
 41
0.5804197184766931
  7
FDASTYLE1
 72
     5
 11
-220.8773516835133
 21
34.86507918688353
 31
0.0
  0
ENDBLK
  5
132
  8
0
  0
BLOCK
  8
0
  2
DC_GROUP_78
 70
     0
 10
0.0
 20
0.0
 30
0.0
  3
DC_GROUP_78
  1

  0
LINE
  5
297
  8
0
  6
CONTINUOUS
 62
     9
 10
-219.3414521486156
 20
-12.86534607239593
 30
0.0
 11
-219.8773516835133
 21
-14.86534448002659
 31
0.0
  0
LINE
  5
298
  8
0
  6
CONTINUOUS
 62
     9
 10
-219.8773516835133
 20
-14.86534448002659
 30
0.0
 11
-220.4132512184109
 21
-12.86534607239593
 31
0.0
  0
LINE
  5
299
  8
0
  6
CONTINUOUS
 62
     9
 10
-219.8773516835133
 20
-14.86534448002659
 30
0.0
 11
-219.8773516835133
 21
-12.86534607239593
 31
0.0
  0
ENDBLK
  5
135
  8
0
  0
BLOCK
  8
0
  2
DC_GROUP_79
 70
     0
 10
0.0
 20
0.0
 30
0.0
  3
DC_GROUP_79
  1

  0
LINE
  5
29A
  8
0
  6
CONTINUOUS
 62
     9
 10
-220.4132512184109
 20
70.63465711234274
 30
0.0
 11
-219.8773516835133
 21
72.63465551997339
 31
0.0
  0
LINE
  5
29B
  8
0
  6
CONTINUOUS
 62
     9
 10
-219.8773516835133
 20
72.63465551997339
 30
0.0
 11
-219.3414521486156
 21
70.63465711234274
 31
0.0
  0
LINE
  5
29C
  8
0
  6
CONTINUOUS
 62
     9
 10
-219.8773516835133
 20
72.63465551997339
 30
0.0
 11
-219.8773516835133
 21
70.63465711234274
 31
0.0
  0
ENDBLK
  5
138
  8
0
  0
BLOCK
  8
0
  2
DC_GROUP_80
 70
     0
 10
0.0
 20
0.0
 30
0.0
  3
DC_GROUP_80
  1

  0
LINE
  5
29D
  8
0
  6
CONTINUOUS
 62
     9
 10
-174.8189848864769
 20
-6.1153444800266
 30
0.0
 11
-209.0208465721985
 21
-6.1153444800266
 31
0.0
  0
LINE
  5
29E
  8
0
  6
CONTINUOUS
 62
     9
 10
-174.8189848864769
 20
63.8846555199734
 30
0.0
 11
-209.0208465721985
 21
63.8846555199734
 31
0.0
  0
LINE
  5
29F
  8
0
  6
CONTINUOUS
 62
     9
 10
-208.0208465721985
 20
-6.1153444800266
 30
0.0
 11
-208.0208465721985
 21
63.8846555199734
 31
0.0
  0
INSERT
  5
2A0
  8
0
  6
CONTINUOUS
  2
DC_GROUP_81
 10
0.0
 20
0.0
 30
0.0
  0
INSERT
  5
2A1
  8
0
  6
CONTINUOUS
  2
DC_GROUP_82
 10
0.0
 20
0.0
 30
0.0
  0
TEXT
  5
2A2
  8
0
 62
     7
 10
-209.0208465721985
 20
24.08465551997339
 30
0.0
 40
4.0
  1
φ70
 50
90.0
 41
0.5712890625
  7
FDASTYLE1
 72
     5
 11
-209.0208465721985
 21
31.39715551997339
 31
0.0
  0
TEXT
  5
2A3
  8
0
 62
     7
 10
-211.2208465721985
 20
34.68465551997341
 30
0.0
 40
2.2
  1
+0.5
 50
90.0
 41
0.657142857142855
  7
FDASTYLE1
 72
     5
 11
-211.2208465721985
 21
40.46751266283054
 31
0.0
  0
TEXT
  5
2A4
  8
0
 62
     7
 10
-208.8208465721986
 20
34.68465551997341
 30
0.0
 40
2.2
  1
　0
 50
90.0
 41
0.5409466566491373
  7
FDASTYLE1
 72
     5
 11
-208.8208465721986
 21
37.30283733815524
 31
0.0
  0
ENDBLK
  5
13B
  8
0
  0
BLOCK
  8
0
  2
DC_GROUP_81
 70
     0
 10
0.0
 20
0.0
 30
0.0
  3
DC_GROUP_81
  1

  0
LINE
  5
2A5
  8
0
  6
CONTINUOUS
 62
     9
 10
-207.4849470373009
 20
-4.115346072395938
 30
0.0
 11
-208.0208465721985
 21
-6.1153444800266
 31
0.0
  0
LINE
  5
2A6
  8
0
  6
CONTINUOUS
 62
     9
 10
-208.0208465721985
 20
-6.1153444800266
 30
0.0
 11
-208.5567461070962
 21
-4.115346072395938
 31
0.0
  0
LINE
  5
2A7
  8
0
  6
CONTINUOUS
 62
     9
 10
-208.0208465721985
 20
-6.1153444800266
 30
0.0
 11
-208.0208465721985
 21
-4.115346072395938
 31
0.0
  0
ENDBLK
  5
13E
  8
0
  0
BLOCK
  8
0
  2
DC_GROUP_82
 70
     0
 10
0.0
 20
0.0
 30
0.0
  3
DC_GROUP_82
  1

  0
LINE
  5
2A8
  8
0
  6
CONTINUOUS
 62
     9
 10
-208.5567461070962
 20
61.88465711234274
 30
0.0
 11
-208.0208465721985
 21
63.8846555199734
 31
0.0
  0
LINE
  5
2A9
  8
0
  6
CONTINUOUS
 62
     9
 10
-208.0208465721985
 20
63.8846555199734
 30
0.0
 11
-207.4849470373009
 21
61.88465711234274
 31
0.0
  0
LINE
  5
2AA
  8
0
  6
CONTINUOUS
 62
     9
 10
-208.0208465721985
 20
63.8846555199734
 30
0.0
 11
-208.0208465721985
 21
61.88465711234274
 31
0.0
  0
ENDBLK
  5
141
  8
0
  0
BLOCK
  8
0
  2
DC_GROUP_83
 70
     0
 10
0.0
 20
0.0
 30
0.0
  3
DC_GROUP_83
  1

  0
LINE
  5
2AB
  8
0
  6
CONTINUOUS
 62
     7
 10
-144.797271629641
 20
-96.16685855039597
 30
0.0
 11
-133.3766260798197
 21
-109.985894588417
 31
0.0
  0
LINE
  5
2AC
  8
0
  6
CONTINUOUS
 62
     7
 10
-133.3766260798197
 20
-109.985894588417
 30
0.0
 11
-133.5651854355966
 21
-110.214052315703
 31
0.0
  0
LINE
  5
2AD
  8
0
  6
CONTINUOUS
 62
     7
 10
-133.5651854355966
 20
-110.214052315703
 30
0.0
 11
-114.3651854355965
 21
-110.214052315703
 31
0.0
  0
INSERT
  5
2AE
  8
0
  6
CONTINUOUS
  2
DC_GROUP_84
 10
0.0
 20
0.0
 30
0.0
  0
TEXT
  5
2AF
  8
0
 62
     7
 10
-133.5651854355966
 20
-110.214052315703
 30
0.0
 40
4.0
  1
Ｍ10×20
 41
0.5712890625
  7
FDASTYLE1
 72
     5
 11
-118.9401854355966
 21
-110.214052315703
 31
0.0
  0
ENDBLK
  5
144
  8
0
  0
BLOCK
  8
0
  2
DC_GROUP_84
 70
     0
 10
0.0
 20
0.0
 30
0.0
  3
DC_GROUP_84
  1

  0
LINE
  5
2B0
  8
0
  6
CONTINUOUS
 62
     7
 10
-143.9362693474996
 20
-98.04990316276606
 30
0.0
 11
-144.797271629641
 21
-96.16685855039597
 31
0.0
  0
LINE
  5
2B1
  8
0
  6
CONTINUOUS
 62
     7
 10
-144.797271629641
 20
-96.16685855039597
 30
0.0
 11
-143.1100977087106
 21
-97.36711939811242
 31
0.0
  0
LINE
  5
2B2
  8
0
  6
CONTINUOUS
 62
     7
 10
-144.797271629641
 20
-96.16685855039597
 30
0.0
 11
-143.5231835281051
 21
-97.70851128043923
 31
0.0
  0
ENDBLK
  5
147
  8
0
  0
BLOCK
  8
0
  2
DC_GROUP_85
 70
     0
 10
0.0
 20
0.0
 30
0.0
  3
DC_GROUP_85
  1

  0
LINE
  5
2B3
  8
0
  6
CONTINUOUS
 62
     9
 10
-144.7972563708519
 20
-101.9462112288969
 30
0.0
 11
-144.7972563708519
 21
-107.0085697528442
 31
0.0
  0
LINE
  5
2B4
  8
0
  6
CONTINUOUS
 62
     9
 10
-189.7972563708519
 20
-84.61534448002661
 30
0.0
 11
-189.7972563708519
 21
-107.0085697528442
 31
0.0
  0
LINE
  5
2B5
  8
0
  6
CONTINUOUS
 62
     9
 10
-189.7972563708519
 20
-106.0085697528442
 30
0.0
 11
-144.7972563708519
 21
-106.0085697528442
 31
0.0
  0
INSERT
  5
2B6
  8
0
  6
CONTINUOUS
  2
DC_GROUP_86
 10
0.0
 20
0.0
 30
0.0
  0
INSERT
  5
2B7
  8
0
  6
CONTINUOUS
  2
DC_GROUP_87
 10
0.0
 20
0.0
 30
0.0
  0
TEXT
  5
2B8
  8
0
 62
     7
 10
-170.497256370852
 20
-105.0085697528442
 30
0.0
 40
4.0
  1
45
 41
0.6476190476190453
  7
FDASTYLE1
 72
     5
 11
-165.3163039898996
 21
-105.0085697528442
 31
0.0
  0
ENDBLK
  5
14A
  8
0
  0
BLOCK
  8
0
  2
DC_GROUP_86
 70
     0
 10
0.0
 20
0.0
 30
0.0
  3
DC_GROUP_86
  1

  0
LINE
  5
2B9
  8
0
  6
CONTINUOUS
 62
     9
 10
-187.7972579632213
 20
-106.5444692877418
 30
0.0
 11
-189.7972563708519
 21
-106.0085697528442
 31
0.0
  0
LINE
  5
2BA
  8
0
  6
CONTINUOUS
 62
     9
 10
-189.7972563708519
 20
-106.0085697528442
 30
0.0
 11
-187.7972579632213
 21
-105.4726702179466
 31
0.0
  0
LINE
  5
2BB
  8
0
  6
CONTINUOUS
 62
     9
 10
-189.7972563708519
 20
-106.0085697528442
 30
0.0
 11
-187.7972579632213
 21
-106.0085697528442
 31
0.0
  0
ENDBLK
  5
14D
  8
0
  0
BLOCK
  8
0
  2
DC_GROUP_87
 70
     0
 10
0.0
 20
0.0
 30
0.0
  3
DC_GROUP_87
  1

  0
LINE
  5
2BC
  8
0
  6
CONTINUOUS
 62
     9
 10
-146.7972547784826
 20
-105.4726702179466
 30
0.0
 11
-144.7972563708519
 21
-106.0085697528442
 31
0.0
  0
LINE
  5
2BD
  8
0
  6
CONTINUOUS
 62
     9
 10
-144.7972563708519
 20
-106.0085697528442
 30
0.0
 11
-146.7972547784826
 21
-106.5444692877418
 31
0.0
  0
LINE
  5
2BE
  8
0
  6
CONTINUOUS
 62
     9
 10
-144.7972563708519
 20
-106.0085697528442
 30
0.0
 11
-146.7972547784826
 21
-106.0085697528442
 31
0.0
  0
ENDBLK
  5
150
  8
0
  0
BLOCK
  8
0
  2
DC_GROUP_88
 70
     0
 10
0.0
 20
0.0
 30
0.0
  3
DC_GROUP_88
  1

  0
LINE
  5
2BF
  8
0
  6
CONTINUOUS
 62
     9
 10
-193.9972685778831
 20
-97.11534448002661
 30
0.0
 11
-193.9972685778831
 21
-132.7997331576898
 31
0.0
  0
LINE
  5
2C0
  8
0
  6
CONTINUOUS
 62
     9
 10
-189.7972563708519
 20
-84.61534448002661
 30
0.0
 11
-189.7972563708519
 21
-132.7997331576898
 31
0.0
  0
LINE
  5
2C1
  8
0
  6
CONTINUOUS
 62
     9
 10
-193.9972685778831
 20
-131.7997331576898
 30
0.0
 11
-189.7972563708519
 21
-131.7997331576898
 31
0.0
  0
LINE
  5
2C2
  8
0
  6
CONTINUOUS
 62
     9
 10
-98.9972533190941
 20
-95.11534448002661
 30
0.0
 11
-98.9972533190941
 21
-132.7997331576898
 31
0.0
  0
LINE
  5
2C3
  8
0
  6
CONTINUOUS
 62
     9
 10
-207.5291185778831
 20
-131.7997331576898
 30
0.0
 11
-193.9972685778831
 21
-131.7997331576898
 31
0.0
  0
LINE
  5
2C4
  8
0
  6
CONTINUOUS
 62
     9
 10
-189.7972563708519
 20
-131.7997331576898
 30
0.0
 11
-98.9972533190941
 21
-131.7997331576898
 31
0.0
  0
INSERT
  5
2C5
  8
0
  6
CONTINUOUS
  2
DC_GROUP_89
 10
0.0
 20
0.0
 30
0.0
  0
INSERT
  5
2C6
  8
0
  6
CONTINUOUS
  2
DC_GROUP_90
 10
0.0
 20
0.0
 30
0.0
  0
INSERT
  5
2C7
  8
0
  6
CONTINUOUS
  2
DC_GROUP_91
 10
0.0
 20
0.0
 30
0.0
  0
TEXT
  5
2C8
  8
0
 62
     7
 10
-206.5291185778831
 20
-130.7997331576898
 30
0.0
 40
4.0
  1
4.2
 41
0.5587301587301591
  7
FDASTYLE1
 72
     5
 11
-199.8243566731212
 21
-130.7997331576898
 31
0.0
  0
TEXT
  5
2C9
  8
0
 62
     7
 10
-150.7972548449731
 20
-130.7997331576898
 30
0.0
 40
4.0
  1
90.8
 41
0.6095238095238091
  7
FDASTYLE1
 72
     5
 11
-141.0448738925921
 21
-130.7997331576898
 31
0.0
  0
ENDBLK
  5
153
  8
0
  0
BLOCK
  8
0
  2
DC_GROUP_89
 70
     0
 10
0.0
 20
0.0
 30
0.0
  3
DC_GROUP_89
  1

  0
LINE
  5
2CA
  8
0
  6
CONTINUOUS
 62
     9
 10
-195.9972669855138
 20
-131.2638336227922
 30
0.0
 11
-193.9972685778831
 21
-131.7997331576898
 31
0.0
  0
LINE
  5
2CB
  8
0
  6
CONTINUOUS
 62
     9
 10
-193.9972685778831
 20
-131.7997331576898
 30
0.0
 11
-195.9972669855138
 21
-132.3356326925874
 31
0.0
  0
LINE
  5
2CC
  8
0
  6
CONTINUOUS
 62
     9
 10
-193.9972685778831
 20
-131.7997331576898
 30
0.0
 11
-195.9972669855138
 21
-131.7997331576898
 31
0.0
  0
ENDBLK
  5
156
  8
0
  0
BLOCK
  8
0
  2
DC_GROUP_90
 70
     0
 10
0.0
 20
0.0
 30
0.0
  3
DC_GROUP_90
  1

  0
LINE
  5
2CD
  8
0
  6
CONTINUOUS
 62
     9
 10
-100.9972517267248
 20
-131.2638336227922
 30
0.0
 11
-98.9972533190941
 21
-131.7997331576898
 31
0.0
  0
LINE
  5
2CE
  8
0
  6
CONTINUOUS
 62
     9
 10
-98.9972533190941
 20
-131.7997331576898
 30
0.0
 11
-100.9972517267248
 21
-132.3356326925874
 31
0.0
  0
LINE
  5
2CF
  8
0
  6
CONTINUOUS
 62
     9
 10
-98.9972533190941
 20
-131.7997331576898
 30
0.0
 11
-100.9972517267248
 21
-131.7997331576898
 31
0.0
  0
ENDBLK
  5
159
  8
0
  0
BLOCK
  8
0
  2
DC_GROUP_91
 70
     0
 10
0.0
 20
0.0
 30
0.0
  3
DC_GROUP_91
  1

  0
LINE
  5
2D0
  8
0
  6
CONTINUOUS
 62
     9
 10
-187.7972579632213
 20
-132.3356326925874
 30
0.0
 11
-189.7972563708519
 21
-131.7997331576898
 31
0.0
  0
LINE
  5
2D1
  8
0
  6
CONTINUOUS
 62
     9
 10
-189.7972563708519
 20
-131.7997331576898
 30
0.0
 11
-187.7972579632213
 21
-131.2638336227922
 31
0.0
  0
LINE
  5
2D2
  8
0
  6
CONTINUOUS
 62
     9
 10
-189.7972563708519
 20
-131.7997331576898
 30
0.0
 11
-187.7972579632213
 21
-131.7997331576898
 31
0.0
  0
ENDBLK
  5
15C
  8
0
  0
BLOCK
  8
0
  2
DC_GROUP_92
 70
     0
 10
0.0
 20
0.0
 30
0.0
  3
DC_GROUP_92
  1

  0
LINE
  5
2D3
  8
0
  6
CONTINUOUS
 62
     9
 10
166.4907395087782
 20
35.20591978694117
 30
0.0
 11
166.4907395087782
 21
44.28621908127212
 31
0.0
  0
LINE
  5
2D4
  8
0
  6
CONTINUOUS
 62
     9
 10
87.49073950877811
 20
35.5506711449734
 30
0.0
 11
87.49073950877811
 21
44.28621908127212
 31
0.0
  0
LINE
  5
2D5
  8
0
  6
CONTINUOUS
 62
     9
 10
87.49073950877811
 20
43.28621908127212
 30
0.0
 11
166.4907395087782
 21
43.28621908127212
 31
0.0
  0
INSERT
  5
2D6
  8
0
  6
CONTINUOUS
  2
DC_GROUP_93
 10
0.0
 20
0.0
 30
0.0
  0
INSERT
  5
2D7
  8
0
  6
CONTINUOUS
  2
DC_GROUP_94
 10
0.0
 20
0.0
 30
0.0
  0
TEXT
  5
2D8
  8
0
 62
     7
 10
118.9907395087782
 20
44.28621908127212
 30
0.0
 40
4.0
  1
PCD79
 41
0.7238095238095248
  7
FDASTYLE1
 72
     5
 11
133.4669299849687
 21
44.28621908127212
 31
0.0
  0
ENDBLK
  5
15F
  8
0
  0
BLOCK
  8
0
  2
DC_GROUP_93
 70
     0
 10
0.0
 20
0.0
 30
0.0
  3
DC_GROUP_93
  1

  0
LINE
  5
2D9
  8
0
  6
CONTINUOUS
 62
     9
 10
89.49073791640872
 20
42.75031954637451
 30
0.0
 11
87.49073950877811
 21
43.28621908127212
 31
0.0
  0
LINE
  5
2DA
  8
0
  6
CONTINUOUS
 62
     9
 10
87.49073950877811
 20
43.28621908127212
 30
0.0
 11
89.49073791640872
 21
43.82211861616973
 31
0.0
  0
LINE
  5
2DB
  8
0
  6
CONTINUOUS
 62
     9
 10
87.49073950877811
 20
43.28621908127212
 30
0.0
 11
89.49073791640872
 21
43.28621908127212
 31
0.0
  0
ENDBLK
  5
162
  8
0
  0
BLOCK
  8
0
  2
DC_GROUP_94
 70
     0
 10
0.0
 20
0.0
 30
0.0
  3
DC_GROUP_94
  1

  0
LINE
  5
2DC
  8
0
  6
CONTINUOUS
 62
     9
 10
164.4907411011475
 20
43.82211861616973
 30
0.0
 11
166.4907395087782
 21
43.28621908127212
 31
0.0
  0
LINE
  5
2DD
  8
0
  6
CONTINUOUS
 62
     9
 10
166.4907395087782
 20
43.28621908127212
 30
0.0
 11
164.4907411011475
 21
42.75031954637451
 31
0.0
  0
LINE
  5
2DE
  8
0
  6
CONTINUOUS
 62
     9
 10
166.4907395087782
 20
43.28621908127212
 30
0.0
 11
164.4907411011475
 21
43.28621908127212
 31
0.0
  0
ENDBLK
  5
165
  8
0
  0
BLOCK
  8
0
  2
DC_GROUP_95
 70
     0
 10
0.0
 20
0.0
 30
0.0
  3
DC_GROUP_95
  1

  0
LINE
  5
2DF
  8
0
  6
CONTINUOUS
 62
     7
 10
85.66838553840371
 20
31.39244845707618
 30
0.0
 11
31.8127994020049
 21
140.7277988628598
 31
0.0
  0
LINE
  5
2E0
  8
0
  6
CONTINUOUS
 62
     7
 10
31.8127994020049
 20
140.7277988628598
 30
0.0
 11
12.61279940200483
 21
140.7277988628598
 31
0.0
  0
INSERT
  5
2E1
  8
0
  6
CONTINUOUS
  2
DC_GROUP_96
 10
0.0
 20
0.0
 30
0.0
  0
TEXT
  5
2E2
  8
0
 62
     7
 10
12.61279940200483
 20
140.7277988628598
 30
0.0
 40
4.0
  1
2-φ6.2
 41
0.6042093249639158
  7
FDASTYLE1
 72
     5
 11
27.59719066110994
 21
140.7277988628598
 31
0.0
  0
ENDBLK
  5
168
  8
0
  0
BLOCK
  8
0
  2
DC_GROUP_96
 70
     0
 10
0.0
 20
0.0
 30
0.0
  3
DC_GROUP_96
  1

  0
LINE
  5
2E3
  8
0
  6
CONTINUOUS
 62
     7
 10
85.26537869408891
 20
33.42340080153532
 30
0.0
 11
85.66838553840371
 21
31.39244845707618
 31
0.0
  0
LINE
  5
2E4
  8
0
  6
CONTINUOUS
 62
     7
 10
85.66838553840371
 20
31.39244845707618
 30
0.0
 11
84.30389291009242
 21
32.94979935180506
 31
0.0
  0
LINE
  5
2E5
  8
0
  6
CONTINUOUS
 62
     7
 10
85.66838553840371
 20
31.39244845707618
 30
0.0
 11
84.78463580209062
 21
33.18660007667019
 31
0.0
  0
ENDBLK
  5
16B
  8
0
  0
ENDSEC
  0
SECTION
  2
ENTITIES
  0
LINE
  5
2E6
  8
LAYER0002
  6
CONTINUOUS
 62
     3
 10
-277.397644257202
 20
-190.0
 30
0.0
 11
-277.397644257202
 21
190.0
 31
0.0
  0
LINE
  5
2E7
  8
LAYER0002
  6
CONTINUOUS
 62
     3
 10
276.602355742798
 20
-190.0
 30
0.0
 11
276.602355742798
 21
190.0
 31
0.0
  0
LINE
  5
2E8
  8
LAYER0002
  6
CONTINUOUS
 62
     3
 10
-277.397644257202
 20
-190.0
 30
0.0
 11
276.602355742798
 21
-190.0
 31
0.0
  0
LINE
  5
2E9
  8
LAYER0002
  6
CONTINUOUS
 62
     3
 10
-277.397644257202
 20
189.9999999999999
 30
0.0
 11
276.602355742798
 21
189.9999999999999
 31
0.0
  0
LINE
  5
2EA
  8
LAYER0002
  6
CONTINUOUS
 62
     3
 10
96.60235574279803
 20
-190.0
 30
0.0
 11
96.60235574279803
 21
-130.0
 31
0.0
  0
LINE
  5
2EB
  8
LAYER0002
  6
CONTINUOUS
 62
     3
 10
96.60235574279803
 20
-176.0
 30
0.0
 11
276.602355742798
 21
-176.0
 31
0.0
  0
LINE
  5
2EC
  8
LAYER0002
  6
CONTINUOUS
 62
     3
 10
145.602355742798
 20
-162.0
 30
0.0
 11
276.602355742798
 21
-162.0
 31
0.0
  0
LINE
  5
2ED
  8
LAYER0002
  6
CONTINUOUS
 62
     3
 10
145.602355742798
 20
-148.0
 30
0.0
 11
276.602355742798
 21
-148.0
 31
0.0
  0
LINE
  5
2EE
  8
LAYER0002
  6
CONTINUOUS
 62
     3
 10
145.602355742798
 20
-138.0
 30
0.0
 11
276.602355742798
 21
-138.0
 31
0.0
  0
LINE
  5
2EF
  8
LAYER0002
  6
CONTINUOUS
 62
     3
 10
145.602355742798
 20
-176.0
 30
0.0
 11
145.602355742798
 21
-130.0
 31
0.0
  0
LINE
  5
2F0
  8
LAYER0002
  6
CONTINUOUS
 62
     3
 10
254.602355742798
 20
-176.0
 30
0.0
 11
254.602355742798
 21
-130.0
 31
0.0
  0
LINE
  5
2F1
  8
LAYER0002
  6
CONTINUOUS
 62
     3
 10
170.602355742798
 20
-190.0
 30
0.0
 11
170.602355742798
 21
-176.0
 31
0.0
  0
LINE
  5
2F2
  8
LAYER0002
  6
CONTINUOUS
 62
     3
 10
261.602355742798
 20
-188.0
 30
0.0
 11
271.602355742798
 21
-188.0
 31
0.0
  0
LINE
  5
2F3
  8
LAYER0002
  6
CONTINUOUS
 62
     3
 10
266.602355742798
 20
-178.0
 30
0.0
 11
261.602355742798
 21
-188.0
 31
0.0
  0
LINE
  5
2F4
  8
LAYER0002
  6
CONTINUOUS
 62
     3
 10
266.602355742798
 20
-178.0
 30
0.0
 11
271.602355742798
 21
-188.0
 31
0.0
  0
LINE
  5
2F5
  8
LAYER0002
  6
CONTINUOUS
 62
     3
 10
96.60235574279803
 20
-130.0
 30
0.0
 11
276.602355742798
 21
-130.0
 31
0.0
  0
LINE
  5
2F6
  8
LAYER0002
  6
CONTINUOUS
 62
     3
 10
225.602355742798
 20
-176.0
 30
0.0
 11
225.602355742798
 21
-148.0
 31
0.0
  0
LINE
  5
2F7
  8
LAYER0002
  6
CONTINUOUS
 62
     4
 10
104.602355742798
 20
-172.0
 30
0.0
 11
104.602355742798
 21
-130.0
 31
0.0
  0
LINE
  5
2F8
  8
LAYER0002
  6
CONTINUOUS
 62
     4
 10
108.602355742798
 20
-172.0
 30
0.0
 11
108.602355742798
 21
-130.0
 31
0.0
  0
LINE
  5
2F9
  8
LAYER0002
  6
CONTINUOUS
 62
     4
 10
121.102355742798
 20
-176.0
 30
0.0
 11
121.102355742798
 21
-130.0
 31
0.0
  0
LINE
  5
2FA
  8
LAYER0002
  6
CONTINUOUS
 62
     4
 10
96.60235574279803
 20
-137.0
 30
0.0
 11
145.602355742798
 21
-137.0
 31
0.0
  0
LINE
  5
2FB
  8
LAYER0002
  6
CONTINUOUS
 62
     4
 10
96.60235574279803
 20
-144.0
 30
0.0
 11
145.602355742798
 21
-144.0
 31
0.0
  0
LINE
  5
2FC
  8
LAYER0002
  6
CONTINUOUS
 62
     4
 10
96.60235574279803
 20
-165.0
 30
0.0
 11
145.602355742798
 21
-165.0
 31
0.0
  0
LINE
  5
2FD
  8
LAYER0002
  6
CONTINUOUS
 62
     4
 10
96.60235574279803
 20
-172.0
 30
0.0
 11
145.602355742798
 21
-172.0
 31
0.0
  0
LINE
  5
2FE
  8
LAYER0002
  6
CONTINUOUS
 62
     4
 10
254.602355742798
 20
-166.0
 30
0.0
 11
276.602355742798
 21
-166.0
 31
0.0
  0
LINE
  5
2FF
  8
LAYER0002
  6
CONTINUOUS
 62
     4
 10
152.602355742798
 20
-139.5
 30
0.0
 11
152.602355742798
 21
-130.0
 31
0.0
  0
LINE
  5
300
  8
LAYER0002
  6
CONTINUOUS
 62
     4
 10
201.602355742798
 20
-148.0
 30
0.0
 11
201.602355742798
 21
-146.5
 31
0.0
  0
LINE
  5
301
  8
LAYER0002
  6
CONTINUOUS
 62
     4
 10
225.602355742798
 20
-148.0
 30
0.0
 11
225.602355742798
 21
-146.5
 31
0.0
  0
LINE
  5
302
  8
LAYER0002
  6
CONTINUOUS
 62
     4
 10
242.602355742798
 20
-148.0
 30
0.0
 11
242.602355742798
 21
-146.5
 31
0.0
  0
LINE
  5
303
  8
LAYER0002
  6
CONTINUOUS
 62
     4
 10
201.602355742798
 20
-139.5
 30
0.0
 11
201.602355742798
 21
-130.0
 31
0.0
  0
LINE
  5
304
  8
LAYER0002
  6
CONTINUOUS
 62
     4
 10
225.602355742798
 20
-139.5
 30
0.0
 11
225.602355742798
 21
-130.0
 31
0.0
  0
LINE
  5
305
  8
LAYER0002
  6
CONTINUOUS
 62
     4
 10
242.602355742798
 20
-139.5
 30
0.0
 11
242.602355742798
 21
-130.0
 31
0.0
  0
LINE
  5
306
  8
LAYER0002
  6
CONTINUOUS
 62
     4
 10
96.60235574279803
 20
-151.0
 30
0.0
 11
145.602355742798
 21
-151.0
 31
0.0
  0
LINE
  5
307
  8
LAYER0002
  6
CONTINUOUS
 62
     4
 10
96.60235574279803
 20
-158.0
 30
0.0
 11
145.602355742798
 21
-158.0
 31
0.0
  0
LINE
  5
308
  8
LAYER0002
  6
CONTINUOUS
 62
     4
 10
100.602355742798
 20
-130.5
 30
0.0
 11
97.60235574279803
 21
-136.5
 31
0.0
  0
LINE
  5
309
  8
LAYER0002
  6
CONTINUOUS
 62
     4
 10
100.602355742798
 20
-130.5
 30
0.0
 11
103.602355742798
 21
-136.5
 31
0.0
  0
LINE
  5
30A
  8
LAYER0002
  6
CONTINUOUS
 62
     4
 10
97.60235574279803
 20
-136.5
 30
0.0
 11
103.602355742798
 21
-136.5
 31
0.0
  0
LINE
  5
30B
  8
LAYER0002
  6
CONTINUOUS
 62
     4
 10
100.602355742798
 20
-158.5
 30
0.0
 11
97.60235574279803
 21
-164.5
 31
0.0
  0
LINE
  5
30C
  8
LAYER0002
  6
CONTINUOUS
 62
     4
 10
100.602355742798
 20
-158.5
 30
0.0
 11
103.602355742798
 21
-164.5
 31
0.0
  0
LINE
  5
30D
  8
LAYER0002
  6
CONTINUOUS
 62
     4
 10
97.60235574279803
 20
-164.5
 30
0.0
 11
103.602355742798
 21
-164.5
 31
0.0
  0
LINE
  5
30E
  8
LAYER0002
  6
CONTINUOUS
 62
     4
 10
100.602355742798
 20
-151.5
 30
0.0
 11
97.60235574279803
 21
-157.5
 31
0.0
  0
LINE
  5
30F
  8
LAYER0002
  6
CONTINUOUS
 62
     4
 10
100.602355742798
 20
-151.5
 30
0.0
 11
103.602355742798
 21
-157.5
 31
0.0
  0
LINE
  5
310
  8
LAYER0002
  6
CONTINUOUS
 62
     4
 10
97.60235574279803
 20
-157.5
 30
0.0
 11
103.602355742798
 21
-157.5
 31
0.0
  0
LINE
  5
311
  8
LAYER0002
  6
CONTINUOUS
 62
     4
 10
100.602355742798
 20
-144.5
 30
0.0
 11
97.60235574279803
 21
-150.5
 31
0.0
  0
LINE
  5
312
  8
LAYER0002
  6
CONTINUOUS
 62
     4
 10
100.602355742798
 20
-144.5
 30
0.0
 11
103.602355742798
 21
-150.5
 31
0.0
  0
LINE
  5
313
  8
LAYER0002
  6
CONTINUOUS
 62
     4
 10
97.60235574279803
 20
-150.5
 30
0.0
 11
103.602355742798
 21
-150.5
 31
0.0
  0
LINE
  5
314
  8
LAYER0002
  6
CONTINUOUS
 62
     4
 10
100.602355742798
 20
-137.5
 30
0.0
 11
97.60235574279803
 21
-143.5
 31
0.0
  0
LINE
  5
315
  8
LAYER0002
  6
CONTINUOUS
 62
     4
 10
100.602355742798
 20
-137.5
 30
0.0
 11
103.602355742798
 21
-143.5
 31
0.0
  0
LINE
  5
316
  8
LAYER0002
  6
CONTINUOUS
 62
     4
 10
97.60235574279803
 20
-143.5
 30
0.0
 11
103.602355742798
 21
-143.5
 31
0.0
  0
LINE
  5
317
  8
LAYER0002
  6
CONTINUOUS
 62
     4
 10
172.2690224094648
 20
-176.0
 30
0.0
 11
172.2690224094648
 21
-162.0
 31
0.0
  0
LINE
  5
318
  8
LAYER0002
  6
CONTINUOUS
 62
     4
 10
198.9356890761313
 20
-176.0
 30
0.0
 11
198.9356890761313
 21
-161.9509415757253
 31
0.0
  0
LINE
  5
319
  8
LAYER0002
  6
CONTINUOUS
 62
     4
 10
212.2690224094648
 20
-167.5
 30
0.0
 11
212.2690224094648
 21
-161.9509415757253
 31
0.0
  0
LINE
  5
31A
  8
LAYER0002
  6
CONTINUOUS
 62
     4
 10
225.602355742798
 20
-155.0
 30
0.0
 11
254.602355742798
 21
-155.0
 31
0.0
  0
LINE
  5
31B
  8
LAYER0002
  6
CONTINUOUS
 62
     4
 10
145.602355742798
 20
-166.0
 30
0.0
 11
225.602355742798
 21
-166.0
 31
0.0
  0
TEXT
  5
31D
  8
LAYER0002
 62
     7
 10
145.3870816966729
 20
-130.821188728956
 30
0.0
 40
2.238052927264
  1
符号
 41
0.8
  7
FDASTYLE0
  0
TEXT
  5
31E
  8
LAYER0002
 62
     7
 10
162.016486864704
 20
-135.8245525019963
 30
0.0
 40
4.0
  1
品       名
 41
0.5929322019205761
  7
FDASTYLE1
 72
     5
 11
184.3107376569176
 21
-135.8245525019963
 31
0.0
  0
TEXT
  5
31F
  8
LAYER0002
 62
     7
 10
206.8355121841076
 20
-135.8245525019963
 30
0.0
 40
4.0
  1
材  料
 41
0.5409466566491373
  7
FDASTYLE1
 72
     5
 11
216.3561733411325
 21
-135.8245525019963
 31
0.0
  0
TEXT
  5
320
  8
LAYER0002
 62
     7
 10
229.1184174276531
 20
-135.8245525019963
 30
0.0
 40
4.0
  1
個 数
 41
0.5129248931406452
  7
FDASTYLE1
 72
     5
 11
236.0941959743659
 21
-135.8245525019963
 31
0.0
  0
TEXT
  5
321
  8
LAYER0002
 62
     7
 10
245.3241666956861
 20
-133.5649080050572
 30
0.0
 40
2.5
  1
単重量
 41
0.5555555555555556
  7
FDASTYLE1
 72
     5
 11
250.3241666956861
 21
-133.5649080050572
 31
0.0
  0
TEXT
  5
322
  8
LAYER0002
 62
     7
 10
244.3113073664341
 20
-137.3631304897525
 30
0.0
 40
2.5
  1
(kg)
 41
0.5333333333333371
  7
FDASTYLE1
 72
     5
 11
249.6446406997674
 21
-137.3631304897525
 31
0.0
  0
TEXT
  5
323
  8
LAYER0002
 62
     7
 10
258.7445528082758
 20
-135.8245525019963
 30
0.0
 40
4.0
  1
記  事
 41
0.5409466566491358
  7
FDASTYLE1
 72
     5
 11
268.2652139653006
 21
-135.8245525019963
 31
0.0
  0
TEXT
  5
324
  8
LAYER0002
 62
     7
 10
258.4474351979627
 20
-165.4873041997729
 30
0.0
 40
3.0
  1
コード番号
 41
0.5555555555555556
  7
FDASTYLE1
 72
     5
 11
268.4474351979627
 21
-165.4873041997729
 31
0.0
  0
TEXT
  5
325
  8
LAYER0002
 62
     7
 10
101.5143477586297
 20
-175.1879010540338
 30
0.0
 40
2.5
  1
訂 正 来 歴
 41
0.5286670375427764
  7
FDASTYLE1
 72
     5
 11
111.8233549907139
 21
-175.1879010540338
 31
0.0
  0
TEXT
  5
326
  8
LAYER0002
 62
     7
 10
125.492690589563
 20
-175.2166697391651
 30
0.0
 40
2.5
  1
工 事 番 号
 41
0.5286670375427764
  7
FDASTYLE1
 72
     5
 11
135.8016978216472
 21
-175.2166697391651
 31
0.0
  0
TEXT
  5
327
  8
LAYER0002
 62
     7
 10
97.59179968815091
 20
-165.9634530565915
 30
0.0
 40
1.748478849425
  1
記号
 41
0.8
  7
FDASTYLE0
  0
TEXT
  5
328
  8
LAYER0002
 62
     7
 10
103.5311867483098
 20
-165.9634530565915
 30
0.0
 40
1.748478849425
  1
理由
 41
0.8
  7
FDASTYLE0
  0
TEXT
  5
329
  8
LAYER0002
 62
     7
 10
111.2217225337824
 20
-169.8786046700178
 30
0.0
 40
3.0
  1
日 付
 41
0.5129248931406453
  7
FDASTYLE1
 72
     5
 11
116.453556443817
 21
-169.8786046700178
 31
0.0
  0
TEXT
  5
32A
  8
LAYER0002
 62
     7
 10
153.0505247247633
 20
-165.7187911464244
 30
0.0
 40
3.0
  1
承   認
 41
0.5588578976781992
  7
FDASTYLE1
 72
     5
 11
162.1040226671501
 21
-165.7187911464244
 31
0.0
  0
TEXT
  5
32B
  8
LAYER0002
 62
     7
 10
179.4655837760321
 20
-165.4873041997729
 30
0.0
 40
3.0
  1
検   図
 41
0.5588578976781992
  7
FDASTYLE1
 72
     5
 11
188.519081718419
 21
-165.4873041997729
 31
0.0
  0
TEXT
  5
32C
  8
LAYER0002
 62
     7
 10
201.0795478411731
 20
-165.4873041997729
 30
0.0
 40
3.0
  1
担  当
 41
0.5409466566491369
  7
FDASTYLE1
 72
     5
 11
208.2200437089417
 21
-165.4873041997729
 31
0.0
  0
TEXT
  5
32D
  8
LAYER0002
 62
     7
 10
214.2794132269092
 20
-165.4873041997729
 30
0.0
 40
3.0
  1
製  図
 41
0.5409466566491369
  7
FDASTYLE1
 72
     5
 11
221.4199090946779
 21
-165.4873041997729
 31
0.0
  0
TEXT
  5
32E
  8
LAYER0002
 62
     7
 10
226.548592973218
 20
-153.2184960272417
 30
0.0
 40
3.0
  1
作図
 41
0.5555555555555556
  7
FDASTYLE1
 72
     5
 11
230.548592973218
 21
-153.2184960272417
 31
0.0
  0
TEXT
  5
32F
  8
LAYER0002
 62
     7
 10
227.7060277064757
 20
-160.2371566401815
 30
0.0
 40
4.0
  1
第 三 角 法
 41
0.5286670375427769
  7
FDASTYLE1
 72
     5
 11
244.2004392778103
 21
-160.2371566401815
 31
0.0
  0
TEXT
  5
330
  8
LAYER0002
 62
     7
 10
227.0115668665212
 20
-166.413251986379
 30
0.0
 40
3.0
  1
尺度
 41
0.5555555555555556
  7
FDASTYLE1
 72
     5
 11
231.0115668665212
 21
-166.413251986379
 31
0.0
  0
TEXT
  5
332
  8
LAYER0002
 62
     3
 10
104.981510112832
 20
-185.9272077185017
 30
0.0
 40
7.0
  1
株式会社 野村製作所
 41
0.4474019306067718
  7
FDASTYLE2
 72
     5
 11
146.8162750361488
 21
-185.9272077185017
 31
0.0
  0
TEXT
  5
334
  8
LAYER0002
 62
     3
 10
183.2141775362146
 20
-187.1216685584563
 30
0.0
 40
8.0
  1
２－
 41
0.6828643954889251
  7
FDASTYLE3
 72
     5
 11
195.5330512308348
 21
-187.1216685584563
 31
0.0
  0
TEXT
  5
335
  8
LAYER0002
 62
     3
 10
200.1261351606214
 20
-187.1216685584563
 30
0.0
 40
8.0
  1
9310037
 41
1.379917366946779
  7
FDASTYLE3
 72
     5
 11
255.3007511606214
 21
-187.1216685584563
 31
0.0
  0
TEXT
  5
336
  8
LAYER0002
 62
     6
 10
230.717568443585
 20
-146.1941968197806
 30
0.0
 40
4.0
  1
一式
 41
0.4861111111111131
  7
FDASTYLE1
 72
     5
 11
235.3842351102517
 21
-146.1941968197806
 31
0.0
  0
TEXT
  5
337
  8
LAYER0002
 62
     6
 10
162.4760382942768
 20
-145.3589000228561
 30
0.0
 40
5.0
  1
外　形　図
 41
0.4861111111111114
  7
FDASTYLE1
 72
     5
 11
177.0593716276102
 21
-145.3589000228561
 31
0.0
  0
TEXT
  5
338
  8
LAYER0002
 62
     4
 10
238.903534633438
 20
-172.297487439201
 30
0.0
 40
3.0
  1
1/1
 41
0.5222222222222273
  7
FDASTYLE1
 72
     5
 11
243.6035346334381
 21
-172.297487439201
 31
0.0
  0
TEXT
  5
339
  8
0
 62
     6
 10
148.5346986065135
 20
-154.3580193026319
 30
0.0
 40
5.0
  1
日鋼プレシジォン
 41
0.5555555555555554
  7
FDASTYLE1
 72
     5
 11
175.2013652731802
 21
-154.3580193026319
 31
0.0
  0
TEXT
  5
33A
  8
0
 62
     6
 10
157.3294275803679
 20
-160.926795036144
 30
0.0
 40
5.0
  1
HF2-10型 チャック
 41
0.555812471552116
  7
FDASTYLE1
 72
     5
 11
193.4572382312555
 21
-160.926795036144
 31
0.0
  0
TEXT
  5
33B
  8
0
 62
     6
 10
-78.11634385401402
 20
-112.360759041704
 30
0.0
 40
4.199999809265137
  1
爪ノｽﾄﾛ-ｸ          
 41
0.6803330670981186
  7
FDASTYLE1
 72
     5
 11
-28.3976055683638
 21
-112.360759041704
 31
0.0
  0
TEXT
  5
33C
  8
0
 62
     6
 10
4.384784327801114
 20
-111.8357590655458
 30
0.0
 40
3.149999856948853
  1
　　　　　　　　 （直径ﾆﾃ）
 41
0.5890082476686008
  7
FDASTYLE1
 72
     5
 11
36.66832491642261
 21
-111.8357590655458
 31
0.0
  0
TEXT
  5
33D
  8
0
 62
     6
 10
-78.1290348749796
 20
-128.776759407915
 30
0.0
 40
4.199999809265137
  1
許容ｼﾘﾝダ力 
 41
0.6197069870019355
  7
FDASTYLE1
 72
     5
 11
-55.22466567554566
 21
-128.776759407915
 31
0.0
  0
TEXT
  5
33E
  8
0
 62
     6
 10
37.216592879159
 20
-128.776759407915
 30
0.0
 40
4.199999809265137
  1
　　　　１９．９ ｋN
 41
0.5744015728698052
  7
FDASTYLE1
 72
     5
 11
68.09642003429214
 21
-128.776759407915
 31
0.0
  0
TEXT
  5
33F
  8
0
 62
     6
 10
-78.15498184973393
 20
-145.1927597741259
 30
0.0
 40
4.199999809265137
  1
最高使用回転速度 　　　　　   　　　　　　　　　　　　　　　　         4200 ｍin
 41
0.6168617072238708
  7
FDASTYLE1
 72
     5
 11
66.93088510052661
 21
-145.1927597741259
 31
0.0
  0
TEXT
  5
340
  8
0
 62
     6
 10
-78.14191281611119
 20
-153.4007675866259
 30
0.0
 40
4.199999809265137
  1
慣性モーメント  
 41
0.5746729707292689
  7
FDASTYLE1
 72
     5
 11
-53.04019859460249
 21
-153.4007675866259
 31
0.0
  0
TEXT
  5
341
  8
0
 62
     6
 10
8.732600035023964
 20
-153.7228732060933
 30
0.0
 40
4.199999809265137
  1
            0.3 ｋg・m
 41
0.6904174773875231
  7
FDASTYLE1
 72
     5
 11
67.8875668111786
 21
-153.7228732060933
 31
0.0
  0
TEXT
  5
342
  8
0
 62
     6
 10
-78.15498184973393
 20
-169.8167679528368
 30
0.0
 40
4.199999809265137
  1
ｱﾝバﾗﾝｽ量           
 41
0.6929054615223859
  7
FDASTYLE1
 72
     5
 11
-24.60725021505056
 21
-169.8167679528368
 31
0.0
  0
TEXT
  5
343
  8
0
 62
     6
 10
17.91707735573625
 20
-169.2917679766787
 30
0.0
 40
3.149999856948853
  1
    外周ﾆﾃ
 41
0.6750216849467046
  7
FDASTYLE1
 72
     5
 11
35.77815032829999
 21
-169.2917679766787
 31
0.0
  0
TEXT
  5
344
  8
0
 62
     6
 10
-78.22563218886052
 20
-104.152766487993
 30
0.0
 40
4.199999809265137
  1
仕   様
 41
0.6781649203335766
  7
FDASTYLE1
 72
     5
 11
-62.84485249418334
 21
-104.152766487993
 31
0.0
  0
TEXT
  5
345
  8
0
 62
     6
 10
26.44298047011701
 20
-112.360759041704
 30
0.0
 40
4.199999809265137
  1
　　　　　　    8 mm
 41
0.6491429819182711
  7
FDASTYLE1
 72
     5
 11
67.88426655380363
 21
-112.360759041704
 31
0.0
  0
TEXT
  5
346
  8
0
 62
     6
 10
-78.15498184973393
 20
-120.5687592248094
 30
0.0
 40
4.199999809265137
  1
ピｽﾄﾝｽﾄﾛ-ｸ　　　　　　　　　　　　　　　　　　　                30 mm
 41
0.6568546615983856
  7
FDASTYLE1
 72
     5
 11
68.06085918195726
 21
-120.5687592248094
 31
0.0
  0
TEXT
  5
347
  8
0
 62
     6
 10
-78.15498184973393
 20
-136.9847519616259
 30
0.0
 40
4.199999809265137
  1
最大静的把握力  　　 　　　　　　　　　　　　　　　　　　　             ７４．５ ｋN
 41
0.6060467466035928
  7
FDASTYLE1
 72
     5
 11
68.45984043037882
 21
-136.9847519616259
 31
0.0
  0
TEXT
  5
348
  8
0
 62
     6
 10
66.30503735757878
 20
-141.565914866071
 30
0.0
 40
2.099999904632568
  1
-1
 41
0.6818649202172707
  7
FDASTYLE1
 72
     5
 11
69.16886989243591
 21
-141.565914866071
 31
0.0
  0
TEXT
  5
349
  8
0
 62
     6
 10
68.31641924565641
 20
-150.4123059729708
 30
0.0
 40
2.099999904632568
  1
2
 41
0.5595033763478315
  7
FDASTYLE1
 72
     5
 11
69.49137628262845
 21
-150.4123059729708
 31
0.0
  0
TEXT
  5
34A
  8
0
 62
     6
 10
-78.15498184973393
 20
-161.6087601403368
 30
0.0
 40
4.199999809265137
  1
質 量   　　　　　　　　　　　　　　　　　　　　                  30 ｋg
 41
0.6451020324477914
  7
FDASTYLE1
 72
     5
 11
67.07038109978404
 21
-161.6087601403368
 31
0.0
  0
TEXT
  5
34B
  8
0
 62
     6
 10
41.1588733214697
 20
-169.8167679528368
 30
0.0
 40
4.199999809265137
  1
 　　  6g以内
 41
0.6509919488759673
  7
FDASTYLE1
 72
     5
 11
67.95370072036928
 21
-169.8167679528368
 31
0.0
  0
TEXT
  5
34C
  8
0
 62
     7
 10
256.5967529330011
 20
-142.7641187278597
 30
0.0
 40
3.200000047683716
  1
標 準
 41
0.53512524007657
  7
FDASTYLE1
 72
     5
 11
262.4189156317912
 21
-142.7641187278597
 31
0.0
  0
TEXT
  5
34D
  8
0
 62
     7
 10
-220.3243956530785
 20
161.4396329369656
 30
0.0
 40
4.0
  1
MIN  1.3
 41
0.6619047619047613
  7
FDASTYLE1
 72
     5
 11
-199.1434432721261
 21
161.4396329369656
 31
0.0
  0
TEXT
  5
34E
  8
0
 62
     7
 10
-180.4742522204613
 20
-121.8829836401829
 30
0.0
 40
4.0
  1
MIN 30.3
 41
0.6571428571428566
  7
FDASTYLE1
 72
     5
 11
-159.4456807918899
 21
-121.8829836401829
 31
0.0
  0
TEXT
  5
34F
  8
0
 62
     7
 10
-45.64009465820543
 20
42.61355108882106
 30
0.0
 40
4.0
  1
MIN 50.9
 50
90.0
 41
0.6523809523809523
  7
FDASTYLE1
 72
     5
 11
-45.64009465820543
 21
63.48974156501154
 31
0.0
  0
LINE
  5
350
  8
0
  6
DASHED2
 62
     7
 10
-189.7972563708519
 20
-44.79034753178441
 30
0.0
 11
-156.1719054187034
 21
-44.79034753178441
 31
0.0
  0
LINE
  5
351
  8
0
  6
DASHED2
 62
     7
 10
-189.7972563708519
 20
-30.79034753178441
 30
0.0
 11
-160.0811766589379
 21
-30.79034753178441
 31
0.0
  0
LINE
  5
352
  8
0
  6
DASHED2
 62
     7
 10
64.49073950877811
 20
130.3846555199734
 30
0.0
 11
77.99073950877811
 21
130.3846555199734
 31
0.0
  0
LINE
  5
353
  8
0
  6
DASHED2
 62
     7
 10
64.49073950877811
 20
112.3846555199734
 30
0.0
 11
77.99073950877811
 21
112.3846555199734
 31
0.0
  0
LINE
  5
354
  8
0
  6
DASHED2
 62
     7
 10
64.49073950877811
 20
137.1378293480984
 30
0.0
 11
64.49073950877811
 21
109.3846555199734
 31
0.0
  0
LINE
  5
355
  8
0
  6
DASHED2
 62
     7
 10
31.36255042186402
 20
109.3846555199734
 30
0.0
 11
64.49073950877811
 21
109.3846555199734
 31
0.0
  0
LINE
  5
356
  8
0
  6
DASHED2
 62
     7
 10
52.49073950877811
 20
123.7846570458523
 30
0.0
 11
52.49073950877811
 21
118.9846539940945
 31
0.0
  0
LINE
  5
357
  8
0
  6
DASHED2
 62
     7
 10
55.19073645702032
 20
124.6846585717312
 30
0.0
 11
55.19073645702032
 21
118.0846524682156
 31
0.0
  0
LINE
  5
358
  8
0
  6
DASHED2
 62
     7
 10
60.9294907294812
 20
115.6846585717312
 30
0.0
 11
64.05198828807501
 21
115.6846585717312
 31
0.0
  0
LINE
  5
359
  8
0
  6
DASHED2
 62
     7
 10
60.9294907294812
 20
127.0846524682156
 30
0.0
 11
64.05198828807501
 21
127.0846524682156
 31
0.0
  0
LINE
  5
35A
  8
0
  6
DASHED2
 62
     7
 10
55.19069969232091
 20
118.0845574718419
 30
0.0
 11
52.49069656204632
 21
118.9845584021747
 31
0.0
  0
LINE
  5
35B
  8
0
  6
DASHED2
 62
     7
 10
55.19077746181812
 20
124.684560904041
 30
0.0
 11
52.49078066468802
 21
123.7845620847561
 31
0.0
  0
LINE
  5
35C
  8
0
  6
DASHED2
 62
     7
 10
56.19073645702032
 20
124.1299863305203
 30
0.0
 11
56.19073645702032
 21
118.5891766991726
 31
0.0
  0
LINE
  5
35D
  8
0
  6
DASHED2
 62
     7
 10
60.49073950877811
 20
125.8346524682156
 30
0.0
 11
60.49073950877811
 21
116.9346585717312
 31
0.0
  0
LINE
  5
35E
  8
0
  6
DASHED2
 62
     7
 10
61.2346283637586
 20
124.2783170189968
 30
0.0
 11
63.74685065379761
 21
124.2783170189968
 31
0.0
  0
LINE
  5
35F
  8
0
  6
DASHED2
 62
     7
 10
61.2346283637586
 20
118.49099402095
 30
0.0
 11
63.74685065379761
 21
118.49099402095
 31
0.0
  0
LINE
  5
360
  8
0
  6
DASHED2
 62
     7
 10
64.49073950877811
 20
117.8846555199734
 30
0.0
 11
69.6886765204968
 21
117.8846555199734
 31
0.0
  0
LINE
  5
361
  8
0
  6
DASHED2
 62
     7
 10
64.49073950877811
 20
124.8846555199734
 30
0.0
 11
69.48179785838751
 21
124.8846555199734
 31
0.0
  0
LINE
  5
362
  8
0
  6
DASHED2
 62
     7
 10
64.49073950877811
 20
116.8846555199734
 30
0.0
 11
69.8955551826062
 21
116.8846555199734
 31
0.0
  0
LINE
  5
363
  8
0
  6
DASHED2
 62
     7
 10
64.49073950877811
 20
125.8846555199734
 30
0.0
 11
69.48179785838751
 21
125.8846555199734
 31
0.0
  0
ARC
  5
364
  8
0
  6
DASHED2
 62
     7
 10
55.19073645702032
 20
121.3846555199734
 30
0.0
 40
3.299999952316284
 50
73.4828224120142
 51
89.99998201391081
  0
ARC
  5
365
  8
0
  6
DASHED2
 62
     7
 10
55.19073645702032
 20
121.3846555199734
 30
0.0
 40
3.299999952316284
 50
270.0000179860892
 51
286.5171775879862
  0
ARC
  5
366
  8
0
  6
DASHED2
 62
     7
 10
62.49073950877811
 20
125.8346524682156
 30
0.0
 40
2.0
 50
0.0
 51
38.68218896809879
  0
ARC
  5
367
  8
0
  6
DASHED2
 62
     7
 10
62.49073950877811
 20
116.9346585717312
 30
0.0
 40
2.0
 50
0.0
 51
51.09316519948326
  0
ARC
  5
368
  8
0
  6
DASHED2
 62
     7
 10
58.49073950877811
 20
121.3846555199734
 30
0.0
 40
6.0
 50
0.0
 51
28.83423780766661
  0
ARC
  5
369
  8
0
  6
DASHED2
 62
     7
 10
66.49073950877811
 20
121.3846555199734
 30
0.0
 40
6.0
 50
151.1657740314789
 51
208.8342086656771
  0
ARC
  5
36A
  8
0
  6
DASHED2
 62
     7
 10
58.49073950877811
 20
121.3846555199734
 30
0.0
 40
6.0
 50
331.1657621923334
 51
360.0
  0
ARC
  5
36B
  8
0
  6
DASHED2
 62
     7
 10
62.49073950877811
 20
125.8346524682156
 30
0.0
 40
2.0
 50
308.9068348005167
 51
360.0
  0
ARC
  5
36C
  8
0
  6
DASHED2
 62
     7
 10
62.49073950877811
 20
125.8346524682156
 30
0.0
 40
2.0
 50
141.317829701236
 51
231.0931121518322
  0
ARC
  5
36D
  8
0
  6
DASHED2
 62
     7
 10
62.49073950877811
 20
116.9346585717312
 30
0.0
 40
2.0
 50
128.9068568849459
 51
218.6821529959198
  0
ARC
  5
36E
  8
0
  6
DASHED2
 62
     7
 10
62.49073950877811
 20
116.9346585717312
 30
0.0
 40
2.0
 50
321.3178110319012
 51
360.0
  0
ARC
  5
36F
  8
0
  6
DASHED2
 62
     7
 10
56.5239350043836
 20
130.1846585717312
 30
0.0
 40
5.650000095367432
 50
265.9910930942637
 51
315.0592540539054
  0
ARC
  5
370
  8
0
  6
DASHED2
 62
     7
 10
56.5239350043836
 20
112.5846524682156
 30
0.0
 40
5.650000095367432
 50
44.94074594609464
 51
94.00890690573625
  0
ARC
  5
371
  8
0
  6
DASHED2
 62
     7
 10
53.19073645702032
 20
121.3846555199734
 30
0.0
 40
1.5
 50
117.8181540504572
 51
242.1818423070773
  0
LINE
  5
372
  8
0
  6
DASHED2
 62
     7
 10
-149.0972716296409
 20
-71.11534448002661
 30
0.0
 11
-140.497271629641
 21
-71.11534448002661
 31
0.0
  0
LINE
  5
373
  8
0
  6
DASHED2
 62
     7
 10
-149.097271629641
 20
-71.11534448002665
 30
0.0
 11
-144.7972716296411
 21
-68.63273832251124
 31
0.0
  0
LINE
  5
374
  8
0
  6
DASHED2
 62
     7
 10
-140.4972716296409
 20
-71.11534448002665
 30
0.0
 11
-144.7972716296409
 21
-68.63273832251124
 31
0.0
  0
LINE
  5
375
  8
0
  6
DASHED2
 62
     7
 10
-139.797271629641
 20
-76.11534448002661
 30
0.0
 11
-139.797271629641
 21
-96.11534448002661
 31
0.0
  0
LINE
  5
376
  8
0
  6
DASHED2
 62
     7
 10
-140.497271629641
 20
-71.11534448002661
 30
0.0
 11
-140.497271629641
 21
-96.11534448002661
 31
0.0
  0
LINE
  5
377
  8
0
  6
DASHED2
 62
     7
 10
-149.7972716296409
 20
-76.11534448002661
 30
0.0
 11
-149.7972716296409
 21
-96.11534448002661
 31
0.0
  0
LINE
  5
378
  8
0
  6
DASHED2
 62
     7
 10
-149.7972716296409
 20
-76.11534448002661
 30
0.0
 11
-139.797271629641
 21
-76.11534448002661
 31
0.0
  0
LINE
  5
379
  8
0
  6
DASHED2
 62
     7
 10
-149.0972716296409
 20
-71.11534448002661
 30
0.0
 11
-149.0972716296409
 21
-96.11534448002661
 31
0.0
  0
LINE
  5
37A
  8
0
  6
DASHED2
 62
     7
 10
22.04225357914721
 20
23.88464695378567
 30
0.0
 11
2.042253579147214
 21
23.88464695378567
 31
0.0
  0
LINE
  5
37B
  8
0
  6
DASHED2
 62
     7
 10
27.04225357914721
 20
24.58464695378565
 30
0.0
 11
2.042253579147214
 21
24.58464695378565
 31
0.0
  0
LINE
  5
37C
  8
0
  6
DASHED2
 62
     7
 10
22.04225357914721
 20
33.88464695378568
 30
0.0
 11
2.042253579147214
 21
33.88464695378568
 31
0.0
  0
LINE
  5
37D
  8
0
  6
DASHED2
 62
     7
 10
27.04225357914721
 20
33.18464695378569
 30
0.0
 11
2.042253579147214
 21
33.18464695378567
 31
0.0
  0
LINE
  5
37E
  8
0
  6
DASHED2
 62
     7
 10
27.04225357914721
 20
33.18464695378569
 30
0.0
 11
27.04225357914721
 21
24.58464695378565
 31
0.0
  0
LINE
  5
37F
  8
0
  6
DASHED2
 62
     7
 10
27.04225357914721
 20
24.58464695378555
 30
0.0
 11
29.52485973666252
 21
28.88464695378561
 31
0.0
  0
LINE
  5
380
  8
0
  6
DASHED2
 62
     7
 10
27.0422535791471
 20
33.1846469537858
 30
0.0
 11
29.52485973666252
 21
28.88464695378575
 31
0.0
  0
LINE
  5
381
  8
0
  6
DASHED2
 62
     7
 10
22.04225357914721
 20
33.88464695378568
 30
0.0
 11
22.04225357914721
 21
23.88464695378567
 31
0.0
  0
LINE
  5
382
  8
0
  6
CENTER
 62
     7
 10
-144.797271629641
 20
-65.79199930201121
 30
0.0
 11
-144.797271629641
 21
-100.9462112288969
 31
0.0
  0
LINE
  5
383
  8
0
  6
CENTER
 62
     7
 10
-217.8736571276879
 20
-37.79034753178441
 30
0.0
 11
-149.4798582995629
 21
-37.79034753178441
 31
0.0
  0
LINE
  5
384
  8
0
  6
CENTER
 62
     7
 10
-131.8370970690942
 20
68.38465551997339
 30
0.0
 11
-114.0962981188987
 21
68.38465551997339
 31
0.0
  0
LINE
  5
385
  8
0
  6
CENTER
 62
     7
 10
-202.3797606433129
 20
28.8846555199734
 30
0.0
 11
-84.20494832641832
 21
28.8846555199734
 31
0.0
  0
LINE
  5
386
  8
0
  6
CENTER
 62
     7
 10
-123.6687773669457
 20
-31.1153444800266
 30
0.0
 11
-94.38410939819566
 21
-31.1153444800266
 31
0.0
  0
LINE
  5
387
  8
0
  6
CENTER
 62
     7
 10
-122.6145628894066
 20
130.8846555199734
 30
0.0
 11
-69.28385915405504
 21
130.8846555199734
 31
0.0
  0
LINE
  5
388
  8
0
  6
CENTER
 62
     7
 10
-122.6145628894066
 20
100.8846555199734
 30
0.0
 11
-69.28385915405504
 21
100.8846555199734
 31
0.0
  0
LINE
  5
389
  8
0
  6
CENTER
 62
     7
 10
-8.111183740357092
 20
28.8846555199734
 30
0.0
 11
265.6574472410883
 21
28.8846555199734
 31
0.0
  0
LINE
  5
38A
  8
0
  6
CENTER
 62
     7
 10
69.24848670584991
 20
-4.452853632332698
 30
0.0
 11
126.9907393874707
 21
28.88464781382479
 31
0.0
  0
LINE
  5
38B
  8
0
  6
CENTER
 62
     7
 10
69.24849519794482
 20
62.22218171562268
 30
0.0
 11
80.79940164902551
 21
55.55326350350206
 31
0.0
  0
LINE
  5
38C
  8
0
  6
CENTER
 62
     7
 10
165.6518369562924
 20
67.54570561331363
 30
0.0
 11
182.6224116344361
 21
84.51627886094499
 31
0.0
  0
LINE
  5
38D
  8
0
  6
CENTER
 62
     7
 10
71.35912523358151
 20
84.51631097684629
 30
0.0
 11
88.3296892064251
 21
67.54574843451425
 31
0.0
  0
LINE
  5
38E
  8
0
  6
CENTER
 62
     7
 10
87.49073950877811
 20
34.5506711449734
 30
0.0
 11
87.49073950877811
 21
22.8846555199734
 31
0.0
  0
LINE
  5
38F
  8
0
  6
CENTER
 62
     7
 10
166.4907395087782
 20
34.20591978694117
 30
0.0
 11
166.4907395087782
 21
22.8846555199734
 31
0.0
  0
LINE
  5
390
  8
0
  6
CENTER
 62
     7
 10
47.19073645702032
 20
121.3846555199734
 30
0.0
 11
79.30064551463751
 21
121.3846555199734
 31
0.0
  0
LINE
  5
391
  8
0
  6
CENTER
 62
     7
 10
112.3367783271374
 20
130.8846555199734
 30
0.0
 11
140.7367722236218
 21
130.8846555199734
 31
0.0
  0
LINE
  5
392
  8
0
  6
CENTER
 62
     7
 10
112.3367783271374
 20
100.8846555199734
 30
0.0
 11
141.1367661201062
 21
100.8846555199734
 31
0.0
  0
LINE
  5
393
  8
0
  6
CENTER
 62
     7
 10
69.9771781940657
 20
-28.12894508414293
 30
0.0
 11
90.18472074379731
 21
-7.921404237779619
 31
0.0
  0
LINE
  5
394
  8
0
  6
CENTER
 62
     7
 10
163.9661993464366
 20
-8.090755329816624
 30
0.0
 11
184.5903786945534
 21
-28.71493293944516
 31
0.0
  0
LINE
  5
395
  8
0
  6
CENTER
 62
     7
 10
111.7440582953991
 20
-73.11534448002661
 30
0.0
 11
141.7428757392468
 21
-73.11534448002661
 31
0.0
  0
LINE
  5
396
  8
0
  6
CENTER
 62
     7
 10
112.1607071601452
 20
-43.1153444800266
 30
0.0
 11
141.3262192451062
 21
-43.1153444800266
 31
0.0
  0
LINE
  5
397
  8
0
  6
CENTER
 62
     7
 10
173.4320808256632
 20
55.69756583234946
 30
0.0
 11
184.7329887654666
 21
62.22214735263376
 31
0.0
  0
LINE
  5
398
  8
0
  6
CENTER
 62
     7
 10
126.9907412723158
 20
28.88468408416222
 30
0.0
 11
184.7330104720612
 21
-4.452826898737861
 31
0.0
  0
LINE
  5
399
  8
0
  6
CENTER
 62
     7
 10
122.8493439399304
 20
68.38465551997339
 30
0.0
 11
131.5284810923288
 21
68.38465551997339
 31
0.0
  0
ARC
  5
39A
  8
0
  6
CENTER
 62
     7
 10
126.990739508778
 20
28.8846555199734
 30
0.0
 40
66.67500305175781
 50
121.9482464981587
 51
149.3576590336364
  0
ARC
  5
39B
  8
0
  6
CENTER
 62
     7
 10
126.990739508778
 20
28.8846555199734
 30
0.0
 40
66.67500305175781
 50
302.6053261779251
 51
328.2341049816859
  0
ARC
  5
39C
  8
0
  6
CENTER
 62
     7
 10
126.990739508778
 20
28.8846555199734
 30
0.0
 40
60.0
 50
143.2855662199818
 51
158.3910759845985
  0
ARC
  5
39D
  8
0
  6
CENTER
 62
     7
 10
126.990739508778
 20
28.8846555199734
 30
0.0
 40
60.0
 50
321.7834830842292
 51
337.863843550967
  0
ARC
  5
39E
  8
0
  6
CENTER
 62
     7
 10
126.990739508778
 20
28.8846555199734
 30
0.0
 40
60.0
 50
202.0394991406791
 51
217.3074581245155
  0
ARC
  5
39F
  8
0
  6
CENTER
 62
     7
 10
126.990739508778
 20
28.8846555199734
 30
0.0
 40
60.0
 50
21.49017935544795
 51
36.65199719958235
  0
ARC
  5
3A0
  8
0
  6
CENTER
 62
     7
 10
126.990739508778
 20
28.8846555199734
 30
0.0
 40
66.67500305175781
 50
30.80209726981734
 51
57.83743400483183
  0
ARC
  5
3A1
  8
0
  6
CENTER
 62
     7
 10
126.990739508778
 20
28.8846555199734
 30
0.0
 40
66.67500305175781
 50
211.3098826747056
 51
237.6400570194297
  0
LINE
  5
3A2
  8
0
  6
CENTER
 62
     7
 10
163.2695175999415
 20
12.72125366327225
 30
0.0
 11
158.9299490237424
 21
5.204900406365908
 31
0.0
  0
LINE
  5
3A3
  8
0
  6
CENTER
 62
     7
 10
94.85351070097092
 20
5.548057376674564
 30
0.0
 11
90.5139421247717
 21
13.06441063358093
 31
0.0
  0
LINE
  5
3A4
  8
0
  6
CENTER
 62
     7
 10
126.9907907469476
 20
158.2912565328999
 30
0.0
 11
126.9907907469476
 21
49.73563669676747
 31
0.0
  0
LINE
  5
3A5
  8
0
  6
CENTER
 62
     7
 10
126.9907907469476
 20
42.11359769663659
 30
0.0
 11
126.9907907469476
 21
-102.1170687231907
 31
0.0
  0
LINE
  5
3A6
  8
0
  6
CONTINUOUS
 62
     7
 10
-96.85457494787154
 20
87.88465551997339
 30
0.0
 11
-69.75399183629503
 21
87.88465551997339
 31
0.0
  0
LINE
  5
3A7
  8
0
  6
CONTINUOUS
 62
     4
 10
-211.9972533190942
 20
-42.79034753178441
 30
0.0
 11
-193.9972685778831
 21
-42.79034753178441
 31
0.0
  0
LINE
  5
3A8
  8
0
  6
CONTINUOUS
 62
     4
 10
-211.9972533190942
 20
-32.79034753178441
 30
0.0
 11
-193.9972685778831
 21
-32.79034753178441
 31
0.0
  0
LINE
  5
3A9
  8
0
  6
CONTINUOUS
 62
     4
 10
-211.9972533190942
 20
-43.79034753178441
 30
0.0
 11
-193.9972685778831
 21
-43.79034753178441
 31
0.0
  0
LINE
  5
3AA
  8
0
  6
CONTINUOUS
 62
     4
 10
-211.9972533190942
 20
-31.79034753178441
 30
0.0
 11
-193.9972685778831
 21
-31.79034753178441
 31
0.0
  0
LINE
  5
3AB
  8
0
  6
CONTINUOUS
 62
     4
 10
-211.9972685778831
 20
-31.79034753178441
 30
0.0
 11
-211.9972685778831
 21
-43.79034753178441
 31
0.0
  0
LINE
  5
3AC
  8
0
  6
CONTINUOUS
 62
     4
 10
-113.9972533190941
 20
-27.1153444800266
 30
0.0
 11
-113.9972533190941
 21
-35.1153444800266
 31
0.0
  0
LINE
  5
3AD
  8
0
  6
CONTINUOUS
 62
     4
 10
-146.8189848864769
 20
63.8846555199734
 30
0.0
 11
-146.8189848864769
 21
50.98728994990504
 31
0.0
  0
LINE
  5
3AE
  8
0
  6
CONTINUOUS
 62
     4
 10
-173.8189848864769
 20
63.8846555199734
 30
0.0
 11
-173.8189848864769
 21
51.26797918940699
 31
0.0
  0
LINE
  5
3AF
  8
0
  6
CONTINUOUS
 62
     4
 10
-173.8189848864769
 20
5.66479353572047
 30
0.0
 11
-173.8189848864769
 21
-6.1153444800266
 31
0.0
  0
LINE
  5
3B0
  8
0
  6
CONTINUOUS
 62
     4
 10
-146.8189848864769
 20
6.226172014724376
 30
0.0
 11
-146.8189848864769
 21
-6.1153444800266
 31
0.0
  0
LINE
  5
3B1
  8
0
  6
CONTINUOUS
 62
     4
 10
-127.8189848864769
 20
-15.31534142826879
 30
0.0
 11
-117.8189848864769
 21
-15.31534142826879
 31
0.0
  0
LINE
  5
3B2
  8
0
  6
CONTINUOUS
 62
     4
 10
-127.8189848864769
 20
70.88465551997339
 30
0.0
 11
-117.8189848864769
 21
70.88465551997339
 31
0.0
  0
LINE
  5
3B3
  8
0
  6
CONTINUOUS
 62
     4
 10
-127.8189848864769
 20
65.88465551997339
 30
0.0
 11
-117.8189848864769
 21
65.88465551997339
 31
0.0
  0
LINE
  5
3B4
  8
0
  6
CONTINUOUS
 62
     4
 10
-99.9972533190941
 20
153.8846555199734
 30
0.0
 11
-99.9972533190941
 21
143.8846555199734
 31
0.0
  0
LINE
  5
3B5
  8
0
  6
CONTINUOUS
 62
     4
 10
-100.9972533190941
 20
153.8846555199734
 30
0.0
 11
-100.9972533190941
 21
143.8846555199734
 31
0.0
  0
LINE
  5
3B6
  8
0
  6
CONTINUOUS
 62
     4
 10
-100.9972533190941
 20
87.88465551997339
 30
0.0
 11
-100.9972533190941
 21
81.88465551997339
 31
0.0
  0
LINE
  5
3B7
  8
0
  6
CONTINUOUS
 62
     4
 10
-99.9972533190941
 20
87.88465551997339
 30
0.0
 11
-99.9972533190941
 21
81.88465551997339
 31
0.0
  0
LINE
  5
3B8
  8
0
  6
CONTINUOUS
 62
     4
 10
-113.9972533190941
 20
-27.1153444800266
 30
0.0
 11
-98.9972533190941
 21
-27.1153444800266
 31
0.0
  0
LINE
  5
3B9
  8
0
  6
CONTINUOUS
 62
     4
 10
-113.9972533190941
 20
-35.1153444800266
 30
0.0
 11
-98.9972533190941
 21
-35.1153444800266
 31
0.0
  0
LINE
  5
3BA
  8
0
  6
CONTINUOUS
 62
     4
 10
-118.9972533190941
 20
135.8846555199734
 30
0.0
 11
-87.9972533190941
 21
135.8846555199734
 31
0.0
  0
LINE
  5
3BB
  8
0
  6
CONTINUOUS
 62
     4
 10
-118.9972533190941
 20
125.8846555199734
 30
0.0
 11
-87.9972533190941
 21
125.8846555199734
 31
0.0
  0
LINE
  5
3BC
  8
0
  6
CONTINUOUS
 62
     4
 10
-118.9972533190941
 20
95.88465551997339
 30
0.0
 11
-87.9972533190941
 21
95.88465551997339
 31
0.0
  0
LINE
  5
3BD
  8
0
  6
CONTINUOUS
 62
     4
 10
-118.9972533190941
 20
105.8846555199734
 30
0.0
 11
-87.9972533190941
 21
105.8846555199734
 31
0.0
  0
LINE
  5
3BE
  8
0
  6
CONTINUOUS
 62
     4
 10
137.9907395087782
 20
83.38465551997339
 30
0.0
 11
148.4907395087782
 21
83.38465551997339
 31
0.0
  0
LINE
  5
3BF
  8
0
  6
CONTINUOUS
 62
     4
 10
105.490739508778
 20
83.38465551997339
 30
0.0
 11
115.990739508778
 21
83.38465551997339
 31
0.0
  0
LINE
  5
3C0
  8
0
  6
CONTINUOUS
 62
     4
 10
105.490739508778
 20
152.3846555199734
 30
0.0
 11
115.990739508778
 21
152.3846555199734
 31
0.0
  0
LINE
  5
3C1
  8
0
  6
CONTINUOUS
 62
     4
 10
137.9907395087782
 20
152.3846555199734
 30
0.0
 11
148.4907395087782
 21
152.3846555199734
 31
0.0
  0
LINE
  5
3C2
  8
0
  6
CONTINUOUS
 62
     4
 10
137.9907395087782
 20
84.88465551997339
 30
0.0
 11
148.4907395087782
 21
84.88465551997339
 31
0.0
  0
LINE
  5
3C3
  8
0
  6
CONTINUOUS
 62
     4
 10
137.9907395087782
 20
86.38465551997339
 30
0.0
 11
148.4907395087782
 21
86.38465551997339
 31
0.0
  0
LINE
  5
3C4
  8
0
  6
CONTINUOUS
 62
     4
 10
137.9907395087782
 20
87.88465551997339
 30
0.0
 11
148.4907395087782
 21
87.88465551997339
 31
0.0
  0
LINE
  5
3C5
  8
0
  6
CONTINUOUS
 62
     4
 10
137.9907395087782
 20
89.38465551997339
 30
0.0
 11
148.4907395087782
 21
89.38465551997339
 31
0.0
  0
LINE
  5
3C6
  8
0
  6
CONTINUOUS
 62
     4
 10
137.9907395087782
 20
90.88465551997339
 30
0.0
 11
148.4907395087782
 21
90.88465551997339
 31
0.0
  0
LINE
  5
3C7
  8
0
  6
CONTINUOUS
 62
     4
 10
105.490739508778
 20
84.88465551997339
 30
0.0
 11
115.990739508778
 21
84.88465551997339
 31
0.0
  0
LINE
  5
3C8
  8
0
  6
CONTINUOUS
 62
     4
 10
105.490739508778
 20
86.38465551997339
 30
0.0
 11
115.990739508778
 21
86.38465551997339
 31
0.0
  0
LINE
  5
3C9
  8
0
  6
CONTINUOUS
 62
     4
 10
105.490739508778
 20
87.88465551997339
 30
0.0
 11
115.990739508778
 21
87.88465551997339
 31
0.0
  0
LINE
  5
3CA
  8
0
  6
CONTINUOUS
 62
     4
 10
105.490739508778
 20
89.38465551997339
 30
0.0
 11
115.990739508778
 21
89.38465551997339
 31
0.0
  0
LINE
  5
3CB
  8
0
  6
CONTINUOUS
 62
     4
 10
105.490739508778
 20
90.88465551997339
 30
0.0
 11
115.990739508778
 21
90.88465551997339
 31
0.0
  0
LINE
  5
3CC
  8
0
  6
CONTINUOUS
 62
     4
 10
105.490739508778
 20
150.8846555199734
 30
0.0
 11
115.990739508778
 21
150.8846555199734
 31
0.0
  0
LINE
  5
3CD
  8
0
  6
CONTINUOUS
 62
     4
 10
105.490739508778
 20
149.3846555199734
 30
0.0
 11
115.990739508778
 21
149.3846555199734
 31
0.0
  0
LINE
  5
3CE
  8
0
  6
CONTINUOUS
 62
     4
 10
105.490739508778
 20
147.8846555199734
 30
0.0
 11
115.990739508778
 21
147.8846555199734
 31
0.0
  0
LINE
  5
3CF
  8
0
  6
CONTINUOUS
 62
     4
 10
105.490739508778
 20
146.3846555199734
 30
0.0
 11
115.990739508778
 21
146.3846555199734
 31
0.0
  0
LINE
  5
3D0
  8
0
  6
CONTINUOUS
 62
     4
 10
105.490739508778
 20
144.8846555199734
 30
0.0
 11
115.990739508778
 21
144.8846555199734
 31
0.0
  0
LINE
  5
3D1
  8
0
  6
CONTINUOUS
 62
     4
 10
137.9907395087782
 20
150.8846555199734
 30
0.0
 11
148.4907395087782
 21
150.8846555199734
 31
0.0
  0
LINE
  5
3D2
  8
0
  6
CONTINUOUS
 62
     4
 10
137.9907395087782
 20
149.3846555199734
 30
0.0
 11
148.4907395087782
 21
149.3846555199734
 31
0.0
  0
LINE
  5
3D3
  8
0
  6
CONTINUOUS
 62
     4
 10
137.9907395087782
 20
147.8846555199734
 30
0.0
 11
148.4907395087782
 21
147.8846555199734
 31
0.0
  0
LINE
  5
3D4
  8
0
  6
CONTINUOUS
 62
     4
 10
137.9907395087782
 20
146.3846555199734
 30
0.0
 11
148.4907395087782
 21
146.3846555199734
 31
0.0
  0
LINE
  5
3D5
  8
0
  6
CONTINUOUS
 62
     4
 10
137.9907395087782
 20
144.8846555199734
 30
0.0
 11
148.4907395087782
 21
144.8846555199734
 31
0.0
  0
CIRCLE
  5
3D6
  8
0
  6
CONTINUOUS
 62
     4
 10
126.990739508778
 20
28.8846555199734
 30
0.0
 40
44.20000076293945
  0
ARC
  5
3D7
  8
0
  6
CONTINUOUS
 62
     4
 10
126.990739508778
 20
28.8846555199734
 30
0.0
 40
58.0
 50
113.9019489766143
 51
128.0399965962447
  0
ARC
  5
3D8
  8
0
  6
CONTINUOUS
 62
     4
 10
126.990739508778
 20
28.8846555199734
 30
0.0
 40
64.0
 50
111.5422893731042
 51
125.1779697490909
  0
ARC
  5
3D9
  8
0
  6
CONTINUOUS
 62
     4
 10
126.990739508778
 20
28.8846555199734
 30
0.0
 40
70.0
 50
109.6159984422421
 51
125.7571834510863
  0
ARC
  5
3DA
  8
0
  6
CONTINUOUS
 62
     4
 10
126.990739508778
 20
28.8846555199734
 30
0.0
 40
76.0
 50
108.0116757986654
 51
129.5810102164046
  0
ARC
  5
3DB
  8
0
  6
CONTINUOUS
 62
     4
 10
126.990739508778
 20
28.8846555199734
 30
0.0
 40
82.0
 50
106.6536566067484
 51
253.3463329205968
  0
ARC
  5
3DC
  8
0
  6
CONTINUOUS
 62
     4
 10
126.990739508778
 20
28.8846555199734
 30
0.0
 40
88.0
 50
105.4885492777493
 51
254.2913305734031
  0
ARC
  5
3DD
  8
0
  6
CONTINUOUS
 62
     4
 10
126.990739508778
 20
28.8846555199734
 30
0.0
 40
94.0
 50
104.4775310164257
 51
255.7223918083041
  0
CIRCLE
  5
3DE
  8
0
  6
CONTINUOUS
 62
     4
 10
75.0292221747937
 20
58.8846669640652
 30
0.0
 40
4.0
  0
CIRCLE
  5
3DF
  8
0
  6
CONTINUOUS
 62
     4
 10
178.9522568427626
 20
58.88465933467067
 30
0.0
 40
4.0
  0
ARC
  5
3E0
  8
0
  6
CONTINUOUS
 62
     4
 10
126.990739508778
 20
28.8846555199734
 30
0.0
 40
76.0
 50
140.4190041272191
 51
220.3023285085603
  0
ARC
  5
3E1
  8
0
  6
CONTINUOUS
 62
     4
 10
126.990739508778
 20
28.8846555199734
 30
0.0
 40
70.0
 50
144.2428308925374
 51
216.1974667796526
  0
ARC
  5
3E2
  8
0
  6
CONTINUOUS
 62
     4
 10
126.990739508778
 20
28.8846555199734
 30
0.0
 40
64.0
 50
144.8220582549111
 51
148.2172496686761
  0
ARC
  5
3E3
  8
0
  6
CONTINUOUS
 62
     4
 10
126.990739508778
 20
28.8846555199734
 30
0.0
 40
58.0
 50
141.960017747379
 51
146.058745966412
  0
ARC
  5
3E4
  8
0
  6
CONTINUOUS
 62
     4
 10
126.990739508778
 20
28.8846555199734
 30
0.0
 40
58.0
 50
153.9212635879588
 51
205.5479860899305
  0
ARC
  5
3E5
  8
0
  6
CONTINUOUS
 62
     4
 10
126.990739508778
 20
28.8846555199734
 30
0.0
 40
64.0
 50
151.8298869848576
 51
207.2258630406792
  0
ARC
  5
3E6
  8
0
  6
CONTINUOUS
 62
     4
 10
126.990739508778
 20
28.8846555199734
 30
0.0
 40
94.0
 50
284.477512347091
 51
435.522487652909
  0
ARC
  5
3E7
  8
0
  6
CONTINUOUS
 62
     4
 10
126.990739508778
 20
28.8846555199734
 30
0.0
 40
88.0
 50
285.4885306084146
 51
434.5114693915854
  0
ARC
  5
3E8
  8
0
  6
CONTINUOUS
 62
     4
 10
126.990739508778
 20
28.8846555199734
 30
0.0
 40
76.0
 50
50.41898454726802
 51
71.98834287066933
  0
ARC
  5
3E9
  8
0
  6
CONTINUOUS
 62
     4
 10
126.990739508778
 20
28.8846555199734
 30
0.0
 40
70.0
 50
54.24280789749168
 51
70.38402022709252
  0
ARC
  5
3EA
  8
0
  6
CONTINUOUS
 62
     4
 10
126.990739508778
 20
28.8846555199734
 30
0.0
 40
64.0
 50
54.82203867496002
 51
68.45772929623053
  0
ARC
  5
3EB
  8
0
  6
CONTINUOUS
 62
     4
 10
126.990739508778
 20
28.8846555199734
 30
0.0
 40
58.0
 50
51.96000158252251
 51
66.09806969272037
  0
ARC
  5
3EC
  8
0
  6
CONTINUOUS
 62
     4
 10
126.990739508778
 20
28.8846555199734
 30
0.0
 40
58.0
 50
34.33012903274987
 51
38.03998043138815
  0
ARC
  5
3ED
  8
0
  6
CONTINUOUS
 62
     4
 10
126.990739508778
 20
28.8846555199734
 30
0.0
 40
64.0
 50
32.17201123617388
 51
35.1779467540452
  0
ARC
  5
3EE
  8
0
  6
CONTINUOUS
 62
     4
 10
126.990739508778
 20
28.8846555199734
 30
0.0
 40
58.0
 50
293.9019303072797
 51
308.7653815828058
  0
ARC
  5
3EF
  8
0
  6
CONTINUOUS
 62
     4
 10
126.990739508778
 20
28.8846555199734
 30
0.0
 40
64.0
 50
291.5422707037695
 51
305.6310521689165
  0
ARC
  5
3F0
  8
0
  6
CONTINUOUS
 62
     4
 10
126.990739508778
 20
28.8846555199734
 30
0.0
 40
70.0
 50
289.6159797729075
 51
306.1975036624478
  0
ARC
  5
3F1
  8
0
  6
CONTINUOUS
 62
     4
 10
126.990739508778
 20
28.8846555199734
 30
0.0
 40
76.0
 50
288.0116571293307
 51
310.3023653913554
  0
ARC
  5
3F2
  8
0
  6
CONTINUOUS
 62
     4
 10
126.990739508778
 20
28.8846555199734
 30
0.0
 40
82.0
 50
286.6536379374138
 51
433.3463620625863
  0
CIRCLE
  5
3F3
  8
0
  6
CONTINUOUS
 62
     4
 10
75.0292221747937
 20
58.8846669640652
 30
0.0
 40
3.150000095367432
  0
CIRCLE
  5
3F4
  8
0
  6
CONTINUOUS
 62
     4
 10
178.9522568427626
 20
58.88465933467067
 30
0.0
 40
3.150000095367432
  0
CIRCLE
  5
3F5
  8
0
  6
CONTINUOUS
 62
     4
 10
178.9522721015515
 20
-1.115329221237538
 30
0.0
 40
3.150000095367432
  0
CIRCLE
  5
3F6
  8
0
  6
CONTINUOUS
 62
     4
 10
75.02920691600473
 20
-1.115338757980702
 30
0.0
 40
3.150000095367432
  0
CIRCLE
  5
3F7
  8
0
  6
CONTINUOUS
 62
     4
 10
75.02920691600473
 20
-1.115338757980702
 30
0.0
 40
4.0
  0
CIRCLE
  5
3F8
  8
0
  6
CONTINUOUS
 62
     4
 10
178.9522721015515
 20
-1.115329221237538
 30
0.0
 40
4.0
  0
ARC
  5
3F9
  8
0
  6
CONTINUOUS
 62
     4
 10
126.990739508778
 20
28.8846555199734
 30
0.0
 40
64.0
 50
212.7740703270812
 51
215.6310291738708
  0
ARC
  5
3FA
  8
0
  6
CONTINUOUS
 62
     4
 10
126.990739508778
 20
28.8846555199734
 30
0.0
 40
58.0
 50
214.4519472778299
 51
218.7653620028547
  0
ARC
  5
3FB
  8
0
  6
CONTINUOUS
 62
     4
 10
126.990739508778
 20
28.8846555199734
 30
0.0
 40
58.0
 50
231.234596332765
 51
246.0980441931965
  0
ARC
  5
3FC
  8
0
  6
CONTINUOUS
 62
     4
 10
126.990739508778
 20
28.8846555199734
 30
0.0
 40
64.0
 50
234.3689291617488
 51
248.4577106268959
  0
ARC
  5
3FD
  8
0
  6
CONTINUOUS
 62
     4
 10
126.990739508778
 20
28.8846555199734
 30
0.0
 40
70.0
 50
233.802474253123
 51
250.3839878973795
  0
ARC
  5
3FE
  8
0
  6
CONTINUOUS
 62
     4
 10
126.990739508778
 20
28.8846555199734
 30
0.0
 40
76.0
 50
229.6976125242152
 51
251.9883173711455
  0
ARC
  5
3FF
  8
0
  6
CONTINUOUS
 62
     4
 10
126.990739508778
 20
28.8846555199734
 30
0.0
 40
58.0
 50
321.2346193278107
 51
325.5480511283084
  0
ARC
  5
400
  8
0
  6
CONTINUOUS
 62
     4
 10
126.990739508778
 20
28.8846555199734
 30
0.0
 40
64.0
 50
324.3689487416999
 51
327.225928079057
  0
ARC
  5
401
  8
0
  6
CONTINUOUS
 62
     4
 10
126.990739508778
 20
28.8846555199734
 30
0.0
 40
70.0
 50
323.8025006632632
 51
395.7571775315136
  0
ARC
  5
402
  8
0
  6
CONTINUOUS
 62
     4
 10
126.990739508778
 20
28.8846555199734
 30
0.0
 40
76.0
 50
319.6976286890719
 51
399.5810008817372
  0
ARC
  5
403
  8
0
  6
CONTINUOUS
 62
     4
 10
126.990739508778
 20
28.8846555199734
 30
0.0
 40
64.0
 50
332.7741095248786
 51
387.7410062668507
  0
ARC
  5
404
  8
0
  6
CONTINUOUS
 62
     4
 10
126.990739508778
 20
28.8846555199734
 30
0.0
 40
58.0
 50
334.4519813529853
 51
385.5639756764631
  0
CIRCLE
  5
405
  8
0
  6
CONTINUOUS
 62
     4
 10
126.990739508778
 20
68.38465551997339
 30
0.0
 40
2.5
  0
CIRCLE
  5
406
  8
0
  6
CONTINUOUS
 62
     4
 10
161.1988198155177
 20
9.134699893529842
 30
0.0
 40
2.5
  0
CIRCLE
  5
407
  8
0
  6
CONTINUOUS
 62
     4
 10
92.78281291654712
 20
9.134611146416944
 30
0.0
 40
2.499999999999999
  0
LINE
  5
408
  8
0
  6
CONTINUOUS
 62
     3
 10
-193.9972685778831
 20
153.8846555199734
 30
0.0
 11
-193.9972685778831
 21
-96.11534448002661
 31
0.0
  0
LINE
  5
409
  8
0
  6
CONTINUOUS
 62
     3
 10
-193.9972533190942
 20
153.8846555199734
 30
0.0
 11
-163.9972533190942
 21
153.8846555199734
 31
0.0
  0
LINE
  5
40A
  8
0
  6
CONTINUOUS
 62
     3
 10
-189.7972563708519
 20
141.3846555199734
 30
0.0
 11
-189.7972563708519
 21
-83.61534448002661
 31
0.0
  0
LINE
  5
40B
  8
0
  6
CONTINUOUS
 62
     3
 10
-193.9972533190942
 20
-83.61534448002661
 30
0.0
 11
-189.7972563708519
 21
-83.61534448002661
 31
0.0
  0
LINE
  5
40C
  8
0
  6
CONTINUOUS
 62
     3
 10
-193.9972533190942
 20
141.3846555199734
 30
0.0
 11
-189.7972563708519
 21
141.3846555199734
 31
0.0
  0
LINE
  5
40D
  8
0
  6
CONTINUOUS
 62
     3
 10
-189.7972563708519
 20
-20.1153444800266
 30
0.0
 11
-164.8189848864769
 21
-20.1153444800266
 31
0.0
  0
LINE
  5
40E
  8
0
  6
CONTINUOUS
 62
     3
 10
-189.7972563708519
 20
77.88465551997339
 30
0.0
 11
-173.8189673931353
 21
77.88465551997339
 31
0.0
  0
LINE
  5
40F
  8
0
  6
CONTINUOUS
 62
     3
 10
-118.9972533190941
 20
-27.96534295414769
 30
0.0
 11
-118.9972533190941
 21
-34.26534600590551
 31
0.0
  0
LINE
  5
410
  8
0
  6
CONTINUOUS
 62
     3
 10
-120.8159208166677
 20
-31.11534300900123
 30
0.0
 11
-118.9972636784803
 21
-27.96533687615968
 31
0.0
  0
LINE
  5
411
  8
0
  6
CONTINUOUS
 62
     3
 10
-120.8159300878616
 20
-31.11535469967023
 30
0.0
 11
-118.9972777180463
 21
-34.26535257345008
 31
0.0
  0
LINE
  5
412
  8
0
  6
CONTINUOUS
 62
     3
 10
-163.9972533190942
 20
153.8846555199734
 30
0.0
 11
-163.9972533190942
 21
130.6715360131375
 31
0.0
  0
LINE
  5
413
  8
0
  6
CONTINUOUS
 62
     3
 10
-127.1972502673362
 20
85.88465551997339
 30
0.0
 11
-127.1972502673362
 21
77.88465551997339
 31
0.0
  0
LINE
  5
414
  8
0
  6
CONTINUOUS
 62
     3
 10
-134.6972502673362
 20
83.38465551997339
 30
0.0
 11
-134.6972502673362
 21
77.88465551997339
 31
0.0
  0
LINE
  5
415
  8
0
  6
CONTINUOUS
 62
     3
 10
-134.6972502673362
 20
83.38465551997339
 30
0.0
 11
-127.1972502673362
 21
83.38465551997339
 31
0.0
  0
LINE
  5
416
  8
0
  6
CONTINUOUS
 62
     3
 10
-134.6972502673362
 20
-25.6153444800266
 30
0.0
 11
-127.1972502673362
 21
-25.6153444800266
 31
0.0
  0
LINE
  5
417
  8
0
  6
CONTINUOUS
 62
     3
 10
-134.6972502673362
 20
-20.1153444800266
 30
0.0
 11
-134.6972502673362
 21
-25.6153444800266
 31
0.0
  0
LINE
  5
418
  8
0
  6
CONTINUOUS
 62
     3
 10
-127.1972502673362
 20
-20.1153444800266
 30
0.0
 11
-127.1972502673362
 21
-25.6153444800266
 31
0.0
  0
LINE
  5
419
  8
0
  6
CONTINUOUS
 62
     3
 10
-165.8189848864769
 20
77.88465551997339
 30
0.0
 11
-118.8189848864769
 21
77.88465551997339
 31
0.0
  0
LINE
  5
41A
  8
0
  6
CONTINUOUS
 62
     3
 10
-133.9972533190942
 20
101.9055219140164
 30
0.0
 11
-133.9972533190942
 21
83.38465551997339
 31
0.0
  0
LINE
  5
41B
  8
0
  6
CONTINUOUS
 62
     3
 10
-133.9972533190942
 20
85.88465551997339
 30
0.0
 11
-127.1972502673362
 21
85.88465551997339
 31
0.0
  0
LINE
  5
41C
  8
0
  6
CONTINUOUS
 62
     3
 10
-110.9972533190941
 20
153.8846555199734
 30
0.0
 11
-110.9972533190941
 21
143.8846555199734
 31
0.0
  0
LINE
  5
41D
  8
0
  6
CONTINUOUS
 62
     3
 10
-119.9972533190941
 20
153.8846555199734
 30
0.0
 11
-119.9972533190941
 21
78.65098242427027
 31
0.0
  0
LINE
  5
41E
  8
0
  6
CONTINUOUS
 62
     3
 10
-118.1972502673362
 20
81.88465551997339
 30
0.0
 11
-118.1972502673362
 21
77.88465551997339
 31
0.0
  0
LINE
  5
41F
  8
0
  6
CONTINUOUS
 62
     3
 10
-119.9972533190941
 20
78.65098242427027
 30
0.0
 11
-118.1972502673362
 21
78.65098242427027
 31
0.0
  0
LINE
  5
420
  8
0
  6
CONTINUOUS
 62
     3
 10
-118.9972533190941
 20
143.8846555199734
 30
0.0
 11
-118.9972533190941
 21
87.88465551997339
 31
0.0
  0
LINE
  5
421
  8
0
  6
CONTINUOUS
 62
     3
 10
-110.9972533190941
 20
87.88465551997339
 30
0.0
 11
-110.9972533190941
 21
81.88465551997339
 31
0.0
  0
LINE
  5
422
  8
0
  6
CONTINUOUS
 62
     3
 10
-112.9972533190941
 20
106.8846555199734
 30
0.0
 11
-112.9972533190941
 21
94.88465551997339
 31
0.0
  0
LINE
  5
423
  8
0
  6
CONTINUOUS
 62
     3
 10
-112.9972533190941
 20
136.8846555199734
 30
0.0
 11
-112.9972533190941
 21
124.8846555199734
 31
0.0
  0
LINE
  5
424
  8
0
  6
CONTINUOUS
 62
     3
 10
-173.8189848864769
 20
77.88465551997339
 30
0.0
 11
-165.8189848864769
 21
77.88465551997339
 31
0.0
  0
LINE
  5
425
  8
0
  6
CONTINUOUS
 62
     3
 10
-174.8189848864769
 20
76.88465551997339
 30
0.0
 11
-174.8189848864769
 21
-19.1153444800266
 31
0.0
  0
LINE
  5
426
  8
0
  6
CONTINUOUS
 62
     3
 10
-117.8189848864769
 20
76.88465551997339
 30
0.0
 11
-117.8189848864769
 21
-19.1153444800266
 31
0.0
  0
LINE
  5
427
  8
0
  6
CONTINUOUS
 62
     3
 10
-174.8189684547248
 20
76.88464342764516
 30
0.0
 11
-173.8189673931353
 21
77.88464448923466
 31
0.0
  0
LINE
  5
428
  8
0
  6
CONTINUOUS
 62
     3
 10
-118.8189784453806
 20
77.88465915755725
 30
0.0
 11
-117.8189754450339
 21
76.88465995043109
 31
0.0
  0
LINE
  5
429
  8
0
  6
CONTINUOUS
 62
     3
 10
-117.8189834712746
 20
-19.1153613786096
 30
0.0
 11
-118.8189845328641
 21
-20.1153624401991
 31
0.0
  0
LINE
  5
42A
  8
0
  6
CONTINUOUS
 62
     3
 10
-174.8190008235039
 20
-19.11535058901657
 30
0.0
 11
-173.8189997619144
 21
-20.11535165060607
 31
0.0
  0
LINE
  5
42B
  8
0
  6
CONTINUOUS
 62
     3
 10
-145.8189848864769
 20
72.88465551997339
 30
0.0
 11
-145.8189848864769
 21
-15.1153444800266
 31
0.0
  0
LINE
  5
42C
  8
0
  6
CONTINUOUS
 62
     3
 10
-143.8189848864769
 20
72.88465551997339
 30
0.0
 11
-143.8189848864769
 21
14.3056931939236
 31
0.0
  0
LINE
  5
42D
  8
0
  6
CONTINUOUS
 62
     3
 10
-129.8189848864769
 20
74.38465551997339
 30
0.0
 11
-129.8189848864769
 21
14.3056931939236
 31
0.0
  0
LINE
  5
42E
  8
0
  6
CONTINUOUS
 62
     3
 10
-127.8189848864769
 20
74.38465551997339
 30
0.0
 11
-127.8189848864769
 21
-16.6153444800266
 31
0.0
  0
LINE
  5
42F
  8
0
  6
CONTINUOUS
 62
     3
 10
-173.8189848864769
 20
-6.1153444800266
 30
0.0
 11
-146.8189848864769
 21
-6.1153444800266
 31
0.0
  0
LINE
  5
430
  8
0
  6
CONTINUOUS
 62
     3
 10
-173.8189848864769
 20
63.8846555199734
 30
0.0
 11
-146.8189848864769
 21
63.8846555199734
 31
0.0
  0
LINE
  5
431
  8
0
  6
CONTINUOUS
 62
     3
 10
-145.8189848864769
 20
-15.1153444800266
 30
0.0
 11
-143.8189848864769
 21
-15.1153444800266
 31
0.0
  0
LINE
  5
432
  8
0
  6
CONTINUOUS
 62
     3
 10
-145.8189848864769
 20
72.88465551997339
 30
0.0
 11
-143.8189848864769
 21
72.88465551997339
 31
0.0
  0
LINE
  5
433
  8
0
  6
CONTINUOUS
 62
     3
 10
-146.8189689726844
 20
-6.115334591599115
 30
0.0
 11
-145.8189695126914
 21
-7.115326465192105
 31
0.0
  0
LINE
  5
434
  8
0
  6
CONTINUOUS
 62
     3
 10
-146.8189653804486
 20
63.88463283660074
 30
0.0
 11
-145.8189623801019
 21
64.8846320437269
 31
0.0
  0
LINE
  5
435
  8
0
  6
CONTINUOUS
 62
     3
 10
-173.8189854536741
 20
63.88466711491945
 30
0.0
 11
-174.8189845765065
 21
64.88467011526606
 31
0.0
  0
LINE
  5
436
  8
0
  6
CONTINUOUS
 62
     3
 10
-173.8189695241147
 20
-6.115373117587318
 30
0.0
 11
-174.8189635892906
 21
-7.115359596404254
 31
0.0
  0
LINE
  5
437
  8
0
  6
CONTINUOUS
 62
     3
 10
-143.8189848864769
 20
72.63465551997339
 30
0.0
 11
-129.8189848864769
 21
72.63465551997339
 31
0.0
  0
LINE
  5
438
  8
0
  6
CONTINUOUS
 62
     3
 10
-129.8189848864769
 20
-16.6153444800266
 30
0.0
 11
-127.8189848864769
 21
-16.6153444800266
 31
0.0
  0
LINE
  5
439
  8
0
  6
CONTINUOUS
 62
     3
 10
-129.8189848864769
 20
74.38465551997339
 30
0.0
 11
-127.8189848864769
 21
74.38465551997339
 31
0.0
  0
LINE
  5
43A
  8
0
  6
CONTINUOUS
 62
     3
 10
-127.8189848864769
 20
73.88465551997339
 30
0.0
 11
-117.8189848864769
 21
73.88465551997339
 31
0.0
  0
LINE
  5
43B
  8
0
  6
CONTINUOUS
 62
     3
 10
-127.8189848864769
 20
-16.1153444800266
 30
0.0
 11
-117.8189848864769
 21
-16.1153444800266
 31
0.0
  0
LINE
  5
43C
  8
0
  6
CONTINUOUS
 62
     3
 10
-127.8189848864769
 20
-6.1153444800266
 30
0.0
 11
-117.8189848864769
 21
-6.1153444800266
 31
0.0
  0
LINE
  5
43D
  8
0
  6
CONTINUOUS
 62
     3
 10
-127.8189848864769
 20
63.88465551997339
 30
0.0
 11
-117.8189848864769
 21
63.88465551997339
 31
0.0
  0
LINE
  5
43E
  8
0
  6
CONTINUOUS
 62
     3
 10
-129.8189848864769
 20
6.906976744186046
 30
0.0
 11
-129.8189848864769
 21
-16.6153444800266
 31
0.0
  0
LINE
  5
43F
  8
0
  6
CONTINUOUS
 62
     3
 10
-143.8189848864769
 20
6.906976744186046
 30
0.0
 11
-143.8189848864769
 21
-15.1153444800266
 31
0.0
  0
LINE
  5
440
  8
0
  6
CONTINUOUS
 62
     3
 10
-122.8189848864769
 20
71.38465551997339
 30
0.0
 11
-122.8189848864769
 21
65.38465551997339
 31
0.0
  0
LINE
  5
441
  8
0
  6
CONTINUOUS
 62
     3
 10
-118.8189848864769
 20
71.38465551997339
 30
0.0
 11
-118.8189848864769
 21
65.38465551997339
 31
0.0
  0
LINE
  5
442
  8
0
  6
CONTINUOUS
 62
     3
 10
-127.8189848864769
 20
71.38465551997339
 30
0.0
 11
-117.8189848864769
 21
71.38465551997339
 31
0.0
  0
LINE
  5
443
  8
0
  6
CONTINUOUS
 62
     3
 10
-127.8189848864769
 20
65.38465551997339
 30
0.0
 11
-117.8189848864769
 21
65.38465551997339
 31
0.0
  0
LINE
  5
444
  8
0
  6
CONTINUOUS
 62
     3
 10
-98.9972533190941
 20
151.8846555199734
 30
0.0
 11
-98.9972533190941
 21
143.8846555199734
 31
0.0
  0
LINE
  5
445
  8
0
  6
CONTINUOUS
 62
     3
 10
-100.9972645976437
 20
-96.11535565575528
 30
0.0
 11
-98.99726247446463
 21
-94.11535353257628
 31
0.0
  0
LINE
  5
446
  8
0
  6
CONTINUOUS
 62
     3
 10
-98.99724783897175
 20
151.8846502171047
 30
0.0
 11
-99.99724890056125
 21
152.8846512786942
 31
0.0
  0
LINE
  5
447
  8
0
  6
CONTINUOUS
 62
     3
 10
-101.4972533190941
 20
-23.6153444800266
 30
0.0
 11
-98.9972533190941
 21
-23.6153444800266
 31
0.0
  0
LINE
  5
448
  8
0
  6
CONTINUOUS
 62
     3
 10
-100.5978545153832
 20
76.31882910395777
 30
0.0
 11
-98.9972533190941
 21
76.31882910395777
 31
0.0
  0
LINE
  5
449
  8
0
  6
CONTINUOUS
 62
     3
 10
-97.9972533190941
 20
143.8846555199734
 30
0.0
 11
-97.9972533190941
 21
136.8846555199734
 31
0.0
  0
LINE
  5
44A
  8
0
  6
CONTINUOUS
 62
     3
 10
-98.9972533190941
 20
87.88465551997339
 30
0.0
 11
-98.9972533190941
 21
-94.11534448002661
 31
0.0
  0
LINE
  5
44B
  8
0
  6
CONTINUOUS
 62
     3
 10
-97.9972533190941
 20
124.8846555199734
 30
0.0
 11
-97.9972533190941
 21
106.8846555199734
 31
0.0
  0
LINE
  5
44C
  8
0
  6
CONTINUOUS
 62
     3
 10
-97.9972533190941
 20
94.88465551997339
 30
0.0
 11
-97.9972533190941
 21
87.88465551997339
 31
0.0
  0
LINE
  5
44D
  8
0
  6
CONTINUOUS
 62
     3
 10
-87.9972533190941
 20
91.88465551997339
 30
0.0
 11
-75.9972533190941
 21
91.88465551997339
 31
0.0
  0
LINE
  5
44E
  8
0
  6
CONTINUOUS
 62
     3
 10
-87.9972533190941
 20
109.8846555199734
 30
0.0
 11
-75.9972533190941
 21
109.8846555199734
 31
0.0
  0
LINE
  5
44F
  8
0
  6
CONTINUOUS
 62
     3
 10
-87.9972533190941
 20
121.8846555199734
 30
0.0
 11
-75.9972533190941
 21
121.8846555199734
 31
0.0
  0
LINE
  5
450
  8
0
  6
CONTINUOUS
 62
     3
 10
-87.9972533190941
 20
139.8846555199734
 30
0.0
 11
-75.9972533190941
 21
139.8846555199734
 31
0.0
  0
LINE
  5
451
  8
0
  6
CONTINUOUS
 62
     3
 10
-87.9972533190941
 20
109.8846555199734
 30
0.0
 11
-87.9972533190941
 21
91.88465551997339
 31
0.0
  0
LINE
  5
452
  8
0
  6
CONTINUOUS
 62
     3
 10
-87.9972533190941
 20
139.8846555199734
 30
0.0
 11
-87.9972533190941
 21
121.8846555199734
 31
0.0
  0
LINE
  5
453
  8
0
  6
CONTINUOUS
 62
     3
 10
-75.9972533190941
 20
139.8846555199734
 30
0.0
 11
-75.9972533190941
 21
121.8846555199734
 31
0.0
  0
LINE
  5
454
  8
0
  6
CONTINUOUS
 62
     3
 10
-75.9972533190941
 20
109.8846555199734
 30
0.0
 11
-75.9972533190941
 21
91.88465551997339
 31
0.0
  0
LINE
  5
455
  8
0
  6
CONTINUOUS
 62
     3
 10
-101.4972533190941
 20
64.87745200844486
 30
0.0
 11
-101.4972533190941
 21
-23.6153444800266
 31
0.0
  0
LINE
  5
456
  8
0
  6
CONTINUOUS
 62
     3
 10
-193.9972533190942
 20
-96.11534448002661
 30
0.0
 11
-100.9972533190941
 21
-96.11534448002661
 31
0.0
  0
LINE
  5
457
  8
0
  6
CONTINUOUS
 62
     3
 10
-118.9972533190941
 20
-34.26533837651098
 30
0.0
 11
-98.9972533190941
 21
-34.26533837651098
 31
0.0
  0
LINE
  5
458
  8
0
  6
CONTINUOUS
 62
     3
 10
-118.9972533190941
 20
-27.96535058354223
 30
0.0
 11
-98.9972533190941
 21
-27.96535058354223
 31
0.0
  0
LINE
  5
459
  8
0
  6
CONTINUOUS
 62
     3
 10
-116.7201079333519
 20
72.41337256098902
 30
0.0
 11
-102.5032957995629
 21
72.41337256098902
 31
0.0
  0
LINE
  5
45A
  8
0
  6
CONTINUOUS
 62
     3
 10
-163.9972533190942
 20
153.8846555199734
 30
0.0
 11
-99.9972533190941
 21
153.8846555199734
 31
0.0
  0
LINE
  5
45B
  8
0
  6
CONTINUOUS
 62
     3
 10
-118.1972502673362
 20
81.88465551997339
 30
0.0
 11
-99.9972533190941
 21
81.88465551997339
 31
0.0
  0
LINE
  5
45C
  8
0
  6
CONTINUOUS
 62
     3
 10
-118.9972533190941
 20
87.88465551997339
 30
0.0
 11
-97.9972533190941
 21
87.88465551997339
 31
0.0
  0
LINE
  5
45D
  8
0
  6
CONTINUOUS
 62
     3
 10
-118.9972533190941
 20
143.8846555199734
 30
0.0
 11
-97.9972533190941
 21
143.8846555199734
 31
0.0
  0
LINE
  5
45E
  8
0
  6
CONTINUOUS
 62
     3
 10
-118.9972533190941
 20
106.8846555199734
 30
0.0
 11
-87.9972533190941
 21
106.8846555199734
 31
0.0
  0
LINE
  5
45F
  8
0
  6
CONTINUOUS
 62
     3
 10
-118.9972533190941
 20
94.88465551997339
 30
0.0
 11
-87.9972533190941
 21
94.88465551997339
 31
0.0
  0
LINE
  5
460
  8
0
  6
CONTINUOUS
 62
     3
 10
-118.9972533190941
 20
136.8846555199734
 30
0.0
 11
-87.9972533190941
 21
136.8846555199734
 31
0.0
  0
LINE
  5
461
  8
0
  6
CONTINUOUS
 62
     3
 10
-118.9972533190941
 20
124.8846555199734
 30
0.0
 11
-87.9972533190941
 21
124.8846555199734
 31
0.0
  0
LINE
  5
462
  8
0
  6
CONTINUOUS
 62
     3
 10
-164.8189848864769
 20
-20.1153444800266
 30
0.0
 11
-101.4972533190941
 21
-20.1153444800266
 31
0.0
  0
LINE
  5
463
  8
0
  6
CONTINUOUS
 62
     3
 10
-143.8189848864769
 20
-14.86534448002659
 30
0.0
 11
-129.8189848864769
 21
-14.86534448002659
 31
0.0
  0
LINE
  5
464
  8
0
  6
CONTINUOUS
 62
     3
 10
94.49073950877811
 20
152.1213956322781
 30
0.0
 11
94.49073950877811
 21
149.585735842239
 31
0.0
  0
LINE
  5
465
  8
0
  6
CONTINUOUS
 62
     3
 10
159.4907395087782
 20
152.121380373489
 30
0.0
 11
159.4907395087782
 21
149.585735842239
 31
0.0
  0
LINE
  5
466
  8
0
  6
CONTINUOUS
 62
     3
 10
104.490739508778
 20
153.8846555199734
 30
0.0
 11
149.4907395087782
 21
153.8846555199734
 31
0.0
  0
LINE
  5
467
  8
0
  6
CONTINUOUS
 62
     3
 10
94.4907417967771
 20
152.1213286037814
 30
0.0
 11
104.4907417952128
 21
153.8845984615377
 31
0.0
  0
LINE
  5
468
  8
0
  6
CONTINUOUS
 62
     3
 10
149.490724459504
 20
153.8846011407099
 30
0.0
 11
159.4907319714263
 21
152.1213299581231
 31
0.0
  0
LINE
  5
469
  8
0
  6
CONTINUOUS
 62
     3
 10
149.4907395087782
 20
153.8846555199734
 30
0.0
 11
149.4907395087782
 21
72.41338019038355
 31
0.0
  0
LINE
  5
46A
  8
0
  6
CONTINUOUS
 62
     3
 10
104.490739508778
 20
153.8846555199734
 30
0.0
 11
104.490739508778
 21
72.41338019038355
 31
0.0
  0
LINE
  5
46B
  8
0
  6
CONTINUOUS
 62
     3
 10
116.990739508778
 20
153.8846555199734
 30
0.0
 11
116.990739508778
 21
81.88465551997339
 31
0.0
  0
LINE
  5
46C
  8
0
  6
CONTINUOUS
 62
     3
 10
136.9907395087782
 20
153.8846555199734
 30
0.0
 11
136.9907395087782
 21
81.88465551997339
 31
0.0
  0
LINE
  5
46D
  8
0
  6
CONTINUOUS
 62
     3
 10
104.490739508778
 20
81.88465551997339
 30
0.0
 11
116.990739508778
 21
81.88465551997339
 31
0.0
  0
LINE
  5
46E
  8
0
  6
CONTINUOUS
 62
     3
 10
113.740739508778
 20
81.88465551997339
 30
0.0
 11
113.740739508778
 21
78.65098623896753
 31
0.0
  0
LINE
  5
46F
  8
0
  6
CONTINUOUS
 62
     3
 10
140.2407395087782
 20
81.88465551997339
 30
0.0
 11
140.2407395087782
 21
78.65098623896753
 31
0.0
  0
LINE
  5
470
  8
0
  6
CONTINUOUS
 62
     3
 10
136.9907395087782
 20
81.88465551997339
 30
0.0
 11
149.4907395087782
 21
81.88465551997339
 31
0.0
  0
LINE
  5
471
  8
0
  6
CONTINUOUS
 62
     3
 10
116.990739508778
 20
87.88465551997339
 30
0.0
 11
136.9907395087782
 21
87.88465551997339
 31
0.0
  0
LINE
  5
472
  8
0
  6
CONTINUOUS
 62
     3
 10
116.990739508778
 20
143.8846555199734
 30
0.0
 11
136.9907395087782
 21
143.8846555199734
 31
0.0
  0
LINE
  5
473
  8
0
  6
CONTINUOUS
 62
     3
 10
104.490739508778
 20
-24.1153444800266
 30
0.0
 11
116.990739508778
 21
-24.1153444800266
 31
0.0
  0
LINE
  5
474
  8
0
  6
CONTINUOUS
 62
     3
 10
113.740739508778
 20
-20.88167519902074
 30
0.0
 11
113.740739508778
 21
-24.1153444800266
 31
0.0
  0
LINE
  5
475
  8
0
  6
CONTINUOUS
 62
     3
 10
140.2407395087782
 20
-20.88167519902074
 30
0.0
 11
140.2407395087782
 21
-24.1153444800266
 31
0.0
  0
LINE
  5
476
  8
0
  6
CONTINUOUS
 62
     3
 10
116.990739508778
 20
-30.1153444800266
 30
0.0
 11
136.9907395087782
 21
-30.1153444800266
 31
0.0
  0
LINE
  5
477
  8
0
  6
CONTINUOUS
 62
     3
 10
136.9907395087782
 20
-24.1153444800266
 30
0.0
 11
149.4907395087782
 21
-24.1153444800266
 31
0.0
  0
CIRCLE
  5
478
  8
0
  6
CONTINUOUS
 62
     3
 10
174.1370865546765
 20
76.03100256587183
 30
0.0
 40
7.0
  0
CIRCLE
  5
479
  8
0
  6
CONTINUOUS
 62
     3
 10
79.84439246287973
 20
76.03100256587183
 30
0.0
 40
7.0
  0
CIRCLE
  5
47A
  8
0
  6
CONTINUOUS
 62
     3
 10
126.990739508778
 20
28.8846555199734
 30
0.0
 40
45.0
  0
CIRCLE
  5
47B
  8
0
  6
CONTINUOUS
 62
     3
 10
87.49073950877811
 20
28.8846555199734
 30
0.0
 40
3.099999904632568
  0
CIRCLE
  5
47C
  8
0
  6
CONTINUOUS
 62
     3
 10
166.4907395087782
 20
28.8846555199734
 30
0.0
 40
3.099999904632568
  0
CIRCLE
  5
47D
  8
0
  6
CONTINUOUS
 62
     3
 10
126.990739508778
 20
28.8846555199734
 30
0.0
 40
49.0
  0
ARC
  5
47E
  8
0
  6
CONTINUOUS
 62
     3
 10
126.990739508778
 20
28.8846555199734
 30
0.0
 40
51.5
 50
64.09417415250867
 51
115.9058376866368
  0
ARC
  5
47F
  8
0
  6
CONTINUOUS
 62
     3
 10
126.990739508778
 20
28.8846555199734
 30
0.0
 40
51.5
 50
244.0941623133632
 51
295.9058258474913
  0
ARC
  5
480
  8
0
  6
CONTINUOUS
 62
     3
 10
126.990739508778
 20
28.8846555199734
 30
0.0
 40
52.5
 50
115.3769488184461
 51
244.6230338787099
  0
ARC
  5
481
  8
0
  6
CONTINUOUS
 62
     3
 10
126.990739508778
 20
28.8846555199734
 30
0.0
 40
52.5
 50
295.3769301491114
 51
424.6230698508886
  0
CIRCLE
  5
482
  8
0
  6
CONTINUOUS
 62
     3
 10
174.1371018134657
 20
76.03099875117457
 30
0.0
 40
10.0
  0
CIRCLE
  5
483
  8
0
  6
CONTINUOUS
 62
     3
 10
79.8444000922742
 20
76.03101400996363
 30
0.0
 40
10.0
  0
CIRCLE
  5
484
  8
0
  6
CONTINUOUS
 62
     3
 10
174.1370865546765
 20
-18.26169152592504
 30
0.0
 40
7.0
  0
CIRCLE
  5
485
  8
0
  6
CONTINUOUS
 62
     3
 10
174.1370865546765
 20
-18.26169152592504
 30
0.0
 40
10.0
  0
CIRCLE
  5
486
  8
0
  6
CONTINUOUS
 62
     3
 10
79.84439246287973
 20
-18.26169152592504
 30
0.0
 40
10.0
  0
LINE
  5
487
  8
0
  6
CONTINUOUS
 62
     3
 10
116.990739508778
 20
-86.11534448002661
 30
0.0
 11
136.9907395087782
 21
-86.11534448002661
 31
0.0
  0
LINE
  5
488
  8
0
  6
CONTINUOUS
 62
     3
 10
116.990739508778
 20
-24.1153444800266
 30
0.0
 11
116.990739508778
 21
-96.11534448002661
 31
0.0
  0
LINE
  5
489
  8
0
  6
CONTINUOUS
 62
     3
 10
136.9907395087782
 20
-24.1153444800266
 30
0.0
 11
136.9907395087782
 21
-96.11534448002661
 31
0.0
  0
LINE
  5
48A
  8
0
  6
CONTINUOUS
 62
     3
 10
149.4907395087782
 20
-14.64406915043676
 30
0.0
 11
149.4907395087782
 21
-96.11534448002661
 31
0.0
  0
LINE
  5
48B
  8
0
  6
CONTINUOUS
 62
     3
 10
104.490739508778
 20
-14.64406915043676
 30
0.0
 11
104.490739508778
 21
-96.11534448002661
 31
0.0
  0
ARC
  5
48C
  8
0
  6
CONTINUOUS
 62
     3
 10
126.990739508778
 20
28.8846555199734
 30
0.0
 40
125.0
 50
280.3697614481645
 51
439.6302385518355
  0
ARC
  5
48D
  8
0
  6
CONTINUOUS
 62
     3
 10
126.990739508778
 20
28.8846555199734
 30
0.0
 40
123.0
 50
100.5403026203177
 51
259.4596800768383
  0
ARC
  5
48E
  8
0
  6
CONTINUOUS
 62
     3
 10
126.990739508778
 20
28.8846555199734
 30
0.0
 40
125.0
 50
100.3697801174991
 51
259.6301889192785
  0
ARC
  5
48F
  8
0
  6
CONTINUOUS
 62
     3
 10
126.990739508778
 20
28.8846555199734
 30
0.0
 40
123.0
 50
280.540283950983
 51
439.459716049017
  0
LINE
  5
490
  8
0
  6
CONTINUOUS
 62
     3
 10
94.49073950877811
 20
-94.35208459233128
 30
0.0
 11
94.49073950877811
 21
-91.81642480229222
 31
0.0
  0
LINE
  5
491
  8
0
  6
CONTINUOUS
 62
     3
 10
94.4907417967771
 20
-94.35201756383459
 30
0.0
 11
104.4907417952128
 21
-96.11528742159091
 31
0.0
  0
LINE
  5
492
  8
0
  6
CONTINUOUS
 62
     3
 10
159.4907395087782
 20
-94.35206933354222
 30
0.0
 11
159.4907395087782
 21
-91.81642480229222
 31
0.0
  0
LINE
  5
493
  8
0
  6
CONTINUOUS
 62
     3
 10
149.490724459504
 20
-96.11529010076312
 30
0.0
 11
159.4907319714263
 21
-94.35201891817634
 31
0.0
  0
LINE
  5
494
  8
0
  6
CONTINUOUS
 62
     3
 10
104.490739508778
 20
-96.11534448002659
 30
0.0
 11
149.4907395087782
 21
-96.11534448002659
 31
0.0
  0
CIRCLE
  5
495
  8
0
  6
CONTINUOUS
 62
     3
 10
126.990739508778
 20
68.38465551997339
 30
0.0
 40
3.0
  0
CIRCLE
  5
496
  8
0
  6
CONTINUOUS
 62
     3
 10
126.990739508778
 20
68.38465551997339
 30
0.0
 40
3.0
  0
CIRCLE
  5
497
  8
0
  6
CONTINUOUS
 62
     3
 10
161.1988198155177
 20
9.134699893529842
 30
0.0
 40
3.0
  0
CIRCLE
  5
498
  8
0
  6
CONTINUOUS
 62
     3
 10
161.1988198155177
 20
9.134699893529842
 30
0.0
 40
3.0
  0
CIRCLE
  5
499
  8
0
  6
CONTINUOUS
 62
     3
 10
92.78281291654712
 20
9.134611146416944
 30
0.0
 40
2.999999999999999
  0
CIRCLE
  5
49A
  8
0
  6
CONTINUOUS
 62
     3
 10
92.78281291654712
 20
9.134611146416944
 30
0.0
 40
2.999999999999999
  0
CIRCLE
  5
49B
  8
0
  6
CONTINUOUS
 62
     3
 10
126.9907907469476
 20
28.8846555199734
 30
0.0
 40
35.0
  0
LINE
  5
49C
  8
0
  6
DIVIDE
 62
     9
 10
-175.9972533190942
 20
-31.79034753178441
 30
0.0
 11
-175.9972533190942
 21
-43.79034753178441
 31
0.0
  0
LINE
  5
49D
  8
0
  6
DIVIDE
 62
     9
 10
-188.4972685778831
 20
76.88465551997339
 30
0.0
 11
-188.4972685778831
 21
66.88184220460555
 31
0.0
  0
LINE
  5
49E
  8
0
  6
DIVIDE
 62
     9
 10
-188.4972376526999
 20
76.88464342764516
 30
0.0
 11
-187.4972365911104
 21
77.88464448923466
 31
0.0
  0
LINE
  5
49F
  8
0
  6
DIVIDE
 62
     9
 10
-193.9972685778831
 20
-32.79034753178441
 30
0.0
 11
-175.9972533190942
 21
-32.79034753178441
 31
0.0
  0
LINE
  5
4A0
  8
0
  6
DIVIDE
 62
     9
 10
-193.9972685778831
 20
-31.79034753178441
 30
0.0
 11
-159.4061583483909
 21
-31.79034753178441
 31
0.0
  0
LINE
  5
4A1
  8
0
  6
DIVIDE
 62
     9
 10
-193.9972685778831
 20
-42.79034753178441
 30
0.0
 11
-175.9972533190942
 21
-42.79034753178441
 31
0.0
  0
LINE
  5
4A2
  8
0
  6
DIVIDE
 62
     9
 10
-193.9972685778831
 20
-43.79034753178441
 30
0.0
 11
-156.4509428942894
 21
-43.79034753178441
 31
0.0
  0
LINE
  5
4A3
  8
0
  6
DIVIDE
 62
     9
 10
-101.4972533190941
 20
76.88465551997339
 30
0.0
 11
-101.4972533190941
 21
66.88184220460555
 31
0.0
  0
LINE
  5
4A4
  8
0
  6
DIVIDE
 62
     9
 10
-101.4972410520517
 20
76.88464477634429
 30
0.0
 11
-102.4972421136412
 21
77.88464583793379
 31
0.0
  0
LINE
  5
4A5
  8
0
  6
DIVIDE
 62
     9
 10
-111.0777586901879
 20
77.88465551997339
 30
0.0
 11
-102.4972533190941
 21
77.88465551997339
 31
0.0
  0
LINE
  5
4A6
  8
LAYER0001
  6
CONTINUOUS
 62
     7
 10
-189.7972563708519
 20
165.8690762963406
 30
0.0
 11
-222.0536229685402
 21
165.8690762963406
 31
0.0
  0
LINE
  5
4A7
  8
LAYER0001
  6
CONTINUOUS
 62
     7
 10
-174.8189848864769
 20
79.42465551997341
 30
0.0
 11
-174.8189848864769
 21
166.8690762963406
 31
0.0
  0
LINE
  5
4A8
  8
LAYER0001
  6
CONTINUOUS
 62
     7
 10
-189.7972563708519
 20
143.9246555199734
 30
0.0
 11
-189.7972563708519
 21
166.8690762963406
 31
0.0
  0
LINE
  5
4A9
  8
LAYER0001
  6
CONTINUOUS
 62
     7
 10
-75.09724416382066
 20
21.01799444819606
 30
0.0
 11
-75.09724416382066
 21
53.8846555199734
 31
0.0
  0
LINE
  5
4AA
  8
LAYER0001
  6
CONTINUOUS
 62
     7
 10
-114.6850746691918
 20
-16.1153444800266
 30
0.0
 11
-72.81124868042224
 21
-16.1153444800266
 31
0.0
  0
LINE
  5
4AB
  8
LAYER0001
  6
CONTINUOUS
 62
     7
 10
-174.8189848864769
 20
165.8690762963406
 30
0.0
 11
-189.7972563708519
 21
165.8690762963406
 31
0.0
  0
LINE
  5
4AC
  8
LAYER0001
  6
CONTINUOUS
 62
     7
 10
-75.09724416382066
 20
-16.1153444800266
 30
0.0
 11
-75.09724416382066
 21
21.01799444819606
 31
0.0
  0
LINE
  5
4AD
  8
LAYER0001
  6
CONTINUOUS
 62
     7
 10
-98.9972533190941
 20
9.956844851028087
 30
0.0
 11
-85.63835897094957
 21
9.956844851028087
 31
0.0
  0
LINE
  5
4AE
  8
LAYER0001
  6
CONTINUOUS
 62
     7
 10
-98.9972533190941
 20
165.8690762963406
 30
0.0
 11
-92.50105275757066
 21
165.8690762963406
 31
0.0
  0
INSERT
  5
4AF
  8
LAYER0001
  6
CONTINUOUS
  2
DC_GROUP_1
 10
0.0
 20
0.0
 30
0.0
  0
INSERT
  5
4B0
  8
LAYER0001
  6
CONTINUOUS
  2
DC_GROUP_2
 10
0.0
 20
0.0
 30
0.0
  0
INSERT
  5
4B1
  8
LAYER0001
  6
CONTINUOUS
  2
DC_GROUP_3
 10
0.0
 20
0.0
 30
0.0
  0
INSERT
  5
4B2
  8
LAYER0001
  6
CONTINUOUS
  2
DC_GROUP_4
 10
0.0
 20
0.0
 30
0.0
  0
INSERT
  5
4B3
  8
LAYER0001
  6
CONTINUOUS
  2
DC_GROUP_7
 10
0.0
 20
0.0
 30
0.0
  0
INSERT
  5
4B4
  8
LAYER0001
  6
CONTINUOUS
  2
DC_GROUP_10
 10
0.0
 20
0.0
 30
0.0
  0
INSERT
  5
4B5
  8
LAYER0001
  6
CONTINUOUS
  2
DC_GROUP_13
 10
0.0
 20
0.0
 30
0.0
  0
INSERT
  5
4B6
  8
LAYER0001
  6
CONTINUOUS
  2
DC_GROUP_16
 10
0.0
 20
0.0
 30
0.0
  0
INSERT
  5
4B7
  8
LAYER0001
  6
CONTINUOUS
  2
DC_GROUP_19
 10
0.0
 20
0.0
 30
0.0
  0
INSERT
  5
4B8
  8
LAYER0001
  6
CONTINUOUS
  2
DC_GROUP_22
 10
0.0
 20
0.0
 30
0.0
  0
INSERT
  5
4B9
  8
LAYER0001
  6
CONTINUOUS
  2
DC_GROUP_25
 10
0.0
 20
0.0
 30
0.0
  0
INSERT
  5
4BA
  8
LAYER0001
  6
CONTINUOUS
  2
DC_GROUP_28
 10
0.0
 20
0.0
 30
0.0
  0
INSERT
  5
4BB
  8
LAYER0001
  6
CONTINUOUS
  2
DC_GROUP_31
 10
0.0
 20
0.0
 30
0.0
  0
INSERT
  5
4BC
  8
LAYER0001
  6
CONTINUOUS
  2
DC_GROUP_34
 10
0.0
 20
0.0
 30
0.0
  0
INSERT
  5
4BD
  8
LAYER0001
  6
CONTINUOUS
  2
DC_GROUP_37
 10
0.0
 20
0.0
 30
0.0
  0
INSERT
  5
4BE
  8
LAYER0001
  6
CONTINUOUS
  2
DC_GROUP_40
 10
0.0
 20
0.0
 30
0.0
  0
INSERT
  5
4BF
  8
LAYER0001
  6
CONTINUOUS
  2
DC_GROUP_43
 10
0.0
 20
0.0
 30
0.0
  0
INSERT
  5
4C0
  8
LAYER0001
  6
CONTINUOUS
  2
DC_GROUP_45
 10
0.0
 20
0.0
 30
0.0
  0
INSERT
  5
4C1
  8
LAYER0001
  6
CONTINUOUS
  2
DC_GROUP_48
 10
0.0
 20
0.0
 30
0.0
  0
INSERT
  5
4C2
  8
LAYER0001
  6
CONTINUOUS
  2
DC_GROUP_51
 10
0.0
 20
0.0
 30
0.0
  0
INSERT
  5
4C3
  8
LAYER0001
  6
CONTINUOUS
  2
DC_GROUP_54
 10
0.0
 20
0.0
 30
0.0
  0
INSERT
  5
4C4
  8
LAYER0001
  6
CONTINUOUS
  2
DC_GROUP_56
 10
0.0
 20
0.0
 30
0.0
  0
INSERT
  5
4C5
  8
LAYER0001
  6
CONTINUOUS
  2
DC_GROUP_59
 10
0.0
 20
0.0
 30
0.0
  0
INSERT
  5
4C6
  8
LAYER0001
  6
CONTINUOUS
  2
DC_GROUP_61
 10
0.0
 20
0.0
 30
0.0
  0
INSERT
  5
4C7
  8
LAYER0001
  6
CONTINUOUS
  2
DC_GROUP_63
 10
0.0
 20
0.0
 30
0.0
  0
INSERT
  5
4C8
  8
LAYER0001
  6
CONTINUOUS
  2
DC_GROUP_66
 10
0.0
 20
0.0
 30
0.0
  0
INSERT
  5
4C9
  8
LAYER0001
  6
CONTINUOUS
  2
DC_GROUP_69
 10
0.0
 20
0.0
 30
0.0
  0
INSERT
  5
4CA
  8
LAYER0001
  6
CONTINUOUS
  2
DC_GROUP_72
 10
0.0
 20
0.0
 30
0.0
  0
INSERT
  5
4CB
  8
LAYER0001
  6
CONTINUOUS
  2
DC_GROUP_75
 10
0.0
 20
0.0
 30
0.0
  0
TEXT
  5
4CC
  8
LAYER0001
 62
     7
 10
-220.3185698474145
 20
167.4690762963406
 30
0.0
 40
4.0
  1
MAX 31.3
 41
0.6952380952380963
  7
FDASTYLE1
 72
     5
 11
-198.0709507997954
 21
167.4690762963406
 31
0.0
  0
TEXT
  5
4CD
  8
LAYER0001
 62
     7
 10
-76.69724416382066
 20
15.15132345820582
 30
0.0
 40
4.0
  1
M90×P1.25
 50
90.0
 41
0.6158050464370843
  7
FDASTYLE1
 72
     5
 11
-76.69724416382066
 21
37.81294916709052
 31
0.0
  0
LINE
  5
4CE
  8
0
  6
CONTINUOUS
 62
     5
 10
229.150636359364
 20
43.46375517512477
 30
0.0
 11
229.150636359364
 21
38.96374945307887
 31
0.0
  0
LINE
  5
4CF
  8
0
  6
CONTINUOUS
 62
     5
 10
229.9006282579408
 20
42.71379875776345
 30
0.0
 11
229.1506328565452
 21
43.46379422237894
 31
0.0
  0
LINE
  5
4D0
  8
0
  6
CONTINUOUS
 62
     5
 10
228.4006655748432
 20
42.7137181367252
 30
0.0
 11
229.1506717026111
 21
43.46372445415543
 31
0.0
  0
LINE
  5
4D1
  8
0
  6
CONTINUOUS
 62
     5
 10
229.1506938507851
 20
38.96368711856392
 30
0.0
 11
229.900699978553
 21
39.71369343599415
 31
0.0
  0
LINE
  5
4D2
  8
0
  6
CONTINUOUS
 62
     5
 10
229.1506434564778
 20
38.96378925556471
 30
0.0
 11
228.4006372654891
 21
39.71379550977415
 31
0.0
  0
LINE
  5
4D3
  8
0
  6
CONTINUOUS
 62
     5
 10
221.6506211005751
 20
44.21376661921656
 30
0.0
 11
236.6506211005751
 21
44.21376661921656
 31
0.0
  0
LINE
  5
4D4
  8
0
  6
CONTINUOUS
 62
     5
 10
231.0263967503125
 20
49.74082015227092
 30
0.0
 11
230.0519708046925
 21
49.586486398203
 31
0.0
  0
LINE
  5
4D5
  8
0
  6
CONTINUOUS
 62
     5
 10
231.0264340479178
 20
49.7408294895746
 30
0.0
 11
230.8721024897371
 21
50.71524036426639
 31
0.0
  0
LINE
  5
4D6
  8
0
  6
CONTINUOUS
 62
     5
 10
236.6506211005751
 20
44.21376661921656
 30
0.0
 11
236.6506211005751
 21
51.7137685265652
 31
0.0
  0
LINE
  5
4D7
  8
0
  6
CONTINUOUS
 62
     5
 10
221.6506211005751
 20
51.71376089717067
 30
0.0
 11
236.6506211005751
 21
51.71376089717067
 31
0.0
  0
LINE
  5
4D8
  8
0
  6
CONTINUOUS
 62
     5
 10
221.6506211005751
 20
44.21376471186793
 30
0.0
 11
221.6506211005751
 21
55.46376471186793
 31
0.0
  0
LINE
  5
4D9
  8
0
  6
CONTINUOUS
 62
     5
 10
221.6506211005751
 20
55.46376089717067
 30
0.0
 11
223.9006211005751
 21
55.46376089717067
 31
0.0
  0
LINE
  5
4DA
  8
0
  6
CONTINUOUS
 62
     5
 10
223.9006211005751
 20
54.33875326777613
 30
0.0
 11
223.9006211005751
 21
55.4637456383816
 31
0.0
  0
LINE
  5
4DB
  8
0
  6
CONTINUOUS
 62
     5
 10
223.9006211005751
 20
54.33876089717067
 30
0.0
 11
225.4006211005751
 21
54.33876089717067
 31
0.0
  0
LINE
  5
4DC
  8
0
  6
CONTINUOUS
 62
     5
 10
225.4006058417859
 20
53.21376471186793
 30
0.0
 11
225.4006058417859
 21
54.33876471186793
 31
0.0
  0
LINE
  5
4DD
  8
0
  6
CONTINUOUS
 62
     5
 10
225.400636359364
 20
53.21374945307887
 30
0.0
 11
226.900636359364
 21
53.21374945307887
 31
0.0
  0
LINE
  5
4DE
  8
0
  6
CONTINUOUS
 62
     5
 10
226.9006058417859
 20
51.71376471186793
 30
0.0
 11
226.9006058417859
 21
53.21376089717067
 31
0.0
  0
LINE
  5
4DF
  8
0
  6
CONTINUOUS
 62
     5
 10
228.400664139707
 20
54.06400364084855
 30
0.0
 11
229.1506702674747
 21
54.81400995827878
 31
0.0
  0
LINE
  5
4E0
  8
0
  6
CONTINUOUS
 62
     5
 10
226.1909958564343
 20
54.81402258540309
 30
0.0
 11
229.1506211005751
 21
54.81402258540309
 31
0.0
  0
LINE
  5
4E1
  8
0
  6
CONTINUOUS
 62
     5
 10
229.1506333349231
 20
54.81405814731532
 30
0.0
 11
228.4006379335276
 21
55.56405361193081
 31
0.0
  0
ARC
  5
4E2
  8
0
  6
CONTINUOUS
 62
     5
 10
229.1702439033093
 20
47.8846555199734
 30
0.0
 40
2.625001907348633
 50
45.00008662960378
 51
339.9999320525513
  0
INSERT
  5
4E3
  8
0
  6
CONTINUOUS
  2
DC_GROUP_77
 10
0.0
 20
0.0
 30
0.0
  0
INSERT
  5
4E4
  8
0
  6
CONTINUOUS
  2
DC_GROUP_80
 10
0.0
 20
0.0
 30
0.0
  0
INSERT
  5
4E5
  8
0
  6
CONTINUOUS
  2
DC_GROUP_83
 10
0.0
 20
0.0
 30
0.0
  0
INSERT
  5
4E6
  8
0
  6
CONTINUOUS
  2
DC_GROUP_85
 10
0.0
 20
0.0
 30
0.0
  0
INSERT
  5
4E7
  8
0
  6
CONTINUOUS
  2
DC_GROUP_88
 10
0.0
 20
0.0
 30
0.0
  0
INSERT
  5
4E8
  8
0
  6
CONTINUOUS
  2
DC_GROUP_92
 10
0.0
 20
0.0
 30
0.0
  0
INSERT
  5
4E9
  8
0
  6
CONTINUOUS
  2
DC_GROUP_95
 10
0.0
 20
0.0
 30
0.0
  0
LINE
  5
4EA
  8
0
  6
CONTINUOUS
 62
     2
 10
121.9244905114751
 20
133.8096669122096
 30
0.0
 11
126.9907342421641
 21
136.7346571042735
 31
0.0
  0
LINE
  5
4EB
  8
0
  6
CONTINUOUS
 62
     2
 10
126.9908190165
 20
136.7347801991561
 30
0.0
 11
132.0570620320139
 21
133.8097736396669
 31
0.0
  0
LINE
  5
4EC
  8
0
  6
CONTINUOUS
 62
     2
 10
132.0569931708874
 20
133.8096509423367
 30
0.0
 11
132.0569931708874
 21
127.9596524682156
 31
0.0
  0
LINE
  5
4ED
  8
0
  6
CONTINUOUS
 62
     2
 10
132.0569891985952
 20
127.9596556642846
 30
0.0
 11
126.9907322533991
 21
125.0346578428398
 31
0.0
  0
LINE
  5
4EE
  8
0
  6
CONTINUOUS
 62
     2
 10
126.9906968353485
 20
125.0346013959379
 30
0.0
 11
121.9244520763992
 21
127.9596048172434
 31
0.0
  0
LINE
  5
4EF
  8
0
  6
CONTINUOUS
 62
     2
 10
121.9244934760633
 20
127.9596600976101
 30
0.0
 11
121.9244934760633
 21
133.8096585717312
 31
0.0
  0
LINE
  5
4F0
  8
0
  6
CONTINUOUS
 62
     2
 10
121.9244994338991
 20
103.8096586044648
 30
0.0
 11
126.990769593602
 21
106.7346640552905
 31
0.0
  0
LINE
  5
4F1
  8
0
  6
CONTINUOUS
 62
     2
 10
126.9907973165728
 20
106.7347189561492
 30
0.0
 11
132.0570403320867
 21
103.8097123966599
 31
0.0
  0
LINE
  5
4F2
  8
0
  6
CONTINUOUS
 62
     2
 10
132.0569931708874
 20
103.8096509423367
 30
0.0
 11
132.0569931708874
 21
97.95965246821558
 31
0.0
  0
LINE
  5
4F3
  8
0
  6
CONTINUOUS
 62
     2
 10
132.0569829991671
 20
97.9596430307856
 30
0.0
 11
126.9907392684778
 21
95.03465283872171
 31
0.0
  0
LINE
  5
4F4
  8
0
  6
CONTINUOUS
 62
     2
 10
126.9907228012912
 20
95.03462928041242
 30
0.0
 11
121.9244747387188
 21
97.9596346090693
 31
0.0
  0
LINE
  5
4F5
  8
0
  6
CONTINUOUS
 62
     2
 10
121.9244934760633
 20
97.95966009761011
 30
0.0
 11
121.9244934760633
 21
103.8096585717312
 31
0.0
  0
LINE
  5
4F6
  8
0
  6
CONTINUOUS
 62
     2
 10
121.9244869420604
 20
-70.19035002639501
 30
0.0
 11
126.9907471908832
 21
-67.26535029760501
 31
0.0
  0
LINE
  5
4F7
  8
0
  6
CONTINUOUS
 62
     2
 10
126.990750063639
 20
-67.2653673519155
 30
0.0
 11
132.0569864719089
 21
-70.19037009669793
 31
0.0
  0
LINE
  5
4F8
  8
0
  6
CONTINUOUS
 62
     2
 10
132.0569931708874
 20
-70.19034905766333
 30
0.0
 11
132.0569931708874
 21
-76.04034753178442
 31
0.0
  0
LINE
  5
4F9
  8
0
  6
CONTINUOUS
 62
     2
 10
132.0569928159526
 20
-76.0403813516123
 30
0.0
 11
126.9907424780099
 21
-78.96537535836663
 31
0.0
  0
LINE
  5
4FA
  8
0
  6
CONTINUOUS
 62
     2
 10
126.9907398100404
 20
-78.96533051717691
 30
0.0
 11
121.9244884438449
 21
-76.04032328116867
 31
0.0
  0
LINE
  5
4FB
  8
0
  6
CONTINUOUS
 62
     2
 10
121.9244934760633
 20
-76.04033990238989
 30
0.0
 11
121.9244934760633
 21
-70.1903414282688
 31
0.0
  0
LINE
  5
4FC
  8
0
  6
CONTINUOUS
 62
     2
 10
121.9245059818414
 20
-40.19035200368446
 30
0.0
 11
126.9907497125306
 21
-37.26536181162057
 31
0.0
  0
LINE
  5
4FD
  8
0
  6
CONTINUOUS
 62
     2
 10
126.9907502715937
 20
-37.26535096334734
 30
0.0
 11
132.0569998943516
 21
-40.1903613375434
 31
0.0
  0
LINE
  5
4FE
  8
0
  6
CONTINUOUS
 62
     2
 10
132.0569931708874
 20
-40.19035287236059
 30
0.0
 11
132.0569931708874
 21
-46.04034753178441
 31
0.0
  0
LINE
  5
4FF
  8
0
  6
CONTINUOUS
 62
     2
 10
132.0569971080354
 20
-46.04036541448661
 30
0.0
 11
126.9907533773462
 21
-48.9653556065505
 31
0.0
  0
LINE
  5
500
  8
0
  6
CONTINUOUS
 62
     2
 10
126.9907399332118
 20
-48.96534373160105
 30
0.0
 11
121.9244885670163
 21
-46.0403364955928
 31
0.0
  0
LINE
  5
501
  8
0
  6
CONTINUOUS
 62
     2
 10
121.9244934760633
 20
-46.04033990238988
 30
0.0
 11
121.9244934760633
 21
-40.19034142826879
 31
0.0
  0
LINE
  5
502
  8
0
  6
CONTINUOUS
 62
     2
 10
74.77816460379121
 20
-15.33670518205556
 30
0.0
 11
79.8444182453605
 21
-12.41170926795601
 31
0.0
  0
LINE
  5
503
  8
0
  6
CONTINUOUS
 62
     2
 10
79.84440305209442
 20
-12.41169526109459
 30
0.0
 11
84.91065267485222
 21
-15.33670563529065
 31
0.0
  0
LINE
  5
504
  8
0
  6
CONTINUOUS
 62
     2
 10
84.91064612498902
 20
-15.33669991825902
 30
0.0
 11
84.91064612498902
 21
-21.18669839238012
 31
0.0
  0
LINE
  5
505
  8
0
  6
CONTINUOUS
 62
     2
 10
84.91065521892152
 20
-21.18671007825903
 30
0.0
 11
79.8444048809789
 21
-24.11170408501337
 31
0.0
  0
LINE
  5
506
  8
0
  6
CONTINUOUS
 62
     2
 10
79.84438933470251
 20
-24.1116822166098
 30
0.0
 11
74.77815118299931
 21
-21.186682610007
 31
0.0
  0
LINE
  5
507
  8
0
  6
CONTINUOUS
 62
     2
 10
74.77813880077032
 20
-21.18668694828832
 30
0.0
 11
74.77813880077032
 21
-15.33668847416723
 31
0.0
  0
CIRCLE
  5
508
  8
0
  6
CONTINUOUS
 62
     2
 10
126.990739508778
 20
130.8846555199734
 30
0.0
 40
9.0
  0
CIRCLE
  5
509
  8
0
  6
CONTINUOUS
 62
     2
 10
126.990739508778
 20
100.8846555199734
 30
0.0
 40
9.0
  0
CIRCLE
  5
50A
  8
0
  6
CONTINUOUS
 62
     2
 10
126.990739508778
 20
-73.11534448002661
 30
0.0
 40
9.0
  0
CIRCLE
  5
50B
  8
0
  6
CONTINUOUS
 62
     2
 10
126.990739508778
 20
-43.1153444800266
 30
0.0
 40
9.0
  0
CIRCLE
  5
50C
  8
0
  6
CONTINUOUS
 62
     2
 10
79.84439246287973
 20
-18.26169152592504
 30
0.0
 40
9.0
  0
TEXT
  5
50D
  8
0
 62
     5
 10
19.4907395087781
 20
58.67036311293757
 30
0.0
 40
5.0
  1
NIKKO
 50
-90.00000000000001
 41
0.6358806103208201
  7
FDASTYLE1
 72
     5
 11
19.4907395087781
 21
42.77334785491707
 31
0.0
  0
TEXT
  5
50E
  8
0
 62
     5
 10
19.9907395087781
 20
27.31323532725489
 30
0.0
 40
4.0
  1
 HF2-10
 50
-90.00000000000001
 41
0.6237316631245774
  7
FDASTYLE1
 72
     5
 11
19.9907395087781
 21
9.848748759766725
 31
0.0
  0
TEXT
  5
50F
  8
0
 62
     5
 10
13.9907395087781
 20
23.95609216357386
 30
0.0
 40
3.0
  1
0001
 50
-90.00000000000001
 41
0.6190477764350794
  7
FDASTYLE1
 72
     5
 11
13.9907395087781
 21
16.52751884635291
 31
0.0
  0
TEXT
  5
510
  8
0
 62
     5
 10
232.6702439033093
 20
0.768237039100292
 30
0.0
 40
3.0
  1
F MAX   20KN
 50
90.0
 41
0.757877240781953
  7
FDASTYLE1
 72
     5
 11
232.6702439033093
 21
28.0518177072506
 31
0.0
  0
TEXT
  5
511
  8
0
 62
     5
 10
236.6702439033093
 20
0.7682389464489248
 30
0.0
 40
3.0
  1
ΣS MAX  74KN
 50
90.0
 41
0.6354423800607441
  7
FDASTYLE1
 72
     5
 11
236.6702439033093
 21
24.02543005667216
 31
0.0
  0
TEXT
  5
512
  8
0
 62
     5
 10
240.6702439033093
 20
0.7682351317516591
 30
0.0
 40
3.0
  1
N MAX 4200 AT ΣS MAX
 50
90.0
 41
0.6381822194503228
  7
FDASTYLE1
 72
     5
 11
240.6702439033093
 21
39.44207763044123
 31
0.0
  0
TEXT
  5
513
  8
0
 62
     5
 10
227.2707382880751
 20
40.25975672866023
 30
0.0
 40
2.5
  1
F
 50
90.0
 41
0.5442179498218366
  7
FDASTYLE1
 72
     5
 11
227.2707382880751
 21
41.62030160321482
 31
0.0
  0
TEXT
  5
514
  8
0
 62
     5
 10
234.7898422919812
 20
48.05373589659846
 30
0.0
 40
2.5
  1
N min
 50
90.0
 41
0.6995393319099822
  7
FDASTYLE1
 72
     5
 11
234.7898422919812
 21
56.79797754547324
 31
0.0
  0
TEXT
  5
515
  8
0
 62
     5
 10
233.0109960280958
 20
60.99123522604621
 30
0.0
 40
1.25
  1
-1
 50
90.0
 41
0.6149070012128505
  7
FDASTYLE1
 72
     5
 11
233.0109960280958
 21
62.52850272907833
 31
0.0
  0
TEXT
  5
516
  8
0
 62
     5
 10
228.9731919013562
 20
56.51802317763484
 30
0.0
 40
2.5
  1
ΣS
 50
90.0
 41
0.7133364095265103
  7
FDASTYLE1
 72
     5
 11
228.9731919013562
 21
60.44137343003064
 31
0.0
  0
LINE
  5
517
  8
0
  6
CONTINUOUS
 62
     6
 10
-78.68348574453984
 20
-106.1567628602159
 30
0.0
 11
-55.03865694815312
 21
-106.1567628602159
 31
0.0
  0
LINE
  5
518
  8
0
  6
CONTINUOUS
 62
     6
 10
-80.52096438223515
 20
-130.7807634095324
 30
0.0
 11
71.2166073340734
 21
-130.7807634095324
 31
0.0
  0
LINE
  5
519
  8
0
  6
CONTINUOUS
 62
     6
 10
-80.52096438223515
 20
-122.5727555970323
 30
0.0
 11
71.2166073340734
 21
-122.5727555970323
 31
0.0
  0
LINE
  5
51A
  8
0
  6
CONTINUOUS
 62
     6
 10
-80.52096438223515
 20
-114.3647630433214
 30
0.0
 11
71.2166073340734
 21
-114.3647630433214
 31
0.0
  0
LINE
  5
51B
  8
0
  6
CONTINUOUS
 62
     6
 10
-80.52096438223515
 20
-138.9887559632433
 30
0.0
 11
71.2166073340734
 21
-138.9887559632433
 31
0.0
  0
LINE
  5
51C
  8
0
  6
CONTINUOUS
 62
     6
 10
-80.52096438223515
 20
-147.1967637757433
 30
0.0
 11
71.2166073340734
 21
-147.1967637757433
 31
0.0
  0
LINE
  5
51D
  8
0
  6
CONTINUOUS
 62
     6
 10
-80.52096438223515
 20
-155.4047563294543
 30
0.0
 11
71.2166073340734
 21
-155.4047563294543
 31
0.0
  0
LINE
  5
51E
  8
0
  6
CONTINUOUS
 62
     6
 10
-80.52096438223515
 20
-163.6127641419543
 30
0.0
 11
71.2166073340734
 21
-163.6127641419543
 31
0.0
  0
LINE
  5
51F
  8
0
  6
CONTINUOUS
 62
     6
 10
-80.52096438223515
 20
-171.8207566956652
 30
0.0
 11
71.2166073340734
 21
-171.8207566956652
 31
0.0
  0
VIEWPORT
  5
48
 67
     1
  8
0
 10
-0.397644257202046
 20
0.0
 30
0.0
 40
1662.0
 41
1140.0
 68
     1
 69
     1
1001
ACAD
1000
MVIEW
1002
{
1070
    16
1010
0.0
1020
0.0
1030
0.0
1020
0.0
1030
0.0
1010
0.0
1020
0.0
1030
1.0
1020
0.0
1030
1.0
1040
0.0
1040
1140.0
1040
-0.397644257202046
1040
0.0
1040
50.0
1040
0.0
1040
0.0
1070
     0
1070
   100
1070
     0
1070
     1
1070
     0
1070
     0
1070
     0
1070
     0
1040
0.0
1040
0.0
1040
0.0
1040
0.5
1040
0.5
1040
0.0
1040
0.0
1070
     0
1002
{
1002
}
1002
}
  0
ENDSEC
  0
EOF
