  0
SECTION
  2
HEADER
  9
$ACADVER
  1
AC1009
  9
$DWGCODEPAGE
  3
ansi_932
  9
$INSBASE
 10
0.0
 20
0.0
 30
0.0
  9
$EXTMIN
 10
-836.531429682114
 20
-570.0
 30
0.0
  9
$EXTMAX
 10
825.468570317886
 20
570.0
 30
0.0
  9
$LIMMIN
 10
-297.25
 20
-210.25
  9
$LIMMAX
 10
297.25
 20
210.25
  9
$ORTHOMODE
 70
     0
  9
$REGENMODE
 70
     1
  9
$FILLMODE
 70
     1
  9
$QTEXTMODE
 70
     0
  9
$MIRRTEXT
 70
     1
  9
$DRAGMODE
 70
     2
  9
$LTSCALE
 40
0.5
  9
$OSMODE
 70
    37
  9
$ATTMODE
 70
     1
  9
$TEXTSIZE
 40
0.2
  9
$TRACEWID
 40
0.05
  9
$TEXTSTYLE
  7
STANDARD
  9
$CLAYER
  8
0
  9
$CELTYPE
  6
BYLAYER
  9
$CECOLOR
 62
   256
  9
$DIMSCALE
 40
1.0
  9
$DIMASZ
 40
1.25
  9
$DIMEXO
 40
0.0625
  9
$DIMDLI
 40
0.38
  9
$DIMRND
 40
0.0
  9
$DIMDLE
 40
0.0
  9
$DIMEXE
 40
0.18
  9
$DIMTP
 40
0.0
  9
$DIMTM
 40
0.0
  9
$DIMTXT
 40
0.18
  9
$DIMCEN
 40
0.09
  9
$DIMTSZ
 40
0.0
  9
$DIMTOL
 70
     0
  9
$DIMLIM
 70
     0
  9
$DIMTIH
 70
     1
  9
$DIMTOH
 70
     1
  9
$DIMSE1
 70
     0
  9
$DIMSE2
 70
     0
  9
$DIMTAD
 70
     3
  9
$DIMZIN
 70
     0
  9
$DIMBLK
  1

  9
$DIMASO
 70
     1
  9
$DIMSHO
 70
     1
  9
$DIMPOST
  1

  9
$DIMAPOST
  1

  9
$DIMALT
 70
     0
  9
$DIMALTD
 70
     2
  9
$DIMALTF
 40
25.4
  9
$DIMLFAC
 40
1.0
  9
$DIMTOFL
 70
     0
  9
$DIMTVP
 40
0.0
  9
$DIMTIX
 70
     0
  9
$DIMSOXD
 70
     0
  9
$DIMSAH
 70
     0
  9
$DIMBLK1
  1

  9
$DIMBLK2
  1

  9
$DIMSTYLE
  2
STANDARD
  9
$DIMCLRD
 70
     0
  9
$DIMCLRE
 70
     0
  9
$DIMCLRT
 70
     0
  9
$DIMTFAC
 40
1.0
  9
$DIMGAP
 40
0.09
  9
$LUNITS
 70
     2
  9
$LUPREC
 70
     4
  9
$SKETCHINC
 40
0.1
  9
$FILLETRAD
 40
0.5
  9
$AUNITS
 70
     0
  9
$AUPREC
 70
     0
  9
$MENU
  1
.
  9
$ELEVATION
 40
0.0
  9
$PELEVATION
 40
0.0
  9
$THICKNESS
 40
0.0
  9
$LIMCHECK
 70
     0
  9
$CHAMFERA
 40
0.5
  9
$CHAMFERB
 40
0.5
  9
$SKPOLY
 70
     0
  9
$TDCREATE
 40
2456329.486116667
  9
$TDUPDATE
 40
2456329.486116679
  9
$TDINDWG
 40
0.0000000116
  9
$TDUSRTIMER
 40
0.0000000116
  9
$USRTIMER
 70
     1
  9
$ANGBASE
 50
0.0
  9
$ANGDIR
 70
     0
  9
$PDMODE
 70
     0
  9
$PDSIZE
 40
1.0
  9
$PLINEWID
 40
0.0
  9
$COORDS
 70
     1
  9
$SPLFRAME
 70
     0
  9
$SPLINETYPE
 70
     6
  9
$SPLINESEGS
 70
     8
  9
$ATTDIA
 70
     0
  9
$ATTREQ
 70
     1
  9
$HANDLING
 70
     1
  9
$HANDSEED
  5
51E
  9
$SURFTAB1
 70
     6
  9
$SURFTAB2
 70
     6
  9
$SURFTYPE
 70
     6
  9
$SURFU
 70
     6
  9
$SURFV
 70
     6
  9
$UCSNAME
  2

  9
$UCSORG
 10
0.0
 20
0.0
 30
0.0
  9
$UCSXDIR
 10
1.0
 20
0.0
 30
0.0
  9
$UCSYDIR
 10
0.0
 20
1.0
 30
0.0
  9
$PUCSNAME
  2

  9
$PUCSORG
 10
0.0
 20
0.0
 30
0.0
  9
$PUCSXDIR
 10
1.0
 20
0.0
 30
0.0
  9
$PUCSYDIR
 10
0.0
 20
1.0
 30
0.0
  9
$USERI1
 70
     0
  9
$USERI2
 70
     0
  9
$USERI3
 70
     0
  9
$USERI4
 70
     0
  9
$USERI5
 70
     0
  9
$USERR1
 40
0.0
  9
$USERR2
 40
0.0
  9
$USERR3
 40
0.0
  9
$USERR4
 40
0.0
  9
$USERR5
 40
0.0
  9
$WORLDVIEW
 70
     1
  9
$SHADEDGE
 70
     3
  9
$SHADEDIF
 70
    70
  9
$TILEMODE
 70
     1
  9
$MAXACTVP
 70
    64
  9
$PLIMCHECK
 70
     0
  9
$PEXTMIN
 10
1.000000000000000E+20
 20
1.000000000000000E+20
 30
1.000000000000000E+20
  9
$PEXTMAX
 10
-1.000000000000000E+20
 20
-1.000000000000000E+20
 30
-1.000000000000000E+20
  9
$PLIMMIN
 10
0.0
 20
0.0
  9
$PLIMMAX
 10
12.0
 20
9.0
  9
$UNITMODE
 70
     0
  9
$VISRETAIN
 70
     0
  9
$PLINEGEN
 70
     1
  9
$PSLTSCALE
 70
     0
  0
ENDSEC
  0
SECTION
  2
TABLES
  0
TABLE
  2
VPORT
 70
     1
  0
VPORT
  2
*ACTIVE
 70
     0
 10
0.0
 20
0.0
 11
1.0
 21
1.0
 12
0.0
 22
0.0
 13
0.0
 23
0.0
 14
0.5
 24
0.5
 15
0.5
 25
0.5
 16
0.0
 26
0.0
 36
1.0
 17
-5.531429682113984
 27
0.0
 37
0.0
 40
387.6
 41
1.457894736842105
 42
50.0
 43
0.0
 44
0.0
 50
0.0
 51
0.0
 71
     0
 72
  1000
 73
     1
 74
     1
 75
     0
 76
     0
 77
     0
 78
     0
  0
ENDTAB
  0
TABLE
  2
LTYPE
 70
    28
  0
LTYPE
  2
CONTINUOUS
 70
     0
  3
Solid line
 72
    65
 73
     0
 40
0.0
  0
LTYPE
  2
HIDDENX2
 70
     0
  3
CADPAC LINETYPE
 72
    65
 73
     2
 40
19.81154299175501
 49
14.85865724381625
 49
-4.952885747938751
  0
LTYPE
  2
HIDDEN
 70
     0
  3
CADPAC LINETYPE
 72
    65
 73
     2
 40
14.85865724381625
 49
9.905771495877502
 49
-4.952885747938751
  0
LTYPE
  2
HIDDEN2
 70
     0
  3
CADPAC LINETYPE
 72
    65
 73
     2
 40
12.38221436984688
 49
7.429328621908127
 49
-4.952885747938751
  0
LTYPE
  2
DASHED
 70
     0
  3
CADPAC LINETYPE
 72
    65
 73
     2
 40
13.8680800942285
 49
9.905771495877502
 49
-3.962308598351001
  0
LTYPE
  2
DASHED2
 70
     0
  3
CADPAC LINETYPE
 72
    65
 73
     2
 40
8.915194346289582
 49
5.943462897526388
 49
-2.971731448763194
  0
LTYPE
  2
DASHEDX2
 70
     0
  3
CADPAC LINETYPE
 72
    65
 73
     2
 40
23.77385159010601
 49
19.81154299175501
 49
-3.962308598351001
  0
LTYPE
  2
DOTX2
 70
     0
  3
CADPAC LINETYPE
 72
    65
 73
     2
 40
8.667550058892743
 49
0.0
 49
-8.667550058892743
  0
LTYPE
  2
DOT
 70
     0
  3
CADPAC LINETYPE
 72
    65
 73
     2
 40
6.934040047114195
 49
0.0
 49
-6.934040047114195
  0
LTYPE
  2
DOT2
 70
     0
  3
CADPAC LINETYPE
 72
    65
 73
     2
 40
5.200530035335646
 49
0.0
 49
-5.200530035335646
  0
LTYPE
  2
CENTERX2
 70
     0
  3
CADPAC LINETYPE
 72
    65
 73
     4
 40
29.71731448763251
 49
12.38221436984688
 49
-6.191107184923439
 49
4.952885747938751
 49
-6.191107184923439
  0
LTYPE
  2
CENTER
 70
     0
  3
CADPAC LINETYPE
 72
    65
 73
     4
 40
22.78327444051826
 49
9.905771495877502
 49
-4.952885747938751
 49
2.971731448763251
 49
-4.952885747938751
  0
LTYPE
  2
CENTER2
 70
     0
  3
CADPAC LINETYPE
 72
    65
 73
     4
 40
15.849234393404
 49
7.429328621908127
 49
-3.714664310954063
 49
0.9905771495877502
 49
-3.714664310954063
  0
LTYPE
  2
DASHDOTX2
 70
     0
  3
CADPAC LINETYPE
 72
    65
 73
     4
 40
47.54770318021156
 49
23.77385159010589
 49
-7.924617196701888
 49
7.924617196701888
 49
-7.924617196701888
  0
LTYPE
  2
DASHDOT
 70
     0
  3
CADPAC LINETYPE
 72
    65
 73
     4
 40
23.77385159010601
 49
11.886925795053
 49
-3.962308598351001
 49
3.962308598351001
 49
-3.962308598351001
  0
LTYPE
  2
DASHDOT2
 70
     0
  3
CADPAC LINETYPE
 72
    65
 73
     4
 40
15.25488810365135
 49
8.915194346289752
 49
-2.971731448763251
 49
0.3962308598351001
 49
-2.971731448763251
  0
LTYPE
  2
DIVIDEX2
 70
     0
  3
CADPAC LINETYPE
 72
    65
 73
     6
 40
63.39693757361533
 49
23.77385159010589
 49
-7.924617196701888
 49
7.924617196701888
 49
-7.924617196701888
 49
7.924617196701888
 49
-7.924617196701888
  0
LTYPE
  2
DIVIDE
 70
     0
  3
CADPAC LINETYPE
 72
    65
 73
     6
 40
31.69846878680801
 49
11.886925795053
 49
-3.962308598351001
 49
3.962308598351001
 49
-3.962308598351001
 49
3.962308598351001
 49
-3.962308598351001
  0
LTYPE
  2
DIVIDE2
 70
     0
  3
CADPAC LINETYPE
 72
    65
 73
     6
 40
23.77385159010601
 49
8.915194346289752
 49
-2.971731448763251
 49
2.971731448763251
 49
-2.971731448763251
 49
2.971731448763251
 49
-2.971731448763251
  0
LTYPE
  2
BORDERX2
 70
     0
  3
CADPAC LINETYPE
 72
    65
 73
     6
 40
43.33775029446407
 49
12.38221436984688
 49
-6.191107184923439
 49
12.38221436984688
 49
-6.191107184923439
 49
0.0
 49
-6.191107184923439
  0
LTYPE
  2
BORDER
 70
     0
  3
CADPAC LINETYPE
 72
    65
 73
     6
 40
34.67020023557126
 49
9.905771495877502
 49
-4.952885747938751
 49
9.905771495877502
 49
-4.952885747938751
 49
0.0
 49
-4.952885747938751
  0
LTYPE
  2
BORDER2
 70
     0
  3
CADPAC LINETYPE
 72
    65
 73
     6
 40
25.75500588928122
 49
7.924617196701888
 49
-4.952885747938694
 49
2.971731448763194
 49
-4.952885747938694
 49
0.0
 49
-4.952885747938751
  0
LTYPE
  2
PHANTOMX2
 70
     0
  3
CADPAC LINETYPE
 72
    65
 73
     6
 40
37.14664310954063
 49
12.38221436984688
 49
-4.952885747938751
 49
4.952885747938751
 49
-4.952885747938751
 49
4.952885747938751
 49
-4.952885747938751
  0
LTYPE
  2
PHANTOM
 70
     0
  3
CADPAC LINETYPE
 72
    65
 73
     6
 40
30.70789163722026
 49
9.905771495877502
 49
-4.952885747938751
 49
2.971731448763251
 49
-4.952885747938751
 49
2.971731448763251
 49
-4.952885747938751
  0
LTYPE
  2
PHANTOM2
 70
     0
  3
CADPAC LINETYPE
 72
    65
 73
     6
 40
26.25029446407538
 49
7.429328621908127
 49
-4.952885747938751
 49
1.981154299175501
 49
-4.952885747938751
 49
1.981154299175501
 49
-4.952885747938751
  0
LTYPE
  2
ACAD_ISO06W100
 70
     0
  3
CADPAC LINETYPE
 72
    65
 73
     8
 40
52.50058892815025
 49
23.77385159010589
 49
-4.952885747938694
 49
2.971731448763194
 49
-4.952885747938694
 49
2.971731448763194
 49
-4.952885747938694
 49
2.971731448763194
 49
-4.952885747938694
  0
LTYPE
  2
ACAD_ISO13W100
 70
     0
  3
CADPAC LINETYPE
 72
    65
 73
     8
 40
39.62308598351001
 49
9.905771495877502
 49
-4.952885747938751
 49
9.905771495877502
 49
-4.952885747938751
 49
0.0
 49
-4.952885747938751
 49
0.0
 49
-4.952885747938751
  0
LTYPE
  2
ACAD_ISO14W100
 70
     0
  3
CADPAC LINETYPE
 72
    65
 73
     8
 40
29.71731448763251
 49
9.905771495877502
 49
-4.952885747938751
 49
0.0
 49
-4.952885747938751
 49
0.0
 49
-4.952885747938751
 49
0.0
 49
-4.952885747938751
  0
ENDTAB
  0
TABLE
  2
LAYER
 70
     3
  0
LAYER
  2
0
 70
     0
 62
     7
  6
CONTINUOUS
  0
LAYER
  2
LAYER0014
 70
     0
 62
     7
  6
CONTINUOUS
  0
LAYER
  2
LAYER0002
 70
     0
 62
     7
  6
CONTINUOUS
  0
ENDTAB
  0
TABLE
  2
STYLE
 70
     5
  0
STYLE
  2
STANDARD
 70
     0
 40
0.0
 41
1.0
 50
0.0
 71
     0
 42
0.2
  3
txt
  4

  0
STYLE
  2
FDASTYLE1
 70
     0
 40
0.0
 41
0.7999999999999995
 50
0.0
 71
     0
 42
0.2
  3
txt.shx
  4
bigfont
  0
STYLE
  2
FDASTYLE0
 70
     4
 40
0.0
 41
0.8
 50
0.0
 71
     0
 42
0.2
  3
txt.shx
  4
bigfont
  0
STYLE
  2
FDASTYLE2
 70
     0
 40
0.0
 41
0.8123476848090981
 50
0.0
 71
     0
 42
0.2
  3
MSMINCHO.TTC
  4

  0
STYLE
  2
FDASTYLE3
 70
     0
 40
0.0
 41
0.6347897774113767
 50
0.0
 71
     0
 42
0.2
  3
MSGOTHIC.TTC
  4

  0
ENDTAB
  0
TABLE
  2
VIEW
 70
     0
  0
ENDTAB
  0
TABLE
  2
UCS
 70
     0
  0
ENDTAB
  0
TABLE
  2
APPID
 70
     2
  0
APPID
  2
ACAD
 70
     0
  0
APPID
  2
DAFUSIONOUT
 70
     0
  0
ENDTAB
  0
TABLE
  2
DIMSTYLE
 70
     1
  0
DIMSTYLE
  2
STANDARD
 70
     0
  3

  4

  5

  6

  7

 40
1.0
 41
0.18
 42
0.0625
 43
0.38
 44
0.18
 45
0.0
 46
0.0
 47
0.0
 48
0.0
140
0.18
141
0.09
142
0.0
143
25.4
144
1.0
145
0.0
146
1.0
147
0.09
 71
     0
 72
     0
 73
     1
 74
     1
 75
     0
 76
     0
 77
     0
 78
     0
170
     0
171
     2
172
     0
173
     0
174
     0
175
     0
176
     0
177
     0
178
     0
  0
ENDTAB
  0
ENDSEC
  0
SECTION
  2
BLOCKS
  0
BLOCK
  8
0
  2
$MODEL_SPACE
 70
     0
 10
0.0
 20
0.0
 30
0.0
  3
$MODEL_SPACE
  1

  0
ENDBLK
  5
21
  8
0
  0
BLOCK
 67
     1
  8
0
  2
$PAPER_SPACE
 70
     0
 10
0.0
 20
0.0
 30
0.0
  3
$PAPER_SPACE
  1

  0
ENDBLK
  5
1D
 67
     1
  8
0
  0
BLOCK
  8
0
  2
DC_GROUP_1
 70
     0
 10
0.0
 20
0.0
 30
0.0
  3
DC_GROUP_1
  1

  0
LINE
  5
16F
  8
LAYER0014
  6
CONTINUOUS
 62
     7
 10
-204.1763002351004
 20
168.4684481766586
 30
0.0
 11
-206.1762986427311
 21
169.0043477115562
 31
0.0
  0
LINE
  5
170
  8
LAYER0014
  6
CONTINUOUS
 62
     7
 10
-206.1762986427311
 20
169.0043477115562
 30
0.0
 11
-204.1763002351004
 21
169.5402472464538
 31
0.0
  0
LINE
  5
171
  8
LAYER0014
  6
CONTINUOUS
 62
     7
 10
-206.1762986427311
 20
169.0043477115562
 30
0.0
 11
-204.1763002351004
 21
169.0043477115562
 31
0.0
  0
ENDBLK
  5
4E
  8
0
  0
BLOCK
  8
0
  2
DC_GROUP_2
 70
     0
 10
0.0
 20
0.0
 30
0.0
  3
DC_GROUP_2
  1

  0
LINE
  5
172
  8
LAYER0014
  6
CONTINUOUS
 62
     7
 10
-192.876293998604
 20
169.5402472464538
 30
0.0
 11
-190.8762955909733
 21
169.0043477115562
 31
0.0
  0
LINE
  5
173
  8
LAYER0014
  6
CONTINUOUS
 62
     7
 10
-190.8762955909733
 20
169.0043477115562
 30
0.0
 11
-192.876293998604
 21
168.4684481766586
 31
0.0
  0
LINE
  5
174
  8
LAYER0014
  6
CONTINUOUS
 62
     7
 10
-190.8762955909733
 20
169.0043477115562
 30
0.0
 11
-192.876293998604
 21
169.0043477115562
 31
0.0
  0
ENDBLK
  5
51
  8
0
  0
BLOCK
  8
0
  2
DC_GROUP_3
 70
     0
 10
0.0
 20
0.0
 30
0.0
  3
DC_GROUP_3
  1

  0
LINE
  5
175
  8
LAYER0014
  6
CONTINUOUS
 62
     7
 10
-81.63186292614401
 20
-25.12663532612565
 30
0.0
 11
-82.16776246104162
 21
-27.12663373375631
 31
0.0
  0
LINE
  5
176
  8
LAYER0014
  6
CONTINUOUS
 62
     7
 10
-82.16776246104162
 20
-27.12663373375631
 30
0.0
 11
-82.70366199593923
 21
-25.12663532612565
 31
0.0
  0
LINE
  5
177
  8
LAYER0014
  6
CONTINUOUS
 62
     7
 10
-82.16776246104162
 20
-27.12663373375631
 30
0.0
 11
-82.16776246104162
 21
-25.12663532612565
 31
0.0
  0
ENDBLK
  5
54
  8
0
  0
BLOCK
  8
0
  2
DC_GROUP_4
 70
     0
 10
0.0
 20
0.0
 30
0.0
  3
DC_GROUP_4
  1

  0
LINE
  5
178
  8
LAYER0014
  6
CONTINUOUS
 62
     7
 10
-116.3762955909733
 20
0.6352142391135658
 30
0.0
 11
-113.8762955909733
 21
0.6352142391135658
 31
0.0
  0
LINE
  5
179
  8
LAYER0014
  6
CONTINUOUS
 62
     7
 10
-100.2551418495639
 20
0.6352142391135658
 30
0.0
 11
-113.8762955909733
 21
0.6352142391135658
 31
0.0
  0
LINE
  5
17A
  8
LAYER0014
  6
CONTINUOUS
 62
     7
 10
-121.3762955909733
 20
0.6352142391135662
 30
0.0
 11
-116.3762955909733
 21
0.6352142391135658
 31
0.0
  0
INSERT
  5
17B
  8
LAYER0014
  6
CONTINUOUS
  2
DC_GROUP_5
 10
0.0
 20
0.0
 30
0.0
  0
INSERT
  5
17C
  8
LAYER0014
  6
CONTINUOUS
  2
DC_GROUP_6
 10
0.0
 20
0.0
 30
0.0
  0
TEXT
  5
17E
  8
LAYER0014
 62
     7
 10
-110.8551418495639
 20
1.635214239113566
 30
0.0
 40
4.0
  1
2.5
 41
0.7999999999999995
  7
FDASTYLE1
 72
     5
 11
-101.2551418495639
 21
1.635214239113566
 31
0.0
  0
ENDBLK
  5
57
  8
0
  0
BLOCK
  8
0
  2
DC_GROUP_5
 70
     0
 10
0.0
 20
0.0
 30
0.0
  3
DC_GROUP_5
  1

  0
LINE
  5
17F
  8
LAYER0014
  6
CONTINUOUS
 62
     7
 10
-111.8762971833426
 20
0.0993147042159577
 30
0.0
 11
-113.8762955909733
 21
0.6352142391135658
 31
0.0
  0
LINE
  5
180
  8
LAYER0014
  6
CONTINUOUS
 62
     7
 10
-113.8762955909733
 20
0.6352142391135658
 30
0.0
 11
-111.8762971833426
 21
1.171113774011173
 31
0.0
  0
LINE
  5
181
  8
LAYER0014
  6
CONTINUOUS
 62
     7
 10
-113.8762955909733
 20
0.6352142391135658
 30
0.0
 11
-111.8762971833426
 21
0.6352142391135655
 31
0.0
  0
ENDBLK
  5
5A
  8
0
  0
BLOCK
  8
0
  2
DC_GROUP_6
 70
     0
 10
0.0
 20
0.0
 30
0.0
  3
DC_GROUP_6
  1

  0
LINE
  5
182
  8
LAYER0014
  6
CONTINUOUS
 62
     7
 10
-118.3762939986039
 20
1.171113774011174
 30
0.0
 11
-116.3762955909733
 21
0.6352142391135658
 31
0.0
  0
LINE
  5
183
  8
LAYER0014
  6
CONTINUOUS
 62
     7
 10
-116.3762955909733
 20
0.6352142391135658
 30
0.0
 11
-118.3762939986039
 21
0.099314704215958
 31
0.0
  0
LINE
  5
184
  8
LAYER0014
  6
CONTINUOUS
 62
     7
 10
-116.3762955909733
 20
0.6352142391135658
 30
0.0
 11
-118.3762939986039
 21
0.6352142391135658
 31
0.0
  0
ENDBLK
  5
5D
  8
0
  0
BLOCK
  8
0
  2
DC_GROUP_7
 70
     0
 10
0.0
 20
0.0
 30
0.0
  3
DC_GROUP_7
  1

  0
LINE
  5
185
  8
LAYER0014
  6
CONTINUOUS
 62
     7
 10
-140.8762955909733
 20
0.6352142391135658
 30
0.0
 11
-130.8762955909733
 21
0.6352142391135658
 31
0.0
  0
INSERT
  5
186
  8
LAYER0014
  6
CONTINUOUS
  2
DC_GROUP_8
 10
0.0
 20
0.0
 30
0.0
  0
INSERT
  5
187
  8
LAYER0014
  6
CONTINUOUS
  2
DC_GROUP_9
 10
0.0
 20
0.0
 30
0.0
  0
TEXT
  5
188
  8
LAYER0014
 62
     7
 10
-139.0762955909733
 20
1.635214239113566
 30
0.0
 40
4.0
  1
10
 41
0.8000000000000007
  7
FDASTYLE1
 72
     5
 11
-132.6762955909733
 21
1.635214239113566
 31
0.0
  0
ENDBLK
  5
60
  8
0
  0
BLOCK
  8
0
  2
DC_GROUP_8
 70
     0
 10
0.0
 20
0.0
 30
0.0
  3
DC_GROUP_8
  1

  0
LINE
  5
189
  8
LAYER0014
  6
CONTINUOUS
 62
     7
 10
-138.8762971833426
 20
0.0993147042159578
 30
0.0
 11
-140.8762955909733
 21
0.6352142391135658
 31
0.0
  0
LINE
  5
18A
  8
LAYER0014
  6
CONTINUOUS
 62
     7
 10
-140.8762955909733
 20
0.6352142391135658
 30
0.0
 11
-138.8762971833426
 21
1.171113774011173
 31
0.0
  0
LINE
  5
18B
  8
LAYER0014
  6
CONTINUOUS
 62
     7
 10
-140.8762955909733
 20
0.6352142391135658
 30
0.0
 11
-138.8762971833426
 21
0.6352142391135656
 31
0.0
  0
ENDBLK
  5
63
  8
0
  0
BLOCK
  8
0
  2
DC_GROUP_9
 70
     0
 10
0.0
 20
0.0
 30
0.0
  3
DC_GROUP_9
  1

  0
LINE
  5
18C
  8
LAYER0014
  6
CONTINUOUS
 62
     7
 10
-132.876293998604
 20
1.171113774011174
 30
0.0
 11
-130.8762955909733
 21
0.6352142391135658
 31
0.0
  0
LINE
  5
18D
  8
LAYER0014
  6
CONTINUOUS
 62
     7
 10
-130.8762955909733
 20
0.6352142391135658
 30
0.0
 11
-132.876293998604
 21
0.099314704215958
 31
0.0
  0
LINE
  5
18E
  8
LAYER0014
  6
CONTINUOUS
 62
     7
 10
-130.8762955909733
 20
0.6352142391135658
 30
0.0
 11
-132.876293998604
 21
0.6352142391135658
 31
0.0
  0
ENDBLK
  5
66
  8
0
  0
BLOCK
  8
0
  2
DC_GROUP_10
 70
     0
 10
0.0
 20
0.0
 30
0.0
  3
DC_GROUP_10
  1

  0
LINE
  5
18F
  8
LAYER0014
  6
CONTINUOUS
 62
     7
 10
-158.8762955909733
 20
0.6352142391135658
 30
0.0
 11
-140.8762955909733
 21
0.6352142391135658
 31
0.0
  0
INSERT
  5
190
  8
LAYER0014
  6
CONTINUOUS
  2
DC_GROUP_11
 10
0.0
 20
0.0
 30
0.0
  0
INSERT
  5
191
  8
LAYER0014
  6
CONTINUOUS
  2
DC_GROUP_12
 10
0.0
 20
0.0
 30
0.0
  0
TEXT
  5
192
  8
LAYER0014
 62
     7
 10
-153.0762955909733
 20
1.635214239113566
 30
0.0
 40
4.0
  1
18
 41
0.7999999999999972
  7
FDASTYLE1
 72
     5
 11
-146.6762955909733
 21
1.635214239113566
 31
0.0
  0
ENDBLK
  5
69
  8
0
  0
BLOCK
  8
0
  2
DC_GROUP_11
 70
     0
 10
0.0
 20
0.0
 30
0.0
  3
DC_GROUP_11
  1

  0
LINE
  5
193
  8
LAYER0014
  6
CONTINUOUS
 62
     7
 10
-156.8762971833426
 20
0.0993147042159578
 30
0.0
 11
-158.8762955909733
 21
0.6352142391135658
 31
0.0
  0
LINE
  5
194
  8
LAYER0014
  6
CONTINUOUS
 62
     7
 10
-158.8762955909733
 20
0.6352142391135658
 30
0.0
 11
-156.8762971833426
 21
1.171113774011173
 31
0.0
  0
LINE
  5
195
  8
LAYER0014
  6
CONTINUOUS
 62
     7
 10
-158.8762955909733
 20
0.6352142391135658
 30
0.0
 11
-156.8762971833426
 21
0.6352142391135656
 31
0.0
  0
ENDBLK
  5
6C
  8
0
  0
BLOCK
  8
0
  2
DC_GROUP_12
 70
     0
 10
0.0
 20
0.0
 30
0.0
  3
DC_GROUP_12
  1

  0
LINE
  5
196
  8
LAYER0014
  6
CONTINUOUS
 62
     7
 10
-142.8762939986039
 20
1.171113774011174
 30
0.0
 11
-140.8762955909733
 21
0.6352142391135658
 31
0.0
  0
LINE
  5
197
  8
LAYER0014
  6
CONTINUOUS
 62
     7
 10
-140.8762955909733
 20
0.6352142391135658
 30
0.0
 11
-142.8762939986039
 21
0.099314704215958
 31
0.0
  0
LINE
  5
198
  8
LAYER0014
  6
CONTINUOUS
 62
     7
 10
-140.8762955909733
 20
0.6352142391135658
 30
0.0
 11
-142.8762939986039
 21
0.6352142391135658
 31
0.0
  0
ENDBLK
  5
6F
  8
0
  0
BLOCK
  8
0
  2
DC_GROUP_13
 70
     0
 10
0.0
 20
0.0
 30
0.0
  3
DC_GROUP_13
  1

  0
LINE
  5
199
  8
LAYER0014
  6
CONTINUOUS
 62
     7
 10
-190.8762955909733
 20
0.6352142391135658
 30
0.0
 11
-158.8762955909733
 21
0.6352142391135658
 31
0.0
  0
INSERT
  5
19A
  8
LAYER0014
  6
CONTINUOUS
  2
DC_GROUP_14
 10
0.0
 20
0.0
 30
0.0
  0
INSERT
  5
19B
  8
LAYER0014
  6
CONTINUOUS
  2
DC_GROUP_15
 10
0.0
 20
0.0
 30
0.0
  0
TEXT
  5
19C
  8
LAYER0014
 62
     7
 10
-178.0762955909733
 20
1.635214239113566
 30
0.0
 40
4.0
  1
32
 41
0.7999999999999972
  7
FDASTYLE1
 72
     5
 11
-171.6762955909733
 21
1.635214239113566
 31
0.0
  0
ENDBLK
  5
72
  8
0
  0
BLOCK
  8
0
  2
DC_GROUP_14
 70
     0
 10
0.0
 20
0.0
 30
0.0
  3
DC_GROUP_14
  1

  0
LINE
  5
19D
  8
LAYER0014
  6
CONTINUOUS
 62
     7
 10
-188.8762971833426
 20
0.0993147042159578
 30
0.0
 11
-190.8762955909733
 21
0.6352142391135658
 31
0.0
  0
LINE
  5
19E
  8
LAYER0014
  6
CONTINUOUS
 62
     7
 10
-190.8762955909733
 20
0.6352142391135658
 30
0.0
 11
-188.8762971833426
 21
1.171113774011173
 31
0.0
  0
LINE
  5
19F
  8
LAYER0014
  6
CONTINUOUS
 62
     7
 10
-190.8762955909733
 20
0.6352142391135658
 30
0.0
 11
-188.8762971833426
 21
0.6352142391135656
 31
0.0
  0
ENDBLK
  5
75
  8
0
  0
BLOCK
  8
0
  2
DC_GROUP_15
 70
     0
 10
0.0
 20
0.0
 30
0.0
  3
DC_GROUP_15
  1

  0
LINE
  5
1A0
  8
LAYER0014
  6
CONTINUOUS
 62
     7
 10
-160.8762939986039
 20
1.171113774011174
 30
0.0
 11
-158.8762955909733
 21
0.6352142391135658
 31
0.0
  0
LINE
  5
1A1
  8
LAYER0014
  6
CONTINUOUS
 62
     7
 10
-158.8762955909733
 20
0.6352142391135658
 30
0.0
 11
-160.8762939986039
 21
0.099314704215958
 31
0.0
  0
LINE
  5
1A2
  8
LAYER0014
  6
CONTINUOUS
 62
     7
 10
-158.8762955909733
 20
0.6352142391135658
 30
0.0
 11
-160.8762939986039
 21
0.6352142391135658
 31
0.0
  0
ENDBLK
  5
78
  8
0
  0
BLOCK
  8
0
  2
DC_GROUP_16
 70
     0
 10
0.0
 20
0.0
 30
0.0
  3
DC_GROUP_16
  1

  0
LINE
  5
1A3
  8
LAYER0014
  6
CONTINUOUS
 62
     7
 10
-229.4162955909733
 20
-42.80163678551412
 30
0.0
 11
-245.1429581886296
 21
-42.80163678551412
 31
0.0
  0
LINE
  5
1A4
  8
LAYER0014
  6
CONTINUOUS
 62
     7
 10
-229.4162955909733
 20
-54.80163678551412
 30
0.0
 11
-245.1429581886296
 21
-54.80163678551412
 31
0.0
  0
LINE
  5
1A5
  8
LAYER0014
  6
CONTINUOUS
 62
     7
 10
-244.1429581886296
 20
-42.80163678551412
 30
0.0
 11
-244.1429581886296
 21
-54.80163678551412
 31
0.0
  0
INSERT
  5
1A6
  8
LAYER0014
  6
CONTINUOUS
  2
DC_GROUP_17
 10
0.0
 20
0.0
 30
0.0
  0
INSERT
  5
1A7
  8
LAYER0014
  6
CONTINUOUS
  2
DC_GROUP_18
 10
0.0
 20
0.0
 30
0.0
  0
TEXT
  5
1A8
  8
LAYER0014
 62
     7
 10
-245.7429581886296
 20
-53.60163678551413
 30
0.0
 40
4.0
  1
M12
 50
90.0
 41
0.8000000000000019
  7
FDASTYLE1
 72
     5
 11
-245.7429581886296
 21
-44.00163678551411
 31
0.0
  0
ENDBLK
  5
7B
  8
0
  0
BLOCK
  8
0
  2
DC_GROUP_17
 70
     0
 10
0.0
 20
0.0
 30
0.0
  3
DC_GROUP_17
  1

  0
LINE
  5
1A9
  8
LAYER0014
  6
CONTINUOUS
 62
     7
 10
-244.6788577235272
 20
-44.80163519314478
 30
0.0
 11
-244.1429581886296
 21
-42.80163678551412
 31
0.0
  0
LINE
  5
1AA
  8
LAYER0014
  6
CONTINUOUS
 62
     7
 10
-244.1429581886296
 20
-42.80163678551412
 30
0.0
 11
-243.607058653732
 21
-44.80163519314478
 31
0.0
  0
LINE
  5
1AB
  8
LAYER0014
  6
CONTINUOUS
 62
     7
 10
-244.1429581886296
 20
-42.80163678551412
 30
0.0
 11
-244.1429581886296
 21
-44.80163519314478
 31
0.0
  0
ENDBLK
  5
7E
  8
0
  0
BLOCK
  8
0
  2
DC_GROUP_18
 70
     0
 10
0.0
 20
0.0
 30
0.0
  3
DC_GROUP_18
  1

  0
LINE
  5
1AC
  8
LAYER0014
  6
CONTINUOUS
 62
     7
 10
-243.607058653732
 20
-52.80163837788346
 30
0.0
 11
-244.1429581886296
 21
-54.80163678551412
 31
0.0
  0
LINE
  5
1AD
  8
LAYER0014
  6
CONTINUOUS
 62
     7
 10
-244.1429581886296
 20
-54.80163678551412
 30
0.0
 11
-244.6788577235272
 21
-52.80163837788346
 31
0.0
  0
LINE
  5
1AE
  8
LAYER0014
  6
CONTINUOUS
 62
     7
 10
-244.1429581886296
 20
-54.80163678551412
 30
0.0
 11
-244.1429581886296
 21
-52.80163837788346
 31
0.0
  0
ENDBLK
  5
81
  8
0
  0
BLOCK
  8
0
  2
DC_GROUP_19
 70
     0
 10
0.0
 20
0.0
 30
0.0
  3
DC_GROUP_19
  1

  0
LINE
  5
1AF
  8
LAYER0014
  6
CONTINUOUS
 62
     7
 10
-255.8326494212251
 20
-109.6266337337563
 30
0.0
 11
-255.8326494212251
 21
145.3733662662437
 31
0.0
  0
LINE
  5
1B0
  8
LAYER0014
  6
CONTINUOUS
 62
     7
 10
-213.0636898892226
 20
-109.6266337337563
 30
0.0
 11
-256.8326494212251
 21
-109.6266337337563
 31
0.0
  0
LINE
  5
1B1
  8
LAYER0014
  6
CONTINUOUS
 62
     7
 10
-213.2512102738959
 20
145.3733662662437
 30
0.0
 11
-256.8326494212251
 21
145.3733662662437
 31
0.0
  0
INSERT
  5
1B2
  8
LAYER0014
  6
CONTINUOUS
  2
DC_GROUP_20
 10
0.0
 20
0.0
 30
0.0
  0
INSERT
  5
1B3
  8
LAYER0014
  6
CONTINUOUS
  2
DC_GROUP_21
 10
0.0
 20
0.0
 30
0.0
  0
TEXT
  5
1B4
  8
LAYER0014
 62
     7
 10
-257.4326494212251
 20
8.273364358895066
 30
0.0
 40
4.0
  1
φ255H7
 50
90.0
 41
0.7492195629552543
  7
FDASTYLE1
 72
     5
 11
-257.4326494212251
 21
26.85400952018537
 31
0.0
  0
ENDBLK
  5
84
  8
0
  0
BLOCK
  8
0
  2
DC_GROUP_20
 70
     0
 10
0.0
 20
0.0
 30
0.0
  3
DC_GROUP_20
  1

  0
LINE
  5
1B5
  8
LAYER0014
  6
CONTINUOUS
 62
     7
 10
-255.2967498863275
 20
-107.6266353261256
 30
0.0
 11
-255.8326494212251
 21
-109.6266337337563
 31
0.0
  0
LINE
  5
1B6
  8
LAYER0014
  6
CONTINUOUS
 62
     7
 10
-255.8326494212251
 20
-109.6266337337563
 30
0.0
 11
-256.3685489561227
 21
-107.6266353261256
 31
0.0
  0
LINE
  5
1B7
  8
LAYER0014
  6
CONTINUOUS
 62
     7
 10
-255.8326494212251
 20
-109.6266337337563
 30
0.0
 11
-255.8326494212251
 21
-107.6266353261256
 31
0.0
  0
ENDBLK
  5
87
  8
0
  0
BLOCK
  8
0
  2
DC_GROUP_21
 70
     0
 10
0.0
 20
0.0
 30
0.0
  3
DC_GROUP_21
  1

  0
LINE
  5
1B8
  8
LAYER0014
  6
CONTINUOUS
 62
     7
 10
-256.3685489561227
 20
143.373367858613
 30
0.0
 11
-255.8326494212251
 21
145.3733662662437
 31
0.0
  0
LINE
  5
1B9
  8
LAYER0014
  6
CONTINUOUS
 62
     7
 10
-255.8326494212251
 20
145.3733662662437
 30
0.0
 11
-255.2967498863275
 21
143.373367858613
 31
0.0
  0
LINE
  5
1BA
  8
LAYER0014
  6
CONTINUOUS
 62
     7
 10
-255.8326494212251
 20
145.3733662662437
 30
0.0
 11
-255.8326494212251
 21
143.373367858613
 31
0.0
  0
ENDBLK
  5
8A
  8
0
  0
BLOCK
  8
0
  2
DC_GROUP_22
 70
     0
 10
0.0
 20
0.0
 30
0.0
  3
DC_GROUP_22
  1

  0
LINE
  5
1BB
  8
LAYER0014
  6
CONTINUOUS
 62
     7
 10
-245.7429581886296
 20
-33.12663373375631
 30
0.0
 11
-245.7429581886296
 21
68.87336626624369
 31
0.0
  0
LINE
  5
1BC
  8
LAYER0014
  6
CONTINUOUS
 62
     7
 10
-208.7162986427311
 20
-33.12663373375631
 30
0.0
 11
-246.7429581886296
 21
-33.12663373375631
 31
0.0
  0
LINE
  5
1BD
  8
LAYER0014
  6
CONTINUOUS
 62
     7
 10
-208.7162986427311
 20
68.87336626624369
 30
0.0
 11
-246.7429581886296
 21
68.87336626624369
 31
0.0
  0
INSERT
  5
1BE
  8
LAYER0014
  6
CONTINUOUS
  2
DC_GROUP_23
 10
0.0
 20
0.0
 30
0.0
  0
INSERT
  5
1BF
  8
LAYER0014
  6
CONTINUOUS
  2
DC_GROUP_24
 10
0.0
 20
0.0
 30
0.0
  0
TEXT
  5
1C0
  8
LAYER0014
 62
     7
 10
-247.3429581886295
 20
8.273366266243698
 30
0.0
 40
4.0
  1
φ102H7
 50
90.0
 41
0.7492195629552543
  7
FDASTYLE1
 72
     5
 11
-247.3429581886295
 21
26.854011427534
 31
0.0
  0
ENDBLK
  5
8D
  8
0
  0
BLOCK
  8
0
  2
DC_GROUP_23
 70
     0
 10
0.0
 20
0.0
 30
0.0
  3
DC_GROUP_23
  1

  0
LINE
  5
1C1
  8
LAYER0014
  6
CONTINUOUS
 62
     7
 10
-245.207058653732
 20
-31.12663532612564
 30
0.0
 11
-245.7429581886296
 21
-33.12663373375631
 31
0.0
  0
LINE
  5
1C2
  8
LAYER0014
  6
CONTINUOUS
 62
     7
 10
-245.7429581886296
 20
-33.12663373375631
 30
0.0
 11
-246.2788577235272
 21
-31.12663532612564
 31
0.0
  0
LINE
  5
1C3
  8
LAYER0014
  6
CONTINUOUS
 62
     7
 10
-245.7429581886296
 20
-33.12663373375631
 30
0.0
 11
-245.7429581886296
 21
-31.12663532612564
 31
0.0
  0
ENDBLK
  5
90
  8
0
  0
BLOCK
  8
0
  2
DC_GROUP_24
 70
     0
 10
0.0
 20
0.0
 30
0.0
  3
DC_GROUP_24
  1

  0
LINE
  5
1C4
  8
LAYER0014
  6
CONTINUOUS
 62
     7
 10
-246.2788577235272
 20
66.87336785861302
 30
0.0
 11
-245.7429581886296
 21
68.87336626624369
 31
0.0
  0
LINE
  5
1C5
  8
LAYER0014
  6
CONTINUOUS
 62
     7
 10
-245.7429581886296
 20
68.87336626624369
 30
0.0
 11
-245.207058653732
 21
66.87336785861302
 31
0.0
  0
LINE
  5
1C6
  8
LAYER0014
  6
CONTINUOUS
 62
     7
 10
-245.7429581886296
 20
68.87336626624369
 30
0.0
 11
-245.7429581886296
 21
66.87336785861302
 31
0.0
  0
ENDBLK
  5
93
  8
0
  0
BLOCK
  8
0
  2
DC_GROUP_25
 70
     0
 10
0.0
 20
0.0
 30
0.0
  3
DC_GROUP_25
  1

  0
LINE
  5
1C7
  8
LAYER0014
  6
CONTINUOUS
 62
     7
 10
-113.8762955909733
 20
155.4133662662437
 30
0.0
 11
-113.8762955909733
 21
170.312895685189
 31
0.0
  0
LINE
  5
1C8
  8
LAYER0014
  6
CONTINUOUS
 62
     7
 10
-114.8762955909733
 20
158.4133662662437
 30
0.0
 11
-114.8762955909733
 21
170.312895685189
 31
0.0
  0
LINE
  5
1C9
  8
LAYER0014
  6
CONTINUOUS
 62
     7
 10
-113.8762955909733
 20
169.312895685189
 30
0.0
 11
-114.8762955909733
 21
169.312895685189
 31
0.0
  0
LINE
  5
1CA
  8
LAYER0014
  6
CONTINUOUS
 62
     7
 10
-113.8762955909733
 20
169.312895685189
 30
0.0
 11
-107.5262955909733
 21
169.312895685189
 31
0.0
  0
LINE
  5
1CB
  8
LAYER0014
  6
CONTINUOUS
 62
     7
 10
-121.2262955909733
 20
169.312895685189
 30
0.0
 11
-114.8762955909733
 21
169.312895685189
 31
0.0
  0
INSERT
  5
1CC
  8
LAYER0014
  6
CONTINUOUS
  2
DC_GROUP_26
 10
0.0
 20
0.0
 30
0.0
  0
INSERT
  5
1CD
  8
LAYER0014
  6
CONTINUOUS
  2
DC_GROUP_27
 10
0.0
 20
0.0
 30
0.0
  0
TEXT
  5
1CE
  8
LAYER0014
 62
     7
 10
-109.2777482276921
 20
170.912895685189
 30
0.0
 40
4.0
  1
1
 41
0.7999999999999972
  7
FDASTYLE1
 72
     5
 11
-106.0777482276921
 21
170.912895685189
 31
0.0
  0
ENDBLK
  5
96
  8
0
  0
BLOCK
  8
0
  2
DC_GROUP_26
 70
     0
 10
0.0
 20
0.0
 30
0.0
  3
DC_GROUP_26
  1

  0
LINE
  5
1CF
  8
LAYER0014
  6
CONTINUOUS
 62
     7
 10
-111.8762971833426
 20
168.7769961502914
 30
0.0
 11
-113.8762955909733
 21
169.312895685189
 31
0.0
  0
LINE
  5
1D0
  8
LAYER0014
  6
CONTINUOUS
 62
     7
 10
-113.8762955909733
 20
169.312895685189
 30
0.0
 11
-111.8762971833426
 21
169.8487952200866
 31
0.0
  0
LINE
  5
1D1
  8
LAYER0014
  6
CONTINUOUS
 62
     7
 10
-113.8762955909733
 20
169.312895685189
 30
0.0
 11
-111.8762971833426
 21
169.312895685189
 31
0.0
  0
ENDBLK
  5
99
  8
0
  0
BLOCK
  8
0
  2
DC_GROUP_27
 70
     0
 10
0.0
 20
0.0
 30
0.0
  3
DC_GROUP_27
  1

  0
LINE
  5
1D2
  8
LAYER0014
  6
CONTINUOUS
 62
     7
 10
-116.8762939986039
 20
169.8487952200866
 30
0.0
 11
-114.8762955909733
 21
169.312895685189
 31
0.0
  0
LINE
  5
1D3
  8
LAYER0014
  6
CONTINUOUS
 62
     7
 10
-114.8762955909733
 20
169.312895685189
 30
0.0
 11
-116.8762939986039
 21
168.7769961502914
 31
0.0
  0
LINE
  5
1D4
  8
LAYER0014
  6
CONTINUOUS
 62
     7
 10
-114.8762955909733
 20
169.312895685189
 30
0.0
 11
-116.8762939986039
 21
169.312895685189
 31
0.0
  0
ENDBLK
  5
9C
  8
0
  0
BLOCK
  8
0
  2
DC_GROUP_28
 70
     0
 10
0.0
 20
0.0
 30
0.0
  3
DC_GROUP_28
  1

  0
LINE
  5
1D5
  8
LAYER0014
  6
CONTINUOUS
 62
     7
 10
-211.8762955909733
 20
-169.7281447307591
 30
0.0
 11
-113.8762955909733
 21
-169.7281447307591
 31
0.0
  0
LINE
  5
1D6
  8
LAYER0014
  6
CONTINUOUS
 62
     7
 10
-211.8762955909733
 20
-124.6666337337563
 30
0.0
 11
-211.8762955909733
 21
-170.7281447307591
 31
0.0
  0
LINE
  5
1D7
  8
LAYER0014
  6
CONTINUOUS
 62
     7
 10
-113.8762955909733
 20
-121.6666337337563
 30
0.0
 11
-113.8762955909733
 21
-170.7281447307591
 31
0.0
  0
INSERT
  5
1D8
  8
LAYER0014
  6
CONTINUOUS
  2
DC_GROUP_29
 10
0.0
 20
0.0
 30
0.0
  0
INSERT
  5
1D9
  8
LAYER0014
  6
CONTINUOUS
  2
DC_GROUP_30
 10
0.0
 20
0.0
 30
0.0
  0
TEXT
  5
1DA
  8
LAYER0014
 62
     7
 10
-166.0762955909733
 20
-168.7281447307591
 30
0.0
 40
4.0
  1
98
 41
0.7999999999999972
  7
FDASTYLE1
 72
     5
 11
-159.6762955909733
 21
-168.7281447307591
 31
0.0
  0
ENDBLK
  5
9F
  8
0
  0
BLOCK
  8
0
  2
DC_GROUP_29
 70
     0
 10
0.0
 20
0.0
 30
0.0
  3
DC_GROUP_29
  1

  0
LINE
  5
1DB
  8
LAYER0014
  6
CONTINUOUS
 62
     7
 10
-209.8762971833426
 20
-170.2640442656567
 30
0.0
 11
-211.8762955909733
 21
-169.7281447307591
 31
0.0
  0
LINE
  5
1DC
  8
LAYER0014
  6
CONTINUOUS
 62
     7
 10
-211.8762955909733
 20
-169.7281447307591
 30
0.0
 11
-209.8762971833426
 21
-169.1922451958615
 31
0.0
  0
LINE
  5
1DD
  8
LAYER0014
  6
CONTINUOUS
 62
     7
 10
-211.8762955909733
 20
-169.7281447307591
 30
0.0
 11
-209.8762971833426
 21
-169.7281447307591
 31
0.0
  0
ENDBLK
  5
A2
  8
0
  0
BLOCK
  8
0
  2
DC_GROUP_30
 70
     0
 10
0.0
 20
0.0
 30
0.0
  3
DC_GROUP_30
  1

  0
LINE
  5
1DE
  8
LAYER0014
  6
CONTINUOUS
 62
     7
 10
-115.8762939986039
 20
-169.1922451958615
 30
0.0
 11
-113.8762955909733
 21
-169.7281447307591
 31
0.0
  0
LINE
  5
1DF
  8
LAYER0014
  6
CONTINUOUS
 62
     7
 10
-113.8762955909733
 20
-169.7281447307591
 30
0.0
 11
-115.8762939986039
 21
-170.2640442656567
 31
0.0
  0
LINE
  5
1E0
  8
LAYER0014
  6
CONTINUOUS
 62
     7
 10
-113.8762955909733
 20
-169.7281447307591
 30
0.0
 11
-115.8762939986039
 21
-169.7281447307591
 31
0.0
  0
ENDBLK
  5
A5
  8
0
  0
BLOCK
  8
0
  2
DC_GROUP_31
 70
     0
 10
0.0
 20
0.0
 30
0.0
  3
DC_GROUP_31
  1

  0
LINE
  5
1E1
  8
LAYER0014
  6
CONTINUOUS
 62
     7
 10
-81.66361187515297
 20
95.87336626624369
 30
0.0
 11
-81.14295818862954
 21
95.87336626624369
 31
0.0
  0
LINE
  5
1E2
  8
LAYER0014
  6
CONTINUOUS
 62
     7
 10
-81.66361187515297
 20
130.8733662662437
 30
0.0
 11
-81.14295818862954
 21
130.8733662662437
 31
0.0
  0
LINE
  5
1E3
  8
LAYER0014
  6
CONTINUOUS
 62
     7
 10
-82.14295818862954
 20
95.87336626624369
 30
0.0
 11
-82.14295818862954
 21
130.8733662662437
 31
0.0
  0
INSERT
  5
1E4
  8
LAYER0014
  6
CONTINUOUS
  2
DC_GROUP_32
 10
0.0
 20
0.0
 30
0.0
  0
INSERT
  5
1E5
  8
LAYER0014
  6
CONTINUOUS
  2
DC_GROUP_33
 10
0.0
 20
0.0
 30
0.0
  0
TEXT
  5
1E6
  8
LAYER0014
 62
     7
 10
-83.74295818862953
 20
110.1733662662437
 30
0.0
 40
4.0
  1
35
 50
90.0
 41
0.8000000000000007
  7
FDASTYLE1
 72
     5
 11
-83.74295818862953
 21
116.5733662662437
 31
0.0
  0
ENDBLK
  5
A8
  8
0
  0
BLOCK
  8
0
  2
DC_GROUP_32
 70
     0
 10
0.0
 20
0.0
 30
0.0
  3
DC_GROUP_32
  1

  0
LINE
  5
1E7
  8
LAYER0014
  6
CONTINUOUS
 62
     7
 10
-81.60705865373193
 20
97.87336467387436
 30
0.0
 11
-82.14295818862954
 21
95.87336626624369
 31
0.0
  0
LINE
  5
1E8
  8
LAYER0014
  6
CONTINUOUS
 62
     7
 10
-82.14295818862954
 20
95.87336626624369
 30
0.0
 11
-82.67885772352715
 21
97.87336467387436
 31
0.0
  0
LINE
  5
1E9
  8
LAYER0014
  6
CONTINUOUS
 62
     7
 10
-82.14295818862954
 20
95.87336626624369
 30
0.0
 11
-82.14295818862954
 21
97.87336467387436
 31
0.0
  0
ENDBLK
  5
AB
  8
0
  0
BLOCK
  8
0
  2
DC_GROUP_33
 70
     0
 10
0.0
 20
0.0
 30
0.0
  3
DC_GROUP_33
  1

  0
LINE
  5
1EA
  8
LAYER0014
  6
CONTINUOUS
 62
     7
 10
-82.67885772352715
 20
128.873367858613
 30
0.0
 11
-82.14295818862954
 21
130.8733662662437
 31
0.0
  0
LINE
  5
1EB
  8
LAYER0014
  6
CONTINUOUS
 62
     7
 10
-82.14295818862954
 20
130.8733662662437
 30
0.0
 11
-81.60705865373193
 21
128.873367858613
 31
0.0
  0
LINE
  5
1EC
  8
LAYER0014
  6
CONTINUOUS
 62
     7
 10
-82.14295818862954
 20
130.8733662662437
 30
0.0
 11
-82.14295818862954
 21
128.873367858613
 31
0.0
  0
ENDBLK
  5
AE
  8
0
  0
BLOCK
  8
0
  2
DC_GROUP_34
 70
     0
 10
0.0
 20
0.0
 30
0.0
  3
DC_GROUP_34
  1

  0
LINE
  5
1ED
  8
LAYER0014
  6
CONTINUOUS
 62
     7
 10
-100.1718953974693
 20
137.6232579592038
 30
0.0
 11
-77.41122864766882
 21
165.315024016141
 31
0.0
  0
LINE
  5
1EE
  8
LAYER0014
  6
CONTINUOUS
 62
     7
 10
-77.41123058853188
 20
165.3150319156578
 30
0.0
 11
-65.98156216201821
 21
165.3150319156578
 31
0.0
  0
INSERT
  5
1EF
  8
LAYER0014
  6
CONTINUOUS
  2
DC_GROUP_35
 10
0.0
 20
0.0
 30
0.0
  0
TEXT
  5
1F0
  8
LAYER0014
 62
     7
 10
-76.77663281021157
 20
166.9150319156578
 30
0.0
 40
4.0
  1
M12
 41
0.7999999999999995
  7
FDASTYLE1
 72
     5
 11
-67.17663281021157
 21
166.9150319156578
 31
0.0
  0
ENDBLK
  5
B1
  8
0
  0
BLOCK
  8
0
  2
DC_GROUP_35
 70
     0
 10
0.0
 20
0.0
 30
0.0
  3
DC_GROUP_35
  1

  0
LINE
  5
1F1
  8
LAYER0014
  6
CONTINUOUS
 62
     7
 10
-98.48795390160753
 20
138.8280496343673
 30
0.0
 11
-100.1718953974693
 21
137.6232579592038
 31
0.0
  0
LINE
  5
1F2
  8
LAYER0014
  6
CONTINUOUS
 62
     7
 10
-100.1718953974693
 20
137.6232579592038
 30
0.0
 11
-99.3159578946714
 21
139.5086101632582
 31
0.0
  0
LINE
  5
1F3
  8
LAYER0014
  6
CONTINUOUS
 62
     7
 10
-100.1718953974693
 20
137.6232579592038
 30
0.0
 11
-98.90195589813946
 21
139.1683298988127
 31
0.0
  0
ENDBLK
  5
B4
  8
0
  0
BLOCK
  8
0
  2
DC_GROUP_36
 70
     0
 10
0.0
 20
0.0
 30
0.0
  3
DC_GROUP_36
  1

  0
LINE
  5
1F4
  8
LAYER0014
  6
CONTINUOUS
 62
     7
 10
-114.6429774098835
 20
148.4066886338455
 30
0.0
 11
-89.10263945426729
 21
176.3569006496762
 31
0.0
  0
LINE
  5
1F5
  8
LAYER0014
  6
CONTINUOUS
 62
     7
 10
-89.10264446792641
 20
176.3569020328453
 30
0.0
 11
-40.80740978775063
 21
176.3569020328453
 31
0.0
  0
INSERT
  5
1F6
  8
LAYER0014
  6
CONTINUOUS
  2
DC_GROUP_37
 10
0.0
 20
0.0
 30
0.0
  0
TEXT
  5
1F7
  8
LAYER0014
 62
     7
 10
-87.43598034439125
 20
177.9569325504234
 30
0.0
 40
4.0
  1
ｾﾚｰｼｮﾝP1.5山60ﾟ
 41
0.7776234874032931
  7
FDASTYLE1
 72
     5
 11
-43.26696625988421
 21
177.9569325504234
 31
0.0
  0
ENDBLK
  5
B7
  8
0
  0
BLOCK
  8
0
  2
DC_GROUP_37
 70
     0
 10
0.0
 20
0.0
 30
0.0
  3
DC_GROUP_37
  1

  0
LINE
  5
1F8
  8
LAYER0014
  6
CONTINUOUS
 62
     7
 10
-112.8982380602342
 20
149.5216175749955
 30
0.0
 11
-114.6429774098835
 21
148.4066886338455
 31
0.0
  0
LINE
  5
1F9
  8
LAYER0014
  6
CONTINUOUS
 62
     7
 10
-114.6429774098835
 20
148.4066886338455
 30
0.0
 11
-113.6894559844376
 21
150.2446164978392
 31
0.0
  0
LINE
  5
1FA
  8
LAYER0014
  6
CONTINUOUS
 62
     7
 10
-114.6429774098835
 20
148.4066886338455
 30
0.0
 11
-113.2938470223359
 21
149.8831170364174
 31
0.0
  0
ENDBLK
  5
BA
  8
0
  0
BLOCK
  8
0
  2
DC_GROUP_38
 70
     0
 10
0.0
 20
0.0
 30
0.0
  3
DC_GROUP_38
  1

  0
LINE
  5
1FB
  8
LAYER0014
  6
CONTINUOUS
 62
     7
 10
-211.8762955909733
 20
-158.2346117941938
 30
0.0
 11
-206.1762986427311
 21
-158.2346117941938
 31
0.0
  0
LINE
  5
1FC
  8
LAYER0014
  6
CONTINUOUS
 62
     7
 10
-211.8762955909733
 20
-123.0282215270001
 30
0.0
 11
-211.8762955909733
 21
-159.2346117941938
 31
0.0
  0
LINE
  5
1FD
  8
LAYER0014
  6
CONTINUOUS
 62
     7
 10
-206.1762986427311
 20
-112.1666337337563
 30
0.0
 11
-206.1762986427311
 21
-159.2346117941938
 31
0.0
  0
LINE
  5
1FE
  8
LAYER0014
  6
CONTINUOUS
 62
     7
 10
-225.6860450533813
 20
-158.2346117941938
 30
0.0
 11
-211.8762955909733
 21
-158.2346117941938
 31
0.0
  0
INSERT
  5
1FF
  8
LAYER0014
  6
CONTINUOUS
  2
DC_GROUP_39
 10
0.0
 20
0.0
 30
0.0
  0
TEXT
  5
200
  8
LAYER0014
 62
     7
 10
-224.6860450533813
 20
-157.2346117941938
 30
0.0
 40
4.0
  1
5.7
 41
0.7999999999999995
  7
FDASTYLE1
 72
     5
 11
-215.0860450533813
 21
-157.2346117941938
 31
0.0
  0
ENDBLK
  5
BD
  8
0
  0
BLOCK
  8
0
  2
DC_GROUP_39
 70
     0
 10
0.0
 20
0.0
 30
0.0
  3
DC_GROUP_39
  1

  0
LINE
  5
201
  8
LAYER0014
  6
CONTINUOUS
 62
     7
 10
-213.876293998604
 20
-157.6987122592962
 30
0.0
 11
-211.8762955909733
 21
-158.2346117941938
 31
0.0
  0
LINE
  5
202
  8
LAYER0014
  6
CONTINUOUS
 62
     7
 10
-211.8762955909733
 20
-158.2346117941938
 30
0.0
 11
-213.876293998604
 21
-158.7705113290914
 31
0.0
  0
LINE
  5
203
  8
LAYER0014
  6
CONTINUOUS
 62
     7
 10
-211.8762955909733
 20
-158.2346117941938
 30
0.0
 11
-213.876293998604
 21
-158.2346117941938
 31
0.0
  0
ENDBLK
  5
C0
  8
0
  0
BLOCK
  8
0
  2
DC_GROUP_40
 70
     0
 10
0.0
 20
0.0
 30
0.0
  3
DC_GROUP_40
  1

  0
LINE
  5
204
  8
LAYER0014
  6
CONTINUOUS
 62
     7
 10
-206.1762986427311
 20
-144.2232692056014
 30
0.0
 11
-158.8762955909733
 21
-144.2232692056014
 31
0.0
  0
LINE
  5
205
  8
LAYER0014
  6
CONTINUOUS
 62
     7
 10
-206.1762986427311
 20
-112.1666337337563
 30
0.0
 11
-206.1762986427311
 21
-145.2232692056014
 31
0.0
  0
LINE
  5
206
  8
LAYER0014
  6
CONTINUOUS
 62
     7
 10
-158.8762955909733
 20
-28.66663373375631
 30
0.0
 11
-158.8762955909733
 21
-145.2232692056014
 31
0.0
  0
INSERT
  5
207
  8
LAYER0014
  6
DOT2
  2
DC_GROUP_41
 10
0.0
 20
0.0
 30
0.0
  0
INSERT
  5
208
  8
LAYER0014
  6
CONTINUOUS
  2
DC_GROUP_42
 10
0.0
 20
0.0
 30
0.0
  0
TEXT
  5
209
  8
LAYER0014
 62
     7
 10
-195.3262971168522
 20
-143.2232692056014
 30
0.0
 40
4.0
  1
MAX 62.3
 41
0.8000000000000007
  7
FDASTYLE1
 72
     5
 11
-169.7262971168522
 21
-143.2232692056014
 31
0.0
  0
ENDBLK
  5
C3
  8
0
  0
BLOCK
  8
0
  2
DC_GROUP_41
 70
     0
 10
0.0
 20
0.0
 30
0.0
  3
DC_GROUP_41
  1

  0
LINE
  5
20A
  8
LAYER0014
  6
CONTINUOUS
 62
     7
 10
-204.1763002351004
 20
-144.759168740499
 30
0.0
 11
-206.1762986427311
 21
-144.2232692056014
 31
0.0
  0
LINE
  5
20B
  8
LAYER0014
  6
CONTINUOUS
 62
     7
 10
-206.1762986427311
 20
-144.2232692056014
 30
0.0
 11
-204.1763002351004
 21
-143.6873696707038
 31
0.0
  0
LINE
  5
20C
  8
LAYER0014
  6
CONTINUOUS
 62
     7
 10
-206.1762986427311
 20
-144.2232692056014
 30
0.0
 11
-204.1763002351004
 21
-144.2232692056014
 31
0.0
  0
ENDBLK
  5
C6
  8
0
  0
BLOCK
  8
0
  2
DC_GROUP_42
 70
     0
 10
0.0
 20
0.0
 30
0.0
  3
DC_GROUP_42
  1

  0
LINE
  5
20D
  8
LAYER0014
  6
CONTINUOUS
 62
     7
 10
-160.8762939986039
 20
-143.6873696707038
 30
0.0
 11
-158.8762955909733
 21
-144.2232692056014
 31
0.0
  0
LINE
  5
20E
  8
LAYER0014
  6
CONTINUOUS
 62
     7
 10
-158.8762955909733
 20
-144.2232692056014
 30
0.0
 11
-160.8762939986039
 21
-144.759168740499
 31
0.0
  0
LINE
  5
20F
  8
LAYER0014
  6
CONTINUOUS
 62
     7
 10
-158.8762955909733
 20
-144.2232692056014
 30
0.0
 11
-160.8762939986039
 21
-144.2232692056014
 31
0.0
  0
ENDBLK
  5
C9
  8
0
  0
BLOCK
  8
0
  2
DC_GROUP_43
 70
     0
 10
0.0
 20
0.0
 30
0.0
  3
DC_GROUP_43
  1

  0
LINE
  5
210
  8
LAYER0014
  6
CONTINUOUS
 62
     7
 10
-83.89331768569984
 20
95.87336626624369
 30
0.0
 11
-81.14295818862954
 21
95.87336626624369
 31
0.0
  0
LINE
  5
211
  8
LAYER0014
  6
CONTINUOUS
 62
     7
 10
-113.8762955909733
 20
75.87336626624369
 30
0.0
 11
-81.14295818862954
 21
75.87336626624369
 31
0.0
  0
LINE
  5
212
  8
LAYER0014
  6
CONTINUOUS
 62
     7
 10
-82.14295818862954
 20
95.87336626624369
 30
0.0
 11
-82.14295818862954
 21
75.87336626624369
 31
0.0
  0
INSERT
  5
213
  8
LAYER0014
  6
CONTINUOUS
  2
DC_GROUP_44
 10
0.0
 20
0.0
 30
0.0
  0
INSERT
  5
214
  8
LAYER0014
  6
CONTINUOUS
  2
DC_GROUP_45
 10
0.0
 20
0.0
 30
0.0
  0
TEXT
  5
215
  8
LAYER0014
 62
     7
 10
-83.74295818862953
 20
77.71987047766947
 30
0.0
 40
4.0
  1
MIN13
 50
90.0
 41
0.8
  7
FDASTYLE1
 72
     5
 11
-83.74295818862953
 21
93.71987047766947
 31
0.0
  0
ENDBLK
  5
CC
  8
0
  0
BLOCK
  8
0
  2
DC_GROUP_44
 70
     0
 10
0.0
 20
0.0
 30
0.0
  3
DC_GROUP_44
  1

  0
LINE
  5
216
  8
LAYER0014
  6
CONTINUOUS
 62
     7
 10
-82.67885772352715
 20
93.87336785861304
 30
0.0
 11
-82.14295818862954
 21
95.87336626624369
 31
0.0
  0
LINE
  5
217
  8
LAYER0014
  6
CONTINUOUS
 62
     7
 10
-82.14295818862954
 20
95.87336626624369
 30
0.0
 11
-81.60705865373193
 21
93.87336785861304
 31
0.0
  0
LINE
  5
218
  8
LAYER0014
  6
CONTINUOUS
 62
     7
 10
-82.14295818862954
 20
95.87336626624369
 30
0.0
 11
-82.14295818862954
 21
93.87336785861304
 31
0.0
  0
ENDBLK
  5
CF
  8
0
  0
BLOCK
  8
0
  2
DC_GROUP_45
 70
     0
 10
0.0
 20
0.0
 30
0.0
  3
DC_GROUP_45
  1

  0
LINE
  5
219
  8
LAYER0014
  6
CONTINUOUS
 62
     7
 10
-81.60705865373193
 20
77.87336467387436
 30
0.0
 11
-82.14295818862954
 21
75.87336626624369
 31
0.0
  0
LINE
  5
21A
  8
LAYER0014
  6
CONTINUOUS
 62
     7
 10
-82.14295818862954
 20
75.87336626624369
 30
0.0
 11
-82.67885772352715
 21
77.87336467387436
 31
0.0
  0
LINE
  5
21B
  8
LAYER0014
  6
CONTINUOUS
 62
     7
 10
-82.14295818862954
 20
75.87336626624369
 30
0.0
 11
-82.14295818862954
 21
77.87336467387436
 31
0.0
  0
ENDBLK
  5
D2
  8
0
  0
BLOCK
  8
0
  2
DC_GROUP_46
 70
     0
 10
0.0
 20
0.0
 30
0.0
  3
DC_GROUP_46
  1

  0
LINE
  5
21C
  8
LAYER0014
  6
CONTINUOUS
 62
     7
 10
-70.72944950136593
 20
-34.62663373375631
 30
0.0
 11
-70.72944950136593
 21
51.87336626624369
 31
0.0
  0
LINE
  5
21D
  8
LAYER0014
  6
CONTINUOUS
 62
     7
 10
-113.521296281369
 20
-34.62663373375631
 30
0.0
 11
-69.72944950136593
 21
-34.62663373375631
 31
0.0
  0
INSERT
  5
21E
  8
LAYER0014
  6
CONTINUOUS
  2
DC_GROUP_47
 10
0.0
 20
0.0
 30
0.0
  0
TEXT
  5
21F
  8
LAYER0014
 62
     7
 10
-72.32944950136593
 20
8.401757532112839
 30
0.0
 40
4.0
  1
φ105H7
 50
90.0
 41
0.7492195629552548
  7
FDASTYLE1
 72
     5
 11
-72.32944950136593
 21
26.98240269340316
 31
0.0
  0
ENDBLK
  5
D5
  8
0
  0
BLOCK
  8
0
  2
DC_GROUP_47
 70
     0
 10
0.0
 20
0.0
 30
0.0
  3
DC_GROUP_47
  1

  0
LINE
  5
220
  8
LAYER0014
  6
CONTINUOUS
 62
     7
 10
-70.19354996646833
 20
-32.62663532612564
 30
0.0
 11
-70.72944950136593
 21
-34.62663373375631
 31
0.0
  0
LINE
  5
221
  8
LAYER0014
  6
CONTINUOUS
 62
     7
 10
-70.72944950136593
 20
-34.62663373375631
 30
0.0
 11
-71.26534903626354
 21
-32.62663532612564
 31
0.0
  0
LINE
  5
222
  8
LAYER0014
  6
CONTINUOUS
 62
     7
 10
-70.72944950136593
 20
-34.62663373375631
 30
0.0
 11
-70.72944950136593
 21
-32.62663532612564
 31
0.0
  0
ENDBLK
  5
D8
  8
0
  0
BLOCK
  8
0
  2
DC_GROUP_48
 70
     0
 10
0.0
 20
0.0
 30
0.0
  3
DC_GROUP_48
  1

  0
LINE
  5
223
  8
LAYER0014
  6
CONTINUOUS
 62
     7
 10
-265.1086800792683
 20
-122.1266337337563
 30
0.0
 11
-265.1086800792683
 21
157.8733662662437
 31
0.0
  0
LINE
  5
224
  8
LAYER0014
  6
CONTINUOUS
 62
     7
 10
-213.2909810043494
 20
-122.1266337337563
 30
0.0
 11
-266.1086800792683
 21
-122.1266337337563
 31
0.0
  0
LINE
  5
225
  8
LAYER0014
  6
CONTINUOUS
 62
     7
 10
-213.2512102738959
 20
157.8733662662437
 30
0.0
 11
-266.1086800792683
 21
157.8733662662437
 31
0.0
  0
INSERT
  5
226
  8
LAYER0014
  6
CONTINUOUS
  2
DC_GROUP_49
 10
0.0
 20
0.0
 30
0.0
  0
INSERT
  5
227
  8
LAYER0014
  6
CONTINUOUS
  2
DC_GROUP_50
 10
0.0
 20
0.0
 30
0.0
  0
TEXT
  5
228
  8
LAYER0014
 62
     7
 10
-266.7086800792682
 20
11.47336435889508
 30
0.0
 40
4.0
  1
φ280
 50
90.0
 41
0.7256235827664375
  7
FDASTYLE1
 72
     5
 11
-266.7086800792682
 21
23.66384054937123
 31
0.0
  0
ENDBLK
  5
DB
  8
0
  0
BLOCK
  8
0
  2
DC_GROUP_49
 70
     0
 10
0.0
 20
0.0
 30
0.0
  3
DC_GROUP_49
  1

  0
LINE
  5
229
  8
LAYER0014
  6
CONTINUOUS
 62
     7
 10
-264.5727805443706
 20
-120.1266353261256
 30
0.0
 11
-265.1086800792683
 21
-122.1266337337563
 31
0.0
  0
LINE
  5
22A
  8
LAYER0014
  6
CONTINUOUS
 62
     7
 10
-265.1086800792683
 20
-122.1266337337563
 30
0.0
 11
-265.6445796141658
 21
-120.1266353261256
 31
0.0
  0
LINE
  5
22B
  8
LAYER0014
  6
CONTINUOUS
 62
     7
 10
-265.1086800792683
 20
-122.1266337337563
 30
0.0
 11
-265.1086800792683
 21
-120.1266353261256
 31
0.0
  0
ENDBLK
  5
DE
  8
0
  0
BLOCK
  8
0
  2
DC_GROUP_50
 70
     0
 10
0.0
 20
0.0
 30
0.0
  3
DC_GROUP_50
  1

  0
LINE
  5
22C
  8
LAYER0014
  6
CONTINUOUS
 62
     7
 10
-265.6445796141658
 20
155.8733678586131
 30
0.0
 11
-265.1086800792683
 21
157.8733662662437
 31
0.0
  0
LINE
  5
22D
  8
LAYER0014
  6
CONTINUOUS
 62
     7
 10
-265.1086800792683
 20
157.8733662662437
 30
0.0
 11
-264.5727805443706
 21
155.8733678586131
 31
0.0
  0
LINE
  5
22E
  8
LAYER0014
  6
CONTINUOUS
 62
     7
 10
-265.1086800792683
 20
157.8733662662437
 30
0.0
 11
-265.1086800792683
 21
155.8733678586131
 31
0.0
  0
ENDBLK
  5
E1
  8
0
  0
BLOCK
  8
0
  2
DC_GROUP_51
 70
     0
 10
0.0
 20
0.0
 30
0.0
  3
DC_GROUP_51
  1

  0
LINE
  5
22F
  8
LAYER0014
  6
CONTINUOUS
 62
     7
 10
-206.1762986427311
 20
-158.2346117941938
 30
0.0
 11
-113.8762955909733
 21
-158.2346117941938
 31
0.0
  0
LINE
  5
230
  8
LAYER0014
  6
CONTINUOUS
 62
     7
 10
-206.1762986427311
 20
-112.1666337337563
 30
0.0
 11
-206.1762986427311
 21
-159.2346117941938
 31
0.0
  0
LINE
  5
231
  8
LAYER0014
  6
CONTINUOUS
 62
     7
 10
-113.8762955909733
 20
-121.6666337337563
 30
0.0
 11
-113.8762955909733
 21
-159.2346117941938
 31
0.0
  0
INSERT
  5
232
  8
LAYER0014
  6
DOT2
  2
DC_GROUP_52
 10
0.0
 20
0.0
 30
0.0
  0
INSERT
  5
233
  8
LAYER0014
  6
CONTINUOUS
  2
DC_GROUP_53
 10
0.0
 20
0.0
 30
0.0
  0
TEXT
  5
234
  8
LAYER0014
 62
     7
 10
-166.4262971168522
 20
-157.2346117941938
 30
0.0
 40
4.0
  1
92.3
 41
0.8000000000000007
  7
FDASTYLE1
 72
     5
 11
-153.6262971168522
 21
-157.2346117941938
 31
0.0
  0
ENDBLK
  5
E4
  8
0
  0
BLOCK
  8
0
  2
DC_GROUP_52
 70
     0
 10
0.0
 20
0.0
 30
0.0
  3
DC_GROUP_52
  1

  0
LINE
  5
235
  8
LAYER0014
  6
CONTINUOUS
 62
     7
 10
-204.1763002351004
 20
-158.7705113290914
 30
0.0
 11
-206.1762986427311
 21
-158.2346117941938
 31
0.0
  0
LINE
  5
236
  8
LAYER0014
  6
CONTINUOUS
 62
     7
 10
-206.1762986427311
 20
-158.2346117941938
 30
0.0
 11
-204.1763002351004
 21
-157.6987122592962
 31
0.0
  0
LINE
  5
237
  8
LAYER0014
  6
CONTINUOUS
 62
     7
 10
-206.1762986427311
 20
-158.2346117941938
 30
0.0
 11
-204.1763002351004
 21
-158.2346117941938
 31
0.0
  0
ENDBLK
  5
E7
  8
0
  0
BLOCK
  8
0
  2
DC_GROUP_53
 70
     0
 10
0.0
 20
0.0
 30
0.0
  3
DC_GROUP_53
  1

  0
LINE
  5
238
  8
LAYER0014
  6
CONTINUOUS
 62
     7
 10
-115.8762939986039
 20
-157.6987122592962
 30
0.0
 11
-113.8762955909733
 21
-158.2346117941938
 31
0.0
  0
LINE
  5
239
  8
LAYER0014
  6
CONTINUOUS
 62
     7
 10
-113.8762955909733
 20
-158.2346117941938
 30
0.0
 11
-115.8762939986039
 21
-158.7705113290914
 31
0.0
  0
LINE
  5
23A
  8
LAYER0014
  6
CONTINUOUS
 62
     7
 10
-113.8762955909733
 20
-158.2346117941938
 30
0.0
 11
-115.8762939986039
 21
-158.2346117941938
 31
0.0
  0
ENDBLK
  5
EA
  8
0
  0
BLOCK
  8
0
  2
DC_GROUP_54
 70
     0
 10
0.0
 20
0.0
 30
0.0
  3
DC_GROUP_54
  1

  0
LINE
  5
23B
  8
LAYER0014
  6
CONTINUOUS
 62
     7
 10
-70.58698607711865
 20
82.87336626624369
 30
0.0
 11
-70.58698607711865
 21
143.8733662662437
 31
0.0
  0
LINE
  5
23C
  8
LAYER0014
  6
CONTINUOUS
 62
     7
 10
-78.89081524429359
 20
82.87336626624369
 30
0.0
 11
-69.58698607711865
 21
82.87336626624369
 31
0.0
  0
LINE
  5
23D
  8
LAYER0014
  6
CONTINUOUS
 62
     7
 10
-110.8362955909733
 20
143.8733662662437
 30
0.0
 11
-69.58698607711865
 21
143.8733662662437
 31
0.0
  0
INSERT
  5
23E
  8
LAYER0014
  6
CONTINUOUS
  2
DC_GROUP_55
 10
0.0
 20
0.0
 30
0.0
  0
INSERT
  5
23F
  8
LAYER0014
  6
CONTINUOUS
  2
DC_GROUP_56
 10
0.0
 20
0.0
 30
0.0
  0
TEXT
  5
240
  8
LAYER0014
 62
     7
 10
-72.18698607711865
 20
110.1733662662437
 30
0.0
 40
4.0
  1
61
 50
90.0
 41
0.8000000000000007
  7
FDASTYLE1
 72
     5
 11
-72.18698607711865
 21
116.5733662662437
 31
0.0
  0
ENDBLK
  5
ED
  8
0
  0
BLOCK
  8
0
  2
DC_GROUP_55
 70
     0
 10
0.0
 20
0.0
 30
0.0
  3
DC_GROUP_55
  1

  0
LINE
  5
241
  8
LAYER0014
  6
CONTINUOUS
 62
     7
 10
-70.05108654222104
 20
84.87336467387435
 30
0.0
 11
-70.58698607711865
 21
82.87336626624369
 31
0.0
  0
LINE
  5
242
  8
LAYER0014
  6
CONTINUOUS
 62
     7
 10
-70.58698607711865
 20
82.87336626624369
 30
0.0
 11
-71.12288561201626
 21
84.87336467387435
 31
0.0
  0
LINE
  5
243
  8
LAYER0014
  6
CONTINUOUS
 62
     7
 10
-70.58698607711865
 20
82.87336626624369
 30
0.0
 11
-70.58698607711865
 21
84.87336467387435
 31
0.0
  0
ENDBLK
  5
F0
  8
0
  0
BLOCK
  8
0
  2
DC_GROUP_56
 70
     0
 10
0.0
 20
0.0
 30
0.0
  3
DC_GROUP_56
  1

  0
LINE
  5
244
  8
LAYER0014
  6
CONTINUOUS
 62
     7
 10
-71.12288561201626
 20
141.873367858613
 30
0.0
 11
-70.58698607711865
 21
143.8733662662437
 31
0.0
  0
LINE
  5
245
  8
LAYER0014
  6
CONTINUOUS
 62
     7
 10
-70.58698607711865
 20
143.8733662662437
 30
0.0
 11
-70.05108654222104
 21
141.873367858613
 31
0.0
  0
LINE
  5
246
  8
LAYER0014
  6
CONTINUOUS
 62
     7
 10
-70.58698607711865
 20
143.8733662662437
 30
0.0
 11
-70.58698607711865
 21
141.873367858613
 31
0.0
  0
ENDBLK
  5
F3
  8
0
  0
BLOCK
  8
0
  2
DC_GROUP_57
 70
     0
 10
0.0
 20
0.0
 30
0.0
  3
DC_GROUP_57
  1

  0
LINE
  5
247
  8
LAYER0014
  6
CONTINUOUS
 62
     7
 10
107.002684601675
 20
158.4133449176519
 30
0.0
 11
107.002684601675
 21
165.8294453815191
 31
0.0
  0
LINE
  5
248
  8
LAYER0014
  6
CONTINUOUS
 62
     7
 10
127.002684601675
 20
158.4133449176519
 30
0.0
 11
127.002684601675
 21
165.8294453815191
 31
0.0
  0
LINE
  5
249
  8
LAYER0014
  6
CONTINUOUS
 62
     7
 10
107.002684601675
 20
163.5434498981206
 30
0.0
 11
127.002684601675
 21
163.5434498981206
 31
0.0
  0
INSERT
  5
24A
  8
LAYER0014
  6
CONTINUOUS
  2
DC_GROUP_58
 10
0.0
 20
0.0
 30
0.0
  0
INSERT
  5
24B
  8
LAYER0014
  6
CONTINUOUS
  2
DC_GROUP_59
 10
0.0
 20
0.0
 30
0.0
  0
TEXT
  5
24C
  8
LAYER0014
 62
     7
 10
110.602684601675
 20
165.1434498981207
 30
0.0
 40
4.0
  1
20H8
 41
0.8000000000000007
  7
FDASTYLE1
 72
     5
 11
123.402684601675
 21
165.1434498981207
 31
0.0
  0
ENDBLK
  5
F6
  8
0
  0
BLOCK
  8
0
  2
DC_GROUP_58
 70
     0
 10
0.0
 20
0.0
 30
0.0
  3
DC_GROUP_58
  1

  0
LINE
  5
24D
  8
LAYER0014
  6
CONTINUOUS
 62
     7
 10
109.0026830093057
 20
163.007550363223
 30
0.0
 11
107.002684601675
 21
163.5434498981206
 31
0.0
  0
LINE
  5
24E
  8
LAYER0014
  6
CONTINUOUS
 62
     7
 10
107.002684601675
 20
163.5434498981206
 30
0.0
 11
109.0026830093057
 21
164.0793494330182
 31
0.0
  0
LINE
  5
24F
  8
LAYER0014
  6
CONTINUOUS
 62
     7
 10
107.002684601675
 20
163.5434498981206
 30
0.0
 11
109.0026830093057
 21
163.5434498981206
 31
0.0
  0
ENDBLK
  5
F9
  8
0
  0
BLOCK
  8
0
  2
DC_GROUP_59
 70
     0
 10
0.0
 20
0.0
 30
0.0
  3
DC_GROUP_59
  1

  0
LINE
  5
250
  8
LAYER0014
  6
CONTINUOUS
 62
     7
 10
125.0026861940443
 20
164.0793494330182
 30
0.0
 11
127.002684601675
 21
163.5434498981206
 31
0.0
  0
LINE
  5
251
  8
LAYER0014
  6
CONTINUOUS
 62
     7
 10
127.002684601675
 20
163.5434498981206
 30
0.0
 11
125.0026861940443
 21
163.007550363223
 31
0.0
  0
LINE
  5
252
  8
LAYER0014
  6
CONTINUOUS
 62
     7
 10
127.002684601675
 20
163.5434498981206
 30
0.0
 11
125.0026861940443
 21
163.5434498981206
 31
0.0
  0
ENDBLK
  5
FC
  8
0
  0
BLOCK
  8
0
  2
DC_GROUP_60
 70
     0
 10
0.0
 20
0.0
 30
0.0
  3
DC_GROUP_60
  1

  0
LINE
  5
253
  8
LAYER0014
  6
CONTINUOUS
 62
     7
 10
94.50268460167501
 20
158.5934749225347
 30
0.0
 11
94.50268460167501
 21
174.5129170612066
 31
0.0
  0
LINE
  5
254
  8
LAYER0014
  6
CONTINUOUS
 62
     7
 10
139.502684601675
 20
158.5934749225347
 30
0.0
 11
139.502684601675
 21
174.5129170612066
 31
0.0
  0
LINE
  5
255
  8
LAYER0014
  6
CONTINUOUS
 62
     7
 10
94.50268460167501
 20
172.2269215778081
 30
0.0
 11
139.502684601675
 21
172.2269215778081
 31
0.0
  0
INSERT
  5
256
  8
LAYER0014
  6
CONTINUOUS
  2
DC_GROUP_61
 10
0.0
 20
0.0
 30
0.0
  0
INSERT
  5
257
  8
LAYER0014
  6
CONTINUOUS
  2
DC_GROUP_62
 10
0.0
 20
0.0
 30
0.0
  0
TEXT
  5
258
  8
LAYER0014
 62
     7
 10
113.802684601675
 20
173.8269215778082
 30
0.0
 40
4.0
  1
45
 41
0.8000000000000007
  7
FDASTYLE1
 72
     5
 11
120.202684601675
 21
173.8269215778082
 31
0.0
  0
ENDBLK
  5
FF
  8
0
  0
BLOCK
  8
0
  2
DC_GROUP_61
 70
     0
 10
0.0
 20
0.0
 30
0.0
  3
DC_GROUP_61
  1

  0
LINE
  5
259
  8
LAYER0014
  6
CONTINUOUS
 62
     7
 10
96.50268300930568
 20
171.6910220429105
 30
0.0
 11
94.50268460167501
 21
172.2269215778081
 31
0.0
  0
LINE
  5
25A
  8
LAYER0014
  6
CONTINUOUS
 62
     7
 10
94.50268460167501
 20
172.2269215778081
 30
0.0
 11
96.50268300930568
 21
172.7628211127057
 31
0.0
  0
LINE
  5
25B
  8
LAYER0014
  6
CONTINUOUS
 62
     7
 10
94.50268460167501
 20
172.2269215778081
 30
0.0
 11
96.50268300930568
 21
172.2269215778081
 31
0.0
  0
ENDBLK
  5
102
  8
0
  0
BLOCK
  8
0
  2
DC_GROUP_62
 70
     0
 10
0.0
 20
0.0
 30
0.0
  3
DC_GROUP_62
  1

  0
LINE
  5
25C
  8
LAYER0014
  6
CONTINUOUS
 62
     7
 10
137.5026861940443
 20
172.7628211127057
 30
0.0
 11
139.502684601675
 21
172.2269215778081
 31
0.0
  0
LINE
  5
25D
  8
LAYER0014
  6
CONTINUOUS
 62
     7
 10
139.502684601675
 20
172.2269215778081
 30
0.0
 11
137.5026861940443
 21
171.6910220429105
 31
0.0
  0
LINE
  5
25E
  8
LAYER0014
  6
CONTINUOUS
 62
     7
 10
139.502684601675
 20
172.2269215778081
 30
0.0
 11
137.5026861940443
 21
172.2269215778081
 31
0.0
  0
ENDBLK
  5
105
  8
0
  0
BLOCK
  8
0
  2
DC_GROUP_63
 70
     0
 10
0.0
 20
0.0
 30
0.0
  3
DC_GROUP_63
  1

  0
LINE
  5
25F
  8
LAYER0014
  6
CONTINUOUS
 62
     7
 10
59.57497792376501
 20
75.30101095252324
 30
0.0
 11
7.82782305540346
 21
127.048013152549
 31
0.0
  0
LINE
  5
260
  8
LAYER0014
  6
CONTINUOUS
 62
     7
 10
-37.36698916163365
 20
17.87334847621333
 30
0.0
 11
-35.39374926295201
 21
17.87347630675123
 31
0.0
  0
ARC
  5
261
  8
LAYER0014
  6
CONTINUOUS
 62
     7
 10
117.002684601675
 20
17.87334491765189
 30
0.0
 40
153.3964385986328
 50
135.000054983136
 51
179.9999776881997
  0
INSERT
  5
262
  8
LAYER0014
  6
CONTINUOUS
  2
DC_GROUP_64
 10
0.0
 20
0.0
 30
0.0
  0
INSERT
  5
263
  8
LAYER0014
  6
CONTINUOUS
  2
DC_GROUP_65
 10
0.0
 20
0.0
 30
0.0
  0
TEXT
  5
264
  8
LAYER0014
 62
     7
 10
-28.03224222176479
 20
72.75325664361625
 30
0.0
 40
4.0
  1
45ﾟ
 50
67.5
 41
0.8000000000000004
  7
FDASTYLE1
 72
     5
 11
-24.35848127105993
 21
81.62250015572461
 31
0.0
  0
ENDBLK
  5
108
  8
0
  0
BLOCK
  8
0
  2
DC_GROUP_64
 70
     0
 10
0.0
 20
0.0
 30
0.0
  3
DC_GROUP_64
  1

  0
LINE
  5
265
  8
LAYER0014
  6
CONTINUOUS
 62
     7
 10
6.748556004312576
 20
125.2939592535419
 30
0.0
 11
8.534918569210554
 21
126.3409027710058
 31
0.0
  0
LINE
  5
266
  8
LAYER0014
  6
CONTINUOUS
 62
     7
 10
8.534918569210554
 20
126.3409027710058
 30
0.0
 11
7.511357614131399
 21
124.5410403003525
 31
0.0
  0
LINE
  5
267
  8
LAYER0014
  6
CONTINUOUS
 62
     7
 10
8.534918569210554
 20
126.3409027710058
 30
0.0
 11
7.129956809221987
 21
124.9174997769472
 31
0.0
  0
ENDBLK
  5
10B
  8
0
  0
BLOCK
  8
0
  2
DC_GROUP_65
 70
     0
 10
0.0
 20
0.0
 30
0.0
  3
DC_GROUP_65
  1

  0
LINE
  5
268
  8
LAYER0014
  6
CONTINUOUS
 62
     7
 10
-35.84482706946561
 20
19.86986681593774
 30
0.0
 11
-36.39375399694615
 21
17.87340465243065
 31
0.0
  0
LINE
  5
269
  8
LAYER0014
  6
CONTINUOUS
 62
     7
 10
-36.39375399694615
 20
17.87340465243065
 30
0.0
 11
-36.91660336193715
 21
19.87685429830578
 31
0.0
  0
LINE
  5
26A
  8
LAYER0014
  6
CONTINUOUS
 62
     7
 10
-36.39375399694615
 20
17.87340465243065
 30
0.0
 11
-36.38071521570138
 21
19.87336055712176
 31
0.0
  0
ENDBLK
  5
10E
  8
0
  0
BLOCK
  8
0
  2
DC_GROUP_66
 70
     0
 10
0.0
 20
0.0
 30
0.0
  3
DC_GROUP_66
  1

  0
LINE
  5
26B
  8
LAYER0014
  6
CONTINUOUS
 62
     7
 10
62.40119386196093
 20
-14.96748051635045
 30
0.0
 11
-0.0178909816405337
 21
-76.80861048271611
 31
0.0
  0
LINE
  5
26C
  8
LAYER0014
  6
CONTINUOUS
 62
     7
 10
-0.0178882990970521
 20
-76.80861614191842
 30
0.0
 11
-46.6475572501316
 21
-76.80861614191842
 31
0.0
  0
INSERT
  5
26D
  8
LAYER0014
  6
DASHED
  2
DC_GROUP_67
 10
0.0
 20
0.0
 30
0.0
  0
TEXT
  5
26E
  8
LAYER0014
 62
     7
 10
-45.58849529372596
 20
-75.20861614191843
 30
0.0
 40
4.0
  1
4-M8×15 PCD120
 41
0.7776234874032931
  7
FDASTYLE1
 72
     5
 11
-1.419481209218915
 21
-75.20861614191843
 31
0.0
  0
ENDBLK
  5
111
  8
0
  0
BLOCK
  8
0
  2
DC_GROUP_67
 70
     0
 10
0.0
 20
0.0
 30
0.0
  3
DC_GROUP_67
  1

  0
LINE
  5
26F
  8
LAYER0014
  6
CONTINUOUS
 62
     7
 10
60.6032474458179
 20
-15.99440340863938
 30
0.0
 11
62.40119386196093
 21
-14.96748051635045
 31
0.0
  0
LINE
  5
270
  8
LAYER0014
  6
CONTINUOUS
 62
     7
 10
62.40119386196093
 20
-14.96748051635045
 30
0.0
 11
61.35759066785656
 21
-16.75579657210899
 31
0.0
  0
LINE
  5
271
  8
LAYER0014
  6
CONTINUOUS
 62
     7
 10
62.40119386196093
 20
-14.96748051635045
 30
0.0
 11
60.98041905683722
 21
-16.37509999037419
 31
0.0
  0
ENDBLK
  5
114
  8
0
  0
BLOCK
  8
0
  2
DC_GROUP_68
 70
     0
 10
0.0
 20
0.0
 30
0.0
  3
DC_GROUP_68
  1

  0
LINE
  5
272
  8
LAYER0014
  6
CONTINUOUS
 62
     7
 10
62.01589020685381
 20
-35.38856091867437
 30
0.0
 11
0.1747499934801056
 21
-96.84440406761512
 31
0.0
  0
LINE
  5
273
  8
LAYER0014
  6
CONTINUOUS
 62
     7
 10
0.1747499789104552
 20
-96.84440563166452
 30
0.0
 11
-30.50278948890113
 21
-96.84440563166452
 31
0.0
  0
INSERT
  5
274
  8
LAYER0014
  6
CONTINUOUS
  2
DC_GROUP_69
 10
0.0
 20
0.0
 30
0.0
  0
TEXT
  5
275
  8
LAYER0014
 62
     7
 10
-29.58850363837623
 20
-95.24440563166452
 30
0.0
 40
4.0
  1
PCD133.35
 41
0.8
  7
FDASTYLE1
 72
     5
 11
-0.7885036383762305
 21
-95.24440563166452
 31
0.0
  0
ENDBLK
  5
117
  8
0
  0
BLOCK
  8
0
  2
DC_GROUP_69
 70
     0
 10
0.0
 20
0.0
 30
0.0
  3
DC_GROUP_69
  1

  0
LINE
  5
276
  8
LAYER0014
  6
CONTINUOUS
 62
     7
 10
60.21951316482002
 20
-36.41822662407714
 30
0.0
 11
62.01589020685381
 21
-35.38856091867437
 31
0.0
  0
LINE
  5
277
  8
LAYER0014
  6
CONTINUOUS
 62
     7
 10
62.01589020685381
 20
-35.38856091867437
 30
0.0
 11
60.97501753949298
 21
-37.17846762919586
 31
0.0
  0
LINE
  5
278
  8
LAYER0014
  6
CONTINUOUS
 62
     7
 10
62.01589020685381
 20
-35.38856091867437
 30
0.0
 11
60.5972653521565
 21
-36.7983471266365
 31
0.0
  0
ENDBLK
  5
11A
  8
0
  0
BLOCK
  8
0
  2
DC_GROUP_70
 70
     0
 10
0.0
 20
0.0
 30
0.0
  3
DC_GROUP_70
  1

  0
TEXT
  5
279
  8
LAYER0014
 62
     7
 10
-53.0685757799199
 20
34.12525411159081
 30
0.0
 40
4.0
  1
MIN 55.7
 50
90.0
 41
0.7999999999999998
  7
FDASTYLE1
 72
     5
 11
-53.0685757799199
 21
59.72525411159081
 31
0.0
  0
ENDBLK
  5
11D
  8
0
  0
BLOCK
  8
0
  2
DC_GROUP_71
 70
     0
 10
0.0
 20
0.0
 30
0.0
  3
DC_GROUP_71
  1

  0
LINE
  5
27A
  8
0
  6
CONTINUOUS
 62
     9
 10
-190.8762971613996
 20
-17.12664298945742
 30
0.0
 11
-224.1557232394819
 21
-17.12664298945742
 31
0.0
  0
LINE
  5
27B
  8
0
  6
CONTINUOUS
 62
     9
 10
-190.8762909445222
 20
52.87337008092459
 30
0.0
 11
-224.1557232394819
 21
52.87337008092459
 31
0.0
  0
LINE
  5
27C
  8
0
  6
CONTINUOUS
 62
     9
 10
-223.1557232394819
 20
-17.12664298945742
 30
0.0
 11
-223.1557232394819
 21
52.87337008092459
 31
0.0
  0
INSERT
  5
27D
  8
0
  6
CONTINUOUS
  2
DC_GROUP_72
 10
0.0
 20
0.0
 30
0.0
  0
INSERT
  5
27E
  8
0
  6
CONTINUOUS
  2
DC_GROUP_73
 10
0.0
 20
0.0
 30
0.0
  0
TEXT
  5
27F
  8
0
 62
     7
 10
-224.1557232394819
 20
9.053363545733575
 30
0.0
 40
4.0
  1
φ70
 50
90.0
 41
0.7031250000000022
  7
FDASTYLE1
 72
     5
 11
-224.1557232394819
 21
18.0533635457336
 31
0.0
  0
TEXT
  5
280
  8
0
 62
     7
 10
-226.3557232394819
 20
19.6533635457336
 30
0.0
 40
2.2
  1
+0.5
 50
90.0
 41
0.7999999999999991
  7
FDASTYLE1
 72
     5
 11
-226.3557232394819
 21
26.69336354573359
 31
0.0
  0
TEXT
  5
281
  8
0
 62
     7
 10
-223.9557232394819
 20
19.6533635457336
 30
0.0
 40
2.2
  1
　0
 50
90.0
 41
0.661157024793392
  7
FDASTYLE1
 72
     5
 11
-223.9557232394819
 21
22.85336354573362
 31
0.0
  0
ENDBLK
  5
120
  8
0
  0
BLOCK
  8
0
  2
DC_GROUP_72
 70
     0
 10
0.0
 20
0.0
 30
0.0
  3
DC_GROUP_72
  1

  0
LINE
  5
282
  8
0
  6
CONTINUOUS
 62
     9
 10
-222.6198237045843
 20
-15.12664458182676
 30
0.0
 11
-223.1557232394819
 21
-17.12664298945742
 31
0.0
  0
LINE
  5
283
  8
0
  6
CONTINUOUS
 62
     9
 10
-223.1557232394819
 20
-17.12664298945742
 30
0.0
 11
-223.6916227743795
 21
-15.12664458182676
 31
0.0
  0
LINE
  5
284
  8
0
  6
CONTINUOUS
 62
     9
 10
-223.1557232394819
 20
-17.12664298945742
 30
0.0
 11
-223.1557232394819
 21
-15.12664458182676
 31
0.0
  0
ENDBLK
  5
123
  8
0
  0
BLOCK
  8
0
  2
DC_GROUP_73
 70
     0
 10
0.0
 20
0.0
 30
0.0
  3
DC_GROUP_73
  1

  0
LINE
  5
285
  8
0
  6
CONTINUOUS
 62
     9
 10
-223.6916227743795
 20
50.87337167329393
 30
0.0
 11
-223.1557232394819
 21
52.87337008092459
 31
0.0
  0
LINE
  5
286
  8
0
  6
CONTINUOUS
 62
     9
 10
-223.1557232394819
 20
52.87337008092459
 30
0.0
 11
-222.6198237045843
 21
50.87337167329393
 31
0.0
  0
LINE
  5
287
  8
0
  6
CONTINUOUS
 62
     9
 10
-223.1557232394819
 20
52.87337008092459
 30
0.0
 11
-223.1557232394819
 21
50.87337167329393
 31
0.0
  0
ENDBLK
  5
126
  8
0
  0
BLOCK
  8
0
  2
DC_GROUP_74
 70
     0
 10
0.0
 20
0.0
 30
0.0
  3
DC_GROUP_74
  1

  0
LINE
  5
288
  8
0
  6
CONTINUOUS
 62
     9
 10
-157.8762955909733
 20
-25.87663373375631
 30
0.0
 11
-235.0656002066123
 21
-25.87663373375631
 31
0.0
  0
LINE
  5
289
  8
0
  6
CONTINUOUS
 62
     9
 10
-157.8762955909733
 20
61.62336626624369
 30
0.0
 11
-235.0656002066123
 21
61.62336626624369
 31
0.0
  0
LINE
  5
28A
  8
0
  6
CONTINUOUS
 62
     9
 10
-234.0656002066123
 20
-25.87663373375631
 30
0.0
 11
-234.0656002066123
 21
61.62336626624369
 31
0.0
  0
INSERT
  5
28B
  8
0
  6
CONTINUOUS
  2
DC_GROUP_75
 10
0.0
 20
0.0
 30
0.0
  0
INSERT
  5
28C
  8
0
  6
CONTINUOUS
  2
DC_GROUP_76
 10
0.0
 20
0.0
 30
0.0
  0
TEXT
  5
28D
  8
0
 62
     7
 10
-235.0656002066123
 20
6.673366266243704
 30
0.0
 40
4.0
  1
φ87.5Ｈ7
 50
90.0
 41
0.7158509861212555
  7
FDASTYLE1
 72
     5
 11
-235.0656002066123
 21
27.86255545543287
 31
0.0
  0
ENDBLK
  5
129
  8
0
  0
BLOCK
  8
0
  2
DC_GROUP_75
 70
     0
 10
0.0
 20
0.0
 30
0.0
  3
DC_GROUP_75
  1

  0
LINE
  5
28E
  8
0
  6
CONTINUOUS
 62
     9
 10
-233.5297006717147
 20
-23.87663532612565
 30
0.0
 11
-234.0656002066123
 21
-25.87663373375631
 31
0.0
  0
LINE
  5
28F
  8
0
  6
CONTINUOUS
 62
     9
 10
-234.0656002066123
 20
-25.87663373375631
 30
0.0
 11
-234.6014997415099
 21
-23.87663532612565
 31
0.0
  0
LINE
  5
290
  8
0
  6
CONTINUOUS
 62
     9
 10
-234.0656002066123
 20
-25.87663373375631
 30
0.0
 11
-234.0656002066123
 21
-23.87663532612565
 31
0.0
  0
ENDBLK
  5
12C
  8
0
  0
BLOCK
  8
0
  2
DC_GROUP_76
 70
     0
 10
0.0
 20
0.0
 30
0.0
  3
DC_GROUP_76
  1

  0
LINE
  5
291
  8
0
  6
CONTINUOUS
 62
     9
 10
-234.6014997415099
 20
59.62336785861303
 30
0.0
 11
-234.0656002066123
 21
61.62336626624369
 31
0.0
  0
LINE
  5
292
  8
0
  6
CONTINUOUS
 62
     9
 10
-234.0656002066123
 20
61.62336626624369
 30
0.0
 11
-233.5297006717147
 21
59.62336785861303
 31
0.0
  0
LINE
  5
293
  8
0
  6
CONTINUOUS
 62
     9
 10
-234.0656002066123
 20
61.62336626624369
 30
0.0
 11
-234.0656002066123
 21
59.62336785861303
 31
0.0
  0
ENDBLK
  5
12F
  8
0
  0
BLOCK
  8
0
  2
DC_GROUP_77
 70
     0
 10
0.0
 20
0.0
 30
0.0
  3
DC_GROUP_77
  1

  0
LINE
  5
294
  8
0
  6
CONTINUOUS
 62
     9
 10
-160.1762986427311
 20
-127.6792655664766
 30
0.0
 11
-160.1762986427311
 21
-134.8059862639368
 31
0.0
  0
LINE
  5
295
  8
0
  6
CONTINUOUS
 62
     9
 10
-206.1762986427311
 20
-110.6266337337563
 30
0.0
 11
-206.1762986427311
 21
-134.8059862639368
 31
0.0
  0
LINE
  5
296
  8
0
  6
CONTINUOUS
 62
     9
 10
-206.1762986427311
 20
-133.8059862639368
 30
0.0
 11
-160.1762986427311
 21
-133.8059862639368
 31
0.0
  0
INSERT
  5
297
  8
0
  6
DOT2
  2
DC_GROUP_78
 10
0.0
 20
0.0
 30
0.0
  0
INSERT
  5
298
  8
0
  6
DOT2
  2
DC_GROUP_79
 10
0.0
 20
0.0
 30
0.0
  0
TEXT
  5
299
  8
0
 62
     7
 10
-186.3762986427311
 20
-132.8059862639368
 30
0.0
 40
4.0
  1
46
 41
0.7999999999999972
  7
FDASTYLE1
 72
     5
 11
-179.9762986427311
 21
-132.8059862639368
 31
0.0
  0
ENDBLK
  5
132
  8
0
  0
BLOCK
  8
0
  2
DC_GROUP_78
 70
     0
 10
0.0
 20
0.0
 30
0.0
  3
DC_GROUP_78
  1

  0
LINE
  5
29A
  8
0
  6
CONTINUOUS
 62
     9
 10
-204.1763002351004
 20
-134.3418857988344
 30
0.0
 11
-206.1762986427311
 21
-133.8059862639368
 31
0.0
  0
LINE
  5
29B
  8
0
  6
CONTINUOUS
 62
     9
 10
-206.1762986427311
 20
-133.8059862639368
 30
0.0
 11
-204.1763002351004
 21
-133.2700867290392
 31
0.0
  0
LINE
  5
29C
  8
0
  6
CONTINUOUS
 62
     9
 10
-206.1762986427311
 20
-133.8059862639368
 30
0.0
 11
-204.1763002351004
 21
-133.8059862639368
 31
0.0
  0
ENDBLK
  5
135
  8
0
  0
BLOCK
  8
0
  2
DC_GROUP_79
 70
     0
 10
0.0
 20
0.0
 30
0.0
  3
DC_GROUP_79
  1

  0
LINE
  5
29D
  8
0
  6
CONTINUOUS
 62
     9
 10
-162.1762970503617
 20
-133.2700867290392
 30
0.0
 11
-160.1762986427311
 21
-133.8059862639368
 31
0.0
  0
LINE
  5
29E
  8
0
  6
CONTINUOUS
 62
     9
 10
-160.1762986427311
 20
-133.8059862639368
 30
0.0
 11
-162.1762970503617
 21
-134.3418857988344
 31
0.0
  0
LINE
  5
29F
  8
0
  6
CONTINUOUS
 62
     9
 10
-160.1762986427311
 20
-133.8059862639368
 30
0.0
 11
-162.1762970503617
 21
-133.8059862639368
 31
0.0
  0
ENDBLK
  5
138
  8
0
  0
BLOCK
  8
0
  2
DC_GROUP_80
 70
     0
 10
0.0
 20
0.0
 30
0.0
  3
DC_GROUP_80
  1

  0
LINE
  5
2A0
  8
0
  6
CONTINUOUS
 62
     7
 10
-160.1762986427311
 20
-122.1659143483767
 30
0.0
 11
-145.976877756661
 21
-139.3472819065968
 31
0.0
  0
LINE
  5
2A1
  8
0
  6
CONTINUOUS
 62
     7
 10
-145.976877756661
 20
-139.3472819065968
 30
0.0
 11
-126.776877756661
 21
-139.3472819065968
 31
0.0
  0
INSERT
  5
2A2
  8
0
  6
DOT2
  2
DC_GROUP_81
 10
0.0
 20
0.0
 30
0.0
  0
TEXT
  5
2A3
  8
0
 62
     7
 10
-145.976877756661
 20
-139.3472819065968
 30
0.0
 40
4.0
  1
M12×25
 41
0.7492195629552548
  7
FDASTYLE1
 72
     5
 11
-127.3962325953707
 21
-139.3472819065968
 31
0.0
  0
ENDBLK
  5
13B
  8
0
  0
BLOCK
  8
0
  2
DC_GROUP_81
 70
     0
 10
0.0
 20
0.0
 30
0.0
  3
DC_GROUP_81
  1

  0
LINE
  5
2A4
  8
0
  6
CONTINUOUS
 62
     7
 10
-159.3152963605897
 20
-124.0489589607468
 30
0.0
 11
-160.1762986427311
 21
-122.1659143483767
 31
0.0
  0
LINE
  5
2A5
  8
0
  6
CONTINUOUS
 62
     7
 10
-160.1762986427311
 20
-122.1659143483767
 30
0.0
 11
-158.4891247218007
 21
-123.3661751960931
 31
0.0
  0
LINE
  5
2A6
  8
0
  6
CONTINUOUS
 62
     7
 10
-160.1762986427311
 20
-122.1659143483767
 30
0.0
 11
-158.9022105411952
 21
-123.70756707842
 31
0.0
  0
ENDBLK
  5
13E
  8
0
  0
BLOCK
  8
0
  2
DC_GROUP_82
 70
     0
 10
0.0
 20
0.0
 30
0.0
  3
DC_GROUP_82
  1

  0
LINE
  5
2A7
  8
0
  6
CONTINUOUS
 62
     9
 10
-206.1762986427311
 20
-110.6266337337563
 30
0.0
 11
-206.1762986427311
 21
-145.1499803690617
 31
0.0
  0
LINE
  5
2A8
  8
0
  6
CONTINUOUS
 62
     9
 10
-226.8762955909733
 20
-55.80163678551412
 30
0.0
 11
-226.8762955909733
 21
-145.1499803690617
 31
0.0
  0
LINE
  5
2A9
  8
0
  6
CONTINUOUS
 62
     9
 10
-226.8762955909733
 20
-144.1499803690617
 30
0.0
 11
-206.1762986427311
 21
-144.1499803690617
 31
0.0
  0
LINE
  5
2AA
  8
0
  6
CONTINUOUS
 62
     9
 10
-243.6081455909733
 20
-144.1499803690617
 30
0.0
 11
-226.8762955909733
 21
-144.1499803690617
 31
0.0
  0
LINE
  5
2AB
  8
0
  6
CONTINUOUS
 62
     9
 10
-201.1762986427311
 20
-144.1499803690617
 30
0.0
 11
-206.1762986427311
 21
-144.1499803690617
 31
0.0
  0
INSERT
  5
2AC
  8
0
  6
CONTINUOUS
  2
DC_GROUP_83
 10
0.0
 20
0.0
 30
0.0
  0
INSERT
  5
2AD
  8
0
  6
DOT2
  2
DC_GROUP_84
 10
0.0
 20
0.0
 30
0.0
  0
TEXT
  5
2AE
  8
0
 62
     7
 10
-242.6081455909733
 20
-143.1499803690617
 30
0.0
 40
4.0
  1
20.7
 41
0.8000000000000007
  7
FDASTYLE1
 72
     5
 11
-229.8081455909733
 21
-143.1499803690617
 31
0.0
  0
ENDBLK
  5
141
  8
0
  0
BLOCK
  8
0
  2
DC_GROUP_83
 70
     0
 10
0.0
 20
0.0
 30
0.0
  3
DC_GROUP_83
  1

  0
LINE
  5
2AF
  8
0
  6
CONTINUOUS
 62
     9
 10
-228.876293998604
 20
-143.6140808341641
 30
0.0
 11
-226.8762955909733
 21
-144.1499803690617
 31
0.0
  0
LINE
  5
2B0
  8
0
  6
CONTINUOUS
 62
     9
 10
-226.8762955909733
 20
-144.1499803690617
 30
0.0
 11
-228.876293998604
 21
-144.6858799039593
 31
0.0
  0
LINE
  5
2B1
  8
0
  6
CONTINUOUS
 62
     9
 10
-226.8762955909733
 20
-144.1499803690617
 30
0.0
 11
-228.876293998604
 21
-144.1499803690617
 31
0.0
  0
ENDBLK
  5
144
  8
0
  0
BLOCK
  8
0
  2
DC_GROUP_84
 70
     0
 10
0.0
 20
0.0
 30
0.0
  3
DC_GROUP_84
  1

  0
LINE
  5
2B2
  8
0
  6
CONTINUOUS
 62
     9
 10
-204.1763002351004
 20
-144.6858799039593
 30
0.0
 11
-206.1762986427311
 21
-144.1499803690617
 31
0.0
  0
LINE
  5
2B3
  8
0
  6
CONTINUOUS
 62
     9
 10
-206.1762986427311
 20
-144.1499803690617
 30
0.0
 11
-204.1763002351004
 21
-143.6140808341641
 31
0.0
  0
LINE
  5
2B4
  8
0
  6
CONTINUOUS
 62
     9
 10
-206.1762986427311
 20
-144.1499803690617
 30
0.0
 11
-204.1763002351004
 21
-144.1499803690617
 31
0.0
  0
ENDBLK
  5
147
  8
0
  0
BLOCK
  8
0
  2
DC_GROUP_85
 70
     0
 10
0.0
 20
0.0
 30
0.0
  3
DC_GROUP_85
  1

  0
LINE
  5
2B5
  8
0
  6
CONTINUOUS
 62
     9
 10
-113.8762955909733
 20
75.87336626624369
 30
0.0
 11
-57.00012924150869
 21
75.87336626624369
 31
0.0
  0
LINE
  5
2B6
  8
0
  6
CONTINUOUS
 62
     9
 10
-113.8762955909733
 20
155.8733662662437
 30
0.0
 11
-57.00012924150869
 21
155.8733662662437
 31
0.0
  0
LINE
  5
2B7
  8
0
  6
CONTINUOUS
 62
     9
 10
-110.489818105491
 20
17.87336626624369
 30
0.0
 11
-89.26988203171381
 21
17.87336626624369
 31
0.0
  0
LINE
  5
2B8
  8
0
  6
CONTINUOUS
 62
     9
 10
-69.34979530012768
 20
17.87336626624369
 30
0.0
 11
-57.00012924150869
 21
17.87336626624369
 31
0.0
  0
LINE
  5
2B9
  8
0
  6
CONTINUOUS
 62
     9
 10
-58.00012924150869
 20
17.87336626624369
 30
0.0
 11
-58.00012924150869
 21
75.87336626624369
 31
0.0
  0
LINE
  5
2BA
  8
0
  6
CONTINUOUS
 62
     9
 10
-58.00012924150869
 20
75.87336626624369
 30
0.0
 11
-58.00012924150869
 21
155.8733662662437
 31
0.0
  0
INSERT
  5
2BB
  8
0
  6
CONTINUOUS
  2
DC_GROUP_86
 10
0.0
 20
0.0
 30
0.0
  0
INSERT
  5
2BC
  8
0
  6
CONTINUOUS
  2
DC_GROUP_87
 10
0.0
 20
0.0
 30
0.0
  0
INSERT
  5
2BD
  8
0
  6
CONTINUOUS
  2
DC_GROUP_88
 10
0.0
 20
0.0
 30
0.0
  0
INSERT
  5
2BE
  8
0
  6
CONTINUOUS
  2
DC_GROUP_89
 10
0.0
 20
0.0
 30
0.0
  0
TEXT
  5
2BF
  8
0
 62
     7
 10
-59.00012924150869
 20
34.0733662662437
 30
0.0
 40
4.0
  1
MAX 59.9
 50
90.0
 41
0.7999999999999998
  7
FDASTYLE1
 72
     5
 11
-59.00012924150869
 21
59.6733662662437
 31
0.0
  0
TEXT
  5
2C0
  8
0
 62
     7
 10
-59.00012924150869
 20
112.6733662662437
 30
0.0
 40
4.0
  1
80
 50
90.0
 41
0.8000000000000007
  7
FDASTYLE1
 72
     5
 11
-59.00012924150869
 21
119.0733662662437
 31
0.0
  0
ENDBLK
  5
14A
  8
0
  0
BLOCK
  8
0
  2
DC_GROUP_86
 70
     0
 10
0.0
 20
0.0
 30
0.0
  3
DC_GROUP_86
  1

  0
LINE
  5
2C1
  8
0
  6
CONTINUOUS
 62
     9
 10
-57.46422970661106
 20
19.87336467387435
 30
0.0
 11
-58.00012924150869
 21
17.87336626624369
 31
0.0
  0
LINE
  5
2C2
  8
0
  6
CONTINUOUS
 62
     9
 10
-58.00012924150869
 20
17.87336626624369
 30
0.0
 11
-58.53602877640629
 21
19.87336467387435
 31
0.0
  0
LINE
  5
2C3
  8
0
  6
CONTINUOUS
 62
     9
 10
-58.00012924150869
 20
17.87336626624369
 30
0.0
 11
-58.00012924150868
 21
19.87336467387435
 31
0.0
  0
ENDBLK
  5
14D
  8
0
  0
BLOCK
  8
0
  2
DC_GROUP_87
 70
     0
 10
0.0
 20
0.0
 30
0.0
  3
DC_GROUP_87
  1

  0
LINE
  5
2C4
  8
0
  6
CONTINUOUS
 62
     9
 10
-58.5360287764063
 20
73.87336785861304
 30
0.0
 11
-58.00012924150869
 21
75.87336626624369
 31
0.0
  0
LINE
  5
2C5
  8
0
  6
CONTINUOUS
 62
     9
 10
-58.00012924150869
 20
75.87336626624369
 30
0.0
 11
-57.46422970661107
 21
73.87336785861304
 31
0.0
  0
LINE
  5
2C6
  8
0
  6
CONTINUOUS
 62
     9
 10
-58.00012924150869
 20
75.87336626624369
 30
0.0
 11
-58.00012924150869
 21
73.87336785861304
 31
0.0
  0
ENDBLK
  5
150
  8
0
  0
BLOCK
  8
0
  2
DC_GROUP_88
 70
     0
 10
0.0
 20
0.0
 30
0.0
  3
DC_GROUP_88
  1

  0
LINE
  5
2C7
  8
0
  6
CONTINUOUS
 62
     9
 10
-57.46422970661107
 20
77.87336467387436
 30
0.0
 11
-58.00012924150869
 21
75.87336626624369
 31
0.0
  0
LINE
  5
2C8
  8
0
  6
CONTINUOUS
 62
     9
 10
-58.00012924150869
 20
75.87336626624369
 30
0.0
 11
-58.5360287764063
 21
77.87336467387436
 31
0.0
  0
LINE
  5
2C9
  8
0
  6
CONTINUOUS
 62
     9
 10
-58.00012924150869
 20
75.87336626624369
 30
0.0
 11
-58.00012924150869
 21
77.87336467387436
 31
0.0
  0
ENDBLK
  5
153
  8
0
  0
BLOCK
  8
0
  2
DC_GROUP_89
 70
     0
 10
0.0
 20
0.0
 30
0.0
  3
DC_GROUP_89
  1

  0
LINE
  5
2CA
  8
0
  6
CONTINUOUS
 62
     9
 10
-58.5360287764063
 20
153.8733678586131
 30
0.0
 11
-58.00012924150869
 21
155.8733662662437
 31
0.0
  0
LINE
  5
2CB
  8
0
  6
CONTINUOUS
 62
     9
 10
-58.00012924150869
 20
155.8733662662437
 30
0.0
 11
-57.46422970661107
 21
153.8733678586131
 31
0.0
  0
LINE
  5
2CC
  8
0
  6
CONTINUOUS
 62
     9
 10
-58.00012924150869
 20
155.8733662662437
 30
0.0
 11
-58.00012924150869
 21
153.8733678586131
 31
0.0
  0
ENDBLK
  5
156
  8
0
  0
BLOCK
  8
0
  2
DC_GROUP_90
 70
     0
 10
0.0
 20
0.0
 30
0.0
  3
DC_GROUP_90
  1

  0
LINE
  5
2CD
  8
0
  6
CONTINUOUS
 62
     9
 10
-16.67997234787643
 20
-59.30837083250444
 30
0.0
 11
56.64002685135497
 21
-16.97705423469084
 31
0.0
  0
ARC
  5
2CE
  8
0
  6
CONTINUOUS
 62
     9
 10
117.0027324931014
 20
17.87336626624369
 30
0.0
 40
153.363486988278
 50
180.0
 51
209.9999972589654
  0
INSERT
  5
2CF
  8
0
  6
CONTINUOUS
  2
DC_GROUP_91
 10
0.0
 20
0.0
 30
0.0
  0
INSERT
  5
2D0
  8
0
  6
CONTINUOUS
  2
DC_GROUP_92
 10
0.0
 20
0.0
 30
0.0
  0
TEXT
  5
2D1
  8
0
 62
     7
 10
-31.41142682119936
 20
-16.92475842829273
 30
0.0
 40
4.0
  1
30°
 50
-75.00000137051733
 41
0.7031249999999998
  7
FDASTYLE1
 72
     5
 11
-29.08205562322153
 21
-25.618090920613
 31
0.0
  0
ENDBLK
  5
159
  8
0
  0
BLOCK
  8
0
  2
DC_GROUP_91
 70
     0
 10
0.0
 20
0.0
 30
0.0
  3
DC_GROUP_91
  1

  0
LINE
  5
2D2
  8
0
  6
CONTINUOUS
 62
     9
 10
-36.88360183414613
 20
15.86991609162965
 30
0.0
 11
-36.36075449517659
 21
17.87336626624371
 31
0.0
  0
LINE
  5
2D3
  8
0
  6
CONTINUOUS
 62
     9
 10
-36.36075449517659
 20
17.87336626624371
 30
0.0
 11
-35.81182554874134
 21
15.87690465784896
 31
0.0
  0
LINE
  5
2D4
  8
0
  6
CONTINUOUS
 62
     9
 10
-36.36075449517659
 20
17.87336626624371
 30
0.0
 11
-36.34771369144374
 21
15.8734103747393
 31
0.0
  0
ENDBLK
  5
15C
  8
0
  0
BLOCK
  8
0
  2
DC_GROUP_92
 70
     0
 10
0.0
 20
0.0
 30
0.0
  3
DC_GROUP_92
  1

  0
LINE
  5
2D5
  8
0
  6
CONTINUOUS
 62
     9
 10
-16.33679121603854
 20
-56.80491990515436
 30
0.0
 11
-15.81394692017199
 21
-58.80837087393509
 31
0.0
  0
LINE
  5
2D6
  8
0
  6
CONTINUOUS
 62
     9
 10
-15.81394692017199
 20
-58.80837087393509
 30
0.0
 11
-17.26847101482986
 21
-57.33475572740316
 31
0.0
  0
LINE
  5
2D7
  8
0
  6
CONTINUOUS
 62
     9
 10
-15.81394692017199
 20
-58.80837087393509
 30
0.0
 11
-16.8026311154342
 21
-57.06983781627876
 31
0.0
  0
ENDBLK
  5
15F
  8
0
  0
BLOCK
  8
0
  2
DC_GROUP_93
 70
     0
 10
0.0
 20
0.0
 30
0.0
  3
DC_GROUP_93
  1

  0
LINE
  5
2D8
  8
0
  6
CONTINUOUS
 62
     9
 10
156.5026333635055
 20
24.19460918461967
 30
0.0
 11
156.5026333635055
 21
34.36689173577887
 31
0.0
  0
LINE
  5
2D9
  8
0
  6
CONTINUOUS
 62
     9
 10
77.50263336350552
 20
24.53936054265189
 30
0.0
 11
77.50263336350552
 21
34.36689173577887
 31
0.0
  0
LINE
  5
2DA
  8
0
  6
CONTINUOUS
 62
     9
 10
77.50263336350552
 20
33.36689173577887
 30
0.0
 11
156.5026333635055
 21
33.36689173577887
 31
0.0
  0
INSERT
  5
2DB
  8
0
  6
DIVIDE
  2
DC_GROUP_94
 10
0.0
 20
0.0
 30
0.0
  0
INSERT
  5
2DC
  8
0
  6
DASHEDX2
  2
DC_GROUP_95
 10
0.0
 20
0.0
 30
0.0
  0
TEXT
  5
2DD
  8
0
 62
     7
 10
109.0026333635055
 20
34.36689173577887
 30
0.0
 40
4.0
  1
PCD79
 41
0.8
  7
FDASTYLE1
 72
     5
 11
125.0026333635055
 21
34.36689173577887
 31
0.0
  0
ENDBLK
  5
162
  8
0
  0
BLOCK
  8
0
  2
DC_GROUP_94
 70
     0
 10
0.0
 20
0.0
 30
0.0
  3
DC_GROUP_94
  1

  0
LINE
  5
2DE
  8
0
  6
CONTINUOUS
 62
     9
 10
79.50263177113619
 20
32.83099220088126
 30
0.0
 11
77.50263336350552
 21
33.36689173577887
 31
0.0
  0
LINE
  5
2DF
  8
0
  6
CONTINUOUS
 62
     9
 10
77.50263336350552
 20
33.36689173577887
 30
0.0
 11
79.50263177113619
 21
33.90279127067649
 31
0.0
  0
LINE
  5
2E0
  8
0
  6
CONTINUOUS
 62
     9
 10
77.50263336350552
 20
33.36689173577887
 30
0.0
 11
79.50263177113619
 21
33.36689173577887
 31
0.0
  0
ENDBLK
  5
165
  8
0
  0
BLOCK
  8
0
  2
DC_GROUP_95
 70
     0
 10
0.0
 20
0.0
 30
0.0
  3
DC_GROUP_95
  1

  0
LINE
  5
2E1
  8
0
  6
CONTINUOUS
 62
     9
 10
154.5026349558748
 20
33.90279127067649
 30
0.0
 11
156.5026333635055
 21
33.36689173577887
 31
0.0
  0
LINE
  5
2E2
  8
0
  6
CONTINUOUS
 62
     9
 10
156.5026333635055
 20
33.36689173577887
 30
0.0
 11
154.5026349558748
 21
32.83099220088126
 31
0.0
  0
LINE
  5
2E3
  8
0
  6
CONTINUOUS
 62
     9
 10
156.5026333635055
 20
33.36689173577887
 30
0.0
 11
154.5026349558748
 21
33.36689173577887
 31
0.0
  0
ENDBLK
  5
168
  8
0
  0
BLOCK
  8
0
  2
DC_GROUP_96
 70
     0
 10
0.0
 20
0.0
 30
0.0
  3
DC_GROUP_96
  1

  0
LINE
  5
2E4
  8
0
  6
CONTINUOUS
 62
     7
 10
158.1817390107989
 20
20.47922358596116
 30
0.0
 11
220.993271878852
 21
134.6316220457025
 31
0.0
  0
LINE
  5
2E5
  8
0
  6
CONTINUOUS
 62
     7
 10
220.993271878852
 20
134.6316220457025
 30
0.0
 11
240.193271878852
 21
134.6316220457025
 31
0.0
  0
INSERT
  5
2E6
  8
0
  6
CONTINUOUS
  2
DC_GROUP_97
 10
0.0
 20
0.0
 30
0.0
  0
TEXT
  5
2E7
  8
0
 62
     7
 10
220.993271878852
 20
134.6316220457025
 30
0.0
 40
4.0
  1
2-φ6.2
 41
0.7492195629552543
  7
FDASTYLE1
 72
     5
 11
239.5739170401423
 21
134.6316220457025
 31
0.0
  0
ENDBLK
  5
16B
  8
0
  0
BLOCK
  8
0
  2
DC_GROUP_97
 70
     0
 10
0.0
 20
0.0
 30
0.0
  3
DC_GROUP_97
  1

  0
LINE
  5
2E8
  8
0
  6
CONTINUOUS
 62
     7
 10
159.6154178918583
 20
21.97312679836578
 30
0.0
 11
158.1817390107989
 21
20.47922358596116
 31
0.0
  0
LINE
  5
2E9
  8
0
  6
CONTINUOUS
 62
     7
 10
158.1817390107989
 20
20.47922358596116
 30
0.0
 11
158.6763867786912
 21
22.48982188690242
 31
0.0
  0
LINE
  5
2EA
  8
0
  6
CONTINUOUS
 62
     7
 10
158.1817390107989
 20
20.47922358596116
 30
0.0
 11
159.1459023352747
 21
22.2314743426341
 31
0.0
  0
ENDBLK
  5
16E
  8
0
  0
ENDSEC
  0
SECTION
  2
ENTITIES
  0
LINE
  5
2EB
  8
LAYER0002
  6
CONTINUOUS
 62
     3
 10
-282.531429682114
 20
-190.0
 30
0.0
 11
-282.531429682114
 21
190.0
 31
0.0
  0
LINE
  5
2EC
  8
LAYER0002
  6
CONTINUOUS
 62
     3
 10
271.468570317886
 20
-190.0
 30
0.0
 11
271.468570317886
 21
190.0
 31
0.0
  0
LINE
  5
2ED
  8
LAYER0002
  6
CONTINUOUS
 62
     3
 10
-282.531429682114
 20
-190.0
 30
0.0
 11
271.468570317886
 21
-190.0
 31
0.0
  0
LINE
  5
2EE
  8
LAYER0002
  6
CONTINUOUS
 62
     3
 10
-282.531429682114
 20
189.9999999999999
 30
0.0
 11
271.468570317886
 21
189.9999999999999
 31
0.0
  0
LINE
  5
2EF
  8
LAYER0002
  6
CONTINUOUS
 62
     3
 10
91.46857031788603
 20
-190.0
 30
0.0
 11
91.46857031788603
 21
-130.0
 31
0.0
  0
LINE
  5
2F0
  8
LAYER0002
  6
CONTINUOUS
 62
     3
 10
91.46857031788603
 20
-176.0
 30
0.0
 11
271.468570317886
 21
-176.0
 31
0.0
  0
LINE
  5
2F1
  8
LAYER0002
  6
CONTINUOUS
 62
     3
 10
140.468570317886
 20
-162.0
 30
0.0
 11
271.468570317886
 21
-162.0
 31
0.0
  0
LINE
  5
2F2
  8
LAYER0002
  6
CONTINUOUS
 62
     3
 10
140.468570317886
 20
-148.0
 30
0.0
 11
271.468570317886
 21
-148.0
 31
0.0
  0
LINE
  5
2F3
  8
LAYER0002
  6
CONTINUOUS
 62
     3
 10
140.468570317886
 20
-138.0
 30
0.0
 11
271.468570317886
 21
-138.0
 31
0.0
  0
LINE
  5
2F4
  8
LAYER0002
  6
CONTINUOUS
 62
     3
 10
140.468570317886
 20
-176.0
 30
0.0
 11
140.468570317886
 21
-130.0
 31
0.0
  0
LINE
  5
2F5
  8
LAYER0002
  6
CONTINUOUS
 62
     3
 10
249.468570317886
 20
-176.0
 30
0.0
 11
249.468570317886
 21
-130.0
 31
0.0
  0
LINE
  5
2F6
  8
LAYER0002
  6
CONTINUOUS
 62
     3
 10
165.468570317886
 20
-190.0
 30
0.0
 11
165.468570317886
 21
-176.0
 31
0.0
  0
LINE
  5
2F7
  8
LAYER0002
  6
CONTINUOUS
 62
     3
 10
256.468570317886
 20
-188.0
 30
0.0
 11
266.468570317886
 21
-188.0
 31
0.0
  0
LINE
  5
2F8
  8
LAYER0002
  6
CONTINUOUS
 62
     3
 10
261.468570317886
 20
-178.0
 30
0.0
 11
256.468570317886
 21
-188.0
 31
0.0
  0
LINE
  5
2F9
  8
LAYER0002
  6
CONTINUOUS
 62
     3
 10
261.468570317886
 20
-178.0
 30
0.0
 11
266.468570317886
 21
-188.0
 31
0.0
  0
LINE
  5
2FA
  8
LAYER0002
  6
CONTINUOUS
 62
     3
 10
91.46857031788603
 20
-130.0
 30
0.0
 11
271.468570317886
 21
-130.0
 31
0.0
  0
LINE
  5
2FB
  8
LAYER0002
  6
CONTINUOUS
 62
     3
 10
220.468570317886
 20
-176.0
 30
0.0
 11
220.468570317886
 21
-148.0
 31
0.0
  0
LINE
  5
2FC
  8
LAYER0002
  6
CONTINUOUS
 62
     4
 10
99.46857031788602
 20
-172.0
 30
0.0
 11
99.46857031788602
 21
-130.0
 31
0.0
  0
LINE
  5
2FD
  8
LAYER0002
  6
CONTINUOUS
 62
     4
 10
103.468570317886
 20
-172.0
 30
0.0
 11
103.468570317886
 21
-130.0
 31
0.0
  0
LINE
  5
2FE
  8
LAYER0002
  6
CONTINUOUS
 62
     4
 10
115.968570317886
 20
-176.0
 30
0.0
 11
115.968570317886
 21
-130.0
 31
0.0
  0
LINE
  5
2FF
  8
LAYER0002
  6
CONTINUOUS
 62
     4
 10
91.46857031788603
 20
-137.0
 30
0.0
 11
140.468570317886
 21
-137.0
 31
0.0
  0
LINE
  5
300
  8
LAYER0002
  6
CONTINUOUS
 62
     4
 10
91.46857031788603
 20
-144.0
 30
0.0
 11
140.468570317886
 21
-144.0
 31
0.0
  0
LINE
  5
301
  8
LAYER0002
  6
CONTINUOUS
 62
     4
 10
91.46857031788603
 20
-165.0
 30
0.0
 11
140.468570317886
 21
-165.0
 31
0.0
  0
LINE
  5
302
  8
LAYER0002
  6
CONTINUOUS
 62
     4
 10
91.46857031788603
 20
-172.0
 30
0.0
 11
140.468570317886
 21
-172.0
 31
0.0
  0
LINE
  5
303
  8
LAYER0002
  6
CONTINUOUS
 62
     4
 10
249.468570317886
 20
-166.0
 30
0.0
 11
271.468570317886
 21
-166.0
 31
0.0
  0
LINE
  5
304
  8
LAYER0002
  6
CONTINUOUS
 62
     4
 10
147.468570317886
 20
-139.5
 30
0.0
 11
147.468570317886
 21
-130.0
 31
0.0
  0
LINE
  5
305
  8
LAYER0002
  6
CONTINUOUS
 62
     4
 10
196.468570317886
 20
-148.0
 30
0.0
 11
196.468570317886
 21
-146.5
 31
0.0
  0
LINE
  5
306
  8
LAYER0002
  6
CONTINUOUS
 62
     4
 10
220.468570317886
 20
-148.0
 30
0.0
 11
220.468570317886
 21
-146.5
 31
0.0
  0
LINE
  5
307
  8
LAYER0002
  6
CONTINUOUS
 62
     4
 10
237.468570317886
 20
-148.0
 30
0.0
 11
237.468570317886
 21
-146.5
 31
0.0
  0
LINE
  5
308
  8
LAYER0002
  6
CONTINUOUS
 62
     4
 10
196.468570317886
 20
-139.5
 30
0.0
 11
196.468570317886
 21
-130.0
 31
0.0
  0
LINE
  5
309
  8
LAYER0002
  6
CONTINUOUS
 62
     4
 10
220.468570317886
 20
-139.5
 30
0.0
 11
220.468570317886
 21
-130.0
 31
0.0
  0
LINE
  5
30A
  8
LAYER0002
  6
CONTINUOUS
 62
     4
 10
237.468570317886
 20
-139.5
 30
0.0
 11
237.468570317886
 21
-130.0
 31
0.0
  0
LINE
  5
30B
  8
LAYER0002
  6
CONTINUOUS
 62
     4
 10
91.46857031788603
 20
-151.0
 30
0.0
 11
140.468570317886
 21
-151.0
 31
0.0
  0
LINE
  5
30C
  8
LAYER0002
  6
CONTINUOUS
 62
     4
 10
91.46857031788603
 20
-158.0
 30
0.0
 11
140.468570317886
 21
-158.0
 31
0.0
  0
LINE
  5
30D
  8
LAYER0002
  6
CONTINUOUS
 62
     4
 10
95.46857031788602
 20
-130.5
 30
0.0
 11
92.46857031788603
 21
-136.5
 31
0.0
  0
LINE
  5
30E
  8
LAYER0002
  6
CONTINUOUS
 62
     4
 10
95.46857031788602
 20
-130.5
 30
0.0
 11
98.46857031788602
 21
-136.5
 31
0.0
  0
LINE
  5
30F
  8
LAYER0002
  6
CONTINUOUS
 62
     4
 10
92.46857031788603
 20
-136.5
 30
0.0
 11
98.46857031788602
 21
-136.5
 31
0.0
  0
LINE
  5
310
  8
LAYER0002
  6
CONTINUOUS
 62
     4
 10
95.46857031788602
 20
-158.5
 30
0.0
 11
92.46857031788603
 21
-164.5
 31
0.0
  0
LINE
  5
311
  8
LAYER0002
  6
CONTINUOUS
 62
     4
 10
95.46857031788602
 20
-158.5
 30
0.0
 11
98.46857031788602
 21
-164.5
 31
0.0
  0
LINE
  5
312
  8
LAYER0002
  6
CONTINUOUS
 62
     4
 10
92.46857031788603
 20
-164.5
 30
0.0
 11
98.46857031788602
 21
-164.5
 31
0.0
  0
LINE
  5
313
  8
LAYER0002
  6
CONTINUOUS
 62
     4
 10
95.46857031788602
 20
-151.5
 30
0.0
 11
92.46857031788603
 21
-157.5
 31
0.0
  0
LINE
  5
314
  8
LAYER0002
  6
CONTINUOUS
 62
     4
 10
95.46857031788602
 20
-151.5
 30
0.0
 11
98.46857031788602
 21
-157.5
 31
0.0
  0
LINE
  5
315
  8
LAYER0002
  6
CONTINUOUS
 62
     4
 10
92.46857031788603
 20
-157.5
 30
0.0
 11
98.46857031788602
 21
-157.5
 31
0.0
  0
LINE
  5
316
  8
LAYER0002
  6
CONTINUOUS
 62
     4
 10
95.46857031788602
 20
-144.5
 30
0.0
 11
92.46857031788603
 21
-150.5
 31
0.0
  0
LINE
  5
317
  8
LAYER0002
  6
CONTINUOUS
 62
     4
 10
95.46857031788602
 20
-144.5
 30
0.0
 11
98.46857031788602
 21
-150.5
 31
0.0
  0
LINE
  5
318
  8
LAYER0002
  6
CONTINUOUS
 62
     4
 10
92.46857031788603
 20
-150.5
 30
0.0
 11
98.46857031788602
 21
-150.5
 31
0.0
  0
LINE
  5
319
  8
LAYER0002
  6
CONTINUOUS
 62
     4
 10
95.46857031788602
 20
-137.5
 30
0.0
 11
92.46857031788603
 21
-143.5
 31
0.0
  0
LINE
  5
31A
  8
LAYER0002
  6
CONTINUOUS
 62
     4
 10
95.46857031788602
 20
-137.5
 30
0.0
 11
98.46857031788602
 21
-143.5
 31
0.0
  0
LINE
  5
31B
  8
LAYER0002
  6
CONTINUOUS
 62
     4
 10
92.46857031788603
 20
-143.5
 30
0.0
 11
98.46857031788602
 21
-143.5
 31
0.0
  0
LINE
  5
31C
  8
LAYER0002
  6
CONTINUOUS
 62
     4
 10
167.1352369845526
 20
-176.0
 30
0.0
 11
167.1352369845526
 21
-162.0
 31
0.0
  0
LINE
  5
31D
  8
LAYER0002
  6
CONTINUOUS
 62
     4
 10
193.8019036512193
 20
-176.0
 30
0.0
 11
193.8019036512193
 21
-161.9509415757253
 31
0.0
  0
LINE
  5
31E
  8
LAYER0002
  6
CONTINUOUS
 62
     4
 10
207.1352369845526
 20
-167.5
 30
0.0
 11
207.1352369845526
 21
-161.9509415757253
 31
0.0
  0
LINE
  5
31F
  8
LAYER0002
  6
CONTINUOUS
 62
     4
 10
220.468570317886
 20
-155.0
 30
0.0
 11
249.468570317886
 21
-155.0
 31
0.0
  0
LINE
  5
320
  8
LAYER0002
  6
CONTINUOUS
 62
     4
 10
140.468570317886
 20
-166.0
 30
0.0
 11
220.468570317886
 21
-166.0
 31
0.0
  0
TEXT
  5
322
  8
LAYER0002
 62
     7
 10
141.4623284653607
 20
-130.821188728956
 30
0.0
 40
2.44248928
  1
符号
 41
0.8
  7
FDASTYLE0
  0
TEXT
  5
323
  8
LAYER0002
 62
     7
 10
156.8827014397918
 20
-135.8245525019963
 30
0.0
 40
4.0
  1
品       名
 41
0.7333635129017656
  7
FDASTYLE1
 72
     5
 11
184.4571695248982
 21
-135.8245525019963
 31
0.0
  0
TEXT
  5
324
  8
LAYER0002
 62
     7
 10
201.7017267591956
 20
-135.8245525019963
 30
0.0
 40
4.0
  1
材  料
 41
0.6611570247933895
  7
FDASTYLE1
 72
     5
 11
213.3380903955593
 21
-135.8245525019963
 31
0.0
  0
TEXT
  5
325
  8
LAYER0002
 62
     7
 10
223.984632002741
 20
-135.8245525019963
 30
0.0
 40
4.0
  1
個 数
 41
0.6228373702422144
  7
FDASTYLE1
 72
     5
 11
232.4552202380351
 21
-135.8245525019963
 31
0.0
  0
TEXT
  5
326
  8
LAYER0002
 62
     7
 10
240.190381270774
 20
-133.5649080050572
 30
0.0
 40
2.5
  1
単重量
 41
0.5555555555555556
  7
FDASTYLE1
 72
     5
 11
245.190381270774
 21
-133.5649080050572
 31
0.0
  0
TEXT
  5
327
  8
LAYER0002
 62
     7
 10
239.1775219415219
 20
-137.3631304897525
 30
0.0
 40
2.5
  1
(kg)
 41
0.8
  7
FDASTYLE1
 72
     5
 11
247.1775219415219
 21
-137.3631304897525
 31
0.0
  0
TEXT
  5
328
  8
LAYER0002
 62
     7
 10
253.6107673833638
 20
-135.8245525019963
 30
0.0
 40
4.0
  1
記  事
 41
0.6611570247933878
  7
FDASTYLE1
 72
     5
 11
265.2471310197274
 21
-135.8245525019963
 31
0.0
  0
TEXT
  5
329
  8
LAYER0002
 62
     7
 10
253.3136497730505
 20
-165.4873041997729
 30
0.0
 40
3.0
  1
コード番号
 41
0.5555555555555556
  7
FDASTYLE1
 72
     5
 11
263.3136497730505
 21
-165.4873041997729
 31
0.0
  0
TEXT
  5
32A
  8
LAYER0002
 62
     7
 10
96.38056233371772
 20
-175.1879010540338
 30
0.0
 40
2.5
  1
訂 正 来 歴
 41
0.64431295200526
  7
FDASTYLE1
 72
     5
 11
108.9446648978203
 21
-175.1879010540338
 31
0.0
  0
TEXT
  5
32B
  8
LAYER0002
 62
     7
 10
120.358905164651
 20
-175.2166697391651
 30
0.0
 40
2.5
  1
工 事 番 号
 41
0.64431295200526
  7
FDASTYLE1
 72
     5
 11
132.9230077287536
 21
-175.2166697391651
 31
0.0
  0
TEXT
  5
32C
  8
LAYER0002
 62
     7
 10
93.40257066448891
 20
-165.9634530565915
 30
0.0
 40
1.90819475
  1
記号
 41
0.8
  7
FDASTYLE0
  0
TEXT
  5
32D
  8
LAYER0002
 62
     7
 10
99.34195772464781
 20
-165.9634530565915
 30
0.0
 40
1.90819475
  1
理由
 41
0.8
  7
FDASTYLE0
  0
TEXT
  5
32E
  8
LAYER0002
 62
     7
 10
106.0879371088703
 20
-169.8786046700178
 30
0.0
 40
3.0
  1
日 付
 41
0.6228373702422138
  7
FDASTYLE1
 72
     5
 11
112.4408782853409
 21
-169.8786046700178
 31
0.0
  0
TEXT
  5
32F
  8
LAYER0002
 62
     7
 10
147.9167392998512
 20
-165.7187911464244
 30
0.0
 40
3.0
  1
承   認
 41
0.6858710562414269
  7
FDASTYLE1
 72
     5
 11
159.0278504109623
 21
-165.7187911464244
 31
0.0
  0
TEXT
  5
330
  8
LAYER0002
 62
     7
 10
174.33179835112
 20
-165.4873041997729
 30
0.0
 40
3.0
  1
検   図
 41
0.6858710562414269
  7
FDASTYLE1
 72
     5
 11
185.4429094622311
 21
-165.4873041997729
 31
0.0
  0
TEXT
  5
331
  8
LAYER0002
 62
     7
 10
195.9457624162611
 20
-165.4873041997729
 30
0.0
 40
3.0
  1
担  当
 41
0.6611570247933879
  7
FDASTYLE1
 72
     5
 11
204.6730351435338
 21
-165.4873041997729
 31
0.0
  0
TEXT
  5
332
  8
LAYER0002
 62
     7
 10
209.1456278019972
 20
-165.4873041997729
 30
0.0
 40
3.0
  1
製  図
 41
0.6611570247933879
  7
FDASTYLE1
 72
     5
 11
217.8729005292699
 21
-165.4873041997729
 31
0.0
  0
TEXT
  5
333
  8
LAYER0002
 62
     7
 10
221.4148075483059
 20
-153.2184960272417
 30
0.0
 40
3.0
  1
作図
 41
0.5555555555555556
  7
FDASTYLE1
 72
     5
 11
225.4148075483059
 21
-153.2184960272417
 31
0.0
  0
TEXT
  5
334
  8
LAYER0002
 62
     7
 10
222.5722422815636
 20
-160.2371566401815
 30
0.0
 40
4.0
  1
第 三 角 法
 41
0.6443129520052602
  7
FDASTYLE1
 72
     5
 11
242.6748063841278
 21
-160.2371566401815
 31
0.0
  0
TEXT
  5
335
  8
LAYER0002
 62
     7
 10
221.877781441609
 20
-166.413251986379
 30
0.0
 40
3.0
  1
尺度
 41
0.5555555555555556
  7
FDASTYLE1
 72
     5
 11
225.877781441609
 21
-166.413251986379
 31
0.0
  0
TEXT
  5
337
  8
LAYER0002
 62
     3
 10
99.84772468792002
 20
-185.9272077185017
 30
0.0
 40
7.0
  1
株式会社 野村製作所
 41
0.4314821561072638
  7
FDASTYLE2
 72
     5
 11
140.1938951768858
 21
-185.9272077185017
 31
0.0
  0
TEXT
  5
339
  8
LAYER0002
 62
     3
 10
178.0803921113025
 20
-187.1216685584563
 30
0.0
 40
8.0
  1
２－
 41
0.7311772135933162
  7
FDASTYLE3
 72
     5
 11
191.270829044526
 21
-187.1216685584563
 31
0.0
  0
TEXT
  5
33A
  8
LAYER0002
 62
     3
 10
194.9923497357093
 20
-187.1216685584563
 30
0.0
 40
8.0
  1
9312012
 41
0.681678
  7
FDASTYLE1
 72
     5
 11
233.1663177357093
 21
-187.1216685584563
 31
0.0
  0
TEXT
  5
33B
  8
LAYER0002
 62
     6
 10
225.583783018673
 20
-146.1941968197806
 30
0.0
 40
4.0
  1
一式
 41
0.4861111111111102
  7
FDASTYLE1
 72
     5
 11
230.2504496853397
 21
-146.1941968197806
 31
0.0
  0
TEXT
  5
33C
  8
LAYER0002
 62
     6
 10
157.3422528693647
 20
-145.3589000228561
 30
0.0
 40
5.0
  1
外　形　図
 41
0.4861111111111114
  7
FDASTYLE1
 72
     5
 11
171.9255862026981
 21
-145.3589000228561
 31
0.0
  0
TEXT
  5
33D
  8
LAYER0002
 62
     4
 10
233.7697492085259
 20
-172.297487439201
 30
0.0
 40
3.0
  1
1/1
 41
0.7000000000000013
  7
FDASTYLE1
 72
     5
 11
240.0697492085259
 21
-172.297487439201
 31
0.0
  0
TEXT
  5
33E
  8
0
 62
     6
 10
143.4009131816014
 20
-154.3580193026319
 30
0.0
 40
5.0
  1
日鋼プレシジォン
 41
0.5555555555555554
  7
FDASTYLE1
 72
     5
 11
170.0675798482681
 21
-154.3580193026319
 31
0.0
  0
TEXT
  5
33F
  8
0
 62
     6
 10
152.1956421554559
 20
-160.926795036144
 30
0.0
 40
5.0
  1
HF2-12型 チャック
 41
0.681656804733728
  7
FDASTYLE1
 72
     5
 11
196.5033344631482
 21
-160.926795036144
 31
0.0
  0
TEXT
  5
340
  8
0
 62
     6
 10
-79.75475911932571
 20
-176.7429915522178
 30
0.0
 40
4.0
  1
ｱﾝバﾗﾝｽ量            
 41
0.833313892618438
  7
FDASTYLE1
 72
     5
 11
-15.08960105213492
 21
-176.7429915522178
 31
0.0
  0
TEXT
  5
341
  8
0
 62
     6
 10
1.592914911581914
 20
-176.0974914585193
 30
0.0
 40
2.708999812602997
  1
    外周ﾆﾃ
 41
0.8350343281777289
  7
FDASTYLE1
 72
     5
 11
20.59462075540642
 21
-176.0974914585193
 31
0.0
  0
TEXT
  5
342
  8
0
 62
     6
 10
27.31906349820511
 20
-176.7429915522178
 30
0.0
 40
4.0
  1
  8g以内
 41
0.7815797725521512
  7
FDASTYLE1
 72
     5
 11
47.32750567554018
 21
-176.7429915522178
 31
0.0
  0
TEXT
  5
343
  8
0
 62
     6
 10
-79.75475911932571
 20
-169.6841078852256
 30
0.0
 40
4.0
  1
質 量  　　 　　　　                 　   37 ｋg
 41
0.8031452135176996
  7
FDASTYLE1
 72
     5
 11
48.74847504350623
 21
-169.6841078852256
 31
0.0
  0
TEXT
  5
344
  8
0
 62
     6
 10
-79.75475911932571
 20
-162.6252394770225
 30
0.0
 40
4.0
  1
慣性モーメント   
 41
0.684023230107684
  7
FDASTYLE1
 72
     5
 11
-48.56329982641532
 21
-162.6252394770225
 31
0.0
  0
TEXT
  5
345
  8
0
 62
     6
 10
-22.93158408594493
 20
-162.6252394770225
 30
0.0
 40
4.0
  1
　            0.5 ｋg・m
 41
0.8215487565384613
  7
FDASTYLE1
 72
     5
 11
48.05022847897813
 21
-162.6252394770225
 31
0.0
  0
TEXT
  5
346
  8
0
 62
     6
 10
49.05795061807527
 20
-159.7612261982297
 30
0.0
 40
1.805999875068665
  1
2
 41
0.840131156630522
  7
FDASTYLE1
 72
     5
 11
50.57522738199129
 21
-159.7612261982297
 31
0.0
  0
TEXT
  5
347
  8
0
 62
     6
 10
-79.75475911932571
 20
-155.5663558100303
 30
0.0
 40
4.0
  1
最高使用回転速度 　　　　　　　　         　    3400 ｍin
 41
0.7511647228625193
  7
FDASTYLE1
 72
     5
 11
48.24370965644756
 21
-155.5663558100303
 31
0.0
  0
TEXT
  5
348
  8
0
 62
     6
 10
48.32399885496483
 20
-152.4772531577108
 30
0.0
 40
1.805999875068665
  1
-1
 41
0.8691368385283814
  7
FDASTYLE1
 72
     5
 11
51.46332089856449
 21
-152.4772531577108
 31
0.0
  0
TEXT
  5
349
  8
0
 62
     6
 10
-79.75475911932571
 20
-148.5074721430381
 30
0.0
 40
4.0
  1
最大静的把握力   　　　　　　           　   78.5 ｋN
 41
0.7642195805445875
  7
FDASTYLE1
 72
     5
 11
45.57725208998663
 21
-148.5074721430381
 31
0.0
  0
TEXT
  5
34A
  8
0
 62
     6
 10
-79.75475911932571
 20
-141.4485884760459
 30
0.0
 40
4.0
  1
許容ｼﾘﾝダ力  
 41
0.7461200998950119
  7
FDASTYLE1
 72
     5
 11
-50.50685120344124
 21
-141.4485884760459
 31
0.0
  0
TEXT
  5
34B
  8
0
 62
     6
 10
21.63114316625015
 20
-141.4485884760459
 30
0.0
 40
4.0
  1
 １９．９ ｋN
 41
0.7033390918271656
  7
FDASTYLE1
 72
     5
 11
46.95135047202811
 21
-141.4485884760459
 31
0.0
  0
TEXT
  5
34C
  8
0
 62
     6
 10
-79.61887081111294
 20
-134.3970436867043
 30
0.0
 40
4.0
  1
ピｽﾄﾝｽﾄﾛ-ｸ　　　　　                 　33 mm
 41
0.8229223783489491
  7
FDASTYLE1
 72
     5
 11
46.78200650328563
 21
-134.3970436867043
 31
0.0
  0
TEXT
  5
34D
  8
0
 62
     6
 10
-79.61887081111294
 20
-127.3381600197121
 30
0.0
 40
4.0
  1
爪ノｽﾄﾛ-ｸ           
 41
0.8319315873585133
  7
FDASTYLE1
 72
     5
 11
-18.38870598152637
 21
-127.3381600197121
 31
0.0
  0
TEXT
  5
34E
  8
0
 62
     6
 10
-4.325075683594292
 20
-126.6926599260136
 30
0.0
 40
2.708999812602997
  1
　　 （直径ﾆﾃ）
 41
0.725595271675153
  7
FDASTYLE1
 72
     5
 11
15.72442635734053
 21
-126.6926599260136
 31
0.0
  0
TEXT
  5
34F
  8
0
 62
     6
 10
20.89533573595576
 20
-127.3381600197121
 30
0.0
 40
4.0
  1
  8.4 mm
 41
0.8554230944949611
  7
FDASTYLE1
 72
     5
 11
48.26887475979451
 21
-127.3381600197121
 31
0.0
  0
TEXT
  5
350
  8
0
 62
     6
 10
-79.61887081111294
 20
-120.2792839821144
 30
0.0
 40
4.0
  1
仕   様
 41
0.7672557446554914
  7
FDASTYLE1
 72
     5
 11
-63.04614672655433
 21
-120.2792839821144
 31
0.0
  0
TEXT
  5
351
  8
0
 62
     7
 10
251.462967508089
 20
-142.7641187278597
 30
0.0
 40
3.200000047683716
  1
標 準
 41
0.649794934378693
  7
FDASTYLE1
 72
     5
 11
258.532736499477
 21
-142.7641187278597
 31
0.0
  0
TEXT
  5
352
  8
0
 62
     7
 10
-237.2161332374577
 20
163.9565571842124
 30
0.0
 40
4.0
  1
MIN-2.7
 41
0.8000000000000002
  7
FDASTYLE1
 72
     5
 11
-214.8161332374577
 21
163.9565571842124
 31
0.0
  0
TEXT
  5
353
  8
0
 62
     7
 10
-195.3172684913639
 20
-149.3575101855798
 30
0.0
 40
4.0
  1
MIN 29.3
 41
0.7999999999999998
  7
FDASTYLE1
 72
     5
 11
-169.7172684913639
 21
-149.3575101855798
 31
0.0
  0
LINE
  5
354
  8
0
  6
DIVIDE
 62
     9
 10
-190.8762955909733
 20
-42.80163678551412
 30
0.0
 11
-190.8762955909733
 21
-54.80163678551412
 31
0.0
  0
LINE
  5
355
  8
0
  6
DIVIDE
 62
     9
 10
-226.8762955909733
 20
-42.80163678551412
 30
0.0
 11
-226.8762955909733
 21
-54.80163678551412
 31
0.0
  0
LINE
  5
356
  8
0
  6
DIVIDE
 62
     9
 10
-123.0124802833561
 20
68.87336626624369
 30
0.0
 11
-116.8762955909733
 21
68.87336626624369
 31
0.0
  0
LINE
  5
357
  8
0
  6
DIVIDE
 62
     9
 10
-115.8762953319494
 20
67.87336774775577
 30
0.0
 11
-116.8762963935389
 21
68.87336880934527
 31
0.0
  0
LINE
  5
358
  8
0
  6
DIVIDE
 62
     9
 10
-208.8762888612409
 20
67.87336505035751
 30
0.0
 11
-207.8762877996514
 21
68.87336611194701
 31
0.0
  0
LINE
  5
359
  8
0
  6
DIVIDE
 62
     9
 10
-208.8762955909733
 20
67.87336626624369
 30
0.0
 11
-208.8762955909733
 21
25.24397936438822
 31
0.0
  0
LINE
  5
35A
  8
0
  6
DIVIDE
 62
     9
 10
-115.8762955909733
 20
67.87336626624369
 30
0.0
 11
-115.8762955909733
 21
25.91064730262065
 31
0.0
  0
LINE
  5
35B
  8
0
  6
DIVIDE
 62
     9
 10
-226.8762955909733
 20
-42.80163678551412
 30
0.0
 11
-169.7054429298405
 21
-42.80163678551412
 31
0.0
  0
LINE
  5
35C
  8
0
  6
DIVIDE
 62
     9
 10
-226.8762955909733
 20
-54.80163678551412
 30
0.0
 11
-166.6694779640202
 21
-54.80163678551412
 31
0.0
  0
LINE
  5
35D
  8
0
  6
DIVIDE
 62
     9
 10
-226.8762955909733
 20
-43.80163678551412
 30
0.0
 11
-190.8762955909733
 21
-43.80163678551412
 31
0.0
  0
LINE
  5
35E
  8
0
  6
DIVIDE
 62
     9
 10
-226.8762955909733
 20
-53.80163678551412
 30
0.0
 11
-190.8762955909733
 21
-53.80163678551412
 31
0.0
  0
LINE
  5
35F
  8
0
  6
CONTINUOUS
 62
     3
 10
-130.3316483741764
 20
63.80736437415385
 30
0.0
 11
-116.3762955909733
 21
63.80736437415385
 31
0.0
  0
LINE
  5
360
  8
0
  6
CONTINUOUS
 62
     3
 10
-116.3762955909733
 20
65.30736437415385
 30
0.0
 11
-113.8762955909733
 21
65.30736437415385
 31
0.0
  0
LINE
  5
361
  8
0
  6
CONTINUOUS
 62
     3
 10
-142.8762955909733
 20
-1.48119696999288
 30
0.0
 11
-142.8762955909733
 21
-27.62663373375631
 31
0.0
  0
LINE
  5
362
  8
0
  6
CONTINUOUS
 62
     3
 10
-206.1762986427311
 20
-33.12663373375631
 30
0.0
 11
-116.3762955909733
 21
-33.12663373375631
 31
0.0
  0
LINE
  5
363
  8
0
  6
CONTINUOUS
 62
     3
 10
-140.8762955909733
 20
62.87336626624369
 30
0.0
 11
-130.8762955909733
 21
62.87336626624369
 31
0.0
  0
LINE
  5
364
  8
0
  6
CONTINUOUS
 62
     3
 10
-140.8762955909733
 20
-27.12663373375631
 30
0.0
 11
-130.8762955909733
 21
-27.12663373375631
 31
0.0
  0
LINE
  5
365
  8
0
  6
CONTINUOUS
 62
     3
 10
-156.8762955909733
 20
61.62336626624369
 30
0.0
 11
-142.8762955909733
 21
61.62336626624369
 31
0.0
  0
LINE
  5
366
  8
0
  6
CONTINUOUS
 62
     3
 10
-156.8762955909733
 20
-25.87663373375631
 30
0.0
 11
-142.8762955909733
 21
-25.87663373375631
 31
0.0
  0
LINE
  5
367
  8
0
  6
CONTINUOUS
 62
     3
 10
-159.8762910032715
 20
-17.12662867086351
 30
0.0
 11
-158.8762928076708
 21
-18.1266325984418
 31
0.0
  0
LINE
  5
368
  8
0
  6
CONTINUOUS
 62
     3
 10
-189.8762971613996
 20
-17.12664298945742
 30
0.0
 11
-190.8762991502208
 21
-18.12664312381526
 31
0.0
  0
LINE
  5
369
  8
0
  6
CONTINUOUS
 62
     3
 10
-189.8762909445222
 20
52.87337008092459
 30
0.0
 11
-190.8762939448688
 21
53.87336928805075
 31
0.0
  0
LINE
  5
36A
  8
0
  6
CONTINUOUS
 62
     3
 10
-159.8762993099567
 20
52.87337374986851
 30
0.0
 11
-158.8762985855792
 21
53.87338593826303
 31
0.0
  0
LINE
  5
36B
  8
0
  6
CONTINUOUS
 62
     3
 10
-158.8762955909733
 20
61.87336626624369
 30
0.0
 11
-158.8762955909733
 21
-26.12663373375631
 31
0.0
  0
LINE
  5
36C
  8
0
  6
CONTINUOUS
 62
     3
 10
-156.8762955909733
 20
61.87336626624369
 30
0.0
 11
-156.8762955909733
 21
3.788334280007121
 31
0.0
  0
LINE
  5
36D
  8
0
  6
CONTINUOUS
 62
     3
 10
-142.8762955909733
 20
63.37336626624369
 30
0.0
 11
-142.8762955909733
 21
4.905819803230997
 31
0.0
  0
LINE
  5
36E
  8
0
  6
CONTINUOUS
 62
     3
 10
-140.8762955909733
 20
63.37336626624369
 30
0.0
 11
-140.8762955909733
 21
-27.62663373375631
 31
0.0
  0
LINE
  5
36F
  8
0
  6
CONTINUOUS
 62
     3
 10
-142.8762955909733
 20
63.37336626624369
 30
0.0
 11
-140.8762955909733
 21
63.37336626624369
 31
0.0
  0
LINE
  5
370
  8
0
  6
CONTINUOUS
 62
     3
 10
-142.8762955909733
 20
-27.62663373375631
 30
0.0
 11
-140.8762955909733
 21
-27.62663373375631
 31
0.0
  0
LINE
  5
371
  8
0
  6
CONTINUOUS
 62
     3
 10
-158.8762955909733
 20
61.87336626624369
 30
0.0
 11
-156.8762955909733
 21
61.87336626624369
 31
0.0
  0
LINE
  5
372
  8
0
  6
CONTINUOUS
 62
     3
 10
-158.8762955909733
 20
-26.12663373375631
 30
0.0
 11
-156.8762955909733
 21
-26.12663373375631
 31
0.0
  0
LINE
  5
373
  8
0
  6
CONTINUOUS
 62
     3
 10
-189.8762955909733
 20
-17.12663468743062
 30
0.0
 11
-159.8762955909733
 21
-17.12663468743062
 31
0.0
  0
LINE
  5
374
  8
0
  6
CONTINUOUS
 62
     3
 10
-189.8762955909733
 20
52.87336626624369
 30
0.0
 11
-159.8762955909733
 21
52.87336626624369
 31
0.0
  0
LINE
  5
375
  8
0
  6
CONTINUOUS
 62
     3
 10
-190.876291331816
 20
-32.12663321266223
 30
0.0
 11
-189.8762902702265
 21
-33.12663427425173
 31
0.0
  0
LINE
  5
376
  8
0
  6
CONTINUOUS
 62
     3
 10
-130.8762923740041
 20
-32.12663321266223
 30
0.0
 11
-131.8762934355936
 21
-33.12663427425173
 31
0.0
  0
LINE
  5
377
  8
0
  6
CONTINUOUS
 62
     3
 10
-131.8762902637743
 20
68.87336750306235
 30
0.0
 11
-130.8762980530416
 21
67.87337908550921
 31
0.0
  0
LINE
  5
378
  8
0
  6
CONTINUOUS
 62
     3
 10
-190.876291331816
 20
67.87336505035751
 30
0.0
 11
-189.8762901159298
 21
68.87336626624369
 31
0.0
  0
LINE
  5
379
  8
0
  6
CONTINUOUS
 62
     3
 10
-189.8762901159298
 20
68.87336626624369
 30
0.0
 11
-131.8762955909733
 21
68.87336626624369
 31
0.0
  0
LINE
  5
37A
  8
0
  6
CONTINUOUS
 62
     3
 10
-130.8762955909733
 20
67.87336626624369
 30
0.0
 11
-130.8762955909733
 21
-32.12663373375631
 31
0.0
  0
LINE
  5
37B
  8
0
  6
CONTINUOUS
 62
     3
 10
-190.8762955909733
 20
67.87336626624369
 30
0.0
 11
-190.8762955909733
 21
-32.12663373375631
 31
0.0
  0
LINE
  5
37C
  8
0
  6
CONTINUOUS
 62
     3
 10
-127.8762955909733
 20
136.8733662662437
 30
0.0
 11
-127.8762955909733
 21
124.8733586368492
 31
0.0
  0
LINE
  5
37D
  8
0
  6
CONTINUOUS
 62
     3
 10
-127.8762955909733
 20
101.8733662662437
 30
0.0
 11
-127.8762955909733
 21
89.87336626624369
 31
0.0
  0
LINE
  5
37E
  8
0
  6
CONTINUOUS
 62
     3
 10
-102.8762955909733
 20
104.8733662662437
 30
0.0
 11
-102.8762955909733
 21
86.87336626624369
 31
0.0
  0
LINE
  5
37F
  8
0
  6
CONTINUOUS
 62
     3
 10
-102.8762955909733
 20
139.8733662662437
 30
0.0
 11
-102.8762955909733
 21
121.8733662662437
 31
0.0
  0
LINE
  5
380
  8
0
  6
CONTINUOUS
 62
     3
 10
-133.8762955909733
 20
89.87336626624369
 30
0.0
 11
-102.8762955909733
 21
89.87336626624369
 31
0.0
  0
LINE
  5
381
  8
0
  6
CONTINUOUS
 62
     3
 10
-133.8762955909733
 20
101.8733662662437
 30
0.0
 11
-102.8762955909733
 21
101.8733662662437
 31
0.0
  0
LINE
  5
382
  8
0
  6
CONTINUOUS
 62
     3
 10
-133.8762955909733
 20
136.8733662662437
 30
0.0
 11
-102.8762955909733
 21
136.8733662662437
 31
0.0
  0
LINE
  5
383
  8
0
  6
CONTINUOUS
 62
     3
 10
-133.8762955909733
 20
124.8733586368492
 30
0.0
 11
-102.8762955909733
 21
124.8733586368492
 31
0.0
  0
LINE
  5
384
  8
0
  6
CONTINUOUS
 62
     3
 10
-113.3762955909733
 20
124.8733586368492
 30
0.0
 11
-113.3762955909733
 21
101.8733662662437
 31
0.0
  0
LINE
  5
385
  8
0
  6
CONTINUOUS
 62
     3
 10
-113.3762955909733
 20
89.87336626624369
 30
0.0
 11
-113.3762955909733
 21
82.87336626624369
 31
0.0
  0
LINE
  5
386
  8
0
  6
CONTINUOUS
 62
     3
 10
-113.8762955909733
 20
82.87336626624369
 30
0.0
 11
-113.8762955909733
 21
-119.1266337337563
 31
0.0
  0
LINE
  5
387
  8
0
  6
CONTINUOUS
 62
     3
 10
-125.8762955909733
 20
82.87336626624369
 30
0.0
 11
-125.8762955909733
 21
75.87336626624369
 31
0.0
  0
LINE
  5
388
  8
0
  6
CONTINUOUS
 62
     3
 10
-113.3762955909733
 20
143.8733662662437
 30
0.0
 11
-113.3762955909733
 21
136.8733662662437
 31
0.0
  0
LINE
  5
389
  8
0
  6
CONTINUOUS
 62
     3
 10
-133.8762955909733
 20
143.8733662662437
 30
0.0
 11
-133.8762955909733
 21
82.87336626624369
 31
0.0
  0
LINE
  5
38A
  8
0
  6
CONTINUOUS
 62
     3
 10
-133.8762955909733
 20
143.8733662662437
 30
0.0
 11
-113.3762955909733
 21
143.8733662662437
 31
0.0
  0
LINE
  5
38B
  8
0
  6
CONTINUOUS
 62
     3
 10
-133.8762955909733
 20
82.87336626624369
 30
0.0
 11
-113.3762955909733
 21
82.87336626624369
 31
0.0
  0
LINE
  5
38C
  8
0
  6
CONTINUOUS
 62
     3
 10
-142.0762925392155
 20
70.01621904944682
 30
0.0
 11
-131.0762925392155
 21
70.01621904944682
 31
0.0
  0
LINE
  5
38D
  8
0
  6
CONTINUOUS
 62
     3
 10
-113.87630939316
 20
152.8733770609156
 30
0.0
 11
-114.8762996651565
 21
153.873367332912
 31
0.0
  0
LINE
  5
38E
  8
0
  6
CONTINUOUS
 62
     3
 10
-134.8762955909733
 20
155.8733662662437
 30
0.0
 11
-134.8762955909733
 21
70.01621904944682
 31
0.0
  0
LINE
  5
38F
  8
0
  6
CONTINUOUS
 62
     3
 10
-151.8762955909733
 20
97.37336626624369
 30
0.0
 11
-151.8762955909733
 21
74.87336626624369
 31
0.0
  0
LINE
  5
390
  8
0
  6
CONTINUOUS
 62
     3
 10
-151.8762955909733
 20
78.07336321448588
 30
0.0
 11
-142.0762925392155
 21
78.07336321448588
 31
0.0
  0
LINE
  5
391
  8
0
  6
CONTINUOUS
 62
     3
 10
-131.0762925392155
 20
75.87336626624369
 30
0.0
 11
-131.0762925392155
 21
68.87336626624369
 31
0.0
  0
LINE
  5
392
  8
0
  6
CONTINUOUS
 62
     3
 10
-131.0762925392155
 20
75.87336626624369
 30
0.0
 11
-114.8762955909733
 21
75.87336626624369
 31
0.0
  0
LINE
  5
393
  8
0
  6
CONTINUOUS
 62
     3
 10
-125.8762955909733
 20
155.8733662662437
 30
0.0
 11
-125.8762955909733
 21
143.8733662662437
 31
0.0
  0
LINE
  5
394
  8
0
  6
CONTINUOUS
 62
     3
 10
-181.8762955909733
 20
155.8733662662437
 30
0.0
 11
-114.8762955909733
 21
155.8733662662437
 31
0.0
  0
LINE
  5
395
  8
0
  6
CONTINUOUS
 62
     3
 10
-133.8762955909733
 20
-38.9766322078774
 30
0.0
 11
-133.8762955909733
 21
-45.27663525963521
 31
0.0
  0
LINE
  5
396
  8
0
  6
CONTINUOUS
 62
     3
 10
-135.6949530850554
 20
-42.12663999200504
 30
0.0
 11
-133.8763007152401
 21
-45.27663786578489
 31
0.0
  0
LINE
  5
397
  8
0
  6
CONTINUOUS
 62
     3
 10
-135.6949548988719
 20
-42.12663895375886
 30
0.0
 11
-133.8763015753821
 21
-38.97663942816666
 31
0.0
  0
LINE
  5
398
  8
0
  6
CONTINUOUS
 62
     3
 10
-152.0762925392155
 20
-39.12663373375631
 30
0.0
 11
-142.0762925392155
 21
-39.12663373375631
 31
0.0
  0
LINE
  5
399
  8
0
  6
CONTINUOUS
 62
     3
 10
-142.0762925392155
 20
-33.12663373375631
 30
0.0
 11
-142.0762925392155
 21
-39.12663373375631
 31
0.0
  0
LINE
  5
39A
  8
0
  6
CONTINUOUS
 62
     3
 10
-152.0762925392155
 20
-33.12663373375631
 30
0.0
 11
-152.0762925392155
 21
-39.12663373375631
 31
0.0
  0
LINE
  5
39B
  8
0
  6
CONTINUOUS
 62
     3
 10
-181.8762955909733
 20
157.8733662662437
 30
0.0
 11
-181.8762955909733
 21
128.5142354068687
 31
0.0
  0
LINE
  5
39C
  8
0
  6
CONTINUOUS
 62
     3
 10
-142.0762925392155
 20
78.07336321448588
 30
0.0
 11
-142.0762925392155
 21
68.87336626624369
 31
0.0
  0
LINE
  5
39D
  8
0
  6
CONTINUOUS
 62
     3
 10
-152.0762925392155
 20
74.87336626624369
 30
0.0
 11
-152.0762925392155
 21
68.87336626624369
 31
0.0
  0
LINE
  5
39E
  8
0
  6
CONTINUOUS
 62
     3
 10
-152.0762925392155
 20
74.87336626624369
 30
0.0
 11
-142.0762925392155
 21
74.87336626624369
 31
0.0
  0
LINE
  5
39F
  8
0
  6
CONTINUOUS
 62
     3
 10
-211.8762955909733
 20
-109.6266337337563
 30
0.0
 11
-206.1762986427311
 21
-109.6266337337563
 31
0.0
  0
LINE
  5
3A0
  8
0
  6
CONTINUOUS
 62
     3
 10
-206.1762986427311
 20
68.87336626624369
 30
0.0
 11
-189.8762901159298
 21
68.87336626624369
 31
0.0
  0
LINE
  5
3A1
  8
0
  6
CONTINUOUS
 62
     3
 10
-116.3762955909733
 20
65.30736437415385
 30
0.0
 11
-116.3762955909733
 21
-34.62663373375631
 31
0.0
  0
LINE
  5
3A2
  8
0
  6
CONTINUOUS
 62
     3
 10
-116.3762955909733
 20
-34.62663373375631
 30
0.0
 11
-113.8762955909733
 21
-34.62663373375631
 31
0.0
  0
LINE
  5
3A3
  8
0
  6
CONTINUOUS
 62
     3
 10
-211.8762955909733
 20
145.3733662662437
 30
0.0
 11
-206.1762986427311
 21
145.3733662662437
 31
0.0
  0
LINE
  5
3A4
  8
0
  6
CONTINUOUS
 62
     3
 10
-206.1762986427311
 20
145.3733662662437
 30
0.0
 11
-206.1762986427311
 21
-109.6266337337563
 31
0.0
  0
LINE
  5
3A5
  8
0
  6
CONTINUOUS
 62
     3
 10
-211.8762955909733
 20
157.8733662662437
 30
0.0
 11
-181.8762955909733
 21
157.8733662662437
 31
0.0
  0
LINE
  5
3A6
  8
0
  6
CONTINUOUS
 62
     3
 10
-113.8762955909733
 20
152.8733662662437
 30
0.0
 11
-113.8762955909733
 21
143.8733662662437
 31
0.0
  0
LINE
  5
3A7
  8
0
  6
CONTINUOUS
 62
     3
 10
-133.8762955909733
 20
-38.9766322078774
 30
0.0
 11
-113.8762955909733
 21
-38.9766322078774
 31
0.0
  0
LINE
  5
3A8
  8
0
  6
CONTINUOUS
 62
     3
 10
-133.8762955909733
 20
-45.27663525963521
 30
0.0
 11
-113.8762955909733
 21
-45.27663525963521
 31
0.0
  0
LINE
  5
3A9
  8
0
  6
CONTINUOUS
 62
     3
 10
-156.8762955909733
 20
-1.48119696999288
 30
0.0
 11
-156.8762955909733
 21
-26.12663373375631
 31
0.0
  0
LINE
  5
3AA
  8
0
  6
CONTINUOUS
 62
     3
 10
-211.8762955909733
 20
-122.1266337337563
 30
0.0
 11
-116.8762955909733
 21
-122.1266337337563
 31
0.0
  0
LINE
  5
3AB
  8
0
  6
CONTINUOUS
 62
     3
 10
-90.87629559097329
 20
139.8733662662437
 30
0.0
 11
-90.87629559097329
 21
121.8733662662437
 31
0.0
  0
LINE
  5
3AC
  8
0
  6
CONTINUOUS
 62
     3
 10
-90.87629559097329
 20
104.8733662662437
 30
0.0
 11
-90.87629559097329
 21
86.87336626624369
 31
0.0
  0
CIRCLE
  5
3AD
  8
0
  6
CONTINUOUS
 62
     3
 10
117.002684601675
 20
17.87336626624369
 30
0.0
 40
45.0
  0
LINE
  5
3AE
  8
0
  6
CONTINUOUS
 62
     3
 10
-102.8762955909733
 20
104.8733662662437
 30
0.0
 11
-90.87629559097329
 21
104.8733662662437
 31
0.0
  0
LINE
  5
3AF
  8
0
  6
CONTINUOUS
 62
     3
 10
-102.8762955909733
 20
86.87336626624369
 30
0.0
 11
-90.87629559097329
 21
86.87336626624369
 31
0.0
  0
LINE
  5
3B0
  8
0
  6
CONTINUOUS
 62
     3
 10
-102.8762955909733
 20
139.8733662662437
 30
0.0
 11
-90.87629559097329
 21
139.8733662662437
 31
0.0
  0
LINE
  5
3B1
  8
0
  6
CONTINUOUS
 62
     3
 10
-102.8762955909733
 20
121.8733662662437
 30
0.0
 11
-90.87629559097329
 21
121.8733662662437
 31
0.0
  0
LINE
  5
3B2
  8
0
  6
CONTINUOUS
 62
     3
 10
-116.8763017883355
 20
-122.1266397415748
 30
0.0
 11
-113.876298603567
 21
-119.1266365568063
 31
0.0
  0
LINE
  5
3B3
  8
0
  6
CONTINUOUS
 62
     3
 10
-211.8762955909733
 20
157.8733662662437
 30
0.0
 11
-211.8762955909733
 21
-122.1266337337563
 31
0.0
  0
LINE
  5
3B4
  8
0
  6
CONTINUOUS
 62
     3
 10
-135.8762955909733
 20
60.37336626624369
 30
0.0
 11
-135.8762955909733
 21
54.37336626624369
 31
0.0
  0
LINE
  5
3B5
  8
0
  6
CONTINUOUS
 62
     3
 10
-140.8762955909733
 20
52.87336626624369
 30
0.0
 11
-130.8762955909733
 21
52.87336626624369
 31
0.0
  0
LINE
  5
3B6
  8
0
  6
CONTINUOUS
 62
     3
 10
-140.8762955909733
 20
60.37336626624369
 30
0.0
 11
-130.8762955909733
 21
60.37336626624369
 31
0.0
  0
LINE
  5
3B7
  8
0
  6
CONTINUOUS
 62
     3
 10
-140.8762955909733
 20
54.37336626624369
 30
0.0
 11
-130.8762955909733
 21
54.37336626624369
 31
0.0
  0
LINE
  5
3B8
  8
0
  6
CONTINUOUS
 62
     3
 10
-131.8762955909733
 20
60.37336626624369
 30
0.0
 11
-131.8762955909733
 21
54.37336626624369
 31
0.0
  0
LINE
  5
3B9
  8
0
  6
CONTINUOUS
 62
     3
 10
-140.8762955909733
 20
-17.12663373375631
 30
0.0
 11
-130.8762955909733
 21
-17.12663373375631
 31
0.0
  0
CIRCLE
  5
3BA
  8
0
  6
CONTINUOUS
 62
     3
 10
77.50263336350552
 20
17.87334491765189
 30
0.0
 40
3.099999904632568
  0
CIRCLE
  5
3BB
  8
0
  6
CONTINUOUS
 62
     3
 10
156.5026333635055
 20
17.87334491765189
 30
0.0
 40
3.099999904632568
  0
LINE
  5
3BC
  8
0
  6
CONTINUOUS
 62
     3
 10
94.50268460167501
 20
155.8733449176519
 30
0.0
 11
139.502684601675
 21
155.8733449176519
 31
0.0
  0
LINE
  5
3BD
  8
0
  6
CONTINUOUS
 62
     3
 10
139.502684601675
 20
156.0534749225347
 30
0.0
 11
139.502684601675
 21
63.64178516423392
 31
0.0
  0
LINE
  5
3BE
  8
0
  6
CONTINUOUS
 62
     3
 10
94.50268460167501
 20
156.0534749225347
 30
0.0
 11
94.50268460167501
 21
63.64178516423392
 31
0.0
  0
LINE
  5
3BF
  8
0
  6
CONTINUOUS
 62
     3
 10
94.50268460167501
 20
75.87334491765189
 30
0.0
 11
107.002684601675
 21
75.87334491765189
 31
0.0
  0
LINE
  5
3C0
  8
0
  6
CONTINUOUS
 62
     3
 10
127.002684601675
 20
155.8733449176519
 30
0.0
 11
127.002684601675
 21
75.87334491765189
 31
0.0
  0
LINE
  5
3C1
  8
0
  6
CONTINUOUS
 62
     3
 10
107.002684601675
 20
155.8733449176519
 30
0.0
 11
107.002684601675
 21
75.87334491765189
 31
0.0
  0
LINE
  5
3C2
  8
0
  6
CONTINUOUS
 62
     3
 10
130.252684601675
 20
75.87334491765189
 30
0.0
 11
130.252684601675
 21
70.01619770085502
 31
0.0
  0
LINE
  5
3C3
  8
0
  6
CONTINUOUS
 62
     3
 10
103.752684601675
 20
75.87334491765189
 30
0.0
 11
103.752684601675
 21
70.01619770085502
 31
0.0
  0
LINE
  5
3C4
  8
0
  6
CONTINUOUS
 62
     3
 10
127.002684601675
 20
75.87334491765189
 30
0.0
 11
139.502684601675
 21
75.87334491765189
 31
0.0
  0
LINE
  5
3C5
  8
0
  6
CONTINUOUS
 62
     3
 10
107.002684601675
 20
82.87334491765189
 30
0.0
 11
127.002684601675
 21
82.87334491765189
 31
0.0
  0
LINE
  5
3C6
  8
0
  6
CONTINUOUS
 62
     3
 10
107.002684601675
 20
143.8733449176519
 30
0.0
 11
127.002684601675
 21
143.8733449176519
 31
0.0
  0
LINE
  5
3C7
  8
0
  6
CONTINUOUS
 62
     3
 10
103.752684601675
 20
-34.2695116802485
 30
0.0
 11
103.752684601675
 21
-40.12665508234811
 31
0.0
  0
LINE
  5
3C8
  8
0
  6
CONTINUOUS
 62
     3
 10
130.252684601675
 20
-34.2695116802485
 30
0.0
 11
130.252684601675
 21
-40.12665508234811
 31
0.0
  0
LINE
  5
3C9
  8
0
  6
CONTINUOUS
 62
     3
 10
94.50268460167501
 20
-40.12665508234811
 30
0.0
 11
107.002684601675
 21
-40.12665508234811
 31
0.0
  0
LINE
  5
3CA
  8
0
  6
CONTINUOUS
 62
     3
 10
127.002684601675
 20
-40.12665508234811
 30
0.0
 11
139.502684601675
 21
-40.12665508234811
 31
0.0
  0
LINE
  5
3CB
  8
0
  6
CONTINUOUS
 62
     3
 10
107.002684601675
 20
-47.12665508234811
 30
0.0
 11
127.002684601675
 21
-47.12665508234811
 31
0.0
  0
CIRCLE
  5
3CC
  8
0
  6
CONTINUOUS
 62
     3
 10
164.1490469063625
 20
65.01970722233939
 30
0.0
 40
7.0
  0
CIRCLE
  5
3CD
  8
0
  6
CONTINUOUS
 62
     3
 10
69.85632229698754
 20
65.01970722233939
 30
0.0
 40
7.0
  0
ARC
  5
3CE
  8
0
  6
CONTINUOUS
 62
     3
 10
117.002684601675
 20
17.87334491765189
 30
0.0
 40
52.5
 50
115.3769488184461
 51
244.6230338787099
  0
ARC
  5
3CF
  8
0
  6
CONTINUOUS
 62
     3
 10
117.002684601675
 20
17.87334491765189
 30
0.0
 40
52.5
 50
295.3769301491114
 51
424.6230698508886
  0
CIRCLE
  5
3D0
  8
0
  6
CONTINUOUS
 62
     3
 10
117.002684601675
 20
17.87334491765189
 30
0.0
 40
51.0
  0
ARC
  5
3D1
  8
0
  6
CONTINUOUS
 62
     3
 10
117.002684601675
 20
17.87334491765189
 30
0.0
 40
53.79999923706055
 50
245.2780116814448
 51
294.7219833095989
  0
ARC
  5
3D2
  8
0
  6
CONTINUOUS
 62
     3
 10
117.002684601675
 20
17.87334491765189
 30
0.0
 40
53.79999923706055
 50
65.27801669040113
 51
114.7220019789336
  0
CIRCLE
  5
3D3
  8
0
  6
CONTINUOUS
 62
     3
 10
69.85633755577661
 20
65.01969196355033
 30
0.0
 40
10.0
  0
CIRCLE
  5
3D4
  8
0
  6
CONTINUOUS
 62
     3
 10
164.1490316475735
 20
65.01969196355033
 30
0.0
 40
10.0
  0
CIRCLE
  5
3D5
  8
0
  6
CONTINUOUS
 62
     3
 10
69.85633755577661
 20
-29.27300212824655
 30
0.0
 40
7.0
  0
CIRCLE
  5
3D6
  8
0
  6
CONTINUOUS
 62
     3
 10
69.85633755577661
 20
-29.27300212824655
 30
0.0
 40
10.0
  0
CIRCLE
  5
3D7
  8
0
  6
CONTINUOUS
 62
     3
 10
164.1490316475735
 20
-29.27300212824655
 30
0.0
 40
10.0
  0
LINE
  5
3D8
  8
0
  6
CONTINUOUS
 62
     3
 10
94.50268460167501
 20
-120.1266550823481
 30
0.0
 11
139.502684601675
 21
-120.1266550823481
 31
0.0
  0
LINE
  5
3D9
  8
0
  6
CONTINUOUS
 62
     3
 10
107.002684601675
 20
-108.1266550823481
 30
0.0
 11
127.002684601675
 21
-108.1266550823481
 31
0.0
  0
ARC
  5
3DA
  8
0
  6
CONTINUOUS
 62
     3
 10
117.002684601675
 20
17.87334491765189
 30
0.0
 40
137.0
 50
99.45273159877652
 51
260.5472374380011
  0
CIRCLE
  5
3DB
  8
0
  6
CONTINUOUS
 62
     3
 10
117.002684601675
 20
17.87334491765189
 30
0.0
 40
140.0
  0
LINE
  5
3DC
  8
0
  6
CONTINUOUS
 62
     3
 10
139.502684601675
 20
-27.89509532893014
 30
0.0
 11
139.502684601675
 21
-120.3067850872309
 31
0.0
  0
LINE
  5
3DD
  8
0
  6
CONTINUOUS
 62
     3
 10
94.50268460167501
 20
-27.89509532893014
 30
0.0
 11
94.50268460167501
 21
-120.3067850872309
 31
0.0
  0
LINE
  5
3DE
  8
0
  6
CONTINUOUS
 62
     3
 10
127.002684601675
 20
-40.12665508234811
 30
0.0
 11
127.002684601675
 21
-120.1266550823481
 31
0.0
  0
LINE
  5
3DF
  8
0
  6
CONTINUOUS
 62
     3
 10
107.002684601675
 20
-40.12665508234811
 30
0.0
 11
107.002684601675
 21
-120.1266550823481
 31
0.0
  0
ARC
  5
3E0
  8
0
  6
CONTINUOUS
 62
     3
 10
117.002684601675
 20
17.87334491765189
 30
0.0
 40
137.0
 50
279.4527129294419
 51
440.5472870705581
  0
CIRCLE
  5
3E1
  8
0
  6
CONTINUOUS
 62
     3
 10
117.0026333635055
 20
57.37334491765189
 30
0.0
 40
3.0
  0
CIRCLE
  5
3E2
  8
0
  6
CONTINUOUS
 62
     3
 10
117.0026333635055
 20
57.37334491765189
 30
0.0
 40
3.0
  0
CIRCLE
  5
3E3
  8
0
  6
CONTINUOUS
 62
     3
 10
117.002684601675
 20
17.87334491765189
 30
0.0
 40
35.0
  0
CIRCLE
  5
3E4
  8
0
  6
CONTINUOUS
 62
     3
 10
151.2107136702451
 20
-1.876610708791667
 30
0.0
 40
3.0
  0
CIRCLE
  5
3E5
  8
0
  6
CONTINUOUS
 62
     3
 10
151.2107136702451
 20
-1.876610708791667
 30
0.0
 40
3.0
  0
CIRCLE
  5
3E6
  8
0
  6
CONTINUOUS
 62
     3
 10
82.79470677127448
 20
-1.876699455904564
 30
0.0
 40
2.999999999999999
  0
CIRCLE
  5
3E7
  8
0
  6
CONTINUOUS
 62
     3
 10
82.79470677127448
 20
-1.876699455904564
 30
0.0
 40
2.999999999999999
  0
LINE
  5
3E8
  8
0
  6
CONTINUOUS
 62
     4
 10
-140.8762955909733
 20
62.07336321448588
 30
0.0
 11
-130.8762955909733
 21
62.07336321448588
 31
0.0
  0
LINE
  5
3E9
  8
0
  6
CONTINUOUS
 62
     4
 10
-140.8762955909733
 20
-26.32663449669576
 30
0.0
 11
-130.8762955909733
 21
-26.32663449669576
 31
0.0
  0
LINE
  5
3EA
  8
0
  6
CONTINUOUS
 62
     4
 10
-159.8762955909733
 20
-3.876634449012045
 30
0.0
 11
-159.8762955909733
 21
-17.12663468743062
 31
0.0
  0
LINE
  5
3EB
  8
0
  6
CONTINUOUS
 62
     4
 10
-189.8762955909733
 20
-3.876634449012045
 30
0.0
 11
-189.8762955909733
 21
-17.12663468743062
 31
0.0
  0
LINE
  5
3EC
  8
0
  6
CONTINUOUS
 62
     4
 10
-189.8762955909733
 20
52.87336626624369
 30
0.0
 11
-189.8762955909733
 21
39.62336626624369
 31
0.0
  0
LINE
  5
3ED
  8
0
  6
CONTINUOUS
 62
     4
 10
-159.8762955909733
 20
52.87336626624369
 30
0.0
 11
-159.8762955909733
 21
39.62336626624369
 31
0.0
  0
LINE
  5
3EE
  8
0
  6
CONTINUOUS
 62
     4
 10
-133.8762955909733
 20
136.0233601627281
 30
0.0
 11
-102.8762955909733
 21
136.0233601627281
 31
0.0
  0
LINE
  5
3EF
  8
0
  6
CONTINUOUS
 62
     4
 10
-133.8762955909733
 20
125.7233647403648
 30
0.0
 11
-102.8762955909733
 21
125.7233647403648
 31
0.0
  0
LINE
  5
3F0
  8
0
  6
CONTINUOUS
 62
     4
 10
-133.8762955909733
 20
90.72336474036479
 30
0.0
 11
-102.8762955909733
 21
90.72336474036479
 31
0.0
  0
LINE
  5
3F1
  8
0
  6
CONTINUOUS
 62
     4
 10
-133.8762955909733
 20
101.0233677921226
 30
0.0
 11
-102.8762955909733
 21
101.0233677921226
 31
0.0
  0
LINE
  5
3F2
  8
0
  6
CONTINUOUS
 62
     4
 10
-114.8762955909733
 20
82.87336626624369
 30
0.0
 11
-114.8762955909733
 21
75.87336626624369
 31
0.0
  0
LINE
  5
3F3
  8
0
  6
CONTINUOUS
 62
     4
 10
-115.8762955909733
 20
82.87336626624369
 30
0.0
 11
-115.8762955909733
 21
75.87336626624369
 31
0.0
  0
LINE
  5
3F4
  8
0
  6
CONTINUOUS
 62
     4
 10
-114.8762955909733
 20
155.8733662662437
 30
0.0
 11
-114.8762955909733
 21
143.8733662662437
 31
0.0
  0
LINE
  5
3F5
  8
0
  6
CONTINUOUS
 62
     4
 10
-115.8762955909733
 20
155.8733662662437
 30
0.0
 11
-115.8762955909733
 21
143.8733662662437
 31
0.0
  0
LINE
  5
3F6
  8
0
  6
CONTINUOUS
 62
     4
 10
-128.8762955909733
 20
-38.12663373375631
 30
0.0
 11
-128.8762955909733
 21
-46.12663373375631
 31
0.0
  0
LINE
  5
3F7
  8
0
  6
CONTINUOUS
 62
     4
 10
-128.8762955909733
 20
-46.12663373375631
 30
0.0
 11
-113.8762955909733
 21
-46.12663373375631
 31
0.0
  0
LINE
  5
3F8
  8
0
  6
CONTINUOUS
 62
     4
 10
-128.8762955909733
 20
-38.12663373375631
 30
0.0
 11
-113.8762955909733
 21
-38.12663373375631
 31
0.0
  0
CIRCLE
  5
3F9
  8
0
  6
CONTINUOUS
 62
     4
 10
117.002684601675
 20
17.87336626624369
 30
0.0
 40
44.20000076293945
  0
LINE
  5
3FA
  8
0
  6
CONTINUOUS
 62
     4
 10
-140.8762955909733
 20
59.87336626624369
 30
0.0
 11
-130.8762955909733
 21
59.87336626624369
 31
0.0
  0
LINE
  5
3FB
  8
0
  6
CONTINUOUS
 62
     4
 10
-140.8762955909733
 20
54.87336626624369
 30
0.0
 11
-130.8762955909733
 21
54.87336626624369
 31
0.0
  0
CIRCLE
  5
3FC
  8
0
  6
CONTINUOUS
 62
     4
 10
117.0026333635055
 20
57.37334491765189
 30
0.0
 40
2.5
  0
CIRCLE
  5
3FD
  8
0
  6
CONTINUOUS
 62
     4
 10
151.2107136702451
 20
-1.876610708791667
 30
0.0
 40
2.5
  0
CIRCLE
  5
3FE
  8
0
  6
CONTINUOUS
 62
     4
 10
82.79470677127448
 20
-1.876699455904564
 30
0.0
 40
2.499999999999999
  0
LINE
  5
3FF
  8
0
  6
CONTINUOUS
 62
     4
 10
95.50268460167501
 20
77.37334491765189
 30
0.0
 11
106.002684601675
 21
77.37334491765189
 31
0.0
  0
LINE
  5
400
  8
0
  6
CONTINUOUS
 62
     4
 10
128.002684601675
 20
77.37334491765189
 30
0.0
 11
138.502684601675
 21
77.37334491765189
 31
0.0
  0
LINE
  5
401
  8
0
  6
CONTINUOUS
 62
     4
 10
95.50268460167501
 20
154.3733449176519
 30
0.0
 11
106.002684601675
 21
154.3733449176519
 31
0.0
  0
LINE
  5
402
  8
0
  6
CONTINUOUS
 62
     4
 10
128.002684601675
 20
154.3733449176519
 30
0.0
 11
138.502684601675
 21
154.3733449176519
 31
0.0
  0
LINE
  5
403
  8
0
  6
CONTINUOUS
 62
     4
 10
128.002684601675
 20
78.87334491765189
 30
0.0
 11
138.502684601675
 21
78.87334491765189
 31
0.0
  0
LINE
  5
404
  8
0
  6
CONTINUOUS
 62
     4
 10
128.002684601675
 20
80.37334491765189
 30
0.0
 11
138.502684601675
 21
80.37334491765189
 31
0.0
  0
LINE
  5
405
  8
0
  6
CONTINUOUS
 62
     4
 10
128.002684601675
 20
81.87334491765189
 30
0.0
 11
138.502684601675
 21
81.87334491765189
 31
0.0
  0
LINE
  5
406
  8
0
  6
CONTINUOUS
 62
     4
 10
128.002684601675
 20
83.37334491765189
 30
0.0
 11
138.502684601675
 21
83.37334491765189
 31
0.0
  0
LINE
  5
407
  8
0
  6
CONTINUOUS
 62
     4
 10
128.002684601675
 20
84.87334491765189
 30
0.0
 11
138.502684601675
 21
84.87334491765189
 31
0.0
  0
LINE
  5
408
  8
0
  6
CONTINUOUS
 62
     4
 10
95.50268460167501
 20
78.87334491765189
 30
0.0
 11
106.002684601675
 21
78.87334491765189
 31
0.0
  0
LINE
  5
409
  8
0
  6
CONTINUOUS
 62
     4
 10
95.50268460167501
 20
80.37334491765189
 30
0.0
 11
106.002684601675
 21
80.37334491765189
 31
0.0
  0
LINE
  5
40A
  8
0
  6
CONTINUOUS
 62
     4
 10
95.50268460167501
 20
81.87334491765189
 30
0.0
 11
106.002684601675
 21
81.87334491765189
 31
0.0
  0
LINE
  5
40B
  8
0
  6
CONTINUOUS
 62
     4
 10
95.50268460167501
 20
83.37334491765189
 30
0.0
 11
106.002684601675
 21
83.37334491765189
 31
0.0
  0
LINE
  5
40C
  8
0
  6
CONTINUOUS
 62
     4
 10
95.50268460167501
 20
84.87334491765189
 30
0.0
 11
106.002684601675
 21
84.87334491765189
 31
0.0
  0
LINE
  5
40D
  8
0
  6
CONTINUOUS
 62
     4
 10
95.50268460167501
 20
152.8733449176519
 30
0.0
 11
106.002684601675
 21
152.8733449176519
 31
0.0
  0
LINE
  5
40E
  8
0
  6
CONTINUOUS
 62
     4
 10
95.50268460167501
 20
151.3733449176519
 30
0.0
 11
106.002684601675
 21
151.3733449176519
 31
0.0
  0
LINE
  5
40F
  8
0
  6
CONTINUOUS
 62
     4
 10
95.50268460167501
 20
149.8733449176519
 30
0.0
 11
106.002684601675
 21
149.8733449176519
 31
0.0
  0
LINE
  5
410
  8
0
  6
CONTINUOUS
 62
     4
 10
95.50268460167501
 20
148.3733449176519
 30
0.0
 11
106.002684601675
 21
148.3733449176519
 31
0.0
  0
LINE
  5
411
  8
0
  6
CONTINUOUS
 62
     4
 10
95.50268460167501
 20
146.8733449176519
 30
0.0
 11
106.002684601675
 21
146.8733449176519
 31
0.0
  0
LINE
  5
412
  8
0
  6
CONTINUOUS
 62
     4
 10
128.002684601675
 20
152.8733449176519
 30
0.0
 11
138.502684601675
 21
152.8733449176519
 31
0.0
  0
LINE
  5
413
  8
0
  6
CONTINUOUS
 62
     4
 10
128.002684601675
 20
151.3733449176519
 30
0.0
 11
138.502684601675
 21
151.3733449176519
 31
0.0
  0
LINE
  5
414
  8
0
  6
CONTINUOUS
 62
     4
 10
128.002684601675
 20
149.8733449176519
 30
0.0
 11
138.502684601675
 21
149.8733449176519
 31
0.0
  0
LINE
  5
415
  8
0
  6
CONTINUOUS
 62
     4
 10
128.002684601675
 20
148.3733449176519
 30
0.0
 11
138.502684601675
 21
148.3733449176519
 31
0.0
  0
LINE
  5
416
  8
0
  6
CONTINUOUS
 62
     4
 10
128.002684601675
 20
146.8733449176519
 30
0.0
 11
138.502684601675
 21
146.8733449176519
 31
0.0
  0
ARC
  5
417
  8
0
  6
CONTINUOUS
 62
     4
 10
117.002684601675
 20
17.87334491765189
 30
0.0
 40
57.0
 50
114.901075878593
 51
129.2199800772561
  0
ARC
  5
418
  8
0
  6
CONTINUOUS
 62
     4
 10
117.002684601675
 20
17.87334491765189
 30
0.0
 40
57.0
 50
294.9010640394474
 51
309.219964823016
  0
ARC
  5
419
  8
0
  6
CONTINUOUS
 62
     4
 10
117.002684601675
 20
17.87334491765189
 30
0.0
 40
63.0
 50
112.3927025662841
 51
125.3552951203228
  0
ARC
  5
41A
  8
0
  6
CONTINUOUS
 62
     4
 10
117.002684601675
 20
17.87334491765189
 30
0.0
 40
69.0
 50
110.3544238537906
 51
125.4753015440399
  0
ARC
  5
41B
  8
0
  6
CONTINUOUS
 62
     4
 10
117.002684601675
 20
17.87334491765189
 30
0.0
 40
75.0
 50
108.6629411662152
 51
128.5684483323285
  0
ARC
  5
41C
  8
0
  6
CONTINUOUS
 62
     4
 10
117.002684601675
 20
17.87334491765189
 30
0.0
 40
81.0
 50
107.2353018560883
 51
252.7646740108785
  0
ARC
  5
41D
  8
0
  6
CONTINUOUS
 62
     4
 10
117.002684601675
 20
17.87334491765189
 30
0.0
 40
87.0
 50
106.0134151645189
 51
253.9865675326371
  0
ARC
  5
41E
  8
0
  6
CONTINUOUS
 62
     4
 10
117.002684601675
 20
17.87334491765189
 30
0.0
 40
93.0
 50
104.9552685979222
 51
255.0447277596121
  0
ARC
  5
41F
  8
0
  6
CONTINUOUS
 62
     4
 10
117.002684601675
 20
17.87334491765189
 30
0.0
 40
99.0
 50
104.0296823427371
 51
255.9703003544189
  0
ARC
  5
420
  8
0
  6
CONTINUOUS
 62
     4
 10
117.002684601675
 20
17.87334491765189
 30
0.0
 40
63.0
 50
292.3926907271386
 51
305.3552696207989
  0
ARC
  5
421
  8
0
  6
CONTINUOUS
 62
     4
 10
117.002684601675
 20
17.87334491765189
 30
0.0
 40
69.0
 50
290.3544051844559
 51
305.4752794596107
  0
ARC
  5
422
  8
0
  6
CONTINUOUS
 62
     4
 10
117.002684601675
 20
17.87334491765189
 30
0.0
 40
75.0
 50
288.6629224968806
 51
308.5684296629939
  0
CIRCLE
  5
423
  8
0
  6
CONTINUOUS
 62
     4
 10
65.04116726769067
 20
47.87337543523002
 30
0.0
 40
3.150000095367432
  0
CIRCLE
  5
424
  8
0
  6
CONTINUOUS
 62
     4
 10
168.9642171944485
 20
47.87334491765189
 30
0.0
 40
3.150000095367432
  0
CIRCLE
  5
425
  8
0
  6
CONTINUOUS
 62
     4
 10
168.9642171944485
 20
47.87334491765189
 30
0.0
 40
4.0
  0
CIRCLE
  5
426
  8
0
  6
CONTINUOUS
 62
     4
 10
65.04116726769067
 20
47.87337543523002
 30
0.0
 40
4.0
  0
ARC
  5
427
  8
0
  6
CONTINUOUS
 62
     4
 10
117.002684601675
 20
17.87334491765189
 30
0.0
 40
105.0
 50
103.3713477293962
 51
256.786972413099
  0
ARC
  5
428
  8
0
  6
CONTINUOUS
 62
     4
 10
117.002684601675
 20
17.87334491765189
 30
0.0
 40
75.0
 50
141.4315933320518
 51
218.5683893651042
  0
ARC
  5
429
  8
0
  6
CONTINUOUS
 62
     4
 10
117.002684601675
 20
17.87334491765189
 30
0.0
 40
69.0
 50
144.5247401203405
 51
215.4752425768155
  0
ARC
  5
42A
  8
0
  6
CONTINUOUS
 62
     4
 10
117.002684601675
 20
17.87334491765189
 30
0.0
 40
57.0
 50
140.7800615871243
 51
145.4824555853813
  0
ARC
  5
42B
  8
0
  6
CONTINUOUS
 62
     4
 10
117.002684601675
 20
17.87334491765189
 30
0.0
 40
57.0
 50
154.5175254421226
 51
205.4824299342767
  0
ARC
  5
42C
  8
0
  6
CONTINUOUS
 62
     4
 10
117.002684601675
 20
17.87334491765189
 30
0.0
 40
57.0
 50
230.780019922744
 51
245.0989241214071
  0
ARC
  5
42D
  8
0
  6
CONTINUOUS
 62
     4
 10
117.002684601675
 20
17.87334491765189
 30
0.0
 40
63.0
 50
234.6447185400556
 51
247.6072974337159
  0
ARC
  5
42E
  8
0
  6
CONTINUOUS
 62
     4
 10
117.002684601675
 20
17.87334491765189
 30
0.0
 40
69.0
 50
234.5246984559601
 51
249.6455624858311
  0
ARC
  5
42F
  8
0
  6
CONTINUOUS
 62
     4
 10
117.002684601675
 20
17.87334491765189
 30
0.0
 40
75.0
 50
231.4315516676715
 51
251.3370451734064
  0
ARC
  5
430
  8
0
  6
CONTINUOUS
 62
     4
 10
117.002684601675
 20
17.87334491765189
 30
0.0
 40
57.0
 50
320.7800395026951
 51
325.4825018028437
  0
ARC
  5
431
  8
0
  6
CONTINUOUS
 62
     4
 10
117.002684601675
 20
17.87334491765189
 30
0.0
 40
69.0
 50
324.5247214510058
 51
395.4752751338996
  0
ARC
  5
432
  8
0
  6
CONTINUOUS
 62
     4
 10
117.002684601675
 20
17.87334491765189
 30
0.0
 40
75.0
 50
321.4315746627171
 51
398.5684219221883
  0
ARC
  5
433
  8
0
  6
CONTINUOUS
 62
     4
 10
117.002684601675
 20
17.87334491765189
 30
0.0
 40
57.0
 50
34.51752551791293
 51
39.21995708221039
  0
ARC
  5
434
  8
0
  6
CONTINUOUS
 62
     4
 10
117.002684601675
 20
17.87334491765189
 30
0.0
 40
57.0
 50
50.78003176188945
 51
65.09893596055257
  0
ARC
  5
435
  8
0
  6
CONTINUOUS
 62
     4
 10
117.002684601675
 20
17.87334491765189
 30
0.0
 40
63.0
 50
54.64472696410652
 51
67.60731610305059
  0
ARC
  5
436
  8
0
  6
CONTINUOUS
 62
     4
 10
117.002684601675
 20
17.87334491765189
 30
0.0
 40
69.0
 50
54.52472054038937
 51
69.64559481554412
  0
ARC
  5
437
  8
0
  6
CONTINUOUS
 62
     4
 10
117.002684601675
 20
17.87334491765189
 30
0.0
 40
75.0
 50
51.43157033700615
 51
71.33707750311943
  0
ARC
  5
438
  8
0
  6
CONTINUOUS
 62
     4
 10
117.002684601675
 20
17.87334491765189
 30
0.0
 40
81.0
 50
287.2352831867537
 51
432.7647168132463
  0
ARC
  5
439
  8
0
  6
CONTINUOUS
 62
     4
 10
117.002684601675
 20
17.87334491765189
 30
0.0
 40
87.0
 50
286.0133964951842
 51
433.9866035048158
  0
ARC
  5
43A
  8
0
  6
CONTINUOUS
 62
     4
 10
117.002684601675
 20
17.87334491765189
 30
0.0
 40
93.0
 50
284.9552499285875
 51
435.0447500714125
  0
ARC
  5
43B
  8
0
  6
CONTINUOUS
 62
     4
 10
117.002684601675
 20
17.87334491765189
 30
0.0
 40
99.0
 50
284.0296636734024
 51
435.9703363265976
  0
ARC
  5
43C
  8
0
  6
CONTINUOUS
 62
     4
 10
117.002684601675
 20
17.87334491765189
 30
0.0
 40
105.0
 50
283.212977954344
 51
436.787022045656
  0
CIRCLE
  5
43D
  8
0
  6
CONTINUOUS
 62
     4
 10
168.9642324532375
 20
-12.12662456476998
 30
0.0
 40
3.150000095367432
  0
CIRCLE
  5
43E
  8
0
  6
CONTINUOUS
 62
     4
 10
65.04115200890161
 20
-12.12665508234811
 30
0.0
 40
3.150000095367432
  0
CIRCLE
  5
43F
  8
0
  6
CONTINUOUS
 62
     4
 10
65.04115200890161
 20
-12.12665508234811
 30
0.0
 40
4.0
  0
CIRCLE
  5
440
  8
0
  6
CONTINUOUS
 62
     4
 10
168.9642324532375
 20
-12.12662456476998
 30
0.0
 40
4.0
  0
ARC
  5
441
  8
0
  6
CONTINUOUS
 62
     4
 10
117.002684601675
 20
17.87334491765189
 30
0.0
 40
63.0
 50
154.5175254421226
 51
205.7030313840898
  0
ARC
  5
442
  8
0
  6
CONTINUOUS
 62
     4
 10
117.002684601675
 20
17.87334491765189
 30
0.0
 40
57.0
 50
214.5175034334837
 51
219.2199384128757
  0
ARC
  5
443
  8
0
  6
CONTINUOUS
 62
     4
 10
117.002684601675
 20
17.87334491765189
 30
0.0
 40
63.0
 50
334.2969633795827
 51
385.4824676140027
  0
ARC
  5
444
  8
0
  6
CONTINUOUS
 62
     4
 10
117.002684601675
 20
17.87334491765189
 30
0.0
 40
57.0
 50
334.5175665369432
 51
385.4824676140027
  0
LINE
  5
445
  8
0
  6
CENTER
 62
     7
 10
-139.5661759620671
 20
-42.12663373375631
 30
0.0
 11
-108.0446915870671
 21
-42.12663373375631
 31
0.0
  0
LINE
  5
446
  8
0
  6
CENTER
 62
     7
 10
-235.7526993995671
 20
-48.80163678551412
 30
0.0
 11
-165.0284714942936
 21
-48.80163678551412
 31
0.0
  0
LINE
  5
447
  8
0
  6
CENTER
 62
     7
 10
-216.3760408843221
 20
17.87336626624369
 30
0.0
 11
-111.489818105491
 21
17.87336626624369
 31
0.0
  0
LINE
  5
448
  8
0
  6
CENTER
 62
     7
 10
-139.5821671730046
 20
95.87336626624369
 30
0.0
 11
-84.20361187515297
 21
95.87336626624369
 31
0.0
  0
LINE
  5
449
  8
0
  6
CENTER
 62
     7
 10
-139.8313431983952
 20
130.8733662662437
 30
0.0
 11
-84.20361187515297
 21
130.8733662662437
 31
0.0
  0
LINE
  5
44A
  8
0
  6
CENTER
 62
     7
 10
-37.36699771033668
 20
17.87336626624369
 30
0.0
 11
267.0899953926906
 21
17.87336626624369
 31
0.0
  0
LINE
  5
44B
  8
0
  6
CENTER
 62
     7
 10
-144.8944077735905
 20
57.37336626624369
 30
0.0
 11
-127.1536088233952
 21
57.37336626624369
 31
0.0
  0
LINE
  5
44C
  8
0
  6
CENTER
 62
     7
 10
112.8612377946579
 20
57.37334491765189
 30
0.0
 11
121.5403749470562
 21
57.37334491765189
 31
0.0
  0
LINE
  5
44D
  8
0
  6
CENTER
 62
     7
 10
77.50263336350552
 20
23.53936054265189
 30
0.0
 11
77.50263336350552
 21
11.87334491765189
 31
0.0
  0
LINE
  5
44E
  8
0
  6
CENTER
 62
     7
 10
156.5026333635055
 20
23.19460918461967
 30
0.0
 11
156.5026333635055
 21
11.87334491765189
 31
0.0
  0
LINE
  5
44F
  8
0
  6
CENTER
 62
     7
 10
153.2814114546689
 20
1.709943060950742
 30
0.0
 11
148.9418428784697
 21
-5.8064101959556
 31
0.0
  0
LINE
  5
450
  8
0
  6
CENTER
 62
     7
 10
84.86540455569833
 20
-5.463253225646945
 30
0.0
 11
80.52583597949914
 21
2.053100031259426
 31
0.0
  0
LINE
  5
451
  8
0
  6
CENTER
 62
     7
 10
57.50605227905945
 20
-16.47705427612156
 30
0.0
 11
117.0026965745296
 21
17.87334552864891
 31
0.0
  0
LINE
  5
452
  8
0
  6
CENTER
 62
     7
 10
57.94752121964794
 20
51.96891627432861
 30
0.0
 11
70.77521923236728
 21
44.56284219183927
 31
0.0
  0
LINE
  5
453
  8
0
  6
CENTER
 62
     7
 10
60.63450189235314
 20
-38.49485072498594
 30
0.0
 11
78.74712002324955
 21
-20.38223412086897
 31
0.0
  0
LINE
  5
454
  8
0
  6
CENTER
 62
     7
 10
61.37106566120852
 20
73.50496766601403
 30
0.0
 11
79.04123491325859
 21
55.83479990344775
 31
0.0
  0
LINE
  5
455
  8
0
  6
CENTER
 62
     7
 10
12.84457684410668
 20
117.8733449176519
 30
0.0
 11
53.92331982506372
 21
117.8733449176519
 31
0.0
  0
LINE
  5
456
  8
0
  6
CENTER
 62
     7
 10
102.2391653145657
 20
130.8733449176519
 30
0.0
 11
131.5643606270657
 21
130.8733449176519
 31
0.0
  0
LINE
  5
457
  8
0
  6
CENTER
 62
     7
 10
102.6704244698391
 20
95.87334491765189
 30
0.0
 11
131.5643606270657
 21
95.87334491765189
 31
0.0
  0
LINE
  5
458
  8
0
  6
CENTER
 62
     7
 10
102.2391653145657
 20
-95.12665508234811
 30
0.0
 11
131.5643606270657
 21
-95.12665508234811
 31
0.0
  0
LINE
  5
459
  8
0
  6
CENTER
 62
     7
 10
103.101675995718
 20
-60.12665508234811
 30
0.0
 11
131.5643606270657
 21
-60.12665508234811
 31
0.0
  0
LINE
  5
45A
  8
0
  6
CENTER
 62
     7
 10
155.5886052713896
 20
-20.71256400222289
 30
0.0
 11
175.4262448002038
 21
-40.55020185884921
 31
0.0
  0
LINE
  5
45B
  8
0
  6
CENTER
 62
     7
 10
117.002713591656
 20
17.87338882824444
 30
0.0
 11
176.2112571982483
 21
-16.31067598462566
 31
0.0
  0
LINE
  5
45C
  8
0
  6
CENTER
 62
     7
 10
163.5889961635225
 20
44.76995516531299
 30
0.0
 11
175.6331139915968
 21
51.72362906724796
 31
0.0
  0
LINE
  5
45D
  8
0
  6
CENTER
 62
     7
 10
155.0788738334096
 20
55.94951325500581
 30
0.0
 11
172.6343416096435
 21
73.50497955142448
 31
0.0
  0
ARC
  5
45E
  8
0
  6
CENTER
 62
     7
 10
117.002684601675
 20
17.87334491765189
 30
0.0
 40
66.67500305175781
 50
121.3816686461278
 51
149.2029962300707
  0
ARC
  5
45F
  8
0
  6
CENTER
 62
     7
 10
117.002684601675
 20
17.87334491765189
 30
0.0
 40
66.67500305175781
 50
300.0946989031901
 51
327.1187692411687
  0
ARC
  5
460
  8
0
  6
CENTER
 62
     7
 10
117.002684601675
 20
17.87334491765189
 30
0.0
 40
60.0
 50
320.9665958745902
 51
338.3231293764209
  0
ARC
  5
461
  8
0
  6
CENTER
 62
     7
 10
117.002684601675
 20
17.87334491765189
 30
0.0
 40
60.0
 50
142.3207200374474
 51
157.5476159239937
  0
ARC
  5
462
  8
0
  6
CENTER
 62
     7
 10
117.002684601675
 20
17.87334491765189
 30
0.0
 40
66.67500305175781
 50
31.01399022843864
 51
58.88687891042596
  0
ARC
  5
463
  8
0
  6
CENTER
 62
     7
 10
117.002684601675
 20
17.87334491765189
 30
0.0
 40
66.67500305175781
 50
213.3900441071897
 51
238.2322617412264
  0
ARC
  5
464
  8
0
  6
CENTER
 62
     7
 10
117.002684601675
 20
17.87334491765189
 30
0.0
 40
60.0
 50
201.9878082690404
 51
218.2535486075889
  0
ARC
  5
465
  8
0
  6
CENTER
 62
     7
 10
117.002684601675
 20
17.87334491765189
 30
0.0
 40
60.0
 50
20.85537132870323
 51
38.27396905197445
  0
LINE
  5
466
  8
0
  6
CENTER
 62
     7
 10
153.2814114546689
 20
1.709943060950735
 30
0.0
 11
148.9418428784698
 21
-5.806410195955607
 31
0.0
  0
LINE
  5
467
  8
0
  6
CENTER
 62
     7
 10
84.86540455569832
 20
-5.463253225646923
 30
0.0
 11
80.52583597949911
 21
2.05310003125939
 31
0.0
  0
LINE
  5
468
  8
0
  6
CENTER
 62
     7
 10
-160.1762986427311
 20
-84.51283477317051
 30
0.0
 11
-160.1762986427311
 21
-126.6792655664766
 31
0.0
  0
LINE
  5
469
  8
0
  6
CENTER
 62
     7
 10
117.002684601675
 20
162.6795775353543
 30
0.0
 11
117.002684601675
 21
40.16133992329662
 31
0.0
  0
LINE
  5
46A
  8
0
  6
CENTER
 62
     7
 10
117.002684601675
 20
32.13153751986656
 30
0.0
 11
117.002684601675
 21
-129.0960558071955
 31
0.0
  0
LINE
  5
46B
  8
0
  6
CONTINUOUS
 62
     7
 10
-111.8150964721137
 20
82.87336626624369
 30
0.0
 11
-89.57272900233934
 21
82.87336626624369
 31
0.0
  0
LINE
  5
46C
  8
0
  6
DASHED2
 62
     7
 10
-206.1762986427311
 20
-41.80163678551412
 30
0.0
 11
-169.3493027931217
 21
-41.80163678551412
 31
0.0
  0
LINE
  5
46D
  8
0
  6
DASHED2
 62
     7
 10
-206.1762986427311
 20
-55.80163678551412
 30
0.0
 11
-166.8404374366764
 21
-55.80163678551412
 31
0.0
  0
LINE
  5
46E
  8
0
  6
DASHED2
 62
     7
 10
42.00268460167504
 20
107.8733449176519
 30
0.0
 11
50.00268460167504
 21
107.8733449176519
 31
0.0
  0
LINE
  5
46F
  8
0
  6
DASHED2
 62
     7
 10
42.00268460167504
 20
127.8733449176519
 30
0.0
 11
50.00268460167504
 21
127.8733449176519
 31
0.0
  0
LINE
  5
470
  8
0
  6
DASHED2
 62
     7
 10
42.00268460167504
 20
136.0892567828863
 30
0.0
 11
42.00268460167504
 21
105.8733449176519
 31
0.0
  0
LINE
  5
471
  8
0
  6
DASHED2
 62
     7
 10
8.11742306603051
 20
105.8733449176519
 30
0.0
 11
42.00268460167504
 21
105.8733449176519
 31
0.0
  0
LINE
  5
472
  8
0
  6
DASHED2
 62
     7
 10
30.00268460167504
 20
120.2733464435308
 30
0.0
 11
30.00268460167504
 21
115.473343391773
 31
0.0
  0
LINE
  5
473
  8
0
  6
DASHED2
 62
     7
 10
32.70269680870629
 20
121.1733479694097
 30
0.0
 11
32.70269680870629
 21
114.5733418658941
 31
0.0
  0
LINE
  5
474
  8
0
  6
DASHED2
 62
     7
 10
38.44143582237817
 20
112.1733327106206
 30
0.0
 11
41.56393338097192
 21
112.1733327106206
 31
0.0
  0
LINE
  5
475
  8
0
  6
DASHED2
 62
     7
 10
38.44143582237817
 20
123.5733571246831
 30
0.0
 11
41.56393338097192
 21
123.5733571246831
 31
0.0
  0
LINE
  5
476
  8
0
  6
DASHED2
 62
     7
 10
32.70264929634965
 20
114.5732871506655
 30
0.0
 11
30.00264842791242
 21
115.4732873270527
 31
0.0
  0
LINE
  5
477
  8
0
  6
DASHED2
 62
     7
 10
32.70271609593979
 20
121.1733074335524
 30
0.0
 11
30.0027192988097
 21
120.2733086142674
 31
0.0
  0
LINE
  5
478
  8
0
  6
DASHED2
 62
     7
 10
33.70269680870629
 20
120.6186757281988
 30
0.0
 11
33.70269680870629
 21
115.0778660968511
 31
0.0
  0
LINE
  5
479
  8
0
  6
DASHED2
 62
     7
 10
38.00268460167504
 20
122.3233418658941
 30
0.0
 11
38.00268460167504
 21
113.4233479694097
 31
0.0
  0
LINE
  5
47A
  8
0
  6
DASHED2
 62
     7
 10
38.74657345665551
 20
120.7670216754644
 30
0.0
 11
41.25879574669457
 21
120.7670216754644
 31
0.0
  0
LINE
  5
47B
  8
0
  6
DASHED2
 62
     7
 10
38.74657345665551
 20
114.9796681598394
 30
0.0
 11
41.25879574669457
 21
114.9796681598394
 31
0.0
  0
LINE
  5
47C
  8
0
  6
DASHED2
 62
     7
 10
42.00267241728921
 20
122.6233748157949
 30
0.0
 11
50.00267842969061
 21
122.4837341988878
 31
0.0
  0
LINE
  5
47D
  8
0
  6
DASHED2
 62
     7
 10
42.00266749971037
 20
113.1233671825666
 30
0.0
 11
50.00266969799544
 21
113.2630077328981
 31
0.0
  0
LINE
  5
47E
  8
0
  6
DASHED2
 62
     7
 10
42.00267254952014
 20
113.9235074584414
 30
0.0
 11
50.00267093368889
 21
114.0631479421972
 31
0.0
  0
LINE
  5
47F
  8
0
  6
DASHED2
 62
     7
 10
42.00267746709898
 20
121.8232345399201
 30
0.0
 11
50.00267585126773
 21
121.6835940561642
 31
0.0
  0
ARC
  5
480
  8
0
  6
DASHED2
 62
     7
 10
32.70269680870629
 20
117.8733449176519
 30
0.0
 40
3.299999952316284
 50
73.48282241201397
 51
89.99998201391068
  0
ARC
  5
481
  8
0
  6
DASHED2
 62
     7
 10
32.70269680870629
 20
117.8733449176519
 30
0.0
 40
3.299999952316284
 50
270.0000179860894
 51
286.5171775879861
  0
ARC
  5
482
  8
0
  6
DASHED2
 62
     7
 10
40.00268460167504
 20
122.3233571246831
 30
0.0
 40
2.0
 50
0.0
 51
38.68218896809866
  0
ARC
  5
483
  8
0
  6
DASHED2
 62
     7
 10
40.00268460167504
 20
113.4233327106206
 30
0.0
 40
2.0
 50
0.0
 51
51.09316519948326
  0
ARC
  5
484
  8
0
  6
DASHED2
 62
     7
 10
36.00268460167504
 20
117.8733449176519
 30
0.0
 40
6.0
 50
0.0
 51
28.83423780766658
  0
ARC
  5
485
  8
0
  6
DASHED2
 62
     7
 10
44.00268460167504
 20
117.8733449176519
 30
0.0
 40
6.0
 50
151.1657740314788
 51
208.8342086656771
  0
ARC
  5
486
  8
0
  6
DASHED2
 62
     7
 10
36.00268460167504
 20
117.8733449176519
 30
0.0
 40
6.0
 50
331.1657621923334
 51
360.0
  0
ARC
  5
487
  8
0
  6
DASHED2
 62
     7
 10
40.00268460167504
 20
122.3233571246831
 30
0.0
 40
2.0
 50
308.9068348005167
 51
360.0
  0
ARC
  5
488
  8
0
  6
DASHED2
 62
     7
 10
40.00268460167504
 20
122.3233571246831
 30
0.0
 40
2.0
 50
141.3178297012362
 51
231.0931121518317
  0
ARC
  5
489
  8
0
  6
DASHED2
 62
     7
 10
40.00268460167504
 20
113.4233327106206
 30
0.0
 40
2.0
 50
128.9068568849459
 51
218.6821529959199
  0
ARC
  5
48A
  8
0
  6
DASHED2
 62
     7
 10
40.00268460167504
 20
113.4233327106206
 30
0.0
 40
2.0
 50
321.3178110319012
 51
360.0
  0
ARC
  5
48B
  8
0
  6
DASHED2
 62
     7
 10
34.03588772667504
 20
126.6733327106206
 30
0.0
 40
5.650000095367432
 50
265.9910930942637
 51
315.0592540539054
  0
ARC
  5
48C
  8
0
  6
DASHED2
 62
     7
 10
34.03588772667504
 20
109.0733571246831
 30
0.0
 40
5.650000095367432
 50
44.94074594609464
 51
94.00890690573625
  0
ARC
  5
48D
  8
0
  6
DASHED2
 62
     7
 10
30.70269680870629
 20
117.8733449176519
 30
0.0
 40
1.5
 50
117.818154050457
 51
242.1818423070773
  0
LINE
  5
48E
  8
0
  6
DASHED2
 62
     7
 10
-166.1762986427311
 20
-97.12663373375631
 30
0.0
 11
-154.1762986427311
 21
-97.12663373375631
 31
0.0
  0
LINE
  5
48F
  8
0
  6
DASHED2
 62
     7
 10
-154.1762986427311
 20
-97.12663373375631
 30
0.0
 11
-154.1762986427311
 21
-122.1266337337563
 31
0.0
  0
LINE
  5
490
  8
0
  6
DASHED2
 62
     7
 10
-166.1762986427311
 20
-97.12663373375631
 30
0.0
 11
-166.1762986427311
 21
-122.1266337337563
 31
0.0
  0
LINE
  5
491
  8
0
  6
DASHED2
 62
     7
 10
-165.3262986427311
 20
-90.12663373375631
 30
0.0
 11
-155.0262986427311
 21
-90.12663373375631
 31
0.0
  0
LINE
  5
492
  8
0
  6
DASHED2
 62
     7
 10
-155.0262986427311
 20
-90.12663373375631
 30
0.0
 11
-155.0262986427311
 21
-122.1266337337563
 31
0.0
  0
LINE
  5
493
  8
0
  6
DASHED2
 62
     7
 10
-165.3262986427311
 20
-90.12663373375631
 30
0.0
 11
-165.3262986427311
 21
-122.1266337337563
 31
0.0
  0
LINE
  5
494
  8
0
  6
DASHED2
 62
     7
 10
-165.3262986427312
 20
-90.12663373375635
 30
0.0
 11
-160.1762986427311
 21
-87.15327984742974
 31
0.0
  0
LINE
  5
495
  8
0
  6
DASHED2
 62
     7
 10
-155.0262986427311
 20
-90.12663373375635
 30
0.0
 11
-160.1762986427311
 21
-87.15327984742974
 31
0.0
  0
LINE
  5
496
  8
0
  6
DASHED2
 62
     7
 10
2.04198656488721
 20
23.87334491765028
 30
0.0
 11
2.04198656488721
 21
11.87334491765027
 31
0.0
  0
LINE
  5
497
  8
0
  6
DASHED2
 62
     7
 10
2.04198656488721
 20
23.87334491765028
 30
0.0
 11
-22.95801343511279
 21
23.87334491765027
 31
0.0
  0
LINE
  5
498
  8
0
  6
DASHED2
 62
     7
 10
9.041986564887209
 20
23.02334491765028
 30
0.0
 11
9.041986564887209
 21
12.72334491765027
 31
0.0
  0
LINE
  5
499
  8
0
  6
DASHED2
 62
     7
 10
9.041986564887209
 20
23.02334491765028
 30
0.0
 11
-22.95801343511279
 21
23.02334491765028
 31
0.0
  0
LINE
  5
49A
  8
0
  6
DASHED2
 62
     7
 10
9.04198656488717
 20
23.02334491765034
 30
0.0
 11
12.01534045121378
 21
17.87334491765028
 31
0.0
  0
LINE
  5
49B
  8
0
  6
DASHED2
 62
     7
 10
2.04198656488721
 20
11.87334491765027
 30
0.0
 11
-22.86868487757178
 21
11.87334491765027
 31
0.0
  0
LINE
  5
49C
  8
0
  6
DASHED2
 62
     7
 10
9.041986564887209
 20
12.72334491765027
 30
0.0
 11
-22.95801343511279
 21
12.72334491765027
 31
0.0
  0
LINE
  5
49D
  8
0
  6
DASHED2
 62
     7
 10
9.04198656488717
 20
12.72334491765021
 30
0.0
 11
12.01534045121378
 21
17.87334491765028
 31
0.0
  0
LINE
  5
49E
  8
LAYER0014
  6
CONTINUOUS
 62
     7
 10
-113.8762955909733
 20
0.6352142391135658
 30
0.0
 11
-100.0444169288639
 21
0.6352142391135658
 31
0.0
  0
LINE
  5
49F
  8
LAYER0014
  6
CONTINUOUS
 62
     7
 10
-206.1762986427311
 20
169.0043477115562
 30
0.0
 11
-238.557101074402
 21
169.0043477115562
 31
0.0
  0
LINE
  5
4A0
  8
LAYER0014
  6
CONTINUOUS
 62
     7
 10
-206.1762986427311
 20
147.9133662662437
 30
0.0
 11
-206.1762986427311
 21
171.2903431949546
 31
0.0
  0
LINE
  5
4A1
  8
LAYER0014
  6
CONTINUOUS
 62
     7
 10
-190.8762955909733
 20
70.61337084388042
 30
0.0
 11
-190.8762955909733
 21
171.2903431949546
 31
0.0
  0
LINE
  5
4A2
  8
LAYER0014
  6
CONTINUOUS
 62
     7
 10
-113.8762955909733
 20
169.312895685189
 30
0.0
 11
-106.5347504859928
 21
169.312895685189
 31
0.0
  0
LINE
  5
4A3
  8
LAYER0014
  6
CONTINUOUS
 62
     7
 10
-130.34404735004
 20
-27.12663373375631
 30
0.0
 11
-80.61164114703094
 21
-27.12663373375631
 31
0.0
  0
LINE
  5
4A4
  8
LAYER0014
  6
CONTINUOUS
 62
     7
 10
-206.1762986427311
 20
169.0043477115562
 30
0.0
 11
-190.8762955909733
 21
169.0043477115562
 31
0.0
  0
LINE
  5
4A5
  8
LAYER0014
  6
CONTINUOUS
 62
     7
 10
-82.16776246104162
 20
51.87336626624369
 30
0.0
 11
-82.16776246104162
 21
-27.12663373375631
 31
0.0
  0
INSERT
  5
4A6
  8
LAYER0014
  6
DOT2
  2
DC_GROUP_1
 10
0.0
 20
0.0
 30
0.0
  0
INSERT
  5
4A7
  8
LAYER0014
  6
CONTINUOUS
  2
DC_GROUP_2
 10
0.0
 20
0.0
 30
0.0
  0
INSERT
  5
4A8
  8
LAYER0014
  6
CONTINUOUS
  2
DC_GROUP_3
 10
0.0
 20
0.0
 30
0.0
  0
TEXT
  5
4A9
  8
LAYER0014
 62
     7
 10
-237.3312985070167
 20
170.6238929523155
 30
0.0
 40
4.0
  1
MAX30.3
 50
-0.1000000000000078
 41
0.7999999999999984
  7
FDASTYLE1
 72
     5
 11
-214.9313326241591
 21
170.5847975969194
 31
0.0
  0
TEXT
  5
4AA
  8
LAYER0014
 62
     7
 10
-83.76776246104161
 20
5.201757532112836
 30
0.0
 40
4.0
  1
M90×1.25
 50
90.0
 41
0.7614515169541938
  7
FDASTYLE1
 72
     5
 11
-83.76776246104161
 21
30.17736728821039
 31
0.0
  0
INSERT
  5
4AB
  8
LAYER0014
  6
CONTINUOUS
  2
DC_GROUP_4
 10
0.0
 20
0.0
 30
0.0
  0
INSERT
  5
4AC
  8
LAYER0014
  6
CONTINUOUS
  2
DC_GROUP_7
 10
0.0
 20
0.0
 30
0.0
  0
INSERT
  5
4AD
  8
LAYER0014
  6
CONTINUOUS
  2
DC_GROUP_10
 10
0.0
 20
0.0
 30
0.0
  0
INSERT
  5
4AE
  8
LAYER0014
  6
CONTINUOUS
  2
DC_GROUP_13
 10
0.0
 20
0.0
 30
0.0
  0
INSERT
  5
4AF
  8
LAYER0014
  6
CONTINUOUS
  2
DC_GROUP_16
 10
0.0
 20
0.0
 30
0.0
  0
INSERT
  5
4B0
  8
LAYER0014
  6
CONTINUOUS
  2
DC_GROUP_19
 10
0.0
 20
0.0
 30
0.0
  0
INSERT
  5
4B1
  8
LAYER0014
  6
CONTINUOUS
  2
DC_GROUP_22
 10
0.0
 20
0.0
 30
0.0
  0
INSERT
  5
4B2
  8
LAYER0014
  6
CONTINUOUS
  2
DC_GROUP_25
 10
0.0
 20
0.0
 30
0.0
  0
INSERT
  5
4B3
  8
LAYER0014
  6
CONTINUOUS
  2
DC_GROUP_28
 10
0.0
 20
0.0
 30
0.0
  0
INSERT
  5
4B4
  8
LAYER0014
  6
CONTINUOUS
  2
DC_GROUP_31
 10
0.0
 20
0.0
 30
0.0
  0
INSERT
  5
4B5
  8
LAYER0014
  6
CONTINUOUS
  2
DC_GROUP_34
 10
0.0
 20
0.0
 30
0.0
  0
INSERT
  5
4B6
  8
LAYER0014
  6
CONTINUOUS
  2
DC_GROUP_36
 10
0.0
 20
0.0
 30
0.0
  0
INSERT
  5
4B7
  8
LAYER0014
  6
CONTINUOUS
  2
DC_GROUP_38
 10
0.0
 20
0.0
 30
0.0
  0
INSERT
  5
4B8
  8
LAYER0014
  6
CONTINUOUS
  2
DC_GROUP_40
 10
0.0
 20
0.0
 30
0.0
  0
INSERT
  5
4B9
  8
LAYER0014
  6
CONTINUOUS
  2
DC_GROUP_43
 10
0.0
 20
0.0
 30
0.0
  0
INSERT
  5
4BA
  8
LAYER0014
  6
CONTINUOUS
  2
DC_GROUP_46
 10
0.0
 20
0.0
 30
0.0
  0
INSERT
  5
4BB
  8
LAYER0014
  6
CONTINUOUS
  2
DC_GROUP_48
 10
0.0
 20
0.0
 30
0.0
  0
INSERT
  5
4BC
  8
LAYER0014
  6
CONTINUOUS
  2
DC_GROUP_51
 10
0.0
 20
0.0
 30
0.0
  0
INSERT
  5
4BD
  8
LAYER0014
  6
CONTINUOUS
  2
DC_GROUP_54
 10
0.0
 20
0.0
 30
0.0
  0
INSERT
  5
4BE
  8
LAYER0014
  6
CONTINUOUS
  2
DC_GROUP_57
 10
0.0
 20
0.0
 30
0.0
  0
INSERT
  5
4BF
  8
LAYER0014
  6
CONTINUOUS
  2
DC_GROUP_60
 10
0.0
 20
0.0
 30
0.0
  0
INSERT
  5
4C0
  8
LAYER0014
  6
CONTINUOUS
  2
DC_GROUP_63
 10
0.0
 20
0.0
 30
0.0
  0
INSERT
  5
4C1
  8
LAYER0014
  6
CONTINUOUS
  2
DC_GROUP_66
 10
0.0
 20
0.0
 30
0.0
  0
INSERT
  5
4C2
  8
LAYER0014
  6
CONTINUOUS
  2
DC_GROUP_68
 10
0.0
 20
0.0
 30
0.0
  0
INSERT
  5
4C3
  8
LAYER0014
  6
CONTINUOUS
  2
DC_GROUP_70
 10
0.0
 20
0.0
 30
0.0
  0
INSERT
  5
4C4
  8
0
  6
CONTINUOUS
  2
DC_GROUP_71
 10
0.0
 20
0.0
 30
0.0
  0
INSERT
  5
4C5
  8
0
  6
CONTINUOUS
  2
DC_GROUP_74
 10
0.0
 20
0.0
 30
0.0
  0
INSERT
  5
4C6
  8
0
  6
CONTINUOUS
  2
DC_GROUP_77
 10
0.0
 20
0.0
 30
0.0
  0
INSERT
  5
4C7
  8
0
  6
CONTINUOUS
  2
DC_GROUP_80
 10
0.0
 20
0.0
 30
0.0
  0
INSERT
  5
4C8
  8
0
  6
CONTINUOUS
  2
DC_GROUP_82
 10
0.0
 20
0.0
 30
0.0
  0
INSERT
  5
4C9
  8
0
  6
CONTINUOUS
  2
DC_GROUP_85
 10
0.0
 20
0.0
 30
0.0
  0
INSERT
  5
4CA
  8
0
  6
CONTINUOUS
  2
DC_GROUP_90
 10
0.0
 20
0.0
 30
0.0
  0
INSERT
  5
4CB
  8
0
  6
CONTINUOUS
  2
DC_GROUP_93
 10
0.0
 20
0.0
 30
0.0
  0
INSERT
  5
4CC
  8
0
  6
CONTINUOUS
  2
DC_GROUP_96
 10
0.0
 20
0.0
 30
0.0
  0
LINE
  5
4CD
  8
0
  6
CONTINUOUS
 62
     6
 10
-81.66228477411087
 20
-150.0369063471397
 30
0.0
 11
54.00582893438522
 21
-150.0369063471397
 31
0.0
  0
LINE
  5
4CE
  8
0
  6
CONTINUOUS
 62
     6
 10
-81.66228477411087
 20
-157.0957900141318
 30
0.0
 11
54.00582893438522
 21
-157.0957900141318
 31
0.0
  0
LINE
  5
4CF
  8
0
  6
CONTINUOUS
 62
     6
 10
-79.94615812361295
 20
-121.808718186216
 30
0.0
 11
-56.77035780012662
 21
-121.808718186216
 31
0.0
  0
LINE
  5
4D0
  8
0
  6
CONTINUOUS
 62
     6
 10
-81.66228477411087
 20
-164.154673681124
 30
0.0
 11
54.00582893438522
 21
-164.154673681124
 31
0.0
  0
LINE
  5
4D1
  8
0
  6
CONTINUOUS
 62
     6
 10
-81.66228477411087
 20
-171.2135573481162
 30
0.0
 11
54.00582893438522
 21
-171.2135573481162
 31
0.0
  0
LINE
  5
4D2
  8
0
  6
CONTINUOUS
 62
     6
 10
-81.66228477411087
 20
-178.2724257563193
 30
0.0
 11
54.00582893438522
 21
-178.2724257563193
 31
0.0
  0
LINE
  5
4D3
  8
0
  6
CONTINUOUS
 62
     6
 10
-81.5263964658981
 20
-128.8675942238136
 30
0.0
 11
54.14171724259799
 21
-128.8675942238136
 31
0.0
  0
LINE
  5
4D4
  8
0
  6
CONTINUOUS
 62
     6
 10
-81.5263964658981
 20
-135.9264626320168
 30
0.0
 11
54.14171724259799
 21
-135.9264626320168
 31
0.0
  0
LINE
  5
4D5
  8
0
  6
CONTINUOUS
 62
     6
 10
-81.66228477411087
 20
-142.9780379389365
 30
0.0
 11
54.00582893438522
 21
-142.9780379389365
 31
0.0
  0
LINE
  5
4D6
  8
0
  6
CONTINUOUS
 62
     2
 10
111.9364492028026
 20
98.79835572049463
 30
0.0
 11
117.0027061479987
 21
101.7233535419394
 31
0.0
  0
LINE
  5
4D7
  8
0
  6
CONTINUOUS
 62
     2
 10
117.002721305537
 20
101.7233854931095
 30
0.0
 11
122.0689643210509
 21
98.79837893362021
 31
0.0
  0
LINE
  5
4D8
  8
0
  6
CONTINUOUS
 62
     2
 10
122.0689382637844
 20
98.79834034001517
 30
0.0
 11
122.0689382637844
 21
92.94834186589408
 31
0.0
  0
LINE
  5
4D9
  8
0
  6
CONTINUOUS
 62
     2
 10
122.0689440752323
 20
92.94835107982301
 30
0.0
 11
117.0026871300362
 21
90.02335325837824
 31
0.0
  0
LINE
  5
4DA
  8
0
  6
CONTINUOUS
 62
     2
 10
117.0026630201989
 20
90.02332982719538
 30
0.0
 11
111.9364182612495
 21
92.9483332485009
 31
0.0
  0
LINE
  5
4DB
  8
0
  6
CONTINUOUS
 62
     2
 10
111.9364309395657
 20
92.94834949528861
 30
0.0
 11
111.9364309395657
 21
98.7983479694097
 31
0.0
  0
LINE
  5
4DC
  8
0
  6
CONTINUOUS
 62
     2
 10
111.9364611810135
 20
133.7983673263046
 30
0.0
 11
117.0027049117026
 21
136.7233575183685
 31
0.0
  0
LINE
  5
4DD
  8
0
  6
CONTINUOUS
 62
     2
 10
117.0027204574882
 20
136.7233722065274
 30
0.0
 11
122.0689634730021
 21
133.7983656470381
 31
0.0
  0
LINE
  5
4DE
  8
0
  6
CONTINUOUS
 62
     2
 10
122.0689382637844
 20
133.7983327106206
 30
0.0
 11
122.0689382637844
 21
127.9483418658941
 31
0.0
  0
LINE
  5
4DF
  8
0
  6
CONTINUOUS
 62
     2
 10
122.0689324854471
 20
127.9483424714311
 30
0.0
 11
117.0026755402511
 21
125.0233446499863
 31
0.0
  0
LINE
  5
4E0
  8
0
  6
CONTINUOUS
 62
     2
 10
117.0026681478681
 20
125.0233179565833
 30
0.0
 11
111.9364200852957
 21
127.9483232852402
 31
0.0
  0
LINE
  5
4E1
  8
0
  6
CONTINUOUS
 62
     2
 10
111.9364309395657
 20
127.9483571246831
 30
0.0
 11
111.9364309395657
 21
133.7983479694097
 31
0.0
  0
LINE
  5
4E2
  8
0
  6
CONTINUOUS
 62
     2
 10
111.9364372736469
 20
-92.20166153377129
 30
0.0
 11
117.002694218843
 21
-89.27666371232651
 31
0.0
  0
LINE
  5
4E3
  8
0
  6
CONTINUOUS
 62
     2
 10
117.0026835405446
 20
-89.27665684316109
 30
0.0
 11
122.0689331633024
 21
-92.20166721735716
 31
0.0
  0
LINE
  5
4E4
  8
0
  6
CONTINUOUS
 62
     2
 10
122.0689382637844
 20
-92.20165965998483
 30
0.0
 11
122.0689382637844
 21
-98.05165813410592
 31
0.0
  0
LINE
  5
4E5
  8
0
  6
CONTINUOUS
 62
     2
 10
122.0689344960307
 20
-98.05166261528431
 30
0.0
 11
117.0026841580881
 21
-100.9766566220387
 31
0.0
  0
LINE
  5
4E6
  8
0
  6
CONTINUOUS
 62
     2
 10
117.002680260469
 20
-100.9766504433543
 30
0.0
 11
111.9364288942735
 21
-98.05164320734609
 31
0.0
  0
LINE
  5
4E7
  8
0
  6
CONTINUOUS
 62
     2
 10
111.9364309395657
 20
-98.05165050471139
 30
0.0
 11
111.9364309395657
 21
-92.2016520305903
 31
0.0
  0
LINE
  5
4E8
  8
0
  6
CONTINUOUS
 62
     2
 10
111.9364350836783
 20
-57.20165590552885
 30
0.0
 11
117.0026920288743
 21
-54.27665808408408
 31
0.0
  0
LINE
  5
4E9
  8
0
  6
CONTINUOUS
 62
     2
 10
117.0026983596684
 20
-54.27665825224572
 30
0.0
 11
122.0689479824262
 21
-57.20166862644179
 31
0.0
  0
LINE
  5
4EA
  8
0
  6
CONTINUOUS
 62
     2
 10
122.0689382637844
 20
-57.20165965998483
 30
0.0
 11
122.0689382637844
 21
-63.05165813410592
 31
0.0
  0
LINE
  5
4EB
  8
0
  6
CONTINUOUS
 62
     2
 10
122.0689366318162
 20
-63.05167210889401
 30
0.0
 11
117.0026862938736
 21
-65.97666611564834
 31
0.0
  0
LINE
  5
4EC
  8
0
  6
CONTINUOUS
 62
     2
 10
117.002672590879
 20
-65.97665396189341
 30
0.0
 11
111.9364212246835
 21
-63.05164672588516
 31
0.0
  0
LINE
  5
4ED
  8
0
  6
CONTINUOUS
 62
     2
 10
111.9364309395657
 20
-63.05165050471139
 30
0.0
 11
111.9364309395657
 21
-57.2016520305903
 31
0.0
  0
LINE
  5
4EE
  8
0
  6
CONTINUOUS
 62
     2
 10
159.0827933545194
 20
-26.34800230546459
 30
0.0
 11
164.1490502997155
 21
-23.42300448401981
 31
0.0
  0
LINE
  5
4EF
  8
0
  6
CONTINUOUS
 62
     2
 10
164.1490630569521
 20
-23.42299594549483
 30
0.0
 11
169.2153126797099
 21
-26.3480063196909
 31
0.0
  0
LINE
  5
4F0
  8
0
  6
CONTINUOUS
 62
     2
 10
169.2152853096828
 20
-26.34801052058053
 30
0.0
 11
169.2152853096828
 21
-32.19800899470162
 31
0.0
  0
LINE
  5
4F1
  8
0
  6
CONTINUOUS
 62
     2
 10
169.2152910879669
 20
-32.19801190157629
 30
0.0
 11
164.1490341427708
 21
-35.12300972302107
 31
0.0
  0
LINE
  5
4F2
  8
0
  6
CONTINUOUS
 62
     2
 10
164.1490310165751
 20
-35.12300132025727
 30
0.0
 11
159.0827796503796
 21
-32.19799408424903
 31
0.0
  0
LINE
  5
4F3
  8
0
  6
CONTINUOUS
 62
     2
 10
159.0827779854641
 20
-32.19799755060983
 30
0.0
 11
159.0827779854641
 21
-26.34799907648873
 31
0.0
  0
CIRCLE
  5
4F4
  8
0
  6
CONTINUOUS
 62
     2
 10
117.002684601675
 20
95.87334491765189
 30
0.0
 40
9.0
  0
CIRCLE
  5
4F5
  8
0
  6
CONTINUOUS
 62
     2
 10
117.002684601675
 20
130.8733449176519
 30
0.0
 40
9.0
  0
CIRCLE
  5
4F6
  8
0
  6
CONTINUOUS
 62
     2
 10
117.002684601675
 20
-60.12665508234811
 30
0.0
 40
9.0
  0
CIRCLE
  5
4F7
  8
0
  6
CONTINUOUS
 62
     2
 10
164.1490316475735
 20
-29.27300212824655
 30
0.0
 40
9.0
  0
CIRCLE
  5
4F8
  8
0
  6
CONTINUOUS
 62
     2
 10
117.002684601675
 20
-95.12665508234811
 30
0.0
 40
9.0
  0
LINE
  5
4F9
  8
0
  6
CONTINUOUS
 62
     5
 10
231.9830770577297
 20
31.45244457280326
 30
0.0
 11
231.9830770577297
 21
26.95243885075736
 31
0.0
  0
LINE
  5
4FA
  8
0
  6
CONTINUOUS
 62
     5
 10
232.733071467496
 20
30.70248161977209
 30
0.0
 11
231.9830760661004
 21
31.45247708438758
 31
0.0
  0
LINE
  5
4FB
  8
0
  6
CONTINUOUS
 62
     5
 10
231.2331188996419
 20
30.70241243241647
 30
0.0
 11
231.9831250274098
 21
31.4524187498467
 31
0.0
  0
LINE
  5
4FC
  8
0
  6
CONTINUOUS
 62
     5
 10
231.9831471755839
 20
26.95238141425519
 30
0.0
 11
232.7331533033518
 21
27.70238773168542
 31
0.0
  0
LINE
  5
4FD
  8
0
  6
CONTINUOUS
 62
     5
 10
231.9830866660328
 20
26.95247211757335
 30
0.0
 11
231.2330804750442
 21
27.70247837178279
 31
0.0
  0
LINE
  5
4FE
  8
0
  6
CONTINUOUS
 62
     5
 10
224.4830617989407
 20
32.20245601689506
 30
0.0
 11
239.4830617989407
 21
32.20245601689506
 31
0.0
  0
LINE
  5
4FF
  8
0
  6
CONTINUOUS
 62
     5
 10
233.8588415041275
 20
37.72951029408826
 30
0.0
 11
232.8844155585073
 21
37.57517654002034
 31
0.0
  0
LINE
  5
500
  8
0
  6
CONTINUOUS
 62
     5
 10
233.8588782920506
 20
37.72951960052126
 30
0.0
 11
233.7045467315389
 21
38.70393048993075
 31
0.0
  0
LINE
  5
501
  8
0
  6
CONTINUOUS
 62
     5
 10
239.4830617989407
 20
32.20245601689506
 30
0.0
 11
239.4830617989407
 21
39.70245792424369
 31
0.0
  0
LINE
  5
502
  8
0
  6
CONTINUOUS
 62
     5
 10
224.4830617989407
 20
39.70245029484916
 30
0.0
 11
239.4830617989407
 21
39.70245029484916
 31
0.0
  0
LINE
  5
503
  8
0
  6
CONTINUOUS
 62
     5
 10
224.4830617989407
 20
32.20245410954642
 30
0.0
 11
224.4830617989407
 21
43.45245410954642
 31
0.0
  0
LINE
  5
504
  8
0
  6
CONTINUOUS
 62
     5
 10
224.4830617989407
 20
43.45245029484916
 30
0.0
 11
226.7330617989407
 21
43.45245029484916
 31
0.0
  0
LINE
  5
505
  8
0
  6
CONTINUOUS
 62
     5
 10
226.7330617989407
 20
42.32744266545463
 30
0.0
 11
226.7330617989407
 21
43.4524350360601
 31
0.0
  0
LINE
  5
506
  8
0
  6
CONTINUOUS
 62
     5
 10
226.7330617989407
 20
42.32745029484916
 30
0.0
 11
228.2330617989407
 21
42.32745029484916
 31
0.0
  0
LINE
  5
507
  8
0
  6
CONTINUOUS
 62
     5
 10
228.2330465401516
 20
41.20245410954642
 30
0.0
 11
228.2330465401516
 21
42.32745410954642
 31
0.0
  0
LINE
  5
508
  8
0
  6
CONTINUOUS
 62
     5
 10
228.2330770577297
 20
41.20243885075736
 30
0.0
 11
229.7330770577297
 21
41.20243885075736
 31
0.0
  0
LINE
  5
509
  8
0
  6
CONTINUOUS
 62
     5
 10
229.7330465401516
 20
39.70245410954642
 30
0.0
 11
229.7330465401516
 21
41.20245029484916
 31
0.0
  0
LINE
  5
50A
  8
0
  6
CONTINUOUS
 62
     5
 10
231.2330958853187
 20
42.05269793653709
 30
0.0
 11
231.9831020130865
 21
42.80270425396732
 31
0.0
  0
LINE
  5
50B
  8
0
  6
CONTINUOUS
 62
     5
 10
229.0234365548
 20
42.80271198308158
 30
0.0
 11
231.9830617989407
 21
42.80271198308158
 31
0.0
  0
LINE
  5
50C
  8
0
  6
CONTINUOUS
 62
     5
 10
231.9830765444782
 20
42.80274100932395
 30
0.0
 11
231.2330811430826
 21
43.55273647393945
 31
0.0
  0
ARC
  5
50D
  8
0
  6
CONTINUOUS
 62
     5
 10
232.002684601675
 20
35.87334491765189
 30
0.0
 40
2.625001907348633
 50
45.00008662960378
 51
339.9999320525513
  0
TEXT
  5
50E
  8
0
 62
     5
 10
-3.497315398324958
 20
46.6590601400106
 30
0.0
 40
5.0
  1
NIKKO
 50
-90.00000000000001
 41
0.767442115904438
  7
FDASTYLE1
 72
     5
 11
-3.497315398324958
 21
27.47300724239965
 31
0.0
  0
TEXT
  5
50F
  8
0
 62
     5
 10
-2.997315398324959
 20
15.30192472493339
 30
0.0
 40
4.0
  1
 HF2-12
 50
-90.00000000000001
 41
0.7704920544480066
  7
FDASTYLE1
 72
     5
 11
-2.997315398324959
 21
-6.271852799610794
 31
0.0
  0
TEXT
  5
510
  8
0
 62
     5
 10
-9.497315398324957
 20
14.94478156125236
 30
0.0
 40
3.0
  1
 0001
 50
-90.00000000000001
 41
0.7674420500137307
  7
FDASTYLE1
 72
     5
 11
-9.497315398324957
 21
3.433150811046399
 31
0.0
  0
TEXT
  5
511
  8
0
 62
     5
 10
235.5462942208157
 20
-10.17246542418313
 30
0.0
 40
3.0
  1
F MAX   20KN
 50
90.0
 41
0.7991006890253224
  7
FDASTYLE1
 72
     5
 11
235.5462942208157
 21
18.59515938072848
 31
0.0
  0
TEXT
  5
512
  8
0
 62
     5
 10
240.5462942208157
 20
-10.17246542418313
 30
0.0
 40
3.0
  1
ΣS MAX  78KN
 50
90.0
 41
0.7910609221164368
  7
FDASTYLE1
 72
     5
 11
240.5462942208157
 21
18.78036432527846
 31
0.0
  0
TEXT
  5
513
  8
0
 62
     5
 10
245.5462942208157
 20
-10.17246542418313
 30
0.0
 40
3.0
  1
N MAX 3400 AT ΣS MAX
 50
90.0
 41
0.7957580761047239
  7
FDASTYLE1
 72
     5
 11
245.5462942208157
 21
38.05047398776314
 31
0.0
  0
TEXT
  5
514
  8
0
 62
     5
 10
230.1031789864407
 20
28.24844612633872
 30
0.0
 40
2.5
  1
F
 50
90.0
 41
0.8791213035583496
  7
FDASTYLE1
 72
     5
 11
230.1031789864407
 21
30.44624938523459
 31
0.0
  0
TEXT
  5
515
  8
0
 62
     5
 10
237.6222829903469
 20
36.04242338692832
 30
0.0
 40
2.5
  1
N min
 50
90.0
 41
0.7983872809842205
  7
FDASTYLE1
 72
     5
 11
237.6222829903469
 21
46.02226439923108
 31
0.0
  0
TEXT
  5
516
  8
0
 62
     5
 10
235.8434367264614
 20
48.97992271637607
 30
0.0
 40
1.25
  1
-1
 50
90.0
 41
0.7826089106345535
  7
FDASTYLE1
 72
     5
 11
235.8434367264614
 21
50.93644499296246
 31
0.0
  0
TEXT
  5
517
  8
0
 62
     5
 10
231.8056325997219
 20
44.50671257531333
 30
0.0
 40
2.5
  1
ΣS
 50
90.0
 41
0.8718556116435149
  7
FDASTYLE1
 72
     5
 11
231.8056325997219
 21
49.30191843935266
 31
0.0
  0
VIEWPORT
  5
48
 67
     1
  8
0
 10
-5.531429682113981
 20
0.0
 30
0.0
 40
1662.0
 41
1140.0
 68
     1
 69
     1
1001
ACAD
1000
MVIEW
1002
{
1070
    16
1010
0.0
1020
0.0
1030
0.0
1020
0.0
1030
0.0
1010
0.0
1020
0.0
1030
1.0
1020
0.0
1030
1.0
1040
0.0
1040
1140.0
1040
-5.531429682113981
1040
0.0
1040
50.0
1040
0.0
1040
0.0
1070
     0
1070
   100
1070
     0
1070
     1
1070
     0
1070
     0
1070
     0
1070
     0
1040
0.0
1040
0.0
1040
0.0
1040
0.5
1040
0.5
1040
0.0
1040
0.0
1070
     0
1002
{
1002
}
1002
}
  0
ENDSEC
  0
EOF
