  0
SECTION
  2
HEADER
  9
$ACADVER
  1
AC1009
  9
$DWGCODEPAGE
  3
ansi_932
  9
$INSBASE
 10
0.0
 20
0.0
 30
0.0
  9
$EXTMIN
 10
-576.0
 20
-415.4999999999998
 30
0.0
  9
$EXTMAX
 10
576.0
 20
415.4999999999998
 30
0.0
  9
$LIMMIN
 10
-210.0
 20
-148.5
  9
$LIMMAX
 10
210.0
 20
148.5
  9
$ORTHOMODE
 70
     0
  9
$REGENMODE
 70
     1
  9
$FILLMODE
 70
     1
  9
$QTEXTMODE
 70
     0
  9
$MIRRTEXT
 70
     1
  9
$DRAGMODE
 70
     2
  9
$LTSCALE
 40
1.0
  9
$OSMODE
 70
    37
  9
$ATTMODE
 70
     1
  9
$TEXTSIZE
 40
0.2
  9
$TRACEWID
 40
0.05
  9
$TEXTSTYLE
  7
STANDARD
  9
$CLAYER
  8
0
  9
$CELTYPE
  6
BYLAYER
  9
$CECOLOR
 62
   256
  9
$DIMSCALE
 40
1.0
  9
$DIMASZ
 40
2.5
  9
$DIMEXO
 40
0.0625
  9
$DIMDLI
 40
0.38
  9
$DIMRND
 40
0.0
  9
$DIMDLE
 40
0.0
  9
$DIMEXE
 40
0.18
  9
$DIMTP
 40
0.0
  9
$DIMTM
 40
0.0
  9
$DIMTXT
 40
0.18
  9
$DIMCEN
 40
0.09
  9
$DIMTSZ
 40
0.0
  9
$DIMTOL
 70
     0
  9
$DIMLIM
 70
     0
  9
$DIMTIH
 70
     1
  9
$DIMTOH
 70
     1
  9
$DIMSE1
 70
     0
  9
$DIMSE2
 70
     0
  9
$DIMTAD
 70
     3
  9
$DIMZIN
 70
     0
  9
$DIMBLK
  1

  9
$DIMASO
 70
     1
  9
$DIMSHO
 70
     1
  9
$DIMPOST
  1

  9
$DIMAPOST
  1

  9
$DIMALT
 70
     0
  9
$DIMALTD
 70
     2
  9
$DIMALTF
 40
25.4
  9
$DIMLFAC
 40
1.0
  9
$DIMTOFL
 70
     0
  9
$DIMTVP
 40
0.0
  9
$DIMTIX
 70
     0
  9
$DIMSOXD
 70
     0
  9
$DIMSAH
 70
     0
  9
$DIMBLK1
  1

  9
$DIMBLK2
  1

  9
$DIMSTYLE
  2
STANDARD
  9
$DIMCLRD
 70
     0
  9
$DIMCLRE
 70
     0
  9
$DIMCLRT
 70
     0
  9
$DIMTFAC
 40
1.0
  9
$DIMGAP
 40
0.09
  9
$LUNITS
 70
     2
  9
$LUPREC
 70
     4
  9
$SKETCHINC
 40
0.1
  9
$FILLETRAD
 40
0.5
  9
$AUNITS
 70
     0
  9
$AUPREC
 70
     0
  9
$MENU
  1
.
  9
$ELEVATION
 40
0.0
  9
$PELEVATION
 40
0.0
  9
$THICKNESS
 40
0.0
  9
$LIMCHECK
 70
     0
  9
$CHAMFERA
 40
0.5
  9
$CHAMFERB
 40
0.5
  9
$SKPOLY
 70
     0
  9
$TDCREATE
 40
2454876.623543507
  9
$TDUPDATE
 40
2454876.623543519
  9
$TDINDWG
 40
0.0000000116
  9
$TDUSRTIMER
 40
0.0000000116
  9
$USRTIMER
 70
     1
  9
$ANGBASE
 50
0.0
  9
$ANGDIR
 70
     0
  9
$PDMODE
 70
     0
  9
$PDSIZE
 40
1.0
  9
$PLINEWID
 40
0.0
  9
$COORDS
 70
     1
  9
$SPLFRAME
 70
     0
  9
$SPLINETYPE
 70
     6
  9
$SPLINESEGS
 70
     8
  9
$ATTDIA
 70
     0
  9
$ATTREQ
 70
     1
  9
$HANDLING
 70
     1
  9
$HANDSEED
  5
37C
  9
$SURFTAB1
 70
     6
  9
$SURFTAB2
 70
     6
  9
$SURFTYPE
 70
     6
  9
$SURFU
 70
     6
  9
$SURFV
 70
     6
  9
$UCSNAME
  2

  9
$UCSORG
 10
0.0
 20
0.0
 30
0.0
  9
$UCSXDIR
 10
1.0
 20
0.0
 30
0.0
  9
$UCSYDIR
 10
0.0
 20
1.0
 30
0.0
  9
$PUCSNAME
  2

  9
$PUCSORG
 10
0.0
 20
0.0
 30
0.0
  9
$PUCSXDIR
 10
1.0
 20
0.0
 30
0.0
  9
$PUCSYDIR
 10
0.0
 20
1.0
 30
0.0
  9
$USERI1
 70
     0
  9
$USERI2
 70
     0
  9
$USERI3
 70
     0
  9
$USERI4
 70
     0
  9
$USERI5
 70
     0
  9
$USERR1
 40
0.0
  9
$USERR2
 40
0.0
  9
$USERR3
 40
0.0
  9
$USERR4
 40
0.0
  9
$USERR5
 40
0.0
  9
$WORLDVIEW
 70
     1
  9
$SHADEDGE
 70
     3
  9
$SHADEDIF
 70
    70
  9
$TILEMODE
 70
     1
  9
$MAXACTVP
 70
    64
  9
$PLIMCHECK
 70
     0
  9
$PEXTMIN
 10
1.000000000000000E+20
 20
1.000000000000000E+20
 30
1.000000000000000E+20
  9
$PEXTMAX
 10
-1.000000000000000E+20
 20
-1.000000000000000E+20
 30
-1.000000000000000E+20
  9
$PLIMMIN
 10
0.0
 20
0.0
  9
$PLIMMAX
 10
12.0
 20
9.0
  9
$UNITMODE
 70
     0
  9
$VISRETAIN
 70
     0
  9
$PLINEGEN
 70
     1
  9
$PSLTSCALE
 70
     0
  0
ENDSEC
  0
SECTION
  2
TABLES
  0
TABLE
  2
VPORT
 70
     1
  0
VPORT
  2
*ACTIVE
 70
     0
 10
0.0
 20
0.0
 11
1.0
 21
1.0
 12
0.0
 22
0.0
 13
0.0
 23
0.0
 14
0.5
 24
0.5
 15
0.5
 25
0.5
 16
0.0
 26
0.0
 36
1.0
 17
-0.0000000000000036
 27
0.0
 37
0.0
 40
282.5399999999999
 41
1.386281588447654
 42
50.0
 43
0.0
 44
0.0
 50
0.0
 51
0.0
 71
     0
 72
  1000
 73
     1
 74
     1
 75
     0
 76
     0
 77
     0
 78
     0
  0
ENDTAB
  0
TABLE
  2
LTYPE
 70
    28
  0
LTYPE
  2
CONTINUOUS
 70
     0
  3
Solid line
 72
    65
 73
     0
 40
0.0
  0
LTYPE
  2
HIDDENX2
 70
     0
  3
CADPAC LINETYPE
 72
    65
 73
     2
 40
6.996466431095428
 49
5.247349823321571
 49
-1.749116607773857
  0
LTYPE
  2
HIDDEN
 70
     0
  3
CADPAC LINETYPE
 72
    65
 73
     2
 40
5.247349823321571
 49
3.498233215547714
 49
-1.749116607773857
  0
LTYPE
  2
HIDDEN2
 70
     0
  3
CADPAC LINETYPE
 72
    65
 73
     2
 40
4.372791519434642
 49
2.623674911660785
 49
-1.749116607773857
  0
LTYPE
  2
DASHED
 70
     0
  3
CADPAC LINETYPE
 72
    65
 73
     2
 40
4.897526501766777
 49
3.498233215547714
 49
-1.399293286219063
  0
LTYPE
  2
DASHED2
 70
     0
  3
CADPAC LINETYPE
 72
    65
 73
     2
 40
3.148409893992948
 49
2.098939929328594
 49
-1.049469964664354
  0
LTYPE
  2
DASHEDX2
 70
     0
  3
CADPAC LINETYPE
 72
    65
 73
     2
 40
8.39575971731449
 49
6.996466431095428
 49
-1.399293286219063
  0
LTYPE
  2
DOTX2
 70
     0
  3
CADPAC LINETYPE
 72
    65
 73
     2
 40
3.060954063604271
 49
0.0
 49
-3.060954063604271
  0
LTYPE
  2
DOT
 70
     0
  3
CADPAC LINETYPE
 72
    65
 73
     2
 40
2.448763250883417
 49
0.0
 49
-2.448763250883417
  0
LTYPE
  2
DOT2
 70
     0
  3
CADPAC LINETYPE
 72
    65
 73
     2
 40
1.836572438162563
 49
0.0
 49
-1.836572438162563
  0
LTYPE
  2
CENTERX2
 70
     0
  3
CADPAC LINETYPE
 72
    65
 73
     4
 40
10.49469964664314
 49
4.372791519434642
 49
-2.186395759717321
 49
1.749116607773857
 49
-2.186395759717321
  0
LTYPE
  2
CENTER
 70
     0
  3
CADPAC LINETYPE
 72
    65
 73
     4
 40
8.045936395759743
 49
3.498233215547714
 49
-1.749116607773857
 49
1.049469964664314
 49
-1.749116607773857
  0
LTYPE
  2
CENTER2
 70
     0
  3
CADPAC LINETYPE
 72
    65
 73
     4
 40
5.597173144876342
 49
2.623674911660785
 49
-1.311837455830393
 49
0.3498233215547714
 49
-1.311837455830393
  0
LTYPE
  2
DASHDOTX2
 70
     0
  3
CADPAC LINETYPE
 72
    65
 73
     4
 40
16.79151943462887
 49
8.39575971731449
 49
-2.798586572438126
 49
2.798586572438126
 49
-2.798586572438126
  0
LTYPE
  2
DASHDOT
 70
     0
  3
CADPAC LINETYPE
 72
    65
 73
     4
 40
8.395759717314434
 49
4.197879858657245
 49
-1.399293286219063
 49
1.399293286219063
 49
-1.399293286219063
  0
LTYPE
  2
DASHDOT2
 70
     0
  3
CADPAC LINETYPE
 72
    65
 73
     4
 40
5.387279151943434
 49
3.148409893992934
 49
-1.049469964664297
 49
0.1399293286219063
 49
-1.049469964664297
  0
LTYPE
  2
DIVIDEX2
 70
     0
  3
CADPAC LINETYPE
 72
    65
 73
     6
 40
22.38869257950512
 49
8.39575971731449
 49
-2.798586572438126
 49
2.798586572438126
 49
-2.798586572438126
 49
2.798586572438126
 49
-2.798586572438126
  0
LTYPE
  2
DIVIDE
 70
     0
  3
CADPAC LINETYPE
 72
    65
 73
     6
 40
11.19434628975256
 49
4.197879858657245
 49
-1.399293286219063
 49
1.399293286219063
 49
-1.399293286219063
 49
1.399293286219063
 49
-1.399293286219063
  0
LTYPE
  2
DIVIDE2
 70
     0
  3
CADPAC LINETYPE
 72
    65
 73
     6
 40
8.395759717314419
 49
3.148409893992934
 49
-1.049469964664297
 49
1.049469964664297
 49
-1.049469964664297
 49
1.049469964664297
 49
-1.049469964664297
  0
LTYPE
  2
BORDERX2
 70
     0
  3
CADPAC LINETYPE
 72
    65
 73
     6
 40
15.30477031802125
 49
4.372791519434642
 49
-2.186395759717321
 49
4.372791519434642
 49
-2.186395759717321
 49
0.0
 49
-2.186395759717321
  0
LTYPE
  2
BORDER
 70
     0
  3
CADPAC LINETYPE
 72
    65
 73
     6
 40
12.243816254417
 49
3.498233215547714
 49
-1.749116607773857
 49
3.498233215547714
 49
-1.749116607773857
 49
0.0
 49
-1.749116607773857
  0
LTYPE
  2
BORDER2
 70
     0
  3
CADPAC LINETYPE
 72
    65
 73
     6
 40
9.095406360424107
 49
2.798586572438126
 49
-1.749116607773885
 49
1.049469964664354
 49
-1.749116607773885
 49
0.0
 49
-1.749116607773857
  0
LTYPE
  2
PHANTOMX2
 70
     0
  3
CADPAC LINETYPE
 72
    65
 73
     6
 40
13.11837455830393
 49
4.372791519434642
 49
-1.749116607773857
 49
1.749116607773857
 49
-1.749116607773857
 49
1.749116607773857
 49
-1.749116607773857
  0
LTYPE
  2
PHANTOM
 70
     0
  3
CADPAC LINETYPE
 72
    65
 73
     6
 40
10.84452296819791
 49
3.498233215547714
 49
-1.749116607773857
 49
1.049469964664314
 49
-1.749116607773857
 49
1.049469964664314
 49
-1.749116607773857
  0
LTYPE
  2
PHANTOM2
 70
     0
  3
CADPAC LINETYPE
 72
    65
 73
     6
 40
9.270318021201442
 49
2.623674911660785
 49
-1.749116607773857
 49
0.6996466431095428
 49
-1.749116607773857
 49
0.6996466431095428
 49
-1.749116607773857
  0
LTYPE
  2
ACAD_ISO06W100
 70
     0
  3
CADPAC LINETYPE
 72
    65
 73
     8
 40
18.54063604240309
 49
8.39575971731449
 49
-1.749116607773885
 49
1.049469964664354
 49
-1.749116607773885
 49
1.049469964664354
 49
-1.749116607773885
 49
1.049469964664354
 49
-1.749116607773885
  0
LTYPE
  2
ACAD_ISO13W100
 70
     0
  3
CADPAC LINETYPE
 72
    65
 73
     8
 40
13.99293286219086
 49
3.498233215547714
 49
-1.749116607773857
 49
3.498233215547714
 49
-1.749116607773857
 49
0.0
 49
-1.749116607773857
 49
0.0
 49
-1.749116607773857
  0
LTYPE
  2
ACAD_ISO14W100
 70
     0
  3
CADPAC LINETYPE
 72
    65
 73
     8
 40
10.49469964664314
 49
3.498233215547714
 49
-1.749116607773857
 49
0.0
 49
-1.749116607773857
 49
0.0
 49
-1.749116607773857
 49
0.0
 49
-1.749116607773857
  0
ENDTAB
  0
TABLE
  2
LAYER
 70
     3
  0
LAYER
  2
0
 70
     0
 62
     7
  6
CONTINUOUS
  0
LAYER
  2
LAYER0014
 70
     0
 62
     7
  6
CONTINUOUS
  0
LAYER
  2
ZUWAKU
 70
     0
 62
     7
  6
CONTINUOUS
  0
ENDTAB
  0
TABLE
  2
STYLE
 70
     5
  0
STYLE
  2
STANDARD
 70
     0
 40
0.0
 41
1.0
 50
0.0
 71
     0
 42
0.2
  3
txt
  4

  0
STYLE
  2
FDASTYLE1
 70
     0
 40
4.0
 41
0.7692307692307692
 50
0.0
 71
     0
 42
0.2
  3
txt.shx
  4
bigfont
  0
STYLE
  2
FDASTYLE0
 70
     4
 40
2.6656
 41
0.8
 50
0.0
 71
     0
 42
0.2
  3
txt.shx
  4
bigfont
  0
STYLE
  2
FDASTYLE2
 70
     0
 40
7.0
 41
0.8123476848090983
 50
0.0
 71
     0
 42
0.2
  3
MSMINCHO.TTC
  4

  0
STYLE
  2
FDASTYLE3
 70
     0
 40
8.0
 41
0.77
 50
0.0
 71
     0
 42
0.2
  3
MSGOTHIC.TTC
  4

  0
ENDTAB
  0
TABLE
  2
VIEW
 70
     0
  0
ENDTAB
  0
TABLE
  2
UCS
 70
     0
  0
ENDTAB
  0
TABLE
  2
APPID
 70
     2
  0
APPID
  2
ACAD
 70
     0
  0
APPID
  2
DAFUSIONOUT
 70
     0
  0
ENDTAB
  0
TABLE
  2
DIMSTYLE
 70
     1
  0
DIMSTYLE
  2
STANDARD
 70
     0
  3

  4

  5

  6

  7

 40
1.0
 41
0.18
 42
0.0625
 43
0.38
 44
0.18
 45
0.0
 46
0.0
 47
0.0
 48
0.0
140
0.18
141
0.09
142
0.0
143
25.4
144
1.0
145
0.0
146
1.0
147
0.09
 71
     0
 72
     0
 73
     1
 74
     1
 75
     0
 76
     0
 77
     0
 78
     0
170
     0
171
     2
172
     0
173
     0
174
     0
175
     0
176
     0
177
     0
178
     0
  0
ENDTAB
  0
ENDSEC
  0
SECTION
  2
BLOCKS
  0
BLOCK
  8
0
  2
$MODEL_SPACE
 70
     0
 10
0.0
 20
0.0
 30
0.0
  3
$MODEL_SPACE
  1

  0
ENDBLK
  5
21
  8
0
  0
BLOCK
 67
     1
  8
0
  2
$PAPER_SPACE
 70
     0
 10
0.0
 20
0.0
 30
0.0
  3
$PAPER_SPACE
  1

  0
ENDBLK
  5
1D
 67
     1
  8
0
  0
BLOCK
  8
0
  2
DA_IMAGEDIMGROUP_1
 70
     0
 10
0.0
 20
0.0
 30
0.0
  3
DA_IMAGEDIMGROUP_1
  1

  0
LINE
  5
BB
  8
LAYER0014
  6
CONTINUOUS
 62
     7
 10
-109.5292789738659
 20
78.40076386879501
 30
0.0
 11
-151.3226072209362
 21
78.40076386879501
 31
0.0
  0
LINE
  5
BC
  8
LAYER0014
  6
CONTINUOUS
 62
     7
 10
-108.3343803167125
 20
-6.599236131204989
 30
0.0
 11
-151.3226072209362
 21
-6.599236131204989
 31
0.0
  0
LINE
  5
BD
  8
LAYER0014
  6
CONTINUOUS
 62
     7
 10
-150.3226072209362
 20
78.40076386879501
 30
0.0
 11
-150.3226072209362
 21
-6.599236131204989
 31
0.0
  0
INSERT
  5
C4
  8
LAYER0014
 62
     7
  2
_OPEN30
 10
-150.3226072209362
 20
78.40076386879501
 30
0.0
 41
1.999998407630662
 42
2.000005728319971
 50
90.0
  0
INSERT
  5
C5
  8
LAYER0014
 62
     7
  2
_OPEN30
 10
-150.3226072209362
 20
-6.599236131204989
 30
0.0
 41
1.999998407630662
 42
2.000005728319971
 50
270.0
  0
TEXT
  5
C7
  8
LAYER0014
 62
     7
 10
-151.3226072209362
 20
27.90076386879501
 30
0.0
 40
4.0
  1
φ85H7
 50
90.0
 41
0.7692307692307692
  7
FDASTYLE1
 72
     5
 11
-151.3226072209362
 21
43.90076386879501
 31
0.0
  0
ENDBLK
  5
4E
  8
0
  0
BLOCK
  8
0
  2
DA_IMAGEDIMGROUP_2
 70
     0
 10
0.0
 20
0.0
 30
0.0
  3
DA_IMAGEDIMGROUP_2
  1

  0
LINE
  5
C8
  8
LAYER0014
  6
CONTINUOUS
 62
     7
 10
-108.5292789738659
 20
54.40076386879501
 30
0.0
 11
-141.3226072209362
 21
54.40076386879501
 31
0.0
  0
LINE
  5
C9
  8
LAYER0014
  6
CONTINUOUS
 62
     7
 10
-108.5292789738659
 20
17.40076386879501
 30
0.0
 11
-141.3226072209362
 21
17.40076386879501
 31
0.0
  0
LINE
  5
CA
  8
LAYER0014
  6
CONTINUOUS
 62
     7
 10
-140.3226072209362
 20
54.40076386879501
 30
0.0
 11
-140.3226072209362
 21
17.40076386879501
 31
0.0
  0
INSERT
  5
CB
  8
LAYER0014
 62
     7
  2
_OPEN30
 10
-140.3226072209362
 20
54.40076386879501
 30
0.0
 41
1.999998407630662
 42
2.000005728319971
 50
90.0
  0
INSERT
  5
CC
  8
LAYER0014
 62
     7
  2
_OPEN30
 10
-140.3226072209362
 20
17.40076386879501
 30
0.0
 41
1.999998407630662
 42
2.000005728319971
 50
270.0
  0
TEXT
  5
CD
  8
LAYER0014
 62
     7
 10
-141.3226072209362
 20
27.90076386879501
 30
0.0
 40
4.0
  1
φ37H7
 50
90.0
 41
0.7692307692307692
  7
FDASTYLE1
 72
     5
 11
-141.3226072209362
 21
43.90076386879501
 31
0.0
  0
ENDBLK
  5
51
  8
0
  0
BLOCK
  8
0
  2
DA_IMAGEDIMGROUP_3
 70
     0
 10
0.0
 20
0.0
 30
0.0
  3
DA_IMAGEDIMGROUP_3
  1

  0
LINE
  5
CE
  8
LAYER0014
  6
CONTINUOUS
 62
     7
 10
-102.7892820256237
 20
-19.13923613120499
 30
0.0
 11
-102.7892820256237
 21
-45.09923613120499
 31
0.0
  0
LINE
  5
CF
  8
LAYER0014
  6
CONTINUOUS
 62
     7
 10
-52.9892789738659
 20
-27.63923613120499
 30
0.0
 11
-52.9892789738659
 21
-45.09923613120499
 31
0.0
  0
LINE
  5
D0
  8
LAYER0014
  6
CONTINUOUS
 62
     7
 10
-102.7892820256237
 20
-44.09923613120499
 30
0.0
 11
-52.9892789738659
 21
-44.09923613120499
 31
0.0
  0
INSERT
  5
D1
  8
LAYER0014
 62
     7
  2
_OPEN30
 10
-102.7892820256237
 20
-44.09923613120499
 30
0.0
 41
1.999998407630662
 42
2.000005728319971
 50
180.0
  0
INSERT
  5
D2
  8
LAYER0014
 62
     7
  2
_OPEN30
 10
-52.9892789738659
 20
-44.09923613120499
 30
0.0
 41
1.999998407630662
 42
2.000005728319971
 50
360.0
  0
TEXT
  5
D3
  8
LAYER0014
 62
     7
 10
-84.28928049974482
 20
-43.09923613120499
 30
0.0
 40
4.0
  1
49.8
 41
0.8000000000000007
  7
FDASTYLE1
 72
     5
 11
-71.48928049974481
 21
-43.09923613120499
 31
0.0
  0
ENDBLK
  5
54
  8
0
  0
BLOCK
  8
0
  2
DA_IMAGEDIMGROUP_4
 70
     0
 10
0.0
 20
0.0
 30
0.0
  3
DA_IMAGEDIMGROUP_4
  1

  0
LINE
  5
D4
  8
LAYER0014
  6
CONTINUOUS
 62
     7
 10
-109.5292789738659
 20
88.40076386879501
 30
0.0
 11
-161.3226072209362
 21
88.40076386879501
 31
0.0
  0
LINE
  5
D5
  8
LAYER0014
  6
CONTINUOUS
 62
     7
 10
-108.6107839288052
 20
-16.59923613120499
 30
0.0
 11
-161.3226072209362
 21
-16.59923613120499
 31
0.0
  0
LINE
  5
D6
  8
LAYER0014
  6
CONTINUOUS
 62
     7
 10
-160.3226072209362
 20
88.40076386879501
 30
0.0
 11
-160.3226072209362
 21
-16.59923613120499
 31
0.0
  0
INSERT
  5
D7
  8
LAYER0014
 62
     7
  2
_OPEN30
 10
-160.3226072209362
 20
88.40076386879501
 30
0.0
 41
1.999998407630662
 42
2.000005728319971
 50
90.0
  0
INSERT
  5
D8
  8
LAYER0014
 62
     7
  2
_OPEN30
 10
-160.3226072209362
 20
-16.59923613120499
 30
0.0
 41
1.999998407630662
 42
2.000005728319971
 50
270.0
  0
TEXT
  5
D9
  8
LAYER0014
 62
     7
 10
-161.3226072209362
 20
29.50076386879501
 30
0.0
 40
4.0
  1
φ105
 50
90.0
 41
0.7619047619047625
  7
FDASTYLE1
 72
     5
 11
-161.3226072209362
 21
42.30076386879502
 31
0.0
  0
ENDBLK
  5
57
  8
0
  0
BLOCK
  8
0
  2
DA_IMAGEDIMGROUP_5
 70
     0
 10
0.0
 20
0.0
 30
0.0
  3
DA_IMAGEDIMGROUP_5
  1

  0
LINE
  5
DA
  8
LAYER0014
  6
CONTINUOUS
 62
     7
 10
-106.9892789738659
 20
-29.13923613120499
 30
0.0
 11
-106.9892789738659
 21
-45.09923613120499
 31
0.0
  0
LINE
  5
DB
  8
LAYER0014
  6
CONTINUOUS
 62
     7
 10
-102.7892820256237
 20
-9.139236131204989
 30
0.0
 11
-102.7892820256237
 21
-45.09923613120499
 31
0.0
  0
LINE
  5
DC
  8
LAYER0014
  6
CONTINUOUS
 62
     7
 10
-106.9892789738659
 20
-44.09923613120499
 30
0.0
 11
-102.7892820256237
 21
-44.09923613120499
 31
0.0
  0
LINE
  5
DD
  8
LAYER0014
  6
CONTINUOUS
 62
     7
 10
-121.2831189021761
 20
-44.09923613120499
 30
0.0
 11
-106.9892789738659
 21
-44.09923613120499
 31
0.0
  0
INSERT
  5
DE
  8
LAYER0014
 62
     7
  2
_OPEN30
 10
-106.9892789738659
 20
-44.09923613120499
 30
0.0
 41
1.999998407630662
 42
2.000005728319971
 50
360.0
  0
LINE
  5
DF
  8
LAYER0014
  6
CONTINUOUS
 62
     7
 10
-97.78928202562372
 20
-44.09923613120499
 30
0.0
 11
-102.7892820256237
 21
-44.09923613120499
 31
0.0
  0
INSERT
  5
E0
  8
LAYER0014
 62
     7
  2
_OPEN30
 10
-102.7892820256237
 20
-44.09923613120499
 30
0.0
 41
1.999998407630662
 42
2.000005728319971
 50
180.0
  0
TEXT
  5
E1
  8
LAYER0014
 62
     7
 10
-120.2831189021761
 20
-43.09923613120499
 30
0.0
 40
4.0
  1
4.2
 41
0.8000000000000007
  7
FDASTYLE1
 72
     5
 11
-110.6831189021761
 21
-43.09923613120499
 31
0.0
  0
ENDBLK
  5
5A
  8
0
  0
BLOCK
  8
0
  2
DA_IMAGEDIMGROUP_6
 70
     0
 10
0.0
 20
0.0
 30
0.0
  3
DA_IMAGEDIMGROUP_6
  1

  0
LINE
  5
E2
  8
LAYER0014
  6
CONTINUOUS
 62
     7
 10
-106.9892789738659
 20
-17.98998822143691
 30
0.0
 11
-106.9892789738659
 21
-55.09923613120499
 31
0.0
  0
LINE
  5
E3
  8
LAYER0014
  6
CONTINUOUS
 62
     7
 10
-52.9892789738659
 20
-16.59923613120499
 30
0.0
 11
-52.9892789738659
 21
-55.09923613120499
 31
0.0
  0
LINE
  5
E4
  8
LAYER0014
  6
CONTINUOUS
 62
     7
 10
-106.9892789738659
 20
-54.09923613120499
 30
0.0
 11
-52.9892789738659
 21
-54.09923613120499
 31
0.0
  0
INSERT
  5
E5
  8
LAYER0014
 62
     7
  2
_OPEN30
 10
-106.9892789738659
 20
-54.09923613120499
 30
0.0
 41
1.999998407630662
 42
2.000005728319971
 50
180.0
  0
INSERT
  5
E6
  8
LAYER0014
 62
     7
  2
_OPEN30
 10
-52.9892789738659
 20
-54.09923613120499
 30
0.0
 41
1.999998407630662
 42
2.000005728319971
 50
360.0
  0
TEXT
  5
E7
  8
LAYER0014
 62
     7
 10
-83.18927897386591
 20
-53.09923613120499
 30
0.0
 40
4.0
  1
54
 41
0.8000000000000007
  7
FDASTYLE1
 72
     5
 11
-76.78927897386591
 21
-53.09923613120499
 31
0.0
  0
ENDBLK
  5
5D
  8
0
  0
BLOCK
  8
0
  2
DA_IMAGEDIMGROUP_7
 70
     0
 10
0.0
 20
0.0
 30
0.0
  3
DA_IMAGEDIMGROUP_7
  1

  0
LINE
  5
E8
  8
LAYER0014
  6
CONTINUOUS
 62
     7
 10
-80.23841578823323
 20
49.90076386879501
 30
0.0
 11
-131.3226072209362
 21
49.90076386879501
 31
0.0
  0
LINE
  5
E9
  8
LAYER0014
  6
CONTINUOUS
 62
     7
 10
-80.40508387097378
 20
21.90076386879501
 30
0.0
 11
-131.3226072209362
 21
21.90076386879501
 31
0.0
  0
LINE
  5
EA
  8
LAYER0014
  6
CONTINUOUS
 62
     7
 10
-130.3226072209362
 20
49.90076386879501
 30
0.0
 11
-130.3226072209362
 21
21.90076386879501
 31
0.0
  0
INSERT
  5
EB
  8
LAYER0014
 62
     7
  2
_OPEN30
 10
-130.3226072209362
 20
49.90076386879501
 30
0.0
 41
1.999998407630662
 42
2.000005728319971
 50
90.0
  0
INSERT
  5
EC
  8
LAYER0014
 62
     7
  2
_OPEN30
 10
-130.3226072209362
 20
21.90076386879501
 30
0.0
 41
1.999998407630662
 42
2.000005728319971
 50
270.0
  0
TEXT
  5
ED
  8
LAYER0014
 62
     7
 10
-131.9226072209362
 20
27.90076382111128
 30
0.0
 40
4.0
  1
φ28
 50
90.0
 41
0.7500000000000007
  7
FDASTYLE1
 72
     5
 11
-131.9226072209362
 21
37.50076382111129
 31
0.0
  0
TEXT
  5
EE
  8
LAYER0014
 62
     7
 10
-131.9226072209362
 20
38.50076382111129
 30
0.0
 40
4.0
  1
H7
 50
90.0
 41
0.8000000000000007
  7
FDASTYLE1
 72
     5
 11
-131.9226072209362
 21
44.9007638211113
 31
0.0
  0
ENDBLK
  5
60
  8
0
  0
BLOCK
  8
0
  2
DA_IMAGEDIMGROUP_8
 70
     0
 10
0.0
 20
0.0
 30
0.0
  3
DA_IMAGEDIMGROUP_8
  1

  0
LINE
  5
EF
  8
LAYER0014
  6
CONTINUOUS
 62
     7
 10
-32.14834513597528
 20
63.40076386879501
 30
0.0
 11
-24.32260722093621
 21
63.40076386879501
 31
0.0
  0
LINE
  5
F0
  8
LAYER0014
  6
CONTINUOUS
 62
     7
 10
-51.4492789738659
 20
55.90076386879501
 30
0.0
 11
-24.32260722093621
 21
55.90076386879501
 31
0.0
  0
LINE
  5
F1
  8
LAYER0014
  6
CONTINUOUS
 62
     7
 10
-25.32260722093621
 20
63.40076386879501
 30
0.0
 11
-25.32260722093621
 21
55.90076386879501
 31
0.0
  0
LINE
  5
F2
  8
LAYER0014
  6
CONTINUOUS
 62
     7
 10
-25.32260722093621
 20
63.40076386879501
 30
0.0
 11
-25.32260722093621
 21
69.75076386879502
 31
0.0
  0
INSERT
  5
F3
  8
LAYER0014
 62
     7
  2
_OPEN30
 10
-25.32260722093621
 20
63.40076386879501
 30
0.0
 41
1.999998407630662
 42
2.000005728319971
 50
270.0
  0
LINE
  5
F4
  8
LAYER0014
  6
CONTINUOUS
 62
     7
 10
-25.32260722093621
 20
49.55076386879501
 30
0.0
 11
-25.32260722093621
 21
55.90076386879501
 31
0.0
  0
INSERT
  5
F5
  8
LAYER0014
 62
     7
  2
_OPEN30
 10
-25.32260722093621
 20
55.90076386879501
 30
0.0
 41
1.999998407630662
 42
2.000005728319971
 50
90.0
  0
TEXT
  5
F6
  8
LAYER0014
 62
     7
 10
-26.92260722093621
 20
44.72185075233993
 30
0.0
 40
4.0
  1
MIN 6
 50
90.0
 41
0.8
  7
FDASTYLE1
 72
     5
 11
-26.92260722093621
 21
60.72185075233993
 31
0.0
  0
ENDBLK
  5
63
  8
0
  0
BLOCK
  8
0
  2
DA_IMAGEDIMGROUP_9
 70
     0
 10
0.0
 20
0.0
 30
0.0
  3
DA_IMAGEDIMGROUP_9
  1

  0
LINE
  5
F7
  8
LAYER0014
  6
CONTINUOUS
 62
     7
 10
-119.67850086648
 20
5.600764631734464
 30
0.0
 11
-131.3226072209362
 21
5.600764631734464
 31
0.0
  0
LINE
  5
F8
  8
LAYER0014
  6
CONTINUOUS
 62
     7
 10
-119.67850086648
 20
-4.399235368265536
 30
0.0
 11
-131.3226072209362
 21
-4.399235368265536
 31
0.0
  0
LINE
  5
F9
  8
LAYER0014
  6
CONTINUOUS
 62
     7
 10
-130.3226072209362
 20
5.600764631734464
 30
0.0
 11
-130.3226072209362
 21
-4.399235368265536
 31
0.0
  0
INSERT
  5
FA
  8
LAYER0014
 62
     7
  2
_OPEN30
 10
-130.3226072209362
 20
5.600764631734464
 30
0.0
 41
1.999998407630662
 42
2.000005728319971
 50
90.0
  0
INSERT
  5
FB
  8
LAYER0014
 62
     7
  2
_OPEN30
 10
-130.3226072209362
 20
-4.399235368265536
 30
0.0
 41
1.999998407630662
 42
2.000005728319971
 50
270.0
  0
TEXT
  5
FC
  8
LAYER0014
 62
     7
 10
-131.3226072209362
 20
-4.199235368265548
 30
0.0
 40
4.0
  1
M10
 50
90.0
 41
0.8000000000000007
  7
FDASTYLE1
 72
     5
 11
-131.3226072209362
 21
5.400764631734461
 31
0.0
  0
ENDBLK
  5
66
  8
0
  0
BLOCK
  8
0
  2
DA_IMAGEDIMGROUP_10
 70
     0
 10
0.0
 20
0.0
 30
0.0
  3
DA_IMAGEDIMGROUP_10
  1

  0
LINE
  5
FD
  8
LAYER0014
  6
CONTINUOUS
 62
     7
 10
-52.9892789738659
 20
89.44076386879502
 30
0.0
 11
-52.9892789738659
 21
106.900763868795
 31
0.0
  0
LINE
  5
FE
  8
LAYER0014
  6
CONTINUOUS
 62
     7
 10
-53.9892789738659
 20
90.94076386879502
 30
0.0
 11
-53.9892789738659
 21
106.900763868795
 31
0.0
  0
LINE
  5
FF
  8
LAYER0014
  6
CONTINUOUS
 62
     7
 10
-52.9892789738659
 20
105.900763868795
 30
0.0
 11
-53.9892789738659
 21
105.900763868795
 31
0.0
  0
LINE
  5
100
  8
LAYER0014
  6
CONTINUOUS
 62
     7
 10
-52.9892789738659
 20
105.900763868795
 30
0.0
 11
-46.6392789738659
 21
105.900763868795
 31
0.0
  0
INSERT
  5
101
  8
LAYER0014
 62
     7
  2
_OPEN30
 10
-52.9892789738659
 20
105.900763868795
 30
0.0
 41
1.999998407630662
 42
2.000005728319971
 50
180.0
  0
LINE
  5
102
  8
LAYER0014
  6
CONTINUOUS
 62
     7
 10
-60.3392789738659
 20
105.900763868795
 30
0.0
 11
-53.9892789738659
 21
105.900763868795
 31
0.0
  0
INSERT
  5
103
  8
LAYER0014
 62
     7
  2
_OPEN30
 10
-53.9892789738659
 20
105.900763868795
 30
0.0
 41
1.999998407630662
 42
2.000005728319971
 50
360.0
  0
TEXT
  5
104
  8
LAYER0014
 62
     7
 10
-49.27498225145379
 20
107.500763868795
 30
0.0
 40
4.0
  1
1
 41
0.8000000000000007
  7
FDASTYLE1
 72
     5
 11
-46.07498225145379
 21
107.500763868795
 31
0.0
  0
ENDBLK
  5
69
  8
0
  0
BLOCK
  8
0
  2
DA_IMAGEDIMGROUP_11
 70
     0
 10
0.0
 20
0.0
 30
0.0
  3
DA_IMAGEDIMGROUP_11
  1

  0
LINE
  5
105
  8
LAYER0014
  6
CONTINUOUS
 62
     7
 10
-102.7892820256237
 20
-30.05961261614966
 30
0.0
 11
-79.48927897386591
 21
-30.05961261614966
 31
0.0
  0
INSERT
  5
106
  8
LAYER0014
 62
     7
  2
_OPEN30
 10
-102.7892820256237
 20
-30.05961261614966
 30
0.0
 41
1.999998407630662
 42
2.000005728319971
 50
180.0
  0
INSERT
  5
107
  8
LAYER0014
 62
     7
  2
_OPEN30
 10
-79.48927897386591
 20
-30.05961261614966
 30
0.0
 41
1.999998407630662
 42
2.000005728319971
 50
360.0
  0
LINE
  5
108
  8
LAYER0014
  6
CONTINUOUS
 62
     7
 10
-79.48927897386591
 20
20.85916196245962
 30
0.0
 11
-79.48927897386591
 21
-31.05961261614966
 31
0.0
  0
TEXT
  5
109
  8
LAYER0014
 62
     7
 10
-102.3392804997448
 20
-29.05961261614966
 30
0.0
 40
4.0
  1
MAX30.8
 41
0.8000000000000002
  7
FDASTYLE1
 72
     5
 11
-79.93928049974481
 21
-29.05961261614966
 31
0.0
  0
ENDBLK
  5
6C
  8
0
  0
BLOCK
  8
0
  2
DA_IMAGEDIMGROUP_12
 70
     0
 10
0.0
 20
0.0
 30
0.0
  3
DA_IMAGEDIMGROUP_12
  1

  0
LINE
  5
10A
  8
LAYER0014
  6
CONTINUOUS
 62
     7
 10
-55.4892789738659
 20
24.11513078163681
 30
0.0
 11
-52.9892789738659
 21
24.11513078163681
 31
0.0
  0
LINE
  5
10B
  8
LAYER0014
  6
CONTINUOUS
 62
     7
 10
-55.4892789738659
 20
24.11513078163681
 30
0.0
 11
-61.8392789738659
 21
24.11513078163681
 31
0.0
  0
INSERT
  5
10C
  8
LAYER0014
 62
     7
  2
_OPEN30
 10
-55.4892789738659
 20
24.11513078163681
 30
0.0
 41
1.999998407630662
 42
2.000005728319971
 50
360.0
  0
LINE
  5
10D
  8
LAYER0014
  6
CONTINUOUS
 62
     7
 10
-46.6392789738659
 20
24.11513078163681
 30
0.0
 11
-52.9892789738659
 21
24.11513078163681
 31
0.0
  0
INSERT
  5
10E
  8
LAYER0014
 62
     7
  2
_OPEN30
 10
-52.9892789738659
 20
24.11513078163681
 30
0.0
 41
1.999998407630662
 42
2.000005728319971
 50
180.0
  0
TEXT
  5
10F
  8
LAYER0014
 62
     7
 10
-47.78955363206903
 20
25.71513078163681
 30
0.0
 40
4.0
  1
2.5
 41
0.8000000000000007
  7
FDASTYLE1
 72
     5
 11
-38.18955363206902
 21
25.71513078163681
 31
0.0
  0
ENDBLK
  5
6F
  8
0
  0
BLOCK
  8
0
  2
DA_IMAGEDIMGROUP_13
 70
     0
 10
0.0
 20
0.0
 30
0.0
  3
DA_IMAGEDIMGROUP_13
  1

  0
LINE
  5
110
  8
LAYER0014
  6
CONTINUOUS
 62
     7
 10
-32.14834513597528
 20
63.40076386879501
 30
0.0
 11
-24.32260722093621
 21
63.40076386879501
 31
0.0
  0
LINE
  5
111
  8
LAYER0014
  6
CONTINUOUS
 62
     7
 10
-32.33400645189325
 20
78.40076386879501
 30
0.0
 11
-24.32260722093621
 21
78.40076386879501
 31
0.0
  0
LINE
  5
112
  8
LAYER0014
  6
CONTINUOUS
 62
     7
 10
-25.32260722093621
 20
63.40076386879501
 30
0.0
 11
-25.32260722093621
 21
78.40076386879501
 31
0.0
  0
INSERT
  5
113
  8
LAYER0014
 62
     7
  2
_OPEN30
 10
-25.32260722093621
 20
63.40076386879501
 30
0.0
 41
1.999998407630662
 42
2.000005728319971
 50
270.0
  0
INSERT
  5
114
  8
LAYER0014
 62
     7
  2
_OPEN30
 10
-25.32260722093621
 20
78.40076386879501
 30
0.0
 41
1.999998407630662
 42
2.000005728319971
 50
90.0
  0
TEXT
  5
115
  8
LAYER0014
 62
     7
 10
-26.92260722093621
 20
67.70076386879501
 30
0.0
 40
4.0
  1
15
 50
90.0
 41
0.8000000000000007
  7
FDASTYLE1
 72
     5
 11
-26.92260722093621
 21
74.10076386879501
 31
0.0
  0
ENDBLK
  5
72
  8
0
  0
BLOCK
  8
0
  2
DA_IMAGEDIMGROUP_14
 70
     0
 10
0.0
 20
0.0
 30
0.0
  3
DA_IMAGEDIMGROUP_14
  1

  0
LINE
  5
116
  8
LAYER0014
  6
CONTINUOUS
 62
     7
 10
-51.4492789738659
 20
55.90076386879501
 30
0.0
 11
-4.322607220936213
 21
55.90076386879501
 31
0.0
  0
LINE
  5
117
  8
LAYER0014
  6
CONTINUOUS
 62
     7
 10
-51.4492789738659
 20
88.40076386879501
 30
0.0
 11
-4.322607220936213
 21
88.40076386879501
 31
0.0
  0
LINE
  5
118
  8
LAYER0014
  6
CONTINUOUS
 62
     7
 10
-5.322607220936213
 20
55.90076386879501
 30
0.0
 11
-5.322607220936213
 21
88.40076386879501
 31
0.0
  0
INSERT
  5
119
  8
LAYER0014
 62
     7
  2
_OPEN30
 10
-5.322607220936213
 20
55.90076386879501
 30
0.0
 41
1.999998407630662
 42
2.000005728319971
 50
270.0
  0
INSERT
  5
11A
  8
LAYER0014
 62
     7
  2
_OPEN30
 10
-5.322607220936213
 20
88.40076386879501
 30
0.0
 41
1.999998407630662
 42
2.000005728319971
 50
90.0
  0
TEXT
  5
11B
  8
LAYER0014
 62
     7
 10
-6.922607220936213
 20
65.75076386879501
 30
0.0
 40
4.0
  1
32.5
 50
90.0
 41
0.8000000000000007
  7
FDASTYLE1
 72
     5
 11
-6.922607220936213
 21
78.55076386879502
 31
0.0
  0
ENDBLK
  5
75
  8
0
  0
BLOCK
  8
0
  2
DA_IMAGEDIMGROUP_15
 70
     0
 10
0.0
 20
0.0
 30
0.0
  3
DA_IMAGEDIMGROUP_15
  1

  0
LINE
  5
11C
  8
LAYER0014
  6
CONTINUOUS
 62
     7
 10
8.537964367737599
 20
19.90076386879501
 30
0.0
 11
8.537964367737599
 21
50.77523744057235
 31
0.0
  0
INSERT
  5
11D
  8
LAYER0014
 62
     7
  2
_OPEN30
 10
8.537964367737599
 20
19.90076386879501
 30
0.0
 41
1.999998407630662
 42
2.000005728319971
 50
270.0
  0
LINE
  5
11E
  8
LAYER0014
  6
CONTINUOUS
 62
     7
 10
-62.51568293853335
 20
19.90076386879501
 30
0.0
 11
9.537964367737599
 21
19.90076386879501
 31
0.0
  0
TEXT
  5
11F
  8
LAYER0014
 62
     7
 10
7.5379643677376
 20
20.93800065468368
 30
0.0
 40
4.0
  1
M32×Ｐ1.25
 50
90.0
 41
0.7659574468085105
  7
FDASTYLE1
 72
     5
 11
7.5379643677376
 21
49.73800065468368
 31
0.0
  0
ENDBLK
  5
78
  8
0
  0
BLOCK
  8
0
  2
DA_IMAGEDIMGROUP_16
 70
     0
 10
0.0
 20
0.0
 30
0.0
  3
DA_IMAGEDIMGROUP_16
  1

  0
LINE
  5
120
  8
LAYER0014
  6
CONTINUOUS
 62
     7
 10
16.82072025347352
 20
14.90076386879501
 30
0.0
 11
16.82072025347352
 21
50.77523744057235
 31
0.0
  0
INSERT
  5
121
  8
LAYER0014
 62
     7
  2
_OPEN30
 10
16.82072025347352
 20
14.90076386879501
 30
0.0
 41
1.999998407630662
 42
2.000005728319971
 50
270.0
  0
LINE
  5
122
  8
LAYER0014
  6
CONTINUOUS
 62
     7
 10
-51.82807660428387
 20
14.90076386879501
 30
0.0
 11
17.82072025347352
 21
14.90076386879501
 31
0.0
  0
TEXT
  5
123
  8
LAYER0014
 62
     7
 10
15.82072025347352
 20
24.83800065468368
 30
0.0
 40
4.0
  1
φ42H7
 50
90.0
 41
0.7692307692307692
  7
FDASTYLE1
 72
     5
 11
15.82072025347352
 21
40.83800065468368
 31
0.0
  0
ENDBLK
  5
7B
  8
0
  0
BLOCK
  8
0
  2
DC_GROUP_1
 70
     0
 10
0.0
 20
0.0
 30
0.0
  3
DC_GROUP_1
  1

  0
LINE
  5
124
  8
LAYER0014
  6
CONTINUOUS
 62
     7
 10
-53.75941933404089
 20
86.05718707645029
 30
0.0
 11
-35.24282262763006
 21
105.9398016655051
 31
0.0
  0
INSERT
  5
125
  8
LAYER0014
 62
     7
  2
_OPEN30
 10
-53.75941933404089
 20
86.05718707645029
 30
0.0
 41
1.999998407630662
 42
2.000005728319971
 50
227.0373873762194
  0
LINE
  5
126
  8
LAYER0014
  6
CONTINUOUS
 62
     7
 10
-35.24282282762567
 20
105.9397958512169
 30
0.0
 11
11.38684826917609
 21
105.9397958512169
 31
0.0
  0
TEXT
  5
127
  8
LAYER0014
 62
     7
 10
-34.57614725999871
 20
107.5398034806114
 30
0.0
 40
4.0
  1
ｾﾚｰｼｮﾝP1.5山60ﾟ
 41
0.7887323943661972
  7
FDASTYLE1
 72
     5
 11
10.22385274000129
 21
107.5398034806114
 31
0.0
  0
ENDBLK
  5
7E
  8
0
  0
BLOCK
  8
0
  2
DC_GROUP_2
 70
     0
 10
0.0
 20
0.0
 30
0.0
  3
DC_GROUP_2
  1

  0
LINE
  5
128
  8
LAYER0014
  6
CONTINUOUS
 62
     7
 10
-41.2085415186608
 20
81.32849776202589
 30
0.0
 11
-28.13873618159288
 21
95.87567294570987
 31
0.0
  0
INSERT
  5
129
  8
LAYER0014
 62
     7
  2
_OPEN30
 10
-41.2085415186608
 20
81.32849776202589
 30
0.0
 41
1.999998407630662
 42
2.000005728319971
 50
228.0621178912862
  0
LINE
  5
12A
  8
LAYER0014
  6
CONTINUOUS
 62
     7
 10
-28.13873690538446
 20
95.87567079018173
 30
0.0
 11
-18.93081396989862
 21
95.87567079018173
 31
0.0
  0
TEXT
  5
12B
  8
LAYER0014
 62
     7
 10
-27.15938395433465
 20
97.47567079018172
 30
0.0
 40
4.0
  1
M8
 41
0.7999999999999998
  7
FDASTYLE1
 72
     5
 11
-20.75938395433465
 21
97.47567079018172
 31
0.0
  0
ENDBLK
  5
81
  8
0
  0
BLOCK
  8
0
  2
DA_IMAGEDIMGROUP_17
 70
     0
 10
0.0
 20
0.0
 30
0.0
  3
DA_IMAGEDIMGROUP_17
  1

  0
LINE
  5
12C
  8
LAYER0014
  6
CONTINUOUS
 62
     7
 10
-49.9492789738659
 20
57.40076386879501
 30
0.0
 11
-14.32260722093621
 21
57.40076386879501
 31
0.0
  0
LINE
  5
12D
  8
LAYER0014
  6
CONTINUOUS
 62
     7
 10
-49.9492789738659
 20
84.40076386879501
 30
0.0
 11
-14.32260722093621
 21
84.40076386879501
 31
0.0
  0
LINE
  5
12E
  8
LAYER0014
  6
CONTINUOUS
 62
     7
 10
-15.32260722093621
 20
57.40076386879501
 30
0.0
 11
-15.32260722093621
 21
84.40076386879501
 31
0.0
  0
INSERT
  5
12F
  8
LAYER0014
 62
     7
  2
_OPEN30
 10
-15.32260722093621
 20
57.40076386879501
 30
0.0
 41
1.999998407630662
 42
2.000005728319971
 50
270.0
  0
INSERT
  5
130
  8
LAYER0014
 62
     7
  2
_OPEN30
 10
-15.32260722093621
 20
84.40076386879501
 30
0.0
 41
1.999998407630662
 42
2.000005728319971
 50
90.0
  0
TEXT
  5
131
  8
LAYER0014
 62
     7
 10
-16.92260722093621
 20
67.70076386879501
 30
0.0
 40
4.0
  1
27
 50
90.0
 41
0.8000000000000007
  7
FDASTYLE1
 72
     5
 11
-16.92260722093621
 21
74.10076386879501
 31
0.0
  0
ENDBLK
  5
84
  8
0
  0
BLOCK
  8
0
  2
DA_IMAGEDIMGROUP_18
 70
     0
 10
0.0
 20
0.0
 30
0.0
  3
DA_IMAGEDIMGROUP_18
  1

  0
LINE
  5
132
  8
0
  6
CONTINUOUS
 62
     9
 10
-98.48927897386591
 20
29.47034623738862
 30
0.0
 11
-79.48927897386591
 21
29.47034623738862
 31
0.0
  0
INSERT
  5
133
  8
0
 62
     9
  2
_OPEN30
 10
-98.48927897386591
 20
29.47034623738862
 30
0.0
 41
1.999998407630662
 42
2.000005728319971
 50
180.0
  0
INSERT
  5
134
  8
0
 62
     9
  2
_OPEN30
 10
-79.48927897386591
 20
29.47034623738862
 30
0.0
 41
1.999998407630662
 42
2.000005728319971
 50
360.0
  0
LINE
  5
135
  8
0
  6
CONTINUOUS
 62
     9
 10
-79.48927897386591
 20
29.47034623738862
 30
0.0
 11
-71.48927897386591
 21
29.47034623738862
 31
0.0
  0
INSERT
  5
136
  8
0
 62
     9
  2
_OPEN30
 10
-79.48927897386591
 20
29.47034623738862
 30
0.0
 41
1.999998407630662
 42
2.000005728319971
 50
180.0
  0
INSERT
  5
137
  8
0
 62
     9
  2
_OPEN30
 10
-71.48927897386591
 20
29.47034623738862
 30
0.0
 41
1.999998407630662
 42
2.000005728319971
 50
360.0
  0
LINE
  5
138
  8
0
  6
CONTINUOUS
 62
     9
 10
-71.48927897386591
 20
29.47034623738862
 30
0.0
 11
-63.4892789738659
 21
29.47034623738862
 31
0.0
  0
INSERT
  5
139
  8
0
 62
     9
  2
_OPEN30
 10
-71.48927897386591
 20
29.47034623738862
 30
0.0
 41
1.999998407630662
 42
2.000005728319971
 50
180.0
  0
INSERT
  5
13A
  8
0
 62
     9
  2
_OPEN30
 10
-63.4892789738659
 20
29.47034623738862
 30
0.0
 41
1.999998407630662
 42
2.000005728319971
 50
360.0
  0
TEXT
  5
13B
  8
0
 62
     7
 10
-92.18927897386591
 20
30.47034623738862
 30
0.0
 40
4.0
  1
19
 41
0.8000000000000007
  7
FDASTYLE1
 72
     5
 11
-85.78927897386591
 21
30.47034623738862
 31
0.0
  0
TEXT
  5
13C
  8
0
 62
     7
 10
-77.0892789738659
 20
30.47034623738862
 30
0.0
 40
4.0
  1
8
 41
0.7999999999999972
  7
FDASTYLE1
 72
     5
 11
-73.88927897386591
 21
30.47034623738862
 31
0.0
  0
TEXT
  5
13D
  8
0
 62
     7
 10
-69.0892789738659
 20
30.47034623738862
 30
0.0
 40
4.0
  1
8
 41
0.7999999999999972
  7
FDASTYLE1
 72
     5
 11
-65.88927897386591
 21
30.47034623738862
 31
0.0
  0
ENDBLK
  5
87
  8
0
  0
BLOCK
  8
0
  2
DA_IMAGEDIMGROUP_19
 70
     0
 10
0.0
 20
0.0
 30
0.0
  3
DA_IMAGEDIMGROUP_19
  1

  0
TEXT
  5
13E
  8
LAYER0014
 62
     7
 10
-127.9719643647984
 20
100.5802510469267
 30
0.0
 40
4.0
  1
MiN-3.2
 41
0.8000000000000002
  7
FDASTYLE1
 72
     5
 11
-105.5719643647984
 21
100.5802510469267
 31
0.0
  0
ENDBLK
  5
8A
  8
0
  0
BLOCK
  8
0
  2
DA_IMAGEDIMGROUP_20
 70
     0
 10
0.0
 20
0.0
 30
0.0
  3
DA_IMAGEDIMGROUP_20
  1

  0
LINE
  5
13F
  8
0
  6
CONTINUOUS
 62
     9
 10
-98.48927897386591
 20
54.90076386879501
 30
0.0
 11
-98.48927897386591
 21
106.7117347532661
 31
0.0
  0
LINE
  5
140
  8
0
  6
CONTINUOUS
 62
     9
 10
-102.7892820256237
 20
79.40076386879501
 30
0.0
 11
-102.7892820256237
 21
106.7117347532661
 31
0.0
  0
LINE
  5
141
  8
0
  6
CONTINUOUS
 62
     9
 10
-102.7892820256237
 20
105.7117347532661
 30
0.0
 11
-98.48927897386591
 21
105.7117347532661
 31
0.0
  0
LINE
  5
142
  8
0
  6
CONTINUOUS
 62
     9
 10
-129.1211320256237
 20
105.7117347532661
 30
0.0
 11
-102.7892820256237
 21
105.7117347532661
 31
0.0
  0
INSERT
  5
143
  8
0
 62
     9
  2
_OPEN30
 10
-102.7892820256237
 20
105.7117347532661
 30
0.0
 41
1.999998407630662
 42
2.000005728319971
 50
360.0
  0
LINE
  5
144
  8
0
  6
CONTINUOUS
 62
     9
 10
-93.48927897386591
 20
105.7117347532661
 30
0.0
 11
-98.48927897386591
 21
105.7117347532661
 31
0.0
  0
INSERT
  5
145
  8
0
 62
     9
  2
_OPEN30
 10
-98.48927897386591
 20
105.7117347532661
 30
0.0
 41
1.999998407630662
 42
2.000005728319971
 50
180.0
  0
TEXT
  5
146
  8
0
 62
     7
 10
-128.1211320256237
 20
106.7117347532661
 30
0.0
 40
4.0
  1
MAX11.8
 41
0.8000000000000002
  7
FDASTYLE1
 72
     5
 11
-105.7211320256237
 21
106.7117347532661
 31
0.0
  0
ENDBLK
  5
8D
  8
0
  0
BLOCK
  8
0
  2
DA_IMAGEDIMGROUP_21
 70
     0
 10
0.0
 20
0.0
 30
0.0
  3
DA_IMAGEDIMGROUP_21
  1

  0
LINE
  5
147
  8
0
  6
CONTINUOUS
 62
     9
 10
-5.439186189441765
 20
35.90076386879501
 30
0.0
 11
-5.439186189441765
 21
55.90076386879501
 31
0.0
  0
INSERT
  5
148
  8
0
 62
     9
  2
_OPEN30
 10
-5.439186189441765
 20
35.90076386879501
 30
0.0
 41
1.999998407630662
 42
2.000005728319971
 50
270.0
  0
INSERT
  5
149
  8
0
 62
     9
  2
_OPEN30
 10
-5.439186189441765
 20
55.90076386879501
 30
0.0
 41
1.999998407630662
 42
2.000005728319971
 50
90.0
  0
LINE
  5
14A
  8
0
  6
CONTINUOUS
 62
     9
 10
-48.86778737773015
 20
35.90076386879501
 30
0.0
 11
-4.439186189441765
 21
35.90076386879501
 31
0.0
  0
LINE
  5
14B
  8
0
  6
CONTINUOUS
 62
     9
 10
-52.9892789738659
 20
55.90076386879501
 30
0.0
 11
-4.439186189441765
 21
55.90076386879501
 31
0.0
  0
TEXT
  5
14C
  8
0
 62
     7
 10
-6.439186189441762
 20
37.90076386879501
 30
0.0
 40
4.0
  1
MAX21
 50
90.0
 41
0.8
  7
FDASTYLE1
 72
     5
 11
-6.439186189441762
 21
53.90076386879501
 31
0.0
  0
ENDBLK
  5
90
  8
0
  0
BLOCK
  8
0
  2
DA_IMAGEDIMGROUP_22
 70
     0
 10
0.0
 20
0.0
 30
0.0
  3
DA_IMAGEDIMGROUP_22
  1

  0
LINE
  5
14D
  8
0
  6
CONTINUOUS
 62
     9
 10
-98.98927897386591
 20
45.15076386879501
 30
0.0
 11
-122.1943462897526
 21
45.15076386879501
 31
0.0
  0
LINE
  5
14E
  8
0
  6
CONTINUOUS
 62
     9
 10
-98.98926683153957
 20
26.65074650360894
 30
0.0
 11
-122.1943462897526
 21
26.65074650360894
 31
0.0
  0
LINE
  5
14F
  8
0
  6
CONTINUOUS
 62
     9
 10
-121.1943462897526
 20
26.65074650360894
 30
0.0
 11
-121.1943462897526
 21
45.15076386879501
 31
0.0
  0
INSERT
  5
150
  8
0
 62
     9
  2
_OPEN30
 10
-121.1943462897526
 20
26.65074650360894
 30
0.0
 41
1.999998407630662
 42
2.000005728319971
 50
270.0
  0
INSERT
  5
151
  8
0
 62
     9
  2
_OPEN30
 10
-121.1943462897526
 20
45.15076386879501
 30
0.0
 41
1.999998407630662
 42
2.000005728319971
 50
90.0
  0
TEXT
  5
152
  8
0
 62
     7
 10
-122.1943462897526
 20
23.88075518620197
 30
0.0
 40
4.0
  1
φ18.5
 50
90.0
 41
0.7692307692307692
  7
FDASTYLE1
 72
     5
 11
-122.1943462897526
 21
39.88075518620197
 31
0.0
  0
TEXT
  5
153
  8
0
 62
     7
 10
-124.3943462897526
 20
40.88075518620197
 30
0.0
 40
2.2
  1
+0.3
 50
90.0
 41
0.8000000000000006
  7
FDASTYLE1
 72
     5
 11
-124.3943462897526
 21
47.92075518620198
 31
0.0
  0
TEXT
  5
154
  8
0
 62
     7
 10
-121.9943462897526
 20
40.88075518620197
 30
0.0
 40
2.2
  1
 0
 50
90.0
 41
0.7999999999999991
  7
FDASTYLE1
 72
     5
 11
-121.9943462897526
 21
44.40075518620197
 31
0.0
  0
ENDBLK
  5
93
  8
0
  0
BLOCK
  8
0
  2
DA_IMAGEDIMGROUP_23
 70
     0
 10
0.0
 20
0.0
 30
0.0
  3
DA_IMAGEDIMGROUP_23
  1

  0
TEXT
  5
155
  8
0
 62
     7
 10
-0.5903743753488828
 20
37.65169239673006
 30
0.0
 40
4.0
  1
MIN19
 50
90.0
 41
0.8
  7
FDASTYLE1
 72
     5
 11
-0.5903743753488828
 21
53.65169239673006
 31
0.0
  0
ENDBLK
  5
96
  8
0
  0
BLOCK
  8
0
  2
DA_IMAGEDIMGROUP_24
 70
     0
 10
0.0
 20
0.0
 30
0.0
  3
DA_IMAGEDIMGROUP_24
  1

  0
TEXT
  5
156
  8
LAYER0014
 62
     7
 10
-102.30856898729
 20
-35.43112594337561
 30
0.0
 40
4.0
  1
MIN15.8
 41
0.8000000000000002
  7
FDASTYLE1
 72
     5
 11
-79.90856898729003
 21
-35.43112594337561
 31
0.0
  0
ENDBLK
  5
99
  8
0
  0
BLOCK
  8
0
  2
DA_IMAGEDIMGROUP_25
 70
     0
 10
0.0
 20
0.0
 30
0.0
  3
DA_IMAGEDIMGROUP_25
  1

  0
LINE
  5
157
  8
0
  6
CONTINUOUS
 62
     9
 10
-118.9892789738659
 20
-5.399235368265536
 30
0.0
 11
-118.9892789738659
 21
-31.05961261614966
 31
0.0
  0
LINE
  5
158
  8
0
  6
CONTINUOUS
 62
     9
 10
-118.9892789738659
 20
-30.05961261614966
 30
0.0
 11
-102.7892820256237
 21
-30.05961261614966
 31
0.0
  0
LINE
  5
159
  8
0
  6
CONTINUOUS
 62
     9
 10
-135.7211289738659
 20
-30.05961261614966
 30
0.0
 11
-118.9892789738659
 21
-30.05961261614966
 31
0.0
  0
INSERT
  5
15A
  8
0
 62
     9
  2
_OPEN30
 10
-118.9892789738659
 20
-30.05961261614966
 30
0.0
 41
1.999998407630662
 42
2.000005728319971
 50
360.0
  0
TEXT
  5
15B
  8
0
 62
     7
 10
-134.7211289738659
 20
-29.05961261614966
 30
0.0
 40
4.0
  1
16.2
 41
0.8000000000000007
  7
FDASTYLE1
 72
     5
 11
-121.9211289738659
 21
-29.05961261614966
 31
0.0
  0
ENDBLK
  5
9C
  8
0
  0
BLOCK
  8
0
  2
DC_GROUP_3
 70
     0
 10
0.0
 20
0.0
 30
0.0
  3
DC_GROUP_3
  1

  0
LINE
  5
15C
  8
0
  6
CONTINUOUS
 62
     5
 10
123.8090671747354
 20
64.95646119041979
 30
0.0
 11
123.8090667937651
 21
61.95945734091337
 31
0.0
  0
LINE
  5
15D
  8
0
  6
CONTINUOUS
 62
     5
 10
124.3085584577291
 20
64.45698328247158
 30
0.0
 11
123.8090614932481
 21
64.95648024762846
 31
0.0
  0
LINE
  5
15E
  8
0
  6
CONTINUOUS
 62
     5
 10
123.3095848698208
 20
64.4569351412383
 30
0.0
 11
123.809088936637
 21
64.95643937579882
 31
0.0
  0
LINE
  5
15F
  8
0
  6
CONTINUOUS
 62
     5
 10
123.8091024642581
 20
61.95941536990467
 30
0.0
 11
124.3086065310743
 21
62.45891960446519
 31
0.0
  0
LINE
  5
160
  8
0
  6
CONTINUOUS
 62
     5
 10
123.8090700244404
 20
61.95947824845709
 30
0.0
 11
123.30956587409
 21
62.45898239948333
 31
0.0
  0
LINE
  5
161
  8
0
  6
CONTINUOUS
 62
     5
 10
118.814052448866
 20
65.45596992993418
 30
0.0
 11
128.804052577612
 21
65.45596866003487
 31
0.0
  0
LINE
  5
162
  8
0
  6
CONTINUOUS
 62
     5
 10
125.05832410854
 20
69.13698815692553
 30
0.0
 11
124.4093564073275
 21
69.03420183060459
 31
0.0
  0
LINE
  5
163
  8
0
  6
CONTINUOUS
 62
     5
 10
125.0583413761878
 20
69.13699233171332
 30
0.0
 11
124.9555565221193
 21
69.78594995652415
 31
0.0
  0
LINE
  5
164
  8
0
  6
CONTINUOUS
 62
     5
 10
128.8040576587889
 20
65.4559694539681
 30
0.0
 11
128.8040582937387
 21
70.45097015348821
 31
0.0
  0
LINE
  5
165
  8
0
  6
CONTINUOUS
 62
     5
 10
118.8140524486679
 20
70.45096507191724
 30
0.0
 11
128.8040525774139
 21
70.45096380201792
 31
0.0
  0
LINE
  5
166
  8
0
  6
CONTINUOUS
 62
     5
 10
118.8140505434243
 20
65.4559669129857
 30
0.0
 11
118.8140514958487
 21
72.94846637439811
 31
0.0
  0
LINE
  5
167
  8
0
  6
CONTINUOUS
 62
     5
 10
118.8140524485693
 20
72.94846605682444
 30
0.0
 11
120.3125524678812
 21
72.94846586633955
 31
0.0
  0
LINE
  5
168
  8
0
  6
CONTINUOUS
 62
     5
 10
120.3125577713884
 20
72.19921014035897
 30
0.0
 11
120.3125578666302
 21
72.9484550688381
 31
0.0
  0
LINE
  5
169
  8
0
  6
CONTINUOUS
 62
     5
 10
120.3125523726387
 20
72.19921553911004
 30
0.0
 11
121.3115523855133
 21
72.19921541212011
 31
0.0
  0
LINE
  5
16A
  8
0
  6
CONTINUOUS
 62
     5
 10
121.311546573947
 20
71.44996635518554
 30
0.0
 11
121.3115466691895
 21
72.19921636484149
 31
0.0
  0
LINE
  5
16B
  8
0
  6
CONTINUOUS
 62
     5
 10
121.3115624526237
 20
71.44995873341829
 30
0.0
 11
122.3105624654983
 21
71.44995860642835
 31
0.0
  0
LINE
  5
16C
  8
0
  6
CONTINUOUS
 62
     5
 10
122.3105429665227
 20
70.45096637410822
 30
0.0
 11
122.3105430935126
 21
71.44996622819605
 31
0.0
  0
LINE
  5
16D
  8
0
  6
CONTINUOUS
 62
     5
 10
123.3095773128976
 20
72.01622807910498
 30
0.0
 11
123.8090813797137
 21
72.51573231366548
 31
0.0
  0
LINE
  5
16E
  8
0
  6
CONTINUOUS
 62
     5
 10
121.8379444017366
 20
72.51573868092805
 30
0.0
 11
123.8090548509017
 21
72.51573843036631
 31
0.0
  0
LINE
  5
16F
  8
0
  6
CONTINUOUS
 62
     5
 10
123.8090621720372
 20
72.51575679273157
 30
0.0
 11
123.3095652075562
 21
73.01525375788845
 31
0.0
  0
ARC
  5
170
  8
0
  6
CONTINUOUS
 62
     5
 10
123.8221238338206
 20
67.9007808563742
 30
0.0
 40
1.748251292824762
 50
45.00009050223355
 51
339.9999427553704
  0
TEXT
  5
171
  8
0
 62
     5
 10
122.557052591034
 20
62.82259772157953
 30
0.0
 40
1.665000021457672
  1
F
 50
89.99999271672967
 41
0.8791213035583524
  7
FDASTYLE1
 72
     5
 11
122.5570527770999
 21
64.28633471086808
 31
0.0
  0
TEXT
  5
172
  8
0
 62
     5
 10
127.5647783286651
 20
68.01338791290253
 30
0.0
 40
1.665000021457672
  1
N min
 50
89.99999271672967
 41
0.7983872809842185
  7
FDASTYLE1
 72
     5
 11
127.564779376332
 21
76.25513801911792
 31
0.0
  0
TEXT
  5
173
  8
0
 62
     5
 10
126.3800677969375
 20
76.62976272795521
 30
0.0
 40
0.8325000107288361
  1
-1
 50
89.99999271672967
 41
0.7826089106345602
  7
FDASTYLE1
 72
     5
 11
126.3800679874224
 21
78.12826292590223
 31
0.0
  0
TEXT
  5
174
  8
0
 62
     5
 10
123.6908832455192
 20
73.65060444230763
 30
0.0
 40
1.665000021457672
  1
ΣS
 50
89.99999271672967
 41
0.9590411728078688
  7
FDASTYLE1
 72
     5
 11
123.6908836920773
 21
77.16357230357616
 31
0.0
  0
ENDBLK
  5
9F
  8
0
  0
BLOCK
  8
0
  2
DA_IMAGEDIMGROUP_26
 70
     0
 10
0.0
 20
0.0
 30
0.0
  3
DA_IMAGEDIMGROUP_26
  1

  0
LINE
  5
175
  8
LAYER0014
  6
CONTINUOUS
 62
     7
 10
92.82212383382057
 20
-17.45656185915283
 30
0.0
 11
92.82212383382057
 21
-45.0992191436258
 31
0.0
  0
LINE
  5
176
  8
LAYER0014
  6
CONTINUOUS
 62
     7
 10
114.8221238338206
 20
-17.85856440171745
 30
0.0
 11
114.8221238338206
 21
-45.0992191436258
 31
0.0
  0
LINE
  5
177
  8
LAYER0014
  6
CONTINUOUS
 62
     7
 10
92.82212383382057
 20
-44.0992191436258
 30
0.0
 11
114.8221238338206
 21
-44.0992191436258
 31
0.0
  0
INSERT
  5
178
  8
LAYER0014
 62
     7
  2
_OPEN30
 10
92.82212383382057
 20
-44.0992191436258
 30
0.0
 41
1.999998407630662
 42
2.000005728319971
 50
180.0
  0
INSERT
  5
179
  8
LAYER0014
 62
     7
  2
_OPEN30
 10
114.8221238338206
 20
-44.0992191436258
 30
0.0
 41
1.999998407630662
 42
2.000005728319971
 50
360.0
  0
TEXT
  5
17A
  8
LAYER0014
 62
     7
 10
100.6221238338206
 20
-43.0992191436258
 30
0.0
 40
4.0
  1
22
 41
0.8000000000000007
  7
FDASTYLE1
 72
     5
 11
107.0221238338206
 21
-43.0992191436258
 31
0.0
  0
ENDBLK
  5
A2
  8
0
  0
BLOCK
  8
0
  2
DC_GROUP_4
 70
     0
 10
0.0
 20
0.0
 30
0.0
  3
DC_GROUP_4
  1

  0
LINE
  5
17B
  8
LAYER0014
  6
CONTINUOUS
 62
     7
 10
125.2745098522801
 20
21.90472139028812
 30
0.0
 11
151.4887917065184
 21
-44.099219692022
 31
0.0
  0
INSERT
  5
17C
  8
LAYER0014
 62
     7
  2
_OPEN30
 10
125.2745098522801
 20
21.90472139028812
 30
0.0
 41
1.999998407630662
 42
2.000005728319971
 50
111.6611138136601
  0
LINE
  5
17D
  8
LAYER0014
  6
CONTINUOUS
 62
     7
 10
151.4887955867503
 20
-44.0992191436258
 30
0.0
 11
184.7030112647987
 21
-44.0992191436258
 31
0.0
  0
TEXT
  5
17E
  8
LAYER0014
 62
     7
 10
152.0300095760081
 20
-42.4992191436258
 30
0.0
 40
4.0
  1
4-M4 PCD48
 41
0.8
  7
FDASTYLE1
 72
     5
 11
184.0300095760081
 21
-42.4992191436258
 31
0.0
  0
ENDBLK
  5
A5
  8
0
  0
BLOCK
  8
0
  2
DC_GROUP_5
 70
     0
 10
0.0
 20
0.0
 30
0.0
  3
DC_GROUP_5
  1

  0
LINE
  5
17F
  8
LAYER0014
  6
CONTINUOUS
 62
     7
 10
70.60779292097482
 20
10.23805115470709
 30
0.0
 11
51.48879497467635
 21
-44.09921911044926
 31
0.0
  0
INSERT
  5
180
  8
LAYER0014
 62
     7
  2
_OPEN30
 10
70.60779292097482
 20
10.23805115470709
 30
0.0
 41
1.999998407630662
 42
2.000005728319971
 50
70.61517583209384
  0
LINE
  5
181
  8
LAYER0014
  6
CONTINUOUS
 62
     7
 10
51.48879558675026
 20
-44.0992191436258
 30
0.0
 11
26.8980988892828
 21
-44.0992191436258
 31
0.0
  0
TEXT
  5
182
  8
LAYER0014
 62
     7
 10
27.75547878377174
 20
-42.4992191436258
 30
0.0
 40
4.0
  1
PCD70.6
 41
0.8
  7
FDASTYLE1
 72
     5
 11
50.15547878377174
 21
-42.4992191436258
 31
0.0
  0
ENDBLK
  5
A8
  8
0
  0
BLOCK
  8
0
  2
DA_IMAGEDIMGROUP_27
 70
     0
 10
0.0
 20
0.0
 30
0.0
  3
DA_IMAGEDIMGROUP_27
  1

  0
LINE
  5
183
  8
0
  6
CONTINUOUS
 62
     9
 10
158.5093100413909
 20
4.327142444924728
 30
0.0
 11
145.5348537920881
 21
11.81794742545004
 31
0.0
  0
LINE
  5
184
  8
0
  6
CONTINUOUS
 62
     9
 10
166.9694355945767
 20
35.90076386879501
 30
0.0
 11
159.714498328778
 21
35.90076386879501
 31
0.0
  0
ARC
  5
185
  8
0
  6
CONTINUOUS
 62
     9
 10
103.8221875143639
 20
35.90076386879501
 30
0.0
 40
62.14724808021282
 50
330.0000027410345
 51
360.0
  0
INSERT
  5
186
  8
0
 62
     9
  2
_OPEN30
 10
157.6432846136864
 20
4.827142403494005
 30
0.0
 41
1.999998407630662
 42
2.000005728319971
 50
240.921938139845
  0
INSERT
  5
187
  8
0
 62
     9
  2
_OPEN30
 10
165.9694355945767
 20
35.900763868795
 30
0.0
 41
1.999998407630662
 42
2.000005728319971
 50
89.07806460118971
  0
TEXT
  5
188
  8
0
 62
     7
 10
161.6435627145181
 20
15.43824892692931
 30
0.0
 40
4.0
  1
30°
 50
75.00000137051721
 41
0.7500000000000013
  7
FDASTYLE1
 72
     5
 11
164.1282253256945
 21
24.71113691873761
 31
0.0
  0
ENDBLK
  5
AB
  8
0
  0
BLOCK
  8
0
  2
DA_IMAGEDIMGROUP_28
 70
     0
 10
0.0
 20
0.0
 30
0.0
  3
DA_IMAGEDIMGROUP_28
  1

  0
LINE
  5
189
  8
0
  6
CONTINUOUS
 62
     9
 10
158.5024832645769
 20
67.47048061764426
 30
0.0
 11
144.9633348388528
 21
59.65365049307265
 31
0.0
  0
ARC
  5
18A
  8
0
  6
CONTINUOUS
 62
     9
 10
103.8221238338206
 20
35.90076386879501
 30
0.0
 40
62.13943872952365
 50
0.0
 51
29.99999725896549
  0
INSERT
  5
18B
  8
0
 62
     9
  2
_OPEN30
 10
165.9615625633442
 20
35.90076386879501
 30
0.0
 41
1.999998407630662
 42
2.000005728319971
 50
270.9220512626962
  0
INSERT
  5
18C
  8
0
 62
     9
  2
_OPEN30
 10
157.6364578368724
 20
66.97048065907498
 30
0.0
 41
1.999998407630662
 42
2.000005728319971
 50
119.0779459962683
  0
TEXT
  5
18D
  8
0
 62
     7
 10
164.1206183915857
 20
47.08836961034454
 30
0.0
 40
4.0
  1
30°
 50
104.9999986294827
 41
0.7500000000000014
  7
FDASTYLE1
 72
     5
 11
161.6359557804093
 21
56.36125760215285
 31
0.0
  0
ENDBLK
  5
AE
  8
0
  0
BLOCK
  8
0
  2
DA_IMAGEDIMGROUP_29
 70
     0
 10
0.0
 20
0.0
 30
0.0
  3
DA_IMAGEDIMGROUP_29
  1

  0
LINE
  5
18E
  8
0
  6
CONTINUOUS
 62
     9
 10
50.00252589720532
 20
66.97355655817381
 30
0.0
 11
61.99310761407968
 21
60.05079174103663
 31
0.0
  0
LINE
  5
18F
  8
0
  6
CONTINUOUS
 62
     9
 10
47.32005841763466
 20
35.90076386879506
 30
0.0
 11
41.66868918563227
 21
35.90076386879502
 31
0.0
  0
ARC
  5
190
  8
0
  6
CONTINUOUS
 62
     9
 10
103.8221875143639
 20
35.90076386879502
 30
0.0
 40
61.14559052823105
 50
150.0000027410345
 51
180.0
  0
INSERT
  5
191
  8
0
 62
     9
  2
_OPEN30
 10
50.8685513249098
 20
66.47355659960454
 30
0.0
 41
1.999998407630662
 42
2.000005728319971
 50
60.93704084057437
  0
INSERT
  5
192
  8
0
 62
     9
  2
_OPEN30
 10
42.67659698613281
 20
35.90076386879503
 30
0.0
 41
1.999998407630662
 42
2.000005728319971
 50
269.06296190046
  0
TEXT
  5
193
  8
0
 62
     7
 10
42.55182494283107
 20
47.34878083486707
 30
0.0
 40
4.0
  1
30°
 50
75.00000137051727
 41
0.7500000000000003
  7
FDASTYLE1
 72
     5
 11
45.03648755400743
 21
56.62166882667536
 31
0.0
  0
ENDBLK
  5
B1
  8
0
  0
BLOCK
  8
0
  2
DA_IMAGEDIMGROUP_30
 70
     0
 10
0.0
 20
0.0
 30
0.0
  3
DA_IMAGEDIMGROUP_30
  1

  0
LINE
  5
194
  8
0
  6
CONTINUOUS
 62
     9
 10
41.66868918563227
 20
35.90076386879502
 30
0.0
 11
41.99766031736095
 21
35.90076386879502
 31
0.0
  0
LINE
  5
195
  8
0
  6
CONTINUOUS
 62
     9
 10
49.99566900932105
 20
4.824049119762581
 30
0.0
 11
62.15979686100473
 21
11.84701083347876
 31
0.0
  0
ARC
  5
196
  8
0
  6
CONTINUOUS
 62
     9
 10
103.8221238338204
 20
35.90076386879493
 30
0.0
 40
61.15343464818816
 50
179.9999999999999
 51
209.9999972589654
  0
INSERT
  5
197
  8
0
 62
     9
  2
_OPEN30
 10
42.66868918563227
 20
35.90076386879502
 30
0.0
 41
1.999998407630662
 42
2.000005728319971
 50
90.93691790613926
  0
INSERT
  5
198
  8
0
 62
     9
  2
_OPEN30
 10
50.86169443702551
 20
5.324049078331882
 30
0.0
 41
1.999998407630662
 42
2.000005728319971
 50
299.063079352826
  0
TEXT
  5
199
  8
0
 62
     7
 10
44.47603608914805
 20
24.96835473926225
 30
0.0
 40
4.0
  1
30°
 50
-75.00000137051733
 41
0.7499999999999992
  7
FDASTYLE1
 72
     5
 11
46.96069870032439
 21
15.69546674745397
 31
0.0
  0
ENDBLK
  5
B4
  8
0
  0
BLOCK
  8
0
  2
DA_IMAGEDIMGROUP_31
 70
     0
 10
0.0
 20
0.0
 30
0.0
  3
DA_IMAGEDIMGROUP_31
  1

  0
LINE
  5
19A
  8
0
  6
CONTINUOUS
 62
     9
 10
92.32212383382057
 20
39.48468786808008
 30
0.0
 11
115.3221238338206
 21
39.48468786808008
 31
0.0
  0
INSERT
  5
19B
  8
0
 62
     9
  2
_OPEN30
 10
92.32212383382057
 20
39.48468786808008
 30
0.0
 41
1.999998407630662
 42
2.000005728319971
 50
180.0
  0
INSERT
  5
19C
  8
0
 62
     9
  2
_OPEN30
 10
115.3221238338206
 20
39.48468786808008
 30
0.0
 41
1.999998407630662
 42
2.000005728319971
 50
360.0
  0
LINE
  5
19D
  8
0
  6
CONTINUOUS
 62
     9
 10
143.7656065959953
 20
39.48468786808008
 30
0.0
 11
115.3221238338206
 21
39.48468786808008
 31
0.0
  0
LINE
  5
19E
  8
0
  6
CONTINUOUS
 62
     9
 10
92.32212383382057
 20
39.79564193168432
 30
0.0
 11
92.32212383382057
 21
38.48468786808008
 31
0.0
  0
LINE
  5
19F
  8
0
  6
CONTINUOUS
 62
     9
 10
115.3221238338206
 20
39.79564193168432
 30
0.0
 11
115.3221238338206
 21
38.48468786808008
 31
0.0
  0
TEXT
  5
1A0
  8
0
 62
     7
 10
126.7656065959954
 20
40.48468786808008
 30
0.0
 40
4.0
  1
PCD23
 41
0.7999999999999993
  7
FDASTYLE1
 72
     5
 11
142.7656065959953
 21
40.48468786808008
 31
0.0
  0
ENDBLK
  5
B7
  8
0
  0
BLOCK
  8
0
  2
DC_GROUP_6
 70
     0
 10
0.0
 20
0.0
 30
0.0
  3
DC_GROUP_6
  1

  0
LINE
  5
1A1
  8
0
  6
CONTINUOUS
 62
     7
 10
91.61327145634745
 20
36.99050153583835
 30
0.0
 11
55.27840009737328
 21
81.22092237943201
 31
0.0
  0
INSERT
  5
1A2
  8
0
 62
     7
  2
_OPEN30
 10
91.61327145634745
 20
36.99050153583835
 30
0.0
 41
1.999998407630662
 42
2.000005728319971
 50
309.4027799155433
  0
LINE
  5
1A3
  8
0
  6
CONTINUOUS
 62
     7
 10
55.27840009737328
 20
81.22092237943201
 30
0.0
 11
36.07840009737328
 21
81.22092237943201
 31
0.0
  0
TEXT
  5
1A4
  8
0
 62
     7
 10
36.07840009737328
 20
81.22092237943201
 30
0.0
 40
4.0
  1
2-φ2.6
 41
0.7741935483870969
  7
FDASTYLE1
 72
     5
 11
55.27840009737328
 21
81.22092237943201
 31
0.0
  0
ENDBLK
  5
BA
  8
0
  0
BLOCK
  8
0
  2
_OPEN30
 70
     0
 10
0.0
 20
0.0
 30
0.0
  3
_OPEN30
  1

  0
LINE
  5
C1
  8
0
  6
BYBLOCK
 62
     0
 10
-1.0
 20
0.267949
 30
0.0
 11
0.0
 21
0.0
 31
0.0
  0
LINE
  5
C2
  8
0
  6
BYBLOCK
 62
     0
 10
0.0
 20
0.0
 30
0.0
 11
-1.0
 21
-0.267949
 31
0.0
  0
LINE
  5
C3
  8
0
  6
BYBLOCK
 62
     0
 10
0.0
 20
0.0
 30
0.0
 11
-1.0
 21
0.0
 31
0.0
  0
ENDBLK
  5
C0
  8
0
  0
ENDSEC
  0
SECTION
  2
ENTITIES
  0
LINE
  5
1A5
  8
ZUWAKU
  6
CONTINUOUS
 62
     3
 10
-192.0
 20
-138.4999999999999
 30
0.0
 11
-192.0
 21
138.4999999999999
 31
0.0
  0
LINE
  5
1A6
  8
ZUWAKU
  6
CONTINUOUS
 62
     3
 10
192.0
 20
-138.4999999999999
 30
0.0
 11
192.0
 21
138.4999999999999
 31
0.0
  0
LINE
  5
1A7
  8
ZUWAKU
  6
CONTINUOUS
 62
     3
 10
-192.0
 20
-138.4999999999999
 30
0.0
 11
192.0
 21
-138.4999999999999
 31
0.0
  0
LINE
  5
1A8
  8
ZUWAKU
  6
CONTINUOUS
 62
     3
 10
-192.0
 20
138.4999999999999
 30
0.0
 11
192.0
 21
138.4999999999999
 31
0.0
  0
LINE
  5
1A9
  8
ZUWAKU
  6
CONTINUOUS
 62
     3
 10
12.00000000000001
 20
-138.4999999999999
 30
0.0
 11
12.00000000000001
 21
-78.49999999999994
 31
0.0
  0
LINE
  5
1AA
  8
ZUWAKU
  6
CONTINUOUS
 62
     3
 10
12.00000000000001
 20
-124.4999999999999
 30
0.0
 11
192.0
 21
-124.4999999999999
 31
0.0
  0
LINE
  5
1AB
  8
ZUWAKU
  6
CONTINUOUS
 62
     3
 10
61.00000000000001
 20
-110.4999999999999
 30
0.0
 11
192.0
 21
-110.4999999999999
 31
0.0
  0
LINE
  5
1AC
  8
ZUWAKU
  6
CONTINUOUS
 62
     3
 10
61.00000000000001
 20
-96.49999999999994
 30
0.0
 11
192.0
 21
-96.49999999999994
 31
0.0
  0
LINE
  5
1AD
  8
ZUWAKU
  6
CONTINUOUS
 62
     3
 10
61.00000000000001
 20
-86.49999999999994
 30
0.0
 11
192.0
 21
-86.49999999999994
 31
0.0
  0
LINE
  5
1AE
  8
ZUWAKU
  6
CONTINUOUS
 62
     3
 10
61.00000000000001
 20
-124.4999999999999
 30
0.0
 11
61.00000000000001
 21
-78.49999999999994
 31
0.0
  0
LINE
  5
1AF
  8
ZUWAKU
  6
CONTINUOUS
 62
     3
 10
170.0
 20
-124.4999999999999
 30
0.0
 11
170.0
 21
-78.49999999999994
 31
0.0
  0
LINE
  5
1B0
  8
ZUWAKU
  6
CONTINUOUS
 62
     3
 10
86.00000000000001
 20
-138.4999999999999
 30
0.0
 11
86.00000000000001
 21
-124.4999999999999
 31
0.0
  0
LINE
  5
1B1
  8
ZUWAKU
  6
CONTINUOUS
 62
     3
 10
177.0
 20
-136.4999999999999
 30
0.0
 11
187.0
 21
-136.4999999999999
 31
0.0
  0
LINE
  5
1B2
  8
ZUWAKU
  6
CONTINUOUS
 62
     3
 10
182.0
 20
-126.4999999999999
 30
0.0
 11
177.0
 21
-136.4999999999999
 31
0.0
  0
LINE
  5
1B3
  8
ZUWAKU
  6
CONTINUOUS
 62
     3
 10
182.0
 20
-126.4999999999999
 30
0.0
 11
187.0
 21
-136.4999999999999
 31
0.0
  0
LINE
  5
1B4
  8
ZUWAKU
  6
CONTINUOUS
 62
     3
 10
12.00000000000001
 20
-78.49999999999994
 30
0.0
 11
192.0
 21
-78.49999999999994
 31
0.0
  0
LINE
  5
1B5
  8
ZUWAKU
  6
CONTINUOUS
 62
     3
 10
141.0
 20
-124.4999999999999
 30
0.0
 11
141.0
 21
-96.49999999999994
 31
0.0
  0
LINE
  5
1B6
  8
ZUWAKU
  6
CONTINUOUS
 62
     4
 10
20.00000000000001
 20
-120.4999999999999
 30
0.0
 11
20.00000000000001
 21
-78.49999999999994
 31
0.0
  0
LINE
  5
1B7
  8
ZUWAKU
  6
CONTINUOUS
 62
     4
 10
24.00000000000001
 20
-120.4999999999999
 30
0.0
 11
24.00000000000001
 21
-78.49999999999994
 31
0.0
  0
LINE
  5
1B8
  8
ZUWAKU
  6
CONTINUOUS
 62
     4
 10
36.50000000000001
 20
-124.4999999999999
 30
0.0
 11
36.50000000000001
 21
-78.49999999999994
 31
0.0
  0
LINE
  5
1B9
  8
ZUWAKU
  6
CONTINUOUS
 62
     4
 10
12.00000000000001
 20
-85.49999999999994
 30
0.0
 11
61.00000000000001
 21
-85.49999999999994
 31
0.0
  0
LINE
  5
1BA
  8
ZUWAKU
  6
CONTINUOUS
 62
     4
 10
12.00000000000001
 20
-92.49999999999994
 30
0.0
 11
61.00000000000001
 21
-92.49999999999994
 31
0.0
  0
LINE
  5
1BB
  8
ZUWAKU
  6
CONTINUOUS
 62
     4
 10
12.00000000000001
 20
-113.4999999999999
 30
0.0
 11
61.00000000000001
 21
-113.4999999999999
 31
0.0
  0
LINE
  5
1BC
  8
ZUWAKU
  6
CONTINUOUS
 62
     4
 10
12.00000000000001
 20
-120.4999999999999
 30
0.0
 11
61.00000000000001
 21
-120.4999999999999
 31
0.0
  0
LINE
  5
1BD
  8
ZUWAKU
  6
CONTINUOUS
 62
     4
 10
170.0
 20
-114.4999999999999
 30
0.0
 11
192.0
 21
-114.4999999999999
 31
0.0
  0
LINE
  5
1BE
  8
ZUWAKU
  6
CONTINUOUS
 62
     4
 10
68.00000000000001
 20
-87.99999999999994
 30
0.0
 11
68.00000000000001
 21
-78.49999999999994
 31
0.0
  0
LINE
  5
1BF
  8
ZUWAKU
  6
CONTINUOUS
 62
     4
 10
117.0
 20
-96.49999999999994
 30
0.0
 11
117.0
 21
-94.99999999999994
 31
0.0
  0
LINE
  5
1C0
  8
ZUWAKU
  6
CONTINUOUS
 62
     4
 10
141.0
 20
-96.49999999999994
 30
0.0
 11
141.0
 21
-94.99999999999994
 31
0.0
  0
LINE
  5
1C1
  8
ZUWAKU
  6
CONTINUOUS
 62
     4
 10
158.0
 20
-96.49999999999994
 30
0.0
 11
158.0
 21
-94.99999999999994
 31
0.0
  0
LINE
  5
1C2
  8
ZUWAKU
  6
CONTINUOUS
 62
     4
 10
117.0
 20
-87.99999999999994
 30
0.0
 11
117.0
 21
-78.49999999999994
 31
0.0
  0
LINE
  5
1C3
  8
ZUWAKU
  6
CONTINUOUS
 62
     4
 10
141.0
 20
-87.99999999999994
 30
0.0
 11
141.0
 21
-78.49999999999994
 31
0.0
  0
LINE
  5
1C4
  8
ZUWAKU
  6
CONTINUOUS
 62
     4
 10
158.0
 20
-87.99999999999994
 30
0.0
 11
158.0
 21
-78.49999999999994
 31
0.0
  0
LINE
  5
1C5
  8
ZUWAKU
  6
CONTINUOUS
 62
     4
 10
12.00000000000001
 20
-99.49999999999994
 30
0.0
 11
61.00000000000001
 21
-99.49999999999994
 31
0.0
  0
LINE
  5
1C6
  8
ZUWAKU
  6
CONTINUOUS
 62
     4
 10
12.00000000000001
 20
-106.4999999999999
 30
0.0
 11
61.00000000000001
 21
-106.4999999999999
 31
0.0
  0
LINE
  5
1C7
  8
ZUWAKU
  6
CONTINUOUS
 62
     4
 10
16.00000000000001
 20
-78.99999999999994
 30
0.0
 11
13.00000000000001
 21
-84.99999999999994
 31
0.0
  0
LINE
  5
1C8
  8
ZUWAKU
  6
CONTINUOUS
 62
     4
 10
16.00000000000001
 20
-78.99999999999994
 30
0.0
 11
19.00000000000001
 21
-84.99999999999994
 31
0.0
  0
LINE
  5
1C9
  8
ZUWAKU
  6
CONTINUOUS
 62
     4
 10
13.00000000000001
 20
-84.99999999999994
 30
0.0
 11
19.00000000000001
 21
-84.99999999999994
 31
0.0
  0
LINE
  5
1CA
  8
ZUWAKU
  6
CONTINUOUS
 62
     4
 10
16.00000000000001
 20
-106.9999999999999
 30
0.0
 11
13.00000000000001
 21
-112.9999999999999
 31
0.0
  0
LINE
  5
1CB
  8
ZUWAKU
  6
CONTINUOUS
 62
     4
 10
16.00000000000001
 20
-106.9999999999999
 30
0.0
 11
19.00000000000001
 21
-112.9999999999999
 31
0.0
  0
LINE
  5
1CC
  8
ZUWAKU
  6
CONTINUOUS
 62
     4
 10
13.00000000000001
 20
-112.9999999999999
 30
0.0
 11
19.00000000000001
 21
-112.9999999999999
 31
0.0
  0
LINE
  5
1CD
  8
ZUWAKU
  6
CONTINUOUS
 62
     4
 10
16.00000000000001
 20
-99.99999999999994
 30
0.0
 11
13.00000000000001
 21
-105.9999999999999
 31
0.0
  0
LINE
  5
1CE
  8
ZUWAKU
  6
CONTINUOUS
 62
     4
 10
16.00000000000001
 20
-99.99999999999994
 30
0.0
 11
19.00000000000001
 21
-105.9999999999999
 31
0.0
  0
LINE
  5
1CF
  8
ZUWAKU
  6
CONTINUOUS
 62
     4
 10
13.00000000000001
 20
-105.9999999999999
 30
0.0
 11
19.00000000000001
 21
-105.9999999999999
 31
0.0
  0
LINE
  5
1D0
  8
ZUWAKU
  6
CONTINUOUS
 62
     4
 10
16.00000000000001
 20
-92.99999999999994
 30
0.0
 11
13.00000000000001
 21
-98.99999999999994
 31
0.0
  0
LINE
  5
1D1
  8
ZUWAKU
  6
CONTINUOUS
 62
     4
 10
16.00000000000001
 20
-92.99999999999994
 30
0.0
 11
19.00000000000001
 21
-98.99999999999994
 31
0.0
  0
LINE
  5
1D2
  8
ZUWAKU
  6
CONTINUOUS
 62
     4
 10
13.00000000000001
 20
-98.99999999999994
 30
0.0
 11
19.00000000000001
 21
-98.99999999999994
 31
0.0
  0
LINE
  5
1D3
  8
ZUWAKU
  6
CONTINUOUS
 62
     4
 10
16.00000000000001
 20
-85.99999999999994
 30
0.0
 11
13.00000000000001
 21
-91.99999999999994
 31
0.0
  0
LINE
  5
1D4
  8
ZUWAKU
  6
CONTINUOUS
 62
     4
 10
16.00000000000001
 20
-85.99999999999994
 30
0.0
 11
19.00000000000001
 21
-91.99999999999994
 31
0.0
  0
LINE
  5
1D5
  8
ZUWAKU
  6
CONTINUOUS
 62
     4
 10
13.00000000000001
 20
-91.99999999999994
 30
0.0
 11
19.00000000000001
 21
-91.99999999999994
 31
0.0
  0
LINE
  5
1D6
  8
ZUWAKU
  6
CONTINUOUS
 62
     4
 10
87.66666666666664
 20
-124.4999999999999
 30
0.0
 11
87.66666666666664
 21
-110.4999999999999
 31
0.0
  0
LINE
  5
1D7
  8
ZUWAKU
  6
CONTINUOUS
 62
     4
 10
114.3333333333333
 20
-124.4999999999999
 30
0.0
 11
114.3333333333333
 21
-110.4509415757252
 31
0.0
  0
LINE
  5
1D8
  8
ZUWAKU
  6
CONTINUOUS
 62
     4
 10
127.6666666666666
 20
-115.9999999999999
 30
0.0
 11
127.6666666666666
 21
-110.4509415757252
 31
0.0
  0
LINE
  5
1D9
  8
ZUWAKU
  6
CONTINUOUS
 62
     4
 10
141.0
 20
-103.4999999999999
 30
0.0
 11
170.0
 21
-103.4999999999999
 31
0.0
  0
LINE
  5
1DA
  8
ZUWAKU
  6
CONTINUOUS
 62
     4
 10
60.99999999999999
 20
-114.4999999999999
 30
0.0
 11
141.0
 21
-114.4999999999999
 31
0.0
  0
TEXT
  5
1DC
  8
ZUWAKU
 62
     7
 10
63.31323014747473
 20
-79.32118872895592
 30
0.0
 40
2.6656
  1
符号
 41
0.8
  7
FDASTYLE0
  0
TEXT
  5
1DD
  8
ZUWAKU
 62
     7
 10
77.41413112190584
 20
-84.32455250199624
 30
0.0
 40
4.0
  1
品       名
 41
0.7659574468085105
  7
FDASTYLE1
 72
     5
 11
106.2141311219058
 21
-84.32455250199624
 31
0.0
  0
TEXT
  5
1DE
  8
ZUWAKU
 62
     7
 10
122.2331564413096
 20
-84.32455250199624
 30
0.0
 40
4.0
  1
材  料
 41
0.7272727272727271
  7
FDASTYLE1
 72
     5
 11
135.0331564413096
 21
-84.32455250199624
 31
0.0
  0
TEXT
  5
1DF
  8
ZUWAKU
 62
     7
 10
144.516061684855
 20
-84.32455250199624
 30
0.0
 40
4.0
  1
個 数
 41
0.7058823529411761
  7
FDASTYLE1
 72
     5
 11
154.116061684855
 21
-84.32455250199624
 31
0.0
  0
TEXT
  5
1E0
  8
ZUWAKU
 62
     7
 10
160.721810952888
 20
-82.06490800505719
 30
0.0
 40
2.5
  1
単重量
 41
0.6666666666666666
  7
FDASTYLE1
 72
     5
 11
166.721810952888
 21
-82.06490800505719
 31
0.0
  0
TEXT
  5
1E1
  8
ZUWAKU
 62
     7
 10
159.7089516236359
 20
-85.86313048975242
 30
0.0
 40
2.5
  1
(kg)
 41
0.8
  7
FDASTYLE1
 72
     5
 11
167.7089516236359
 21
-85.86313048975242
 31
0.0
  0
TEXT
  5
1E2
  8
ZUWAKU
 62
     7
 10
174.1421970654778
 20
-84.32455250199624
 30
0.0
 40
4.0
  1
記  事
 41
0.7272727272727279
  7
FDASTYLE1
 72
     5
 11
186.9421970654778
 21
-84.32455250199624
 31
0.0
  0
TEXT
  5
1E3
  8
ZUWAKU
 62
     7
 10
173.8450794551645
 20
-113.9873041997729
 30
0.0
 40
3.0
  1
コード番号
 41
0.6666666666666666
  7
FDASTYLE1
 72
     5
 11
185.8450794551645
 21
-113.9873041997729
 31
0.0
  0
TEXT
  5
1E4
  8
ZUWAKU
 62
     7
 10
16.91199201583167
 20
-123.6879010540338
 30
0.0
 40
2.5
  1
訂 正 来 歴
 41
0.717948717948718
  7
FDASTYLE1
 72
     5
 11
30.91199201583167
 21
-123.6879010540338
 31
0.0
  0
TEXT
  5
1E5
  8
ZUWAKU
 62
     7
 10
40.89033484676499
 20
-123.7166697391651
 30
0.0
 40
2.5
  1
工 事 番 号
 41
0.717948717948718
  7
FDASTYLE1
 72
     5
 11
54.89033484676499
 21
-123.7166697391651
 31
0.0
  0
TEXT
  5
1E6
  8
ZUWAKU
 62
     7
 10
14.96483784660289
 20
-114.4634530565915
 30
0.0
 40
2.0825
  1
記号
 41
0.8
  7
FDASTYLE0
  0
TEXT
  5
1E7
  8
ZUWAKU
 62
     7
 10
20.90422490676183
 20
-114.4634530565915
 30
0.0
 40
2.0825
  1
理由
 41
0.8
  7
FDASTYLE0
  0
TEXT
  5
1E8
  8
ZUWAKU
 62
     7
 10
26.61936679098429
 20
-118.3786046700178
 30
0.0
 40
3.0
  1
日 付
 41
0.7058823529411769
  7
FDASTYLE1
 72
     5
 11
33.8193667909843
 21
-118.3786046700178
 31
0.0
  0
TEXT
  5
1E9
  8
ZUWAKU
 62
     7
 10
68.44816898196524
 20
-114.2187911464244
 30
0.0
 40
3.0
  1
承   認
 41
0.7407407407407408
  7
FDASTYLE1
 72
     5
 11
80.44816898196524
 21
-114.2187911464244
 31
0.0
  0
TEXT
  5
1EA
  8
ZUWAKU
 62
     7
 10
94.86322803323402
 20
-113.9873041997729
 30
0.0
 40
3.0
  1
検   図
 41
0.7407407407407408
  7
FDASTYLE1
 72
     5
 11
106.863228033234
 21
-113.9873041997729
 31
0.0
  0
TEXT
  5
1EB
  8
ZUWAKU
 62
     7
 10
116.4771920983751
 20
-113.9873041997729
 30
0.0
 40
3.0
  1
担  当
 41
0.7272727272727269
  7
FDASTYLE1
 72
     5
 11
126.0771920983751
 21
-113.9873041997729
 31
0.0
  0
TEXT
  5
1EC
  8
ZUWAKU
 62
     7
 10
129.6770574841112
 20
-113.9873041997729
 30
0.0
 40
3.0
  1
製  図
 41
0.7272727272727269
  7
FDASTYLE1
 72
     5
 11
139.2770574841112
 21
-113.9873041997729
 31
0.0
  0
TEXT
  5
1ED
  8
ZUWAKU
 62
     7
 10
141.9462372304199
 20
-101.7184960272417
 30
0.0
 40
3.0
  1
作図
 41
0.6666666666666683
  7
FDASTYLE1
 72
     5
 11
146.7462372304199
 21
-101.7184960272417
 31
0.0
  0
TEXT
  5
1EE
  8
ZUWAKU
 62
     7
 10
143.1036719636776
 20
-108.7371566401815
 30
0.0
 40
4.0
  1
第 三 角 法
 41
0.7179487179487182
  7
FDASTYLE1
 72
     5
 11
165.5036719636776
 21
-108.7371566401815
 31
0.0
  0
TEXT
  5
1EF
  8
ZUWAKU
 62
     7
 10
142.409211123723
 20
-114.913251986379
 30
0.0
 40
3.0
  1
尺度
 41
0.6666666666666683
  7
FDASTYLE1
 72
     5
 11
147.209211123723
 21
-114.913251986379
 31
0.0
  0
TEXT
  5
1F1
  8
ZUWAKU
 62
     3
 10
20.37915437003404
 20
-134.4272077185016
 30
0.0
 40
7.0
  1
株式会社 野村製作所
 41
0.5763738641280831
  7
FDASTYLE2
 72
     5
 11
76.37915437003404
 21
-134.4272077185016
 31
0.0
  0
TEXT
  5
1F3
  8
ZUWAKU
 62
     3
 10
98.61182179341655
 20
-135.6216685584562
 30
0.0
 40
8.0
  1
３－
 41
0.8244023083264632
  7
FDASTYLE3
 72
     5
 11
114.6118217934166
 21
-135.6216685584562
 31
0.0
  0
TEXT
  5
1F4
  8
ZUWAKU
 62
     3
 10
115.5237794178233
 20
-135.6216685584562
 30
0.0
 40
8.0
  1
9304004
 41
1.55417406749556
  7
FDASTYLE3
 72
     5
 11
171.5237794178233
 21
-135.6216685584562
 31
0.0
  0
TEXT
  5
1F5
  8
ZUWAKU
 62
     6
 10
145.7056952989098
 20
-93.7216474852281
 30
0.0
 40
3.2
  1
一式
 41
0.7610475333317444
  7
FDASTYLE1
 72
     5
 11
152.2463546989098
 21
-93.7216474852281
 31
0.0
  0
TEXT
  5
1F6
  8
ZUWAKU
 62
     6
 10
81.89523347633649
 20
-93.85890002285609
 30
0.0
 40
5.0
  1
外　形　図
 41
0.5833333333333334
  7
FDASTYLE1
 72
     5
 11
99.39523347633649
 21
-93.85890002285609
 31
0.0
  0
TEXT
  5
1F7
  8
ZUWAKU
 62
     4
 10
151.8208864698005
 20
-120.3093119866973
 30
0.0
 40
4.0
  1
1/1
 41
0.7999999999999995
  7
FDASTYLE1
 72
     5
 11
161.4208864698005
 21
-120.3093119866973
 31
0.0
  0
TEXT
  5
1F8
  8
0
 62
     6
 10
65.18456288116845
 20
-103.2345553619065
 30
0.0
 40
5.0
  1
日鋼プﾚｼジｫﾝ
 41
0.8583403611075855
  7
FDASTYLE1
 72
     5
 11
110.1955468811685
 21
-103.2345553619065
 31
0.0
  0
TEXT
  5
1F9
  8
0
 62
     6
 10
64.98377178142266
 20
-110.0746760671837
 30
0.0
 40
5.0
  1
  ＨF2-4型チャック
 41
0.85204506486655
  7
FDASTYLE1
 72
     5
 11
133.2035437814227
 21
-110.0746760671837
 31
0.0
  0
TEXT
  5
1FA
  8
0
 62
     6
 10
-141.8927530184661
 20
-76.67770103444863
 30
0.0
 40
2.599999904632568
  1
 仕  様
 41
0.8988766729733497
  7
FDASTYLE1
 72
     5
 11
-126.8070372477446
 21
-76.67770103444863
 31
0.0
  0
TEXT
  5
1FB
  8
0
 62
     6
 10
-141.8927530184661
 20
-81.67770103444863
 30
0.0
 40
2.599999904632568
  1
 1.爪ｽﾄﾛ-ｸ            
 41
0.9143941169627068
  7
FDASTYLE1
 72
     5
 11
-75.60703553113086
 21
-81.67770103444863
 31
0.0
  0
TEXT
  5
1FC
  8
0
 62
     6
 10
-74.80703636112554
 20
-81.35270104636956
 30
0.0
 40
1.949999928474426
  1
直径ﾆﾃ
 41
0.8957797606707526
  7
FDASTYLE1
 72
     5
 11
-65.89274961355073
 21
-81.35270104636956
 31
0.0
  0
TEXT
  5
1FD
  8
0
 62
     6
 10
-65.09275044354541
 20
-81.67770103444863
 30
0.0
 40
2.599999904632568
  1
      4 mm
 41
0.9081806113749069
  7
FDASTYLE1
 72
     5
 11
-34.00703413638217
 21
-81.67770103444863
 31
0.0
  0
TEXT
  5
1FE
  8
0
 62
     6
 10
-141.8927530184661
 20
-86.67770103444863
 30
0.0
 40
2.599999904632568
  1
 2.ﾋﾟｽﾄﾝｽﾄﾛ-ｸ                15 mm
 41
0.9098798219254533
  7
FDASTYLE1
 72
     5
 11
-34.00703413638217
 21
-86.67770103444863
 31
0.0
  0
TEXT
  5
1FF
  8
0
 62
     6
 10
-141.8927530184661
 20
-91.67770103444863
 30
0.0
 40
2.599999904632568
  1
 3.推奨ｼﾘﾝﾀﾞ           　　　FM5-17SB 型
 41
0.8932629671700616
  7
FDASTYLE1
 72
     5
 11
-34.00703413638217
 21
-91.67770103444863
 31
0.0
  0
TEXT
  5
200
  8
0
 62
     6
 10
-141.8927530184661
 20
-96.67770103444863
 30
0.0
 40
2.599999904632568
  1
 4.許容ｼﾘﾝﾀﾞ推力　               2.7 kN
 41
0.8971254974530134
  7
FDASTYLE1
 72
     5
 11
-34.00703413638217
 21
-96.67770103444863
 31
0.0
  0
TEXT
  5
201
  8
0
 62
     6
 10
-141.8927530184661
 20
-101.6777010344486
 30
0.0
 40
2.599999904632568
  1
 5.最大使用圧力  
 41
0.8582465783848269
  7
FDASTYLE1
 72
     5
 11
-107.6070366040145
 21
-101.6777010344486
 31
0.0
  0
TEXT
  5
202
  8
0
 62
     6
 10
-106.8070374340092
 20
-101.3527010463696
 30
0.0
 40
1.949999928474426
  1
（FM5-17SB型使用時)
 41
0.8782163977248174
  7
FDASTYLE1
 72
     5
 11
-73.89274988177164
 21
-101.3527010463696
 31
0.0
  0
TEXT
  5
203
  8
0
 62
     6
 10
-87.49275119456394
 20
-101.6777010344486
 30
0.0
 40
2.599999904632568
  1
   　 　　　　 0.9　MPa
 41
0.8763227163552347
  7
FDASTYLE1
 72
     5
 11
-34.00703413638217
 21
-101.6777010344486
 31
0.0
  0
TEXT
  5
204
  8
0
 62
     6
 10
-141.8927530184661
 20
-106.6777010344486
 30
0.0
 40
2.599999904632568
  1
 6.最大静的把握力               　　　9.5 kN
 41
0.8781398137959479
  7
FDASTYLE1
 72
     5
 11
-34.00703413638217
 21
-106.6777010344486
 31
0.0
  0
TEXT
  5
205
  8
0
 62
     6
 10
-141.8927530184661
 20
-111.6777010344486
 30
0.0
 40
2.599999904632568
  1
 7.最高使用回転速度              　7000 min
 41
0.8818723908514747
  7
FDASTYLE1
 72
     5
 11
-34.00703413638217
 21
-111.6777010344486
 31
0.0
  0
TEXT
  5
206
  8
0
 62
     6
 10
-33.32132056209189
 20
-109.8277010106068
 30
0.0
 40
1.299999952316284
  1
-1
 41
0.8971966190941251
  7
FDASTYLE1
 72
     5
 11
-30.57846283766371
 21
-109.8277010106068
 31
0.0
  0
TEXT
  5
207
  8
0
 62
     6
 10
-141.8927530184661
 20
-116.6777010344486
 30
0.0
 40
2.599999904632568
  1
 8.慣性モーメント              0.005 kg・m
 41
0.8856368343666786
  7
FDASTYLE1
 72
     5
 11
-34.00703413638217
 21
-116.6777010344486
 31
0.0
  0
TEXT
  5
208
  8
0
 62
     6
 10
-33.32132056209189
 20
-114.8277010106068
 30
0.0
 40
1.299999952316284
  1
2
 41
0.8791213174644367
  7
FDASTYLE1
 72
     5
 11
-32.1784628913079
 21
-114.8277010106068
 31
0.0
  0
TEXT
  5
209
  8
0
 62
     6
 10
-141.8927530184661
 20
-126.6777010344486
 30
0.0
 40
2.599999904632568
  1
10.ｱﾝﾊﾞﾗﾝｽ量         
 41
0.914588980416894
  7
FDASTYLE1
 72
     5
 11
-78.80703563841922
 21
-126.6777010344486
 31
0.0
  0
TEXT
  5
20A
  8
0
 62
     6
 10
-78.0070364684139
 20
-126.3527010463696
 30
0.0
 40
1.949999928474426
  1
ﾁｬｯｸ外周ﾆﾃ
 41
0.9033879846544078
  7
FDASTYLE1
 72
     5
 11
-59.49274939897401
 21
-126.3527010463696
 31
0.0
  0
TEXT
  5
20B
  8
0
 62
     6
 10
-58.69275022896869
 20
-126.6777010344486
 30
0.0
 40
2.599999904632568
  1
 　 2 g以内
 41
0.8865178178552928
  7
FDASTYLE1
 72
     5
 11
-34.00703413638217
 21
-126.6777010344486
 31
0.0
  0
TEXT
  5
20C
  8
0
 62
     6
 10
-141.8927530184661
 20
-121.6777010344486
 30
0.0
 40
2.599999904632568
  1
 9.質 量                      　　3 kg
 41
0.9010215764943601
  7
FDASTYLE1
 72
     5
 11
-34.00703413638217
 21
-121.6777010344486
 31
0.0
  0
LINE
  5
20D
  8
0
  6
CONTINUOUS
 62
     6
 10
-142.3499014511977
 20
-97.87770108213235
 30
0.0
 11
-30.34989382180316
 21
-97.87770108213235
 31
0.0
  0
LINE
  5
20E
  8
0
  6
CONTINUOUS
 62
     6
 10
-142.3499014511977
 20
-92.87770108213235
 30
0.0
 11
-30.34989382180316
 21
-92.87770108213235
 31
0.0
  0
LINE
  5
20F
  8
0
  6
CONTINUOUS
 62
     6
 10
-142.3499014511977
 20
-87.87770108213235
 30
0.0
 11
-30.34989382180316
 21
-87.87770108213235
 31
0.0
  0
LINE
  5
210
  8
0
  6
CONTINUOUS
 62
     6
 10
-142.3499014511977
 20
-82.87770108213235
 30
0.0
 11
-30.34989382180316
 21
-82.87770108213235
 31
0.0
  0
LINE
  5
211
  8
0
  6
CONTINUOUS
 62
     6
 10
-142.3499014511977
 20
-77.87770108213235
 30
0.0
 11
-123.9941580429946
 21
-77.87770108213235
 31
0.0
  0
LINE
  5
212
  8
0
  6
CONTINUOUS
 62
     6
 10
-142.3499014511977
 20
-102.8777010821324
 30
0.0
 11
-30.34989382180316
 21
-102.8777010821324
 31
0.0
  0
LINE
  5
213
  8
0
  6
CONTINUOUS
 62
     6
 10
-142.3499014511977
 20
-107.8777010821324
 30
0.0
 11
-30.34989382180316
 21
-107.8777010821324
 31
0.0
  0
LINE
  5
214
  8
0
  6
CONTINUOUS
 62
     6
 10
-142.3499014511977
 20
-112.8777010821324
 30
0.0
 11
-30.34989382180316
 21
-112.8777010821324
 31
0.0
  0
LINE
  5
215
  8
0
  6
CONTINUOUS
 62
     6
 10
-142.3499014511977
 20
-117.8777010821324
 30
0.0
 11
-30.34989382180316
 21
-117.8777010821324
 31
0.0
  0
LINE
  5
216
  8
0
  6
CONTINUOUS
 62
     6
 10
-142.3499014511977
 20
-127.8776934527378
 30
0.0
 11
-30.34989382180316
 21
-127.8776934527378
 31
0.0
  0
LINE
  5
217
  8
0
  6
CONTINUOUS
 62
     6
 10
-142.3499014511977
 20
-122.8777010821324
 30
0.0
 11
-30.34989382180316
 21
-122.8777010821324
 31
0.0
  0
LINE
  5
218
  8
0
  6
CENTER
 62
     7
 10
-110.6090441987354
 20
35.90076386879501
 30
0.0
 11
-49.86778737773015
 21
35.90076386879501
 31
0.0
  0
LINE
  5
219
  8
0
  6
CENTER
 62
     7
 10
-121.4174846224317
 20
0.6007646317344637
 30
0.0
 11
-49.16982859544793
 21
0.6007646317344637
 31
0.0
  0
LINE
  5
21A
  8
0
  6
CENTER
 62
     7
 10
-67.12846179674573
 20
11.90076386879501
 30
0.0
 11
-51.59829451099088
 21
11.90076386879501
 31
0.0
  0
LINE
  5
21B
  8
0
  6
CENTER
 62
     7
 10
-70.5159360783581
 20
48.40076386879501
 30
0.0
 11
-62.27815836839715
 21
48.40076386879501
 31
0.0
  0
LINE
  5
21C
  8
0
  6
CENTER
 62
     7
 10
-69.40677470140497
 20
78.40076386879501
 30
0.0
 11
-34.87400645189324
 21
78.40076386879501
 31
0.0
  0
LINE
  5
21D
  8
0
  6
CENTER
 62
     7
 10
-69.40677470140497
 20
63.40076386879501
 30
0.0
 11
-34.68834513597528
 21
63.40076386879501
 31
0.0
  0
LINE
  5
21E
  8
0
  6
CENTER
 62
     7
 10
103.8221238338206
 20
91.19145880532065
 30
0.0
 11
103.8221238338206
 21
-19.29333284126541
 31
0.0
  0
LINE
  5
21F
  8
0
  6
CENTER
 62
     7
 10
48.73222538786753
 20
35.90076386879501
 30
0.0
 11
158.714498328778
 21
35.90076386879501
 31
0.0
  0
LINE
  5
220
  8
0
  6
CENTER
 62
     7
 10
99.82212383382057
 20
48.40076386879501
 30
0.0
 11
107.8221238338206
 21
48.40076386879501
 31
0.0
  0
LINE
  5
221
  8
0
  6
CENTER
 62
     7
 10
115.3221238338206
 20
38.02461138012767
 30
0.0
 11
115.3221238338206
 21
33.60215358664511
 31
0.0
  0
LINE
  5
222
  8
0
  6
CENTER
 62
     7
 10
92.32212383382057
 20
38.08603440503715
 30
0.0
 11
92.32212383382057
 21
33.86832002791955
 31
0.0
  0
LINE
  5
223
  8
0
  6
CENTER
 62
     7
 10
63.02582228870921
 20
12.34701079204804
 30
0.0
 11
144.0973094111483
 21
59.15365053450337
 31
0.0
  0
LINE
  5
224
  8
0
  6
CENTER
 62
     7
 10
62.85913304178416
 20
59.55079178246736
 30
0.0
 11
144.6688283643837
 21
12.31794738401932
 31
0.0
  0
LINE
  5
225
  8
0
  6
CENTER
 62
     7
 10
95.83098919026588
 20
78.4007808563742
 30
0.0
 11
111.7647202693674
 21
78.4007808563742
 31
0.0
  0
LINE
  5
226
  8
0
  6
CENTER
 62
     7
 10
95.83098919026588
 20
63.4007808563742
 30
0.0
 11
111.7647202693674
 21
63.4007808563742
 31
0.0
  0
LINE
  5
227
  8
0
  6
CENTER
 62
     7
 10
95.88729412190651
 20
-6.599219143625803
 30
0.0
 11
111.912074395344
 21
-6.599219143625803
 31
0.0
  0
LINE
  5
228
  8
0
  6
CENTER
 62
     7
 10
95.88729412190651
 20
8.400780856374198
 30
0.0
 11
111.912074395344
 21
8.400780856374198
 31
0.0
  0
ARC
  5
229
  8
0
  6
CENTER
 62
     7
 10
103.8221238338206
 20
35.9007808563742
 30
0.0
 40
35.29999923706055
 50
14.13205695296213
 51
50.19616670106925
  0
ARC
  5
22A
  8
0
  6
CENTER
 62
     7
 10
103.8221238338206
 20
35.9007808563742
 30
0.0
 40
35.29999923706055
 50
190.483884574528
 51
229.437751147053
  0
ARC
  5
22B
  8
0
  6
CENTER
 62
     7
 10
103.8221238338206
 20
35.9007808563742
 30
0.0
 40
35.29999923706055
 50
130.600415950029
 51
169.3008961647249
  0
ARC
  5
22C
  8
0
  6
CENTER
 62
     7
 10
103.8221238338206
 20
35.9007808563742
 30
0.0
 40
24.0
 50
140.4396312985125
 51
159.5603907101264
  0
ARC
  5
22D
  8
0
  6
CENTER
 62
     7
 10
103.8221238338206
 20
35.9007808563742
 30
0.0
 40
24.0
 50
200.0071763531418
 51
218.7816998153494
  0
ARC
  5
22E
  8
0
  6
CENTER
 62
     7
 10
103.8221238338206
 20
35.9007808563742
 30
0.0
 40
24.0
 50
20.4395818554314
 51
39.56034980478172
  0
ARC
  5
22F
  8
0
  6
CENTER
 62
     7
 10
103.8221238338206
 20
35.9007808563742
 30
0.0
 40
24.0
 50
319.4620247287468
 51
339.1863560044837
  0
ARC
  5
230
  8
0
  6
CENTER
 62
     7
 10
103.8221238338206
 20
35.9007808563742
 30
0.0
 40
35.29999923706055
 50
309.3584537386271
 51
349.7460777632281
  0
LINE
  5
231
  8
0
  6
CONTINUOUS
 62
     3
 10
-106.9892789738659
 20
88.40076386879501
 30
0.0
 11
-106.9892789738659
 21
6.100764631734464
 31
0.0
  0
LINE
  5
232
  8
0
  6
CONTINUOUS
 62
     3
 10
-52.9892789738659
 20
86.90076386879501
 30
0.0
 11
-52.9892789738659
 21
84.40076386879501
 31
0.0
  0
LINE
  5
233
  8
0
  6
CONTINUOUS
 62
     3
 10
-106.9892789738659
 20
-16.59923613120499
 30
0.0
 11
-54.4892789738659
 21
-16.59923613120499
 31
0.0
  0
LINE
  5
234
  8
0
  6
CONTINUOUS
 62
     3
 10
-106.9892789738659
 20
88.40076386879501
 30
0.0
 11
-95.98927897386591
 21
88.40076386879501
 31
0.0
  0
LINE
  5
235
  8
0
  6
CONTINUOUS
 62
     3
 10
-53.98927295235921
 20
87.9007740432837
 30
0.0
 11
-52.98927189076971
 21
86.9007729816942
 31
0.0
  0
LINE
  5
236
  8
0
  6
CONTINUOUS
 62
     3
 10
-52.98929751605316
 20
-15.0992260558054
 30
0.0
 11
-54.48928831884438
 21
-16.59921685859662
 31
0.0
  0
LINE
  5
237
  8
0
  6
CONTINUOUS
 62
     3
 10
-102.7892820256237
 20
78.40076386879501
 30
0.0
 11
-102.7892820256237
 21
5.600764631734464
 31
0.0
  0
LINE
  5
238
  8
0
  6
CONTINUOUS
 62
     3
 10
-106.9892789738659
 20
78.40076386879501
 30
0.0
 11
-102.7892820256237
 21
78.40076386879501
 31
0.0
  0
LINE
  5
239
  8
0
  6
CONTINUOUS
 62
     3
 10
-106.9892789738659
 20
-6.599236131204989
 30
0.0
 11
-102.7892820256237
 21
-6.599236131204989
 31
0.0
  0
LINE
  5
23A
  8
0
  6
CONTINUOUS
 62
     3
 10
-102.7892820256237
 20
54.40076386879501
 30
0.0
 11
-97.98920795679339
 21
54.40076386879501
 31
0.0
  0
LINE
  5
23B
  8
0
  6
CONTINUOUS
 62
     3
 10
-102.7892820256237
 20
17.40076386879501
 30
0.0
 11
-86.98927897386591
 21
17.40076386879501
 31
0.0
  0
LINE
  5
23C
  8
0
  6
CONTINUOUS
 62
     3
 10
-55.4892789738659
 20
14.90076386879501
 30
0.0
 11
-52.9892789738659
 21
14.90076386879501
 31
0.0
  0
LINE
  5
23D
  8
0
  6
CONTINUOUS
 62
     3
 10
-95.98927897386591
 20
88.40076386879501
 30
0.0
 11
-95.98927897386591
 21
78.52047781569962
 31
0.0
  0
LINE
  5
23E
  8
0
  6
CONTINUOUS
 62
     3
 10
-63.9892789738659
 20
9.100764631734464
 30
0.0
 11
-63.9892789738659
 21
-7.899235368265536
 31
0.0
  0
LINE
  5
23F
  8
0
  6
CONTINUOUS
 62
     3
 10
-61.9892789738659
 20
13.90076386879501
 30
0.0
 11
-61.9892789738659
 21
9.900763868795011
 31
0.0
  0
LINE
  5
240
  8
0
  6
CONTINUOUS
 62
     3
 10
-61.9892789738659
 20
13.90076386879501
 30
0.0
 11
-52.9892789738659
 21
13.90076386879501
 31
0.0
  0
LINE
  5
241
  8
0
  6
CONTINUOUS
 62
     3
 10
-61.9892789738659
 20
9.900763868795011
 30
0.0
 11
-52.9892789738659
 21
9.900763868795011
 31
0.0
  0
LINE
  5
242
  8
0
  6
CONTINUOUS
 62
     3
 10
-63.9892789738659
 20
9.100764631734464
 30
0.0
 11
-52.9892789738659
 21
9.100764631734464
 31
0.0
  0
LINE
  5
243
  8
0
  6
CONTINUOUS
 62
     3
 10
-63.9892789738659
 20
-7.899235368265536
 30
0.0
 11
-52.9892789738659
 21
-7.899235368265536
 31
0.0
  0
LINE
  5
244
  8
0
  6
CONTINUOUS
 62
     3
 10
-102.7892820256237
 20
6.100764631734464
 30
0.0
 11
-63.9892789738659
 21
6.100764631734464
 31
0.0
  0
LINE
  5
245
  8
0
  6
CONTINUOUS
 62
     3
 10
-102.7892820256237
 20
-4.899235368265536
 30
0.0
 11
-63.9892789738659
 21
-4.899235368265536
 31
0.0
  0
LINE
  5
246
  8
0
  6
CONTINUOUS
 62
     3
 10
-55.4892789738659
 20
53.78930604408798
 30
0.0
 11
-52.9892789738659
 21
53.78930604408798
 31
0.0
  0
LINE
  5
247
  8
0
  6
CONTINUOUS
 62
     3
 10
-62.76997202806512
 20
50.77523744057235
 30
0.0
 11
-55.4892789738659
 21
50.77523744057235
 31
0.0
  0
LINE
  5
248
  8
0
  6
CONTINUOUS
 62
     3
 10
-63.4892789738659
 20
53.90076386879501
 30
0.0
 11
-63.4892789738659
 21
17.90076386879501
 31
0.0
  0
LINE
  5
249
  8
0
  6
CONTINUOUS
 62
     3
 10
-98.48927897386591
 20
53.90076386879501
 30
0.0
 11
-98.48927897386591
 21
17.90076386879501
 31
0.0
  0
LINE
  5
24A
  8
0
  6
CONTINUOUS
 62
     3
 10
-97.98920795679339
 20
54.40076386879501
 30
0.0
 11
-63.9892789738659
 21
54.40076386879501
 31
0.0
  0
LINE
  5
24B
  8
0
  6
CONTINUOUS
 62
     3
 10
-98.48924601463989
 20
53.90072581094852
 30
0.0
 11
-97.98920795679339
 21
54.40076386879501
 31
0.0
  0
LINE
  5
24C
  8
0
  6
CONTINUOUS
 62
     3
 10
-63.98927277866118
 20
54.4007600592215
 30
0.0
 11
-63.48927224786643
 21
53.90075952842675
 31
0.0
  0
LINE
  5
24D
  8
0
  6
CONTINUOUS
 62
     3
 10
-63.48926820176904
 20
17.90075772608121
 30
0.0
 11
-63.98926873256379
 21
17.40075719528646
 31
0.0
  0
LINE
  5
24E
  8
0
  6
CONTINUOUS
 62
     3
 10
-98.4892420229661
 20
17.90078651982331
 30
0.0
 11
-97.98925607490298
 21
17.40079294333701
 31
0.0
  0
LINE
  5
24F
  8
0
  6
CONTINUOUS
 62
     3
 10
-97.98927897386591
 20
26.65076386879501
 30
0.0
 11
-79.98927897386591
 21
26.65076386879501
 31
0.0
  0
LINE
  5
250
  8
0
  6
CONTINUOUS
 62
     3
 10
-97.98927897386591
 20
45.15076386879501
 30
0.0
 11
-79.98927897386591
 21
45.15076386879501
 31
0.0
  0
LINE
  5
251
  8
0
  6
CONTINUOUS
 62
     3
 10
-71.48927897386591
 20
19.90076386879501
 30
0.0
 11
-63.4892789738659
 21
19.90076386879501
 31
0.0
  0
LINE
  5
252
  8
0
  6
CONTINUOUS
 62
     3
 10
-71.48927897386591
 20
51.90076386879501
 30
0.0
 11
-63.4892789738659
 21
51.90076386879501
 31
0.0
  0
LINE
  5
253
  8
0
  6
CONTINUOUS
 62
     3
 10
-79.48927897386591
 20
21.90076386879501
 30
0.0
 11
-72.48927897386591
 21
21.90076386879501
 31
0.0
  0
LINE
  5
254
  8
0
  6
CONTINUOUS
 62
     3
 10
-79.48927897386591
 20
49.90076386879501
 30
0.0
 11
-72.48927897386591
 21
49.90076386879501
 31
0.0
  0
LINE
  5
255
  8
0
  6
CONTINUOUS
 62
     3
 10
-79.48927897386591
 20
49.90076386879501
 30
0.0
 11
-79.48927897386591
 21
21.90076386879501
 31
0.0
  0
LINE
  5
256
  8
0
  6
CONTINUOUS
 62
     3
 10
-71.48927897386591
 20
51.90076386879501
 30
0.0
 11
-71.48927897386591
 21
19.90076386879501
 31
0.0
  0
LINE
  5
257
  8
0
  6
CONTINUOUS
 62
     3
 10
-72.48927897386591
 20
52.15076386879501
 30
0.0
 11
-72.48927897386591
 21
19.65076386879501
 31
0.0
  0
LINE
  5
258
  8
0
  6
CONTINUOUS
 62
     3
 10
-79.98927897386591
 20
45.15076386879501
 30
0.0
 11
-79.98927897386591
 21
41.65076386879501
 31
0.0
  0
LINE
  5
259
  8
0
  6
CONTINUOUS
 62
     3
 10
-97.98927897386591
 20
45.15076386879501
 30
0.0
 11
-97.98927897386591
 21
41.65076386879501
 31
0.0
  0
LINE
  5
25A
  8
0
  6
CONTINUOUS
 62
     3
 10
-72.48927897386591
 20
52.15076386879501
 30
0.0
 11
-70.48927897386591
 21
52.15076386879501
 31
0.0
  0
LINE
  5
25B
  8
0
  6
CONTINUOUS
 62
     3
 10
-72.48927897386591
 20
19.65076386879501
 30
0.0
 11
-70.48927897386591
 21
19.65076386879501
 31
0.0
  0
LINE
  5
25C
  8
0
  6
CONTINUOUS
 62
     3
 10
-70.48927897386591
 20
52.15076386879501
 30
0.0
 11
-70.48927897386591
 21
51.90076386879501
 31
0.0
  0
LINE
  5
25D
  8
0
  6
CONTINUOUS
 62
     3
 10
-70.48927897386591
 20
19.90076386879501
 30
0.0
 11
-70.48927897386591
 21
19.65076386879501
 31
0.0
  0
LINE
  5
25E
  8
0
  6
CONTINUOUS
 62
     3
 10
-79.98923465390919
 20
45.15073166335377
 30
0.0
 11
-79.48923315373588
 21
45.65073126691685
 31
0.0
  0
LINE
  5
25F
  8
0
  6
CONTINUOUS
 62
     3
 10
-97.98925909415459
 20
45.15079597956456
 30
0.0
 11
-98.48924980471395
 21
45.65078479355462
 31
0.0
  0
LINE
  5
260
  8
0
  6
CONTINUOUS
 62
     3
 10
-97.98926683153957
 20
26.65074650360894
 30
0.0
 11
-98.48926639295576
 21
26.15074500343563
 31
0.0
  0
LINE
  5
261
  8
0
  6
CONTINUOUS
 62
     3
 10
-79.98926719451981
 20
26.65076251934725
 30
0.0
 11
-79.48926620010923
 21
26.15076245216834
 31
0.0
  0
LINE
  5
262
  8
0
  6
CONTINUOUS
 62
     3
 10
-97.98927897386591
 20
30.15076386879501
 30
0.0
 11
-97.98927897386591
 21
26.65076386879501
 31
0.0
  0
LINE
  5
263
  8
0
  6
CONTINUOUS
 62
     3
 10
-79.98927897386591
 20
30.15076386879501
 30
0.0
 11
-79.98927897386591
 21
26.65076386879501
 31
0.0
  0
LINE
  5
264
  8
0
  6
CONTINUOUS
 62
     3
 10
-69.48927897386591
 20
51.90076386879501
 30
0.0
 11
-69.48927897386591
 21
40.90076386879501
 31
0.0
  0
LINE
  5
265
  8
0
  6
CONTINUOUS
 62
     3
 10
-86.98927897386591
 20
17.40076386879501
 30
0.0
 11
-55.4892789738659
 21
17.40076386879501
 31
0.0
  0
LINE
  5
266
  8
0
  6
CONTINUOUS
 62
     3
 10
-67.98927897386591
 20
51.90076386879501
 30
0.0
 11
-67.98927897386591
 21
50.40076386879501
 31
0.0
  0
LINE
  5
267
  8
0
  6
CONTINUOUS
 62
     3
 10
-71.48927897386591
 20
26.65076386879501
 30
0.0
 11
-63.4892789738659
 21
26.65076386879501
 31
0.0
  0
LINE
  5
268
  8
0
  6
CONTINUOUS
 62
     3
 10
-69.48927897386591
 20
40.90076386879501
 30
0.0
 11
-67.98927897386591
 21
40.90076386879501
 31
0.0
  0
LINE
  5
269
  8
0
  6
CONTINUOUS
 62
     3
 10
-71.48927897386591
 20
45.15076386879501
 30
0.0
 11
-69.48927897386591
 21
45.15076386879501
 31
0.0
  0
LINE
  5
26A
  8
0
  6
CONTINUOUS
 62
     3
 10
-67.98927897386591
 20
45.15076386879501
 30
0.0
 11
-63.4892789738659
 21
45.15076386879501
 31
0.0
  0
LINE
  5
26B
  8
0
  6
CONTINUOUS
 62
     3
 10
-67.98927897386591
 20
46.40076386879501
 30
0.0
 11
-67.98927897386591
 21
40.90076386879501
 31
0.0
  0
LINE
  5
26C
  8
0
  6
CONTINUOUS
 62
     3
 10
-95.98927897386591
 20
88.40076386879501
 30
0.0
 11
-53.9892789738659
 21
88.40076386879501
 31
0.0
  0
LINE
  5
26D
  8
0
  6
CONTINUOUS
 62
     3
 10
-71.98927897386591
 20
55.90076386879501
 30
0.0
 11
-53.9892789738659
 21
55.90076386879501
 31
0.0
  0
LINE
  5
26E
  8
0
  6
CONTINUOUS
 62
     3
 10
-60.9892789738659
 20
88.40076386879501
 30
0.0
 11
-60.9892789738659
 21
84.40076386879501
 31
0.0
  0
LINE
  5
26F
  8
0
  6
CONTINUOUS
 62
     3
 10
-67.98927897386591
 20
88.40076386879501
 30
0.0
 11
-67.98927897386591
 21
55.90076386879501
 31
0.0
  0
LINE
  5
270
  8
0
  6
CONTINUOUS
 62
     3
 10
-66.98927897386591
 20
57.40076386879501
 30
0.0
 11
-52.4892789738659
 21
57.40076386879501
 31
0.0
  0
LINE
  5
271
  8
0
  6
CONTINUOUS
 62
     3
 10
-66.98927897386591
 20
84.40076386879501
 30
0.0
 11
-52.4892789738659
 21
84.40076386879501
 31
0.0
  0
LINE
  5
272
  8
0
  6
CONTINUOUS
 62
     3
 10
-66.98927897386591
 20
84.40076386879501
 30
0.0
 11
-66.98927897386591
 21
57.40076386879501
 31
0.0
  0
LINE
  5
273
  8
0
  6
CONTINUOUS
 62
     3
 10
-52.4892789738659
 20
84.40076386879501
 30
0.0
 11
-52.4892789738659
 21
82.40076386879501
 31
0.0
  0
LINE
  5
274
  8
0
  6
CONTINUOUS
 62
     3
 10
-60.9892789738659
 20
57.40076386879501
 30
0.0
 11
-60.9892789738659
 21
55.90076386879501
 31
0.0
  0
LINE
  5
275
  8
0
  6
CONTINUOUS
 62
     3
 10
-52.9892789738659
 20
56.77879655312118
 30
0.0
 11
-52.9892789738659
 21
-15.09923613120499
 31
0.0
  0
LINE
  5
276
  8
0
  6
CONTINUOUS
 62
     3
 10
-66.98927897386591
 20
59.40076386879501
 30
0.0
 11
-45.9892789738659
 21
59.40076386879501
 31
0.0
  0
LINE
  5
277
  8
0
  6
CONTINUOUS
 62
     3
 10
-66.98927897386591
 20
67.40076386879501
 30
0.0
 11
-45.9892789738659
 21
67.40076386879501
 31
0.0
  0
LINE
  5
278
  8
0
  6
CONTINUOUS
 62
     3
 10
-66.98927897386591
 20
74.40076386879501
 30
0.0
 11
-45.9892789738659
 21
74.40076386879501
 31
0.0
  0
LINE
  5
279
  8
0
  6
CONTINUOUS
 62
     3
 10
-66.98927897386591
 20
82.40076386879501
 30
0.0
 11
-45.9892789738659
 21
82.40076386879501
 31
0.0
  0
LINE
  5
27A
  8
0
  6
CONTINUOUS
 62
     3
 10
-45.9892789738659
 20
69.90076386879501
 30
0.0
 11
-37.9892789738659
 21
69.90076386879501
 31
0.0
  0
LINE
  5
27B
  8
0
  6
CONTINUOUS
 62
     3
 10
-45.9892789738659
 20
56.90076386879501
 30
0.0
 11
-37.9892789738659
 21
56.90076386879501
 31
0.0
  0
LINE
  5
27C
  8
0
  6
CONTINUOUS
 62
     3
 10
-45.9892789738659
 20
71.90076386879501
 30
0.0
 11
-37.9892789738659
 21
71.90076386879501
 31
0.0
  0
LINE
  5
27D
  8
0
  6
CONTINUOUS
 62
     3
 10
-45.9892789738659
 20
84.90076386879501
 30
0.0
 11
-37.9892789738659
 21
84.90076386879501
 31
0.0
  0
LINE
  5
27E
  8
0
  6
CONTINUOUS
 62
     3
 10
-45.9892789738659
 20
84.90076386879501
 30
0.0
 11
-45.9892789738659
 21
71.90076386879501
 31
0.0
  0
LINE
  5
27F
  8
0
  6
CONTINUOUS
 62
     3
 10
-45.9892789738659
 20
69.90076386879501
 30
0.0
 11
-45.9892789738659
 21
56.90076386879501
 31
0.0
  0
LINE
  5
280
  8
0
  6
CONTINUOUS
 62
     3
 10
-52.4892789738659
 20
59.40076386879501
 30
0.0
 11
-52.4892789738659
 21
57.40076386879501
 31
0.0
  0
LINE
  5
281
  8
0
  6
CONTINUOUS
 62
     3
 10
-52.4892789738659
 20
74.40076386879501
 30
0.0
 11
-52.4892789738659
 21
67.40076386879501
 31
0.0
  0
LINE
  5
282
  8
0
  6
CONTINUOUS
 62
     3
 10
-37.9892789738659
 20
69.90076386879501
 30
0.0
 11
-37.9892789738659
 21
56.90076386879501
 31
0.0
  0
LINE
  5
283
  8
0
  6
CONTINUOUS
 62
     3
 10
-37.9892789738659
 20
84.90076386879501
 30
0.0
 11
-37.9892789738659
 21
71.90076386879501
 31
0.0
  0
LINE
  5
284
  8
0
  6
CONTINUOUS
 62
     3
 10
-63.9892789738659
 20
82.40076386879501
 30
0.0
 11
-63.9892789738659
 21
74.40076386879501
 31
0.0
  0
LINE
  5
285
  8
0
  6
CONTINUOUS
 62
     3
 10
-63.9892789738659
 20
67.40076386879501
 30
0.0
 11
-63.9892789738659
 21
59.40076386879501
 31
0.0
  0
LINE
  5
286
  8
0
  6
CONTINUOUS
 62
     3
 10
-53.9892789738659
 20
8.600764631734464
 30
0.0
 11
-53.9892789738659
 21
-7.399235368265536
 31
0.0
  0
LINE
  5
287
  8
0
  6
CONTINUOUS
 62
     3
 10
-118.9892789738659
 20
5.600764631734464
 30
0.0
 11
-118.9892789738659
 21
-4.399235368265536
 31
0.0
  0
LINE
  5
288
  8
0
  6
CONTINUOUS
 62
     3
 10
-118.9892789738659
 20
-4.399235368265536
 30
0.0
 11
-63.9892789738659
 21
-4.399235368265536
 31
0.0
  0
LINE
  5
289
  8
0
  6
CONTINUOUS
 62
     3
 10
-118.9892789738659
 20
5.600764631734464
 30
0.0
 11
-63.9892789738659
 21
5.600764631734464
 31
0.0
  0
LINE
  5
28A
  8
0
  6
CONTINUOUS
 62
     3
 10
-86.98927897386591
 20
5.600764631734464
 30
0.0
 11
-86.98927897386591
 21
-4.399235368265536
 31
0.0
  0
LINE
  5
28B
  8
0
  6
CONTINUOUS
 62
     3
 10
-106.9892789738659
 20
-4.899235368265536
 30
0.0
 11
-106.9892789738659
 21
-16.59923613120499
 31
0.0
  0
LINE
  5
28C
  8
0
  6
CONTINUOUS
 62
     3
 10
-102.7892820256237
 20
-4.399235368265536
 30
0.0
 11
-102.7892820256237
 21
-6.599236131204989
 31
0.0
  0
LINE
  5
28D
  8
0
  6
CONTINUOUS
 62
     3
 10
-63.9892789738659
 20
8.600764631734464
 30
0.0
 11
-53.9892789738659
 21
8.600764631734464
 31
0.0
  0
LINE
  5
28E
  8
0
  6
CONTINUOUS
 62
     3
 10
-63.9892789738659
 20
-7.399235368265536
 30
0.0
 11
-53.9892789738659
 21
-7.399235368265536
 31
0.0
  0
LINE
  5
28F
  8
0
  6
CONTINUOUS
 62
     3
 10
-55.4892789738659
 20
53.78930604408798
 30
0.0
 11
-55.4892789738659
 21
14.90076386879501
 31
0.0
  0
CIRCLE
  5
290
  8
0
  6
CONTINUOUS
 62
     3
 10
103.8221238338206
 20
35.90076386879501
 30
0.0
 40
16.0
  0
CIRCLE
  5
291
  8
0
  6
CONTINUOUS
 62
     3
 10
103.8221238338206
 20
35.90076386879501
 30
0.0
 40
9.25
  0
CIRCLE
  5
292
  8
0
  6
CONTINUOUS
 62
     3
 10
115.3221238338206
 20
35.90076386879501
 30
0.0
 40
1.299999952316284
  0
CIRCLE
  5
293
  8
0
  6
CONTINUOUS
 62
     3
 10
92.32212383382057
 20
35.90076386879501
 30
0.0
 40
1.299999952316284
  0
LINE
  5
294
  8
0
  6
CONTINUOUS
 62
     3
 10
88.82212383382057
 20
87.32898825383514
 30
0.0
 11
88.82212383382057
 21
86.21231192326873
 31
0.0
  0
LINE
  5
295
  8
0
  6
CONTINUOUS
 62
     3
 10
118.8221238338206
 20
87.32898825383514
 30
0.0
 11
118.8221238338206
 21
86.21231192326873
 31
0.0
  0
LINE
  5
296
  8
0
  6
CONTINUOUS
 62
     3
 10
92.82212383382057
 20
88.4007808563742
 30
0.0
 11
114.8221238338206
 21
88.4007808563742
 31
0.0
  0
LINE
  5
297
  8
0
  6
CONTINUOUS
 62
     3
 10
88.8221437442761
 20
87.32896123582368
 30
0.0
 11
92.82213721718006
 21
88.40075614218695
 31
0.0
  0
LINE
  5
298
  8
0
  6
CONTINUOUS
 62
     3
 10
114.8221180336482
 20
88.40074416469561
 30
0.0
 11
118.8221262454104
 21
87.32894530906761
 31
0.0
  0
LINE
  5
299
  8
0
  6
CONTINUOUS
 62
     3
 10
92.82212383382057
 20
88.4007808563742
 30
0.0
 11
92.82212383382057
 21
50.77525442815154
 31
0.0
  0
LINE
  5
29A
  8
0
  6
CONTINUOUS
 62
     3
 10
114.8221238338206
 20
88.4007808563742
 30
0.0
 11
114.8221238338206
 21
50.77525442815154
 31
0.0
  0
LINE
  5
29B
  8
0
  6
CONTINUOUS
 62
     3
 10
98.82212383382057
 20
88.4007808563742
 30
0.0
 11
98.82212383382057
 21
82.55409353947967
 31
0.0
  0
LINE
  5
29C
  8
0
  6
CONTINUOUS
 62
     3
 10
108.8221238338206
 20
88.4007808563742
 30
0.0
 11
108.8221238338206
 21
82.55409353947967
 31
0.0
  0
LINE
  5
29D
  8
0
  6
CONTINUOUS
 62
     3
 10
92.82212383382057
 20
55.9007808563742
 30
0.0
 11
98.82212383382057
 21
55.9007808563742
 31
0.0
  0
LINE
  5
29E
  8
0
  6
CONTINUOUS
 62
     3
 10
108.8221238338206
 20
55.9007808563742
 30
0.0
 11
114.8221238338206
 21
55.9007808563742
 31
0.0
  0
LINE
  5
29F
  8
0
  6
CONTINUOUS
 62
     3
 10
98.82212383382057
 20
57.4007808563742
 30
0.0
 11
101.3221238338206
 21
57.4007808563742
 31
0.0
  0
LINE
  5
2A0
  8
0
  6
CONTINUOUS
 62
     3
 10
98.82212383382057
 20
84.4007808563742
 30
0.0
 11
101.3221238338206
 21
84.4007808563742
 31
0.0
  0
LINE
  5
2A1
  8
0
  6
CONTINUOUS
 62
     3
 10
106.3221238338206
 20
84.4007808563742
 30
0.0
 11
108.8221238338206
 21
84.4007808563742
 31
0.0
  0
LINE
  5
2A2
  8
0
  6
CONTINUOUS
 62
     3
 10
106.3221238338206
 20
57.4007808563742
 30
0.0
 11
108.8221238338206
 21
57.4007808563742
 31
0.0
  0
LINE
  5
2A3
  8
0
  6
CONTINUOUS
 62
     3
 10
98.82212383382057
 20
74.24746817326873
 30
0.0
 11
98.82212383382057
 21
67.55409353947967
 31
0.0
  0
LINE
  5
2A4
  8
0
  6
CONTINUOUS
 62
     3
 10
98.82212383382057
 20
59.24746817326873
 30
0.0
 11
98.82212383382057
 21
55.9007808563742
 31
0.0
  0
LINE
  5
2A5
  8
0
  6
CONTINUOUS
 62
     3
 10
108.8221238338206
 20
59.24746817326873
 30
0.0
 11
108.8221238338206
 21
55.9007808563742
 31
0.0
  0
LINE
  5
2A6
  8
0
  6
CONTINUOUS
 62
     3
 10
108.8221238338206
 20
74.24746817326873
 30
0.0
 11
108.8221238338206
 21
67.55409353947967
 31
0.0
  0
LINE
  5
2A7
  8
0
  6
CONTINUOUS
 62
     3
 10
92.82212383382057
 20
-16.5992191436258
 30
0.0
 11
114.8221238338206
 21
-16.5992191436258
 31
0.0
  0
LINE
  5
2A8
  8
0
  6
CONTINUOUS
 62
     3
 10
114.8221238338206
 20
21.02630633092254
 30
0.0
 11
114.8221238338206
 21
-16.59921723627717
 31
0.0
  0
LINE
  5
2A9
  8
0
  6
CONTINUOUS
 62
     3
 10
92.82212383382057
 20
21.02630633092254
 30
0.0
 11
92.82212383382057
 21
-16.5992191436258
 31
0.0
  0
LINE
  5
2AA
  8
0
  6
CONTINUOUS
 62
     3
 10
88.82212383382057
 20
-14.41075021052033
 30
0.0
 11
88.82212383382057
 21
-15.52742272638947
 31
0.0
  0
LINE
  5
2AB
  8
0
  6
CONTINUOUS
 62
     3
 10
118.8221238338206
 20
-14.41075021052033
 30
0.0
 11
118.8221238338206
 21
-15.52742081904084
 31
0.0
  0
LINE
  5
2AC
  8
0
  6
CONTINUOUS
 62
     3
 10
114.8221129282032
 20
-16.59921154031899
 30
0.0
 11
118.8221064011071
 21
-15.52741663395572
 31
0.0
  0
LINE
  5
2AD
  8
0
  6
CONTINUOUS
 62
     3
 10
88.82213352464387
 20
-15.5274268499816
 30
0.0
 11
92.82212699754783
 21
-16.59922175634486
 31
0.0
  0
LINE
  5
2AE
  8
0
  6
CONTINUOUS
 62
     3
 10
92.82212383382057
 20
15.9007808563742
 30
0.0
 11
98.82212383382057
 21
15.9007808563742
 31
0.0
  0
LINE
  5
2AF
  8
0
  6
CONTINUOUS
 62
     3
 10
108.8221238338206
 20
15.9007808563742
 30
0.0
 11
108.8221238338206
 21
12.55409258580535
 31
0.0
  0
LINE
  5
2B0
  8
0
  6
CONTINUOUS
 62
     3
 10
98.82212383382057
 20
15.9007808563742
 30
0.0
 11
98.82212383382057
 21
12.55409258580535
 31
0.0
  0
LINE
  5
2B1
  8
0
  6
CONTINUOUS
 62
     3
 10
108.8221238338206
 20
15.9007808563742
 30
0.0
 11
114.8221238338206
 21
15.9007808563742
 31
0.0
  0
LINE
  5
2B2
  8
0
  6
CONTINUOUS
 62
     3
 10
98.82212383382057
 20
14.4007808563742
 30
0.0
 11
101.3221238338206
 21
14.4007808563742
 31
0.0
  0
LINE
  5
2B3
  8
0
  6
CONTINUOUS
 62
     3
 10
98.82212383382057
 20
-12.5992191436258
 30
0.0
 11
101.3221238338206
 21
-12.5992191436258
 31
0.0
  0
LINE
  5
2B4
  8
0
  6
CONTINUOUS
 62
     3
 10
106.3221238338206
 20
14.4007808563742
 30
0.0
 11
108.8221238338206
 21
14.4007808563742
 31
0.0
  0
LINE
  5
2B5
  8
0
  6
CONTINUOUS
 62
     3
 10
98.82212383382057
 20
4.247469126943045
 30
0.0
 11
98.82212383382057
 21
-2.44590741419465
 31
0.0
  0
LINE
  5
2B6
  8
0
  6
CONTINUOUS
 62
     3
 10
108.8221238338206
 20
4.247469126943045
 30
0.0
 11
108.8221238338206
 21
-2.44590741419465
 31
0.0
  0
LINE
  5
2B7
  8
0
  6
CONTINUOUS
 62
     3
 10
98.82212383382057
 20
-10.75253182673127
 30
0.0
 11
98.82212383382057
 21
-16.5992191436258
 31
0.0
  0
LINE
  5
2B8
  8
0
  6
CONTINUOUS
 62
     3
 10
108.8221238338206
 20
-10.75253182673127
 30
0.0
 11
108.8221238338206
 21
-16.5992191436258
 31
0.0
  0
LINE
  5
2B9
  8
0
  6
CONTINUOUS
 62
     3
 10
106.3221238338206
 20
-12.5992191436258
 30
0.0
 11
108.8221238338206
 21
-12.5992191436258
 31
0.0
  0
ARC
  5
2BA
  8
0
  6
CONTINUOUS
 62
     3
 10
103.8221238338206
 20
35.9007808563742
 30
0.0
 40
52.5
 50
282.0944456852952
 51
360.0
  0
ARC
  5
2BB
  8
0
  6
CONTINUOUS
 62
     3
 10
103.8221238338206
 20
35.9007808563742
 30
0.0
 40
21.0
 50
121.5881589251156
 51
238.4118237720404
  0
CIRCLE
  5
2BC
  8
0
  6
CONTINUOUS
 62
     3
 10
103.8221238338206
 20
35.9007808563742
 30
0.0
 40
18.5
  0
ARC
  5
2BD
  8
0
  6
CONTINUOUS
 62
     3
 10
103.8221238338206
 20
35.9007808563742
 30
0.0
 40
51.0
 50
102.4558086824802
 51
257.5441671844866
  0
CIRCLE
  5
2BE
  8
0
  6
CONTINUOUS
 62
     3
 10
134.3928330623362
 20
53.5507823822531
 30
0.0
 40
5.5
  0
CIRCLE
  5
2BF
  8
0
  6
CONTINUOUS
 62
     3
 10
73.25142986409401
 20
53.55077856755584
 30
0.0
 40
5.5
  0
ARC
  5
2C0
  8
0
  6
CONTINUOUS
 62
     3
 10
103.8221238338206
 20
35.9007808563742
 30
0.0
 40
51.0
 50
282.4557900131455
 51
437.5442099868545
  0
ARC
  5
2C1
  8
0
  6
CONTINUOUS
 62
     3
 10
103.8221238338206
 20
35.9007808563742
 30
0.0
 40
52.5
 50
102.0944643546299
 51
257.9055115123369
  0
ARC
  5
2C2
  8
0
  6
CONTINUOUS
 62
     3
 10
103.8221238338206
 20
35.9007808563742
 30
0.0
 40
52.5
 50
0.0
 51
77.9055543147048
  0
ARC
  5
2C3
  8
0
  6
CONTINUOUS
 62
     3
 10
103.8221238338206
 20
35.9007808563742
 30
0.0
 40
21.0
 50
301.5881334255918
 51
418.4118597442191
  0
CIRCLE
  5
2C4
  8
0
  6
CONTINUOUS
 62
     3
 10
134.3928330623362
 20
53.5507823822531
 30
0.0
 40
8.5
  0
CIRCLE
  5
2C5
  8
0
  6
CONTINUOUS
 62
     3
 10
73.25142986409401
 20
53.55077856755584
 30
0.0
 40
8.5
  0
CIRCLE
  5
2C6
  8
0
  6
CONTINUOUS
 62
     3
 10
124.6067460262034
 20
47.90077322697967
 30
0.0
 40
1.5
  0
CIRCLE
  5
2C7
  8
0
  6
CONTINUOUS
 62
     3
 10
83.03751690022682
 20
47.90078467107146
 30
0.0
 40
1.5
  0
ARC
  5
2C8
  8
0
  6
CONTINUOUS
 62
     3
 10
103.8221238338206
 20
35.9007808563742
 30
0.0
 40
20.0
 50
56.63298820130804
 51
123.367027052932
  0
ARC
  5
2C9
  8
0
  6
CONTINUOUS
 62
     3
 10
103.8221238338206
 20
35.9007808563742
 30
0.0
 40
20.0
 50
236.6329592866896
 51
303.367011798692
  0
CIRCLE
  5
2CA
  8
0
  6
CONTINUOUS
 62
     3
 10
83.03751690022682
 20
23.90077322697967
 30
0.0
 40
1.5
  0
CIRCLE
  5
2CB
  8
0
  6
CONTINUOUS
 62
     3
 10
124.6067307674143
 20
23.90078848576873
 30
0.0
 40
1.5
  0
CIRCLE
  5
2CC
  8
0
  6
CONTINUOUS
 62
     3
 10
73.25142986409401
 20
18.25077551579803
 30
0.0
 40
5.5
  0
CIRCLE
  5
2CD
  8
0
  6
CONTINUOUS
 62
     3
 10
134.3928178035471
 20
18.25078886723846
 30
0.0
 40
5.5
  0
CIRCLE
  5
2CE
  8
0
  6
CONTINUOUS
 62
     3
 10
134.3928178035471
 20
18.25078886723846
 30
0.0
 40
8.5
  0
CIRCLE
  5
2CF
  8
0
  6
CONTINUOUS
 62
     3
 10
73.25142986409401
 20
18.25077551579803
 30
0.0
 40
8.5
  0
LINE
  5
2D0
  8
0
  6
CONTINUOUS
 62
     4
 10
-64.98927897386591
 20
13.40076386879501
 30
0.0
 11
-64.98927897386591
 21
10.40076386879501
 31
0.0
  0
LINE
  5
2D1
  8
0
  6
CONTINUOUS
 62
     4
 10
-64.98927897386591
 20
10.40076386879501
 30
0.0
 11
-52.9892789738659
 21
10.40076386879501
 31
0.0
  0
LINE
  5
2D2
  8
0
  6
CONTINUOUS
 62
     4
 10
-64.98927897386591
 20
13.40076386879501
 30
0.0
 11
-52.9892789738659
 21
13.40076386879501
 31
0.0
  0
LINE
  5
2D3
  8
0
  6
CONTINUOUS
 62
     4
 10
-65.85531894708072
 20
11.90076470059113
 30
0.0
 11
-64.98929482650863
 21
13.40076227226619
 31
0.0
  0
LINE
  5
2D4
  8
0
  6
CONTINUOUS
 62
     4
 10
-65.85531897046383
 20
11.90076203917589
 30
0.0
 11
-64.98929294254288
 21
10.40076116387614
 31
0.0
  0
LINE
  5
2D5
  8
0
  6
CONTINUOUS
 62
     4
 10
-71.48927897386591
 20
20.57576386879501
 30
0.0
 11
-63.4892789738659
 21
20.57576386879501
 31
0.0
  0
LINE
  5
2D6
  8
0
  6
CONTINUOUS
 62
     4
 10
-71.48927897386591
 20
51.22576386879501
 30
0.0
 11
-69.48927897386591
 21
51.22576386879501
 31
0.0
  0
LINE
  5
2D7
  8
0
  6
CONTINUOUS
 62
     4
 10
-67.98927897386591
 20
51.22576386879501
 30
0.0
 11
-63.4892789738659
 21
51.22576386879501
 31
0.0
  0
LINE
  5
2D8
  8
0
  6
CONTINUOUS
 62
     4
 10
-69.48927897386591
 20
50.40076386879501
 30
0.0
 11
-63.4892789738659
 21
50.40076386879501
 31
0.0
  0
LINE
  5
2D9
  8
0
  6
CONTINUOUS
 62
     4
 10
-69.48927897386591
 20
46.40076386879501
 30
0.0
 11
-63.4892789738659
 21
46.40076386879501
 31
0.0
  0
LINE
  5
2DA
  8
0
  6
CONTINUOUS
 62
     4
 10
-69.48927897386591
 20
46.90076386879501
 30
0.0
 11
-63.4892789738659
 21
46.90076386879501
 31
0.0
  0
LINE
  5
2DB
  8
0
  6
CONTINUOUS
 62
     4
 10
-69.48927897386591
 20
49.90076386879501
 30
0.0
 11
-63.4892789738659
 21
49.90076386879501
 31
0.0
  0
LINE
  5
2DC
  8
0
  6
CONTINUOUS
 62
     4
 10
-53.9892789738659
 20
88.40076386879501
 30
0.0
 11
-53.9892789738659
 21
84.40076386879501
 31
0.0
  0
LINE
  5
2DD
  8
0
  6
CONTINUOUS
 62
     4
 10
-54.9892789738659
 20
88.40076386879501
 30
0.0
 11
-54.9892789738659
 21
84.40076386879501
 31
0.0
  0
LINE
  5
2DE
  8
0
  6
CONTINUOUS
 62
     4
 10
-54.9892789738659
 20
57.40076386879501
 30
0.0
 11
-54.9892789738659
 21
55.90076386879501
 31
0.0
  0
LINE
  5
2DF
  8
0
  6
CONTINUOUS
 62
     4
 10
-53.9892789738659
 20
57.40076386879501
 30
0.0
 11
-53.9892789738659
 21
55.90076386879501
 31
0.0
  0
LINE
  5
2E0
  8
0
  6
CONTINUOUS
 62
     4
 10
-66.98927897386591
 20
81.6007608170372
 30
0.0
 11
-45.9892789738659
 21
81.6007608170372
 31
0.0
  0
LINE
  5
2E1
  8
0
  6
CONTINUOUS
 62
     4
 10
-66.98927897386591
 20
75.20076692055282
 30
0.0
 11
-45.9892789738659
 21
75.20076692055282
 31
0.0
  0
LINE
  5
2E2
  8
0
  6
CONTINUOUS
 62
     4
 10
-66.98927897386591
 20
66.60076463173446
 30
0.0
 11
-45.9892789738659
 21
66.60076463173446
 31
0.0
  0
LINE
  5
2E3
  8
0
  6
CONTINUOUS
 62
     4
 10
-66.98927897386591
 20
60.20076310585556
 30
0.0
 11
-45.9892789738659
 21
60.20076310585556
 31
0.0
  0
LINE
  5
2E4
  8
0
  6
CONTINUOUS
 62
     4
 10
-118.9892789738659
 20
-3.399235368265536
 30
0.0
 11
-86.98927897386591
 21
-3.399235368265536
 31
0.0
  0
LINE
  5
2E5
  8
0
  6
CONTINUOUS
 62
     4
 10
-118.9892789738659
 20
4.600764631734464
 30
0.0
 11
-86.98927897386591
 21
4.600764631734464
 31
0.0
  0
CIRCLE
  5
2E6
  8
0
  6
CONTINUOUS
 62
     4
 10
103.8221238338206
 20
35.90076386879501
 30
0.0
 40
15.19999980926514
  0
CIRCLE
  5
2E7
  8
0
  6
CONTINUOUS
 62
     4
 10
103.8221238338206
 20
48.40076386879501
 30
0.0
 40
1.5
  0
CIRCLE
  5
2E8
  8
0
  6
CONTINUOUS
 62
     4
 10
103.8221238338206
 20
48.40076386879501
 30
0.0
 40
2.0
  0
LINE
  5
2E9
  8
0
  6
CONTINUOUS
 62
     4
 10
66.3221314632151
 20
74.8007823822531
 30
0.0
 11
66.3221314632151
 21
72.64313620305389
 31
0.0
  0
LINE
  5
2EA
  8
0
  6
CONTINUOUS
 62
     4
 10
68.62212688557838
 20
75.70078390813201
 30
0.0
 11
68.62212688557838
 21
74.85216635442107
 31
0.0
  0
LINE
  5
2EB
  8
0
  6
CONTINUOUS
 62
     4
 10
66.32209873846693
 20
74.80078742233782
 30
0.0
 11
68.62211334351594
 21
75.70079293573845
 31
0.0
  0
LINE
  5
2EC
  8
0
  6
CONTINUOUS
 62
     4
 10
93.32212383382057
 20
57.4007808563742
 30
0.0
 11
98.32212383382057
 21
57.4007808563742
 31
0.0
  0
LINE
  5
2ED
  8
0
  6
CONTINUOUS
 62
     4
 10
93.32212383382057
 20
86.9007808563742
 30
0.0
 11
98.32212383382057
 21
86.9007808563742
 31
0.0
  0
LINE
  5
2EE
  8
0
  6
CONTINUOUS
 62
     4
 10
109.3221238338206
 20
57.4007808563742
 30
0.0
 11
114.3221238338206
 21
57.4007808563742
 31
0.0
  0
LINE
  5
2EF
  8
0
  6
CONTINUOUS
 62
     4
 10
109.3221238338206
 20
86.9007808563742
 30
0.0
 11
114.3221238338206
 21
86.9007808563742
 31
0.0
  0
LINE
  5
2F0
  8
0
  6
CONTINUOUS
 62
     4
 10
109.3221238338206
 20
85.4007808563742
 30
0.0
 11
114.3221238338206
 21
85.4007808563742
 31
0.0
  0
LINE
  5
2F1
  8
0
  6
CONTINUOUS
 62
     4
 10
109.3221238338206
 20
83.9007808563742
 30
0.0
 11
114.3221238338206
 21
83.9007808563742
 31
0.0
  0
LINE
  5
2F2
  8
0
  6
CONTINUOUS
 62
     4
 10
109.3221238338206
 20
82.4007808563742
 30
0.0
 11
114.3221238338206
 21
82.4007808563742
 31
0.0
  0
LINE
  5
2F3
  8
0
  6
CONTINUOUS
 62
     4
 10
110.4218095027659
 20
80.9007808563742
 30
0.0
 11
114.3221238338206
 21
80.9007808563742
 31
0.0
  0
LINE
  5
2F4
  8
0
  6
CONTINUOUS
 62
     4
 10
93.32212383382057
 20
85.4007808563742
 30
0.0
 11
98.32212383382057
 21
85.4007808563742
 31
0.0
  0
LINE
  5
2F5
  8
0
  6
CONTINUOUS
 62
     4
 10
93.32212383382057
 20
83.9007808563742
 30
0.0
 11
98.32212383382057
 21
83.9007808563742
 31
0.0
  0
LINE
  5
2F6
  8
0
  6
CONTINUOUS
 62
     4
 10
93.32212383382057
 20
82.4007808563742
 30
0.0
 11
98.32212383382057
 21
82.4007808563742
 31
0.0
  0
LINE
  5
2F7
  8
0
  6
CONTINUOUS
 62
     4
 10
93.32212383382057
 20
80.9007808563742
 30
0.0
 11
97.34849102132057
 21
80.9007808563742
 31
0.0
  0
LINE
  5
2F8
  8
0
  6
CONTINUOUS
 62
     4
 10
93.32212383382057
 20
58.9007808563742
 30
0.0
 11
98.32212383382057
 21
58.9007808563742
 31
0.0
  0
LINE
  5
2F9
  8
0
  6
CONTINUOUS
 62
     4
 10
93.32212383382057
 20
60.4007808563742
 30
0.0
 11
97.49621135823463
 21
60.4007808563742
 31
0.0
  0
LINE
  5
2FA
  8
0
  6
CONTINUOUS
 62
     4
 10
109.3221238338206
 20
58.9007808563742
 30
0.0
 11
114.3221238338206
 21
58.9007808563742
 31
0.0
  0
LINE
  5
2FB
  8
0
  6
CONTINUOUS
 62
     4
 10
110.2002366267893
 20
60.4007808563742
 30
0.0
 11
114.3221238338206
 21
60.4007808563742
 31
0.0
  0
ARC
  5
2FC
  8
0
  6
CONTINUOUS
 62
     4
 10
68.62212688557838
 20
72.4007808563742
 30
0.0
 40
3.299999952316284
 50
72.3602944823007
 51
89.99998201391065
  0
ARC
  5
2FD
  8
0
  6
CONTINUOUS
 62
     4
 10
66.80001384846901
 20
72.4007808563742
 30
0.0
 40
1.200000047683716
 50
113.46797241713
 51
200.8157441650005
  0
CIRCLE
  5
2FE
  8
0
  6
CONTINUOUS
 62
     4
 10
83.03751690022682
 20
47.90078467107146
 30
0.0
 40
2.0
  0
CIRCLE
  5
2FF
  8
0
  6
CONTINUOUS
 62
     4
 10
124.6067460262034
 20
47.90077322697967
 30
0.0
 40
2.0
  0
CIRCLE
  5
300
  8
0
  6
CONTINUOUS
 62
     4
 10
124.6067307674143
 20
23.90078848576873
 30
0.0
 40
2.0
  0
CIRCLE
  5
301
  8
0
  6
CONTINUOUS
 62
     4
 10
83.03751690022682
 20
23.90077322697967
 30
0.0
 40
2.0
  0
LINE
  5
302
  8
0
  6
DIVIDE
 62
     9
 10
-105.9892789738659
 20
53.90076386879501
 30
0.0
 11
-105.9892789738659
 21
17.90076386879501
 31
0.0
  0
LINE
  5
303
  8
0
  6
DIVIDE
 62
     9
 10
-105.9892602480867
 20
53.90074483616091
 30
0.0
 11
-105.4892662078902
 21
54.40074650490406
 31
0.0
  0
LINE
  5
304
  8
0
  6
DIVIDE
 62
     9
 10
-105.9892701609507
 20
17.90076851567424
 30
0.0
 11
-105.489269630156
 21
17.40076798487949
 31
0.0
  0
LINE
  5
305
  8
0
  6
DIVIDE
 62
     9
 10
-55.98927642423734
 20
53.90075817972762
 30
0.0
 11
-56.48927695503209
 21
54.40075871052237
 31
0.0
  0
LINE
  5
306
  8
0
  6
DIVIDE
 62
     9
 10
-59.86365336351434
 20
54.40076386879501
 30
0.0
 11
-56.4892789738659
 21
54.40076386879501
 31
0.0
  0
LINE
  5
307
  8
LAYER0014
  6
CONTINUOUS
 62
     7
 10
-106.9892789738659
 20
-44.09923613120499
 30
0.0
 11
-121.4355909245495
 21
-44.09923613120499
 31
0.0
  0
LINE
  5
308
  8
LAYER0014
  6
CONTINUOUS
 62
     7
 10
-25.32260722093621
 20
55.90076386879501
 30
0.0
 11
-25.32260722093621
 21
45.17899262856064
 31
0.0
  0
LINE
  5
309
  8
LAYER0014
  6
CONTINUOUS
 62
     7
 10
-52.9892789738659
 20
105.900763868795
 30
0.0
 11
-46.53212183885614
 21
105.900763868795
 31
0.0
  0
LINE
  5
30A
  8
LAYER0014
  6
CONTINUOUS
 62
     7
 10
-52.9892789738659
 20
24.11513078163681
 30
0.0
 11
-38.23939722948114
 21
24.11513078163681
 31
0.0
  0
INSERT
  5
30B
  8
LAYER0014
  6
CONTINUOUS
  2
DA_IMAGEDIMGROUP_1
 10
0.0
 20
0.0
 30
0.0
  0
INSERT
  5
30C
  8
LAYER0014
  6
CONTINUOUS
  2
DA_IMAGEDIMGROUP_2
 10
0.0
 20
0.0
 30
0.0
  0
INSERT
  5
30D
  8
LAYER0014
  6
CONTINUOUS
  2
DA_IMAGEDIMGROUP_3
 10
0.0
 20
0.0
 30
0.0
  0
INSERT
  5
30E
  8
LAYER0014
  6
CONTINUOUS
  2
DA_IMAGEDIMGROUP_4
 10
0.0
 20
0.0
 30
0.0
  0
INSERT
  5
30F
  8
LAYER0014
  6
CONTINUOUS
  2
DA_IMAGEDIMGROUP_5
 10
0.0
 20
0.0
 30
0.0
  0
INSERT
  5
310
  8
LAYER0014
  6
CONTINUOUS
  2
DA_IMAGEDIMGROUP_6
 10
0.0
 20
0.0
 30
0.0
  0
INSERT
  5
311
  8
LAYER0014
  6
CONTINUOUS
  2
DA_IMAGEDIMGROUP_7
 10
0.0
 20
0.0
 30
0.0
  0
INSERT
  5
312
  8
LAYER0014
  6
CONTINUOUS
  2
DA_IMAGEDIMGROUP_8
 10
0.0
 20
0.0
 30
0.0
  0
INSERT
  5
313
  8
LAYER0014
  6
CONTINUOUS
  2
DA_IMAGEDIMGROUP_9
 10
0.0
 20
0.0
 30
0.0
  0
INSERT
  5
314
  8
LAYER0014
  6
CONTINUOUS
  2
DA_IMAGEDIMGROUP_10
 10
0.0
 20
0.0
 30
0.0
  0
INSERT
  5
315
  8
LAYER0014
  6
CONTINUOUS
  2
DA_IMAGEDIMGROUP_11
 10
0.0
 20
0.0
 30
0.0
  0
INSERT
  5
316
  8
LAYER0014
  6
CONTINUOUS
  2
DA_IMAGEDIMGROUP_12
 10
0.0
 20
0.0
 30
0.0
  0
INSERT
  5
317
  8
LAYER0014
  6
CONTINUOUS
  2
DA_IMAGEDIMGROUP_13
 10
0.0
 20
0.0
 30
0.0
  0
INSERT
  5
318
  8
LAYER0014
  6
CONTINUOUS
  2
DA_IMAGEDIMGROUP_14
 10
0.0
 20
0.0
 30
0.0
  0
INSERT
  5
319
  8
LAYER0014
  6
CONTINUOUS
  2
DA_IMAGEDIMGROUP_15
 10
0.0
 20
0.0
 30
0.0
  0
INSERT
  5
31A
  8
LAYER0014
  6
CONTINUOUS
  2
DA_IMAGEDIMGROUP_16
 10
0.0
 20
0.0
 30
0.0
  0
INSERT
  5
31B
  8
LAYER0014
  6
CONTINUOUS
  2
DC_GROUP_1
 10
0.0
 20
0.0
 30
0.0
  0
INSERT
  5
31C
  8
LAYER0014
  6
CONTINUOUS
  2
DC_GROUP_2
 10
0.0
 20
0.0
 30
0.0
  0
INSERT
  5
31D
  8
LAYER0014
  6
CONTINUOUS
  2
DA_IMAGEDIMGROUP_17
 10
0.0
 20
0.0
 30
0.0
  0
INSERT
  5
31E
  8
LAYER0014
  6
CONTINUOUS
  2
DA_IMAGEDIMGROUP_19
 10
0.0
 20
0.0
 30
0.0
  0
INSERT
  5
31F
  8
LAYER0014
  6
CONTINUOUS
  2
DA_IMAGEDIMGROUP_24
 10
0.0
 20
0.0
 30
0.0
  0
INSERT
  5
320
  8
LAYER0014
  6
CONTINUOUS
  2
DA_IMAGEDIMGROUP_26
 10
0.0
 20
0.0
 30
0.0
  0
INSERT
  5
321
  8
LAYER0014
  6
CONTINUOUS
  2
DC_GROUP_4
 10
0.0
 20
0.0
 30
0.0
  0
INSERT
  5
322
  8
LAYER0014
  6
CONTINUOUS
  2
DC_GROUP_5
 10
0.0
 20
0.0
 30
0.0
  0
INSERT
  5
323
  8
0
  6
CONTINUOUS
  2
DA_IMAGEDIMGROUP_18
 10
0.0
 20
0.0
 30
0.0
  0
INSERT
  5
324
  8
0
  6
CONTINUOUS
  2
DA_IMAGEDIMGROUP_20
 10
0.0
 20
0.0
 30
0.0
  0
INSERT
  5
325
  8
0
  6
CONTINUOUS
  2
DA_IMAGEDIMGROUP_21
 10
0.0
 20
0.0
 30
0.0
  0
INSERT
  5
326
  8
0
  6
CONTINUOUS
  2
DA_IMAGEDIMGROUP_22
 10
0.0
 20
0.0
 30
0.0
  0
INSERT
  5
327
  8
0
  6
CONTINUOUS
  2
DA_IMAGEDIMGROUP_23
 10
0.0
 20
0.0
 30
0.0
  0
INSERT
  5
328
  8
0
  6
CONTINUOUS
  2
DA_IMAGEDIMGROUP_25
 10
0.0
 20
0.0
 30
0.0
  0
INSERT
  5
329
  8
0
  6
CONTINUOUS
  2
DC_GROUP_3
 10
0.0
 20
0.0
 30
0.0
  0
INSERT
  5
32A
  8
0
  6
CONTINUOUS
  2
DA_IMAGEDIMGROUP_27
 10
0.0
 20
0.0
 30
0.0
  0
INSERT
  5
32B
  8
0
  6
CONTINUOUS
  2
DA_IMAGEDIMGROUP_28
 10
0.0
 20
0.0
 30
0.0
  0
INSERT
  5
32C
  8
0
  6
CONTINUOUS
  2
DA_IMAGEDIMGROUP_29
 10
0.0
 20
0.0
 30
0.0
  0
INSERT
  5
32D
  8
0
  6
CONTINUOUS
  2
DA_IMAGEDIMGROUP_30
 10
0.0
 20
0.0
 30
0.0
  0
INSERT
  5
32E
  8
0
  6
CONTINUOUS
  2
DA_IMAGEDIMGROUP_31
 10
0.0
 20
0.0
 30
0.0
  0
INSERT
  5
32F
  8
0
  6
CONTINUOUS
  2
DC_GROUP_6
 10
0.0
 20
0.0
 30
0.0
  0
LINE
  5
330
  8
0
  6
DASHED2
 62
     7
 10
75.82213909260963
 20
80.31079977727264
 30
0.0
 11
75.82213909260963
 21
64.4007808563742
 31
0.0
  0
LINE
  5
331
  8
0
  6
DASHED2
 62
     7
 10
59.73131878010963
 20
64.4007808563742
 30
0.0
 11
75.82213909260963
 21
64.4007808563742
 31
0.0
  0
LINE
  5
332
  8
0
  6
DASHED2
 62
     7
 10
75.82213909260963
 20
67.4007808563742
 30
0.0
 11
81.79412395589088
 21
67.4007808563742
 31
0.0
  0
LINE
  5
333
  8
0
  6
DASHED2
 62
     7
 10
75.82213909260963
 20
77.4007808563742
 30
0.0
 11
80.27662212483619
 21
77.4007808563742
 31
0.0
  0
LINE
  5
334
  8
0
  6
DASHED2
 62
     7
 10
73.44523174397682
 20
68.45078009343474
 30
0.0
 11
75.13148052327369
 21
68.45078009343474
 31
0.0
  0
LINE
  5
335
  8
0
  6
DASHED2
 62
     7
 10
73.44523174397682
 20
76.35077780461639
 30
0.0
 11
75.13148052327369
 21
76.35077780461639
 31
0.0
  0
LINE
  5
336
  8
0
  6
DASHED2
 62
     7
 10
72.8221314632151
 20
75.7933589813742
 30
0.0
 11
72.8221314632151
 21
69.00816458440154
 31
0.0
  0
LINE
  5
337
  8
0
  6
DASHED2
 62
     7
 10
73.58606273762916
 20
74.4007808563742
 30
0.0
 11
75.05819255940651
 21
74.4007808563742
 31
0.0
  0
LINE
  5
338
  8
0
  6
DASHED2
 62
     7
 10
73.58606273762916
 20
70.4007808563742
 30
0.0
 11
75.05819255940651
 21
70.4007808563742
 31
0.0
  0
LINE
  5
339
  8
0
  6
DASHED2
 62
     7
 10
68.62213010765208
 20
69.1008012775945
 30
0.0
 11
66.32212971224089
 21
70.00080123070332
 31
0.0
  0
LINE
  5
33A
  8
0
  6
DASHED2
 62
     7
 10
69.62212688557838
 20
75.01385611272185
 30
0.0
 11
69.62212688557838
 21
69.72182196355193
 31
0.0
  0
LINE
  5
33B
  8
0
  6
DASHED2
 62
     7
 10
66.3221314632151
 20
72.64313620305389
 30
0.0
 11
66.3221314632151
 21
70.00077933049529
 31
0.0
  0
LINE
  5
33C
  8
0
  6
DASHED2
 62
     7
 10
68.62212688557838
 20
74.85216635442107
 30
0.0
 11
68.62212688557838
 21
69.10078161931365
 31
0.0
  0
ARC
  5
33D
  8
0
  6
DASHED2
 62
     7
 10
72.8221314632151
 20
72.4007808563742
 30
0.0
 40
3.0
 50
0.0
 51
41.81031315512688
  0
ARC
  5
33E
  8
0
  6
DASHED2
 62
     7
 10
75.82213909260963
 20
72.4007808563742
 30
0.0
 40
3.0
 50
138.1896986840186
 51
221.8102840131373
  0
ARC
  5
33F
  8
0
  6
DASHED2
 62
     7
 10
72.8221314632151
 20
72.4007808563742
 30
0.0
 40
3.0
 50
318.1896868448731
 51
360.0
  0
ARC
  5
340
  8
0
  6
DASHED2
 62
     7
 10
68.62212688557838
 20
72.4007808563742
 30
0.0
 40
3.299999952316284
 50
270.0000179860894
 51
287.6397055176993
  0
ARC
  5
341
  8
0
  6
DASHED2
 62
     7
 10
71.02665264241432
 20
78.19674795842498
 30
0.0
 40
3.0
 50
242.1068914535913
 51
306.7619948916872
  0
ARC
  5
342
  8
0
  6
DASHED2
 62
     7
 10
71.02665264241432
 20
66.60478323674529
 30
0.0
 40
3.0
 50
53.23800510831277
 51
117.8898300556071
  0
ARC
  5
343
  8
0
  6
DASHED2
 62
     7
 10
73.75747997395729
 20
75.4007808563742
 30
0.0
 40
1.0
 50
200.7154669700721
 51
270.0000179860894
  0
ARC
  5
344
  8
0
  6
DASHED2
 62
     7
 10
73.75747997395729
 20
75.4007808563742
 30
0.0
 40
1.0
 50
108.1948751325834
 51
159.2845330299279
  0
ARC
  5
345
  8
0
  6
DASHED2
 62
     7
 10
73.75747997395729
 20
69.4007808563742
 30
0.0
 40
1.0
 50
89.99998201391065
 51
159.2845330299279
  0
ARC
  5
346
  8
0
  6
DASHED2
 62
     7
 10
73.75747997395729
 20
69.4007808563742
 30
0.0
 40
1.0
 50
200.7154669700721
 51
251.8051248674166
  0
ARC
  5
347
  8
0
  6
DASHED2
 62
     7
 10
74.81922466389869
 20
75.4007808563742
 30
0.0
 40
1.0
 50
0.0
 51
71.80513670656207
  0
ARC
  5
348
  8
0
  6
DASHED2
 62
     7
 10
74.81922466389869
 20
69.4007808563742
 30
0.0
 40
1.0
 50
0.0
 51
89.99998201391065
  0
ARC
  5
349
  8
0
  6
DASHED2
 62
     7
 10
74.81922466389869
 20
75.4007808563742
 30
0.0
 40
1.0
 50
270.0000179860894
 51
360.0
  0
ARC
  5
34A
  8
0
  6
DASHED2
 62
     7
 10
74.81922466389869
 20
69.4007808563742
 30
0.0
 40
1.0
 50
288.194863293438
 51
360.0
  0
ARC
  5
34B
  8
0
  6
DASHED2
 62
     7
 10
66.80001384846901
 20
72.4007808563742
 30
0.0
 40
1.200000047683716
 50
200.8157614678446
 51
246.5320344130591
  0
LINE
  5
34C
  8
0
  6
CONTINUOUS
 62
     2
 10
103.8221277039812
 20
66.90078789444277
 30
0.0
 11
100.7910380106733
 21
65.15078925044844
 31
0.0
  0
LINE
  5
34D
  8
0
  6
CONTINUOUS
 62
     2
 10
106.853215945587
 20
65.15077298659362
 30
0.0
 11
103.8221279212091
 21
66.90077444690742
 31
0.0
  0
LINE
  5
34E
  8
0
  6
CONTINUOUS
 62
     2
 10
100.7910416805003
 20
65.1507808563742
 30
0.0
 11
100.7910416805003
 21
61.6507808563742
 31
0.0
  0
LINE
  5
34F
  8
0
  6
CONTINUOUS
 62
     2
 10
100.7910180756985
 20
61.65077334845178
 30
0.0
 11
103.8221067259251
 21
59.90077293121927
 31
0.0
  0
LINE
  5
350
  8
0
  6
CONTINUOUS
 62
     2
 10
103.8221267641441
 20
59.90078581511439
 30
0.0
 11
106.8532158316032
 21
61.65078550219
 31
0.0
  0
LINE
  5
351
  8
0
  6
CONTINUOUS
 62
     2
 10
106.8532059871409
 20
61.6507808563742
 30
0.0
 11
106.8532059871409
 21
65.1507808563742
 31
0.0
  0
LINE
  5
352
  8
0
  6
CONTINUOUS
 62
     2
 10
103.8221186580793
 20
81.90078464674498
 30
0.0
 11
100.7910289647714
 21
80.15078600275065
 31
0.0
  0
LINE
  5
353
  8
0
  6
CONTINUOUS
 62
     2
 10
106.8532213865235
 20
80.15075429518056
 30
0.0
 11
103.8221333621457
 21
81.90075575549436
 31
0.0
  0
LINE
  5
354
  8
0
  6
CONTINUOUS
 62
     2
 10
100.7910416805003
 20
80.1507808563742
 30
0.0
 11
100.7910416805003
 21
76.6507808563742
 31
0.0
  0
LINE
  5
355
  8
0
  6
CONTINUOUS
 62
     2
 10
100.7910477995397
 20
76.65079057352018
 30
0.0
 11
103.8221364497663
 21
74.90079015628767
 31
0.0
  0
LINE
  5
356
  8
0
  6
CONTINUOUS
 62
     2
 10
103.8221156647492
 20
74.90077700809543
 30
0.0
 11
106.8532047322083
 21
76.65077669517105
 31
0.0
  0
LINE
  5
357
  8
0
  6
CONTINUOUS
 62
     2
 10
106.8532059871409
 20
76.6507808563742
 30
0.0
 11
106.8532059871409
 21
80.1507808563742
 31
0.0
  0
LINE
  5
358
  8
0
  6
CONTINUOUS
 62
     2
 10
103.8221318942478
 20
11.90079913148857
 30
0.0
 11
100.7910289864376
 21
10.15079285810562
 31
0.0
  0
LINE
  5
359
  8
0
  6
CONTINUOUS
 62
     2
 10
106.8532160087405
 20
10.15076683114758
 30
0.0
 11
103.8221279843626
 21
11.90076829146138
 31
0.0
  0
LINE
  5
35A
  8
0
  6
CONTINUOUS
 62
     2
 10
100.7910416805003
 20
10.15078181004851
 30
0.0
 11
100.7910416805003
 21
6.650781571629935
 31
0.0
  0
LINE
  5
35B
  8
0
  6
CONTINUOUS
 62
     2
 10
100.791003704182
 20
6.650777430389056
 30
0.0
 11
103.8220923544086
 21
4.900777013156542
 31
0.0
  0
LINE
  5
35C
  8
0
  6
CONTINUOUS
 62
     2
 10
103.8221069068801
 20
4.900780576567925
 30
0.0
 11
106.8531959743392
 21
6.65078026364354
 31
0.0
  0
LINE
  5
35D
  8
0
  6
CONTINUOUS
 62
     2
 10
106.8532059871409
 20
6.65078026032775
 30
0.0
 11
106.8532059871409
 21
10.15077990269988
 31
0.0
  0
LINE
  5
35E
  8
0
  6
CONTINUOUS
 62
     2
 10
103.822103621222
 20
-3.099224535273194
 30
0.0
 11
100.7910139279142
 21
-4.849223179267526
 31
0.0
  0
LINE
  5
35F
  8
0
  6
CONTINUOUS
 62
     2
 10
106.8532246674959
 20
-4.84923583241202
 30
0.0
 11
103.822136643118
 21
-3.099234372098223
 31
0.0
  0
LINE
  5
360
  8
0
  6
CONTINUOUS
 62
     2
 10
100.7910416805003
 20
-4.849218189951486
 30
0.0
 11
100.7910416805003
 21
-8.349218189951486
 31
0.0
  0
LINE
  5
361
  8
0
  6
CONTINUOUS
 62
     2
 10
100.7910318121235
 20
-8.349215921052334
 30
0.0
 11
103.8221204623501
 21
-10.09921633828485
 31
0.0
  0
LINE
  5
362
  8
0
  6
CONTINUOUS
 62
     2
 10
103.8221328897043
 20
-10.09920587769175
 30
0.0
 11
106.8532219571634
 21
-8.34920619061613
 31
0.0
  0
LINE
  5
363
  8
0
  6
CONTINUOUS
 62
     2
 10
106.8532059871409
 20
-8.349220097300119
 30
0.0
 11
106.8532059871409
 21
-4.849220097300119
 31
0.0
  0
CIRCLE
  5
364
  8
0
  6
CONTINUOUS
 62
     2
 10
103.8221238338206
 20
63.4007808563742
 30
0.0
 40
6.5
  0
CIRCLE
  5
365
  8
0
  6
CONTINUOUS
 62
     2
 10
103.8221238338206
 20
78.4007808563742
 30
0.0
 40
6.5
  0
CIRCLE
  5
366
  8
0
  6
CONTINUOUS
 62
     2
 10
103.8221238338206
 20
8.400780856374198
 30
0.0
 40
6.5
  0
CIRCLE
  5
367
  8
0
  6
CONTINUOUS
 62
     2
 10
103.8221238338206
 20
-6.599219143625803
 30
0.0
 40
6.5
  0
TEXT
  5
368
  8
0
 62
     5
 10
83.61403972737526
 20
76.33731812215179
 30
0.0
 40
4.0
  1
NIKKO
 50
-90.0
 41
0.7674421177096609
  7
FDASTYLE1
 72
     5
 11
83.61403972737526
 21
57.48017281270354
 31
0.0
  0
TEXT
  5
369
  8
0
 62
     5
 10
85.06812603108619
 20
15.87340551591247
 30
0.0
 40
3.0
  1
   HF2-4
 50
-90.0
 41
0.7714288207463406
  7
FDASTYLE1
 72
     5
 11
85.06812603108619
 21
-7.269454002615518
 31
0.0
  0
TEXT
  5
36A
  8
0
 62
     5
 10
80.92937786214088
 20
14.16831219172805
 30
0.0
 40
2.5
  1
   0001
 50
-90.0
 41
0.7704919721900592
  7
FDASTYLE1
 72
     5
 11
80.92937786214088
 21
-2.61740171932847
 31
0.0
  0
TEXT
  5
36B
  8
0
 62
     5
 10
118.4801743709299
 20
-10.36663424992234
 30
0.0
 40
2.0
  1
F MAX  2.7KN
 50
90.0
 41
0.7991006705422601
  7
FDASTYLE1
 72
     5
 11
118.4801743709299
 21
14.04558026767104
 31
0.0
  0
TEXT
  5
36C
  8
0
 62
     5
 10
121.4801743709299
 20
-10.36663806461961
 30
0.0
 40
2.0
  1
ΣS MAX 9.5KN
 50
90.0
 41
0.804245251237572
  7
FDASTYLE1
 72
     5
 11
121.4801743709299
 21
14.04557645297378
 31
0.0
  0
TEXT
  5
36D
  8
0
 62
     5
 10
124.4801743709299
 20
-10.36663806461961
 30
0.0
 40
2.0
  1
N MAX   7000
 50
90.0
 41
0.7991006705422601
  7
FDASTYLE1
 72
     5
 11
124.4801743709299
 21
14.04557645297378
 31
0.0
  0
TEXT
  5
36E
  8
0
 62
     5
 10
127.4801743709299
 20
-10.36663806461961
 30
0.0
 40
2.0
  1
  AT ΣS MAX
 50
90.0
 41
0.8043671610725266
  7
FDASTYLE1
 72
     5
 11
127.4801743709299
 21
11.96160697913497
 31
0.0
  0
LINE
  5
36F
  8
LAYER0014
  6
CONTINUOUS
 62
     7
 10
108.8221238338206
 20
-34.0992191436258
 30
0.0
 11
129.3896988193085
 21
-34.0992191436258
 31
0.0
  0
LINE
  5
370
  8
LAYER0014
  6
CONTINUOUS
 62
     7
 10
98.82212383382057
 20
-17.51223228717819
 30
0.0
 11
98.82212383382057
 21
-35.0992191436258
 31
0.0
  0
LINE
  5
371
  8
LAYER0014
  6
CONTINUOUS
 62
     7
 10
108.8221238338206
 20
-17.97812843834645
 30
0.0
 11
108.8221238338206
 21
-35.0992191436258
 31
0.0
  0
LINE
  5
372
  8
LAYER0014
  6
CONTINUOUS
 62
     7
 10
98.82212383382057
 20
-34.0992191436258
 30
0.0
 11
108.8221238338206
 21
-34.0992191436258
 31
0.0
  0
INSERT
  5
373
  8
LAYER0014
 62
     7
  2
_OPEN30
 10
98.82212383382057
 20
-34.0992191436258
 30
0.0
 41
1.999998407630662
 42
2.000005728319971
 50
180.0
  0
INSERT
  5
374
  8
LAYER0014
 62
     7
  2
_OPEN30
 10
108.8221238338206
 20
-34.0992191436258
 30
0.0
 41
1.999998407630662
 42
2.000005728319971
 50
360.0
  0
TEXT
  5
375
  8
LAYER0014
 62
     7
 10
116.1037607034258
 20
-33.33616740002877
 30
0.0
 40
4.0
  1
10H8
 41
0.8000000000000007
  7
FDASTYLE1
 72
     5
 11
128.9037607034258
 21
-33.33616740002877
 31
0.0
  0
VIEWPORT
  5
48
 67
     1
  8
0
 10
0.0
 20
0.0
 30
0.0
 40
1152.0
 41
830.9999999999997
 68
     1
 69
     1
1001
ACAD
1000
MVIEW
1002
{
1070
    16
1010
0.0
1020
0.0
1030
0.0
1020
0.0
1030
0.0
1010
0.0
1020
0.0
1030
1.0
1020
0.0
1030
1.0
1040
0.0
1040
830.9999999999997
1040
0.0
1040
0.0
1040
50.0
1040
0.0
1040
0.0
1070
     0
1070
   100
1070
     0
1070
     1
1070
     0
1070
     0
1070
     0
1070
     0
1040
0.0
1040
0.0
1040
0.0
1040
0.5
1040
0.5
1040
0.0
1040
0.0
1070
     0
1002
{
1002
}
1002
}
  0
ENDSEC
  0
EOF
