  0
SECTION
  2
HEADER
  9
$ACADVER
  1
AC1009
  9
$DWGCODEPAGE
  3
ansi_932
  9
$INSBASE
 10
0.0
 20
0.0
 30
0.0
  9
$EXTMIN
 10
-576.0
 20
-415.4999999999998
 30
0.0
  9
$EXTMAX
 10
576.0
 20
415.4999999999998
 30
0.0
  9
$LIMMIN
 10
-210.0
 20
-148.5
  9
$LIMMAX
 10
210.0
 20
148.5
  9
$ORTHOMODE
 70
     0
  9
$REGENMODE
 70
     1
  9
$FILLMODE
 70
     1
  9
$QTEXTMODE
 70
     0
  9
$MIRRTEXT
 70
     1
  9
$DRAGMODE
 70
     2
  9
$LTSCALE
 40
1.0
  9
$OSMODE
 70
    37
  9
$ATTMODE
 70
     1
  9
$TEXTSIZE
 40
0.2
  9
$TRACEWID
 40
0.05
  9
$TEXTSTYLE
  7
STANDARD
  9
$CLAYER
  8
0
  9
$CELTYPE
  6
BYLAYER
  9
$CECOLOR
 62
   256
  9
$DIMSCALE
 40
1.0
  9
$DIMASZ
 40
2.5
  9
$DIMEXO
 40
0.0625
  9
$DIMDLI
 40
0.38
  9
$DIMRND
 40
0.0
  9
$DIMDLE
 40
0.0
  9
$DIMEXE
 40
0.18
  9
$DIMTP
 40
0.0
  9
$DIMTM
 40
0.0
  9
$DIMTXT
 40
0.18
  9
$DIMCEN
 40
0.09
  9
$DIMTSZ
 40
0.0
  9
$DIMTOL
 70
     0
  9
$DIMLIM
 70
     0
  9
$DIMTIH
 70
     1
  9
$DIMTOH
 70
     1
  9
$DIMSE1
 70
     0
  9
$DIMSE2
 70
     0
  9
$DIMTAD
 70
     3
  9
$DIMZIN
 70
     0
  9
$DIMBLK
  1

  9
$DIMASO
 70
     1
  9
$DIMSHO
 70
     1
  9
$DIMPOST
  1

  9
$DIMAPOST
  1

  9
$DIMALT
 70
     0
  9
$DIMALTD
 70
     2
  9
$DIMALTF
 40
25.4
  9
$DIMLFAC
 40
1.0
  9
$DIMTOFL
 70
     0
  9
$DIMTVP
 40
0.0
  9
$DIMTIX
 70
     0
  9
$DIMSOXD
 70
     0
  9
$DIMSAH
 70
     0
  9
$DIMBLK1
  1

  9
$DIMBLK2
  1

  9
$DIMSTYLE
  2
STANDARD
  9
$DIMCLRD
 70
     0
  9
$DIMCLRE
 70
     0
  9
$DIMCLRT
 70
     0
  9
$DIMTFAC
 40
1.0
  9
$DIMGAP
 40
0.09
  9
$LUNITS
 70
     2
  9
$LUPREC
 70
     4
  9
$SKETCHINC
 40
0.1
  9
$FILLETRAD
 40
0.5
  9
$AUNITS
 70
     0
  9
$AUPREC
 70
     0
  9
$MENU
  1
.
  9
$ELEVATION
 40
0.0
  9
$PELEVATION
 40
0.0
  9
$THICKNESS
 40
0.0
  9
$LIMCHECK
 70
     0
  9
$CHAMFERA
 40
0.5
  9
$CHAMFERB
 40
0.5
  9
$SKPOLY
 70
     0
  9
$TDCREATE
 40
2454876.640454884
  9
$TDUPDATE
 40
2454876.640454896
  9
$TDINDWG
 40
0.0000000116
  9
$TDUSRTIMER
 40
0.0000000116
  9
$USRTIMER
 70
     1
  9
$ANGBASE
 50
0.0
  9
$ANGDIR
 70
     0
  9
$PDMODE
 70
     0
  9
$PDSIZE
 40
1.0
  9
$PLINEWID
 40
0.0
  9
$COORDS
 70
     1
  9
$SPLFRAME
 70
     0
  9
$SPLINETYPE
 70
     6
  9
$SPLINESEGS
 70
     8
  9
$ATTDIA
 70
     0
  9
$ATTREQ
 70
     1
  9
$HANDLING
 70
     1
  9
$HANDSEED
  5
393
  9
$SURFTAB1
 70
     6
  9
$SURFTAB2
 70
     6
  9
$SURFTYPE
 70
     6
  9
$SURFU
 70
     6
  9
$SURFV
 70
     6
  9
$UCSNAME
  2

  9
$UCSORG
 10
0.0
 20
0.0
 30
0.0
  9
$UCSXDIR
 10
1.0
 20
0.0
 30
0.0
  9
$UCSYDIR
 10
0.0
 20
1.0
 30
0.0
  9
$PUCSNAME
  2

  9
$PUCSORG
 10
0.0
 20
0.0
 30
0.0
  9
$PUCSXDIR
 10
1.0
 20
0.0
 30
0.0
  9
$PUCSYDIR
 10
0.0
 20
1.0
 30
0.0
  9
$USERI1
 70
     0
  9
$USERI2
 70
     0
  9
$USERI3
 70
     0
  9
$USERI4
 70
     0
  9
$USERI5
 70
     0
  9
$USERR1
 40
0.0
  9
$USERR2
 40
0.0
  9
$USERR3
 40
0.0
  9
$USERR4
 40
0.0
  9
$USERR5
 40
0.0
  9
$WORLDVIEW
 70
     1
  9
$SHADEDGE
 70
     3
  9
$SHADEDIF
 70
    70
  9
$TILEMODE
 70
     1
  9
$MAXACTVP
 70
    64
  9
$PLIMCHECK
 70
     0
  9
$PEXTMIN
 10
1.000000000000000E+20
 20
1.000000000000000E+20
 30
1.000000000000000E+20
  9
$PEXTMAX
 10
-1.000000000000000E+20
 20
-1.000000000000000E+20
 30
-1.000000000000000E+20
  9
$PLIMMIN
 10
0.0
 20
0.0
  9
$PLIMMAX
 10
12.0
 20
9.0
  9
$UNITMODE
 70
     0
  9
$VISRETAIN
 70
     0
  9
$PLINEGEN
 70
     1
  9
$PSLTSCALE
 70
     0
  0
ENDSEC
  0
SECTION
  2
TABLES
  0
TABLE
  2
VPORT
 70
     1
  0
VPORT
  2
*ACTIVE
 70
     0
 10
0.0
 20
0.0
 11
1.0
 21
1.0
 12
0.0
 22
0.0
 13
0.0
 23
0.0
 14
0.5
 24
0.5
 15
0.5
 25
0.5
 16
0.0
 26
0.0
 36
1.0
 17
-0.0000000000000036
 27
0.0
 37
0.0
 40
282.5399999999999
 41
1.386281588447654
 42
50.0
 43
0.0
 44
0.0
 50
0.0
 51
0.0
 71
     0
 72
  1000
 73
     1
 74
     1
 75
     0
 76
     0
 77
     0
 78
     0
  0
ENDTAB
  0
TABLE
  2
LTYPE
 70
    28
  0
LTYPE
  2
CONTINUOUS
 70
     0
  3
Solid line
 72
    65
 73
     0
 40
0.0
  0
LTYPE
  2
HIDDENX2
 70
     0
  3
CADPAC LINETYPE
 72
    65
 73
     2
 40
6.996466431095428
 49
5.247349823321571
 49
-1.749116607773857
  0
LTYPE
  2
HIDDEN
 70
     0
  3
CADPAC LINETYPE
 72
    65
 73
     2
 40
5.247349823321571
 49
3.498233215547714
 49
-1.749116607773857
  0
LTYPE
  2
HIDDEN2
 70
     0
  3
CADPAC LINETYPE
 72
    65
 73
     2
 40
4.372791519434642
 49
2.623674911660785
 49
-1.749116607773857
  0
LTYPE
  2
DASHED
 70
     0
  3
CADPAC LINETYPE
 72
    65
 73
     2
 40
4.897526501766777
 49
3.498233215547714
 49
-1.399293286219063
  0
LTYPE
  2
DASHED2
 70
     0
  3
CADPAC LINETYPE
 72
    65
 73
     2
 40
3.148409893992948
 49
2.098939929328594
 49
-1.049469964664354
  0
LTYPE
  2
DASHEDX2
 70
     0
  3
CADPAC LINETYPE
 72
    65
 73
     2
 40
8.39575971731449
 49
6.996466431095428
 49
-1.399293286219063
  0
LTYPE
  2
DOTX2
 70
     0
  3
CADPAC LINETYPE
 72
    65
 73
     2
 40
3.060954063604271
 49
0.0
 49
-3.060954063604271
  0
LTYPE
  2
DOT
 70
     0
  3
CADPAC LINETYPE
 72
    65
 73
     2
 40
2.448763250883417
 49
0.0
 49
-2.448763250883417
  0
LTYPE
  2
DOT2
 70
     0
  3
CADPAC LINETYPE
 72
    65
 73
     2
 40
1.836572438162563
 49
0.0
 49
-1.836572438162563
  0
LTYPE
  2
CENTERX2
 70
     0
  3
CADPAC LINETYPE
 72
    65
 73
     4
 40
10.49469964664314
 49
4.372791519434642
 49
-2.186395759717321
 49
1.749116607773857
 49
-2.186395759717321
  0
LTYPE
  2
CENTER
 70
     0
  3
CADPAC LINETYPE
 72
    65
 73
     4
 40
8.045936395759743
 49
3.498233215547714
 49
-1.749116607773857
 49
1.049469964664314
 49
-1.749116607773857
  0
LTYPE
  2
CENTER2
 70
     0
  3
CADPAC LINETYPE
 72
    65
 73
     4
 40
5.597173144876342
 49
2.623674911660785
 49
-1.311837455830393
 49
0.3498233215547714
 49
-1.311837455830393
  0
LTYPE
  2
DASHDOTX2
 70
     0
  3
CADPAC LINETYPE
 72
    65
 73
     4
 40
16.79151943462887
 49
8.39575971731449
 49
-2.798586572438126
 49
2.798586572438126
 49
-2.798586572438126
  0
LTYPE
  2
DASHDOT
 70
     0
  3
CADPAC LINETYPE
 72
    65
 73
     4
 40
8.395759717314434
 49
4.197879858657245
 49
-1.399293286219063
 49
1.399293286219063
 49
-1.399293286219063
  0
LTYPE
  2
DASHDOT2
 70
     0
  3
CADPAC LINETYPE
 72
    65
 73
     4
 40
5.387279151943434
 49
3.148409893992934
 49
-1.049469964664297
 49
0.1399293286219063
 49
-1.049469964664297
  0
LTYPE
  2
DIVIDEX2
 70
     0
  3
CADPAC LINETYPE
 72
    65
 73
     6
 40
22.38869257950512
 49
8.39575971731449
 49
-2.798586572438126
 49
2.798586572438126
 49
-2.798586572438126
 49
2.798586572438126
 49
-2.798586572438126
  0
LTYPE
  2
DIVIDE
 70
     0
  3
CADPAC LINETYPE
 72
    65
 73
     6
 40
11.19434628975256
 49
4.197879858657245
 49
-1.399293286219063
 49
1.399293286219063
 49
-1.399293286219063
 49
1.399293286219063
 49
-1.399293286219063
  0
LTYPE
  2
DIVIDE2
 70
     0
  3
CADPAC LINETYPE
 72
    65
 73
     6
 40
8.395759717314419
 49
3.148409893992934
 49
-1.049469964664297
 49
1.049469964664297
 49
-1.049469964664297
 49
1.049469964664297
 49
-1.049469964664297
  0
LTYPE
  2
BORDERX2
 70
     0
  3
CADPAC LINETYPE
 72
    65
 73
     6
 40
15.30477031802125
 49
4.372791519434642
 49
-2.186395759717321
 49
4.372791519434642
 49
-2.186395759717321
 49
0.0
 49
-2.186395759717321
  0
LTYPE
  2
BORDER
 70
     0
  3
CADPAC LINETYPE
 72
    65
 73
     6
 40
12.243816254417
 49
3.498233215547714
 49
-1.749116607773857
 49
3.498233215547714
 49
-1.749116607773857
 49
0.0
 49
-1.749116607773857
  0
LTYPE
  2
BORDER2
 70
     0
  3
CADPAC LINETYPE
 72
    65
 73
     6
 40
9.095406360424107
 49
2.798586572438126
 49
-1.749116607773885
 49
1.049469964664354
 49
-1.749116607773885
 49
0.0
 49
-1.749116607773857
  0
LTYPE
  2
PHANTOMX2
 70
     0
  3
CADPAC LINETYPE
 72
    65
 73
     6
 40
13.11837455830393
 49
4.372791519434642
 49
-1.749116607773857
 49
1.749116607773857
 49
-1.749116607773857
 49
1.749116607773857
 49
-1.749116607773857
  0
LTYPE
  2
PHANTOM
 70
     0
  3
CADPAC LINETYPE
 72
    65
 73
     6
 40
10.84452296819791
 49
3.498233215547714
 49
-1.749116607773857
 49
1.049469964664314
 49
-1.749116607773857
 49
1.049469964664314
 49
-1.749116607773857
  0
LTYPE
  2
PHANTOM2
 70
     0
  3
CADPAC LINETYPE
 72
    65
 73
     6
 40
9.270318021201442
 49
2.623674911660785
 49
-1.749116607773857
 49
0.6996466431095428
 49
-1.749116607773857
 49
0.6996466431095428
 49
-1.749116607773857
  0
LTYPE
  2
ACAD_ISO06W100
 70
     0
  3
CADPAC LINETYPE
 72
    65
 73
     8
 40
18.54063604240309
 49
8.39575971731449
 49
-1.749116607773885
 49
1.049469964664354
 49
-1.749116607773885
 49
1.049469964664354
 49
-1.749116607773885
 49
1.049469964664354
 49
-1.749116607773885
  0
LTYPE
  2
ACAD_ISO13W100
 70
     0
  3
CADPAC LINETYPE
 72
    65
 73
     8
 40
13.99293286219086
 49
3.498233215547714
 49
-1.749116607773857
 49
3.498233215547714
 49
-1.749116607773857
 49
0.0
 49
-1.749116607773857
 49
0.0
 49
-1.749116607773857
  0
LTYPE
  2
ACAD_ISO14W100
 70
     0
  3
CADPAC LINETYPE
 72
    65
 73
     8
 40
10.49469964664314
 49
3.498233215547714
 49
-1.749116607773857
 49
0.0
 49
-1.749116607773857
 49
0.0
 49
-1.749116607773857
 49
0.0
 49
-1.749116607773857
  0
ENDTAB
  0
TABLE
  2
LAYER
 70
     3
  0
LAYER
  2
0
 70
     0
 62
     7
  6
CONTINUOUS
  0
LAYER
  2
LAYER0014
 70
     0
 62
     7
  6
CONTINUOUS
  0
LAYER
  2
ZUWAKU
 70
     0
 62
     7
  6
CONTINUOUS
  0
ENDTAB
  0
TABLE
  2
STYLE
 70
     5
  0
STYLE
  2
STANDARD
 70
     0
 40
0.0
 41
1.0
 50
0.0
 71
     0
 42
0.2
  3
txt
  4

  0
STYLE
  2
FDASTYLE1
 70
     0
 40
4.0
 41
0.7692307692307692
 50
0.0
 71
     0
 42
0.2
  3
txt.shx
  4
bigfont
  0
STYLE
  2
FDASTYLE0
 70
     4
 40
2.6656
 41
0.8
 50
0.0
 71
     0
 42
0.2
  3
txt.shx
  4
bigfont
  0
STYLE
  2
FDASTYLE2
 70
     0
 40
7.0
 41
0.8123476848090983
 50
0.0
 71
     0
 42
0.2
  3
MSMINCHO.TTC
  4

  0
STYLE
  2
FDASTYLE3
 70
     0
 40
8.0
 41
0.77
 50
0.0
 71
     0
 42
0.2
  3
MSGOTHIC.TTC
  4

  0
ENDTAB
  0
TABLE
  2
VIEW
 70
     0
  0
ENDTAB
  0
TABLE
  2
UCS
 70
     0
  0
ENDTAB
  0
TABLE
  2
APPID
 70
     2
  0
APPID
  2
ACAD
 70
     0
  0
APPID
  2
DAFUSIONOUT
 70
     0
  0
ENDTAB
  0
TABLE
  2
DIMSTYLE
 70
     1
  0
DIMSTYLE
  2
STANDARD
 70
     0
  3

  4

  5

  6

  7

 40
1.0
 41
0.18
 42
0.0625
 43
0.38
 44
0.18
 45
0.0
 46
0.0
 47
0.0
 48
0.0
140
0.18
141
0.09
142
0.0
143
25.4
144
1.0
145
0.0
146
1.0
147
0.09
 71
     0
 72
     0
 73
     1
 74
     1
 75
     0
 76
     0
 77
     0
 78
     0
170
     0
171
     2
172
     0
173
     0
174
     0
175
     0
176
     0
177
     0
178
     0
  0
ENDTAB
  0
ENDSEC
  0
SECTION
  2
BLOCKS
  0
BLOCK
  8
0
  2
$MODEL_SPACE
 70
     0
 10
0.0
 20
0.0
 30
0.0
  3
$MODEL_SPACE
  1

  0
ENDBLK
  5
21
  8
0
  0
BLOCK
 67
     1
  8
0
  2
$PAPER_SPACE
 70
     0
 10
0.0
 20
0.0
 30
0.0
  3
$PAPER_SPACE
  1

  0
ENDBLK
  5
1D
 67
     1
  8
0
  0
BLOCK
  8
0
  2
DA_IMAGEDIMGROUP_1
 70
     0
 10
0.0
 20
0.0
 30
0.0
  3
DA_IMAGEDIMGROUP_1
  1

  0
LINE
  5
B8
  8
LAYER0014
  6
CONTINUOUS
 62
     7
 10
-105.4796141440598
 20
48.84698432056098
 30
0.0
 11
-134.7081993491379
 21
48.84698432056098
 31
0.0
  0
LINE
  5
B9
  8
LAYER0014
  6
CONTINUOUS
 62
     7
 10
-105.4796141440598
 20
23.54699652759223
 30
0.0
 11
-134.7081993491379
 21
23.54699652759223
 31
0.0
  0
LINE
  5
BA
  8
LAYER0014
  6
CONTINUOUS
 62
     7
 10
-133.7081993491379
 20
48.84699957935004
 30
0.0
 11
-133.7081993491379
 21
23.54700034228949
 31
0.0
  0
INSERT
  5
C1
  8
LAYER0014
 62
     7
  2
_OPEN30
 10
-133.7081993491379
 20
48.84699957935004
 30
0.0
 41
1.999998407630662
 42
2.000005728319971
 50
90.0
  0
INSERT
  5
C2
  8
LAYER0014
 62
     7
  2
_OPEN30
 10
-133.7081993491379
 20
23.54700034228949
 30
0.0
 41
1.999998407630662
 42
2.000005728319971
 50
270.0
  0
TEXT
  5
C4
  8
LAYER0014
 62
     7
 10
-135.3081993491379
 20
25.39699798194556
 30
0.0
 40
4.0
  1
φ25.3
 50
90.0
 41
0.7692307692307692
  7
FDASTYLE1
 72
     5
 11
-135.3081993491379
 21
41.39699798194556
 31
0.0
  0
TEXT
  5
C5
  8
LAYER0014
 62
     7
 10
-137.508199349138
 20
42.39699798194556
 30
0.0
 40
2.2
  1
+0.3
 50
90.0
 41
0.7999999999999991
  7
FDASTYLE1
 72
     5
 11
-137.508199349138
 21
49.43699798194555
 31
0.0
  0
TEXT
  5
C6
  8
LAYER0014
 62
     7
 10
-135.108199349138
 20
42.39699798194556
 30
0.0
 40
2.2
  1
　0
 50
90.0
 41
0.7272727272727294
  7
FDASTYLE1
 72
     5
 11
-135.108199349138
 21
45.91699798194557
 31
0.0
  0
ENDBLK
  5
4E
  8
0
  0
BLOCK
  8
0
  2
DA_IMAGEDIMGROUP_2
 70
     0
 10
0.0
 20
0.0
 30
0.0
  3
DA_IMAGEDIMGROUP_2
  1

  0
LINE
  5
C7
  8
LAYER0014
  6
CONTINUOUS
 62
     7
 10
-85.47962177345434
 20
54.1969904240766
 30
0.0
 11
-144.7081993491379
 21
54.1969904240766
 31
0.0
  0
LINE
  5
C8
  8
LAYER0014
  6
CONTINUOUS
 62
     7
 10
-85.47962177345434
 20
18.19700568286567
 30
0.0
 11
-144.7081993491379
 21
18.19700568286567
 31
0.0
  0
LINE
  5
C9
  8
LAYER0014
  6
CONTINUOUS
 62
     7
 10
-143.7081993491379
 20
54.1970018681684
 30
0.0
 11
-143.7081993491379
 21
18.1970018681684
 31
0.0
  0
INSERT
  5
CA
  8
LAYER0014
 62
     7
  2
_OPEN30
 10
-143.7081993491379
 20
54.1970018681684
 30
0.0
 41
1.999998407630662
 42
2.000005728319971
 50
90.0
  0
INSERT
  5
CB
  8
LAYER0014
 62
     7
  2
_OPEN30
 10
-143.7081993491379
 20
18.1970018681684
 30
0.0
 41
1.999998407630662
 42
2.000005728319971
 50
270.0
  0
TEXT
  5
CC
  8
LAYER0014
 62
     7
 10
-144.7081993491379
 20
28.1970018681684
 30
0.0
 40
4.0
  1
φ36Ｈ7
 50
90.0
 41
0.7407407407407407
  7
FDASTYLE1
 72
     5
 11
-144.7081993491379
 21
44.1970018681684
 31
0.0
  0
ENDBLK
  5
51
  8
0
  0
BLOCK
  8
0
  2
DA_IMAGEDIMGROUP_3
 70
     0
 10
0.0
 20
0.0
 30
0.0
  3
DA_IMAGEDIMGROUP_3
  1

  0
LINE
  5
CD
  8
LAYER0014
  6
CONTINUOUS
 62
     7
 10
-115.3437651450364
 20
13.19700568286567
 30
0.0
 11
-154.7081993491379
 21
13.19700568286567
 31
0.0
  0
LINE
  5
CE
  8
LAYER0014
  6
CONTINUOUS
 62
     7
 10
-115.3437651450364
 20
59.19702094165473
 30
0.0
 11
-154.7081993491379
 21
59.19702094165473
 31
0.0
  0
LINE
  5
CF
  8
LAYER0014
  6
CONTINUOUS
 62
     7
 10
-153.7081993491379
 20
13.19700091449408
 30
0.0
 11
-153.7081993491379
 21
59.1970018681684
 31
0.0
  0
INSERT
  5
D0
  8
LAYER0014
 62
     7
  2
_OPEN30
 10
-153.7081993491379
 20
13.19700091449408
 30
0.0
 41
1.999998407630662
 42
2.000005728319971
 50
270.0
  0
INSERT
  5
D1
  8
LAYER0014
 62
     7
  2
_OPEN30
 10
-153.7081993491379
 20
59.1970018681684
 30
0.0
 41
1.999998407630662
 42
2.000005728319971
 50
90.0
  0
TEXT
  5
D2
  8
LAYER0014
 62
     7
 10
-154.7081993491379
 20
28.19700139133124
 30
0.0
 40
4.0
  1
φ46H7
 50
90.0
 41
0.7692307692307692
  7
FDASTYLE1
 72
     5
 11
-154.7081993491379
 21
44.19700139133124
 31
0.0
  0
ENDBLK
  5
54
  8
0
  0
BLOCK
  8
0
  2
DA_IMAGEDIMGROUP_4
 70
     0
 10
0.0
 20
0.0
 30
0.0
  3
DA_IMAGEDIMGROUP_4
  1

  0
LINE
  5
D3
  8
LAYER0014
  6
CONTINUOUS
 62
     7
 10
-116.3437651450364
 20
91.1969904240766
 30
0.0
 11
-164.7081993491379
 21
91.1969904240766
 31
0.0
  0
LINE
  5
D4
  8
LAYER0014
  6
CONTINUOUS
 62
     7
 10
-116.3437651450364
 20
-18.80299431713434
 30
0.0
 11
-164.7081993491379
 21
-18.80299431713434
 31
0.0
  0
LINE
  5
D5
  8
LAYER0014
  6
CONTINUOUS
 62
     7
 10
-163.7081993491379
 20
91.19699805347113
 30
0.0
 11
-163.7081993491379
 21
-18.8029981318316
 31
0.0
  0
INSERT
  5
D6
  8
LAYER0014
 62
     7
  2
_OPEN30
 10
-163.7081993491379
 20
91.19699805347113
 30
0.0
 41
1.999998407630662
 42
2.000005728319971
 50
90.0
  0
INSERT
  5
D7
  8
LAYER0014
 62
     7
  2
_OPEN30
 10
-163.7081993491379
 20
-18.8029981318316
 30
0.0
 41
1.999998407630662
 42
2.000005728319971
 50
270.0
  0
TEXT
  5
D8
  8
LAYER0014
 62
     7
 10
-164.7081993491379
 20
26.59699996081977
 30
0.0
 40
4.0
  1
φ110H7
 50
90.0
 41
0.7741935483870963
  7
FDASTYLE1
 72
     5
 11
-164.7081993491379
 21
45.79699996081976
 31
0.0
  0
ENDBLK
  5
57
  8
0
  0
BLOCK
  8
0
  2
DA_IMAGEDIMGROUP_5
 70
     0
 10
0.0
 20
0.0
 30
0.0
  3
DA_IMAGEDIMGROUP_5
  1

  0
LINE
  5
D9
  8
LAYER0014
  6
CONTINUOUS
 62
     7
 10
-116.3437651450364
 20
101.1969904240766
 30
0.0
 11
-174.7081993491379
 21
101.1969904240766
 31
0.0
  0
LINE
  5
DA
  8
LAYER0014
  6
CONTINUOUS
 62
     7
 10
-116.3437651450364
 20
-28.80299431713434
 30
0.0
 11
-174.7081993491379
 21
-28.80299431713434
 31
0.0
  0
LINE
  5
DB
  8
LAYER0014
  6
CONTINUOUS
 62
     7
 10
-173.7081993491379
 20
101.1969980534711
 30
0.0
 11
-173.7081993491379
 21
-28.8029981318316
 31
0.0
  0
INSERT
  5
DC
  8
LAYER0014
 62
     7
  2
_OPEN30
 10
-173.7081993491379
 20
101.1969980534711
 30
0.0
 41
1.999998407630662
 42
2.000005728319971
 50
90.0
  0
INSERT
  5
DD
  8
LAYER0014
 62
     7
  2
_OPEN30
 10
-173.7081993491379
 20
-28.8029981318316
 30
0.0
 41
1.999998407630662
 42
2.000005728319971
 50
270.0
  0
TEXT
  5
DE
  8
LAYER0014
 62
     7
 10
-174.7081993491379
 20
29.79699996081976
 30
0.0
 40
4.0
  1
φ130
 50
90.0
 41
0.7619047619047625
  7
FDASTYLE1
 72
     5
 11
-174.7081993491379
 21
42.59699996081977
 31
0.0
  0
ENDBLK
  5
5A
  8
0
  0
BLOCK
  8
0
  2
DA_IMAGEDIMGROUP_6
 70
     0
 10
0.0
 20
0.0
 30
0.0
  3
DA_IMAGEDIMGROUP_6
  1

  0
LINE
  5
DF
  8
LAYER0014
  6
CONTINUOUS
 62
     7
 10
-113.8037651450364
 20
-29.6666557547914
 30
0.0
 11
-113.8037651450364
 21
-59.8030095759234
 31
0.0
  0
LINE
  5
E0
  8
LAYER0014
  6
CONTINUOUS
 62
     7
 10
-109.6037681967942
 20
-21.3429981318316
 30
0.0
 11
-109.6037681967942
 21
-59.8030095759234
 31
0.0
  0
LINE
  5
E1
  8
LAYER0014
  6
CONTINUOUS
 62
     7
 10
-113.8037651450364
 20
-58.8030095759234
 30
0.0
 11
-109.6037681967942
 21
-58.8030095759234
 31
0.0
  0
LINE
  5
E2
  8
LAYER0014
  6
CONTINUOUS
 62
     7
 10
-128.2704368979661
 20
-58.8030095759234
 30
0.0
 11
-113.8037651450364
 21
-58.8030095759234
 31
0.0
  0
INSERT
  5
E3
  8
LAYER0014
 62
     7
  2
_OPEN30
 10
-113.8037651450364
 20
-58.8030095759234
 30
0.0
 41
1.999998407630662
 42
2.000005728319971
 50
360.0
  0
LINE
  5
E4
  8
LAYER0014
  6
CONTINUOUS
 62
     7
 10
-104.6037681967942
 20
-58.8030095759234
 30
0.0
 11
-109.6037681967942
 21
-58.8030095759234
 31
0.0
  0
INSERT
  5
E5
  8
LAYER0014
 62
     7
  2
_OPEN30
 10
-109.6037681967942
 20
-58.8030095759234
 30
0.0
 41
1.999998407630662
 42
2.000005728319971
 50
180.0
  0
TEXT
  5
E6
  8
LAYER0014
 62
     7
 10
-127.2704368979661
 20
-57.8030095759234
 30
0.0
 40
4.0
  1
4.2
 41
0.7999999999999995
  7
FDASTYLE1
 72
     5
 11
-117.6704368979661
 21
-57.8030095759234
 31
0.0
  0
ENDBLK
  5
5D
  8
0
  0
BLOCK
  8
0
  2
DA_IMAGEDIMGROUP_7
 70
     0
 10
0.0
 20
0.0
 30
0.0
  3
DA_IMAGEDIMGROUP_7
  1

  0
LINE
  5
E7
  8
LAYER0014
  6
CONTINUOUS
 62
     7
 10
-109.6037681967942
 20
-31.3429981318316
 30
0.0
 11
-109.6037681967942
 21
-59.8030095759234
 31
0.0
  0
LINE
  5
E8
  8
LAYER0014
  6
CONTINUOUS
 62
     7
 10
-53.80376514503637
 20
-39.8429981318316
 30
0.0
 11
-53.80376514503637
 21
-59.8030095759234
 31
0.0
  0
LINE
  5
E9
  8
LAYER0014
  6
CONTINUOUS
 62
     7
 10
-109.6037681967942
 20
-58.8030095759234
 30
0.0
 11
-53.80376514503637
 21
-58.8030095759234
 31
0.0
  0
INSERT
  5
EA
  8
LAYER0014
 62
     7
  2
_OPEN30
 10
-109.6037681967942
 20
-58.8030095759234
 30
0.0
 41
1.999998407630662
 42
2.000005728319971
 50
180.0
  0
INSERT
  5
EB
  8
LAYER0014
 62
     7
  2
_OPEN30
 10
-53.80376514503637
 20
-58.8030095759234
 30
0.0
 41
1.999998407630662
 42
2.000005728319971
 50
360.0
  0
TEXT
  5
EC
  8
LAYER0014
 62
     7
 10
-88.10376667091529
 20
-57.8030095759234
 30
0.0
 40
4.0
  1
55.8
 41
0.8000000000000007
  7
FDASTYLE1
 72
     5
 11
-75.30376667091528
 21
-57.8030095759234
 31
0.0
  0
ENDBLK
  5
60
  8
0
  0
BLOCK
  8
0
  2
DA_IMAGEDIMGROUP_8
 70
     0
 10
0.0
 20
0.0
 30
0.0
  3
DA_IMAGEDIMGROUP_8
  1

  0
LINE
  5
ED
  8
LAYER0014
  6
CONTINUOUS
 62
     7
 10
-113.8037651450364
 20
-50.31925164135308
 30
0.0
 11
-113.8037651450364
 21
-69.8030095759234
 31
0.0
  0
LINE
  5
EE
  8
LAYER0014
  6
CONTINUOUS
 62
     7
 10
-53.80376514503637
 20
-29.8798748102984
 30
0.0
 11
-53.80376514503637
 21
-69.8030095759234
 31
0.0
  0
LINE
  5
EF
  8
LAYER0014
  6
CONTINUOUS
 62
     7
 10
-113.8037651450364
 20
-68.8030095759234
 30
0.0
 11
-53.80376514503637
 21
-68.8030095759234
 31
0.0
  0
INSERT
  5
F0
  8
LAYER0014
 62
     7
  2
_OPEN30
 10
-113.8037651450364
 20
-68.8030095759234
 30
0.0
 41
1.999998407630662
 42
2.000005728319971
 50
180.0
  0
INSERT
  5
F1
  8
LAYER0014
 62
     7
  2
_OPEN30
 10
-53.80376514503637
 20
-68.8030095759234
 30
0.0
 41
1.999998407630662
 42
2.000005728319971
 50
360.0
  0
TEXT
  5
F2
  8
LAYER0014
 62
     7
 10
-87.00376514503638
 20
-67.8030095759234
 30
0.0
 40
4.0
  1
60
 41
0.8000000000000007
  7
FDASTYLE1
 72
     5
 11
-80.60376514503638
 21
-67.8030095759234
 31
0.0
  0
ENDBLK
  5
63
  8
0
  0
BLOCK
  8
0
  2
DA_IMAGEDIMGROUP_9
 70
     0
 10
0.0
 20
0.0
 30
0.0
  3
DA_IMAGEDIMGROUP_9
  1

  0
LINE
  5
F3
  8
LAYER0014
  6
CONTINUOUS
 62
     7
 10
-109.6037681967942
 20
-43.65352171096502
 30
0.0
 11
-82.93961414405982
 21
-43.65352171096502
 31
0.0
  0
INSERT
  5
F4
  8
LAYER0014
 62
     7
  2
_OPEN30
 10
-109.6037681967942
 20
-43.65352171096502
 30
0.0
 41
1.999998407630662
 42
2.000005728319971
 50
180.0
  0
INSERT
  5
F5
  8
LAYER0014
 62
     7
  2
_OPEN30
 10
-82.93961414405982
 20
-43.65352171096502
 30
0.0
 41
1.999998407630662
 42
2.000005728319971
 50
360.0
  0
LINE
  5
F6
  8
LAYER0014
  6
CONTINUOUS
 62
     7
 10
-109.6037681967942
 20
-7.617999657710506
 30
0.0
 11
-109.6037681967942
 21
-44.65352171096502
 31
0.0
  0
LINE
  5
F7
  8
LAYER0014
  6
CONTINUOUS
 62
     7
 10
-82.93961414405982
 20
15.65699996081977
 30
0.0
 11
-82.93961414405982
 21
-44.65352171096502
 31
0.0
  0
TEXT
  5
F8
  8
LAYER0014
 62
     7
 10
-107.471691170427
 20
-42.65352171096502
 30
0.0
 40
4.0
  1
MAX36.8
 41
0.8000000000000002
  7
FDASTYLE1
 72
     5
 11
-85.071691170427
 21
-42.65352171096502
 31
0.0
  0
ENDBLK
  5
66
  8
0
  0
BLOCK
  8
0
  2
DA_IMAGEDIMGROUP_10
 70
     0
 10
0.0
 20
0.0
 30
0.0
  3
DA_IMAGEDIMGROUP_10
  1

  0
LINE
  5
F9
  8
LAYER0014
  6
CONTINUOUS
 62
     7
 10
-102.9396141440598
 20
27.57739203540473
 30
0.0
 11
-82.93961414405982
 21
27.57739203540473
 31
0.0
  0
INSERT
  5
FA
  8
LAYER0014
 62
     7
  2
_OPEN30
 10
-102.9396141440598
 20
27.57739203540473
 30
0.0
 41
1.999998407630662
 42
2.000005728319971
 50
180.0
  0
INSERT
  5
FB
  8
LAYER0014
 62
     7
  2
_OPEN30
 10
-82.93961414405982
 20
27.57739203540473
 30
0.0
 41
1.999998407630662
 42
2.000005728319971
 50
360.0
  0
TEXT
  5
FC
  8
LAYER0014
 62
     7
 10
-96.13961414405982
 20
28.57739203540473
 30
0.0
 40
4.0
  1
20
 41
0.8000000000000007
  7
FDASTYLE1
 72
     5
 11
-89.73961414405981
 21
28.57739203540473
 31
0.0
  0
ENDBLK
  5
69
  8
0
  0
BLOCK
  8
0
  2
DA_IMAGEDIMGROUP_11
 70
     0
 10
0.0
 20
0.0
 30
0.0
  3
DA_IMAGEDIMGROUP_11
  1

  0
LINE
  5
FD
  8
LAYER0014
  6
CONTINUOUS
 62
     7
 10
-82.93961414405982
 20
27.57739203540473
 30
0.0
 11
-74.93962177345435
 21
27.57739203540473
 31
0.0
  0
INSERT
  5
FE
  8
LAYER0014
 62
     7
  2
_OPEN30
 10
-82.93961414405982
 20
27.57739203540473
 30
0.0
 41
1.999998407630662
 42
2.000005728319971
 50
180.0
  0
INSERT
  5
FF
  8
LAYER0014
 62
     7
  2
_OPEN30
 10
-74.93962177345435
 20
27.57739203540473
 30
0.0
 41
1.999998407630662
 42
2.000005728319971
 50
360.0
  0
TEXT
  5
100
  8
LAYER0014
 62
     7
 10
-80.53961795875708
 20
28.57739203540473
 30
0.0
 40
4.0
  1
8
 41
0.7999999999999972
  7
FDASTYLE1
 72
     5
 11
-77.33961795875709
 21
28.57739203540473
 31
0.0
  0
ENDBLK
  5
6C
  8
0
  0
BLOCK
  8
0
  2
DA_IMAGEDIMGROUP_12
 70
     0
 10
0.0
 20
0.0
 30
0.0
  3
DA_IMAGEDIMGROUP_12
  1

  0
LINE
  5
101
  8
LAYER0014
  6
CONTINUOUS
 62
     7
 10
-74.93962177345435
 20
27.57739203540473
 30
0.0
 11
-66.93962177345435
 21
27.57739203540473
 31
0.0
  0
INSERT
  5
102
  8
LAYER0014
 62
     7
  2
_OPEN30
 10
-74.93962177345435
 20
27.57739203540473
 30
0.0
 41
1.999998407630662
 42
2.000005728319971
 50
180.0
  0
INSERT
  5
103
  8
LAYER0014
 62
     7
  2
_OPEN30
 10
-66.93962177345435
 20
27.57739203540473
 30
0.0
 41
1.999998407630662
 42
2.000005728319971
 50
360.0
  0
TEXT
  5
104
  8
LAYER0014
 62
     7
 10
-72.53962177345434
 20
28.57739203540473
 30
0.0
 40
4.0
  1
8
 41
0.7999999999999972
  7
FDASTYLE1
 72
     5
 11
-69.33962177345435
 21
28.57739203540473
 31
0.0
  0
ENDBLK
  5
6F
  8
0
  0
BLOCK
  8
0
  2
DA_IMAGEDIMGROUP_13
 70
     0
 10
0.0
 20
0.0
 30
0.0
  3
DA_IMAGEDIMGROUP_13
  1

  0
LINE
  5
105
  8
LAYER0014
  6
CONTINUOUS
 62
     7
 10
-127.3437651450364
 20
-0.0780034724077723
 30
0.0
 11
-144.7081993491379
 21
-0.0780034724077723
 31
0.0
  0
LINE
  5
106
  8
LAYER0014
  6
CONTINUOUS
 62
     7
 10
-127.3437651450364
 20
-10.07800347240777
 30
0.0
 11
-144.7081993491379
 21
-10.07800347240777
 31
0.0
  0
LINE
  5
107
  8
LAYER0014
  6
CONTINUOUS
 62
     7
 10
-143.7081993491379
 20
-0.0779996577105067
 30
0.0
 11
-143.7081993491379
 21
-10.07799965771051
 31
0.0
  0
INSERT
  5
108
  8
LAYER0014
 62
     7
  2
_OPEN30
 10
-143.7081993491379
 20
-0.0779996577105067
 30
0.0
 41
1.999998407630662
 42
2.000005728319971
 50
90.0
  0
INSERT
  5
109
  8
LAYER0014
 62
     7
  2
_OPEN30
 10
-143.7081993491379
 20
-10.07799965771051
 30
0.0
 41
1.999998407630662
 42
2.000005728319971
 50
270.0
  0
TEXT
  5
10A
  8
LAYER0014
 62
     7
 10
-145.3081993491379
 20
-9.878003472407784
 30
0.0
 40
4.0
  1
M10
 50
90.0
 41
0.8000000000000019
  7
FDASTYLE1
 72
     5
 11
-145.3081993491379
 21
-0.2780034724077609
 31
0.0
  0
ENDBLK
  5
72
  8
0
  0
BLOCK
  8
0
  2
DA_IMAGEDIMGROUP_14
 70
     0
 10
0.0
 20
0.0
 30
0.0
  3
DA_IMAGEDIMGROUP_14
  1

  0
LINE
  5
10B
  8
LAYER0014
  6
CONTINUOUS
 62
     7
 10
-124.8037651450364
 20
-43.65352171096502
 30
0.0
 11
-109.6037681967942
 21
-43.65352171096502
 31
0.0
  0
LINE
  5
10C
  8
LAYER0014
  6
CONTINUOUS
 62
     7
 10
-124.8037651450364
 20
-2.617999657710507
 30
0.0
 11
-124.8037651450364
 21
-44.65352171096502
 31
0.0
  0
LINE
  5
10D
  8
LAYER0014
  6
CONTINUOUS
 62
     7
 10
-109.6037681967942
 20
-2.617999657710507
 30
0.0
 11
-109.6037681967942
 21
-44.65352171096502
 31
0.0
  0
LINE
  5
10E
  8
LAYER0014
  6
CONTINUOUS
 62
     7
 10
-141.5356151450364
 20
-43.65352171096502
 30
0.0
 11
-124.8037651450364
 21
-43.65352171096502
 31
0.0
  0
INSERT
  5
10F
  8
LAYER0014
 62
     7
  2
_OPEN30
 10
-124.8037651450364
 20
-43.65352171096502
 30
0.0
 41
1.999998407630662
 42
2.000005728319971
 50
360.0
  0
TEXT
  5
110
  8
LAYER0014
 62
     7
 10
-140.5356151450364
 20
-42.65352171096502
 30
0.0
 40
4.0
  1
15.2
 41
0.8000000000000007
  7
FDASTYLE1
 72
     5
 11
-127.7356151450364
 21
-42.65352171096502
 31
0.0
  0
ENDBLK
  5
75
  8
0
  0
BLOCK
  8
0
  2
DA_IMAGEDIMGROUP_15
 70
     0
 10
0.0
 20
0.0
 30
0.0
  3
DA_IMAGEDIMGROUP_15
  1

  0
LINE
  5
111
  8
LAYER0014
  6
CONTINUOUS
 62
     7
 10
-3.697775690279074
 20
36.1970018681684
 30
0.0
 11
-3.697775690279074
 21
62.19699805347113
 31
0.0
  0
INSERT
  5
112
  8
LAYER0014
 62
     7
  2
_OPEN30
 10
-3.697775690279074
 20
36.1970018681684
 30
0.0
 41
1.999998407630662
 42
2.000005728319971
 50
270.0
  0
INSERT
  5
113
  8
LAYER0014
 62
     7
  2
_OPEN30
 10
-3.697775690279074
 20
62.19699805347113
 30
0.0
 41
1.999998407630662
 42
2.000005728319971
 50
90.0
  0
LINE
  5
114
  8
LAYER0014
  6
CONTINUOUS
 62
     7
 10
-12.6828380388009
 20
36.19699564662743
 30
0.0
 11
-2.697775690279314
 21
36.19700256059998
 31
0.0
  0
LINE
  5
115
  8
LAYER0014
  6
CONTINUOUS
 62
     7
 10
-52.26376514503637
 20
62.1969904240766
 30
0.0
 11
-2.697775690279087
 21
62.1969982105645
 31
0.0
  0
TEXT
  5
116
  8
LAYER0014
 62
     7
 10
-4.697775690279074
 20
36.39699996081976
 30
0.0
 40
4.0
  1
MAX27.25
 50
90.0
 41
0.8
  7
FDASTYLE1
 72
     5
 11
-4.697775690279074
 21
61.99699996081976
 31
0.0
  0
ENDBLK
  5
78
  8
0
  0
BLOCK
  8
0
  2
DA_IMAGEDIMGROUP_16
 70
     0
 10
0.0
 20
0.0
 30
0.0
  3
DA_IMAGEDIMGROUP_16
  1

  0
LINE
  5
117
  8
LAYER0014
  6
CONTINUOUS
 62
     7
 10
-52.26376514503637
 20
62.1969904240766
 30
0.0
 11
-2.708199349137935
 21
62.1969904240766
 31
0.0
  0
LINE
  5
118
  8
LAYER0014
  6
CONTINUOUS
 62
     7
 10
-52.26376514503637
 20
101.1969904240766
 30
0.0
 11
-2.708199349137935
 21
101.1969904240766
 31
0.0
  0
LINE
  5
119
  8
LAYER0014
  6
CONTINUOUS
 62
     7
 10
-3.708199349137935
 20
62.19699805347113
 30
0.0
 11
-3.708199349137935
 21
101.1969980534711
 31
0.0
  0
INSERT
  5
11A
  8
LAYER0014
 62
     7
  2
_OPEN30
 10
-3.708199349137935
 20
62.19699805347113
 30
0.0
 41
1.999998407630662
 42
2.000005728319971
 50
270.0
  0
INSERT
  5
11B
  8
LAYER0014
 62
     7
  2
_OPEN30
 10
-3.708199349137935
 20
101.1969980534711
 30
0.0
 41
1.999998407630662
 42
2.000005728319971
 50
90.0
  0
TEXT
  5
11C
  8
LAYER0014
 62
     7
 10
-5.308199349137935
 20
78.49699805347113
 30
0.0
 40
4.0
  1
39
 50
90.0
 41
0.8000000000000007
  7
FDASTYLE1
 72
     5
 11
-5.308199349137935
 21
84.89699805347114
 31
0.0
  0
ENDBLK
  5
7B
  8
0
  0
BLOCK
  8
0
  2
DA_IMAGEDIMGROUP_17
 70
     0
 10
0.0
 20
0.0
 30
0.0
  3
DA_IMAGEDIMGROUP_17
  1

  0
LINE
  5
11D
  8
LAYER0014
  6
CONTINUOUS
 62
     7
 10
-52.26376514503637
 20
62.1969904240766
 30
0.0
 11
-22.70819934913794
 21
62.1969904240766
 31
0.0
  0
LINE
  5
11E
  8
LAYER0014
  6
CONTINUOUS
 62
     7
 10
-33.59563617775122
 20
72.1969904240766
 30
0.0
 11
-22.70819934913794
 21
72.1969904240766
 31
0.0
  0
LINE
  5
11F
  8
LAYER0014
  6
CONTINUOUS
 62
     7
 10
-23.70819934913794
 20
62.19699805347113
 30
0.0
 11
-23.70819934913794
 21
72.19699805347113
 31
0.0
  0
INSERT
  5
120
  8
LAYER0014
 62
     7
  2
_OPEN30
 10
-23.70819934913794
 20
62.19699805347113
 30
0.0
 41
1.999998407630662
 42
2.000005728319971
 50
270.0
  0
INSERT
  5
121
  8
LAYER0014
 62
     7
  2
_OPEN30
 10
-23.70819934913794
 20
72.19699805347113
 30
0.0
 41
1.999998407630662
 42
2.000005728319971
 50
90.0
  0
TEXT
  5
122
  8
LAYER0014
 62
     7
 10
-30.1081995398728
 20
62.39699805347114
 30
0.0
 40
4.0
  1
MIN
 50
90.0
 41
0.7999999999999995
  7
FDASTYLE1
 72
     5
 11
-30.1081995398728
 21
71.99699805347113
 31
0.0
  0
TEXT
  5
123
  8
LAYER0014
 62
     7
 10
-25.30819934913794
 20
62.39699802962928
 30
0.0
 40
4.0
  1
 7
 50
90.0
 41
0.7999999999999998
  7
FDASTYLE1
 72
     5
 11
-25.30819934913794
 21
68.79699802962928
 31
0.0
  0
ENDBLK
  5
7E
  8
0
  0
BLOCK
  8
0
  2
DC_GROUP_1
 70
     0
 10
0.0
 20
0.0
 30
0.0
  3
DC_GROUP_1
  1

  0
LINE
  5
124
  8
LAYER0014
  6
CONTINUOUS
 62
     7
 10
-42.01026282802177
 20
92.37695717433962
 30
0.0
 11
-28.28806008658562
 21
108.3906721555452
 31
0.0
  0
INSERT
  5
125
  8
LAYER0014
 62
     7
  2
_OPEN30
 10
-42.01026282802177
 20
92.37695717433962
 30
0.0
 41
1.999998407630662
 42
2.000005728319971
 50
229.4066238022371
  0
LINE
  5
126
  8
LAYER0014
  6
CONTINUOUS
 62
     7
 10
-28.28806289741674
 20
108.3906702336469
 30
0.0
 11
-19.81372961113134
 21
108.3906702336469
 31
0.0
  0
TEXT
  5
127
  8
LAYER0014
 62
     7
 10
-27.01372798988501
 20
109.9906702336469
 30
0.0
 40
4.0
  1
M8
 41
0.7999999999999998
  7
FDASTYLE1
 72
     5
 11
-20.61372798988501
 21
109.9906702336469
 31
0.0
  0
ENDBLK
  5
81
  8
0
  0
BLOCK
  8
0
  2
DA_IMAGEDIMGROUP_18
 70
     0
 10
0.0
 20
0.0
 30
0.0
  3
DA_IMAGEDIMGROUP_18
  1

  0
LINE
  5
128
  8
LAYER0014
  6
CONTINUOUS
 62
     7
 10
-22.39461975489487
 20
65.1969904240766
 30
0.0
 11
-12.70819934913794
 21
65.1969904240766
 31
0.0
  0
LINE
  5
129
  8
LAYER0014
  6
CONTINUOUS
 62
     7
 10
-50.76376514503637
 20
96.1969904240766
 30
0.0
 11
-12.70819934913794
 21
96.1969904240766
 31
0.0
  0
LINE
  5
12A
  8
LAYER0014
  6
CONTINUOUS
 62
     7
 10
-13.70819934913794
 20
65.1969904240766
 30
0.0
 11
-13.70819934913794
 21
96.1969904240766
 31
0.0
  0
INSERT
  5
12B
  8
LAYER0014
 62
     7
  2
_OPEN30
 10
-13.70819934913794
 20
65.1969904240766
 30
0.0
 41
1.999998407630662
 42
2.000005728319971
 50
270.0
  0
INSERT
  5
12C
  8
LAYER0014
 62
     7
  2
_OPEN30
 10
-13.70819934913794
 20
96.1969904240766
 30
0.0
 41
1.999998407630662
 42
2.000005728319971
 50
90.0
  0
TEXT
  5
12D
  8
LAYER0014
 62
     7
 10
-15.30819934913794
 20
77.4969904240766
 30
0.0
 40
4.0
  1
31
 50
90.0
 41
0.8000000000000007
  7
FDASTYLE1
 72
     5
 11
-15.30819934913794
 21
83.89699042407661
 31
0.0
  0
ENDBLK
  5
84
  8
0
  0
BLOCK
  8
0
  2
DA_IMAGEDIMGROUP_19
 70
     0
 10
0.0
 20
0.0
 30
0.0
  3
DA_IMAGEDIMGROUP_19
  1

  0
LINE
  5
12E
  8
LAYER0014
  6
CONTINUOUS
 62
     7
 10
-33.59563617775122
 20
72.1969904240766
 30
0.0
 11
-22.70819934913794
 21
72.1969904240766
 31
0.0
  0
LINE
  5
12F
  8
LAYER0014
  6
CONTINUOUS
 62
     7
 10
-33.59563617775122
 20
89.1969904240766
 30
0.0
 11
-22.70819934913794
 21
89.1969904240766
 31
0.0
  0
LINE
  5
130
  8
LAYER0014
  6
CONTINUOUS
 62
     7
 10
-23.70819934913794
 20
72.1969904240766
 30
0.0
 11
-23.70819934913794
 21
89.1969904240766
 31
0.0
  0
INSERT
  5
131
  8
LAYER0014
 62
     7
  2
_OPEN30
 10
-23.70819934913794
 20
72.1969904240766
 30
0.0
 41
1.999998407630662
 42
2.000005728319971
 50
270.0
  0
INSERT
  5
132
  8
LAYER0014
 62
     7
  2
_OPEN30
 10
-23.70819934913794
 20
89.1969904240766
 30
0.0
 41
1.999998407630662
 42
2.000005728319971
 50
90.0
  0
TEXT
  5
133
  8
LAYER0014
 62
     7
 10
-25.30819934913794
 20
77.4969904240766
 30
0.0
 40
4.0
  1
17
 50
90.0
 41
0.8000000000000007
  7
FDASTYLE1
 72
     5
 11
-25.30819934913794
 21
83.89699042407661
 31
0.0
  0
ENDBLK
  5
87
  8
0
  0
BLOCK
  8
0
  2
DA_IMAGEDIMGROUP_20
 70
     0
 10
0.0
 20
0.0
 30
0.0
  3
DA_IMAGEDIMGROUP_20
  1

  0
LINE
  5
134
  8
LAYER0014
  6
CONTINUOUS
 62
     7
 10
-13.73157247351064
 20
11.19700091449408
 30
0.0
 11
-13.73157247351064
 21
54.2876801400886
 31
0.0
  0
INSERT
  5
135
  8
LAYER0014
 62
     7
  2
_OPEN30
 10
-13.73157247351064
 20
11.19700091449408
 30
0.0
 41
1.999998407630662
 42
2.000005728319971
 50
270.0
  0
LINE
  5
136
  8
LAYER0014
  6
CONTINUOUS
 62
     7
 10
-51.26376514503637
 20
11.19700568286567
 30
0.0
 11
-12.73157247351064
 21
11.19700078744657
 31
0.0
  0
TEXT
  5
137
  8
LAYER0014
 62
     7
 10
-15.33157247351064
 20
28.17080252734809
 30
0.0
 40
4.0
  1
φ50H7
 50
90.0
 41
0.7692307692307692
  7
FDASTYLE1
 72
     5
 11
-15.33157247351064
 21
44.17080252734809
 31
0.0
  0
ENDBLK
  5
8A
  8
0
  0
BLOCK
  8
0
  2
DA_IMAGEDIMGROUP_21
 70
     0
 10
0.0
 20
0.0
 30
0.0
  3
DA_IMAGEDIMGROUP_21
  1

  0
LINE
  5
138
  8
LAYER0014
  6
CONTINUOUS
 62
     7
 10
-53.80376514503637
 20
102.2369980534711
 30
0.0
 11
-53.80376514503637
 21
116.5617212590375
 31
0.0
  0
LINE
  5
139
  8
LAYER0014
  6
CONTINUOUS
 62
     7
 10
-54.80376514503637
 20
103.7369980534711
 30
0.0
 11
-54.80376514503637
 21
116.5617212590375
 31
0.0
  0
LINE
  5
13A
  8
LAYER0014
  6
CONTINUOUS
 62
     7
 10
-53.80376514503637
 20
115.5617212590375
 30
0.0
 11
-54.80376514503637
 21
115.5617212590375
 31
0.0
  0
LINE
  5
13B
  8
LAYER0014
  6
CONTINUOUS
 62
     7
 10
-61.15376514503637
 20
115.5617212590375
 30
0.0
 11
-54.80376514503637
 21
115.5617212590375
 31
0.0
  0
INSERT
  5
13C
  8
LAYER0014
 62
     7
  2
_OPEN30
 10
-54.80376514503637
 20
115.5617212590375
 30
0.0
 41
1.999998407630662
 42
2.000005728319971
 50
360.0
  0
TEXT
  5
13D
  8
LAYER0014
 62
     7
 10
-62.72392124244848
 20
117.1617212590375
 30
0.0
 40
4.0
  1
1
 41
0.8000000000000007
  7
FDASTYLE1
 72
     5
 11
-59.52392124244848
 21
117.1617212590375
 31
0.0
  0
LINE
  5
13E
  8
LAYER0014
  6
CONTINUOUS
 62
     7
 10
-53.80376514503637
 20
115.5617212590375
 30
0.0
 11
-47.45376514503637
 21
115.5617212590375
 31
0.0
  0
INSERT
  5
13F
  8
LAYER0014
 62
     7
  2
_OPEN30
 10
-53.80376514503637
 20
115.5617212590375
 30
0.0
 41
1.999998407630662
 42
2.000005728319971
 50
180.0
  0
ENDBLK
  5
8D
  8
0
  0
BLOCK
  8
0
  2
DC_GROUP_2
 70
     0
 10
0.0
 20
0.0
 30
0.0
  3
DC_GROUP_2
  1

  0
LINE
  5
140
  8
LAYER0014
  6
CONTINUOUS
 62
     7
 10
-54.76256938987768
 20
98.75471077490238
 30
0.0
 11
-35.83653988403381
 21
117.8262596591201
 31
0.0
  0
INSERT
  5
141
  8
LAYER0014
 62
     7
  2
_OPEN30
 10
-54.76256938987768
 20
98.75471077490238
 30
0.0
 41
1.999998407630662
 42
2.000005728319971
 50
225.2194246530998
  0
LINE
  5
142
  8
LAYER0014
  6
CONTINUOUS
 62
     7
 10
-35.83654102394262
 20
117.8262628850141
 30
0.0
 11
4.964558753279057
 21
117.8262628850141
 31
0.0
  0
TEXT
  5
143
  8
LAYER0014
 62
     7
 10
-35.35233959266821
 20
119.4262552556196
 30
0.0
 40
4.0
  1
ｾﾚｰｼｮﾝP1.5山60ﾟ
 41
0.7887323943661972
  7
FDASTYLE1
 72
     5
 11
9.447660407331796
 21
119.4262552556196
 31
0.0
  0
ENDBLK
  5
90
  8
0
  0
BLOCK
  8
0
  2
DA_IMAGEDIMGROUP_22
 70
     0
 10
0.0
 20
0.0
 30
0.0
  3
DA_IMAGEDIMGROUP_22
  1

  0
LINE
  5
144
  8
LAYER0014
  6
CONTINUOUS
 62
     7
 10
-56.30376514503637
 20
21.4988703068891
 30
0.0
 11
-53.80376514503637
 21
21.4988703068891
 31
0.0
  0
LINE
  5
145
  8
LAYER0014
  6
CONTINUOUS
 62
     7
 10
-56.30376514503637
 20
21.4988703068891
 30
0.0
 11
-62.65376514503637
 21
21.4988703068891
 31
0.0
  0
INSERT
  5
146
  8
LAYER0014
 62
     7
  2
_OPEN30
 10
-56.30376514503637
 20
21.4988703068891
 30
0.0
 41
1.999998407630662
 42
2.000005728319971
 50
360.0
  0
LINE
  5
147
  8
LAYER0014
  6
CONTINUOUS
 62
     7
 10
-47.45376514503637
 20
21.4988703068891
 30
0.0
 11
-53.80376514503637
 21
21.4988703068891
 31
0.0
  0
INSERT
  5
148
  8
LAYER0014
 62
     7
  2
_OPEN30
 10
-53.80376514503637
 20
21.4988703068891
 30
0.0
 41
1.999998407630662
 42
2.000005728319971
 50
180.0
  0
TEXT
  5
149
  8
LAYER0014
 62
     7
 10
-50.8427101523606
 20
23.0988703068891
 30
0.0
 40
4.0
  1
2.5
 41
0.8000000000000007
  7
FDASTYLE1
 72
     5
 11
-41.24271015236059
 21
23.0988703068891
 31
0.0
  0
ENDBLK
  5
93
  8
0
  0
BLOCK
  8
0
  2
DA_IMAGEDIMGROUP_23
 70
     0
 10
0.0
 20
0.0
 30
0.0
  3
DA_IMAGEDIMGROUP_23
  1

  0
LINE
  5
14A
  8
LAYER0014
  6
CONTINUOUS
 62
     7
 10
-109.6037681967942
 20
93.73699805347114
 30
0.0
 11
-109.6037681967942
 21
116.5617212590375
 31
0.0
  0
LINE
  5
14B
  8
LAYER0014
  6
CONTINUOUS
 62
     7
 10
-112.8037651450364
 20
61.23700568286566
 30
0.0
 11
-112.8037651450364
 21
116.5617212590375
 31
0.0
  0
LINE
  5
14C
  8
LAYER0014
  6
CONTINUOUS
 62
     7
 10
-109.6037681967942
 20
115.5617212590375
 30
0.0
 11
-112.8037651450364
 21
115.5617212590375
 31
0.0
  0
LINE
  5
14D
  8
LAYER0014
  6
CONTINUOUS
 62
     7
 10
-143.3300286625634
 20
115.5617212590375
 30
0.0
 11
-112.8037651450364
 21
115.5617212590375
 31
0.0
  0
INSERT
  5
14E
  8
LAYER0014
 62
     7
  2
_OPEN30
 10
-112.8037651450364
 20
115.5617212590375
 30
0.0
 41
1.999998407630662
 42
2.000005728319971
 50
360.0
  0
LINE
  5
14F
  8
LAYER0014
  6
CONTINUOUS
 62
     7
 10
-104.6037681967942
 20
115.5617212590375
 30
0.0
 11
-109.6037681967942
 21
115.5617212590375
 31
0.0
  0
INSERT
  5
150
  8
LAYER0014
 62
     7
  2
_OPEN30
 10
-109.6037681967942
 20
115.5617212590375
 30
0.0
 41
1.999998407630662
 42
2.000005728319971
 50
180.0
  0
TEXT
  5
151
  8
LAYER0014
 62
     7
 10
-142.3300286625634
 20
116.5617212590375
 30
0.0
 40
4.0
  1
MAX 16.8
 41
0.7999999999999998
  7
FDASTYLE1
 72
     5
 11
-116.7300286625634
 21
116.5617212590375
 31
0.0
  0
ENDBLK
  5
96
  8
0
  0
BLOCK
  8
0
  2
DA_IMAGEDIMGROUP_24
 70
     0
 10
0.0
 20
0.0
 30
0.0
  3
DA_IMAGEDIMGROUP_24
  1

  0
TEXT
  5
152
  8
LAYER0014
 62
     7
 10
-107.7841788685841
 20
-48.71749095348611
 30
0.0
 40
4.0
  1
MIN16.8
 41
0.8000000000000002
  7
FDASTYLE1
 72
     5
 11
-85.38417886858413
 21
-48.71749095348611
 31
0.0
  0
ENDBLK
  5
99
  8
0
  0
BLOCK
  8
0
  2
DA_IMAGEDIMGROUP_25
 70
     0
 10
0.0
 20
0.0
 30
0.0
  3
DA_IMAGEDIMGROUP_25
  1

  0
TEXT
  5
153
  8
LAYER0014
 62
     7
 10
-142.4703809933254
 20
110.698811812759
 30
0.0
 40
4.0
  1
MIN -3.2
 41
0.8000000000000003
  7
FDASTYLE1
 72
     5
 11
-116.8703809933254
 21
110.698811812759
 31
0.0
  0
ENDBLK
  5
9C
  8
0
  0
BLOCK
  8
0
  2
DA_IMAGEDIMGROUP_26
 70
     0
 10
0.0
 20
0.0
 30
0.0
  3
DA_IMAGEDIMGROUP_26
  1

  0
LINE
  5
154
  8
LAYER0014
  6
CONTINUOUS
 62
     7
 10
93.17441860465117
 20
-31.3430095759234
 30
0.0
 11
93.17441860465117
 21
-47.25780541332574
 31
0.0
  0
LINE
  5
155
  8
LAYER0014
  6
CONTINUOUS
 62
     7
 10
104.1744186046512
 20
-31.3430095759234
 30
0.0
 11
104.1744186046512
 21
-47.25780541332574
 31
0.0
  0
LINE
  5
156
  8
LAYER0014
  6
CONTINUOUS
 62
     7
 10
93.17441860465117
 20
-46.25780541332574
 30
0.0
 11
104.1744186046512
 21
-46.25780541332574
 31
0.0
  0
LINE
  5
157
  8
LAYER0014
  6
CONTINUOUS
 62
     7
 10
128.6826857560971
 20
-46.25780541332574
 30
0.0
 11
104.1744186046512
 21
-46.25780541332574
 31
0.0
  0
INSERT
  5
158
  8
LAYER0014
 62
     7
  2
_OPEN30
 10
104.1744186046512
 20
-46.25780541332574
 30
0.0
 41
1.999998407630662
 42
2.000005728319971
 50
180.0
  0
LINE
  5
159
  8
LAYER0014
  6
CONTINUOUS
 62
     7
 10
88.17441860465117
 20
-46.25780541332574
 30
0.0
 11
93.17441860465117
 21
-46.25780541332574
 31
0.0
  0
INSERT
  5
15A
  8
LAYER0014
 62
     7
  2
_OPEN30
 10
93.17441860465117
 20
-46.25780541332574
 30
0.0
 41
1.999998407630662
 42
2.000005728319971
 50
360.0
  0
TEXT
  5
15B
  8
LAYER0014
 62
     7
 10
114.8826857560971
 20
-45.25780541332574
 30
0.0
 40
4.0
  1
11H8
 41
0.7999999999999998
  7
FDASTYLE1
 72
     5
 11
127.6826857560971
 21
-45.25780541332574
 31
0.0
  0
ENDBLK
  5
9F
  8
0
  0
BLOCK
  8
0
  2
DA_IMAGEDIMGROUP_27
 70
     0
 10
0.0
 20
0.0
 30
0.0
  3
DA_IMAGEDIMGROUP_27
  1

  0
LINE
  5
15C
  8
LAYER0014
  6
CONTINUOUS
 62
     7
 10
85.17441860465117
 20
-31.3430095759234
 30
0.0
 11
85.17441860465117
 21
-59.8030095759234
 31
0.0
  0
LINE
  5
15D
  8
LAYER0014
  6
CONTINUOUS
 62
     7
 10
112.1744186046512
 20
-31.3430095759234
 30
0.0
 11
112.1744186046512
 21
-59.8030095759234
 31
0.0
  0
LINE
  5
15E
  8
LAYER0014
  6
CONTINUOUS
 62
     7
 10
85.17441860465117
 20
-58.8030095759234
 30
0.0
 11
112.1744186046512
 21
-58.8030095759234
 31
0.0
  0
INSERT
  5
15F
  8
LAYER0014
 62
     7
  2
_OPEN30
 10
85.17441860465117
 20
-58.8030095759234
 30
0.0
 41
1.999998407630662
 42
2.000005728319971
 50
180.0
  0
INSERT
  5
160
  8
LAYER0014
 62
     7
  2
_OPEN30
 10
112.1744186046512
 20
-58.8030095759234
 30
0.0
 41
1.999998407630662
 42
2.000005728319971
 50
360.0
  0
TEXT
  5
161
  8
LAYER0014
 62
     7
 10
95.47441860465116
 20
-57.8030095759234
 30
0.0
 40
4.0
  1
27
 41
0.8000000000000007
  7
FDASTYLE1
 72
     5
 11
101.8744186046512
 21
-57.8030095759234
 31
0.0
  0
ENDBLK
  5
A2
  8
0
  0
BLOCK
  8
0
  2
DA_IMAGEDIMGROUP_28
 70
     0
 10
0.0
 20
0.0
 30
0.0
  3
DA_IMAGEDIMGROUP_28
  1

  0
LINE
  5
162
  8
LAYER0014
  6
CONTINUOUS
 62
     7
 10
171.2144186046511
 20
36.1969904240766
 30
0.0
 11
175.4124557140262
 21
36.1969904240766
 31
0.0
  0
LINE
  5
163
  8
LAYER0014
  6
CONTINUOUS
 62
     7
 10
147.0116486965454
 20
64.10449112125738
 30
0.0
 11
165.1315138760669
 21
74.56598936181831
 31
0.0
  0
ARC
  5
164
  8
LAYER0014
  6
CONTINUOUS
 62
     7
 10
98.67444912222929
 20
36.1969904240766
 30
0.0
 40
75.73799896240234
 50
0.0
 51
29.99999741973147
  0
INSERT
  5
165
  8
LAYER0014
 62
     7
  2
_OPEN30
 10
174.4124480846317
 20
36.1969904240766
 30
0.0
 41
1.999998407630662
 42
2.000005728319971
 50
270.7564993626558
  0
INSERT
  5
166
  8
LAYER0014
 62
     7
  2
_OPEN30
 10
164.2654819608685
 20
74.06598695143934
 30
0.0
 41
1.999998407630662
 42
2.000005728319971
 50
119.2434980570765
  0
TEXT
  5
167
  8
LAYER0014
 62
     7
 10
172.1348866254559
 20
60.84998092810201
 30
0.0
 40
4.0
  1
30ﾟ
 50
-74.99999999999997
 41
0.800000000000002
  7
FDASTYLE1
 72
     5
 11
174.6195494584401
 21
51.57709299572693
 31
0.0
  0
ENDBLK
  5
A5
  8
0
  0
BLOCK
  8
0
  2
DA_IMAGEDIMGROUP_29
 70
     0
 10
0.0
 20
0.0
 30
0.0
  3
DA_IMAGEDIMGROUP_29
  1

  0
LINE
  5
168
  8
LAYER0014
  6
CONTINUOUS
 62
     7
 10
50.33721652846677
 20
64.10450824414468
 30
0.0
 11
32.2173772521982
 21
74.56596634273112
 31
0.0
  0
LINE
  5
169
  8
LAYER0014
  6
CONTINUOUS
 62
     7
 10
26.13441757910145
 20
36.19703037042196
 30
0.0
 11
21.93644913426205
 21
36.19704488870557
 31
0.0
  0
ARC
  5
16A
  8
LAYER0014
  6
CONTINUOUS
 62
     7
 10
98.67444912222929
 20
36.1969904240766
 30
0.0
 40
75.73799896240234
 50
150.0000246646978
 51
179.9999640278213
  0
INSERT
  5
16B
  8
LAYER0014
 62
     7
  2
_OPEN30
 10
33.08340168714157
 20
74.06596166963503
 30
0.0
 41
1.999998407630662
 42
2.000005728319971
 50
60.75652402735256
  0
INSERT
  5
16C
  8
LAYER0014
 62
     7
  2
_OPEN30
 10
22.93645015984187
 20
36.19703797488847
 30
0.0
 41
1.999998407630662
 42
2.000005728319971
 50
269.2434646651661
  0
TEXT
  5
16D
  8
LAYER0014
 62
     7
 10
22.72934878601843
 20
51.57710062512147
 30
0.0
 40
4.0
  1
30ﾟ
 50
75.0
 41
0.8000000000000002
  7
FDASTYLE1
 72
     5
 11
25.21401161900263
 21
60.84998855749652
 31
0.0
  0
ENDBLK
  5
A8
  8
0
  0
BLOCK
  8
0
  2
DC_GROUP_3
 70
     0
 10
0.0
 20
0.0
 30
0.0
  3
DC_GROUP_3
  1

  0
LINE
  5
16E
  8
LAYER0014
  6
CONTINUOUS
 62
     7
 10
60.60777973642489
 20
7.396995263872441
 30
0.0
 11
35.70979700637439
 21
-46.25479153837853
 31
0.0
  0
INSERT
  5
16F
  8
LAYER0014
 62
     7
  2
_OPEN30
 10
60.60777973642489
 20
7.396995263872441
 30
0.0
 41
1.999998407630662
 42
2.000005728319971
 50
65.10557724527882
  0
LINE
  5
170
  8
LAYER0014
  6
CONTINUOUS
 62
     7
 10
35.70979610709257
 20
-46.25478798778863
 30
0.0
 11
6.74106231561867
 21
-46.25478798778863
 31
0.0
  0
TEXT
  5
171
  8
LAYER0014
 62
     7
 10
8.818875849524211
 20
-44.65478798778863
 30
0.0
 40
4.0
  1
PCD82.55
 41
0.8
  7
FDASTYLE1
 72
     5
 11
34.41887584952421
 21
-44.65478798778863
 31
0.0
  0
ENDBLK
  5
AB
  8
0
  0
BLOCK
  8
0
  2
DC_GROUP_4
 70
     0
 10
0.0
 20
0.0
 30
0.0
  3
DC_GROUP_4
  1

  0
LINE
  5
172
  8
LAYER0014
  6
CONTINUOUS
 62
     7
 10
124.2744382821913
 20
19.39700085063134
 30
0.0
 11
140.4967186566323
 21
-46.25478433742615
 31
0.0
  0
INSERT
  5
173
  8
LAYER0014
 62
     7
  2
_OPEN30
 10
124.2744382821913
 20
19.39700085063134
 30
0.0
 41
1.999998407630662
 42
2.000005728319971
 50
103.8795264992096
  0
LINE
  5
174
  8
LAYER0014
  6
CONTINUOUS
 62
     7
 10
140.4967147472293
 20
-46.25478798778863
 30
0.0
 11
185.0172531912811
 21
-46.25478798778863
 31
0.0
  0
TEXT
  5
175
  8
LAYER0014
 62
     7
 10
142.354548609534
 20
-44.6547918024859
 30
0.0
 40
4.0
  1
4-M5×11 PCD58
 41
0.7878787878787879
  7
FDASTYLE1
 72
     5
 11
183.954548609534
 21
-44.6547918024859
 31
0.0
  0
ENDBLK
  5
AE
  8
0
  0
BLOCK
  8
0
  2
DA_IMAGEDIMGROUP_30
 70
     0
 10
0.0
 20
0.0
 30
0.0
  3
DA_IMAGEDIMGROUP_30
  1

  0
LINE
  5
176
  8
0
  6
CONTINUOUS
 62
     9
 10
-65.93962177345435
 20
16.1970018681684
 30
0.0
 11
-24.65765119969547
 21
16.1970018681684
 31
0.0
  0
LINE
  5
177
  8
0
  6
CONTINUOUS
 62
     9
 10
-65.93962177345435
 20
56.1969904240766
 30
0.0
 11
-24.65765119969547
 21
56.1969904240766
 31
0.0
  0
LINE
  5
178
  8
0
  6
CONTINUOUS
 62
     9
 10
-25.65765119969547
 20
16.1970018681684
 30
0.0
 11
-25.65765119969547
 21
56.1969904240766
 31
0.0
  0
INSERT
  5
179
  8
0
 62
     9
  2
_OPEN30
 10
-25.65765119969547
 20
16.1970018681684
 30
0.0
 41
1.999998407630662
 42
2.000005728319971
 50
270.0
  0
INSERT
  5
17A
  8
0
 62
     9
  2
_OPEN30
 10
-25.65765119969547
 20
56.1969904240766
 30
0.0
 41
1.999998407630662
 42
2.000005728319971
 50
90.0
  0
TEXT
  5
17B
  8
0
 62
     7
 10
-26.65765119969547
 20
21.7969961461225
 30
0.0
 40
4.0
  1
M40×P1.25
 50
90.0
 41
0.782608695652174
  7
FDASTYLE1
 72
     5
 11
-26.65765119969547
 21
50.5969961461225
 31
0.0
  0
ENDBLK
  5
B1
  8
0
  0
BLOCK
  8
0
  2
DA_IMAGEDIMGROUP_31
 70
     0
 10
0.0
 20
0.0
 30
0.0
  3
DA_IMAGEDIMGROUP_31
  1

  0
LINE
  5
17C
  8
0
  6
CONTINUOUS
 62
     9
 10
113.9244186046512
 20
40.14023535815863
 30
0.0
 11
113.9244186046512
 21
42.94640753828035
 31
0.0
  0
LINE
  5
17D
  8
0
  6
CONTINUOUS
 62
     9
 10
83.42441860465117
 20
40.4697183903852
 30
0.0
 11
83.42441860465117
 21
42.94640753828035
 31
0.0
  0
LINE
  5
17E
  8
0
  6
CONTINUOUS
 62
     9
 10
83.42441860465117
 20
41.94640753828035
 30
0.0
 11
113.9244186046512
 21
41.94640753828035
 31
0.0
  0
INSERT
  5
17F
  8
0
 62
     9
  2
_OPEN30
 10
83.42441860465117
 20
41.94640753828035
 30
0.0
 41
1.999998407630662
 42
2.000005728319971
 50
180.0
  0
INSERT
  5
180
  8
0
 62
     9
  2
_OPEN30
 10
113.9244186046512
 20
41.94640753828035
 30
0.0
 41
1.999998407630662
 42
2.000005728319971
 50
360.0
  0
TEXT
  5
181
  8
0
 62
     7
 10
87.47441860465116
 20
42.94640753828035
 30
0.0
 40
4.0
  1
PCD30.5
 41
0.8000000000000002
  7
FDASTYLE1
 72
     5
 11
109.8744186046512
 21
42.94640753828035
 31
0.0
  0
ENDBLK
  5
B4
  8
0
  0
BLOCK
  8
0
  2
DC_GROUP_5
 70
     0
 10
0.0
 20
0.0
 30
0.0
  3
DC_GROUP_5
  1

  0
LINE
  5
182
  8
0
  6
CONTINUOUS
 62
     7
 10
82.53507377534362
 20
37.52705277256928
 30
0.0
 11
41.80172752257559
 21
89.5914801727523
 31
0.0
  0
INSERT
  5
183
  8
0
 62
     7
  2
_OPEN30
 10
82.53507377534362
 20
37.52705277256928
 30
0.0
 41
1.999998407630662
 42
2.000005728319971
 50
308.0383553643425
  0
LINE
  5
184
  8
0
  6
CONTINUOUS
 62
     7
 10
41.80172752257559
 20
89.5914801727523
 30
0.0
 11
22.60172752257559
 21
89.5914801727523
 31
0.0
  0
TEXT
  5
185
  8
0
 62
     7
 10
22.60172752257559
 20
89.5914801727523
 30
0.0
 40
4.0
  1
2-φ3.2
 41
0.7741935483870969
  7
FDASTYLE1
 72
     5
 11
41.80172752257559
 21
89.5914801727523
 31
0.0
  0
ENDBLK
  5
B7
  8
0
  0
BLOCK
  8
0
  2
_OPEN30
 70
     0
 10
0.0
 20
0.0
 30
0.0
  3
_OPEN30
  1

  0
LINE
  5
BE
  8
0
  6
BYBLOCK
 62
     0
 10
-1.0
 20
0.267949
 30
0.0
 11
0.0
 21
0.0
 31
0.0
  0
LINE
  5
BF
  8
0
  6
BYBLOCK
 62
     0
 10
0.0
 20
0.0
 30
0.0
 11
-1.0
 21
-0.267949
 31
0.0
  0
LINE
  5
C0
  8
0
  6
BYBLOCK
 62
     0
 10
0.0
 20
0.0
 30
0.0
 11
-1.0
 21
0.0
 31
0.0
  0
ENDBLK
  5
BD
  8
0
  0
ENDSEC
  0
SECTION
  2
ENTITIES
  0
LINE
  5
186
  8
ZUWAKU
  6
CONTINUOUS
 62
     3
 10
-192.0
 20
-138.4999999999999
 30
0.0
 11
-192.0
 21
138.4999999999999
 31
0.0
  0
LINE
  5
187
  8
ZUWAKU
  6
CONTINUOUS
 62
     3
 10
192.0
 20
-138.4999999999999
 30
0.0
 11
192.0
 21
138.4999999999999
 31
0.0
  0
LINE
  5
188
  8
ZUWAKU
  6
CONTINUOUS
 62
     3
 10
-192.0
 20
-138.4999999999999
 30
0.0
 11
192.0
 21
-138.4999999999999
 31
0.0
  0
LINE
  5
189
  8
ZUWAKU
  6
CONTINUOUS
 62
     3
 10
-192.0
 20
138.4999999999999
 30
0.0
 11
192.0
 21
138.4999999999999
 31
0.0
  0
LINE
  5
18A
  8
ZUWAKU
  6
CONTINUOUS
 62
     3
 10
12.00000000000001
 20
-138.4999999999999
 30
0.0
 11
12.00000000000001
 21
-78.49999999999994
 31
0.0
  0
LINE
  5
18B
  8
ZUWAKU
  6
CONTINUOUS
 62
     3
 10
12.00000000000001
 20
-124.4999999999999
 30
0.0
 11
192.0
 21
-124.4999999999999
 31
0.0
  0
LINE
  5
18C
  8
ZUWAKU
  6
CONTINUOUS
 62
     3
 10
61.00000000000001
 20
-110.4999999999999
 30
0.0
 11
192.0
 21
-110.4999999999999
 31
0.0
  0
LINE
  5
18D
  8
ZUWAKU
  6
CONTINUOUS
 62
     3
 10
61.00000000000001
 20
-96.49999999999994
 30
0.0
 11
192.0
 21
-96.49999999999994
 31
0.0
  0
LINE
  5
18E
  8
ZUWAKU
  6
CONTINUOUS
 62
     3
 10
61.00000000000001
 20
-86.49999999999994
 30
0.0
 11
192.0
 21
-86.49999999999994
 31
0.0
  0
LINE
  5
18F
  8
ZUWAKU
  6
CONTINUOUS
 62
     3
 10
61.00000000000001
 20
-124.4999999999999
 30
0.0
 11
61.00000000000001
 21
-78.49999999999994
 31
0.0
  0
LINE
  5
190
  8
ZUWAKU
  6
CONTINUOUS
 62
     3
 10
170.0
 20
-124.4999999999999
 30
0.0
 11
170.0
 21
-78.49999999999994
 31
0.0
  0
LINE
  5
191
  8
ZUWAKU
  6
CONTINUOUS
 62
     3
 10
86.00000000000001
 20
-138.4999999999999
 30
0.0
 11
86.00000000000001
 21
-124.4999999999999
 31
0.0
  0
LINE
  5
192
  8
ZUWAKU
  6
CONTINUOUS
 62
     3
 10
177.0
 20
-136.4999999999999
 30
0.0
 11
187.0
 21
-136.4999999999999
 31
0.0
  0
LINE
  5
193
  8
ZUWAKU
  6
CONTINUOUS
 62
     3
 10
182.0
 20
-126.4999999999999
 30
0.0
 11
177.0
 21
-136.4999999999999
 31
0.0
  0
LINE
  5
194
  8
ZUWAKU
  6
CONTINUOUS
 62
     3
 10
182.0
 20
-126.4999999999999
 30
0.0
 11
187.0
 21
-136.4999999999999
 31
0.0
  0
LINE
  5
195
  8
ZUWAKU
  6
CONTINUOUS
 62
     3
 10
12.00000000000001
 20
-78.49999999999994
 30
0.0
 11
192.0
 21
-78.49999999999994
 31
0.0
  0
LINE
  5
196
  8
ZUWAKU
  6
CONTINUOUS
 62
     3
 10
141.0
 20
-124.4999999999999
 30
0.0
 11
141.0
 21
-96.49999999999994
 31
0.0
  0
LINE
  5
197
  8
ZUWAKU
  6
CONTINUOUS
 62
     4
 10
20.00000000000001
 20
-120.4999999999999
 30
0.0
 11
20.00000000000001
 21
-78.49999999999994
 31
0.0
  0
LINE
  5
198
  8
ZUWAKU
  6
CONTINUOUS
 62
     4
 10
24.00000000000001
 20
-120.4999999999999
 30
0.0
 11
24.00000000000001
 21
-78.49999999999994
 31
0.0
  0
LINE
  5
199
  8
ZUWAKU
  6
CONTINUOUS
 62
     4
 10
36.50000000000001
 20
-124.4999999999999
 30
0.0
 11
36.50000000000001
 21
-78.49999999999994
 31
0.0
  0
LINE
  5
19A
  8
ZUWAKU
  6
CONTINUOUS
 62
     4
 10
12.00000000000001
 20
-85.49999999999994
 30
0.0
 11
61.00000000000001
 21
-85.49999999999994
 31
0.0
  0
LINE
  5
19B
  8
ZUWAKU
  6
CONTINUOUS
 62
     4
 10
12.00000000000001
 20
-92.49999999999994
 30
0.0
 11
61.00000000000001
 21
-92.49999999999994
 31
0.0
  0
LINE
  5
19C
  8
ZUWAKU
  6
CONTINUOUS
 62
     4
 10
12.00000000000001
 20
-113.4999999999999
 30
0.0
 11
61.00000000000001
 21
-113.4999999999999
 31
0.0
  0
LINE
  5
19D
  8
ZUWAKU
  6
CONTINUOUS
 62
     4
 10
12.00000000000001
 20
-120.4999999999999
 30
0.0
 11
61.00000000000001
 21
-120.4999999999999
 31
0.0
  0
LINE
  5
19E
  8
ZUWAKU
  6
CONTINUOUS
 62
     4
 10
170.0
 20
-114.4999999999999
 30
0.0
 11
192.0
 21
-114.4999999999999
 31
0.0
  0
LINE
  5
19F
  8
ZUWAKU
  6
CONTINUOUS
 62
     4
 10
68.00000000000001
 20
-87.99999999999994
 30
0.0
 11
68.00000000000001
 21
-78.49999999999994
 31
0.0
  0
LINE
  5
1A0
  8
ZUWAKU
  6
CONTINUOUS
 62
     4
 10
117.0
 20
-96.49999999999994
 30
0.0
 11
117.0
 21
-94.99999999999994
 31
0.0
  0
LINE
  5
1A1
  8
ZUWAKU
  6
CONTINUOUS
 62
     4
 10
141.0
 20
-96.49999999999994
 30
0.0
 11
141.0
 21
-94.99999999999994
 31
0.0
  0
LINE
  5
1A2
  8
ZUWAKU
  6
CONTINUOUS
 62
     4
 10
158.0
 20
-96.49999999999994
 30
0.0
 11
158.0
 21
-94.99999999999994
 31
0.0
  0
LINE
  5
1A3
  8
ZUWAKU
  6
CONTINUOUS
 62
     4
 10
117.0
 20
-87.99999999999994
 30
0.0
 11
117.0
 21
-78.49999999999994
 31
0.0
  0
LINE
  5
1A4
  8
ZUWAKU
  6
CONTINUOUS
 62
     4
 10
141.0
 20
-87.99999999999994
 30
0.0
 11
141.0
 21
-78.49999999999994
 31
0.0
  0
LINE
  5
1A5
  8
ZUWAKU
  6
CONTINUOUS
 62
     4
 10
158.0
 20
-87.99999999999994
 30
0.0
 11
158.0
 21
-78.49999999999994
 31
0.0
  0
LINE
  5
1A6
  8
ZUWAKU
  6
CONTINUOUS
 62
     4
 10
12.00000000000001
 20
-99.49999999999994
 30
0.0
 11
61.00000000000001
 21
-99.49999999999994
 31
0.0
  0
LINE
  5
1A7
  8
ZUWAKU
  6
CONTINUOUS
 62
     4
 10
12.00000000000001
 20
-106.4999999999999
 30
0.0
 11
61.00000000000001
 21
-106.4999999999999
 31
0.0
  0
LINE
  5
1A8
  8
ZUWAKU
  6
CONTINUOUS
 62
     4
 10
16.00000000000001
 20
-78.99999999999994
 30
0.0
 11
13.00000000000001
 21
-84.99999999999994
 31
0.0
  0
LINE
  5
1A9
  8
ZUWAKU
  6
CONTINUOUS
 62
     4
 10
16.00000000000001
 20
-78.99999999999994
 30
0.0
 11
19.00000000000001
 21
-84.99999999999994
 31
0.0
  0
LINE
  5
1AA
  8
ZUWAKU
  6
CONTINUOUS
 62
     4
 10
13.00000000000001
 20
-84.99999999999994
 30
0.0
 11
19.00000000000001
 21
-84.99999999999994
 31
0.0
  0
LINE
  5
1AB
  8
ZUWAKU
  6
CONTINUOUS
 62
     4
 10
16.00000000000001
 20
-106.9999999999999
 30
0.0
 11
13.00000000000001
 21
-112.9999999999999
 31
0.0
  0
LINE
  5
1AC
  8
ZUWAKU
  6
CONTINUOUS
 62
     4
 10
16.00000000000001
 20
-106.9999999999999
 30
0.0
 11
19.00000000000001
 21
-112.9999999999999
 31
0.0
  0
LINE
  5
1AD
  8
ZUWAKU
  6
CONTINUOUS
 62
     4
 10
13.00000000000001
 20
-112.9999999999999
 30
0.0
 11
19.00000000000001
 21
-112.9999999999999
 31
0.0
  0
LINE
  5
1AE
  8
ZUWAKU
  6
CONTINUOUS
 62
     4
 10
16.00000000000001
 20
-99.99999999999994
 30
0.0
 11
13.00000000000001
 21
-105.9999999999999
 31
0.0
  0
LINE
  5
1AF
  8
ZUWAKU
  6
CONTINUOUS
 62
     4
 10
16.00000000000001
 20
-99.99999999999994
 30
0.0
 11
19.00000000000001
 21
-105.9999999999999
 31
0.0
  0
LINE
  5
1B0
  8
ZUWAKU
  6
CONTINUOUS
 62
     4
 10
13.00000000000001
 20
-105.9999999999999
 30
0.0
 11
19.00000000000001
 21
-105.9999999999999
 31
0.0
  0
LINE
  5
1B1
  8
ZUWAKU
  6
CONTINUOUS
 62
     4
 10
16.00000000000001
 20
-92.99999999999994
 30
0.0
 11
13.00000000000001
 21
-98.99999999999994
 31
0.0
  0
LINE
  5
1B2
  8
ZUWAKU
  6
CONTINUOUS
 62
     4
 10
16.00000000000001
 20
-92.99999999999994
 30
0.0
 11
19.00000000000001
 21
-98.99999999999994
 31
0.0
  0
LINE
  5
1B3
  8
ZUWAKU
  6
CONTINUOUS
 62
     4
 10
13.00000000000001
 20
-98.99999999999994
 30
0.0
 11
19.00000000000001
 21
-98.99999999999994
 31
0.0
  0
LINE
  5
1B4
  8
ZUWAKU
  6
CONTINUOUS
 62
     4
 10
16.00000000000001
 20
-85.99999999999994
 30
0.0
 11
13.00000000000001
 21
-91.99999999999994
 31
0.0
  0
LINE
  5
1B5
  8
ZUWAKU
  6
CONTINUOUS
 62
     4
 10
16.00000000000001
 20
-85.99999999999994
 30
0.0
 11
19.00000000000001
 21
-91.99999999999994
 31
0.0
  0
LINE
  5
1B6
  8
ZUWAKU
  6
CONTINUOUS
 62
     4
 10
13.00000000000001
 20
-91.99999999999994
 30
0.0
 11
19.00000000000001
 21
-91.99999999999994
 31
0.0
  0
LINE
  5
1B7
  8
ZUWAKU
  6
CONTINUOUS
 62
     4
 10
87.66666666666664
 20
-124.4999999999999
 30
0.0
 11
87.66666666666664
 21
-110.4999999999999
 31
0.0
  0
LINE
  5
1B8
  8
ZUWAKU
  6
CONTINUOUS
 62
     4
 10
114.3333333333333
 20
-124.4999999999999
 30
0.0
 11
114.3333333333333
 21
-110.4509415757252
 31
0.0
  0
LINE
  5
1B9
  8
ZUWAKU
  6
CONTINUOUS
 62
     4
 10
127.6666666666666
 20
-115.9999999999999
 30
0.0
 11
127.6666666666666
 21
-110.4509415757252
 31
0.0
  0
LINE
  5
1BA
  8
ZUWAKU
  6
CONTINUOUS
 62
     4
 10
141.0
 20
-103.4999999999999
 30
0.0
 11
170.0
 21
-103.4999999999999
 31
0.0
  0
LINE
  5
1BB
  8
ZUWAKU
  6
CONTINUOUS
 62
     4
 10
60.99999999999999
 20
-114.4999999999999
 30
0.0
 11
141.0
 21
-114.4999999999999
 31
0.0
  0
TEXT
  5
1BD
  8
ZUWAKU
 62
     7
 10
63.31323014747473
 20
-79.32118872895592
 30
0.0
 40
2.6656
  1
符号
 41
0.8
  7
FDASTYLE0
  0
TEXT
  5
1BE
  8
ZUWAKU
 62
     7
 10
77.41413112190584
 20
-84.32455250199624
 30
0.0
 40
4.0
  1
品       名
 41
0.7659574468085105
  7
FDASTYLE1
 72
     5
 11
106.2141311219058
 21
-84.32455250199624
 31
0.0
  0
TEXT
  5
1BF
  8
ZUWAKU
 62
     7
 10
122.2331564413096
 20
-84.32455250199624
 30
0.0
 40
4.0
  1
材  料
 41
0.7272727272727271
  7
FDASTYLE1
 72
     5
 11
135.0331564413096
 21
-84.32455250199624
 31
0.0
  0
TEXT
  5
1C0
  8
ZUWAKU
 62
     7
 10
144.516061684855
 20
-84.32455250199624
 30
0.0
 40
4.0
  1
個 数
 41
0.7058823529411761
  7
FDASTYLE1
 72
     5
 11
154.116061684855
 21
-84.32455250199624
 31
0.0
  0
TEXT
  5
1C1
  8
ZUWAKU
 62
     7
 10
160.721810952888
 20
-82.06490800505719
 30
0.0
 40
2.5
  1
単重量
 41
0.6666666666666666
  7
FDASTYLE1
 72
     5
 11
166.721810952888
 21
-82.06490800505719
 31
0.0
  0
TEXT
  5
1C2
  8
ZUWAKU
 62
     7
 10
159.7089516236359
 20
-85.86313048975242
 30
0.0
 40
2.5
  1
(kg)
 41
0.8
  7
FDASTYLE1
 72
     5
 11
167.7089516236359
 21
-85.86313048975242
 31
0.0
  0
TEXT
  5
1C3
  8
ZUWAKU
 62
     7
 10
174.1421970654778
 20
-84.32455250199624
 30
0.0
 40
4.0
  1
記  事
 41
0.7272727272727279
  7
FDASTYLE1
 72
     5
 11
186.9421970654778
 21
-84.32455250199624
 31
0.0
  0
TEXT
  5
1C4
  8
ZUWAKU
 62
     7
 10
173.8450794551645
 20
-113.9873041997729
 30
0.0
 40
3.0
  1
コード番号
 41
0.6666666666666666
  7
FDASTYLE1
 72
     5
 11
185.8450794551645
 21
-113.9873041997729
 31
0.0
  0
TEXT
  5
1C5
  8
ZUWAKU
 62
     7
 10
16.91199201583167
 20
-123.6879010540338
 30
0.0
 40
2.5
  1
訂 正 来 歴
 41
0.717948717948718
  7
FDASTYLE1
 72
     5
 11
30.91199201583167
 21
-123.6879010540338
 31
0.0
  0
TEXT
  5
1C6
  8
ZUWAKU
 62
     7
 10
40.89033484676499
 20
-123.7166697391651
 30
0.0
 40
2.5
  1
工 事 番 号
 41
0.717948717948718
  7
FDASTYLE1
 72
     5
 11
54.89033484676499
 21
-123.7166697391651
 31
0.0
  0
TEXT
  5
1C7
  8
ZUWAKU
 62
     7
 10
14.96483784660289
 20
-114.4634530565915
 30
0.0
 40
2.0825
  1
記号
 41
0.8
  7
FDASTYLE0
  0
TEXT
  5
1C8
  8
ZUWAKU
 62
     7
 10
20.90422490676183
 20
-114.4634530565915
 30
0.0
 40
2.0825
  1
理由
 41
0.8
  7
FDASTYLE0
  0
TEXT
  5
1C9
  8
ZUWAKU
 62
     7
 10
68.44816898196524
 20
-114.2187911464244
 30
0.0
 40
3.0
  1
承   認
 41
0.7407407407407408
  7
FDASTYLE1
 72
     5
 11
80.44816898196524
 21
-114.2187911464244
 31
0.0
  0
TEXT
  5
1CA
  8
ZUWAKU
 62
     7
 10
94.86322803323402
 20
-113.9873041997729
 30
0.0
 40
3.0
  1
検   図
 41
0.7407407407407408
  7
FDASTYLE1
 72
     5
 11
106.863228033234
 21
-113.9873041997729
 31
0.0
  0
TEXT
  5
1CB
  8
ZUWAKU
 62
     7
 10
116.4771920983751
 20
-113.9873041997729
 30
0.0
 40
3.0
  1
担  当
 41
0.7272727272727269
  7
FDASTYLE1
 72
     5
 11
126.0771920983751
 21
-113.9873041997729
 31
0.0
  0
TEXT
  5
1CC
  8
ZUWAKU
 62
     7
 10
129.6770574841112
 20
-113.9873041997729
 30
0.0
 40
3.0
  1
製  図
 41
0.7272727272727269
  7
FDASTYLE1
 72
     5
 11
139.2770574841112
 21
-113.9873041997729
 31
0.0
  0
TEXT
  5
1CD
  8
ZUWAKU
 62
     7
 10
141.9462372304199
 20
-101.7184960272417
 30
0.0
 40
3.0
  1
作図
 41
0.6666666666666683
  7
FDASTYLE1
 72
     5
 11
146.7462372304199
 21
-101.7184960272417
 31
0.0
  0
TEXT
  5
1CE
  8
ZUWAKU
 62
     7
 10
143.1036719636776
 20
-108.7371566401815
 30
0.0
 40
4.0
  1
第 三 角 法
 41
0.7179487179487182
  7
FDASTYLE1
 72
     5
 11
165.5036719636776
 21
-108.7371566401815
 31
0.0
  0
TEXT
  5
1CF
  8
ZUWAKU
 62
     7
 10
142.409211123723
 20
-114.913251986379
 30
0.0
 40
3.0
  1
尺度
 41
0.6666666666666683
  7
FDASTYLE1
 72
     5
 11
147.209211123723
 21
-114.913251986379
 31
0.0
  0
TEXT
  5
1D1
  8
ZUWAKU
 62
     3
 10
20.37915437003404
 20
-134.4272077185016
 30
0.0
 40
7.0
  1
株式会社 野村製作所
 41
0.5763738641280831
  7
FDASTYLE2
 72
     5
 11
76.37915437003404
 21
-134.4272077185016
 31
0.0
  0
TEXT
  5
1D3
  8
ZUWAKU
 62
     3
 10
98.61182179341655
 20
-135.6216685584562
 30
0.0
 40
8.0
  1
３－
 41
0.8244023083264632
  7
FDASTYLE3
 72
     5
 11
114.6118217934166
 21
-135.6216685584562
 31
0.0
  0
TEXT
  5
1D4
  8
ZUWAKU
 62
     3
 10
115.5237794178233
 20
-135.6216685584562
 30
0.0
 40
8.0
  1
9305021
 41
1.629422718808194
  7
FDASTYLE3
 72
     5
 11
171.5237794178233
 21
-135.6216685584562
 31
0.0
  0
TEXT
  5
1D5
  8
ZUWAKU
 62
     6
 10
145.7056952989098
 20
-93.7216474852281
 30
0.0
 40
3.2
  1
一式
 41
0.7610475333317444
  7
FDASTYLE1
 72
     5
 11
152.2463546989098
 21
-93.7216474852281
 31
0.0
  0
TEXT
  5
1D6
  8
ZUWAKU
 62
     6
 10
81.89523347633649
 20
-93.85890002285609
 30
0.0
 40
5.0
  1
外　形　図
 41
0.5833333333333334
  7
FDASTYLE1
 72
     5
 11
99.39523347633649
 21
-93.85890002285609
 31
0.0
  0
TEXT
  5
1D7
  8
ZUWAKU
 62
     4
 10
151.8208864698005
 20
-120.3093119866973
 30
0.0
 40
4.0
  1
1/1
 41
0.7999999999999995
  7
FDASTYLE1
 72
     5
 11
161.4208864698005
 21
-120.3093119866973
 31
0.0
  0
TEXT
  5
1D8
  8
0
 62
     6
 10
64.86815394284068
 20
-102.7072071313602
 30
0.0
 40
5.0
  1
日鋼プﾚｼジｫﾝ
 41
0.8583403611075855
  7
FDASTYLE1
 72
     5
 11
109.8791379428407
 21
-102.7072071313602
 31
0.0
  0
TEXT
  5
1D9
  8
0
 62
     6
 10
64.66736284309491
 20
-109.5473278366374
 30
0.0
 40
5.0
  1
  ＨＦ2-5型チャック
 41
0.8415345437392183
  7
FDASTYLE1
 72
     5
 11
132.8871348430949
 21
-109.5473278366374
 31
0.0
  0
TEXT
  5
1DA
  8
0
 62
     6
 10
-58.95573634854136
 20
-127.0746323185574
 30
0.0
 40
2.799999952316284
  1
5 kg
 41
0.7647061277838826
  7
FDASTYLE1
 72
     5
 11
-48.55573518029032
 21
-127.0746323185574
 31
0.0
  0
TEXT
  5
1DB
  8
0
 62
     6
 10
-138.6572973226624
 20
-104.97359624678
 30
0.0
 40
2.799999952316284
  1
許容シリンダ力
 41
0.6638419901966605
  7
FDASTYLE1
 72
     5
 11
-119.8572959398347
 21
-104.97359624678
 31
0.0
  0
TEXT
  5
1DC
  8
0
 62
     6
 10
-138.6572973226624
 20
-110.5735947209011
 30
0.0
 40
2.799999952316284
  1
最大静的把握力
 41
0.6638419901966605
  7
FDASTYLE1
 72
     5
 11
-119.8572959398347
 21
-110.5735947209011
 31
0.0
  0
TEXT
  5
1DD
  8
0
 62
     6
 10
-138.6572973226624
 20
-116.1735931950222
 30
0.0
 40
2.799999952316284
  1
最高使用回転速度
 41
0.6650248111247888
  7
FDASTYLE1
 72
     5
 11
-117.0572958683091
 21
-116.1735931950222
 31
0.0
  0
TEXT
  5
1DE
  8
0
 62
     6
 10
-138.6572973226624
 20
-132.97359624678
 30
0.0
 40
2.799999952316284
  1
アンバランス量
 41
0.6638419901966605
  7
FDASTYLE1
 72
     5
 11
-119.8572959398347
 21
-132.97359624678
 31
0.0
  0
TEXT
  5
1DF
  8
0
 62
     6
 10
-138.6572973226624
 20
-121.7735916691433
 30
0.0
 40
2.799999952316284
  1
慣性モーメント
 41
0.6638419901966605
  7
FDASTYLE1
 72
     5
 11
-119.8572959398347
 21
-121.7735916691433
 31
0.0
  0
TEXT
  5
1E0
  8
0
 62
     6
 10
-138.6572973226624
 20
-99.37359777265891
 30
0.0
 40
2.799999952316284
  1
推奨シリンダ
 41
0.6622518402190171
  7
FDASTYLE1
 72
     5
 11
-122.6572960113602
 21
-99.37359777265891
 31
0.0
  0
TEXT
  5
1E1
  8
0
 62
     6
 10
-81.82896632901012
 20
-132.6578613834988
 30
0.0
 40
2.799999952316284
  1
外周ﾆﾃ   3 g以内
 41
0.748175383146108
  7
FDASTYLE1
 72
     5
 11
-49.02896458855449
 21
-132.6578613834988
 31
0.0
  0
TEXT
  5
1E2
  8
0
 62
     6
 10
-116.1111298812328
 20
-104.9320221262585
 30
0.0
 40
2.099999904632568
  1
(46TS-TA1型使用油圧力 1.2MPa時)
 41
0.7484221389889884
  7
FDASTYLE1
 72
     5
 11
-66.31113296875336
 21
-104.9320221262585
 31
0.0
  0
TEXT
  5
1E3
  8
0
 62
     6
 10
-138.6572973226624
 20
-127.3735977726589
 30
0.0
 40
2.799999952316284
  1
質 量
 41
0.7364342893182351
  7
FDASTYLE1
 72
     5
 11
-131.057296225937
 21
-127.3735977726589
 31
0.0
  0
TEXT
  5
1E4
  8
0
 62
     6
 10
-138.6572973226624
 20
-93.77359166914329
 30
0.0
 40
2.799999952316284
  1
ピストンストローク
 41
0.665939043899707
  7
FDASTYLE1
 72
     5
 11
-114.2572957967835
 21
-93.77359166914329
 31
0.0
  0
TEXT
  5
1E5
  8
0
 62
     6
 10
-138.6572973226624
 20
-88.17359319502219
 30
0.0
 40
2.799999952316284
  1
爪ﾉｽﾄﾛｰｸ
 41
0.7781459057195825
  7
FDASTYLE1
 72
     5
 11
-119.8572959398347
 21
-88.17359319502219
 31
0.0
  0
TEXT
  5
1E6
  8
0
 62
     6
 10
-138.6572973226624
 20
-82.5735947209011
 30
0.0
 40
2.799999952316284
  1
仕 様
 41
0.7364342893182351
  7
FDASTYLE1
 72
     5
 11
-131.057296225937
 21
-82.5735947209011
 31
0.0
  0
TEXT
  5
1E7
  8
0
 62
     6
 10
-67.32219142666637
 20
-110.3249451237331
 30
0.0
 40
2.799999952316284
  1
18.6 kN
 41
0.7704920376286359
  7
FDASTYLE1
 72
     5
 11
-48.52219004383861
 21
-110.3249451237331
 31
0.0
  0
TEXT
  5
1E8
  8
0
 62
     6
 10
-64.89917201748668
 20
-104.7417160587917
 30
0.0
 40
2.799999952316284
  1
  5 kN
 41
0.7692310059741236
  7
FDASTYLE1
 72
     5
 11
-48.89917070618449
 21
-104.7417160587917
 31
0.0
  0
TEXT
  5
1E9
  8
0
 62
     6
 10
-78.62627501935951
 20
-99.15848699385032
 30
0.0
 40
2.799999952316284
  1
46ＴＳ-ＴＡ1  型
 41
0.7352943119465542
  7
FDASTYLE1
 72
     5
 11
-48.62627335042946
 21
-99.15848699385032
 31
0.0
  0
TEXT
  5
1EA
  8
0
 62
     6
 10
-81.6488592123109
 20
-87.99202886396751
 30
0.0
 40
2.799999952316284
  1
(直径ﾆﾃ)  5 mm
 41
0.7677904720853768
  7
FDASTYLE1
 72
     5
 11
-48.84885747185527
 21
-87.99202886396751
 31
0.0
  0
TEXT
  5
1EB
  8
0
 62
     6
 10
-62.01750392666636
 20
-93.57525792890891
 30
0.0
 40
2.799999952316284
  1
20 mm
 41
0.7674421006245001
  7
FDASTYLE1
 72
     5
 11
-48.81750268688975
 21
-93.57525792890891
 31
0.0
  0
TEXT
  5
1EC
  8
0
 62
     6
 10
-76.06563014736949
 20
-121.4913956242214
 30
0.0
 40
2.799999952316284
  1
0.015 kg・m
 41
0.7780322501870833
  7
FDASTYLE1
 72
     5
 11
-48.86562854996501
 21
-121.4913956242214
 31
0.0
  0
TEXT
  5
1ED
  8
0
 62
     6
 10
-48.26562921157656
 20
-119.7413955944191
 30
0.0
 40
1.399999976158142
  1
2
 41
0.7142860670479037
  7
FDASTYLE1
 72
     5
 11
-47.2656287347394
 21
-119.7413955944191
 31
0.0
  0
TEXT
  5
1EE
  8
0
 62
     6
 10
-70.12219447842418
 20
-115.9081818180691
 30
0.0
 40
2.799999952316284
  1
7000 min
 41
0.7714288040083827
  7
FDASTYLE1
 72
     5
 11
-48.52219302407085
 21
-115.9081818180691
 31
0.0
  0
TEXT
  5
1EF
  8
0
 62
     6
 10
-47.92219368568239
 20
-114.1581817882668
 30
0.0
 40
1.399999976158142
  1
-1
 41
0.7500002747402015
  7
FDASTYLE1
 72
     5
 11
-45.52219317308245
 21
-114.1581817882668
 31
0.0
  0
LINE
  5
1F0
  8
0
  6
CONTINUOUS
 62
     6
 10
-140.4572998975831
 20
-122.9402573423992
 30
0.0
 11
-46.06886453381357
 21
-122.9402573423992
 31
0.0
  0
LINE
  5
1F1
  8
0
  6
CONTINUOUS
 62
     6
 10
-140.4572998975831
 20
-128.5402558165203
 30
0.0
 11
-46.06886453381357
 21
-128.5402558165203
 31
0.0
  0
LINE
  5
1F2
  8
0
  6
CONTINUOUS
 62
     6
 10
-140.4572998975831
 20
-134.1402619200359
 30
0.0
 11
-46.06886453381357
 21
-134.1402619200359
 31
0.0
  0
LINE
  5
1F3
  8
0
  6
CONTINUOUS
 62
     6
 10
-140.4572998975831
 20
-117.3402512388836
 30
0.0
 11
-46.06886453381357
 21
-117.3402512388836
 31
0.0
  0
LINE
  5
1F4
  8
0
  6
CONTINUOUS
 62
     6
 10
-140.4572998975831
 20
-89.34025123888358
 30
0.0
 11
-46.06886453381357
 21
-89.34025123888358
 31
0.0
  0
LINE
  5
1F5
  8
0
  6
CONTINUOUS
 62
     6
 10
-140.4572998975831
 20
-94.94025734239921
 30
0.0
 11
-46.06886453381357
 21
-94.94025734239921
 31
0.0
  0
LINE
  5
1F6
  8
0
  6
CONTINUOUS
 62
     6
 10
-140.4572998975831
 20
-100.5402558165203
 30
0.0
 11
-46.06886453381357
 21
-100.5402558165203
 31
0.0
  0
LINE
  5
1F7
  8
0
  6
CONTINUOUS
 62
     6
 10
-140.4572998975831
 20
-111.7402527647625
 30
0.0
 11
-46.06886453381357
 21
-111.7402527647625
 31
0.0
  0
LINE
  5
1F8
  8
0
  6
CONTINUOUS
 62
     6
 10
-140.4572998975831
 20
-106.1402542906414
 30
0.0
 11
-46.06886453381357
 21
-106.1402542906414
 31
0.0
  0
LINE
  5
1F9
  8
0
  6
CONTINUOUS
 62
     6
 10
-140.4572998975831
 20
-83.74025276476249
 30
0.0
 11
-129.2572876905518
 21
-83.74025276476249
 31
0.0
  0
LINE
  5
1FA
  8
0
  6
CONTINUOUS
 62
     3
 10
-113.8037651450364
 20
101.1969980534711
 30
0.0
 11
-113.8037651450364
 21
0.4220003422894934
 31
0.0
  0
LINE
  5
1FB
  8
0
  6
CONTINUOUS
 62
     3
 10
-53.80376514503637
 20
99.69699805347113
 30
0.0
 11
-53.80376514503637
 21
96.19699805347113
 31
0.0
  0
LINE
  5
1FC
  8
0
  6
CONTINUOUS
 62
     3
 10
-113.8037651450364
 20
101.1969904240766
 30
0.0
 11
-97.80376514503638
 21
101.1969904240766
 31
0.0
  0
LINE
  5
1FD
  8
0
  6
CONTINUOUS
 62
     3
 10
-113.8037651450364
 20
-28.80299431713434
 30
0.0
 11
-55.30376514503637
 21
-28.80299431713434
 31
0.0
  0
LINE
  5
1FE
  8
0
  6
CONTINUOUS
 62
     3
 10
-54.80377123363342
 20
100.697044801665
 30
0.0
 11
-53.80375938245089
 21
99.69703295048248
 31
0.0
  0
LINE
  5
1FF
  8
0
  6
CONTINUOUS
 62
     3
 10
-53.80377084639348
 20
-27.30299869590073
 30
0.0
 11
-55.30377243877774
 21
-28.80300028828498
 31
0.0
  0
LINE
  5
200
  8
0
  6
CONTINUOUS
 62
     3
 10
-109.6037681967942
 20
91.19699805347113
 30
0.0
 11
-109.6037681967942
 21
-0.0779996577105067
 31
0.0
  0
LINE
  5
201
  8
0
  6
CONTINUOUS
 62
     3
 10
-97.80376514503638
 20
101.1969980534711
 30
0.0
 11
-97.80376514503638
 21
84.38846944339585
 31
0.0
  0
LINE
  5
202
  8
0
  6
CONTINUOUS
 62
     3
 10
-113.8037651450364
 20
-18.80299431713434
 30
0.0
 11
-109.6037681967942
 21
-18.80299431713434
 31
0.0
  0
LINE
  5
203
  8
0
  6
CONTINUOUS
 62
     3
 10
-113.8037651450364
 20
91.1969904240766
 30
0.0
 11
-109.6037681967942
 21
91.1969904240766
 31
0.0
  0
LINE
  5
204
  8
0
  6
CONTINUOUS
 62
     3
 10
-56.30376514503637
 20
11.19700568286567
 30
0.0
 11
-53.80376514503637
 21
11.19700568286567
 31
0.0
  0
LINE
  5
205
  8
0
  6
CONTINUOUS
 62
     3
 10
-79.40376361915747
 20
8.197005682865665
 30
0.0
 11
-74.40376361915747
 21
8.197005682865665
 31
0.0
  0
LINE
  5
206
  8
0
  6
CONTINUOUS
 62
     3
 10
-74.40376361915747
 20
66.19700568286567
 30
0.0
 11
-74.40376361915747
 21
59.1970018681684
 31
0.0
  0
LINE
  5
207
  8
0
  6
CONTINUOUS
 62
     3
 10
-79.40376361915747
 20
64.19700568286567
 30
0.0
 11
-79.40376361915747
 21
59.1970018681684
 31
0.0
  0
LINE
  5
208
  8
0
  6
CONTINUOUS
 62
     3
 10
-79.40376361915747
 20
13.19700091449408
 30
0.0
 11
-79.40376361915747
 21
8.197000914494083
 31
0.0
  0
LINE
  5
209
  8
0
  6
CONTINUOUS
 62
     3
 10
-74.40376361915747
 20
13.19700091449408
 30
0.0
 11
-74.40376361915747
 21
8.197000914494083
 31
0.0
  0
LINE
  5
20A
  8
0
  6
CONTINUOUS
 62
     3
 10
-56.30376514503637
 20
57.2386278447309
 30
0.0
 11
-56.30376514503637
 21
11.19700091449408
 31
0.0
  0
LINE
  5
20B
  8
0
  6
CONTINUOUS
 62
     3
 10
-56.30376514503637
 20
57.2386164006391
 30
0.0
 11
-53.80376514503637
 21
57.2386164006391
 31
0.0
  0
LINE
  5
20C
  8
0
  6
CONTINUOUS
 62
     3
 10
-66.93962177345435
 20
54.81823676196723
 30
0.0
 11
-56.30376514503637
 21
54.81823676196723
 31
0.0
  0
LINE
  5
20D
  8
0
  6
CONTINUOUS
 62
     3
 10
-64.80376514503638
 20
3.422000342289493
 30
0.0
 11
-64.80376514503638
 21
-13.57799965771051
 31
0.0
  0
LINE
  5
20E
  8
0
  6
CONTINUOUS
 62
     3
 10
-109.6037681967942
 20
0.4219965275922277
 30
0.0
 11
-64.80376514503638
 21
0.4219965275922277
 31
0.0
  0
LINE
  5
20F
  8
0
  6
CONTINUOUS
 62
     3
 10
-109.6037681967942
 20
-10.57800347240777
 30
0.0
 11
-64.80376514503638
 21
-10.57800347240777
 31
0.0
  0
LINE
  5
210
  8
0
  6
CONTINUOUS
 62
     3
 10
-64.80376514503638
 20
-13.57800347240777
 30
0.0
 11
-53.80376514503637
 21
-13.57800347240777
 31
0.0
  0
LINE
  5
211
  8
0
  6
CONTINUOUS
 62
     3
 10
-64.80376514503638
 20
3.421996527592228
 30
0.0
 11
-53.80376514503637
 21
3.421996527592228
 31
0.0
  0
LINE
  5
212
  8
0
  6
CONTINUOUS
 62
     3
 10
-109.6037681967942
 20
59.19702094165473
 30
0.0
 11
-67.43964466163794
 21
59.19702094165473
 31
0.0
  0
LINE
  5
213
  8
0
  6
CONTINUOUS
 62
     3
 10
-102.9396141440598
 20
58.69700568286567
 30
0.0
 11
-102.9396141440598
 21
13.69700091449408
 31
0.0
  0
LINE
  5
214
  8
0
  6
CONTINUOUS
 62
     3
 10
-66.93962177345435
 20
58.6970018681684
 30
0.0
 11
-66.93962177345435
 21
13.69700091449408
 31
0.0
  0
LINE
  5
215
  8
0
  6
CONTINUOUS
 62
     3
 10
-102.4396085201193
 20
59.19699880049302
 30
0.0
 11
-102.9396109475243
 21
58.6970001663085
 31
0.0
  0
LINE
  5
216
  8
0
  6
CONTINUOUS
 62
     3
 10
-102.9396065208658
 20
13.69701987833491
 30
0.0
 11
-102.4396167796641
 21
13.1970301371332
 31
0.0
  0
LINE
  5
217
  8
0
  6
CONTINUOUS
 62
     3
 10
-66.93961550811326
 20
13.69699964784797
 30
0.0
 11
-67.43961603890801
 21
13.19699911705322
 31
0.0
  0
LINE
  5
218
  8
0
  6
CONTINUOUS
 62
     3
 10
-66.93961563459371
 20
58.69699478185578
 30
0.0
 11
-67.43961570177262
 21
59.19699577626636
 31
0.0
  0
LINE
  5
219
  8
0
  6
CONTINUOUS
 62
     3
 10
-79.40376361915747
 20
64.19702094165473
 30
0.0
 11
-74.40376361915747
 21
64.19702094165473
 31
0.0
  0
LINE
  5
21A
  8
0
  6
CONTINUOUS
 62
     3
 10
-79.80376514503638
 20
66.19702094165473
 30
0.0
 11
-74.40376361915747
 21
66.19702094165473
 31
0.0
  0
LINE
  5
21B
  8
0
  6
CONTINUOUS
 62
     3
 10
-102.9396141440598
 20
48.84698432056098
 30
0.0
 11
-82.93962177345435
 21
48.84698432056098
 31
0.0
  0
LINE
  5
21C
  8
0
  6
CONTINUOUS
 62
     3
 10
-102.9396141440598
 20
23.54699652759223
 30
0.0
 11
-82.93962177345435
 21
23.54699652759223
 31
0.0
  0
LINE
  5
21D
  8
0
  6
CONTINUOUS
 62
     3
 10
-82.93962177345435
 20
18.19700568286567
 30
0.0
 11
-75.93962177345435
 21
18.19700568286567
 31
0.0
  0
LINE
  5
21E
  8
0
  6
CONTINUOUS
 62
     3
 10
-82.93962177345435
 20
54.1969904240766
 30
0.0
 11
-75.93962177345435
 21
54.1969904240766
 31
0.0
  0
LINE
  5
21F
  8
0
  6
CONTINUOUS
 62
     3
 10
-75.93962177345435
 20
15.94700568286567
 30
0.0
 11
-74.43962177345435
 21
15.94700568286567
 31
0.0
  0
LINE
  5
220
  8
0
  6
CONTINUOUS
 62
     3
 10
-75.93962177345435
 20
56.4469904240766
 30
0.0
 11
-74.43962177345435
 21
56.4469904240766
 31
0.0
  0
LINE
  5
221
  8
0
  6
CONTINUOUS
 62
     3
 10
-82.93961414405982
 20
54.1970018681684
 30
0.0
 11
-82.93961414405982
 21
18.1970018681684
 31
0.0
  0
LINE
  5
222
  8
0
  6
CONTINUOUS
 62
     3
 10
-75.93962177345435
 20
56.4470018681684
 30
0.0
 11
-75.93962177345435
 21
29.80301802722602
 31
0.0
  0
LINE
  5
223
  8
0
  6
CONTINUOUS
 62
     3
 10
-74.43962177345435
 20
56.4470018681684
 30
0.0
 11
-74.43962177345435
 21
56.1970018681684
 31
0.0
  0
LINE
  5
224
  8
0
  6
CONTINUOUS
 62
     3
 10
-74.93962177345435
 20
56.1969904240766
 30
0.0
 11
-66.93962177345435
 21
56.1969904240766
 31
0.0
  0
LINE
  5
225
  8
0
  6
CONTINUOUS
 62
     3
 10
-74.93962177345435
 20
16.19700568286567
 30
0.0
 11
-66.93962177345435
 21
16.19700568286567
 31
0.0
  0
LINE
  5
226
  8
0
  6
CONTINUOUS
 62
     3
 10
-109.6037681967942
 20
13.19700568286567
 30
0.0
 11
-56.30376514503637
 21
13.19700568286567
 31
0.0
  0
LINE
  5
227
  8
0
  6
CONTINUOUS
 62
     3
 10
-74.93962177345435
 20
56.1969904240766
 30
0.0
 11
-74.93962177345435
 21
16.1970018681684
 31
0.0
  0
LINE
  5
228
  8
0
  6
CONTINUOUS
 62
     3
 10
-74.43962177345435
 20
16.1970018681684
 30
0.0
 11
-74.43962177345435
 21
15.9470018681684
 31
0.0
  0
LINE
  5
229
  8
0
  6
CONTINUOUS
 62
     3
 10
-79.40378859821016
 20
60.92904381892424
 30
0.0
 11
-78.40378847900087
 21
59.19699304244261
 31
0.0
  0
LINE
  5
22A
  8
0
  6
CONTINUOUS
 62
     3
 10
-79.4037826089355
 20
11.4649527901579
 30
0.0
 11
-78.40378248972621
 21
13.19700356663952
 31
0.0
  0
LINE
  5
22B
  8
0
  6
CONTINUOUS
 62
     3
 10
-74.93962177345435
 20
49.6969904240766
 30
0.0
 11
-66.93962177345435
 21
49.6969904240766
 31
0.0
  0
LINE
  5
22C
  8
0
  6
CONTINUOUS
 62
     3
 10
-74.93962177345435
 20
54.6969904240766
 30
0.0
 11
-66.93962177345435
 21
54.6969904240766
 31
0.0
  0
LINE
  5
22D
  8
0
  6
CONTINUOUS
 62
     3
 10
-74.93962177345435
 20
23.54699652759223
 30
0.0
 11
-66.93962177345435
 21
23.54699652759223
 31
0.0
  0
LINE
  5
22E
  8
0
  6
CONTINUOUS
 62
     3
 10
-74.93962177345435
 20
48.84698432056098
 30
0.0
 11
-66.93962177345435
 21
48.84698432056098
 31
0.0
  0
LINE
  5
22F
  8
0
  6
CONTINUOUS
 62
     3
 10
-79.80376514503638
 20
72.19700568286567
 30
0.0
 11
-79.80376514503638
 21
59.1970018681684
 31
0.0
  0
LINE
  5
230
  8
0
  6
CONTINUOUS
 62
     3
 10
-68.00376209327857
 20
62.19699805347113
 30
0.0
 11
-68.00376209327857
 21
59.1970018681684
 31
0.0
  0
LINE
  5
231
  8
0
  6
CONTINUOUS
 62
     3
 10
-68.00376209327857
 20
62.1969904240766
 30
0.0
 11
-54.80376514503637
 21
62.1969904240766
 31
0.0
  0
LINE
  5
232
  8
0
  6
CONTINUOUS
 62
     3
 10
-74.40376361915747
 20
61.19702094165473
 30
0.0
 11
-68.00376209327857
 21
61.19702094165473
 31
0.0
  0
LINE
  5
233
  8
0
  6
CONTINUOUS
 62
     3
 10
-61.80376514503637
 20
101.1969980534711
 30
0.0
 11
-61.80376514503637
 21
96.19699805347113
 31
0.0
  0
LINE
  5
234
  8
0
  6
CONTINUOUS
 62
     3
 10
-68.80376514503638
 20
101.1969980534711
 30
0.0
 11
-68.80376514503638
 21
61.1970018681684
 31
0.0
  0
LINE
  5
235
  8
0
  6
CONTINUOUS
 62
     3
 10
-97.80376514503638
 20
101.1969904240766
 30
0.0
 11
-54.80376514503637
 21
101.1969904240766
 31
0.0
  0
LINE
  5
236
  8
0
  6
CONTINUOUS
 62
     3
 10
-67.80376514503638
 20
96.19699805347113
 30
0.0
 11
-67.80376514503638
 21
65.1969904240766
 31
0.0
  0
LINE
  5
237
  8
0
  6
CONTINUOUS
 62
     3
 10
-61.80376514503637
 20
65.19699805347113
 30
0.0
 11
-61.80376514503637
 21
62.19699805347113
 31
0.0
  0
LINE
  5
238
  8
0
  6
CONTINUOUS
 62
     3
 10
-53.80376514503637
 20
65.19699805347113
 30
0.0
 11
-53.80376514503637
 21
-27.3029981318316
 31
0.0
  0
LINE
  5
239
  8
0
  6
CONTINUOUS
 62
     3
 10
-64.80376514503638
 20
76.19699805347113
 30
0.0
 11
-64.80376514503638
 21
68.19699805347113
 31
0.0
  0
LINE
  5
23A
  8
0
  6
CONTINUOUS
 62
     3
 10
-64.80376514503638
 20
93.19699805347113
 30
0.0
 11
-64.80376514503638
 21
85.19699805347113
 31
0.0
  0
LINE
  5
23B
  8
0
  6
CONTINUOUS
 62
     3
 10
-54.80376514503637
 20
2.922000342289493
 30
0.0
 11
-54.80376514503637
 21
-13.07799965771051
 31
0.0
  0
LINE
  5
23C
  8
0
  6
CONTINUOUS
 62
     3
 10
-124.8037651450364
 20
-0.0779996577105067
 30
0.0
 11
-124.8037651450364
 21
-10.07799965771051
 31
0.0
  0
LINE
  5
23D
  8
0
  6
CONTINUOUS
 62
     3
 10
-124.8037651450364
 20
-10.07800347240777
 30
0.0
 11
-64.80376514503638
 21
-10.07800347240777
 31
0.0
  0
LINE
  5
23E
  8
0
  6
CONTINUOUS
 62
     3
 10
-124.8037651450364
 20
-0.0780034724077723
 30
0.0
 11
-64.80376514503638
 21
-0.0780034724077723
 31
0.0
  0
LINE
  5
23F
  8
0
  6
CONTINUOUS
 62
     3
 10
-124.8037651450364
 20
-0.8779912653765223
 30
0.0
 11
-92.80376514503638
 21
-0.8779912653765223
 31
0.0
  0
LINE
  5
240
  8
0
  6
CONTINUOUS
 62
     3
 10
-124.8037651450364
 20
-9.27800042064996
 30
0.0
 11
-92.80376514503638
 21
-9.27800042064996
 31
0.0
  0
LINE
  5
241
  8
0
  6
CONTINUOUS
 62
     3
 10
-92.80376514503638
 20
-0.0779996577105067
 30
0.0
 11
-92.80376514503638
 21
-10.07799965771051
 31
0.0
  0
LINE
  5
242
  8
0
  6
CONTINUOUS
 62
     3
 10
-64.80376514503638
 20
2.921996527592228
 30
0.0
 11
-54.80376514503637
 21
2.921996527592228
 31
0.0
  0
LINE
  5
243
  8
0
  6
CONTINUOUS
 62
     3
 10
-64.80376514503638
 20
-13.07800347240777
 30
0.0
 11
-54.80376514503637
 21
-13.07800347240777
 31
0.0
  0
LINE
  5
244
  8
0
  6
CONTINUOUS
 62
     3
 10
-113.8037651450364
 20
-10.57799965771051
 30
0.0
 11
-113.8037651450364
 21
-28.8029981318316
 31
0.0
  0
LINE
  5
245
  8
0
  6
CONTINUOUS
 62
     3
 10
-109.6037681967942
 20
-10.07799965771051
 30
0.0
 11
-109.6037681967942
 21
-18.8029981318316
 31
0.0
  0
LINE
  5
246
  8
0
  6
CONTINUOUS
 62
     3
 10
-75.93962177345435
 20
26.2918562230268
 30
0.0
 11
-75.93962177345435
 21
15.9470018681684
 31
0.0
  0
LINE
  5
247
  8
0
  6
CONTINUOUS
 62
     3
 10
-70.93962177345435
 20
54.6969904240766
 30
0.0
 11
-70.93962177345435
 21
49.6969904240766
 31
0.0
  0
LINE
  5
248
  8
0
  6
CONTINUOUS
 62
     3
 10
-66.93962177345435
 20
56.1969904240766
 30
0.0
 11
-66.93962177345435
 21
16.1970018681684
 31
0.0
  0
LINE
  5
249
  8
0
  6
CONTINUOUS
 62
     3
 10
-46.80376514503637
 20
65.6969904240766
 30
0.0
 11
-38.80376514503637
 21
65.6969904240766
 31
0.0
  0
LINE
  5
24A
  8
0
  6
CONTINUOUS
 62
     3
 10
-46.80376514503637
 20
78.6969904240766
 30
0.0
 11
-38.80376514503637
 21
78.6969904240766
 31
0.0
  0
LINE
  5
24B
  8
0
  6
CONTINUOUS
 62
     3
 10
-46.80376514503637
 20
95.6969904240766
 30
0.0
 11
-38.80376514503637
 21
95.6969904240766
 31
0.0
  0
LINE
  5
24C
  8
0
  6
CONTINUOUS
 62
     3
 10
-46.80376514503637
 20
82.6969904240766
 30
0.0
 11
-38.80376514503637
 21
82.6969904240766
 31
0.0
  0
LINE
  5
24D
  8
0
  6
CONTINUOUS
 62
     3
 10
-53.30376514503637
 20
96.19699805347113
 30
0.0
 11
-53.30376514503637
 21
93.19699805347113
 31
0.0
  0
LINE
  5
24E
  8
0
  6
CONTINUOUS
 62
     3
 10
-53.30376514503637
 20
68.19699805347113
 30
0.0
 11
-53.30376514503637
 21
65.19699805347113
 31
0.0
  0
LINE
  5
24F
  8
0
  6
CONTINUOUS
 62
     3
 10
-53.30376514503637
 20
85.19699805347113
 30
0.0
 11
-53.30376514503637
 21
76.1969904240766
 31
0.0
  0
LINE
  5
250
  8
0
  6
CONTINUOUS
 62
     3
 10
-46.80376514503637
 20
95.69699805347113
 30
0.0
 11
-46.80376514503637
 21
82.69699805347113
 31
0.0
  0
LINE
  5
251
  8
0
  6
CONTINUOUS
 62
     3
 10
-46.80376514503637
 20
78.69699805347113
 30
0.0
 11
-46.80376514503637
 21
65.69699805347113
 31
0.0
  0
LINE
  5
252
  8
0
  6
CONTINUOUS
 62
     3
 10
-38.80376514503637
 20
78.69699805347113
 30
0.0
 11
-38.80376514503637
 21
65.69699805347113
 31
0.0
  0
LINE
  5
253
  8
0
  6
CONTINUOUS
 62
     3
 10
-38.80376514503637
 20
95.69699805347113
 30
0.0
 11
-38.80376514503637
 21
82.69699805347113
 31
0.0
  0
CIRCLE
  5
254
  8
0
  6
CONTINUOUS
 62
     3
 10
98.67441860465117
 20
36.1969904240766
 30
0.0
 40
20.0
  0
CIRCLE
  5
255
  8
0
  6
CONTINUOUS
 62
     3
 10
83.42441860465117
 20
36.1969904240766
 30
0.0
 40
1.600000023841858
  0
CIRCLE
  5
256
  8
0
  6
CONTINUOUS
 62
     3
 10
113.9244186046512
 20
36.1969904240766
 30
0.0
 40
1.600000023841858
  0
CIRCLE
  5
257
  8
0
  6
CONTINUOUS
 62
     3
 10
98.67441860465117
 20
52.1969904240766
 30
0.0
 40
2.5
  0
CIRCLE
  5
258
  8
0
  6
CONTINUOUS
 62
     3
 10
84.81801143912382
 20
28.1969904240766
 30
0.0
 40
2.5
  0
CIRCLE
  5
259
  8
0
  6
CONTINUOUS
 62
     3
 10
112.5308257701785
 20
28.1969904240766
 30
0.0
 40
2.5
  0
LINE
  5
25A
  8
0
  6
CONTINUOUS
 62
     3
 10
-67.80376514503638
 20
96.1969904240766
 30
0.0
 11
-53.30376514503637
 21
96.1969904240766
 31
0.0
  0
LINE
  5
25B
  8
0
  6
CONTINUOUS
 62
     3
 10
-67.80376514503638
 20
65.1969904240766
 30
0.0
 11
-53.30376514503637
 21
65.1969904240766
 31
0.0
  0
LINE
  5
25C
  8
0
  6
CONTINUOUS
 62
     3
 10
-67.80376514503638
 20
76.1969904240766
 30
0.0
 11
-46.80376514503637
 21
76.1969904240766
 31
0.0
  0
LINE
  5
25D
  8
0
  6
CONTINUOUS
 62
     3
 10
-67.80376514503638
 20
68.1969904240766
 30
0.0
 11
-46.80376514503637
 21
68.1969904240766
 31
0.0
  0
LINE
  5
25E
  8
0
  6
CONTINUOUS
 62
     3
 10
-67.80376514503638
 20
85.1969904240766
 30
0.0
 11
-46.80376514503637
 21
85.1969904240766
 31
0.0
  0
LINE
  5
25F
  8
0
  6
CONTINUOUS
 62
     3
 10
-67.80376514503638
 20
93.1969904240766
 30
0.0
 11
-46.80376514503637
 21
93.1969904240766
 31
0.0
  0
LINE
  5
260
  8
0
  6
CONTINUOUS
 62
     3
 10
116.6744186046512
 20
99.99122565356879
 30
0.0
 11
116.6744186046512
 21
98.65498297778754
 31
0.0
  0
LINE
  5
261
  8
0
  6
CONTINUOUS
 62
     3
 10
80.67441860465117
 20
99.99122565356879
 30
0.0
 11
80.67441860465117
 21
98.65499060718207
 31
0.0
  0
LINE
  5
262
  8
0
  6
CONTINUOUS
 62
     3
 10
85.17441860465117
 20
101.1969904240766
 30
0.0
 11
112.1744186046512
 21
101.1969904240766
 31
0.0
  0
LINE
  5
263
  8
0
  6
CONTINUOUS
 62
     3
 10
80.67443635291254
 20
99.99118579081664
 30
0.0
 11
85.17443085228676
 21
101.1969555541334
 31
0.0
  0
LINE
  5
264
  8
0
  6
CONTINUOUS
 62
     3
 10
112.1744092125352
 20
101.1969463137918
 30
0.0
 11
116.6744110813385
 21
99.99117457584271
 31
0.0
  0
LINE
  5
265
  8
0
  6
CONTINUOUS
 62
     3
 10
112.1744186046512
 20
101.1969980534711
 30
0.0
 11
112.1744186046512
 21
54.81821387378363
 31
0.0
  0
LINE
  5
266
  8
0
  6
CONTINUOUS
 62
     3
 10
85.17441860465117
 20
101.1969980534711
 30
0.0
 11
85.17441860465117
 21
54.81821387378363
 31
0.0
  0
LINE
  5
267
  8
0
  6
CONTINUOUS
 62
     3
 10
85.17441860465117
 20
62.1969904240766
 30
0.0
 11
93.17441860465117
 21
62.1969904240766
 31
0.0
  0
LINE
  5
268
  8
0
  6
CONTINUOUS
 62
     3
 10
93.17441860465117
 20
101.1969980534711
 30
0.0
 11
93.17441860465117
 21
92.6611017522016
 31
0.0
  0
LINE
  5
269
  8
0
  6
CONTINUOUS
 62
     3
 10
104.1744186046512
 20
101.1969980534711
 30
0.0
 11
104.1744186046512
 21
92.6611017522016
 31
0.0
  0
LINE
  5
26A
  8
0
  6
CONTINUOUS
 62
     3
 10
91.67441860465117
 20
62.19699805347113
 30
0.0
 11
91.67441860465117
 21
60.1970018681684
 31
0.0
  0
LINE
  5
26B
  8
0
  6
CONTINUOUS
 62
     3
 10
105.6744186046512
 20
62.19699805347113
 30
0.0
 11
105.6744186046512
 21
60.1970018681684
 31
0.0
  0
LINE
  5
26C
  8
0
  6
CONTINUOUS
 62
     3
 10
104.1744186046512
 20
62.1969904240766
 30
0.0
 11
112.1744186046512
 21
62.1969904240766
 31
0.0
  0
LINE
  5
26D
  8
0
  6
CONTINUOUS
 62
     3
 10
104.1744186046512
 20
68.73289435474067
 30
0.0
 11
104.1744186046512
 21
62.1969904240766
 31
0.0
  0
LINE
  5
26E
  8
0
  6
CONTINUOUS
 62
     3
 10
104.1744186046512
 20
85.73289435474067
 30
0.0
 11
104.1744186046512
 21
75.6611017522016
 31
0.0
  0
LINE
  5
26F
  8
0
  6
CONTINUOUS
 62
     3
 10
93.17441860465117
 20
85.73289435474067
 30
0.0
 11
93.17441860465117
 21
75.6611017522016
 31
0.0
  0
LINE
  5
270
  8
0
  6
CONTINUOUS
 62
     3
 10
93.17441860465117
 20
68.73289435474067
 30
0.0
 11
93.17441860465117
 21
62.1969904240766
 31
0.0
  0
LINE
  5
271
  8
0
  6
CONTINUOUS
 62
     3
 10
85.17441860465117
 20
-28.8030095759234
 30
0.0
 11
112.1744186046512
 21
-28.8030095759234
 31
0.0
  0
LINE
  5
272
  8
0
  6
CONTINUOUS
 62
     3
 10
85.17441860465117
 20
17.57576506702094
 30
0.0
 11
85.17441860465117
 21
-28.8030095759234
 31
0.0
  0
LINE
  5
273
  8
0
  6
CONTINUOUS
 62
     3
 10
93.17441860465117
 20
10.1969904240766
 30
0.0
 11
93.17441860465117
 21
3.661092215458439
 31
0.0
  0
LINE
  5
274
  8
0
  6
CONTINUOUS
 62
     3
 10
104.1744186046512
 20
10.1969904240766
 30
0.0
 11
104.1744186046512
 21
3.661092215458439
 31
0.0
  0
LINE
  5
275
  8
0
  6
CONTINUOUS
 62
     3
 10
112.1744186046512
 20
17.57576506702094
 30
0.0
 11
112.1744186046512
 21
-28.8030095759234
 31
0.0
  0
LINE
  5
276
  8
0
  6
CONTINUOUS
 62
     3
 10
85.17441860465117
 20
10.1969904240766
 30
0.0
 11
93.17441860465117
 21
10.1969904240766
 31
0.0
  0
LINE
  5
277
  8
0
  6
CONTINUOUS
 62
     3
 10
104.1744186046512
 20
10.1969904240766
 30
0.0
 11
112.1744186046512
 21
10.1969904240766
 31
0.0
  0
LINE
  5
278
  8
0
  6
CONTINUOUS
 62
     3
 10
112.1744288200767
 20
-28.80300637467622
 30
0.0
 11
116.6744233194509
 21
-27.59723661135945
 31
0.0
  0
LINE
  5
279
  8
0
  6
CONTINUOUS
 62
     3
 10
80.67441884341793
 20
-27.59723802168259
 30
0.0
 11
85.17442071222126
 21
-28.80300975963172
 31
0.0
  0
LINE
  5
27A
  8
0
  6
CONTINUOUS
 62
     3
 10
91.67441860465117
 20
12.1969904240766
 30
0.0
 11
91.67441860465117
 21
10.1969904240766
 31
0.0
  0
LINE
  5
27B
  8
0
  6
CONTINUOUS
 62
     3
 10
105.6744186046512
 20
12.1969904240766
 30
0.0
 11
105.6744186046512
 21
10.1969904240766
 31
0.0
  0
LINE
  5
27C
  8
0
  6
CONTINUOUS
 62
     3
 10
116.6744186046512
 20
-26.2609945002398
 30
0.0
 11
116.6744186046512
 21
-27.59724099071832
 31
0.0
  0
LINE
  5
27D
  8
0
  6
CONTINUOUS
 62
     3
 10
80.67441860465117
 20
-26.2609945002398
 30
0.0
 11
80.67441860465117
 21
-27.59723908336969
 31
0.0
  0
LINE
  5
27E
  8
0
  6
CONTINUOUS
 62
     3
 10
93.17441860465117
 20
7.196990424076603
 30
0.0
 11
104.1744186046512
 21
7.196990424076603
 31
0.0
  0
LINE
  5
27F
  8
0
  6
CONTINUOUS
 62
     3
 10
93.17441860465117
 20
-23.8030095759234
 30
0.0
 11
104.1744186046512
 21
-23.8030095759234
 31
0.0
  0
LINE
  5
280
  8
0
  6
CONTINUOUS
 62
     3
 10
93.17441860465117
 20
96.1969904240766
 30
0.0
 11
104.1744186046512
 21
96.1969904240766
 31
0.0
  0
LINE
  5
281
  8
0
  6
CONTINUOUS
 62
     3
 10
93.17441860465117
 20
65.1969904240766
 30
0.0
 11
104.1744186046512
 21
65.1969904240766
 31
0.0
  0
LINE
  5
282
  8
0
  6
CONTINUOUS
 62
     3
 10
93.17441860465117
 20
-3.267111367305233
 30
0.0
 11
93.17441860465117
 21
-13.33890778454156
 31
0.0
  0
LINE
  5
283
  8
0
  6
CONTINUOUS
 62
     3
 10
104.1744186046512
 20
-3.267111367305233
 30
0.0
 11
104.1744186046512
 21
-13.33890778454156
 31
0.0
  0
LINE
  5
284
  8
0
  6
CONTINUOUS
 62
     3
 10
104.1744186046512
 20
-20.26711136730523
 30
0.0
 11
104.1744186046512
 21
-28.8030095759234
 31
0.0
  0
LINE
  5
285
  8
0
  6
CONTINUOUS
 62
     3
 10
93.17441860465117
 20
-20.26711136730523
 30
0.0
 11
93.17441860465117
 21
-28.8030095759234
 31
0.0
  0
ARC
  5
286
  8
0
  6
CONTINUOUS
 62
     3
 10
98.67441860465117
 20
36.1969904240766
 30
0.0
 40
65.0
 50
0.0
 51
78.01284975637654
  0
ARC
  5
287
  8
0
  6
CONTINUOUS
 62
     3
 10
98.67441860465117
 20
36.1969904240766
 30
0.0
 40
63.5
 50
102.274692556259
 51
257.7252764805186
  0
ARC
  5
288
  8
0
  6
CONTINUOUS
 62
     3
 10
98.67441860465117
 20
36.1969904240766
 30
0.0
 40
65.0
 50
101.9871689129581
 51
258.0128001238195
  0
ARC
  5
289
  8
0
  6
CONTINUOUS
 62
     3
 10
98.67441860465117
 20
36.1969904240766
 30
0.0
 40
65.0
 50
281.9871502436234
 51
360.0
  0
ARC
  5
28A
  8
0
  6
CONTINUOUS
 62
     3
 10
98.67441860465117
 20
36.1969904240766
 30
0.0
 40
63.5
 50
282.2746738869243
 51
437.7253261130757
  0
CIRCLE
  5
28B
  8
0
  6
CONTINUOUS
 62
     3
 10
134.4196273448856
 20
56.83450263110785
 30
0.0
 40
5.5
  0
CIRCLE
  5
28C
  8
0
  6
CONTINUOUS
 62
     3
 10
62.92922512320585
 20
56.83450263110785
 30
0.0
 40
5.5
  0
ARC
  5
28D
  8
0
  6
CONTINUOUS
 62
     3
 10
98.67441860465117
 20
36.1969904240766
 30
0.0
 40
25.0
 50
57.31635887305157
 51
302.6836306542936
  0
ARC
  5
28E
  8
0
  6
CONTINUOUS
 62
     3
 10
98.67441860465117
 20
36.1969904240766
 30
0.0
 40
25.0
 50
302.6836411269484
 51
417.3163588730516
  0
CIRCLE
  5
28F
  8
0
  6
CONTINUOUS
 62
     3
 10
98.67441860465117
 20
36.1969904240766
 30
0.0
 40
23.0
  0
CIRCLE
  5
290
  8
0
  6
CONTINUOUS
 62
     3
 10
134.4196273448856
 20
56.83450263110785
 30
0.0
 40
8.5
  0
CIRCLE
  5
291
  8
0
  6
CONTINUOUS
 62
     3
 10
62.92922512320585
 20
56.83450263110785
 30
0.0
 40
8.5
  0
CIRCLE
  5
292
  8
0
  6
CONTINUOUS
 62
     3
 10
134.4196273448856
 20
15.55951636401801
 30
0.0
 40
5.5
  0
CIRCLE
  5
293
  8
0
  6
CONTINUOUS
 62
     3
 10
134.4196273448856
 20
15.55951636401801
 30
0.0
 40
8.5
  0
CIRCLE
  5
294
  8
0
  6
CONTINUOUS
 62
     3
 10
62.92921749381132
 20
15.55948966113715
 30
0.0
 40
8.5
  0
ARC
  5
295
  8
0
  6
CONTINUOUS
 62
     3
 10
98.67441860465117
 20
36.1969904240766
 30
0.0
 40
12.64999961853027
 50
155.7762812796658
 51
384.0746092698368
  0
ARC
  5
296
  8
0
  6
CONTINUOUS
 62
     3
 10
98.67441860465117
 20
36.1969904240766
 30
0.0
 40
12.64999961853027
 50
55.75262416045837
 51
124.9529837436602
  0
LINE
  5
297
  8
0
  6
CONTINUOUS
 62
     4
 10
-69.80376514503638
 20
5.197005682865665
 30
0.0
 11
-53.80376514503637
 21
5.197005682865665
 31
0.0
  0
LINE
  5
298
  8
0
  6
CONTINUOUS
 62
     4
 10
-69.80376514503638
 20
9.197005682865665
 30
0.0
 11
-53.80376514503637
 21
9.197005682865665
 31
0.0
  0
LINE
  5
299
  8
0
  6
CONTINUOUS
 62
     4
 10
-64.80376514503638
 20
4.697005682865665
 30
0.0
 11
-53.80376514503637
 21
4.697005682865665
 31
0.0
  0
LINE
  5
29A
  8
0
  6
CONTINUOUS
 62
     4
 10
-64.80376514503638
 20
9.697005682865665
 30
0.0
 11
-53.80376514503637
 21
9.697005682865665
 31
0.0
  0
LINE
  5
29B
  8
0
  6
CONTINUOUS
 62
     4
 10
-64.80376514503638
 20
9.6970018681684
 30
0.0
 11
-64.80376514503638
 21
4.6970018681684
 31
0.0
  0
LINE
  5
29C
  8
0
  6
CONTINUOUS
 62
     4
 10
-69.80376514503638
 20
9.1970018681684
 30
0.0
 11
-69.80376514503638
 21
5.1970018681684
 31
0.0
  0
LINE
  5
29D
  8
0
  6
CONTINUOUS
 62
     4
 10
-70.95848932384325
 20
7.197014849419247
 30
0.0
 11
-69.8037917679797
 21
9.197009409236216
 31
0.0
  0
LINE
  5
29E
  8
0
  6
CONTINUOUS
 62
     4
 10
-70.95847906222258
 20
7.196992963127514
 30
0.0
 11
-69.80377864533574
 21
5.196993447873524
 31
0.0
  0
LINE
  5
29F
  8
0
  6
CONTINUOUS
 62
     4
 10
-74.93962177345435
 20
16.99700873462348
 30
0.0
 11
-66.93962177345435
 21
16.99700873462348
 31
0.0
  0
LINE
  5
2A0
  8
0
  6
CONTINUOUS
 62
     4
 10
-74.93962177345435
 20
55.39700263110785
 30
0.0
 11
-66.93962177345435
 21
55.39700263110785
 31
0.0
  0
LINE
  5
2A1
  8
0
  6
CONTINUOUS
 62
     4
 10
-74.93962177345435
 20
50.1969904240766
 30
0.0
 11
-66.93962177345435
 21
50.1969904240766
 31
0.0
  0
LINE
  5
2A2
  8
0
  6
CONTINUOUS
 62
     4
 10
-74.93962177345435
 20
54.1969904240766
 30
0.0
 11
-66.93962177345435
 21
54.1969904240766
 31
0.0
  0
LINE
  5
2A3
  8
0
  6
CONTINUOUS
 62
     4
 10
-54.80376514503637
 20
101.1969980534711
 30
0.0
 11
-54.80376514503637
 21
96.19699805347113
 31
0.0
  0
LINE
  5
2A4
  8
0
  6
CONTINUOUS
 62
     4
 10
-55.80376514503637
 20
101.1969980534711
 30
0.0
 11
-55.80376514503637
 21
96.19699805347113
 31
0.0
  0
LINE
  5
2A5
  8
0
  6
CONTINUOUS
 62
     4
 10
-54.80376514503637
 20
65.19699805347113
 30
0.0
 11
-54.80376514503637
 21
62.19699805347113
 31
0.0
  0
LINE
  5
2A6
  8
0
  6
CONTINUOUS
 62
     4
 10
-55.80376514503637
 20
65.19699805347113
 30
0.0
 11
-55.80376514503637
 21
62.19699805347113
 31
0.0
  0
CIRCLE
  5
2A7
  8
0
  6
CONTINUOUS
 62
     4
 10
98.67441860465117
 20
36.1969904240766
 30
0.0
 40
19.20000076293945
  0
CIRCLE
  5
2A8
  8
0
  6
CONTINUOUS
 62
     4
 10
98.67441860465117
 20
52.1969904240766
 30
0.0
 40
2.0
  0
CIRCLE
  5
2A9
  8
0
  6
CONTINUOUS
 62
     4
 10
84.81801143912382
 20
28.1969904240766
 30
0.0
 40
2.0
  0
CIRCLE
  5
2AA
  8
0
  6
CONTINUOUS
 62
     4
 10
112.5308257701785
 20
28.1969904240766
 30
0.0
 40
2.0
  0
LINE
  5
2AB
  8
0
  6
CONTINUOUS
 62
     4
 10
-67.80376514503638
 20
86.04699652759223
 30
0.0
 11
-46.80376514503637
 21
86.04699652759223
 31
0.0
  0
LINE
  5
2AC
  8
0
  6
CONTINUOUS
 62
     4
 10
-67.80376514503638
 20
92.34698432056098
 30
0.0
 11
-46.80376514503637
 21
92.34698432056098
 31
0.0
  0
LINE
  5
2AD
  8
0
  6
CONTINUOUS
 62
     4
 10
-67.80376514503638
 20
69.04699652759223
 30
0.0
 11
-46.80376514503637
 21
69.04699652759223
 31
0.0
  0
LINE
  5
2AE
  8
0
  6
CONTINUOUS
 62
     4
 10
-67.80376514503638
 20
75.34698432056098
 30
0.0
 11
-46.80376514503637
 21
75.34698432056098
 31
0.0
  0
LINE
  5
2AF
  8
0
  6
CONTINUOUS
 62
     4
 10
105.1744186046512
 20
63.6969904240766
 30
0.0
 11
111.1744186046512
 21
63.6969904240766
 31
0.0
  0
LINE
  5
2B0
  8
0
  6
CONTINUOUS
 62
     4
 10
86.17441860465117
 20
63.6969904240766
 30
0.0
 11
92.17441860465117
 21
63.6969904240766
 31
0.0
  0
LINE
  5
2B1
  8
0
  6
CONTINUOUS
 62
     4
 10
86.17441860465117
 20
65.1969904240766
 30
0.0
 11
92.17441860465117
 21
65.1969904240766
 31
0.0
  0
LINE
  5
2B2
  8
0
  6
CONTINUOUS
 62
     4
 10
86.17441860465117
 20
66.6969904240766
 30
0.0
 11
92.17441860465117
 21
66.6969904240766
 31
0.0
  0
LINE
  5
2B3
  8
0
  6
CONTINUOUS
 62
     4
 10
86.17441860465117
 20
68.1969904240766
 30
0.0
 11
92.17441860465117
 21
68.1969904240766
 31
0.0
  0
LINE
  5
2B4
  8
0
  6
CONTINUOUS
 62
     4
 10
86.17441860465117
 20
69.6969904240766
 30
0.0
 11
92.17441860465117
 21
69.6969904240766
 31
0.0
  0
LINE
  5
2B5
  8
0
  6
CONTINUOUS
 62
     4
 10
105.1744186046512
 20
65.1969904240766
 30
0.0
 11
111.1744186046512
 21
65.1969904240766
 31
0.0
  0
LINE
  5
2B6
  8
0
  6
CONTINUOUS
 62
     4
 10
105.1744186046512
 20
66.6969904240766
 30
0.0
 11
111.1744186046512
 21
66.6969904240766
 31
0.0
  0
LINE
  5
2B7
  8
0
  6
CONTINUOUS
 62
     4
 10
105.1744186046512
 20
68.1969904240766
 30
0.0
 11
111.1744186046512
 21
68.1969904240766
 31
0.0
  0
LINE
  5
2B8
  8
0
  6
CONTINUOUS
 62
     4
 10
105.1744186046512
 20
69.6969904240766
 30
0.0
 11
111.1744186046512
 21
69.6969904240766
 31
0.0
  0
LINE
  5
2B9
  8
0
  6
CONTINUOUS
 62
     4
 10
105.1744186046512
 20
99.6969904240766
 30
0.0
 11
111.1744186046512
 21
99.6969904240766
 31
0.0
  0
LINE
  5
2BA
  8
0
  6
CONTINUOUS
 62
     4
 10
86.17441860465117
 20
99.6969904240766
 30
0.0
 11
92.17441860465117
 21
99.6969904240766
 31
0.0
  0
LINE
  5
2BB
  8
0
  6
CONTINUOUS
 62
     4
 10
86.17441860465117
 20
98.1969904240766
 30
0.0
 11
92.17441860465117
 21
98.1969904240766
 31
0.0
  0
LINE
  5
2BC
  8
0
  6
CONTINUOUS
 62
     4
 10
86.17441860465117
 20
96.6969904240766
 30
0.0
 11
92.17441860465117
 21
96.6969904240766
 31
0.0
  0
LINE
  5
2BD
  8
0
  6
CONTINUOUS
 62
     4
 10
86.17441860465117
 20
95.1969904240766
 30
0.0
 11
92.17441860465117
 21
95.1969904240766
 31
0.0
  0
LINE
  5
2BE
  8
0
  6
CONTINUOUS
 62
     4
 10
86.17441860465117
 20
93.6969904240766
 30
0.0
 11
92.17441860465117
 21
93.6969904240766
 31
0.0
  0
LINE
  5
2BF
  8
0
  6
CONTINUOUS
 62
     4
 10
86.17441860465117
 20
92.1969904240766
 30
0.0
 11
92.17441860465117
 21
92.1969904240766
 31
0.0
  0
LINE
  5
2C0
  8
0
  6
CONTINUOUS
 62
     4
 10
105.1744186046512
 20
98.1969904240766
 30
0.0
 11
111.1744186046512
 21
98.1969904240766
 31
0.0
  0
LINE
  5
2C1
  8
0
  6
CONTINUOUS
 62
     4
 10
105.1744186046512
 20
96.6969904240766
 30
0.0
 11
111.1744186046512
 21
96.6969904240766
 31
0.0
  0
LINE
  5
2C2
  8
0
  6
CONTINUOUS
 62
     4
 10
105.1744186046512
 20
95.1969904240766
 30
0.0
 11
111.1744186046512
 21
95.1969904240766
 31
0.0
  0
LINE
  5
2C3
  8
0
  6
CONTINUOUS
 62
     4
 10
105.1744186046512
 20
93.6969904240766
 30
0.0
 11
111.1744186046512
 21
93.6969904240766
 31
0.0
  0
LINE
  5
2C4
  8
0
  6
CONTINUOUS
 62
     4
 10
105.1744186046512
 20
92.1969904240766
 30
0.0
 11
111.1744186046512
 21
92.1969904240766
 31
0.0
  0
ARC
  5
2C5
  8
0
  6
CONTINUOUS
 62
     4
 10
98.67441860465117
 20
36.1969904240766
 30
0.0
 40
30.0
 50
118.903348166167
 51
141.4345439737733
  0
ARC
  5
2C6
  8
0
  6
CONTINUOUS
 62
     4
 10
98.67441860465117
 20
36.1969904240766
 30
0.0
 40
36.0
 50
113.75196485263
 51
138.2356521967545
  0
ARC
  5
2C7
  8
0
  6
CONTINUOUS
 62
     4
 10
98.67441860465117
 20
36.1969904240766
 30
0.0
 40
36.0
 50
293.7519461832953
 51
318.2356745085548
  0
CIRCLE
  5
2C8
  8
0
  6
CONTINUOUS
 62
     4
 10
73.55968776969023
 20
50.69702094165473
 30
0.0
 40
2.0
  0
CIRCLE
  5
2C9
  8
0
  6
CONTINUOUS
 62
     4
 10
123.7891646984012
 20
50.6969904240766
 30
0.0
 40
2.0
  0
CIRCLE
  5
2CA
  8
0
  6
CONTINUOUS
 62
     4
 10
123.7891646984012
 20
50.6969904240766
 30
0.0
 40
2.5
  0
CIRCLE
  5
2CB
  8
0
  6
CONTINUOUS
 62
     4
 10
73.55968776969023
 20
50.69702094165473
 30
0.0
 40
2.5
  0
ARC
  5
2CC
  8
0
  6
CONTINUOUS
 62
     4
 10
98.67441860465117
 20
36.1969904240766
 30
0.0
 40
36.0
 50
161.7643698118844
 51
198.2356128852715
  0
ARC
  5
2CD
  8
0
  6
CONTINUOUS
 62
     4
 10
98.67441860465117
 20
36.1969904240766
 30
0.0
 40
30.0
 50
159.1030412433023
 51
200.454031006935
  0
ARC
  5
2CE
  8
0
  6
CONTINUOUS
 62
     4
 10
98.67441860465117
 20
36.1969904240766
 30
0.0
 40
30.0
 50
298.9033363270215
 51
321.1183182817183
  0
ARC
  5
2CF
  8
0
  6
CONTINUOUS
 62
     4
 10
98.67441860465117
 20
36.1969904240766
 30
0.0
 40
30.0
 50
38.48624108609469
 51
61.09666367297853
  0
ARC
  5
2D0
  8
0
  6
CONTINUOUS
 62
     4
 10
98.67441860465117
 20
36.1969904240766
 30
0.0
 40
36.0
 50
41.76433573672895
 51
66.24805381670467
  0
CIRCLE
  5
2D1
  8
0
  6
CONTINUOUS
 62
     4
 10
73.5596801402957
 20
21.69698851672797
 30
0.0
 40
2.0
  0
CIRCLE
  5
2D2
  8
0
  6
CONTINUOUS
 62
     4
 10
123.7891646984012
 20
21.69701712695746
 30
0.0
 40
2.0
  0
CIRCLE
  5
2D3
  8
0
  6
CONTINUOUS
 62
     4
 10
123.7891646984012
 20
21.69701712695746
 30
0.0
 40
2.5
  0
CIRCLE
  5
2D4
  8
0
  6
CONTINUOUS
 62
     4
 10
73.5596801402957
 20
21.69698851672797
 30
0.0
 40
2.5
  0
ARC
  5
2D5
  8
0
  6
CONTINUOUS
 62
     4
 10
98.67441860465117
 20
36.1969904240766
 30
0.0
 40
30.0
 50
218.3834861263593
 51
241.096651833833
  0
ARC
  5
2D6
  8
0
  6
CONTINUOUS
 62
     4
 10
98.67441860465117
 20
36.1969904240766
 30
0.0
 40
36.0
 50
221.7643341428672
 51
246.24803514737
  0
ARC
  5
2D7
  8
0
  6
CONTINUOUS
 62
     4
 10
98.67441860465117
 20
36.1969904240766
 30
0.0
 40
30.0
 50
338.6749302224533
 51
381.6194902043619
  0
ARC
  5
2D8
  8
0
  6
CONTINUOUS
 62
     4
 10
98.67441860465117
 20
36.1969904240766
 30
0.0
 40
36.0
 50
341.7643972463267
 51
378.2356454423556
  0
LINE
  5
2D9
  8
0
  6
CENTER
 62
     7
 10
-76.20911869117896
 20
52.1969904240766
 30
0.0
 11
-64.60171588966529
 21
52.1969904240766
 31
0.0
  0
LINE
  5
2DA
  8
0
  6
CENTER
 62
     7
 10
83.42441860465117
 20
39.4697183903852
 30
0.0
 11
83.42441860465117
 21
32.6727213200727
 31
0.0
  0
LINE
  5
2DB
  8
0
  6
CENTER
 62
     7
 10
113.9244186046512
 20
39.14023535815863
 30
0.0
 11
113.9244186046512
 21
32.81706564990668
 31
0.0
  0
LINE
  5
2DC
  8
0
  6
CENTER
 62
     7
 10
94.36374965933867
 20
52.1969904240766
 30
0.0
 11
102.9303390148074
 21
52.1969904240766
 31
0.0
  0
LINE
  5
2DD
  8
0
  6
CENTER
 62
     7
 10
86.97334275683845
 20
24.46383966475321
 30
0.0
 11
82.69004807910407
 21
31.88272353722266
 31
0.0
  0
LINE
  5
2DE
  8
0
  6
CENTER
 62
     7
 10
114.6861558361956
 20
31.93014043445669
 30
0.0
 11
110.4028611584612
 21
24.51125656198724
 31
0.0
  0
LINE
  5
2DF
  8
0
  6
CENTER
 62
     7
 10
-118.8037651450364
 20
36.1969904240766
 30
0.0
 11
-48.80376514503637
 21
36.1969904240766
 31
0.0
  0
LINE
  5
2E0
  8
0
  6
CENTER
 62
     7
 10
-128.6397636801926
 20
-5.078003472407772
 30
0.0
 11
-49.84960254738012
 21
-5.078003472407772
 31
0.0
  0
LINE
  5
2E1
  8
0
  6
CENTER
 62
     7
 10
-73.12480243751685
 20
7.197005682865665
 30
0.0
 11
-50.8462761313645
 21
7.197005682865665
 31
0.0
  0
LINE
  5
2E2
  8
0
  6
CENTER
 62
     7
 10
-70.35392841407935
 20
89.1969904240766
 30
0.0
 11
-36.13563617775122
 21
89.1969904240766
 31
0.0
  0
LINE
  5
2E3
  8
0
  6
CENTER
 62
     7
 10
-70.35392841407935
 20
72.1969904240766
 30
0.0
 11
-36.13563617775122
 21
72.1969904240766
 31
0.0
  0
LINE
  5
2E4
  8
0
  6
CENTER
 62
     7
 10
28.6744262340457
 20
36.1969904240766
 30
0.0
 11
168.6744186046512
 21
36.1969904240766
 31
0.0
  0
LINE
  5
2E5
  8
0
  6
CENTER
 62
     7
 10
51.7030766702478
 20
9.078073485302639
 30
0.0
 11
77.35265831584864
 21
23.88686471688766
 31
0.0
  0
LINE
  5
2E6
  8
0
  6
CENTER
 62
     7
 10
52.5369167558121
 20
62.83452040433537
 30
0.0
 11
78.23566129547923
 21
47.99734496576298
 31
0.0
  0
LINE
  5
2E7
  8
0
  6
CENTER
 62
     7
 10
89.0920058849246
 20
89.1969904240766
 30
0.0
 11
108.2020675304324
 21
89.1969904240766
 31
0.0
  0
LINE
  5
2E8
  8
0
  6
CENTER
 62
     7
 10
89.25675503043242
 20
72.1969904240766
 30
0.0
 11
108.2020675304324
 21
72.1969904240766
 31
0.0
  0
LINE
  5
2E9
  8
0
  6
CENTER
 62
     7
 10
89.11001125601835
 20
-16.8030095759234
 30
0.0
 11
108.0834609630496
 21
-16.8030095759234
 31
0.0
  0
LINE
  5
2EA
  8
0
  6
CENTER
 62
     7
 10
89.37353054312773
 20
0.1969904240766027
 30
0.0
 11
108.346980250159
 21
0.1969904240766027
 31
0.0
  0
LINE
  5
2EB
  8
0
  6
CENTER
 62
     7
 10
119.6509404786049
 20
24.08622502256867
 30
0.0
 11
146.0692359967654
 21
8.833616678765338
 31
0.0
  0
LINE
  5
2EC
  8
0
  6
CENTER
 62
     7
 10
119.2162195772212
 20
48.0568004100362
 30
0.0
 11
144.811952136824
 21
62.83450186075947
 31
0.0
  0
ARC
  5
2ED
  8
0
  6
CENTER
 62
     7
 10
98.67441860465117
 20
36.1969904240766
 30
0.0
 40
41.27500152587891
 50
13.28299245913573
 51
46.71698445108064
  0
ARC
  5
2EE
  8
0
  6
CENTER
 62
     7
 10
98.67441860465117
 20
36.1969904240766
 30
0.0
 40
29.0
 50
140.1091321049539
 51
159.8908489225499
  0
ARC
  5
2EF
  8
0
  6
CENTER
 62
     7
 10
98.67441860465117
 20
36.1969904240766
 30
0.0
 40
41.27500152587891
 50
133.2830137276865
 51
166.7170082809524
  0
ARC
  5
2F0
  8
0
  6
CENTER
 62
     7
 10
98.67441860465117
 20
36.1969904240766
 30
0.0
 40
41.27500152587891
 50
192.5888669144559
 51
226.7588826526823
  0
ARC
  5
2F1
  8
0
  6
CENTER
 62
     7
 10
98.67441860465117
 20
36.1969904240766
 30
0.0
 40
29.0
 50
199.2152978811488
 51
219.0853427050914
  0
ARC
  5
2F2
  8
0
  6
CENTER
 62
     7
 10
98.67441860465117
 20
36.1969904240766
 30
0.0
 40
29.0
 50
20.10910656753492
 51
39.89081826248903
  0
ARC
  5
2F3
  8
0
  6
CENTER
 62
     7
 10
98.67441860465117
 20
36.1969904240766
 30
0.0
 40
29.0
 50
320.6502351726135
 51
340.9802607937579
  0
ARC
  5
2F4
  8
0
  6
CENTER
 62
     7
 10
98.67441860465117
 20
36.1969904240766
 30
0.0
 40
41.27500152587891
 50
312.2744937217374
 51
346.9490538264054
  0
LINE
  5
2F5
  8
0
  6
CENTER
 62
     7
 10
116.2135856466265
 20
26.0707528932428
 30
0.0
 11
109.0969239671771
 21
30.17955999315814
 31
0.0
  0
LINE
  5
2F6
  8
0
  6
CENTER
 62
     7
 10
81.13525156267581
 20
26.0707528932428
 30
0.0
 11
88.25191324212521
 21
30.17955999315814
 31
0.0
  0
LINE
  5
2F7
  8
0
  6
CENTER
 62
     7
 10
98.67441860465117
 20
106.1969980534711
 30
0.0
 11
98.67441860465117
 21
47.50903023164509
 31
0.0
  0
LINE
  5
2F8
  8
0
  6
CENTER
 62
     7
 10
98.67441860465117
 20
41.01354534746763
 30
0.0
 11
98.67441860465117
 21
-33.8029981318316
 31
0.0
  0
LINE
  5
2F9
  8
0
  6
DIVIDE
 62
     7
 10
-112.8037613247706
 20
58.69700695840163
 30
0.0
 11
-112.3037607939759
 21
59.19700748919638
 31
0.0
  0
LINE
  5
2FA
  8
0
  6
DIVIDE
 62
     7
 10
-112.8037640221689
 20
58.6969826818173
 30
0.0
 11
-112.3037634913741
 21
59.19698321261205
 31
0.0
  0
LINE
  5
2FB
  8
0
  6
DIVIDE
 62
     7
 10
-112.8037640221689
 20
58.6969826818173
 30
0.0
 11
-112.3037634913741
 21
59.19698321261205
 31
0.0
  0
LINE
  5
2FC
  8
0
  6
CONTINUOUS
 62
     7
 10
-112.8037599760715
 20
13.69700369394536
 30
0.0
 11
-112.3037594452767
 21
13.19700316315061
 31
0.0
  0
LINE
  5
2FD
  8
0
  6
CONTINUOUS
 62
     7
 10
-112.8037640221689
 20
58.6969826818173
 30
0.0
 11
-112.3037634913741
 21
59.19698321261205
 31
0.0
  0
LINE
  5
2FE
  8
0
  6
CONTINUOUS
 62
     7
 10
-46.60803302833715
 20
36.1969904240766
 30
0.0
 11
-33.19018550732226
 21
36.1969904240766
 31
0.0
  0
LINE
  5
2FF
  8
0
  6
CONTINUOUS
 62
     7
 10
-52.35995971391038
 20
65.1969904240766
 30
0.0
 11
-35.11462212849227
 21
65.1969904240766
 31
0.0
  0
LINE
  5
300
  8
0
  6
DIVIDE
 62
     9
 10
-112.8037651450364
 20
58.69700568286567
 30
0.0
 11
-112.8037651450364
 21
13.6970018681684
 31
0.0
  0
LINE
  5
301
  8
0
  6
DIVIDE
 62
     9
 10
-56.80376514503637
 20
58.69702094165473
 30
0.0
 11
-56.80376514503637
 21
26.84400122729926
 31
0.0
  0
LINE
  5
302
  8
0
  6
DIVIDE
 62
     9
 10
-56.80376459026808
 20
58.69701977104336
 30
0.0
 11
-57.30376512106283
 21
59.19702030183811
 31
0.0
  0
LINE
  5
303
  8
0
  6
DIVIDE
 62
     9
 10
-61.17275318214575
 20
59.19702094165473
 30
0.0
 11
-57.30376514503637
 21
59.19702094165473
 31
0.0
  0
LINE
  5
304
  8
LAYER0014
  6
CONTINUOUS
 62
     7
 10
-113.8037651450364
 20
-58.8030095759234
 30
0.0
 11
-126.2704399497239
 21
-58.8030095759234
 31
0.0
  0
LINE
  5
305
  8
LAYER0014
  6
CONTINUOUS
 62
     7
 10
-54.80376514503637
 20
115.5617212590375
 30
0.0
 11
-62.12392124244848
 21
115.5617212590375
 31
0.0
  0
LINE
  5
306
  8
LAYER0014
  6
CONTINUOUS
 62
     7
 10
-53.80376514503637
 20
21.4988703068891
 30
0.0
 11
-42.24270900795141
 21
21.4988703068891
 31
0.0
  0
INSERT
  5
307
  8
LAYER0014
  6
CONTINUOUS
  2
DA_IMAGEDIMGROUP_1
 10
0.0
 20
0.0
 30
0.0
  0
INSERT
  5
308
  8
LAYER0014
  6
CONTINUOUS
  2
DA_IMAGEDIMGROUP_2
 10
0.0
 20
0.0
 30
0.0
  0
INSERT
  5
309
  8
LAYER0014
  6
CONTINUOUS
  2
DA_IMAGEDIMGROUP_3
 10
0.0
 20
0.0
 30
0.0
  0
INSERT
  5
30A
  8
LAYER0014
  6
CONTINUOUS
  2
DA_IMAGEDIMGROUP_4
 10
0.0
 20
0.0
 30
0.0
  0
INSERT
  5
30B
  8
LAYER0014
  6
CONTINUOUS
  2
DA_IMAGEDIMGROUP_5
 10
0.0
 20
0.0
 30
0.0
  0
INSERT
  5
30C
  8
LAYER0014
  6
CONTINUOUS
  2
DA_IMAGEDIMGROUP_6
 10
0.0
 20
0.0
 30
0.0
  0
INSERT
  5
30D
  8
LAYER0014
  6
CONTINUOUS
  2
DA_IMAGEDIMGROUP_7
 10
0.0
 20
0.0
 30
0.0
  0
INSERT
  5
30E
  8
LAYER0014
  6
CONTINUOUS
  2
DA_IMAGEDIMGROUP_8
 10
0.0
 20
0.0
 30
0.0
  0
INSERT
  5
30F
  8
LAYER0014
  6
CONTINUOUS
  2
DA_IMAGEDIMGROUP_9
 10
0.0
 20
0.0
 30
0.0
  0
INSERT
  5
310
  8
LAYER0014
  6
CONTINUOUS
  2
DA_IMAGEDIMGROUP_10
 10
0.0
 20
0.0
 30
0.0
  0
INSERT
  5
311
  8
LAYER0014
  6
CONTINUOUS
  2
DA_IMAGEDIMGROUP_11
 10
0.0
 20
0.0
 30
0.0
  0
INSERT
  5
312
  8
LAYER0014
  6
CONTINUOUS
  2
DA_IMAGEDIMGROUP_12
 10
0.0
 20
0.0
 30
0.0
  0
INSERT
  5
313
  8
LAYER0014
  6
CONTINUOUS
  2
DA_IMAGEDIMGROUP_13
 10
0.0
 20
0.0
 30
0.0
  0
INSERT
  5
314
  8
LAYER0014
  6
CONTINUOUS
  2
DA_IMAGEDIMGROUP_14
 10
0.0
 20
0.0
 30
0.0
  0
INSERT
  5
315
  8
LAYER0014
  6
CONTINUOUS
  2
DA_IMAGEDIMGROUP_15
 10
0.0
 20
0.0
 30
0.0
  0
INSERT
  5
316
  8
LAYER0014
  6
CONTINUOUS
  2
DA_IMAGEDIMGROUP_16
 10
0.0
 20
0.0
 30
0.0
  0
INSERT
  5
317
  8
LAYER0014
  6
CONTINUOUS
  2
DA_IMAGEDIMGROUP_17
 10
0.0
 20
0.0
 30
0.0
  0
INSERT
  5
318
  8
LAYER0014
  6
CONTINUOUS
  2
DC_GROUP_1
 10
0.0
 20
0.0
 30
0.0
  0
INSERT
  5
319
  8
LAYER0014
  6
CONTINUOUS
  2
DA_IMAGEDIMGROUP_18
 10
0.0
 20
0.0
 30
0.0
  0
INSERT
  5
31A
  8
LAYER0014
  6
CONTINUOUS
  2
DA_IMAGEDIMGROUP_19
 10
0.0
 20
0.0
 30
0.0
  0
INSERT
  5
31B
  8
LAYER0014
  6
CONTINUOUS
  2
DA_IMAGEDIMGROUP_20
 10
0.0
 20
0.0
 30
0.0
  0
INSERT
  5
31C
  8
LAYER0014
  6
CONTINUOUS
  2
DA_IMAGEDIMGROUP_21
 10
0.0
 20
0.0
 30
0.0
  0
INSERT
  5
31D
  8
LAYER0014
  6
CONTINUOUS
  2
DC_GROUP_2
 10
0.0
 20
0.0
 30
0.0
  0
INSERT
  5
31E
  8
LAYER0014
  6
CONTINUOUS
  2
DA_IMAGEDIMGROUP_22
 10
0.0
 20
0.0
 30
0.0
  0
INSERT
  5
31F
  8
LAYER0014
  6
CONTINUOUS
  2
DA_IMAGEDIMGROUP_23
 10
0.0
 20
0.0
 30
0.0
  0
INSERT
  5
320
  8
LAYER0014
  6
CONTINUOUS
  2
DA_IMAGEDIMGROUP_24
 10
0.0
 20
0.0
 30
0.0
  0
INSERT
  5
321
  8
LAYER0014
  6
CONTINUOUS
  2
DA_IMAGEDIMGROUP_25
 10
0.0
 20
0.0
 30
0.0
  0
INSERT
  5
322
  8
LAYER0014
  6
CONTINUOUS
  2
DA_IMAGEDIMGROUP_26
 10
0.0
 20
0.0
 30
0.0
  0
INSERT
  5
323
  8
LAYER0014
  6
CONTINUOUS
  2
DA_IMAGEDIMGROUP_27
 10
0.0
 20
0.0
 30
0.0
  0
INSERT
  5
324
  8
LAYER0014
  6
CONTINUOUS
  2
DA_IMAGEDIMGROUP_28
 10
0.0
 20
0.0
 30
0.0
  0
INSERT
  5
325
  8
LAYER0014
  6
CONTINUOUS
  2
DA_IMAGEDIMGROUP_29
 10
0.0
 20
0.0
 30
0.0
  0
INSERT
  5
326
  8
LAYER0014
  6
CONTINUOUS
  2
DC_GROUP_3
 10
0.0
 20
0.0
 30
0.0
  0
INSERT
  5
327
  8
LAYER0014
  6
CONTINUOUS
  2
DC_GROUP_4
 10
0.0
 20
0.0
 30
0.0
  0
TEXT
  5
328
  8
0
 62
     7
 10
1.639792340473892
 20
36.51969000553215
 30
0.0
 40
4.0
  1
MIN24.75
 50
90.0
 41
0.8
  7
FDASTYLE1
 72
     5
 11
1.639792340473892
 21
62.11969000553215
 31
0.0
  0
LINE
  5
329
  8
0
  6
DASHED2
 62
     7
 10
65.67441860465117
 20
92.19699805347113
 30
0.0
 11
65.67441860465117
 21
74.19700568286567
 31
0.0
  0
LINE
  5
32A
  8
0
  6
DASHED2
 62
     7
 10
45.93923488883085
 20
74.19702094165473
 30
0.0
 11
65.6744262340457
 21
74.19702094165473
 31
0.0
  0
LINE
  5
32B
  8
0
  6
DASHED2
 62
     7
 10
65.6744262340457
 20
88.69702094165473
 30
0.0
 11
71.68916622428007
 21
88.69702094165473
 31
0.0
  0
LINE
  5
32C
  8
0
  6
DASHED2
 62
     7
 10
65.6744262340457
 20
77.69702094165473
 30
0.0
 11
72.96350399283476
 21
77.69702094165473
 31
0.0
  0
LINE
  5
32D
  8
0
  6
DASHED2
 62
     7
 10
56.17441860465117
 20
85.59699957935004
 30
0.0
 11
56.17441860465117
 21
80.79699652759223
 31
0.0
  0
LINE
  5
32E
  8
0
  6
DASHED2
 62
     7
 10
63.29752651480742
 20
79.24700873462348
 30
0.0
 11
64.98377529410429
 21
79.24700873462348
 31
0.0
  0
LINE
  5
32F
  8
0
  6
DASHED2
 62
     7
 10
63.29752651480742
 20
87.14700263110785
 30
0.0
 11
64.98377529410429
 21
87.14700263110785
 31
0.0
  0
LINE
  5
330
  8
0
  6
DASHED2
 62
     7
 10
58.47443691519804
 20
86.49700110522895
 30
0.0
 11
58.47443691519804
 21
79.89700263110785
 31
0.0
  0
LINE
  5
331
  8
0
  6
DASHED2
 62
     7
 10
62.67441860465117
 20
86.58958380786567
 30
0.0
 11
62.67441860465117
 21
79.80438941089301
 31
0.0
  0
LINE
  5
332
  8
0
  6
DASHED2
 62
     7
 10
63.43835750845976
 20
85.19702094165473
 30
0.0
 11
64.91049495963164
 21
85.19702094165473
 31
0.0
  0
LINE
  5
333
  8
0
  6
DASHED2
 62
     7
 10
63.43835750845976
 20
81.19702094165473
 30
0.0
 11
64.91049495963164
 21
81.19702094165473
 31
0.0
  0
LINE
  5
334
  8
0
  6
DASHED2
 62
     7
 10
58.47444205325103
 20
79.89703263665024
 30
0.0
 11
56.17443810543038
 21
80.79703397983201
 31
0.0
  0
LINE
  5
335
  8
0
  6
DASHED2
 62
     7
 10
56.17441041498323
 20
85.59701188658028
 30
0.0
 11
58.47441081039442
 21
86.49701183968909
 31
0.0
  0
LINE
  5
336
  8
0
  6
DASHED2
 62
     7
 10
59.47443691519804
 20
85.81008093921332
 30
0.0
 11
59.47443691519804
 21
80.51804297534613
 31
0.0
  0
ARC
  5
337
  8
0
  6
DASHED2
 62
     7
 10
62.67441860465117
 20
83.19702094165473
 30
0.0
 40
3.0
 50
0.0
 51
41.81031315512688
  0
ARC
  5
338
  8
0
  6
DASHED2
 62
     7
 10
65.67441860465117
 20
83.19702094165473
 30
0.0
 40
3.0
 50
138.1896986840186
 51
221.8102840131373
  0
ARC
  5
339
  8
0
  6
DASHED2
 62
     7
 10
62.67441860465117
 20
83.19702094165473
 30
0.0
 40
3.0
 50
318.1896868448731
 51
360.0
  0
ARC
  5
33A
  8
0
  6
DASHED2
 62
     7
 10
58.47443691519804
 20
83.19702094165473
 30
0.0
 40
3.299999952316284
 50
72.3602944823007
 51
89.99998201391065
  0
ARC
  5
33B
  8
0
  6
DASHED2
 62
     7
 10
58.47443691519804
 20
83.19702094165473
 30
0.0
 40
3.299999952316284
 50
270.0000179860894
 51
287.6397055176993
  0
ARC
  5
33C
  8
0
  6
DASHED2
 62
     7
 10
60.87894741324492
 20
88.99298041431098
 30
0.0
 40
3.0
 50
242.1068914535913
 51
306.7619948916872
  0
ARC
  5
33D
  8
0
  6
DASHED2
 62
     7
 10
60.87894741324492
 20
77.40100043384223
 30
0.0
 40
3.0
 50
53.23800510831277
 51
117.8898300556071
  0
ARC
  5
33E
  8
0
  6
DASHED2
 62
     7
 10
63.60978237418242
 20
86.19702094165473
 30
0.0
 40
1.0
 50
200.7154669700721
 51
270.0000179860894
  0
ARC
  5
33F
  8
0
  6
DASHED2
 62
     7
 10
63.60978237418242
 20
86.19702094165473
 30
0.0
 40
1.0
 50
108.1948751325834
 51
159.2845330299279
  0
ARC
  5
340
  8
0
  6
DASHED2
 62
     7
 10
63.60978237418242
 20
80.19702094165473
 30
0.0
 40
1.0
 50
89.99998201391065
 51
159.2845330299279
  0
ARC
  5
341
  8
0
  6
DASHED2
 62
     7
 10
63.60978237418242
 20
80.19702094165473
 30
0.0
 40
1.0
 50
200.7154669700721
 51
251.8051248674166
  0
ARC
  5
342
  8
0
  6
DASHED2
 62
     7
 10
64.67151943472929
 20
86.19702094165473
 30
0.0
 40
1.0
 50
0.0
 51
71.80513670656207
  0
ARC
  5
343
  8
0
  6
DASHED2
 62
     7
 10
64.67151943472929
 20
80.19702094165473
 30
0.0
 40
1.0
 50
0.0
 51
89.99998201391065
  0
ARC
  5
344
  8
0
  6
DASHED2
 62
     7
 10
64.67151943472929
 20
86.19702094165473
 30
0.0
 40
1.0
 50
270.0000179860894
 51
360.0
  0
ARC
  5
345
  8
0
  6
DASHED2
 62
     7
 10
64.67151943472929
 20
80.19702094165473
 30
0.0
 40
1.0
 50
288.194863293438
 51
360.0
  0
ARC
  5
346
  8
0
  6
DASHED2
 62
     7
 10
56.6523086192996
 20
83.19702094165473
 30
0.0
 40
1.200000047683716
 50
113.46797241713
 51
246.5320171102151
  0
LINE
  5
347
  8
0
  6
CENTER
 62
     7
 10
51.04763036598943
 20
83.1969904240766
 30
0.0
 11
73.93585746310041
 21
83.1969904240766
 31
0.0
  0
LINE
  5
348
  8
0
  6
CONTINUOUS
 62
     2
 10
98.67442226492371
 20
75.69698973712917
 30
0.0
 11
95.64333257161583
 21
73.94699109313484
 31
0.0
  0
LINE
  5
349
  8
0
  6
CONTINUOUS
 62
     2
 10
101.7055000991256
 20
73.94698585908054
 30
0.0
 11
98.67441868199528
 21
75.69698350469389
 31
0.0
  0
LINE
  5
34A
  8
0
  6
CONTINUOUS
 62
     2
 10
95.64332119254179
 20
73.94699805347113
 30
0.0
 11
95.64332119254179
 21
70.44699805347113
 31
0.0
  0
LINE
  5
34B
  8
0
  6
CONTINUOUS
 62
     2
 10
95.64332499243157
 20
70.44698826871513
 30
0.0
 11
98.67441033903371
 21
68.69698975883171
 31
0.0
  0
LINE
  5
34C
  8
0
  6
CONTINUOUS
 62
     2
 10
98.67441168328024
 20
68.69699634611834
 30
0.0
 11
101.7055007507394
 21
70.44699603319396
 31
0.0
  0
LINE
  5
34D
  8
0
  6
CONTINUOUS
 62
     2
 10
101.7055160167605
 20
70.44699805347113
 30
0.0
 11
101.7055160167605
 21
73.94699805347113
 31
0.0
  0
LINE
  5
34E
  8
0
  6
CONTINUOUS
 62
     2
 10
98.67441276644261
 20
92.69697356144491
 30
0.0
 11
95.64332307313474
 21
90.94697491745058
 31
0.0
  0
LINE
  5
34F
  8
0
  6
CONTINUOUS
 62
     2
 10
101.7054929378989
 20
90.94698940221906
 30
0.0
 11
98.67440491352106
 21
92.69699086253286
 31
0.0
  0
LINE
  5
350
  8
0
  6
CONTINUOUS
 62
     2
 10
95.64332119254179
 20
90.94699805347113
 30
0.0
 11
95.64332119254179
 21
87.44699805347113
 31
0.0
  0
LINE
  5
351
  8
0
  6
CONTINUOUS
 62
     2
 10
95.64332513815627
 20
87.44698428183051
 30
0.0
 11
98.67441378838286
 21
85.696983864598
 31
0.0
  0
LINE
  5
352
  8
0
  6
CONTINUOUS
 62
     2
 10
98.67442222942201
 20
85.69699615574223
 30
0.0
 11
101.7055112968811
 21
87.44699584281784
 31
0.0
  0
LINE
  5
353
  8
0
  6
CONTINUOUS
 62
     2
 10
101.7055160167605
 20
87.44699805347113
 30
0.0
 11
101.7055160167605
 21
90.94699805347113
 31
0.0
  0
LINE
  5
354
  8
0
  6
CONTINUOUS
 62
     2
 10
62.92921331416891
 20
20.25948300268328
 30
0.0
 11
58.85889080743526
 21
17.90948696341263
 31
0.0
  0
LINE
  5
355
  8
0
  6
CONTINUOUS
 62
     2
 10
58.85889736441679
 20
17.90949194995551
 30
0.0
 11
58.85889736441679
 21
13.20949309436469
 31
0.0
  0
LINE
  5
356
  8
0
  6
CONTINUOUS
 62
     2
 10
58.85889457669275
 20
13.20949204528165
 30
0.0
 11
62.92920929753329
 21
10.85949020946077
 31
0.0
  0
LINE
  5
357
  8
0
  6
CONTINUOUS
 62
     2
 10
62.9292183354634
 20
10.85948931068742
 30
0.0
 11
66.99954084219705
 21
13.20948549002901
 31
0.0
  0
LINE
  5
358
  8
0
  6
CONTINUOUS
 62
     2
 10
66.99953762320585
 20
13.20948546497016
 30
0.0
 11
66.99953762320585
 21
17.90948432056098
 31
0.0
  0
LINE
  5
359
  8
0
  6
CONTINUOUS
 62
     2
 10
66.99953473734188
 20
17.9094837549253
 30
0.0
 11
62.92922113706793
 21
20.25948783187937
 31
0.0
  0
LINE
  5
35A
  8
0
  6
CONTINUOUS
 62
     2
 10
98.67441261242895
 20
-13.30301660593409
 30
0.0
 11
95.64332291912108
 21
-15.05301524992842
 31
0.0
  0
LINE
  5
35B
  8
0
  6
CONTINUOUS
 62
     2
 10
101.7055088996382
 20
-15.05300653874656
 30
0.0
 11
98.6744208752604
 21
-13.30300507843276
 31
0.0
  0
LINE
  5
35C
  8
0
  6
CONTINUOUS
 62
     2
 10
95.64333645133085
 20
-15.0530095759234
 30
0.0
 11
95.64333645133085
 21
-18.5530095759234
 31
0.0
  0
LINE
  5
35D
  8
0
  6
CONTINUOUS
 62
     2
 10
95.64331693671458
 20
-18.55300349027652
 30
0.0
 11
98.67440558694118
 21
-20.30300390750904
 31
0.0
  0
LINE
  5
35E
  8
0
  6
CONTINUOUS
 62
     2
 10
98.67442205973991
 20
-20.30300585819896
 30
0.0
 11
101.705511127199
 21
-18.55300617112334
 31
0.0
  0
LINE
  5
35F
  8
0
  6
CONTINUOUS
 62
     2
 10
101.7055007579715
 20
-18.5530095759234
 30
0.0
 11
101.7055007579715
 21
-15.0530095759234
 31
0.0
  0
LINE
  5
360
  8
0
  6
CONTINUOUS
 62
     2
 10
98.6744186441703
 20
3.696986095622151
 30
0.0
 11
95.64332895086243
 21
1.94698745162782
 31
0.0
  0
LINE
  5
361
  8
0
  6
CONTINUOUS
 62
     2
 10
101.7055149529066
 20
1.946989374991063
 30
0.0
 11
98.6744269285288
 21
3.69699083530486
 31
0.0
  0
LINE
  5
362
  8
0
  6
CONTINUOUS
 62
     2
 10
95.64333645133085
 20
1.946991377750919
 30
0.0
 11
95.64333645133085
 21
-1.55300886066766
 31
0.0
  0
LINE
  5
363
  8
0
  6
CONTINUOUS
 62
     2
 10
95.64331898978837
 20
-1.553004173536692
 30
0.0
 11
98.67440764001496
 21
-3.303004590769206
 31
0.0
  0
LINE
  5
364
  8
0
  6
CONTINUOUS
 62
     2
 10
98.67441939138205
 20
-3.303013677968238
 30
0.0
 11
101.7055084588412
 21
-1.553013990892623
 31
0.0
  0
LINE
  5
365
  8
0
  6
CONTINUOUS
 62
     2
 10
101.7055007579715
 20
-1.553010052760556
 30
0.0
 11
101.7055007579715
 21
1.946989231983707
 31
0.0
  0
CIRCLE
  5
366
  8
0
  6
CONTINUOUS
 62
     2
 10
98.67441860465117
 20
72.1969904240766
 30
0.0
 40
6.5
  0
CIRCLE
  5
367
  8
0
  6
CONTINUOUS
 62
     2
 10
98.67441860465117
 20
89.1969904240766
 30
0.0
 40
6.5
  0
CIRCLE
  5
368
  8
0
  6
CONTINUOUS
 62
     2
 10
62.92921749381132
 20
15.55948966113715
 30
0.0
 40
8.0
  0
CIRCLE
  5
369
  8
0
  6
CONTINUOUS
 62
     2
 10
98.67441860465117
 20
-16.8030095759234
 30
0.0
 40
6.5
  0
CIRCLE
  5
36A
  8
0
  6
CONTINUOUS
 62
     2
 10
98.67441860465117
 20
0.1969904240766027
 30
0.0
 40
6.5
  0
LINE
  5
36B
  8
0
  6
CONTINUOUS
 62
     5
 10
126.6548110607059
 20
68.7760919865766
 30
0.0
 11
126.6548110607059
 21
64.27608435718207
 31
0.0
  0
LINE
  5
36C
  8
0
  6
CONTINUOUS
 62
     5
 10
127.4047891826623
 20
68.02611659938043
 30
0.0
 11
126.6547937812667
 21
68.77611206399592
 31
0.0
  0
LINE
  5
36D
  8
0
  6
CONTINUOUS
 62
     5
 10
125.9048544850729
 20
68.02604958755069
 30
0.0
 11
126.6548606128408
 21
68.77605590498092
 31
0.0
  0
LINE
  5
36E
  8
0
  6
CONTINUOUS
 62
     5
 10
126.6548881558096
 20
64.27603475378032
 30
0.0
 11
127.4048942835774
 21
65.02604107121056
 31
0.0
  0
LINE
  5
36F
  8
0
  6
CONTINUOUS
 62
     5
 10
126.6547989864027
 20
64.27611249197867
 30
0.0
 11
125.904792795414
 21
65.0261187461881
 31
0.0
  0
LINE
  5
370
  8
0
  6
CONTINUOUS
 62
     5
 10
119.1547958019168
 20
69.52609961597113
 30
0.0
 11
134.1547958019168
 21
69.52609961597113
 31
0.0
  0
LINE
  5
371
  8
0
  6
CONTINUOUS
 62
     5
 10
128.5305939289496
 20
75.05315577370561
 30
0.0
 11
127.5561679833294
 21
74.89882200493662
 31
0.0
  0
LINE
  5
372
  8
0
  6
CONTINUOUS
 62
     5
 10
128.5306020566258
 20
75.05316860290554
 30
0.0
 11
128.3762704984451
 21
76.02757947759733
 31
0.0
  0
LINE
  5
373
  8
0
  6
CONTINUOUS
 62
     5
 10
134.1547958019168
 20
69.52610724536567
 30
0.0
 11
134.1547958019168
 21
77.02610724536567
 31
0.0
  0
LINE
  5
374
  8
0
  6
CONTINUOUS
 62
     5
 10
119.1547958019168
 20
77.0260919865766
 30
0.0
 11
134.1547958019168
 21
77.0260919865766
 31
0.0
  0
LINE
  5
375
  8
0
  6
CONTINUOUS
 62
     5
 10
119.1547958019168
 20
69.52609961597113
 30
0.0
 11
119.1547958019168
 21
80.77609961597113
 31
0.0
  0
LINE
  5
376
  8
0
  6
CONTINUOUS
 62
     5
 10
119.1547958019168
 20
80.77609961597113
 30
0.0
 11
121.4047958019168
 21
80.77609961597113
 31
0.0
  0
LINE
  5
377
  8
0
  6
CONTINUOUS
 62
     5
 10
121.4047958019168
 20
79.65108435718207
 30
0.0
 11
121.4047958019168
 21
80.77607672778754
 31
0.0
  0
LINE
  5
378
  8
0
  6
CONTINUOUS
 62
     5
 10
121.4047958019168
 20
79.6510919865766
 30
0.0
 11
122.9047958019168
 21
79.6510919865766
 31
0.0
  0
LINE
  5
379
  8
0
  6
CONTINUOUS
 62
     5
 10
122.9047805431277
 20
78.52609961597113
 30
0.0
 11
122.9047805431277
 21
79.65109961597113
 31
0.0
  0
LINE
  5
37A
  8
0
  6
CONTINUOUS
 62
     5
 10
122.9048110607059
 20
78.52608435718207
 30
0.0
 11
124.4048110607059
 21
78.52608435718207
 31
0.0
  0
LINE
  5
37B
  8
0
  6
CONTINUOUS
 62
     5
 10
124.4047805431277
 20
77.02609961597113
 30
0.0
 11
124.4047805431277
 21
78.52609961597113
 31
0.0
  0
LINE
  5
37C
  8
0
  6
CONTINUOUS
 62
     5
 10
125.9048368655444
 20
79.37635127606222
 30
0.0
 11
126.6548429933122
 21
80.12635759349246
 31
0.0
  0
LINE
  5
37D
  8
0
  6
CONTINUOUS
 62
     5
 10
123.6951705577762
 20
80.12635748950629
 30
0.0
 11
126.6547958019168
 21
80.12635748950629
 31
0.0
  0
LINE
  5
37E
  8
0
  6
CONTINUOUS
 62
     5
 10
126.6547996544411
 20
80.12637059413532
 30
0.0
 11
125.9048042530455
 21
80.87636605875082
 31
0.0
  0
ARC
  5
37F
  8
0
  6
CONTINUOUS
 62
     5
 10
126.6744186046512
 20
73.1969904240766
 30
0.0
 40
2.625001907348633
 50
45.00008662960371
 51
339.9999320525513
  0
TEXT
  5
380
  8
0
 62
     5
 10
146.9244186046512
 20
11.26664649812369
 30
0.0
 40
2.5
  1
F MAX    5KN
 50
90.0
 41
0.7991006611770902
  7
FDASTYLE1
 72
     5
 11
146.9244186046512
 21
41.78191428748755
 31
0.0
  0
TEXT
  5
381
  8
0
 62
     5
 10
150.9244186046512
 20
11.26664840547232
 30
0.0
 40
2.5
  1
ΣS MAX  18KN
 50
90.0
 41
0.8042452418121094
  7
FDASTYLE1
 72
     5
 11
150.9244186046512
 21
41.78191619483619
 31
0.0
  0
TEXT
  5
382
  8
0
 62
     5
 10
154.9244186046512
 20
11.26664459077506
 30
0.0
 40
2.5
  1
N MAX 7000 AT ΣS MAX
 50
90.0
 41
0.8037156284666045
  7
FDASTYLE1
 72
     5
 11
154.9244186046512
 21
62.6216068801084
 31
0.0
  0
TEXT
  5
383
  8
0
 62
     5
 10
124.7749129894168
 20
65.57208781806617
 30
0.0
 40
2.5
  1
F
 50
90.0
 41
0.8791213035583496
  7
FDASTYLE1
 72
     5
 11
124.7749129894168
 21
67.76989107696204
 31
0.0
  0
TEXT
  5
384
  8
0
 62
     5
 10
132.2940169933231
 20
73.3660727080503
 30
0.0
 40
2.5
  1
N min
 50
90.0
 41
0.7983872809842204
  7
FDASTYLE1
 72
     5
 11
132.2940169933231
 21
85.7410727080503
 31
0.0
  0
TEXT
  5
385
  8
0
 62
     5
 10
130.5151707294376
 20
86.30357203749804
 30
0.0
 40
1.25
  1
-1
 50
90.0
 41
0.7826089106345556
  7
FDASTYLE1
 72
     5
 11
130.5151707294376
 21
88.55357230571894
 31
0.0
  0
TEXT
  5
386
  8
0
 62
     5
 10
126.477366602698
 20
81.83035808173804
 30
0.0
 40
2.5
  1
ΣS
 50
90.0
 41
0.9590411728078695
  7
FDASTYLE1
 72
     5
 11
126.477366602698
 21
87.10508453218132
 31
0.0
  0
TEXT
  5
387
  8
0
 62
     5
 10
46.67441860465117
 20
64.62556260196357
 30
0.0
 40
4.0
  1
NIKKO
 50
-90.0
 41
0.7674421177096609
  7
FDASTYLE1
 72
     5
 11
46.67441860465117
 21
45.76841729251532
 31
0.0
  0
TEXT
  5
388
  8
0
 62
     5
 10
47.1744262340457
 20
25.26843481628089
 30
0.0
 40
3.0
  1
HF2-5
 50
-90.0
 41
0.7674421177096609
  7
FDASTYLE1
 72
     5
 11
47.1744262340457
 21
11.12557583419471
 31
0.0
  0
TEXT
  5
389
  8
0
 62
     5
 10
42.4244262340457
 20
25.08986317483573
 30
0.0
 40
2.5
  1
0001
 50
-90.0
 41
0.7647060613731588
  7
FDASTYLE1
 72
     5
 11
42.4244262340457
 21
15.80414872733741
 31
0.0
  0
INSERT
  5
38A
  8
0
  6
CONTINUOUS
  2
DA_IMAGEDIMGROUP_30
 10
0.0
 20
0.0
 30
0.0
  0
INSERT
  5
38B
  8
0
  6
CONTINUOUS
  2
DA_IMAGEDIMGROUP_31
 10
0.0
 20
0.0
 30
0.0
  0
INSERT
  5
38C
  8
0
  6
CONTINUOUS
  2
DC_GROUP_5
 10
0.0
 20
0.0
 30
0.0
  0
VIEWPORT
  5
48
 67
     1
  8
0
 10
0.0
 20
0.0
 30
0.0
 40
1152.0
 41
830.9999999999997
 68
     1
 69
     1
1001
ACAD
1000
MVIEW
1002
{
1070
    16
1010
0.0
1020
0.0
1030
0.0
1020
0.0
1030
0.0
1010
0.0
1020
0.0
1030
1.0
1020
0.0
1030
1.0
1040
0.0
1040
830.9999999999997
1040
0.0
1040
0.0
1040
50.0
1040
0.0
1040
0.0
1070
     0
1070
   100
1070
     0
1070
     1
1070
     0
1070
     0
1070
     0
1070
     0
1040
0.0
1040
0.0
1040
0.0
1040
0.5
1040
0.5
1040
0.0
1040
0.0
1070
     0
1002
{
1002
}
1002
}
  0
ENDSEC
  0
EOF
