  0
SECTION
  2
HEADER
  9
$ACADVER
  1
AC1009
  9
$DWGCODEPAGE
  3
ansi_932
  9
$INSBASE
 10
0.0
 20
0.0
 30
0.0
  9
$EXTMIN
 10
-576.0
 20
-415.4999999999997
 30
0.0
  9
$EXTMAX
 10
576.0
 20
415.4999999999997
 30
0.0
  9
$LIMMIN
 10
-210.0
 20
-148.5
  9
$LIMMAX
 10
210.0
 20
148.5
  9
$ORTHOMODE
 70
     0
  9
$REGENMODE
 70
     1
  9
$FILLMODE
 70
     1
  9
$QTEXTMODE
 70
     0
  9
$MIRRTEXT
 70
     1
  9
$DRAGMODE
 70
     2
  9
$LTSCALE
 40
1.0
  9
$OSMODE
 70
    37
  9
$ATTMODE
 70
     1
  9
$TEXTSIZE
 40
0.2
  9
$TRACEWID
 40
0.05
  9
$TEXTSTYLE
  7
STANDARD
  9
$CLAYER
  8
0
  9
$CELTYPE
  6
BYLAYER
  9
$CECOLOR
 62
   256
  9
$DIMSCALE
 40
1.0
  9
$DIMASZ
 40
2.5
  9
$DIMEXO
 40
0.0625
  9
$DIMDLI
 40
0.38
  9
$DIMRND
 40
0.0
  9
$DIMDLE
 40
0.0
  9
$DIMEXE
 40
0.18
  9
$DIMTP
 40
0.0
  9
$DIMTM
 40
0.0
  9
$DIMTXT
 40
0.18
  9
$DIMCEN
 40
0.09
  9
$DIMTSZ
 40
0.0
  9
$DIMTOL
 70
     0
  9
$DIMLIM
 70
     0
  9
$DIMTIH
 70
     1
  9
$DIMTOH
 70
     1
  9
$DIMSE1
 70
     0
  9
$DIMSE2
 70
     0
  9
$DIMTAD
 70
     3
  9
$DIMZIN
 70
     0
  9
$DIMBLK
  1

  9
$DIMASO
 70
     1
  9
$DIMSHO
 70
     1
  9
$DIMPOST
  1

  9
$DIMAPOST
  1

  9
$DIMALT
 70
     0
  9
$DIMALTD
 70
     2
  9
$DIMALTF
 40
25.4
  9
$DIMLFAC
 40
1.0
  9
$DIMTOFL
 70
     0
  9
$DIMTVP
 40
0.0
  9
$DIMTIX
 70
     0
  9
$DIMSOXD
 70
     0
  9
$DIMSAH
 70
     0
  9
$DIMBLK1
  1

  9
$DIMBLK2
  1

  9
$DIMSTYLE
  2
STANDARD
  9
$DIMCLRD
 70
     0
  9
$DIMCLRE
 70
     0
  9
$DIMCLRT
 70
     0
  9
$DIMTFAC
 40
1.0
  9
$DIMGAP
 40
0.09
  9
$LUNITS
 70
     2
  9
$LUPREC
 70
     4
  9
$SKETCHINC
 40
0.1
  9
$FILLETRAD
 40
0.5
  9
$AUNITS
 70
     0
  9
$AUPREC
 70
     0
  9
$MENU
  1
.
  9
$ELEVATION
 40
0.0
  9
$PELEVATION
 40
0.0
  9
$THICKNESS
 40
0.0
  9
$LIMCHECK
 70
     0
  9
$CHAMFERA
 40
0.5
  9
$CHAMFERB
 40
0.5
  9
$SKPOLY
 70
     0
  9
$TDCREATE
 40
2454876.634579178
  9
$TDUPDATE
 40
2454876.63457919
  9
$TDINDWG
 40
0.0000000116
  9
$TDUSRTIMER
 40
0.0000000116
  9
$USRTIMER
 70
     1
  9
$ANGBASE
 50
0.0
  9
$ANGDIR
 70
     0
  9
$PDMODE
 70
     0
  9
$PDSIZE
 40
1.0
  9
$PLINEWID
 40
0.0
  9
$COORDS
 70
     1
  9
$SPLFRAME
 70
     0
  9
$SPLINETYPE
 70
     6
  9
$SPLINESEGS
 70
     8
  9
$ATTDIA
 70
     0
  9
$ATTREQ
 70
     1
  9
$HANDLING
 70
     1
  9
$HANDSEED
  5
511
  9
$SURFTAB1
 70
     6
  9
$SURFTAB2
 70
     6
  9
$SURFTYPE
 70
     6
  9
$SURFU
 70
     6
  9
$SURFV
 70
     6
  9
$UCSNAME
  2

  9
$UCSORG
 10
0.0
 20
0.0
 30
0.0
  9
$UCSXDIR
 10
1.0
 20
0.0
 30
0.0
  9
$UCSYDIR
 10
0.0
 20
1.0
 30
0.0
  9
$PUCSNAME
  2

  9
$PUCSORG
 10
0.0
 20
0.0
 30
0.0
  9
$PUCSXDIR
 10
1.0
 20
0.0
 30
0.0
  9
$PUCSYDIR
 10
0.0
 20
1.0
 30
0.0
  9
$USERI1
 70
     0
  9
$USERI2
 70
     0
  9
$USERI3
 70
     0
  9
$USERI4
 70
     0
  9
$USERI5
 70
     0
  9
$USERR1
 40
0.0
  9
$USERR2
 40
0.0
  9
$USERR3
 40
0.0
  9
$USERR4
 40
0.0
  9
$USERR5
 40
0.0
  9
$WORLDVIEW
 70
     1
  9
$SHADEDGE
 70
     3
  9
$SHADEDIF
 70
    70
  9
$TILEMODE
 70
     1
  9
$MAXACTVP
 70
    64
  9
$PLIMCHECK
 70
     0
  9
$PEXTMIN
 10
1.000000000000000E+20
 20
1.000000000000000E+20
 30
1.000000000000000E+20
  9
$PEXTMAX
 10
-1.000000000000000E+20
 20
-1.000000000000000E+20
 30
-1.000000000000000E+20
  9
$PLIMMIN
 10
0.0
 20
0.0
  9
$PLIMMAX
 10
12.0
 20
9.0
  9
$UNITMODE
 70
     0
  9
$VISRETAIN
 70
     0
  9
$PLINEGEN
 70
     1
  9
$PSLTSCALE
 70
     0
  0
ENDSEC
  0
SECTION
  2
TABLES
  0
TABLE
  2
VPORT
 70
     1
  0
VPORT
  2
*ACTIVE
 70
     0
 10
0.0
 20
0.0
 11
1.0
 21
1.0
 12
0.0
 22
0.0
 13
0.0
 23
0.0
 14
0.5
 24
0.5
 15
0.5
 25
0.5
 16
0.0
 26
0.0
 36
1.0
 17
-0.0000000000000036
 27
0.0
 37
0.0
 40
282.5399999999998
 41
1.386281588447655
 42
50.0
 43
0.0
 44
0.0
 50
0.0
 51
0.0
 71
     0
 72
  1000
 73
     1
 74
     1
 75
     0
 76
     0
 77
     0
 78
     0
  0
ENDTAB
  0
TABLE
  2
LTYPE
 70
    28
  0
LTYPE
  2
CONTINUOUS
 70
     0
  3
Solid line
 72
    65
 73
     0
 40
0.0
  0
LTYPE
  2
HIDDENX2
 70
     0
  3
CADPAC LINETYPE
 72
    65
 73
     2
 40
2.18392977455926
 49
1.637947330919445
 49
-0.5459824436398151
  0
LTYPE
  2
HIDDEN
 70
     0
  3
CADPAC LINETYPE
 72
    65
 73
     2
 40
1.637947330919445
 49
1.09196488727963
 49
-0.5459824436398151
  0
LTYPE
  2
HIDDEN2
 70
     0
  3
CADPAC LINETYPE
 72
    65
 73
     2
 40
1.364956109099538
 49
0.8189736654597226
 49
-0.5459824436398151
  0
LTYPE
  2
DASHED
 70
     0
  3
CADPAC LINETYPE
 72
    65
 73
     2
 40
1.528750842191442
 49
1.09196488727963
 49
-0.4367859549118123
  0
LTYPE
  2
DASHED2
 70
     0
  3
CADPAC LINETYPE
 72
    65
 73
     2
 40
0.9827683985516273
 49
0.655178932367761
 49
-0.3275894661838663
  0
LTYPE
  2
DASHEDX2
 70
     0
  3
CADPAC LINETYPE
 72
    65
 73
     2
 40
2.620715729471073
 49
2.18392977455926
 49
-0.4367859549118123
  0
LTYPE
  2
DOTX2
 70
     0
  3
CADPAC LINETYPE
 72
    65
 73
     2
 40
0.9554692763696693
 49
0.0
 49
-0.9554692763696693
  0
LTYPE
  2
DOT
 70
     0
  3
CADPAC LINETYPE
 72
    65
 73
     2
 40
0.7643754210957354
 49
0.0
 49
-0.7643754210957354
  0
LTYPE
  2
DOT2
 70
     0
  3
CADPAC LINETYPE
 72
    65
 73
     2
 40
0.5732815658218016
 49
0.0
 49
-0.5732815658218016
  0
LTYPE
  2
CENTERX2
 70
     0
  3
CADPAC LINETYPE
 72
    65
 73
     4
 40
3.27589466183889
 49
1.364956109099538
 49
-0.6824780545497688
 49
0.5459824436398151
 49
-0.6824780545497688
  0
LTYPE
  2
CENTER
 70
     0
  3
CADPAC LINETYPE
 72
    65
 73
     4
 40
2.511519240743149
 49
1.09196488727963
 49
-0.5459824436398151
 49
0.327589466183889
 49
-0.5459824436398151
  0
LTYPE
  2
CENTER2
 70
     0
  3
CADPAC LINETYPE
 72
    65
 73
     4
 40
1.747143819647408
 49
0.8189736654597226
 49
-0.4094868327298613
 49
0.109196488727963
 49
-0.4094868327298613
  0
LTYPE
  2
DASHDOTX2
 70
     0
  3
CADPAC LINETYPE
 72
    65
 73
     4
 40
5.241431458942145
 49
2.620715729471101
 49
-0.8735719098236814
 49
0.8735719098236814
 49
-0.8735719098236814
  0
LTYPE
  2
DASHDOT
 70
     0
  3
CADPAC LINETYPE
 72
    65
 73
     4
 40
2.620715729470987
 49
1.310357864735551
 49
-0.4367859549118123
 49
0.4367859549118123
 49
-0.4367859549118123
  0
LTYPE
  2
DASHDOT2
 70
     0
  3
CADPAC LINETYPE
 72
    65
 73
     4
 40
1.681625926410562
 49
0.9827683985516629
 49
-0.3275894661838592
 49
0.0436785954911812
 49
-0.3275894661838592
  0
LTYPE
  2
DIVIDEX2
 70
     0
  3
CADPAC LINETYPE
 72
    65
 73
     6
 40
6.988575278589508
 49
2.620715729471101
 49
-0.8735719098236814
 49
0.8735719098236814
 49
-0.8735719098236814
 49
0.8735719098236814
 49
-0.8735719098236814
  0
LTYPE
  2
DIVIDE
 70
     0
  3
CADPAC LINETYPE
 72
    65
 73
     6
 40
3.494287639294612
 49
1.310357864735551
 49
-0.4367859549118123
 49
0.4367859549118123
 49
-0.4367859549118123
 49
0.4367859549118123
 49
-0.4367859549118123
  0
LTYPE
  2
DIVIDE2
 70
     0
  3
CADPAC LINETYPE
 72
    65
 73
     6
 40
2.620715729470959
 49
0.9827683985516629
 49
-0.3275894661838592
 49
0.3275894661838592
 49
-0.3275894661838592
 49
0.3275894661838592
 49
-0.3275894661838592
  0
LTYPE
  2
BORDERX2
 70
     0
  3
CADPAC LINETYPE
 72
    65
 73
     6
 40
4.777346381848382
 49
1.364956109099538
 49
-0.6824780545497688
 49
1.364956109099538
 49
-0.6824780545497688
 49
0.0
 49
-0.6824780545497688
  0
LTYPE
  2
BORDER
 70
     0
  3
CADPAC LINETYPE
 72
    65
 73
     6
 40
3.821877105478706
 49
1.09196488727963
 49
-0.5459824436398151
 49
1.09196488727963
 49
-0.5459824436398151
 49
0.0
 49
-0.5459824436398151
  0
LTYPE
  2
BORDER2
 70
     0
  3
CADPAC LINETYPE
 72
    65
 73
     6
 40
2.839108706926993
 49
0.8735719098236814
 49
-0.5459824436398151
 49
0.3275894661838663
 49
-0.5459824436398151
 49
0.0
 49
-0.5459824436398151
  0
LTYPE
  2
PHANTOMX2
 70
     0
  3
CADPAC LINETYPE
 72
    65
 73
     6
 40
4.094868327298613
 49
1.364956109099538
 49
-0.5459824436398151
 49
0.5459824436398151
 49
-0.5459824436398151
 49
0.5459824436398151
 49
-0.5459824436398151
  0
LTYPE
  2
PHANTOM
 70
     0
  3
CADPAC LINETYPE
 72
    65
 73
     6
 40
3.385091150566853
 49
1.09196488727963
 49
-0.5459824436398151
 49
0.327589466183889
 49
-0.5459824436398151
 49
0.327589466183889
 49
-0.5459824436398151
  0
LTYPE
  2
PHANTOM2
 70
     0
  3
CADPAC LINETYPE
 72
    65
 73
     6
 40
2.89370695129102
 49
0.8189736654597226
 49
-0.5459824436398151
 49
0.218392977455926
 49
-0.5459824436398151
 49
0.218392977455926
 49
-0.5459824436398151
  0
LTYPE
  2
ACAD_ISO06W100
 70
     0
  3
CADPAC LINETYPE
 72
    65
 73
     8
 40
5.78741390258196
 49
2.620715729471101
 49
-0.5459824436398151
 49
0.3275894661838663
 49
-0.5459824436398151
 49
0.3275894661838663
 49
-0.5459824436398151
 49
0.3275894661838663
 49
-0.5459824436398151
  0
LTYPE
  2
ACAD_ISO13W100
 70
     0
  3
CADPAC LINETYPE
 72
    65
 73
     8
 40
4.367859549118521
 49
1.09196488727963
 49
-0.5459824436398151
 49
1.09196488727963
 49
-0.5459824436398151
 49
0.0
 49
-0.5459824436398151
 49
0.0
 49
-0.5459824436398151
  0
LTYPE
  2
ACAD_ISO14W100
 70
     0
  3
CADPAC LINETYPE
 72
    65
 73
     8
 40
3.27589466183889
 49
1.09196488727963
 49
-0.5459824436398151
 49
0.0
 49
-0.5459824436398151
 49
0.0
 49
-0.5459824436398151
 49
0.0
 49
-0.5459824436398151
  0
ENDTAB
  0
TABLE
  2
LAYER
 70
     3
  0
LAYER
  2
0
 70
     0
 62
     7
  6
CONTINUOUS
  0
LAYER
  2
LAYER0001
 70
     0
 62
     7
  6
CONTINUOUS
  0
LAYER
  2
LAYER0002
 70
     0
 62
     7
  6
CONTINUOUS
  0
ENDTAB
  0
TABLE
  2
STYLE
 70
     5
  0
STYLE
  2
STANDARD
 70
     0
 40
0.0
 41
1.0
 50
0.0
 71
     0
 42
0.2
  3
txt
  4

  0
STYLE
  2
FDASTYLE1
 70
     0
 40
4.0
 41
0.6213017751479295
 50
0.0
 71
     0
 42
0.2
  3
txt.shx
  4
bigfont
  0
STYLE
  2
FDASTYLE0
 70
     4
 40
2.44248928
 41
0.8
 50
0.0
 71
     0
 42
0.2
  3
txt.shx
  4
bigfont
  0
STYLE
  2
FDASTYLE2
 70
     0
 40
7.0
 41
0.8123476848090984
 50
0.0
 71
     0
 42
0.2
  3
MSMINCHO.TTC
  4

  0
STYLE
  2
FDASTYLE3
 70
     0
 40
8.0
 41
0.6735119538334705
 50
0.0
 71
     0
 42
0.2
  3
MSGOTHIC.TTC
  4

  0
ENDTAB
  0
TABLE
  2
VIEW
 70
     0
  0
ENDTAB
  0
TABLE
  2
UCS
 70
     0
  0
ENDTAB
  0
TABLE
  2
APPID
 70
     2
  0
APPID
  2
ACAD
 70
     0
  0
APPID
  2
DAFUSIONOUT
 70
     0
  0
ENDTAB
  0
TABLE
  2
DIMSTYLE
 70
     1
  0
DIMSTYLE
  2
STANDARD
 70
     0
  3

  4

  5

  6

  7

 40
1.0
 41
0.18
 42
0.0625
 43
0.38
 44
0.18
 45
0.0
 46
0.0
 47
0.0
 48
0.0
140
0.18
141
0.09
142
0.0
143
25.4
144
1.0
145
0.0
146
1.0
147
0.09
 71
     0
 72
     0
 73
     1
 74
     1
 75
     0
 76
     0
 77
     0
 78
     0
170
     0
171
     2
172
     0
173
     0
174
     0
175
     0
176
     0
177
     0
178
     0
  0
ENDTAB
  0
ENDSEC
  0
SECTION
  2
BLOCKS
  0
BLOCK
  8
0
  2
$MODEL_SPACE
 70
     0
 10
0.0
 20
0.0
 30
0.0
  3
$MODEL_SPACE
  1

  0
ENDBLK
  5
21
  8
0
  0
BLOCK
 67
     1
  8
0
  2
$PAPER_SPACE
 70
     0
 10
0.0
 20
0.0
 30
0.0
  3
$PAPER_SPACE
  1

  0
ENDBLK
  5
1D
 67
     1
  8
0
  0
BLOCK
  8
0
  2
DC_GROUP_1
 70
     0
 10
0.0
 20
0.0
 30
0.0
  3
DC_GROUP_1
  1

  0
LINE
  5
166
  8
LAYER0001
  6
CONTINUOUS
 62
     7
 10
-109.5292789738659
 20
78.40076386879501
 30
0.0
 11
-151.3226072209362
 21
78.40076386879501
 31
0.0
  0
LINE
  5
167
  8
LAYER0001
  6
CONTINUOUS
 62
     7
 10
-108.3343803167125
 20
-6.599236131204989
 30
0.0
 11
-151.3226072209362
 21
-6.599236131204989
 31
0.0
  0
LINE
  5
168
  8
LAYER0001
  6
CONTINUOUS
 62
     7
 10
-150.3226072209362
 20
78.40076386879501
 30
0.0
 11
-150.3226072209362
 21
-6.599236131204989
 31
0.0
  0
INSERT
  5
169
  8
LAYER0001
  6
CONTINUOUS
  2
DC_GROUP_2
 10
0.0
 20
0.0
 30
0.0
  0
INSERT
  5
16A
  8
LAYER0001
  6
CONTINUOUS
  2
DC_GROUP_3
 10
0.0
 20
0.0
 30
0.0
  0
TEXT
  5
16C
  8
LAYER0001
 62
     7
 10
-151.3226072209362
 20
27.90076386879501
 30
0.0
 40
4.0
  1
φ85H7
 50
90.0
 41
0.6213017751479295
  7
FDASTYLE1
 72
     5
 11
-151.3226072209362
 21
40.82384079187195
 31
0.0
  0
ENDBLK
  5
4E
  8
0
  0
BLOCK
  8
0
  2
DC_GROUP_2
 70
     0
 10
0.0
 20
0.0
 30
0.0
  3
DC_GROUP_2
  1

  0
LINE
  5
16D
  8
LAYER0001
  6
CONTINUOUS
 62
     7
 10
-150.8585067558338
 20
76.40076546116436
 30
0.0
 11
-150.3226072209362
 21
78.40076386879501
 31
0.0
  0
LINE
  5
16E
  8
LAYER0001
  6
CONTINUOUS
 62
     7
 10
-150.3226072209362
 20
78.40076386879501
 30
0.0
 11
-149.7867076860386
 21
76.40076546116436
 31
0.0
  0
LINE
  5
16F
  8
LAYER0001
  6
CONTINUOUS
 62
     7
 10
-150.3226072209362
 20
78.40076386879501
 30
0.0
 11
-150.3226072209362
 21
76.40076546116436
 31
0.0
  0
ENDBLK
  5
51
  8
0
  0
BLOCK
  8
0
  2
DC_GROUP_3
 70
     0
 10
0.0
 20
0.0
 30
0.0
  3
DC_GROUP_3
  1

  0
LINE
  5
170
  8
LAYER0001
  6
CONTINUOUS
 62
     7
 10
-149.7867076860386
 20
-4.599237723574327
 30
0.0
 11
-150.3226072209362
 21
-6.599236131204989
 31
0.0
  0
LINE
  5
171
  8
LAYER0001
  6
CONTINUOUS
 62
     7
 10
-150.3226072209362
 20
-6.599236131204989
 30
0.0
 11
-150.8585067558338
 21
-4.599237723574327
 31
0.0
  0
LINE
  5
172
  8
LAYER0001
  6
CONTINUOUS
 62
     7
 10
-150.3226072209362
 20
-6.599236131204989
 30
0.0
 11
-150.3226072209362
 21
-4.599237723574327
 31
0.0
  0
ENDBLK
  5
54
  8
0
  0
BLOCK
  8
0
  2
DC_GROUP_4
 70
     0
 10
0.0
 20
0.0
 30
0.0
  3
DC_GROUP_4
  1

  0
LINE
  5
173
  8
LAYER0001
  6
CONTINUOUS
 62
     7
 10
-108.5292789738659
 20
54.40076386879501
 30
0.0
 11
-141.3226072209362
 21
54.40076386879501
 31
0.0
  0
LINE
  5
174
  8
LAYER0001
  6
CONTINUOUS
 62
     7
 10
-108.5292789738659
 20
17.40076386879501
 30
0.0
 11
-141.3226072209362
 21
17.40076386879501
 31
0.0
  0
LINE
  5
175
  8
LAYER0001
  6
CONTINUOUS
 62
     7
 10
-140.3226072209362
 20
54.40076386879501
 30
0.0
 11
-140.3226072209362
 21
17.40076386879501
 31
0.0
  0
INSERT
  5
176
  8
LAYER0001
  6
CONTINUOUS
  2
DC_GROUP_5
 10
0.0
 20
0.0
 30
0.0
  0
INSERT
  5
177
  8
LAYER0001
  6
CONTINUOUS
  2
DC_GROUP_6
 10
0.0
 20
0.0
 30
0.0
  0
TEXT
  5
178
  8
LAYER0001
 62
     7
 10
-141.3226072209362
 20
27.90076386879501
 30
0.0
 40
4.0
  1
φ37H7
 50
90.0
 41
0.6213017751479295
  7
FDASTYLE1
 72
     5
 11
-141.3226072209362
 21
40.82384079187195
 31
0.0
  0
ENDBLK
  5
57
  8
0
  0
BLOCK
  8
0
  2
DC_GROUP_5
 70
     0
 10
0.0
 20
0.0
 30
0.0
  3
DC_GROUP_5
  1

  0
LINE
  5
179
  8
LAYER0001
  6
CONTINUOUS
 62
     7
 10
-140.8585067558338
 20
52.40076546116436
 30
0.0
 11
-140.3226072209362
 21
54.40076386879501
 31
0.0
  0
LINE
  5
17A
  8
LAYER0001
  6
CONTINUOUS
 62
     7
 10
-140.3226072209362
 20
54.40076386879501
 30
0.0
 11
-139.7867076860386
 21
52.40076546116436
 31
0.0
  0
LINE
  5
17B
  8
LAYER0001
  6
CONTINUOUS
 62
     7
 10
-140.3226072209362
 20
54.40076386879501
 30
0.0
 11
-140.3226072209362
 21
52.40076546116436
 31
0.0
  0
ENDBLK
  5
5A
  8
0
  0
BLOCK
  8
0
  2
DC_GROUP_6
 70
     0
 10
0.0
 20
0.0
 30
0.0
  3
DC_GROUP_6
  1

  0
LINE
  5
17C
  8
LAYER0001
  6
CONTINUOUS
 62
     7
 10
-139.7867076860386
 20
19.40076227642567
 30
0.0
 11
-140.3226072209362
 21
17.40076386879501
 31
0.0
  0
LINE
  5
17D
  8
LAYER0001
  6
CONTINUOUS
 62
     7
 10
-140.3226072209362
 20
17.40076386879501
 30
0.0
 11
-140.8585067558338
 21
19.40076227642567
 31
0.0
  0
LINE
  5
17E
  8
LAYER0001
  6
CONTINUOUS
 62
     7
 10
-140.3226072209362
 20
17.40076386879501
 30
0.0
 11
-140.3226072209362
 21
19.40076227642567
 31
0.0
  0
ENDBLK
  5
5D
  8
0
  0
BLOCK
  8
0
  2
DC_GROUP_7
 70
     0
 10
0.0
 20
0.0
 30
0.0
  3
DC_GROUP_7
  1

  0
LINE
  5
17F
  8
LAYER0001
  6
CONTINUOUS
 62
     7
 10
-102.7892820256237
 20
-19.13923613120499
 30
0.0
 11
-102.7892820256237
 21
-45.09923613120499
 31
0.0
  0
LINE
  5
180
  8
LAYER0001
  6
CONTINUOUS
 62
     7
 10
-52.9892789738659
 20
-27.63923613120499
 30
0.0
 11
-52.9892789738659
 21
-45.09923613120499
 31
0.0
  0
LINE
  5
181
  8
LAYER0001
  6
CONTINUOUS
 62
     7
 10
-102.7892820256237
 20
-44.09923613120499
 30
0.0
 11
-52.9892789738659
 21
-44.09923613120499
 31
0.0
  0
INSERT
  5
182
  8
LAYER0001
  6
CONTINUOUS
  2
DC_GROUP_8
 10
0.0
 20
0.0
 30
0.0
  0
INSERT
  5
183
  8
LAYER0001
  6
CONTINUOUS
  2
DC_GROUP_9
 10
0.0
 20
0.0
 30
0.0
  0
TEXT
  5
184
  8
LAYER0001
 62
     7
 10
-84.28928049974482
 20
-43.09923613120499
 30
0.0
 40
4.0
  1
49.8
 41
0.60952380952381
  7
FDASTYLE1
 72
     5
 11
-74.53689954736386
 21
-43.09923613120499
 31
0.0
  0
ENDBLK
  5
60
  8
0
  0
BLOCK
  8
0
  2
DC_GROUP_8
 70
     0
 10
0.0
 20
0.0
 30
0.0
  3
DC_GROUP_8
  1

  0
LINE
  5
185
  8
LAYER0001
  6
CONTINUOUS
 62
     7
 10
-100.789283617993
 20
-44.63513566610261
 30
0.0
 11
-102.7892820256237
 21
-44.09923613120499
 31
0.0
  0
LINE
  5
186
  8
LAYER0001
  6
CONTINUOUS
 62
     7
 10
-102.7892820256237
 20
-44.09923613120499
 30
0.0
 11
-100.789283617993
 21
-43.56333659630738
 31
0.0
  0
LINE
  5
187
  8
LAYER0001
  6
CONTINUOUS
 62
     7
 10
-102.7892820256237
 20
-44.09923613120499
 30
0.0
 11
-100.789283617993
 21
-44.09923613120499
 31
0.0
  0
ENDBLK
  5
63
  8
0
  0
BLOCK
  8
0
  2
DC_GROUP_9
 70
     0
 10
0.0
 20
0.0
 30
0.0
  3
DC_GROUP_9
  1

  0
LINE
  5
188
  8
LAYER0001
  6
CONTINUOUS
 62
     7
 10
-54.98927738149656
 20
-43.56333659630738
 30
0.0
 11
-52.9892789738659
 21
-44.09923613120499
 31
0.0
  0
LINE
  5
189
  8
LAYER0001
  6
CONTINUOUS
 62
     7
 10
-52.9892789738659
 20
-44.09923613120499
 30
0.0
 11
-54.98927738149656
 21
-44.63513566610261
 31
0.0
  0
LINE
  5
18A
  8
LAYER0001
  6
CONTINUOUS
 62
     7
 10
-52.9892789738659
 20
-44.09923613120499
 30
0.0
 11
-54.98927738149656
 21
-44.09923613120499
 31
0.0
  0
ENDBLK
  5
66
  8
0
  0
BLOCK
  8
0
  2
DC_GROUP_10
 70
     0
 10
0.0
 20
0.0
 30
0.0
  3
DC_GROUP_10
  1

  0
LINE
  5
18B
  8
LAYER0001
  6
CONTINUOUS
 62
     7
 10
-109.5292789738659
 20
88.40076386879501
 30
0.0
 11
-161.3226072209362
 21
88.40076386879501
 31
0.0
  0
LINE
  5
18C
  8
LAYER0001
  6
CONTINUOUS
 62
     7
 10
-108.6107839288052
 20
-16.59923613120499
 30
0.0
 11
-161.3226072209362
 21
-16.59923613120499
 31
0.0
  0
LINE
  5
18D
  8
LAYER0001
  6
CONTINUOUS
 62
     7
 10
-160.3226072209362
 20
88.40076386879501
 30
0.0
 11
-160.3226072209362
 21
-16.59923613120499
 31
0.0
  0
INSERT
  5
18E
  8
LAYER0001
  6
CONTINUOUS
  2
DC_GROUP_11
 10
0.0
 20
0.0
 30
0.0
  0
INSERT
  5
18F
  8
LAYER0001
  6
CONTINUOUS
  2
DC_GROUP_12
 10
0.0
 20
0.0
 30
0.0
  0
TEXT
  5
190
  8
LAYER0001
 62
     7
 10
-161.3226072209362
 20
29.50076386879501
 30
0.0
 40
4.0
  1
φ105
 50
90.0
 41
0.6167800453514749
  7
FDASTYLE1
 72
     5
 11
-161.3226072209362
 21
39.86266863069979
 31
0.0
  0
ENDBLK
  5
69
  8
0
  0
BLOCK
  8
0
  2
DC_GROUP_11
 70
     0
 10
0.0
 20
0.0
 30
0.0
  3
DC_GROUP_11
  1

  0
LINE
  5
191
  8
LAYER0001
  6
CONTINUOUS
 62
     7
 10
-160.8585067558338
 20
86.40076546116436
 30
0.0
 11
-160.3226072209362
 21
88.40076386879501
 31
0.0
  0
LINE
  5
192
  8
LAYER0001
  6
CONTINUOUS
 62
     7
 10
-160.3226072209362
 20
88.40076386879501
 30
0.0
 11
-159.7867076860386
 21
86.40076546116436
 31
0.0
  0
LINE
  5
193
  8
LAYER0001
  6
CONTINUOUS
 62
     7
 10
-160.3226072209362
 20
88.40076386879501
 30
0.0
 11
-160.3226072209362
 21
86.40076546116436
 31
0.0
  0
ENDBLK
  5
6C
  8
0
  0
BLOCK
  8
0
  2
DC_GROUP_12
 70
     0
 10
0.0
 20
0.0
 30
0.0
  3
DC_GROUP_12
  1

  0
LINE
  5
194
  8
LAYER0001
  6
CONTINUOUS
 62
     7
 10
-159.7867076860386
 20
-14.59923772357432
 30
0.0
 11
-160.3226072209362
 21
-16.59923613120499
 31
0.0
  0
LINE
  5
195
  8
LAYER0001
  6
CONTINUOUS
 62
     7
 10
-160.3226072209362
 20
-16.59923613120499
 30
0.0
 11
-160.8585067558338
 21
-14.59923772357432
 31
0.0
  0
LINE
  5
196
  8
LAYER0001
  6
CONTINUOUS
 62
     7
 10
-160.3226072209362
 20
-16.59923613120499
 30
0.0
 11
-160.3226072209362
 21
-14.59923772357432
 31
0.0
  0
ENDBLK
  5
6F
  8
0
  0
BLOCK
  8
0
  2
DC_GROUP_13
 70
     0
 10
0.0
 20
0.0
 30
0.0
  3
DC_GROUP_13
  1

  0
LINE
  5
197
  8
LAYER0001
  6
CONTINUOUS
 62
     7
 10
-106.9892789738659
 20
-29.13923613120499
 30
0.0
 11
-106.9892789738659
 21
-45.09923613120499
 31
0.0
  0
LINE
  5
198
  8
LAYER0001
  6
CONTINUOUS
 62
     7
 10
-102.7892820256237
 20
-9.139236131204989
 30
0.0
 11
-102.7892820256237
 21
-45.09923613120499
 31
0.0
  0
LINE
  5
199
  8
LAYER0001
  6
CONTINUOUS
 62
     7
 10
-106.9892789738659
 20
-44.09923613120499
 30
0.0
 11
-102.7892820256237
 21
-44.09923613120499
 31
0.0
  0
LINE
  5
19A
  8
LAYER0001
  6
CONTINUOUS
 62
     7
 10
-121.2831189021761
 20
-44.09923613120499
 30
0.0
 11
-106.9892789738659
 21
-44.09923613120499
 31
0.0
  0
LINE
  5
19B
  8
LAYER0001
  6
CONTINUOUS
 62
     7
 10
-97.78928202562372
 20
-44.09923613120499
 30
0.0
 11
-102.7892820256237
 21
-44.09923613120499
 31
0.0
  0
INSERT
  5
19C
  8
LAYER0001
  6
CONTINUOUS
  2
DC_GROUP_14
 10
0.0
 20
0.0
 30
0.0
  0
INSERT
  5
19D
  8
LAYER0001
  6
CONTINUOUS
  2
DC_GROUP_15
 10
0.0
 20
0.0
 30
0.0
  0
TEXT
  5
19E
  8
LAYER0001
 62
     7
 10
-120.2831189021761
 20
-43.09923613120499
 30
0.0
 40
4.0
  1
4.2
 41
0.5587301587301591
  7
FDASTYLE1
 72
     5
 11
-113.5783569974142
 21
-43.09923613120499
 31
0.0
  0
ENDBLK
  5
72
  8
0
  0
BLOCK
  8
0
  2
DC_GROUP_14
 70
     0
 10
0.0
 20
0.0
 30
0.0
  3
DC_GROUP_14
  1

  0
LINE
  5
19F
  8
LAYER0001
  6
CONTINUOUS
 62
     7
 10
-108.9892773814966
 20
-43.56333659630738
 30
0.0
 11
-106.9892789738659
 21
-44.09923613120499
 31
0.0
  0
LINE
  5
1A0
  8
LAYER0001
  6
CONTINUOUS
 62
     7
 10
-106.9892789738659
 20
-44.09923613120499
 30
0.0
 11
-108.9892773814966
 21
-44.63513566610261
 31
0.0
  0
LINE
  5
1A1
  8
LAYER0001
  6
CONTINUOUS
 62
     7
 10
-106.9892789738659
 20
-44.09923613120499
 30
0.0
 11
-108.9892773814966
 21
-44.09923613120499
 31
0.0
  0
ENDBLK
  5
75
  8
0
  0
BLOCK
  8
0
  2
DC_GROUP_15
 70
     0
 10
0.0
 20
0.0
 30
0.0
  3
DC_GROUP_15
  1

  0
LINE
  5
1A2
  8
LAYER0001
  6
CONTINUOUS
 62
     7
 10
-100.789283617993
 20
-44.63513566610261
 30
0.0
 11
-102.7892820256237
 21
-44.09923613120499
 31
0.0
  0
LINE
  5
1A3
  8
LAYER0001
  6
CONTINUOUS
 62
     7
 10
-102.7892820256237
 20
-44.09923613120499
 30
0.0
 11
-100.789283617993
 21
-43.56333659630738
 31
0.0
  0
LINE
  5
1A4
  8
LAYER0001
  6
CONTINUOUS
 62
     7
 10
-102.7892820256237
 20
-44.09923613120499
 30
0.0
 11
-100.789283617993
 21
-44.09923613120499
 31
0.0
  0
ENDBLK
  5
78
  8
0
  0
BLOCK
  8
0
  2
DC_GROUP_16
 70
     0
 10
0.0
 20
0.0
 30
0.0
  3
DC_GROUP_16
  1

  0
LINE
  5
1A5
  8
LAYER0001
  6
CONTINUOUS
 62
     7
 10
-106.9892789738659
 20
-17.98998822143691
 30
0.0
 11
-106.9892789738659
 21
-55.09923613120499
 31
0.0
  0
LINE
  5
1A6
  8
LAYER0001
  6
CONTINUOUS
 62
     7
 10
-52.9892789738659
 20
-16.59923613120499
 30
0.0
 11
-52.9892789738659
 21
-55.09923613120499
 31
0.0
  0
LINE
  5
1A7
  8
LAYER0001
  6
CONTINUOUS
 62
     7
 10
-106.9892789738659
 20
-54.09923613120499
 30
0.0
 11
-52.9892789738659
 21
-54.09923613120499
 31
0.0
  0
INSERT
  5
1A8
  8
LAYER0001
  6
CONTINUOUS
  2
DC_GROUP_17
 10
0.0
 20
0.0
 30
0.0
  0
INSERT
  5
1A9
  8
LAYER0001
  6
CONTINUOUS
  2
DC_GROUP_18
 10
0.0
 20
0.0
 30
0.0
  0
TEXT
  5
1AA
  8
LAYER0001
 62
     7
 10
-83.18927897386591
 20
-53.09923613120499
 30
0.0
 40
4.0
  1
54
 41
0.6666666666666679
  7
FDASTYLE1
 72
     5
 11
-77.85594564053257
 21
-53.09923613120499
 31
0.0
  0
ENDBLK
  5
7B
  8
0
  0
BLOCK
  8
0
  2
DC_GROUP_17
 70
     0
 10
0.0
 20
0.0
 30
0.0
  3
DC_GROUP_17
  1

  0
LINE
  5
1AB
  8
LAYER0001
  6
CONTINUOUS
 62
     7
 10
-104.9892805662352
 20
-54.6351356661026
 30
0.0
 11
-106.9892789738659
 21
-54.09923613120499
 31
0.0
  0
LINE
  5
1AC
  8
LAYER0001
  6
CONTINUOUS
 62
     7
 10
-106.9892789738659
 20
-54.09923613120499
 30
0.0
 11
-104.9892805662352
 21
-53.56333659630738
 31
0.0
  0
LINE
  5
1AD
  8
LAYER0001
  6
CONTINUOUS
 62
     7
 10
-106.9892789738659
 20
-54.09923613120499
 30
0.0
 11
-104.9892805662352
 21
-54.09923613120499
 31
0.0
  0
ENDBLK
  5
7E
  8
0
  0
BLOCK
  8
0
  2
DC_GROUP_18
 70
     0
 10
0.0
 20
0.0
 30
0.0
  3
DC_GROUP_18
  1

  0
LINE
  5
1AE
  8
LAYER0001
  6
CONTINUOUS
 62
     7
 10
-54.98927738149656
 20
-53.56333659630738
 30
0.0
 11
-52.9892789738659
 21
-54.09923613120499
 31
0.0
  0
LINE
  5
1AF
  8
LAYER0001
  6
CONTINUOUS
 62
     7
 10
-52.9892789738659
 20
-54.09923613120499
 30
0.0
 11
-54.98927738149656
 21
-54.6351356661026
 31
0.0
  0
LINE
  5
1B0
  8
LAYER0001
  6
CONTINUOUS
 62
     7
 10
-52.9892789738659
 20
-54.09923613120499
 30
0.0
 11
-54.98927738149656
 21
-54.09923613120499
 31
0.0
  0
ENDBLK
  5
81
  8
0
  0
BLOCK
  8
0
  2
DC_GROUP_19
 70
     0
 10
0.0
 20
0.0
 30
0.0
  3
DC_GROUP_19
  1

  0
LINE
  5
1B1
  8
LAYER0001
  6
CONTINUOUS
 62
     7
 10
-80.23841578823323
 20
49.90076386879501
 30
0.0
 11
-131.3226072209362
 21
49.90076386879501
 31
0.0
  0
LINE
  5
1B2
  8
LAYER0001
  6
CONTINUOUS
 62
     7
 10
-80.40508387097378
 20
21.90076386879501
 30
0.0
 11
-131.3226072209362
 21
21.90076386879501
 31
0.0
  0
LINE
  5
1B3
  8
LAYER0001
  6
CONTINUOUS
 62
     7
 10
-130.3226072209362
 20
49.90076386879501
 30
0.0
 11
-130.3226072209362
 21
21.90076386879501
 31
0.0
  0
INSERT
  5
1B4
  8
LAYER0001
  6
CONTINUOUS
  2
DC_GROUP_20
 10
0.0
 20
0.0
 30
0.0
  0
INSERT
  5
1B5
  8
LAYER0001
  6
CONTINUOUS
  2
DC_GROUP_21
 10
0.0
 20
0.0
 30
0.0
  0
TEXT
  5
1B6
  8
LAYER0001
 62
     7
 10
-131.9226072209362
 20
27.90076382111128
 30
0.0
 40
4.0
  1
φ28
 50
90.0
 41
0.6093750000000011
  7
FDASTYLE1
 72
     5
 11
-131.9226072209362
 21
35.7007638211113
 31
0.0
  0
TEXT
  5
1B7
  8
LAYER0001
 62
     7
 10
-131.9226072209362
 20
38.50076382111129
 30
0.0
 40
4.0
  1
H7
 50
90.0
 41
0.6666666666666679
  7
FDASTYLE1
 72
     5
 11
-131.9226072209362
 21
43.83409715444464
 31
0.0
  0
ENDBLK
  5
84
  8
0
  0
BLOCK
  8
0
  2
DC_GROUP_20
 70
     0
 10
0.0
 20
0.0
 30
0.0
  3
DC_GROUP_20
  1

  0
LINE
  5
1B8
  8
LAYER0001
  6
CONTINUOUS
 62
     7
 10
-130.8585067558338
 20
47.90076546116436
 30
0.0
 11
-130.3226072209362
 21
49.90076386879501
 31
0.0
  0
LINE
  5
1B9
  8
LAYER0001
  6
CONTINUOUS
 62
     7
 10
-130.3226072209362
 20
49.90076386879501
 30
0.0
 11
-129.7867076860386
 21
47.90076546116436
 31
0.0
  0
LINE
  5
1BA
  8
LAYER0001
  6
CONTINUOUS
 62
     7
 10
-130.3226072209362
 20
49.90076386879501
 30
0.0
 11
-130.3226072209362
 21
47.90076546116436
 31
0.0
  0
ENDBLK
  5
87
  8
0
  0
BLOCK
  8
0
  2
DC_GROUP_21
 70
     0
 10
0.0
 20
0.0
 30
0.0
  3
DC_GROUP_21
  1

  0
LINE
  5
1BB
  8
LAYER0001
  6
CONTINUOUS
 62
     7
 10
-129.7867076860386
 20
23.90076227642567
 30
0.0
 11
-130.3226072209362
 21
21.90076386879501
 31
0.0
  0
LINE
  5
1BC
  8
LAYER0001
  6
CONTINUOUS
 62
     7
 10
-130.3226072209362
 20
21.90076386879501
 30
0.0
 11
-130.8585067558338
 21
23.90076227642567
 31
0.0
  0
LINE
  5
1BD
  8
LAYER0001
  6
CONTINUOUS
 62
     7
 10
-130.3226072209362
 20
21.90076386879501
 30
0.0
 11
-130.3226072209362
 21
23.90076227642567
 31
0.0
  0
ENDBLK
  5
8A
  8
0
  0
BLOCK
  8
0
  2
DC_GROUP_22
 70
     0
 10
0.0
 20
0.0
 30
0.0
  3
DC_GROUP_22
  1

  0
LINE
  5
1BE
  8
LAYER0001
  6
CONTINUOUS
 62
     7
 10
-32.14834513597528
 20
63.40076386879501
 30
0.0
 11
-24.32260722093621
 21
63.40076386879501
 31
0.0
  0
LINE
  5
1BF
  8
LAYER0001
  6
CONTINUOUS
 62
     7
 10
-51.4492789738659
 20
55.90076386879501
 30
0.0
 11
-24.32260722093621
 21
55.90076386879501
 31
0.0
  0
LINE
  5
1C0
  8
LAYER0001
  6
CONTINUOUS
 62
     7
 10
-25.32260722093621
 20
63.40076386879501
 30
0.0
 11
-25.32260722093621
 21
55.90076386879501
 31
0.0
  0
LINE
  5
1C1
  8
LAYER0001
  6
CONTINUOUS
 62
     7
 10
-25.32260722093621
 20
63.40076386879501
 30
0.0
 11
-25.32260722093621
 21
69.75076386879502
 31
0.0
  0
LINE
  5
1C2
  8
LAYER0001
  6
CONTINUOUS
 62
     7
 10
-25.32260722093621
 20
49.55076386879501
 30
0.0
 11
-25.32260722093621
 21
55.90076386879501
 31
0.0
  0
INSERT
  5
1C3
  8
LAYER0001
  6
CONTINUOUS
  2
DC_GROUP_23
 10
0.0
 20
0.0
 30
0.0
  0
INSERT
  5
1C4
  8
LAYER0001
  6
CONTINUOUS
  2
DC_GROUP_24
 10
0.0
 20
0.0
 30
0.0
  0
TEXT
  5
1C5
  8
LAYER0001
 62
     7
 10
-26.92260722093621
 20
44.72185075233993
 30
0.0
 40
4.0
  1
MIN 6
 50
90.0
 41
0.6704761904761902
  7
FDASTYLE1
 72
     5
 11
-26.92260722093621
 21
58.13137456186374
 31
0.0
  0
ENDBLK
  5
8D
  8
0
  0
BLOCK
  8
0
  2
DC_GROUP_23
 70
     0
 10
0.0
 20
0.0
 30
0.0
  3
DC_GROUP_23
  1

  0
LINE
  5
1C6
  8
LAYER0001
  6
CONTINUOUS
 62
     7
 10
-24.7867076860386
 20
65.40076227642567
 30
0.0
 11
-25.32260722093621
 21
63.40076386879501
 31
0.0
  0
LINE
  5
1C7
  8
LAYER0001
  6
CONTINUOUS
 62
     7
 10
-25.32260722093621
 20
63.40076386879501
 30
0.0
 11
-25.85850675583382
 21
65.40076227642567
 31
0.0
  0
LINE
  5
1C8
  8
LAYER0001
  6
CONTINUOUS
 62
     7
 10
-25.32260722093621
 20
63.40076386879501
 30
0.0
 11
-25.32260722093621
 21
65.40076227642567
 31
0.0
  0
ENDBLK
  5
90
  8
0
  0
BLOCK
  8
0
  2
DC_GROUP_24
 70
     0
 10
0.0
 20
0.0
 30
0.0
  3
DC_GROUP_24
  1

  0
LINE
  5
1C9
  8
LAYER0001
  6
CONTINUOUS
 62
     7
 10
-25.85850675583382
 20
53.90076546116435
 30
0.0
 11
-25.32260722093621
 21
55.90076386879501
 31
0.0
  0
LINE
  5
1CA
  8
LAYER0001
  6
CONTINUOUS
 62
     7
 10
-25.32260722093621
 20
55.90076386879501
 30
0.0
 11
-24.7867076860386
 21
53.90076546116435
 31
0.0
  0
LINE
  5
1CB
  8
LAYER0001
  6
CONTINUOUS
 62
     7
 10
-25.32260722093621
 20
55.90076386879501
 30
0.0
 11
-25.32260722093621
 21
53.90076546116435
 31
0.0
  0
ENDBLK
  5
93
  8
0
  0
BLOCK
  8
0
  2
DC_GROUP_25
 70
     0
 10
0.0
 20
0.0
 30
0.0
  3
DC_GROUP_25
  1

  0
LINE
  5
1CC
  8
LAYER0001
  6
CONTINUOUS
 62
     7
 10
-119.67850086648
 20
5.600764631734464
 30
0.0
 11
-131.3226072209362
 21
5.600764631734464
 31
0.0
  0
LINE
  5
1CD
  8
LAYER0001
  6
CONTINUOUS
 62
     7
 10
-119.67850086648
 20
-4.399235368265536
 30
0.0
 11
-131.3226072209362
 21
-4.399235368265536
 31
0.0
  0
LINE
  5
1CE
  8
LAYER0001
  6
CONTINUOUS
 62
     7
 10
-130.3226072209362
 20
5.600764631734464
 30
0.0
 11
-130.3226072209362
 21
-4.399235368265536
 31
0.0
  0
INSERT
  5
1CF
  8
LAYER0001
  6
CONTINUOUS
  2
DC_GROUP_26
 10
0.0
 20
0.0
 30
0.0
  0
INSERT
  5
1D0
  8
LAYER0001
  6
CONTINUOUS
  2
DC_GROUP_27
 10
0.0
 20
0.0
 30
0.0
  0
TEXT
  5
1D1
  8
LAYER0001
 62
     7
 10
-131.3226072209362
 20
-4.199235368265548
 30
0.0
 40
4.0
  1
M10
 50
90.0
 41
0.7238095238095248
  7
FDASTYLE1
 72
     5
 11
-131.3226072209362
 21
4.48647891744875
 31
0.0
  0
ENDBLK
  5
96
  8
0
  0
BLOCK
  8
0
  2
DC_GROUP_26
 70
     0
 10
0.0
 20
0.0
 30
0.0
  3
DC_GROUP_26
  1

  0
LINE
  5
1D2
  8
LAYER0001
  6
CONTINUOUS
 62
     7
 10
-130.8585067558338
 20
3.600766224103802
 30
0.0
 11
-130.3226072209362
 21
5.600764631734464
 31
0.0
  0
LINE
  5
1D3
  8
LAYER0001
  6
CONTINUOUS
 62
     7
 10
-130.3226072209362
 20
5.600764631734464
 30
0.0
 11
-129.7867076860386
 21
3.600766224103802
 31
0.0
  0
LINE
  5
1D4
  8
LAYER0001
  6
CONTINUOUS
 62
     7
 10
-130.3226072209362
 20
5.600764631734464
 30
0.0
 11
-130.3226072209362
 21
3.600766224103802
 31
0.0
  0
ENDBLK
  5
99
  8
0
  0
BLOCK
  8
0
  2
DC_GROUP_27
 70
     0
 10
0.0
 20
0.0
 30
0.0
  3
DC_GROUP_27
  1

  0
LINE
  5
1D5
  8
LAYER0001
  6
CONTINUOUS
 62
     7
 10
-129.7867076860386
 20
-2.399236960634875
 30
0.0
 11
-130.3226072209362
 21
-4.399235368265536
 31
0.0
  0
LINE
  5
1D6
  8
LAYER0001
  6
CONTINUOUS
 62
     7
 10
-130.3226072209362
 20
-4.399235368265536
 30
0.0
 11
-130.8585067558338
 21
-2.399236960634875
 31
0.0
  0
LINE
  5
1D7
  8
LAYER0001
  6
CONTINUOUS
 62
     7
 10
-130.3226072209362
 20
-4.399235368265536
 30
0.0
 11
-130.3226072209362
 21
-2.399236960634875
 31
0.0
  0
ENDBLK
  5
9C
  8
0
  0
BLOCK
  8
0
  2
DC_GROUP_28
 70
     0
 10
0.0
 20
0.0
 30
0.0
  3
DC_GROUP_28
  1

  0
LINE
  5
1D8
  8
LAYER0001
  6
CONTINUOUS
 62
     7
 10
-52.9892789738659
 20
89.44076386879502
 30
0.0
 11
-52.9892789738659
 21
106.900763868795
 31
0.0
  0
LINE
  5
1D9
  8
LAYER0001
  6
CONTINUOUS
 62
     7
 10
-53.9892789738659
 20
90.94076386879502
 30
0.0
 11
-53.9892789738659
 21
106.900763868795
 31
0.0
  0
LINE
  5
1DA
  8
LAYER0001
  6
CONTINUOUS
 62
     7
 10
-52.9892789738659
 20
105.900763868795
 30
0.0
 11
-53.9892789738659
 21
105.900763868795
 31
0.0
  0
LINE
  5
1DB
  8
LAYER0001
  6
CONTINUOUS
 62
     7
 10
-52.9892789738659
 20
105.900763868795
 30
0.0
 11
-46.6392789738659
 21
105.900763868795
 31
0.0
  0
LINE
  5
1DC
  8
LAYER0001
  6
CONTINUOUS
 62
     7
 10
-60.3392789738659
 20
105.900763868795
 30
0.0
 11
-53.9892789738659
 21
105.900763868795
 31
0.0
  0
INSERT
  5
1DD
  8
LAYER0001
  6
CONTINUOUS
  2
DC_GROUP_29
 10
0.0
 20
0.0
 30
0.0
  0
INSERT
  5
1DE
  8
LAYER0001
  6
CONTINUOUS
  2
DC_GROUP_30
 10
0.0
 20
0.0
 30
0.0
  0
TEXT
  5
1DF
  8
LAYER0001
 62
     7
 10
-49.27498225145379
 20
107.500763868795
 30
0.0
 40
4.0
  1
1
 41
0.1904761904761898
  7
FDASTYLE1
 72
     5
 11
-48.51307748954903
 21
107.500763868795
 31
0.0
  0
ENDBLK
  5
9F
  8
0
  0
BLOCK
  8
0
  2
DC_GROUP_29
 70
     0
 10
0.0
 20
0.0
 30
0.0
  3
DC_GROUP_29
  1

  0
LINE
  5
1E0
  8
LAYER0001
  6
CONTINUOUS
 62
     7
 10
-50.98928056623524
 20
105.3648643338974
 30
0.0
 11
-52.9892789738659
 21
105.900763868795
 31
0.0
  0
LINE
  5
1E1
  8
LAYER0001
  6
CONTINUOUS
 62
     7
 10
-52.9892789738659
 20
105.900763868795
 30
0.0
 11
-50.98928056623524
 21
106.4366634036926
 31
0.0
  0
LINE
  5
1E2
  8
LAYER0001
  6
CONTINUOUS
 62
     7
 10
-52.9892789738659
 20
105.900763868795
 30
0.0
 11
-50.98928056623524
 21
105.900763868795
 31
0.0
  0
ENDBLK
  5
A2
  8
0
  0
BLOCK
  8
0
  2
DC_GROUP_30
 70
     0
 10
0.0
 20
0.0
 30
0.0
  3
DC_GROUP_30
  1

  0
LINE
  5
1E3
  8
LAYER0001
  6
CONTINUOUS
 62
     7
 10
-55.98927738149656
 20
106.4366634036926
 30
0.0
 11
-53.9892789738659
 21
105.900763868795
 31
0.0
  0
LINE
  5
1E4
  8
LAYER0001
  6
CONTINUOUS
 62
     7
 10
-53.9892789738659
 20
105.900763868795
 30
0.0
 11
-55.98927738149656
 21
105.3648643338974
 31
0.0
  0
LINE
  5
1E5
  8
LAYER0001
  6
CONTINUOUS
 62
     7
 10
-53.9892789738659
 20
105.900763868795
 30
0.0
 11
-55.98927738149656
 21
105.900763868795
 31
0.0
  0
ENDBLK
  5
A5
  8
0
  0
BLOCK
  8
0
  2
DC_GROUP_31
 70
     0
 10
0.0
 20
0.0
 30
0.0
  3
DC_GROUP_31
  1

  0
LINE
  5
1E6
  8
LAYER0001
  6
CONTINUOUS
 62
     7
 10
-102.7892820256237
 20
-30.05961261614966
 30
0.0
 11
-79.48927897386591
 21
-30.05961261614966
 31
0.0
  0
LINE
  5
1E7
  8
LAYER0001
  6
CONTINUOUS
 62
     7
 10
-79.48927897386591
 20
20.85916196245962
 30
0.0
 11
-79.48927897386591
 21
-31.05961261614966
 31
0.0
  0
INSERT
  5
1E8
  8
LAYER0001
  6
CONTINUOUS
  2
DC_GROUP_32
 10
0.0
 20
0.0
 30
0.0
  0
INSERT
  5
1E9
  8
LAYER0001
  6
CONTINUOUS
  2
DC_GROUP_33
 10
0.0
 20
0.0
 30
0.0
  0
TEXT
  5
1EA
  8
LAYER0001
 62
     7
 10
-102.3392804997448
 20
-29.05961261614966
 30
0.0
 40
4.0
  1
MAX30.8
 41
0.6802721088435371
  7
FDASTYLE1
 72
     5
 11
-83.29166145212577
 21
-29.05961261614966
 31
0.0
  0
ENDBLK
  5
A8
  8
0
  0
BLOCK
  8
0
  2
DC_GROUP_32
 70
     0
 10
0.0
 20
0.0
 30
0.0
  3
DC_GROUP_32
  1

  0
LINE
  5
1EB
  8
LAYER0001
  6
CONTINUOUS
 62
     7
 10
-100.789283617993
 20
-30.59551215104727
 30
0.0
 11
-102.7892820256237
 21
-30.05961261614966
 31
0.0
  0
LINE
  5
1EC
  8
LAYER0001
  6
CONTINUOUS
 62
     7
 10
-102.7892820256237
 20
-30.05961261614966
 30
0.0
 11
-100.789283617993
 21
-29.52371308125206
 31
0.0
  0
LINE
  5
1ED
  8
LAYER0001
  6
CONTINUOUS
 62
     7
 10
-102.7892820256237
 20
-30.05961261614966
 30
0.0
 11
-100.789283617993
 21
-30.05961261614966
 31
0.0
  0
ENDBLK
  5
AB
  8
0
  0
BLOCK
  8
0
  2
DC_GROUP_33
 70
     0
 10
0.0
 20
0.0
 30
0.0
  3
DC_GROUP_33
  1

  0
LINE
  5
1EE
  8
LAYER0001
  6
CONTINUOUS
 62
     7
 10
-81.48927738149658
 20
-29.52371308125205
 30
0.0
 11
-79.48927897386591
 21
-30.05961261614966
 31
0.0
  0
LINE
  5
1EF
  8
LAYER0001
  6
CONTINUOUS
 62
     7
 10
-79.48927897386591
 20
-30.05961261614966
 30
0.0
 11
-81.48927738149658
 21
-30.59551215104727
 31
0.0
  0
LINE
  5
1F0
  8
LAYER0001
  6
CONTINUOUS
 62
     7
 10
-79.48927897386591
 20
-30.05961261614966
 30
0.0
 11
-81.48927738149658
 21
-30.05961261614966
 31
0.0
  0
ENDBLK
  5
AE
  8
0
  0
BLOCK
  8
0
  2
DC_GROUP_34
 70
     0
 10
0.0
 20
0.0
 30
0.0
  3
DC_GROUP_34
  1

  0
LINE
  5
1F1
  8
LAYER0001
  6
CONTINUOUS
 62
     7
 10
-55.4892789738659
 20
24.11513078163681
 30
0.0
 11
-52.9892789738659
 21
24.11513078163681
 31
0.0
  0
LINE
  5
1F2
  8
LAYER0001
  6
CONTINUOUS
 62
     7
 10
-55.4892789738659
 20
24.11513078163681
 30
0.0
 11
-61.8392789738659
 21
24.11513078163681
 31
0.0
  0
LINE
  5
1F3
  8
LAYER0001
  6
CONTINUOUS
 62
     7
 10
-46.6392789738659
 20
24.11513078163681
 30
0.0
 11
-52.9892789738659
 21
24.11513078163681
 31
0.0
  0
INSERT
  5
1F4
  8
LAYER0001
  6
CONTINUOUS
  2
DC_GROUP_35
 10
0.0
 20
0.0
 30
0.0
  0
INSERT
  5
1F5
  8
LAYER0001
  6
CONTINUOUS
  2
DC_GROUP_36
 10
0.0
 20
0.0
 30
0.0
  0
TEXT
  5
1F6
  8
LAYER0001
 62
     7
 10
-47.78955363206903
 20
25.71513078163681
 30
0.0
 40
4.0
  1
2.5
 41
0.5587301587301591
  7
FDASTYLE1
 72
     5
 11
-41.08479172730712
 21
25.71513078163681
 31
0.0
  0
ENDBLK
  5
B1
  8
0
  0
BLOCK
  8
0
  2
DC_GROUP_35
 70
     0
 10
0.0
 20
0.0
 30
0.0
  3
DC_GROUP_35
  1

  0
LINE
  5
1F7
  8
LAYER0001
  6
CONTINUOUS
 62
     7
 10
-57.48927738149656
 20
24.65103031653442
 30
0.0
 11
-55.4892789738659
 21
24.11513078163681
 31
0.0
  0
LINE
  5
1F8
  8
LAYER0001
  6
CONTINUOUS
 62
     7
 10
-55.4892789738659
 20
24.11513078163681
 30
0.0
 11
-57.48927738149656
 21
23.57923124673921
 31
0.0
  0
LINE
  5
1F9
  8
LAYER0001
  6
CONTINUOUS
 62
     7
 10
-55.4892789738659
 20
24.11513078163681
 30
0.0
 11
-57.48927738149656
 21
24.11513078163681
 31
0.0
  0
ENDBLK
  5
B4
  8
0
  0
BLOCK
  8
0
  2
DC_GROUP_36
 70
     0
 10
0.0
 20
0.0
 30
0.0
  3
DC_GROUP_36
  1

  0
LINE
  5
1FA
  8
LAYER0001
  6
CONTINUOUS
 62
     7
 10
-50.98928056623524
 20
23.57923124673921
 30
0.0
 11
-52.9892789738659
 21
24.11513078163681
 31
0.0
  0
LINE
  5
1FB
  8
LAYER0001
  6
CONTINUOUS
 62
     7
 10
-52.9892789738659
 20
24.11513078163681
 30
0.0
 11
-50.98928056623524
 21
24.65103031653442
 31
0.0
  0
LINE
  5
1FC
  8
LAYER0001
  6
CONTINUOUS
 62
     7
 10
-52.9892789738659
 20
24.11513078163681
 30
0.0
 11
-50.98928056623524
 21
24.11513078163681
 31
0.0
  0
ENDBLK
  5
B7
  8
0
  0
BLOCK
  8
0
  2
DC_GROUP_37
 70
     0
 10
0.0
 20
0.0
 30
0.0
  3
DC_GROUP_37
  1

  0
LINE
  5
1FD
  8
LAYER0001
  6
CONTINUOUS
 62
     7
 10
-32.14834513597528
 20
63.40076386879501
 30
0.0
 11
-24.32260722093621
 21
63.40076386879501
 31
0.0
  0
LINE
  5
1FE
  8
LAYER0001
  6
CONTINUOUS
 62
     7
 10
-32.33400645189325
 20
78.40076386879501
 30
0.0
 11
-24.32260722093621
 21
78.40076386879501
 31
0.0
  0
LINE
  5
1FF
  8
LAYER0001
  6
CONTINUOUS
 62
     7
 10
-25.32260722093621
 20
63.40076386879501
 30
0.0
 11
-25.32260722093621
 21
78.40076386879501
 31
0.0
  0
INSERT
  5
200
  8
LAYER0001
  6
CONTINUOUS
  2
DC_GROUP_38
 10
0.0
 20
0.0
 30
0.0
  0
INSERT
  5
201
  8
LAYER0001
  6
CONTINUOUS
  2
DC_GROUP_39
 10
0.0
 20
0.0
 30
0.0
  0
TEXT
  5
202
  8
LAYER0001
 62
     7
 10
-26.92260722093621
 20
67.70076386879501
 30
0.0
 40
4.0
  1
15
 50
90.0
 41
0.5904761904761902
  7
FDASTYLE1
 72
     5
 11
-26.92260722093621
 21
72.42457339260453
 31
0.0
  0
ENDBLK
  5
BA
  8
0
  0
BLOCK
  8
0
  2
DC_GROUP_38
 70
     0
 10
0.0
 20
0.0
 30
0.0
  3
DC_GROUP_38
  1

  0
LINE
  5
203
  8
LAYER0001
  6
CONTINUOUS
 62
     7
 10
-24.7867076860386
 20
65.40076227642567
 30
0.0
 11
-25.32260722093621
 21
63.40076386879501
 31
0.0
  0
LINE
  5
204
  8
LAYER0001
  6
CONTINUOUS
 62
     7
 10
-25.32260722093621
 20
63.40076386879501
 30
0.0
 11
-25.85850675583382
 21
65.40076227642567
 31
0.0
  0
LINE
  5
205
  8
LAYER0001
  6
CONTINUOUS
 62
     7
 10
-25.32260722093621
 20
63.40076386879501
 30
0.0
 11
-25.32260722093621
 21
65.40076227642567
 31
0.0
  0
ENDBLK
  5
BD
  8
0
  0
BLOCK
  8
0
  2
DC_GROUP_39
 70
     0
 10
0.0
 20
0.0
 30
0.0
  3
DC_GROUP_39
  1

  0
LINE
  5
206
  8
LAYER0001
  6
CONTINUOUS
 62
     7
 10
-25.85850675583382
 20
76.40076546116436
 30
0.0
 11
-25.32260722093621
 21
78.40076386879501
 31
0.0
  0
LINE
  5
207
  8
LAYER0001
  6
CONTINUOUS
 62
     7
 10
-25.32260722093621
 20
78.40076386879501
 30
0.0
 11
-24.7867076860386
 21
76.40076546116436
 31
0.0
  0
LINE
  5
208
  8
LAYER0001
  6
CONTINUOUS
 62
     7
 10
-25.32260722093621
 20
78.40076386879501
 30
0.0
 11
-25.32260722093621
 21
76.40076546116436
 31
0.0
  0
ENDBLK
  5
C0
  8
0
  0
BLOCK
  8
0
  2
DC_GROUP_40
 70
     0
 10
0.0
 20
0.0
 30
0.0
  3
DC_GROUP_40
  1

  0
LINE
  5
209
  8
LAYER0001
  6
CONTINUOUS
 62
     7
 10
56.12351157350239
 20
18.50091060424562
 30
0.0
 11
37.27818278396399
 21
7.620556156721236
 31
0.0
  0
LINE
  5
20A
  8
LAYER0001
  6
CONTINUOUS
 62
     7
 10
58.35900724076861
 20
-5.611830421612717
 30
0.0
 11
48.27818398369525
 21
-11.43199620028982
 31
0.0
  0
LINE
  5
20B
  8
LAYER0001
  6
CONTINUOUS
 62
     7
 10
39.25793242539414
 20
8.763558411597714
 30
0.0
 11
50.25793129290592
 21
-10.28900061509616
 31
0.0
  0
INSERT
  5
20C
  8
LAYER0001
  6
CONTINUOUS
  2
DC_GROUP_41
 10
0.0
 20
0.0
 30
0.0
  0
INSERT
  5
20D
  8
LAYER0001
  6
CONTINUOUS
  2
DC_GROUP_42
 10
0.0
 20
0.0
 30
0.0
  0
TEXT
  5
20E
  8
LAYER0001
 62
     7
 10
44.0239572868545
 20
2.50856014893026
 30
0.0
 40
4.0
  1
22
 50
-59.99999999999999
 41
0.6476190476190483
  7
FDASTYLE1
 72
     5
 11
46.61443347733069
 21
-1.978276228771978
 31
0.0
  0
ENDBLK
  5
C3
  8
0
  0
BLOCK
  8
0
  2
DC_GROUP_41
 70
     0
 10
0.0
 20
0.0
 30
0.0
  3
DC_GROUP_41
  1

  0
LINE
  5
20F
  8
LAYER0001
  6
CONTINUOUS
 62
     7
 10
39.79382892243176
 20
6.763559189974997
 30
0.0
 11
39.25793242539414
 21
8.763558411597714
 31
0.0
  0
LINE
  5
210
  8
LAYER0001
  6
CONTINUOUS
 62
     7
 10
39.25793242539414
 20
8.763558411597714
 30
0.0
 11
40.72203417026442
 21
7.299458680467199
 31
0.0
  0
LINE
  5
211
  8
LAYER0001
  6
CONTINUOUS
 62
     7
 10
39.25793242539414
 20
8.763558411597714
 30
0.0
 11
40.25793154634809
 21
7.031508935221099
 31
0.0
  0
ENDBLK
  5
C6
  8
0
  0
BLOCK
  8
0
  2
DC_GROUP_42
 70
     0
 10
0.0
 20
0.0
 30
0.0
  3
DC_GROUP_42
  1

  0
LINE
  5
212
  8
LAYER0001
  6
CONTINUOUS
 62
     7
 10
49.7220347958683
 20
-8.289001393473445
 30
0.0
 11
50.25793129290592
 21
-10.28900061509616
 31
0.0
  0
LINE
  5
213
  8
LAYER0001
  6
CONTINUOUS
 62
     7
 10
50.25793129290592
 20
-10.28900061509616
 30
0.0
 11
48.79382954803564
 21
-8.824900883965643
 31
0.0
  0
LINE
  5
214
  8
LAYER0001
  6
CONTINUOUS
 62
     7
 10
50.25793129290592
 20
-10.28900061509616
 30
0.0
 11
49.25793217195197
 21
-8.556951138719544
 31
0.0
  0
ENDBLK
  5
C9
  8
0
  0
BLOCK
  8
0
  2
DC_GROUP_43
 70
     0
 10
0.0
 20
0.0
 30
0.0
  3
DC_GROUP_43
  1

  0
LINE
  5
215
  8
LAYER0001
  6
CONTINUOUS
 62
     7
 10
109.1008881677886
 20
9.98991536513914
 30
0.0
 11
124.4300919850765
 21
-35.3126066966387
 31
0.0
  0
LINE
  5
216
  8
LAYER0001
  6
CONTINUOUS
 62
     7
 10
124.4300976292189
 20
-35.31260740806046
 30
0.0
 11
158.2597637669142
 21
-35.31260740806046
 31
0.0
  0
INSERT
  5
217
  8
LAYER0001
  6
CONTINUOUS
  2
DC_GROUP_44
 10
0.0
 20
0.0
 30
0.0
  0
TEXT
  5
218
  8
LAYER0001
 62
     7
 10
125.2245922581252
 20
-33.71260740806046
 30
0.0
 40
4.0
  1
3-M4 PCD48
 41
0.7923809523809524
  7
FDASTYLE1
 72
     5
 11
156.9198303533633
 21
-33.71260740806046
 31
0.0
  0
ENDBLK
  5
CC
  8
0
  0
BLOCK
  8
0
  2
DC_GROUP_44
 70
     0
 10
0.0
 20
0.0
 30
0.0
  3
DC_GROUP_44
  1

  0
LINE
  5
219
  8
LAYER0001
  6
CONTINUOUS
 62
     7
 10
109.234305455359
 20
7.92366712995393
 30
0.0
 11
109.1008881677886
 21
9.98991536513914
 31
0.0
  0
LINE
  5
21A
  8
LAYER0001
  6
CONTINUOUS
 62
     7
 10
109.1008881677886
 20
9.98991536513914
 30
0.0
 11
110.2495575799899
 21
8.267202236524351
 31
0.0
  0
LINE
  5
21B
  8
LAYER0001
  6
CONTINUOUS
 62
     7
 10
109.1008881677886
 20
9.98991536513914
 30
0.0
 11
109.7419315176744
 21
8.095434683239137
 31
0.0
  0
ENDBLK
  5
CF
  8
0
  0
BLOCK
  8
0
  2
DC_GROUP_45
 70
     0
 10
0.0
 20
0.0
 30
0.0
  3
DC_GROUP_45
  1

  0
LINE
  5
21C
  8
LAYER0001
  6
CONTINUOUS
 62
     7
 10
103.3760050314696
 20
-6.114961429695896
 30
0.0
 11
80.13705085411547
 21
-35.31260846080569
 31
0.0
  0
LINE
  5
21D
  8
LAYER0001
  6
CONTINUOUS
 62
     7
 10
80.13705258527361
 20
-35.31261122275772
 30
0.0
 11
55.90738110700213
 21
-35.31261122275772
 31
0.0
  0
INSERT
  5
21E
  8
LAYER0001
  6
CONTINUOUS
  2
DC_GROUP_46
 10
0.0
 20
0.0
 30
0.0
  0
TEXT
  5
21F
  8
LAYER0001
 62
     7
 10
56.94255795636735
 20
-33.71261122275772
 30
0.0
 40
4.0
  1
PCD70.6
 41
0.6857142857142858
  7
FDASTYLE1
 72
     5
 11
76.14255795636736
 21
-33.71261122275772
 31
0.0
  0
ENDBLK
  5
D2
  8
0
  0
BLOCK
  8
0
  2
DC_GROUP_46
 70
     0
 10
0.0
 20
0.0
 30
0.0
  3
DC_GROUP_46
  1

  0
LINE
  5
220
  8
LAYER0001
  6
CONTINUOUS
 62
     7
 10
101.7112133587579
 20
-7.34607906359544
 30
0.0
 11
103.3760050314696
 21
-6.114961429695896
 31
0.0
  0
LINE
  5
221
  8
LAYER0001
  6
CONTINUOUS
 62
     7
 10
103.3760050314696
 20
-6.114961429695896
 30
0.0
 11
102.5498147608194
 21
-8.013537627458717
 31
0.0
  0
LINE
  5
222
  8
LAYER0001
  6
CONTINUOUS
 62
     7
 10
103.3760050314696
 20
-6.114961429695896
 30
0.0
 11
102.1305140597886
 21
-7.679808345527079
 31
0.0
  0
ENDBLK
  5
D5
  8
0
  0
BLOCK
  8
0
  2
DC_GROUP_47
 70
     0
 10
0.0
 20
0.0
 30
0.0
  3
DC_GROUP_47
  1

  0
LINE
  5
223
  8
LAYER0001
  6
CONTINUOUS
 62
     7
 10
-51.4492789738659
 20
55.90076386879501
 30
0.0
 11
-4.322607220936213
 21
55.90076386879501
 31
0.0
  0
LINE
  5
224
  8
LAYER0001
  6
CONTINUOUS
 62
     7
 10
-51.4492789738659
 20
88.40076386879501
 30
0.0
 11
-4.322607220936213
 21
88.40076386879501
 31
0.0
  0
LINE
  5
225
  8
LAYER0001
  6
CONTINUOUS
 62
     7
 10
-5.322607220936213
 20
55.90076386879501
 30
0.0
 11
-5.322607220936213
 21
88.40076386879501
 31
0.0
  0
INSERT
  5
226
  8
LAYER0001
  6
CONTINUOUS
  2
DC_GROUP_48
 10
0.0
 20
0.0
 30
0.0
  0
INSERT
  5
227
  8
LAYER0001
  6
CONTINUOUS
  2
DC_GROUP_49
 10
0.0
 20
0.0
 30
0.0
  0
TEXT
  5
228
  8
LAYER0001
 62
     7
 10
-6.922607220936212
 20
65.75076386879501
 30
0.0
 40
4.0
  1
32.5
 50
90.0
 41
0.60952380952381
  7
FDASTYLE1
 72
     5
 11
-6.922607220936212
 21
75.50314482117597
 31
0.0
  0
ENDBLK
  5
D8
  8
0
  0
BLOCK
  8
0
  2
DC_GROUP_48
 70
     0
 10
0.0
 20
0.0
 30
0.0
  3
DC_GROUP_48
  1

  0
LINE
  5
229
  8
LAYER0001
  6
CONTINUOUS
 62
     7
 10
-4.786707686038604
 20
57.90076227642567
 30
0.0
 11
-5.322607220936213
 21
55.90076386879501
 31
0.0
  0
LINE
  5
22A
  8
LAYER0001
  6
CONTINUOUS
 62
     7
 10
-5.322607220936213
 20
55.90076386879501
 30
0.0
 11
-5.858506755833821
 21
57.90076227642567
 31
0.0
  0
LINE
  5
22B
  8
LAYER0001
  6
CONTINUOUS
 62
     7
 10
-5.322607220936213
 20
55.90076386879501
 30
0.0
 11
-5.322607220936213
 21
57.90076227642567
 31
0.0
  0
ENDBLK
  5
DB
  8
0
  0
BLOCK
  8
0
  2
DC_GROUP_49
 70
     0
 10
0.0
 20
0.0
 30
0.0
  3
DC_GROUP_49
  1

  0
LINE
  5
22C
  8
LAYER0001
  6
CONTINUOUS
 62
     7
 10
-5.858506755833821
 20
86.40076546116436
 30
0.0
 11
-5.322607220936213
 21
88.40076386879501
 31
0.0
  0
LINE
  5
22D
  8
LAYER0001
  6
CONTINUOUS
 62
     7
 10
-5.322607220936213
 20
88.40076386879501
 30
0.0
 11
-4.786707686038604
 21
86.40076546116436
 31
0.0
  0
LINE
  5
22E
  8
LAYER0001
  6
CONTINUOUS
 62
     7
 10
-5.322607220936213
 20
88.40076386879501
 30
0.0
 11
-5.322607220936213
 21
86.40076546116436
 31
0.0
  0
ENDBLK
  5
DE
  8
0
  0
BLOCK
  8
0
  2
DC_GROUP_50
 70
     0
 10
0.0
 20
0.0
 30
0.0
  3
DC_GROUP_50
  1

  0
LINE
  5
22F
  8
LAYER0001
  6
CONTINUOUS
 62
     7
 10
8.537964367737599
 20
19.90076386879501
 30
0.0
 11
8.537964367737599
 21
50.77523744057235
 31
0.0
  0
LINE
  5
230
  8
LAYER0001
  6
CONTINUOUS
 62
     7
 10
-62.51568293853335
 20
19.90076386879501
 30
0.0
 11
9.537964367737599
 21
19.90076386879501
 31
0.0
  0
INSERT
  5
231
  8
LAYER0001
  6
ACAD_ISO14W100
  2
DC_GROUP_51
 10
0.0
 20
0.0
 30
0.0
  0
TEXT
  5
232
  8
LAYER0001
 62
     7
 10
7.537964367737602
 20
20.93800065468368
 30
0.0
 40
4.0
  1
M32×Ｐ1.25
 50
90.0
 41
0.6192847442281575
  7
FDASTYLE1
 72
     5
 11
7.537964367737602
 21
44.2231070376624
 31
0.0
  0
ENDBLK
  5
E1
  8
0
  0
BLOCK
  8
0
  2
DC_GROUP_51
 70
     0
 10
0.0
 20
0.0
 30
0.0
  3
DC_GROUP_51
  1

  0
LINE
  5
233
  8
LAYER0001
  6
CONTINUOUS
 62
     7
 10
9.073863902635207
 20
21.90076227642567
 30
0.0
 11
8.537964367737599
 21
19.90076386879501
 31
0.0
  0
LINE
  5
234
  8
LAYER0001
  6
CONTINUOUS
 62
     7
 10
8.537964367737599
 20
19.90076386879501
 30
0.0
 11
8.002064832839992
 21
21.90076227642567
 31
0.0
  0
LINE
  5
235
  8
LAYER0001
  6
CONTINUOUS
 62
     7
 10
8.537964367737599
 20
19.90076386879501
 30
0.0
 11
8.537964367737599
 21
21.90076227642567
 31
0.0
  0
ENDBLK
  5
E4
  8
0
  0
BLOCK
  8
0
  2
DC_GROUP_52
 70
     0
 10
0.0
 20
0.0
 30
0.0
  3
DC_GROUP_52
  1

  0
LINE
  5
236
  8
LAYER0001
  6
CONTINUOUS
 62
     7
 10
16.82072025347352
 20
14.90076386879501
 30
0.0
 11
16.82072025347352
 21
50.77523744057235
 31
0.0
  0
LINE
  5
237
  8
LAYER0001
  6
CONTINUOUS
 62
     7
 10
-51.82807660428387
 20
14.90076386879501
 30
0.0
 11
17.82072025347352
 21
14.90076386879501
 31
0.0
  0
INSERT
  5
238
  8
LAYER0001
  6
CONTINUOUS
  2
DC_GROUP_53
 10
0.0
 20
0.0
 30
0.0
  0
TEXT
  5
239
  8
LAYER0001
 62
     7
 10
15.82072025347352
 20
24.83800065468368
 30
0.0
 40
4.0
  1
φ42H7
 50
90.0
 41
0.621301775147929
  7
FDASTYLE1
 72
     5
 11
15.82072025347352
 21
37.7610775777606
 31
0.0
  0
ENDBLK
  5
E7
  8
0
  0
BLOCK
  8
0
  2
DC_GROUP_53
 70
     0
 10
0.0
 20
0.0
 30
0.0
  3
DC_GROUP_53
  1

  0
LINE
  5
23A
  8
LAYER0001
  6
CONTINUOUS
 62
     7
 10
17.35661978837113
 20
16.90076227642567
 30
0.0
 11
16.82072025347352
 21
14.90076386879501
 31
0.0
  0
LINE
  5
23B
  8
LAYER0001
  6
CONTINUOUS
 62
     7
 10
16.82072025347352
 20
14.90076386879501
 30
0.0
 11
16.28482071857592
 21
16.90076227642567
 31
0.0
  0
LINE
  5
23C
  8
LAYER0001
  6
CONTINUOUS
 62
     7
 10
16.82072025347352
 20
14.90076386879501
 30
0.0
 11
16.82072025347352
 21
16.90076227642567
 31
0.0
  0
ENDBLK
  5
EA
  8
0
  0
BLOCK
  8
0
  2
DC_GROUP_54
 70
     0
 10
0.0
 20
0.0
 30
0.0
  3
DC_GROUP_54
  1

  0
LINE
  5
23D
  8
LAYER0001
  6
CONTINUOUS
 62
     7
 10
-53.75941933404089
 20
86.05718707645029
 30
0.0
 11
-35.24282262763006
 21
105.9398016655051
 31
0.0
  0
LINE
  5
23E
  8
LAYER0001
  6
CONTINUOUS
 62
     7
 10
-35.24282282762567
 20
105.9397958512169
 30
0.0
 11
11.38684826917609
 21
105.9397958512169
 31
0.0
  0
INSERT
  5
23F
  8
LAYER0001
  6
CONTINUOUS
  2
DC_GROUP_55
 10
0.0
 20
0.0
 30
0.0
  0
TEXT
  5
240
  8
LAYER0001
 62
     7
 10
-34.57614725999871
 20
107.5398034806114
 30
0.0
 40
4.0
  1
ｾﾚｰｼｮﾝP1.5山60ﾟ
 41
0.6332076968855387
  7
FDASTYLE1
 72
     5
 11
1.39004992309988
 21
107.5398034806114
 31
0.0
  0
ENDBLK
  5
ED
  8
0
  0
BLOCK
  8
0
  2
DC_GROUP_55
 70
     0
 10
0.0
 20
0.0
 30
0.0
  3
DC_GROUP_55
  1

  0
LINE
  5
241
  8
LAYER0001
  6
CONTINUOUS
 62
     7
 10
-52.00420793957682
 20
87.1555562779359
 30
0.0
 11
-53.7594193340409
 21
86.05718707645029
 31
0.0
  0
LINE
  5
242
  8
LAYER0001
  6
CONTINUOUS
 62
     7
 10
-53.7594193340409
 20
86.05718707645029
 30
0.0
 11
-52.78854896852921
 21
87.88600983314376
 31
0.0
  0
LINE
  5
243
  8
LAYER0001
  6
CONTINUOUS
 62
     7
 10
-53.7594193340409
 20
86.05718707645029
 30
0.0
 11
-52.39637845405301
 21
87.52078305553982
 31
0.0
  0
ENDBLK
  5
F0
  8
0
  0
BLOCK
  8
0
  2
DC_GROUP_56
 70
     0
 10
0.0
 20
0.0
 30
0.0
  3
DC_GROUP_56
  1

  0
LINE
  5
244
  8
LAYER0001
  6
CONTINUOUS
 62
     7
 10
-41.2085415186608
 20
81.32849776202589
 30
0.0
 11
-28.13873618159288
 21
95.87567294570987
 31
0.0
  0
LINE
  5
245
  8
LAYER0001
  6
CONTINUOUS
 62
     7
 10
-28.13873690538446
 20
95.87567079018173
 30
0.0
 11
-18.93081396989862
 21
95.87567079018173
 31
0.0
  0
INSERT
  5
246
  8
LAYER0001
  6
CONTINUOUS
  2
DC_GROUP_57
 10
0.0
 20
0.0
 30
0.0
  0
TEXT
  5
247
  8
LAYER0001
 62
     7
 10
-27.15938395433465
 20
97.47567079018172
 30
0.0
 40
4.0
  1
M8
 41
0.7047619047619045
  7
FDASTYLE1
 72
     5
 11
-21.52128871623942
 21
97.47567079018172
 31
0.0
  0
ENDBLK
  5
F3
  8
0
  0
BLOCK
  8
0
  2
DC_GROUP_57
 70
     0
 10
0.0
 20
0.0
 30
0.0
  3
DC_GROUP_57
  1

  0
LINE
  5
248
  8
LAYER0001
  6
CONTINUOUS
 62
     7
 10
-39.47325403643374
 20
82.4580814446518
 30
0.0
 11
-41.2085415186608
 21
81.32849776202589
 31
0.0
  0
LINE
  5
249
  8
LAYER0001
  6
CONTINUOUS
 62
     7
 10
-41.2085415186608
 20
81.32849776202589
 30
0.0
 11
-40.27053303297164
 21
83.1743910478915
 31
0.0
  0
LINE
  5
24A
  8
LAYER0001
  6
CONTINUOUS
 62
     7
 10
-41.2085415186608
 20
81.32849776202589
 30
0.0
 11
-39.87189353470269
 21
82.81623624627166
 31
0.0
  0
ENDBLK
  5
F6
  8
0
  0
BLOCK
  8
0
  2
DC_GROUP_58
 70
     0
 10
0.0
 20
0.0
 30
0.0
  3
DC_GROUP_58
  1

  0
LINE
  5
24B
  8
LAYER0001
  6
CONTINUOUS
 62
     7
 10
-49.9492789738659
 20
57.40076386879501
 30
0.0
 11
-14.32260722093621
 21
57.40076386879501
 31
0.0
  0
LINE
  5
24C
  8
LAYER0001
  6
CONTINUOUS
 62
     7
 10
-49.9492789738659
 20
84.40076386879501
 30
0.0
 11
-14.32260722093621
 21
84.40076386879501
 31
0.0
  0
LINE
  5
24D
  8
LAYER0001
  6
CONTINUOUS
 62
     7
 10
-15.32260722093621
 20
57.40076386879501
 30
0.0
 11
-15.32260722093621
 21
84.40076386879501
 31
0.0
  0
INSERT
  5
24E
  8
LAYER0001
  6
DASHDOT2
  2
DC_GROUP_59
 10
0.0
 20
0.0
 30
0.0
  0
INSERT
  5
24F
  8
LAYER0001
  6
DASHDOT2
  2
DC_GROUP_60
 10
0.0
 20
0.0
 30
0.0
  0
TEXT
  5
250
  8
LAYER0001
 62
     7
 10
-16.92260722093621
 20
67.70076386879501
 30
0.0
 40
4.0
  1
27
 50
90.0
 41
0.6476190476190471
  7
FDASTYLE1
 72
     5
 11
-16.92260722093621
 21
72.88171624974738
 31
0.0
  0
ENDBLK
  5
F9
  8
0
  0
BLOCK
  8
0
  2
DC_GROUP_59
 70
     0
 10
0.0
 20
0.0
 30
0.0
  3
DC_GROUP_59
  1

  0
LINE
  5
251
  8
LAYER0001
  6
CONTINUOUS
 62
     7
 10
-14.7867076860386
 20
59.40076227642567
 30
0.0
 11
-15.32260722093621
 21
57.40076386879501
 31
0.0
  0
LINE
  5
252
  8
LAYER0001
  6
CONTINUOUS
 62
     7
 10
-15.32260722093621
 20
57.40076386879501
 30
0.0
 11
-15.85850675583382
 21
59.40076227642567
 31
0.0
  0
LINE
  5
253
  8
LAYER0001
  6
CONTINUOUS
 62
     7
 10
-15.32260722093621
 20
57.40076386879501
 30
0.0
 11
-15.32260722093621
 21
59.40076227642567
 31
0.0
  0
ENDBLK
  5
FC
  8
0
  0
BLOCK
  8
0
  2
DC_GROUP_60
 70
     0
 10
0.0
 20
0.0
 30
0.0
  3
DC_GROUP_60
  1

  0
LINE
  5
254
  8
LAYER0001
  6
CONTINUOUS
 62
     7
 10
-15.85850675583382
 20
82.40076546116434
 30
0.0
 11
-15.32260722093621
 21
84.40076386879501
 31
0.0
  0
LINE
  5
255
  8
LAYER0001
  6
CONTINUOUS
 62
     7
 10
-15.32260722093621
 20
84.40076386879501
 30
0.0
 11
-14.7867076860386
 21
82.40076546116434
 31
0.0
  0
LINE
  5
256
  8
LAYER0001
  6
CONTINUOUS
 62
     7
 10
-15.32260722093621
 20
84.40076386879501
 30
0.0
 11
-15.32260722093621
 21
82.40076546116434
 31
0.0
  0
ENDBLK
  5
FF
  8
0
  0
BLOCK
  8
0
  2
DC_GROUP_61
 70
     0
 10
0.0
 20
0.0
 30
0.0
  3
DC_GROUP_61
  1

  0
TEXT
  5
257
  8
LAYER0001
 62
     7
 10
-127.9719643647984
 20
100.5802510469267
 30
0.0
 40
4.0
  1
MiN-3.2
 41
0.6693877551020405
  7
FDASTYLE1
 72
     5
 11
-109.2291072219413
 21
100.5802510469267
 31
0.0
  0
ENDBLK
  5
102
  8
0
  0
BLOCK
  8
0
  2
DC_GROUP_62
 70
     0
 10
0.0
 20
0.0
 30
0.0
  3
DC_GROUP_62
  1

  0
TEXT
  5
258
  8
LAYER0001
 62
     7
 10
-102.30856898729
 20
-35.43112594337561
 30
0.0
 40
4.0
  1
MIN15.8
 41
0.6367346938775508
  7
FDASTYLE1
 72
     5
 11
-84.47999755871858
 21
-35.43112594337561
 31
0.0
  0
ENDBLK
  5
105
  8
0
  0
BLOCK
  8
0
  2
DC_GROUP_63
 70
     0
 10
0.0
 20
0.0
 30
0.0
  3
DC_GROUP_63
  1

  0
LINE
  5
259
  8
LAYER0001
  6
CONTINUOUS
 62
     7
 10
51.52284748708865
 20
6.607114135875561
 30
0.0
 11
50.98695104167015
 21
8.607113371329533
 31
0.0
  0
LINE
  5
25A
  8
LAYER0001
  6
CONTINUOUS
 62
     7
 10
50.98695104167015
 20
8.607113371329533
 30
0.0
 11
52.45105274875266
 21
7.143013602411182
 31
0.0
  0
LINE
  5
25B
  8
LAYER0001
  6
CONTINUOUS
 62
     7
 10
50.98695104167015
 20
8.607113371329533
 30
0.0
 11
51.98695011792066
 21
6.87506386914337
 31
0.0
  0
ENDBLK
  5
108
  8
0
  0
BLOCK
  8
0
  2
DC_GROUP_64
 70
     0
 10
0.0
 20
0.0
 30
0.0
  3
DC_GROUP_64
  1

  0
LINE
  5
25C
  8
LAYER0001
  6
CONTINUOUS
 62
     7
 10
55.45105400020521
 20
1.946858128328916
 30
0.0
 11
55.98695044562371
 21
-0.0531411071250574
 31
0.0
  0
LINE
  5
25D
  8
LAYER0001
  6
CONTINUOUS
 62
     7
 10
55.98695044562371
 20
-0.0531411071250574
 30
0.0
 11
54.52284873854121
 21
1.410958661793295
 31
0.0
  0
LINE
  5
25E
  8
LAYER0001
  6
CONTINUOUS
 62
     7
 10
55.98695044562371
 20
-0.0531411071250574
 30
0.0
 11
54.98695136937321
 21
1.678908395061104
 31
0.0
  0
ENDBLK
  5
10B
  8
0
  0
BLOCK
  8
0
  2
DC_GROUP_65
 70
     0
 10
0.0
 20
0.0
 30
0.0
  3
DC_GROUP_65
  1

  0
LINE
  5
25F
  8
0
  6
CONTINUOUS
 62
     9
 10
-98.48927897386591
 20
29.47034623738862
 30
0.0
 11
-79.48927897386591
 21
29.47034623738862
 31
0.0
  0
LINE
  5
260
  8
0
  6
CONTINUOUS
 62
     9
 10
-79.48927897386591
 20
29.47034623738862
 30
0.0
 11
-71.48927897386591
 21
29.47034623738862
 31
0.0
  0
LINE
  5
261
  8
0
  6
CONTINUOUS
 62
     9
 10
-71.48927897386591
 20
29.47034623738862
 30
0.0
 11
-63.4892789738659
 21
29.47034623738862
 31
0.0
  0
INSERT
  5
262
  8
0
  6
CONTINUOUS
  2
DC_GROUP_66
 10
0.0
 20
0.0
 30
0.0
  0
INSERT
  5
263
  8
0
  6
CONTINUOUS
  2
DC_GROUP_67
 10
0.0
 20
0.0
 30
0.0
  0
INSERT
  5
264
  8
0
  6
CONTINUOUS
  2
DC_GROUP_68
 10
0.0
 20
0.0
 30
0.0
  0
INSERT
  5
265
  8
0
  6
CONTINUOUS
  2
DC_GROUP_69
 10
0.0
 20
0.0
 30
0.0
  0
INSERT
  5
266
  8
0
  6
CONTINUOUS
  2
DC_GROUP_70
 10
0.0
 20
0.0
 30
0.0
  0
INSERT
  5
267
  8
0
  6
CONTINUOUS
  2
DC_GROUP_71
 10
0.0
 20
0.0
 30
0.0
  0
TEXT
  5
268
  8
0
 62
     7
 10
-92.18927897386591
 20
30.47034623738862
 30
0.0
 40
4.0
  1
19
 41
0.5714285714285712
  7
FDASTYLE1
 72
     5
 11
-87.61785040243734
 21
30.47034623738862
 31
0.0
  0
TEXT
  5
269
  8
0
 62
     7
 10
-77.0892789738659
 20
30.47034623738862
 30
0.0
 40
4.0
  1
8
 41
0.5333333333333314
  7
FDASTYLE1
 72
     5
 11
-74.95594564053258
 21
30.47034623738862
 31
0.0
  0
TEXT
  5
26A
  8
0
 62
     7
 10
-69.0892789738659
 20
30.47034623738862
 30
0.0
 40
4.0
  1
8
 41
0.5333333333333314
  7
FDASTYLE1
 72
     5
 11
-66.95594564053258
 21
30.47034623738862
 31
0.0
  0
ENDBLK
  5
10E
  8
0
  0
BLOCK
  8
0
  2
DC_GROUP_66
 70
     0
 10
0.0
 20
0.0
 30
0.0
  3
DC_GROUP_66
  1

  0
LINE
  5
26B
  8
0
  6
CONTINUOUS
 62
     9
 10
-96.48928056623525
 20
28.93444670249101
 30
0.0
 11
-98.48927897386591
 21
29.47034623738862
 31
0.0
  0
LINE
  5
26C
  8
0
  6
CONTINUOUS
 62
     9
 10
-98.48927897386591
 20
29.47034623738862
 30
0.0
 11
-96.48928056623525
 21
30.00624577228622
 31
0.0
  0
LINE
  5
26D
  8
0
  6
CONTINUOUS
 62
     9
 10
-98.48927897386591
 20
29.47034623738862
 30
0.0
 11
-96.48928056623525
 21
29.47034623738862
 31
0.0
  0
ENDBLK
  5
111
  8
0
  0
BLOCK
  8
0
  2
DC_GROUP_67
 70
     0
 10
0.0
 20
0.0
 30
0.0
  3
DC_GROUP_67
  1

  0
LINE
  5
26E
  8
0
  6
CONTINUOUS
 62
     9
 10
-81.48927738149658
 20
30.00624577228622
 30
0.0
 11
-79.48927897386591
 21
29.47034623738862
 31
0.0
  0
LINE
  5
26F
  8
0
  6
CONTINUOUS
 62
     9
 10
-79.48927897386591
 20
29.47034623738862
 30
0.0
 11
-81.48927738149658
 21
28.93444670249101
 31
0.0
  0
LINE
  5
270
  8
0
  6
CONTINUOUS
 62
     9
 10
-79.48927897386591
 20
29.47034623738862
 30
0.0
 11
-81.48927738149658
 21
29.47034623738862
 31
0.0
  0
ENDBLK
  5
114
  8
0
  0
BLOCK
  8
0
  2
DC_GROUP_68
 70
     0
 10
0.0
 20
0.0
 30
0.0
  3
DC_GROUP_68
  1

  0
LINE
  5
271
  8
0
  6
CONTINUOUS
 62
     9
 10
-77.48928056623525
 20
28.93444670249101
 30
0.0
 11
-79.48927897386591
 21
29.47034623738862
 31
0.0
  0
LINE
  5
272
  8
0
  6
CONTINUOUS
 62
     9
 10
-79.48927897386591
 20
29.47034623738862
 30
0.0
 11
-77.48928056623525
 21
30.00624577228622
 31
0.0
  0
LINE
  5
273
  8
0
  6
CONTINUOUS
 62
     9
 10
-79.48927897386591
 20
29.47034623738862
 30
0.0
 11
-77.48928056623525
 21
29.47034623738862
 31
0.0
  0
ENDBLK
  5
117
  8
0
  0
BLOCK
  8
0
  2
DC_GROUP_69
 70
     0
 10
0.0
 20
0.0
 30
0.0
  3
DC_GROUP_69
  1

  0
LINE
  5
274
  8
0
  6
CONTINUOUS
 62
     9
 10
-73.48927738149656
 20
30.00624577228622
 30
0.0
 11
-71.48927897386591
 21
29.47034623738862
 31
0.0
  0
LINE
  5
275
  8
0
  6
CONTINUOUS
 62
     9
 10
-71.48927897386591
 20
29.47034623738862
 30
0.0
 11
-73.48927738149656
 21
28.93444670249101
 31
0.0
  0
LINE
  5
276
  8
0
  6
CONTINUOUS
 62
     9
 10
-71.48927897386591
 20
29.47034623738862
 30
0.0
 11
-73.48927738149656
 21
29.47034623738862
 31
0.0
  0
ENDBLK
  5
11A
  8
0
  0
BLOCK
  8
0
  2
DC_GROUP_70
 70
     0
 10
0.0
 20
0.0
 30
0.0
  3
DC_GROUP_70
  1

  0
LINE
  5
277
  8
0
  6
CONTINUOUS
 62
     9
 10
-69.48928056623524
 20
28.93444670249101
 30
0.0
 11
-71.48927897386591
 21
29.47034623738862
 31
0.0
  0
LINE
  5
278
  8
0
  6
CONTINUOUS
 62
     9
 10
-71.48927897386591
 20
29.47034623738862
 30
0.0
 11
-69.48928056623524
 21
30.00624577228622
 31
0.0
  0
LINE
  5
279
  8
0
  6
CONTINUOUS
 62
     9
 10
-71.48927897386591
 20
29.47034623738862
 30
0.0
 11
-69.48928056623524
 21
29.47034623738862
 31
0.0
  0
ENDBLK
  5
11D
  8
0
  0
BLOCK
  8
0
  2
DC_GROUP_71
 70
     0
 10
0.0
 20
0.0
 30
0.0
  3
DC_GROUP_71
  1

  0
LINE
  5
27A
  8
0
  6
CONTINUOUS
 62
     9
 10
-65.48927738149656
 20
30.00624577228622
 30
0.0
 11
-63.4892789738659
 21
29.47034623738862
 31
0.0
  0
LINE
  5
27B
  8
0
  6
CONTINUOUS
 62
     9
 10
-63.4892789738659
 20
29.47034623738862
 30
0.0
 11
-65.48927738149656
 21
28.93444670249101
 31
0.0
  0
LINE
  5
27C
  8
0
  6
CONTINUOUS
 62
     9
 10
-63.4892789738659
 20
29.47034623738862
 30
0.0
 11
-65.48927738149656
 21
29.47034623738862
 31
0.0
  0
ENDBLK
  5
120
  8
0
  0
BLOCK
  8
0
  2
DC_GROUP_72
 70
     0
 10
0.0
 20
0.0
 30
0.0
  3
DC_GROUP_72
  1

  0
LINE
  5
27D
  8
0
  6
CONTINUOUS
 62
     9
 10
-98.48927897386591
 20
54.90076386879501
 30
0.0
 11
-98.48927897386591
 21
106.7117347532661
 31
0.0
  0
LINE
  5
27E
  8
0
  6
CONTINUOUS
 62
     9
 10
-102.7892820256237
 20
79.40076386879501
 30
0.0
 11
-102.7892820256237
 21
106.7117347532661
 31
0.0
  0
LINE
  5
27F
  8
0
  6
CONTINUOUS
 62
     9
 10
-102.7892820256237
 20
105.7117347532661
 30
0.0
 11
-98.48927897386591
 21
105.7117347532661
 31
0.0
  0
LINE
  5
280
  8
0
  6
CONTINUOUS
 62
     9
 10
-129.1211320256237
 20
105.7117347532661
 30
0.0
 11
-102.7892820256237
 21
105.7117347532661
 31
0.0
  0
LINE
  5
281
  8
0
  6
CONTINUOUS
 62
     9
 10
-93.48927897386591
 20
105.7117347532661
 30
0.0
 11
-98.48927897386591
 21
105.7117347532661
 31
0.0
  0
INSERT
  5
282
  8
0
  6
CONTINUOUS
  2
DC_GROUP_73
 10
0.0
 20
0.0
 30
0.0
  0
INSERT
  5
283
  8
0
  6
CONTINUOUS
  2
DC_GROUP_74
 10
0.0
 20
0.0
 30
0.0
  0
TEXT
  5
284
  8
0
 62
     7
 10
-128.1211320256237
 20
106.7117347532661
 30
0.0
 40
4.0
  1
MAX11.8
 41
0.6802721088435371
  7
FDASTYLE1
 72
     5
 11
-109.0735129780047
 21
106.7117347532661
 31
0.0
  0
ENDBLK
  5
123
  8
0
  0
BLOCK
  8
0
  2
DC_GROUP_73
 70
     0
 10
0.0
 20
0.0
 30
0.0
  3
DC_GROUP_73
  1

  0
LINE
  5
285
  8
0
  6
CONTINUOUS
 62
     9
 10
-104.7892804332544
 20
106.2476342881637
 30
0.0
 11
-102.7892820256237
 21
105.7117347532661
 31
0.0
  0
LINE
  5
286
  8
0
  6
CONTINUOUS
 62
     9
 10
-102.7892820256237
 20
105.7117347532661
 30
0.0
 11
-104.7892804332544
 21
105.1758352183685
 31
0.0
  0
LINE
  5
287
  8
0
  6
CONTINUOUS
 62
     9
 10
-102.7892820256237
 20
105.7117347532661
 30
0.0
 11
-104.7892804332544
 21
105.7117347532661
 31
0.0
  0
ENDBLK
  5
126
  8
0
  0
BLOCK
  8
0
  2
DC_GROUP_74
 70
     0
 10
0.0
 20
0.0
 30
0.0
  3
DC_GROUP_74
  1

  0
LINE
  5
288
  8
0
  6
CONTINUOUS
 62
     9
 10
-96.48928056623525
 20
105.1758352183685
 30
0.0
 11
-98.48927897386591
 21
105.7117347532661
 31
0.0
  0
LINE
  5
289
  8
0
  6
CONTINUOUS
 62
     9
 10
-98.48927897386591
 20
105.7117347532661
 30
0.0
 11
-96.48928056623525
 21
106.2476342881637
 31
0.0
  0
LINE
  5
28A
  8
0
  6
CONTINUOUS
 62
     9
 10
-98.48927897386591
 20
105.7117347532661
 30
0.0
 11
-96.48928056623525
 21
105.7117347532661
 31
0.0
  0
ENDBLK
  5
129
  8
0
  0
BLOCK
  8
0
  2
DC_GROUP_75
 70
     0
 10
0.0
 20
0.0
 30
0.0
  3
DC_GROUP_75
  1

  0
LINE
  5
28B
  8
0
  6
CONTINUOUS
 62
     9
 10
-5.439186189441765
 20
35.90076386879501
 30
0.0
 11
-5.439186189441765
 21
55.90076386879501
 31
0.0
  0
LINE
  5
28C
  8
0
  6
CONTINUOUS
 62
     9
 10
-48.86778737773015
 20
35.90076386879501
 30
0.0
 11
-4.439186189441765
 21
35.90076386879501
 31
0.0
  0
LINE
  5
28D
  8
0
  6
CONTINUOUS
 62
     9
 10
-52.9892789738659
 20
55.90076386879501
 30
0.0
 11
-4.439186189441765
 21
55.90076386879501
 31
0.0
  0
INSERT
  5
28E
  8
0
  6
CONTINUOUS
  2
DC_GROUP_76
 10
0.0
 20
0.0
 30
0.0
  0
INSERT
  5
28F
  8
0
  6
CONTINUOUS
  2
DC_GROUP_77
 10
0.0
 20
0.0
 30
0.0
  0
TEXT
  5
290
  8
0
 62
     7
 10
-6.439186189441762
 20
37.90076386879501
 30
0.0
 40
4.0
  1
MAX21
 50
90.0
 41
0.6780952380952382
  7
FDASTYLE1
 72
     5
 11
-6.439186189441762
 21
51.46266863069977
 31
0.0
  0
ENDBLK
  5
12C
  8
0
  0
BLOCK
  8
0
  2
DC_GROUP_76
 70
     0
 10
0.0
 20
0.0
 30
0.0
  3
DC_GROUP_76
  1

  0
LINE
  5
291
  8
0
  6
CONTINUOUS
 62
     9
 10
-4.903286654544156
 20
37.90076227642567
 30
0.0
 11
-5.439186189441765
 21
35.90076386879501
 31
0.0
  0
LINE
  5
292
  8
0
  6
CONTINUOUS
 62
     9
 10
-5.439186189441765
 20
35.90076386879501
 30
0.0
 11
-5.975085724339373
 21
37.90076227642567
 31
0.0
  0
LINE
  5
293
  8
0
  6
CONTINUOUS
 62
     9
 10
-5.439186189441765
 20
35.90076386879501
 30
0.0
 11
-5.439186189441764
 21
37.90076227642567
 31
0.0
  0
ENDBLK
  5
12F
  8
0
  0
BLOCK
  8
0
  2
DC_GROUP_77
 70
     0
 10
0.0
 20
0.0
 30
0.0
  3
DC_GROUP_77
  1

  0
LINE
  5
294
  8
0
  6
CONTINUOUS
 62
     9
 10
-5.975085724339373
 20
53.90076546116435
 30
0.0
 11
-5.439186189441765
 21
55.90076386879501
 31
0.0
  0
LINE
  5
295
  8
0
  6
CONTINUOUS
 62
     9
 10
-5.439186189441765
 20
55.90076386879501
 30
0.0
 11
-4.903286654544158
 21
53.90076546116435
 31
0.0
  0
LINE
  5
296
  8
0
  6
CONTINUOUS
 62
     9
 10
-5.439186189441765
 20
55.90076386879501
 30
0.0
 11
-5.439186189441765
 21
53.90076546116435
 31
0.0
  0
ENDBLK
  5
132
  8
0
  0
BLOCK
  8
0
  2
DC_GROUP_78
 70
     0
 10
0.0
 20
0.0
 30
0.0
  3
DC_GROUP_78
  1

  0
LINE
  5
297
  8
0
  6
CONTINUOUS
 62
     9
 10
-98.98927897386591
 20
45.15076386879501
 30
0.0
 11
-122.1943462897526
 21
45.15076386879501
 31
0.0
  0
LINE
  5
298
  8
0
  6
CONTINUOUS
 62
     9
 10
-98.98926683153957
 20
26.65074650360894
 30
0.0
 11
-122.1943462897526
 21
26.65074650360894
 31
0.0
  0
LINE
  5
299
  8
0
  6
CONTINUOUS
 62
     9
 10
-121.1943462897526
 20
26.65074650360894
 30
0.0
 11
-121.1943462897526
 21
45.15076386879501
 31
0.0
  0
INSERT
  5
29A
  8
0
  6
CONTINUOUS
  2
DC_GROUP_79
 10
0.0
 20
0.0
 30
0.0
  0
INSERT
  5
29B
  8
0
  6
CONTINUOUS
  2
DC_GROUP_80
 10
0.0
 20
0.0
 30
0.0
  0
TEXT
  5
29C
  8
0
 62
     7
 10
-122.1943462897526
 20
23.88075518620197
 30
0.0
 40
4.0
  1
φ18.5
 50
90.0
 41
0.6213017751479286
  7
FDASTYLE1
 72
     5
 11
-122.1943462897526
 21
36.80383210927889
 31
0.0
  0
TEXT
  5
29D
  8
0
 62
     7
 10
-124.3943462897526
 20
40.88075518620197
 30
0.0
 40
2.2
  1
+0.3
 50
90.0
 41
0.6571428571428584
  7
FDASTYLE1
 72
     5
 11
-124.3943462897526
 21
46.66361232905912
 31
0.0
  0
TEXT
  5
29E
  8
0
 62
     7
 10
-121.9943462897526
 20
40.88075518620197
 30
0.0
 40
2.2
  1
 0
 50
90.0
 41
0.2666666666666663
  7
FDASTYLE1
 72
     5
 11
-121.9943462897526
 21
42.0540885195353
 31
0.0
  0
ENDBLK
  5
135
  8
0
  0
BLOCK
  8
0
  2
DC_GROUP_79
 70
     0
 10
0.0
 20
0.0
 30
0.0
  3
DC_GROUP_79
  1

  0
LINE
  5
29F
  8
0
  6
CONTINUOUS
 62
     9
 10
-120.658446754855
 20
28.6507449112396
 30
0.0
 11
-121.1943462897526
 21
26.65074650360894
 31
0.0
  0
LINE
  5
2A0
  8
0
  6
CONTINUOUS
 62
     9
 10
-121.1943462897526
 20
26.65074650360894
 30
0.0
 11
-121.7302458246502
 21
28.6507449112396
 31
0.0
  0
LINE
  5
2A1
  8
0
  6
CONTINUOUS
 62
     9
 10
-121.1943462897526
 20
26.65074650360894
 30
0.0
 11
-121.1943462897526
 21
28.6507449112396
 31
0.0
  0
ENDBLK
  5
138
  8
0
  0
BLOCK
  8
0
  2
DC_GROUP_80
 70
     0
 10
0.0
 20
0.0
 30
0.0
  3
DC_GROUP_80
  1

  0
LINE
  5
2A2
  8
0
  6
CONTINUOUS
 62
     9
 10
-121.7302458246502
 20
43.15076546116436
 30
0.0
 11
-121.1943462897526
 21
45.15076386879501
 31
0.0
  0
LINE
  5
2A3
  8
0
  6
CONTINUOUS
 62
     9
 10
-121.1943462897526
 20
45.15076386879501
 30
0.0
 11
-120.658446754855
 21
43.15076546116436
 31
0.0
  0
LINE
  5
2A4
  8
0
  6
CONTINUOUS
 62
     9
 10
-121.1943462897526
 20
45.15076386879501
 30
0.0
 11
-121.1943462897526
 21
43.15076546116436
 31
0.0
  0
ENDBLK
  5
13B
  8
0
  0
BLOCK
  8
0
  2
DC_GROUP_81
 70
     0
 10
0.0
 20
0.0
 30
0.0
  3
DC_GROUP_81
  1

  0
TEXT
  5
2A5
  8
0
 62
     7
 10
-0.5903743753488824
 20
37.65169239673006
 30
0.0
 40
4.0
  1
MIN19
 50
90.0
 41
0.6552380952380954
  7
FDASTYLE1
 72
     5
 11
-0.5903743753488824
 21
50.75645430149197
 31
0.0
  0
ENDBLK
  5
13E
  8
0
  0
BLOCK
  8
0
  2
DC_GROUP_82
 70
     0
 10
0.0
 20
0.0
 30
0.0
  3
DC_GROUP_82
  1

  0
LINE
  5
2A6
  8
0
  6
CONTINUOUS
 62
     9
 10
-118.9892789738659
 20
-5.399235368265536
 30
0.0
 11
-118.9892789738659
 21
-31.05961261614966
 31
0.0
  0
LINE
  5
2A7
  8
0
  6
CONTINUOUS
 62
     9
 10
-118.9892789738659
 20
-30.05961261614966
 30
0.0
 11
-102.7892820256237
 21
-30.05961261614966
 31
0.0
  0
LINE
  5
2A8
  8
0
  6
CONTINUOUS
 62
     9
 10
-135.7211289738659
 20
-30.05961261614966
 30
0.0
 11
-118.9892789738659
 21
-30.05961261614966
 31
0.0
  0
INSERT
  5
2A9
  8
0
  6
CONTINUOUS
  2
DC_GROUP_83
 10
0.0
 20
0.0
 30
0.0
  0
TEXT
  5
2AA
  8
0
 62
     7
 10
-134.7211289738659
 20
-29.05961261614966
 30
0.0
 40
4.0
  1
16.2
 41
0.5809523809523816
  7
FDASTYLE1
 72
     5
 11
-125.4258908786278
 21
-29.05961261614966
 31
0.0
  0
ENDBLK
  5
141
  8
0
  0
BLOCK
  8
0
  2
DC_GROUP_83
 70
     0
 10
0.0
 20
0.0
 30
0.0
  3
DC_GROUP_83
  1

  0
LINE
  5
2AB
  8
0
  6
CONTINUOUS
 62
     9
 10
-120.9892773814966
 20
-29.52371308125205
 30
0.0
 11
-118.9892789738659
 21
-30.05961261614966
 31
0.0
  0
LINE
  5
2AC
  8
0
  6
CONTINUOUS
 62
     9
 10
-118.9892789738659
 20
-30.05961261614966
 30
0.0
 11
-120.9892773814966
 21
-30.59551215104727
 31
0.0
  0
LINE
  5
2AD
  8
0
  6
CONTINUOUS
 62
     9
 10
-118.9892789738659
 20
-30.05961261614966
 30
0.0
 11
-120.9892773814966
 21
-30.05961261614966
 31
0.0
  0
ENDBLK
  5
144
  8
0
  0
BLOCK
  8
0
  2
DC_GROUP_84
 70
     0
 10
0.0
 20
0.0
 30
0.0
  3
DC_GROUP_84
  1

  0
LINE
  5
2AE
  8
0
  6
CONTINUOUS
 62
     9
 10
56.73442573013887
 20
65.64962649037946
 30
0.0
 11
66.43191917030626
 21
60.05077666080597
 31
0.0
  0
LINE
  5
2AF
  8
0
  6
CONTINUOUS
 62
     9
 10
48.763242777625
 20
35.90076386879502
 30
0.0
 11
52.17104024771901
 21
35.90076386879501
 31
0.0
  0
ARC
  5
2B0
  8
0
  6
CONTINUOUS
 62
     9
 10
108.2609729508618
 20
35.90076386879501
 30
0.0
 40
58.49773017323685
 50
150.0000027410345
 51
180.0
  0
INSERT
  5
2B1
  8
0
  6
CONTINUOUS
  2
DC_GROUP_85
 10
0.0
 20
0.0
 30
0.0
  0
INSERT
  5
2B2
  8
0
  6
CONTINUOUS
  2
DC_GROUP_86
 10
0.0
 20
0.0
 30
0.0
  0
TEXT
  5
2B3
  8
0
 62
     7
 10
49.54824709701769
 20
46.66346420740142
 30
0.0
 40
4.0
  1
30°
 50
75.00000137051728
 41
0.6093750000000001
  7
FDASTYLE1
 72
     5
 11
51.56703546859848
 21
54.19768570074565
 31
0.0
  0
ENDBLK
  5
147
  8
0
  0
BLOCK
  8
0
  2
DC_GROUP_85
 70
     0
 10
0.0
 20
0.0
 30
0.0
  3
DC_GROUP_85
  1

  0
LINE
  5
2B4
  8
0
  6
CONTINUOUS
 62
     9
 10
56.161590417536
 20
63.66071360217636
 30
0.0
 11
57.60045115784335
 21
65.14962653181019
 31
0.0
  0
LINE
  5
2B5
  8
0
  6
CONTINUOUS
 62
     9
 10
57.60045115784335
 20
65.14962653181019
 30
0.0
 11
57.09882062427205
 21
63.14075900262425
 31
0.0
  0
LINE
  5
2B6
  8
0
  6
CONTINUOUS
 62
     9
 10
57.60045115784335
 20
65.14962653181019
 30
0.0
 11
56.63020552090403
 21
63.4007363024003
 31
0.0
  0
ENDBLK
  5
14A
  8
0
  0
BLOCK
  8
0
  2
DC_GROUP_86
 70
     0
 10
0.0
 20
0.0
 30
0.0
  3
DC_GROUP_86
  1

  0
LINE
  5
2B7
  8
0
  6
CONTINUOUS
 62
     9
 10
50.33325166160342
 20
37.89130947596264
 30
0.0
 11
49.763242777625
 21
35.90076386879502
 31
0.0
  0
LINE
  5
2B8
  8
0
  6
CONTINUOUS
 62
     9
 10
49.763242777625
 20
35.90076386879502
 30
0.0
 11
49.26160919272331
 21
37.90963063603653
 31
0.0
  0
LINE
  5
2B9
  8
0
  6
CONTINUOUS
 62
     9
 10
49.763242777625
 20
35.90076386879502
 30
0.0
 11
49.79743042716337
 21
37.90047005599958
 31
0.0
  0
ENDBLK
  5
14D
  8
0
  0
BLOCK
  8
0
  2
DC_GROUP_87
 70
     0
 10
0.0
 20
0.0
 30
0.0
  3
DC_GROUP_87
  1

  0
LINE
  5
2BA
  8
0
  6
CONTINUOUS
 62
     9
 10
170.0273785073285
 20
35.90076386879501
 30
0.0
 11
164.1533131886295
 21
35.90076386879501
 31
0.0
  0
LINE
  5
2BB
  8
0
  6
CONTINUOUS
 62
     9
 10
161.7522490709129
 20
66.7839703196168
 30
0.0
 11
149.4021610058553
 21
59.65364443851244
 31
0.0
  0
ARC
  5
2BC
  8
0
  6
CONTINUOUS
 62
     9
 10
108.2609604876302
 20
35.90076386879501
 30
0.0
 40
60.76641801969826
 50
0.0
 51
29.99999725896548
  0
INSERT
  5
2BD
  8
0
  6
CONTINUOUS
  2
DC_GROUP_88
 10
0.0
 20
0.0
 30
0.0
  0
INSERT
  5
2BE
  8
0
  6
CONTINUOUS
  2
DC_GROUP_89
 10
0.0
 20
0.0
 30
0.0
  0
TEXT
  5
2BF
  8
0
 62
     7
 10
167.2332188732449
 20
46.73300573304518
 30
0.0
 40
4.0
  1
30°
 50
104.9999986294827
 41
0.6093750000000008
  7
FDASTYLE1
 72
     5
 11
165.2144305016641
 21
54.26722722638942
 31
0.0
  0
ENDBLK
  5
150
  8
0
  0
BLOCK
  8
0
  2
DC_GROUP_88
 70
     0
 10
0.0
 20
0.0
 30
0.0
  3
DC_GROUP_88
  1

  0
LINE
  5
2C0
  8
0
  6
CONTINUOUS
 62
     9
 10
169.5302940931891
 20
37.90931007327406
 30
0.0
 11
169.0273785073285
 21
35.90076386879501
 31
0.0
  0
LINE
  5
2C1
  8
0
  6
CONTINUOUS
 62
     9
 10
169.0273785073285
 20
35.90076386879501
 30
0.0
 11
168.4586401495948
 21
37.89167286281534
 31
0.0
  0
LINE
  5
2C2
  8
0
  6
CONTINUOUS
 62
     9
 10
169.0273785073285
 20
35.90076386879501
 30
0.0
 11
168.994467121392
 21
37.9004914680447
 31
0.0
  0
ENDBLK
  5
153
  8
0
  0
BLOCK
  8
0
  2
DC_GROUP_89
 70
     0
 10
0.0
 20
0.0
 30
0.0
  3
DC_GROUP_89
  1

  0
LINE
  5
2C3
  8
0
  6
CONTINUOUS
 62
     9
 10
161.3891361782255
 20
64.27542339267676
 30
0.0
 11
160.8862236432084
 21
66.28397036104752
 31
0.0
  0
LINE
  5
2C4
  8
0
  6
CONTINUOUS
 62
     9
 10
160.8862236432084
 20
66.28397036104752
 30
0.0
 11
162.3260343475765
 21
64.79597604734346
 31
0.0
  0
LINE
  5
2C5
  8
0
  6
CONTINUOUS
 62
     9
 10
160.8862236432084
 20
66.28397036104752
 30
0.0
 11
161.857585262901
 21
64.53569972001012
 31
0.0
  0
ENDBLK
  5
156
  8
0
  0
BLOCK
  8
0
  2
DC_GROUP_90
 70
     0
 10
0.0
 20
0.0
 30
0.0
  3
DC_GROUP_90
  1

  0
LINE
  5
2C6
  8
0
  6
CONTINUOUS
 62
     9
 10
96.76093869367205
 20
39.21466471488276
 30
0.0
 11
96.76093869367205
 21
40.98998822143695
 31
0.0
  0
LINE
  5
2C7
  8
0
  6
CONTINUOUS
 62
     9
 10
119.7609386936721
 20
39.16006647051879
 30
0.0
 11
119.7609386936721
 21
40.98998822143695
 31
0.0
  0
LINE
  5
2C8
  8
0
  6
CONTINUOUS
 62
     9
 10
146.680800942285
 20
39.98998822143695
 30
0.0
 11
119.7609386936721
 21
39.98998822143695
 31
0.0
  0
LINE
  5
2C9
  8
0
  6
CONTINUOUS
 62
     9
 10
96.76093869367205
 20
39.98998822143695
 30
0.0
 11
119.7609386936721
 21
39.98998822143695
 31
0.0
  0
INSERT
  5
2CA
  8
0
  6
CONTINUOUS
  2
DC_GROUP_91
 10
0.0
 20
0.0
 30
0.0
  0
INSERT
  5
2CB
  8
0
  6
CONTINUOUS
  2
DC_GROUP_92
 10
0.0
 20
0.0
 30
0.0
  0
TEXT
  5
2CC
  8
0
 62
     7
 10
129.680800942285
 20
40.98998822143695
 30
0.0
 40
4.0
  1
PCD23
 41
0.7314285714285717
  7
FDASTYLE1
 72
     5
 11
144.3093723708564
 21
40.98998822143695
 31
0.0
  0
ENDBLK
  5
159
  8
0
  0
BLOCK
  8
0
  2
DC_GROUP_91
 70
     0
 10
0.0
 20
0.0
 30
0.0
  3
DC_GROUP_91
  1

  0
LINE
  5
2CD
  8
0
  6
CONTINUOUS
 62
     9
 10
98.7609371013027
 20
39.45408868653934
 30
0.0
 11
96.76093869367205
 21
39.98998822143695
 31
0.0
  0
LINE
  5
2CE
  8
0
  6
CONTINUOUS
 62
     9
 10
96.76093869367205
 20
39.98998822143695
 30
0.0
 11
98.7609371013027
 21
40.52588775633456
 31
0.0
  0
LINE
  5
2CF
  8
0
  6
CONTINUOUS
 62
     9
 10
96.76093869367205
 20
39.98998822143695
 30
0.0
 11
98.7609371013027
 21
39.98998822143695
 31
0.0
  0
ENDBLK
  5
15C
  8
0
  0
BLOCK
  8
0
  2
DC_GROUP_92
 70
     0
 10
0.0
 20
0.0
 30
0.0
  3
DC_GROUP_92
  1

  0
LINE
  5
2D0
  8
0
  6
CONTINUOUS
 62
     9
 10
117.7609402860415
 20
40.52588775633456
 30
0.0
 11
119.7609386936721
 21
39.98998822143695
 31
0.0
  0
LINE
  5
2D1
  8
0
  6
CONTINUOUS
 62
     9
 10
119.7609386936721
 20
39.98998822143695
 30
0.0
 11
117.7609402860415
 21
39.45408868653934
 31
0.0
  0
LINE
  5
2D2
  8
0
  6
CONTINUOUS
 62
     9
 10
119.7609386936721
 20
39.98998822143695
 30
0.0
 11
117.7609402860415
 21
39.98998822143695
 31
0.0
  0
ENDBLK
  5
15F
  8
0
  0
BLOCK
  8
0
  2
DC_GROUP_93
 70
     0
 10
0.0
 20
0.0
 30
0.0
  3
DC_GROUP_93
  1

  0
LINE
  5
2D3
  8
0
  6
CONTINUOUS
 62
     7
 10
95.99358048285254
 20
36.95012617625141
 30
0.0
 11
61.07952872822126
 21
78.81659129355813
 31
0.0
  0
LINE
  5
2D4
  8
0
  6
CONTINUOUS
 62
     7
 10
61.07952872822126
 20
78.81659129355813
 30
0.0
 11
41.87952872822126
 21
78.81659129355813
 31
0.0
  0
INSERT
  5
2D5
  8
0
  6
CONTINUOUS
  2
DC_GROUP_94
 10
0.0
 20
0.0
 30
0.0
  0
TEXT
  5
2D6
  8
0
 62
     7
 10
41.87952872822126
 20
78.81659129355813
 30
0.0
 40
4.0
  1
2-φ2.6
 41
0.6243496357960457
  7
FDASTYLE1
 72
     5
 11
57.3633996959632
 21
78.81659129355813
 31
0.0
  0
ENDBLK
  5
162
  8
0
  0
BLOCK
  8
0
  2
DC_GROUP_94
 70
     0
 10
0.0
 20
0.0
 30
0.0
  3
DC_GROUP_94
  1

  0
LINE
  5
2D7
  8
0
  6
CONTINUOUS
 62
     7
 10
95.12423126208699
 20
38.82933182608939
 30
0.0
 11
95.99358048285254
 21
36.95012617625141
 31
0.0
  0
LINE
  5
2D8
  8
0
  6
CONTINUOUS
 62
     7
 10
95.99358048285254
 20
36.95012617625141
 30
0.0
 11
94.30109739332625
 21
38.14288890776853
 31
0.0
  0
LINE
  5
2D9
  8
0
  6
CONTINUOUS
 62
     7
 10
95.99358048285254
 20
36.95012617625141
 30
0.0
 11
94.71266432770662
 21
38.48611036692896
 31
0.0
  0
ENDBLK
  5
165
  8
0
  0
ENDSEC
  0
SECTION
  2
ENTITIES
  0
LINE
  5
2DA
  8
LAYER0002
  6
CONTINUOUS
 62
     3
 10
-192.0
 20
-138.4999999999999
 30
0.0
 11
-192.0
 21
138.4999999999999
 31
0.0
  0
LINE
  5
2DB
  8
LAYER0002
  6
CONTINUOUS
 62
     3
 10
192.0
 20
-138.4999999999999
 30
0.0
 11
192.0
 21
138.4999999999999
 31
0.0
  0
LINE
  5
2DC
  8
LAYER0002
  6
CONTINUOUS
 62
     3
 10
-192.0
 20
-138.4999999999999
 30
0.0
 11
192.0
 21
-138.4999999999999
 31
0.0
  0
LINE
  5
2DD
  8
LAYER0002
  6
CONTINUOUS
 62
     3
 10
-192.0
 20
138.4999999999999
 30
0.0
 11
192.0
 21
138.4999999999999
 31
0.0
  0
LINE
  5
2DE
  8
LAYER0002
  6
CONTINUOUS
 62
     3
 10
12.00000000000001
 20
-138.4999999999999
 30
0.0
 11
12.00000000000001
 21
-78.49999999999994
 31
0.0
  0
LINE
  5
2DF
  8
LAYER0002
  6
CONTINUOUS
 62
     3
 10
12.00000000000001
 20
-124.4999999999999
 30
0.0
 11
192.0
 21
-124.4999999999999
 31
0.0
  0
LINE
  5
2E0
  8
LAYER0002
  6
CONTINUOUS
 62
     3
 10
61.00000000000001
 20
-110.4999999999999
 30
0.0
 11
192.0
 21
-110.4999999999999
 31
0.0
  0
LINE
  5
2E1
  8
LAYER0002
  6
CONTINUOUS
 62
     3
 10
61.00000000000001
 20
-96.49999999999994
 30
0.0
 11
192.0
 21
-96.49999999999994
 31
0.0
  0
LINE
  5
2E2
  8
LAYER0002
  6
CONTINUOUS
 62
     3
 10
61.00000000000001
 20
-86.49999999999994
 30
0.0
 11
192.0
 21
-86.49999999999994
 31
0.0
  0
LINE
  5
2E3
  8
LAYER0002
  6
CONTINUOUS
 62
     3
 10
61.00000000000001
 20
-124.4999999999999
 30
0.0
 11
61.00000000000001
 21
-78.49999999999994
 31
0.0
  0
LINE
  5
2E4
  8
LAYER0002
  6
CONTINUOUS
 62
     3
 10
170.0
 20
-124.4999999999999
 30
0.0
 11
170.0
 21
-78.49999999999994
 31
0.0
  0
LINE
  5
2E5
  8
LAYER0002
  6
CONTINUOUS
 62
     3
 10
86.00000000000001
 20
-138.4999999999999
 30
0.0
 11
86.00000000000001
 21
-124.4999999999999
 31
0.0
  0
LINE
  5
2E6
  8
LAYER0002
  6
CONTINUOUS
 62
     3
 10
177.0
 20
-136.4999999999999
 30
0.0
 11
187.0
 21
-136.4999999999999
 31
0.0
  0
LINE
  5
2E7
  8
LAYER0002
  6
CONTINUOUS
 62
     3
 10
182.0
 20
-126.4999999999999
 30
0.0
 11
177.0
 21
-136.4999999999999
 31
0.0
  0
LINE
  5
2E8
  8
LAYER0002
  6
CONTINUOUS
 62
     3
 10
182.0
 20
-126.4999999999999
 30
0.0
 11
187.0
 21
-136.4999999999999
 31
0.0
  0
LINE
  5
2E9
  8
LAYER0002
  6
CONTINUOUS
 62
     3
 10
12.00000000000001
 20
-78.49999999999994
 30
0.0
 11
192.0
 21
-78.49999999999994
 31
0.0
  0
LINE
  5
2EA
  8
LAYER0002
  6
CONTINUOUS
 62
     3
 10
141.0
 20
-124.4999999999999
 30
0.0
 11
141.0
 21
-96.49999999999994
 31
0.0
  0
LINE
  5
2EB
  8
LAYER0002
  6
CONTINUOUS
 62
     4
 10
20.00000000000001
 20
-120.4999999999999
 30
0.0
 11
20.00000000000001
 21
-78.49999999999994
 31
0.0
  0
LINE
  5
2EC
  8
LAYER0002
  6
CONTINUOUS
 62
     4
 10
24.00000000000001
 20
-120.4999999999999
 30
0.0
 11
24.00000000000001
 21
-78.49999999999994
 31
0.0
  0
LINE
  5
2ED
  8
LAYER0002
  6
CONTINUOUS
 62
     4
 10
36.50000000000001
 20
-124.4999999999999
 30
0.0
 11
36.50000000000001
 21
-78.49999999999994
 31
0.0
  0
LINE
  5
2EE
  8
LAYER0002
  6
CONTINUOUS
 62
     4
 10
12.00000000000001
 20
-85.49999999999994
 30
0.0
 11
61.00000000000001
 21
-85.49999999999994
 31
0.0
  0
LINE
  5
2EF
  8
LAYER0002
  6
CONTINUOUS
 62
     4
 10
12.00000000000001
 20
-92.49999999999994
 30
0.0
 11
61.00000000000001
 21
-92.49999999999994
 31
0.0
  0
LINE
  5
2F0
  8
LAYER0002
  6
CONTINUOUS
 62
     4
 10
12.00000000000001
 20
-113.4999999999999
 30
0.0
 11
61.00000000000001
 21
-113.4999999999999
 31
0.0
  0
LINE
  5
2F1
  8
LAYER0002
  6
CONTINUOUS
 62
     4
 10
12.00000000000001
 20
-120.4999999999999
 30
0.0
 11
61.00000000000001
 21
-120.4999999999999
 31
0.0
  0
LINE
  5
2F2
  8
LAYER0002
  6
CONTINUOUS
 62
     4
 10
170.0
 20
-114.4999999999999
 30
0.0
 11
192.0
 21
-114.4999999999999
 31
0.0
  0
LINE
  5
2F3
  8
LAYER0002
  6
CONTINUOUS
 62
     4
 10
68.00000000000001
 20
-87.99999999999994
 30
0.0
 11
68.00000000000001
 21
-78.49999999999994
 31
0.0
  0
LINE
  5
2F4
  8
LAYER0002
  6
CONTINUOUS
 62
     4
 10
117.0
 20
-96.49999999999994
 30
0.0
 11
117.0
 21
-94.99999999999994
 31
0.0
  0
LINE
  5
2F5
  8
LAYER0002
  6
CONTINUOUS
 62
     4
 10
141.0
 20
-96.49999999999994
 30
0.0
 11
141.0
 21
-94.99999999999994
 31
0.0
  0
LINE
  5
2F6
  8
LAYER0002
  6
CONTINUOUS
 62
     4
 10
158.0
 20
-96.49999999999994
 30
0.0
 11
158.0
 21
-94.99999999999994
 31
0.0
  0
LINE
  5
2F7
  8
LAYER0002
  6
CONTINUOUS
 62
     4
 10
117.0
 20
-87.99999999999994
 30
0.0
 11
117.0
 21
-78.49999999999994
 31
0.0
  0
LINE
  5
2F8
  8
LAYER0002
  6
CONTINUOUS
 62
     4
 10
141.0
 20
-87.99999999999994
 30
0.0
 11
141.0
 21
-78.49999999999994
 31
0.0
  0
LINE
  5
2F9
  8
LAYER0002
  6
CONTINUOUS
 62
     4
 10
158.0
 20
-87.99999999999994
 30
0.0
 11
158.0
 21
-78.49999999999994
 31
0.0
  0
LINE
  5
2FA
  8
LAYER0002
  6
CONTINUOUS
 62
     4
 10
12.00000000000001
 20
-99.49999999999994
 30
0.0
 11
61.00000000000001
 21
-99.49999999999994
 31
0.0
  0
LINE
  5
2FB
  8
LAYER0002
  6
CONTINUOUS
 62
     4
 10
12.00000000000001
 20
-106.4999999999999
 30
0.0
 11
61.00000000000001
 21
-106.4999999999999
 31
0.0
  0
LINE
  5
2FC
  8
LAYER0002
  6
CONTINUOUS
 62
     4
 10
16.00000000000001
 20
-78.99999999999994
 30
0.0
 11
13.00000000000001
 21
-84.99999999999994
 31
0.0
  0
LINE
  5
2FD
  8
LAYER0002
  6
CONTINUOUS
 62
     4
 10
16.00000000000001
 20
-78.99999999999994
 30
0.0
 11
19.00000000000001
 21
-84.99999999999994
 31
0.0
  0
LINE
  5
2FE
  8
LAYER0002
  6
CONTINUOUS
 62
     4
 10
13.00000000000001
 20
-84.99999999999994
 30
0.0
 11
19.00000000000001
 21
-84.99999999999994
 31
0.0
  0
LINE
  5
2FF
  8
LAYER0002
  6
CONTINUOUS
 62
     4
 10
16.00000000000001
 20
-106.9999999999999
 30
0.0
 11
13.00000000000001
 21
-112.9999999999999
 31
0.0
  0
LINE
  5
300
  8
LAYER0002
  6
CONTINUOUS
 62
     4
 10
16.00000000000001
 20
-106.9999999999999
 30
0.0
 11
19.00000000000001
 21
-112.9999999999999
 31
0.0
  0
LINE
  5
301
  8
LAYER0002
  6
CONTINUOUS
 62
     4
 10
13.00000000000001
 20
-112.9999999999999
 30
0.0
 11
19.00000000000001
 21
-112.9999999999999
 31
0.0
  0
LINE
  5
302
  8
LAYER0002
  6
CONTINUOUS
 62
     4
 10
16.00000000000001
 20
-99.99999999999994
 30
0.0
 11
13.00000000000001
 21
-105.9999999999999
 31
0.0
  0
LINE
  5
303
  8
LAYER0002
  6
CONTINUOUS
 62
     4
 10
16.00000000000001
 20
-99.99999999999994
 30
0.0
 11
19.00000000000001
 21
-105.9999999999999
 31
0.0
  0
LINE
  5
304
  8
LAYER0002
  6
CONTINUOUS
 62
     4
 10
13.00000000000001
 20
-105.9999999999999
 30
0.0
 11
19.00000000000001
 21
-105.9999999999999
 31
0.0
  0
LINE
  5
305
  8
LAYER0002
  6
CONTINUOUS
 62
     4
 10
16.00000000000001
 20
-92.99999999999994
 30
0.0
 11
13.00000000000001
 21
-98.99999999999994
 31
0.0
  0
LINE
  5
306
  8
LAYER0002
  6
CONTINUOUS
 62
     4
 10
16.00000000000001
 20
-92.99999999999994
 30
0.0
 11
19.00000000000001
 21
-98.99999999999994
 31
0.0
  0
LINE
  5
307
  8
LAYER0002
  6
CONTINUOUS
 62
     4
 10
13.00000000000001
 20
-98.99999999999994
 30
0.0
 11
19.00000000000001
 21
-98.99999999999994
 31
0.0
  0
LINE
  5
308
  8
LAYER0002
  6
CONTINUOUS
 62
     4
 10
16.00000000000001
 20
-85.99999999999994
 30
0.0
 11
13.00000000000001
 21
-91.99999999999994
 31
0.0
  0
LINE
  5
309
  8
LAYER0002
  6
CONTINUOUS
 62
     4
 10
16.00000000000001
 20
-85.99999999999994
 30
0.0
 11
19.00000000000001
 21
-91.99999999999994
 31
0.0
  0
LINE
  5
30A
  8
LAYER0002
  6
CONTINUOUS
 62
     4
 10
13.00000000000001
 20
-91.99999999999994
 30
0.0
 11
19.00000000000001
 21
-91.99999999999994
 31
0.0
  0
LINE
  5
30B
  8
LAYER0002
  6
CONTINUOUS
 62
     4
 10
87.66666666666664
 20
-124.4999999999999
 30
0.0
 11
87.66666666666664
 21
-110.4999999999999
 31
0.0
  0
LINE
  5
30C
  8
LAYER0002
  6
CONTINUOUS
 62
     4
 10
114.3333333333333
 20
-124.4999999999999
 30
0.0
 11
114.3333333333333
 21
-110.4509415757252
 31
0.0
  0
LINE
  5
30D
  8
LAYER0002
  6
CONTINUOUS
 62
     4
 10
127.6666666666666
 20
-115.9999999999999
 30
0.0
 11
127.6666666666666
 21
-110.4509415757252
 31
0.0
  0
LINE
  5
30E
  8
LAYER0002
  6
CONTINUOUS
 62
     4
 10
141.0
 20
-103.4999999999999
 30
0.0
 11
170.0
 21
-103.4999999999999
 31
0.0
  0
LINE
  5
30F
  8
LAYER0002
  6
CONTINUOUS
 62
     4
 10
60.99999999999999
 20
-114.4999999999999
 30
0.0
 11
141.0
 21
-114.4999999999999
 31
0.0
  0
TEXT
  5
311
  8
LAYER0002
 62
     7
 10
61.99375814747472
 20
-79.32118872895592
 30
0.0
 40
2.44248928
  1
符号
 41
0.8
  7
FDASTYLE0
  0
TEXT
  5
312
  8
LAYER0002
 62
     7
 10
77.41413112190584
 20
-84.32455250199624
 30
0.0
 40
4.0
  1
品       名
 41
0.6192847442281576
  7
FDASTYLE1
 72
     5
 11
100.6992375048846
 21
-84.32455250199624
 31
0.0
  0
TEXT
  5
313
  8
LAYER0002
 62
     7
 10
122.2331564413096
 20
-84.32455250199624
 30
0.0
 40
4.0
  1
材  料
 41
0.5950413223140494
  7
FDASTYLE1
 72
     5
 11
132.7058837140369
 21
-84.32455250199624
 31
0.0
  0
TEXT
  5
314
  8
LAYER0002
 62
     7
 10
144.516061684855
 20
-84.32455250199624
 30
0.0
 40
4.0
  1
個 数
 41
0.5813148788927336
  7
FDASTYLE1
 72
     5
 11
152.4219440377962
 21
-84.32455250199624
 31
0.0
  0
TEXT
  5
315
  8
LAYER0002
 62
     7
 10
160.721810952888
 20
-82.06490800505719
 30
0.0
 40
2.5
  1
単重量
 41
0.6666666666666666
  7
FDASTYLE1
 72
     5
 11
166.721810952888
 21
-82.06490800505719
 31
0.0
  0
TEXT
  5
316
  8
LAYER0002
 62
     7
 10
159.7089516236359
 20
-85.86313048975242
 30
0.0
 40
2.5
  1
(kg)
 41
0.5333333333333343
  7
FDASTYLE1
 72
     5
 11
165.0422849569692
 21
-85.86313048975242
 31
0.0
  0
TEXT
  5
317
  8
LAYER0002
 62
     7
 10
174.1421970654778
 20
-84.32455250199624
 30
0.0
 40
4.0
  1
記  事
 41
0.5950413223140494
  7
FDASTYLE1
 72
     5
 11
184.6149243382051
 21
-84.32455250199624
 31
0.0
  0
TEXT
  5
318
  8
LAYER0002
 62
     7
 10
173.8450794551645
 20
-113.9873041997729
 30
0.0
 40
3.0
  1
コード番号
 41
0.6666666666666666
  7
FDASTYLE1
 72
     5
 11
185.8450794551645
 21
-113.9873041997729
 31
0.0
  0
TEXT
  5
319
  8
LAYER0002
 62
     7
 10
16.91199201583167
 20
-123.6879010540338
 30
0.0
 40
2.5
  1
訂 正 来 歴
 41
0.5890861275476661
  7
FDASTYLE1
 72
     5
 11
28.39917150301116
 21
-123.6879010540338
 31
0.0
  0
TEXT
  5
31A
  8
LAYER0002
 62
     7
 10
40.89033484676499
 20
-123.7166697391651
 30
0.0
 40
2.5
  1
工 事 番 号
 41
0.5890861275476661
  7
FDASTYLE1
 72
     5
 11
52.37751433394448
 21
-123.7166697391651
 31
0.0
  0
TEXT
  5
31B
  8
LAYER0002
 62
     7
 10
13.93400034660289
 20
-114.4634530565915
 30
0.0
 40
1.90819475
  1
記号
 41
0.8
  7
FDASTYLE0
  0
TEXT
  5
31C
  8
LAYER0002
 62
     7
 10
19.87338740676183
 20
-114.4634530565915
 30
0.0
 40
1.90819475
  1
理由
 41
0.8
  7
FDASTYLE0
  0
TEXT
  5
31D
  8
LAYER0002
 62
     7
 10
26.61936679098429
 20
-118.3786046700178
 30
0.0
 40
3.0
  1
日 付
 41
0.581314878892734
  7
FDASTYLE1
 72
     5
 11
32.54877855569018
 21
-118.3786046700178
 31
0.0
  0
TEXT
  5
31E
  8
LAYER0002
 62
     7
 10
68.44816898196524
 20
-114.2187911464244
 30
0.0
 40
3.0
  1
承   認
 41
0.603566529492455
  7
FDASTYLE1
 72
     5
 11
78.22594675974301
 21
-114.2187911464244
 31
0.0
  0
TEXT
  5
31F
  8
LAYER0002
 62
     7
 10
94.86322803323402
 20
-113.9873041997729
 30
0.0
 40
3.0
  1
検   図
 41
0.6035665294924559
  7
FDASTYLE1
 72
     5
 11
104.6410058110118
 21
-113.9873041997729
 31
0.0
  0
TEXT
  5
320
  8
LAYER0002
 62
     7
 10
116.4771920983751
 20
-113.9873041997729
 30
0.0
 40
3.0
  1
担  当
 41
0.5950413223140488
  7
FDASTYLE1
 72
     5
 11
124.3317375529205
 21
-113.9873041997729
 31
0.0
  0
TEXT
  5
321
  8
LAYER0002
 62
     7
 10
129.6770574841112
 20
-113.9873041997729
 30
0.0
 40
3.0
  1
製  図
 41
0.5950413223140488
  7
FDASTYLE1
 72
     5
 11
137.5316029386567
 21
-113.9873041997729
 31
0.0
  0
TEXT
  5
322
  8
LAYER0002
 62
     7
 10
141.9462372304199
 20
-101.7184960272417
 30
0.0
 40
3.0
  1
作図
 41
0.6666666666666683
  7
FDASTYLE1
 72
     5
 11
146.7462372304199
 21
-101.7184960272417
 31
0.0
  0
TEXT
  5
323
  8
LAYER0002
 62
     7
 10
143.1036719636776
 20
-108.7371566401815
 30
0.0
 40
4.0
  1
第 三 角 法
 41
0.5890861275476667
  7
FDASTYLE1
 72
     5
 11
161.4831591431648
 21
-108.7371566401815
 31
0.0
  0
TEXT
  5
324
  8
LAYER0002
 62
     7
 10
142.409211123723
 20
-114.913251986379
 30
0.0
 40
3.0
  1
尺度
 41
0.6666666666666683
  7
FDASTYLE1
 72
     5
 11
147.209211123723
 21
-114.913251986379
 31
0.0
  0
TEXT
  5
326
  8
LAYER0002
 62
     3
 10
20.37915437003404
 20
-134.4272077185016
 30
0.0
 40
7.0
  1
株式会社 野村製作所
 41
0.5976394989045258
  7
FDASTYLE2
 72
     5
 11
76.26203335460063
 21
-134.4272077185016
 31
0.0
  0
TEXT
  5
328
  8
LAYER0002
 62
     3
 10
98.61182179341655
 20
-135.6216685584562
 30
0.0
 40
8.0
  1
３－
 41
0.7757790236225075
  7
FDASTYLE3
 72
     5
 11
112.6068753795666
 21
-135.6216685584562
 31
0.0
  0
TEXT
  5
329
  8
LAYER0002
 62
     3
 10
115.5237794178233
 20
-135.6216685584562
 30
0.0
 40
8.0
  1
9304003
 41
1.375217071789327
  7
FDASTYLE3
 72
     5
 11
170.6974883380111
 21
-135.6216685584562
 31
0.0
  0
TEXT
  5
32A
  8
LAYER0002
 62
     6
 10
145.7056952989098
 20
-93.7216474852281
 30
0.0
 40
3.2
  1
一式
 41
0.7610475333317454
  7
FDASTYLE1
 72
     5
 11
151.5505403548976
 21
-93.7216474852281
 31
0.0
  0
TEXT
  5
32B
  8
LAYER0002
 62
     6
 10
81.89523347633649
 20
-93.85890002285609
 30
0.0
 40
5.0
  1
外　形　図
 41
0.5833333333333334
  7
FDASTYLE1
 72
     5
 11
99.39523347633649
 21
-93.85890002285609
 31
0.0
  0
TEXT
  5
32C
  8
LAYER0002
 62
     4
 10
151.8208864698005
 20
-120.3093119866973
 30
0.0
 40
4.0
  1
1/1
 41
0.596825396825397
  7
FDASTYLE1
 72
     5
 11
158.9827912317053
 21
-120.3093119866973
 31
0.0
  0
TEXT
  5
32D
  8
0
 62
     6
 10
65.18456288116845
 20
-103.2345553619065
 30
0.0
 40
5.0
  1
日鋼プﾚｼジｫﾝ
 41
0.7022784772698426
  7
FDASTYLE1
 72
     5
 11
96.08481588104152
 21
-103.2345553619065
 31
0.0
  0
TEXT
  5
32E
  8
0
 62
     6
 10
64.98377178142266
 20
-110.0746760671837
 30
0.0
 40
5.0
  1
  ＨF3-4型チャック
 41
0.6971277803453589
  7
FDASTYLE1
 72
     5
 11
110.9942052842164
 21
-110.0746760671837
 31
0.0
  0
TEXT
  5
32F
  8
0
 62
     6
 10
-141.8927530184661
 20
-76.67770103444863
 30
0.0
 40
2.599999904632568
  1
 仕  様
 41
0.7324180298301365
  7
FDASTYLE1
 72
     5
 11
-131.6096042568346
 21
-76.67770103444863
 31
0.0
  0
TEXT
  5
330
  8
0
 62
     6
 10
-141.8927530184661
 20
-81.67770103444863
 30
0.0
 40
2.599999904632568
  1
 1.爪ｽﾄﾛ-ｸ            
 41
0.733240565488963
  7
FDASTYLE1
 72
     5
 11
-101.4765345311726
 21
-81.67770103444863
 31
0.0
  0
TEXT
  5
331
  8
0
 62
     6
 10
-95.95191268621387
 20
-81.35270104636956
 30
0.0
 40
1.949999928474426
  1
直径ﾆﾃ
 41
0.7329107132760713
  7
FDASTYLE1
 72
     5
 11
-89.66353899696136
 21
-81.35270104636956
 31
0.0
  0
TEXT
  5
332
  8
0
 62
     6
 10
-86.23762676863375
 20
-81.67770103444863
 30
0.0
 40
2.599999904632568
  1
      4 mm
 41
0.4065189403297201
  7
FDASTYLE1
 72
     5
 11
-75.6681347077477
 21
-81.67770103444863
 31
0.0
  0
TEXT
  5
333
  8
0
 62
     6
 10
-141.0635421821881
 20
-86.67770103444863
 30
0.0
 40
2.599999904632568
  1
 2. ﾋﾟｽﾄﾝｽﾄﾛ-ｸ                               15 mm
 41
0.5049399109627266
  7
FDASTYLE1
 72
     5
 11
-75.42135616477479
 21
-86.67770103444863
 31
0.0
  0
TEXT
  5
334
  8
0
 62
     6
 10
-141.8927530184661
 20
-91.67770103444863
 30
0.0
 40
2.599999904632568
  1
 3.推奨ｼﾘﾝﾀﾞ           　　　FM5-17SB 型
 41
0.7207008030576633
  7
FDASTYLE1
 72
     5
 11
-75.9342179419735
 21
-91.67770103444863
 31
0.0
  0
TEXT
  5
335
  8
0
 62
     6
 10
-141.8927530184661
 20
-96.67770103444863
 30
0.0
 40
2.599999904632568
  1
 4.許容ｼﾘﾝﾀﾞ推力　               　　4 kN
 41
0.7185819110005657
  7
FDASTYLE1
 72
     5
 11
-75.75447635591166
 21
-96.67770103444863
 31
0.0
  0
TEXT
  5
336
  8
0
 62
     6
 10
-141.8927530184661
 20
-101.6777010344486
 30
0.0
 40
2.599999904632568
  1
 5.最大使用圧力  
 41
0.7034808019547764
  7
FDASTYLE1
 72
     5
 11
-119.5783427989483
 21
-101.6777010344486
 31
0.0
  0
TEXT
  5
337
  8
0
 62
     6
 10
-115.5137512149279
 20
-101.3527010463696
 30
0.0
 40
1.949999928474426
  1
（FM5-17SB型使用時)
 41
0.7142826701495181
  7
FDASTYLE1
 72
     5
 11
-94.6209838793967
 21
-101.3527010463696
 31
0.0
  0
TEXT
  5
338
  8
0
 62
     6
 10
-109.0522329377913
 20
-101.6777010344486
 30
0.0
 40
2.599999904632568
  1
   　 　　　　 1.2 MPa
 41
0.7169029644925643
  7
FDASTYLE1
 72
     5
 11
-75.50117543018477
 21
-101.6777010344486
 31
0.0
  0
TEXT
  5
339
  8
0
 62
     6
 10
-141.8927530184661
 20
-106.6777010344486
 30
0.0
 40
2.599999904632568
  1
 6.最大静的把握力               　　13.7 kN
 41
0.7143659032037085
  7
FDASTYLE1
 72
     5
 11
-75.39957718722016
 21
-106.6777010344486
 31
0.0
  0
TEXT
  5
33A
  8
0
 62
     6
 10
-141.8927530184661
 20
-111.6777010344486
 30
0.0
 40
2.599999904632568
  1
 7.最高使用回転速度              　7000 min
 41
0.7143659032037085
  7
FDASTYLE1
 72
     5
 11
-75.39957718722016
 21
-111.6777010344486
 31
0.0
  0
TEXT
  5
33B
  8
0
 62
     6
 10
-75.1964677941296
 20
-109.8277010106068
 30
0.0
 40
1.299999952316284
  1
-1
 41
0.7049402007168133
  7
FDASTYLE1
 72
     5
 11
-73.36362333949423
 21
-109.8277010106068
 31
0.0
  0
TEXT
  5
33C
  8
0
 62
     6
 10
-141.8927530184661
 20
-116.6777010344486
 30
0.0
 40
2.599999904632568
  1
 8.慣性モーメント              0.005 kg・m
 41
0.7164702480269759
  7
FDASTYLE1
 72
     5
 11
-75.57626929356343
 21
-116.6777010344486
 31
0.0
  0
TEXT
  5
33D
  8
0
 62
     6
 10
-75.47287140622225
 20
-114.8277010106068
 30
0.0
 40
1.299999952316284
  1
2
 41
0.5860808783096173
  7
FDASTYLE1
 72
     5
 11
-74.71096629236627
 21
-114.8277010106068
 31
0.0
  0
TEXT
  5
33E
  8
0
 62
     6
 10
-141.8927530184661
 20
-126.6777010344486
 30
0.0
 40
2.599999904632568
  1
10.ｱﾝﾊﾞﾗﾝｽ量         
 41
0.7334822516214695
  7
FDASTYLE1
 72
     5
 11
-103.370266576303
 21
-126.6777010344486
 31
0.0
  0
TEXT
  5
33F
  8
0
 62
     6
 10
-109.7934518590696
 20
-126.3527010463696
 30
0.0
 40
1.949999928474426
  1
ﾁｬｯｸ外周ﾆﾃ
 41
0.7313140828154726
  7
FDASTYLE1
 72
     5
 11
-97.81452762193649
 21
-126.3527010463696
 31
0.0
  0
TEXT
  5
340
  8
0
 62
     6
 10
-90.47916561962438
 20
-126.6777010344486
 30
0.0
 40
2.599999904632568
  1
 　 2 g以内
 41
0.7215842703473315
  7
FDASTYLE1
 72
     5
 11
-74.34454192647254
 21
-126.6777010344486
 31
0.0
  0
TEXT
  5
341
  8
0
 62
     6
 10
-141.8927530184661
 20
-121.6777010344486
 30
0.0
 40
2.599999904632568
  1
 9.質 量                      　　3 kg
 41
0.7249598891333933
  7
FDASTYLE1
 72
     5
 11
-76.29838465566387
 21
-121.6777010344486
 31
0.0
  0
LINE
  5
342
  8
0
  6
CONTINUOUS
 62
     6
 10
-142.3499014511977
 20
-97.87770108213235
 30
0.0
 11
-74.065184409642
 21
-97.87770108213235
 31
0.0
  0
LINE
  5
343
  8
0
  6
CONTINUOUS
 62
     6
 10
-142.3499014511977
 20
-92.87770108213235
 30
0.0
 11
-74.065184409642
 21
-92.87770108213235
 31
0.0
  0
LINE
  5
344
  8
0
  6
CONTINUOUS
 62
     6
 10
-142.3499014511977
 20
-87.87770108213235
 30
0.0
 11
-74.065184409642
 21
-87.87770108213235
 31
0.0
  0
LINE
  5
345
  8
0
  6
CONTINUOUS
 62
     6
 10
-142.3499014511977
 20
-82.87770108213235
 30
0.0
 11
-74.065184409642
 21
-82.87770108213235
 31
0.0
  0
LINE
  5
346
  8
0
  6
CONTINUOUS
 62
     6
 10
-142.3499014511977
 20
-77.87770108213235
 30
0.0
 11
-123.9941580429946
 21
-77.87770108213235
 31
0.0
  0
LINE
  5
347
  8
0
  6
CONTINUOUS
 62
     6
 10
-142.3499014511977
 20
-102.8777010821324
 30
0.0
 11
-74.065184409642
 21
-102.8777010821324
 31
0.0
  0
LINE
  5
348
  8
0
  6
CONTINUOUS
 62
     6
 10
-142.3499014511977
 20
-107.8777010821324
 30
0.0
 11
-74.065184409642
 21
-107.8777010821324
 31
0.0
  0
LINE
  5
349
  8
0
  6
CONTINUOUS
 62
     6
 10
-142.3499014511977
 20
-112.8777010821324
 30
0.0
 11
-74.065184409642
 21
-112.8777010821324
 31
0.0
  0
LINE
  5
34A
  8
0
  6
CONTINUOUS
 62
     6
 10
-142.3499014511977
 20
-117.8777010821324
 30
0.0
 11
-74.065184409642
 21
-117.8777010821324
 31
0.0
  0
LINE
  5
34B
  8
0
  6
CONTINUOUS
 62
     6
 10
-142.3499014511977
 20
-127.8776934527378
 30
0.0
 11
-74.065184409642
 21
-127.8776934527378
 31
0.0
  0
LINE
  5
34C
  8
0
  6
CONTINUOUS
 62
     6
 10
-142.3499014511977
 20
-122.8777010821324
 30
0.0
 11
-74.065184409642
 21
-122.8777010821324
 31
0.0
  0
LINE
  5
34D
  8
0
  6
CENTER
 62
     7
 10
-110.6090441987354
 20
35.90076386879501
 30
0.0
 11
-49.86778737773015
 21
35.90076386879501
 31
0.0
  0
LINE
  5
34E
  8
0
  6
CENTER
 62
     7
 10
-121.4174846224317
 20
0.6007646317344637
 30
0.0
 11
-49.16982859544793
 21
0.6007646317344637
 31
0.0
  0
LINE
  5
34F
  8
0
  6
CENTER
 62
     7
 10
-67.12846179674573
 20
11.90076386879501
 30
0.0
 11
-51.59829451099088
 21
11.90076386879501
 31
0.0
  0
LINE
  5
350
  8
0
  6
CENTER
 62
     7
 10
-70.5159360783581
 20
48.40076386879501
 30
0.0
 11
-62.27815836839715
 21
48.40076386879501
 31
0.0
  0
LINE
  5
351
  8
0
  6
CENTER
 62
     7
 10
-69.40677470140497
 20
78.40076386879501
 30
0.0
 11
-34.87400645189324
 21
78.40076386879501
 31
0.0
  0
LINE
  5
352
  8
0
  6
CENTER
 62
     7
 10
-69.40677470140497
 20
63.40076386879501
 30
0.0
 11
-34.68834513597528
 21
63.40076386879501
 31
0.0
  0
LINE
  5
353
  8
0
  6
CENTER
 62
     7
 10
108.2609386936721
 20
91.19145880532065
 30
0.0
 11
108.2609386936721
 21
-20.42691406363646
 31
0.0
  0
LINE
  5
354
  8
0
  6
CENTER
 62
     7
 10
53.17104024771901
 20
35.90076386879501
 30
0.0
 11
163.1533131886295
 21
35.90076386879501
 31
0.0
  0
LINE
  5
355
  8
0
  6
CENTER
 62
     7
 10
60.07483266819808
 20
8.080493074677506
 30
0.0
 11
148.5361355781509
 21
59.15364447994317
 31
0.0
  0
LINE
  5
356
  8
0
  6
CENTER
 62
     7
 10
67.29794459801073
 20
59.55077670223669
 30
0.0
 11
156.6904732969905
 21
7.939981896399885
 31
0.0
  0
LINE
  5
357
  8
0
  6
CENTER
 62
     7
 10
141.0376109635164
 20
7.671570600640379
 30
0.0
 11
149.1919774751433
 21
21.79534576513434
 31
0.0
  0
LINE
  5
358
  8
0
  6
CENTER
 62
     7
 10
67.37011067635191
 20
21.72579488875816
 30
0.0
 11
75.47395628504464
 21
7.689524482988517
 31
0.0
  0
LINE
  5
359
  8
0
  6
CENTER
 62
     7
 10
80.46586159146929
 20
29.04328182638095
 30
0.0
 11
88.4978382951102
 21
15.13149199857195
 31
0.0
  0
LINE
  5
35A
  8
0
  6
CENTER
 62
     7
 10
128.0642304772383
 20
15.20104745625541
 30
0.0
 11
136.0883899115757
 21
29.09929737831145
 31
0.0
  0
LINE
  5
35B
  8
0
  6
CENTER
 62
     7
 10
100.2698040501174
 20
78.40076386879501
 30
0.0
 11
116.2035351292189
 21
78.40076386879501
 31
0.0
  0
LINE
  5
35C
  8
0
  6
CENTER
 62
     7
 10
100.2698040501174
 20
63.40076386879501
 30
0.0
 11
116.2035351292189
 21
63.40076386879501
 31
0.0
  0
LINE
  5
35D
  8
0
  6
CENTER
 62
     7
 10
104.2609386936721
 20
48.40076386879501
 30
0.0
 11
112.2609386936721
 21
48.40076386879501
 31
0.0
  0
LINE
  5
35E
  8
0
  6
CENTER
 62
     7
 10
119.7609386936721
 20
38.90076386879501
 30
0.0
 11
119.7609386936721
 21
32.90076386879501
 31
0.0
  0
LINE
  5
35F
  8
0
  6
CENTER
 62
     7
 10
96.76093869367205
 20
38.90076386879501
 30
0.0
 11
96.76093869367205
 21
32.90076386879501
 31
0.0
  0
ARC
  5
360
  8
0
  6
CENTER
 62
     7
 10
108.2609386936721
 20
35.90076386879501
 30
0.0
 40
35.29999923706055
 50
14.78466450119088
 51
50.42729005729871
  0
ARC
  5
361
  8
0
  6
CENTER
 62
     7
 10
108.2609386936721
 20
35.90076386879501
 30
0.0
 40
35.29999923706055
 50
248.7784563103197
 51
291.2215250203457
  0
ARC
  5
362
  8
0
  6
CENTER
 62
     7
 10
108.2609386936721
 20
35.90076386879501
 30
0.0
 40
35.29999923706055
 50
130.1190378777048
 51
169.6825807959235
  0
ARC
  5
363
  8
0
  6
CENTER
 62
     7
 10
108.2609386936721
 20
35.90076386879501
 30
0.0
 40
24.0
 50
140.4396312985125
 51
159.5603907101264
  0
ARC
  5
364
  8
0
  6
CENTER
 62
     7
 10
108.2609386936721
 20
35.90076386879501
 30
0.0
 40
24.0
 50
260.4396041293365
 51
279.5603772013288
  0
ARC
  5
365
  8
0
  6
CENTER
 62
     7
 10
108.2609386936721
 20
35.90076386879501
 30
0.0
 40
24.0
 50
22.62702015018006
 51
37.50831244827684
  0
LINE
  5
366
  8
0
  6
CENTER
 62
     7
 10
68.31484441263346
 20
72.40076386879501
 30
0.0
 11
86.76246389118791
 21
72.40076386879501
 31
0.0
  0
LINE
  5
367
  8
0
  6
CONTINUOUS
 62
     7
 10
67.37373349127991
 20
-0.4071760110164829
 30
0.0
 11
63.57800141781166
 21
-2.598642854116418
 31
0.0
  0
LINE
  5
368
  8
0
  6
DASHED2
 62
     7
 10
80.26094632306658
 20
80.31078278969345
 30
0.0
 11
80.26094632306658
 21
64.40076386879501
 31
0.0
  0
LINE
  5
369
  8
0
  6
DASHED2
 62
     7
 10
64.17013363996111
 20
64.40076386879501
 30
0.0
 11
80.26094632306658
 21
64.40076386879501
 31
0.0
  0
LINE
  5
36A
  8
0
  6
DASHED2
 62
     7
 10
80.26094632306658
 20
67.40076386879501
 30
0.0
 11
86.23293881574236
 21
67.40076386879501
 31
0.0
  0
LINE
  5
36B
  8
0
  6
DASHED2
 62
     7
 10
80.26094632306658
 20
77.40076386879501
 30
0.0
 11
84.71543698468767
 21
77.40076386879501
 31
0.0
  0
LINE
  5
36C
  8
0
  6
DASHED2
 62
     7
 10
77.8840466038283
 20
68.45076310585556
 30
0.0
 11
79.57029538312517
 21
68.45076310585556
 31
0.0
  0
LINE
  5
36D
  8
0
  6
DASHED2
 62
     7
 10
77.8840466038283
 20
76.3507608170372
 30
0.0
 11
79.57029538312517
 21
76.3507608170372
 31
0.0
  0
LINE
  5
36E
  8
0
  6
DASHED2
 62
     7
 10
77.26094632306658
 20
75.79334199379501
 30
0.0
 11
77.26094632306658
 21
69.00814759682235
 31
0.0
  0
LINE
  5
36F
  8
0
  6
DASHED2
 62
     7
 10
78.02487759748064
 20
74.40076386879501
 30
0.0
 11
79.49701504865251
 21
74.40076386879501
 31
0.0
  0
LINE
  5
370
  8
0
  6
DASHED2
 62
     7
 10
78.02487759748064
 20
70.40076386879501
 30
0.0
 11
79.49701504865251
 21
70.40076386879501
 31
0.0
  0
LINE
  5
371
  8
0
  6
DASHED2
 62
     7
 10
73.06095639699547
 20
69.1007716249046
 30
0.0
 11
70.76095600158428
 21
70.00077157801341
 31
0.0
  0
LINE
  5
372
  8
0
  6
DASHED2
 62
     7
 10
74.06094174542986
 20
75.01383912514267
 30
0.0
 11
74.06094174542986
 21
69.72180497597275
 31
0.0
  0
LINE
  5
373
  8
0
  6
DASHED2
 62
     7
 10
70.76094632306658
 20
72.6431192154747
 30
0.0
 11
70.76094632306658
 21
70.0007623429161
 31
0.0
  0
LINE
  5
374
  8
0
  6
DASHED2
 62
     7
 10
73.06094174542986
 20
74.85214936684189
 30
0.0
 11
73.06094174542986
 21
69.10076463173446
 31
0.0
  0
ARC
  5
375
  8
0
  6
DASHED2
 62
     7
 10
77.26094632306658
 20
72.40076386879501
 30
0.0
 40
3.0
 50
0.0
 51
41.81031315512681
  0
ARC
  5
376
  8
0
  6
DASHED2
 62
     7
 10
80.26094632306658
 20
72.40076386879501
 30
0.0
 40
3.0
 50
138.1896986840186
 51
221.8102840131373
  0
ARC
  5
377
  8
0
  6
DASHED2
 62
     7
 10
77.26094632306658
 20
72.40076386879501
 30
0.0
 40
3.0
 50
318.1896868448732
 51
360.0
  0
ARC
  5
378
  8
0
  6
DASHED2
 62
     7
 10
73.06094174542986
 20
72.40076386879501
 30
0.0
 40
3.299999952316284
 50
270.0000179860895
 51
287.6397055176993
  0
ARC
  5
379
  8
0
  6
DASHED2
 62
     7
 10
75.4654675022658
 20
78.19673097084579
 30
0.0
 40
3.0
 50
242.1068914535913
 51
306.7619948916871
  0
ARC
  5
37A
  8
0
  6
DASHED2
 62
     7
 10
75.4654675022658
 20
66.6047662491661
 30
0.0
 40
3.0
 50
53.23800510831291
 51
117.8898300556072
  0
ARC
  5
37B
  8
0
  6
DASHED2
 62
     7
 10
78.19629483380876
 20
75.40076386879501
 30
0.0
 40
1.0
 50
200.7154669700724
 51
270.0000179860891
  0
ARC
  5
37C
  8
0
  6
DASHED2
 62
     7
 10
78.19629483380876
 20
75.40076386879501
 30
0.0
 40
1.0
 50
108.1948751325835
 51
159.2845330299276
  0
ARC
  5
37D
  8
0
  6
DASHED2
 62
     7
 10
78.19629483380876
 20
69.40076386879501
 30
0.0
 40
1.0
 50
89.99998201391097
 51
159.2845330299276
  0
ARC
  5
37E
  8
0
  6
DASHED2
 62
     7
 10
78.19629483380876
 20
69.40076386879501
 30
0.0
 40
1.0
 50
200.7154669700724
 51
251.8051248674166
  0
ARC
  5
37F
  8
0
  6
DASHED2
 62
     7
 10
79.25803952375017
 20
75.40076386879501
 30
0.0
 40
1.0
 50
0.0
 51
71.80513670656242
  0
ARC
  5
380
  8
0
  6
DASHED2
 62
     7
 10
79.25803952375017
 20
69.40076386879501
 30
0.0
 40
1.0
 50
0.0
 51
89.99998201391097
  0
ARC
  5
381
  8
0
  6
DASHED2
 62
     7
 10
79.25803952375017
 20
75.40076386879501
 30
0.0
 40
1.0
 50
270.0000179860891
 51
360.0
  0
ARC
  5
382
  8
0
  6
DASHED2
 62
     7
 10
79.25803952375017
 20
69.40076386879501
 30
0.0
 40
1.0
 50
288.1948632934378
 51
360.0
  0
ARC
  5
383
  8
0
  6
DASHED2
 62
     7
 10
71.23882870832048
 20
72.40076386879501
 30
0.0
 40
1.200000047683716
 50
200.8157614678449
 51
246.532034413059
  0
LINE
  5
384
  8
0
  6
CONTINUOUS
 62
     3
 10
-106.9892789738659
 20
88.40076386879501
 30
0.0
 11
-106.9892789738659
 21
6.100764631734464
 31
0.0
  0
LINE
  5
385
  8
0
  6
CONTINUOUS
 62
     3
 10
-52.9892789738659
 20
86.90076386879501
 30
0.0
 11
-52.9892789738659
 21
84.40076386879501
 31
0.0
  0
LINE
  5
386
  8
0
  6
CONTINUOUS
 62
     3
 10
-106.9892789738659
 20
-16.59923613120499
 30
0.0
 11
-54.4892789738659
 21
-16.59923613120499
 31
0.0
  0
LINE
  5
387
  8
0
  6
CONTINUOUS
 62
     3
 10
-106.9892789738659
 20
88.40076386879501
 30
0.0
 11
-95.98927897386591
 21
88.40076386879501
 31
0.0
  0
LINE
  5
388
  8
0
  6
CONTINUOUS
 62
     3
 10
-53.98927295235921
 20
87.9007740432837
 30
0.0
 11
-52.98927189076971
 21
86.9007729816942
 31
0.0
  0
LINE
  5
389
  8
0
  6
CONTINUOUS
 62
     3
 10
-52.98929751605316
 20
-15.0992260558054
 30
0.0
 11
-54.48928831884438
 21
-16.59921685859662
 31
0.0
  0
LINE
  5
38A
  8
0
  6
CONTINUOUS
 62
     3
 10
-102.7892820256237
 20
78.40076386879501
 30
0.0
 11
-102.7892820256237
 21
5.600764631734464
 31
0.0
  0
LINE
  5
38B
  8
0
  6
CONTINUOUS
 62
     3
 10
-106.9892789738659
 20
78.40076386879501
 30
0.0
 11
-102.7892820256237
 21
78.40076386879501
 31
0.0
  0
LINE
  5
38C
  8
0
  6
CONTINUOUS
 62
     3
 10
-106.9892789738659
 20
-6.599236131204989
 30
0.0
 11
-102.7892820256237
 21
-6.599236131204989
 31
0.0
  0
LINE
  5
38D
  8
0
  6
CONTINUOUS
 62
     3
 10
-102.7892820256237
 20
54.40076386879501
 30
0.0
 11
-97.98920795679339
 21
54.40076386879501
 31
0.0
  0
LINE
  5
38E
  8
0
  6
CONTINUOUS
 62
     3
 10
-102.7892820256237
 20
17.40076386879501
 30
0.0
 11
-86.98927897386591
 21
17.40076386879501
 31
0.0
  0
LINE
  5
38F
  8
0
  6
CONTINUOUS
 62
     3
 10
-55.4892789738659
 20
14.90076386879501
 30
0.0
 11
-52.9892789738659
 21
14.90076386879501
 31
0.0
  0
LINE
  5
390
  8
0
  6
CONTINUOUS
 62
     3
 10
-95.98927897386591
 20
88.40076386879501
 30
0.0
 11
-95.98927897386591
 21
78.52047781569962
 31
0.0
  0
LINE
  5
391
  8
0
  6
CONTINUOUS
 62
     3
 10
-63.9892789738659
 20
9.100764631734464
 30
0.0
 11
-63.9892789738659
 21
-7.899235368265536
 31
0.0
  0
LINE
  5
392
  8
0
  6
CONTINUOUS
 62
     3
 10
-61.9892789738659
 20
13.90076386879501
 30
0.0
 11
-61.9892789738659
 21
9.900763868795011
 31
0.0
  0
LINE
  5
393
  8
0
  6
CONTINUOUS
 62
     3
 10
-61.9892789738659
 20
13.90076386879501
 30
0.0
 11
-52.9892789738659
 21
13.90076386879501
 31
0.0
  0
LINE
  5
394
  8
0
  6
CONTINUOUS
 62
     3
 10
-61.9892789738659
 20
9.900763868795011
 30
0.0
 11
-52.9892789738659
 21
9.900763868795011
 31
0.0
  0
LINE
  5
395
  8
0
  6
CONTINUOUS
 62
     3
 10
-63.9892789738659
 20
9.100764631734464
 30
0.0
 11
-52.9892789738659
 21
9.100764631734464
 31
0.0
  0
LINE
  5
396
  8
0
  6
CONTINUOUS
 62
     3
 10
-63.9892789738659
 20
-7.899235368265536
 30
0.0
 11
-52.9892789738659
 21
-7.899235368265536
 31
0.0
  0
LINE
  5
397
  8
0
  6
CONTINUOUS
 62
     3
 10
-102.7892820256237
 20
6.100764631734464
 30
0.0
 11
-63.9892789738659
 21
6.100764631734464
 31
0.0
  0
LINE
  5
398
  8
0
  6
CONTINUOUS
 62
     3
 10
-102.7892820256237
 20
-4.899235368265536
 30
0.0
 11
-63.9892789738659
 21
-4.899235368265536
 31
0.0
  0
LINE
  5
399
  8
0
  6
CONTINUOUS
 62
     3
 10
-55.4892789738659
 20
53.78930604408798
 30
0.0
 11
-52.9892789738659
 21
53.78930604408798
 31
0.0
  0
LINE
  5
39A
  8
0
  6
CONTINUOUS
 62
     3
 10
-62.76997202806512
 20
50.77523744057235
 30
0.0
 11
-55.4892789738659
 21
50.77523744057235
 31
0.0
  0
LINE
  5
39B
  8
0
  6
CONTINUOUS
 62
     3
 10
-63.4892789738659
 20
53.90076386879501
 30
0.0
 11
-63.4892789738659
 21
17.90076386879501
 31
0.0
  0
LINE
  5
39C
  8
0
  6
CONTINUOUS
 62
     3
 10
-98.48927897386591
 20
53.90076386879501
 30
0.0
 11
-98.48927897386591
 21
17.90076386879501
 31
0.0
  0
LINE
  5
39D
  8
0
  6
CONTINUOUS
 62
     3
 10
-97.98920795679339
 20
54.40076386879501
 30
0.0
 11
-63.9892789738659
 21
54.40076386879501
 31
0.0
  0
LINE
  5
39E
  8
0
  6
CONTINUOUS
 62
     3
 10
-98.48924601463989
 20
53.90072581094852
 30
0.0
 11
-97.98920795679339
 21
54.40076386879501
 31
0.0
  0
LINE
  5
39F
  8
0
  6
CONTINUOUS
 62
     3
 10
-63.98927277866118
 20
54.4007600592215
 30
0.0
 11
-63.48927224786643
 21
53.90075952842675
 31
0.0
  0
LINE
  5
3A0
  8
0
  6
CONTINUOUS
 62
     3
 10
-63.48926820176904
 20
17.90075772608121
 30
0.0
 11
-63.98926873256379
 21
17.40075719528646
 31
0.0
  0
LINE
  5
3A1
  8
0
  6
CONTINUOUS
 62
     3
 10
-98.4892420229661
 20
17.90078651982331
 30
0.0
 11
-97.98925607490298
 21
17.40079294333701
 31
0.0
  0
LINE
  5
3A2
  8
0
  6
CONTINUOUS
 62
     3
 10
-97.98927897386591
 20
26.65076386879501
 30
0.0
 11
-79.98927897386591
 21
26.65076386879501
 31
0.0
  0
LINE
  5
3A3
  8
0
  6
CONTINUOUS
 62
     3
 10
-97.98927897386591
 20
45.15076386879501
 30
0.0
 11
-79.98927897386591
 21
45.15076386879501
 31
0.0
  0
LINE
  5
3A4
  8
0
  6
CONTINUOUS
 62
     3
 10
-71.48927897386591
 20
19.90076386879501
 30
0.0
 11
-63.4892789738659
 21
19.90076386879501
 31
0.0
  0
LINE
  5
3A5
  8
0
  6
CONTINUOUS
 62
     3
 10
-71.48927897386591
 20
51.90076386879501
 30
0.0
 11
-63.4892789738659
 21
51.90076386879501
 31
0.0
  0
LINE
  5
3A6
  8
0
  6
CONTINUOUS
 62
     3
 10
-79.48927897386591
 20
21.90076386879501
 30
0.0
 11
-72.48927897386591
 21
21.90076386879501
 31
0.0
  0
LINE
  5
3A7
  8
0
  6
CONTINUOUS
 62
     3
 10
-79.48927897386591
 20
49.90076386879501
 30
0.0
 11
-72.48927897386591
 21
49.90076386879501
 31
0.0
  0
LINE
  5
3A8
  8
0
  6
CONTINUOUS
 62
     3
 10
-79.48927897386591
 20
49.90076386879501
 30
0.0
 11
-79.48927897386591
 21
21.90076386879501
 31
0.0
  0
LINE
  5
3A9
  8
0
  6
CONTINUOUS
 62
     3
 10
-71.48927897386591
 20
51.90076386879501
 30
0.0
 11
-71.48927897386591
 21
19.90076386879501
 31
0.0
  0
LINE
  5
3AA
  8
0
  6
CONTINUOUS
 62
     3
 10
-72.48927897386591
 20
52.15076386879501
 30
0.0
 11
-72.48927897386591
 21
19.65076386879501
 31
0.0
  0
LINE
  5
3AB
  8
0
  6
CONTINUOUS
 62
     3
 10
-79.98927897386591
 20
45.15076386879501
 30
0.0
 11
-79.98927897386591
 21
41.65076386879501
 31
0.0
  0
LINE
  5
3AC
  8
0
  6
CONTINUOUS
 62
     3
 10
-97.98927897386591
 20
45.15076386879501
 30
0.0
 11
-97.98927897386591
 21
41.65076386879501
 31
0.0
  0
LINE
  5
3AD
  8
0
  6
CONTINUOUS
 62
     3
 10
-72.48927897386591
 20
52.15076386879501
 30
0.0
 11
-70.48927897386591
 21
52.15076386879501
 31
0.0
  0
LINE
  5
3AE
  8
0
  6
CONTINUOUS
 62
     3
 10
-72.48927897386591
 20
19.65076386879501
 30
0.0
 11
-70.48927897386591
 21
19.65076386879501
 31
0.0
  0
LINE
  5
3AF
  8
0
  6
CONTINUOUS
 62
     3
 10
-70.48927897386591
 20
52.15076386879501
 30
0.0
 11
-70.48927897386591
 21
51.90076386879501
 31
0.0
  0
LINE
  5
3B0
  8
0
  6
CONTINUOUS
 62
     3
 10
-70.48927897386591
 20
19.90076386879501
 30
0.0
 11
-70.48927897386591
 21
19.65076386879501
 31
0.0
  0
LINE
  5
3B1
  8
0
  6
CONTINUOUS
 62
     3
 10
-79.98923465390919
 20
45.15073166335377
 30
0.0
 11
-79.48923315373588
 21
45.65073126691685
 31
0.0
  0
LINE
  5
3B2
  8
0
  6
CONTINUOUS
 62
     3
 10
-97.98925909415459
 20
45.15079597956456
 30
0.0
 11
-98.48924980471395
 21
45.65078479355462
 31
0.0
  0
LINE
  5
3B3
  8
0
  6
CONTINUOUS
 62
     3
 10
-97.98926683153957
 20
26.65074650360894
 30
0.0
 11
-98.48926639295576
 21
26.15074500343563
 31
0.0
  0
LINE
  5
3B4
  8
0
  6
CONTINUOUS
 62
     3
 10
-79.98926719451981
 20
26.65076251934725
 30
0.0
 11
-79.48926620010923
 21
26.15076245216834
 31
0.0
  0
LINE
  5
3B5
  8
0
  6
CONTINUOUS
 62
     3
 10
-97.98927897386591
 20
30.15076386879501
 30
0.0
 11
-97.98927897386591
 21
26.65076386879501
 31
0.0
  0
LINE
  5
3B6
  8
0
  6
CONTINUOUS
 62
     3
 10
-79.98927897386591
 20
30.15076386879501
 30
0.0
 11
-79.98927897386591
 21
26.65076386879501
 31
0.0
  0
LINE
  5
3B7
  8
0
  6
CONTINUOUS
 62
     3
 10
-69.48927897386591
 20
51.90076386879501
 30
0.0
 11
-69.48927897386591
 21
40.90076386879501
 31
0.0
  0
LINE
  5
3B8
  8
0
  6
CONTINUOUS
 62
     3
 10
-86.98927897386591
 20
17.40076386879501
 30
0.0
 11
-55.4892789738659
 21
17.40076386879501
 31
0.0
  0
LINE
  5
3B9
  8
0
  6
CONTINUOUS
 62
     3
 10
-67.98927897386591
 20
51.90076386879501
 30
0.0
 11
-67.98927897386591
 21
50.40076386879501
 31
0.0
  0
LINE
  5
3BA
  8
0
  6
CONTINUOUS
 62
     3
 10
-71.48927897386591
 20
26.65076386879501
 30
0.0
 11
-63.4892789738659
 21
26.65076386879501
 31
0.0
  0
LINE
  5
3BB
  8
0
  6
CONTINUOUS
 62
     3
 10
-69.48927897386591
 20
40.90076386879501
 30
0.0
 11
-67.98927897386591
 21
40.90076386879501
 31
0.0
  0
LINE
  5
3BC
  8
0
  6
CONTINUOUS
 62
     3
 10
-71.48927897386591
 20
45.15076386879501
 30
0.0
 11
-69.48927897386591
 21
45.15076386879501
 31
0.0
  0
LINE
  5
3BD
  8
0
  6
CONTINUOUS
 62
     3
 10
-67.98927897386591
 20
45.15076386879501
 30
0.0
 11
-63.4892789738659
 21
45.15076386879501
 31
0.0
  0
LINE
  5
3BE
  8
0
  6
CONTINUOUS
 62
     3
 10
-67.98927897386591
 20
46.40076386879501
 30
0.0
 11
-67.98927897386591
 21
40.90076386879501
 31
0.0
  0
LINE
  5
3BF
  8
0
  6
CONTINUOUS
 62
     3
 10
-95.98927897386591
 20
88.40076386879501
 30
0.0
 11
-53.9892789738659
 21
88.40076386879501
 31
0.0
  0
LINE
  5
3C0
  8
0
  6
CONTINUOUS
 62
     3
 10
-71.98927897386591
 20
55.90076386879501
 30
0.0
 11
-53.9892789738659
 21
55.90076386879501
 31
0.0
  0
LINE
  5
3C1
  8
0
  6
CONTINUOUS
 62
     3
 10
-60.9892789738659
 20
88.40076386879501
 30
0.0
 11
-60.9892789738659
 21
84.40076386879501
 31
0.0
  0
LINE
  5
3C2
  8
0
  6
CONTINUOUS
 62
     3
 10
-67.98927897386591
 20
88.40076386879501
 30
0.0
 11
-67.98927897386591
 21
55.90076386879501
 31
0.0
  0
LINE
  5
3C3
  8
0
  6
CONTINUOUS
 62
     3
 10
-66.98927897386591
 20
57.40076386879501
 30
0.0
 11
-52.4892789738659
 21
57.40076386879501
 31
0.0
  0
LINE
  5
3C4
  8
0
  6
CONTINUOUS
 62
     3
 10
-66.98927897386591
 20
84.40076386879501
 30
0.0
 11
-52.4892789738659
 21
84.40076386879501
 31
0.0
  0
LINE
  5
3C5
  8
0
  6
CONTINUOUS
 62
     3
 10
-66.98927897386591
 20
84.40076386879501
 30
0.0
 11
-66.98927897386591
 21
57.40076386879501
 31
0.0
  0
LINE
  5
3C6
  8
0
  6
CONTINUOUS
 62
     3
 10
-52.4892789738659
 20
84.40076386879501
 30
0.0
 11
-52.4892789738659
 21
82.40076386879501
 31
0.0
  0
LINE
  5
3C7
  8
0
  6
CONTINUOUS
 62
     3
 10
-60.9892789738659
 20
57.40076386879501
 30
0.0
 11
-60.9892789738659
 21
55.90076386879501
 31
0.0
  0
LINE
  5
3C8
  8
0
  6
CONTINUOUS
 62
     3
 10
-52.9892789738659
 20
56.77879655312118
 30
0.0
 11
-52.9892789738659
 21
-15.09923613120499
 31
0.0
  0
LINE
  5
3C9
  8
0
  6
CONTINUOUS
 62
     3
 10
-66.98927897386591
 20
59.40076386879501
 30
0.0
 11
-45.9892789738659
 21
59.40076386879501
 31
0.0
  0
LINE
  5
3CA
  8
0
  6
CONTINUOUS
 62
     3
 10
-66.98927897386591
 20
67.40076386879501
 30
0.0
 11
-45.9892789738659
 21
67.40076386879501
 31
0.0
  0
LINE
  5
3CB
  8
0
  6
CONTINUOUS
 62
     3
 10
-66.98927897386591
 20
74.40076386879501
 30
0.0
 11
-45.9892789738659
 21
74.40076386879501
 31
0.0
  0
LINE
  5
3CC
  8
0
  6
CONTINUOUS
 62
     3
 10
-66.98927897386591
 20
82.40076386879501
 30
0.0
 11
-45.9892789738659
 21
82.40076386879501
 31
0.0
  0
LINE
  5
3CD
  8
0
  6
CONTINUOUS
 62
     3
 10
-45.9892789738659
 20
69.90076386879501
 30
0.0
 11
-37.9892789738659
 21
69.90076386879501
 31
0.0
  0
LINE
  5
3CE
  8
0
  6
CONTINUOUS
 62
     3
 10
-45.9892789738659
 20
56.90076386879501
 30
0.0
 11
-37.9892789738659
 21
56.90076386879501
 31
0.0
  0
LINE
  5
3CF
  8
0
  6
CONTINUOUS
 62
     3
 10
-45.9892789738659
 20
71.90076386879501
 30
0.0
 11
-37.9892789738659
 21
71.90076386879501
 31
0.0
  0
LINE
  5
3D0
  8
0
  6
CONTINUOUS
 62
     3
 10
-45.9892789738659
 20
84.90076386879501
 30
0.0
 11
-37.9892789738659
 21
84.90076386879501
 31
0.0
  0
LINE
  5
3D1
  8
0
  6
CONTINUOUS
 62
     3
 10
-45.9892789738659
 20
84.90076386879501
 30
0.0
 11
-45.9892789738659
 21
71.90076386879501
 31
0.0
  0
LINE
  5
3D2
  8
0
  6
CONTINUOUS
 62
     3
 10
-45.9892789738659
 20
69.90076386879501
 30
0.0
 11
-45.9892789738659
 21
56.90076386879501
 31
0.0
  0
LINE
  5
3D3
  8
0
  6
CONTINUOUS
 62
     3
 10
-52.4892789738659
 20
59.40076386879501
 30
0.0
 11
-52.4892789738659
 21
57.40076386879501
 31
0.0
  0
LINE
  5
3D4
  8
0
  6
CONTINUOUS
 62
     3
 10
-52.4892789738659
 20
74.40076386879501
 30
0.0
 11
-52.4892789738659
 21
67.40076386879501
 31
0.0
  0
LINE
  5
3D5
  8
0
  6
CONTINUOUS
 62
     3
 10
-37.9892789738659
 20
69.90076386879501
 30
0.0
 11
-37.9892789738659
 21
56.90076386879501
 31
0.0
  0
LINE
  5
3D6
  8
0
  6
CONTINUOUS
 62
     3
 10
-37.9892789738659
 20
84.90076386879501
 30
0.0
 11
-37.9892789738659
 21
71.90076386879501
 31
0.0
  0
LINE
  5
3D7
  8
0
  6
CONTINUOUS
 62
     3
 10
-63.9892789738659
 20
82.40076386879501
 30
0.0
 11
-63.9892789738659
 21
74.40076386879501
 31
0.0
  0
LINE
  5
3D8
  8
0
  6
CONTINUOUS
 62
     3
 10
-63.9892789738659
 20
67.40076386879501
 30
0.0
 11
-63.9892789738659
 21
59.40076386879501
 31
0.0
  0
LINE
  5
3D9
  8
0
  6
CONTINUOUS
 62
     3
 10
-53.9892789738659
 20
8.600764631734464
 30
0.0
 11
-53.9892789738659
 21
-7.399235368265536
 31
0.0
  0
LINE
  5
3DA
  8
0
  6
CONTINUOUS
 62
     3
 10
-118.9892789738659
 20
5.600764631734464
 30
0.0
 11
-118.9892789738659
 21
-4.399235368265536
 31
0.0
  0
LINE
  5
3DB
  8
0
  6
CONTINUOUS
 62
     3
 10
-118.9892789738659
 20
-4.399235368265536
 30
0.0
 11
-63.9892789738659
 21
-4.399235368265536
 31
0.0
  0
LINE
  5
3DC
  8
0
  6
CONTINUOUS
 62
     3
 10
-118.9892789738659
 20
5.600764631734464
 30
0.0
 11
-63.9892789738659
 21
5.600764631734464
 31
0.0
  0
LINE
  5
3DD
  8
0
  6
CONTINUOUS
 62
     3
 10
-86.98927897386591
 20
5.600764631734464
 30
0.0
 11
-86.98927897386591
 21
-4.399235368265536
 31
0.0
  0
LINE
  5
3DE
  8
0
  6
CONTINUOUS
 62
     3
 10
-106.9892789738659
 20
-4.899235368265536
 30
0.0
 11
-106.9892789738659
 21
-16.59923613120499
 31
0.0
  0
LINE
  5
3DF
  8
0
  6
CONTINUOUS
 62
     3
 10
-102.7892820256237
 20
-4.399235368265536
 30
0.0
 11
-102.7892820256237
 21
-6.599236131204989
 31
0.0
  0
LINE
  5
3E0
  8
0
  6
CONTINUOUS
 62
     3
 10
-63.9892789738659
 20
8.600764631734464
 30
0.0
 11
-53.9892789738659
 21
8.600764631734464
 31
0.0
  0
LINE
  5
3E1
  8
0
  6
CONTINUOUS
 62
     3
 10
-63.9892789738659
 20
-7.399235368265536
 30
0.0
 11
-53.9892789738659
 21
-7.399235368265536
 31
0.0
  0
LINE
  5
3E2
  8
0
  6
CONTINUOUS
 62
     3
 10
-55.4892789738659
 20
53.78930604408798
 30
0.0
 11
-55.4892789738659
 21
14.90076386879501
 31
0.0
  0
LINE
  5
3E3
  8
0
  6
CONTINUOUS
 62
     3
 10
68.29462178643846
 20
0.1244819412996634
 30
0.0
 11
100.8792851618611
 21
18.93724403408292
 31
0.0
  0
LINE
  5
3E4
  8
0
  6
CONTINUOUS
 62
     3
 10
57.29461815055539
 20
19.1770492270558
 30
0.0
 11
89.87926831147843
 21
37.98980369044499
 31
0.0
  0
LINE
  5
3E5
  8
0
  6
CONTINUOUS
 62
     3
 10
126.6426166253894
 20
37.98982398441
 30
0.0
 11
159.2272998225616
 21
19.17705044753562
 31
0.0
  0
LINE
  5
3E6
  8
0
  6
CONTINUOUS
 62
     3
 10
115.6426266808431
 20
18.93724989516601
 30
0.0
 11
148.2272966635156
 21
0.1244839876857071
 31
0.0
  0
LINE
  5
3E7
  8
0
  6
CONTINUOUS
 62
     3
 10
93.26093869367205
 20
87.32897126625595
 30
0.0
 11
93.26093869367205
 21
86.21229493568954
 31
0.0
  0
LINE
  5
3E8
  8
0
  6
CONTINUOUS
 62
     3
 10
123.2609386936721
 20
87.32897126625595
 30
0.0
 11
123.2609386936721
 21
86.21229493568954
 31
0.0
  0
LINE
  5
3E9
  8
0
  6
CONTINUOUS
 62
     3
 10
159.3320233082139
 20
23.73539045494577
 30
0.0
 11
160.2991000347409
 21
23.17704850824508
 31
0.0
  0
LINE
  5
3EA
  8
0
  6
CONTINUOUS
 62
     3
 10
144.3320203875865
 20
-2.245379587667813
 30
0.0
 11
145.2990971141136
 21
-2.803721534368506
 31
0.0
  0
LINE
  5
3EB
  8
0
  6
CONTINUOUS
 62
     3
 10
71.22282794309032
 20
-2.803719766057512
 30
0.0
 11
72.1898914551177
 21
-2.245385448750895
 31
0.0
  0
LINE
  5
3EC
  8
0
  6
CONTINUOUS
 62
     3
 10
56.22282549930009
 20
23.17704945064985
 30
0.0
 11
57.18988240407766
 21
23.73537995325943
 31
0.0
  0
LINE
  5
3ED
  8
0
  6
CONTINUOUS
 62
     3
 10
57.2946249205231
 20
19.1770474657594
 30
0.0
 11
68.29462718549971
 21
0.1244872726491479
 31
0.0
  0
LINE
  5
3EE
  8
0
  6
CONTINUOUS
 62
     3
 10
97.26093869367205
 20
88.40076386879501
 30
0.0
 11
119.2609386936721
 21
88.40076386879501
 31
0.0
  0
LINE
  5
3EF
  8
0
  6
CONTINUOUS
 62
     3
 10
148.2273197186151
 20
0.1244809610440001
 30
0.0
 11
159.2273210299173
 21
19.17703950234191
 31
0.0
  0
LINE
  5
3F0
  8
0
  6
CONTINUOUS
 62
     3
 10
93.26095024738228
 20
87.32894595832669
 30
0.0
 11
97.26094372028624
 21
88.40074086468995
 31
0.0
  0
LINE
  5
3F1
  8
0
  6
CONTINUOUS
 62
     3
 10
119.2609274987029
 20
88.40073652117791
 30
0.0
 11
123.2609357104651
 21
87.3289376655499
 31
0.0
  0
LINE
  5
3F2
  8
0
  6
CONTINUOUS
 62
     3
 10
68.29462240667303
 20
0.1244982803317356
 30
0.0
 11
71.22282109662805
 21
-2.803700162794613
 31
0.0
  0
LINE
  5
3F3
  8
0
  6
CONTINUOUS
 62
     3
 10
145.2991035434035
 20
-2.803741157631421
 30
0.0
 11
148.2273130229524
 21
0.124468075087961
 31
0.0
  0
LINE
  5
3F4
  8
0
  6
CONTINUOUS
 62
     3
 10
159.2272946740426
 20
19.17704536219581
 30
0.0
 11
160.2990898272345
 21
23.17703883509977
 31
0.0
  0
LINE
  5
3F5
  8
0
  6
CONTINUOUS
 62
     3
 10
56.22281661853119
 20
23.17705318817711
 30
0.0
 11
57.29461312156979
 21
19.17705467757748
 31
0.0
  0
LINE
  5
3F6
  8
0
  6
CONTINUOUS
 62
     3
 10
85.44044482737601
 20
35.42705079918618
 30
0.0
 11
88.44044709235274
 21
30.23089516611661
 31
0.0
  0
LINE
  5
3F7
  8
0
  6
CONTINUOUS
 62
     3
 10
120.0814681717912
 20
16.37449815698584
 30
0.0
 11
123.0814609000236
 21
21.570637271932
 31
0.0
  0
LINE
  5
3F8
  8
0
  6
CONTINUOUS
 62
     3
 10
123.0814562152246
 20
21.57064333557706
 30
0.0
 11
125.9797792048867
 21
19.89729596217181
 31
0.0
  0
LINE
  5
3F9
  8
0
  6
CONTINUOUS
 62
     3
 10
128.0814597318984
 20
30.23090442128147
 30
0.0
 11
130.9797827215606
 21
28.55755704787622
 31
0.0
  0
LINE
  5
3FA
  8
0
  6
CONTINUOUS
 62
     3
 10
60.29462130960136
 20
13.98089075863946
 30
0.0
 11
65.35800131162731
 21
16.90423424284187
 31
0.0
  0
LINE
  5
3FB
  8
0
  6
CONTINUOUS
 62
     3
 10
65.29462761882795
 20
5.32064009488191
 30
0.0
 11
70.35800101360408
 21
8.243979764387277
 31
0.0
  0
LINE
  5
3FC
  8
0
  6
CONTINUOUS
 62
     3
 10
93.44044768839919
 20
21.57064128370847
 30
0.0
 11
96.44044709235263
 21
16.37449060607592
 31
0.0
  0
LINE
  5
3FD
  8
0
  6
CONTINUOUS
 62
     3
 10
128.0814614960701
 20
30.23089115434014
 30
0.0
 11
131.081461853698
 21
35.42704348378503
 31
0.0
  0
LINE
  5
3FE
  8
0
  6
CONTINUOUS
 62
     3
 10
63.75873064581194
 20
15.98088876748373
 30
0.0
 11
65.00873079482355
 21
13.8158252968817
 31
0.0
  0
LINE
  5
3FF
  8
0
  6
CONTINUOUS
 62
     3
 10
87.14141370989202
 20
29.48090219503204
 30
0.0
 11
88.39141004420591
 21
27.31584533167937
 31
0.0
  0
LINE
  5
400
  8
0
  6
CONTINUOUS
 62
     3
 10
124.3804989823849
 20
20.82063718252503
 30
0.0
 11
125.6305029460942
 21
22.98570726037643
 31
0.0
  0
LINE
  5
401
  8
0
  6
CONTINUOUS
 62
     3
 10
147.7631976793856
 20
7.320627943804183
 30
0.0
 11
149.0131978283972
 21
9.485691414406219
 31
0.0
  0
LINE
  5
402
  8
0
  6
CONTINUOUS
 62
     3
 10
85.54213198216647
 20
28.55754623135577
 30
0.0
 11
88.44045497182859
 21
30.23089360476102
 31
0.0
  0
LINE
  5
403
  8
0
  6
CONTINUOUS
 62
     3
 10
90.89141415692686
 20
22.98571178322594
 30
0.0
 11
92.14141430593847
 21
20.8206483126239
 31
0.0
  0
LINE
  5
404
  8
0
  6
CONTINUOUS
 62
     3
 10
90.54214489864287
 20
19.89729938229526
 30
0.0
 11
93.44045467380536
 21
21.57063912630643
 31
0.0
  0
LINE
  5
405
  8
0
  6
CONTINUOUS
 62
     3
 10
77.55176318096099
 20
12.3972998293301
 30
0.0
 11
83.34838273128597
 21
15.74397931735244
 31
0.0
  0
LINE
  5
406
  8
0
  6
CONTINUOUS
 62
     3
 10
67.50872727814905
 20
9.485704962926988
 30
0.0
 11
68.75873124185839
 21
7.320634885075592
 31
0.0
  0
LINE
  5
407
  8
0
  6
CONTINUOUS
 62
     3
 10
72.55175026448458
 20
21.05754667839061
 30
0.0
 11
78.34838302930919
 21
24.40423379580703
 31
0.0
  0
LINE
  5
408
  8
0
  6
CONTINUOUS
 62
     3
 10
128.130495614722
 20
27.31582098708178
 30
0.0
 11
129.3804995784313
 21
29.48089106493318
 31
0.0
  0
LINE
  5
409
  8
0
  6
CONTINUOUS
 62
     3
 10
138.1735316744178
 20
24.40424461232747
 30
0.0
 11
143.9701644392424
 21
21.05755749491105
 31
0.0
  0
LINE
  5
40A
  8
0
  6
CONTINUOUS
 62
     3
 10
133.173528157744
 20
15.74398352662307
 30
0.0
 11
138.9701609225686
 21
12.39729640920665
 31
0.0
  0
LINE
  5
40B
  8
0
  6
CONTINUOUS
 62
     3
 10
151.1639133920997
 20
16.90424505936231
 30
0.0
 11
156.2273000013755
 21
13.98089776046287
 31
0.0
  0
LINE
  5
40C
  8
0
  6
CONTINUOUS
 62
     3
 10
151.5132057558159
 20
13.81583157010901
 30
0.0
 11
152.763198275432
 21
15.98088182621233
 31
0.0
  0
LINE
  5
40D
  8
0
  6
CONTINUOUS
 62
     3
 10
146.1639098754259
 20
8.243983973657905
 30
0.0
 11
151.2272964847017
 21
5.320636674758461
 31
0.0
  0
LINE
  5
40E
  8
0
  6
CONTINUOUS
 62
     3
 10
97.26093869367205
 20
88.40076386879501
 30
0.0
 11
97.26093869367205
 21
50.77523744057235
 31
0.0
  0
LINE
  5
40F
  8
0
  6
CONTINUOUS
 62
     3
 10
119.2609386936721
 20
88.40076386879501
 30
0.0
 11
119.2609386936721
 21
50.77523744057235
 31
0.0
  0
LINE
  5
410
  8
0
  6
CONTINUOUS
 62
     3
 10
103.2609386936721
 20
88.40076386879501
 30
0.0
 11
103.2609386936721
 21
82.55407655190048
 31
0.0
  0
LINE
  5
411
  8
0
  6
CONTINUOUS
 62
     3
 10
113.2609386936721
 20
88.40076386879501
 30
0.0
 11
113.2609386936721
 21
82.55407655190048
 31
0.0
  0
LINE
  5
412
  8
0
  6
CONTINUOUS
 62
     3
 10
97.26093869367205
 20
55.90076386879501
 30
0.0
 11
103.2609386936721
 21
55.90076386879501
 31
0.0
  0
LINE
  5
413
  8
0
  6
CONTINUOUS
 62
     3
 10
113.2609386936721
 20
55.90076386879501
 30
0.0
 11
119.2609386936721
 21
55.90076386879501
 31
0.0
  0
LINE
  5
414
  8
0
  6
CONTINUOUS
 62
     3
 10
103.2609386936721
 20
57.40076386879501
 30
0.0
 11
105.7609386936721
 21
57.40076386879501
 31
0.0
  0
LINE
  5
415
  8
0
  6
CONTINUOUS
 62
     3
 10
103.2609386936721
 20
84.40076386879501
 30
0.0
 11
105.7609386936721
 21
84.40076386879501
 31
0.0
  0
LINE
  5
416
  8
0
  6
CONTINUOUS
 62
     3
 10
110.7609386936721
 20
84.40076386879501
 30
0.0
 11
113.2609386936721
 21
84.40076386879501
 31
0.0
  0
LINE
  5
417
  8
0
  6
CONTINUOUS
 62
     3
 10
110.7609386936721
 20
57.40076386879501
 30
0.0
 11
113.2609386936721
 21
57.40076386879501
 31
0.0
  0
LINE
  5
418
  8
0
  6
CONTINUOUS
 62
     3
 10
103.2609386936721
 20
74.24745118568954
 30
0.0
 11
103.2609386936721
 21
67.55407655190048
 31
0.0
  0
LINE
  5
419
  8
0
  6
CONTINUOUS
 62
     3
 10
103.2609386936721
 20
59.24745118568954
 30
0.0
 11
103.2609386936721
 21
55.90076386879501
 31
0.0
  0
LINE
  5
41A
  8
0
  6
CONTINUOUS
 62
     3
 10
113.2609386936721
 20
59.24745118568954
 30
0.0
 11
113.2609386936721
 21
55.90076386879501
 31
0.0
  0
LINE
  5
41B
  8
0
  6
CONTINUOUS
 62
     3
 10
113.2609386936721
 20
74.24745118568954
 30
0.0
 11
113.2609386936721
 21
67.55407655190048
 31
0.0
  0
ARC
  5
41C
  8
0
  6
CONTINUOUS
 62
     3
 10
108.2609386936721
 20
35.90076386879501
 30
0.0
 40
52.5
 50
222.0944235250756
 51
317.9055543904952
  0
ARC
  5
41D
  8
0
  6
CONTINUOUS
 62
     3
 10
108.2609386936721
 20
35.90076386879501
 30
0.0
 40
52.5
 50
342.0944507700419
 51
360.0
  0
ARC
  5
41E
  8
0
  6
CONTINUOUS
 62
     3
 10
108.2609386936721
 20
35.90076386879501
 30
0.0
 40
21.0
 50
121.5881589251156
 51
178.41189040428
  0
CIRCLE
  5
41F
  8
0
  6
CONTINUOUS
 62
     3
 10
108.2609386936721
 20
35.90076386879501
 30
0.0
 40
18.5
  0
ARC
  5
420
  8
0
  6
CONTINUOUS
 62
     3
 10
108.2609386936721
 20
35.90076386879501
 30
0.0
 40
51.0
 50
102.4558086824802
 51
197.5441655148345
  0
CIRCLE
  5
421
  8
0
  6
CONTINUOUS
 62
     3
 10
138.8316479221877
 20
53.55076539467392
 30
0.0
 40
5.5
  0
CIRCLE
  5
422
  8
0
  6
CONTINUOUS
 62
     3
 10
77.69024472394548
 20
53.55076157997665
 30
0.0
 40
5.5
  0
CIRCLE
  5
423
  8
0
  6
CONTINUOUS
 62
     3
 10
108.2609386936721
 20
0.6007646317344637
 30
0.0
 40
8.5
  0
ARC
  5
424
  8
0
  6
CONTINUOUS
 62
     3
 10
108.2609386936721
 20
35.90076386879501
 30
0.0
 40
51.0
 50
222.4557678529259
 51
317.5442134777394
  0
ARC
  5
425
  8
0
  6
CONTINUOUS
 62
     3
 10
108.2609386936721
 20
35.90076386879501
 30
0.0
 40
51.0
 50
342.4557950978922
 51
437.5442099868545
  0
ARC
  5
426
  8
0
  6
CONTINUOUS
 62
     3
 10
108.2609386936721
 20
35.90076386879501
 30
0.0
 40
52.5
 50
102.0944643546299
 51
197.9055098426848
  0
ARC
  5
427
  8
0
  6
CONTINUOUS
 62
     3
 10
108.2609386936721
 20
35.90076386879501
 30
0.0
 40
52.5
 50
0.0
 51
77.9055543147048
  0
ARC
  5
428
  8
0
  6
CONTINUOUS
 62
     3
 10
108.2609386936721
 20
35.90076386879501
 30
0.0
 40
21.0
 50
241.5881385861288
 51
298.4118973860499
  0
ARC
  5
429
  8
0
  6
CONTINUOUS
 62
     3
 10
108.2609386936721
 20
35.90076386879501
 30
0.0
 40
21.0
 50
1.588164230269536
 51
58.4118597442191
  0
CIRCLE
  5
42A
  8
0
  6
CONTINUOUS
 62
     3
 10
138.8316479221877
 20
53.55076539467392
 30
0.0
 40
8.5
  0
CIRCLE
  5
42B
  8
0
  6
CONTINUOUS
 62
     3
 10
77.69024472394548
 20
53.55076157997665
 30
0.0
 40
8.5
  0
ARC
  5
42C
  8
0
  6
CONTINUOUS
 62
     3
 10
108.2609386936721
 20
35.90076386879501
 30
0.0
 40
20.0
 50
0.0
 51
3.367041856317816
  0
ARC
  5
42D
  8
0
  6
CONTINUOUS
 62
     3
 10
108.2609386936721
 20
35.90076386879501
 30
0.0
 40
20.0
 50
176.6330086160852
 51
243.3670167318579
  0
ARC
  5
42E
  8
0
  6
CONTINUOUS
 62
     3
 10
108.2609386936721
 20
35.90076386879501
 30
0.0
 40
20.0
 50
56.63298820130803
 51
123.367027052932
  0
ARC
  5
42F
  8
0
  6
CONTINUOUS
 62
     3
 10
108.2609386936721
 20
35.90076386879501
 30
0.0
 40
20.0
 50
296.6330155978551
 51
360.0
  0
CIRCLE
  5
430
  8
0
  6
CONTINUOUS
 62
     3
 10
108.2609386936721
 20
35.90076386879501
 30
0.0
 40
16.0
  0
CIRCLE
  5
431
  8
0
  6
CONTINUOUS
 62
     3
 10
108.2609386936721
 20
35.90076386879501
 30
0.0
 40
9.25
  0
CIRCLE
  5
432
  8
0
  6
CONTINUOUS
 62
     3
 10
119.7609386936721
 20
35.90076386879501
 30
0.0
 40
1.299999952316284
  0
CIRCLE
  5
433
  8
0
  6
CONTINUOUS
 62
     3
 10
96.76093869367205
 20
35.90076386879501
 30
0.0
 40
1.299999952316284
  0
LINE
  5
434
  8
0
  6
CONTINUOUS
 62
     4
 10
-64.98927897386591
 20
13.40076386879501
 30
0.0
 11
-64.98927897386591
 21
10.40076386879501
 31
0.0
  0
LINE
  5
435
  8
0
  6
CONTINUOUS
 62
     4
 10
-64.98927897386591
 20
10.40076386879501
 30
0.0
 11
-52.9892789738659
 21
10.40076386879501
 31
0.0
  0
LINE
  5
436
  8
0
  6
CONTINUOUS
 62
     4
 10
-64.98927897386591
 20
13.40076386879501
 30
0.0
 11
-52.9892789738659
 21
13.40076386879501
 31
0.0
  0
LINE
  5
437
  8
0
  6
CONTINUOUS
 62
     4
 10
-65.85531894708072
 20
11.90076470059113
 30
0.0
 11
-64.98929482650863
 21
13.40076227226619
 31
0.0
  0
LINE
  5
438
  8
0
  6
CONTINUOUS
 62
     4
 10
-65.85531897046383
 20
11.90076203917589
 30
0.0
 11
-64.98929294254288
 21
10.40076116387614
 31
0.0
  0
LINE
  5
439
  8
0
  6
CONTINUOUS
 62
     4
 10
-71.48927897386591
 20
20.57576386879501
 30
0.0
 11
-63.4892789738659
 21
20.57576386879501
 31
0.0
  0
LINE
  5
43A
  8
0
  6
CONTINUOUS
 62
     4
 10
-71.48927897386591
 20
51.22576386879501
 30
0.0
 11
-69.48927897386591
 21
51.22576386879501
 31
0.0
  0
LINE
  5
43B
  8
0
  6
CONTINUOUS
 62
     4
 10
-67.98927897386591
 20
51.22576386879501
 30
0.0
 11
-63.4892789738659
 21
51.22576386879501
 31
0.0
  0
LINE
  5
43C
  8
0
  6
CONTINUOUS
 62
     4
 10
-69.48927897386591
 20
50.40076386879501
 30
0.0
 11
-63.4892789738659
 21
50.40076386879501
 31
0.0
  0
LINE
  5
43D
  8
0
  6
CONTINUOUS
 62
     4
 10
-69.48927897386591
 20
46.40076386879501
 30
0.0
 11
-63.4892789738659
 21
46.40076386879501
 31
0.0
  0
LINE
  5
43E
  8
0
  6
CONTINUOUS
 62
     4
 10
-69.48927897386591
 20
46.90076386879501
 30
0.0
 11
-63.4892789738659
 21
46.90076386879501
 31
0.0
  0
LINE
  5
43F
  8
0
  6
CONTINUOUS
 62
     4
 10
-69.48927897386591
 20
49.90076386879501
 30
0.0
 11
-63.4892789738659
 21
49.90076386879501
 31
0.0
  0
LINE
  5
440
  8
0
  6
CONTINUOUS
 62
     4
 10
-53.9892789738659
 20
88.40076386879501
 30
0.0
 11
-53.9892789738659
 21
84.40076386879501
 31
0.0
  0
LINE
  5
441
  8
0
  6
CONTINUOUS
 62
     4
 10
-54.9892789738659
 20
88.40076386879501
 30
0.0
 11
-54.9892789738659
 21
84.40076386879501
 31
0.0
  0
LINE
  5
442
  8
0
  6
CONTINUOUS
 62
     4
 10
-54.9892789738659
 20
57.40076386879501
 30
0.0
 11
-54.9892789738659
 21
55.90076386879501
 31
0.0
  0
LINE
  5
443
  8
0
  6
CONTINUOUS
 62
     4
 10
-53.9892789738659
 20
57.40076386879501
 30
0.0
 11
-53.9892789738659
 21
55.90076386879501
 31
0.0
  0
LINE
  5
444
  8
0
  6
CONTINUOUS
 62
     4
 10
-66.98927897386591
 20
81.6007608170372
 30
0.0
 11
-45.9892789738659
 21
81.6007608170372
 31
0.0
  0
LINE
  5
445
  8
0
  6
CONTINUOUS
 62
     4
 10
-66.98927897386591
 20
75.20076692055282
 30
0.0
 11
-45.9892789738659
 21
75.20076692055282
 31
0.0
  0
LINE
  5
446
  8
0
  6
CONTINUOUS
 62
     4
 10
-66.98927897386591
 20
66.60076463173446
 30
0.0
 11
-45.9892789738659
 21
66.60076463173446
 31
0.0
  0
LINE
  5
447
  8
0
  6
CONTINUOUS
 62
     4
 10
-66.98927897386591
 20
60.20076310585556
 30
0.0
 11
-45.9892789738659
 21
60.20076310585556
 31
0.0
  0
LINE
  5
448
  8
0
  6
CONTINUOUS
 62
     4
 10
-118.9892789738659
 20
-3.399235368265536
 30
0.0
 11
-86.98927897386591
 21
-3.399235368265536
 31
0.0
  0
LINE
  5
449
  8
0
  6
CONTINUOUS
 62
     4
 10
-118.9892789738659
 20
4.600764631734464
 30
0.0
 11
-86.98927897386591
 21
4.600764631734464
 31
0.0
  0
LINE
  5
44A
  8
0
  6
CONTINUOUS
 62
     4
 10
70.76094632306658
 20
74.80076539467392
 30
0.0
 11
70.76094632306658
 21
72.6431192154747
 31
0.0
  0
LINE
  5
44B
  8
0
  6
CONTINUOUS
 62
     4
 10
73.06094174542986
 20
75.70076692055282
 30
0.0
 11
73.06094174542986
 21
74.85214936684189
 31
0.0
  0
LINE
  5
44C
  8
0
  6
CONTINUOUS
 62
     4
 10
70.76094618781289
 20
74.8007708981139
 30
0.0
 11
73.06095368804299
 21
75.70077363136862
 31
0.0
  0
LINE
  5
44D
  8
0
  6
CONTINUOUS
 62
     4
 10
58.94366342607734
 20
19.32082912267286
 30
0.0
 11
61.24366484466803
 21
15.33711035459031
 31
0.0
  0
LINE
  5
44E
  8
0
  6
CONTINUOUS
 62
     4
 10
84.49141282178275
 20
34.07083774379576
 30
0.0
 11
86.79141137935014
 21
30.08712393115023
 31
0.0
  0
LINE
  5
44F
  8
0
  6
CONTINUOUS
 62
     4
 10
92.49141663648035
 20
20.21442657650572
 30
0.0
 11
94.79141328669888
 21
16.23071606748486
 31
0.0
  0
LINE
  5
450
  8
0
  6
CONTINUOUS
 62
     4
 10
121.7304971406012
 20
16.23069998194897
 30
0.0
 11
124.0305004665407
 21
20.21442205365621
 31
0.0
  0
LINE
  5
451
  8
0
  6
CONTINUOUS
 62
     4
 10
129.7304980942755
 20
30.087106193802
 30
0.0
 11
132.030501420215
 21
34.07082826550924
 31
0.0
  0
LINE
  5
452
  8
0
  6
CONTINUOUS
 62
     4
 10
147.2782499084029
 20
1.480704830861313
 30
0.0
 11
149.5782532343424
 21
5.464426902568548
 31
0.0
  0
LINE
  5
453
  8
0
  6
CONTINUOUS
 62
     4
 10
66.94366628710051
 20
5.464419607195154
 30
0.0
 11
69.24366675201677
 21
1.480702490924941
 31
0.0
  0
LINE
  5
454
  8
0
  6
CONTINUOUS
 62
     4
 10
155.2782584914727
 20
15.33712425721306
 30
0.0
 11
157.5782541880168
 21
19.32083311442158
 31
0.0
  0
LINE
  5
455
  8
0
  6
CONTINUOUS
 62
     4
 10
153.9792298089124
 20
16.08711010997523
 30
0.0
 11
156.2792255054565
 21
20.07081896718374
 31
0.0
  0
LINE
  5
456
  8
0
  6
CONTINUOUS
 62
     4
 10
152.6801823267502
 20
16.837124436027
 30
0.0
 11
154.9801780232943
 21
20.82083329323551
 31
0.0
  0
LINE
  5
457
  8
0
  6
CONTINUOUS
 62
     4
 10
151.3811668586887
 20
17.58710265939372
 30
0.0
 11
153.6811625552328
 21
21.57081151660223
 31
0.0
  0
LINE
  5
458
  8
0
  6
CONTINUOUS
 62
     4
 10
150.486780740298
 20
19.03804144880051
 30
0.0
 11
152.3821018585719
 21
22.32083347204944
 31
0.0
  0
LINE
  5
459
  8
0
  6
CONTINUOUS
 62
     4
 10
131.0295361766367
 20
29.33710610439503
 30
0.0
 11
133.3295395025762
 21
33.32082817610227
 31
0.0
  0
LINE
  5
45A
  8
0
  6
CONTINUOUS
 62
     4
 10
132.6444808213151
 20
29.13427215631792
 30
0.0
 11
134.6285737702397
 21
32.57082147944594
 31
0.0
  0
LINE
  5
45B
  8
0
  6
CONTINUOUS
 62
     4
 10
123.0295352229624
 20
15.48069989254201
 30
0.0
 11
125.3295385489019
 21
19.46442196424924
 31
0.0
  0
LINE
  5
45C
  8
0
  6
CONTINUOUS
 62
     4
 10
124.3285733053236
 20
14.73069980313504
 30
0.0
 11
126.2916053081341
 21
18.13077050254115
 31
0.0
  0
LINE
  5
45D
  8
0
  6
CONTINUOUS
 62
     4
 10
145.9792250405404
 20
2.23069729087284
 30
0.0
 11
148.2792245517822
 21
6.214412755330713
 31
0.0
  0
LINE
  5
45E
  8
0
  6
CONTINUOUS
 62
     4
 10
144.6801737436805
 20
2.980705009675248
 30
0.0
 11
146.98017706962
 21
6.964427081382482
 31
0.0
  0
LINE
  5
45F
  8
0
  6
CONTINUOUS
 62
     4
 10
143.3811620903167
 20
3.730689840291333
 30
0.0
 11
145.6811654162562
 21
7.714411911998568
 31
0.0
  0
LINE
  5
460
  8
0
  6
CONTINUOUS
 62
     4
 10
142.082097578958
 20
4.480705188489182
 30
0.0
 11
144.0037057792229
 21
7.809027767084544
 31
0.0
  0
LINE
  5
461
  8
0
  6
CONTINUOUS
 62
     4
 10
91.19237385421863
 20
19.46441936877635
 30
0.0
 11
93.49237241178602
 21
15.48070555613082
 31
0.0
  0
LINE
  5
462
  8
0
  6
CONTINUOUS
 62
     4
 10
90.16160820374032
 20
18.24975786080994
 30
0.0
 11
92.19333242207594
 21
14.73070877034853
 31
0.0
  0
LINE
  5
463
  8
0
  6
CONTINUOUS
 62
     4
 10
83.19237099319545
 20
33.32082888425406
 30
0.0
 11
85.49237050443728
 21
29.33711341979618
 31
0.0
  0
LINE
  5
464
  8
0
  6
CONTINUOUS
 62
     4
 10
81.89333100348537
 20
32.57083209847177
 30
0.0
 11
83.88842172593783
 21
29.11523407543608
 31
0.0
  0
LINE
  5
465
  8
0
  6
CONTINUOUS
 62
     4
 10
60.2426996010897
 20
20.07083251570451
 30
0.0
 11
62.54270292702925
 21
16.08711044399728
 31
0.0
  0
LINE
  5
466
  8
0
  6
CONTINUOUS
 62
     4
 10
61.54173107620157
 20
20.82082879041376
 30
0.0
 11
63.84173058744339
 21
16.83711332595588
 31
0.0
  0
LINE
  5
467
  8
0
  6
CONTINUOUS
 62
     4
 10
62.84077862683544
 20
21.57082773908142
 30
0.0
 11
65.14078099910054
 21
17.58710731918653
 31
0.0
  0
LINE
  5
468
  8
0
  6
CONTINUOUS
 62
     4
 10
64.13981480184779
 20
22.32083113211307
 30
0.0
 11
65.96644942664304
 21
19.15700758904539
 31
0.0
  0
LINE
  5
469
  8
0
  6
CONTINUOUS
 62
     4
 10
68.24270436946173
 20
6.214419696602121
 30
0.0
 11
70.54270483437799
 21
2.230702580331908
 31
0.0
  0
LINE
  5
46A
  8
0
  6
CONTINUOUS
 62
     4
 10
69.54173202987587
 20
6.964422578560729
 30
0.0
 11
71.84173249479213
 21
2.980705462290516
 31
0.0
  0
LINE
  5
46B
  8
0
  6
CONTINUOUS
 62
     4
 10
70.84078244153304
 20
7.714416571791375
 30
0.0
 11
73.14078290644929
 21
3.730699455521162
 31
0.0
  0
LINE
  5
46C
  8
0
  6
CONTINUOUS
 62
     4
 10
72.55056237888877
 20
7.752990997130141
 30
0.0
 11
74.43981717411279
 21
4.48070615217749
 31
0.0
  0
LINE
  5
46D
  8
0
  6
CONTINUOUS
 62
     4
 10
97.76093869367205
 20
57.40076386879501
 30
0.0
 11
102.7609386936721
 21
57.40076386879501
 31
0.0
  0
LINE
  5
46E
  8
0
  6
CONTINUOUS
 62
     4
 10
97.76093869367205
 20
86.90076386879501
 30
0.0
 11
102.7609386936721
 21
86.90076386879501
 31
0.0
  0
LINE
  5
46F
  8
0
  6
CONTINUOUS
 62
     4
 10
113.7609386936721
 20
57.40076386879501
 30
0.0
 11
118.7609386936721
 21
57.40076386879501
 31
0.0
  0
LINE
  5
470
  8
0
  6
CONTINUOUS
 62
     4
 10
113.7609386936721
 20
86.90076386879501
 30
0.0
 11
118.7609386936721
 21
86.90076386879501
 31
0.0
  0
LINE
  5
471
  8
0
  6
CONTINUOUS
 62
     4
 10
113.7609386936721
 20
85.40076386879501
 30
0.0
 11
118.7609386936721
 21
85.40076386879501
 31
0.0
  0
LINE
  5
472
  8
0
  6
CONTINUOUS
 62
     4
 10
113.7609386936721
 20
83.90076386879501
 30
0.0
 11
118.7609386936721
 21
83.90076386879501
 31
0.0
  0
LINE
  5
473
  8
0
  6
CONTINUOUS
 62
     4
 10
113.7609386936721
 20
82.40076386879501
 30
0.0
 11
118.7609386936721
 21
82.40076386879501
 31
0.0
  0
LINE
  5
474
  8
0
  6
CONTINUOUS
 62
     4
 10
114.8606243626174
 20
80.90076386879501
 30
0.0
 11
118.7609386936721
 21
80.90076386879501
 31
0.0
  0
LINE
  5
475
  8
0
  6
CONTINUOUS
 62
     4
 10
97.76093869367205
 20
85.40076386879501
 30
0.0
 11
102.7609386936721
 21
85.40076386879501
 31
0.0
  0
LINE
  5
476
  8
0
  6
CONTINUOUS
 62
     4
 10
97.76093869367205
 20
83.90076386879501
 30
0.0
 11
102.7609386936721
 21
83.90076386879501
 31
0.0
  0
LINE
  5
477
  8
0
  6
CONTINUOUS
 62
     4
 10
97.76093869367205
 20
82.40076386879501
 30
0.0
 11
102.7609386936721
 21
82.40076386879501
 31
0.0
  0
LINE
  5
478
  8
0
  6
CONTINUOUS
 62
     4
 10
97.76093869367205
 20
80.90076386879501
 30
0.0
 11
101.7873058811721
 21
80.90076386879501
 31
0.0
  0
LINE
  5
479
  8
0
  6
CONTINUOUS
 62
     4
 10
97.76093869367205
 20
58.90076386879501
 30
0.0
 11
102.7609386936721
 21
58.90076386879501
 31
0.0
  0
LINE
  5
47A
  8
0
  6
CONTINUOUS
 62
     4
 10
97.76093869367205
 20
60.40076386879501
 30
0.0
 11
101.9350262180861
 21
60.40076386879501
 31
0.0
  0
LINE
  5
47B
  8
0
  6
CONTINUOUS
 62
     4
 10
113.7609386936721
 20
58.90076386879501
 30
0.0
 11
118.7609386936721
 21
58.90076386879501
 31
0.0
  0
LINE
  5
47C
  8
0
  6
CONTINUOUS
 62
     4
 10
114.6390514866408
 20
60.40076386879501
 30
0.0
 11
118.7609386936721
 21
60.40076386879501
 31
0.0
  0
CIRCLE
  5
47D
  8
0
  6
CONTINUOUS
 62
     4
 10
108.2609386936721
 20
11.90076386879501
 30
0.0
 40
1.5
  0
CIRCLE
  5
47E
  8
0
  6
CONTINUOUS
 62
     4
 10
108.2609386936721
 20
11.90076386879501
 30
0.0
 40
2.0
  0
ARC
  5
47F
  8
0
  6
CONTINUOUS
 62
     4
 10
73.06094174542986
 20
72.40076386879501
 30
0.0
 40
3.299999952316284
 50
72.36029448230075
 51
89.99998201391055
  0
ARC
  5
480
  8
0
  6
CONTINUOUS
 62
     4
 10
71.23882870832048
 20
72.40076386879501
 30
0.0
 40
1.200000047683716
 50
113.4679724171302
 51
200.8157441650003
  0
CIRCLE
  5
481
  8
0
  6
CONTINUOUS
 62
     4
 10
129.0455608860549
 20
47.90075623940048
 30
0.0
 40
1.5
  0
CIRCLE
  5
482
  8
0
  6
CONTINUOUS
 62
     4
 10
87.4763317600783
 20
47.90076768349228
 30
0.0
 40
1.5
  0
CIRCLE
  5
483
  8
0
  6
CONTINUOUS
 62
     4
 10
87.4763317600783
 20
47.90076768349228
 30
0.0
 40
2.0
  0
CIRCLE
  5
484
  8
0
  6
CONTINUOUS
 62
     4
 10
129.0455608860549
 20
47.90075623940048
 30
0.0
 40
2.0
  0
CIRCLE
  5
485
  8
0
  6
CONTINUOUS
 62
     4
 10
108.2609386936721
 20
35.90076386879501
 30
0.0
 40
15.19999980926514
  0
CIRCLE
  5
486
  8
0
  6
CONTINUOUS
 62
     4
 10
108.2609386936721
 20
48.40076386879501
 30
0.0
 40
1.5
  0
CIRCLE
  5
487
  8
0
  6
CONTINUOUS
 62
     4
 10
108.2609386936721
 20
48.40076386879501
 30
0.0
 40
2.0
  0
LINE
  5
488
  8
0
  6
DIVIDE
 62
     9
 10
-105.9892789738659
 20
53.90076386879501
 30
0.0
 11
-105.9892789738659
 21
17.90076386879501
 31
0.0
  0
LINE
  5
489
  8
0
  6
DIVIDE
 62
     9
 10
-105.9892602480867
 20
53.90074483616091
 30
0.0
 11
-105.4892662078902
 21
54.40074650490406
 31
0.0
  0
LINE
  5
48A
  8
0
  6
DIVIDE
 62
     9
 10
-105.9892701609507
 20
17.90076851567424
 30
0.0
 11
-105.489269630156
 21
17.40076798487949
 31
0.0
  0
LINE
  5
48B
  8
0
  6
DIVIDE
 62
     9
 10
-55.98927642423734
 20
53.90075817972762
 30
0.0
 11
-56.48927695503209
 21
54.40075871052237
 31
0.0
  0
LINE
  5
48C
  8
0
  6
DIVIDE
 62
     9
 10
-59.86365336351434
 20
54.40076386879501
 30
0.0
 11
-56.4892789738659
 21
54.40076386879501
 31
0.0
  0
LINE
  5
48D
  8
LAYER0001
  6
CONTINUOUS
 62
     7
 10
-106.9892789738659
 20
-44.09923613120499
 30
0.0
 11
-121.4355909245495
 21
-44.09923613120499
 31
0.0
  0
LINE
  5
48E
  8
LAYER0001
  6
CONTINUOUS
 62
     7
 10
-25.32260722093621
 20
55.90076386879501
 30
0.0
 11
-25.32260722093621
 21
45.17899262856064
 31
0.0
  0
LINE
  5
48F
  8
LAYER0001
  6
CONTINUOUS
 62
     7
 10
-52.9892789738659
 20
105.900763868795
 30
0.0
 11
-46.53212183885614
 21
105.900763868795
 31
0.0
  0
LINE
  5
490
  8
LAYER0001
  6
CONTINUOUS
 62
     7
 10
-52.9892789738659
 20
24.11513078163681
 30
0.0
 11
-38.23939722948114
 21
24.11513078163681
 31
0.0
  0
LINE
  5
491
  8
LAYER0001
  6
CONTINUOUS
 62
     7
 10
55.98695044562371
 20
-0.0531411071250574
 30
0.0
 11
62.4656169325227
 21
-11.27452253633409
 31
0.0
  0
LINE
  5
492
  8
LAYER0001
  6
CONTINUOUS
 62
     7
 10
59.44989688023645
 20
13.49319659830575
 30
0.0
 11
50.1209255938247
 21
8.107113430934177
 31
0.0
  0
LINE
  5
493
  8
LAYER0001
  6
CONTINUOUS
 62
     7
 10
64.13572705992276
 20
4.651549857251387
 30
0.0
 11
55.12092785880086
 21
-0.5531460029577744
 31
0.0
  0
LINE
  5
494
  8
LAYER0001
  6
CONTINUOUS
 62
     7
 10
50.98695104167016
 20
8.607113371329533
 30
0.0
 11
55.98695044562371
 21
-0.0531411071250574
 31
0.0
  0
INSERT
  5
495
  8
LAYER0001
  6
CONTINUOUS
  2
DC_GROUP_1
 10
0.0
 20
0.0
 30
0.0
  0
INSERT
  5
496
  8
LAYER0001
  6
CONTINUOUS
  2
DC_GROUP_4
 10
0.0
 20
0.0
 30
0.0
  0
INSERT
  5
497
  8
LAYER0001
  6
CONTINUOUS
  2
DC_GROUP_7
 10
0.0
 20
0.0
 30
0.0
  0
INSERT
  5
498
  8
LAYER0001
  6
CONTINUOUS
  2
DC_GROUP_31
 10
0.0
 20
0.0
 30
0.0
  0
INSERT
  5
499
  8
LAYER0001
  6
CONTINUOUS
  2
DC_GROUP_10
 10
0.0
 20
0.0
 30
0.0
  0
INSERT
  5
49A
  8
LAYER0001
  6
CONTINUOUS
  2
DC_GROUP_13
 10
0.0
 20
0.0
 30
0.0
  0
INSERT
  5
49B
  8
LAYER0001
  6
CONTINUOUS
  2
DC_GROUP_16
 10
0.0
 20
0.0
 30
0.0
  0
INSERT
  5
49C
  8
LAYER0001
  6
CONTINUOUS
  2
DC_GROUP_19
 10
0.0
 20
0.0
 30
0.0
  0
INSERT
  5
49D
  8
LAYER0001
  6
CONTINUOUS
  2
DC_GROUP_22
 10
0.0
 20
0.0
 30
0.0
  0
INSERT
  5
49E
  8
LAYER0001
  6
CONTINUOUS
  2
DC_GROUP_47
 10
0.0
 20
0.0
 30
0.0
  0
INSERT
  5
49F
  8
LAYER0001
  6
CONTINUOUS
  2
DC_GROUP_25
 10
0.0
 20
0.0
 30
0.0
  0
INSERT
  5
4A0
  8
LAYER0001
  6
CONTINUOUS
  2
DC_GROUP_28
 10
0.0
 20
0.0
 30
0.0
  0
INSERT
  5
4A1
  8
LAYER0001
  6
CONTINUOUS
  2
DC_GROUP_34
 10
0.0
 20
0.0
 30
0.0
  0
INSERT
  5
4A2
  8
LAYER0001
  6
CONTINUOUS
  2
DC_GROUP_37
 10
0.0
 20
0.0
 30
0.0
  0
INSERT
  5
4A3
  8
LAYER0001
  6
CONTINUOUS
  2
DC_GROUP_40
 10
0.0
 20
0.0
 30
0.0
  0
INSERT
  5
4A4
  8
LAYER0001
  6
CONTINUOUS
  2
DC_GROUP_43
 10
0.0
 20
0.0
 30
0.0
  0
INSERT
  5
4A5
  8
LAYER0001
  6
CONTINUOUS
  2
DC_GROUP_45
 10
0.0
 20
0.0
 30
0.0
  0
INSERT
  5
4A6
  8
LAYER0001
  6
DASHED2
  2
DC_GROUP_50
 10
0.0
 20
0.0
 30
0.0
  0
INSERT
  5
4A7
  8
LAYER0001
  6
CENTER
  2
DC_GROUP_52
 10
0.0
 20
0.0
 30
0.0
  0
INSERT
  5
4A8
  8
LAYER0001
  6
CONTINUOUS
  2
DC_GROUP_54
 10
0.0
 20
0.0
 30
0.0
  0
INSERT
  5
4A9
  8
LAYER0001
  6
CONTINUOUS
  2
DC_GROUP_56
 10
0.0
 20
0.0
 30
0.0
  0
INSERT
  5
4AA
  8
LAYER0001
  6
CONTINUOUS
  2
DC_GROUP_58
 10
0.0
 20
0.0
 30
0.0
  0
INSERT
  5
4AB
  8
LAYER0001
  6
CONTINUOUS
  2
DC_GROUP_61
 10
0.0
 20
0.0
 30
0.0
  0
INSERT
  5
4AC
  8
LAYER0001
  6
CONTINUOUS
  2
DC_GROUP_62
 10
0.0
 20
0.0
 30
0.0
  0
LINE
  5
4AD
  8
0
  6
CONTINUOUS
 62
     2
 10
132.0766525093701
 20
25.65075446038246
 30
0.0
 11
129.0455628160622
 21
23.90075581638813
 31
0.0
  0
LINE
  5
4AE
  8
0
  6
CONTINUOUS
 62
     2
 10
135.107731295741
 20
23.90076057100315
 30
0.0
 11
132.0766432713632
 21
25.65076203131694
 31
0.0
  0
LINE
  5
4AF
  8
0
  6
CONTINUOUS
 62
     2
 10
129.0455608860549
 20
23.90076386879501
 30
0.0
 11
129.0455608860549
 21
20.40076386879501
 31
0.0
  0
LINE
  5
4B0
  8
0
  6
CONTINUOUS
 62
     2
 10
129.0455578104266
 20
20.4007632457011
 30
0.0
 11
132.0766464606532
 21
18.65076282846859
 31
0.0
  0
LINE
  5
4B1
  8
0
  6
CONTINUOUS
 62
     2
 10
132.0766424263745
 20
18.65075554519068
 30
0.0
 11
135.1077314938336
 21
20.40075523226629
 31
0.0
  0
LINE
  5
4B2
  8
0
  6
CONTINUOUS
 62
     2
 10
135.1077404514846
 20
20.40076196144638
 30
0.0
 11
135.1077404514846
 21
23.90076196144638
 31
0.0
  0
LINE
  5
4B3
  8
0
  6
CONTINUOUS
 62
     2
 10
145.0670368356593
 20
18.15076769208723
 30
0.0
 11
142.0359471423514
 21
16.4007690480929
 31
0.0
  0
LINE
  5
4B4
  8
0
  6
CONTINUOUS
 62
     2
 10
148.098112357775
 20
16.40076091976299
 30
0.0
 11
145.0670243333971
 21
18.15076238007679
 31
0.0
  0
LINE
  5
4B5
  8
0
  6
CONTINUOUS
 62
     2
 10
142.0359478489455
 20
16.40076386879501
 30
0.0
 11
142.0359478489455
 21
12.90076386879501
 31
0.0
  0
LINE
  5
4B6
  8
0
  6
CONTINUOUS
 62
     2
 10
142.0359377399692
 20
12.90076145756176
 30
0.0
 11
145.0670263901958
 21
11.15076104032924
 31
0.0
  0
LINE
  5
4B7
  8
0
  6
CONTINUOUS
 62
     2
 10
145.0670160684882
 20
11.1507657055398
 30
0.0
 11
148.0981051359473
 21
12.90076539261541
 31
0.0
  0
LINE
  5
4B8
  8
0
  6
CONTINUOUS
 62
     2
 10
148.0981121555861
 20
12.90076386879501
 30
0.0
 11
148.0981121555861
 21
16.40076196144638
 31
0.0
  0
LINE
  5
4B9
  8
0
  6
CONTINUOUS
 62
     2
 10
71.45487238961354
 20
18.15077141180358
 30
0.0
 11
68.42378269630567
 21
16.40077276780924
 31
0.0
  0
LINE
  5
4BA
  8
0
  6
CONTINUOUS
 62
     2
 10
74.48595553805703
 20
16.40076923816774
 30
0.0
 11
71.4548675136792
 21
18.15077069848154
 31
0.0
  0
LINE
  5
4BB
  8
0
  6
CONTINUOUS
 62
     2
 10
68.42378049054705
 20
16.40076768349228
 30
0.0
 11
68.42378049054705
 21
12.90076768349228
 31
0.0
  0
LINE
  5
4BC
  8
0
  6
CONTINUOUS
 62
     2
 10
68.42377820846204
 20
12.90076313209157
 30
0.0
 11
71.45486685868863
 21
11.15076271485906
 31
0.0
  0
LINE
  5
4BD
  8
0
  6
CONTINUOUS
 62
     2
 10
71.45487320233124
 20
11.15077587728079
 30
0.0
 11
74.48596226979035
 21
12.90077556435641
 31
0.0
  0
LINE
  5
4BE
  8
0
  6
CONTINUOUS
 62
     2
 10
74.48596005597673
 20
12.90076768349228
 30
0.0
 11
74.48596005597673
 21
16.40076577614364
 31
0.0
  0
LINE
  5
4BF
  8
0
  6
CONTINUOUS
 62
     2
 10
84.44525818578288
 20
25.65077081132345
 30
0.0
 11
81.414168492475
 21
23.90077216732912
 31
0.0
  0
LINE
  5
4C0
  8
0
  6
CONTINUOUS
 62
     2
 10
87.47633543378001
 20
23.90075471021497
 30
0.0
 11
84.44524740940219
 21
25.65075617052877
 31
0.0
  0
LINE
  5
4C1
  8
0
  6
CONTINUOUS
 62
     2
 10
81.41415982404314
 20
23.90076768349228
 30
0.0
 11
81.41415982404314
 21
20.40076768349228
 31
0.0
  0
LINE
  5
4C2
  8
0
  6
CONTINUOUS
 62
     2
 10
81.41415938855525
 20
20.40075976942136
 30
0.0
 11
84.44524803878184
 21
18.65075935218884
 31
0.0
  0
LINE
  5
4C3
  8
0
  6
CONTINUOUS
 62
     2
 10
84.4452417055135
 20
18.65076690678312
 30
0.0
 11
87.4763307729726
 21
20.40076659385873
 31
0.0
  0
LINE
  5
4C4
  8
0
  6
CONTINUOUS
 62
     2
 10
87.47633938947283
 20
20.40076577614364
 30
0.0
 11
87.47633938947283
 21
23.90076577614364
 31
0.0
  0
LINE
  5
4C5
  8
0
  6
CONTINUOUS
 62
     2
 10
108.2609533406886
 20
5.300770605018997
 30
0.0
 11
104.1906209230748
 21
2.950768843713021
 31
0.0
  0
LINE
  5
4C6
  8
0
  6
CONTINUOUS
 62
     2
 10
104.1906261936721
 20
2.950766920552823
 30
0.0
 11
104.1906261936721
 21
-1.74923384238663
 31
0.0
  0
LINE
  5
4C7
  8
0
  6
CONTINUOUS
 62
     2
 10
104.1906142511935
 20
-1.749224586415394
 30
0.0
 11
108.2609355792802
 21
-4.099230236938993
 31
0.0
  0
LINE
  5
4C8
  8
0
  6
CONTINUOUS
 62
     2
 10
108.2609771392234
 20
-4.099276096764143
 30
0.0
 11
112.3312963423303
 21
-1.749281824767778
 31
0.0
  0
LINE
  5
4C9
  8
0
  6
CONTINUOUS
 62
     2
 10
112.3312664524611
 20
-1.749241471781161
 30
0.0
 11
112.3312664524611
 21
2.950759291158292
 31
0.0
  0
LINE
  5
4CA
  8
0
  6
CONTINUOUS
 62
     2
 10
112.3312654045704
 20
2.950744847309224
 30
0.0
 11
108.2609451970521
 21
5.300752738969649
 31
0.0
  0
LINE
  5
4CB
  8
0
  6
CONTINUOUS
 62
     2
 10
108.2609372082781
 20
66.90076492416497
 30
0.0
 11
105.2298475149702
 21
65.15076628017064
 31
0.0
  0
LINE
  5
4CC
  8
0
  6
CONTINUOUS
 62
     2
 10
111.2920208945671
 20
65.15076172106511
 30
0.0
 11
108.2609328701893
 21
66.90076318137891
 31
0.0
  0
LINE
  5
4CD
  8
0
  6
CONTINUOUS
 62
     2
 10
105.2298565403517
 20
65.15076386879501
 30
0.0
 11
105.2298565403517
 21
61.65076386879501
 31
0.0
  0
LINE
  5
4CE
  8
0
  6
CONTINUOUS
 62
     2
 10
105.2298362391744
 20
61.6507544535235
 30
0.0
 11
108.260924889401
 21
59.90075403629099
 31
0.0
  0
LINE
  5
4CF
  8
0
  6
CONTINUOUS
 62
     2
 10
108.2609437697624
 20
59.90076511095718
 30
0.0
 11
111.2920328372215
 21
61.6507647980328
 31
0.0
  0
LINE
  5
4D0
  8
0
  6
CONTINUOUS
 62
     2
 10
111.2920208469924
 20
61.65076386879501
 30
0.0
 11
111.2920208469924
 21
65.15076386879501
 31
0.0
  0
LINE
  5
4D1
  8
0
  6
CONTINUOUS
 62
     2
 10
108.2609425093659
 20
81.90076734432812
 30
0.0
 11
105.229852816058
 21
80.15076870033379
 31
0.0
  0
LINE
  5
4D2
  8
0
  6
CONTINUOUS
 62
     2
 10
111.2920301502041
 20
80.15074963689959
 30
0.0
 11
108.2609421258263
 21
81.90075109721339
 31
0.0
  0
LINE
  5
4D3
  8
0
  6
CONTINUOUS
 62
     2
 10
105.2298565403517
 20
80.15076386879501
 30
0.0
 11
105.2298565403517
 21
76.65076386879501
 31
0.0
  0
LINE
  5
4D4
  8
0
  6
CONTINUOUS
 62
     2
 10
105.2298451191215
 20
76.65076609349045
 30
0.0
 11
108.260933769348
 21
74.90076567625793
 31
0.0
  0
LINE
  5
4D5
  8
0
  6
CONTINUOUS
 62
     2
 10
108.2609446927745
 20
74.90076599809696
 30
0.0
 11
111.2920337602336
 21
76.65076568517257
 31
0.0
  0
LINE
  5
4D6
  8
0
  6
CONTINUOUS
 62
     2
 10
111.2920208469924
 20
76.65076386879501
 30
0.0
 11
111.2920208469924
 21
80.15076386879501
 31
0.0
  0
CIRCLE
  5
4D7
  8
0
  6
CONTINUOUS
 62
     2
 10
132.0766430393752
 20
22.15076386879501
 30
0.0
 40
6.5
  0
CIRCLE
  5
4D8
  8
0
  6
CONTINUOUS
 62
     2
 10
145.0670300022658
 20
14.65076386879501
 30
0.0
 40
6.5
  0
CIRCLE
  5
4D9
  8
0
  6
CONTINUOUS
 62
     2
 10
71.45487027326189
 20
14.65076768349228
 30
0.0
 40
6.5
  0
CIRCLE
  5
4DA
  8
0
  6
CONTINUOUS
 62
     2
 10
84.44524960675798
 20
22.15076768349228
 30
0.0
 40
6.5
  0
CIRCLE
  5
4DB
  8
0
  6
CONTINUOUS
 62
     2
 10
108.2609386936721
 20
0.6007646317344637
 30
0.0
 40
8.0
  0
CIRCLE
  5
4DC
  8
0
  6
CONTINUOUS
 62
     2
 10
108.2609386936721
 20
63.40076386879501
 30
0.0
 40
6.5
  0
CIRCLE
  5
4DD
  8
0
  6
CONTINUOUS
 62
     2
 10
108.2609386936721
 20
78.40076386879501
 30
0.0
 40
6.5
  0
LINE
  5
4DE
  8
0
  6
CONTINUOUS
 62
     5
 10
131.0326925065692
 20
66.43282518381459
 30
0.0
 11
132.5311946126683
 21
63.83734200719543
 31
0.0
  0
LINE
  5
4DF
  8
0
  6
CONTINUOUS
 62
     5
 10
131.7150180433547
 20
66.25002028252776
 30
0.0
 11
131.0326826017664
 21
66.43285157775846
 31
0.0
  0
LINE
  5
4E0
  8
0
  6
CONTINUOUS
 62
     5
 10
130.8499056446236
 20
65.75048995391045
 30
0.0
 11
131.0327368345917
 21
66.43282539549874
 31
0.0
  0
LINE
  5
4E1
  8
0
  6
CONTINUOUS
 62
     5
 10
132.5312515640845
 20
63.83733287025881
 30
0.0
 11
132.7140827540526
 21
64.5196683118471
 31
0.0
  0
LINE
  5
4E2
  8
0
  6
CONTINUOUS
 62
     5
 10
132.531200964739
 20
63.83737347558882
 30
0.0
 11
131.8488655231507
 21
64.02020477081952
 31
0.0
  0
LINE
  5
4E3
  8
0
  6
CONTINUOUS
 62
     5
 10
126.4571322631746
 20
64.36790762394928
 30
0.0
 11
135.1087318398214
 21
69.36290828645376
 31
0.0
  0
LINE
  5
4E4
  8
0
  6
CONTINUOUS
 62
     5
 10
130.0243361563379
 20
70.67790795174925
 30
0.0
 11
129.5137055372114
 21
70.26440758733598
 31
0.0
  0
LINE
  5
4E5
  8
0
  6
CONTINUOUS
 62
     5
 10
130.0243375126944
 20
70.67790982930715
 30
0.0
 11
129.6108442719538
 21
71.18853147637616
 31
0.0
  0
LINE
  5
4E6
  8
0
  6
CONTINUOUS
 62
     5
 10
135.1087318398214
 20
69.36290828645376
 30
0.0
 11
132.6112322238246
 21
73.6887068359177
 31
0.0
  0
LINE
  5
4E7
  8
0
  6
CONTINUOUS
 62
     5
 10
123.9596355081996
 20
68.69370121797552
 30
0.0
 11
132.6112350848463
 21
73.68870188048
 31
0.0
  0
LINE
  5
4E8
  8
0
  6
CONTINUOUS
 62
     5
 10
126.4571341705225
 20
64.36790432032414
 30
0.0
 11
122.7108853425735
 21
70.8566011121372
 31
0.0
  0
LINE
  5
4E9
  8
0
  6
CONTINUOUS
 62
     5
 10
122.7108853425735
 20
70.8566011121372
 30
0.0
 11
124.0086285826956
 21
71.60585311886071
 31
0.0
  0
LINE
  5
4EA
  8
0
  6
CONTINUOUS
 62
     5
 10
124.3832564934052
 20
70.9569781951745
 30
0.0
 11
124.0086343047391
 21
71.6058432079853
 31
0.0
  0
LINE
  5
4EB
  8
0
  6
CONTINUOUS
 62
     5
 10
124.3832536323835
 20
70.9569831506122
 30
0.0
 11
125.2484069827979
 21
71.45647940216698
 31
0.0
  0
LINE
  5
4EC
  8
0
  6
CONTINUOUS
 62
     5
 10
125.6230320324857
 20
70.80760943391847
 30
0.0
 11
125.2484069827979
 21
71.45647940216698
 31
0.0
  0
LINE
  5
4ED
  8
0
  6
CONTINUOUS
 62
     5
 10
125.6230490616819
 20
70.80761045605955
 30
0.0
 11
126.4882024120963
 21
71.30710670761432
 31
0.0
  0
LINE
  5
4EE
  8
0
  6
CONTINUOUS
 62
     5
 10
126.9876844954766
 20
70.44194737962114
 30
0.0
 11
126.4881853829001
 21
71.30710568547325
 31
0.0
  0
LINE
  5
4EF
  8
0
  6
CONTINUOUS
 62
     5
 10
127.070254963569
 20
72.29702534001318
 30
0.0
 11
127.2530861535371
 21
72.97936078160147
 31
0.0
  0
LINE
  5
4F0
  8
0
  6
CONTINUOUS
 62
     5
 10
125.5460195893572
 20
71.99379478867418
 30
0.0
 11
127.2530423402329
 21
72.97934430422852
 31
0.0
  0
LINE
  5
4F1
  8
0
  6
CONTINUOUS
 62
     5
 10
127.2530454814369
 20
72.97937644166687
 30
0.0
 11
126.5707247787069
 21
73.16220378763102
 31
0.0
  0
ARC
  5
4F2
  8
0
  6
CONTINUOUS
 62
     5
 10
129.5718517796096
 20
68.98921525429306
 30
0.0
 40
1.74825131893158
 50
75.00008746442947
 51
369.9999260571884
  0
TEXT
  5
4F3
  8
0
 62
     5
 10
79.83236651578508
 20
-4.099236131204989
 30
0.0
 40
4.0
  1
NIKKO
 41
0.635880611816576
  7
FDASTYLE1
 72
     5
 11
92.5499787521166
 21
-4.099236131204989
 31
0.0
  0
TEXT
  5
4F4
  8
0
 62
     5
 10
111.1894943014678
 20
-3.599236131204989
 30
0.0
 40
3.0
  1
   HF3-4
 41
0.4591838218728223
  7
FDASTYLE1
 72
     5
 11
122.2099060264155
 21
-3.599236131204989
 31
0.0
  0
TEXT
  5
4F5
  8
0
 62
     5
 10
113.3680659429129
 20
-8.349236131204989
 30
0.0
 40
2.5
  1
   0001
 41
0.3564180551627487
  7
FDASTYLE1
 72
     5
 11
119.605381908261
 21
-8.349236131204989
 31
0.0
  0
TEXT
  5
4F6
  8
0
 62
     5
 10
93.46930611525266
 20
71.28090550276019
 30
0.0
 40
2.0
  1
F MAX              4KN
 50
-120.0
 41
0.7800631640678304
  7
FDASTYLE1
 72
     5
 11
76.30791650576038
 21
41.55650677063498
 31
0.0
  0
TEXT
  5
4F7
  8
0
 62
     5
 10
90.43822396193235
 20
73.03089787336566
 30
0.0
 40
2.0
  1
ΣS MAX            13KN
 50
-120.0
 41
0.6443634181141412
  7
FDASTYLE1
 72
     5
 11
76.1333560797984
 21
48.25413990594949
 31
0.0
  0
TEXT
  5
4F8
  8
0
 62
     5
 10
87.40713417921751
 20
74.78090550276019
 30
0.0
 40
2.0
  1
N MAX            7000
 50
-120.0
 41
0.780791146364903
  7
FDASTYLE1
 72
     5
 11
71.01052010555453
 21
46.38113685507705
 31
0.0
  0
TEXT
  5
4F9
  8
0
 62
     5
 10
84.37604439650268
 20
76.53090550276019
 30
0.0
 40
2.0
  1
                AT ΣS MAX
 50
-120.0
 41
0.6441225923108557
  7
FDASTYLE1
 72
     5
 11
68.14415507026909
 21
48.41644848688872
 31
0.0
  0
TEXT
  5
4FA
  8
0
 62
     5
 10
131.5604475082438
 20
63.84973335114978
 30
0.0
 40
2.5
  1
F
 50
120.0
 41
0.5442179498218349
  7
FDASTYLE1
 72
     5
 11
130.8801750709665
 21
65.02799977550276
 31
0.0
  0
TEXT
  5
4FB
  8
0
 62
     5
 10
133.2749128879587
 20
70.89563506773931
 30
0.0
 40
2.5
  1
N min
 50
120.0
 41
0.6995393319099867
  7
FDASTYLE1
 72
     5
 11
128.9027920635213
 21
78.46837047249484
 31
0.0
  0
TEXT
  5
4FC
  8
0
 62
     5
 10
125.265637169283
 20
81.21041501654246
 30
0.0
 40
1.25
  1
-1
 50
120.0
 41
0.6149070012128703
  7
FDASTYLE1
 72
     5
 11
124.4970034177669
 21
82.54172772658059
 31
0.0
  0
TEXT
  5
4FD
  8
0
 62
     5
 10
127.1283643783609
 20
73.79398155061267
 30
0.0
 40
2.5
  1
ΣS
 50
120.0
 41
0.7846700504791635
  7
FDASTYLE1
 72
     5
 11
124.9705217395432
 21
77.53147463578343
 31
0.0
  0
INSERT
  5
4FE
  8
LAYER0001
  6
CONTINUOUS
  2
DC_GROUP_63
 10
0.0
 20
0.0
 30
0.0
  0
INSERT
  5
4FF
  8
LAYER0001
  6
CONTINUOUS
  2
DC_GROUP_64
 10
0.0
 20
0.0
 30
0.0
  0
TEXT
  5
500
  8
LAYER0001
 62
     7
 10
56.95267348045752
 20
-0.512448836796203
 30
0.0
 40
4.0
  1
10H8
 50
-59.99999999999999
 41
0.695238095238096
  7
FDASTYLE1
 72
     5
 11
62.51457824236229
 21
-10.14595047127454
 31
0.0
  0
INSERT
  5
501
  8
0
  6
CONTINUOUS
  2
DC_GROUP_65
 10
0.0
 20
0.0
 30
0.0
  0
INSERT
  5
502
  8
0
  6
CONTINUOUS
  2
DC_GROUP_72
 10
0.0
 20
0.0
 30
0.0
  0
INSERT
  5
503
  8
0
  6
CONTINUOUS
  2
DC_GROUP_75
 10
0.0
 20
0.0
 30
0.0
  0
INSERT
  5
504
  8
0
  6
ACAD_ISO06W100
  2
DC_GROUP_78
 10
0.0
 20
0.0
 30
0.0
  0
INSERT
  5
505
  8
0
  6
CONTINUOUS
  2
DC_GROUP_81
 10
0.0
 20
0.0
 30
0.0
  0
INSERT
  5
506
  8
0
  6
CONTINUOUS
  2
DC_GROUP_82
 10
0.0
 20
0.0
 30
0.0
  0
INSERT
  5
507
  8
0
  6
CONTINUOUS
  2
DC_GROUP_84
 10
0.0
 20
0.0
 30
0.0
  0
INSERT
  5
508
  8
0
  6
DASHDOT2
  2
DC_GROUP_87
 10
0.0
 20
0.0
 30
0.0
  0
INSERT
  5
509
  8
0
  6
CONTINUOUS
  2
DC_GROUP_90
 10
0.0
 20
0.0
 30
0.0
  0
INSERT
  5
50A
  8
0
  6
CONTINUOUS
  2
DC_GROUP_93
 10
0.0
 20
0.0
 30
0.0
  0
VIEWPORT
  5
48
 67
     1
  8
0
 10
0.0
 20
0.0
 30
0.0
 40
1152.0
 41
830.9999999999993
 68
     1
 69
     1
1001
ACAD
1000
MVIEW
1002
{
1070
    16
1010
0.0
1020
0.0
1030
0.0
1020
0.0
1030
0.0
1010
0.0
1020
0.0
1030
1.0
1020
0.0
1030
1.0
1040
0.0
1040
830.9999999999993
1040
0.0
1040
0.0
1040
50.0
1040
0.0
1040
0.0
1070
     0
1070
   100
1070
     0
1070
     1
1070
     0
1070
     0
1070
     0
1070
     0
1040
0.0
1040
0.0
1040
0.0
1040
0.5
1040
0.5
1040
0.0
1040
0.0
1070
     0
1002
{
1002
}
1002
}
  0
ENDSEC
  0
EOF
