  0
SECTION
  2
HEADER
  9
$ACADVER
  1
AC1009
  9
$DWGCODEPAGE
  3
ansi_932
  9
$INSBASE
 10
0.0
 20
0.0
 30
0.0
  9
$EXTMIN
 10
-576.0
 20
-415.4999999999997
 30
0.0
  9
$EXTMAX
 10
576.0
 20
415.4999999999997
 30
0.0
  9
$LIMMIN
 10
-210.25
 20
-148.5
  9
$LIMMAX
 10
210.25
 20
148.5
  9
$ORTHOMODE
 70
     0
  9
$REGENMODE
 70
     1
  9
$FILLMODE
 70
     1
  9
$QTEXTMODE
 70
     0
  9
$MIRRTEXT
 70
     1
  9
$DRAGMODE
 70
     2
  9
$LTSCALE
 40
0.5
  9
$OSMODE
 70
    37
  9
$ATTMODE
 70
     1
  9
$TEXTSIZE
 40
0.2
  9
$TRACEWID
 40
0.05
  9
$TEXTSTYLE
  7
STANDARD
  9
$CLAYER
  8
0
  9
$CELTYPE
  6
BYLAYER
  9
$CECOLOR
 62
   256
  9
$DIMSCALE
 40
1.0
  9
$DIMASZ
 40
1.25
  9
$DIMEXO
 40
0.0625
  9
$DIMDLI
 40
0.38
  9
$DIMRND
 40
0.0
  9
$DIMDLE
 40
0.0
  9
$DIMEXE
 40
0.18
  9
$DIMTP
 40
0.0
  9
$DIMTM
 40
0.0
  9
$DIMTXT
 40
0.18
  9
$DIMCEN
 40
0.09
  9
$DIMTSZ
 40
0.0
  9
$DIMTOL
 70
     0
  9
$DIMLIM
 70
     0
  9
$DIMTIH
 70
     1
  9
$DIMTOH
 70
     1
  9
$DIMSE1
 70
     0
  9
$DIMSE2
 70
     0
  9
$DIMTAD
 70
     3
  9
$DIMZIN
 70
     0
  9
$DIMBLK
  1

  9
$DIMASO
 70
     1
  9
$DIMSHO
 70
     1
  9
$DIMPOST
  1

  9
$DIMAPOST
  1

  9
$DIMALT
 70
     0
  9
$DIMALTD
 70
     2
  9
$DIMALTF
 40
25.4
  9
$DIMLFAC
 40
1.0
  9
$DIMTOFL
 70
     0
  9
$DIMTVP
 40
0.0
  9
$DIMTIX
 70
     0
  9
$DIMSOXD
 70
     0
  9
$DIMSAH
 70
     0
  9
$DIMBLK1
  1

  9
$DIMBLK2
  1

  9
$DIMSTYLE
  2
STANDARD
  9
$DIMCLRD
 70
     0
  9
$DIMCLRE
 70
     0
  9
$DIMCLRT
 70
     0
  9
$DIMTFAC
 40
1.0
  9
$DIMGAP
 40
0.09
  9
$LUNITS
 70
     2
  9
$LUPREC
 70
     4
  9
$SKETCHINC
 40
0.1
  9
$FILLETRAD
 40
0.5
  9
$AUNITS
 70
     0
  9
$AUPREC
 70
     0
  9
$MENU
  1
.
  9
$ELEVATION
 40
0.0
  9
$PELEVATION
 40
0.0
  9
$THICKNESS
 40
0.0
  9
$LIMCHECK
 70
     0
  9
$CHAMFERA
 40
0.5
  9
$CHAMFERB
 40
0.5
  9
$SKPOLY
 70
     0
  9
$TDCREATE
 40
2455483.567702431
  9
$TDUPDATE
 40
2455483.567702442
  9
$TDINDWG
 40
0.0000000116
  9
$TDUSRTIMER
 40
0.0000000116
  9
$USRTIMER
 70
     1
  9
$ANGBASE
 50
0.0
  9
$ANGDIR
 70
     0
  9
$PDMODE
 70
     0
  9
$PDSIZE
 40
1.0
  9
$PLINEWID
 40
0.0
  9
$COORDS
 70
     1
  9
$SPLFRAME
 70
     0
  9
$SPLINETYPE
 70
     6
  9
$SPLINESEGS
 70
     8
  9
$ATTDIA
 70
     0
  9
$ATTREQ
 70
     1
  9
$HANDLING
 70
     1
  9
$HANDSEED
  5
533
  9
$SURFTAB1
 70
     6
  9
$SURFTAB2
 70
     6
  9
$SURFTYPE
 70
     6
  9
$SURFU
 70
     6
  9
$SURFV
 70
     6
  9
$UCSNAME
  2

  9
$UCSORG
 10
0.0
 20
0.0
 30
0.0
  9
$UCSXDIR
 10
1.0
 20
0.0
 30
0.0
  9
$UCSYDIR
 10
0.0
 20
1.0
 30
0.0
  9
$PUCSNAME
  2

  9
$PUCSORG
 10
0.0
 20
0.0
 30
0.0
  9
$PUCSXDIR
 10
1.0
 20
0.0
 30
0.0
  9
$PUCSYDIR
 10
0.0
 20
1.0
 30
0.0
  9
$USERI1
 70
     0
  9
$USERI2
 70
     0
  9
$USERI3
 70
     0
  9
$USERI4
 70
     0
  9
$USERI5
 70
     0
  9
$USERR1
 40
0.0
  9
$USERR2
 40
0.0
  9
$USERR3
 40
0.0
  9
$USERR4
 40
0.0
  9
$USERR5
 40
0.0
  9
$WORLDVIEW
 70
     1
  9
$SHADEDGE
 70
     3
  9
$SHADEDIF
 70
    70
  9
$TILEMODE
 70
     1
  9
$MAXACTVP
 70
    64
  9
$PLIMCHECK
 70
     0
  9
$PEXTMIN
 10
1.000000000000000E+20
 20
1.000000000000000E+20
 30
1.000000000000000E+20
  9
$PEXTMAX
 10
-1.000000000000000E+20
 20
-1.000000000000000E+20
 30
-1.000000000000000E+20
  9
$PLIMMIN
 10
0.0
 20
0.0
  9
$PLIMMAX
 10
12.0
 20
9.0
  9
$UNITMODE
 70
     0
  9
$VISRETAIN
 70
     0
  9
$PLINEGEN
 70
     1
  9
$PSLTSCALE
 70
     0
  0
ENDSEC
  0
SECTION
  2
TABLES
  0
TABLE
  2
VPORT
 70
     1
  0
VPORT
  2
*ACTIVE
 70
     0
 10
0.0
 20
0.0
 11
1.0
 21
1.0
 12
0.0
 22
0.0
 13
0.0
 23
0.0
 14
0.5
 24
0.5
 15
0.5
 25
0.5
 16
0.0
 26
0.0
 36
1.0
 17
-0.0000000000000036
 27
0.0
 37
0.0
 40
282.5399999999998
 41
1.386281588447655
 42
50.0
 43
0.0
 44
0.0
 50
0.0
 51
0.0
 71
     0
 72
  1000
 73
     1
 74
     1
 75
     0
 76
     0
 77
     0
 78
     0
  0
ENDTAB
  0
TABLE
  2
LTYPE
 70
    28
  0
LTYPE
  2
CONTINUOUS
 70
     0
  3
Solid line
 72
    65
 73
     0
 40
0.0
  0
LTYPE
  2
HIDDENX2
 70
     0
  3
CADPAC LINETYPE
 72
    65
 73
     2
 40
13.12707182320446
 49
9.845303867403345
 49
-3.281767955801115
  0
LTYPE
  2
HIDDEN
 70
     0
  3
CADPAC LINETYPE
 72
    65
 73
     2
 40
9.845303867403345
 49
6.56353591160223
 49
-3.281767955801115
  0
LTYPE
  2
HIDDEN2
 70
     0
  3
CADPAC LINETYPE
 72
    65
 73
     2
 40
8.204419889502788
 49
4.922651933701673
 49
-3.281767955801115
  0
LTYPE
  2
DASHED
 70
     0
  3
CADPAC LINETYPE
 72
    65
 73
     2
 40
9.188950276243133
 49
6.56353591160223
 49
-2.625414364640903
  0
LTYPE
  2
DASHED2
 70
     0
  3
CADPAC LINETYPE
 72
    65
 73
     2
 40
5.907182320442018
 49
3.938121546961327
 49
-1.969060773480692
  0
LTYPE
  2
DASHEDX2
 70
     0
  3
CADPAC LINETYPE
 72
    65
 73
     2
 40
15.75248618784542
 49
13.12707182320452
 49
-2.625414364640903
  0
LTYPE
  2
DOTX2
 70
     0
  3
CADPAC LINETYPE
 72
    65
 73
     2
 40
5.743093922651923
 49
0.0
 49
-5.743093922651923
  0
LTYPE
  2
DOT
 70
     0
  3
CADPAC LINETYPE
 72
    65
 73
     2
 40
4.594475138121538
 49
0.0
 49
-4.594475138121538
  0
LTYPE
  2
DOT2
 70
     0
  3
CADPAC LINETYPE
 72
    65
 73
     2
 40
3.445856353591154
 49
0.0
 49
-3.445856353591154
  0
LTYPE
  2
CENTERX2
 70
     0
  3
CADPAC LINETYPE
 72
    65
 73
     4
 40
19.69060773480669
 49
8.204419889502788
 49
-4.102209944751394
 49
3.281767955801115
 49
-4.102209944751394
  0
LTYPE
  2
CENTER
 70
     0
  3
CADPAC LINETYPE
 72
    65
 73
     4
 40
15.09613259668513
 49
6.56353591160223
 49
-3.281767955801115
 49
1.969060773480669
 49
-3.281767955801115
  0
LTYPE
  2
CENTER2
 70
     0
  3
CADPAC LINETYPE
 72
    65
 73
     4
 40
10.50165745856357
 49
4.922651933701673
 49
-2.461325966850836
 49
0.6563535911602231
 49
-2.461325966850836
  0
LTYPE
  2
DASHDOTX2
 70
     0
  3
CADPAC LINETYPE
 72
    65
 73
     4
 40
31.50497237569073
 49
15.75248618784531
 49
-5.250828729281807
 49
5.250828729281807
 49
-5.250828729281807
  0
LTYPE
  2
DASHDOT
 70
     0
  3
CADPAC LINETYPE
 72
    65
 73
     4
 40
15.75248618784536
 49
7.876243093922653
 49
-2.625414364640903
 49
2.625414364640903
 49
-2.625414364640903
  0
LTYPE
  2
DASHDOT2
 70
     0
  3
CADPAC LINETYPE
 72
    65
 73
     4
 40
10.10784530386744
 49
5.90718232044199
 49
-1.969060773480678
 49
0.2625414364640903
 49
-1.969060773480678
  0
LTYPE
  2
DIVIDEX2
 70
     0
  3
CADPAC LINETYPE
 72
    65
 73
     6
 40
42.00662983425434
 49
15.75248618784531
 49
-5.250828729281807
 49
5.250828729281807
 49
-5.250828729281807
 49
5.250828729281807
 49
-5.250828729281807
  0
LTYPE
  2
DIVIDE
 70
     0
  3
CADPAC LINETYPE
 72
    65
 73
     6
 40
21.00331491712717
 49
7.876243093922653
 49
-2.625414364640903
 49
2.625414364640903
 49
-2.625414364640903
 49
2.625414364640903
 49
-2.625414364640903
  0
LTYPE
  2
DIVIDE2
 70
     0
  3
CADPAC LINETYPE
 72
    65
 73
     6
 40
15.75248618784538
 49
5.90718232044199
 49
-1.969060773480678
 49
1.969060773480678
 49
-1.969060773480678
 49
1.969060773480678
 49
-1.969060773480678
  0
LTYPE
  2
BORDERX2
 70
     0
  3
CADPAC LINETYPE
 72
    65
 73
     6
 40
28.71546961325976
 49
8.204419889502788
 49
-4.102209944751394
 49
8.204419889502788
 49
-4.102209944751394
 49
0.0
 49
-4.102209944751394
  0
LTYPE
  2
BORDER
 70
     0
  3
CADPAC LINETYPE
 72
    65
 73
     6
 40
22.97237569060781
 49
6.56353591160223
 49
-3.281767955801115
 49
6.56353591160223
 49
-3.281767955801115
 49
0.0
 49
-3.281767955801115
  0
LTYPE
  2
BORDER2
 70
     0
  3
CADPAC LINETYPE
 72
    65
 73
     6
 40
17.06519337016584
 49
5.250828729281807
 49
-3.281767955801115
 49
1.969060773480692
 49
-3.281767955801115
 49
0.0
 49
-3.281767955801115
  0
LTYPE
  2
PHANTOMX2
 70
     0
  3
CADPAC LINETYPE
 72
    65
 73
     6
 40
24.61325966850836
 49
8.204419889502788
 49
-3.281767955801115
 49
3.281767955801115
 49
-3.281767955801115
 49
3.281767955801115
 49
-3.281767955801115
  0
LTYPE
  2
PHANTOM
 70
     0
  3
CADPAC LINETYPE
 72
    65
 73
     6
 40
20.34696132596691
 49
6.56353591160223
 49
-3.281767955801115
 49
1.969060773480669
 49
-3.281767955801115
 49
1.969060773480669
 49
-3.281767955801115
  0
LTYPE
  2
PHANTOM2
 70
     0
  3
CADPAC LINETYPE
 72
    65
 73
     6
 40
17.39337016574591
 49
4.922651933701673
 49
-3.281767955801115
 49
1.312707182320446
 49
-3.281767955801115
 49
1.312707182320446
 49
-3.281767955801115
  0
LTYPE
  2
ACAD_ISO06W100
 70
     0
  3
CADPAC LINETYPE
 72
    65
 73
     8
 40
34.78674033149184
 49
15.75248618784531
 49
-3.281767955801115
 49
1.969060773480692
 49
-3.281767955801115
 49
1.969060773480692
 49
-3.281767955801115
 49
1.969060773480692
 49
-3.281767955801115
  0
LTYPE
  2
ACAD_ISO13W100
 70
     0
  3
CADPAC LINETYPE
 72
    65
 73
     8
 40
26.25414364640892
 49
6.56353591160223
 49
-3.281767955801115
 49
6.56353591160223
 49
-3.281767955801115
 49
0.0
 49
-3.281767955801115
 49
0.0
 49
-3.281767955801115
  0
LTYPE
  2
ACAD_ISO14W100
 70
     0
  3
CADPAC LINETYPE
 72
    65
 73
     8
 40
19.69060773480669
 49
6.56353591160223
 49
-3.281767955801115
 49
0.0
 49
-3.281767955801115
 49
0.0
 49
-3.281767955801115
 49
0.0
 49
-3.281767955801115
  0
ENDTAB
  0
TABLE
  2
LAYER
 70
     3
  0
LAYER
  2
0
 70
     0
 62
     7
  6
CONTINUOUS
  0
LAYER
  2
LAYER0001
 70
     0
 62
     7
  6
CONTINUOUS
  0
LAYER
  2
LAYER0002
 70
     0
 62
     7
  6
CONTINUOUS
  0
ENDTAB
  0
TABLE
  2
STYLE
 70
     5
  0
STYLE
  2
STANDARD
 70
     0
 40
0.0
 41
1.0
 50
0.0
 71
     0
 42
0.2
  3
txt
  4

  0
STYLE
  2
FDASTYLE1
 70
     0
 40
0.0
 41
0.6213017751479288
 50
0.0
 71
     0
 42
0.2
  3
txt.shx
  4
bigfont
  0
STYLE
  2
FDASTYLE0
 70
     4
 40
0.0
 41
0.8
 50
0.0
 71
     0
 42
0.2
  3
txt.shx
  4
bigfont
  0
STYLE
  2
FDASTYLE2
 70
     0
 40
0.0
 41
0.8123476848090984
 50
0.0
 71
     0
 42
0.2
  3
MSMINCHO.TTC
  4

  0
STYLE
  2
FDASTYLE3
 70
     0
 40
0.0
 41
0.6735119538334705
 50
0.0
 71
     0
 42
0.2
  3
MSGOTHIC.TTC
  4

  0
ENDTAB
  0
TABLE
  2
VIEW
 70
     0
  0
ENDTAB
  0
TABLE
  2
UCS
 70
     0
  0
ENDTAB
  0
TABLE
  2
APPID
 70
     2
  0
APPID
  2
ACAD
 70
     0
  0
APPID
  2
DAFUSIONOUT
 70
     0
  0
ENDTAB
  0
TABLE
  2
DIMSTYLE
 70
     1
  0
DIMSTYLE
  2
STANDARD
 70
     0
  3

  4

  5

  6

  7

 40
1.0
 41
0.18
 42
0.0625
 43
0.38
 44
0.18
 45
0.0
 46
0.0
 47
0.0
 48
0.0
140
0.18
141
0.09
142
0.0
143
25.4
144
1.0
145
0.0
146
1.0
147
0.09
 71
     0
 72
     0
 73
     1
 74
     1
 75
     0
 76
     0
 77
     0
 78
     0
170
     0
171
     2
172
     0
173
     0
174
     0
175
     0
176
     0
177
     0
178
     0
  0
ENDTAB
  0
ENDSEC
  0
SECTION
  2
BLOCKS
  0
BLOCK
  8
0
  2
$MODEL_SPACE
 70
     0
 10
0.0
 20
0.0
 30
0.0
  3
$MODEL_SPACE
  1

  0
ENDBLK
  5
21
  8
0
  0
BLOCK
 67
     1
  8
0
  2
$PAPER_SPACE
 70
     0
 10
0.0
 20
0.0
 30
0.0
  3
$PAPER_SPACE
  1

  0
ENDBLK
  5
1D
 67
     1
  8
0
  0
BLOCK
  8
0
  2
DC_GROUP_1
 70
     0
 10
0.0
 20
0.0
 30
0.0
  3
DC_GROUP_1
  1

  0
LINE
  5
16C
  8
LAYER0001
  6
CONTINUOUS
 62
     7
 10
-105.4796141440598
 20
48.84698432056098
 30
0.0
 11
-134.7081993491379
 21
48.84698432056098
 31
0.0
  0
LINE
  5
16D
  8
LAYER0001
  6
CONTINUOUS
 62
     7
 10
-105.4796141440598
 20
23.54699652759223
 30
0.0
 11
-134.7081993491379
 21
23.54699652759223
 31
0.0
  0
LINE
  5
16E
  8
LAYER0001
  6
CONTINUOUS
 62
     7
 10
-133.7081993491379
 20
48.84699957935004
 30
0.0
 11
-133.7081993491379
 21
23.54700034228949
 31
0.0
  0
INSERT
  5
16F
  8
LAYER0001
  6
CONTINUOUS
  2
DC_GROUP_2
 10
0.0
 20
0.0
 30
0.0
  0
INSERT
  5
170
  8
LAYER0001
  6
CONTINUOUS
  2
DC_GROUP_3
 10
0.0
 20
0.0
 30
0.0
  0
TEXT
  5
172
  8
LAYER0001
 62
     7
 10
-135.3081993491379
 20
25.39699798194556
 30
0.0
 40
4.0
  1
φ25.3
 50
90.0
 41
0.6213017751479288
  7
FDASTYLE1
 72
     5
 11
-135.3081993491379
 21
38.32007490502248
 31
0.0
  0
TEXT
  5
173
  8
LAYER0001
 62
     7
 10
-137.508199349138
 20
42.39699798194556
 30
0.0
 40
2.2
  1
+0.3
 50
90.0
 41
0.657142857142855
  7
FDASTYLE1
 72
     5
 11
-137.508199349138
 21
48.17985512480269
 31
0.0
  0
TEXT
  5
174
  8
LAYER0001
 62
     7
 10
-135.108199349138
 20
42.39699798194556
 30
0.0
 40
2.2
  1
　0
 50
90.0
 41
0.5950413223140487
  7
FDASTYLE1
 72
     5
 11
-135.108199349138
 21
45.27699798194556
 31
0.0
  0
ENDBLK
  5
4E
  8
0
  0
BLOCK
  8
0
  2
DC_GROUP_2
 70
     0
 10
0.0
 20
0.0
 30
0.0
  3
DC_GROUP_2
  1

  0
LINE
  5
175
  8
LAYER0001
  6
CONTINUOUS
 62
     7
 10
-134.2440988840355
 20
46.84700117171938
 30
0.0
 11
-133.7081993491379
 21
48.84699957935004
 31
0.0
  0
LINE
  5
176
  8
LAYER0001
  6
CONTINUOUS
 62
     7
 10
-133.7081993491379
 20
48.84699957935004
 30
0.0
 11
-133.1722998142403
 21
46.84700117171938
 31
0.0
  0
LINE
  5
177
  8
LAYER0001
  6
CONTINUOUS
 62
     7
 10
-133.7081993491379
 20
48.84699957935004
 30
0.0
 11
-133.7081993491379
 21
46.84700117171938
 31
0.0
  0
ENDBLK
  5
51
  8
0
  0
BLOCK
  8
0
  2
DC_GROUP_3
 70
     0
 10
0.0
 20
0.0
 30
0.0
  3
DC_GROUP_3
  1

  0
LINE
  5
178
  8
LAYER0001
  6
CONTINUOUS
 62
     7
 10
-133.1722998142403
 20
25.54699874992015
 30
0.0
 11
-133.7081993491379
 21
23.54700034228949
 31
0.0
  0
LINE
  5
179
  8
LAYER0001
  6
CONTINUOUS
 62
     7
 10
-133.7081993491379
 20
23.54700034228949
 30
0.0
 11
-134.2440988840355
 21
25.54699874992015
 31
0.0
  0
LINE
  5
17A
  8
LAYER0001
  6
CONTINUOUS
 62
     7
 10
-133.7081993491379
 20
23.54700034228949
 30
0.0
 11
-133.7081993491379
 21
25.54699874992015
 31
0.0
  0
ENDBLK
  5
54
  8
0
  0
BLOCK
  8
0
  2
DC_GROUP_4
 70
     0
 10
0.0
 20
0.0
 30
0.0
  3
DC_GROUP_4
  1

  0
LINE
  5
17B
  8
LAYER0001
  6
CONTINUOUS
 62
     7
 10
-85.47962177345434
 20
54.1969904240766
 30
0.0
 11
-144.7081993491379
 21
54.1969904240766
 31
0.0
  0
LINE
  5
17C
  8
LAYER0001
  6
CONTINUOUS
 62
     7
 10
-85.47962177345434
 20
18.19700568286567
 30
0.0
 11
-144.7081993491379
 21
18.19700568286567
 31
0.0
  0
LINE
  5
17D
  8
LAYER0001
  6
CONTINUOUS
 62
     7
 10
-143.7081993491379
 20
54.1970018681684
 30
0.0
 11
-143.7081993491379
 21
18.1970018681684
 31
0.0
  0
INSERT
  5
17E
  8
LAYER0001
  6
CONTINUOUS
  2
DC_GROUP_5
 10
0.0
 20
0.0
 30
0.0
  0
INSERT
  5
17F
  8
LAYER0001
  6
CONTINUOUS
  2
DC_GROUP_6
 10
0.0
 20
0.0
 30
0.0
  0
TEXT
  5
180
  8
LAYER0001
 62
     7
 10
-144.7081993491379
 20
28.1970018681684
 30
0.0
 40
4.0
  1
φ36Ｈ7
 50
90.0
 41
0.6035665294924554
  7
FDASTYLE1
 72
     5
 11
-144.7081993491379
 21
41.23403890520544
 31
0.0
  0
ENDBLK
  5
57
  8
0
  0
BLOCK
  8
0
  2
DC_GROUP_5
 70
     0
 10
0.0
 20
0.0
 30
0.0
  3
DC_GROUP_5
  1

  0
LINE
  5
181
  8
LAYER0001
  6
CONTINUOUS
 62
     7
 10
-144.2440988840355
 20
52.19700346053774
 30
0.0
 11
-143.7081993491379
 21
54.1970018681684
 31
0.0
  0
LINE
  5
182
  8
LAYER0001
  6
CONTINUOUS
 62
     7
 10
-143.7081993491379
 20
54.1970018681684
 30
0.0
 11
-143.1722998142403
 21
52.19700346053774
 31
0.0
  0
LINE
  5
183
  8
LAYER0001
  6
CONTINUOUS
 62
     7
 10
-143.7081993491379
 20
54.1970018681684
 30
0.0
 11
-143.7081993491379
 21
52.19700346053774
 31
0.0
  0
ENDBLK
  5
5A
  8
0
  0
BLOCK
  8
0
  2
DC_GROUP_6
 70
     0
 10
0.0
 20
0.0
 30
0.0
  3
DC_GROUP_6
  1

  0
LINE
  5
184
  8
LAYER0001
  6
CONTINUOUS
 62
     7
 10
-143.1722998142403
 20
20.19700027579906
 30
0.0
 11
-143.7081993491379
 21
18.1970018681684
 31
0.0
  0
LINE
  5
185
  8
LAYER0001
  6
CONTINUOUS
 62
     7
 10
-143.7081993491379
 20
18.1970018681684
 30
0.0
 11
-144.2440988840355
 21
20.19700027579906
 31
0.0
  0
LINE
  5
186
  8
LAYER0001
  6
CONTINUOUS
 62
     7
 10
-143.7081993491379
 20
18.1970018681684
 30
0.0
 11
-143.7081993491379
 21
20.19700027579906
 31
0.0
  0
ENDBLK
  5
5D
  8
0
  0
BLOCK
  8
0
  2
DC_GROUP_7
 70
     0
 10
0.0
 20
0.0
 30
0.0
  3
DC_GROUP_7
  1

  0
LINE
  5
187
  8
LAYER0001
  6
CONTINUOUS
 62
     7
 10
-115.3437651450364
 20
13.19700568286567
 30
0.0
 11
-154.7081993491379
 21
13.19700568286567
 31
0.0
  0
LINE
  5
188
  8
LAYER0001
  6
CONTINUOUS
 62
     7
 10
-115.3437651450364
 20
59.19702094165473
 30
0.0
 11
-154.7081993491379
 21
59.19702094165473
 31
0.0
  0
LINE
  5
189
  8
LAYER0001
  6
CONTINUOUS
 62
     7
 10
-153.7081993491379
 20
13.19700091449408
 30
0.0
 11
-153.7081993491379
 21
59.1970018681684
 31
0.0
  0
INSERT
  5
18A
  8
LAYER0001
  6
CONTINUOUS
  2
DC_GROUP_8
 10
0.0
 20
0.0
 30
0.0
  0
INSERT
  5
18B
  8
LAYER0001
  6
CONTINUOUS
  2
DC_GROUP_9
 10
0.0
 20
0.0
 30
0.0
  0
TEXT
  5
18C
  8
LAYER0001
 62
     7
 10
-154.7081993491379
 20
28.19700139133124
 30
0.0
 40
4.0
  1
φ46H7
 50
90.0
 41
0.6213017751479295
  7
FDASTYLE1
 72
     5
 11
-154.7081993491379
 21
41.12007831440818
 31
0.0
  0
ENDBLK
  5
60
  8
0
  0
BLOCK
  8
0
  2
DC_GROUP_8
 70
     0
 10
0.0
 20
0.0
 30
0.0
  3
DC_GROUP_8
  1

  0
LINE
  5
18D
  8
LAYER0001
  6
CONTINUOUS
 62
     7
 10
-153.1722998142403
 20
15.19699932212474
 30
0.0
 11
-153.7081993491379
 21
13.19700091449408
 31
0.0
  0
LINE
  5
18E
  8
LAYER0001
  6
CONTINUOUS
 62
     7
 10
-153.7081993491379
 20
13.19700091449408
 30
0.0
 11
-154.2440988840355
 21
15.19699932212474
 31
0.0
  0
LINE
  5
18F
  8
LAYER0001
  6
CONTINUOUS
 62
     7
 10
-153.7081993491379
 20
13.19700091449408
 30
0.0
 11
-153.7081993491379
 21
15.19699932212474
 31
0.0
  0
ENDBLK
  5
63
  8
0
  0
BLOCK
  8
0
  2
DC_GROUP_9
 70
     0
 10
0.0
 20
0.0
 30
0.0
  3
DC_GROUP_9
  1

  0
LINE
  5
190
  8
LAYER0001
  6
CONTINUOUS
 62
     7
 10
-154.2440988840355
 20
57.19700346053774
 30
0.0
 11
-153.7081993491379
 21
59.1970018681684
 31
0.0
  0
LINE
  5
191
  8
LAYER0001
  6
CONTINUOUS
 62
     7
 10
-153.7081993491379
 20
59.1970018681684
 30
0.0
 11
-153.1722998142403
 21
57.19700346053774
 31
0.0
  0
LINE
  5
192
  8
LAYER0001
  6
CONTINUOUS
 62
     7
 10
-153.7081993491379
 20
59.1970018681684
 30
0.0
 11
-153.7081993491379
 21
57.19700346053774
 31
0.0
  0
ENDBLK
  5
66
  8
0
  0
BLOCK
  8
0
  2
DC_GROUP_10
 70
     0
 10
0.0
 20
0.0
 30
0.0
  3
DC_GROUP_10
  1

  0
LINE
  5
193
  8
LAYER0001
  6
CONTINUOUS
 62
     7
 10
-116.3437651450364
 20
91.1969904240766
 30
0.0
 11
-164.7081993491379
 21
91.1969904240766
 31
0.0
  0
LINE
  5
194
  8
LAYER0001
  6
CONTINUOUS
 62
     7
 10
-116.3437651450364
 20
-18.80299431713434
 30
0.0
 11
-164.7081993491379
 21
-18.80299431713434
 31
0.0
  0
LINE
  5
195
  8
LAYER0001
  6
CONTINUOUS
 62
     7
 10
-163.7081993491379
 20
91.19699805347113
 30
0.0
 11
-163.7081993491379
 21
-18.8029981318316
 31
0.0
  0
INSERT
  5
196
  8
LAYER0001
  6
CONTINUOUS
  2
DC_GROUP_11
 10
0.0
 20
0.0
 30
0.0
  0
INSERT
  5
197
  8
LAYER0001
  6
CONTINUOUS
  2
DC_GROUP_12
 10
0.0
 20
0.0
 30
0.0
  0
TEXT
  5
198
  8
LAYER0001
 62
     7
 10
-164.7081993491379
 20
26.59699996081977
 30
0.0
 40
4.0
  1
φ110H7
 50
90.0
 41
0.6243496357960454
  7
FDASTYLE1
 72
     5
 11
-164.7081993491379
 21
42.08087092856169
 31
0.0
  0
ENDBLK
  5
69
  8
0
  0
BLOCK
  8
0
  2
DC_GROUP_11
 70
     0
 10
0.0
 20
0.0
 30
0.0
  3
DC_GROUP_11
  1

  0
LINE
  5
199
  8
LAYER0001
  6
CONTINUOUS
 62
     7
 10
-164.2440988840355
 20
89.19699964584048
 30
0.0
 11
-163.7081993491379
 21
91.19699805347113
 31
0.0
  0
LINE
  5
19A
  8
LAYER0001
  6
CONTINUOUS
 62
     7
 10
-163.7081993491379
 20
91.19699805347113
 30
0.0
 11
-163.1722998142403
 21
89.19699964584048
 31
0.0
  0
LINE
  5
19B
  8
LAYER0001
  6
CONTINUOUS
 62
     7
 10
-163.7081993491379
 20
91.19699805347113
 30
0.0
 11
-163.7081993491379
 21
89.19699964584048
 31
0.0
  0
ENDBLK
  5
6C
  8
0
  0
BLOCK
  8
0
  2
DC_GROUP_12
 70
     0
 10
0.0
 20
0.0
 30
0.0
  3
DC_GROUP_12
  1

  0
LINE
  5
19C
  8
LAYER0001
  6
CONTINUOUS
 62
     7
 10
-163.1722998142403
 20
-16.80299972420094
 30
0.0
 11
-163.7081993491379
 21
-18.8029981318316
 31
0.0
  0
LINE
  5
19D
  8
LAYER0001
  6
CONTINUOUS
 62
     7
 10
-163.7081993491379
 20
-18.8029981318316
 30
0.0
 11
-164.2440988840355
 21
-16.80299972420094
 31
0.0
  0
LINE
  5
19E
  8
LAYER0001
  6
CONTINUOUS
 62
     7
 10
-163.7081993491379
 20
-18.8029981318316
 30
0.0
 11
-163.7081993491379
 21
-16.80299972420094
 31
0.0
  0
ENDBLK
  5
6F
  8
0
  0
BLOCK
  8
0
  2
DC_GROUP_13
 70
     0
 10
0.0
 20
0.0
 30
0.0
  3
DC_GROUP_13
  1

  0
LINE
  5
19F
  8
LAYER0001
  6
CONTINUOUS
 62
     7
 10
-116.3437651450364
 20
101.1969904240766
 30
0.0
 11
-174.7081993491379
 21
101.1969904240766
 31
0.0
  0
LINE
  5
1A0
  8
LAYER0001
  6
CONTINUOUS
 62
     7
 10
-116.3437651450364
 20
-28.80299431713434
 30
0.0
 11
-174.7081993491379
 21
-28.80299431713434
 31
0.0
  0
LINE
  5
1A1
  8
LAYER0001
  6
CONTINUOUS
 62
     7
 10
-173.7081993491379
 20
101.1969980534711
 30
0.0
 11
-173.7081993491379
 21
-28.8029981318316
 31
0.0
  0
INSERT
  5
1A2
  8
LAYER0001
  6
CONTINUOUS
  2
DC_GROUP_14
 10
0.0
 20
0.0
 30
0.0
  0
INSERT
  5
1A3
  8
LAYER0001
  6
CONTINUOUS
  2
DC_GROUP_15
 10
0.0
 20
0.0
 30
0.0
  0
TEXT
  5
1A4
  8
LAYER0001
 62
     7
 10
-174.7081993491379
 20
29.79699996081976
 30
0.0
 40
4.0
  1
φ130
 50
90.0
 41
0.6167800453514751
  7
FDASTYLE1
 72
     5
 11
-174.7081993491379
 21
40.15890472272454
 31
0.0
  0
ENDBLK
  5
72
  8
0
  0
BLOCK
  8
0
  2
DC_GROUP_14
 70
     0
 10
0.0
 20
0.0
 30
0.0
  3
DC_GROUP_14
  1

  0
LINE
  5
1A5
  8
LAYER0001
  6
CONTINUOUS
 62
     7
 10
-174.2440988840355
 20
99.19699964584045
 30
0.0
 11
-173.7081993491379
 21
101.1969980534711
 31
0.0
  0
LINE
  5
1A6
  8
LAYER0001
  6
CONTINUOUS
 62
     7
 10
-173.7081993491379
 20
101.1969980534711
 30
0.0
 11
-173.1722998142403
 21
99.19699964584045
 31
0.0
  0
LINE
  5
1A7
  8
LAYER0001
  6
CONTINUOUS
 62
     7
 10
-173.7081993491379
 20
101.1969980534711
 30
0.0
 11
-173.7081993491379
 21
99.19699964584045
 31
0.0
  0
ENDBLK
  5
75
  8
0
  0
BLOCK
  8
0
  2
DC_GROUP_15
 70
     0
 10
0.0
 20
0.0
 30
0.0
  3
DC_GROUP_15
  1

  0
LINE
  5
1A8
  8
LAYER0001
  6
CONTINUOUS
 62
     7
 10
-173.1722998142403
 20
-26.80299972420094
 30
0.0
 11
-173.7081993491379
 21
-28.8029981318316
 31
0.0
  0
LINE
  5
1A9
  8
LAYER0001
  6
CONTINUOUS
 62
     7
 10
-173.7081993491379
 20
-28.8029981318316
 30
0.0
 11
-174.2440988840355
 21
-26.80299972420094
 31
0.0
  0
LINE
  5
1AA
  8
LAYER0001
  6
CONTINUOUS
 62
     7
 10
-173.7081993491379
 20
-28.8029981318316
 30
0.0
 11
-173.7081993491379
 21
-26.80299972420094
 31
0.0
  0
ENDBLK
  5
78
  8
0
  0
BLOCK
  8
0
  2
DC_GROUP_16
 70
     0
 10
0.0
 20
0.0
 30
0.0
  3
DC_GROUP_16
  1

  0
LINE
  5
1AB
  8
LAYER0001
  6
CONTINUOUS
 62
     7
 10
-113.8037651450364
 20
-29.6666557547914
 30
0.0
 11
-113.8037651450364
 21
-59.8030095759234
 31
0.0
  0
LINE
  5
1AC
  8
LAYER0001
  6
CONTINUOUS
 62
     7
 10
-109.6037681967942
 20
-21.3429981318316
 30
0.0
 11
-109.6037681967942
 21
-59.8030095759234
 31
0.0
  0
LINE
  5
1AD
  8
LAYER0001
  6
CONTINUOUS
 62
     7
 10
-113.8037651450364
 20
-58.8030095759234
 30
0.0
 11
-109.6037681967942
 21
-58.8030095759234
 31
0.0
  0
LINE
  5
1AE
  8
LAYER0001
  6
CONTINUOUS
 62
     7
 10
-128.2704368979661
 20
-58.8030095759234
 30
0.0
 11
-113.8037651450364
 21
-58.8030095759234
 31
0.0
  0
LINE
  5
1AF
  8
LAYER0001
  6
CONTINUOUS
 62
     7
 10
-104.6037681967942
 20
-58.8030095759234
 30
0.0
 11
-109.6037681967942
 21
-58.8030095759234
 31
0.0
  0
INSERT
  5
1B0
  8
LAYER0001
  6
CONTINUOUS
  2
DC_GROUP_17
 10
0.0
 20
0.0
 30
0.0
  0
INSERT
  5
1B1
  8
LAYER0001
  6
CONTINUOUS
  2
DC_GROUP_18
 10
0.0
 20
0.0
 30
0.0
  0
TEXT
  5
1B2
  8
LAYER0001
 62
     7
 10
-127.2704368979661
 20
-57.8030095759234
 30
0.0
 40
4.0
  1
4.2
 41
0.558730158730158
  7
FDASTYLE1
 72
     5
 11
-120.5656749932042
 21
-57.8030095759234
 31
0.0
  0
ENDBLK
  5
7B
  8
0
  0
BLOCK
  8
0
  2
DC_GROUP_17
 70
     0
 10
0.0
 20
0.0
 30
0.0
  3
DC_GROUP_17
  1

  0
LINE
  5
1B3
  8
LAYER0001
  6
CONTINUOUS
 62
     7
 10
-115.8037635526671
 20
-58.26711004102579
 30
0.0
 11
-113.8037651450364
 21
-58.8030095759234
 31
0.0
  0
LINE
  5
1B4
  8
LAYER0001
  6
CONTINUOUS
 62
     7
 10
-113.8037651450364
 20
-58.8030095759234
 30
0.0
 11
-115.8037635526671
 21
-59.33890911082101
 31
0.0
  0
LINE
  5
1B5
  8
LAYER0001
  6
CONTINUOUS
 62
     7
 10
-113.8037651450364
 20
-58.8030095759234
 30
0.0
 11
-115.8037635526671
 21
-58.8030095759234
 31
0.0
  0
ENDBLK
  5
7E
  8
0
  0
BLOCK
  8
0
  2
DC_GROUP_18
 70
     0
 10
0.0
 20
0.0
 30
0.0
  3
DC_GROUP_18
  1

  0
LINE
  5
1B6
  8
LAYER0001
  6
CONTINUOUS
 62
     7
 10
-107.6037697891636
 20
-59.33890911082101
 30
0.0
 11
-109.6037681967942
 21
-58.8030095759234
 31
0.0
  0
LINE
  5
1B7
  8
LAYER0001
  6
CONTINUOUS
 62
     7
 10
-109.6037681967942
 20
-58.8030095759234
 30
0.0
 11
-107.6037697891636
 21
-58.26711004102579
 31
0.0
  0
LINE
  5
1B8
  8
LAYER0001
  6
CONTINUOUS
 62
     7
 10
-109.6037681967942
 20
-58.8030095759234
 30
0.0
 11
-107.6037697891636
 21
-58.8030095759234
 31
0.0
  0
ENDBLK
  5
81
  8
0
  0
BLOCK
  8
0
  2
DC_GROUP_19
 70
     0
 10
0.0
 20
0.0
 30
0.0
  3
DC_GROUP_19
  1

  0
LINE
  5
1B9
  8
LAYER0001
  6
CONTINUOUS
 62
     7
 10
-109.6037681967942
 20
-31.3429981318316
 30
0.0
 11
-109.6037681967942
 21
-59.8030095759234
 31
0.0
  0
LINE
  5
1BA
  8
LAYER0001
  6
CONTINUOUS
 62
     7
 10
-53.80376514503637
 20
-39.8429981318316
 30
0.0
 11
-53.80376514503637
 21
-59.8030095759234
 31
0.0
  0
LINE
  5
1BB
  8
LAYER0001
  6
CONTINUOUS
 62
     7
 10
-109.6037681967942
 20
-58.8030095759234
 30
0.0
 11
-53.80376514503637
 21
-58.8030095759234
 31
0.0
  0
INSERT
  5
1BC
  8
LAYER0001
  6
CONTINUOUS
  2
DC_GROUP_20
 10
0.0
 20
0.0
 30
0.0
  0
INSERT
  5
1BD
  8
LAYER0001
  6
CONTINUOUS
  2
DC_GROUP_21
 10
0.0
 20
0.0
 30
0.0
  0
TEXT
  5
1BE
  8
LAYER0001
 62
     7
 10
-88.10376667091529
 20
-57.8030095759234
 30
0.0
 40
4.0
  1
55.8
 41
0.60952380952381
  7
FDASTYLE1
 72
     5
 11
-78.35138571853433
 21
-57.8030095759234
 31
0.0
  0
ENDBLK
  5
84
  8
0
  0
BLOCK
  8
0
  2
DC_GROUP_20
 70
     0
 10
0.0
 20
0.0
 30
0.0
  3
DC_GROUP_20
  1

  0
LINE
  5
1BF
  8
LAYER0001
  6
CONTINUOUS
 62
     7
 10
-107.6037697891636
 20
-59.33890911082101
 30
0.0
 11
-109.6037681967942
 21
-58.8030095759234
 31
0.0
  0
LINE
  5
1C0
  8
LAYER0001
  6
CONTINUOUS
 62
     7
 10
-109.6037681967942
 20
-58.8030095759234
 30
0.0
 11
-107.6037697891636
 21
-58.26711004102579
 31
0.0
  0
LINE
  5
1C1
  8
LAYER0001
  6
CONTINUOUS
 62
     7
 10
-109.6037681967942
 20
-58.8030095759234
 30
0.0
 11
-107.6037697891636
 21
-58.8030095759234
 31
0.0
  0
ENDBLK
  5
87
  8
0
  0
BLOCK
  8
0
  2
DC_GROUP_21
 70
     0
 10
0.0
 20
0.0
 30
0.0
  3
DC_GROUP_21
  1

  0
LINE
  5
1C2
  8
LAYER0001
  6
CONTINUOUS
 62
     7
 10
-55.80376355266704
 20
-58.26711004102579
 30
0.0
 11
-53.80376514503637
 21
-58.8030095759234
 31
0.0
  0
LINE
  5
1C3
  8
LAYER0001
  6
CONTINUOUS
 62
     7
 10
-53.80376514503637
 20
-58.8030095759234
 30
0.0
 11
-55.80376355266704
 21
-59.33890911082101
 31
0.0
  0
LINE
  5
1C4
  8
LAYER0001
  6
CONTINUOUS
 62
     7
 10
-53.80376514503637
 20
-58.8030095759234
 30
0.0
 11
-55.80376355266704
 21
-58.8030095759234
 31
0.0
  0
ENDBLK
  5
8A
  8
0
  0
BLOCK
  8
0
  2
DC_GROUP_22
 70
     0
 10
0.0
 20
0.0
 30
0.0
  3
DC_GROUP_22
  1

  0
LINE
  5
1C5
  8
LAYER0001
  6
CONTINUOUS
 62
     7
 10
-113.8037651450364
 20
-50.31925164135308
 30
0.0
 11
-113.8037651450364
 21
-69.8030095759234
 31
0.0
  0
LINE
  5
1C6
  8
LAYER0001
  6
CONTINUOUS
 62
     7
 10
-53.80376514503637
 20
-29.8798748102984
 30
0.0
 11
-53.80376514503637
 21
-69.8030095759234
 31
0.0
  0
LINE
  5
1C7
  8
LAYER0001
  6
CONTINUOUS
 62
     7
 10
-113.8037651450364
 20
-68.8030095759234
 30
0.0
 11
-53.80376514503637
 21
-68.8030095759234
 31
0.0
  0
INSERT
  5
1C8
  8
LAYER0001
  6
CONTINUOUS
  2
DC_GROUP_23
 10
0.0
 20
0.0
 30
0.0
  0
INSERT
  5
1C9
  8
LAYER0001
  6
CONTINUOUS
  2
DC_GROUP_24
 10
0.0
 20
0.0
 30
0.0
  0
TEXT
  5
1CA
  8
LAYER0001
 62
     7
 10
-87.00376514503638
 20
-67.8030095759234
 30
0.0
 40
4.0
  1
60
 41
0.6285714285714299
  7
FDASTYLE1
 72
     5
 11
-81.97519371646494
 21
-67.8030095759234
 31
0.0
  0
ENDBLK
  5
8D
  8
0
  0
BLOCK
  8
0
  2
DC_GROUP_23
 70
     0
 10
0.0
 20
0.0
 30
0.0
  3
DC_GROUP_23
  1

  0
LINE
  5
1CB
  8
LAYER0001
  6
CONTINUOUS
 62
     7
 10
-111.8037667374057
 20
-69.33890911082101
 30
0.0
 11
-113.8037651450364
 21
-68.8030095759234
 31
0.0
  0
LINE
  5
1CC
  8
LAYER0001
  6
CONTINUOUS
 62
     7
 10
-113.8037651450364
 20
-68.8030095759234
 30
0.0
 11
-111.8037667374057
 21
-68.26711004102579
 31
0.0
  0
LINE
  5
1CD
  8
LAYER0001
  6
CONTINUOUS
 62
     7
 10
-113.8037651450364
 20
-68.8030095759234
 30
0.0
 11
-111.8037667374057
 21
-68.8030095759234
 31
0.0
  0
ENDBLK
  5
90
  8
0
  0
BLOCK
  8
0
  2
DC_GROUP_24
 70
     0
 10
0.0
 20
0.0
 30
0.0
  3
DC_GROUP_24
  1

  0
LINE
  5
1CE
  8
LAYER0001
  6
CONTINUOUS
 62
     7
 10
-55.80376355266704
 20
-68.26711004102579
 30
0.0
 11
-53.80376514503637
 21
-68.8030095759234
 31
0.0
  0
LINE
  5
1CF
  8
LAYER0001
  6
CONTINUOUS
 62
     7
 10
-53.80376514503637
 20
-68.8030095759234
 30
0.0
 11
-55.80376355266704
 21
-69.33890911082101
 31
0.0
  0
LINE
  5
1D0
  8
LAYER0001
  6
CONTINUOUS
 62
     7
 10
-53.80376514503637
 20
-68.8030095759234
 30
0.0
 11
-55.80376355266704
 21
-68.8030095759234
 31
0.0
  0
ENDBLK
  5
93
  8
0
  0
BLOCK
  8
0
  2
DC_GROUP_25
 70
     0
 10
0.0
 20
0.0
 30
0.0
  3
DC_GROUP_25
  1

  0
LINE
  5
1D1
  8
LAYER0001
  6
CONTINUOUS
 62
     7
 10
-109.6037681967942
 20
-43.65352171096502
 30
0.0
 11
-82.93961414405982
 21
-43.65352171096502
 31
0.0
  0
LINE
  5
1D2
  8
LAYER0001
  6
CONTINUOUS
 62
     7
 10
-109.6037681967942
 20
-7.617999657710506
 30
0.0
 11
-109.6037681967942
 21
-44.65352171096502
 31
0.0
  0
LINE
  5
1D3
  8
LAYER0001
  6
CONTINUOUS
 62
     7
 10
-82.93961414405982
 20
15.65699996081977
 30
0.0
 11
-82.93961414405982
 21
-44.65352171096502
 31
0.0
  0
INSERT
  5
1D4
  8
LAYER0001
  6
CONTINUOUS
  2
DC_GROUP_26
 10
0.0
 20
0.0
 30
0.0
  0
INSERT
  5
1D5
  8
LAYER0001
  6
CONTINUOUS
  2
DC_GROUP_27
 10
0.0
 20
0.0
 30
0.0
  0
TEXT
  5
1D6
  8
LAYER0001
 62
     7
 10
-107.471691170427
 20
-42.65352171096502
 30
0.0
 40
4.0
  1
MAX36.8
 41
0.6802721088435371
  7
FDASTYLE1
 72
     5
 11
-88.42407212280796
 21
-42.65352171096502
 31
0.0
  0
ENDBLK
  5
96
  8
0
  0
BLOCK
  8
0
  2
DC_GROUP_26
 70
     0
 10
0.0
 20
0.0
 30
0.0
  3
DC_GROUP_26
  1

  0
LINE
  5
1D7
  8
LAYER0001
  6
CONTINUOUS
 62
     7
 10
-107.6037697891636
 20
-44.18942124586263
 30
0.0
 11
-109.6037681967942
 21
-43.65352171096502
 31
0.0
  0
LINE
  5
1D8
  8
LAYER0001
  6
CONTINUOUS
 62
     7
 10
-109.6037681967942
 20
-43.65352171096502
 30
0.0
 11
-107.6037697891636
 21
-43.11762217606741
 31
0.0
  0
LINE
  5
1D9
  8
LAYER0001
  6
CONTINUOUS
 62
     7
 10
-109.6037681967942
 20
-43.65352171096502
 30
0.0
 11
-107.6037697891636
 21
-43.65352171096502
 31
0.0
  0
ENDBLK
  5
99
  8
0
  0
BLOCK
  8
0
  2
DC_GROUP_27
 70
     0
 10
0.0
 20
0.0
 30
0.0
  3
DC_GROUP_27
  1

  0
LINE
  5
1DA
  8
LAYER0001
  6
CONTINUOUS
 62
     7
 10
-84.93961255169049
 20
-43.11762217606741
 30
0.0
 11
-82.93961414405982
 21
-43.65352171096502
 31
0.0
  0
LINE
  5
1DB
  8
LAYER0001
  6
CONTINUOUS
 62
     7
 10
-82.93961414405982
 20
-43.65352171096502
 30
0.0
 11
-84.93961255169049
 21
-44.18942124586263
 31
0.0
  0
LINE
  5
1DC
  8
LAYER0001
  6
CONTINUOUS
 62
     7
 10
-82.93961414405982
 20
-43.65352171096502
 30
0.0
 11
-84.93961255169049
 21
-43.65352171096502
 31
0.0
  0
ENDBLK
  5
9C
  8
0
  0
BLOCK
  8
0
  2
DC_GROUP_28
 70
     0
 10
0.0
 20
0.0
 30
0.0
  3
DC_GROUP_28
  1

  0
LINE
  5
1DD
  8
LAYER0001
  6
CONTINUOUS
 62
     7
 10
-102.9396141440598
 20
27.57739203540473
 30
0.0
 11
-82.93961414405982
 21
27.57739203540473
 31
0.0
  0
INSERT
  5
1DE
  8
LAYER0001
  6
CONTINUOUS
  2
DC_GROUP_29
 10
0.0
 20
0.0
 30
0.0
  0
INSERT
  5
1DF
  8
LAYER0001
  6
CONTINUOUS
  2
DC_GROUP_30
 10
0.0
 20
0.0
 30
0.0
  0
TEXT
  5
1E0
  8
LAYER0001
 62
     7
 10
-96.13961414405982
 20
28.57739203540473
 30
0.0
 40
4.0
  1
20
 41
0.6476190476190489
  7
FDASTYLE1
 72
     5
 11
-90.95866176310743
 21
28.57739203540473
 31
0.0
  0
ENDBLK
  5
9F
  8
0
  0
BLOCK
  8
0
  2
DC_GROUP_29
 70
     0
 10
0.0
 20
0.0
 30
0.0
  3
DC_GROUP_29
  1

  0
LINE
  5
1E1
  8
LAYER0001
  6
CONTINUOUS
 62
     7
 10
-100.9396157364292
 20
27.04149250050712
 30
0.0
 11
-102.9396141440598
 21
27.57739203540473
 31
0.0
  0
LINE
  5
1E2
  8
LAYER0001
  6
CONTINUOUS
 62
     7
 10
-102.9396141440598
 20
27.57739203540473
 30
0.0
 11
-100.9396157364292
 21
28.11329157030233
 31
0.0
  0
LINE
  5
1E3
  8
LAYER0001
  6
CONTINUOUS
 62
     7
 10
-102.9396141440598
 20
27.57739203540473
 30
0.0
 11
-100.9396157364292
 21
27.57739203540473
 31
0.0
  0
ENDBLK
  5
A2
  8
0
  0
BLOCK
  8
0
  2
DC_GROUP_30
 70
     0
 10
0.0
 20
0.0
 30
0.0
  3
DC_GROUP_30
  1

  0
LINE
  5
1E4
  8
LAYER0001
  6
CONTINUOUS
 62
     7
 10
-84.93961255169049
 20
28.11329157030234
 30
0.0
 11
-82.93961414405982
 21
27.57739203540473
 31
0.0
  0
LINE
  5
1E5
  8
LAYER0001
  6
CONTINUOUS
 62
     7
 10
-82.93961414405982
 20
27.57739203540473
 30
0.0
 11
-84.93961255169049
 21
27.04149250050713
 31
0.0
  0
LINE
  5
1E6
  8
LAYER0001
  6
CONTINUOUS
 62
     7
 10
-82.93961414405982
 20
27.57739203540473
 30
0.0
 11
-84.93961255169049
 21
27.57739203540473
 31
0.0
  0
ENDBLK
  5
A5
  8
0
  0
BLOCK
  8
0
  2
DC_GROUP_31
 70
     0
 10
0.0
 20
0.0
 30
0.0
  3
DC_GROUP_31
  1

  0
LINE
  5
1E7
  8
LAYER0001
  6
CONTINUOUS
 62
     7
 10
-82.93961414405982
 20
27.57739203540473
 30
0.0
 11
-74.93962177345435
 21
27.57739203540473
 31
0.0
  0
INSERT
  5
1E8
  8
LAYER0001
  6
CONTINUOUS
  2
DC_GROUP_32
 10
0.0
 20
0.0
 30
0.0
  0
INSERT
  5
1E9
  8
LAYER0001
  6
CONTINUOUS
  2
DC_GROUP_33
 10
0.0
 20
0.0
 30
0.0
  0
TEXT
  5
1EA
  8
LAYER0001
 62
     7
 10
-80.53961795875708
 20
28.57739203540473
 30
0.0
 40
4.0
  1
8
 41
0.5333333333333314
  7
FDASTYLE1
 72
     5
 11
-78.40628462542375
 21
28.57739203540473
 31
0.0
  0
ENDBLK
  5
A8
  8
0
  0
BLOCK
  8
0
  2
DC_GROUP_32
 70
     0
 10
0.0
 20
0.0
 30
0.0
  3
DC_GROUP_32
  1

  0
LINE
  5
1EB
  8
LAYER0001
  6
CONTINUOUS
 62
     7
 10
-80.93961573642916
 20
27.04149250050713
 30
0.0
 11
-82.93961414405982
 21
27.57739203540473
 31
0.0
  0
LINE
  5
1EC
  8
LAYER0001
  6
CONTINUOUS
 62
     7
 10
-82.93961414405982
 20
27.57739203540473
 30
0.0
 11
-80.93961573642916
 21
28.11329157030234
 31
0.0
  0
LINE
  5
1ED
  8
LAYER0001
  6
CONTINUOUS
 62
     7
 10
-82.93961414405982
 20
27.57739203540473
 30
0.0
 11
-80.93961573642916
 21
27.57739203540473
 31
0.0
  0
ENDBLK
  5
AB
  8
0
  0
BLOCK
  8
0
  2
DC_GROUP_33
 70
     0
 10
0.0
 20
0.0
 30
0.0
  3
DC_GROUP_33
  1

  0
LINE
  5
1EE
  8
LAYER0001
  6
CONTINUOUS
 62
     7
 10
-76.93962018108502
 20
28.11329157030234
 30
0.0
 11
-74.93962177345435
 21
27.57739203540473
 31
0.0
  0
LINE
  5
1EF
  8
LAYER0001
  6
CONTINUOUS
 62
     7
 10
-74.93962177345435
 20
27.57739203540473
 30
0.0
 11
-76.93962018108502
 21
27.04149250050713
 31
0.0
  0
LINE
  5
1F0
  8
LAYER0001
  6
CONTINUOUS
 62
     7
 10
-74.93962177345435
 20
27.57739203540473
 30
0.0
 11
-76.93962018108502
 21
27.57739203540473
 31
0.0
  0
ENDBLK
  5
AE
  8
0
  0
BLOCK
  8
0
  2
DC_GROUP_34
 70
     0
 10
0.0
 20
0.0
 30
0.0
  3
DC_GROUP_34
  1

  0
LINE
  5
1F1
  8
LAYER0001
  6
CONTINUOUS
 62
     7
 10
-74.93962177345435
 20
27.57739203540473
 30
0.0
 11
-66.93962177345435
 21
27.57739203540473
 31
0.0
  0
INSERT
  5
1F2
  8
LAYER0001
  6
CONTINUOUS
  2
DC_GROUP_35
 10
0.0
 20
0.0
 30
0.0
  0
INSERT
  5
1F3
  8
LAYER0001
  6
CONTINUOUS
  2
DC_GROUP_36
 10
0.0
 20
0.0
 30
0.0
  0
TEXT
  5
1F4
  8
LAYER0001
 62
     7
 10
-72.53962177345434
 20
28.57739203540473
 30
0.0
 40
4.0
  1
8
 41
0.5333333333333314
  7
FDASTYLE1
 72
     5
 11
-70.40628844012102
 21
28.57739203540473
 31
0.0
  0
ENDBLK
  5
B1
  8
0
  0
BLOCK
  8
0
  2
DC_GROUP_35
 70
     0
 10
0.0
 20
0.0
 30
0.0
  3
DC_GROUP_35
  1

  0
LINE
  5
1F5
  8
LAYER0001
  6
CONTINUOUS
 62
     7
 10
-72.93962336582369
 20
27.04149250050713
 30
0.0
 11
-74.93962177345435
 21
27.57739203540473
 31
0.0
  0
LINE
  5
1F6
  8
LAYER0001
  6
CONTINUOUS
 62
     7
 10
-74.93962177345435
 20
27.57739203540473
 30
0.0
 11
-72.93962336582369
 21
28.11329157030234
 31
0.0
  0
LINE
  5
1F7
  8
LAYER0001
  6
CONTINUOUS
 62
     7
 10
-74.93962177345435
 20
27.57739203540473
 30
0.0
 11
-72.93962336582369
 21
27.57739203540473
 31
0.0
  0
ENDBLK
  5
B4
  8
0
  0
BLOCK
  8
0
  2
DC_GROUP_36
 70
     0
 10
0.0
 20
0.0
 30
0.0
  3
DC_GROUP_36
  1

  0
LINE
  5
1F8
  8
LAYER0001
  6
CONTINUOUS
 62
     7
 10
-68.93962018108502
 20
28.11329157030234
 30
0.0
 11
-66.93962177345435
 21
27.57739203540473
 31
0.0
  0
LINE
  5
1F9
  8
LAYER0001
  6
CONTINUOUS
 62
     7
 10
-66.93962177345435
 20
27.57739203540473
 30
0.0
 11
-68.93962018108502
 21
27.04149250050713
 31
0.0
  0
LINE
  5
1FA
  8
LAYER0001
  6
CONTINUOUS
 62
     7
 10
-66.93962177345435
 20
27.57739203540473
 30
0.0
 11
-68.93962018108502
 21
27.57739203540473
 31
0.0
  0
ENDBLK
  5
B7
  8
0
  0
BLOCK
  8
0
  2
DC_GROUP_37
 70
     0
 10
0.0
 20
0.0
 30
0.0
  3
DC_GROUP_37
  1

  0
LINE
  5
1FB
  8
LAYER0001
  6
CONTINUOUS
 62
     7
 10
-127.3437651450364
 20
-0.0780034724077723
 30
0.0
 11
-144.7081993491379
 21
-0.0780034724077723
 31
0.0
  0
LINE
  5
1FC
  8
LAYER0001
  6
CONTINUOUS
 62
     7
 10
-127.3437651450364
 20
-10.07800347240777
 30
0.0
 11
-144.7081993491379
 21
-10.07800347240777
 31
0.0
  0
LINE
  5
1FD
  8
LAYER0001
  6
CONTINUOUS
 62
     7
 10
-143.7081993491379
 20
-0.0779996577105067
 30
0.0
 11
-143.7081993491379
 21
-10.07799965771051
 31
0.0
  0
INSERT
  5
1FE
  8
LAYER0001
  6
CONTINUOUS
  2
DC_GROUP_38
 10
0.0
 20
0.0
 30
0.0
  0
INSERT
  5
1FF
  8
LAYER0001
  6
CONTINUOUS
  2
DC_GROUP_39
 10
0.0
 20
0.0
 30
0.0
  0
TEXT
  5
200
  8
LAYER0001
 62
     7
 10
-145.3081993491379
 20
-9.878003472407784
 30
0.0
 40
4.0
  1
M10
 50
90.0
 41
0.723809523809526
  7
FDASTYLE1
 72
     5
 11
-145.3081993491379
 21
-1.192289186693472
 31
0.0
  0
ENDBLK
  5
BA
  8
0
  0
BLOCK
  8
0
  2
DC_GROUP_38
 70
     0
 10
0.0
 20
0.0
 30
0.0
  3
DC_GROUP_38
  1

  0
LINE
  5
201
  8
LAYER0001
  6
CONTINUOUS
 62
     7
 10
-144.2440988840355
 20
-2.077998065341169
 30
0.0
 11
-143.7081993491379
 21
-0.0779996577105067
 31
0.0
  0
LINE
  5
202
  8
LAYER0001
  6
CONTINUOUS
 62
     7
 10
-143.7081993491379
 20
-0.0779996577105067
 30
0.0
 11
-143.1722998142403
 21
-2.077998065341169
 31
0.0
  0
LINE
  5
203
  8
LAYER0001
  6
CONTINUOUS
 62
     7
 10
-143.7081993491379
 20
-0.0779996577105067
 30
0.0
 11
-143.7081993491379
 21
-2.077998065341169
 31
0.0
  0
ENDBLK
  5
BD
  8
0
  0
BLOCK
  8
0
  2
DC_GROUP_39
 70
     0
 10
0.0
 20
0.0
 30
0.0
  3
DC_GROUP_39
  1

  0
LINE
  5
204
  8
LAYER0001
  6
CONTINUOUS
 62
     7
 10
-143.1722998142403
 20
-8.078001250079849
 30
0.0
 11
-143.7081993491379
 21
-10.07799965771051
 31
0.0
  0
LINE
  5
205
  8
LAYER0001
  6
CONTINUOUS
 62
     7
 10
-143.7081993491379
 20
-10.07799965771051
 30
0.0
 11
-144.2440988840355
 21
-8.078001250079849
 31
0.0
  0
LINE
  5
206
  8
LAYER0001
  6
CONTINUOUS
 62
     7
 10
-143.7081993491379
 20
-10.07799965771051
 30
0.0
 11
-143.7081993491379
 21
-8.078001250079849
 31
0.0
  0
ENDBLK
  5
C0
  8
0
  0
BLOCK
  8
0
  2
DC_GROUP_40
 70
     0
 10
0.0
 20
0.0
 30
0.0
  3
DC_GROUP_40
  1

  0
LINE
  5
207
  8
LAYER0001
  6
CONTINUOUS
 62
     7
 10
-124.8037651450364
 20
-43.65352171096502
 30
0.0
 11
-109.6037681967942
 21
-43.65352171096502
 31
0.0
  0
LINE
  5
208
  8
LAYER0001
  6
CONTINUOUS
 62
     7
 10
-124.8037651450364
 20
-2.617999657710507
 30
0.0
 11
-124.8037651450364
 21
-44.65352171096502
 31
0.0
  0
LINE
  5
209
  8
LAYER0001
  6
CONTINUOUS
 62
     7
 10
-109.6037681967942
 20
-2.617999657710507
 30
0.0
 11
-109.6037681967942
 21
-44.65352171096502
 31
0.0
  0
LINE
  5
20A
  8
LAYER0001
  6
CONTINUOUS
 62
     7
 10
-141.5356151450364
 20
-43.65352171096502
 30
0.0
 11
-124.8037651450364
 21
-43.65352171096502
 31
0.0
  0
INSERT
  5
20B
  8
LAYER0001
  6
CONTINUOUS
  2
DC_GROUP_41
 10
0.0
 20
0.0
 30
0.0
  0
TEXT
  5
20C
  8
LAYER0001
 62
     7
 10
-140.5356151450364
 20
-42.65352171096502
 30
0.0
 40
4.0
  1
15.2
 41
0.5809523809523807
  7
FDASTYLE1
 72
     5
 11
-131.2403770497983
 21
-42.65352171096502
 31
0.0
  0
ENDBLK
  5
C3
  8
0
  0
BLOCK
  8
0
  2
DC_GROUP_41
 70
     0
 10
0.0
 20
0.0
 30
0.0
  3
DC_GROUP_41
  1

  0
LINE
  5
20D
  8
LAYER0001
  6
CONTINUOUS
 62
     7
 10
-126.8037635526671
 20
-43.11762217606741
 30
0.0
 11
-124.8037651450364
 21
-43.65352171096502
 31
0.0
  0
LINE
  5
20E
  8
LAYER0001
  6
CONTINUOUS
 62
     7
 10
-124.8037651450364
 20
-43.65352171096502
 30
0.0
 11
-126.8037635526671
 21
-44.18942124586263
 31
0.0
  0
LINE
  5
20F
  8
LAYER0001
  6
CONTINUOUS
 62
     7
 10
-124.8037651450364
 20
-43.65352171096502
 30
0.0
 11
-126.8037635526671
 21
-43.65352171096502
 31
0.0
  0
ENDBLK
  5
C6
  8
0
  0
BLOCK
  8
0
  2
DC_GROUP_42
 70
     0
 10
0.0
 20
0.0
 30
0.0
  3
DC_GROUP_42
  1

  0
LINE
  5
210
  8
LAYER0001
  6
CONTINUOUS
 62
     7
 10
34.42991131954918
 20
14.6938682420387
 30
0.0
 11
13.01621323886828
 21
2.330665256722796
 31
0.0
  0
LINE
  5
211
  8
LAYER0001
  6
CONTINUOUS
 62
     7
 10
13.88223677936522
 20
2.830668530545381
 30
0.0
 11
27.38223835888816
 21
-20.55202269081315
 31
0.0
  0
LINE
  5
212
  8
LAYER0001
  6
CONTINUOUS
 62
     7
 10
33.11838806218746
 20
-17.24026429105769
 30
0.0
 11
26.51621672573974
 21
-21.05202926826064
 31
0.0
  0
INSERT
  5
213
  8
LAYER0001
  6
CONTINUOUS
  2
DC_GROUP_43
 10
0.0
 20
0.0
 30
0.0
  0
INSERT
  5
214
  8
LAYER0001
  6
CONTINUOUS
  2
DC_GROUP_44
 10
0.0
 20
0.0
 30
0.0
  0
TEXT
  5
215
  8
LAYER0001
 62
     7
 10
19.89826299683116
 20
-5.589395829454404
 30
0.0
 40
4.0
  1
27
 50
-59.99999999999999
 41
0.6476190476190477
  7
FDASTYLE1
 72
     5
 11
22.48873918730735
 21
-10.07623220715664
 31
0.0
  0
ENDBLK
  5
C9
  8
0
  0
BLOCK
  8
0
  2
DC_GROUP_43
 70
     0
 10
0.0
 20
0.0
 30
0.0
  3
DC_GROUP_43
  1

  0
LINE
  5
216
  8
LAYER0001
  6
CONTINUOUS
 62
     7
 10
14.41813327640284
 20
0.8306693089226678
 30
0.0
 11
13.88223677936522
 21
2.830668530545381
 31
0.0
  0
LINE
  5
217
  8
LAYER0001
  6
CONTINUOUS
 62
     7
 10
13.88223677936522
 20
2.830668530545381
 30
0.0
 11
15.3463385242355
 21
1.366568799414865
 31
0.0
  0
LINE
  5
218
  8
LAYER0001
  6
CONTINUOUS
 62
     7
 10
13.88223677936522
 20
2.830668530545381
 30
0.0
 11
14.88223590031917
 21
1.098619054168766
 31
0.0
  0
ENDBLK
  5
CC
  8
0
  0
BLOCK
  8
0
  2
DC_GROUP_44
 70
     0
 10
0.0
 20
0.0
 30
0.0
  3
DC_GROUP_44
  1

  0
LINE
  5
219
  8
LAYER0001
  6
CONTINUOUS
 62
     7
 10
26.84634186185054
 20
-18.55202346919043
 30
0.0
 11
27.38223835888816
 21
-20.55202269081315
 31
0.0
  0
LINE
  5
21A
  8
LAYER0001
  6
CONTINUOUS
 62
     7
 10
27.38223835888816
 20
-20.55202269081315
 30
0.0
 11
25.91813661401788
 21
-19.08792295968263
 31
0.0
  0
LINE
  5
21B
  8
LAYER0001
  6
CONTINUOUS
 62
     7
 10
27.38223835888816
 20
-20.55202269081315
 30
0.0
 11
26.38223923793421
 21
-18.81997321443653
 31
0.0
  0
ENDBLK
  5
CF
  8
0
  0
BLOCK
  8
0
  2
DC_GROUP_45
 70
     0
 10
0.0
 20
0.0
 30
0.0
  3
DC_GROUP_45
  1

  0
LINE
  5
21C
  8
LAYER0001
  6
CONTINUOUS
 62
     7
 10
94.46596134130441
 20
-12.74102623127328
 30
0.0
 11
75.75397536687696
 21
-46.20741543820515
 31
0.0
  0
LINE
  5
21D
  8
LAYER0001
  6
CONTINUOUS
 62
     7
 10
75.75397793082304
 20
-46.2074170771441
 30
0.0
 11
47.7618442962884
 21
-46.2074170771441
 31
0.0
  0
INSERT
  5
21E
  8
LAYER0001
  6
CONTINUOUS
  2
DC_GROUP_46
 10
0.0
 20
0.0
 30
0.0
  0
TEXT
  5
21F
  8
LAYER0001
 62
     7
 10
49.00649410513945
 20
-44.6074170771441
 30
0.0
 40
4.0
  1
PCD82.55
 41
0.695238095238095
  7
FDASTYLE1
 72
     5
 11
71.25411315275849
 21
-44.6074170771441
 31
0.0
  0
ENDBLK
  5
D2
  8
0
  0
BLOCK
  8
0
  2
DC_GROUP_46
 70
     0
 10
0.0
 20
0.0
 30
0.0
  3
DC_GROUP_46
  1

  0
LINE
  5
220
  8
LAYER0001
  6
CONTINUOUS
 62
     7
 10
93.02216537531429
 20
-14.22515397194094
 30
0.0
 11
94.46596134130441
 21
-12.74102623127328
 31
0.0
  0
LINE
  5
221
  8
LAYER0001
  6
CONTINUOUS
 62
     7
 10
94.46596134130441
 20
-12.74102623127328
 30
0.0
 11
93.95766417996909
 21
-14.7482172879012
 31
0.0
  0
LINE
  5
222
  8
LAYER0001
  6
CONTINUOUS
 62
     7
 10
94.46596134130441
 20
-12.74102623127328
 30
0.0
 11
93.48991477764169
 21
-14.48668562992107
 31
0.0
  0
ENDBLK
  5
D5
  8
0
  0
BLOCK
  8
0
  2
DC_GROUP_47
 70
     0
 10
0.0
 20
0.0
 30
0.0
  3
DC_GROUP_47
  1

  0
LINE
  5
223
  8
LAYER0001
  6
CONTINUOUS
 62
     7
 10
99.72560233998904
 20
4.834254753272262
 30
0.0
 11
116.5275591538652
 21
-46.20742004564568
 31
0.0
  0
LINE
  5
224
  8
LAYER0001
  6
CONTINUOUS
 62
     7
 10
116.5275603893191
 20
-46.2074170771441
 30
0.0
 11
160.1904331047068
 21
-46.2074170771441
 31
0.0
  0
INSERT
  5
225
  8
LAYER0001
  6
CONTINUOUS
  2
DC_GROUP_48
 10
0.0
 20
0.0
 30
0.0
  0
TEXT
  5
226
  8
LAYER0001
 62
     7
 10
117.6750442150027
 20
-44.60742089184137
 30
0.0
 40
4.0
  1
3-M5×11 PCD58
 41
0.6326905417814512
  7
FDASTYLE1
 72
     5
 11
151.0811048210633
 21
-44.60742089184137
 31
0.0
  0
ENDBLK
  5
D8
  8
0
  0
BLOCK
  8
0
  2
DC_GROUP_48
 70
     0
 10
0.0
 20
0.0
 30
0.0
  3
DC_GROUP_48
  1

  0
LINE
  5
227
  8
LAYER0001
  6
CONTINUOUS
 62
     7
 10
99.84192429200139
 20
2.766973653492002
 30
0.0
 11
99.72560233998904
 21
4.834254753272262
 31
0.0
  0
LINE
  5
228
  8
LAYER0001
  6
CONTINUOUS
 62
     7
 10
99.72560233998904
 20
4.834254753272262
 30
0.0
 11
100.8599832034987
 21
3.102099448880704
 31
0.0
  0
LINE
  5
229
  8
LAYER0001
  6
CONTINUOUS
 62
     7
 10
99.72560233998904
 20
4.834254753272262
 30
0.0
 11
100.35095374775
 21
2.934536551186351
 31
0.0
  0
ENDBLK
  5
DB
  8
0
  0
BLOCK
  8
0
  2
DC_GROUP_49
 70
     0
 10
0.0
 20
0.0
 30
0.0
  3
DC_GROUP_49
  1

  0
LINE
  5
22A
  8
LAYER0001
  6
CONTINUOUS
 62
     7
 10
50.33721411762664
 20
64.10450532395359
 30
0.0
 11
29.92781346498991
 21
75.8878377525396
 31
0.0
  0
LINE
  5
22B
  8
LAYER0001
  6
CONTINUOUS
 62
     7
 10
26.13441860465117
 20
36.19702094165473
 30
0.0
 11
19.29269710806914
 21
36.19702094165473
 31
0.0
  0
ARC
  5
22C
  8
LAYER0001
  6
CONTINUOUS
 62
     7
 10
98.67444912222929
 20
36.1969904240766
 30
0.0
 40
77.09574127197266
 50
150.0000246646978
 51
179.9999640278213
  0
INSERT
  5
22D
  8
LAYER0001
  6
CONTINUOUS
  2
DC_GROUP_50
 10
0.0
 20
0.0
 30
0.0
  0
INSERT
  5
22E
  8
LAYER0001
  6
CONTINUOUS
  2
DC_GROUP_51
 10
0.0
 20
0.0
 30
0.0
  0
TEXT
  5
22F
  8
LAYER0001
 62
     7
 10
21.41049075375969
 20
51.93338643155956
 30
0.0
 40
4.0
  1
30ﾟ
 50
74.89999999999999
 41
0.4500000000000005
  7
FDASTYLE1
 72
     5
 11
22.81721510042999
 21
57.14693863830738
 31
0.0
  0
ENDBLK
  5
DE
  8
0
  0
BLOCK
  8
0
  2
DC_GROUP_50
 70
     0
 10
0.0
 20
0.0
 30
0.0
  3
DC_GROUP_50
  1

  0
LINE
  5
230
  8
LAYER0001
  6
CONTINUOUS
 62
     7
 10
30.46257417317997
 20
73.26186504273119
 30
0.0
 11
31.90756206302025
 21
74.74483231824459
 31
0.0
  0
LINE
  5
231
  8
LAYER0001
  6
CONTINUOUS
 62
     7
 10
31.90756206302025
 20
74.74483231824459
 30
0.0
 11
31.39765243217246
 21
72.7380502896233
 31
0.0
  0
LINE
  5
232
  8
LAYER0001
  6
CONTINUOUS
 62
     7
 10
31.90756206302025
 20
74.74483231824459
 30
0.0
 11
30.93011330267622
 21
72.99995766617725
 31
0.0
  0
ENDBLK
  5
E1
  8
0
  0
BLOCK
  8
0
  2
DC_GROUP_51
 70
     0
 10
0.0
 20
0.0
 30
0.0
  3
DC_GROUP_51
  1

  0
LINE
  5
233
  8
LAYER0001
  6
CONTINUOUS
 62
     7
 10
22.14050456393412
 20
38.18991774851973
 30
0.0
 11
21.57870785027183
 21
36.19703882732384
 31
0.0
  0
LINE
  5
234
  8
LAYER0001
  6
CONTINUOUS
 62
     7
 10
21.57870785027183
 20
36.19703882732384
 30
0.0
 11
21.06879566330983
 21
38.20382020645219
 31
0.0
  0
LINE
  5
235
  8
LAYER0001
  6
CONTINUOUS
 62
     7
 10
21.57870785027183
 20
36.19703882732384
 30
0.0
 11
21.60465011362198
 21
38.19686897748596
 31
0.0
  0
ENDBLK
  5
E4
  8
0
  0
BLOCK
  8
0
  2
DC_GROUP_52
 70
     0
 10
0.0
 20
0.0
 30
0.0
  3
DC_GROUP_52
  1

  0
LINE
  5
236
  8
LAYER0001
  6
CONTINUOUS
 62
     7
 10
-3.697775690279074
 20
36.1970018681684
 30
0.0
 11
-3.697775690279074
 21
62.19699805347113
 31
0.0
  0
LINE
  5
237
  8
LAYER0001
  6
CONTINUOUS
 62
     7
 10
-12.6828380388009
 20
36.19699564662743
 30
0.0
 11
-2.697775690279314
 21
36.19700256059998
 31
0.0
  0
LINE
  5
238
  8
LAYER0001
  6
CONTINUOUS
 62
     7
 10
-52.26376514503637
 20
62.1969904240766
 30
0.0
 11
-2.697775690279087
 21
62.1969982105645
 31
0.0
  0
INSERT
  5
239
  8
LAYER0001
  6
CONTINUOUS
  2
DC_GROUP_53
 10
0.0
 20
0.0
 30
0.0
  0
INSERT
  5
23A
  8
LAYER0001
  6
CONTINUOUS
  2
DC_GROUP_54
 10
0.0
 20
0.0
 30
0.0
  0
TEXT
  5
23B
  8
LAYER0001
 62
     7
 10
-4.697775690279071
 20
36.39699996081976
 30
0.0
 40
4.0
  1
MAX27.25
 50
90.0
 41
0.6904761904761902
  7
FDASTYLE1
 72
     5
 11
-4.697775690279071
 21
58.49223805605785
 31
0.0
  0
ENDBLK
  5
E7
  8
0
  0
BLOCK
  8
0
  2
DC_GROUP_53
 70
     0
 10
0.0
 20
0.0
 30
0.0
  3
DC_GROUP_53
  1

  0
LINE
  5
23C
  8
LAYER0001
  6
CONTINUOUS
 62
     7
 10
-3.161876155381466
 20
38.19700027579906
 30
0.0
 11
-3.697775690279074
 21
36.1970018681684
 31
0.0
  0
LINE
  5
23D
  8
LAYER0001
  6
CONTINUOUS
 62
     7
 10
-3.697775690279074
 20
36.1970018681684
 30
0.0
 11
-4.233675225176682
 21
38.19700027579906
 31
0.0
  0
LINE
  5
23E
  8
LAYER0001
  6
CONTINUOUS
 62
     7
 10
-3.697775690279074
 20
36.1970018681684
 30
0.0
 11
-3.697775690279074
 21
38.19700027579906
 31
0.0
  0
ENDBLK
  5
EA
  8
0
  0
BLOCK
  8
0
  2
DC_GROUP_54
 70
     0
 10
0.0
 20
0.0
 30
0.0
  3
DC_GROUP_54
  1

  0
LINE
  5
23F
  8
LAYER0001
  6
CONTINUOUS
 62
     7
 10
-4.233675225176682
 20
60.19699964584046
 30
0.0
 11
-3.697775690279074
 21
62.19699805347113
 31
0.0
  0
LINE
  5
240
  8
LAYER0001
  6
CONTINUOUS
 62
     7
 10
-3.697775690279074
 20
62.19699805347113
 30
0.0
 11
-3.161876155381467
 21
60.19699964584046
 31
0.0
  0
LINE
  5
241
  8
LAYER0001
  6
CONTINUOUS
 62
     7
 10
-3.697775690279074
 20
62.19699805347113
 30
0.0
 11
-3.697775690279074
 21
60.19699964584046
 31
0.0
  0
ENDBLK
  5
ED
  8
0
  0
BLOCK
  8
0
  2
DC_GROUP_55
 70
     0
 10
0.0
 20
0.0
 30
0.0
  3
DC_GROUP_55
  1

  0
LINE
  5
242
  8
LAYER0001
  6
CONTINUOUS
 62
     7
 10
-52.26376514503637
 20
62.1969904240766
 30
0.0
 11
-2.708199349137935
 21
62.1969904240766
 31
0.0
  0
LINE
  5
243
  8
LAYER0001
  6
CONTINUOUS
 62
     7
 10
-52.26376514503637
 20
101.1969904240766
 30
0.0
 11
-2.708199349137935
 21
101.1969904240766
 31
0.0
  0
LINE
  5
244
  8
LAYER0001
  6
CONTINUOUS
 62
     7
 10
-3.708199349137935
 20
62.19699805347113
 30
0.0
 11
-3.708199349137935
 21
101.1969980534711
 31
0.0
  0
INSERT
  5
245
  8
LAYER0001
  6
CONTINUOUS
  2
DC_GROUP_56
 10
0.0
 20
0.0
 30
0.0
  0
INSERT
  5
246
  8
LAYER0001
  6
CONTINUOUS
  2
DC_GROUP_57
 10
0.0
 20
0.0
 30
0.0
  0
TEXT
  5
247
  8
LAYER0001
 62
     7
 10
-5.308199349137935
 20
78.49699805347113
 30
0.0
 40
4.0
  1
39
 50
90.0
 41
0.6285714285714281
  7
FDASTYLE1
 72
     5
 11
-5.308199349137935
 21
83.52556948204256
 31
0.0
  0
ENDBLK
  5
F0
  8
0
  0
BLOCK
  8
0
  2
DC_GROUP_56
 70
     0
 10
0.0
 20
0.0
 30
0.0
  3
DC_GROUP_56
  1

  0
LINE
  5
248
  8
LAYER0001
  6
CONTINUOUS
 62
     7
 10
-3.172299814240327
 20
64.1969964611018
 30
0.0
 11
-3.708199349137935
 21
62.19699805347113
 31
0.0
  0
LINE
  5
249
  8
LAYER0001
  6
CONTINUOUS
 62
     7
 10
-3.708199349137935
 20
62.19699805347113
 30
0.0
 11
-4.244098884035542
 21
64.1969964611018
 31
0.0
  0
LINE
  5
24A
  8
LAYER0001
  6
CONTINUOUS
 62
     7
 10
-3.708199349137935
 20
62.19699805347113
 30
0.0
 11
-3.708199349137935
 21
64.1969964611018
 31
0.0
  0
ENDBLK
  5
F3
  8
0
  0
BLOCK
  8
0
  2
DC_GROUP_57
 70
     0
 10
0.0
 20
0.0
 30
0.0
  3
DC_GROUP_57
  1

  0
LINE
  5
24B
  8
LAYER0001
  6
CONTINUOUS
 62
     7
 10
-4.244098884035542
 20
99.19699964584045
 30
0.0
 11
-3.708199349137935
 21
101.1969980534711
 31
0.0
  0
LINE
  5
24C
  8
LAYER0001
  6
CONTINUOUS
 62
     7
 10
-3.708199349137935
 20
101.1969980534711
 30
0.0
 11
-3.172299814240327
 21
99.19699964584045
 31
0.0
  0
LINE
  5
24D
  8
LAYER0001
  6
CONTINUOUS
 62
     7
 10
-3.708199349137935
 20
101.1969980534711
 30
0.0
 11
-3.708199349137935
 21
99.19699964584045
 31
0.0
  0
ENDBLK
  5
F6
  8
0
  0
BLOCK
  8
0
  2
DC_GROUP_58
 70
     0
 10
0.0
 20
0.0
 30
0.0
  3
DC_GROUP_58
  1

  0
LINE
  5
24E
  8
LAYER0001
  6
CONTINUOUS
 62
     7
 10
-52.26376514503637
 20
62.1969904240766
 30
0.0
 11
-22.70819934913794
 21
62.1969904240766
 31
0.0
  0
LINE
  5
24F
  8
LAYER0001
  6
CONTINUOUS
 62
     7
 10
-33.59563617775122
 20
72.1969904240766
 30
0.0
 11
-22.70819934913794
 21
72.1969904240766
 31
0.0
  0
LINE
  5
250
  8
LAYER0001
  6
CONTINUOUS
 62
     7
 10
-23.70819934913794
 20
62.19699805347113
 30
0.0
 11
-23.70819934913794
 21
72.19699805347113
 31
0.0
  0
INSERT
  5
251
  8
LAYER0001
  6
CONTINUOUS
  2
DC_GROUP_59
 10
0.0
 20
0.0
 30
0.0
  0
INSERT
  5
252
  8
LAYER0001
  6
CONTINUOUS
  2
DC_GROUP_60
 10
0.0
 20
0.0
 30
0.0
  0
TEXT
  5
253
  8
LAYER0001
 62
     7
 10
-30.1081995398728
 20
62.39699805347114
 30
0.0
 40
4.0
  1
MIN
 50
90.0
 41
0.5841269841269844
  7
FDASTYLE1
 72
     5
 11
-30.1081995398728
 21
69.40652186299495
 31
0.0
  0
TEXT
  5
254
  8
LAYER0001
 62
     7
 10
-25.30819934913794
 20
62.39699802962928
 30
0.0
 40
4.0
  1
 7
 50
90.0
 41
0.2666666666666648
  7
FDASTYLE1
 72
     5
 11
-25.30819934913794
 21
64.5303313629626
 31
0.0
  0
ENDBLK
  5
F9
  8
0
  0
BLOCK
  8
0
  2
DC_GROUP_59
 70
     0
 10
0.0
 20
0.0
 30
0.0
  3
DC_GROUP_59
  1

  0
LINE
  5
255
  8
LAYER0001
  6
CONTINUOUS
 62
     7
 10
-23.17229981424033
 20
64.19699646110178
 30
0.0
 11
-23.70819934913794
 21
62.19699805347113
 31
0.0
  0
LINE
  5
256
  8
LAYER0001
  6
CONTINUOUS
 62
     7
 10
-23.70819934913794
 20
62.19699805347113
 30
0.0
 11
-24.24409888403554
 21
64.19699646110178
 31
0.0
  0
LINE
  5
257
  8
LAYER0001
  6
CONTINUOUS
 62
     7
 10
-23.70819934913794
 20
62.19699805347113
 30
0.0
 11
-23.70819934913794
 21
64.19699646110178
 31
0.0
  0
ENDBLK
  5
FC
  8
0
  0
BLOCK
  8
0
  2
DC_GROUP_60
 70
     0
 10
0.0
 20
0.0
 30
0.0
  3
DC_GROUP_60
  1

  0
LINE
  5
258
  8
LAYER0001
  6
CONTINUOUS
 62
     7
 10
-24.24409888403554
 20
70.19699964584048
 30
0.0
 11
-23.70819934913794
 21
72.19699805347113
 31
0.0
  0
LINE
  5
259
  8
LAYER0001
  6
CONTINUOUS
 62
     7
 10
-23.70819934913794
 20
72.19699805347113
 30
0.0
 11
-23.17229981424033
 21
70.19699964584048
 31
0.0
  0
LINE
  5
25A
  8
LAYER0001
  6
CONTINUOUS
 62
     7
 10
-23.70819934913794
 20
72.19699805347113
 30
0.0
 11
-23.70819934913794
 21
70.19699964584048
 31
0.0
  0
ENDBLK
  5
FF
  8
0
  0
BLOCK
  8
0
  2
DC_GROUP_61
 70
     0
 10
0.0
 20
0.0
 30
0.0
  3
DC_GROUP_61
  1

  0
LINE
  5
25B
  8
LAYER0001
  6
CONTINUOUS
 62
     7
 10
-42.01026282802177
 20
92.37695717433962
 30
0.0
 11
-28.28806008658562
 21
108.3906721555452
 31
0.0
  0
LINE
  5
25C
  8
LAYER0001
  6
CONTINUOUS
 62
     7
 10
-28.28806289741674
 20
108.3906702336469
 30
0.0
 11
-19.81372961113134
 21
108.3906702336469
 31
0.0
  0
INSERT
  5
25D
  8
LAYER0001
  6
CONTINUOUS
  2
DC_GROUP_62
 10
0.0
 20
0.0
 30
0.0
  0
TEXT
  5
25E
  8
LAYER0001
 62
     7
 10
-27.01372798988501
 20
109.9906702336469
 30
0.0
 40
4.0
  1
M8
 41
0.7047619047619045
  7
FDASTYLE1
 72
     5
 11
-21.37563275178977
 21
109.9906702336469
 31
0.0
  0
ENDBLK
  5
102
  8
0
  0
BLOCK
  8
0
  2
DC_GROUP_62
 70
     0
 10
0.0
 20
0.0
 30
0.0
  3
DC_GROUP_62
  1

  0
LINE
  5
25F
  8
LAYER0001
  6
CONTINUOUS
 62
     7
 10
-40.30195753702358
 20
93.54694647975069
 30
0.0
 11
-42.01026282802177
 21
92.37695717433962
 31
0.0
  0
LINE
  5
260
  8
LAYER0001
  6
CONTINUOUS
 62
     7
 10
-42.01026282802177
 20
92.37695717433962
 30
0.0
 11
-41.11582444840932
 21
94.24435159628291
 31
0.0
  0
LINE
  5
261
  8
LAYER0001
  6
CONTINUOUS
 62
     7
 10
-42.01026282802177
 20
92.37695717433962
 30
0.0
 11
-40.70889099271646
 21
93.8956490380168
 31
0.0
  0
ENDBLK
  5
105
  8
0
  0
BLOCK
  8
0
  2
DC_GROUP_63
 70
     0
 10
0.0
 20
0.0
 30
0.0
  3
DC_GROUP_63
  1

  0
LINE
  5
262
  8
LAYER0001
  6
CONTINUOUS
 62
     7
 10
-22.39461975489487
 20
65.1969904240766
 30
0.0
 11
-12.70819934913794
 21
65.1969904240766
 31
0.0
  0
LINE
  5
263
  8
LAYER0001
  6
CONTINUOUS
 62
     7
 10
-50.76376514503637
 20
96.1969904240766
 30
0.0
 11
-12.70819934913794
 21
96.1969904240766
 31
0.0
  0
LINE
  5
264
  8
LAYER0001
  6
CONTINUOUS
 62
     7
 10
-13.70819934913794
 20
65.1969904240766
 30
0.0
 11
-13.70819934913794
 21
96.1969904240766
 31
0.0
  0
INSERT
  5
265
  8
LAYER0001
  6
CONTINUOUS
  2
DC_GROUP_64
 10
0.0
 20
0.0
 30
0.0
  0
INSERT
  5
266
  8
LAYER0001
  6
CONTINUOUS
  2
DC_GROUP_65
 10
0.0
 20
0.0
 30
0.0
  0
TEXT
  5
267
  8
LAYER0001
 62
     7
 10
-15.30819934913794
 20
77.4969904240766
 30
0.0
 40
4.0
  1
31
 50
90.0
 41
0.533333333333335
  7
FDASTYLE1
 72
     5
 11
-15.30819934913794
 21
81.76365709074328
 31
0.0
  0
ENDBLK
  5
108
  8
0
  0
BLOCK
  8
0
  2
DC_GROUP_64
 70
     0
 10
0.0
 20
0.0
 30
0.0
  3
DC_GROUP_64
  1

  0
LINE
  5
268
  8
LAYER0001
  6
CONTINUOUS
 62
     7
 10
-13.17229981424033
 20
67.19698883170726
 30
0.0
 11
-13.70819934913794
 21
65.1969904240766
 31
0.0
  0
LINE
  5
269
  8
LAYER0001
  6
CONTINUOUS
 62
     7
 10
-13.70819934913794
 20
65.1969904240766
 30
0.0
 11
-14.24409888403555
 21
67.19698883170726
 31
0.0
  0
LINE
  5
26A
  8
LAYER0001
  6
CONTINUOUS
 62
     7
 10
-13.70819934913794
 20
65.1969904240766
 30
0.0
 11
-13.70819934913794
 21
67.19698883170726
 31
0.0
  0
ENDBLK
  5
10B
  8
0
  0
BLOCK
  8
0
  2
DC_GROUP_65
 70
     0
 10
0.0
 20
0.0
 30
0.0
  3
DC_GROUP_65
  1

  0
LINE
  5
26B
  8
LAYER0001
  6
CONTINUOUS
 62
     7
 10
-14.24409888403555
 20
94.19699201644595
 30
0.0
 11
-13.70819934913794
 21
96.1969904240766
 31
0.0
  0
LINE
  5
26C
  8
LAYER0001
  6
CONTINUOUS
 62
     7
 10
-13.70819934913794
 20
96.1969904240766
 30
0.0
 11
-13.17229981424033
 21
94.19699201644595
 31
0.0
  0
LINE
  5
26D
  8
LAYER0001
  6
CONTINUOUS
 62
     7
 10
-13.70819934913794
 20
96.1969904240766
 30
0.0
 11
-13.70819934913794
 21
94.19699201644595
 31
0.0
  0
ENDBLK
  5
10E
  8
0
  0
BLOCK
  8
0
  2
DC_GROUP_66
 70
     0
 10
0.0
 20
0.0
 30
0.0
  3
DC_GROUP_66
  1

  0
LINE
  5
26E
  8
LAYER0001
  6
CONTINUOUS
 62
     7
 10
-33.59563617775122
 20
72.1969904240766
 30
0.0
 11
-22.70819934913794
 21
72.1969904240766
 31
0.0
  0
LINE
  5
26F
  8
LAYER0001
  6
CONTINUOUS
 62
     7
 10
-33.59563617775122
 20
89.1969904240766
 30
0.0
 11
-22.70819934913794
 21
89.1969904240766
 31
0.0
  0
LINE
  5
270
  8
LAYER0001
  6
CONTINUOUS
 62
     7
 10
-23.70819934913794
 20
72.1969904240766
 30
0.0
 11
-23.70819934913794
 21
89.1969904240766
 31
0.0
  0
INSERT
  5
271
  8
LAYER0001
  6
CONTINUOUS
  2
DC_GROUP_67
 10
0.0
 20
0.0
 30
0.0
  0
INSERT
  5
272
  8
LAYER0001
  6
CONTINUOUS
  2
DC_GROUP_68
 10
0.0
 20
0.0
 30
0.0
  0
TEXT
  5
273
  8
LAYER0001
 62
     7
 10
-25.30819934913794
 20
77.4969904240766
 30
0.0
 40
4.0
  1
17
 50
90.0
 41
0.5904761904761919
  7
FDASTYLE1
 72
     5
 11
-25.30819934913794
 21
82.22079994788614
 31
0.0
  0
ENDBLK
  5
111
  8
0
  0
BLOCK
  8
0
  2
DC_GROUP_67
 70
     0
 10
0.0
 20
0.0
 30
0.0
  3
DC_GROUP_67
  1

  0
LINE
  5
274
  8
LAYER0001
  6
CONTINUOUS
 62
     7
 10
-23.17229981424033
 20
74.19698883170726
 30
0.0
 11
-23.70819934913794
 21
72.1969904240766
 31
0.0
  0
LINE
  5
275
  8
LAYER0001
  6
CONTINUOUS
 62
     7
 10
-23.70819934913794
 20
72.1969904240766
 30
0.0
 11
-24.24409888403554
 21
74.19698883170726
 31
0.0
  0
LINE
  5
276
  8
LAYER0001
  6
CONTINUOUS
 62
     7
 10
-23.70819934913794
 20
72.1969904240766
 30
0.0
 11
-23.70819934913794
 21
74.19698883170726
 31
0.0
  0
ENDBLK
  5
114
  8
0
  0
BLOCK
  8
0
  2
DC_GROUP_68
 70
     0
 10
0.0
 20
0.0
 30
0.0
  3
DC_GROUP_68
  1

  0
LINE
  5
277
  8
LAYER0001
  6
CONTINUOUS
 62
     7
 10
-24.24409888403554
 20
87.19699201644595
 30
0.0
 11
-23.70819934913794
 21
89.1969904240766
 31
0.0
  0
LINE
  5
278
  8
LAYER0001
  6
CONTINUOUS
 62
     7
 10
-23.70819934913794
 20
89.1969904240766
 30
0.0
 11
-23.17229981424033
 21
87.19699201644595
 31
0.0
  0
LINE
  5
279
  8
LAYER0001
  6
CONTINUOUS
 62
     7
 10
-23.70819934913794
 20
89.1969904240766
 30
0.0
 11
-23.70819934913794
 21
87.19699201644595
 31
0.0
  0
ENDBLK
  5
117
  8
0
  0
BLOCK
  8
0
  2
DC_GROUP_69
 70
     0
 10
0.0
 20
0.0
 30
0.0
  3
DC_GROUP_69
  1

  0
LINE
  5
27A
  8
LAYER0001
  6
CONTINUOUS
 62
     7
 10
-13.73157247351064
 20
11.19700091449408
 30
0.0
 11
-13.73157247351064
 21
54.2876801400886
 31
0.0
  0
LINE
  5
27B
  8
LAYER0001
  6
CONTINUOUS
 62
     7
 10
-51.26376514503637
 20
11.19700568286567
 30
0.0
 11
-12.73157247351064
 21
11.19700078744657
 31
0.0
  0
INSERT
  5
27C
  8
LAYER0001
  6
CONTINUOUS
  2
DC_GROUP_70
 10
0.0
 20
0.0
 30
0.0
  0
TEXT
  5
27D
  8
LAYER0001
 62
     7
 10
-15.33157247351064
 20
28.17080252734809
 30
0.0
 40
4.0
  1
φ50H7
 50
90.0
 41
0.621301775147929
  7
FDASTYLE1
 72
     5
 11
-15.33157247351064
 21
41.09387945042501
 31
0.0
  0
ENDBLK
  5
11A
  8
0
  0
BLOCK
  8
0
  2
DC_GROUP_70
 70
     0
 10
0.0
 20
0.0
 30
0.0
  3
DC_GROUP_70
  1

  0
LINE
  5
27E
  8
LAYER0001
  6
CONTINUOUS
 62
     7
 10
-13.19567293861303
 20
13.19699932212474
 30
0.0
 11
-13.73157247351064
 21
11.19700091449408
 31
0.0
  0
LINE
  5
27F
  8
LAYER0001
  6
CONTINUOUS
 62
     7
 10
-13.73157247351064
 20
11.19700091449408
 30
0.0
 11
-14.26747200840825
 21
13.19699932212474
 31
0.0
  0
LINE
  5
280
  8
LAYER0001
  6
CONTINUOUS
 62
     7
 10
-13.73157247351064
 20
11.19700091449408
 30
0.0
 11
-13.73157247351064
 21
13.19699932212474
 31
0.0
  0
ENDBLK
  5
11D
  8
0
  0
BLOCK
  8
0
  2
DC_GROUP_71
 70
     0
 10
0.0
 20
0.0
 30
0.0
  3
DC_GROUP_71
  1

  0
LINE
  5
281
  8
LAYER0001
  6
CONTINUOUS
 62
     7
 10
-53.80376514503637
 20
102.2369980534711
 30
0.0
 11
-53.80376514503637
 21
116.5617212590375
 31
0.0
  0
LINE
  5
282
  8
LAYER0001
  6
CONTINUOUS
 62
     7
 10
-54.80376514503637
 20
103.7369980534711
 30
0.0
 11
-54.80376514503637
 21
116.5617212590375
 31
0.0
  0
LINE
  5
283
  8
LAYER0001
  6
CONTINUOUS
 62
     7
 10
-53.80376514503637
 20
115.5617212590375
 30
0.0
 11
-54.80376514503637
 21
115.5617212590375
 31
0.0
  0
LINE
  5
284
  8
LAYER0001
  6
CONTINUOUS
 62
     7
 10
-61.15376514503637
 20
115.5617212590375
 30
0.0
 11
-54.80376514503637
 21
115.5617212590375
 31
0.0
  0
LINE
  5
285
  8
LAYER0001
  6
CONTINUOUS
 62
     7
 10
-53.80376514503637
 20
115.5617212590375
 30
0.0
 11
-47.45376514503637
 21
115.5617212590375
 31
0.0
  0
INSERT
  5
286
  8
LAYER0001
  6
CONTINUOUS
  2
DC_GROUP_72
 10
0.0
 20
0.0
 30
0.0
  0
INSERT
  5
287
  8
LAYER0001
  6
CONTINUOUS
  2
DC_GROUP_73
 10
0.0
 20
0.0
 30
0.0
  0
TEXT
  5
288
  8
LAYER0001
 62
     7
 10
-62.72392124244848
 20
117.1617212590375
 30
0.0
 40
4.0
  1
1
 41
0.1904761904761898
  7
FDASTYLE1
 72
     5
 11
-61.96201648054372
 21
117.1617212590375
 31
0.0
  0
ENDBLK
  5
120
  8
0
  0
BLOCK
  8
0
  2
DC_GROUP_72
 70
     0
 10
0.0
 20
0.0
 30
0.0
  3
DC_GROUP_72
  1

  0
LINE
  5
289
  8
LAYER0001
  6
CONTINUOUS
 62
     7
 10
-56.80376355266704
 20
116.0976207939351
 30
0.0
 11
-54.80376514503637
 21
115.5617212590375
 31
0.0
  0
LINE
  5
28A
  8
LAYER0001
  6
CONTINUOUS
 62
     7
 10
-54.80376514503637
 20
115.5617212590375
 30
0.0
 11
-56.80376355266704
 21
115.0258217241399
 31
0.0
  0
LINE
  5
28B
  8
LAYER0001
  6
CONTINUOUS
 62
     7
 10
-54.80376514503637
 20
115.5617212590375
 30
0.0
 11
-56.80376355266704
 21
115.5617212590375
 31
0.0
  0
ENDBLK
  5
123
  8
0
  0
BLOCK
  8
0
  2
DC_GROUP_73
 70
     0
 10
0.0
 20
0.0
 30
0.0
  3
DC_GROUP_73
  1

  0
LINE
  5
28C
  8
LAYER0001
  6
CONTINUOUS
 62
     7
 10
-51.80376673740571
 20
115.0258217241399
 30
0.0
 11
-53.80376514503637
 21
115.5617212590375
 31
0.0
  0
LINE
  5
28D
  8
LAYER0001
  6
CONTINUOUS
 62
     7
 10
-53.80376514503637
 20
115.5617212590375
 30
0.0
 11
-51.80376673740571
 21
116.0976207939351
 31
0.0
  0
LINE
  5
28E
  8
LAYER0001
  6
CONTINUOUS
 62
     7
 10
-53.80376514503637
 20
115.5617212590375
 30
0.0
 11
-51.80376673740571
 21
115.5617212590375
 31
0.0
  0
ENDBLK
  5
126
  8
0
  0
BLOCK
  8
0
  2
DC_GROUP_74
 70
     0
 10
0.0
 20
0.0
 30
0.0
  3
DC_GROUP_74
  1

  0
LINE
  5
28F
  8
LAYER0001
  6
CONTINUOUS
 62
     7
 10
-54.76256938987768
 20
98.75471077490238
 30
0.0
 11
-35.83653988403381
 21
117.8262596591201
 31
0.0
  0
LINE
  5
290
  8
LAYER0001
  6
CONTINUOUS
 62
     7
 10
-35.83654102394262
 20
117.8262628850141
 30
0.0
 11
4.964558753279057
 21
117.8262628850141
 31
0.0
  0
INSERT
  5
291
  8
LAYER0001
  6
CONTINUOUS
  2
DC_GROUP_75
 10
0.0
 20
0.0
 30
0.0
  0
TEXT
  5
292
  8
LAYER0001
 62
     7
 10
-35.35233959266821
 20
119.4262552556196
 30
0.0
 40
4.0
  1
ｾﾚｰｼｮﾝP1.5山60ﾟ
 41
0.6332076968855387
  7
FDASTYLE1
 72
     5
 11
0.6138575904303849
 21
119.4262552556196
 31
0.0
  0
ENDBLK
  5
129
  8
0
  0
BLOCK
  8
0
  2
DC_GROUP_75
 70
     0
 10
0.0
 20
0.0
 30
0.0
  3
DC_GROUP_75
  1

  0
LINE
  5
293
  8
LAYER0001
  6
CONTINUOUS
 62
     7
 10
-52.97339667001216
 20
99.79684460532803
 30
0.0
 11
-54.76256938987768
 21
98.75471077490238
 31
0.0
  0
LINE
  5
294
  8
LAYER0001
  6
CONTINUOUS
 62
     7
 10
-54.76256938987768
 20
98.75471077490238
 30
0.0
 11
-53.73416992162838
 21
100.5518130189979
 31
0.0
  0
LINE
  5
295
  8
LAYER0001
  6
CONTINUOUS
 62
     7
 10
-54.76256938987768
 20
98.75471077490238
 30
0.0
 11
-53.35378329582026
 21
100.174328812163
 31
0.0
  0
ENDBLK
  5
12C
  8
0
  0
BLOCK
  8
0
  2
DC_GROUP_76
 70
     0
 10
0.0
 20
0.0
 30
0.0
  3
DC_GROUP_76
  1

  0
LINE
  5
296
  8
LAYER0001
  6
CONTINUOUS
 62
     7
 10
-56.30376514503637
 20
21.4988703068891
 30
0.0
 11
-53.80376514503637
 21
21.4988703068891
 31
0.0
  0
LINE
  5
297
  8
LAYER0001
  6
CONTINUOUS
 62
     7
 10
-56.30376514503637
 20
21.4988703068891
 30
0.0
 11
-62.65376514503637
 21
21.4988703068891
 31
0.0
  0
LINE
  5
298
  8
LAYER0001
  6
CONTINUOUS
 62
     7
 10
-47.45376514503637
 20
21.4988703068891
 30
0.0
 11
-53.80376514503637
 21
21.4988703068891
 31
0.0
  0
INSERT
  5
299
  8
LAYER0001
  6
CONTINUOUS
  2
DC_GROUP_77
 10
0.0
 20
0.0
 30
0.0
  0
INSERT
  5
29A
  8
LAYER0001
  6
CONTINUOUS
  2
DC_GROUP_78
 10
0.0
 20
0.0
 30
0.0
  0
TEXT
  5
29B
  8
LAYER0001
 62
     7
 10
-50.8427101523606
 20
23.0988703068891
 30
0.0
 40
4.0
  1
2.5
 41
0.5587301587301591
  7
FDASTYLE1
 72
     5
 11
-44.13794824759869
 21
23.0988703068891
 31
0.0
  0
ENDBLK
  5
12F
  8
0
  0
BLOCK
  8
0
  2
DC_GROUP_77
 70
     0
 10
0.0
 20
0.0
 30
0.0
  3
DC_GROUP_77
  1

  0
LINE
  5
29C
  8
LAYER0001
  6
CONTINUOUS
 62
     7
 10
-58.30376355266704
 20
22.03476984178671
 30
0.0
 11
-56.30376514503637
 21
21.4988703068891
 31
0.0
  0
LINE
  5
29D
  8
LAYER0001
  6
CONTINUOUS
 62
     7
 10
-56.30376514503637
 20
21.4988703068891
 30
0.0
 11
-58.30376355266704
 21
20.96297077199149
 31
0.0
  0
LINE
  5
29E
  8
LAYER0001
  6
CONTINUOUS
 62
     7
 10
-56.30376514503637
 20
21.4988703068891
 30
0.0
 11
-58.30376355266704
 21
21.4988703068891
 31
0.0
  0
ENDBLK
  5
132
  8
0
  0
BLOCK
  8
0
  2
DC_GROUP_78
 70
     0
 10
0.0
 20
0.0
 30
0.0
  3
DC_GROUP_78
  1

  0
LINE
  5
29F
  8
LAYER0001
  6
CONTINUOUS
 62
     7
 10
-51.80376673740571
 20
20.96297077199149
 30
0.0
 11
-53.80376514503637
 21
21.4988703068891
 31
0.0
  0
LINE
  5
2A0
  8
LAYER0001
  6
CONTINUOUS
 62
     7
 10
-53.80376514503637
 20
21.4988703068891
 30
0.0
 11
-51.80376673740571
 21
22.03476984178671
 31
0.0
  0
LINE
  5
2A1
  8
LAYER0001
  6
CONTINUOUS
 62
     7
 10
-53.80376514503637
 20
21.4988703068891
 30
0.0
 11
-51.80376673740571
 21
21.4988703068891
 31
0.0
  0
ENDBLK
  5
135
  8
0
  0
BLOCK
  8
0
  2
DC_GROUP_79
 70
     0
 10
0.0
 20
0.0
 30
0.0
  3
DC_GROUP_79
  1

  0
LINE
  5
2A2
  8
LAYER0001
  6
CONTINUOUS
 62
     7
 10
-109.6037681967942
 20
93.73699805347114
 30
0.0
 11
-109.6037681967942
 21
116.5617212590375
 31
0.0
  0
LINE
  5
2A3
  8
LAYER0001
  6
CONTINUOUS
 62
     7
 10
-112.8037651450364
 20
61.23700568286566
 30
0.0
 11
-112.8037651450364
 21
116.5617212590375
 31
0.0
  0
LINE
  5
2A4
  8
LAYER0001
  6
CONTINUOUS
 62
     7
 10
-109.6037681967942
 20
115.5617212590375
 30
0.0
 11
-112.8037651450364
 21
115.5617212590375
 31
0.0
  0
LINE
  5
2A5
  8
LAYER0001
  6
CONTINUOUS
 62
     7
 10
-143.3300286625634
 20
115.5617212590375
 30
0.0
 11
-112.8037651450364
 21
115.5617212590375
 31
0.0
  0
LINE
  5
2A6
  8
LAYER0001
  6
CONTINUOUS
 62
     7
 10
-104.6037681967942
 20
115.5617212590375
 30
0.0
 11
-109.6037681967942
 21
115.5617212590375
 31
0.0
  0
INSERT
  5
2A7
  8
LAYER0001
  6
CONTINUOUS
  2
DC_GROUP_80
 10
0.0
 20
0.0
 30
0.0
  0
INSERT
  5
2A8
  8
LAYER0001
  6
CONTINUOUS
  2
DC_GROUP_81
 10
0.0
 20
0.0
 30
0.0
  0
TEXT
  5
2A9
  8
LAYER0001
 62
     7
 10
-142.3300286625634
 20
116.5617212590375
 30
0.0
 40
4.0
  1
MAX 16.8
 41
0.695238095238095
  7
FDASTYLE1
 72
     5
 11
-120.0824096149444
 21
116.5617212590375
 31
0.0
  0
ENDBLK
  5
138
  8
0
  0
BLOCK
  8
0
  2
DC_GROUP_80
 70
     0
 10
0.0
 20
0.0
 30
0.0
  3
DC_GROUP_80
  1

  0
LINE
  5
2AA
  8
LAYER0001
  6
CONTINUOUS
 62
     7
 10
-114.8037635526671
 20
116.0976207939351
 30
0.0
 11
-112.8037651450364
 21
115.5617212590375
 31
0.0
  0
LINE
  5
2AB
  8
LAYER0001
  6
CONTINUOUS
 62
     7
 10
-112.8037651450364
 20
115.5617212590375
 30
0.0
 11
-114.8037635526671
 21
115.0258217241399
 31
0.0
  0
LINE
  5
2AC
  8
LAYER0001
  6
CONTINUOUS
 62
     7
 10
-112.8037651450364
 20
115.5617212590375
 30
0.0
 11
-114.8037635526671
 21
115.5617212590375
 31
0.0
  0
ENDBLK
  5
13B
  8
0
  0
BLOCK
  8
0
  2
DC_GROUP_81
 70
     0
 10
0.0
 20
0.0
 30
0.0
  3
DC_GROUP_81
  1

  0
LINE
  5
2AD
  8
LAYER0001
  6
CONTINUOUS
 62
     7
 10
-107.6037697891636
 20
115.0258217241399
 30
0.0
 11
-109.6037681967942
 21
115.5617212590375
 31
0.0
  0
LINE
  5
2AE
  8
LAYER0001
  6
CONTINUOUS
 62
     7
 10
-109.6037681967942
 20
115.5617212590375
 30
0.0
 11
-107.6037697891636
 21
116.0976207939351
 31
0.0
  0
LINE
  5
2AF
  8
LAYER0001
  6
CONTINUOUS
 62
     7
 10
-109.6037681967942
 20
115.5617212590375
 30
0.0
 11
-107.6037697891636
 21
115.5617212590375
 31
0.0
  0
ENDBLK
  5
13E
  8
0
  0
BLOCK
  8
0
  2
DC_GROUP_82
 70
     0
 10
0.0
 20
0.0
 30
0.0
  3
DC_GROUP_82
  1

  0
LINE
  5
2B0
  8
LAYER0001
  6
CONTINUOUS
 62
     7
 10
171.2144186046511
 20
36.1969904240766
 30
0.0
 11
176.6984511974246
 21
36.1969904240766
 31
0.0
  0
LINE
  5
2B1
  8
LAYER0001
  6
CONTINUOUS
 62
     7
 10
147.0116525805468
 20
64.10449556827325
 30
0.0
 11
166.245217546904
 21
75.20900100214203
 31
0.0
  0
ARC
  5
2B2
  8
LAYER0001
  6
CONTINUOUS
 62
     7
 10
98.67444912222929
 20
36.1969904240766
 30
0.0
 40
75.73800659179688
 50
0.0
 51
29.99999741973148
  0
INSERT
  5
2B3
  8
LAYER0001
  6
CONTINUOUS
  2
DC_GROUP_83
 10
0.0
 20
0.0
 30
0.0
  0
INSERT
  5
2B4
  8
LAYER0001
  6
CENTER
  2
DC_GROUP_84
 10
0.0
 20
0.0
 30
0.0
  0
TEXT
  5
2B5
  8
LAYER0001
 62
     7
 10
172.1348866254559
 20
60.8499923721938
 30
0.0
 40
4.0
  1
30ﾟ
 50
-75.00000000000003
 41
0.4500000000000002
  7
FDASTYLE1
 72
     5
 11
173.5325094690095
 21
55.63399291023283
 31
0.0
  0
ENDBLK
  5
141
  8
0
  0
BLOCK
  8
0
  2
DC_GROUP_83
 70
     0
 10
0.0
 20
0.0
 30
0.0
  3
DC_GROUP_83
  1

  0
LINE
  5
2B6
  8
LAYER0001
  6
CONTINUOUS
 62
     7
 10
174.9219025195485
 20
38.20388999664414
 30
0.0
 11
174.4124557140262
 21
36.1969904240766
 31
0.0
  0
LINE
  5
2B7
  8
LAYER0001
  6
CONTINUOUS
 62
     7
 10
174.4124557140262
 20
36.1969904240766
 30
0.0
 11
173.8501968716868
 21
38.18973901239371
 31
0.0
  0
LINE
  5
2B8
  8
LAYER0001
  6
CONTINUOUS
 62
     7
 10
174.4124557140262
 20
36.1969904240766
 30
0.0
 11
174.3860496956177
 21
38.19681450451893
 31
0.0
  0
ENDBLK
  5
144
  8
0
  0
BLOCK
  8
0
  2
DC_GROUP_84
 70
     0
 10
0.0
 20
0.0
 30
0.0
  3
DC_GROUP_84
  1

  0
LINE
  5
2B9
  8
LAYER0001
  6
CONTINUOUS
 62
     7
 10
164.7749323309292
 20
72.05909042118606
 30
0.0
 11
164.2654885681181
 21
74.06599076613631
 31
0.0
  0
LINE
  5
2BA
  8
LAYER0001
  6
CONTINUOUS
 62
     7
 10
164.2654885681181
 20
74.06599076613631
 30
0.0
 11
165.7101321630617
 21
72.58268809115153
 31
0.0
  0
LINE
  5
2BB
  8
LAYER0001
  6
CONTINUOUS
 62
     7
 10
164.2654885681181
 20
74.06599076613631
 30
0.0
 11
165.2425322469954
 21
72.32088925616878
 31
0.0
  0
ENDBLK
  5
147
  8
0
  0
BLOCK
  8
0
  2
DC_GROUP_85
 70
     0
 10
0.0
 20
0.0
 30
0.0
  3
DC_GROUP_85
  1

  0
TEXT
  5
2BC
  8
LAYER0001
 62
     7
 10
-107.7841788685841
 20
-48.71749095348611
 30
0.0
 40
4.0
  1
MIN16.8
 41
0.6367346938775508
  7
FDASTYLE1
 72
     5
 11
-89.95560744001269
 21
-48.71749095348611
 31
0.0
  0
ENDBLK
  5
14A
  8
0
  0
BLOCK
  8
0
  2
DC_GROUP_86
 70
     0
 10
0.0
 20
0.0
 30
0.0
  3
DC_GROUP_86
  1

  0
TEXT
  5
2BD
  8
LAYER0001
 62
     7
 10
-142.4703809933254
 20
110.698811812759
 30
0.0
 40
4.0
  1
MIN -3.2
 41
0.6857142857142859
  7
FDASTYLE1
 72
     5
 11
-120.5275238504682
 21
110.698811812759
 31
0.0
  0
ENDBLK
  5
14D
  8
0
  0
BLOCK
  8
0
  2
DC_GROUP_87
 70
     0
 10
0.0
 20
0.0
 30
0.0
  3
DC_GROUP_87
  1

  0
LINE
  5
2BE
  8
LAYER0001
  6
CONTINUOUS
 62
     7
 10
26.75886895199005
 20
-1.282009992308128
 30
0.0
 11
26.22297239534781
 21
0.7179892133436283
 31
0.0
  0
LINE
  5
2BF
  8
LAYER0001
  6
CONTINUOUS
 62
     7
 10
26.22297239534781
 20
0.7179892133436283
 30
0.0
 11
27.68707418385166
 21
-0.7461104741532587
 31
0.0
  0
LINE
  5
2C0
  8
LAYER0001
  6
CONTINUOUS
 62
     7
 10
26.22297239534781
 20
0.7179892133436283
 30
0.0
 11
27.22297156792086
 21
-1.014060233230692
 31
0.0
  0
ENDBLK
  5
150
  8
0
  0
BLOCK
  8
0
  2
DC_GROUP_88
 70
     0
 10
0.0
 20
0.0
 30
0.0
  3
DC_GROUP_88
  1

  0
LINE
  5
2C1
  8
LAYER0001
  6
CONTINUOUS
 62
     7
 10
31.18707551088002
 20
-6.808290851653572
 30
0.0
 11
31.72297206752226
 21
-8.808290057305328
 31
0.0
  0
LINE
  5
2C2
  8
LAYER0001
  6
CONTINUOUS
 62
     7
 10
31.72297206752226
 20
-8.808290057305328
 30
0.0
 11
30.25887027901841
 21
-7.344190369808439
 31
0.0
  0
LINE
  5
2C3
  8
LAYER0001
  6
CONTINUOUS
 62
     7
 10
31.72297206752226
 20
-8.808290057305328
 30
0.0
 11
30.72297289494922
 21
-7.076240610731006
 31
0.0
  0
ENDBLK
  5
153
  8
0
  0
BLOCK
  8
0
  2
DC_GROUP_89
 70
     0
 10
0.0
 20
0.0
 30
0.0
  3
DC_GROUP_89
  1

  0
LINE
  5
2C4
  8
0
  6
CONTINUOUS
 62
     9
 10
-65.93962177345435
 20
16.1970018681684
 30
0.0
 11
-23.43960298409397
 21
16.1970018681684
 31
0.0
  0
LINE
  5
2C5
  8
0
  6
CONTINUOUS
 62
     9
 10
-65.93962177345435
 20
56.1969904240766
 30
0.0
 11
-23.43960298409397
 21
56.1969904240766
 31
0.0
  0
LINE
  5
2C6
  8
0
  6
CONTINUOUS
 62
     9
 10
-24.43960298409397
 20
16.1970018681684
 30
0.0
 11
-24.43960298409397
 21
56.1969904240766
 31
0.0
  0
INSERT
  5
2C7
  8
0
  6
CONTINUOUS
  2
DC_GROUP_90
 10
0.0
 20
0.0
 30
0.0
  0
INSERT
  5
2C8
  8
0
  6
CONTINUOUS
  2
DC_GROUP_91
 10
0.0
 20
0.0
 30
0.0
  0
TEXT
  5
2C9
  8
0
 62
     7
 10
-25.43960298409397
 20
21.7969961461225
 30
0.0
 40
4.0
  1
M40×P1.25
 50
90.0
 41
0.6294896030245748
  7
FDASTYLE1
 72
     5
 11
-25.43960298409397
 21
44.96221353742685
 31
0.0
  0
ENDBLK
  5
156
  8
0
  0
BLOCK
  8
0
  2
DC_GROUP_90
 70
     0
 10
0.0
 20
0.0
 30
0.0
  3
DC_GROUP_90
  1

  0
LINE
  5
2CA
  8
0
  6
CONTINUOUS
 62
     9
 10
-23.90370344919636
 20
18.19700027579906
 30
0.0
 11
-24.43960298409397
 21
16.1970018681684
 31
0.0
  0
LINE
  5
2CB
  8
0
  6
CONTINUOUS
 62
     9
 10
-24.43960298409397
 20
16.1970018681684
 30
0.0
 11
-24.97550251899158
 21
18.19700027579906
 31
0.0
  0
LINE
  5
2CC
  8
0
  6
CONTINUOUS
 62
     9
 10
-24.43960298409397
 20
16.1970018681684
 30
0.0
 11
-24.43960298409397
 21
18.19700027579906
 31
0.0
  0
ENDBLK
  5
159
  8
0
  0
BLOCK
  8
0
  2
DC_GROUP_91
 70
     0
 10
0.0
 20
0.0
 30
0.0
  3
DC_GROUP_91
  1

  0
LINE
  5
2CD
  8
0
  6
CONTINUOUS
 62
     9
 10
-24.97550251899158
 20
54.19699201644594
 30
0.0
 11
-24.43960298409397
 21
56.1969904240766
 31
0.0
  0
LINE
  5
2CE
  8
0
  6
CONTINUOUS
 62
     9
 10
-24.43960298409397
 20
56.1969904240766
 30
0.0
 11
-23.90370344919636
 21
54.19699201644594
 31
0.0
  0
LINE
  5
2CF
  8
0
  6
CONTINUOUS
 62
     9
 10
-24.43960298409397
 20
56.1969904240766
 30
0.0
 11
-24.43960298409397
 21
54.19699201644594
 31
0.0
  0
ENDBLK
  5
15C
  8
0
  0
BLOCK
  8
0
  2
DC_GROUP_92
 70
     0
 10
0.0
 20
0.0
 30
0.0
  3
DC_GROUP_92
  1

  0
LINE
  5
2D0
  8
0
  6
CONTINUOUS
 62
     9
 10
113.9244186046512
 20
40.14023535815863
 30
0.0
 11
113.9244186046512
 21
42.45406360424027
 31
0.0
  0
LINE
  5
2D1
  8
0
  6
CONTINUOUS
 62
     9
 10
83.42441860465117
 20
40.4697183903852
 30
0.0
 11
83.42441860465117
 21
42.45406360424027
 31
0.0
  0
LINE
  5
2D2
  8
0
  6
CONTINUOUS
 62
     9
 10
83.42441860465117
 20
41.45406360424027
 30
0.0
 11
113.9244186046512
 21
41.45406360424027
 31
0.0
  0
INSERT
  5
2D3
  8
0
  6
CONTINUOUS
  2
DC_GROUP_93
 10
0.0
 20
0.0
 30
0.0
  0
INSERT
  5
2D4
  8
0
  6
CONTINUOUS
  2
DC_GROUP_94
 10
0.0
 20
0.0
 30
0.0
  0
TEXT
  5
2D5
  8
0
 62
     7
 10
87.47441860465116
 20
42.45406360424027
 30
0.0
 40
4.0
  1
PCD30.5
 41
0.6857142857142858
  7
FDASTYLE1
 72
     5
 11
106.6744186046512
 21
42.45406360424027
 31
0.0
  0
ENDBLK
  5
15F
  8
0
  0
BLOCK
  8
0
  2
DC_GROUP_93
 70
     0
 10
0.0
 20
0.0
 30
0.0
  3
DC_GROUP_93
  1

  0
LINE
  5
2D6
  8
0
  6
CONTINUOUS
 62
     9
 10
85.42441701228184
 20
40.91816406934266
 30
0.0
 11
83.42441860465117
 21
41.45406360424027
 31
0.0
  0
LINE
  5
2D7
  8
0
  6
CONTINUOUS
 62
     9
 10
83.42441860465117
 20
41.45406360424027
 30
0.0
 11
85.42441701228184
 21
41.98996313913788
 31
0.0
  0
LINE
  5
2D8
  8
0
  6
CONTINUOUS
 62
     9
 10
83.42441860465117
 20
41.45406360424027
 30
0.0
 11
85.42441701228184
 21
41.45406360424027
 31
0.0
  0
ENDBLK
  5
162
  8
0
  0
BLOCK
  8
0
  2
DC_GROUP_94
 70
     0
 10
0.0
 20
0.0
 30
0.0
  3
DC_GROUP_94
  1

  0
LINE
  5
2D9
  8
0
  6
CONTINUOUS
 62
     9
 10
111.9244201970205
 20
41.98996313913788
 30
0.0
 11
113.9244186046512
 21
41.45406360424027
 31
0.0
  0
LINE
  5
2DA
  8
0
  6
CONTINUOUS
 62
     9
 10
113.9244186046512
 20
41.45406360424027
 30
0.0
 11
111.9244201970205
 21
40.91816406934266
 31
0.0
  0
LINE
  5
2DB
  8
0
  6
CONTINUOUS
 62
     9
 10
113.9244186046512
 20
41.45406360424027
 30
0.0
 11
111.9244201970205
 21
41.45406360424027
 31
0.0
  0
ENDBLK
  5
165
  8
0
  0
BLOCK
  8
0
  2
DC_GROUP_95
 70
     0
 10
0.0
 20
0.0
 30
0.0
  3
DC_GROUP_95
  1

  0
LINE
  5
2DC
  8
0
  6
CONTINUOUS
 62
     7
 10
82.45053484823481
 20
37.46645901576461
 30
0.0
 11
45.50870304933902
 21
88.38509357413953
 31
0.0
  0
LINE
  5
2DD
  8
0
  6
CONTINUOUS
 62
     7
 10
45.50870304933902
 20
88.38509357413953
 30
0.0
 11
26.30870304933902
 21
88.38509357413953
 31
0.0
  0
INSERT
  5
2DE
  8
0
  6
CONTINUOUS
  2
DC_GROUP_96
 10
0.0
 20
0.0
 30
0.0
  0
TEXT
  5
2DF
  8
0
 62
     7
 10
26.30870304933902
 20
88.38509357413953
 30
0.0
 40
4.0
  1
2-φ3.2
 41
0.624349635796046
  7
FDASTYLE1
 72
     5
 11
41.79257401708096
 21
88.38509357413953
 31
0.0
  0
ENDBLK
  5
168
  8
0
  0
BLOCK
  8
0
  2
DC_GROUP_96
 70
     0
 10
0.0
 20
0.0
 30
0.0
  3
DC_GROUP_96
  1

  0
LINE
  5
2E0
  8
0
  6
CONTINUOUS
 62
     7
 10
81.70982790890504
 20
39.39998821700709
 30
0.0
 11
82.45053484823481
 21
37.46645901576461
 31
0.0
  0
LINE
  5
2E1
  8
0
  6
CONTINUOUS
 62
     7
 10
82.45053484823481
 20
37.46645901576461
 30
0.0
 11
80.84229730289979
 21
38.77058858747267
 31
0.0
  0
LINE
  5
2E2
  8
0
  6
CONTINUOUS
 62
     7
 10
82.45053484823481
 20
37.46645901576461
 30
0.0
 11
81.27606260590241
 21
39.08528840223988
 31
0.0
  0
ENDBLK
  5
16B
  8
0
  0
ENDSEC
  0
SECTION
  2
ENTITIES
  0
LINE
  5
2E3
  8
LAYER0002
  6
CONTINUOUS
 62
     3
 10
-192.0
 20
-138.4999999999999
 30
0.0
 11
-192.0
 21
138.4999999999999
 31
0.0
  0
LINE
  5
2E4
  8
LAYER0002
  6
CONTINUOUS
 62
     3
 10
192.0
 20
-138.4999999999999
 30
0.0
 11
192.0
 21
138.4999999999999
 31
0.0
  0
LINE
  5
2E5
  8
LAYER0002
  6
CONTINUOUS
 62
     3
 10
-192.0
 20
-138.4999999999999
 30
0.0
 11
192.0
 21
-138.4999999999999
 31
0.0
  0
LINE
  5
2E6
  8
LAYER0002
  6
CONTINUOUS
 62
     3
 10
-192.0
 20
138.4999999999999
 30
0.0
 11
192.0
 21
138.4999999999999
 31
0.0
  0
LINE
  5
2E7
  8
LAYER0002
  6
CONTINUOUS
 62
     3
 10
12.00000000000001
 20
-138.4999999999999
 30
0.0
 11
12.00000000000001
 21
-78.49999999999994
 31
0.0
  0
LINE
  5
2E8
  8
LAYER0002
  6
CONTINUOUS
 62
     3
 10
12.00000000000001
 20
-124.4999999999999
 30
0.0
 11
192.0
 21
-124.4999999999999
 31
0.0
  0
LINE
  5
2E9
  8
LAYER0002
  6
CONTINUOUS
 62
     3
 10
61.00000000000001
 20
-110.4999999999999
 30
0.0
 11
192.0
 21
-110.4999999999999
 31
0.0
  0
LINE
  5
2EA
  8
LAYER0002
  6
CONTINUOUS
 62
     3
 10
61.00000000000001
 20
-96.49999999999994
 30
0.0
 11
192.0
 21
-96.49999999999994
 31
0.0
  0
LINE
  5
2EB
  8
LAYER0002
  6
CONTINUOUS
 62
     3
 10
61.00000000000001
 20
-86.49999999999994
 30
0.0
 11
192.0
 21
-86.49999999999994
 31
0.0
  0
LINE
  5
2EC
  8
LAYER0002
  6
CONTINUOUS
 62
     3
 10
61.00000000000001
 20
-124.4999999999999
 30
0.0
 11
61.00000000000001
 21
-78.49999999999994
 31
0.0
  0
LINE
  5
2ED
  8
LAYER0002
  6
CONTINUOUS
 62
     3
 10
170.0
 20
-124.4999999999999
 30
0.0
 11
170.0
 21
-78.49999999999994
 31
0.0
  0
LINE
  5
2EE
  8
LAYER0002
  6
CONTINUOUS
 62
     3
 10
86.00000000000001
 20
-138.4999999999999
 30
0.0
 11
86.00000000000001
 21
-124.4999999999999
 31
0.0
  0
LINE
  5
2EF
  8
LAYER0002
  6
CONTINUOUS
 62
     3
 10
177.0
 20
-136.4999999999999
 30
0.0
 11
187.0
 21
-136.4999999999999
 31
0.0
  0
LINE
  5
2F0
  8
LAYER0002
  6
CONTINUOUS
 62
     3
 10
182.0
 20
-126.4999999999999
 30
0.0
 11
177.0
 21
-136.4999999999999
 31
0.0
  0
LINE
  5
2F1
  8
LAYER0002
  6
CONTINUOUS
 62
     3
 10
182.0
 20
-126.4999999999999
 30
0.0
 11
187.0
 21
-136.4999999999999
 31
0.0
  0
LINE
  5
2F2
  8
LAYER0002
  6
CONTINUOUS
 62
     3
 10
12.00000000000001
 20
-78.49999999999994
 30
0.0
 11
192.0
 21
-78.49999999999994
 31
0.0
  0
LINE
  5
2F3
  8
LAYER0002
  6
CONTINUOUS
 62
     3
 10
141.0
 20
-124.4999999999999
 30
0.0
 11
141.0
 21
-96.49999999999994
 31
0.0
  0
LINE
  5
2F4
  8
LAYER0002
  6
CONTINUOUS
 62
     4
 10
20.00000000000001
 20
-120.4999999999999
 30
0.0
 11
20.00000000000001
 21
-78.49999999999994
 31
0.0
  0
LINE
  5
2F5
  8
LAYER0002
  6
CONTINUOUS
 62
     4
 10
24.00000000000001
 20
-120.4999999999999
 30
0.0
 11
24.00000000000001
 21
-78.49999999999994
 31
0.0
  0
LINE
  5
2F6
  8
LAYER0002
  6
CONTINUOUS
 62
     4
 10
36.50000000000001
 20
-124.4999999999999
 30
0.0
 11
36.50000000000001
 21
-78.49999999999994
 31
0.0
  0
LINE
  5
2F7
  8
LAYER0002
  6
CONTINUOUS
 62
     4
 10
12.00000000000001
 20
-85.49999999999994
 30
0.0
 11
61.00000000000001
 21
-85.49999999999994
 31
0.0
  0
LINE
  5
2F8
  8
LAYER0002
  6
CONTINUOUS
 62
     4
 10
12.00000000000001
 20
-92.49999999999994
 30
0.0
 11
61.00000000000001
 21
-92.49999999999994
 31
0.0
  0
LINE
  5
2F9
  8
LAYER0002
  6
CONTINUOUS
 62
     4
 10
12.00000000000001
 20
-113.4999999999999
 30
0.0
 11
61.00000000000001
 21
-113.4999999999999
 31
0.0
  0
LINE
  5
2FA
  8
LAYER0002
  6
CONTINUOUS
 62
     4
 10
12.00000000000001
 20
-120.4999999999999
 30
0.0
 11
61.00000000000001
 21
-120.4999999999999
 31
0.0
  0
LINE
  5
2FB
  8
LAYER0002
  6
CONTINUOUS
 62
     4
 10
170.0
 20
-114.4999999999999
 30
0.0
 11
192.0
 21
-114.4999999999999
 31
0.0
  0
LINE
  5
2FC
  8
LAYER0002
  6
CONTINUOUS
 62
     4
 10
68.00000000000001
 20
-87.99999999999994
 30
0.0
 11
68.00000000000001
 21
-78.49999999999994
 31
0.0
  0
LINE
  5
2FD
  8
LAYER0002
  6
CONTINUOUS
 62
     4
 10
117.0
 20
-96.49999999999994
 30
0.0
 11
117.0
 21
-94.99999999999994
 31
0.0
  0
LINE
  5
2FE
  8
LAYER0002
  6
CONTINUOUS
 62
     4
 10
141.0
 20
-96.49999999999994
 30
0.0
 11
141.0
 21
-94.99999999999994
 31
0.0
  0
LINE
  5
2FF
  8
LAYER0002
  6
CONTINUOUS
 62
     4
 10
158.0
 20
-96.49999999999994
 30
0.0
 11
158.0
 21
-94.99999999999994
 31
0.0
  0
LINE
  5
300
  8
LAYER0002
  6
CONTINUOUS
 62
     4
 10
117.0
 20
-87.99999999999994
 30
0.0
 11
117.0
 21
-78.49999999999994
 31
0.0
  0
LINE
  5
301
  8
LAYER0002
  6
CONTINUOUS
 62
     4
 10
141.0
 20
-87.99999999999994
 30
0.0
 11
141.0
 21
-78.49999999999994
 31
0.0
  0
LINE
  5
302
  8
LAYER0002
  6
CONTINUOUS
 62
     4
 10
158.0
 20
-87.99999999999994
 30
0.0
 11
158.0
 21
-78.49999999999994
 31
0.0
  0
LINE
  5
303
  8
LAYER0002
  6
CONTINUOUS
 62
     4
 10
12.00000000000001
 20
-99.49999999999994
 30
0.0
 11
61.00000000000001
 21
-99.49999999999994
 31
0.0
  0
LINE
  5
304
  8
LAYER0002
  6
CONTINUOUS
 62
     4
 10
12.00000000000001
 20
-106.4999999999999
 30
0.0
 11
61.00000000000001
 21
-106.4999999999999
 31
0.0
  0
LINE
  5
305
  8
LAYER0002
  6
CONTINUOUS
 62
     4
 10
16.00000000000001
 20
-78.99999999999994
 30
0.0
 11
13.00000000000001
 21
-84.99999999999994
 31
0.0
  0
LINE
  5
306
  8
LAYER0002
  6
CONTINUOUS
 62
     4
 10
16.00000000000001
 20
-78.99999999999994
 30
0.0
 11
19.00000000000001
 21
-84.99999999999994
 31
0.0
  0
LINE
  5
307
  8
LAYER0002
  6
CONTINUOUS
 62
     4
 10
13.00000000000001
 20
-84.99999999999994
 30
0.0
 11
19.00000000000001
 21
-84.99999999999994
 31
0.0
  0
LINE
  5
308
  8
LAYER0002
  6
CONTINUOUS
 62
     4
 10
16.00000000000001
 20
-106.9999999999999
 30
0.0
 11
13.00000000000001
 21
-112.9999999999999
 31
0.0
  0
LINE
  5
309
  8
LAYER0002
  6
CONTINUOUS
 62
     4
 10
16.00000000000001
 20
-106.9999999999999
 30
0.0
 11
19.00000000000001
 21
-112.9999999999999
 31
0.0
  0
LINE
  5
30A
  8
LAYER0002
  6
CONTINUOUS
 62
     4
 10
13.00000000000001
 20
-112.9999999999999
 30
0.0
 11
19.00000000000001
 21
-112.9999999999999
 31
0.0
  0
LINE
  5
30B
  8
LAYER0002
  6
CONTINUOUS
 62
     4
 10
16.00000000000001
 20
-99.99999999999994
 30
0.0
 11
13.00000000000001
 21
-105.9999999999999
 31
0.0
  0
LINE
  5
30C
  8
LAYER0002
  6
CONTINUOUS
 62
     4
 10
16.00000000000001
 20
-99.99999999999994
 30
0.0
 11
19.00000000000001
 21
-105.9999999999999
 31
0.0
  0
LINE
  5
30D
  8
LAYER0002
  6
CONTINUOUS
 62
     4
 10
13.00000000000001
 20
-105.9999999999999
 30
0.0
 11
19.00000000000001
 21
-105.9999999999999
 31
0.0
  0
LINE
  5
30E
  8
LAYER0002
  6
CONTINUOUS
 62
     4
 10
16.00000000000001
 20
-92.99999999999994
 30
0.0
 11
13.00000000000001
 21
-98.99999999999994
 31
0.0
  0
LINE
  5
30F
  8
LAYER0002
  6
CONTINUOUS
 62
     4
 10
16.00000000000001
 20
-92.99999999999994
 30
0.0
 11
19.00000000000001
 21
-98.99999999999994
 31
0.0
  0
LINE
  5
310
  8
LAYER0002
  6
CONTINUOUS
 62
     4
 10
13.00000000000001
 20
-98.99999999999994
 30
0.0
 11
19.00000000000001
 21
-98.99999999999994
 31
0.0
  0
LINE
  5
311
  8
LAYER0002
  6
CONTINUOUS
 62
     4
 10
16.00000000000001
 20
-85.99999999999994
 30
0.0
 11
13.00000000000001
 21
-91.99999999999994
 31
0.0
  0
LINE
  5
312
  8
LAYER0002
  6
CONTINUOUS
 62
     4
 10
16.00000000000001
 20
-85.99999999999994
 30
0.0
 11
19.00000000000001
 21
-91.99999999999994
 31
0.0
  0
LINE
  5
313
  8
LAYER0002
  6
CONTINUOUS
 62
     4
 10
13.00000000000001
 20
-91.99999999999994
 30
0.0
 11
19.00000000000001
 21
-91.99999999999994
 31
0.0
  0
LINE
  5
314
  8
LAYER0002
  6
CONTINUOUS
 62
     4
 10
87.66666666666664
 20
-124.4999999999999
 30
0.0
 11
87.66666666666664
 21
-110.4999999999999
 31
0.0
  0
LINE
  5
315
  8
LAYER0002
  6
CONTINUOUS
 62
     4
 10
114.3333333333333
 20
-124.4999999999999
 30
0.0
 11
114.3333333333333
 21
-110.4509415757252
 31
0.0
  0
LINE
  5
316
  8
LAYER0002
  6
CONTINUOUS
 62
     4
 10
127.6666666666666
 20
-115.9999999999999
 30
0.0
 11
127.6666666666666
 21
-110.4509415757252
 31
0.0
  0
LINE
  5
317
  8
LAYER0002
  6
CONTINUOUS
 62
     4
 10
141.0
 20
-103.4999999999999
 30
0.0
 11
170.0
 21
-103.4999999999999
 31
0.0
  0
LINE
  5
318
  8
LAYER0002
  6
CONTINUOUS
 62
     4
 10
60.99999999999999
 20
-114.4999999999999
 30
0.0
 11
141.0
 21
-114.4999999999999
 31
0.0
  0
TEXT
  5
31A
  8
LAYER0002
 62
     7
 10
61.99375814747472
 20
-79.32118872895592
 30
0.0
 40
2.44248928
  1
符号
 41
0.8
  7
FDASTYLE0
  0
TEXT
  5
31B
  8
LAYER0002
 62
     7
 10
77.41413112190584
 20
-84.32455250199624
 30
0.0
 40
4.0
  1
品       名
 41
0.6192847442281576
  7
FDASTYLE1
 72
     5
 11
100.6992375048846
 21
-84.32455250199624
 31
0.0
  0
TEXT
  5
31C
  8
LAYER0002
 62
     7
 10
122.2331564413096
 20
-84.32455250199624
 30
0.0
 40
4.0
  1
材  料
 41
0.5950413223140494
  7
FDASTYLE1
 72
     5
 11
132.7058837140369
 21
-84.32455250199624
 31
0.0
  0
TEXT
  5
31D
  8
LAYER0002
 62
     7
 10
144.516061684855
 20
-84.32455250199624
 30
0.0
 40
4.0
  1
個 数
 41
0.5813148788927336
  7
FDASTYLE1
 72
     5
 11
152.4219440377962
 21
-84.32455250199624
 31
0.0
  0
TEXT
  5
31E
  8
LAYER0002
 62
     7
 10
160.721810952888
 20
-82.06490800505719
 30
0.0
 40
2.5
  1
単重量
 41
0.6666666666666666
  7
FDASTYLE1
 72
     5
 11
166.721810952888
 21
-82.06490800505719
 31
0.0
  0
TEXT
  5
31F
  8
LAYER0002
 62
     7
 10
159.7089516236359
 20
-85.86313048975242
 30
0.0
 40
2.5
  1
(kg)
 41
0.5333333333333343
  7
FDASTYLE1
 72
     5
 11
165.0422849569692
 21
-85.86313048975242
 31
0.0
  0
TEXT
  5
320
  8
LAYER0002
 62
     7
 10
174.1421970654778
 20
-84.32455250199624
 30
0.0
 40
4.0
  1
記  事
 41
0.5950413223140494
  7
FDASTYLE1
 72
     5
 11
184.6149243382051
 21
-84.32455250199624
 31
0.0
  0
TEXT
  5
321
  8
LAYER0002
 62
     7
 10
173.8450794551645
 20
-113.9873041997729
 30
0.0
 40
3.0
  1
コード番号
 41
0.6666666666666666
  7
FDASTYLE1
 72
     5
 11
185.8450794551645
 21
-113.9873041997729
 31
0.0
  0
TEXT
  5
322
  8
LAYER0002
 62
     7
 10
16.91199201583167
 20
-123.6879010540338
 30
0.0
 40
2.5
  1
訂 正 来 歴
 41
0.5890861275476661
  7
FDASTYLE1
 72
     5
 11
28.39917150301116
 21
-123.6879010540338
 31
0.0
  0
TEXT
  5
323
  8
LAYER0002
 62
     7
 10
40.89033484676499
 20
-123.7166697391651
 30
0.0
 40
2.5
  1
工 事 番 号
 41
0.5890861275476661
  7
FDASTYLE1
 72
     5
 11
52.37751433394448
 21
-123.7166697391651
 31
0.0
  0
TEXT
  5
324
  8
LAYER0002
 62
     7
 10
13.93400034660289
 20
-114.4634530565915
 30
0.0
 40
1.90819475
  1
記号
 41
0.8
  7
FDASTYLE0
  0
TEXT
  5
325
  8
LAYER0002
 62
     7
 10
19.87338740676183
 20
-114.4634530565915
 30
0.0
 40
1.90819475
  1
理由
 41
0.8
  7
FDASTYLE0
  0
TEXT
  5
326
  8
LAYER0002
 62
     7
 10
26.61936679098429
 20
-118.3786046700178
 30
0.0
 40
3.0
  1
日 付
 41
0.581314878892734
  7
FDASTYLE1
 72
     5
 11
32.54877855569018
 21
-118.3786046700178
 31
0.0
  0
TEXT
  5
327
  8
LAYER0002
 62
     7
 10
68.44816898196524
 20
-114.2187911464244
 30
0.0
 40
3.0
  1
承   認
 41
0.603566529492455
  7
FDASTYLE1
 72
     5
 11
78.22594675974301
 21
-114.2187911464244
 31
0.0
  0
TEXT
  5
328
  8
LAYER0002
 62
     7
 10
94.86322803323402
 20
-113.9873041997729
 30
0.0
 40
3.0
  1
検   図
 41
0.6035665294924559
  7
FDASTYLE1
 72
     5
 11
104.6410058110118
 21
-113.9873041997729
 31
0.0
  0
TEXT
  5
329
  8
LAYER0002
 62
     7
 10
116.4771920983751
 20
-113.9873041997729
 30
0.0
 40
3.0
  1
担  当
 41
0.5950413223140488
  7
FDASTYLE1
 72
     5
 11
124.3317375529205
 21
-113.9873041997729
 31
0.0
  0
TEXT
  5
32A
  8
LAYER0002
 62
     7
 10
129.6770574841112
 20
-113.9873041997729
 30
0.0
 40
3.0
  1
製  図
 41
0.5950413223140488
  7
FDASTYLE1
 72
     5
 11
137.5316029386567
 21
-113.9873041997729
 31
0.0
  0
TEXT
  5
32B
  8
LAYER0002
 62
     7
 10
141.9462372304199
 20
-101.7184960272417
 30
0.0
 40
3.0
  1
作図
 41
0.6666666666666683
  7
FDASTYLE1
 72
     5
 11
146.7462372304199
 21
-101.7184960272417
 31
0.0
  0
TEXT
  5
32C
  8
LAYER0002
 62
     7
 10
143.1036719636776
 20
-108.7371566401815
 30
0.0
 40
4.0
  1
第 三 角 法
 41
0.5890861275476667
  7
FDASTYLE1
 72
     5
 11
161.4831591431648
 21
-108.7371566401815
 31
0.0
  0
TEXT
  5
32D
  8
LAYER0002
 62
     7
 10
142.409211123723
 20
-114.913251986379
 30
0.0
 40
3.0
  1
尺度
 41
0.6666666666666683
  7
FDASTYLE1
 72
     5
 11
147.209211123723
 21
-114.913251986379
 31
0.0
  0
TEXT
  5
32F
  8
LAYER0002
 62
     3
 10
20.37915437003404
 20
-134.4272077185016
 30
0.0
 40
7.0
  1
株式会社 野村製作所
 41
0.5976394989045258
  7
FDASTYLE2
 72
     5
 11
76.26203335460063
 21
-134.4272077185016
 31
0.0
  0
TEXT
  5
331
  8
LAYER0002
 62
     3
 10
98.61182179341655
 20
-135.6216685584562
 30
0.0
 40
8.0
  1
３－
 41
0.7757790236225075
  7
FDASTYLE3
 72
     5
 11
112.6068753795666
 21
-135.6216685584562
 31
0.0
  0
TEXT
  5
332
  8
LAYER0002
 62
     3
 10
115.5237794178233
 20
-135.6216685584562
 30
0.0
 40
8.0
  1
9305020
 41
1.369057267456815
  7
FDASTYLE3
 72
     5
 11
170.7022635254028
 21
-135.6216685584562
 31
0.0
  0
TEXT
  5
333
  8
LAYER0002
 62
     6
 10
145.7056952989098
 20
-93.7216474852281
 30
0.0
 40
3.2
  1
一式
 41
0.7610475333317454
  7
FDASTYLE1
 72
     5
 11
151.5505403548976
 21
-93.7216474852281
 31
0.0
  0
TEXT
  5
334
  8
LAYER0002
 62
     6
 10
81.89523347633649
 20
-93.85890002285609
 30
0.0
 40
5.0
  1
外　形　図
 41
0.5833333333333334
  7
FDASTYLE1
 72
     5
 11
99.39523347633649
 21
-93.85890002285609
 31
0.0
  0
TEXT
  5
335
  8
LAYER0002
 62
     4
 10
151.8208864698005
 20
-120.3093119866973
 30
0.0
 40
4.0
  1
1/1
 41
0.596825396825397
  7
FDASTYLE1
 72
     5
 11
158.9827912317053
 21
-120.3093119866973
 31
0.0
  0
TEXT
  5
336
  8
0
 62
     6
 10
64.86815394284068
 20
-102.7072071313602
 30
0.0
 40
5.0
  1
日鋼プﾚｼジｫﾝ
 41
0.7022784772698426
  7
FDASTYLE1
 72
     5
 11
95.76840694271375
 21
-102.7072071313602
 31
0.0
  0
TEXT
  5
337
  8
0
 62
     6
 10
64.66736284309491
 20
-109.5473278366374
 30
0.0
 40
5.0
  1
  ＨＦ3-5型チャック
 41
0.6908119388904032
  7
FDASTYLE1
 72
     5
 11
110.9517627487519
 21
-109.5473278366374
 31
0.0
  0
TEXT
  5
338
  8
0
 62
     6
 10
-58.95573634854136
 20
-127.0746323185574
 30
0.0
 40
2.799999952316284
  1
5 kg
 41
0.6372551064865685
  7
FDASTYLE1
 72
     5
 11
-51.81847927743856
 21
-127.0746323185574
 31
0.0
  0
TEXT
  5
339
  8
0
 62
     6
 10
-138.6572973226624
 20
-104.97359624678
 30
0.0
 40
2.799999952316284
  1
許容シリンダ力
 41
0.6638419901966608
  7
FDASTYLE1
 72
     5
 11
-123.0437339791343
 21
-104.97359624678
 31
0.0
  0
TEXT
  5
33A
  8
0
 62
     6
 10
-138.6572973226624
 20
-110.5735947209011
 30
0.0
 40
2.799999952316284
  1
最大静的把握力
 41
0.6638419901966608
  7
FDASTYLE1
 72
     5
 11
-123.0437339791343
 21
-110.5735947209011
 31
0.0
  0
TEXT
  5
33B
  8
0
 62
     6
 10
-138.6572973226624
 20
-116.1735931950222
 30
0.0
 40
2.799999952316284
  1
最高使用回転速度
 41
0.6650248111247892
  7
FDASTYLE1
 72
     5
 11
-120.7814307040523
 21
-116.1735931950222
 31
0.0
  0
TEXT
  5
33C
  8
0
 62
     6
 10
-138.6572973226624
 20
-132.97359624678
 30
0.0
 40
2.799999952316284
  1
アンバランス量
 41
0.6638419901966608
  7
FDASTYLE1
 72
     5
 11
-123.0437339791343
 21
-132.97359624678
 31
0.0
  0
TEXT
  5
33D
  8
0
 62
     6
 10
-138.6572973226624
 20
-121.7735916691433
 30
0.0
 40
2.799999952316284
  1
慣性モーメント
 41
0.6638419901966608
  7
FDASTYLE1
 72
     5
 11
-123.0437339791343
 21
-121.7735916691433
 31
0.0
  0
TEXT
  5
33E
  8
0
 62
     6
 10
-138.6572973226624
 20
-99.37359777265891
 30
0.0
 40
2.799999952316284
  1
推奨シリンダ
 41
0.6622518402190175
  7
FDASTYLE1
 72
     5
 11
-125.3063004512131
 21
-99.37359777265891
 31
0.0
  0
TEXT
  5
33F
  8
0
 62
     6
 10
-81.82896632901012
 20
-132.6578613834988
 30
0.0
 40
2.799999952316284
  1
外周ﾆﾃ   3 g以内
 41
0.6078924988062128
  7
FDASTYLE1
 72
     5
 11
-60.04209954282359
 21
-132.6578613834988
 31
0.0
  0
TEXT
  5
340
  8
0
 62
     6
 10
-116.1111298812328
 20
-104.9320221262585
 30
0.0
 40
2.099999904632568
  1
(46TS-TA1型使用油圧力 1.6MPa時)
 41
0.6069880339831953
  7
FDASTYLE1
 72
     5
 11
-83.73438961889617
 21
-104.9320221262585
 31
0.0
  0
TEXT
  5
341
  8
0
 62
     6
 10
-138.6572973226624
 20
-127.3735977726589
 30
0.0
 40
2.799999952316284
  1
質 量
 41
0.6064752970856043
  7
FDASTYLE1
 72
     5
 11
-132.883652592732
 21
-127.3735977726589
 31
0.0
  0
TEXT
  5
342
  8
0
 62
     6
 10
-138.6572973226624
 20
-93.77359166914329
 30
0.0
 40
2.799999952316284
  1
ピストンストローク
 41
0.6659390438997073
  7
FDASTYLE1
 72
     5
 11
-118.5193009780833
 21
-93.77359166914329
 31
0.0
  0
TEXT
  5
343
  8
0
 62
     6
 10
-138.6572973226624
 20
-88.17359319502219
 30
0.0
 40
2.799999952316284
  1
爪ﾉｽﾄﾛｰｸ
 41
0.6268397573852196
  7
FDASTYLE1
 72
     5
 11
-126.0202080289847
 21
-88.17359319502219
 31
0.0
  0
TEXT
  5
344
  8
0
 62
     6
 10
-138.6572973226624
 20
-82.5735947209011
 30
0.0
 40
2.799999952316284
  1
仕 様
 41
0.6064752970856043
  7
FDASTYLE1
 72
     5
 11
-132.883652592732
 21
-82.5735947209011
 31
0.0
  0
TEXT
  5
345
  8
0
 62
     6
 10
-67.32219142666637
 20
-110.3249451237331
 30
0.0
 40
2.799999952316284
  1
27.5 kN
 41
0.6446974192402873
  7
FDASTYLE1
 72
     5
 11
-54.68612222474771
 21
-110.3249451237331
 31
0.0
  0
TEXT
  5
346
  8
0
 62
     6
 10
-64.89917201748668
 20
-104.7417160587917
 30
0.0
 40
2.799999952316284
  1
7.5 kN
 41
0.6288158223439265
  7
FDASTYLE1
 72
     5
 11
-54.33506638201436
 21
-104.7417160587917
 31
0.0
  0
TEXT
  5
347
  8
0
 62
     6
 10
-78.62627501935951
 20
-99.15848699385032
 30
0.0
 40
2.799999952316284
  1
46ＴＳ-ＴＡ1  型
 41
0.6004903547563526
  7
FDASTYLE1
 72
     5
 11
-58.4497994431494
 21
-99.15848699385032
 31
0.0
  0
TEXT
  5
348
  8
0
 62
     6
 10
-81.6488592123109
 20
-87.99202886396751
 30
0.0
 40
2.799999952316284
  1
(直径ﾆﾃ)  5 mm
 41
0.6191858645849813
  7
FDASTYLE1
 72
     5
 11
-60.15072636003137
 21
-87.99202886396751
 31
0.0
  0
TEXT
  5
349
  8
0
 62
     6
 10
-62.01750392666636
 20
-93.57525792890891
 30
0.0
 40
2.799999952316284
  1
20 mm
 41
0.8332228521066002
  7
FDASTYLE1
 72
     5
 11
-50.35238419582976
 21
-93.57525792890891
 31
0.0
  0
TEXT
  5
34A
  8
0
 62
     6
 10
-76.06563014736949
 20
-121.4913956242214
 30
0.0
 40
2.799999952316284
  1
0.015 kg・m
 41
0.6254769070131454
  7
FDASTYLE1
 72
     5
 11
-58.2020099872897
 21
-121.4913956242214
 31
0.0
  0
TEXT
  5
34B
  8
0
 62
     6
 10
-48.26562921157656
 20
-119.7413955944191
 30
0.0
 40
1.399999976158142
  1
2
 41
0.4761907113652691
  7
FDASTYLE1
 72
     5
 11
-47.59896222701845
 21
-119.7413955944191
 31
0.0
  0
TEXT
  5
34C
  8
0
 62
     6
 10
-70.12219447842418
 20
-115.9081818180691
 30
0.0
 40
2.799999952316284
  1
7000 min
 41
0.6933675559837248
  7
FDASTYLE1
 72
     5
 11
-54.59076148888747
 21
-115.9081818180691
 31
0.0
  0
TEXT
  5
34D
  8
0
 62
     6
 10
-47.92219368568239
 20
-114.1581817882668
 30
0.0
 40
1.399999976158142
  1
-1
 41
0.5892859301530148
  7
FDASTYLE1
 72
     5
 11
-46.27219310935329
 21
-114.1581817882668
 31
0.0
  0
LINE
  5
34E
  8
0
  6
CONTINUOUS
 62
     6
 10
-140.4572998975831
 20
-122.9402573423992
 30
0.0
 11
-46.06886453381357
 21
-122.9402573423992
 31
0.0
  0
LINE
  5
34F
  8
0
  6
CONTINUOUS
 62
     6
 10
-140.4572998975831
 20
-128.5402558165203
 30
0.0
 11
-46.06886453381357
 21
-128.5402558165203
 31
0.0
  0
LINE
  5
350
  8
0
  6
CONTINUOUS
 62
     6
 10
-140.4572998975831
 20
-134.1402619200359
 30
0.0
 11
-46.06886453381357
 21
-134.1402619200359
 31
0.0
  0
LINE
  5
351
  8
0
  6
CONTINUOUS
 62
     6
 10
-140.4572998975831
 20
-117.3402512388836
 30
0.0
 11
-46.06886453381357
 21
-117.3402512388836
 31
0.0
  0
LINE
  5
352
  8
0
  6
CONTINUOUS
 62
     6
 10
-140.4572998975831
 20
-89.34025123888358
 30
0.0
 11
-46.06886453381357
 21
-89.34025123888358
 31
0.0
  0
LINE
  5
353
  8
0
  6
CONTINUOUS
 62
     6
 10
-140.4572998975831
 20
-94.94025734239921
 30
0.0
 11
-46.06886453381357
 21
-94.94025734239921
 31
0.0
  0
LINE
  5
354
  8
0
  6
CONTINUOUS
 62
     6
 10
-140.4572998975831
 20
-100.5402558165203
 30
0.0
 11
-46.06886453381357
 21
-100.5402558165203
 31
0.0
  0
LINE
  5
355
  8
0
  6
CONTINUOUS
 62
     6
 10
-140.4572998975831
 20
-111.7402527647625
 30
0.0
 11
-46.06886453381357
 21
-111.7402527647625
 31
0.0
  0
LINE
  5
356
  8
0
  6
CONTINUOUS
 62
     6
 10
-140.4572998975831
 20
-106.1402542906414
 30
0.0
 11
-46.06886453381357
 21
-106.1402542906414
 31
0.0
  0
LINE
  5
357
  8
0
  6
CONTINUOUS
 62
     6
 10
-140.4572998975831
 20
-83.74025276476249
 30
0.0
 11
-129.2572876905518
 21
-83.74025276476249
 31
0.0
  0
LINE
  5
358
  8
0
  6
CONTINUOUS
 62
     3
 10
-113.8037651450364
 20
101.1969980534711
 30
0.0
 11
-113.8037651450364
 21
0.4220003422894934
 31
0.0
  0
LINE
  5
359
  8
0
  6
CONTINUOUS
 62
     3
 10
-53.80376514503637
 20
99.69699805347113
 30
0.0
 11
-53.80376514503637
 21
96.19699805347113
 31
0.0
  0
LINE
  5
35A
  8
0
  6
CONTINUOUS
 62
     3
 10
-113.8037651450364
 20
101.1969904240766
 30
0.0
 11
-97.80376514503638
 21
101.1969904240766
 31
0.0
  0
LINE
  5
35B
  8
0
  6
CONTINUOUS
 62
     3
 10
-113.8037651450364
 20
-28.80299431713434
 30
0.0
 11
-55.30376514503637
 21
-28.80299431713434
 31
0.0
  0
LINE
  5
35C
  8
0
  6
CONTINUOUS
 62
     3
 10
-54.80377123363342
 20
100.697044801665
 30
0.0
 11
-53.80375938245089
 21
99.69703295048248
 31
0.0
  0
LINE
  5
35D
  8
0
  6
CONTINUOUS
 62
     3
 10
-53.80377084639348
 20
-27.30299869590073
 30
0.0
 11
-55.30377243877774
 21
-28.80300028828498
 31
0.0
  0
LINE
  5
35E
  8
0
  6
CONTINUOUS
 62
     3
 10
-109.6037681967942
 20
91.19699805347113
 30
0.0
 11
-109.6037681967942
 21
-0.0779996577105067
 31
0.0
  0
LINE
  5
35F
  8
0
  6
CONTINUOUS
 62
     3
 10
-97.80376514503638
 20
101.1969980534711
 30
0.0
 11
-97.80376514503638
 21
84.38846944339585
 31
0.0
  0
LINE
  5
360
  8
0
  6
CONTINUOUS
 62
     3
 10
-113.8037651450364
 20
-18.80299431713434
 30
0.0
 11
-109.6037681967942
 21
-18.80299431713434
 31
0.0
  0
LINE
  5
361
  8
0
  6
CONTINUOUS
 62
     3
 10
-113.8037651450364
 20
91.1969904240766
 30
0.0
 11
-109.6037681967942
 21
91.1969904240766
 31
0.0
  0
LINE
  5
362
  8
0
  6
CONTINUOUS
 62
     3
 10
-56.30376514503637
 20
11.19700568286567
 30
0.0
 11
-53.80376514503637
 21
11.19700568286567
 31
0.0
  0
LINE
  5
363
  8
0
  6
CONTINUOUS
 62
     3
 10
-79.40376361915747
 20
8.197005682865665
 30
0.0
 11
-74.40376361915747
 21
8.197005682865665
 31
0.0
  0
LINE
  5
364
  8
0
  6
CONTINUOUS
 62
     3
 10
-74.40376361915747
 20
66.19700568286567
 30
0.0
 11
-74.40376361915747
 21
59.1970018681684
 31
0.0
  0
LINE
  5
365
  8
0
  6
CONTINUOUS
 62
     3
 10
-79.40376361915747
 20
64.19700568286567
 30
0.0
 11
-79.40376361915747
 21
59.1970018681684
 31
0.0
  0
LINE
  5
366
  8
0
  6
CONTINUOUS
 62
     3
 10
-79.40376361915747
 20
13.19700091449408
 30
0.0
 11
-79.40376361915747
 21
8.197000914494083
 31
0.0
  0
LINE
  5
367
  8
0
  6
CONTINUOUS
 62
     3
 10
-74.40376361915747
 20
13.19700091449408
 30
0.0
 11
-74.40376361915747
 21
8.197000914494083
 31
0.0
  0
LINE
  5
368
  8
0
  6
CONTINUOUS
 62
     3
 10
-56.30376514503637
 20
57.2386278447309
 30
0.0
 11
-56.30376514503637
 21
11.19700091449408
 31
0.0
  0
LINE
  5
369
  8
0
  6
CONTINUOUS
 62
     3
 10
-56.30376514503637
 20
57.2386164006391
 30
0.0
 11
-53.80376514503637
 21
57.2386164006391
 31
0.0
  0
LINE
  5
36A
  8
0
  6
CONTINUOUS
 62
     3
 10
-66.93962177345435
 20
54.81823676196723
 30
0.0
 11
-56.30376514503637
 21
54.81823676196723
 31
0.0
  0
LINE
  5
36B
  8
0
  6
CONTINUOUS
 62
     3
 10
-64.80376514503638
 20
3.422000342289493
 30
0.0
 11
-64.80376514503638
 21
-13.57799965771051
 31
0.0
  0
LINE
  5
36C
  8
0
  6
CONTINUOUS
 62
     3
 10
-109.6037681967942
 20
0.4219965275922277
 30
0.0
 11
-64.80376514503638
 21
0.4219965275922277
 31
0.0
  0
LINE
  5
36D
  8
0
  6
CONTINUOUS
 62
     3
 10
-109.6037681967942
 20
-10.57800347240777
 30
0.0
 11
-64.80376514503638
 21
-10.57800347240777
 31
0.0
  0
LINE
  5
36E
  8
0
  6
CONTINUOUS
 62
     3
 10
-64.80376514503638
 20
-13.57800347240777
 30
0.0
 11
-53.80376514503637
 21
-13.57800347240777
 31
0.0
  0
LINE
  5
36F
  8
0
  6
CONTINUOUS
 62
     3
 10
-64.80376514503638
 20
3.421996527592228
 30
0.0
 11
-53.80376514503637
 21
3.421996527592228
 31
0.0
  0
LINE
  5
370
  8
0
  6
CONTINUOUS
 62
     3
 10
-109.6037681967942
 20
59.19702094165473
 30
0.0
 11
-67.43964466163794
 21
59.19702094165473
 31
0.0
  0
LINE
  5
371
  8
0
  6
CONTINUOUS
 62
     3
 10
-102.9396141440598
 20
58.69700568286567
 30
0.0
 11
-102.9396141440598
 21
13.69700091449408
 31
0.0
  0
LINE
  5
372
  8
0
  6
CONTINUOUS
 62
     3
 10
-66.93962177345435
 20
58.6970018681684
 30
0.0
 11
-66.93962177345435
 21
13.69700091449408
 31
0.0
  0
LINE
  5
373
  8
0
  6
CONTINUOUS
 62
     3
 10
-102.4396085201193
 20
59.19699880049302
 30
0.0
 11
-102.9396109475243
 21
58.6970001663085
 31
0.0
  0
LINE
  5
374
  8
0
  6
CONTINUOUS
 62
     3
 10
-102.9396065208658
 20
13.69701987833491
 30
0.0
 11
-102.4396167796641
 21
13.1970301371332
 31
0.0
  0
LINE
  5
375
  8
0
  6
CONTINUOUS
 62
     3
 10
-66.93961550811326
 20
13.69699964784797
 30
0.0
 11
-67.43961603890801
 21
13.19699911705322
 31
0.0
  0
LINE
  5
376
  8
0
  6
CONTINUOUS
 62
     3
 10
-66.93961563459371
 20
58.69699478185578
 30
0.0
 11
-67.43961570177262
 21
59.19699577626636
 31
0.0
  0
LINE
  5
377
  8
0
  6
CONTINUOUS
 62
     3
 10
-79.40376361915747
 20
64.19702094165473
 30
0.0
 11
-74.40376361915747
 21
64.19702094165473
 31
0.0
  0
LINE
  5
378
  8
0
  6
CONTINUOUS
 62
     3
 10
-79.80376514503638
 20
66.19702094165473
 30
0.0
 11
-74.40376361915747
 21
66.19702094165473
 31
0.0
  0
LINE
  5
379
  8
0
  6
CONTINUOUS
 62
     3
 10
-102.9396141440598
 20
48.84698432056098
 30
0.0
 11
-82.93962177345435
 21
48.84698432056098
 31
0.0
  0
LINE
  5
37A
  8
0
  6
CONTINUOUS
 62
     3
 10
-102.9396141440598
 20
23.54699652759223
 30
0.0
 11
-82.93962177345435
 21
23.54699652759223
 31
0.0
  0
LINE
  5
37B
  8
0
  6
CONTINUOUS
 62
     3
 10
-82.93962177345435
 20
18.19700568286567
 30
0.0
 11
-75.93962177345435
 21
18.19700568286567
 31
0.0
  0
LINE
  5
37C
  8
0
  6
CONTINUOUS
 62
     3
 10
-82.93962177345435
 20
54.1969904240766
 30
0.0
 11
-75.93962177345435
 21
54.1969904240766
 31
0.0
  0
LINE
  5
37D
  8
0
  6
CONTINUOUS
 62
     3
 10
-75.93962177345435
 20
15.94700568286567
 30
0.0
 11
-74.43962177345435
 21
15.94700568286567
 31
0.0
  0
LINE
  5
37E
  8
0
  6
CONTINUOUS
 62
     3
 10
-75.93962177345435
 20
56.4469904240766
 30
0.0
 11
-74.43962177345435
 21
56.4469904240766
 31
0.0
  0
LINE
  5
37F
  8
0
  6
CONTINUOUS
 62
     3
 10
-82.93961414405982
 20
54.1970018681684
 30
0.0
 11
-82.93961414405982
 21
18.1970018681684
 31
0.0
  0
LINE
  5
380
  8
0
  6
CONTINUOUS
 62
     3
 10
-75.93962177345435
 20
56.4470018681684
 30
0.0
 11
-75.93962177345435
 21
29.80301802722602
 31
0.0
  0
LINE
  5
381
  8
0
  6
CONTINUOUS
 62
     3
 10
-74.43962177345435
 20
56.4470018681684
 30
0.0
 11
-74.43962177345435
 21
56.1970018681684
 31
0.0
  0
LINE
  5
382
  8
0
  6
CONTINUOUS
 62
     3
 10
-74.93962177345435
 20
56.1969904240766
 30
0.0
 11
-66.93962177345435
 21
56.1969904240766
 31
0.0
  0
LINE
  5
383
  8
0
  6
CONTINUOUS
 62
     3
 10
-74.93962177345435
 20
16.19700568286567
 30
0.0
 11
-66.93962177345435
 21
16.19700568286567
 31
0.0
  0
LINE
  5
384
  8
0
  6
CONTINUOUS
 62
     3
 10
-109.6037681967942
 20
13.19700568286567
 30
0.0
 11
-56.30376514503637
 21
13.19700568286567
 31
0.0
  0
LINE
  5
385
  8
0
  6
CONTINUOUS
 62
     3
 10
-74.93962177345435
 20
56.1969904240766
 30
0.0
 11
-74.93962177345435
 21
16.1970018681684
 31
0.0
  0
LINE
  5
386
  8
0
  6
CONTINUOUS
 62
     3
 10
-74.43962177345435
 20
16.1970018681684
 30
0.0
 11
-74.43962177345435
 21
15.9470018681684
 31
0.0
  0
LINE
  5
387
  8
0
  6
CONTINUOUS
 62
     3
 10
-79.40378859821016
 20
60.92904381892424
 30
0.0
 11
-78.40378847900087
 21
59.19699304244261
 31
0.0
  0
LINE
  5
388
  8
0
  6
CONTINUOUS
 62
     3
 10
-79.4037826089355
 20
11.4649527901579
 30
0.0
 11
-78.40378248972621
 21
13.19700356663952
 31
0.0
  0
LINE
  5
389
  8
0
  6
CONTINUOUS
 62
     3
 10
-74.93962177345435
 20
49.6969904240766
 30
0.0
 11
-66.93962177345435
 21
49.6969904240766
 31
0.0
  0
LINE
  5
38A
  8
0
  6
CONTINUOUS
 62
     3
 10
-74.93962177345435
 20
54.6969904240766
 30
0.0
 11
-66.93962177345435
 21
54.6969904240766
 31
0.0
  0
LINE
  5
38B
  8
0
  6
CONTINUOUS
 62
     3
 10
-74.93962177345435
 20
23.54699652759223
 30
0.0
 11
-66.93962177345435
 21
23.54699652759223
 31
0.0
  0
LINE
  5
38C
  8
0
  6
CONTINUOUS
 62
     3
 10
-74.93962177345435
 20
48.84698432056098
 30
0.0
 11
-66.93962177345435
 21
48.84698432056098
 31
0.0
  0
LINE
  5
38D
  8
0
  6
CONTINUOUS
 62
     3
 10
-79.80376514503638
 20
72.19700568286567
 30
0.0
 11
-79.80376514503638
 21
59.1970018681684
 31
0.0
  0
LINE
  5
38E
  8
0
  6
CONTINUOUS
 62
     3
 10
-68.00376209327857
 20
62.19699805347113
 30
0.0
 11
-68.00376209327857
 21
59.1970018681684
 31
0.0
  0
LINE
  5
38F
  8
0
  6
CONTINUOUS
 62
     3
 10
-68.00376209327857
 20
62.1969904240766
 30
0.0
 11
-54.80376514503637
 21
62.1969904240766
 31
0.0
  0
LINE
  5
390
  8
0
  6
CONTINUOUS
 62
     3
 10
-74.40376361915747
 20
61.19702094165473
 30
0.0
 11
-68.00376209327857
 21
61.19702094165473
 31
0.0
  0
LINE
  5
391
  8
0
  6
CONTINUOUS
 62
     3
 10
-61.80376514503637
 20
101.1969980534711
 30
0.0
 11
-61.80376514503637
 21
96.19699805347113
 31
0.0
  0
LINE
  5
392
  8
0
  6
CONTINUOUS
 62
     3
 10
-68.80376514503638
 20
101.1969980534711
 30
0.0
 11
-68.80376514503638
 21
61.1970018681684
 31
0.0
  0
LINE
  5
393
  8
0
  6
CONTINUOUS
 62
     3
 10
-97.80376514503638
 20
101.1969904240766
 30
0.0
 11
-54.80376514503637
 21
101.1969904240766
 31
0.0
  0
LINE
  5
394
  8
0
  6
CONTINUOUS
 62
     3
 10
-67.80376514503638
 20
96.19699805347113
 30
0.0
 11
-67.80376514503638
 21
65.1969904240766
 31
0.0
  0
LINE
  5
395
  8
0
  6
CONTINUOUS
 62
     3
 10
-61.80376514503637
 20
65.19699805347113
 30
0.0
 11
-61.80376514503637
 21
62.19699805347113
 31
0.0
  0
LINE
  5
396
  8
0
  6
CONTINUOUS
 62
     3
 10
-53.80376514503637
 20
65.19699805347113
 30
0.0
 11
-53.80376514503637
 21
-27.3029981318316
 31
0.0
  0
LINE
  5
397
  8
0
  6
CONTINUOUS
 62
     3
 10
-64.80376514503638
 20
76.19699805347113
 30
0.0
 11
-64.80376514503638
 21
68.19699805347113
 31
0.0
  0
LINE
  5
398
  8
0
  6
CONTINUOUS
 62
     3
 10
-64.80376514503638
 20
93.19699805347113
 30
0.0
 11
-64.80376514503638
 21
85.19699805347113
 31
0.0
  0
LINE
  5
399
  8
0
  6
CONTINUOUS
 62
     3
 10
-54.80376514503637
 20
2.922000342289493
 30
0.0
 11
-54.80376514503637
 21
-13.07799965771051
 31
0.0
  0
LINE
  5
39A
  8
0
  6
CONTINUOUS
 62
     3
 10
-124.8037651450364
 20
-0.0779996577105067
 30
0.0
 11
-124.8037651450364
 21
-10.07799965771051
 31
0.0
  0
LINE
  5
39B
  8
0
  6
CONTINUOUS
 62
     3
 10
-124.8037651450364
 20
-10.07800347240777
 30
0.0
 11
-64.80376514503638
 21
-10.07800347240777
 31
0.0
  0
LINE
  5
39C
  8
0
  6
CONTINUOUS
 62
     3
 10
-124.8037651450364
 20
-0.0780034724077723
 30
0.0
 11
-64.80376514503638
 21
-0.0780034724077723
 31
0.0
  0
LINE
  5
39D
  8
0
  6
CONTINUOUS
 62
     3
 10
-124.8037651450364
 20
-0.8779912653765223
 30
0.0
 11
-92.80376514503638
 21
-0.8779912653765223
 31
0.0
  0
LINE
  5
39E
  8
0
  6
CONTINUOUS
 62
     3
 10
-124.8037651450364
 20
-9.27800042064996
 30
0.0
 11
-92.80376514503638
 21
-9.27800042064996
 31
0.0
  0
LINE
  5
39F
  8
0
  6
CONTINUOUS
 62
     3
 10
-92.80376514503638
 20
-0.0779996577105067
 30
0.0
 11
-92.80376514503638
 21
-10.07799965771051
 31
0.0
  0
LINE
  5
3A0
  8
0
  6
CONTINUOUS
 62
     3
 10
-64.80376514503638
 20
2.921996527592228
 30
0.0
 11
-54.80376514503637
 21
2.921996527592228
 31
0.0
  0
LINE
  5
3A1
  8
0
  6
CONTINUOUS
 62
     3
 10
-64.80376514503638
 20
-13.07800347240777
 30
0.0
 11
-54.80376514503637
 21
-13.07800347240777
 31
0.0
  0
LINE
  5
3A2
  8
0
  6
CONTINUOUS
 62
     3
 10
-113.8037651450364
 20
-10.57799965771051
 30
0.0
 11
-113.8037651450364
 21
-28.8029981318316
 31
0.0
  0
LINE
  5
3A3
  8
0
  6
CONTINUOUS
 62
     3
 10
-109.6037681967942
 20
-10.07799965771051
 30
0.0
 11
-109.6037681967942
 21
-18.8029981318316
 31
0.0
  0
LINE
  5
3A4
  8
0
  6
CONTINUOUS
 62
     3
 10
-75.93962177345435
 20
26.2918562230268
 30
0.0
 11
-75.93962177345435
 21
15.9470018681684
 31
0.0
  0
LINE
  5
3A5
  8
0
  6
CONTINUOUS
 62
     3
 10
-70.93962177345435
 20
54.6969904240766
 30
0.0
 11
-70.93962177345435
 21
49.6969904240766
 31
0.0
  0
LINE
  5
3A6
  8
0
  6
CONTINUOUS
 62
     3
 10
-66.93962177345435
 20
56.1969904240766
 30
0.0
 11
-66.93962177345435
 21
16.1970018681684
 31
0.0
  0
LINE
  5
3A7
  8
0
  6
CONTINUOUS
 62
     3
 10
35.63277745373809
 20
15.38834104926832
 30
0.0
 11
75.79795836448058
 21
38.57771649812844
 31
0.0
  0
LINE
  5
3A8
  8
0
  6
CONTINUOUS
 62
     3
 10
49.13276486508714
 20
-7.99435614967183
 30
0.0
 11
89.29798541932853
 21
15.19504218737052
 31
0.0
  0
LINE
  5
3A9
  8
0
  6
CONTINUOUS
 62
     3
 10
121.5508891424831
 20
38.57776427445469
 30
0.0
 11
161.7161030894746
 21
15.38836975210938
 31
0.0
  0
LINE
  5
3AA
  8
0
  6
CONTINUOUS
 62
     3
 10
108.0508691032521
 20
15.19507159752175
 30
0.0
 11
148.2160962647433
 21
-7.99433055421764
 31
0.0
  0
LINE
  5
3AB
  8
0
  6
CONTINUOUS
 62
     3
 10
143.7646230180584
 20
-10.62043277059706
 30
0.0
 11
144.9218431797821
 21
-11.28855406866455
 31
0.0
  0
LINE
  5
3AC
  8
0
  6
CONTINUOUS
 62
     3
 10
34.42699514806685
 20
19.8883320344296
 30
0.0
 11
35.58421530979052
 21
20.55645333249709
 31
0.0
  0
LINE
  5
3AD
  8
0
  6
CONTINUOUS
 62
     3
 10
52.42699901350311
 20
-11.2885773826381
 30
0.0
 11
53.58421917522678
 21
-10.62045608457061
 31
0.0
  0
LINE
  5
3AE
  8
0
  6
CONTINUOUS
 62
     3
 10
116.6744186046512
 20
99.99122565356879
 30
0.0
 11
116.6744186046512
 21
98.65498297778754
 31
0.0
  0
LINE
  5
3AF
  8
0
  6
CONTINUOUS
 62
     3
 10
80.67441860465117
 20
99.99122565356879
 30
0.0
 11
80.67441860465117
 21
98.65499060718207
 31
0.0
  0
LINE
  5
3B0
  8
0
  6
CONTINUOUS
 62
     3
 10
85.17441860465117
 20
101.1969904240766
 30
0.0
 11
112.1744186046512
 21
101.1969904240766
 31
0.0
  0
LINE
  5
3B1
  8
0
  6
CONTINUOUS
 62
     3
 10
35.632784115923
 20
15.38835374711209
 30
0.0
 11
49.13278477157398
 21
-7.994330083577552
 31
0.0
  0
LINE
  5
3B2
  8
0
  6
CONTINUOUS
 62
     3
 10
148.2161112333328
 20
-7.994348181445503
 30
0.0
 11
161.7161166573559
 21
15.38834390830584
 31
0.0
  0
LINE
  5
3B3
  8
0
  6
CONTINUOUS
 62
     3
 10
80.6744330958192
 20
99.99118319350464
 30
0.0
 11
85.17442759519342
 21
101.1969529568214
 31
0.0
  0
LINE
  5
3B4
  8
0
  6
CONTINUOUS
 62
     3
 10
112.1744059554418
 20
101.1969489111039
 30
0.0
 11
116.6744078242452
 21
99.99117717315471
 31
0.0
  0
LINE
  5
3B5
  8
0
  6
CONTINUOUS
 62
     3
 10
161.7160800758141
 20
15.38834566498986
 30
0.0
 11
162.9218501168132
 21
19.88834016436408
 31
0.0
  0
LINE
  5
3B6
  8
0
  6
CONTINUOUS
 62
     3
 10
34.42698511469101
 20
19.88834758735999
 30
0.0
 11
35.63275663666477
 21
15.38834756091393
 31
0.0
  0
LINE
  5
3B7
  8
0
  6
CONTINUOUS
 62
     3
 10
144.9218749058936
 20
-11.28861488844973
 30
0.0
 11
148.2161105703862
 21
-7.994379501640424
 31
0.0
  0
LINE
  5
3B8
  8
0
  6
CONTINUOUS
 62
     3
 10
49.132781940676
 20
-7.99433820578156
 30
0.0
 11
52.42701760516859
 21
-11.28857359259087
 31
0.0
  0
LINE
  5
3B9
  8
0
  6
CONTINUOUS
 62
     3
 10
69.40777572206223
 20
34.88834590528268
 30
0.0
 11
73.40778001359711
 21
27.9601361921068
 31
0.0
  0
LINE
  5
3BA
  8
0
  6
CONTINUOUS
 62
     3
 10
114.44111169214
 20
11.50566837978045
 30
0.0
 11
118.4411045395818
 21
18.43385827120824
 31
0.0
  0
LINE
  5
3BB
  8
0
  6
CONTINUOUS
 62
     3
 10
39.63277108490682
 20
8.460132825901383
 30
0.0
 11
47.02507450197616
 21
12.72808072214662
 31
0.0
  0
LINE
  5
3BC
  8
0
  6
CONTINUOUS
 62
     3
 10
45.13277545698257
 20
-1.06613998207672
 30
0.0
 11
52.5250722668021
 21
3.201804099471474
 31
0.0
  0
LINE
  5
3BD
  8
0
  6
CONTINUOUS
 62
     3
 10
118.4410997456547
 20
18.43386525900564
 30
0.0
 11
124.1013456597834
 21
15.1659211178528
 31
0.0
  0
LINE
  5
3BE
  8
0
  6
CONTINUOUS
 62
     3
 10
123.9410956031322
 20
27.96013857805588
 30
0.0
 11
129.6013547317604
 21
24.69218680750896
 31
0.0
  0
LINE
  5
3BF
  8
0
  6
CONTINUOUS
 62
     3
 10
115.9590450799703
 20
18.13482042038299
 30
0.0
 11
117.6910959756612
 21
17.13482047998764
 31
0.0
  0
LINE
  5
3C0
  8
0
  6
CONTINUOUS
 62
     3
 10
122.9590352629352
 20
30.25919092686331
 30
0.0
 11
124.6910993731257
 21
29.25918335707388
 31
0.0
  0
LINE
  5
3C1
  8
0
  6
CONTINUOUS
 62
     3
 10
79.65777073927477
 20
17.13481572842716
 30
0.0
 11
81.38982163496569
 21
18.13481566882251
 31
0.0
  0
LINE
  5
3C2
  8
0
  6
CONTINUOUS
 62
     3
 10
72.65776924915876
 20
29.25917530188849
 30
0.0
 11
74.38982014484968
 21
30.25917524228385
 31
0.0
  0
LINE
  5
3C3
  8
0
  6
CONTINUOUS
 62
     3
 10
78.9077806692482
 20
18.43385692145785
 30
0.0
 11
82.90778114608536
 21
11.50565381553133
 31
0.0
  0
LINE
  5
3C4
  8
0
  6
CONTINUOUS
 62
     3
 10
123.9411051952329
 20
27.96013754185719
 30
0.0
 11
127.9411133014655
 21
34.88835386228243
 31
0.0
  0
LINE
  5
3C5
  8
0
  6
CONTINUOUS
 62
     3
 10
161.7646504184626
 20
20.55650215144465
 30
0.0
 11
162.9218837946859
 21
19.88837322398308
 31
0.0
  0
LINE
  5
3C6
  8
0
  6
CONTINUOUS
 62
     3
 10
70.80971045612402
 20
26.46013982799059
 30
0.0
 11
76.30971111177512
 21
16.93386055734163
 31
0.0
  0
LINE
  5
3C7
  8
0
  6
CONTINUOUS
 62
     3
 10
43.9629058803893
 20
10.96014547269874
 30
0.0
 11
49.46290653604039
 21
1.433866202049785
 31
0.0
  0
LINE
  5
3C8
  8
0
  6
CONTINUOUS
 62
     3
 10
121.0391901041052
 20
16.9338438557495
 30
0.0
 11
126.539194574454
 21
26.46012973364782
 31
0.0
  0
LINE
  5
3C9
  8
0
  6
CONTINUOUS
 62
     3
 10
147.8859753691649
 20
1.433869459149037
 30
0.0
 11
153.385976024816
 21
10.96014872979799
 31
0.0
  0
LINE
  5
3CA
  8
0
  6
CONTINUOUS
 62
     3
 10
53.02507180887868
 20
16.19218039970338
 30
0.0
 11
61.74751372259878
 21
21.22808403020417
 31
0.0
  0
LINE
  5
3CB
  8
0
  6
CONTINUOUS
 62
     3
 10
67.74750442225148
 20
24.69217989306389
 30
0.0
 11
73.40776355087972
 21
27.96013166361081
 31
0.0
  0
LINE
  5
3CC
  8
0
  6
CONTINUOUS
 62
     3
 10
73.24752200882686
 20
15.16591471447987
 30
0.0
 11
78.90776792295547
 21
18.43385885563271
 31
0.0
  0
LINE
  5
3CD
  8
0
  6
CONTINUOUS
 62
     3
 10
58.52508278820424
 20
6.66591140642231
 30
0.0
 11
67.24751148742472
 21
11.70180740752903
 31
0.0
  0
LINE
  5
3CE
  8
0
  6
CONTINUOUS
 62
     3
 10
130.1013495739357
 20
11.70181762559901
 30
0.0
 11
138.8237914876558
 21
6.665913995098208
 31
0.0
  0
LINE
  5
3CF
  8
0
  6
CONTINUOUS
 62
     3
 10
135.6013586459127
 20
21.22808331525516
 30
0.0
 11
144.3237873451332
 21
16.19218731414844
 31
0.0
  0
LINE
  5
3D0
  8
0
  6
CONTINUOUS
 62
     3
 10
150.3238044737852
 20
12.72807619250057
 30
0.0
 11
157.7161012836047
 21
8.460132110952372
 31
0.0
  0
LINE
  5
3D1
  8
0
  6
CONTINUOUS
 62
     3
 10
144.8237821873085
 20
3.201818132238486
 30
0.0
 11
152.2160922116277
 21
-1.066133578703784
 31
0.0
  0
LINE
  5
3D2
  8
0
  6
CONTINUOUS
 62
     3
 10
112.1744186046512
 20
101.1969980534711
 30
0.0
 11
112.1744186046512
 21
54.8182291325727
 31
0.0
  0
LINE
  5
3D3
  8
0
  6
CONTINUOUS
 62
     3
 10
85.17441860465117
 20
101.1969980534711
 30
0.0
 11
85.17441860465117
 21
54.8182291325727
 31
0.0
  0
LINE
  5
3D4
  8
0
  6
CONTINUOUS
 62
     3
 10
85.17441860465117
 20
62.1969904240766
 30
0.0
 11
93.17441860465117
 21
62.1969904240766
 31
0.0
  0
LINE
  5
3D5
  8
0
  6
CONTINUOUS
 62
     3
 10
93.17441860465117
 20
101.1969980534711
 30
0.0
 11
93.17441860465117
 21
92.6611017522016
 31
0.0
  0
LINE
  5
3D6
  8
0
  6
CONTINUOUS
 62
     3
 10
104.1744186046512
 20
101.1969980534711
 30
0.0
 11
104.1744186046512
 21
92.6611017522016
 31
0.0
  0
LINE
  5
3D7
  8
0
  6
CONTINUOUS
 62
     3
 10
91.67441860465117
 20
62.19699805347113
 30
0.0
 11
91.67441860465117
 21
60.1970018681684
 31
0.0
  0
LINE
  5
3D8
  8
0
  6
CONTINUOUS
 62
     3
 10
105.6744186046512
 20
62.19699805347113
 30
0.0
 11
105.6744186046512
 21
60.1970018681684
 31
0.0
  0
LINE
  5
3D9
  8
0
  6
CONTINUOUS
 62
     3
 10
104.1744186046512
 20
62.1969904240766
 30
0.0
 11
112.1744186046512
 21
62.1969904240766
 31
0.0
  0
LINE
  5
3DA
  8
0
  6
CONTINUOUS
 62
     3
 10
104.1744186046512
 20
68.73289435474067
 30
0.0
 11
104.1744186046512
 21
62.19699805347113
 31
0.0
  0
LINE
  5
3DB
  8
0
  6
CONTINUOUS
 62
     3
 10
104.1744186046512
 20
85.73289435474067
 30
0.0
 11
104.1744186046512
 21
75.6611017522016
 31
0.0
  0
LINE
  5
3DC
  8
0
  6
CONTINUOUS
 62
     3
 10
93.17441860465117
 20
85.73289435474067
 30
0.0
 11
93.17441860465117
 21
75.6611017522016
 31
0.0
  0
LINE
  5
3DD
  8
0
  6
CONTINUOUS
 62
     3
 10
93.17441860465117
 20
68.73289435474067
 30
0.0
 11
93.17441860465117
 21
62.19699805347113
 31
0.0
  0
LINE
  5
3DE
  8
0
  6
CONTINUOUS
 62
     3
 10
93.17441860465117
 20
65.1969904240766
 30
0.0
 11
104.1744186046512
 21
65.1969904240766
 31
0.0
  0
LINE
  5
3DF
  8
0
  6
CONTINUOUS
 62
     3
 10
93.17441860465117
 20
96.1969904240766
 30
0.0
 11
104.1744186046512
 21
96.1969904240766
 31
0.0
  0
LINE
  5
3E0
  8
0
  6
CONTINUOUS
 62
     3
 10
-46.80376514503637
 20
65.6969904240766
 30
0.0
 11
-38.80376514503637
 21
65.6969904240766
 31
0.0
  0
LINE
  5
3E1
  8
0
  6
CONTINUOUS
 62
     3
 10
-46.80376514503637
 20
78.6969904240766
 30
0.0
 11
-38.80376514503637
 21
78.6969904240766
 31
0.0
  0
LINE
  5
3E2
  8
0
  6
CONTINUOUS
 62
     3
 10
-46.80376514503637
 20
95.6969904240766
 30
0.0
 11
-38.80376514503637
 21
95.6969904240766
 31
0.0
  0
LINE
  5
3E3
  8
0
  6
CONTINUOUS
 62
     3
 10
-46.80376514503637
 20
82.6969904240766
 30
0.0
 11
-38.80376514503637
 21
82.6969904240766
 31
0.0
  0
LINE
  5
3E4
  8
0
  6
CONTINUOUS
 62
     3
 10
-53.30376514503637
 20
96.19699805347113
 30
0.0
 11
-53.30376514503637
 21
93.19699805347113
 31
0.0
  0
LINE
  5
3E5
  8
0
  6
CONTINUOUS
 62
     3
 10
-53.30376514503637
 20
68.19699805347113
 30
0.0
 11
-53.30376514503637
 21
65.19699805347113
 31
0.0
  0
LINE
  5
3E6
  8
0
  6
CONTINUOUS
 62
     3
 10
-53.30376514503637
 20
85.19699805347113
 30
0.0
 11
-53.30376514503637
 21
76.1969904240766
 31
0.0
  0
LINE
  5
3E7
  8
0
  6
CONTINUOUS
 62
     3
 10
-46.80376514503637
 20
95.69699805347113
 30
0.0
 11
-46.80376514503637
 21
82.69699805347113
 31
0.0
  0
LINE
  5
3E8
  8
0
  6
CONTINUOUS
 62
     3
 10
-46.80376514503637
 20
78.69699805347113
 30
0.0
 11
-46.80376514503637
 21
65.69699805347113
 31
0.0
  0
LINE
  5
3E9
  8
0
  6
CONTINUOUS
 62
     3
 10
-38.80376514503637
 20
78.69699805347113
 30
0.0
 11
-38.80376514503637
 21
65.69699805347113
 31
0.0
  0
LINE
  5
3EA
  8
0
  6
CONTINUOUS
 62
     3
 10
-38.80376514503637
 20
95.69699805347113
 30
0.0
 11
-38.80376514503637
 21
82.69699805347113
 31
0.0
  0
ARC
  5
3EB
  8
0
  6
CONTINUOUS
 62
     3
 10
98.67441860465117
 20
36.1969904240766
 30
0.0
 40
65.0
 50
0.0
 51
78.01284975637654
  0
ARC
  5
3EC
  8
0
  6
CONTINUOUS
 62
     3
 10
98.67441860465117
 20
36.1969904240766
 30
0.0
 40
63.5
 50
102.274692556259
 51
197.7252884712449
  0
ARC
  5
3ED
  8
0
  6
CONTINUOUS
 62
     3
 10
98.67441860465117
 20
36.1969904240766
 30
0.0
 40
65.0
 50
101.9871689129581
 51
198.0128121145457
  0
ARC
  5
3EE
  8
0
  6
CONTINUOUS
 62
     3
 10
98.67441860465117
 20
36.1969904240766
 30
0.0
 40
65.0
 50
221.987134913593
 51
318.0128566623561
  0
ARC
  5
3EF
  8
0
  6
CONTINUOUS
 62
     3
 10
98.67441860465117
 20
36.1969904240766
 30
0.0
 40
65.0
 50
341.9871553283701
 51
360.0
  0
ARC
  5
3F0
  8
0
  6
CONTINUOUS
 62
     3
 10
98.67441860465117
 20
36.1969904240766
 30
0.0
 40
63.5
 50
342.2746755565764
 51
437.7253261130757
  0
ARC
  5
3F1
  8
0
  6
CONTINUOUS
 62
     3
 10
98.67441860465117
 20
36.1969904240766
 30
0.0
 40
63.5
 50
222.2746448965155
 51
317.7253330190552
  0
ARC
  5
3F2
  8
0
  6
CONTINUOUS
 62
     3
 10
98.67441860465117
 20
36.1969904240766
 30
0.0
 40
25.0
 50
242.6836189667288
 51
297.3163760243149
  0
CIRCLE
  5
3F3
  8
0
  6
CONTINUOUS
 62
     3
 10
134.4196273448856
 20
56.83450263110785
 30
0.0
 40
5.5
  0
CIRCLE
  5
3F4
  8
0
  6
CONTINUOUS
 62
     3
 10
62.92922512320585
 20
56.83450263110785
 30
0.0
 40
5.5
  0
CIRCLE
  5
3F5
  8
0
  6
CONTINUOUS
 62
     3
 10
98.67441860465117
 20
-5.078003472407772
 30
0.0
 40
8.5
  0
ARC
  5
3F6
  8
0
  6
CONTINUOUS
 62
     3
 10
98.67441860465117
 20
36.1969904240766
 30
0.0
 40
25.0
 50
57.31635887305157
 51
242.6836153242631
  0
ARC
  5
3F7
  8
0
  6
CONTINUOUS
 62
     3
 10
98.67441860465117
 20
36.1969904240766
 30
0.0
 40
25.0
 50
297.3163760243149
 51
417.3163588730516
  0
CIRCLE
  5
3F8
  8
0
  6
CONTINUOUS
 62
     3
 10
98.67441860465117
 20
36.1969904240766
 30
0.0
 40
20.0
  0
CIRCLE
  5
3F9
  8
0
  6
CONTINUOUS
 62
     3
 10
83.42441860465117
 20
36.1969904240766
 30
0.0
 40
1.600000023841858
  0
CIRCLE
  5
3FA
  8
0
  6
CONTINUOUS
 62
     3
 10
113.9244186046512
 20
36.1969904240766
 30
0.0
 40
1.600000023841858
  0
CIRCLE
  5
3FB
  8
0
  6
CONTINUOUS
 62
     3
 10
98.67441860465117
 20
36.1969904240766
 30
0.0
 40
23.0
  0
CIRCLE
  5
3FC
  8
0
  6
CONTINUOUS
 62
     3
 10
98.67441860465117
 20
52.1969904240766
 30
0.0
 40
2.5
  0
CIRCLE
  5
3FD
  8
0
  6
CONTINUOUS
 62
     3
 10
134.4196273448856
 20
56.83450263110785
 30
0.0
 40
8.5
  0
CIRCLE
  5
3FE
  8
0
  6
CONTINUOUS
 62
     3
 10
62.92922512320585
 20
56.83450263110785
 30
0.0
 40
8.5
  0
CIRCLE
  5
3FF
  8
0
  6
CONTINUOUS
 62
     3
 10
84.81801143912382
 20
28.1969904240766
 30
0.0
 40
2.5
  0
CIRCLE
  5
400
  8
0
  6
CONTINUOUS
 62
     3
 10
112.5308257701785
 20
28.1969904240766
 30
0.0
 40
2.5
  0
LINE
  5
401
  8
0
  6
CONTINUOUS
 62
     3
 10
-67.80376514503638
 20
96.1969904240766
 30
0.0
 11
-53.30376514503637
 21
96.1969904240766
 31
0.0
  0
LINE
  5
402
  8
0
  6
CONTINUOUS
 62
     3
 10
-67.80376514503638
 20
65.1969904240766
 30
0.0
 11
-53.30376514503637
 21
65.1969904240766
 31
0.0
  0
LINE
  5
403
  8
0
  6
CONTINUOUS
 62
     3
 10
-67.80376514503638
 20
76.1969904240766
 30
0.0
 11
-46.80376514503637
 21
76.1969904240766
 31
0.0
  0
LINE
  5
404
  8
0
  6
CONTINUOUS
 62
     3
 10
-67.80376514503638
 20
68.1969904240766
 30
0.0
 11
-46.80376514503637
 21
68.1969904240766
 31
0.0
  0
LINE
  5
405
  8
0
  6
CONTINUOUS
 62
     3
 10
-67.80376514503638
 20
85.1969904240766
 30
0.0
 11
-46.80376514503637
 21
85.1969904240766
 31
0.0
  0
LINE
  5
406
  8
0
  6
CONTINUOUS
 62
     3
 10
-67.80376514503638
 20
93.1969904240766
 30
0.0
 11
-46.80376514503637
 21
93.1969904240766
 31
0.0
  0
ARC
  5
407
  8
0
  6
CONTINUOUS
 62
     3
 10
98.67441860465117
 20
36.1969904240766
 30
0.0
 40
12.64999961853027
 50
155.4442208739438
 51
384.5557791260562
  0
ARC
  5
408
  8
0
  6
CONTINUOUS
 62
     3
 10
98.67441860465117
 20
36.1969904240766
 30
0.0
 40
12.64999961853027
 50
52.60714590144048
 51
129.1103257680905
  0
LINE
  5
409
  8
0
  6
CONTINUOUS
 62
     4
 10
-69.80376514503638
 20
5.197005682865665
 30
0.0
 11
-53.80376514503637
 21
5.197005682865665
 31
0.0
  0
LINE
  5
40A
  8
0
  6
CONTINUOUS
 62
     4
 10
-69.80376514503638
 20
9.197005682865665
 30
0.0
 11
-53.80376514503637
 21
9.197005682865665
 31
0.0
  0
LINE
  5
40B
  8
0
  6
CONTINUOUS
 62
     4
 10
-64.80376514503638
 20
4.697005682865665
 30
0.0
 11
-53.80376514503637
 21
4.697005682865665
 31
0.0
  0
LINE
  5
40C
  8
0
  6
CONTINUOUS
 62
     4
 10
-64.80376514503638
 20
9.697005682865665
 30
0.0
 11
-53.80376514503637
 21
9.697005682865665
 31
0.0
  0
LINE
  5
40D
  8
0
  6
CONTINUOUS
 62
     4
 10
-64.80376514503638
 20
9.6970018681684
 30
0.0
 11
-64.80376514503638
 21
4.6970018681684
 31
0.0
  0
LINE
  5
40E
  8
0
  6
CONTINUOUS
 62
     4
 10
-69.80376514503638
 20
9.1970018681684
 30
0.0
 11
-69.80376514503638
 21
5.1970018681684
 31
0.0
  0
LINE
  5
40F
  8
0
  6
CONTINUOUS
 62
     4
 10
-70.95848932384325
 20
7.197014849419247
 30
0.0
 11
-69.8037917679797
 21
9.197009409236216
 31
0.0
  0
LINE
  5
410
  8
0
  6
CONTINUOUS
 62
     4
 10
-70.95847906222258
 20
7.196992963127514
 30
0.0
 11
-69.80377864533574
 21
5.196993447873524
 31
0.0
  0
LINE
  5
411
  8
0
  6
CONTINUOUS
 62
     4
 10
-74.93962177345435
 20
16.99700873462348
 30
0.0
 11
-66.93962177345435
 21
16.99700873462348
 31
0.0
  0
LINE
  5
412
  8
0
  6
CONTINUOUS
 62
     4
 10
-74.93962177345435
 20
55.39700263110785
 30
0.0
 11
-66.93962177345435
 21
55.39700263110785
 31
0.0
  0
LINE
  5
413
  8
0
  6
CONTINUOUS
 62
     4
 10
-74.93962177345435
 20
50.1969904240766
 30
0.0
 11
-66.93962177345435
 21
50.1969904240766
 31
0.0
  0
LINE
  5
414
  8
0
  6
CONTINUOUS
 62
     4
 10
-74.93962177345435
 20
54.1969904240766
 30
0.0
 11
-66.93962177345435
 21
54.1969904240766
 31
0.0
  0
LINE
  5
415
  8
0
  6
CONTINUOUS
 62
     4
 10
-54.80376514503637
 20
101.1969980534711
 30
0.0
 11
-54.80376514503637
 21
96.19699805347113
 31
0.0
  0
LINE
  5
416
  8
0
  6
CONTINUOUS
 62
     4
 10
-55.80376514503637
 20
101.1969980534711
 30
0.0
 11
-55.80376514503637
 21
96.19699805347113
 31
0.0
  0
LINE
  5
417
  8
0
  6
CONTINUOUS
 62
     4
 10
-54.80376514503637
 20
65.19699805347113
 30
0.0
 11
-54.80376514503637
 21
62.19699805347113
 31
0.0
  0
LINE
  5
418
  8
0
  6
CONTINUOUS
 62
     4
 10
-55.80376514503637
 20
65.19699805347113
 30
0.0
 11
-55.80376514503637
 21
62.19699805347113
 31
0.0
  0
LINE
  5
419
  8
0
  6
CONTINUOUS
 62
     4
 10
116.2401536488036
 20
11.62170028586365
 30
0.0
 11
119.2401540064315
 21
16.81785261530854
 31
0.0
  0
LINE
  5
41A
  8
0
  6
CONTINUOUS
 62
     4
 10
125.7401471518964
 20
28.0761694479404
 30
0.0
 11
128.7401475095243
 21
33.27232177738529
 31
0.0
  0
LINE
  5
41B
  8
0
  6
CONTINUOUS
 62
     4
 10
127.0391946340587
 20
27.32615512188863
 30
0.0
 11
130.0391949916865
 21
32.52230745133352
 31
0.0
  0
LINE
  5
41C
  8
0
  6
CONTINUOUS
 62
     4
 10
128.3382327164199
 20
26.57615503248167
 30
0.0
 11
131.3382330740478
 21
31.77230736192655
 31
0.0
  0
LINE
  5
41D
  8
0
  6
CONTINUOUS
 62
     4
 10
129.6372367403882
 20
25.82615698736686
 30
0.0
 11
132.6372370980161
 21
31.02230931681174
 31
0.0
  0
LINE
  5
41E
  8
0
  6
CONTINUOUS
 62
     4
 10
130.9362900815403
 20
25.07618332695733
 30
0.0
 11
133.9362904391682
 21
30.27233565640222
 31
0.0
  0
LINE
  5
41F
  8
0
  6
CONTINUOUS
 62
     4
 10
117.5391896868727
 20
10.8716661380638
 30
0.0
 11
120.5391900445006
 21
16.06781846750869
 31
0.0
  0
LINE
  5
420
  8
0
  6
CONTINUOUS
 62
     4
 10
118.8382353986294
 20
10.12167926315556
 30
0.0
 11
121.8382357562572
 21
15.31783159260044
 31
0.0
  0
LINE
  5
421
  8
0
  6
CONTINUOUS
 62
     4
 10
120.1372356079
 20
9.371674610791388
 30
0.0
 11
123.1372359655278
 21
14.56782694023627
 31
0.0
  0
LINE
  5
422
  8
0
  6
CONTINUOUS
 62
     4
 10
121.4362889490521
 20
8.621700950381865
 30
0.0
 11
124.4362893066799
 21
13.81785327982675
 31
0.0
  0
LINE
  5
423
  8
0
  6
CONTINUOUS
 62
     4
 10
147.417067625473
 20
-6.378301859903559
 30
0.0
 11
150.4170679831008
 21
-1.182149530458673
 31
0.0
  0
LINE
  5
424
  8
0
  6
CONTINUOUS
 62
     4
 10
156.9170687579612
 20
10.07618051667191
 30
0.0
 11
159.9170691155891
 21
15.2723328461168
 31
0.0
  0
LINE
  5
425
  8
0
  6
CONTINUOUS
 62
     4
 10
155.6180230462045
 20
10.82616739158016
 30
0.0
 11
158.6180234038324
 21
16.02231972102504
 31
0.0
  0
LINE
  5
426
  8
0
  6
CONTINUOUS
 62
     4
 10
154.3189811491456
 20
11.57616087373776
 30
0.0
 11
157.3189815067735
 21
16.77231320318265
 31
0.0
  0
LINE
  5
427
  8
0
  6
CONTINUOUS
 62
     4
 10
153.0199430667844
 20
12.32616096314473
 30
0.0
 11
156.0199434244123
 21
17.52231329258962
 31
0.0
  0
LINE
  5
428
  8
0
  6
CONTINUOUS
 62
     4
 10
151.720939042816
 20
13.07615900825954
 30
0.0
 11
154.7209394004439
 21
18.27231133770442
 31
0.0
  0
LINE
  5
429
  8
0
  6
CONTINUOUS
 62
     4
 10
150.4219103602558
 20
13.8261448610217
 30
0.0
 11
153.4219107178837
 21
19.02229719046659
 31
0.0
  0
LINE
  5
42A
  8
0
  6
CONTINUOUS
 62
     4
 10
146.1180219137163
 20
-5.628314984995313
 30
0.0
 11
149.1180222713442
 21
-0.4321626555504281
 31
0.0
  0
LINE
  5
42B
  8
0
  6
CONTINUOUS
 62
     4
 10
144.8189838313551
 20
-4.878314895588346
 30
0.0
 11
147.8189841889829
 21
0.3178374338565391
 31
0.0
  0
LINE
  5
42C
  8
0
  6
CONTINUOUS
 62
     4
 10
143.5199457489939
 20
-4.128314806181379
 30
0.0
 11
146.5199461066217
 21
1.067837523263506
 31
0.0
  0
LINE
  5
42D
  8
0
  6
CONTINUOUS
 62
     4
 10
142.2209455397232
 20
-3.37831015381721
 30
0.0
 11
145.2209458973511
 21
1.817842175627675
 31
0.0
  0
LINE
  5
42E
  8
0
  6
CONTINUOUS
 62
     4
 10
140.9219092277676
 20
-2.628337515553767
 30
0.0
 11
143.9219095853954
 21
2.567814813891118
 31
0.0
  0
LINE
  5
42F
  8
0
  6
CONTINUOUS
 62
     4
 10
105.1744186046512
 20
63.6969904240766
 30
0.0
 11
111.1744186046512
 21
63.6969904240766
 31
0.0
  0
LINE
  5
430
  8
0
  6
CONTINUOUS
 62
     4
 10
86.17441860465117
 20
63.6969904240766
 30
0.0
 11
92.17441860465117
 21
63.6969904240766
 31
0.0
  0
LINE
  5
431
  8
0
  6
CONTINUOUS
 62
     4
 10
86.17441860465117
 20
65.1969904240766
 30
0.0
 11
92.17441860465117
 21
65.1969904240766
 31
0.0
  0
LINE
  5
432
  8
0
  6
CONTINUOUS
 62
     4
 10
86.17441860465117
 20
66.6969904240766
 30
0.0
 11
92.17441860465117
 21
66.6969904240766
 31
0.0
  0
LINE
  5
433
  8
0
  6
CONTINUOUS
 62
     4
 10
86.17441860465117
 20
68.1969904240766
 30
0.0
 11
92.17441860465117
 21
68.1969904240766
 31
0.0
  0
LINE
  5
434
  8
0
  6
CONTINUOUS
 62
     4
 10
86.17441860465117
 20
69.6969904240766
 30
0.0
 11
92.17441860465117
 21
69.6969904240766
 31
0.0
  0
LINE
  5
435
  8
0
  6
CONTINUOUS
 62
     4
 10
105.1744186046512
 20
65.1969904240766
 30
0.0
 11
111.1744186046512
 21
65.1969904240766
 31
0.0
  0
LINE
  5
436
  8
0
  6
CONTINUOUS
 62
     4
 10
105.1744186046512
 20
66.6969904240766
 30
0.0
 11
111.1744186046512
 21
66.6969904240766
 31
0.0
  0
LINE
  5
437
  8
0
  6
CONTINUOUS
 62
     4
 10
105.1744186046512
 20
68.1969904240766
 30
0.0
 11
111.1744186046512
 21
68.1969904240766
 31
0.0
  0
LINE
  5
438
  8
0
  6
CONTINUOUS
 62
     4
 10
105.1744186046512
 20
69.6969904240766
 30
0.0
 11
111.1744186046512
 21
69.6969904240766
 31
0.0
  0
LINE
  5
439
  8
0
  6
CONTINUOUS
 62
     4
 10
105.1744186046512
 20
99.6969904240766
 30
0.0
 11
111.1744186046512
 21
99.6969904240766
 31
0.0
  0
LINE
  5
43A
  8
0
  6
CONTINUOUS
 62
     4
 10
86.17441860465117
 20
99.6969904240766
 30
0.0
 11
92.17441860465117
 21
99.6969904240766
 31
0.0
  0
LINE
  5
43B
  8
0
  6
CONTINUOUS
 62
     4
 10
86.17441860465117
 20
98.1969904240766
 30
0.0
 11
92.17441860465117
 21
98.1969904240766
 31
0.0
  0
LINE
  5
43C
  8
0
  6
CONTINUOUS
 62
     4
 10
86.17441860465117
 20
96.6969904240766
 30
0.0
 11
92.17441860465117
 21
96.6969904240766
 31
0.0
  0
LINE
  5
43D
  8
0
  6
CONTINUOUS
 62
     4
 10
86.17441860465117
 20
95.1969904240766
 30
0.0
 11
92.17441860465117
 21
95.1969904240766
 31
0.0
  0
LINE
  5
43E
  8
0
  6
CONTINUOUS
 62
     4
 10
86.17441860465117
 20
93.6969904240766
 30
0.0
 11
92.17441860465117
 21
93.6969904240766
 31
0.0
  0
LINE
  5
43F
  8
0
  6
CONTINUOUS
 62
     4
 10
86.17441860465117
 20
92.1969904240766
 30
0.0
 11
92.17441860465117
 21
92.1969904240766
 31
0.0
  0
LINE
  5
440
  8
0
  6
CONTINUOUS
 62
     4
 10
105.1744186046512
 20
98.1969904240766
 30
0.0
 11
111.1744186046512
 21
98.1969904240766
 31
0.0
  0
LINE
  5
441
  8
0
  6
CONTINUOUS
 62
     4
 10
105.1744186046512
 20
96.6969904240766
 30
0.0
 11
111.1744186046512
 21
96.6969904240766
 31
0.0
  0
LINE
  5
442
  8
0
  6
CONTINUOUS
 62
     4
 10
105.1744186046512
 20
95.1969904240766
 30
0.0
 11
111.1744186046512
 21
95.1969904240766
 31
0.0
  0
LINE
  5
443
  8
0
  6
CONTINUOUS
 62
     4
 10
105.1744186046512
 20
93.6969904240766
 30
0.0
 11
111.1744186046512
 21
93.6969904240766
 31
0.0
  0
LINE
  5
444
  8
0
  6
CONTINUOUS
 62
     4
 10
105.1744186046512
 20
92.1969904240766
 30
0.0
 11
111.1744186046512
 21
92.1969904240766
 31
0.0
  0
CIRCLE
  5
445
  8
0
  6
CONTINUOUS
 62
     4
 10
98.67441860465117
 20
7.197005682865665
 30
0.0
 40
2.0
  0
CIRCLE
  5
446
  8
0
  6
CONTINUOUS
 62
     4
 10
98.67441860465117
 20
7.197005682865665
 30
0.0
 40
2.5
  0
ARC
  5
447
  8
0
  6
CONTINUOUS
 62
     4
 10
98.67441860465117
 20
36.1969904240766
 30
0.0
 40
30.0
 50
118.903348166167
 51
144.0144840082055
  0
ARC
  5
448
  8
0
  6
CONTINUOUS
 62
     4
 10
98.67441860465117
 20
36.1969904240766
 30
0.0
 40
36.0
 50
233.7519308532649
 51
257.3467305486147
  0
ARC
  5
449
  8
0
  6
CONTINUOUS
 62
     4
 10
98.67441860465117
 20
36.1969904240766
 30
0.0
 40
42.0
 50
230.1963119562747
 51
250.6757394277766
  0
ARC
  5
44A
  8
0
  6
CONTINUOUS
 62
     4
 10
98.67441860465117
 20
36.1969904240766
 30
0.0
 40
36.0
 50
113.75196485263
 51
138.2356521967545
  0
ARC
  5
44B
  8
0
  6
CONTINUOUS
 62
     4
 10
98.67441860465117
 20
36.1969904240766
 30
0.0
 40
42.0
 50
110.1963459556398
 51
132.1309383996238
  0
ARC
  5
44C
  8
0
  6
CONTINUOUS
 62
     4
 10
98.67441860465117
 20
36.1969904240766
 30
0.0
 40
36.0
 50
353.7519529755893
 51
378.2356454423556
  0
ARC
  5
44D
  8
0
  6
CONTINUOUS
 62
     4
 10
98.67441860465117
 20
36.1969904240766
 30
0.0
 40
42.0
 50
350.1963383474673
 51
372.2801243210392
  0
ARC
  5
44E
  8
0
  6
CONTINUOUS
 62
     4
 10
98.67441860465117
 20
36.1969904240766
 30
0.0
 40
42.0
 50
290.5019987422307
 51
309.8036762045799
  0
ARC
  5
44F
  8
0
  6
CONTINUOUS
 62
     4
 10
98.67441860465117
 20
36.1969904240766
 30
0.0
 40
36.0
 50
282.6532507820505
 51
306.2480675528734
  0
ARC
  5
450
  8
0
  6
CONTINUOUS
 62
     4
 10
98.67441860465117
 20
36.1969904240766
 30
0.0
 40
30.0
 50
277.5287237723301
 51
301.1118506743884
  0
CIRCLE
  5
451
  8
0
  6
CONTINUOUS
 62
     4
 10
98.67441860465117
 20
36.1969904240766
 30
0.0
 40
19.20000076293945
  0
CIRCLE
  5
452
  8
0
  6
CONTINUOUS
 62
     4
 10
98.67441860465117
 20
52.1969904240766
 30
0.0
 40
2.0
  0
CIRCLE
  5
453
  8
0
  6
CONTINUOUS
 62
     4
 10
73.55968776969023
 20
50.69702094165473
 30
0.0
 40
2.0
  0
CIRCLE
  5
454
  8
0
  6
CONTINUOUS
 62
     4
 10
123.7891646984012
 20
50.6969904240766
 30
0.0
 40
2.0
  0
CIRCLE
  5
455
  8
0
  6
CONTINUOUS
 62
     4
 10
123.7891646984012
 20
50.6969904240766
 30
0.0
 40
2.5
  0
CIRCLE
  5
456
  8
0
  6
CONTINUOUS
 62
     4
 10
73.55968776969023
 20
50.69702094165473
 30
0.0
 40
2.5
  0
ARC
  5
457
  8
0
  6
CONTINUOUS
 62
     4
 10
98.67441860465117
 20
36.1969904240766
 30
0.0
 40
42.0
 50
168.3292744345339
 51
189.8036350718641
  0
ARC
  5
458
  8
0
  6
CONTINUOUS
 62
     4
 10
98.67441860465117
 20
36.1969904240766
 30
0.0
 40
36.0
 50
161.7643698118844
 51
186.2480161748738
  0
ARC
  5
459
  8
0
  6
CONTINUOUS
 62
     4
 10
98.67441860465117
 20
36.1969904240766
 30
0.0
 40
30.0
 50
156.9029826701278
 51
181.3000768759549
  0
ARC
  5
45A
  8
0
  6
CONTINUOUS
 62
     4
 10
98.67441860465117
 20
36.1969904240766
 30
0.0
 40
30.0
 50
238.370245222839
 51
262.4712643885244
  0
ARC
  5
45B
  8
0
  6
CONTINUOUS
 62
     4
 10
98.67441860465117
 20
36.1969904240766
 30
0.0
 40
30.0
 50
358.373679344819
 51
382.8912902108385
  0
ARC
  5
45C
  8
0
  6
CONTINUOUS
 62
     4
 10
98.67441860465117
 20
36.1969904240766
 30
0.0
 40
30.0
 50
36.23362420725697
 51
61.09666367297852
  0
ARC
  5
45D
  8
0
  6
CONTINUOUS
 62
     4
 10
98.67441860465117
 20
36.1969904240766
 30
0.0
 40
36.0
 50
41.76433573672896
 51
66.24805381670468
  0
ARC
  5
45E
  8
0
  6
CONTINUOUS
 62
     4
 10
98.67441860465117
 20
36.1969904240766
 30
0.0
 40
42.0
 50
47.96932695615917
 51
69.80367271369489
  0
CIRCLE
  5
45F
  8
0
  6
CONTINUOUS
 62
     4
 10
84.81801143912382
 20
28.1969904240766
 30
0.0
 40
2.0
  0
CIRCLE
  5
460
  8
0
  6
CONTINUOUS
 62
     4
 10
112.5308257701785
 20
28.1969904240766
 30
0.0
 40
2.0
  0
LINE
  5
461
  8
0
  6
CONTINUOUS
 62
     4
 10
-67.80376514503638
 20
86.04699652759223
 30
0.0
 11
-46.80376514503637
 21
86.04699652759223
 31
0.0
  0
LINE
  5
462
  8
0
  6
CONTINUOUS
 62
     4
 10
-67.80376514503638
 20
92.34698432056098
 30
0.0
 11
-46.80376514503637
 21
92.34698432056098
 31
0.0
  0
LINE
  5
463
  8
0
  6
CONTINUOUS
 62
     4
 10
-67.80376514503638
 20
69.04699652759223
 30
0.0
 11
-46.80376514503637
 21
69.04699652759223
 31
0.0
  0
LINE
  5
464
  8
0
  6
CONTINUOUS
 62
     4
 10
-67.80376514503638
 20
75.34698432056098
 30
0.0
 11
-46.80376514503637
 21
75.34698432056098
 31
0.0
  0
LINE
  5
465
  8
0
  6
CENTER
 62
     7
 10
-76.20911869117896
 20
52.1969904240766
 30
0.0
 11
-64.60171588966529
 21
52.1969904240766
 31
0.0
  0
LINE
  5
466
  8
0
  6
CENTER
 62
     7
 10
38.05265028901657
 20
1.196996826460008
 30
0.0
 11
98.67441842369907
 21
36.19698711090337
 31
0.0
  0
LINE
  5
467
  8
0
  6
CENTER
 62
     7
 10
52.53691652710329
 20
62.83452072018264
 30
0.0
 11
78.09300393599931
 21
48.07970840536314
 31
0.0
  0
LINE
  5
468
  8
0
  6
CENTER
 62
     7
 10
83.42441860465117
 20
39.4697183903852
 30
0.0
 11
83.42441860465117
 21
32.6727213200727
 31
0.0
  0
LINE
  5
469
  8
0
  6
CENTER
 62
     7
 10
113.9244186046512
 20
39.14023535815863
 30
0.0
 11
113.9244186046512
 21
32.81706564990668
 31
0.0
  0
LINE
  5
46A
  8
0
  6
CENTER
 62
     7
 10
48.54232101611335
 20
17.02838092398793
 30
0.0
 11
57.05737291924804
 21
2.279880421540383
 31
0.0
  0
LINE
  5
46B
  8
0
  6
CENTER
 62
     7
 10
139.9616776178713
 20
1.708553293177602
 30
0.0
 11
149.1848575808853
 21
17.6835674053757
 31
0.0
  0
LINE
  5
46C
  8
0
  6
CENTER
 62
     7
 10
125.4197023377318
 20
10.52114429587005
 30
0.0
 11
134.3827923954731
 21
26.04566953938797
 31
0.0
  0
LINE
  5
46D
  8
0
  6
CENTER
 62
     7
 10
63.22673973296837
 20
25.59419928516661
 30
0.0
 11
71.74179068242863
 21
10.84570043453141
 31
0.0
  0
LINE
  5
46E
  8
0
  6
CENTER
 62
     7
 10
94.36374965933867
 20
52.1969904240766
 30
0.0
 11
102.9303390148074
 21
52.1969904240766
 31
0.0
  0
LINE
  5
46F
  8
0
  6
CENTER
 62
     7
 10
89.0920058849246
 20
89.1969904240766
 30
0.0
 11
108.2020675304324
 21
89.1969904240766
 31
0.0
  0
LINE
  5
470
  8
0
  6
CENTER
 62
     7
 10
89.25675503043242
 20
72.1969904240766
 30
0.0
 11
108.2020675304324
 21
72.1969904240766
 31
0.0
  0
LINE
  5
471
  8
0
  6
CENTER
 62
     7
 10
98.67448139595597
 20
36.19698816636287
 30
0.0
 11
159.2962231016392
 21
1.197013140707668
 31
0.0
  0
LINE
  5
472
  8
0
  6
CENTER
 62
     7
 10
119.5058613586839
 20
48.22402496825475
 30
0.0
 11
144.8119453008653
 21
62.83449773021516
 31
0.0
  0
LINE
  5
473
  8
0
  6
CENTER
 62
     7
 10
86.97334275683845
 20
24.46383966475321
 30
0.0
 11
82.69004807910407
 21
31.88272353722266
 31
0.0
  0
LINE
  5
474
  8
0
  6
CENTER
 62
     7
 10
114.6861558361956
 20
31.93014043445669
 30
0.0
 11
110.4028611584612
 21
24.51125656198724
 31
0.0
  0
ARC
  5
475
  8
0
  6
CENTER
 62
     7
 10
98.67441860465117
 20
36.1969904240766
 30
0.0
 40
41.27500152587891
 50
13.28299245913573
 51
46.71698445108064
  0
ARC
  5
476
  8
0
  6
CENTER
 62
     7
 10
98.67441860465117
 20
36.1969904240766
 30
0.0
 40
29.0
 50
140.1091321049539
 51
159.8908489225499
  0
ARC
  5
477
  8
0
  6
CENTER
 62
     7
 10
98.67441860465117
 20
36.1969904240766
 30
0.0
 40
41.27500152587891
 50
133.2830137276865
 51
166.7170082809524
  0
ARC
  5
478
  8
0
  6
CENTER
 62
     7
 10
98.67441860465117
 20
36.1969904240766
 30
0.0
 40
41.27500152587891
 50
250.4715304319716
 51
289.5284372383154
  0
ARC
  5
479
  8
0
  6
CENTER
 62
     7
 10
98.67441860465117
 20
36.1969904240766
 30
0.0
 40
29.0
 50
260.1091254263455
 51
279.8908559043197
  0
ARC
  5
47A
  8
0
  6
CENTER
 62
     7
 10
98.67441860465117
 20
36.1969904240766
 30
0.0
 40
29.0
 50
20.10910656753492
 51
39.89081826248903
  0
LINE
  5
47B
  8
0
  6
CENTER
 62
     7
 10
-118.8037651450364
 20
36.1969904240766
 30
0.0
 11
-48.80376514503637
 21
36.1969904240766
 31
0.0
  0
LINE
  5
47C
  8
0
  6
CENTER
 62
     7
 10
-128.6397636801926
 20
-5.078003472407772
 30
0.0
 11
-49.84960254738012
 21
-5.078003472407772
 31
0.0
  0
LINE
  5
47D
  8
0
  6
CENTER
 62
     7
 10
-73.12480243751685
 20
7.197005682865665
 30
0.0
 11
-50.8462761313645
 21
7.197005682865665
 31
0.0
  0
LINE
  5
47E
  8
0
  6
CENTER
 62
     7
 10
-70.35392841407935
 20
89.1969904240766
 30
0.0
 11
-36.13563617775122
 21
89.1969904240766
 31
0.0
  0
LINE
  5
47F
  8
0
  6
CENTER
 62
     7
 10
-70.35392841407935
 20
72.1969904240766
 30
0.0
 11
-36.13563617775122
 21
72.1969904240766
 31
0.0
  0
LINE
  5
480
  8
0
  6
CENTER
 62
     7
 10
28.6744262340457
 20
36.1969904240766
 30
0.0
 11
168.6744186046512
 21
36.1969904240766
 31
0.0
  0
LINE
  5
481
  8
0
  6
CENTER
 62
     7
 10
98.67441860465117
 20
106.1969980534711
 30
0.0
 11
98.67441860465117
 21
46.80938358853553
 31
0.0
  0
LINE
  5
482
  8
0
  6
CENTER
 62
     7
 10
98.67441860465117
 20
40.72850412249704
 30
0.0
 11
98.67441860465117
 21
-33.8029981318316
 31
0.0
  0
LINE
  5
483
  8
0
  6
CENTER
 62
     7
 10
51.04763018503734
 20
83.19698711090337
 30
0.0
 11
73.93585728214831
 21
83.19698711090337
 31
0.0
  0
LINE
  5
484
  8
0
  6
DIVIDE
 62
     7
 10
-112.8037613247706
 20
58.69700695840163
 30
0.0
 11
-112.3037607939759
 21
59.19700748919638
 31
0.0
  0
LINE
  5
485
  8
0
  6
DIVIDE
 62
     7
 10
-112.8037640221689
 20
58.6969826818173
 30
0.0
 11
-112.3037634913741
 21
59.19698321261205
 31
0.0
  0
LINE
  5
486
  8
0
  6
DIVIDE
 62
     7
 10
-112.8037640221689
 20
58.6969826818173
 30
0.0
 11
-112.3037634913741
 21
59.19698321261205
 31
0.0
  0
LINE
  5
487
  8
0
  6
CONTINUOUS
 62
     7
 10
-112.8037599760715
 20
13.69700369394536
 30
0.0
 11
-112.3037594452767
 21
13.19700316315061
 31
0.0
  0
LINE
  5
488
  8
0
  6
CONTINUOUS
 62
     7
 10
-112.8037640221689
 20
58.6969826818173
 30
0.0
 11
-112.3037634913741
 21
59.19698321261205
 31
0.0
  0
LINE
  5
489
  8
0
  6
CONTINUOUS
 62
     7
 10
-46.60803302833715
 20
36.1969904240766
 30
0.0
 11
-31.45693783173136
 21
36.1969904240766
 31
0.0
  0
LINE
  5
48A
  8
0
  6
CONTINUOUS
 62
     7
 10
47.98537135347061
 20
-8.656809090505462
 30
0.0
 11
33.11838812487777
 21
-17.24026439964052
 31
0.0
  0
LINE
  5
48B
  8
0
  6
CONTINUOUS
 62
     7
 10
-52.35995971391038
 20
65.1969904240766
 30
0.0
 11
-35.11462212849227
 21
65.1969904240766
 31
0.0
  0
LINE
  5
48C
  8
0
  6
DASHED2
 62
     7
 10
65.67441860465117
 20
92.19699805347113
 30
0.0
 11
65.67441860465117
 21
74.19700568286567
 31
0.0
  0
LINE
  5
48D
  8
0
  6
DASHED2
 62
     7
 10
45.93923488883085
 20
74.19702094165473
 30
0.0
 11
65.6744262340457
 21
74.19702094165473
 31
0.0
  0
LINE
  5
48E
  8
0
  6
DASHED2
 62
     7
 10
65.6744262340457
 20
88.69702094165473
 30
0.0
 11
71.68916622428007
 21
88.69702094165473
 31
0.0
  0
LINE
  5
48F
  8
0
  6
DASHED2
 62
     7
 10
65.6744262340457
 20
77.69702094165473
 30
0.0
 11
72.96350399283476
 21
77.69702094165473
 31
0.0
  0
LINE
  5
490
  8
0
  6
DASHED2
 62
     7
 10
56.17441860465117
 20
85.59699957935004
 30
0.0
 11
56.17441860465117
 21
80.79699652759223
 31
0.0
  0
LINE
  5
491
  8
0
  6
DASHED2
 62
     7
 10
63.29752651480742
 20
79.24700873462348
 30
0.0
 11
64.98377529410429
 21
79.24700873462348
 31
0.0
  0
LINE
  5
492
  8
0
  6
DASHED2
 62
     7
 10
63.29752651480742
 20
87.14700263110785
 30
0.0
 11
64.98377529410429
 21
87.14700263110785
 31
0.0
  0
LINE
  5
493
  8
0
  6
DASHED2
 62
     7
 10
58.47443691519804
 20
86.49700110522895
 30
0.0
 11
58.47443691519804
 21
79.89700263110785
 31
0.0
  0
LINE
  5
494
  8
0
  6
DASHED2
 62
     7
 10
62.67441860465117
 20
86.58958380786567
 30
0.0
 11
62.67441860465117
 21
79.80438941089301
 31
0.0
  0
LINE
  5
495
  8
0
  6
DASHED2
 62
     7
 10
63.43835750845976
 20
85.19702094165473
 30
0.0
 11
64.91049495963164
 21
85.19702094165473
 31
0.0
  0
LINE
  5
496
  8
0
  6
DASHED2
 62
     7
 10
63.43835750845976
 20
81.19702094165473
 30
0.0
 11
64.91049495963164
 21
81.19702094165473
 31
0.0
  0
LINE
  5
497
  8
0
  6
DASHED2
 62
     7
 10
58.47443985407078
 20
79.89702838558412
 30
0.0
 11
56.17443590625014
 21
80.79702972876589
 31
0.0
  0
LINE
  5
498
  8
0
  6
DASHED2
 62
     7
 10
56.17441315828539
 20
85.59701397530989
 30
0.0
 11
58.47441355369658
 21
86.49701392841871
 31
0.0
  0
LINE
  5
499
  8
0
  6
DASHED2
 62
     7
 10
59.47443691519804
 20
85.81008093921332
 30
0.0
 11
59.47443691519804
 21
80.51804297534613
 31
0.0
  0
ARC
  5
49A
  8
0
  6
DASHED2
 62
     7
 10
62.67441860465117
 20
83.19702094165473
 30
0.0
 40
3.0
 50
0.0
 51
41.81031315512691
  0
ARC
  5
49B
  8
0
  6
DASHED2
 62
     7
 10
65.67441860465117
 20
83.19702094165473
 30
0.0
 40
3.0
 50
138.1896986840185
 51
221.8102840131374
  0
ARC
  5
49C
  8
0
  6
DASHED2
 62
     7
 10
62.67441860465117
 20
83.19702094165473
 30
0.0
 40
3.0
 50
318.1896868448731
 51
360.0
  0
ARC
  5
49D
  8
0
  6
DASHED2
 62
     7
 10
58.47443691519804
 20
83.19702094165473
 30
0.0
 40
3.299999952316284
 50
72.36029448230075
 51
89.99998201391068
  0
ARC
  5
49E
  8
0
  6
DASHED2
 62
     7
 10
58.47443691519804
 20
83.19702094165473
 30
0.0
 40
3.299999952316284
 50
270.0000179860894
 51
287.6397055176994
  0
ARC
  5
49F
  8
0
  6
DASHED2
 62
     7
 10
60.87894741324492
 20
88.99298041431098
 30
0.0
 40
3.0
 50
242.1068914535913
 51
306.7619948916872
  0
ARC
  5
4A0
  8
0
  6
DASHED2
 62
     7
 10
60.87894741324492
 20
77.40100043384223
 30
0.0
 40
3.0
 50
53.2380051083128
 51
117.8898300556071
  0
ARC
  5
4A1
  8
0
  6
DASHED2
 62
     7
 10
63.60978237418242
 20
86.19702094165473
 30
0.0
 40
1.0
 50
200.7154669700723
 51
270.0000179860895
  0
ARC
  5
4A2
  8
0
  6
DASHED2
 62
     7
 10
63.60978237418242
 20
86.19702094165473
 30
0.0
 40
1.0
 50
108.1948751325835
 51
159.2845330299277
  0
ARC
  5
4A3
  8
0
  6
DASHED2
 62
     7
 10
63.60978237418242
 20
80.19702094165473
 30
0.0
 40
1.0
 50
89.99998201391055
 51
159.2845330299277
  0
ARC
  5
4A4
  8
0
  6
DASHED2
 62
     7
 10
63.60978237418242
 20
80.19702094165473
 30
0.0
 40
1.0
 50
200.7154669700723
 51
251.8051248674166
  0
ARC
  5
4A5
  8
0
  6
DASHED2
 62
     7
 10
64.67151943472929
 20
86.19702094165473
 30
0.0
 40
1.0
 50
0.0
 51
71.80513670656242
  0
ARC
  5
4A6
  8
0
  6
DASHED2
 62
     7
 10
64.67151943472929
 20
80.19702094165473
 30
0.0
 40
1.0
 50
0.0
 51
89.99998201391097
  0
ARC
  5
4A7
  8
0
  6
DASHED2
 62
     7
 10
64.67151943472929
 20
86.19702094165473
 30
0.0
 40
1.0
 50
270.0000179860891
 51
360.0
  0
ARC
  5
4A8
  8
0
  6
DASHED2
 62
     7
 10
64.67151943472929
 20
80.19702094165473
 30
0.0
 40
1.0
 50
288.1948632934378
 51
360.0
  0
ARC
  5
4A9
  8
0
  6
DASHED2
 62
     7
 10
56.6523086192996
 20
83.19702094165473
 30
0.0
 40
1.200000047683716
 50
113.4679724171298
 51
246.5320171102153
  0
LINE
  5
4AA
  8
0
  6
DIVIDE
 62
     9
 10
-112.8037651450364
 20
58.69700568286567
 30
0.0
 11
-112.8037651450364
 21
13.6970018681684
 31
0.0
  0
LINE
  5
4AB
  8
0
  6
DIVIDE
 62
     9
 10
-56.80376514503637
 20
58.69702094165473
 30
0.0
 11
-56.80376514503637
 21
26.84400122729926
 31
0.0
  0
LINE
  5
4AC
  8
0
  6
DIVIDE
 62
     9
 10
-56.80376459026808
 20
58.69701977104336
 30
0.0
 11
-57.30376512106283
 21
59.19702030183811
 31
0.0
  0
LINE
  5
4AD
  8
0
  6
DIVIDE
 62
     9
 10
-61.17275318214575
 20
59.19702094165473
 30
0.0
 11
-57.30376514503637
 21
59.19702094165473
 31
0.0
  0
LINE
  5
4AE
  8
LAYER0001
  6
CONTINUOUS
 62
     7
 10
-113.8037651450364
 20
-58.8030095759234
 30
0.0
 11
-126.2704399497239
 21
-58.8030095759234
 31
0.0
  0
LINE
  5
4AF
  8
LAYER0001
  6
CONTINUOUS
 62
     7
 10
-54.80376514503637
 20
115.5617212590375
 30
0.0
 11
-62.12392124244848
 21
115.5617212590375
 31
0.0
  0
LINE
  5
4B0
  8
LAYER0001
  6
CONTINUOUS
 62
     7
 10
-53.80376514503637
 20
21.4988703068891
 30
0.0
 11
-42.24270900795141
 21
21.4988703068891
 31
0.0
  0
LINE
  5
4B1
  8
LAYER0001
  6
CONTINUOUS
 62
     7
 10
31.72297206752226
 20
-8.808290057305328
 30
0.0
 11
42.67052246073216
 21
-27.77000434664253
 31
0.0
  0
LINE
  5
4B2
  8
LAYER0001
  6
CONTINUOUS
 62
     7
 10
38.31153025256287
 20
7.697312245921528
 30
0.0
 11
25.35695082180403
 21
0.2179826358965897
 31
0.0
  0
LINE
  5
4B3
  8
LAYER0001
  6
CONTINUOUS
 62
     7
 10
44.00419390603893
 20
-1.717728023060622
 30
0.0
 11
30.85694858662997
 21
-9.308293331127686
 31
0.0
  0
LINE
  5
4B4
  8
LAYER0001
  6
CONTINUOUS
 62
     7
 10
26.22297239534781
 20
0.7179892133436283
 30
0.0
 11
31.72297206752226
 21
-8.808290057305328
 31
0.0
  0
INSERT
  5
4B5
  8
LAYER0001
  6
CONTINUOUS
  2
DC_GROUP_1
 10
0.0
 20
0.0
 30
0.0
  0
INSERT
  5
4B6
  8
LAYER0001
  6
CONTINUOUS
  2
DC_GROUP_4
 10
0.0
 20
0.0
 30
0.0
  0
INSERT
  5
4B7
  8
LAYER0001
  6
CONTINUOUS
  2
DC_GROUP_7
 10
0.0
 20
0.0
 30
0.0
  0
INSERT
  5
4B8
  8
LAYER0001
  6
CONTINUOUS
  2
DC_GROUP_10
 10
0.0
 20
0.0
 30
0.0
  0
INSERT
  5
4B9
  8
LAYER0001
  6
CONTINUOUS
  2
DC_GROUP_13
 10
0.0
 20
0.0
 30
0.0
  0
INSERT
  5
4BA
  8
LAYER0001
  6
CONTINUOUS
  2
DC_GROUP_16
 10
0.0
 20
0.0
 30
0.0
  0
INSERT
  5
4BB
  8
LAYER0001
  6
CONTINUOUS
  2
DC_GROUP_19
 10
0.0
 20
0.0
 30
0.0
  0
INSERT
  5
4BC
  8
LAYER0001
  6
CONTINUOUS
  2
DC_GROUP_22
 10
0.0
 20
0.0
 30
0.0
  0
INSERT
  5
4BD
  8
LAYER0001
  6
CONTINUOUS
  2
DC_GROUP_25
 10
0.0
 20
0.0
 30
0.0
  0
INSERT
  5
4BE
  8
LAYER0001
  6
CONTINUOUS
  2
DC_GROUP_28
 10
0.0
 20
0.0
 30
0.0
  0
INSERT
  5
4BF
  8
LAYER0001
  6
CONTINUOUS
  2
DC_GROUP_31
 10
0.0
 20
0.0
 30
0.0
  0
INSERT
  5
4C0
  8
LAYER0001
  6
CONTINUOUS
  2
DC_GROUP_34
 10
0.0
 20
0.0
 30
0.0
  0
INSERT
  5
4C1
  8
LAYER0001
  6
CONTINUOUS
  2
DC_GROUP_37
 10
0.0
 20
0.0
 30
0.0
  0
INSERT
  5
4C2
  8
LAYER0001
  6
CONTINUOUS
  2
DC_GROUP_40
 10
0.0
 20
0.0
 30
0.0
  0
INSERT
  5
4C3
  8
LAYER0001
  6
CONTINUOUS
  2
DC_GROUP_42
 10
0.0
 20
0.0
 30
0.0
  0
INSERT
  5
4C4
  8
LAYER0001
  6
CONTINUOUS
  2
DC_GROUP_45
 10
0.0
 20
0.0
 30
0.0
  0
INSERT
  5
4C5
  8
LAYER0001
  6
CONTINUOUS
  2
DC_GROUP_47
 10
0.0
 20
0.0
 30
0.0
  0
INSERT
  5
4C6
  8
LAYER0001
  6
CONTINUOUS
  2
DC_GROUP_49
 10
0.0
 20
0.0
 30
0.0
  0
INSERT
  5
4C7
  8
LAYER0001
  6
CONTINUOUS
  2
DC_GROUP_52
 10
0.0
 20
0.0
 30
0.0
  0
INSERT
  5
4C8
  8
LAYER0001
  6
CONTINUOUS
  2
DC_GROUP_55
 10
0.0
 20
0.0
 30
0.0
  0
INSERT
  5
4C9
  8
LAYER0001
  6
CONTINUOUS
  2
DC_GROUP_58
 10
0.0
 20
0.0
 30
0.0
  0
INSERT
  5
4CA
  8
LAYER0001
  6
CONTINUOUS
  2
DC_GROUP_61
 10
0.0
 20
0.0
 30
0.0
  0
INSERT
  5
4CB
  8
LAYER0001
  6
CONTINUOUS
  2
DC_GROUP_63
 10
0.0
 20
0.0
 30
0.0
  0
INSERT
  5
4CC
  8
LAYER0001
  6
CONTINUOUS
  2
DC_GROUP_66
 10
0.0
 20
0.0
 30
0.0
  0
INSERT
  5
4CD
  8
LAYER0001
  6
CONTINUOUS
  2
DC_GROUP_69
 10
0.0
 20
0.0
 30
0.0
  0
INSERT
  5
4CE
  8
LAYER0001
  6
CONTINUOUS
  2
DC_GROUP_71
 10
0.0
 20
0.0
 30
0.0
  0
INSERT
  5
4CF
  8
LAYER0001
  6
CONTINUOUS
  2
DC_GROUP_74
 10
0.0
 20
0.0
 30
0.0
  0
INSERT
  5
4D0
  8
LAYER0001
  6
CONTINUOUS
  2
DC_GROUP_76
 10
0.0
 20
0.0
 30
0.0
  0
INSERT
  5
4D1
  8
LAYER0001
  6
CONTINUOUS
  2
DC_GROUP_79
 10
0.0
 20
0.0
 30
0.0
  0
INSERT
  5
4D2
  8
LAYER0001
  6
CONTINUOUS
  2
DC_GROUP_82
 10
0.0
 20
0.0
 30
0.0
  0
INSERT
  5
4D3
  8
LAYER0001
  6
CONTINUOUS
  2
DC_GROUP_85
 10
0.0
 20
0.0
 30
0.0
  0
INSERT
  5
4D4
  8
LAYER0001
  6
CONTINUOUS
  2
DC_GROUP_86
 10
0.0
 20
0.0
 30
0.0
  0
LINE
  5
4D5
  8
0
  6
CONTINUOUS
 62
     2
 10
144.5737844875827
 20
13.19701345678072
 30
0.0
 11
141.5426947942748
 21
11.44701481278639
 31
0.0
  0
LINE
  5
4D6
  8
0
  6
CONTINUOUS
 62
     2
 10
147.6049010825054
 20
11.44699729743593
 30
0.0
 11
144.5738130581275
 21
13.19699875774973
 31
0.0
  0
LINE
  5
4D7
  8
0
  6
CONTINUOUS
 62
     2
 10
141.5427047374637
 20
11.44700472919135
 30
0.0
 11
141.5427047374637
 21
7.947004729191349
 31
0.0
  0
LINE
  5
4D8
  8
0
  6
CONTINUOUS
 62
     2
 10
141.5426925672113
 20
7.947004278986015
 30
0.0
 11
144.5737812174379
 21
6.197003861753501
 31
0.0
  0
LINE
  5
4D9
  8
0
  6
CONTINUOUS
 62
     2
 10
144.5738101209324
 20
6.197011820706621
 30
0.0
 11
147.6048991883915
 21
7.947011507782236
 31
0.0
  0
LINE
  5
4DA
  8
0
  6
CONTINUOUS
 62
     2
 10
147.6048690441043
 20
7.947002821842716
 30
0.0
 11
147.6048690441043
 21
11.44700282184272
 31
0.0
  0
LINE
  5
4DB
  8
0
  6
CONTINUOUS
 62
     2
 10
129.8513360664983
 20
21.69699427137061
 30
0.0
 11
126.8202463731904
 21
19.94699562737628
 31
0.0
  0
LINE
  5
4DC
  8
0
  6
CONTINUOUS
 62
     2
 10
132.8824214257874
 20
19.94699042765319
 30
0.0
 11
129.8513334014096
 21
21.69699188796699
 31
0.0
  0
LINE
  5
4DD
  8
0
  6
CONTINUOUS
 62
     2
 10
126.8202621105105
 20
19.94700377551703
 30
0.0
 11
126.8202621105105
 21
16.44700377551703
 31
0.0
  0
LINE
  5
4DE
  8
0
  6
CONTINUOUS
 62
     2
 10
126.8202467216037
 20
16.44697987654831
 30
0.0
 11
129.8513353718303
 21
14.6969794593158
 31
0.0
  0
LINE
  5
4DF
  8
0
  6
CONTINUOUS
 62
     2
 10
129.8513700023618
 20
14.69702915730181
 30
0.0
 11
132.8824590698209
 21
16.44702884437743
 31
0.0
  0
LINE
  5
4E0
  8
0
  6
CONTINUOUS
 62
     2
 10
132.8824264171512
 20
16.4470018681684
 30
0.0
 11
132.8824264171512
 21
19.9470018681684
 31
0.0
  0
LINE
  5
4E1
  8
0
  6
CONTINUOUS
 62
     2
 10
67.4975243643493
 20
21.69699213039826
 30
0.0
 11
64.46643467104143
 21
19.94699348640393
 31
0.0
  0
LINE
  5
4E2
  8
0
  6
CONTINUOUS
 62
     2
 10
70.52861327872681
 20
19.94695671505428
 30
0.0
 11
67.49752525434899
 21
21.69695817536808
 31
0.0
  0
LINE
  5
4E3
  8
0
  6
CONTINUOUS
 62
     2
 10
64.46642605094023
 20
19.94699996081977
 30
0.0
 11
64.46642605094023
 21
16.44699996081977
 31
0.0
  0
LINE
  5
4E4
  8
0
  6
CONTINUOUS
 62
     2
 10
64.46642489532353
 20
16.44701587493614
 30
0.0
 11
67.49751024192567
 21
14.69701736505272
 31
0.0
  0
LINE
  5
4E5
  8
0
  6
CONTINUOUS
 62
     2
 10
67.49751697694539
 20
14.69701651842775
 30
0.0
 11
70.5286060444045
 21
16.44701620550336
 31
0.0
  0
LINE
  5
4E6
  8
0
  6
CONTINUOUS
 62
     2
 10
70.52860561636992
 20
16.44699805347113
 30
0.0
 11
70.52860561636992
 21
19.94699805347113
 31
0.0
  0
LINE
  5
4E7
  8
0
  6
CONTINUOUS
 62
     2
 10
52.77508871113962
 20
13.19699871671151
 30
0.0
 11
49.74400232145733
 21
11.44700198006433
 31
0.0
  0
LINE
  5
4E8
  8
0
  6
CONTINUOUS
 62
     2
 10
55.80617981543689
 20
11.44699864903669
 30
0.0
 11
52.77509179105907
 21
13.19700010935048
 31
0.0
  0
LINE
  5
4E9
  8
0
  6
CONTINUOUS
 62
     2
 10
49.74399868277617
 20
11.44700091449408
 30
0.0
 11
49.74399868277617
 21
7.947000914494083
 31
0.0
  0
LINE
  5
4EA
  8
0
  6
CONTINUOUS
 62
     2
 10
49.74399681838888
 20
7.946980711664082
 30
0.0
 11
52.77508546861547
 21
6.196980294431569
 31
0.0
  0
LINE
  5
4EB
  8
0
  6
CONTINUOUS
 62
     2
 10
52.77508436357259
 20
6.197018038346187
 30
0.0
 11
55.8061734310317
 21
7.947017725421802
 31
0.0
  0
LINE
  5
4EC
  8
0
  6
CONTINUOUS
 62
     2
 10
55.80616298941679
 20
7.94699900714545
 30
0.0
 11
55.80616298941679
 21
11.44699900714545
 31
0.0
  0
LINE
  5
4ED
  8
0
  6
CONTINUOUS
 62
     2
 10
98.6744188159394
 20
-0.3779932793170246
 30
0.0
 11
94.60409961283249
 21
-2.727987411242566
 31
0.0
  0
LINE
  5
4EE
  8
0
  6
CONTINUOUS
 62
     2
 10
94.60410610465117
 20
-2.727997368892147
 30
0.0
 11
94.60410610465117
 21
-7.427996224482968
 31
0.0
  0
LINE
  5
4EF
  8
0
  6
CONTINUOUS
 62
     2
 10
94.60410432571955
 20
-7.427999535216486
 30
0.0
 11
98.67441904656009
 21
-9.778001371037362
 31
0.0
  0
LINE
  5
4F0
  8
0
  6
CONTINUOUS
 62
     2
 10
98.67446353673942
 20
-9.778045488586258
 30
0.0
 11
102.7447827398463
 21
-7.428051216589893
 31
0.0
  0
LINE
  5
4F1
  8
0
  6
CONTINUOUS
 62
     2
 10
102.7447616222293
 20
-7.428003853877499
 30
0.0
 11
102.7447616222293
 21
-2.728004998286679
 31
0.0
  0
LINE
  5
4F2
  8
0
  6
CONTINUOUS
 62
     2
 10
102.7447390672809
 20
-2.72801398168599
 30
0.0
 11
98.67442546700697
 21
-0.3780099047319254
 31
0.0
  0
LINE
  5
4F3
  8
0
  6
CONTINUOUS
 62
     2
 10
98.67442148750847
 20
75.69698904982306
 30
0.0
 11
95.64333179420059
 21
73.94699040582873
 31
0.0
  0
LINE
  5
4F4
  8
0
  6
CONTINUOUS
 62
     2
 10
101.7055035813825
 20
73.9469911737101
 30
0.0
 11
98.67442216425222
 21
75.69698881932345
 31
0.0
  0
LINE
  5
4F5
  8
0
  6
CONTINUOUS
 62
     2
 10
95.64332119254179
 20
73.94699805347113
 30
0.0
 11
95.64332119254179
 21
70.44699805347113
 31
0.0
  0
LINE
  5
4F6
  8
0
  6
CONTINUOUS
 62
     2
 10
95.6433246775254
 20
70.446988018605
 30
0.0
 11
98.67441002412754
 21
68.69698950872157
 31
0.0
  0
LINE
  5
4F7
  8
0
  6
CONTINUOUS
 62
     2
 10
98.67441136516446
 20
68.69699587541368
 30
0.0
 11
101.7055004326236
 21
70.44699556248929
 31
0.0
  0
LINE
  5
4F8
  8
0
  6
CONTINUOUS
 62
     2
 10
101.7055160167605
 20
70.44699805347113
 30
0.0
 11
101.7055160167605
 21
73.94699805347113
 31
0.0
  0
LINE
  5
4F9
  8
0
  6
CONTINUOUS
 62
     2
 10
98.67441811944177
 20
92.6969775147395
 30
0.0
 11
95.64332842613389
 21
90.94697887074517
 31
0.0
  0
LINE
  5
4FA
  8
0
  6
CONTINUOUS
 62
     2
 10
101.7054926054554
 20
90.94698810960108
 30
0.0
 11
98.67440458107755
 21
92.69698956991488
 31
0.0
  0
LINE
  5
4FB
  8
0
  6
CONTINUOUS
 62
     2
 10
95.64332119254179
 20
90.94699805347113
 30
0.0
 11
95.64332119254179
 21
87.44699805347113
 31
0.0
  0
LINE
  5
4FC
  8
0
  6
CONTINUOUS
 62
     2
 10
95.6433248232501
 20
87.44698403172038
 30
0.0
 11
98.67441347347669
 21
85.69698361448786
 31
0.0
  0
LINE
  5
4FD
  8
0
  6
CONTINUOUS
 62
     2
 10
98.67441530405641
 20
85.69699187034098
 30
0.0
 11
101.7055043715155
 21
87.4469915574166
 31
0.0
  0
LINE
  5
4FE
  8
0
  6
CONTINUOUS
 62
     2
 10
101.7055160167605
 20
87.44699805347113
 30
0.0
 11
101.7055160167605
 21
90.94699805347113
 31
0.0
  0
CIRCLE
  5
4FF
  8
0
  6
CONTINUOUS
 62
     2
 10
144.5738021495731
 20
9.697005682865665
 30
0.0
 40
6.5
  0
CIRCLE
  5
500
  8
0
  6
CONTINUOUS
 62
     2
 10
129.8513290050418
 20
18.1969904240766
 30
0.0
 40
6.5
  0
CIRCLE
  5
501
  8
0
  6
CONTINUOUS
 62
     2
 10
67.49750820426054
 20
18.1969904240766
 30
0.0
 40
6.5
  0
CIRCLE
  5
502
  8
0
  6
CONTINUOUS
 62
     2
 10
52.77508083609648
 20
9.697005682865665
 30
0.0
 40
6.5
  0
CIRCLE
  5
503
  8
0
  6
CONTINUOUS
 62
     2
 10
98.67441860465117
 20
-5.078003472407772
 30
0.0
 40
8.0
  0
CIRCLE
  5
504
  8
0
  6
CONTINUOUS
 62
     2
 10
98.67441860465117
 20
72.1969904240766
 30
0.0
 40
6.5
  0
CIRCLE
  5
505
  8
0
  6
CONTINUOUS
 62
     2
 10
98.67441860465117
 20
89.1969904240766
 30
0.0
 40
6.5
  0
LINE
  5
506
  8
0
  6
CONTINUOUS
 62
     5
 10
133.4371050573467
 20
71.94702556100475
 30
0.0
 11
135.6871083952069
 21
68.0499055325779
 31
0.0
  0
LINE
  5
507
  8
0
  6
CONTINUOUS
 62
     5
 10
134.4616187572673
 20
71.67252635032287
 30
0.0
 11
133.4370912442382
 21
71.9470476723634
 31
0.0
  0
LINE
  5
508
  8
0
  6
CONTINUOUS
 62
     5
 10
133.162646748316
 20
70.92250776002811
 30
0.0
 11
133.4371679755254
 21
71.94703533627808
 31
0.0
  0
LINE
  5
509
  8
0
  6
CONTINUOUS
 62
     5
 10
135.6872017615064
 20
68.04988497663635
 30
0.0
 11
135.9617229887157
 21
69.07441255288632
 31
0.0
  0
LINE
  5
50A
  8
0
  6
CONTINUOUS
 62
     5
 10
135.6871177157345
 20
68.04993064487076
 30
0.0
 11
134.6625902027053
 21
68.32445196691128
 31
0.0
  0
LINE
  5
50B
  8
0
  6
CONTINUOUS
 62
     5
 10
126.5669117845177
 20
68.84654955762238
 30
0.0
 11
139.5572926081299
 21
76.34654955762238
 31
0.0
  0
LINE
  5
50C
  8
0
  6
CONTINUOUS
 62
     5
 10
131.9230604988513
 20
78.32102504877685
 30
0.0
 11
131.1563497680724
 21
77.7001550714499
 31
0.0
  0
LINE
  5
50D
  8
0
  6
CONTINUOUS
 62
     5
 10
131.9230595197575
 20
78.3210292331637
 30
0.0
 11
131.3021990274899
 21
79.08772798802829
 31
0.0
  0
LINE
  5
50E
  8
0
  6
CONTINUOUS
 62
     5
 10
139.5572765326082
 20
76.34654688366487
 30
0.0
 11
135.8072765028059
 21
82.84173734709012
 31
0.0
  0
LINE
  5
50F
  8
0
  6
CONTINUOUS
 62
     5
 10
122.8169004475653
 20
75.34172908802842
 30
0.0
 11
135.8072812711775
 21
82.84172908802842
 31
0.0
  0
LINE
  5
510
  8
0
  6
CONTINUOUS
 62
     5
 10
126.566895708996
 20
68.84654688366487
 30
0.0
 11
120.9418966626703
 21
78.58933084956169
 31
0.0
  0
LINE
  5
511
  8
0
  6
CONTINUOUS
 62
     5
 10
120.9419000005304
 20
78.5893250682185
 30
0.0
 11
122.8904571240723
 21
79.7143250682185
 31
0.0
  0
LINE
  5
512
  8
0
  6
CONTINUOUS
 62
     5
 10
123.4529595678627
 20
78.74004227367846
 30
0.0
 11
122.8904633229553
 21
79.71431433143829
 31
0.0
  0
LINE
  5
513
  8
0
  6
CONTINUOUS
 62
     5
 10
123.4529586141884
 20
78.7400439254908
 30
0.0
 11
124.7519966965496
 21
79.4900439254908
 31
0.0
  0
LINE
  5
514
  8
0
  6
CONTINUOUS
 62
     5
 10
125.314480531621
 20
78.51576284461979
 30
0.0
 11
124.7519806210279
 21
79.49004125153329
 31
0.0
  0
LINE
  5
515
  8
0
  6
CONTINUOUS
 62
     5
 10
125.3145107753157
 20
78.51577149615949
 30
0.0
 11
126.6135488576769
 21
79.26577149615949
 31
0.0
  0
LINE
  5
516
  8
0
  6
CONTINUOUS
 62
     5
 10
127.3635327821552
 20
77.96673073984076
 30
0.0
 11
126.6135327821552
 21
79.26576882220198
 31
0.0
  0
LINE
  5
517
  8
0
  6
CONTINUOUS
 62
     5
 10
127.4874863260058
 20
80.75213932072802
 30
0.0
 11
127.7620075532151
 21
81.77666689697799
 31
0.0
  0
LINE
  5
518
  8
0
  6
CONTINUOUS
 62
     5
 10
125.1988640889635
 20
80.29682689821459
 30
0.0
 11
127.7619746900677
 21
81.7766395202849
 31
0.0
  0
LINE
  5
519
  8
0
  6
CONTINUOUS
 62
     5
 10
127.7619595209589
 20
81.776664204295
 30
0.0
 11
126.7374320079297
 21
82.05118552633553
 31
0.0
  0
ARC
  5
51A
  8
0
  6
CONTINUOUS
 62
     5
 10
131.2436477306277
 20
75.78544562427192
 30
0.0
 40
2.625001907348633
 50
75.0001079549973
 51
369.9999533779451
  0
TEXT
  5
51B
  8
0
 62
     5
 10
133.4110764670745
 20
68.23233609661692
 30
0.0
 40
2.5
  1
F
 50
120.0
 41
0.5442179498218349
  7
FDASTYLE1
 72
     5
 11
132.7308040297972
 21
69.4106025209699
 31
0.0
  0
TEXT
  5
51C
  8
0
 62
     5
 10
136.025825660266
 20
78.74167393991544
 30
0.0
 40
2.5
  1
N min
 50
120.0
 41
0.6995393319099827
  7
FDASTYLE1
 72
     5
 11
131.6537048358286
 21
86.31440934467094
 31
0.0
  0
TEXT
  5
51D
  8
0
 62
     5
 10
128.0165499415902
 20
89.05645388871858
 30
0.0
 40
1.25
  1
-1
 50
120.0
 41
0.6149070012128498
  7
FDASTYLE1
 72
     5
 11
127.2479161900741
 21
90.38776659875667
 31
0.0
  0
TEXT
  5
51E
  8
0
 62
     5
 10
126.7563065696135
 20
83.16363339886301
 30
0.0
 40
2.5
  1
ΣS
 50
120.0
 41
0.7846700504791635
  7
FDASTYLE1
 72
     5
 11
124.5984639307958
 21
86.90112648403377
 31
0.0
  0
TEXT
  5
51F
  8
0
 62
     5
 10
70.2458464267642
 20
-16.8030095759234
 30
0.0
 40
4.0
  1
NIKKO
 41
0.635880611816576
  7
FDASTYLE1
 72
     5
 11
82.96345866309572
 21
-16.8030095759234
 31
0.0
  0
TEXT
  5
520
  8
0
 62
     5
 10
109.6029742124469
 20
-16.3030095759234
 30
0.0
 40
3.0
  1
HF3-5
 41
0.723588282411966
  7
FDASTYLE1
 72
     5
 11
120.4567984486264
 21
-16.3030095759234
 31
0.0
  0
TEXT
  5
521
  8
0
 62
     5
 10
72.81799936465488
 20
79.91233697877478
 30
0.0
 40
2.5
  1
F MAX         7KN
 50
-120.0
 41
0.773346720690359
  7
FDASTYLE1
 72
     5
 11
56.38438154998473
 21
51.44847597159711
 31
0.0
  0
TEXT
  5
522
  8
0
 62
     5
 10
69.35389566592441
 20
81.91232934938024
 30
0.0
 40
2.5
  1
ΣS MAX       27KN
 50
-120.0
 41
0.644953232969491
  7
FDASTYLE1
 72
     5
 11
55.48740115708034
 21
57.89485633718751
 31
0.0
  0
TEXT
  5
523
  8
0
 62
     5
 10
65.88979196719394
 20
83.91233697877478
 30
0.0
 40
2.5
  1
N MAX        7000
 50
-120.0
 41
0.775588305388012
  7
FDASTYLE1
 72
     5
 11
49.40854047769867
 21
55.36597202664876
 31
0.0
  0
TEXT
  5
524
  8
0
 62
     5
 10
61.89275126084753
 20
86.22002950654577
 30
0.0
 40
2.5
  1
          AT ΣS MAX
 50
-120.0
 41
0.6446801278581311
  7
FDASTYLE1
 72
     5
 11
46.42042819225237
 21
59.42117984061899
 31
0.0
  0
TEXT
  5
525
  8
0
 62
     5
 10
109.781545853892
 20
-21.5530095759234
 30
0.0
 40
2.5
  1
0001
 41
0.6190477639687473
  7
FDASTYLE1
 72
     5
 11
115.9720234935795
 21
-21.5530095759234
 31
0.0
  0
TEXT
  5
526
  8
0
 62
     7
 10
1.639792340473893
 20
36.51969000553215
 30
0.0
 40
4.0
  1
MIN24.75
 50
90.0
 41
0.6523809523809523
  7
FDASTYLE1
 72
     5
 11
1.639792340473893
 21
57.39588048172262
 31
0.0
  0
INSERT
  5
527
  8
LAYER0001
  6
CONTINUOUS
  2
DC_GROUP_87
 10
0.0
 20
0.0
 30
0.0
  0
INSERT
  5
528
  8
LAYER0001
  6
CONTINUOUS
  2
DC_GROUP_88
 10
0.0
 20
0.0
 30
0.0
  0
TEXT
  5
529
  8
LAYER0001
 62
     7
 10
37.12112493677349
 20
-16.57199204731553
 30
0.0
 40
4.0
  1
11H8
 50
-59.99999999999999
 41
0.6952380952380952
  7
FDASTYLE1
 72
     5
 11
42.68302969867825
 21
-26.20549368179385
 31
0.0
  0
INSERT
  5
52A
  8
0
  6
CONTINUOUS
  2
DC_GROUP_89
 10
0.0
 20
0.0
 30
0.0
  0
INSERT
  5
52B
  8
0
  6
CONTINUOUS
  2
DC_GROUP_92
 10
0.0
 20
0.0
 30
0.0
  0
INSERT
  5
52C
  8
0
  6
CONTINUOUS
  2
DC_GROUP_95
 10
0.0
 20
0.0
 30
0.0
  0
VIEWPORT
  5
48
 67
     1
  8
0
 10
0.0
 20
0.0
 30
0.0
 40
1152.0
 41
830.9999999999993
 68
     1
 69
     1
1001
ACAD
1000
MVIEW
1002
{
1070
    16
1010
0.0
1020
0.0
1030
0.0
1020
0.0
1030
0.0
1010
0.0
1020
0.0
1030
1.0
1020
0.0
1030
1.0
1040
0.0
1040
830.9999999999993
1040
0.0
1040
0.0
1040
50.0
1040
0.0
1040
0.0
1070
     0
1070
   100
1070
     0
1070
     1
1070
     0
1070
     0
1070
     0
1070
     0
1040
0.0
1040
0.0
1040
0.0
1040
0.5
1040
0.5
1040
0.0
1040
0.0
1070
     0
1002
{
1002
}
1002
}
  0
ENDSEC
  0
EOF
