  0
SECTION
  2
HEADER
  9
$ACADVER
  1
AC1009
  9
$DWGCODEPAGE
  3
ansi_932
  9
$INSBASE
 10
0.0
 20
0.0
 30
0.0
  9
$EXTMIN
 10
-474.4276062545233
 20
-570.0
 30
0.0
  9
$EXTMAX
 10
1187.572393745477
 20
570.0
 30
0.0
  9
$LIMMIN
 10
-467.2222222222222
 20
-330.0
  9
$LIMMAX
 10
467.2222222222222
 20
330.0
  9
$ORTHOMODE
 70
     0
  9
$REGENMODE
 70
     1
  9
$FILLMODE
 70
     1
  9
$QTEXTMODE
 70
     0
  9
$MIRRTEXT
 70
     1
  9
$DRAGMODE
 70
     2
  9
$LTSCALE
 40
1.111111111111111
  9
$OSMODE
 70
    37
  9
$ATTMODE
 70
     1
  9
$TEXTSIZE
 40
0.2
  9
$TRACEWID
 40
0.05
  9
$TEXTSTYLE
  7
STANDARD
  9
$CLAYER
  8
0
  9
$CELTYPE
  6
BYLAYER
  9
$CECOLOR
 62
   256
  9
$DIMSCALE
 40
1.0
  9
$DIMASZ
 40
2.777777777777778
  9
$DIMEXO
 40
0.0625
  9
$DIMDLI
 40
0.38
  9
$DIMRND
 40
0.0
  9
$DIMDLE
 40
0.0
  9
$DIMEXE
 40
0.18
  9
$DIMTP
 40
0.0
  9
$DIMTM
 40
0.0
  9
$DIMTXT
 40
0.18
  9
$DIMCEN
 40
0.09
  9
$DIMTSZ
 40
0.0
  9
$DIMTOL
 70
     0
  9
$DIMLIM
 70
     0
  9
$DIMTIH
 70
     1
  9
$DIMTOH
 70
     1
  9
$DIMSE1
 70
     0
  9
$DIMSE2
 70
     0
  9
$DIMTAD
 70
     3
  9
$DIMZIN
 70
     0
  9
$DIMBLK
  1

  9
$DIMASO
 70
     1
  9
$DIMSHO
 70
     1
  9
$DIMPOST
  1

  9
$DIMAPOST
  1

  9
$DIMALT
 70
     0
  9
$DIMALTD
 70
     2
  9
$DIMALTF
 40
25.4
  9
$DIMLFAC
 40
1.0
  9
$DIMTOFL
 70
     0
  9
$DIMTVP
 40
0.0
  9
$DIMTIX
 70
     0
  9
$DIMSOXD
 70
     0
  9
$DIMSAH
 70
     0
  9
$DIMBLK1
  1

  9
$DIMBLK2
  1

  9
$DIMSTYLE
  2
STANDARD
  9
$DIMCLRD
 70
     0
  9
$DIMCLRE
 70
     0
  9
$DIMCLRT
 70
     0
  9
$DIMTFAC
 40
1.0
  9
$DIMGAP
 40
0.09
  9
$LUNITS
 70
     2
  9
$LUPREC
 70
     4
  9
$SKETCHINC
 40
0.1
  9
$FILLETRAD
 40
0.5
  9
$AUNITS
 70
     0
  9
$AUPREC
 70
     0
  9
$MENU
  1
.
  9
$ELEVATION
 40
0.0
  9
$PELEVATION
 40
0.0
  9
$THICKNESS
 40
0.0
  9
$LIMCHECK
 70
     0
  9
$CHAMFERA
 40
0.5
  9
$CHAMFERB
 40
0.5
  9
$SKPOLY
 70
     0
  9
$TDCREATE
 40
2455483.57019934
  9
$TDUPDATE
 40
2455483.570199352
  9
$TDINDWG
 40
0.0000000116
  9
$TDUSRTIMER
 40
0.0000000116
  9
$USRTIMER
 70
     1
  9
$ANGBASE
 50
0.0
  9
$ANGDIR
 70
     0
  9
$PDMODE
 70
     0
  9
$PDSIZE
 40
1.0
  9
$PLINEWID
 40
0.0
  9
$COORDS
 70
     1
  9
$SPLFRAME
 70
     0
  9
$SPLINETYPE
 70
     6
  9
$SPLINESEGS
 70
     8
  9
$ATTDIA
 70
     0
  9
$ATTREQ
 70
     1
  9
$HANDLING
 70
     1
  9
$HANDSEED
  5
62C
  9
$SURFTAB1
 70
     6
  9
$SURFTAB2
 70
     6
  9
$SURFTYPE
 70
     6
  9
$SURFU
 70
     6
  9
$SURFV
 70
     6
  9
$UCSNAME
  2

  9
$UCSORG
 10
0.0
 20
0.0
 30
0.0
  9
$UCSXDIR
 10
1.0
 20
0.0
 30
0.0
  9
$UCSYDIR
 10
0.0
 20
1.0
 30
0.0
  9
$PUCSNAME
  2

  9
$PUCSORG
 10
0.0
 20
0.0
 30
0.0
  9
$PUCSXDIR
 10
1.0
 20
0.0
 30
0.0
  9
$PUCSYDIR
 10
0.0
 20
1.0
 30
0.0
  9
$USERI1
 70
     0
  9
$USERI2
 70
     0
  9
$USERI3
 70
     0
  9
$USERI4
 70
     0
  9
$USERI5
 70
     0
  9
$USERR1
 40
0.0
  9
$USERR2
 40
0.0
  9
$USERR3
 40
0.0
  9
$USERR4
 40
0.0
  9
$USERR5
 40
0.0
  9
$WORLDVIEW
 70
     1
  9
$SHADEDGE
 70
     3
  9
$SHADEDIF
 70
    70
  9
$TILEMODE
 70
     1
  9
$MAXACTVP
 70
    64
  9
$PLIMCHECK
 70
     0
  9
$PEXTMIN
 10
1.000000000000000E+20
 20
1.000000000000000E+20
 30
1.000000000000000E+20
  9
$PEXTMAX
 10
-1.000000000000000E+20
 20
-1.000000000000000E+20
 30
-1.000000000000000E+20
  9
$PLIMMIN
 10
0.0
 20
0.0
  9
$PLIMMAX
 10
12.0
 20
9.0
  9
$UNITMODE
 70
     0
  9
$VISRETAIN
 70
     0
  9
$PLINEGEN
 70
     1
  9
$PSLTSCALE
 70
     0
  0
ENDSEC
  0
SECTION
  2
TABLES
  0
TABLE
  2
VPORT
 70
     1
  0
VPORT
  2
*ACTIVE
 70
     0
 10
0.0
 20
0.0
 11
1.0
 21
1.0
 12
0.0
 22
0.0
 13
0.0
 23
0.0
 14
0.5
 24
0.5
 15
0.5
 25
0.5
 16
0.0
 26
0.0
 36
1.0
 17
356.5723937454767
 27
0.0
 37
0.0
 40
387.6
 41
1.457894736842105
 42
50.0
 43
0.0
 44
0.0
 50
0.0
 51
0.0
 71
     0
 72
  1000
 73
     1
 74
     1
 75
     0
 76
     0
 77
     0
 78
     0
  0
ENDTAB
  0
TABLE
  2
LTYPE
 70
    28
  0
LTYPE
  2
CONTINUOUS
 70
     0
  3
Solid line
 72
    65
 73
     0
 40
0.0
  0
LTYPE
  2
HIDDENX2
 70
     0
  3
CADPAC LINETYPE
 72
    65
 73
     2
 40
13.12707182320435
 49
9.84530386740326
 49
-3.281767955801087
  0
LTYPE
  2
HIDDEN
 70
     0
  3
CADPAC LINETYPE
 72
    65
 73
     2
 40
9.84530386740326
 49
6.563535911602173
 49
-3.281767955801087
  0
LTYPE
  2
HIDDEN2
 70
     0
  3
CADPAC LINETYPE
 72
    65
 73
     2
 40
8.204419889502717
 49
4.92265193370163
 49
-3.281767955801087
  0
LTYPE
  2
DASHED
 70
     0
  3
CADPAC LINETYPE
 72
    65
 73
     2
 40
9.188950276243043
 49
6.563535911602173
 49
-2.625414364640869
  0
LTYPE
  2
DASHED2
 70
     0
  3
CADPAC LINETYPE
 72
    65
 73
     2
 40
5.907182320442007
 49
3.938121546961304
 49
-1.969060773480703
  0
LTYPE
  2
DASHEDX2
 70
     0
  3
CADPAC LINETYPE
 72
    65
 73
     2
 40
15.75248618784522
 49
13.12707182320435
 49
-2.625414364640869
  0
LTYPE
  2
DOTX2
 70
     0
  3
CADPAC LINETYPE
 72
    65
 73
     2
 40
5.743093922651966
 49
0.0
 49
-5.743093922651966
  0
LTYPE
  2
DOT
 70
     0
  3
CADPAC LINETYPE
 72
    65
 73
     2
 40
4.594475138121573
 49
0.0
 49
-4.594475138121573
  0
LTYPE
  2
DOT2
 70
     0
  3
CADPAC LINETYPE
 72
    65
 73
     2
 40
3.44585635359118
 49
0.0
 49
-3.44585635359118
  0
LTYPE
  2
CENTERX2
 70
     0
  3
CADPAC LINETYPE
 72
    65
 73
     4
 40
19.69060773480652
 49
8.204419889502717
 49
-4.102209944751358
 49
3.281767955801087
 49
-4.102209944751358
  0
LTYPE
  2
CENTER
 70
     0
  3
CADPAC LINETYPE
 72
    65
 73
     4
 40
15.096132596685
 49
6.563535911602173
 49
-3.281767955801087
 49
1.969060773480652
 49
-3.281767955801087
  0
LTYPE
  2
CENTER2
 70
     0
  3
CADPAC LINETYPE
 72
    65
 73
     4
 40
10.50165745856348
 49
4.92265193370163
 49
-2.461325966850815
 49
0.6563535911602174
 49
-2.461325966850815
  0
LTYPE
  2
DASHDOTX2
 70
     0
  3
CADPAC LINETYPE
 72
    65
 73
     4
 40
31.50497237569054
 49
15.75248618784532
 49
-5.250828729281738
 49
5.250828729281738
 49
-5.250828729281738
  0
LTYPE
  2
DASHDOT
 70
     0
  3
CADPAC LINETYPE
 72
    65
 73
     4
 40
15.75248618784532
 49
7.87624309392271
 49
-2.625414364640869
 49
2.625414364640869
 49
-2.625414364640869
  0
LTYPE
  2
DASHDOT2
 70
     0
  3
CADPAC LINETYPE
 72
    65
 73
     4
 40
10.10784530386742
 49
5.907182320442033
 49
-1.969060773480652
 49
0.262541436464087
 49
-1.969060773480652
  0
LTYPE
  2
DIVIDEX2
 70
     0
  3
CADPAC LINETYPE
 72
    65
 73
     6
 40
42.00662983425401
 49
15.75248618784532
 49
-5.250828729281738
 49
5.250828729281738
 49
-5.250828729281738
 49
5.250828729281738
 49
-5.250828729281738
  0
LTYPE
  2
DIVIDE
 70
     0
  3
CADPAC LINETYPE
 72
    65
 73
     6
 40
21.00331491712706
 49
7.87624309392271
 49
-2.625414364640869
 49
2.625414364640869
 49
-2.625414364640869
 49
2.625414364640869
 49
-2.625414364640869
  0
LTYPE
  2
DIVIDE2
 70
     0
  3
CADPAC LINETYPE
 72
    65
 73
     6
 40
15.75248618784529
 49
5.907182320442033
 49
-1.969060773480652
 49
1.969060773480652
 49
-1.969060773480652
 49
1.969060773480652
 49
-1.969060773480652
  0
LTYPE
  2
BORDERX2
 70
     0
  3
CADPAC LINETYPE
 72
    65
 73
     6
 40
28.71546961325951
 49
8.204419889502717
 49
-4.102209944751358
 49
8.204419889502717
 49
-4.102209944751358
 49
0.0
 49
-4.102209944751358
  0
LTYPE
  2
BORDER
 70
     0
  3
CADPAC LINETYPE
 72
    65
 73
     6
 40
22.97237569060761
 49
6.563535911602173
 49
-3.281767955801087
 49
6.563535911602173
 49
-3.281767955801087
 49
0.0
 49
-3.281767955801087
  0
LTYPE
  2
BORDER2
 70
     0
  3
CADPAC LINETYPE
 72
    65
 73
     6
 40
17.0651933701656
 49
5.250828729281738
 49
-3.281767955801036
 49
1.969060773480703
 49
-3.281767955801036
 49
0.0
 49
-3.281767955801087
  0
LTYPE
  2
PHANTOMX2
 70
     0
  3
CADPAC LINETYPE
 72
    65
 73
     6
 40
24.61325966850815
 49
8.204419889502717
 49
-3.281767955801087
 49
3.281767955801087
 49
-3.281767955801087
 49
3.281767955801087
 49
-3.281767955801087
  0
LTYPE
  2
PHANTOM
 70
     0
  3
CADPAC LINETYPE
 72
    65
 73
     6
 40
20.34696132596674
 49
6.563535911602173
 49
-3.281767955801087
 49
1.969060773480652
 49
-3.281767955801087
 49
1.969060773480652
 49
-3.281767955801087
  0
LTYPE
  2
PHANTOM2
 70
     0
  3
CADPAC LINETYPE
 72
    65
 73
     6
 40
17.39337016574576
 49
4.92265193370163
 49
-3.281767955801087
 49
1.312707182320435
 49
-3.281767955801087
 49
1.312707182320435
 49
-3.281767955801087
  0
LTYPE
  2
ACAD_ISO06W100
 70
     0
  3
CADPAC LINETYPE
 72
    65
 73
     8
 40
34.78674033149157
 49
15.75248618784532
 49
-3.281767955801036
 49
1.969060773480703
 49
-3.281767955801036
 49
1.969060773480703
 49
-3.281767955801036
 49
1.969060773480703
 49
-3.281767955801036
  0
LTYPE
  2
ACAD_ISO13W100
 70
     0
  3
CADPAC LINETYPE
 72
    65
 73
     8
 40
26.25414364640869
 49
6.563535911602173
 49
-3.281767955801087
 49
6.563535911602173
 49
-3.281767955801087
 49
0.0
 49
-3.281767955801087
 49
0.0
 49
-3.281767955801087
  0
LTYPE
  2
ACAD_ISO14W100
 70
     0
  3
CADPAC LINETYPE
 72
    65
 73
     8
 40
19.69060773480652
 49
6.563535911602173
 49
-3.281767955801087
 49
0.0
 49
-3.281767955801087
 49
0.0
 49
-3.281767955801087
 49
0.0
 49
-3.281767955801087
  0
ENDTAB
  0
TABLE
  2
LAYER
 70
     3
  0
LAYER
  2
0
 70
     0
 62
     7
  6
CONTINUOUS
  0
LAYER
  2
LAYER0001
 70
     0
 62
     7
  6
CONTINUOUS
  0
LAYER
  2
LAYER0002
 70
     0
 62
     7
  6
CONTINUOUS
  0
ENDTAB
  0
TABLE
  2
STYLE
 70
     5
  0
STYLE
  2
STANDARD
 70
     0
 40
0.0
 41
1.0
 50
0.0
 71
     0
 42
0.2
  3
txt
  4

  0
STYLE
  2
FDASTYLE1
 70
     0
 40
0.0
 41
0.6952380952380968
 50
0.0
 71
     0
 42
0.2
  3
txt.shx
  4
bigfont
  0
STYLE
  2
FDASTYLE0
 70
     4
 40
0.0
 41
0.8
 50
0.0
 71
     0
 42
0.2
  3
txt.shx
  4
bigfont
  0
STYLE
  2
FDASTYLE2
 70
     0
 40
0.0
 41
0.8123476848090979
 50
0.0
 71
     0
 42
0.2
  3
MSMINCHO.TTC
  4

  0
STYLE
  2
FDASTYLE3
 70
     0
 40
0.0
 41
0.6684336356141793
 50
0.0
 71
     0
 42
0.2
  3
MSGOTHIC.TTC
  4

  0
ENDTAB
  0
TABLE
  2
VIEW
 70
     0
  0
ENDTAB
  0
TABLE
  2
UCS
 70
     0
  0
ENDTAB
  0
TABLE
  2
APPID
 70
     2
  0
APPID
  2
ACAD
 70
     0
  0
APPID
  2
DAFUSIONOUT
 70
     0
  0
ENDTAB
  0
TABLE
  2
DIMSTYLE
 70
     1
  0
DIMSTYLE
  2
STANDARD
 70
     0
  3

  4

  5

  6

  7

 40
1.0
 41
0.18
 42
0.0625
 43
0.38
 44
0.18
 45
0.0
 46
0.0
 47
0.0
 48
0.0
140
0.18
141
0.09
142
0.0
143
25.4
144
1.0
145
0.0
146
1.0
147
0.09
 71
     0
 72
     0
 73
     1
 74
     1
 75
     0
 76
     0
 77
     0
 78
     0
170
     0
171
     2
172
     0
173
     0
174
     0
175
     0
176
     0
177
     0
178
     0
  0
ENDTAB
  0
ENDSEC
  0
SECTION
  2
BLOCKS
  0
BLOCK
  8
0
  2
$MODEL_SPACE
 70
     0
 10
0.0
 20
0.0
 30
0.0
  3
$MODEL_SPACE
  1

  0
ENDBLK
  5
21
  8
0
  0
BLOCK
 67
     1
  8
0
  2
$PAPER_SPACE
 70
     0
 10
0.0
 20
0.0
 30
0.0
  3
$PAPER_SPACE
  1

  0
ENDBLK
  5
1D
 67
     1
  8
0
  0
BLOCK
  8
0
  2
DC_GROUP_1
 70
     0
 10
0.0
 20
0.0
 30
0.0
  3
DC_GROUP_1
  1

  0
LINE
  5
1B7
  8
LAYER0001
  6
CONTINUOUS
 62
     7
 10
417.8795023586343
 20
-3.721171514694146
 30
0.0
 11
406.0416645650021
 21
-10.55574708911715
 31
0.0
  0
LINE
  5
1B8
  8
LAYER0001
  6
CONTINUOUS
 62
     7
 10
423.3795097914857
 20
-13.24743786000321
 30
0.0
 11
411.5416587833529
 21
-20.08202106381802
 31
0.0
  0
LINE
  5
1B9
  8
LAYER0001
  6
CONTINUOUS
 62
     7
 10
406.9076929334742
 20
-10.05575222336879
 30
0.0
 11
412.4076900128469
 21
-19.58203115350736
 31
0.0
  0
LINE
  5
1BA
  8
LAYER0001
  6
CONTINUOUS
 62
     7
 10
424.5858744830838
 20
-40.67527546835517
 30
0.0
 11
412.4076900128469
 21
-19.58203115350736
 31
0.0
  0
LINE
  5
1BB
  8
LAYER0001
  6
CONTINUOUS
 62
     7
 10
404.4076938284692
 20
-5.725624687721077
 30
0.0
 11
406.9076929334742
 21
-10.05575222336879
 31
0.0
  0
INSERT
  5
1BC
  8
LAYER0001
  6
CONTINUOUS
  2
DC_GROUP_2
 10
0.0
 20
0.0
 30
0.0
  0
INSERT
  5
1BD
  8
LAYER0001
  6
CONTINUOUS
  2
DC_GROUP_3
 10
0.0
 20
0.0
 30
0.0
  0
TEXT
  5
1BF
  8
LAYER0001
 62
     7
 10
418.5519024603997
 20
-28.2241236489665
 30
0.0
 40
4.0
  1
11H8
 50
-59.99999999999999
 41
0.6952380952380968
  7
FDASTYLE1
 72
     5
 11
424.1138072223045
 21
-37.85762528344485
 31
0.0
  0
ENDBLK
  5
4E
  8
0
  0
BLOCK
  8
0
  2
DC_GROUP_2
 70
     0
 10
0.0
 20
0.0
 30
0.0
  3
DC_GROUP_2
  1

  0
LINE
  5
1C0
  8
LAYER0001
  6
CONTINUOUS
 62
     7
 10
412.9435861921843
 20
-21.5820304602573
 30
0.0
 11
412.4076900128469
 21
-19.58203115350736
 31
0.0
  0
LINE
  5
1C1
  8
LAYER0001
  6
CONTINUOUS
 62
     7
 10
412.4076900128469
 20
-19.58203115350736
 30
0.0
 11
413.8717915251447
 21
-21.04613111721066
 31
0.0
  0
LINE
  5
1C2
  8
LAYER0001
  6
CONTINUOUS
 62
     7
 10
412.4076900128469
 20
-19.58203115350736
 30
0.0
 11
413.4076888586645
 21
-21.31408078873398
 31
0.0
  0
ENDBLK
  5
51
  8
0
  0
BLOCK
  8
0
  2
DC_GROUP_3
 70
     0
 10
0.0
 20
0.0
 30
0.0
  3
DC_GROUP_3
  1

  0
LINE
  5
1C3
  8
LAYER0001
  6
CONTINUOUS
 62
     7
 10
406.3717967541368
 20
-8.055752916618852
 30
0.0
 11
406.9076929334742
 21
-10.05575222336879
 31
0.0
  0
LINE
  5
1C4
  8
LAYER0001
  6
CONTINUOUS
 62
     7
 10
406.9076929334742
 20
-10.05575222336879
 30
0.0
 11
405.4435914211764
 21
-8.591652259665489
 31
0.0
  0
LINE
  5
1C5
  8
LAYER0001
  6
CONTINUOUS
 62
     7
 10
406.9076929334742
 20
-10.05575222336879
 30
0.0
 11
405.9076940876565
 21
-8.323702588142171
 31
0.0
  0
ENDBLK
  5
54
  8
0
  0
BLOCK
  8
0
  2
DC_GROUP_4
 70
     0
 10
0.0
 20
0.0
 30
0.0
  3
DC_GROUP_4
  1

  0
LINE
  5
1C6
  8
LAYER0001
  6
CONTINUOUS
 62
     7
 10
413.5045085053595
 20
3.856540132100827
 30
0.0
 11
392.8712613566562
 21
-8.056072297363272
 31
0.0
  0
LINE
  5
1C7
  8
LAYER0001
  6
CONTINUOUS
 62
     7
 10
427.7545210686403
 20
-20.82517936252814
 30
0.0
 11
407.121264009063
 21
-32.73779751403882
 31
0.0
  0
LINE
  5
1C8
  8
LAYER0001
  6
CONTINUOUS
 62
     7
 10
393.7372810228504
 20
-7.556062326884586
 30
0.0
 11
407.9872970266993
 21
-32.23781066893289
 31
0.0
  0
INSERT
  5
1C9
  8
LAYER0001
  6
DASHDOT2
  2
DC_GROUP_5
 10
0.0
 20
0.0
 30
0.0
  0
INSERT
  5
1CA
  8
LAYER0001
  6
CONTINUOUS
  2
DC_GROUP_6
 10
0.0
 20
0.0
 30
0.0
  0
TEXT
  5
1CB
  8
LAYER0001
 62
     7
 10
400.6479291071265
 20
-16.32565512451573
 30
0.0
 40
4.0
  1
28
 50
-59.99999999999999
 41
0.647619047619046
  7
FDASTYLE1
 72
     5
 11
403.2384052976027
 21
-20.81249150221796
 31
0.0
  0
ENDBLK
  5
57
  8
0
  0
BLOCK
  8
0
  2
DC_GROUP_5
 70
     0
 10
0.0
 20
0.0
 30
0.0
  3
DC_GROUP_5
  1

  0
LINE
  5
1CC
  8
LAYER0001
  6
CONTINUOUS
 62
     7
 10
394.27317773435
 20
-9.556061491042559
 30
0.0
 11
393.7372810228504
 21
-7.556062326884586
 31
0.0
  0
LINE
  5
1CD
  8
LAYER0001
  6
CONTINUOUS
 62
     7
 10
393.7372810228504
 20
-7.556062326884586
 30
0.0
 11
395.2013829247176
 21
-9.020161901017966
 31
0.0
  0
LINE
  5
1CE
  8
LAYER0001
  6
CONTINUOUS
 62
     7
 10
393.7372810228504
 20
-7.556062326884586
 30
0.0
 11
394.7372803295338
 21
-9.288111696030263
 31
0.0
  0
ENDBLK
  5
5A
  8
0
  0
BLOCK
  8
0
  2
DC_GROUP_6
 70
     0
 10
0.0
 20
0.0
 30
0.0
  3
DC_GROUP_6
  1

  0
LINE
  5
1CF
  8
LAYER0001
  6
CONTINUOUS
 62
     7
 10
407.4514003151996
 20
-30.23781150477491
 30
0.0
 11
407.9872970266993
 21
-32.23781066893289
 31
0.0
  0
LINE
  5
1D0
  8
LAYER0001
  6
CONTINUOUS
 62
     7
 10
407.9872970266993
 20
-32.23781066893289
 30
0.0
 11
406.5231951248321
 21
-30.77371109479951
 31
0.0
  0
LINE
  5
1D1
  8
LAYER0001
  6
CONTINUOUS
 62
     7
 10
407.9872970266993
 20
-32.23781066893289
 30
0.0
 11
406.9872977200159
 21
-30.50576129978721
 31
0.0
  0
ENDBLK
  5
5D
  8
0
  0
BLOCK
  8
0
  2
DC_GROUP_7
 70
     0
 10
0.0
 20
0.0
 30
0.0
  3
DC_GROUP_7
  1

  0
LINE
  5
1D2
  8
LAYER0001
  6
CONTINUOUS
 62
     7
 10
434.8268499992498
 20
68.40324761386302
 30
0.0
 11
408.8045869035048
 21
83.42719181367536
 31
0.0
  0
LINE
  5
1D3
  8
LAYER0001
  6
CONTINUOUS
 62
     7
 10
402.0200020128746
 20
34.05783832361139
 30
0.0
 11
395.5761152938929
 21
34.05792535446385
 31
0.0
  0
ARC
  5
1D4
  8
LAYER0001
  6
CONTINUOUS
 62
     7
 10
494.3148240903439
 20
34.05784988403323
 30
0.0
 40
97.73870849609375
 50
150.0000110043195
 51
179.9999640278213
  0
INSERT
  5
1D5
  8
LAYER0001
  6
CONTINUOUS
  2
DC_GROUP_8
 10
0.0
 20
0.0
 30
0.0
  0
INSERT
  5
1D6
  8
LAYER0001
  6
BORDER
  2
DC_GROUP_9
 10
0.0
 20
0.0
 30
0.0
  0
TEXT
  5
1D7
  8
LAYER0001
 62
     7
 10
397.1186747123849
 20
55.13217776696286
 30
0.0
 40
4.0
  1
30ﾟ
 50
75.0
 41
0.4499999999999985
  7
FDASTYLE1
 72
     5
 11
398.5162975559385
 21
60.34817722892381
 31
0.0
  0
ENDBLK
  5
60
  8
0
  0
BLOCK
  8
0
  2
DC_GROUP_8
 70
     0
 10
0.0
 20
0.0
 30
0.0
  3
DC_GROUP_8
  1

  0
LINE
  5
1D8
  8
LAYER0001
  6
CONTINUOUS
 62
     7
 10
408.2215647761665
 20
81.44818508209843
 30
0.0
 11
409.6706102137196
 21
82.92718787517734
 31
0.0
  0
LINE
  5
1D9
  8
LAYER0001
  6
CONTINUOUS
 62
     7
 10
409.6706102137196
 20
82.92718787517734
 30
0.0
 11
409.155204400192
 21
80.92181040711539
 31
0.0
  0
LINE
  5
1DA
  8
LAYER0001
  6
CONTINUOUS
 62
     7
 10
409.6706102137196
 20
82.92718787517734
 30
0.0
 11
408.6883845881793
 21
81.18499774460692
 31
0.0
  0
ENDBLK
  5
63
  8
0
  0
BLOCK
  8
0
  2
DC_GROUP_9
 70
     0
 10
0.0
 20
0.0
 30
0.0
  3
DC_GROUP_9
  1

  0
LINE
  5
1DB
  8
LAYER0001
  6
CONTINUOUS
 62
     7
 10
397.1324506696342
 20
36.05232174346332
 30
0.0
 11
396.5761155942694
 21
34.05791124761563
 31
0.0
  0
LINE
  5
1DC
  8
LAYER0001
  6
CONTINUOUS
 62
     7
 10
396.5761155942694
 20
34.05791124761563
 30
0.0
 11
396.0607077045357
 21
36.06328818206684
 31
0.0
  0
LINE
  5
1DD
  8
LAYER0001
  6
CONTINUOUS
 62
     7
 10
396.5761155942694
 20
34.05791124761563
 30
0.0
 11
396.596579187085
 21
36.05780496276508
 31
0.0
  0
ENDBLK
  5
66
  8
0
  0
BLOCK
  8
0
  2
DC_GROUP_10
 70
     0
 10
0.0
 20
0.0
 30
0.0
  3
DC_GROUP_10
  1

  0
LINE
  5
1DE
  8
LAYER0001
  6
CONTINUOUS
 62
     7
 10
586.7436180356564
 20
34.05784988403323
 30
0.0
 11
593.0532274106564
 21
34.05784988403323
 31
0.0
  0
LINE
  5
1DF
  8
LAYER0001
  6
CONTINUOUS
 62
     7
 10
570.9460165861503
 20
78.3009676511568
 30
0.0
 11
579.8247773783783
 21
83.42712171272981
 31
0.0
  0
ARC
  5
1E0
  8
LAYER0001
  6
CONTINUOUS
 62
     7
 10
494.3146715024532
 20
34.05784988403323
 30
0.0
 40
97.73856353759766
 50
0.0
 51
29.99999400463689
  0
INSERT
  5
1E1
  8
LAYER0001
  6
CONTINUOUS
  2
DC_GROUP_11
 10
0.0
 20
0.0
 30
0.0
  0
INSERT
  5
1E2
  8
LAYER0001
  6
CONTINUOUS
  2
DC_GROUP_12
 10
0.0
 20
0.0
 30
0.0
  0
TEXT
  5
1E3
  8
LAYER0001
 62
     7
 10
589.0260245330236
 20
64.40499703478714
 30
0.0
 40
4.0
  1
30ﾟ
 50
-75.00000000000003
 41
0.4499999999999961
  7
FDASTYLE1
 72
     5
 11
590.4236473765772
 21
59.18899757282621
 31
0.0
  0
ENDBLK
  5
69
  8
0
  0
BLOCK
  8
0
  2
DC_GROUP_11
 70
     0
 10
0.0
 20
0.0
 30
0.0
  3
DC_GROUP_11
  1

  0
LINE
  5
1E4
  8
LAYER0001
  6
CONTINUOUS
 62
     7
 10
592.568644158396
 20
36.06322650271499
 30
0.0
 11
592.0532350400508
 21
34.05784988403323
 31
0.0
  0
LINE
  5
1E5
  8
LAYER0001
  6
CONTINUOUS
 62
     7
 10
592.0532350400508
 20
34.05784988403323
 30
0.0
 11
591.4969011865788
 21
36.052260720724
 31
0.0
  0
LINE
  5
1E6
  8
LAYER0001
  6
CONTINUOUS
 62
     7
 10
592.0532350400508
 20
34.05784988403323
 30
0.0
 11
592.0327726724873
 21
36.0577436117195
 31
0.0
  0
ENDBLK
  5
6C
  8
0
  0
BLOCK
  8
0
  2
DC_GROUP_12
 70
     0
 10
0.0
 20
0.0
 30
0.0
  3
DC_GROUP_12
  1

  0
LINE
  5
1E7
  8
LAYER0001
  6
CONTINUOUS
 62
     7
 10
579.474161527449
 20
80.92174536495003
 30
0.0
 11
578.9587555690362
 21
82.92712279577472
 31
0.0
  0
LINE
  5
1E8
  8
LAYER0001
  6
CONTINUOUS
 62
     7
 10
578.9587555690362
 20
82.92712279577472
 30
0.0
 11
580.4078011134448
 21
81.44812010738704
 31
0.0
  0
LINE
  5
1E9
  8
LAYER0001
  6
CONTINUOUS
 62
     7
 10
578.9587555690362
 20
82.92712279577472
 30
0.0
 11
579.9409813204469
 21
81.18493273616853
 31
0.0
  0
ENDBLK
  5
6F
  8
0
  0
BLOCK
  8
0
  2
DC_GROUP_13
 70
     0
 10
0.0
 20
0.0
 30
0.0
  3
DC_GROUP_13
  1

  0
LINE
  5
1EA
  8
LAYER0001
  6
CONTINUOUS
 62
     7
 10
489.8914701166096
 20
-25.80518605979884
 30
0.0
 11
464.3313184682475
 21
-65.99999601391298
 31
0.0
  0
LINE
  5
1EB
  8
LAYER0001
  6
CONTINUOUS
 62
     7
 10
464.3313188413204
 20
-65.99999999999997
 30
0.0
 11
432.4022607663692
 21
-65.99999999999997
 31
0.0
  0
INSERT
  5
1EC
  8
LAYER0001
  6
CONTINUOUS
  2
DC_GROUP_14
 10
0.0
 20
0.0
 30
0.0
  0
TEXT
  5
1ED
  8
LAYER0001
 62
     7
 10
434.2308275083126
 20
-64.40000762939451
 30
0.0
 40
4.0
  1
PCD104.77
 41
0.7026455026455033
  7
FDASTYLE1
 72
     5
 11
459.5260656035507
 21
-64.40000762939451
 31
0.0
  0
ENDBLK
  5
72
  8
0
  0
BLOCK
  8
0
  2
DC_GROUP_14
 70
     0
 10
0.0
 20
0.0
 30
0.0
  3
DC_GROUP_14
  1

  0
LINE
  5
1EE
  8
LAYER0001
  6
CONTINUOUS
 62
     7
 10
488.3660574932825
 20
-27.20529258096899
 30
0.0
 11
489.8914701166096
 21
-25.80518605979884
 31
0.0
  0
LINE
  5
1EF
  8
LAYER0001
  6
CONTINUOUS
 62
     7
 10
489.8914701166096
 20
-25.80518605979884
 30
0.0
 11
489.2704801998895
 21
-27.78042110033467
 31
0.0
  0
LINE
  5
1F0
  8
LAYER0001
  6
CONTINUOUS
 62
     7
 10
489.8914701166096
 20
-25.80518605979884
 30
0.0
 11
488.818268846586
 21
-27.49285684065183
 31
0.0
  0
ENDBLK
  5
75
  8
0
  0
BLOCK
  8
0
  2
DC_GROUP_15
 70
     0
 10
0.0
 20
0.0
 30
0.0
  3
DC_GROUP_15
  1

  0
LINE
  5
1F1
  8
LAYER0001
  6
CONTINUOUS
 62
     7
 10
496.1682887016628
 20
-6.541864091173665
 30
0.0
 11
524.3313226035405
 21
-66.000002450143
 31
0.0
  0
LINE
  5
1F2
  8
LAYER0001
  6
CONTINUOUS
 62
     7
 10
524.3313188413204
 20
-65.99999999999997
 30
0.0
 11
567.7609910825314
 21
-65.99999999999997
 31
0.0
  0
INSERT
  5
1F3
  8
LAYER0001
  6
CONTINUOUS
  2
DC_GROUP_16
 10
0.0
 20
0.0
 30
0.0
  0
TEXT
  5
1F4
  8
LAYER0001
 62
     7
 10
525.1714982846797
 20
-64.39999999999998
 30
0.0
 40
4.0
  1
3-M6×13 PCD76
 41
0.6326905417814503
  7
FDASTYLE1
 72
     5
 11
558.5775588907403
 21
-64.39999999999998
 31
0.0
  0
ENDBLK
  5
78
  8
0
  0
BLOCK
  8
0
  2
DC_GROUP_16
 70
     0
 10
0.0
 20
0.0
 30
0.0
  3
DC_GROUP_16
  1

  0
LINE
  5
1F5
  8
LAYER0001
  6
CONTINUOUS
 62
     7
 10
496.5401103212097
 20
-8.578756485304034
 30
0.0
 11
496.1682887016628
 21
-6.541864091173665
 31
0.0
  0
LINE
  5
1F6
  8
LAYER0001
  6
CONTINUOUS
 62
     7
 10
496.1682887016628
 20
-6.541864091173665
 30
0.0
 11
497.5087441884438
 21
-8.119951867562342
 31
0.0
  0
LINE
  5
1F7
  8
LAYER0001
  6
CONTINUOUS
 62
     7
 10
496.1682887016628
 20
-6.541864091173665
 30
0.0
 11
497.0244272548267
 21
-8.349354176433188
 31
0.0
  0
ENDBLK
  5
7B
  8
0
  0
BLOCK
  8
0
  2
DC_GROUP_17
 70
     0
 10
0.0
 20
0.0
 30
0.0
  3
DC_GROUP_17
  1

  0
LINE
  5
1F8
  8
LAYER0001
  6
CONTINUOUS
 62
     7
 10
439.1454295590938
 20
92.05786132812503
 30
0.0
 11
386.3678998807491
 21
92.05786132812503
 31
0.0
  0
LINE
  5
1F9
  8
LAYER0001
  6
CONTINUOUS
 62
     7
 10
402.0200023130001
 20
34.05784988403323
 30
0.0
 11
386.3678998807491
 21
34.05784988403323
 31
0.0
  0
LINE
  5
1FA
  8
LAYER0001
  6
CONTINUOUS
 62
     7
 10
387.3678998807491
 20
92.05786132812503
 30
0.0
 11
387.3678998807491
 21
34.05784988403323
 31
0.0
  0
INSERT
  5
1FB
  8
LAYER0001
  6
CONTINUOUS
  2
DC_GROUP_18
 10
0.0
 20
0.0
 30
0.0
  0
INSERT
  5
1FC
  8
LAYER0001
  6
CONTINUOUS
  2
DC_GROUP_19
 10
0.0
 20
0.0
 30
0.0
  0
TEXT
  5
1FD
  8
LAYER0001
 62
     7
 10
385.7678998807491
 20
59.8578536987305
 30
0.0
 40
4.0
  1
58
 50
90.0
 41
0.6476190476190462
  7
FDASTYLE1
 72
     5
 11
385.7678998807491
 21
65.03880607968287
 31
0.0
  0
ENDBLK
  5
7E
  8
0
  0
BLOCK
  8
0
  2
DC_GROUP_18
 70
     0
 10
0.0
 20
0.0
 30
0.0
  3
DC_GROUP_18
  1

  0
LINE
  5
1FE
  8
LAYER0001
  6
CONTINUOUS
 62
     7
 10
386.8320003458515
 20
90.05786292049437
 30
0.0
 11
387.3678998807491
 21
92.05786132812503
 31
0.0
  0
LINE
  5
1FF
  8
LAYER0001
  6
CONTINUOUS
 62
     7
 10
387.3678998807491
 20
92.05786132812503
 30
0.0
 11
387.9037994156467
 21
90.05786292049437
 31
0.0
  0
LINE
  5
200
  8
LAYER0001
  6
CONTINUOUS
 62
     7
 10
387.3678998807491
 20
92.05786132812503
 30
0.0
 11
387.3678998807491
 21
90.05786292049437
 31
0.0
  0
ENDBLK
  5
81
  8
0
  0
BLOCK
  8
0
  2
DC_GROUP_19
 70
     0
 10
0.0
 20
0.0
 30
0.0
  3
DC_GROUP_19
  1

  0
LINE
  5
201
  8
LAYER0001
  6
CONTINUOUS
 62
     7
 10
387.9037994156467
 20
36.0578482916639
 30
0.0
 11
387.3678998807491
 21
34.05784988403323
 31
0.0
  0
LINE
  5
202
  8
LAYER0001
  6
CONTINUOUS
 62
     7
 10
387.3678998807491
 20
34.05784988403323
 30
0.0
 11
386.8320003458515
 21
36.0578482916639
 31
0.0
  0
LINE
  5
203
  8
LAYER0001
  6
CONTINUOUS
 62
     7
 10
387.3678998807491
 20
34.05784988403323
 30
0.0
 11
387.3678998807491
 21
36.0578482916639
 31
0.0
  0
ENDBLK
  5
84
  8
0
  0
BLOCK
  8
0
  2
DC_GROUP_20
 70
     0
 10
0.0
 20
0.0
 30
0.0
  3
DC_GROUP_20
  1

  0
LINE
  5
204
  8
LAYER0001
  6
CONTINUOUS
 62
     7
 10
464.3147020200314
 20
106.4825201416016
 30
0.0
 11
464.3147020200314
 21
135.0
 31
0.0
  0
LINE
  5
205
  8
LAYER0001
  6
CONTINUOUS
 62
     7
 10
494.3147020200314
 20
126.7225637817383
 30
0.0
 11
494.3147020200314
 21
135.0
 31
0.0
  0
LINE
  5
206
  8
LAYER0001
  6
CONTINUOUS
 62
     7
 10
464.3147020200314
 20
134.0
 30
0.0
 11
494.3147020200314
 21
134.0
 31
0.0
  0
INSERT
  5
207
  8
LAYER0001
  6
CONTINUOUS
  2
DC_GROUP_21
 10
0.0
 20
0.0
 30
0.0
  0
INSERT
  5
208
  8
LAYER0001
  6
CONTINUOUS
  2
DC_GROUP_22
 10
0.0
 20
0.0
 30
0.0
  0
TEXT
  5
209
  8
LAYER0001
 62
     7
 10
476.1147020200314
 20
135.6
 30
0.0
 40
4.0
  1
30
 41
0.6476190476190453
  7
FDASTYLE1
 72
     5
 11
481.2956544009837
 21
135.6
 31
0.0
  0
ENDBLK
  5
87
  8
0
  0
BLOCK
  8
0
  2
DC_GROUP_21
 70
     0
 10
0.0
 20
0.0
 30
0.0
  3
DC_GROUP_21
  1

  0
LINE
  5
20A
  8
LAYER0001
  6
CONTINUOUS
 62
     7
 10
466.3147004276621
 20
133.4641004651024
 30
0.0
 11
464.3147020200314
 21
134.0
 31
0.0
  0
LINE
  5
20B
  8
LAYER0001
  6
CONTINUOUS
 62
     7
 10
464.3147020200314
 20
134.0
 30
0.0
 11
466.3147004276621
 21
134.5358995348976
 31
0.0
  0
LINE
  5
20C
  8
LAYER0001
  6
CONTINUOUS
 62
     7
 10
464.3147020200314
 20
134.0
 30
0.0
 11
466.3147004276621
 21
134.0
 31
0.0
  0
ENDBLK
  5
8A
  8
0
  0
BLOCK
  8
0
  2
DC_GROUP_22
 70
     0
 10
0.0
 20
0.0
 30
0.0
  3
DC_GROUP_22
  1

  0
LINE
  5
20D
  8
LAYER0001
  6
CONTINUOUS
 62
     7
 10
492.3147036124007
 20
134.5358995348976
 30
0.0
 11
494.3147020200314
 21
134.0
 31
0.0
  0
LINE
  5
20E
  8
LAYER0001
  6
CONTINUOUS
 62
     7
 10
494.3147020200314
 20
134.0
 30
0.0
 11
492.3147036124007
 21
133.4641004651024
 31
0.0
  0
LINE
  5
20F
  8
LAYER0001
  6
CONTINUOUS
 62
     7
 10
494.3147020200314
 20
134.0
 30
0.0
 11
492.3147036124007
 21
134.0
 31
0.0
  0
ENDBLK
  5
8D
  8
0
  0
BLOCK
  8
0
  2
DC_GROUP_23
 70
     0
 10
0.0
 20
0.0
 30
0.0
  3
DC_GROUP_23
  1

  0
LINE
  5
210
  8
LAYER0001
  6
CONTINUOUS
 62
     7
 10
399.8209203144116
 20
-45.90157439603568
 30
0.0
 11
410.0488600436852
 21
-39.99647129249152
 31
0.0
  0
LINE
  5
211
  8
LAYER0001
  6
CONTINUOUS
 62
     7
 10
407.8209324224059
 20
-59.75799191503987
 30
0.0
 11
418.0488671962422
 21
-53.8528916725185
 31
0.0
  0
LINE
  5
212
  8
LAYER0001
  6
CONTINUOUS
 62
     7
 10
409.1828350087929
 20
-40.49647102427063
 30
0.0
 11
417.1828421613498
 21
-54.35289140429761
 31
0.0
  0
INSERT
  5
213
  8
LAYER0001
  6
CONTINUOUS
  2
DC_GROUP_24
 10
0.0
 20
0.0
 30
0.0
  0
INSERT
  5
214
  8
LAYER0001
  6
CONTINUOUS
  2
DC_GROUP_25
 10
0.0
 20
0.0
 30
0.0
  0
TEXT
  5
215
  8
LAYER0001
 62
     7
 10
412.1684762110083
 20
-42.46775686432491
 30
0.0
 40
4.0
  1
φ16
 50
-59.99999999999999
 41
0.609374999999999
  7
FDASTYLE1
 72
     5
 11
416.0684762110083
 21
-49.22275501384353
 31
0.0
  0
ENDBLK
  5
90
  8
0
  0
BLOCK
  8
0
  2
DC_GROUP_24
 70
     0
 10
0.0
 20
0.0
 30
0.0
  3
DC_GROUP_24
  1

  0
LINE
  5
216
  8
LAYER0001
  6
CONTINUOUS
 62
     7
 10
409.7187315058305
 20
-42.49647024589335
 30
0.0
 11
409.1828350087929
 21
-40.49647102427063
 31
0.0
  0
LINE
  5
217
  8
LAYER0001
  6
CONTINUOUS
 62
     7
 10
409.1828350087929
 20
-40.49647102427063
 30
0.0
 11
410.6469367536632
 21
-41.96057075540116
 31
0.0
  0
LINE
  5
218
  8
LAYER0001
  6
CONTINUOUS
 62
     7
 10
409.1828350087929
 20
-40.49647102427063
 30
0.0
 11
410.1828341297468
 21
-42.22852050064725
 31
0.0
  0
ENDBLK
  5
93
  8
0
  0
BLOCK
  8
0
  2
DC_GROUP_25
 70
     0
 10
0.0
 20
0.0
 30
0.0
  3
DC_GROUP_25
  1

  0
LINE
  5
219
  8
LAYER0001
  6
CONTINUOUS
 62
     7
 10
416.6469456643122
 20
-52.35289218267489
 30
0.0
 11
417.1828421613498
 21
-54.35289140429761
 31
0.0
  0
LINE
  5
21A
  8
LAYER0001
  6
CONTINUOUS
 62
     7
 10
417.1828421613498
 20
-54.35289140429761
 30
0.0
 11
415.7187404164795
 21
-52.88879167316709
 31
0.0
  0
LINE
  5
21B
  8
LAYER0001
  6
CONTINUOUS
 62
     7
 10
417.1828421613498
 20
-54.35289140429761
 30
0.0
 11
416.1828430403959
 21
-52.62084192792099
 31
0.0
  0
ENDBLK
  5
96
  8
0
  0
BLOCK
  8
0
  2
DC_GROUP_26
 70
     0
 10
0.0
 20
0.0
 30
0.0
  3
DC_GROUP_26
  1

  0
LINE
  5
21C
  8
LAYER0001
  6
CONTINUOUS
 62
     7
 10
515.8315009953765
 20
20.1780806200893
 30
0.0
 11
550.8308136912491
 21
-44.69704660707271
 31
0.0
  0
LINE
  5
21D
  8
LAYER0001
  6
CONTINUOUS
 62
     7
 10
550.8308144584282
 20
-44.69704280728482
 30
0.0
 11
586.8621560111627
 21
-44.69704280728483
 31
0.0
  0
INSERT
  5
21E
  8
LAYER0001
  6
CONTINUOUS
  2
DC_GROUP_27
 10
0.0
 20
0.0
 30
0.0
  0
TEXT
  5
21F
  8
LAYER0001
 62
     7
 10
553.0341530814752
 20
-43.09704280728479
 30
0.0
 40
4.0
  1
3-M4 PCD48
 41
0.7923809523809524
  7
FDASTYLE1
 72
     5
 11
584.7293911767133
 21
-43.09704280728479
 31
0.0
  0
ENDBLK
  5
99
  8
0
  0
BLOCK
  8
0
  2
DC_GROUP_27
 70
     0
 10
0.0
 20
0.0
 30
0.0
  3
DC_GROUP_27
  1

  0
LINE
  5
220
  8
LAYER0001
  6
CONTINUOUS
 62
     7
 10
516.3094574657807
 20
18.16344925072484
 30
0.0
 11
515.8315009953765
 21
20.1780806200893
 31
0.0
  0
LINE
  5
221
  8
LAYER0001
  6
CONTINUOUS
 62
     7
 10
515.8315009953765
 20
20.1780806200893
 30
0.0
 11
517.2527413404162
 21
18.67233900093278
 31
0.0
  0
LINE
  5
222
  8
LAYER0001
  6
CONTINUOUS
 62
     7
 10
515.8315009953765
 20
20.1780806200893
 30
0.0
 11
516.7810994030986
 21
18.41789412582881
 31
0.0
  0
ENDBLK
  5
9C
  8
0
  0
BLOCK
  8
0
  2
DC_GROUP_28
 70
     0
 10
0.0
 20
0.0
 30
0.0
  3
DC_GROUP_28
  1

  0
LINE
  5
223
  8
LAYER0001
  6
CONTINUOUS
 62
     7
 10
273.9251445799757
 20
77.55784606933597
 30
0.0
 11
288.0223058348586
 21
77.55784606933597
 31
0.0
  0
LINE
  5
224
  8
LAYER0001
  6
CONTINUOUS
 62
     7
 10
255.0186504393507
 20
66.05784988403323
 30
0.0
 11
288.0223058348586
 21
66.05784988403323
 31
0.0
  0
LINE
  5
225
  8
LAYER0001
  6
CONTINUOUS
 62
     7
 10
287.0223058348586
 20
77.55784606933597
 30
0.0
 11
287.0223058348586
 21
66.05784988403323
 31
0.0
  0
INSERT
  5
226
  8
LAYER0001
  6
CONTINUOUS
  2
DC_GROUP_29
 10
0.0
 20
0.0
 30
0.0
  0
INSERT
  5
227
  8
LAYER0001
  6
CONTINUOUS
  2
DC_GROUP_30
 10
0.0
 20
0.0
 30
0.0
  0
TEXT
  5
228
  8
LAYER0001
 62
     7
 10
280.6223058825423
 20
67.00784606933597
 30
0.0
 40
4.0
  1
MIN
 50
90.0
 41
0.5841269841269821
  7
FDASTYLE1
 72
     5
 11
280.6223058825423
 21
74.01736987885975
 31
0.0
  0
TEXT
  5
229
  8
LAYER0001
 62
     7
 10
285.4223058348586
 20
67.00784607529643
 30
0.0
 40
4.0
  1
 8
 50
90.0
 41
0.2666666666666657
  7
FDASTYLE1
 72
     5
 11
285.4223058348586
 21
69.14117940862975
 31
0.0
  0
ENDBLK
  5
9F
  8
0
  0
BLOCK
  8
0
  2
DC_GROUP_29
 70
     0
 10
0.0
 20
0.0
 30
0.0
  3
DC_GROUP_29
  1

  0
LINE
  5
22A
  8
LAYER0001
  6
CONTINUOUS
 62
     7
 10
286.486406299961
 20
75.5578476617053
 30
0.0
 11
287.0223058348586
 21
77.55784606933597
 31
0.0
  0
LINE
  5
22B
  8
LAYER0001
  6
CONTINUOUS
 62
     7
 10
287.0223058348586
 20
77.55784606933597
 30
0.0
 11
287.5582053697561
 21
75.5578476617053
 31
0.0
  0
LINE
  5
22C
  8
LAYER0001
  6
CONTINUOUS
 62
     7
 10
287.0223058348586
 20
77.55784606933597
 30
0.0
 11
287.0223058348586
 21
75.5578476617053
 31
0.0
  0
ENDBLK
  5
A2
  8
0
  0
BLOCK
  8
0
  2
DC_GROUP_30
 70
     0
 10
0.0
 20
0.0
 30
0.0
  3
DC_GROUP_30
  1

  0
LINE
  5
22D
  8
LAYER0001
  6
CONTINUOUS
 62
     7
 10
287.5582053697561
 20
68.05784829166389
 30
0.0
 11
287.0223058348586
 21
66.05784988403323
 31
0.0
  0
LINE
  5
22E
  8
LAYER0001
  6
CONTINUOUS
 62
     7
 10
287.0223058348586
 20
66.05784988403323
 30
0.0
 11
286.486406299961
 21
68.05784829166389
 31
0.0
  0
LINE
  5
22F
  8
LAYER0001
  6
CONTINUOUS
 62
     7
 10
287.0223058348586
 20
66.05784988403323
 30
0.0
 11
287.0223058348586
 21
68.05784829166389
 31
0.0
  0
ENDBLK
  5
A5
  8
0
  0
BLOCK
  8
0
  2
DC_GROUP_31
 70
     0
 10
0.0
 20
0.0
 30
0.0
  3
DC_GROUP_31
  1

  0
LINE
  5
230
  8
LAYER0001
  6
CONTINUOUS
 62
     7
 10
252.6393481248158
 20
112.8638851582846
 30
0.0
 11
269.4089800153436
 21
133.9591269337334
 31
0.0
  0
LINE
  5
231
  8
LAYER0001
  6
CONTINUOUS
 62
     7
 10
269.4089826231887
 20
133.9591217041016
 30
0.0
 11
310.2100824004103
 21
133.9591217041016
 31
0.0
  0
INSERT
  5
232
  8
LAYER0001
  6
CONTINUOUS
  2
DC_GROUP_32
 10
0.0
 20
0.0
 30
0.0
  0
TEXT
  5
233
  8
LAYER0001
 62
     7
 10
269.9139150267531
 20
135.5591217041016
 30
0.0
 40
4.0
  1
ｾﾚｰｼｮﾝP1.5山60ﾟ
 41
0.6332076968855386
  7
FDASTYLE1
 72
     5
 11
305.8801122098517
 21
135.5591217041016
 31
0.0
  0
ENDBLK
  5
A8
  8
0
  0
BLOCK
  8
0
  2
DC_GROUP_32
 70
     0
 10
0.0
 20
0.0
 30
0.0
  3
DC_GROUP_32
  1

  0
LINE
  5
234
  8
LAYER0001
  6
CONTINUOUS
 62
     7
 10
254.3034079579386
 20
114.0959918151191
 30
0.0
 11
252.6393481248158
 21
112.8638851582846
 31
0.0
  0
LINE
  5
235
  8
LAYER0001
  6
CONTINUOUS
 62
     7
 10
252.6393481248158
 20
112.8638851582846
 30
0.0
 11
253.4644100916013
 21
114.7629519535798
 31
0.0
  0
LINE
  5
236
  8
LAYER0001
  6
CONTINUOUS
 62
     7
 10
252.6393481248158
 20
112.8638851582846
 30
0.0
 11
253.88390902477
 21
114.4294718843494
 31
0.0
  0
ENDBLK
  5
AB
  8
0
  0
BLOCK
  8
0
  2
DC_GROUP_33
 70
     0
 10
0.0
 20
0.0
 30
0.0
  3
DC_GROUP_33
  1

  0
LINE
  5
237
  8
LAYER0001
  6
CONTINUOUS
 62
     7
 10
253.4786504393507
 20
116.9765386962891
 30
0.0
 11
253.4786504393507
 21
135.0
 31
0.0
  0
LINE
  5
238
  8
LAYER0001
  6
CONTINUOUS
 62
     7
 10
252.4786504393507
 20
119.097861328125
 30
0.0
 11
252.4786504393507
 21
135.0
 31
0.0
  0
LINE
  5
239
  8
LAYER0001
  6
CONTINUOUS
 62
     7
 10
253.4786504393507
 20
134.0
 30
0.0
 11
252.4786504393507
 21
134.0
 31
0.0
  0
LINE
  5
23A
  8
LAYER0001
  6
CONTINUOUS
 62
     7
 10
253.4786504393507
 20
134.0
 30
0.0
 11
259.8286504393507
 21
134.0
 31
0.0
  0
LINE
  5
23B
  8
LAYER0001
  6
CONTINUOUS
 62
     7
 10
246.1286504393507
 20
134.0
 30
0.0
 11
252.4786504393507
 21
134.0
 31
0.0
  0
INSERT
  5
23C
  8
LAYER0001
  6
CONTINUOUS
  2
DC_GROUP_34
 10
0.0
 20
0.0
 30
0.0
  0
INSERT
  5
23D
  8
LAYER0001
  6
CONTINUOUS
  2
DC_GROUP_35
 10
0.0
 20
0.0
 30
0.0
  0
TEXT
  5
23E
  8
LAYER0001
 62
     7
 10
245.4850652342726
 20
135.6
 30
0.0
 40
4.0
  1
1
 41
0.1904761904761898
  7
FDASTYLE1
 72
     5
 11
246.2469699961773
 21
135.6
 31
0.0
  0
ENDBLK
  5
AE
  8
0
  0
BLOCK
  8
0
  2
DC_GROUP_34
 70
     0
 10
0.0
 20
0.0
 30
0.0
  3
DC_GROUP_34
  1

  0
LINE
  5
23F
  8
LAYER0001
  6
CONTINUOUS
 62
     7
 10
255.4786488469813
 20
133.4641004651024
 30
0.0
 11
253.4786504393507
 21
134.0
 31
0.0
  0
LINE
  5
240
  8
LAYER0001
  6
CONTINUOUS
 62
     7
 10
253.4786504393507
 20
134.0
 30
0.0
 11
255.4786488469813
 21
134.5358995348976
 31
0.0
  0
LINE
  5
241
  8
LAYER0001
  6
CONTINUOUS
 62
     7
 10
253.4786504393507
 20
134.0
 30
0.0
 11
255.4786488469813
 21
134.0
 31
0.0
  0
ENDBLK
  5
B1
  8
0
  0
BLOCK
  8
0
  2
DC_GROUP_35
 70
     0
 10
0.0
 20
0.0
 30
0.0
  3
DC_GROUP_35
  1

  0
LINE
  5
242
  8
LAYER0001
  6
CONTINUOUS
 62
     7
 10
250.47865203172
 20
134.5358995348976
 30
0.0
 11
252.4786504393507
 21
134.0
 31
0.0
  0
LINE
  5
243
  8
LAYER0001
  6
CONTINUOUS
 62
     7
 10
252.4786504393507
 20
134.0
 30
0.0
 11
250.47865203172
 21
133.4641004651024
 31
0.0
  0
LINE
  5
244
  8
LAYER0001
  6
CONTINUOUS
 62
     7
 10
252.4786504393507
 20
134.0
 30
0.0
 11
250.47865203172
 21
134.0
 31
0.0
  0
ENDBLK
  5
B4
  8
0
  0
BLOCK
  8
0
  2
DC_GROUP_36
 70
     0
 10
0.0
 20
0.0
 30
0.0
  3
DC_GROUP_36
  1

  0
LINE
  5
245
  8
LAYER0001
  6
CONTINUOUS
 62
     7
 10
233.2286504393507
 20
20.98212051391604
 30
0.0
 11
242.2286504393507
 21
20.98212051391604
 31
0.0
  0
LINE
  5
246
  8
LAYER0001
  6
CONTINUOUS
 62
     7
 10
233.2286504393507
 20
20.98212051391604
 30
0.0
 11
226.8786504393507
 21
20.98212051391604
 31
0.0
  0
LINE
  5
247
  8
LAYER0001
  6
CONTINUOUS
 62
     7
 10
248.5786504393507
 20
20.98212051391604
 30
0.0
 11
242.2286504393507
 21
20.98212051391604
 31
0.0
  0
INSERT
  5
248
  8
LAYER0001
  6
CONTINUOUS
  2
DC_GROUP_37
 10
0.0
 20
0.0
 30
0.0
  0
INSERT
  5
249
  8
LAYER0001
  6
CONTINUOUS
  2
DC_GROUP_38
 10
0.0
 20
0.0
 30
0.0
  0
TEXT
  5
24A
  8
LAYER0001
 62
     7
 10
236.1286504393507
 20
22.58212051391605
 30
0.0
 40
4.0
  1
9
 41
0.4952380952380935
  7
FDASTYLE1
 72
     5
 11
238.1096028203031
 21
22.58212051391605
 31
0.0
  0
ENDBLK
  5
B7
  8
0
  0
BLOCK
  8
0
  2
DC_GROUP_37
 70
     0
 10
0.0
 20
0.0
 30
0.0
  3
DC_GROUP_37
  1

  0
LINE
  5
24B
  8
LAYER0001
  6
CONTINUOUS
 62
     7
 10
231.22865203172
 20
21.51802004881365
 30
0.0
 11
233.2286504393507
 21
20.98212051391604
 31
0.0
  0
LINE
  5
24C
  8
LAYER0001
  6
CONTINUOUS
 62
     7
 10
233.2286504393507
 20
20.98212051391604
 30
0.0
 11
231.22865203172
 21
20.44622097901843
 31
0.0
  0
LINE
  5
24D
  8
LAYER0001
  6
CONTINUOUS
 62
     7
 10
233.2286504393507
 20
20.98212051391604
 30
0.0
 11
231.22865203172
 21
20.98212051391604
 31
0.0
  0
ENDBLK
  5
BA
  8
0
  0
BLOCK
  8
0
  2
DC_GROUP_38
 70
     0
 10
0.0
 20
0.0
 30
0.0
  3
DC_GROUP_38
  1

  0
LINE
  5
24E
  8
LAYER0001
  6
CONTINUOUS
 62
     7
 10
244.2286488469813
 20
20.44622097901843
 30
0.0
 11
242.2286504393507
 21
20.98212051391604
 31
0.0
  0
LINE
  5
24F
  8
LAYER0001
  6
CONTINUOUS
 62
     7
 10
242.2286504393507
 20
20.98212051391604
 30
0.0
 11
244.2286488469813
 21
21.51802004881365
 31
0.0
  0
LINE
  5
250
  8
LAYER0001
  6
CONTINUOUS
 62
     7
 10
242.2286504393507
 20
20.98212051391604
 30
0.0
 11
244.2286488469813
 21
20.98212051391604
 31
0.0
  0
ENDBLK
  5
BD
  8
0
  0
BLOCK
  8
0
  2
DC_GROUP_39
 70
     0
 10
0.0
 20
0.0
 30
0.0
  3
DC_GROUP_39
  1

  0
LINE
  5
251
  8
LAYER0001
  6
CONTINUOUS
 62
     7
 10
225.2286504393507
 20
20.98212051391604
 30
0.0
 11
233.2286504393507
 21
20.98212051391604
 31
0.0
  0
INSERT
  5
252
  8
LAYER0001
  6
CENTER
  2
DC_GROUP_40
 10
0.0
 20
0.0
 30
0.0
  0
INSERT
  5
253
  8
LAYER0001
  6
CONTINUOUS
  2
DC_GROUP_41
 10
0.0
 20
0.0
 30
0.0
  0
TEXT
  5
254
  8
LAYER0001
 62
     7
 10
227.6286504393507
 20
22.58212051391605
 30
0.0
 40
4.0
  1
8
 41
0.5333333333333314
  7
FDASTYLE1
 72
     5
 11
229.761983772684
 21
22.58212051391605
 31
0.0
  0
ENDBLK
  5
C0
  8
0
  0
BLOCK
  8
0
  2
DC_GROUP_40
 70
     0
 10
0.0
 20
0.0
 30
0.0
  3
DC_GROUP_40
  1

  0
LINE
  5
255
  8
LAYER0001
  6
CONTINUOUS
 62
     7
 10
227.2286488469813
 20
20.44622097901843
 30
0.0
 11
225.2286504393507
 21
20.98212051391604
 31
0.0
  0
LINE
  5
256
  8
LAYER0001
  6
CONTINUOUS
 62
     7
 10
225.2286504393507
 20
20.98212051391604
 30
0.0
 11
227.2286488469813
 21
21.51802004881364
 31
0.0
  0
LINE
  5
257
  8
LAYER0001
  6
CONTINUOUS
 62
     7
 10
225.2286504393507
 20
20.98212051391604
 30
0.0
 11
227.2286488469813
 21
20.98212051391604
 31
0.0
  0
ENDBLK
  5
C3
  8
0
  0
BLOCK
  8
0
  2
DC_GROUP_41
 70
     0
 10
0.0
 20
0.0
 30
0.0
  3
DC_GROUP_41
  1

  0
LINE
  5
258
  8
LAYER0001
  6
CONTINUOUS
 62
     7
 10
231.22865203172
 20
21.51802004881365
 30
0.0
 11
233.2286504393507
 21
20.98212051391604
 31
0.0
  0
LINE
  5
259
  8
LAYER0001
  6
CONTINUOUS
 62
     7
 10
233.2286504393507
 20
20.98212051391604
 30
0.0
 11
231.22865203172
 21
20.44622097901843
 31
0.0
  0
LINE
  5
25A
  8
LAYER0001
  6
CONTINUOUS
 62
     7
 10
233.2286504393507
 20
20.98212051391604
 30
0.0
 11
231.22865203172
 21
20.98212051391604
 31
0.0
  0
ENDBLK
  5
C6
  8
0
  0
BLOCK
  8
0
  2
DC_GROUP_42
 70
     0
 10
0.0
 20
0.0
 30
0.0
  3
DC_GROUP_42
  1

  0
LINE
  5
25B
  8
LAYER0001
  6
CONTINUOUS
 62
     7
 10
202.2286504393507
 20
20.98212051391604
 30
0.0
 11
225.2286504393507
 21
20.98212051391604
 31
0.0
  0
INSERT
  5
25C
  8
LAYER0001
  6
CENTER
  2
DC_GROUP_43
 10
0.0
 20
0.0
 30
0.0
  0
INSERT
  5
25D
  8
LAYER0001
  6
CENTER
  2
DC_GROUP_44
 10
0.0
 20
0.0
 30
0.0
  0
TEXT
  5
25E
  8
LAYER0001
 62
     7
 10
210.5286504393507
 20
22.58212051391605
 30
0.0
 40
4.0
  1
23
 41
0.6476190476190453
  7
FDASTYLE1
 72
     5
 11
215.7096028203031
 21
22.58212051391605
 31
0.0
  0
ENDBLK
  5
C9
  8
0
  0
BLOCK
  8
0
  2
DC_GROUP_43
 70
     0
 10
0.0
 20
0.0
 30
0.0
  3
DC_GROUP_43
  1

  0
LINE
  5
25F
  8
LAYER0001
  6
CONTINUOUS
 62
     7
 10
204.2286488469814
 20
20.44622097901843
 30
0.0
 11
202.2286504393507
 21
20.98212051391604
 31
0.0
  0
LINE
  5
260
  8
LAYER0001
  6
CONTINUOUS
 62
     7
 10
202.2286504393507
 20
20.98212051391604
 30
0.0
 11
204.2286488469814
 21
21.51802004881365
 31
0.0
  0
LINE
  5
261
  8
LAYER0001
  6
CONTINUOUS
 62
     7
 10
202.2286504393507
 20
20.98212051391604
 30
0.0
 11
204.2286488469814
 21
20.98212051391604
 31
0.0
  0
ENDBLK
  5
CC
  8
0
  0
BLOCK
  8
0
  2
DC_GROUP_44
 70
     0
 10
0.0
 20
0.0
 30
0.0
  3
DC_GROUP_44
  1

  0
LINE
  5
262
  8
LAYER0001
  6
CONTINUOUS
 62
     7
 10
223.22865203172
 20
21.51802004881365
 30
0.0
 11
225.2286504393507
 21
20.98212051391604
 31
0.0
  0
LINE
  5
263
  8
LAYER0001
  6
CONTINUOUS
 62
     7
 10
225.2286504393507
 20
20.98212051391604
 30
0.0
 11
223.22865203172
 21
20.44622097901843
 31
0.0
  0
LINE
  5
264
  8
LAYER0001
  6
CONTINUOUS
 62
     7
 10
225.2286504393507
 20
20.98212051391604
 30
0.0
 11
223.22865203172
 21
20.98212051391604
 31
0.0
  0
ENDBLK
  5
CF
  8
0
  0
BLOCK
  8
0
  2
DC_GROUP_45
 70
     0
 10
0.0
 20
0.0
 30
0.0
  3
DC_GROUP_45
  1

  0
LINE
  5
265
  8
LAYER0001
  6
CONTINUOUS
 62
     7
 10
250.9786504393507
 20
12.38682937622073
 30
0.0
 11
253.4786504393507
 21
12.38682937622073
 31
0.0
  0
LINE
  5
266
  8
LAYER0001
  6
CONTINUOUS
 62
     7
 10
250.9786504393507
 20
12.38682937622073
 30
0.0
 11
244.6286504393507
 21
12.38682937622073
 31
0.0
  0
LINE
  5
267
  8
LAYER0001
  6
CONTINUOUS
 62
     7
 10
259.8286504393507
 20
12.38682937622073
 30
0.0
 11
253.4786504393507
 21
12.38682937622073
 31
0.0
  0
INSERT
  5
268
  8
LAYER0001
  6
CONTINUOUS
  2
DC_GROUP_46
 10
0.0
 20
0.0
 30
0.0
  0
INSERT
  5
269
  8
LAYER0001
  6
CONTINUOUS
  2
DC_GROUP_47
 10
0.0
 20
0.0
 30
0.0
  0
TEXT
  5
26A
  8
LAYER0001
 62
     7
 10
256.3467412596632
 20
13.98682937622073
 30
0.0
 40
4.0
  1
2.5
 41
0.5587301587301568
  7
FDASTYLE1
 72
     5
 11
263.0515031644251
 21
13.98682937622073
 31
0.0
  0
ENDBLK
  5
D2
  8
0
  0
BLOCK
  8
0
  2
DC_GROUP_46
 70
     0
 10
0.0
 20
0.0
 30
0.0
  3
DC_GROUP_46
  1

  0
LINE
  5
26B
  8
LAYER0001
  6
CONTINUOUS
 62
     7
 10
248.97865203172
 20
12.92272891111834
 30
0.0
 11
250.9786504393507
 21
12.38682937622073
 31
0.0
  0
LINE
  5
26C
  8
LAYER0001
  6
CONTINUOUS
 62
     7
 10
250.9786504393507
 20
12.38682937622073
 30
0.0
 11
248.97865203172
 21
11.85092984132312
 31
0.0
  0
LINE
  5
26D
  8
LAYER0001
  6
CONTINUOUS
 62
     7
 10
250.9786504393507
 20
12.38682937622073
 30
0.0
 11
248.97865203172
 21
12.38682937622073
 31
0.0
  0
ENDBLK
  5
D5
  8
0
  0
BLOCK
  8
0
  2
DC_GROUP_47
 70
     0
 10
0.0
 20
0.0
 30
0.0
  3
DC_GROUP_47
  1

  0
LINE
  5
26E
  8
LAYER0001
  6
CONTINUOUS
 62
     7
 10
255.4786488469813
 20
11.85092984132312
 30
0.0
 11
253.4786504393507
 21
12.38682937622073
 31
0.0
  0
LINE
  5
26F
  8
LAYER0001
  6
CONTINUOUS
 62
     7
 10
253.4786504393507
 20
12.38682937622073
 30
0.0
 11
255.4786488469813
 21
12.92272891111834
 31
0.0
  0
LINE
  5
270
  8
LAYER0001
  6
CONTINUOUS
 62
     7
 10
253.4786504393507
 20
12.38682937622073
 30
0.0
 11
255.4786488469813
 21
12.38682937622073
 31
0.0
  0
ENDBLK
  5
D8
  8
0
  0
BLOCK
  8
0
  2
DC_GROUP_48
 70
     0
 10
0.0
 20
0.0
 30
0.0
  3
DC_GROUP_48
  1

  0
LINE
  5
271
  8
LAYER0001
  6
CONTINUOUS
 62
     7
 10
183.4786504393507
 20
-96.02699912143264
 30
0.0
 11
253.4786504393507
 21
-96.02699912143264
 31
0.0
  0
LINE
  5
272
  8
LAYER0001
  6
CONTINUOUS
 62
     7
 10
183.4786504393507
 20
-50.98215011596677
 30
0.0
 11
183.4786504393507
 21
-97.02699912143264
 31
0.0
  0
LINE
  5
273
  8
LAYER0001
  6
CONTINUOUS
 62
     7
 10
253.4786504393507
 20
-48.98215011596677
 30
0.0
 11
253.4786504393507
 21
-97.02699912143264
 31
0.0
  0
INSERT
  5
274
  8
LAYER0001
  6
CENTER
  2
DC_GROUP_49
 10
0.0
 20
0.0
 30
0.0
  0
INSERT
  5
275
  8
LAYER0001
  6
CONTINUOUS
  2
DC_GROUP_50
 10
0.0
 20
0.0
 30
0.0
  0
TEXT
  5
276
  8
LAYER0001
 62
     7
 10
215.2786504393507
 20
-95.02699912143264
 30
0.0
 40
4.0
  1
70
 41
0.6476190476190453
  7
FDASTYLE1
 72
     5
 11
220.4596028203031
 21
-95.02699912143264
 31
0.0
  0
ENDBLK
  5
DB
  8
0
  0
BLOCK
  8
0
  2
DC_GROUP_49
 70
     0
 10
0.0
 20
0.0
 30
0.0
  3
DC_GROUP_49
  1

  0
LINE
  5
277
  8
LAYER0001
  6
CONTINUOUS
 62
     7
 10
185.4786488469813
 20
-96.56289865633025
 30
0.0
 11
183.4786504393507
 21
-96.02699912143264
 31
0.0
  0
LINE
  5
278
  8
LAYER0001
  6
CONTINUOUS
 62
     7
 10
183.4786504393507
 20
-96.02699912143264
 30
0.0
 11
185.4786488469813
 21
-95.49109958653503
 31
0.0
  0
LINE
  5
279
  8
LAYER0001
  6
CONTINUOUS
 62
     7
 10
183.4786504393507
 20
-96.02699912143264
 30
0.0
 11
185.4786488469813
 21
-96.02699912143264
 31
0.0
  0
ENDBLK
  5
DE
  8
0
  0
BLOCK
  8
0
  2
DC_GROUP_50
 70
     0
 10
0.0
 20
0.0
 30
0.0
  3
DC_GROUP_50
  1

  0
LINE
  5
27A
  8
LAYER0001
  6
CONTINUOUS
 62
     7
 10
251.47865203172
 20
-95.49109958653503
 30
0.0
 11
253.4786504393507
 21
-96.02699912143264
 31
0.0
  0
LINE
  5
27B
  8
LAYER0001
  6
CONTINUOUS
 62
     7
 10
253.4786504393507
 20
-96.02699912143264
 30
0.0
 11
251.47865203172
 21
-96.56289865633025
 31
0.0
  0
LINE
  5
27C
  8
LAYER0001
  6
CONTINUOUS
 62
     7
 10
253.4786504393507
 20
-96.02699912143264
 30
0.0
 11
251.47865203172
 21
-96.02699912143264
 31
0.0
  0
ENDBLK
  5
E1
  8
0
  0
BLOCK
  8
0
  2
DC_GROUP_51
 70
     0
 10
0.0
 20
0.0
 30
0.0
  3
DC_GROUP_51
  1

  0
LINE
  5
27D
  8
LAYER0001
  6
CONTINUOUS
 62
     7
 10
187.6786016112257
 20
-86.02699912143264
 30
0.0
 11
253.4786504393507
 21
-86.02699912143264
 31
0.0
  0
LINE
  5
27E
  8
LAYER0001
  6
CONTINUOUS
 62
     7
 10
187.6786016112257
 20
-43.48215011596677
 30
0.0
 11
187.6786016112257
 21
-87.02699912143264
 31
0.0
  0
LINE
  5
27F
  8
LAYER0001
  6
CONTINUOUS
 62
     7
 10
253.4786504393507
 20
-48.98215011596677
 30
0.0
 11
253.4786504393507
 21
-87.02699912143264
 31
0.0
  0
INSERT
  5
280
  8
LAYER0001
  6
CENTER
  2
DC_GROUP_52
 10
0.0
 20
0.0
 30
0.0
  0
INSERT
  5
281
  8
LAYER0001
  6
CONTINUOUS
  2
DC_GROUP_53
 10
0.0
 20
0.0
 30
0.0
  0
TEXT
  5
282
  8
LAYER0001
 62
     7
 10
213.165559924214
 20
-85.02699912143264
 30
0.0
 40
4.0
  1
65.8
 41
0.6000000000000014
  7
FDASTYLE1
 72
     5
 11
222.765559924214
 21
-85.02699912143264
 31
0.0
  0
ENDBLK
  5
E4
  8
0
  0
BLOCK
  8
0
  2
DC_GROUP_52
 70
     0
 10
0.0
 20
0.0
 30
0.0
  3
DC_GROUP_52
  1

  0
LINE
  5
283
  8
LAYER0001
  6
CONTINUOUS
 62
     7
 10
189.6786000188563
 20
-86.56289865633025
 30
0.0
 11
187.6786016112257
 21
-86.02699912143264
 31
0.0
  0
LINE
  5
284
  8
LAYER0001
  6
CONTINUOUS
 62
     7
 10
187.6786016112257
 20
-86.02699912143264
 30
0.0
 11
189.6786000188563
 21
-85.49109958653502
 31
0.0
  0
LINE
  5
285
  8
LAYER0001
  6
CONTINUOUS
 62
     7
 10
187.6786016112257
 20
-86.02699912143264
 30
0.0
 11
189.6786000188563
 21
-86.02699912143264
 31
0.0
  0
ENDBLK
  5
E7
  8
0
  0
BLOCK
  8
0
  2
DC_GROUP_53
 70
     0
 10
0.0
 20
0.0
 30
0.0
  3
DC_GROUP_53
  1

  0
LINE
  5
286
  8
LAYER0001
  6
CONTINUOUS
 62
     7
 10
251.47865203172
 20
-85.49109958653502
 30
0.0
 11
253.4786504393507
 21
-86.02699912143264
 31
0.0
  0
LINE
  5
287
  8
LAYER0001
  6
CONTINUOUS
 62
     7
 10
253.4786504393507
 20
-86.02699912143264
 30
0.0
 11
251.47865203172
 21
-86.56289865633025
 31
0.0
  0
LINE
  5
288
  8
LAYER0001
  6
CONTINUOUS
 62
     7
 10
253.4786504393507
 20
-86.02699912143264
 30
0.0
 11
251.47865203172
 21
-86.02699912143264
 31
0.0
  0
ENDBLK
  5
EA
  8
0
  0
BLOCK
  8
0
  2
DC_GROUP_54
 70
     0
 10
0.0
 20
0.0
 30
0.0
  3
DC_GROUP_54
  1

  0
LINE
  5
289
  8
LAYER0001
  6
CONTINUOUS
 62
     7
 10
183.4786504393507
 20
-86.02699912143264
 30
0.0
 11
187.6786016112257
 21
-86.02699912143264
 31
0.0
  0
LINE
  5
28A
  8
LAYER0001
  6
CONTINUOUS
 62
     7
 10
183.4786504393507
 20
-50.98215011596677
 30
0.0
 11
183.4786504393507
 21
-87.02699912143264
 31
0.0
  0
LINE
  5
28B
  8
LAYER0001
  6
CONTINUOUS
 62
     7
 10
187.6786016112257
 20
-43.48215011596677
 30
0.0
 11
187.6786016112257
 21
-87.02699912143264
 31
0.0
  0
LINE
  5
28C
  8
LAYER0001
  6
CONTINUOUS
 62
     7
 10
169.0350347166945
 20
-86.02699912143264
 30
0.0
 11
183.4786504393507
 21
-86.02699912143264
 31
0.0
  0
LINE
  5
28D
  8
LAYER0001
  6
CONTINUOUS
 62
     7
 10
192.6786016112257
 20
-86.02699912143264
 30
0.0
 11
187.6786016112257
 21
-86.02699912143264
 31
0.0
  0
INSERT
  5
28E
  8
LAYER0001
  6
CENTER
  2
DC_GROUP_55
 10
0.0
 20
0.0
 30
0.0
  0
INSERT
  5
28F
  8
LAYER0001
  6
CENTER
  2
DC_GROUP_56
 10
0.0
 20
0.0
 30
0.0
  0
TEXT
  5
290
  8
LAYER0001
 62
     7
 10
170.0350347166945
 20
-85.02699912143264
 30
0.0
 40
4.0
  1
4.2
 41
0.5587301587301591
  7
FDASTYLE1
 72
     5
 11
176.7397966214564
 21
-85.02699912143264
 31
0.0
  0
ENDBLK
  5
ED
  8
0
  0
BLOCK
  8
0
  2
DC_GROUP_55
 70
     0
 10
0.0
 20
0.0
 30
0.0
  3
DC_GROUP_55
  1

  0
LINE
  5
291
  8
LAYER0001
  6
CONTINUOUS
 62
     7
 10
181.47865203172
 20
-85.49109958653502
 30
0.0
 11
183.4786504393507
 21
-86.02699912143264
 31
0.0
  0
LINE
  5
292
  8
LAYER0001
  6
CONTINUOUS
 62
     7
 10
183.4786504393507
 20
-86.02699912143264
 30
0.0
 11
181.47865203172
 21
-86.56289865633025
 31
0.0
  0
LINE
  5
293
  8
LAYER0001
  6
CONTINUOUS
 62
     7
 10
183.4786504393507
 20
-86.02699912143264
 30
0.0
 11
181.47865203172
 21
-86.02699912143264
 31
0.0
  0
ENDBLK
  5
F0
  8
0
  0
BLOCK
  8
0
  2
DC_GROUP_56
 70
     0
 10
0.0
 20
0.0
 30
0.0
  3
DC_GROUP_56
  1

  0
LINE
  5
294
  8
LAYER0001
  6
CONTINUOUS
 62
     7
 10
189.6786000188563
 20
-86.56289865633025
 30
0.0
 11
187.6786016112257
 21
-86.02699912143264
 31
0.0
  0
LINE
  5
295
  8
LAYER0001
  6
CONTINUOUS
 62
     7
 10
187.6786016112257
 20
-86.02699912143264
 30
0.0
 11
189.6786000188563
 21
-85.49109958653502
 31
0.0
  0
LINE
  5
296
  8
LAYER0001
  6
CONTINUOUS
 62
     7
 10
187.6786016112257
 20
-86.02699912143264
 30
0.0
 11
189.6786000188563
 21
-86.02699912143264
 31
0.0
  0
ENDBLK
  5
F3
  8
0
  0
BLOCK
  8
0
  2
DC_GROUP_57
 70
     0
 10
0.0
 20
0.0
 30
0.0
  3
DC_GROUP_57
  1

  0
LINE
  5
297
  8
LAYER0001
  6
CONTINUOUS
 62
     7
 10
187.6786016112257
 20
-73.46060557134764
 30
0.0
 11
225.2286504393507
 21
-73.46060557134764
 31
0.0
  0
LINE
  5
298
  8
LAYER0001
  6
CONTINUOUS
 62
     7
 10
187.6786016112257
 20
-43.48215011596677
 30
0.0
 11
187.6786016112257
 21
-74.46060557134764
 31
0.0
  0
LINE
  5
299
  8
LAYER0001
  6
CONTINUOUS
 62
     7
 10
225.2286504393507
 20
6.517849884033232
 30
0.0
 11
225.2286504393507
 21
-74.46060557134764
 31
0.0
  0
INSERT
  5
29A
  8
LAYER0001
  6
CENTER
  2
DC_GROUP_58
 10
0.0
 20
0.0
 30
0.0
  0
INSERT
  5
29B
  8
LAYER0001
  6
CENTER
  2
DC_GROUP_59
 10
0.0
 20
0.0
 30
0.0
  0
TEXT
  5
29C
  8
LAYER0001
 62
     7
 10
195.2536260252882
 20
-72.46060557134764
 30
0.0
 40
4.0
  1
MAX46.3
 41
0.6802721088435371
  7
FDASTYLE1
 72
     5
 11
214.3012450729072
 21
-72.46060557134764
 31
0.0
  0
ENDBLK
  5
F6
  8
0
  0
BLOCK
  8
0
  2
DC_GROUP_58
 70
     0
 10
0.0
 20
0.0
 30
0.0
  3
DC_GROUP_58
  1

  0
LINE
  5
29D
  8
LAYER0001
  6
CONTINUOUS
 62
     7
 10
189.6786000188563
 20
-73.99650510624525
 30
0.0
 11
187.6786016112257
 21
-73.46060557134764
 31
0.0
  0
LINE
  5
29E
  8
LAYER0001
  6
CONTINUOUS
 62
     7
 10
187.6786016112257
 20
-73.46060557134764
 30
0.0
 11
189.6786000188563
 21
-72.92470603645003
 31
0.0
  0
LINE
  5
29F
  8
LAYER0001
  6
CONTINUOUS
 62
     7
 10
187.6786016112257
 20
-73.46060557134764
 30
0.0
 11
189.6786000188563
 21
-73.46060557134764
 31
0.0
  0
ENDBLK
  5
F9
  8
0
  0
BLOCK
  8
0
  2
DC_GROUP_59
 70
     0
 10
0.0
 20
0.0
 30
0.0
  3
DC_GROUP_59
  1

  0
LINE
  5
2A0
  8
LAYER0001
  6
CONTINUOUS
 62
     7
 10
223.22865203172
 20
-72.92470603645003
 30
0.0
 11
225.2286504393507
 21
-73.46060557134764
 31
0.0
  0
LINE
  5
2A1
  8
LAYER0001
  6
CONTINUOUS
 62
     7
 10
225.2286504393507
 20
-73.46060557134764
 30
0.0
 11
223.22865203172
 21
-73.99650510624525
 31
0.0
  0
LINE
  5
2A2
  8
LAYER0001
  6
CONTINUOUS
 62
     7
 10
225.2286504393507
 20
-73.46060557134764
 30
0.0
 11
223.22865203172
 21
-73.46060557134764
 31
0.0
  0
ENDBLK
  5
FC
  8
0
  0
BLOCK
  8
0
  2
DC_GROUP_60
 70
     0
 10
0.0
 20
0.0
 30
0.0
  3
DC_GROUP_60
  1

  0
LINE
  5
2A3
  8
LAYER0001
  6
CONTINUOUS
 62
     7
 10
309.7429392532582
 20
66.05784988403323
 30
0.0
 11
309.7429392532582
 21
116.557861328125
 31
0.0
  0
LINE
  5
2A4
  8
LAYER0001
  6
CONTINUOUS
 62
     7
 10
255.0186504393507
 20
66.05784988403323
 30
0.0
 11
310.7429392532582
 21
66.05784988403323
 31
0.0
  0
LINE
  5
2A5
  8
LAYER0001
  6
CONTINUOUS
 62
     7
 10
256.0186504393507
 20
116.557861328125
 30
0.0
 11
310.7429392532582
 21
116.557861328125
 31
0.0
  0
INSERT
  5
2A6
  8
LAYER0001
  6
CONTINUOUS
  2
DC_GROUP_61
 10
0.0
 20
0.0
 30
0.0
  0
INSERT
  5
2A7
  8
LAYER0001
  6
CONTINUOUS
  2
DC_GROUP_62
 10
0.0
 20
0.0
 30
0.0
  0
TEXT
  5
2A8
  8
LAYER0001
 62
     7
 10
308.1429392532581
 20
84.90785369873049
 30
0.0
 40
4.0
  1
50.5
 50
90.0
 41
0.6095238095238109
  7
FDASTYLE1
 72
     5
 11
308.1429392532581
 21
94.66023465111147
 31
0.0
  0
ENDBLK
  5
FF
  8
0
  0
BLOCK
  8
0
  2
DC_GROUP_61
 70
     0
 10
0.0
 20
0.0
 30
0.0
  3
DC_GROUP_61
  1

  0
LINE
  5
2A9
  8
LAYER0001
  6
CONTINUOUS
 62
     7
 10
310.2788387881558
 20
68.05784829166389
 30
0.0
 11
309.7429392532582
 21
66.05784988403323
 31
0.0
  0
LINE
  5
2AA
  8
LAYER0001
  6
CONTINUOUS
 62
     7
 10
309.7429392532582
 20
66.05784988403323
 30
0.0
 11
309.2070397183605
 21
68.05784829166389
 31
0.0
  0
LINE
  5
2AB
  8
LAYER0001
  6
CONTINUOUS
 62
     7
 10
309.7429392532582
 20
66.05784988403323
 30
0.0
 11
309.7429392532582
 21
68.05784829166389
 31
0.0
  0
ENDBLK
  5
102
  8
0
  0
BLOCK
  8
0
  2
DC_GROUP_62
 70
     0
 10
0.0
 20
0.0
 30
0.0
  3
DC_GROUP_62
  1

  0
LINE
  5
2AC
  8
LAYER0001
  6
CONTINUOUS
 62
     7
 10
309.2070397183605
 20
114.5578629204943
 30
0.0
 11
309.7429392532582
 21
116.557861328125
 31
0.0
  0
LINE
  5
2AD
  8
LAYER0001
  6
CONTINUOUS
 62
     7
 10
309.7429392532582
 20
116.557861328125
 30
0.0
 11
310.2788387881558
 21
114.5578629204943
 31
0.0
  0
LINE
  5
2AE
  8
LAYER0001
  6
CONTINUOUS
 62
     7
 10
309.7429392532582
 20
116.557861328125
 30
0.0
 11
309.7429392532582
 21
114.5578629204943
 31
0.0
  0
ENDBLK
  5
105
  8
0
  0
BLOCK
  8
0
  2
DC_GROUP_63
 70
     0
 10
0.0
 20
0.0
 30
0.0
  3
DC_GROUP_63
  1

  0
LINE
  5
2AF
  8
LAYER0001
  6
CONTINUOUS
 62
     7
 10
169.9386504393507
 20
-13.32714462280271
 30
0.0
 11
156.0223058348585
 21
-13.32714462280271
 31
0.0
  0
LINE
  5
2B0
  8
LAYER0001
  6
CONTINUOUS
 62
     7
 10
169.9386504393507
 20
-23.32714462280271
 30
0.0
 11
156.0223058348585
 21
-23.32714462280271
 31
0.0
  0
LINE
  5
2B1
  8
LAYER0001
  6
CONTINUOUS
 62
     7
 10
157.0223058348585
 20
-13.32714843749997
 30
0.0
 11
157.0223058348585
 21
-23.32714843749997
 31
0.0
  0
INSERT
  5
2B2
  8
LAYER0001
  6
CONTINUOUS
  2
DC_GROUP_64
 10
0.0
 20
0.0
 30
0.0
  0
INSERT
  5
2B3
  8
LAYER0001
  6
CONTINUOUS
  2
DC_GROUP_65
 10
0.0
 20
0.0
 30
0.0
  0
TEXT
  5
2B4
  8
LAYER0001
 62
     7
 10
155.4223058348586
 20
-23.12714462280272
 30
0.0
 40
4.0
  1
M10
 50
90.0
 41
0.723809523809526
  7
FDASTYLE1
 72
     5
 11
155.4223058348586
 21
-14.44143033708841
 31
0.0
  0
ENDBLK
  5
108
  8
0
  0
BLOCK
  8
0
  2
DC_GROUP_64
 70
     0
 10
0.0
 20
0.0
 30
0.0
  3
DC_GROUP_64
  1

  0
LINE
  5
2B5
  8
LAYER0001
  6
CONTINUOUS
 62
     7
 10
156.4864062999609
 20
-15.32714684513063
 30
0.0
 11
157.0223058348585
 21
-13.32714843749997
 31
0.0
  0
LINE
  5
2B6
  8
LAYER0001
  6
CONTINUOUS
 62
     7
 10
157.0223058348585
 20
-13.32714843749997
 30
0.0
 11
157.5582053697561
 21
-15.32714684513063
 31
0.0
  0
LINE
  5
2B7
  8
LAYER0001
  6
CONTINUOUS
 62
     7
 10
157.0223058348585
 20
-13.32714843749997
 30
0.0
 11
157.0223058348585
 21
-15.32714684513063
 31
0.0
  0
ENDBLK
  5
10B
  8
0
  0
BLOCK
  8
0
  2
DC_GROUP_65
 70
     0
 10
0.0
 20
0.0
 30
0.0
  3
DC_GROUP_65
  1

  0
LINE
  5
2B8
  8
LAYER0001
  6
CONTINUOUS
 62
     7
 10
157.5582053697561
 20
-21.32715002986931
 30
0.0
 11
157.0223058348585
 21
-23.32714843749997
 31
0.0
  0
LINE
  5
2B9
  8
LAYER0001
  6
CONTINUOUS
 62
     7
 10
157.0223058348585
 20
-23.32714843749997
 30
0.0
 11
156.4864062999609
 21
-21.32715002986931
 31
0.0
  0
LINE
  5
2BA
  8
LAYER0001
  6
CONTINUOUS
 62
     7
 10
157.0223058348585
 20
-23.32714843749997
 30
0.0
 11
157.0223058348585
 21
-21.32715002986931
 31
0.0
  0
ENDBLK
  5
10E
  8
0
  0
BLOCK
  8
0
  2
DC_GROUP_66
 70
     0
 10
0.0
 20
0.0
 30
0.0
  3
DC_GROUP_66
  1

  0
LINE
  5
2BB
  8
LAYER0001
  6
CONTINUOUS
 62
     7
 10
264.4829077087005
 20
106.6413666781078
 30
0.0
 11
277.0222996023242
 21
123.9999993897546
 31
0.0
  0
LINE
  5
2BC
  8
LAYER0001
  6
CONTINUOUS
 62
     7
 10
277.0223058348586
 20
124.0
 30
0.0
 11
286.2508939391066
 21
124.0
 31
0.0
  0
INSERT
  5
2BD
  8
LAYER0001
  6
CONTINUOUS
  2
DC_GROUP_67
 10
0.0
 20
0.0
 30
0.0
  0
TEXT
  5
2BE
  8
LAYER0001
 62
     7
 10
278.0223249083449
 20
125.5999923706055
 30
0.0
 40
4.0
  1
M8
 41
0.7047619047619094
  7
FDASTYLE1
 72
     5
 11
283.6604201464402
 21
125.5999923706055
 31
0.0
  0
ENDBLK
  5
111
  8
0
  0
BLOCK
  8
0
  2
DC_GROUP_67
 70
     0
 10
0.0
 20
0.0
 30
0.0
  3
DC_GROUP_67
  1

  0
CIRCLE
  5
2BF
  8
LAYER0001
  6
CONTINUOUS
 62
     7
 10
263.8973373138285
 20
105.8307451186552
 30
0.0
 40
1.0
  0
LINE
  5
2C0
  8
LAYER0001
  6
CONTINUOUS
 62
     7
 10
264.4829077087005
 20
106.6413666781079
 30
0.0
 11
265.0684781035725
 21
107.4519882375605
 31
0.0
  0
ENDBLK
  5
114
  8
0
  0
BLOCK
  8
0
  2
DC_GROUP_68
 70
     0
 10
0.0
 20
0.0
 30
0.0
  3
DC_GROUP_68
  1

  0
LINE
  5
2C1
  8
LAYER0001
  6
CONTINUOUS
 62
     7
 10
187.6786016112257
 20
105.3100775193798
 30
0.0
 11
187.6786016112257
 21
135.0
 31
0.0
  0
LINE
  5
2C2
  8
LAYER0001
  6
CONTINUOUS
 62
     7
 10
193.4786046629835
 20
66.09784988403322
 30
0.0
 11
193.4786046629835
 21
135.0
 31
0.0
  0
LINE
  5
2C3
  8
LAYER0001
  6
CONTINUOUS
 62
     7
 10
187.6786016112257
 20
134.0
 30
0.0
 11
193.4786046629835
 21
134.0
 31
0.0
  0
LINE
  5
2C4
  8
LAYER0001
  6
CONTINUOUS
 62
     7
 10
160.8335733634763
 20
134.0
 30
0.0
 11
187.6786016112257
 21
134.0
 31
0.0
  0
LINE
  5
2C5
  8
LAYER0001
  6
CONTINUOUS
 62
     7
 10
198.4786046629835
 20
134.0
 30
0.0
 11
193.4786046629835
 21
134.0
 31
0.0
  0
INSERT
  5
2C6
  8
LAYER0001
  6
CENTER
  2
DC_GROUP_69
 10
0.0
 20
0.0
 30
0.0
  0
INSERT
  5
2C7
  8
LAYER0001
  6
CONTINUOUS
  2
DC_GROUP_70
 10
0.0
 20
0.0
 30
0.0
  0
TEXT
  5
2C8
  8
LAYER0001
 62
     7
 10
161.8335733634763
 20
135.0
 30
0.0
 40
4.0
  1
MAX23.3
 41
0.6802721088435371
  7
FDASTYLE1
 72
     5
 11
180.8811924110953
 21
135.0
 31
0.0
  0
ENDBLK
  5
117
  8
0
  0
BLOCK
  8
0
  2
DC_GROUP_69
 70
     0
 10
0.0
 20
0.0
 30
0.0
  3
DC_GROUP_69
  1

  0
LINE
  5
2C9
  8
LAYER0001
  6
CONTINUOUS
 62
     7
 10
185.678603203595
 20
134.5358995348976
 30
0.0
 11
187.6786016112257
 21
134.0
 31
0.0
  0
LINE
  5
2CA
  8
LAYER0001
  6
CONTINUOUS
 62
     7
 10
187.6786016112257
 20
134.0
 30
0.0
 11
185.678603203595
 21
133.4641004651024
 31
0.0
  0
LINE
  5
2CB
  8
LAYER0001
  6
CONTINUOUS
 62
     7
 10
187.6786016112257
 20
134.0
 30
0.0
 11
185.678603203595
 21
134.0
 31
0.0
  0
ENDBLK
  5
11A
  8
0
  0
BLOCK
  8
0
  2
DC_GROUP_70
 70
     0
 10
0.0
 20
0.0
 30
0.0
  3
DC_GROUP_70
  1

  0
LINE
  5
2CC
  8
LAYER0001
  6
CONTINUOUS
 62
     7
 10
195.4786030706142
 20
133.4641004651024
 30
0.0
 11
193.4786046629835
 21
134.0
 31
0.0
  0
LINE
  5
2CD
  8
LAYER0001
  6
CONTINUOUS
 62
     7
 10
193.4786046629835
 20
134.0
 30
0.0
 11
195.4786030706142
 21
134.5358995348976
 31
0.0
  0
LINE
  5
2CE
  8
LAYER0001
  6
CONTINUOUS
 62
     7
 10
193.4786046629835
 20
134.0
 30
0.0
 11
195.4786030706142
 21
134.0
 31
0.0
  0
ENDBLK
  5
11D
  8
0
  0
BLOCK
  8
0
  2
DC_GROUP_71
 70
     0
 10
0.0
 20
0.0
 30
0.0
  3
DC_GROUP_71
  1

  0
LINE
  5
2CF
  8
LAYER0001
  6
CONTINUOUS
 62
     7
 10
256.0186504393507
 20
1.057849884033232
 30
0.0
 11
298.0223058348585
 21
1.057849884033232
 31
0.0
  0
LINE
  5
2D0
  8
LAYER0001
  6
CONTINUOUS
 62
     7
 10
297.0223058348585
 20
57.25784683227542
 30
0.0
 11
297.0223058348585
 21
1.057849884033232
 31
0.0
  0
INSERT
  5
2D1
  8
LAYER0001
  6
CONTINUOUS
  2
DC_GROUP_72
 10
0.0
 20
0.0
 30
0.0
  0
TEXT
  5
2D2
  8
LAYER0001
 62
     7
 10
295.4223058348586
 20
26.00000000000004
 30
0.0
 40
4.0
  1
φ66H7
 50
90.0
 41
0.6213017751479283
  7
FDASTYLE1
 72
     5
 11
295.4223058348586
 21
38.92307692307695
 31
0.0
  0
ENDBLK
  5
120
  8
0
  0
BLOCK
  8
0
  2
DC_GROUP_72
 70
     0
 10
0.0
 20
0.0
 30
0.0
  3
DC_GROUP_72
  1

  0
LINE
  5
2D3
  8
LAYER0001
  6
CONTINUOUS
 62
     7
 10
297.5582053697561
 20
3.057848291663894
 30
0.0
 11
297.0223058348585
 21
1.057849884033232
 31
0.0
  0
LINE
  5
2D4
  8
LAYER0001
  6
CONTINUOUS
 62
     7
 10
297.0223058348585
 20
1.057849884033232
 30
0.0
 11
296.486406299961
 21
3.057848291663895
 31
0.0
  0
LINE
  5
2D5
  8
LAYER0001
  6
CONTINUOUS
 62
     7
 10
297.0223058348585
 20
1.057849884033232
 30
0.0
 11
297.0223058348585
 21
3.057848291663895
 31
0.0
  0
ENDBLK
  5
123
  8
0
  0
BLOCK
  8
0
  2
DC_GROUP_73
 70
     0
 10
0.0
 20
0.0
 30
0.0
  3
DC_GROUP_73
  1

  0
LINE
  5
2D6
  8
LAYER0001
  6
CONTINUOUS
 62
     7
 10
185.1386016112257
 20
64.55784988403323
 30
0.0
 11
146.0223058348585
 21
64.55784988403323
 31
0.0
  0
LINE
  5
2D7
  8
LAYER0001
  6
CONTINUOUS
 62
     7
 10
185.1386016112257
 20
3.557849884033232
 30
0.0
 11
146.0223058348585
 21
3.557849884033232
 31
0.0
  0
LINE
  5
2D8
  8
LAYER0001
  6
CONTINUOUS
 62
     7
 10
147.0223058348585
 20
64.55784988403323
 30
0.0
 11
147.0223058348585
 21
3.557849884033232
 31
0.0
  0
INSERT
  5
2D9
  8
LAYER0001
  6
CONTINUOUS
  2
DC_GROUP_74
 10
0.0
 20
0.0
 30
0.0
  0
INSERT
  5
2DA
  8
LAYER0001
  6
CONTINUOUS
  2
DC_GROUP_75
 10
0.0
 20
0.0
 30
0.0
  0
TEXT
  5
2DB
  8
LAYER0001
 62
     7
 10
146.0223058348585
 20
24.69464547935441
 30
0.0
 40
4.0
  1
φ61H7
 50
90.0
 41
0.6213017751479293
  7
FDASTYLE1
 72
     5
 11
146.0223058348585
 21
37.61772240243134
 31
0.0
  0
ENDBLK
  5
126
  8
0
  0
BLOCK
  8
0
  2
DC_GROUP_74
 70
     0
 10
0.0
 20
0.0
 30
0.0
  3
DC_GROUP_74
  1

  0
LINE
  5
2DC
  8
LAYER0001
  6
CONTINUOUS
 62
     7
 10
146.4864062999609
 20
62.55785147640257
 30
0.0
 11
147.0223058348585
 21
64.55784988403323
 31
0.0
  0
LINE
  5
2DD
  8
LAYER0001
  6
CONTINUOUS
 62
     7
 10
147.0223058348585
 20
64.55784988403323
 30
0.0
 11
147.5582053697561
 21
62.55785147640257
 31
0.0
  0
LINE
  5
2DE
  8
LAYER0001
  6
CONTINUOUS
 62
     7
 10
147.0223058348585
 20
64.55784988403323
 30
0.0
 11
147.0223058348585
 21
62.55785147640257
 31
0.0
  0
ENDBLK
  5
129
  8
0
  0
BLOCK
  8
0
  2
DC_GROUP_75
 70
     0
 10
0.0
 20
0.0
 30
0.0
  3
DC_GROUP_75
  1

  0
LINE
  5
2DF
  8
LAYER0001
  6
CONTINUOUS
 62
     7
 10
147.5582053697561
 20
5.557848291663895
 30
0.0
 11
147.0223058348585
 21
3.557849884033232
 31
0.0
  0
LINE
  5
2E0
  8
LAYER0001
  6
CONTINUOUS
 62
     7
 10
147.0223058348585
 20
3.557849884033232
 30
0.0
 11
146.4864062999609
 21
5.557848291663895
 31
0.0
  0
LINE
  5
2E1
  8
LAYER0001
  6
CONTINUOUS
 62
     7
 10
147.0223058348585
 20
3.557849884033232
 30
0.0
 11
147.0223058348585
 21
5.557848291663895
 31
0.0
  0
ENDBLK
  5
12C
  8
0
  0
BLOCK
  8
0
  2
DC_GROUP_76
 70
     0
 10
0.0
 20
0.0
 30
0.0
  3
DC_GROUP_76
  1

  0
LINE
  5
2E2
  8
LAYER0001
  6
CONTINUOUS
 62
     7
 10
180.9386504393507
 20
116.557861328125
 30
0.0
 11
126.0223058348585
 21
116.557861328125
 31
0.0
  0
LINE
  5
2E3
  8
LAYER0001
  6
CONTINUOUS
 62
     7
 10
180.9386504393507
 20
-48.44215011596677
 30
0.0
 11
126.0223058348585
 21
-48.44215011596677
 31
0.0
  0
LINE
  5
2E4
  8
LAYER0001
  6
CONTINUOUS
 62
     7
 10
127.0223058348585
 20
116.557861328125
 30
0.0
 11
127.0223058348585
 21
-48.44215011596677
 31
0.0
  0
INSERT
  5
2E5
  8
LAYER0001
  6
CONTINUOUS
  2
DC_GROUP_77
 10
0.0
 20
0.0
 30
0.0
  0
INSERT
  5
2E6
  8
LAYER0001
  6
CONTINUOUS
  2
DC_GROUP_78
 10
0.0
 20
0.0
 30
0.0
  0
TEXT
  5
2E7
  8
LAYER0001
 62
     7
 10
125.4223058348586
 20
27.60000000000002
 30
0.0
 40
4.0
  1
φ165
 50
90.0
 41
0.6167800453514754
  7
FDASTYLE1
 72
     5
 11
125.4223058348586
 21
37.96190476190481
 31
0.0
  0
ENDBLK
  5
12F
  8
0
  0
BLOCK
  8
0
  2
DC_GROUP_77
 70
     0
 10
0.0
 20
0.0
 30
0.0
  3
DC_GROUP_77
  1

  0
LINE
  5
2E8
  8
LAYER0001
  6
CONTINUOUS
 62
     7
 10
126.4864062999609
 20
114.5578629204943
 30
0.0
 11
127.0223058348585
 21
116.557861328125
 31
0.0
  0
LINE
  5
2E9
  8
LAYER0001
  6
CONTINUOUS
 62
     7
 10
127.0223058348585
 20
116.557861328125
 30
0.0
 11
127.5582053697561
 21
114.5578629204943
 31
0.0
  0
LINE
  5
2EA
  8
LAYER0001
  6
CONTINUOUS
 62
     7
 10
127.0223058348585
 20
116.557861328125
 30
0.0
 11
127.0223058348585
 21
114.5578629204943
 31
0.0
  0
ENDBLK
  5
132
  8
0
  0
BLOCK
  8
0
  2
DC_GROUP_78
 70
     0
 10
0.0
 20
0.0
 30
0.0
  3
DC_GROUP_78
  1

  0
LINE
  5
2EB
  8
LAYER0001
  6
CONTINUOUS
 62
     7
 10
127.5582053697561
 20
-46.44215170833611
 30
0.0
 11
127.0223058348585
 21
-48.44215011596677
 31
0.0
  0
LINE
  5
2EC
  8
LAYER0001
  6
CONTINUOUS
 62
     7
 10
127.0223058348585
 20
-48.44215011596677
 30
0.0
 11
126.4864062999609
 21
-46.44215170833611
 31
0.0
  0
LINE
  5
2ED
  8
LAYER0001
  6
CONTINUOUS
 62
     7
 10
127.0223058348585
 20
-48.44215011596677
 30
0.0
 11
127.0223058348585
 21
-46.44215170833611
 31
0.0
  0
ENDBLK
  5
135
  8
0
  0
BLOCK
  8
0
  2
DC_GROUP_79
 70
     0
 10
0.0
 20
0.0
 30
0.0
  3
DC_GROUP_79
  1

  0
LINE
  5
2EE
  8
LAYER0001
  6
CONTINUOUS
 62
     7
 10
273.9251445799757
 20
77.55784606933597
 30
0.0
 11
288.0223058348586
 21
77.55784606933597
 31
0.0
  0
LINE
  5
2EF
  8
LAYER0001
  6
CONTINUOUS
 62
     7
 10
274.2244609862257
 20
102.557861328125
 30
0.0
 11
288.0223058348586
 21
102.557861328125
 31
0.0
  0
LINE
  5
2F0
  8
LAYER0001
  6
CONTINUOUS
 62
     7
 10
287.0223058348586
 20
77.55784606933597
 30
0.0
 11
287.0223058348586
 21
102.557861328125
 31
0.0
  0
INSERT
  5
2F1
  8
LAYER0001
  6
CONTINUOUS
  2
DC_GROUP_80
 10
0.0
 20
0.0
 30
0.0
  0
INSERT
  5
2F2
  8
LAYER0001
  6
CONTINUOUS
  2
DC_GROUP_81
 10
0.0
 20
0.0
 30
0.0
  0
TEXT
  5
2F3
  8
LAYER0001
 62
     7
 10
285.4223058348586
 20
86.85785369873049
 30
0.0
 40
4.0
  1
25
 50
90.0
 41
0.6476190476190453
  7
FDASTYLE1
 72
     5
 11
285.4223058348586
 21
92.03880607968286
 31
0.0
  0
ENDBLK
  5
138
  8
0
  0
BLOCK
  8
0
  2
DC_GROUP_80
 70
     0
 10
0.0
 20
0.0
 30
0.0
  3
DC_GROUP_80
  1

  0
LINE
  5
2F4
  8
LAYER0001
  6
CONTINUOUS
 62
     7
 10
287.5582053697561
 20
79.55784447696662
 30
0.0
 11
287.0223058348586
 21
77.55784606933597
 31
0.0
  0
LINE
  5
2F5
  8
LAYER0001
  6
CONTINUOUS
 62
     7
 10
287.0223058348586
 20
77.55784606933597
 30
0.0
 11
286.486406299961
 21
79.55784447696662
 31
0.0
  0
LINE
  5
2F6
  8
LAYER0001
  6
CONTINUOUS
 62
     7
 10
287.0223058348586
 20
77.55784606933597
 30
0.0
 11
287.0223058348586
 21
79.55784447696662
 31
0.0
  0
ENDBLK
  5
13B
  8
0
  0
BLOCK
  8
0
  2
DC_GROUP_81
 70
     0
 10
0.0
 20
0.0
 30
0.0
  3
DC_GROUP_81
  1

  0
LINE
  5
2F7
  8
LAYER0001
  6
CONTINUOUS
 62
     7
 10
286.486406299961
 20
100.5578629204943
 30
0.0
 11
287.0223058348586
 21
102.557861328125
 31
0.0
  0
LINE
  5
2F8
  8
LAYER0001
  6
CONTINUOUS
 62
     7
 10
287.0223058348586
 20
102.557861328125
 30
0.0
 11
287.5582053697561
 21
100.5578629204943
 31
0.0
  0
LINE
  5
2F9
  8
LAYER0001
  6
CONTINUOUS
 62
     7
 10
287.0223058348586
 20
102.557861328125
 30
0.0
 11
287.0223058348586
 21
100.5578629204943
 31
0.0
  0
ENDBLK
  5
13E
  8
0
  0
BLOCK
  8
0
  2
DC_GROUP_82
 70
     0
 10
0.0
 20
0.0
 30
0.0
  3
DC_GROUP_82
  1

  0
LINE
  5
2FA
  8
LAYER0001
  6
CONTINUOUS
 62
     7
 10
287.7261309295008
 20
69.55784606933597
 30
0.0
 11
298.0223058348585
 21
69.55784606933597
 31
0.0
  0
LINE
  5
2FB
  8
LAYER0001
  6
CONTINUOUS
 62
     7
 10
256.5186504393507
 20
110.557861328125
 30
0.0
 11
298.0223058348585
 21
110.557861328125
 31
0.0
  0
LINE
  5
2FC
  8
LAYER0001
  6
CONTINUOUS
 62
     7
 10
297.0223058348585
 20
69.55784606933597
 30
0.0
 11
297.0223058348585
 21
110.557861328125
 31
0.0
  0
INSERT
  5
2FD
  8
LAYER0001
  6
CONTINUOUS
  2
DC_GROUP_83
 10
0.0
 20
0.0
 30
0.0
  0
INSERT
  5
2FE
  8
LAYER0001
  6
CONTINUOUS
  2
DC_GROUP_84
 10
0.0
 20
0.0
 30
0.0
  0
TEXT
  5
2FF
  8
LAYER0001
 62
     7
 10
295.4223058348586
 20
86.85785369873051
 30
0.0
 40
4.0
  1
41
 50
90.0
 41
0.5333333333333314
  7
FDASTYLE1
 72
     5
 11
295.4223058348586
 21
91.12452036539716
 31
0.0
  0
ENDBLK
  5
141
  8
0
  0
BLOCK
  8
0
  2
DC_GROUP_83
 70
     0
 10
0.0
 20
0.0
 30
0.0
  3
DC_GROUP_83
  1

  0
LINE
  5
300
  8
LAYER0001
  6
CONTINUOUS
 62
     7
 10
297.5582053697561
 20
71.55784447696662
 30
0.0
 11
297.0223058348585
 21
69.55784606933597
 31
0.0
  0
LINE
  5
301
  8
LAYER0001
  6
CONTINUOUS
 62
     7
 10
297.0223058348585
 20
69.55784606933597
 30
0.0
 11
296.486406299961
 21
71.55784447696662
 31
0.0
  0
LINE
  5
302
  8
LAYER0001
  6
CONTINUOUS
 62
     7
 10
297.0223058348585
 20
69.55784606933597
 30
0.0
 11
297.0223058348585
 21
71.55784447696662
 31
0.0
  0
ENDBLK
  5
144
  8
0
  0
BLOCK
  8
0
  2
DC_GROUP_84
 70
     0
 10
0.0
 20
0.0
 30
0.0
  3
DC_GROUP_84
  1

  0
LINE
  5
303
  8
LAYER0001
  6
CONTINUOUS
 62
     7
 10
296.486406299961
 20
108.5578629204943
 30
0.0
 11
297.0223058348585
 21
110.557861328125
 31
0.0
  0
LINE
  5
304
  8
LAYER0001
  6
CONTINUOUS
 62
     7
 10
297.0223058348585
 20
110.557861328125
 30
0.0
 11
297.5582053697561
 21
108.5578629204943
 31
0.0
  0
LINE
  5
305
  8
LAYER0001
  6
CONTINUOUS
 62
     7
 10
297.0223058348585
 20
110.557861328125
 30
0.0
 11
297.0223058348585
 21
108.5578629204943
 31
0.0
  0
ENDBLK
  5
147
  8
0
  0
BLOCK
  8
0
  2
DC_GROUP_85
 70
     0
 10
0.0
 20
0.0
 30
0.0
  3
DC_GROUP_85
  1

  0
LINE
  5
306
  8
LAYER0001
  6
CONTINUOUS
 62
     7
 10
244.7686504393507
 20
7.057849884033232
 30
0.0
 11
288.0223058348586
 21
7.057849884033232
 31
0.0
  0
LINE
  5
307
  8
LAYER0001
  6
CONTINUOUS
 62
     7
 10
244.7686504393507
 20
61.05784988403323
 30
0.0
 11
288.0223058348586
 21
61.05784988403323
 31
0.0
  0
LINE
  5
308
  8
LAYER0001
  6
CONTINUOUS
 62
     7
 10
287.0223058348586
 20
7.057849884033232
 30
0.0
 11
287.0223058348586
 21
61.05784988403323
 31
0.0
  0
INSERT
  5
309
  8
LAYER0001
  6
CONTINUOUS
  2
DC_GROUP_86
 10
0.0
 20
0.0
 30
0.0
  0
INSERT
  5
30A
  8
LAYER0001
  6
CONTINUOUS
  2
DC_GROUP_87
 10
0.0
 20
0.0
 30
0.0
  0
TEXT
  5
30B
  8
LAYER0001
 62
     7
 10
285.4223058348586
 20
19.65784988403323
 30
0.0
 40
4.0
  1
M54×P1.25
 50
90.0
 41
0.6294896030245744
  7
FDASTYLE1
 72
     5
 11
285.4223058348586
 21
42.82306727533756
 31
0.0
  0
ENDBLK
  5
14A
  8
0
  0
BLOCK
  8
0
  2
DC_GROUP_86
 70
     0
 10
0.0
 20
0.0
 30
0.0
  3
DC_GROUP_86
  1

  0
LINE
  5
30C
  8
LAYER0001
  6
CONTINUOUS
 62
     7
 10
287.5582053697561
 20
9.057848291663895
 30
0.0
 11
287.0223058348586
 21
7.057849884033232
 31
0.0
  0
LINE
  5
30D
  8
LAYER0001
  6
CONTINUOUS
 62
     7
 10
287.0223058348586
 20
7.057849884033232
 30
0.0
 11
286.486406299961
 21
9.057848291663895
 31
0.0
  0
LINE
  5
30E
  8
LAYER0001
  6
CONTINUOUS
 62
     7
 10
287.0223058348586
 20
7.057849884033232
 30
0.0
 11
287.0223058348586
 21
9.057848291663895
 31
0.0
  0
ENDBLK
  5
14D
  8
0
  0
BLOCK
  8
0
  2
DC_GROUP_87
 70
     0
 10
0.0
 20
0.0
 30
0.0
  3
DC_GROUP_87
  1

  0
LINE
  5
30F
  8
LAYER0001
  6
CONTINUOUS
 62
     7
 10
286.486406299961
 20
59.05785147640257
 30
0.0
 11
287.0223058348586
 21
61.05784988403323
 31
0.0
  0
LINE
  5
310
  8
LAYER0001
  6
CONTINUOUS
 62
     7
 10
287.0223058348586
 20
61.05784988403323
 30
0.0
 11
287.5582053697561
 21
59.05785147640257
 31
0.0
  0
LINE
  5
311
  8
LAYER0001
  6
CONTINUOUS
 62
     7
 10
287.0223058348586
 20
61.05784988403323
 30
0.0
 11
287.0223058348586
 21
59.05785147640257
 31
0.0
  0
ENDBLK
  5
150
  8
0
  0
BLOCK
  8
0
  2
DC_GROUP_88
 70
     0
 10
0.0
 20
0.0
 30
0.0
  3
DC_GROUP_88
  1

  0
LINE
  5
312
  8
LAYER0001
  6
CONTINUOUS
 62
     7
 10
309.760606093033
 20
34.05784988403323
 30
0.0
 11
309.760606093033
 21
66.05784988403323
 31
0.0
  0
LINE
  5
313
  8
LAYER0001
  6
CONTINUOUS
 62
     7
 10
255.0186504393507
 20
66.05784988403323
 30
0.0
 11
310.760606093033
 21
66.05784988403323
 31
0.0
  0
LINE
  5
314
  8
LAYER0001
  6
CONTINUOUS
 62
     7
 10
259.3932527413725
 20
34.05784988403323
 30
0.0
 11
279.6857558497834
 21
34.05784988403323
 31
0.0
  0
LINE
  5
315
  8
LAYER0001
  6
CONTINUOUS
 62
     7
 10
298.4466310357906
 20
34.05784988403323
 30
0.0
 11
310.760606093033
 21
34.05784988403323
 31
0.0
  0
INSERT
  5
316
  8
LAYER0001
  6
CONTINUOUS
  2
DC_GROUP_89
 10
0.0
 20
0.0
 30
0.0
  0
INSERT
  5
317
  8
LAYER0001
  6
CONTINUOUS
  2
DC_GROUP_90
 10
0.0
 20
0.0
 30
0.0
  0
ENDBLK
  5
153
  8
0
  0
BLOCK
  8
0
  2
DC_GROUP_89
 70
     0
 10
0.0
 20
0.0
 30
0.0
  3
DC_GROUP_89
  1

  0
LINE
  5
318
  8
LAYER0001
  6
CONTINUOUS
 62
     7
 10
310.2965056279305
 20
36.0578482916639
 30
0.0
 11
309.760606093033
 21
34.05784988403323
 31
0.0
  0
LINE
  5
319
  8
LAYER0001
  6
CONTINUOUS
 62
     7
 10
309.760606093033
 20
34.05784988403323
 30
0.0
 11
309.2247065581353
 21
36.0578482916639
 31
0.0
  0
LINE
  5
31A
  8
LAYER0001
  6
CONTINUOUS
 62
     7
 10
309.760606093033
 20
34.05784988403323
 30
0.0
 11
309.760606093033
 21
36.0578482916639
 31
0.0
  0
ENDBLK
  5
156
  8
0
  0
BLOCK
  8
0
  2
DC_GROUP_90
 70
     0
 10
0.0
 20
0.0
 30
0.0
  3
DC_GROUP_90
  1

  0
LINE
  5
31B
  8
LAYER0001
  6
CONTINUOUS
 62
     7
 10
309.2247065581353
 20
64.05785147640256
 30
0.0
 11
309.760606093033
 21
66.05784988403323
 31
0.0
  0
LINE
  5
31C
  8
LAYER0001
  6
CONTINUOUS
 62
     7
 10
309.760606093033
 20
66.05784988403323
 30
0.0
 11
310.2965056279305
 21
64.05785147640256
 31
0.0
  0
LINE
  5
31D
  8
LAYER0001
  6
CONTINUOUS
 62
     7
 10
309.760606093033
 20
66.05784988403323
 30
0.0
 11
309.760606093033
 21
64.05785147640256
 31
0.0
  0
ENDBLK
  5
159
  8
0
  0
BLOCK
  8
0
  2
DC_GROUP_91
 70
     0
 10
0.0
 20
0.0
 30
0.0
  3
DC_GROUP_91
  1

  0
TEXT
  5
31E
  8
LAYER0001
 62
     7
 10
314.7045855361298
 20
36.71638605430097
 30
0.0
 40
4.0
  1
MIN30.55
 50
90.0
 41
0.6523809523809518
  7
FDASTYLE1
 72
     5
 11
314.7045855361298
 21
57.59257653049143
 31
0.0
  0
ENDBLK
  5
15C
  8
0
  0
BLOCK
  8
0
  2
DC_GROUP_92
 70
     0
 10
0.0
 20
0.0
 30
0.0
  3
DC_GROUP_92
  1

  0
TEXT
  5
31F
  8
LAYER0001
 62
     7
 10
308.9494713562489
 20
36.8240355091724
 30
0.0
 40
4.0
  1
MAX33.05
 50
90.0
 41
0.6904761904761898
  7
FDASTYLE1
 72
     5
 11
308.9494713562489
 21
58.91927360441047
 31
0.0
  0
ENDBLK
  5
15F
  8
0
  0
BLOCK
  8
0
  2
DC_GROUP_93
 70
     0
 10
0.0
 20
0.0
 30
0.0
  3
DC_GROUP_93
  1

  0
TEXT
  5
320
  8
LAYER0001
 62
     7
 10
161.5119356134038
 20
129.2016842818878
 30
0.0
 40
4.0
  1
MIN 5.8
 41
0.6421768707482981
  7
FDASTYLE1
 72
     5
 11
179.4928879943561
 21
129.2016842818878
 31
0.0
  0
ENDBLK
  5
162
  8
0
  0
BLOCK
  8
0
  2
DC_GROUP_94
 70
     0
 10
0.0
 20
0.0
 30
0.0
  3
DC_GROUP_94
  1

  0
TEXT
  5
321
  8
LAYER0001
 62
     7
 10
195.0806797731088
 20
-78.59434201111054
 30
0.0
 40
4.0
  1
MIN28.8
 41
0.6367346938775508
  7
FDASTYLE1
 72
     5
 11
212.9092512016802
 21
-78.59434201111054
 31
0.0
  0
ENDBLK
  5
165
  8
0
  0
BLOCK
  8
0
  2
DC_GROUP_95
 70
     0
 10
0.0
 20
0.0
 30
0.0
  3
DC_GROUP_95
  1

  0
CIRCLE
  5
322
  8
0
  6
CONTINUOUS
 62
     4
 10
494.3147020200314
 20
34.05784988403323
 30
0.0
 40
26.52299995422363
  0
ENDBLK
  5
168
  8
0
  0
BLOCK
  8
0
  2
DC_GROUP_96
 70
     0
 10
0.0
 20
0.0
 30
0.0
  3
DC_GROUP_96
  1

  0
ARC
  5
323
  8
0
  6
CENTER
 62
     7
 10
494.3147020200314
 20
34.05784988403323
 30
0.0
 40
24.0
 50
200.0408765065066
 51
219.6057621387114
  0
ENDBLK
  5
16B
  8
0
  0
BLOCK
  8
0
  2
DC_GROUP_97
 70
     0
 10
0.0
 20
0.0
 30
0.0
  3
DC_GROUP_97
  1

  0
ARC
  5
324
  8
0
  6
CENTER
 62
     7
 10
494.3147020200314
 20
34.05784988403323
 30
0.0
 40
24.0
 50
320.3942378612886
 51
339.9591234934934
  0
ENDBLK
  5
16E
  8
0
  0
BLOCK
  8
0
  2
DC_GROUP_98
 70
     0
 10
0.0
 20
0.0
 30
0.0
  3
DC_GROUP_98
  1

  0
ARC
  5
325
  8
0
  6
CENTER
 62
     7
 10
494.3147020200314
 20
34.05784988403323
 30
0.0
 40
24.0
 50
80.04087635492591
 51
99.60576881731981
  0
ENDBLK
  5
171
  8
0
  0
BLOCK
  8
0
  2
DC_GROUP_99
 70
     0
 10
0.0
 20
0.0
 30
0.0
  3
DC_GROUP_99
  1

  0
CIRCLE
  5
326
  8
0
  6
CONTINUOUS
 62
     3
 10
494.3147020200314
 20
34.05784988403323
 30
0.0
 40
21.0
  0
ENDBLK
  5
174
  8
0
  0
BLOCK
  8
0
  2
DC_GROUP_100
 70
     0
 10
0.0
 20
0.0
 30
0.0
  3
DC_GROUP_100
  1

  0
LINE
  5
327
  8
0
  6
CONTINUOUS
 62
     9
 10
201.2286504393507
 20
13.05784988403323
 30
0.0
 11
165.5097324764963
 21
13.05784988403324
 31
0.0
  0
LINE
  5
328
  8
0
  6
CONTINUOUS
 62
     9
 10
201.2286504393507
 20
55.05784988403323
 30
0.0
 11
165.5097324764963
 21
55.05784988403324
 31
0.0
  0
LINE
  5
329
  8
0
  6
CONTINUOUS
 62
     9
 10
166.5097324764963
 20
13.05784988403324
 30
0.0
 11
166.5097324764963
 21
55.05784988403324
 31
0.0
  0
INSERT
  5
32A
  8
0
  6
CONTINUOUS
  2
DC_GROUP_101
 10
0.0
 20
0.0
 30
0.0
  0
INSERT
  5
32B
  8
0
  6
CONTINUOUS
  2
DC_GROUP_102
 10
0.0
 20
0.0
 30
0.0
  0
TEXT
  5
32C
  8
0
 62
     7
 10
165.5097324764963
 20
26.05784988403322
 30
0.0
 40
4.0
  1
φ42
 50
90.0
 41
0.6093750000000006
  7
FDASTYLE1
 72
     5
 11
165.5097324764963
 21
33.85784988403323
 31
0.0
  0
TEXT
  5
32D
  8
0
 62
     7
 10
162.9097324764962
 20
36.65784988403324
 30
0.0
 40
2.6
  1
+0.3
 50
90.0
 41
0.6571428571428556
  7
FDASTYLE1
 72
     5
 11
162.9097324764962
 21
43.49213559831894
 31
0.0
  0
TEXT
  5
32E
  8
0
 62
     7
 10
165.7097324764962
 20
36.65784988403324
 30
0.0
 40
2.6
  1
 0
 50
90.0
 41
0.2666666666666646
  7
FDASTYLE1
 72
     5
 11
165.7097324764962
 21
38.0445165506999
 31
0.0
  0
ENDBLK
  5
177
  8
0
  0
BLOCK
  8
0
  2
DC_GROUP_101
 70
     0
 10
0.0
 20
0.0
 30
0.0
  3
DC_GROUP_101
  1

  0
LINE
  5
32F
  8
0
  6
CONTINUOUS
 62
     9
 10
167.0456320113939
 20
15.0578482916639
 30
0.0
 11
166.5097324764963
 21
13.05784988403324
 31
0.0
  0
LINE
  5
330
  8
0
  6
CONTINUOUS
 62
     9
 10
166.5097324764963
 20
13.05784988403324
 30
0.0
 11
165.9738329415987
 21
15.0578482916639
 31
0.0
  0
LINE
  5
331
  8
0
  6
CONTINUOUS
 62
     9
 10
166.5097324764963
 20
13.05784988403324
 30
0.0
 11
166.5097324764963
 21
15.0578482916639
 31
0.0
  0
ENDBLK
  5
17A
  8
0
  0
BLOCK
  8
0
  2
DC_GROUP_102
 70
     0
 10
0.0
 20
0.0
 30
0.0
  3
DC_GROUP_102
  1

  0
LINE
  5
332
  8
0
  6
CONTINUOUS
 62
     9
 10
165.9738329415987
 20
53.05785147640258
 30
0.0
 11
166.5097324764963
 21
55.05784988403324
 31
0.0
  0
LINE
  5
333
  8
0
  6
CONTINUOUS
 62
     9
 10
166.5097324764963
 20
55.05784988403324
 30
0.0
 11
167.0456320113939
 21
53.05785147640258
 31
0.0
  0
LINE
  5
334
  8
0
  6
CONTINUOUS
 62
     9
 10
166.5097324764963
 20
55.05784988403324
 30
0.0
 11
166.5097324764963
 21
53.05785147640258
 31
0.0
  0
ENDBLK
  5
17D
  8
0
  0
BLOCK
  8
0
  2
DC_GROUP_103
 70
     0
 10
0.0
 20
0.0
 30
0.0
  3
DC_GROUP_103
  1

  0
LINE
  5
335
  8
0
  6
CONTINUOUS
 62
     9
 10
224.2286504393507
 20
59.30784988403323
 30
0.0
 11
155.5294433809299
 21
59.30784988403323
 31
0.0
  0
LINE
  5
336
  8
0
  6
CONTINUOUS
 62
     9
 10
224.2286504393507
 20
8.807849884033232
 30
0.0
 11
155.5294433809299
 21
8.807849884033232
 31
0.0
  0
LINE
  5
337
  8
0
  6
CONTINUOUS
 62
     9
 10
156.5294433809299
 20
8.807849884033232
 30
0.0
 11
156.5294433809299
 21
59.30784988403323
 31
0.0
  0
INSERT
  5
338
  8
0
  6
DASHDOT2
  2
DC_GROUP_104
 10
0.0
 20
0.0
 30
0.0
  0
INSERT
  5
339
  8
0
  6
DASHDOT2
  2
DC_GROUP_105
 10
0.0
 20
0.0
 30
0.0
  0
TEXT
  5
33A
  8
0
 62
     7
 10
155.5294433809299
 20
22.85784988403324
 30
0.0
 40
4.0
  1
φ50.5Ｈ7
 50
90.0
 41
0.6135865595325046
  7
FDASTYLE1
 72
     5
 11
155.5294433809299
 21
41.02001204619538
 31
0.0
  0
ENDBLK
  5
180
  8
0
  0
BLOCK
  8
0
  2
DC_GROUP_104
 70
     0
 10
0.0
 20
0.0
 30
0.0
  3
DC_GROUP_104
  1

  0
LINE
  5
33B
  8
0
  6
CONTINUOUS
 62
     9
 10
157.0653429158275
 20
10.8078482916639
 30
0.0
 11
156.5294433809299
 21
8.807849884033232
 31
0.0
  0
LINE
  5
33C
  8
0
  6
CONTINUOUS
 62
     9
 10
156.5294433809299
 20
8.807849884033232
 30
0.0
 11
155.9935438460323
 21
10.8078482916639
 31
0.0
  0
LINE
  5
33D
  8
0
  6
CONTINUOUS
 62
     9
 10
156.5294433809299
 20
8.807849884033232
 30
0.0
 11
156.5294433809299
 21
10.8078482916639
 31
0.0
  0
ENDBLK
  5
183
  8
0
  0
BLOCK
  8
0
  2
DC_GROUP_105
 70
     0
 10
0.0
 20
0.0
 30
0.0
  3
DC_GROUP_105
  1

  0
LINE
  5
33E
  8
0
  6
CONTINUOUS
 62
     9
 10
155.9935438460323
 20
57.30785147640257
 30
0.0
 11
156.5294433809299
 21
59.30784988403323
 31
0.0
  0
LINE
  5
33F
  8
0
  6
CONTINUOUS
 62
     9
 10
156.5294433809299
 20
59.30784988403323
 30
0.0
 11
157.0653429158275
 21
57.30785147640257
 31
0.0
  0
LINE
  5
340
  8
0
  6
CONTINUOUS
 62
     9
 10
156.5294433809299
 20
59.30784988403323
 30
0.0
 11
156.5294433809299
 21
57.30785147640257
 31
0.0
  0
ENDBLK
  5
186
  8
0
  0
BLOCK
  8
0
  2
DC_GROUP_106
 70
     0
 10
0.0
 20
0.0
 30
0.0
  3
DC_GROUP_106
  1

  0
LINE
  5
341
  8
0
  6
CONTINUOUS
 62
     9
 10
172.4786504393507
 20
-73.41546754159026
 30
0.0
 11
187.6786016112257
 21
-73.41546754159026
 31
0.0
  0
LINE
  5
342
  8
0
  6
CONTINUOUS
 62
     9
 10
172.4786504393507
 20
-24.32714843749997
 30
0.0
 11
172.4786504393507
 21
-74.41546754159026
 31
0.0
  0
LINE
  5
343
  8
0
  6
CONTINUOUS
 62
     9
 10
187.6786016112257
 20
-37.24559215284371
 30
0.0
 11
187.6786016112257
 21
-74.41546754159026
 31
0.0
  0
LINE
  5
344
  8
0
  6
CONTINUOUS
 62
     9
 10
155.7468004393507
 20
-73.41546754159026
 30
0.0
 11
172.4786504393507
 21
-73.41546754159026
 31
0.0
  0
LINE
  5
345
  8
0
  6
CONTINUOUS
 62
     9
 10
192.6786016112257
 20
-73.41546754159026
 30
0.0
 11
187.6786016112257
 21
-73.41546754159026
 31
0.0
  0
INSERT
  5
346
  8
0
  6
CENTER
  2
DC_GROUP_107
 10
0.0
 20
0.0
 30
0.0
  0
INSERT
  5
347
  8
0
  6
CENTER
  2
DC_GROUP_108
 10
0.0
 20
0.0
 30
0.0
  0
TEXT
  5
348
  8
0
 62
     7
 10
156.7468004393507
 20
-72.41546754159026
 30
0.0
 40
4.0
  1
15.2
 41
0.5809523809523807
  7
FDASTYLE1
 72
     5
 11
166.0420385345888
 21
-72.41546754159026
 31
0.0
  0
ENDBLK
  5
189
  8
0
  0
BLOCK
  8
0
  2
DC_GROUP_107
 70
     0
 10
0.0
 20
0.0
 30
0.0
  3
DC_GROUP_107
  1

  0
LINE
  5
349
  8
0
  6
CONTINUOUS
 62
     9
 10
170.47865203172
 20
-72.87956800669265
 30
0.0
 11
172.4786504393507
 21
-73.41546754159026
 31
0.0
  0
LINE
  5
34A
  8
0
  6
CONTINUOUS
 62
     9
 10
172.4786504393507
 20
-73.41546754159026
 30
0.0
 11
170.47865203172
 21
-73.95136707648787
 31
0.0
  0
LINE
  5
34B
  8
0
  6
CONTINUOUS
 62
     9
 10
172.4786504393507
 20
-73.41546754159026
 30
0.0
 11
170.47865203172
 21
-73.41546754159026
 31
0.0
  0
ENDBLK
  5
18C
  8
0
  0
BLOCK
  8
0
  2
DC_GROUP_108
 70
     0
 10
0.0
 20
0.0
 30
0.0
  3
DC_GROUP_108
  1

  0
LINE
  5
34C
  8
0
  6
CONTINUOUS
 62
     9
 10
189.6786000188563
 20
-73.95136707648787
 30
0.0
 11
187.6786016112257
 21
-73.41546754159026
 31
0.0
  0
LINE
  5
34D
  8
0
  6
CONTINUOUS
 62
     9
 10
187.6786016112257
 20
-73.41546754159026
 30
0.0
 11
189.6786000188563
 21
-72.87956800669265
 31
0.0
  0
LINE
  5
34E
  8
0
  6
CONTINUOUS
 62
     9
 10
187.6786016112257
 20
-73.41546754159026
 30
0.0
 11
189.6786000188563
 21
-73.41546754159026
 31
0.0
  0
ENDBLK
  5
18F
  8
0
  0
BLOCK
  8
0
  2
DC_GROUP_109
 70
     0
 10
0.0
 20
0.0
 30
0.0
  3
DC_GROUP_109
  1

  0
LINE
  5
34F
  8
0
  6
CONTINUOUS
 62
     9
 10
182.4786504393507
 20
-35.94215011596677
 30
0.0
 11
136.6931821125033
 21
-35.94215011596677
 31
0.0
  0
LINE
  5
350
  8
0
  6
CONTINUOUS
 62
     9
 10
182.4786504393507
 20
104.057861328125
 30
0.0
 11
136.6931821125033
 21
104.057861328125
 31
0.0
  0
LINE
  5
351
  8
0
  6
CONTINUOUS
 62
     9
 10
137.6931821125033
 20
-35.94215011596677
 30
0.0
 11
137.6931821125033
 21
104.057861328125
 31
0.0
  0
INSERT
  5
352
  8
0
  6
CONTINUOUS
  2
DC_GROUP_110
 10
0.0
 20
0.0
 30
0.0
  0
INSERT
  5
353
  8
0
  6
CONTINUOUS
  2
DC_GROUP_111
 10
0.0
 20
0.0
 30
0.0
  0
TEXT
  5
354
  8
0
 62
     7
 10
136.6931821125033
 20
24.45785560607914
 30
0.0
 40
4.0
  1
φ140Ｈ7
 50
90.0
 41
0.6093749999999996
  7
FDASTYLE1
 72
     5
 11
136.6931821125033
 21
40.05785560607913
 31
0.0
  0
ENDBLK
  5
192
  8
0
  0
BLOCK
  8
0
  2
DC_GROUP_110
 70
     0
 10
0.0
 20
0.0
 30
0.0
  3
DC_GROUP_110
  1

  0
LINE
  5
355
  8
0
  6
CONTINUOUS
 62
     9
 10
138.2290816474009
 20
-33.94215170833611
 30
0.0
 11
137.6931821125033
 21
-35.94215011596677
 31
0.0
  0
LINE
  5
356
  8
0
  6
CONTINUOUS
 62
     9
 10
137.6931821125033
 20
-35.94215011596677
 30
0.0
 11
137.1572825776057
 21
-33.94215170833611
 31
0.0
  0
LINE
  5
357
  8
0
  6
CONTINUOUS
 62
     9
 10
137.6931821125033
 20
-35.94215011596677
 30
0.0
 11
137.6931821125033
 21
-33.94215170833611
 31
0.0
  0
ENDBLK
  5
195
  8
0
  0
BLOCK
  8
0
  2
DC_GROUP_111
 70
     0
 10
0.0
 20
0.0
 30
0.0
  3
DC_GROUP_111
  1

  0
LINE
  5
358
  8
0
  6
CONTINUOUS
 62
     9
 10
137.1572825776057
 20
102.0578629204943
 30
0.0
 11
137.6931821125033
 21
104.057861328125
 31
0.0
  0
LINE
  5
359
  8
0
  6
CONTINUOUS
 62
     9
 10
137.6931821125033
 20
104.057861328125
 30
0.0
 11
138.2290816474009
 21
102.0578629204943
 31
0.0
  0
LINE
  5
35A
  8
0
  6
CONTINUOUS
 62
     9
 10
137.6931821125033
 20
104.057861328125
 30
0.0
 11
137.6931821125033
 21
102.0578629204943
 31
0.0
  0
ENDBLK
  5
198
  8
0
  0
BLOCK
  8
0
  2
DC_GROUP_112
 70
     0
 10
0.0
 20
0.0
 30
0.0
  3
DC_GROUP_112
  1

  0
LINE
  5
35B
  8
0
  6
CONTINUOUS
 62
     9
 10
220.4786016112257
 20
-53.54235531432502
 30
0.0
 11
220.4786016112257
 21
-63.22316799243374
 31
0.0
  0
LINE
  5
35C
  8
0
  6
CONTINUOUS
 62
     9
 10
187.6786016112257
 20
-41.94215011596677
 30
0.0
 11
187.6786016112257
 21
-63.22316799243374
 31
0.0
  0
LINE
  5
35D
  8
0
  6
CONTINUOUS
 62
     9
 10
187.6786016112257
 20
-62.22316799243374
 30
0.0
 11
220.4786016112257
 21
-62.22316799243374
 31
0.0
  0
INSERT
  5
35E
  8
0
  6
CENTER
  2
DC_GROUP_113
 10
0.0
 20
0.0
 30
0.0
  0
INSERT
  5
35F
  8
0
  6
CONTINUOUS
  2
DC_GROUP_114
 10
0.0
 20
0.0
 30
0.0
  0
TEXT
  5
360
  8
0
 62
     7
 10
197.6786016112257
 20
-61.22316799243374
 30
0.0
 40
4.0
  1
32.8
 41
0.6095238095238109
  7
FDASTYLE1
 72
     5
 11
207.4309825636067
 21
-61.22316799243374
 31
0.0
  0
ENDBLK
  5
19B
  8
0
  0
BLOCK
  8
0
  2
DC_GROUP_113
 70
     0
 10
0.0
 20
0.0
 30
0.0
  3
DC_GROUP_113
  1

  0
LINE
  5
361
  8
0
  6
CONTINUOUS
 62
     9
 10
189.6786000188563
 20
-62.75906752733135
 30
0.0
 11
187.6786016112257
 21
-62.22316799243374
 31
0.0
  0
LINE
  5
362
  8
0
  6
CONTINUOUS
 62
     9
 10
187.6786016112257
 20
-62.22316799243374
 30
0.0
 11
189.6786000188563
 21
-61.68726845753613
 31
0.0
  0
LINE
  5
363
  8
0
  6
CONTINUOUS
 62
     9
 10
187.6786016112257
 20
-62.22316799243374
 30
0.0
 11
189.6786000188563
 21
-62.22316799243374
 31
0.0
  0
ENDBLK
  5
19E
  8
0
  0
BLOCK
  8
0
  2
DC_GROUP_114
 70
     0
 10
0.0
 20
0.0
 30
0.0
  3
DC_GROUP_114
  1

  0
LINE
  5
364
  8
0
  6
CONTINUOUS
 62
     9
 10
218.478603203595
 20
-61.68726845753613
 30
0.0
 11
220.4786016112257
 21
-62.22316799243374
 31
0.0
  0
LINE
  5
365
  8
0
  6
CONTINUOUS
 62
     9
 10
220.4786016112257
 20
-62.22316799243374
 30
0.0
 11
218.478603203595
 21
-62.75906752733135
 31
0.0
  0
LINE
  5
366
  8
0
  6
CONTINUOUS
 62
     9
 10
220.4786016112257
 20
-62.22316799243374
 30
0.0
 11
218.478603203595
 21
-62.22316799243374
 31
0.0
  0
ENDBLK
  5
1A1
  8
0
  0
BLOCK
  8
0
  2
DC_GROUP_115
 70
     0
 10
0.0
 20
0.0
 30
0.0
  3
DC_GROUP_115
  1

  0
LINE
  5
367
  8
0
  6
CONTINUOUS
 62
     7
 10
220.4786016112257
 20
-48.44215011596677
 30
0.0
 11
235.4217149217693
 21
-63.48478215076383
 31
0.0
  0
LINE
  5
368
  8
0
  6
CONTINUOUS
 62
     7
 10
235.4217149217693
 20
-63.48478215076383
 30
0.0
 11
251.4217149217693
 21
-63.48478215076383
 31
0.0
  0
INSERT
  5
369
  8
0
  6
CONTINUOUS
  2
DC_GROUP_116
 10
0.0
 20
0.0
 30
0.0
  0
TEXT
  5
36A
  8
0
 62
     7
 10
235.4217149217693
 20
-63.48478215076383
 30
0.0
 40
4.0
  1
M8×16
 41
0.6213017751479295
  7
FDASTYLE1
 72
     5
 11
248.3447918448462
 21
-63.48478215076383
 31
0.0
  0
ENDBLK
  5
1A4
  8
0
  0
BLOCK
  8
0
  2
DC_GROUP_116
 70
     0
 10
0.0
 20
0.0
 30
0.0
  3
DC_GROUP_116
  1

  0
LINE
  5
36B
  8
0
  6
CONTINUOUS
 62
     7
 10
221.5079189537074
 20
-50.23872679133998
 30
0.0
 11
220.4786016112257
 21
-48.44215011596677
 31
0.0
  0
LINE
  5
36C
  8
0
  6
CONTINUOUS
 62
     7
 10
220.4786016112257
 20
-48.44215011596677
 30
0.0
 11
222.2683064477881
 21
-49.48336985262848
 31
0.0
  0
LINE
  5
36D
  8
0
  6
CONTINUOUS
 62
     7
 10
220.4786016112257
 20
-48.44215011596677
 30
0.0
 11
221.8881127007477
 21
-49.86104832198424
 31
0.0
  0
ENDBLK
  5
1A7
  8
0
  0
BLOCK
  8
0
  2
DC_GROUP_117
 70
     0
 10
0.0
 20
0.0
 30
0.0
  3
DC_GROUP_117
  1

  0
LINE
  5
36E
  8
0
  6
CONTINUOUS
 62
     9
 10
471.3147020200314
 20
43.26653967146042
 30
0.0
 11
517.3147020200314
 21
43.26653967146042
 31
0.0
  0
LINE
  5
36F
  8
0
  6
CONTINUOUS
 62
     9
 10
471.3147020200314
 20
39.09381103515628
 30
0.0
 11
471.3147020200314
 21
44.26653967146042
 31
0.0
  0
LINE
  5
370
  8
0
  6
CONTINUOUS
 62
     9
 10
517.3147020200314
 20
38.80730056762698
 30
0.0
 11
517.3147020200314
 21
44.26653967146042
 31
0.0
  0
INSERT
  5
371
  8
0
  6
CONTINUOUS
  2
DC_GROUP_118
 10
0.0
 20
0.0
 30
0.0
  0
INSERT
  5
372
  8
0
  6
CONTINUOUS
  2
DC_GROUP_119
 10
0.0
 20
0.0
 30
0.0
  0
TEXT
  5
373
  8
0
 62
     7
 10
486.3147020200314
 20
44.26653967146042
 30
0.0
 40
4.0
  1
PCD46
 41
0.7314285714285717
  7
FDASTYLE1
 72
     5
 11
500.9432734486028
 21
44.26653967146042
 31
0.0
  0
ENDBLK
  5
1AA
  8
0
  0
BLOCK
  8
0
  2
DC_GROUP_118
 70
     0
 10
0.0
 20
0.0
 30
0.0
  3
DC_GROUP_118
  1

  0
LINE
  5
374
  8
0
  6
CONTINUOUS
 62
     9
 10
473.3147004276621
 20
42.73064013656281
 30
0.0
 11
471.3147020200314
 21
43.26653967146042
 31
0.0
  0
LINE
  5
375
  8
0
  6
CONTINUOUS
 62
     9
 10
471.3147020200314
 20
43.26653967146042
 30
0.0
 11
473.3147004276621
 21
43.80243920635803
 31
0.0
  0
LINE
  5
376
  8
0
  6
CONTINUOUS
 62
     9
 10
471.3147020200314
 20
43.26653967146042
 30
0.0
 11
473.3147004276621
 21
43.26653967146042
 31
0.0
  0
ENDBLK
  5
1AD
  8
0
  0
BLOCK
  8
0
  2
DC_GROUP_119
 70
     0
 10
0.0
 20
0.0
 30
0.0
  3
DC_GROUP_119
  1

  0
LINE
  5
377
  8
0
  6
CONTINUOUS
 62
     9
 10
515.3147036124008
 20
43.80243920635803
 30
0.0
 11
517.3147020200314
 21
43.26653967146042
 31
0.0
  0
LINE
  5
378
  8
0
  6
CONTINUOUS
 62
     9
 10
517.3147020200314
 20
43.26653967146042
 30
0.0
 11
515.3147036124008
 21
42.73064013656281
 31
0.0
  0
LINE
  5
379
  8
0
  6
CONTINUOUS
 62
     9
 10
517.3147020200314
 20
43.26653967146042
 30
0.0
 11
515.3147036124008
 21
43.26653967146042
 31
0.0
  0
ENDBLK
  5
1B0
  8
0
  0
BLOCK
  8
0
  2
DC_GROUP_120
 70
     0
 10
0.0
 20
0.0
 30
0.0
  3
DC_GROUP_120
  1

  0
LINE
  5
37A
  8
0
  6
CONTINUOUS
 62
     7
 10
470.5598440364452
 20
35.60605140991007
 30
0.0
 11
430.103264405868
 21
118.2370986496392
 31
0.0
  0
LINE
  5
37B
  8
0
  6
CONTINUOUS
 62
     7
 10
430.103264405868
 20
118.2370986496392
 30
0.0
 11
410.903264405868
 21
118.2370986496392
 31
0.0
  0
INSERT
  5
37C
  8
0
  6
CONTINUOUS
  2
DC_GROUP_121
 10
0.0
 20
0.0
 30
0.0
  0
TEXT
  5
37D
  8
0
 62
     7
 10
410.903264405868
 20
118.2370986496392
 30
0.0
 40
4.0
  1
2-φ3.2
 41
0.6243496357960464
  7
FDASTYLE1
 72
     5
 11
426.38713537361
 21
118.2370986496392
 31
0.0
  0
ENDBLK
  5
1B3
  8
0
  0
BLOCK
  8
0
  2
DC_GROUP_121
 70
     0
 10
0.0
 20
0.0
 30
0.0
  3
DC_GROUP_121
  1

  0
LINE
  5
37E
  8
0
  6
CONTINUOUS
 62
     7
 10
470.161694002813
 20
37.63796147011139
 30
0.0
 11
470.5598440364452
 21
35.60605140991007
 31
0.0
  0
LINE
  5
37F
  8
0
  6
CONTINUOUS
 62
     7
 10
470.5598440364452
 20
35.60605140991007
 30
0.0
 11
469.1990786669028
 21
37.16666012162575
 31
0.0
  0
LINE
  5
380
  8
0
  6
CONTINUOUS
 62
     7
 10
470.5598440364452
 20
35.60605140991007
 30
0.0
 11
469.6803863348579
 21
37.40231079586857
 31
0.0
  0
ENDBLK
  5
1B6
  8
0
  0
ENDSEC
  0
SECTION
  2
ENTITIES
  0
LINE
  5
381
  8
LAYER0002
  6
CONTINUOUS
 62
     3
 10
79.57239374547669
 20
-190.0
 30
0.0
 11
79.57239374547669
 21
190.0
 31
0.0
  0
LINE
  5
382
  8
LAYER0002
  6
CONTINUOUS
 62
     3
 10
633.5723937454767
 20
-190.0
 30
0.0
 11
633.5723937454767
 21
190.0
 31
0.0
  0
LINE
  5
383
  8
LAYER0002
  6
CONTINUOUS
 62
     3
 10
79.57239374547669
 20
-190.0
 30
0.0
 11
633.5723937454767
 21
-190.0
 31
0.0
  0
LINE
  5
384
  8
LAYER0002
  6
CONTINUOUS
 62
     3
 10
79.57239374547669
 20
189.9999999999999
 30
0.0
 11
633.5723937454767
 21
189.9999999999999
 31
0.0
  0
LINE
  5
385
  8
LAYER0002
  6
CONTINUOUS
 62
     3
 10
453.5723937454767
 20
-190.0
 30
0.0
 11
453.5723937454767
 21
-130.0
 31
0.0
  0
LINE
  5
386
  8
LAYER0002
  6
CONTINUOUS
 62
     3
 10
453.5723937454767
 20
-176.0
 30
0.0
 11
633.5723937454767
 21
-176.0
 31
0.0
  0
LINE
  5
387
  8
LAYER0002
  6
CONTINUOUS
 62
     3
 10
502.5723937454767
 20
-162.0
 30
0.0
 11
633.5723937454767
 21
-162.0
 31
0.0
  0
LINE
  5
388
  8
LAYER0002
  6
CONTINUOUS
 62
     3
 10
502.5723937454767
 20
-148.0
 30
0.0
 11
633.5723937454767
 21
-148.0
 31
0.0
  0
LINE
  5
389
  8
LAYER0002
  6
CONTINUOUS
 62
     3
 10
502.5723937454767
 20
-138.0
 30
0.0
 11
633.5723937454767
 21
-138.0
 31
0.0
  0
LINE
  5
38A
  8
LAYER0002
  6
CONTINUOUS
 62
     3
 10
502.5723937454767
 20
-176.0
 30
0.0
 11
502.5723937454767
 21
-130.0
 31
0.0
  0
LINE
  5
38B
  8
LAYER0002
  6
CONTINUOUS
 62
     3
 10
611.5723937454767
 20
-176.0
 30
0.0
 11
611.5723937454767
 21
-130.0
 31
0.0
  0
LINE
  5
38C
  8
LAYER0002
  6
CONTINUOUS
 62
     3
 10
527.5723937454767
 20
-190.0
 30
0.0
 11
527.5723937454767
 21
-176.0
 31
0.0
  0
LINE
  5
38D
  8
LAYER0002
  6
CONTINUOUS
 62
     3
 10
618.5723937454767
 20
-188.0
 30
0.0
 11
628.5723937454767
 21
-188.0
 31
0.0
  0
LINE
  5
38E
  8
LAYER0002
  6
CONTINUOUS
 62
     3
 10
623.5723937454767
 20
-178.0
 30
0.0
 11
618.5723937454767
 21
-188.0
 31
0.0
  0
LINE
  5
38F
  8
LAYER0002
  6
CONTINUOUS
 62
     3
 10
623.5723937454767
 20
-178.0
 30
0.0
 11
628.5723937454767
 21
-188.0
 31
0.0
  0
LINE
  5
390
  8
LAYER0002
  6
CONTINUOUS
 62
     3
 10
453.5723937454767
 20
-130.0
 30
0.0
 11
633.5723937454767
 21
-130.0
 31
0.0
  0
LINE
  5
391
  8
LAYER0002
  6
CONTINUOUS
 62
     3
 10
582.5723937454767
 20
-176.0
 30
0.0
 11
582.5723937454767
 21
-148.0
 31
0.0
  0
LINE
  5
392
  8
LAYER0002
  6
CONTINUOUS
 62
     4
 10
461.5723937454767
 20
-172.0
 30
0.0
 11
461.5723937454767
 21
-130.0
 31
0.0
  0
LINE
  5
393
  8
LAYER0002
  6
CONTINUOUS
 62
     4
 10
465.5723937454767
 20
-172.0
 30
0.0
 11
465.5723937454767
 21
-130.0
 31
0.0
  0
LINE
  5
394
  8
LAYER0002
  6
CONTINUOUS
 62
     4
 10
478.0723937454767
 20
-176.0
 30
0.0
 11
478.0723937454767
 21
-130.0
 31
0.0
  0
LINE
  5
395
  8
LAYER0002
  6
CONTINUOUS
 62
     4
 10
453.5723937454767
 20
-137.0
 30
0.0
 11
502.5723937454767
 21
-137.0
 31
0.0
  0
LINE
  5
396
  8
LAYER0002
  6
CONTINUOUS
 62
     4
 10
453.5723937454767
 20
-144.0
 30
0.0
 11
502.5723937454767
 21
-144.0
 31
0.0
  0
LINE
  5
397
  8
LAYER0002
  6
CONTINUOUS
 62
     4
 10
453.5723937454767
 20
-165.0
 30
0.0
 11
502.5723937454767
 21
-165.0
 31
0.0
  0
LINE
  5
398
  8
LAYER0002
  6
CONTINUOUS
 62
     4
 10
453.5723937454767
 20
-172.0
 30
0.0
 11
502.5723937454767
 21
-172.0
 31
0.0
  0
LINE
  5
399
  8
LAYER0002
  6
CONTINUOUS
 62
     4
 10
611.5723937454767
 20
-166.0
 30
0.0
 11
633.5723937454767
 21
-166.0
 31
0.0
  0
LINE
  5
39A
  8
LAYER0002
  6
CONTINUOUS
 62
     4
 10
509.5723937454767
 20
-139.5
 30
0.0
 11
509.5723937454767
 21
-130.0
 31
0.0
  0
LINE
  5
39B
  8
LAYER0002
  6
CONTINUOUS
 62
     4
 10
558.5723937454767
 20
-148.0
 30
0.0
 11
558.5723937454767
 21
-146.5
 31
0.0
  0
LINE
  5
39C
  8
LAYER0002
  6
CONTINUOUS
 62
     4
 10
582.5723937454767
 20
-148.0
 30
0.0
 11
582.5723937454767
 21
-146.5
 31
0.0
  0
LINE
  5
39D
  8
LAYER0002
  6
CONTINUOUS
 62
     4
 10
599.5723937454767
 20
-148.0
 30
0.0
 11
599.5723937454767
 21
-146.5
 31
0.0
  0
LINE
  5
39E
  8
LAYER0002
  6
CONTINUOUS
 62
     4
 10
558.5723937454767
 20
-139.5
 30
0.0
 11
558.5723937454767
 21
-130.0
 31
0.0
  0
LINE
  5
39F
  8
LAYER0002
  6
CONTINUOUS
 62
     4
 10
582.5723937454767
 20
-139.5
 30
0.0
 11
582.5723937454767
 21
-130.0
 31
0.0
  0
LINE
  5
3A0
  8
LAYER0002
  6
CONTINUOUS
 62
     4
 10
599.5723937454767
 20
-139.5
 30
0.0
 11
599.5723937454767
 21
-130.0
 31
0.0
  0
LINE
  5
3A1
  8
LAYER0002
  6
CONTINUOUS
 62
     4
 10
453.5723937454767
 20
-151.0
 30
0.0
 11
502.5723937454767
 21
-151.0
 31
0.0
  0
LINE
  5
3A2
  8
LAYER0002
  6
CONTINUOUS
 62
     4
 10
453.5723937454767
 20
-158.0
 30
0.0
 11
502.5723937454767
 21
-158.0
 31
0.0
  0
LINE
  5
3A3
  8
LAYER0002
  6
CONTINUOUS
 62
     4
 10
457.5723937454767
 20
-130.5
 30
0.0
 11
454.5723937454767
 21
-136.5
 31
0.0
  0
LINE
  5
3A4
  8
LAYER0002
  6
CONTINUOUS
 62
     4
 10
457.5723937454767
 20
-130.5
 30
0.0
 11
460.5723937454767
 21
-136.5
 31
0.0
  0
LINE
  5
3A5
  8
LAYER0002
  6
CONTINUOUS
 62
     4
 10
454.5723937454767
 20
-136.5
 30
0.0
 11
460.5723937454767
 21
-136.5
 31
0.0
  0
LINE
  5
3A6
  8
LAYER0002
  6
CONTINUOUS
 62
     4
 10
457.5723937454767
 20
-158.5
 30
0.0
 11
454.5723937454767
 21
-164.5
 31
0.0
  0
LINE
  5
3A7
  8
LAYER0002
  6
CONTINUOUS
 62
     4
 10
457.5723937454767
 20
-158.5
 30
0.0
 11
460.5723937454767
 21
-164.5
 31
0.0
  0
LINE
  5
3A8
  8
LAYER0002
  6
CONTINUOUS
 62
     4
 10
454.5723937454767
 20
-164.5
 30
0.0
 11
460.5723937454767
 21
-164.5
 31
0.0
  0
LINE
  5
3A9
  8
LAYER0002
  6
CONTINUOUS
 62
     4
 10
457.5723937454767
 20
-151.5
 30
0.0
 11
454.5723937454767
 21
-157.5
 31
0.0
  0
LINE
  5
3AA
  8
LAYER0002
  6
CONTINUOUS
 62
     4
 10
457.5723937454767
 20
-151.5
 30
0.0
 11
460.5723937454767
 21
-157.5
 31
0.0
  0
LINE
  5
3AB
  8
LAYER0002
  6
CONTINUOUS
 62
     4
 10
454.5723937454767
 20
-157.5
 30
0.0
 11
460.5723937454767
 21
-157.5
 31
0.0
  0
LINE
  5
3AC
  8
LAYER0002
  6
CONTINUOUS
 62
     4
 10
457.5723937454767
 20
-144.5
 30
0.0
 11
454.5723937454767
 21
-150.5
 31
0.0
  0
LINE
  5
3AD
  8
LAYER0002
  6
CONTINUOUS
 62
     4
 10
457.5723937454767
 20
-144.5
 30
0.0
 11
460.5723937454767
 21
-150.5
 31
0.0
  0
LINE
  5
3AE
  8
LAYER0002
  6
CONTINUOUS
 62
     4
 10
454.5723937454767
 20
-150.5
 30
0.0
 11
460.5723937454767
 21
-150.5
 31
0.0
  0
LINE
  5
3AF
  8
LAYER0002
  6
CONTINUOUS
 62
     4
 10
457.5723937454767
 20
-137.5
 30
0.0
 11
454.5723937454767
 21
-143.5
 31
0.0
  0
LINE
  5
3B0
  8
LAYER0002
  6
CONTINUOUS
 62
     4
 10
457.5723937454767
 20
-137.5
 30
0.0
 11
460.5723937454767
 21
-143.5
 31
0.0
  0
LINE
  5
3B1
  8
LAYER0002
  6
CONTINUOUS
 62
     4
 10
454.5723937454767
 20
-143.5
 30
0.0
 11
460.5723937454767
 21
-143.5
 31
0.0
  0
LINE
  5
3B2
  8
LAYER0002
  6
CONTINUOUS
 62
     4
 10
529.2390604121433
 20
-176.0
 30
0.0
 11
529.2390604121433
 21
-162.0
 31
0.0
  0
LINE
  5
3B3
  8
LAYER0002
  6
CONTINUOUS
 62
     4
 10
555.90572707881
 20
-176.0
 30
0.0
 11
555.90572707881
 21
-161.9509415757253
 31
0.0
  0
LINE
  5
3B4
  8
LAYER0002
  6
CONTINUOUS
 62
     4
 10
569.2390604121433
 20
-167.5
 30
0.0
 11
569.2390604121433
 21
-161.9509415757253
 31
0.0
  0
LINE
  5
3B5
  8
LAYER0002
  6
CONTINUOUS
 62
     4
 10
582.5723937454767
 20
-155.0
 30
0.0
 11
611.5723937454767
 21
-155.0
 31
0.0
  0
LINE
  5
3B6
  8
LAYER0002
  6
CONTINUOUS
 62
     4
 10
502.5723937454767
 20
-166.0
 30
0.0
 11
582.5723937454767
 21
-166.0
 31
0.0
  0
TEXT
  5
3B8
  8
LAYER0002
 62
     7
 10
503.5661518929514
 20
-130.821188728956
 30
0.0
 40
2.44248928
  1
符号
 41
0.8
  7
FDASTYLE0
  0
TEXT
  5
3B9
  8
LAYER0002
 62
     7
 10
518.9865248673825
 20
-135.8245525019963
 30
0.0
 40
4.0
  1
品       名
 41
0.6192847442281572
  7
FDASTYLE1
 72
     5
 11
542.2716312503612
 21
-135.8245525019963
 31
0.0
  0
TEXT
  5
3BA
  8
LAYER0002
 62
     7
 10
563.8055501867863
 20
-135.8245525019963
 30
0.0
 40
4.0
  1
材  料
 41
0.5950413223140509
  7
FDASTYLE1
 72
     5
 11
574.2782774595136
 21
-135.8245525019963
 31
0.0
  0
TEXT
  5
3BB
  8
LAYER0002
 62
     7
 10
586.0884554303317
 20
-135.8245525019963
 30
0.0
 40
4.0
  1
個 数
 41
0.5813148788927315
  7
FDASTYLE1
 72
     5
 11
593.9943377832728
 21
-135.8245525019963
 31
0.0
  0
TEXT
  5
3BC
  8
LAYER0002
 62
     7
 10
602.2942046983646
 20
-133.5649080050572
 30
0.0
 40
2.5
  1
単重量
 41
0.6666666666666666
  7
FDASTYLE1
 72
     5
 11
608.2942046983646
 21
-133.5649080050572
 31
0.0
  0
TEXT
  5
3BD
  8
LAYER0002
 62
     7
 10
601.2813453691126
 20
-137.3631304897525
 30
0.0
 40
2.5
  1
(kg)
 41
0.5333333333333371
  7
FDASTYLE1
 72
     5
 11
606.614678702446
 21
-137.3631304897525
 31
0.0
  0
TEXT
  5
3BE
  8
LAYER0002
 62
     7
 10
615.7145908109544
 20
-135.8245525019963
 30
0.0
 40
4.0
  1
記  事
 41
0.5950413223140509
  7
FDASTYLE1
 72
     5
 11
626.1873180836817
 21
-135.8245525019963
 31
0.0
  0
TEXT
  5
3BF
  8
LAYER0002
 62
     7
 10
615.4174732006412
 20
-165.4873041997729
 30
0.0
 40
3.0
  1
コード番号
 41
0.6666666666666666
  7
FDASTYLE1
 72
     5
 11
627.4174732006412
 21
-165.4873041997729
 31
0.0
  0
TEXT
  5
3C0
  8
LAYER0002
 62
     7
 10
458.4843857613084
 20
-175.1879010540338
 30
0.0
 40
2.5
  1
訂 正 来 歴
 41
0.5890861275476669
  7
FDASTYLE1
 72
     5
 11
469.9715652484879
 21
-175.1879010540338
 31
0.0
  0
TEXT
  5
3C1
  8
LAYER0002
 62
     7
 10
482.4627285922417
 20
-175.2166697391651
 30
0.0
 40
2.5
  1
工 事 番 号
 41
0.5890861275476669
  7
FDASTYLE1
 72
     5
 11
493.9499080794212
 21
-175.2166697391651
 31
0.0
  0
TEXT
  5
3C2
  8
LAYER0002
 62
     7
 10
455.5063940920796
 20
-165.9634530565915
 30
0.0
 40
1.90819475
  1
記号
 41
0.8
  7
FDASTYLE0
  0
TEXT
  5
3C3
  8
LAYER0002
 62
     7
 10
461.4457811522385
 20
-165.9634530565915
 30
0.0
 40
1.90819475
  1
理由
 41
0.8
  7
FDASTYLE0
  0
TEXT
  5
3C4
  8
LAYER0002
 62
     7
 10
468.191760536461
 20
-169.8786046700178
 30
0.0
 40
3.0
  1
日 付
 41
0.5813148788927344
  7
FDASTYLE1
 72
     5
 11
474.1211723011669
 21
-169.8786046700178
 31
0.0
  0
TEXT
  5
3C5
  8
LAYER0002
 62
     7
 10
510.0205627274419
 20
-165.7187911464244
 30
0.0
 40
3.0
  1
承   認
 41
0.6035665294924586
  7
FDASTYLE1
 72
     5
 11
519.7983405052197
 21
-165.7187911464244
 31
0.0
  0
TEXT
  5
3C6
  8
LAYER0002
 62
     7
 10
536.4356217787107
 20
-165.4873041997729
 30
0.0
 40
3.0
  1
検   図
 41
0.6035665294924586
  7
FDASTYLE1
 72
     5
 11
546.2133995564885
 21
-165.4873041997729
 31
0.0
  0
TEXT
  5
3C7
  8
LAYER0002
 62
     7
 10
558.0495858438518
 20
-165.4873041997729
 30
0.0
 40
3.0
  1
担  当
 41
0.5950413223140511
  7
FDASTYLE1
 72
     5
 11
565.9041312983973
 21
-165.4873041997729
 31
0.0
  0
TEXT
  5
3C8
  8
LAYER0002
 62
     7
 10
571.2494512295879
 20
-165.4873041997729
 30
0.0
 40
3.0
  1
製  図
 41
0.5950413223140511
  7
FDASTYLE1
 72
     5
 11
579.1039966841333
 21
-165.4873041997729
 31
0.0
  0
TEXT
  5
3C9
  8
LAYER0002
 62
     7
 10
583.5186309758966
 20
-153.2184960272417
 30
0.0
 40
3.0
  1
作図
 41
0.6666666666666762
  7
FDASTYLE1
 72
     5
 11
588.3186309758967
 21
-153.2184960272417
 31
0.0
  0
TEXT
  5
3CA
  8
LAYER0002
 62
     7
 10
584.6760657091543
 20
-160.2371566401815
 30
0.0
 40
4.0
  1
第 三 角 法
 41
0.5890861275476675
  7
FDASTYLE1
 72
     5
 11
603.0555528886415
 21
-160.2371566401815
 31
0.0
  0
TEXT
  5
3CB
  8
LAYER0002
 62
     7
 10
583.9816048691997
 20
-166.413251986379
 30
0.0
 40
3.0
  1
尺度
 41
0.6666666666666762
  7
FDASTYLE1
 72
     5
 11
588.7816048691998
 21
-166.413251986379
 31
0.0
  0
TEXT
  5
3CD
  8
LAYER0002
 62
     3
 10
461.9515481155107
 20
-185.9272077185017
 30
0.0
 40
7.0
  1
株式会社 野村製作所
 41
0.5976394989045255
  7
FDASTYLE2
 72
     5
 11
517.8344271000773
 21
-185.9272077185017
 31
0.0
  0
TEXT
  5
3CF
  8
LAYER0002
 62
     3
 10
533.6311292844923
 20
-187.1216685584563
 30
0.0
 40
8.0
  1
２－
 41
0.7699296059137625
  7
FDASTYLE3
 72
     5
 11
547.5206593751766
 21
-187.1216685584563
 31
0.0
  0
TEXT
  5
3D0
  8
LAYER0002
 62
     3
 10
550.5430869088992
 20
-187.1216685584563
 30
0.0
 40
8.0
  1
C206115
 41
1.317127482570847
  7
FDASTYLE3
 72
     5
 11
605.9045892563171
 21
-187.1216685584563
 31
0.0
  0
TEXT
  5
3D1
  8
LAYER0002
 62
     4
 10
590.1032971299989
 20
-145.0216474852281
 30
0.0
 40
3.0
  1
1式
 41
0.520661157024785
  7
FDASTYLE1
 72
     5
 11
593.5396607663624
 21
-145.0216474852281
 31
0.0
  0
TEXT
  5
3D2
  8
LAYER0002
 62
     4
 10
595.8735726361166
 20
-172.297487439201
 30
0.0
 40
3.0
  1
1/1
 41
0.5222222222222273
  7
FDASTYLE1
 72
     5
 11
600.5735726361166
 21
-172.297487439201
 31
0.0
  0
TEXT
  5
3D3
  8
LAYER0002
 62
     6
 10
521.6085333514537
 20
-145.7243747487088
 30
0.0
 40
5.0
  1
外　形　図
 41
0.5833333333333334
  7
FDASTYLE1
 72
     5
 11
539.1085333514537
 21
-145.7243747487088
 31
0.0
  0
TEXT
  5
3D4
  8
LAYER0002
 62
     6
 10
508.9768756015056
 20
-154.3920863201719
 30
0.0
 40
5.0
  1
日鋼プレシジォン
 41
0.5833333333333322
  7
FDASTYLE1
 72
     5
 11
536.9768756015055
 21
-154.3920863201719
 31
0.0
  0
TEXT
  5
3D5
  8
LAYER0002
 62
     6
 10
517.4424132567851
 20
-160.8053724226564
 30
0.0
 40
5.0
  1
  HF3-6B型 ﾁｬｯｸ
 41
0.5540567347748454
  7
FDASTYLE1
 72
     5
 11
556.7804414257992
 21
-160.8053724226564
 31
0.0
  0
LINE
  5
3D6
  8
0
  6
CONTINUOUS
 62
     3
 10
510.5433236081108
 20
8.233849373346885
 30
0.0
 11
558.6836334228528
 21
-19.55998380868638
 31
0.0
  0
LINE
  5
3D7
  8
0
  6
CONTINUOUS
 62
     3
 10
524.7933551333035
 20
32.9155559806832
 30
0.0
 11
572.9336649480457
 21
5.121722798649927
 31
0.0
  0
LINE
  5
3D8
  8
0
  6
CONTINUOUS
 62
     3
 10
480.0647020200314
 20
116.557861328125
 30
0.0
 11
508.5647020200314
 21
116.557861328125
 31
0.0
  0
LINE
  5
3D9
  8
0
  6
CONTINUOUS
 62
     3
 10
508.5646401865352
 20
116.5577090969905
 30
0.0
 11
516.3146560968244
 21
114.4810988142113
 31
0.0
  0
LINE
  5
3DA
  8
0
  6
CONTINUOUS
 62
     3
 10
480.0646988563934
 20
116.5578259590798
 30
0.0
 11
472.3147119455901
 21
114.4812250095215
 31
0.0
  0
LINE
  5
3DB
  8
0
  6
CONTINUOUS
 62
     3
 10
435.592449940033
 20
-25.24885903194954
 30
0.0
 11
429.9190661308252
 21
-19.5754752227418
 31
0.0
  0
LINE
  5
3DC
  8
0
  6
CONTINUOUS
 62
     3
 10
415.6592296506994
 20
5.100578896899748
 30
0.0
 11
413.58262597831
 21
12.85057329227993
 31
0.0
  0
LINE
  5
3DD
  8
0
  6
CONTINUOUS
 62
     3
 10
413.5826171447106
 20
12.85058077711065
 30
0.0
 11
414.454774120385
 21
13.35412078615983
 31
0.0
  0
LINE
  5
3DE
  8
0
  6
CONTINUOUS
 62
     3
 10
435.5924626799223
 20
-25.24888908789589
 30
0.0
 11
436.454788067871
 21
-24.75102534803963
 31
0.0
  0
LINE
  5
3DF
  8
0
  6
CONTINUOUS
 62
     3
 10
429.9542181666752
 20
-19.55518396300985
 30
0.0
 11
478.0860740245921
 21
8.233752902979205
 31
0.0
  0
LINE
  5
3E0
  8
0
  6
CONTINUOUS
 62
     3
 10
415.7042113866473
 20
5.12655451508536
 30
0.0
 11
463.8360936735634
 21
32.91550663986257
 31
0.0
  0
LINE
  5
3E1
  8
0
  6
CONTINUOUS
 62
     3
 10
415.7042171443729
 20
5.126555895663984
 30
0.0
 11
429.9542178894308
 21
-19.55516601738688
 31
0.0
  0
LINE
  5
3E2
  8
0
  6
CONTINUOUS
 62
     3
 10
572.9782161118249
 20
5.095899541563114
 30
0.0
 11
575.0548229235707
 21
12.84590071299411
 31
0.0
  0
LINE
  5
3E3
  8
0
  6
CONTINUOUS
 62
     3
 10
558.6836818102539
 20
-19.56009178696692
 30
0.0
 11
572.9336758795907
 21
5.121618563397561
 31
0.0
  0
LINE
  5
3E4
  8
0
  6
CONTINUOUS
 62
     3
 10
553.0662530207502
 20
-25.26579801869409
 30
0.0
 11
558.7396373081883
 21
-19.59241420948635
 31
0.0
  0
LINE
  5
3E5
  8
0
  6
CONTINUOUS
 62
     3
 10
552.1746466754795
 20
-24.75092965292512
 30
0.0
 11
553.0662024138893
 21
-25.26566982724486
 31
0.0
  0
LINE
  5
3E6
  8
0
  6
CONTINUOUS
 62
     3
 10
574.1746469138952
 20
13.35417159256852
 30
0.0
 11
575.054864613182
 21
12.84597744109763
 31
0.0
  0
LINE
  5
3E7
  8
0
  6
CONTINUOUS
 62
     3
 10
472.3147020200314
 20
114.4812393188477
 30
0.0
 11
472.3147020200314
 21
113.570426940918
 31
0.0
  0
LINE
  5
3E8
  8
0
  6
CONTINUOUS
 62
     3
 10
516.3147020200314
 20
114.4812393188477
 30
0.0
 11
516.3147020200314
 21
113.570426940918
 31
0.0
  0
LINE
  5
3E9
  8
0
  6
CONTINUOUS
 62
     3
 10
420.079211125877
 20
-2.451168153562406
 30
0.0
 11
429.2035588313874
 21
2.816775868381143
 31
0.0
  0
LINE
  5
3EA
  8
0
  6
CONTINUOUS
 62
     3
 10
425.5792107980514
 20
-11.97744807986246
 30
0.0
 11
434.7035849325611
 21
-6.709488799130753
 31
0.0
  0
LINE
  5
3EB
  8
0
  6
CONTINUOUS
 62
     3
 10
519.3243680836977
 20
13.26772218839008
 30
0.0
 11
526.2836842478865
 21
9.249757342030563
 31
0.0
  0
LINE
  5
3EC
  8
0
  6
CONTINUOUS
 62
     3
 10
524.8243588804498
 20
22.79404249117809
 30
0.0
 11
531.783648615643
 21
18.77609290361309
 31
0.0
  0
LINE
  5
3ED
  8
0
  6
CONTINUOUS
 62
     3
 10
459.4385861669218
 20
30.37659146757247
 30
0.0
 11
463.8135933641834
 21
22.79885775777896
 31
0.0
  0
LINE
  5
3EE
  8
0
  6
CONTINUOUS
 62
     3
 10
514.949385467448
 20
5.689901823266638
 30
0.0
 11
519.324393618384
 21
13.26763718487248
 31
0.0
  0
LINE
  5
3EF
  8
0
  6
CONTINUOUS
 62
     3
 10
469.3135863904391
 20
13.27259170162873
 30
0.0
 11
473.6885869119797
 21
5.694869554521603
 31
0.0
  0
LINE
  5
3F0
  8
0
  6
CONTINUOUS
 62
     3
 10
524.8243790152442
 20
22.793890026524
 30
0.0
 11
529.1993871661803
 21
30.37162538812984
 31
0.0
  0
LINE
  5
3F1
  8
0
  6
CONTINUOUS
 62
     3
 10
557.8625488019516
 20
-8.982397755521532
 30
0.0
 11
563.3625494576027
 21
0.5438815151274241
 31
0.0
  0
LINE
  5
3F2
  8
0
  6
CONTINUOUS
 62
     3
 10
522.3554901066223
 20
11.51765019075495
 30
0.0
 11
527.8554983916689
 21
21.04394267590263
 31
0.0
  0
LINE
  5
3F3
  8
0
  6
CONTINUOUS
 62
     3
 10
425.2753954706814
 20
0.5488510167879497
 30
0.0
 11
430.7753884969371
 21
-8.977415039362285
 31
0.0
  0
LINE
  5
3F4
  8
0
  6
CONTINUOUS
 62
     3
 10
460.7824440179503
 20
21.04884024607966
 30
0.0
 11
466.2824446736013
 21
11.52256097543071
 31
0.0
  0
LINE
  5
3F5
  8
0
  6
CONTINUOUS
 62
     3
 10
435.2035759600394
 20
6.280886990029018
 30
0.0
 11
450.8542181528982
 21
15.31678847476272
 31
0.0
  0
LINE
  5
3F6
  8
0
  6
CONTINUOUS
 62
     3
 10
440.7035756322138
 20
-3.245392936271031
 30
0.0
 11
456.3542178250727
 21
5.790508548462668
 31
0.0
  0
LINE
  5
3F7
  8
0
  6
CONTINUOUS
 62
     3
 10
456.8542088525509
 20
18.78088433762244
 30
0.0
 11
463.8134929384477
 21
22.79882843407179
 31
0.0
  0
LINE
  5
3F8
  8
0
  6
CONTINUOUS
 62
     3
 10
462.3542085247254
 20
9.25460441132239
 30
0.0
 11
469.3134926106222
 21
13.27254850777175
 31
0.0
  0
LINE
  5
3F9
  8
0
  6
CONTINUOUS
 62
     3
 10
532.2836741216343
 20
5.785660033837331
 30
0.0
 11
547.934291034795
 21
-3.250231869523276
 31
0.0
  0
LINE
  5
3FA
  8
0
  6
CONTINUOUS
 62
     3
 10
537.7836384893909
 20
15.31199559541986
 30
0.0
 11
553.4343082605428
 21
6.276073174470213
 31
0.0
  0
LINE
  5
3FB
  8
0
  6
CONTINUOUS
 62
     3
 10
559.4342981342907
 20
2.811975866276981
 30
0.0
 11
568.5586445838254
 21
-2.455970353624224
 31
0.0
  0
LINE
  5
3FC
  8
0
  6
CONTINUOUS
 62
     3
 10
553.9342809085429
 20
-6.714329177716508
 30
0.0
 11
563.0586273580776
 21
-11.98227539761771
 31
0.0
  0
LINE
  5
3FD
  8
0
  6
CONTINUOUS
 62
     3
 10
433.2035719417943
 20
2.816771987980502
 30
0.0
 11
431.4535629414909
 21
-0.21433152855613
 31
0.0
  0
LINE
  5
3FE
  8
0
  6
CONTINUOUS
 62
     3
 10
433.2035295951163
 20
-3.245394221391933
 30
0.0
 11
431.4535299080407
 21
-0.2143051539328269
 31
0.0
  0
LINE
  5
3FF
  8
0
  6
CONTINUOUS
 62
     3
 10
433.2035570005001
 20
-3.245395660400362
 30
0.0
 11
436.7035570005001
 21
-3.245395660400362
 31
0.0
  0
LINE
  5
400
  8
0
  6
CONTINUOUS
 62
     3
 10
436.7035402591757
 20
-3.245374751924118
 30
0.0
 11
438.4535399462513
 21
-0.2142856844650112
 31
0.0
  0
LINE
  5
401
  8
0
  6
CONTINUOUS
 62
     3
 10
438.45355221208
 20
-0.2143105657846434
 30
0.0
 11
436.7035525250043
 21
2.816778501674463
 31
0.0
  0
LINE
  5
402
  8
0
  6
CONTINUOUS
 62
     3
 10
436.7035570005001
 20
2.81681442260745
 30
0.0
 11
433.2035570005001
 21
2.81681442260745
 31
0.0
  0
LINE
  5
403
  8
0
  6
CONTINUOUS
 62
     3
 10
454.8542104893377
 20
15.31678726695466
 30
0.0
 11
453.1042100721052
 21
12.28569861672807
 31
0.0
  0
LINE
  5
404
  8
0
  6
CONTINUOUS
 62
     3
 10
453.1042077919628
 20
12.28568144068007
 30
0.0
 11
454.8542074790384
 21
9.254592373220959
 31
0.0
  0
LINE
  5
405
  8
0
  6
CONTINUOUS
 62
     3
 10
454.8542222837032
 20
9.254604339599638
 30
0.0
 11
458.3542222837032
 21
9.254604339599638
 31
0.0
  0
LINE
  5
406
  8
0
  6
CONTINUOUS
 62
     3
 10
458.3541979080101
 20
9.254615740741457
 30
0.0
 11
460.1041983252427
 21
12.28570439096805
 31
0.0
  0
LINE
  5
407
  8
0
  6
CONTINUOUS
 62
     3
 10
460.1042711601962
 20
12.28574195036416
 30
0.0
 11
458.3542723075856
 21
15.31683164367203
 31
0.0
  0
LINE
  5
408
  8
0
  6
CONTINUOUS
 62
     3
 10
458.3542222837032
 20
15.31679821014407
 30
0.0
 11
454.8542222837032
 21
15.31679821014407
 31
0.0
  0
LINE
  5
409
  8
0
  6
CONTINUOUS
 62
     3
 10
530.2835732973836
 20
15.31190711945331
 30
0.0
 11
528.533572880151
 21
12.28081846922672
 31
0.0
  0
LINE
  5
40A
  8
0
  6
CONTINUOUS
 62
     3
 10
528.5335808937073
 20
12.28077512985331
 30
0.0
 11
530.283580580783
 21
9.249686062394204
 31
0.0
  0
LINE
  5
40B
  8
0
  6
CONTINUOUS
 62
     3
 10
530.2836351255
 20
9.249713897705107
 30
0.0
 11
533.7836351255
 21
9.249713897705107
 31
0.0
  0
LINE
  5
40C
  8
0
  6
CONTINUOUS
 62
     3
 10
533.7835871450516
 20
9.249720334447403
 30
0.0
 11
535.5335875622842
 21
12.280808984674
 31
0.0
  0
LINE
  5
40D
  8
0
  6
CONTINUOUS
 62
     3
 10
535.5337526654256
 20
12.28087435617093
 30
0.0
 11
533.783753812815
 21
15.3119640494788
 31
0.0
  0
LINE
  5
40E
  8
0
  6
CONTINUOUS
 62
     3
 10
533.7836351255
 20
15.31186962127688
 30
0.0
 11
530.2836351255
 21
15.31186962127688
 31
0.0
  0
LINE
  5
40F
  8
0
  6
CONTINUOUS
 62
     3
 10
551.9342294014768
 20
2.811943782714508
 30
0.0
 11
550.1842289842443
 21
-0.2191448675120853
 31
0.0
  0
LINE
  5
410
  8
0
  6
CONTINUOUS
 62
     3
 10
550.1842220682637
 20
-0.219239871272265
 30
0.0
 11
551.934214125946
 21
-3.25031572423174
 31
0.0
  0
LINE
  5
411
  8
0
  6
CONTINUOUS
 62
     3
 10
551.934269891125
 20
-3.250286102294894
 30
0.0
 11
555.434269891125
 21
-3.250286102294894
 31
0.0
  0
LINE
  5
412
  8
0
  6
CONTINUOUS
 62
     3
 10
555.4342351237327
 20
-3.250246753532764
 30
0.0
 11
557.1842348108082
 21
-0.2191576860736575
 31
0.0
  0
LINE
  5
413
  8
0
  6
CONTINUOUS
 62
     3
 10
557.1842214841233
 20
-0.2192056396251871
 30
0.0
 11
555.434229426441
 21
2.811870213334288
 31
0.0
  0
LINE
  5
414
  8
0
  6
CONTINUOUS
 62
     3
 10
555.4342612351366
 20
2.811856985852529
 30
0.0
 11
555.4321725207929
 21
2.813061002671049
 31
0.0
  0
LINE
  5
415
  8
0
  6
CONTINUOUS
 62
     3
 10
551.934269891125
 20
2.811855316162138
 30
0.0
 11
555.434269891125
 21
2.811855316162138
 31
0.0
  0
LINE
  5
416
  8
0
  6
CONTINUOUS
 62
     3
 10
480.3147020200314
 20
116.5578536987305
 30
0.0
 11
480.3147020200314
 21
61.15489578247073
 31
0.0
  0
LINE
  5
417
  8
0
  6
CONTINUOUS
 62
     3
 10
508.3147020200314
 20
116.5578536987305
 30
0.0
 11
508.3147020200314
 21
61.15489578247073
 31
0.0
  0
LINE
  5
418
  8
0
  6
CONTINUOUS
 62
     3
 10
499.8147020200314
 20
116.5578536987305
 30
0.0
 11
499.8147020200314
 21
106.0219497680664
 31
0.0
  0
LINE
  5
419
  8
0
  6
CONTINUOUS
 62
     3
 10
488.8147020200314
 20
116.5578536987305
 30
0.0
 11
488.8147020200314
 21
106.0219497680664
 31
0.0
  0
LINE
  5
41A
  8
0
  6
CONTINUOUS
 62
     3
 10
480.3147020200314
 20
66.05786514282229
 30
0.0
 11
488.8147020200314
 21
66.05786514282229
 31
0.0
  0
LINE
  5
41B
  8
0
  6
CONTINUOUS
 62
     3
 10
499.8147020200314
 20
66.05786514282229
 30
0.0
 11
508.3147020200314
 21
66.05786514282229
 31
0.0
  0
LINE
  5
41C
  8
0
  6
CONTINUOUS
 62
     3
 10
488.8147020200314
 20
69.55786895751956
 30
0.0
 11
499.8147020200314
 21
69.55786895751956
 31
0.0
  0
LINE
  5
41D
  8
0
  6
CONTINUOUS
 62
     3
 10
488.8147020200314
 20
110.557861328125
 30
0.0
 11
499.8147020200314
 21
110.557861328125
 31
0.0
  0
LINE
  5
41E
  8
0
  6
CONTINUOUS
 62
     3
 10
488.8147020200314
 20
99.09375000000003
 30
0.0
 11
488.8147020200314
 21
81.0219650268555
 31
0.0
  0
LINE
  5
41F
  8
0
  6
CONTINUOUS
 62
     3
 10
499.8147020200314
 20
99.09375000000003
 30
0.0
 11
499.8147020200314
 21
81.0219650268555
 31
0.0
  0
LINE
  5
420
  8
0
  6
CONTINUOUS
 62
     3
 10
499.8147020200314
 20
74.09375762939456
 30
0.0
 11
499.8147020200314
 21
66.05785751342776
 31
0.0
  0
LINE
  5
421
  8
0
  6
CONTINUOUS
 62
     3
 10
488.8147020200314
 20
74.09375762939456
 30
0.0
 11
488.8147020200314
 21
66.05785751342776
 31
0.0
  0
LINE
  5
422
  8
0
  6
CONTINUOUS
 62
     3
 10
466.3147020200314
 20
88.59375762939456
 30
0.0
 11
462.3147020200314
 21
88.59375762939456
 31
0.0
  0
LINE
  5
423
  8
0
  6
CONTINUOUS
 62
     3
 10
460.3146998509972
 20
92.05785750817884
 30
0.0
 11
462.3147003278344
 21
95.52195882272352
 31
0.0
  0
LINE
  5
424
  8
0
  6
CONTINUOUS
 62
     3
 10
462.3147566852036
 20
88.59380401990464
 30
0.0
 11
460.3147576388779
 21
92.05790604970505
 31
0.0
  0
LINE
  5
425
  8
0
  6
CONTINUOUS
 62
     3
 10
468.3147173318271
 20
92.0578630893456
 30
0.0
 11
466.3147149476414
 21
88.59376272847524
 31
0.0
  0
LINE
  5
426
  8
0
  6
CONTINUOUS
 62
     3
 10
466.3147297956785
 20
95.52199404479805
 30
0.0
 11
468.314728365167
 21
92.05789153816048
 31
0.0
  0
LINE
  5
427
  8
0
  6
CONTINUOUS
 62
     3
 10
462.3147020200314
 20
95.5219650268555
 30
0.0
 11
466.3147020200314
 21
95.5219650268555
 31
0.0
  0
LINE
  5
428
  8
0
  6
CONTINUOUS
 62
     3
 10
393.6212203810806
 20
-40.24335082755687
 30
0.0
 11
400.4969002168386
 21
-52.15237600625432
 31
0.0
  0
LINE
  5
429
  8
0
  6
CONTINUOUS
 62
     3
 10
391.5590180093905
 20
-50.67155564551641
 30
0.0
 11
393.3394480617221
 21
-53.7553505325117
 31
0.0
  0
LINE
  5
42A
  8
0
  6
CONTINUOUS
 62
     3
 10
399.5590360736656
 20
-64.52799946900223
 30
0.0
 11
405.6212278360366
 21
-61.02799180980584
 31
0.0
  0
LINE
  5
42B
  8
0
  6
CONTINUOUS
 62
     3
 10
391.559037180171
 20
-50.67157432060395
 30
0.0
 11
397.6212157280423
 21
-47.17157429080164
 31
0.0
  0
LINE
  5
42C
  8
0
  6
CONTINUOUS
 62
     3
 10
391.5590276578487
 20
-50.67156219482419
 30
0.0
 11
391.5590276578487
 21
-54.98203277587888
 31
0.0
  0
LINE
  5
42D
  8
0
  6
CONTINUOUS
 62
     3
 10
388.2303565230812
 20
-64.77549174196994
 30
0.0
 11
394.3340455308729
 21
-61.25152563960626
 31
0.0
  0
LINE
  5
42E
  8
0
  6
CONTINUOUS
 62
     3
 10
385.6237768838838
 20
-60.3914124546242
 30
0.0
 11
391.7840322091602
 21
-56.83478777724179
 31
0.0
  0
LINE
  5
42F
  8
0
  6
CONTINUOUS
 62
     3
 10
388.434535539622
 20
-65.177220660968
 30
0.0
 11
394.5590357325207
 21
-61.64123921660809
 31
0.0
  0
LINE
  5
430
  8
0
  6
CONTINUOUS
 62
     3
 10
385.3987893561926
 20
-60.00171495314478
 30
0.0
 11
391.5590463332815
 21
-56.44508932208811
 31
0.0
  0
LINE
  5
431
  8
0
  6
CONTINUOUS
 62
     3
 10
395.8947659743716
 20
-62.41241917925001
 30
0.0
 11
399.5590343989206
 21
-64.52798530681454
 31
0.0
  0
LINE
  5
432
  8
0
  6
CONTINUOUS
 62
     3
 10
397.7998920901525
 20
-61.48106515443047
 30
0.0
 11
399.5590170557159
 21
-64.52795855374475
 31
0.0
  0
LINE
  5
433
  8
0
  6
CONTINUOUS
 62
     3
 10
394.5590318169832
 20
-61.64119878899797
 30
0.0
 11
391.5590333667042
 21
-56.44504976317776
 31
0.0
  0
LINE
  5
434
  8
0
  6
CONTINUOUS
 62
     3
 10
402.4862700158699
 20
-56.37158645702669
 30
0.0
 11
400.0862701112374
 21
-52.21466525419572
 31
0.0
  0
LINE
  5
435
  8
0
  6
CONTINUOUS
 62
     3
 10
393.1425017822148
 20
-54.43389810770341
 30
0.0
 11
391.682169180266
 21
-55.27702164418568
 31
0.0
  0
LINE
  5
436
  8
0
  6
CONTINUOUS
 62
     3
 10
397.0924934792868
 20
-61.27548347813232
 30
0.0
 11
395.6321592255256
 21
-62.11860796828901
 31
0.0
  0
LINE
  5
437
  8
0
  6
CONTINUOUS
 62
     3
 10
400.9444135131778
 20
-58.3010101450956
 30
0.0
 11
397.6444196047733
 21
-52.58525381503014
 31
0.0
  0
LINE
  5
438
  8
0
  6
CONTINUOUS
 62
     3
 10
397.3534046970005
 20
-60.48119444780073
 30
0.0
 11
393.9608051867363
 21
-54.60504053224841
 31
0.0
  0
LINE
  5
439
  8
0
  6
CONTINUOUS
 62
     3
 10
395.995528369358
 20
-59.65715402653169
 30
0.0
 11
394.720619961663
 21
-60.39322283986385
 31
0.0
  0
LINE
  5
43A
  8
0
  6
CONTINUOUS
 62
     3
 10
393.9955316901006
 20
-56.19305482351868
 30
0.0
 11
392.720624934218
 21
-56.92912268317642
 31
0.0
  0
LINE
  5
43B
  8
0
  6
CONTINUOUS
 62
     3
 10
397.6444242073259
 20
-52.58527072554234
 30
0.0
 11
400.0862839064165
 21
-52.2146930718539
 31
0.0
  0
LINE
  5
43C
  8
0
  6
CONTINUOUS
 62
     3
 10
402.4863160874155
 20
-56.37161774874343
 30
0.0
 11
400.944458695851
 21
-58.30103932755193
 31
0.0
  0
LINE
  5
43D
  8
0
  6
CONTINUOUS
 62
     3
 10
399.7349296527979
 20
-58.20611894756169
 30
0.0
 11
397.0889122627831
 21
-53.62308301894316
 31
0.0
  0
LINE
  5
43E
  8
0
  6
CONTINUOUS
 62
     3
 10
461.0852174973271
 20
-17.45881627107062
 30
0.0
 11
463.0852174973271
 21
-20.92291782403387
 31
0.0
  0
LINE
  5
43F
  8
0
  6
CONTINUOUS
 62
     3
 10
461.0852174619259
 20
-24.38703536987302
 30
0.0
 11
457.0852174619259
 21
-24.38703536987302
 31
0.0
  0
LINE
  5
440
  8
0
  6
CONTINUOUS
 62
     3
 10
463.0851522204135
 20
-20.92289674596916
 30
0.0
 11
461.0851512667392
 21
-24.38699782209525
 31
0.0
  0
LINE
  5
441
  8
0
  6
CONTINUOUS
 62
     3
 10
457.0852098325314
 20
-17.4588871002197
 30
0.0
 11
461.0852098325314
 21
-17.4588871002197
 31
0.0
  0
LINE
  5
442
  8
0
  6
CONTINUOUS
 62
     3
 10
455.0851846788438
 20
-20.92291257673966
 30
0.0
 11
457.0851861093552
 21
-17.45881173903214
 31
0.0
  0
LINE
  5
443
  8
0
  6
CONTINUOUS
 62
     3
 10
457.0852172997528
 20
-24.38701961541571
 30
0.0
 11
455.0852172997527
 21
-20.92291806245245
 31
0.0
  0
LINE
  5
444
  8
0
  6
CONTINUOUS
 62
     3
 10
555.5441753355609
 20
31.03860821092715
 30
0.0
 11
557.5441753355609
 21
34.50270976389041
 31
0.0
  0
LINE
  5
445
  8
0
  6
CONTINUOUS
 62
     3
 10
561.5441915937009
 20
34.50271192648191
 30
0.0
 11
563.5441915937009
 21
31.03861037351865
 31
0.0
  0
LINE
  5
446
  8
0
  6
CONTINUOUS
 62
     3
 10
557.5441942075314
 20
34.50263023376468
 30
0.0
 11
561.5441942075314
 21
34.50263023376468
 31
0.0
  0
LINE
  5
447
  8
0
  6
CONTINUOUS
 62
     3
 10
557.5442447651941
 20
27.57453058511695
 30
0.0
 11
555.5442447651941
 21
31.0386321380802
 31
0.0
  0
LINE
  5
448
  8
0
  6
CONTINUOUS
 62
     3
 10
561.5441942075314
 20
27.5744609832764
 30
0.0
 11
557.5441942075314
 21
27.5744609832764
 31
0.0
  0
LINE
  5
449
  8
0
  6
CONTINUOUS
 62
     3
 10
563.5441788367599
 20
31.03860606515994
 30
0.0
 11
561.5441788367599
 21
27.57450451219668
 31
0.0
  0
LINE
  5
44A
  8
0
  6
CONTINUOUS
 62
     3
 10
402.7455767849506
 20
-56.04719753780972
 30
0.0
 11
410.3204678246666
 21
-69.16729188087646
 31
0.0
  0
CIRCLE
  5
44B
  8
0
  6
CONTINUOUS
 62
     3
 10
494.3147020200314
 20
34.05784988403323
 30
0.0
 40
27.0
  0
ARC
  5
44C
  8
0
  6
CONTINUOUS
 62
     3
 10
494.3147020200314
 20
34.05784988403323
 30
0.0
 40
33.0
 50
115.1027303836484
 51
184.4169380810418
  0
ARC
  5
44D
  8
0
  6
CONTINUOUS
 62
     3
 10
494.3147020200314
 20
34.05784988403323
 30
0.0
 40
82.5
 50
0.0
 51
80.22979938736845
  0
ARC
  5
44E
  8
0
  6
CONTINUOUS
 62
     3
 10
494.3147020200314
 20
34.05784988403323
 30
0.0
 40
82.5
 50
99.77021928196622
 51
200.0535360347621
  0
ARC
  5
44F
  8
0
  6
CONTINUOUS
 62
     3
 10
494.3147020200314
 20
34.05784988403323
 30
0.0
 40
82.5
 50
219.9463973329983
 51
320.0535635070997
  0
ARC
  5
450
  8
0
  6
CONTINUOUS
 62
     3
 10
494.3147020200314
 20
34.05784988403323
 30
0.0
 40
82.5
 50
339.9464160402281
 51
360.0
  0
CIRCLE
  5
451
  8
0
  6
CONTINUOUS
 62
     3
 10
494.3147020200314
 20
34.05784988403323
 30
0.0
 40
30.5
  0
ARC
  5
452
  8
0
  6
CONTINUOUS
 62
     3
 10
494.3147020200314
 20
34.05784988403323
 30
0.0
 40
81.0
 50
220.1325199878811
 51
319.8674442673113
  0
ARC
  5
453
  8
0
  6
CONTINUOUS
 62
     3
 10
494.3147020200314
 20
34.05784988403323
 30
0.0
 40
81.0
 50
99.95297465358826
 51
199.8674133798793
  0
ARC
  5
454
  8
0
  6
CONTINUOUS
 62
     3
 10
494.3147020200314
 20
34.05784988403323
 30
0.0
 40
81.0
 50
340.1325352800164
 51
440.0470440157464
  0
CIRCLE
  5
455
  8
0
  6
CONTINUOUS
 62
     3
 10
471.3147020200314
 20
34.05784988403323
 30
0.0
 40
1.600000023841858
  0
CIRCLE
  5
456
  8
0
  6
CONTINUOUS
 62
     3
 10
517.3147020200314
 20
34.05784988403323
 30
0.0
 40
1.600000023841858
  0
CIRCLE
  5
457
  8
0
  6
CONTINUOUS
 62
     3
 10
456.6042222837032
 20
12.28569316864017
 30
0.0
 40
6.5
  0
CIRCLE
  5
458
  8
0
  6
CONTINUOUS
 62
     3
 10
434.9535570005001
 20
-0.2143058776855185
 30
0.0
 40
6.5
  0
CIRCLE
  5
459
  8
0
  6
CONTINUOUS
 62
     3
 10
532.0336351255
 20
12.28080272674563
 30
0.0
 40
6.5
  0
CIRCLE
  5
45A
  8
0
  6
CONTINUOUS
 62
     3
 10
553.684269891125
 20
-0.219203948974581
 30
0.0
 40
6.5
  0
CIRCLE
  5
45B
  8
0
  6
CONTINUOUS
 62
     3
 10
494.3147020200314
 20
-18.32714462280271
 30
0.0
 40
8.5
  0
ARC
  5
45C
  8
0
  6
CONTINUOUS
 62
     3
 10
494.3147020200314
 20
34.05784988403323
 30
0.0
 40
33.0
 50
235.5830089470969
 51
304.4171021571626
  0
ARC
  5
45D
  8
0
  6
CONTINUOUS
 62
     3
 10
494.3147020200314
 20
34.05784988403323
 30
0.0
 40
33.0
 50
355.5831224232015
 51
424.8972814554971
  0
CIRCLE
  5
45E
  8
0
  6
CONTINUOUS
 62
     3
 10
539.6814317563595
 20
60.25037002563479
 30
0.0
 40
8.5
  0
CIRCLE
  5
45F
  8
0
  6
CONTINUOUS
 62
     3
 10
448.9480028012814
 20
60.25040054321292
 30
0.0
 40
8.5
  0
ARC
  5
460
  8
0
  6
CONTINUOUS
 62
     3
 10
494.3147020200314
 20
34.05784988403323
 30
0.0
 40
32.40000152587891
 50
64.3991694197064
 51
115.6008424194391
  0
ARC
  5
461
  8
0
  6
CONTINUOUS
 62
     3
 10
494.3147020200314
 20
34.05784988403323
 30
0.0
 40
32.40000152587891
 50
183.9079013850448
 51
236.092062945938
  0
ARC
  5
462
  8
0
  6
CONTINUOUS
 62
     3
 10
494.3147020200314
 20
34.05784988403323
 30
0.0
 40
32.40000152587891
 50
303.9080379130378
 51
356.0921870942131
  0
CIRCLE
  5
463
  8
0
  6
CONTINUOUS
 62
     3
 10
539.6814317563595
 20
60.25037002563479
 30
0.0
 40
5.5
  0
CIRCLE
  5
464
  8
0
  6
CONTINUOUS
 62
     3
 10
448.9480028012814
 20
60.25040054321292
 30
0.0
 40
5.5
  0
CIRCLE
  5
465
  8
0
  6
CONTINUOUS
 62
     3
 10
464.3147020200314
 20
92.05786132812503
 30
0.0
 40
8.0
  0
CIRCLE
  5
466
  8
0
  6
CONTINUOUS
 62
     3
 10
464.3147020200314
 20
92.05786132812503
 30
0.0
 40
2.400000095367432
  0
CIRCLE
  5
467
  8
0
  6
CONTINUOUS
 62
     3
 10
464.3147020200314
 20
92.05786132812503
 30
0.0
 40
0.75
  0
CIRCLE
  5
468
  8
0
  6
CONTINUOUS
 62
     3
 10
464.3147020200314
 20
92.05786132812503
 30
0.0
 40
3.299999952316284
  0
ARC
  5
469
  8
0
  6
CONTINUOUS
 62
     3
 10
395.6571111539425
 20
-57.54313659667966
 30
0.0
 40
3.0
 50
209.9999889956806
 51
251.8103021508074
  0
ARC
  5
46A
  8
0
  6
CONTINUOUS
 62
     3
 10
393.0590352872433
 20
-59.04313659667966
 30
0.0
 40
3.0
 50
348.1896876796993
 51
431.8102730088178
  0
ARC
  5
46B
  8
0
  6
CONTINUOUS
 62
     3
 10
395.6571111539425
 20
-57.54313659667966
 30
0.0
 40
3.0
 50
168.1896653678989
 51
209.9999716928365
  0
ARC
  5
46C
  8
0
  6
CONTINUOUS
 62
     3
 10
399.2944173673214
 20
-55.44313812255857
 30
0.0
 40
3.299999952316284
 50
282.3602834779813
 51
299.9999710095912
  0
ARC
  5
46D
  8
0
  6
CONTINUOUS
 62
     3
 10
399.2944173673214
 20
-55.44313812255857
 30
0.0
 40
3.299999952316284
 50
119.9999760185476
 51
137.6396772105358
  0
ARC
  5
46E
  8
0
  6
CONTINUOUS
 62
     3
 10
400.1100225308956
 20
-61.66485595703122
 30
0.0
 40
3.0
 50
92.10684948604951
 51
156.7619665845238
  0
ARC
  5
46F
  8
0
  6
CONTINUOUS
 62
     3
 10
394.3140401700558
 20
-51.62591552734372
 30
0.0
 40
3.0
 50
263.2379941039932
 51
327.8898190512878
  0
ARC
  5
470
  8
0
  6
CONTINUOUS
 62
     3
 10
396.3470754483761
 20
-60.60888671874997
 30
0.0
 40
1.0
 50
50.7154386629089
 51
119.9999760185477
  0
ARC
  5
471
  8
0
  6
CONTINUOUS
 62
     3
 10
396.3470754483761
 20
-60.60888671874997
 30
0.0
 40
1.0
 50
318.1948641282641
 51
369.2845220256086
  0
ARC
  5
472
  8
0
  6
CONTINUOUS
 62
     3
 10
393.3470754483761
 20
-55.41273498535153
 30
0.0
 40
1.0
 50
299.9999710095914
 51
369.2845220256086
  0
ARC
  5
473
  8
0
  6
CONTINUOUS
 62
     3
 10
393.3470754483761
 20
-55.41273498535153
 30
0.0
 40
1.0
 50
50.7154386629089
 51
101.8050897300639
  0
ARC
  5
474
  8
0
  6
CONTINUOUS
 62
     3
 10
395.4275770047726
 20
-61.13976287841794
 30
0.0
 40
1.0
 50
209.9999889956807
 51
281.8051257022427
  0
ARC
  5
475
  8
0
  6
CONTINUOUS
 62
     3
 10
392.4275731900753
 20
-55.94360733032224
 30
0.0
 40
1.0
 50
209.9999889956807
 51
299.9999710095913
  0
ARC
  5
476
  8
0
  6
CONTINUOUS
 62
     3
 10
395.4275770047726
 20
-61.13976287841794
 30
0.0
 40
1.0
 50
119.9999760185477
 51
209.9999716928366
  0
ARC
  5
477
  8
0
  6
CONTINUOUS
 62
     3
 10
392.4275731900753
 20
-55.94360733032224
 30
0.0
 40
1.0
 50
138.1948349862747
 51
209.9999716928366
  0
ARC
  5
478
  8
0
  6
CONTINUOUS
 62
     3
 10
400.8724164823116
 20
-54.53207778930661
 30
0.0
 40
1.200000047683716
 50
323.4679614128107
 51
456.5320061058956
  0
CIRCLE
  5
479
  8
0
  6
CONTINUOUS
 62
     3
 10
459.0852174619259
 20
-20.92291831970212
 30
0.0
 40
8.0
  0
CIRCLE
  5
47A
  8
0
  6
CONTINUOUS
 62
     3
 10
459.0852174619259
 20
-20.92291831970212
 30
0.0
 40
2.400000095367432
  0
CIRCLE
  5
47B
  8
0
  6
CONTINUOUS
 62
     3
 10
459.0852174619259
 20
-20.92291831970212
 30
0.0
 40
0.75
  0
CIRCLE
  5
47C
  8
0
  6
CONTINUOUS
 62
     3
 10
459.0852174619259
 20
-20.92291831970212
 30
0.0
 40
3.299999952316284
  0
CIRCLE
  5
47D
  8
0
  6
CONTINUOUS
 62
     3
 10
559.5441789487422
 20
31.03860664367679
 30
0.0
 40
8.0
  0
CIRCLE
  5
47E
  8
0
  6
CONTINUOUS
 62
     3
 10
559.5441789487422
 20
31.03860664367679
 30
0.0
 40
2.400000095367432
  0
CIRCLE
  5
47F
  8
0
  6
CONTINUOUS
 62
     3
 10
559.5441789487422
 20
31.03860664367679
 30
0.0
 40
0.75
  0
CIRCLE
  5
480
  8
0
  6
CONTINUOUS
 62
     3
 10
559.5441789487422
 20
31.03860664367679
 30
0.0
 40
3.299999952316284
  0
CIRCLE
  5
481
  8
0
  6
CONTINUOUS
 62
     3
 10
494.3147020200314
 20
58.05784988403323
 30
0.0
 40
1.5
  0
CIRCLE
  5
482
  8
0
  6
CONTINUOUS
 62
     3
 10
473.5300819845092
 20
22.05786780158957
 30
0.0
 40
1.5
  0
CIRCLE
  5
483
  8
0
  6
CONTINUOUS
 62
     3
 10
515.0993220555536
 20
22.05786780158957
 30
0.0
 40
1.5
  0
LINE
  5
484
  8
0
  6
CONTINUOUS
 62
     3
 10
232.2286504393507
 20
18.95925903320315
 30
0.0
 11
232.2286504393507
 21
6.807849884033232
 31
0.0
  0
LINE
  5
485
  8
0
  6
CONTINUOUS
 62
     3
 10
239.4786504393507
 20
106.557861328125
 30
0.0
 11
259.4786504393508
 21
106.557861328125
 31
0.0
  0
LINE
  5
486
  8
0
  6
CONTINUOUS
 62
     3
 10
239.4786504393507
 20
98.55786132812503
 30
0.0
 11
259.4786504393508
 21
98.55786132812503
 31
0.0
  0
LINE
  5
487
  8
0
  6
CONTINUOUS
 62
     3
 10
259.4786504393508
 20
109.057861328125
 30
0.0
 11
259.4786504393508
 21
96.05786132812503
 31
0.0
  0
LINE
  5
488
  8
0
  6
CONTINUOUS
 62
     3
 10
259.4786504393508
 20
96.05786132812503
 30
0.0
 11
267.4786504393508
 21
96.05786132812503
 31
0.0
  0
LINE
  5
489
  8
0
  6
CONTINUOUS
 62
     3
 10
267.478654254048
 20
109.057861328125
 30
0.0
 11
267.478654254048
 21
96.05786132812503
 31
0.0
  0
LINE
  5
48A
  8
0
  6
CONTINUOUS
 62
     3
 10
259.4786504393508
 20
109.057861328125
 30
0.0
 11
267.4786504393508
 21
109.057861328125
 31
0.0
  0
LINE
  5
48B
  8
0
  6
CONTINUOUS
 62
     3
 10
253.9786504393507
 20
74.15783691406253
 30
0.0
 11
253.9786504393507
 21
69.55784606933597
 31
0.0
  0
LINE
  5
48C
  8
0
  6
CONTINUOUS
 62
     3
 10
259.4786504393508
 20
84.05786132812503
 30
0.0
 11
259.4786504393508
 21
71.05784606933597
 31
0.0
  0
LINE
  5
48D
  8
0
  6
CONTINUOUS
 62
     3
 10
253.9786504393507
 20
99.15783691406253
 30
0.0
 11
253.9786504393507
 21
80.9578552246094
 31
0.0
  0
LINE
  5
48E
  8
0
  6
CONTINUOUS
 62
     3
 10
253.9786504393507
 20
110.557861328125
 30
0.0
 11
253.9786504393507
 21
105.9578552246094
 31
0.0
  0
LINE
  5
48F
  8
0
  6
CONTINUOUS
 62
     3
 10
253.4786504393507
 20
69.55784606933597
 30
0.0
 11
253.4786504393507
 21
-46.44215011596677
 31
0.0
  0
LINE
  5
490
  8
0
  6
CONTINUOUS
 62
     3
 10
251.4786504393507
 20
69.55784606933597
 30
0.0
 11
251.4786504393507
 21
66.05784988403323
 31
0.0
  0
LINE
  5
491
  8
0
  6
CONTINUOUS
 62
     3
 10
251.7776921873976
 20
69.55786132812503
 30
0.0
 11
253.9786504393507
 21
69.55786132812503
 31
0.0
  0
LINE
  5
492
  8
0
  6
CONTINUOUS
 62
     3
 10
187.6786016112257
 20
3.557849884033232
 30
0.0
 11
250.9786504393507
 21
3.557849884033232
 31
0.0
  0
LINE
  5
493
  8
0
  6
CONTINUOUS
 62
     3
 10
234.7786992674757
 20
3.557848930358915
 30
0.0
 11
234.7786992674757
 21
-0.7421503067016317
 31
0.0
  0
LINE
  5
494
  8
0
  6
CONTINUOUS
 62
     3
 10
228.7786992674757
 20
3.557848930358915
 30
0.0
 11
228.7786992674757
 21
-0.7421503067016317
 31
0.0
  0
LINE
  5
495
  8
0
  6
CONTINUOUS
 62
     3
 10
228.7785771971632
 20
-0.7421541213988974
 30
0.0
 11
234.7785771971632
 21
-0.7421541213988974
 31
0.0
  0
LINE
  5
496
  8
0
  6
CONTINUOUS
 62
     3
 10
228.8786443358351
 20
80.05784606933597
 30
0.0
 11
228.8786443358351
 21
68.85784912109378
 31
0.0
  0
LINE
  5
497
  8
0
  6
CONTINUOUS
 62
     3
 10
228.8786443358351
 20
71.25784301757815
 30
0.0
 11
234.7786992674757
 21
71.25784301757815
 31
0.0
  0
LINE
  5
498
  8
0
  6
CONTINUOUS
 62
     3
 10
228.7785771971632
 20
68.85784912109378
 30
0.0
 11
234.7785771971632
 21
68.85784912109378
 31
0.0
  0
LINE
  5
499
  8
0
  6
CONTINUOUS
 62
     3
 10
228.7786992674757
 20
68.85784912109378
 30
0.0
 11
228.7786992674757
 21
64.55784988403323
 31
0.0
  0
LINE
  5
49A
  8
0
  6
CONTINUOUS
 62
     3
 10
234.7786992674757
 20
71.25785827636722
 30
0.0
 11
234.7786992674757
 21
64.55784988403323
 31
0.0
  0
LINE
  5
49B
  8
0
  6
CONTINUOUS
 62
     3
 10
209.4786504393507
 20
116.557861328125
 30
0.0
 11
209.4786504393507
 21
96.08013217678662
 31
0.0
  0
LINE
  5
49C
  8
0
  6
CONTINUOUS
 62
     3
 10
187.6786016112257
 20
64.55784988403323
 30
0.0
 11
241.2286504393507
 21
64.55784988403323
 31
0.0
  0
LINE
  5
49D
  8
0
  6
CONTINUOUS
 62
     3
 10
202.2287577264019
 20
63.55774702670945
 30
0.0
 11
203.2287404120393
 21
64.55774496935786
 31
0.0
  0
LINE
  5
49E
  8
0
  6
CONTINUOUS
 62
     3
 10
183.4786504393507
 20
-23.82714843749997
 30
0.0
 11
183.4786504393507
 21
-48.44215011596677
 31
0.0
  0
LINE
  5
49F
  8
0
  6
CONTINUOUS
 62
     3
 10
204.4786504393507
 20
-13.32714843749997
 30
0.0
 11
204.4786504393507
 21
-23.32714843749997
 31
0.0
  0
LINE
  5
4A0
  8
0
  6
CONTINUOUS
 62
     3
 10
242.4786504393507
 20
-10.32714462280271
 30
0.0
 11
252.4786504393507
 21
-10.32714462280271
 31
0.0
  0
LINE
  5
4A1
  8
0
  6
CONTINUOUS
 62
     3
 10
242.4786504393507
 20
-26.32714462280271
 30
0.0
 11
252.4786504393507
 21
-26.32714462280271
 31
0.0
  0
LINE
  5
4A2
  8
0
  6
CONTINUOUS
 62
     3
 10
172.4786504393507
 20
-13.32714462280271
 30
0.0
 11
242.4786504393507
 21
-13.32714462280271
 31
0.0
  0
LINE
  5
4A3
  8
0
  6
CONTINUOUS
 62
     3
 10
172.4786504393507
 20
-23.32714462280271
 30
0.0
 11
242.4786504393507
 21
-23.32714462280271
 31
0.0
  0
LINE
  5
4A4
  8
0
  6
CONTINUOUS
 62
     3
 10
172.4786504393507
 20
-13.32714843749997
 30
0.0
 11
172.4786504393507
 21
-23.32714843749997
 31
0.0
  0
LINE
  5
4A5
  8
0
  6
CONTINUOUS
 62
     3
 10
252.4786504393507
 20
-10.32714843749997
 30
0.0
 11
252.4786504393507
 21
-26.32714843749997
 31
0.0
  0
LINE
  5
4A6
  8
0
  6
CONTINUOUS
 62
     3
 10
250.9786504393507
 20
53.63199996948245
 30
0.0
 11
250.9786504393507
 21
1.057849884033232
 31
0.0
  0
LINE
  5
4A7
  8
0
  6
CONTINUOUS
 62
     3
 10
242.2286596267687
 20
63.55783738917572
 30
0.0
 11
241.2286585651792
 21
64.55783845076522
 31
0.0
  0
LINE
  5
4A8
  8
0
  6
CONTINUOUS
 62
     3
 10
242.2286474884765
 20
4.557838144254248
 30
0.0
 11
241.228646426887
 21
3.557837082664747
 31
0.0
  0
LINE
  5
4A9
  8
0
  6
CONTINUOUS
 62
     3
 10
202.2287577264019
 20
63.55774702670945
 30
0.0
 11
203.2287404120393
 21
64.55774496935786
 31
0.0
  0
LINE
  5
4AA
  8
0
  6
CONTINUOUS
 62
     3
 10
202.2286697624547
 20
4.557859723440316
 30
0.0
 11
203.2286708240442
 21
3.557858661850816
 31
0.0
  0
LINE
  5
4AB
  8
0
  6
CONTINUOUS
 62
     3
 10
233.4785564810573
 20
-6.492202380384441
 30
0.0
 11
232.006312657125
 21
-3.942200211002017
 31
0.0
  0
LINE
  5
4AC
  8
0
  6
CONTINUOUS
 62
     3
 10
233.4785536259761
 20
-1.392115645133998
 30
0.0
 11
232.0063098020438
 21
-3.942117814516422
 31
0.0
  0
LINE
  5
4AD
  8
0
  6
CONTINUOUS
 62
     3
 10
233.4786504393507
 20
-1.392150878906222
 30
0.0
 11
233.4786504393507
 21
-6.492149353027315
 31
0.0
  0
LINE
  5
4AE
  8
0
  6
CONTINUOUS
 62
     3
 10
233.4786504393507
 20
-1.392147064208956
 30
0.0
 11
253.4786504393507
 21
-1.392147064208956
 31
0.0
  0
LINE
  5
4AF
  8
0
  6
CONTINUOUS
 62
     3
 10
233.4786504393507
 20
-6.492153167724581
 30
0.0
 11
253.4786504393507
 21
-6.492153167724581
 31
0.0
  0
LINE
  5
4B0
  8
0
  6
CONTINUOUS
 62
     3
 10
242.4786504393507
 20
-9.577148437499972
 30
0.0
 11
242.4786504393507
 21
-27.07714843749997
 31
0.0
  0
LINE
  5
4B1
  8
0
  6
CONTINUOUS
 62
     3
 10
242.4786504393507
 20
-9.577144622802706
 30
0.0
 11
253.4786504393507
 21
-9.577144622802706
 31
0.0
  0
LINE
  5
4B2
  8
0
  6
CONTINUOUS
 62
     3
 10
242.4786504393507
 20
-27.07714462280271
 30
0.0
 11
253.4786504393507
 21
-27.07714462280271
 31
0.0
  0
LINE
  5
4B3
  8
0
  6
CONTINUOUS
 62
     3
 10
187.6786016112257
 20
-23.82714462280271
 30
0.0
 11
242.4786504393507
 21
-23.82714462280271
 31
0.0
  0
LINE
  5
4B4
  8
0
  6
CONTINUOUS
 62
     3
 10
187.6786016112257
 20
-12.82714462280271
 30
0.0
 11
242.4786504393507
 21
-12.82714462280271
 31
0.0
  0
LINE
  5
4B5
  8
0
  6
CONTINUOUS
 62
     3
 10
253.9786504393507
 20
73.55784606933597
 30
0.0
 11
253.9786504393507
 21
69.55784606933597
 31
0.0
  0
LINE
  5
4B6
  8
0
  6
CONTINUOUS
 62
     3
 10
245.4786504393507
 20
69.55784606933597
 30
0.0
 11
245.4786504393507
 21
66.05784988403323
 31
0.0
  0
LINE
  5
4B7
  8
0
  6
CONTINUOUS
 62
     3
 10
259.4786504393508
 20
84.05786132812503
 30
0.0
 11
267.4786504393508
 21
84.05786132812503
 31
0.0
  0
LINE
  5
4B8
  8
0
  6
CONTINUOUS
 62
     3
 10
259.4786504393508
 20
71.05784606933597
 30
0.0
 11
267.4786504393508
 21
71.05784606933597
 31
0.0
  0
LINE
  5
4B9
  8
0
  6
CONTINUOUS
 62
     3
 10
267.478654254048
 20
84.05786132812503
 30
0.0
 11
267.478654254048
 21
71.05784606933597
 31
0.0
  0
LINE
  5
4BA
  8
0
  6
CONTINUOUS
 62
     3
 10
259.4786504393508
 20
84.05786132812503
 30
0.0
 11
259.4786504393508
 21
71.05784606933597
 31
0.0
  0
LINE
  5
4BB
  8
0
  6
CONTINUOUS
 62
     3
 10
241.4786504393507
 20
81.55784606933597
 30
0.0
 11
241.4786504393507
 21
73.55784606933597
 31
0.0
  0
LINE
  5
4BC
  8
0
  6
CONTINUOUS
 62
     3
 10
259.4786504393508
 20
109.057861328125
 30
0.0
 11
259.4786504393508
 21
96.05786132812503
 31
0.0
  0
LINE
  5
4BD
  8
0
  6
CONTINUOUS
 62
     3
 10
241.4786504393507
 20
106.557861328125
 30
0.0
 11
241.4786504393507
 21
98.55786132812503
 31
0.0
  0
LINE
  5
4BE
  8
0
  6
CONTINUOUS
 62
     3
 10
239.4786504393507
 20
73.55784606933597
 30
0.0
 11
259.4786504393508
 21
73.55784606933597
 31
0.0
  0
LINE
  5
4BF
  8
0
  6
CONTINUOUS
 62
     3
 10
239.4786504393507
 20
81.55784606933597
 30
0.0
 11
259.4786504393508
 21
81.55784606933597
 31
0.0
  0
LINE
  5
4C0
  8
0
  6
CONTINUOUS
 62
     3
 10
252.4785426302544
 20
115.5575637205584
 30
0.0
 11
253.4785221969498
 21
114.557584238155
 31
0.0
  0
LINE
  5
4C1
  8
0
  6
CONTINUOUS
 62
     3
 10
251.4784280299263
 20
-48.44191234031129
 30
0.0
 11
253.4784734800687
 21
-46.44186705876015
 31
0.0
  0
LINE
  5
4C2
  8
0
  6
CONTINUOUS
 62
     3
 10
183.4786504393507
 20
116.557861328125
 30
0.0
 11
252.4786504393507
 21
116.557861328125
 31
0.0
  0
LINE
  5
4C3
  8
0
  6
CONTINUOUS
 62
     3
 10
252.4786504393507
 20
69.55784606933597
 30
0.0
 11
252.4786504393507
 21
66.05784988403323
 31
0.0
  0
LINE
  5
4C4
  8
0
  6
CONTINUOUS
 62
     3
 10
253.9786504393507
 20
110.557861328125
 30
0.0
 11
253.9786504393507
 21
106.557861328125
 31
0.0
  0
LINE
  5
4C5
  8
0
  6
CONTINUOUS
 62
     3
 10
239.4786504393507
 20
110.557861328125
 30
0.0
 11
239.4786504393507
 21
69.55784606933597
 31
0.0
  0
LINE
  5
4C6
  8
0
  6
CONTINUOUS
 62
     3
 10
239.4786504393507
 20
69.55784606933597
 30
0.0
 11
253.9786504393507
 21
69.55784606933597
 31
0.0
  0
LINE
  5
4C7
  8
0
  6
CONTINUOUS
 62
     3
 10
239.4786504393507
 20
110.557861328125
 30
0.0
 11
253.9786504393507
 21
110.557861328125
 31
0.0
  0
LINE
  5
4C8
  8
0
  6
CONTINUOUS
 62
     3
 10
252.4786504393507
 20
116.557861328125
 30
0.0
 11
252.4786504393507
 21
110.557861328125
 31
0.0
  0
LINE
  5
4C9
  8
0
  6
CONTINUOUS
 62
     3
 10
245.4786504393507
 20
116.557861328125
 30
0.0
 11
245.4786504393507
 21
110.557861328125
 31
0.0
  0
LINE
  5
4CA
  8
0
  6
CONTINUOUS
 62
     3
 10
239.4786504393507
 20
66.05784988403323
 30
0.0
 11
252.4786504393507
 21
66.05784988403323
 31
0.0
  0
LINE
  5
4CB
  8
0
  6
CONTINUOUS
 62
     3
 10
233.2286504393507
 20
13.05784988403323
 30
0.0
 11
242.2286504393507
 21
13.05784988403323
 31
0.0
  0
LINE
  5
4CC
  8
0
  6
CONTINUOUS
 62
     3
 10
232.2286504393507
 20
6.807849884033232
 30
0.0
 11
233.2286504393507
 21
6.807849884033232
 31
0.0
  0
LINE
  5
4CD
  8
0
  6
CONTINUOUS
 62
     3
 10
232.2286504393507
 20
61.30784988403323
 30
0.0
 11
233.2286504393507
 21
61.30784988403323
 31
0.0
  0
LINE
  5
4CE
  8
0
  6
CONTINUOUS
 62
     3
 10
232.2286504393507
 20
61.30784988403323
 30
0.0
 11
232.2286504393507
 21
23.03221511840823
 31
0.0
  0
LINE
  5
4CF
  8
0
  6
CONTINUOUS
 62
     3
 10
233.2286504393507
 20
61.30784988403323
 30
0.0
 11
233.2286504393507
 21
6.807849884033232
 31
0.0
  0
LINE
  5
4D0
  8
0
  6
CONTINUOUS
 62
     3
 10
233.2286504393507
 20
61.05784988403323
 30
0.0
 11
242.2286504393507
 21
61.05784988403323
 31
0.0
  0
LINE
  5
4D1
  8
0
  6
CONTINUOUS
 62
     3
 10
233.2286504393507
 20
7.057849884033232
 30
0.0
 11
242.2286504393507
 21
7.057849884033232
 31
0.0
  0
LINE
  5
4D2
  8
0
  6
CONTINUOUS
 62
     3
 10
242.2286504393507
 20
63.55784988403323
 30
0.0
 11
242.2286504393507
 21
4.557849884033232
 31
0.0
  0
LINE
  5
4D3
  8
0
  6
CONTINUOUS
 62
     3
 10
202.2286504393507
 20
63.55784988403323
 30
0.0
 11
202.2286504393507
 21
4.557849884033232
 31
0.0
  0
LINE
  5
4D4
  8
0
  6
CONTINUOUS
 62
     3
 10
202.2286504393507
 20
55.05784988403323
 30
0.0
 11
225.2286504393507
 21
55.05784988403323
 31
0.0
  0
LINE
  5
4D5
  8
0
  6
CONTINUOUS
 62
     3
 10
202.2286504393507
 20
13.05784988403323
 30
0.0
 11
225.2286504393507
 21
13.05784988403323
 31
0.0
  0
LINE
  5
4D6
  8
0
  6
CONTINUOUS
 62
     3
 10
225.2286504393507
 20
59.30784988403323
 30
0.0
 11
232.2286504393507
 21
59.30784988403323
 31
0.0
  0
LINE
  5
4D7
  8
0
  6
CONTINUOUS
 62
     3
 10
225.2286504393507
 20
8.807849884033232
 30
0.0
 11
232.2286504393507
 21
8.807849884033232
 31
0.0
  0
LINE
  5
4D8
  8
0
  6
CONTINUOUS
 62
     3
 10
225.2286504393507
 20
59.30784988403323
 30
0.0
 11
225.2286504393507
 21
8.807849884033232
 31
0.0
  0
LINE
  5
4D9
  8
0
  6
CONTINUOUS
 62
     3
 10
250.9786504393507
 20
1.057849884033232
 30
0.0
 11
253.4786504393507
 21
1.057849884033232
 31
0.0
  0
LINE
  5
4DA
  8
0
  6
CONTINUOUS
 62
     3
 10
183.4786504393507
 20
-48.44215011596677
 30
0.0
 11
251.4786504393507
 21
-48.44215011596677
 31
0.0
  0
LINE
  5
4DB
  8
0
  6
CONTINUOUS
 62
     3
 10
183.4786504393507
 20
116.557861328125
 30
0.0
 11
183.4786504393507
 21
-12.82714843749997
 31
0.0
  0
LINE
  5
4DC
  8
0
  6
CONTINUOUS
 62
     3
 10
253.4786504393507
 20
114.4365386962891
 30
0.0
 11
253.4786504393507
 21
110.557861328125
 31
0.0
  0
LINE
  5
4DD
  8
0
  6
CONTINUOUS
 62
     3
 10
238.4786504393507
 20
116.557861328125
 30
0.0
 11
238.4786504393507
 21
64.55784988403323
 31
0.0
  0
LINE
  5
4DE
  8
0
  6
CONTINUOUS
 62
     3
 10
239.4786504393507
 20
66.05784988403323
 30
0.0
 11
239.4786504393507
 21
64.55784988403323
 31
0.0
  0
LINE
  5
4DF
  8
0
  6
CONTINUOUS
 62
     3
 10
233.2286504393507
 20
56.05784606933597
 30
0.0
 11
241.2286504393507
 21
56.05784606933597
 31
0.0
  0
LINE
  5
4E0
  8
0
  6
CONTINUOUS
 62
     3
 10
233.2286504393507
 20
60.05784606933597
 30
0.0
 11
241.2286504393507
 21
60.05784606933597
 31
0.0
  0
LINE
  5
4E1
  8
0
  6
CONTINUOUS
 62
     3
 10
237.2286504393507
 20
60.05784606933597
 30
0.0
 11
237.2286504393507
 21
56.05784606933597
 31
0.0
  0
LINE
  5
4E2
  8
0
  6
CONTINUOUS
 62
     3
 10
241.2286504393507
 20
60.05784606933597
 30
0.0
 11
241.2286504393507
 21
56.05784606933597
 31
0.0
  0
LINE
  5
4E3
  8
0
  6
CONTINUOUS
 62
     3
 10
241.2286504393507
 20
59.55784606933597
 30
0.0
 11
242.2286504393507
 21
59.55784606933597
 31
0.0
  0
LINE
  5
4E4
  8
0
  6
CONTINUOUS
 62
     3
 10
241.2286504393507
 20
56.55784606933597
 30
0.0
 11
242.2286504393507
 21
56.55784606933597
 31
0.0
  0
LINE
  5
4E5
  8
0
  6
CONTINUOUS
 62
     3
 10
237.2286516214229
 20
59.30784583361688
 30
0.0
 11
237.9786524176151
 21
60.05784662980901
 31
0.0
  0
LINE
  5
4E6
  8
0
  6
CONTINUOUS
 62
     3
 10
237.2286529701221
 20
56.80784452834226
 30
0.0
 11
237.9786537663142
 21
56.05784373215013
 31
0.0
  0
LINE
  5
4E7
  8
0
  6
CONTINUOUS
 62
     3
 10
237.9786504393507
 20
60.05784606933597
 30
0.0
 11
237.9786504393507
 21
56.05784606933597
 31
0.0
  0
LINE
  5
4E8
  8
0
  6
CONTINUOUS
 62
     3
 10
233.2286527698614
 20
59.05784556821951
 30
0.0
 11
234.2286524827518
 21
60.05784528110988
 31
0.0
  0
LINE
  5
4E9
  8
0
  6
CONTINUOUS
 62
     3
 10
233.2286541185606
 20
57.05784479373963
 30
0.0
 11
234.2286551801501
 21
56.05784373215013
 31
0.0
  0
LINE
  5
4EA
  8
0
  6
CONTINUOUS
 62
     3
 10
234.2286504393507
 20
60.05784606933597
 30
0.0
 11
234.2286504393507
 21
56.05784606933597
 31
0.0
  0
LINE
  5
4EB
  8
0
  6
CONTINUOUS
 62
     3
 10
233.2286504393507
 20
55.05784988403323
 30
0.0
 11
242.2286504393507
 21
55.05784988403323
 31
0.0
  0
LINE
  5
4EC
  8
0
  6
CONTINUOUS
 62
     3
 10
183.4786504393507
 20
104.057861328125
 30
0.0
 11
187.6786016112257
 21
104.057861328125
 31
0.0
  0
LINE
  5
4ED
  8
0
  6
CONTINUOUS
 62
     3
 10
187.6786016112257
 20
104.057861328125
 30
0.0
 11
187.6786016112257
 21
-13.32714843749997
 31
0.0
  0
LINE
  5
4EE
  8
0
  6
CONTINUOUS
 62
     3
 10
187.6786016112257
 20
-23.32714843749997
 30
0.0
 11
187.6786016112257
 21
-35.94215011596677
 31
0.0
  0
LINE
  5
4EF
  8
0
  6
CONTINUOUS
 62
     3
 10
183.4786504393507
 20
-35.94215011596677
 30
0.0
 11
187.6786016112257
 21
-35.94215011596677
 31
0.0
  0
LINE
  5
4F0
  8
0
  6
CENTER
 62
     7
 10
494.3147406072158
 20
34.05791520162259
 30
0.0
 11
569.6162877996239
 21
-9.417472660835273
 31
0.0
  0
LINE
  5
4F1
  8
0
  6
CENTER
 62
     7
 10
418.3920138691414
 20
-9.776107150334752
 30
0.0
 11
494.3146743831253
 21
34.05785649214525
 31
0.0
  0
LINE
  5
4F2
  8
0
  6
CENTER
 62
     7
 10
466.8180849744027
 20
49.9331141517919
 30
0.0
 11
437.0265773919288
 21
67.13325143322587
 31
0.0
  0
LINE
  5
4F3
  8
0
  6
CENTER
 62
     7
 10
521.9343661352772
 20
50.00409119841382
 30
0.0
 11
570.1147295264585
 21
77.82103389869664
 31
0.0
  0
LINE
  5
4F4
  8
0
  6
CENTER
 62
     7
 10
471.3147020200314
 20
38.09381103515628
 30
0.0
 11
471.3147020200314
 21
29.06534957885745
 31
0.0
  0
LINE
  5
4F5
  8
0
  6
CENTER
 62
     7
 10
517.3147020200314
 20
37.80730056762698
 30
0.0
 11
517.3147020200314
 21
29.06534957885745
 31
0.0
  0
LINE
  5
4F6
  8
0
  6
CENTER
 62
     7
 10
430.317193360581
 20
7.816200723305116
 30
0.0
 11
439.6799636036022
 21
-8.400590812946547
 31
0.0
  0
LINE
  5
4F7
  8
0
  6
CENTER
 62
     7
 10
452.1293306501022
 20
20.03653260676234
 30
0.0
 11
461.2214023134903
 21
4.288604699663694
 31
0.0
  0
LINE
  5
4F8
  8
0
  6
CENTER
 62
     7
 10
548.4186710789555
 20
-9.339611897976255
 30
0.0
 11
558.2750717900627
 21
7.732172571895745
 31
0.0
  0
LINE
  5
4F9
  8
0
  6
CENTER
 62
     7
 10
526.9418380896595
 20
3.461483989811342
 30
0.0
 11
536.5023784749702
 21
20.02082341374538
 31
0.0
  0
LINE
  5
4FA
  8
0
  6
CENTER
 62
     7
 10
404.5600023130001
 20
34.05784988403323
 30
0.0
 11
584.2035875180782
 21
34.05784988403323
 31
0.0
  0
LINE
  5
4FB
  8
0
  6
CENTER
 62
     7
 10
441.6854295590939
 20
92.05786132812503
 30
0.0
 11
475.4886190632656
 21
92.05786132812503
 31
0.0
  0
LINE
  5
4FC
  8
0
  6
CENTER
 62
     7
 10
484.2418260434689
 20
102.557861328125
 30
0.0
 11
504.0110216001095
 21
102.557861328125
 31
0.0
  0
LINE
  5
4FD
  8
0
  6
CENTER
 62
     7
 10
484.2418260434689
 20
77.55786895751956
 30
0.0
 11
504.297520623547
 21
77.55786895751956
 31
0.0
  0
LINE
  5
4FE
  8
0
  6
CENTER
 62
     7
 10
464.3147020200314
 20
103.9425201416016
 30
0.0
 11
464.3147020200314
 21
80.27045440673831
 31
0.0
  0
LINE
  5
4FF
  8
0
  6
CENTER
 62
     7
 10
383.8828016984485
 20
-64.34105471942118
 30
0.0
 11
407.6890146390844
 21
-50.59653278828093
 31
0.0
  0
LINE
  5
500
  8
0
  6
CENTER
 62
     7
 10
464.7102190503523
 20
-30.66570260727801
 30
0.0
 11
453.3328076268613
 21
-10.95944831686957
 31
0.0
  0
LINE
  5
501
  8
0
  6
CENTER
 62
     7
 10
448.7928027873016
 20
-26.86524639630713
 30
0.0
 11
469.2934160094233
 21
-15.02921162152686
 31
0.0
  0
LINE
  5
502
  8
0
  6
CENTER
 62
     7
 10
565.2565440754897
 20
40.93270155867097
 30
0.0
 11
553.965192286975
 21
21.37550692584662
 31
0.0
  0
LINE
  5
503
  8
0
  6
CENTER
 62
     7
 10
569.8365999564604
 20
25.096273916608
 30
0.0
 11
549.335983430714
 21
36.93231059873691
 31
0.0
  0
ARC
  5
504
  8
0
  6
CENTER
 62
     7
 10
494.3147020200314
 20
34.05784988403323
 30
0.0
 40
52.3849983215332
 50
136.3466131176257
 51
164.7316362137698
  0
ARC
  5
505
  8
0
  6
CENTER
 62
     7
 10
494.3147020200314
 20
34.05784988403323
 30
0.0
 40
52.3849983215332
 50
15.64541060529692
 51
45.50230019399098
  0
ARC
  5
506
  8
0
  6
CENTER
 62
     7
 10
494.3147020200314
 20
34.05784988403323
 30
0.0
 40
38.0
 50
141.2169751279517
 51
157.7055025768477
  0
ARC
  5
507
  8
0
  6
CENTER
 62
     7
 10
494.3147020200314
 20
34.05784988403323
 30
0.0
 40
52.3849983215332
 50
256.5003471670451
 51
285.6206947688544
  0
ARC
  5
508
  8
0
  6
CENTER
 62
     7
 10
494.3147020200314
 20
34.05784988403323
 30
0.0
 40
38.0
 50
261.6747345577065
 51
278.6188970959449
  0
ARC
  5
509
  8
0
  6
CENTER
 62
     7
 10
494.3147020200314
 20
34.05784988403323
 30
0.0
 40
38.0
 50
21.78109248012443
 51
37.9088886106481
  0
LINE
  5
50A
  8
0
  6
CENTER
 62
     7
 10
235.1678441649367
 20
77.55784606933597
 30
0.0
 11
271.3851445799758
 21
77.55784606933597
 31
0.0
  0
LINE
  5
50B
  8
0
  6
CENTER
 62
     7
 10
179.3616617154585
 20
34.05784988403323
 30
0.0
 11
257.8024303154356
 21
34.05784988403323
 31
0.0
  0
LINE
  5
50C
  8
0
  6
CENTER
 62
     7
 10
230.003125537007
 20
-3.942150115966769
 30
0.0
 11
266.9426625853469
 21
-3.942150115966769
 31
0.0
  0
LINE
  5
50D
  8
0
  6
CENTER
 62
     7
 10
168.3813909178664
 20
-18.32714462280271
 30
0.0
 11
258.5145391112258
 21
-18.32714462280271
 31
0.0
  0
LINE
  5
50E
  8
0
  6
CENTER
 62
     7
 10
234.8685277586867
 20
102.557861328125
 30
0.0
 11
271.6844609862258
 21
102.557861328125
 31
0.0
  0
LINE
  5
50F
  8
0
  6
CENTER
 62
     7
 10
231.1142705565382
 20
58.05784606933597
 30
0.0
 11
243.7032598143507
 21
58.05784606933597
 31
0.0
  0
LINE
  5
510
  8
0
  6
CENTER
 62
     7
 10
220.4786016112257
 20
-23.32714843749997
 30
0.0
 11
220.4786016112257
 21
-52.54235531432502
 31
0.0
  0
LINE
  5
511
  8
0
  6
CENTER
 62
     7
 10
494.3147020200314
 20
124.1825637817383
 30
0.0
 11
494.3147020200314
 21
49.34679870290385
 31
0.0
  0
LINE
  5
512
  8
0
  6
CENTER
 62
     7
 10
494.3147020200314
 20
41.96362702186539
 30
0.0
 11
494.3147020200314
 21
-56.54603576660153
 31
0.0
  0
LINE
  5
513
  8
0
  6
DASHED2
 62
     7
 10
454.3147020200314
 20
106.2121963500977
 30
0.0
 11
454.3147020200314
 21
81.0578536987305
 31
0.0
  0
LINE
  5
514
  8
0
  6
DASHED2
 62
     7
 10
454.3147020200314
 20
98.05786132812503
 30
0.0
 11
462.180577264172
 21
98.05786132812503
 31
0.0
  0
LINE
  5
515
  8
0
  6
DASHED2
 62
     7
 10
454.3147020200314
 20
86.05786895751956
 30
0.0
 11
462.4670762876095
 21
86.05786895751956
 31
0.0
  0
LINE
  5
516
  8
0
  6
DASHED2
 62
     7
 10
426.5116624692501
 20
81.0578536987305
 30
0.0
 11
454.3147020200314
 21
81.0578536987305
 31
0.0
  0
LINE
  5
517
  8
0
  6
DASHED2
 62
     7
 10
444.7876939633907
 20
94.4578552246094
 30
0.0
 11
444.7876939633907
 21
89.65785980224612
 31
0.0
  0
LINE
  5
518
  8
0
  6
DASHED2
 62
     7
 10
451.910801873547
 20
88.10785675048831
 30
0.0
 11
453.5970506528439
 21
88.10785675048831
 31
0.0
  0
LINE
  5
519
  8
0
  6
DASHED2
 62
     7
 10
451.910801873547
 20
96.00784301757815
 30
0.0
 11
453.5970506528439
 21
96.00784301757815
 31
0.0
  0
LINE
  5
51A
  8
0
  6
DASHED2
 62
     7
 10
447.0876817563595
 20
95.35785675048831
 30
0.0
 11
447.0876817563595
 21
88.75785827636722
 31
0.0
  0
LINE
  5
51B
  8
0
  6
DASHED2
 62
     7
 10
451.2876939633907
 20
95.4504318237305
 30
0.0
 11
451.2876939633907
 21
88.66524505615237
 31
0.0
  0
LINE
  5
51C
  8
0
  6
DASHED2
 62
     7
 10
452.0516099790157
 20
94.05786132812503
 30
0.0
 11
453.5237474301876
 21
94.05786132812503
 31
0.0
  0
LINE
  5
51D
  8
0
  6
DASHED2
 62
     7
 10
452.0516099790157
 20
90.05786895751956
 30
0.0
 11
453.5237474301876
 21
90.05786895751956
 31
0.0
  0
LINE
  5
51E
  8
0
  6
DASHED2
 62
     7
 10
447.0877311330137
 20
88.75789883173152
 30
0.0
 11
444.7877307376025
 21
89.65789878484034
 31
0.0
  0
LINE
  5
51F
  8
0
  6
DASHED2
 62
     7
 10
444.7876736954838
 20
94.45790728943533
 30
0.0
 11
447.087674090895
 21
95.35790724254414
 31
0.0
  0
LINE
  5
520
  8
0
  6
DASHED2
 62
     7
 10
448.0876817563595
 20
94.67092895507815
 30
0.0
 11
448.0876817563595
 21
89.37890625000003
 31
0.0
  0
ARC
  5
521
  8
0
  6
DASHED2
 62
     7
 10
451.2876939633907
 20
92.05786132812503
 30
0.0
 40
3.0
 50
0.0
 51
41.81031315512681
  0
ARC
  5
522
  8
0
  6
DASHED2
 62
     7
 10
454.2876939633907
 20
92.05786132812503
 30
0.0
 40
3.0
 50
138.1896986840186
 51
221.8102840131373
  0
ARC
  5
523
  8
0
  6
DASHED2
 62
     7
 10
451.2876939633907
 20
92.05786132812503
 30
0.0
 40
3.0
 50
318.1896868448732
 51
360.0
  0
ARC
  5
524
  8
0
  6
DASHED2
 62
     7
 10
447.0876817563595
 20
92.05786132812503
 30
0.0
 40
3.299999952316284
 50
72.36029448230075
 51
89.99998201391055
  0
ARC
  5
525
  8
0
  6
DASHED2
 62
     7
 10
447.0876817563595
 20
92.05786132812503
 30
0.0
 40
3.299999952316284
 50
270.0000179860895
 51
287.6397055176993
  0
ARC
  5
526
  8
0
  6
DASHED2
 62
     7
 10
449.4922227719845
 20
97.85382080078128
 30
0.0
 40
3.0
 50
242.1068914535913
 51
306.7619948916871
  0
ARC
  5
527
  8
0
  6
DASHED2
 62
     7
 10
449.4922227719845
 20
86.26186370849612
 30
0.0
 40
3.0
 50
53.23800510831291
 51
117.8898300556072
  0
ARC
  5
528
  8
0
  6
DASHED2
 62
     7
 10
452.2230272153439
 20
95.05786132812503
 30
0.0
 40
1.0
 50
200.7154669700724
 51
270.0000179860891
  0
ARC
  5
529
  8
0
  6
DASHED2
 62
     7
 10
452.2230272153439
 20
95.05786132812503
 30
0.0
 40
1.0
 50
108.1948751325835
 51
159.2845330299276
  0
ARC
  5
52A
  8
0
  6
DASHED2
 62
     7
 10
452.2230272153439
 20
89.05786895751956
 30
0.0
 40
1.0
 50
89.99998201391097
 51
159.2845330299276
  0
ARC
  5
52B
  8
0
  6
DASHED2
 62
     7
 10
452.2230272153439
 20
89.05786895751956
 30
0.0
 40
1.0
 50
200.7154669700724
 51
251.8051248674166
  0
ARC
  5
52C
  8
0
  6
DASHED2
 62
     7
 10
453.2847947934689
 20
95.05786132812503
 30
0.0
 40
1.0
 50
0.0
 51
71.80513670656242
  0
ARC
  5
52D
  8
0
  6
DASHED2
 62
     7
 10
453.2847947934689
 20
89.05786895751956
 30
0.0
 40
1.0
 50
0.0
 51
89.99998201391097
  0
ARC
  5
52E
  8
0
  6
DASHED2
 62
     7
 10
453.2847947934689
 20
95.05786132812503
 30
0.0
 40
1.0
 50
270.0000179860891
 51
360.0
  0
ARC
  5
52F
  8
0
  6
DASHED2
 62
     7
 10
453.2847947934689
 20
89.05786895751956
 30
0.0
 40
1.0
 50
288.1948632934378
 51
360.0
  0
ARC
  5
530
  8
0
  6
DASHED2
 62
     7
 10
445.2655687192501
 20
92.05786132812503
 30
0.0
 40
1.200000047683716
 50
113.4679724171302
 51
246.532017110215
  0
LINE
  5
531
  8
0
  6
DASHED2
 62
     7
 10
549.275191423849
 20
61.86334396991968
 30
0.0
 11
545.8751914238494
 21
63.82633488516423
 31
0.0
  0
LINE
  5
532
  8
0
  6
DASHED2
 62
     7
 10
233.8060017452721
 20
58.0578451819197
 30
0.0
 11
233.2286511288171
 21
59.05784576545287
 31
0.0
  0
LINE
  5
533
  8
0
  6
DASHED2
 62
     7
 10
233.8059997946618
 20
58.05784832378457
 30
0.0
 11
233.2286495134829
 21
57.05784832096668
 31
0.0
  0
LINE
  5
534
  8
0
  6
DASHED2
 62
     7
 10
217.0786016112257
 20
-27.44215011596677
 30
0.0
 11
223.8786016112257
 21
-27.44215011596677
 31
0.0
  0
LINE
  5
535
  8
0
  6
DASHED2
 62
     7
 10
216.4786016112257
 20
-32.44215011596677
 30
0.0
 11
224.4786016112257
 21
-32.44215011596677
 31
0.0
  0
LINE
  5
536
  8
0
  6
DASHED2
 62
     7
 10
216.4786016112257
 20
-32.44215011596677
 30
0.0
 11
216.4786016112257
 21
-48.44215011596677
 31
0.0
  0
LINE
  5
537
  8
0
  6
DASHED2
 62
     7
 10
217.0786016112257
 20
-27.44215011596677
 30
0.0
 11
217.0786016112257
 21
-48.44215011596677
 31
0.0
  0
LINE
  5
538
  8
0
  6
DASHED2
 62
     7
 10
223.8786016112257
 20
-27.44215011596677
 30
0.0
 11
223.8786016112257
 21
-48.44215011596677
 31
0.0
  0
LINE
  5
539
  8
0
  6
DASHED2
 62
     7
 10
224.4786016112257
 20
-32.44215011596677
 30
0.0
 11
224.4786016112257
 21
-48.44215011596677
 31
0.0
  0
LINE
  5
53A
  8
0
  6
DASHED2
 62
     7
 10
217.0786016112259
 20
-27.44215011596666
 30
0.0
 11
220.4786016112256
 21
-25.4791592007221
 31
0.0
  0
LINE
  5
53B
  8
0
  6
DASHED2
 62
     7
 10
223.8786016112255
 20
-27.44215011596666
 30
0.0
 11
220.4786016112258
 21
-25.4791592007221
 31
0.0
  0
LINE
  5
53C
  8
0
  6
DASHED2
 62
     7
 10
545.8751788992054
 20
67.75233840897045
 30
0.0
 11
564.0010747895058
 21
78.21732928053845
 31
0.0
  0
LINE
  5
53D
  8
0
  6
DASHED2
 62
     7
 10
549.9053059181276
 20
70.77195365124111
 30
0.0
 11
563.6973040833069
 21
78.73476750457016
 31
0.0
  0
LINE
  5
53E
  8
0
  6
DASHED2
 62
     7
 10
549.2751788992055
 20
61.86336566323625
 30
0.0
 11
567.4152005348125
 21
72.33651203765966
 31
0.0
  0
LINE
  5
53F
  8
0
  6
DASHED2
 62
     7
 10
553.9053059181276
 20
63.84375042096561
 30
0.0
 11
567.69730554001
 21
71.80656511532258
 31
0.0
  0
LINE
  5
540
  8
0
  6
DASHED2
 62
     7
 10
553.9053059181276
 20
63.84375042096561
 30
0.0
 11
549.9053059181276
 21
70.77195365124111
 31
0.0
  0
LINE
  5
541
  8
0
  6
DASHED2
 62
     7
 10
549.2751788992055
 20
61.86336566323625
 30
0.0
 11
545.8751788992054
 21
67.75233840897045
 31
0.0
  0
LINE
  5
542
  8
0
  6
DASHED2
 62
     7
 10
545.8751788992054
 20
67.75233840897022
 30
0.0
 11
545.8751788992054
 21
63.82635657848111
 31
0.0
  0
LINE
  5
543
  8
0
  6
DASHED2
 62
     7
 10
549.275191423849
 20
61.86334396991968
 30
0.0
 11
545.8751914238494
 21
63.82633488516423
 31
0.0
  0
LINE
  5
544
  8
0
  6
DASHED2
 62
     7
 10
549.2751788992052
 20
61.86336566323637
 30
0.0
 11
545.8751788992056
 21
63.82635657848091
 31
0.0
  0
LINE
  5
545
  8
0
  6
CONTINUOUS
 62
     7
 10
253.9786504393507
 20
69.55784606933597
 30
0.0
 11
276.4612304271885
 21
69.55784606933597
 31
0.0
  0
LINE
  5
546
  8
0
  6
CONTINUOUS
 62
     2
 10
494.3146883799191
 20
-13.62714617305207
 30
0.0
 11
490.2443559623053
 21
-15.97714793435804
 31
0.0
  0
LINE
  5
547
  8
0
  6
CONTINUOUS
 62
     2
 10
490.2443590024532
 20
-15.97714614868161
 30
0.0
 11
490.2443590024532
 21
-20.67714691162107
 31
0.0
  0
LINE
  5
548
  8
0
  6
CONTINUOUS
 62
     2
 10
490.2443939886062
 20
-20.67714936109766
 30
0.0
 11
494.3146954949544
 21
-23.02714356751309
 31
0.0
  0
LINE
  5
549
  8
0
  6
CONTINUOUS
 62
     2
 10
494.3147280027752
 20
-23.02718834726508
 30
0.0
 11
498.3850339913752
 21
-20.67720170464961
 31
0.0
  0
LINE
  5
54A
  8
0
  6
CONTINUOUS
 62
     2
 10
498.3850145200314
 20
-20.6771545410156
 30
0.0
 11
498.3850145200314
 21
-15.97715377807614
 31
0.0
  0
LINE
  5
54B
  8
0
  6
CONTINUOUS
 62
     2
 10
498.3850074230405
 20
-15.9771641831903
 30
0.0
 11
494.3146806082778
 21
-13.62715247682351
 31
0.0
  0
LINE
  5
54C
  8
0
  6
CONTINUOUS
 62
     2
 10
494.3146841653731
 20
81.05784309384066
 30
0.0
 11
491.2835944720652
 21
79.30784444984633
 31
0.0
  0
LINE
  5
54D
  8
0
  6
CONTINUOUS
 62
     2
 10
497.345779273871
 20
79.30785021015893
 30
0.0
 11
494.3146912494932
 21
81.05785167047273
 31
0.0
  0
LINE
  5
54E
  8
0
  6
CONTINUOUS
 62
     2
 10
491.283604607922
 20
79.30786132812503
 30
0.0
 11
491.283604607922
 21
75.80786132812503
 31
0.0
  0
LINE
  5
54F
  8
0
  6
CONTINUOUS
 62
     2
 10
491.2836010966758
 20
75.80787750626953
 30
0.0
 11
494.3146897469024
 21
74.05787708903702
 31
0.0
  0
LINE
  5
550
  8
0
  6
CONTINUOUS
 62
     2
 10
494.3146770653771
 20
74.05784787997843
 30
0.0
 11
497.3457661328362
 21
75.80784756705404
 31
0.0
  0
LINE
  5
551
  8
0
  6
CONTINUOUS
 62
     2
 10
497.3457689145626
 20
75.80786132812503
 30
0.0
 11
497.3457689145626
 21
79.30786132812503
 31
0.0
  0
LINE
  5
552
  8
0
  6
CONTINUOUS
 62
     2
 10
494.3147026564644
 20
106.0578304028414
 30
0.0
 11
491.2836129631565
 21
104.307831758847
 31
0.0
  0
LINE
  5
553
  8
0
  6
CONTINUOUS
 62
     2
 10
497.3457765695292
 20
104.3078317278198
 30
0.0
 11
494.3146918487751
 21
106.0578312807834
 31
0.0
  0
LINE
  5
554
  8
0
  6
CONTINUOUS
 62
     2
 10
491.283604607922
 20
104.3078536987305
 30
0.0
 11
491.283604607922
 21
100.8078536987305
 31
0.0
  0
LINE
  5
555
  8
0
  6
CONTINUOUS
 62
     2
 10
491.2835996156474
 20
100.8078534480228
 30
0.0
 11
494.3146849622495
 21
99.0578549381394
 31
0.0
  0
LINE
  5
556
  8
0
  6
CONTINUOUS
 62
     2
 10
494.3147054896987
 20
99.05786382583759
 30
0.0
 11
497.3457945571578
 21
100.8078635129132
 31
0.0
  0
LINE
  5
557
  8
0
  6
CONTINUOUS
 62
     2
 10
497.3457689145626
 20
100.8078536987305
 30
0.0
 11
497.3457689145626
 21
104.3078536987305
 31
0.0
  0
CIRCLE
  5
558
  8
0
  6
CONTINUOUS
 62
     2
 10
494.3147020200314
 20
77.55786895751956
 30
0.0
 40
6.5
  0
CIRCLE
  5
559
  8
0
  6
CONTINUOUS
 62
     2
 10
494.3147020200314
 20
102.557861328125
 30
0.0
 40
6.5
  0
CIRCLE
  5
55A
  8
0
  6
CONTINUOUS
 62
     2
 10
494.3147020200314
 20
-18.32714462280271
 30
0.0
 40
8.0
  0
LINE
  5
55B
  8
0
  6
CONTINUOUS
 62
     4
 10
526.4278986402502
 20
22.57126736661078
 30
0.0
 11
530.1282546111521
 21
28.98047103523325
 31
0.0
  0
LINE
  5
55C
  8
0
  6
CONTINUOUS
 62
     4
 10
516.5531797506897
 20
5.467754885307414
 30
0.0
 11
520.2535357215916
 21
11.87695855392988
 31
0.0
  0
LINE
  5
55D
  8
0
  6
CONTINUOUS
 62
     4
 10
527.7269290932159
 20
21.82125406270509
 30
0.0
 11
531.4272850641178
 21
28.23045773132756
 31
0.0
  0
LINE
  5
55E
  8
0
  6
CONTINUOUS
 62
     4
 10
529.0259748049725
 20
21.07126718779685
 30
0.0
 11
532.7263307758744
 21
27.48047085641932
 31
0.0
  0
LINE
  5
55F
  8
0
  6
CONTINUOUS
 62
     4
 10
530.3249788289409
 20
20.32126914268204
 30
0.0
 11
534.0253347998428
 21
26.73047281130451
 31
0.0
  0
LINE
  5
560
  8
0
  6
CONTINUOUS
 62
     4
 10
531.624031147947
 20
19.57127845307608
 30
0.0
 11
535.3243871188489
 21
25.98048212169854
 31
0.0
  0
LINE
  5
561
  8
0
  6
CONTINUOUS
 62
     4
 10
517.8522178330509
 20
4.717754795900447
 30
0.0
 11
521.5525661745573
 21
11.12694525002419
 31
0.0
  0
LINE
  5
562
  8
0
  6
CONTINUOUS
 62
     4
 10
519.1512559154122
 20
3.96775470649348
 30
0.0
 11
522.8516118863141
 21
10.37695837511595
 31
0.0
  0
LINE
  5
563
  8
0
  6
CONTINUOUS
 62
     4
 10
520.4502675687759
 20
3.217769875877394
 30
0.0
 11
524.1506235396779
 21
9.626973544499862
 31
0.0
  0
LINE
  5
564
  8
0
  6
CONTINUOUS
 62
     4
 10
521.749319887782
 20
2.467779186271429
 30
0.0
 11
525.4496758586839
 21
8.876982854893896
 31
0.0
  0
LINE
  5
565
  8
0
  6
CONTINUOUS
 62
     4
 10
552.4932475993282
 20
-15.28223818848434
 30
0.0
 11
556.1936035702302
 21
-8.873034519861875
 31
0.0
  0
LINE
  5
566
  8
0
  6
CONTINUOUS
 62
     4
 10
553.7923044812915
 20
-16.03226675118091
 30
0.0
 11
557.4926604521935
 21
-9.623063082558446
 31
0.0
  0
LINE
  5
567
  8
0
  6
CONTINUOUS
 62
     4
 10
555.0913501930481
 20
-16.78225362608916
 30
0.0
 11
558.7917137933456
 21
-10.37303674296797
 31
0.0
  0
LINE
  5
568
  8
0
  6
CONTINUOUS
 62
     4
 10
562.3679588594932
 20
1.821261078320305
 30
0.0
 11
566.0683148303951
 21
8.230464746942772
 31
0.0
  0
LINE
  5
569
  8
0
  6
CONTINUOUS
 62
     4
 10
563.6670157414565
 20
1.071232515623734
 30
0.0
 11
567.3673717123584
 21
7.480436184246202
 31
0.0
  0
LINE
  5
56A
  8
0
  6
CONTINUOUS
 62
     4
 10
564.9660690826086
 20
0.3212588552142108
 30
0.0
 11
568.6664250535105
 21
6.730462523836678
 31
0.0
  0
LINE
  5
56B
  8
0
  6
CONTINUOUS
 62
     4
 10
566.2650654771815
 20
-0.4287524043993187
 30
0.0
 11
569.9654214480834
 21
5.980451264223149
 31
0.0
  0
LINE
  5
56C
  8
0
  6
CONTINUOUS
 62
     4
 10
567.5641111889382
 20
-1.178739279307564
 30
0.0
 11
571.26446715984
 21
5.230464389314903
 31
0.0
  0
LINE
  5
56D
  8
0
  6
CONTINUOUS
 62
     4
 10
556.3903542170165
 20
-17.53225167120397
 30
0.0
 11
560.0907101879184
 21
-11.1230480025815
 31
0.0
  0
LINE
  5
56E
  8
0
  6
CONTINUOUS
 62
     4
 10
557.6893922993778
 20
-18.28225176061093
 30
0.0
 11
561.389755899675
 21
-11.87303487748974
 31
0.0
  0
LINE
  5
56F
  8
0
  6
CONTINUOUS
 62
     4
 10
500.5146837094845
 20
67.55786514282229
 30
0.0
 11
507.6146898130001
 21
67.55786514282229
 31
0.0
  0
LINE
  5
570
  8
0
  6
CONTINUOUS
 62
     4
 10
481.0146837094845
 20
67.55786514282229
 30
0.0
 11
488.1146898130001
 21
67.55786514282229
 31
0.0
  0
LINE
  5
571
  8
0
  6
CONTINUOUS
 62
     4
 10
481.0146837094845
 20
69.05786895751956
 30
0.0
 11
488.1146898130001
 21
69.05786895751956
 31
0.0
  0
LINE
  5
572
  8
0
  6
CONTINUOUS
 62
     4
 10
481.0146837094845
 20
70.55786895751956
 30
0.0
 11
488.1146898130001
 21
70.55786895751956
 31
0.0
  0
LINE
  5
573
  8
0
  6
CONTINUOUS
 62
     4
 10
481.0146837094845
 20
72.05786895751956
 30
0.0
 11
488.1146898130001
 21
72.05786895751956
 31
0.0
  0
LINE
  5
574
  8
0
  6
CONTINUOUS
 62
     4
 10
481.0146837094845
 20
73.55786895751956
 30
0.0
 11
488.1146898130001
 21
73.55786895751956
 31
0.0
  0
LINE
  5
575
  8
0
  6
CONTINUOUS
 62
     4
 10
500.5146837094845
 20
69.05786895751956
 30
0.0
 11
507.6146898130001
 21
69.05786895751956
 31
0.0
  0
LINE
  5
576
  8
0
  6
CONTINUOUS
 62
     4
 10
500.5146837094845
 20
70.55786895751956
 30
0.0
 11
507.6146898130001
 21
70.55786895751956
 31
0.0
  0
LINE
  5
577
  8
0
  6
CONTINUOUS
 62
     4
 10
500.5146837094845
 20
72.05786895751956
 30
0.0
 11
507.6146898130001
 21
72.05786895751956
 31
0.0
  0
LINE
  5
578
  8
0
  6
CONTINUOUS
 62
     4
 10
500.5146837094845
 20
73.55786895751956
 30
0.0
 11
507.6146898130001
 21
73.55786895751956
 31
0.0
  0
LINE
  5
579
  8
0
  6
CONTINUOUS
 62
     4
 10
500.5146837094845
 20
115.057861328125
 30
0.0
 11
507.6146898130001
 21
115.057861328125
 31
0.0
  0
LINE
  5
57A
  8
0
  6
CONTINUOUS
 62
     4
 10
481.0146837094845
 20
115.057861328125
 30
0.0
 11
488.1146898130001
 21
115.057861328125
 31
0.0
  0
LINE
  5
57B
  8
0
  6
CONTINUOUS
 62
     4
 10
481.0146837094845
 20
113.557861328125
 30
0.0
 11
488.1146898130001
 21
113.557861328125
 31
0.0
  0
LINE
  5
57C
  8
0
  6
CONTINUOUS
 62
     4
 10
481.0146837094845
 20
112.057861328125
 30
0.0
 11
488.1146898130001
 21
112.057861328125
 31
0.0
  0
LINE
  5
57D
  8
0
  6
CONTINUOUS
 62
     4
 10
481.0146837094845
 20
110.557861328125
 30
0.0
 11
488.1146898130001
 21
110.557861328125
 31
0.0
  0
LINE
  5
57E
  8
0
  6
CONTINUOUS
 62
     4
 10
481.0146837094845
 20
109.057861328125
 30
0.0
 11
488.1146898130001
 21
109.057861328125
 31
0.0
  0
LINE
  5
57F
  8
0
  6
CONTINUOUS
 62
     4
 10
500.5146837094845
 20
113.557861328125
 30
0.0
 11
507.6146898130001
 21
113.557861328125
 31
0.0
  0
LINE
  5
580
  8
0
  6
CONTINUOUS
 62
     4
 10
500.5146837094845
 20
112.057861328125
 30
0.0
 11
507.6146898130001
 21
112.057861328125
 31
0.0
  0
LINE
  5
581
  8
0
  6
CONTINUOUS
 62
     4
 10
500.5146837094845
 20
110.557861328125
 30
0.0
 11
507.6146898130001
 21
110.557861328125
 31
0.0
  0
LINE
  5
582
  8
0
  6
CONTINUOUS
 62
     4
 10
500.5146837094845
 20
109.057861328125
 30
0.0
 11
507.6146898130001
 21
109.057861328125
 31
0.0
  0
CIRCLE
  5
583
  8
0
  6
CONTINUOUS
 62
     4
 10
494.4021959165157
 20
-4.069980621337862
 30
0.0
 40
2.549999952316284
  0
CIRCLE
  5
584
  8
0
  6
CONTINUOUS
 62
     4
 10
494.4021959165157
 20
-4.069980621337862
 30
0.0
 40
3.0
  0
ARC
  5
585
  8
0
  6
CONTINUOUS
 62
     4
 10
494.3147020200314
 20
34.05784988403323
 30
0.0
 40
51.0
 50
226.2250760482892
 51
260.340142914643
  0
ARC
  5
586
  8
0
  6
CONTINUOUS
 62
     4
 10
494.3147020200314
 20
34.05784988403323
 30
0.0
 40
51.0
 50
105.9328257625019
 51
140.0901168583046
  0
ARC
  5
587
  8
0
  6
CONTINUOUS
 62
     4
 10
494.3147020200314
 20
34.05784988403323
 30
0.0
 40
51.0
 50
346.2250887791035
 51
379.9146135158242
  0
ARC
  5
588
  8
0
  6
CONTINUOUS
 62
     4
 10
494.3147020200314
 20
34.05784988403323
 30
0.0
 40
45.0
 50
108.1262249012356
 51
144.0029956300215
  0
ARC
  5
589
  8
0
  6
CONTINUOUS
 62
     4
 10
494.3147020200314
 20
34.05784988403323
 30
0.0
 40
39.0
 50
111.0372378651167
 51
144.8182196885976
  0
ARC
  5
58A
  8
0
  6
CONTINUOUS
 62
     4
 10
494.3147020200314
 20
34.05784988403323
 30
0.0
 40
45.0
 50
228.4614439070914
 51
264.7216819464493
  0
ARC
  5
58B
  8
0
  6
CONTINUOUS
 62
     4
 10
494.3147020200314
 20
34.05784988403323
 30
0.0
 40
39.0
 50
231.4312374789697
 51
265.8654927456163
  0
ARC
  5
58C
  8
0
  6
CONTINUOUS
 62
     4
 10
494.3147020200314
 20
34.05784988403323
 30
0.0
 40
39.0
 50
351.4312433795948
 51
384.5552933398356
  0
ARC
  5
58D
  8
0
  6
CONTINUOUS
 62
     4
 10
494.3147020200314
 20
34.05784988403323
 30
0.0
 40
45.0
 50
348.4614481001693
 51
383.9697839109727
  0
ARC
  5
58E
  8
0
  6
CONTINUOUS
 62
     4
 10
494.3147020200314
 20
34.05784988403323
 30
0.0
 40
39.0
 50
274.3974850190403
 51
308.5687370215064
  0
ARC
  5
58F
  8
0
  6
CONTINUOUS
 62
     4
 10
494.3147020200314
 20
34.05784988403323
 30
0.0
 40
45.0
 50
275.0254184603854
 51
311.5385271782902
  0
ARC
  5
590
  8
0
  6
CONTINUOUS
 62
     4
 10
494.3147020200314
 20
34.05784988403323
 30
0.0
 40
51.0
 50
279.4069506620028
 51
313.7748882069033
  0
CIRCLE
  5
591
  8
0
  6
CONTINUOUS
 62
     4
 10
527.2236375669064
 20
53.05786514282229
 30
0.0
 40
2.5
  0
CIRCLE
  5
592
  8
0
  6
CONTINUOUS
 62
     4
 10
461.4057664731564
 20
53.05791091918948
 30
0.0
 40
2.5
  0
CIRCLE
  5
593
  8
0
  6
CONTINUOUS
 62
     4
 10
461.4057664731564
 20
53.05791091918948
 30
0.0
 40
3.0
  0
CIRCLE
  5
594
  8
0
  6
CONTINUOUS
 62
     4
 10
527.2236375669064
 20
53.05786514282229
 30
0.0
 40
3.0
  0
ARC
  5
595
  8
0
  6
CONTINUOUS
 62
     4
 10
494.3147020200314
 20
34.05784988403323
 30
0.0
 40
51.0
 50
160.141339280171
 51
193.7748573194712
  0
ARC
  5
596
  8
0
  6
CONTINUOUS
 62
     4
 10
494.3147020200314
 20
34.05784988403323
 30
0.0
 40
45.0
 50
156.1211035950798
 51
191.5385031210473
  0
ARC
  5
597
  8
0
  6
CONTINUOUS
 62
     4
 10
494.3147020200314
 20
34.05784988403323
 30
0.0
 40
39.0
 50
155.3100869330325
 51
188.5687095491691
  0
ARC
  5
598
  8
0
  6
CONTINUOUS
 62
     4
 10
494.3147020200314
 20
34.05784988403323
 30
0.0
 40
39.0
 50
35.44497641474145
 51
68.96278080421797
  0
ARC
  5
599
  8
0
  6
CONTINUOUS
 62
     4
 10
494.3147020200314
 20
34.05784988403323
 30
0.0
 40
45.0
 50
36.25701760516429
 51
71.87379376809905
  0
ARC
  5
59A
  8
0
  6
CONTINUOUS
 62
     4
 10
494.3147020200314
 20
34.05784988403323
 30
0.0
 40
51.0
 50
40.03171140468805
 51
74.06719290683273
  0
CIRCLE
  5
59B
  8
0
  6
CONTINUOUS
 62
     4
 10
494.3147020200314
 20
58.05784988403323
 30
0.0
 40
2.0
  0
CIRCLE
  5
59C
  8
0
  6
CONTINUOUS
 62
     4
 10
473.5300819845092
 20
22.05786780158957
 30
0.0
 40
2.0
  0
CIRCLE
  5
59D
  8
0
  6
CONTINUOUS
 62
     4
 10
515.0993220555536
 20
22.05786780158957
 30
0.0
 40
2.0
  0
LINE
  5
59E
  8
0
  6
CONTINUOUS
 62
     4
 10
239.4786504393507
 20
105.9578552246094
 30
0.0
 11
259.4786504393508
 21
105.9578552246094
 31
0.0
  0
LINE
  5
59F
  8
0
  6
CONTINUOUS
 62
     4
 10
239.4786504393507
 20
99.15783691406253
 30
0.0
 11
259.4786504393508
 21
99.15783691406253
 31
0.0
  0
LINE
  5
5A0
  8
0
  6
CONTINUOUS
 62
     4
 10
172.4786504393507
 20
-14.12714767456052
 30
0.0
 11
204.4786504393507
 21
-14.12714767456052
 31
0.0
  0
LINE
  5
5A1
  8
0
  6
CONTINUOUS
 62
     4
 10
172.4786504393507
 20
-22.52714920043943
 30
0.0
 11
204.4786504393507
 21
-22.52714920043943
 31
0.0
  0
LINE
  5
5A2
  8
0
  6
CONTINUOUS
 62
     4
 10
240.4786504393507
 20
-0.9421501159667685
 30
0.0
 11
240.4786504393507
 21
-6.942150115966769
 31
0.0
  0
LINE
  5
5A3
  8
0
  6
CONTINUOUS
 62
     4
 10
240.4786504393507
 20
-6.942150115966769
 30
0.0
 11
253.4786504393507
 21
-6.942150115966769
 31
0.0
  0
LINE
  5
5A4
  8
0
  6
CONTINUOUS
 62
     4
 10
240.4786504393507
 20
-0.9421501159667685
 30
0.0
 11
253.4786504393507
 21
-0.9421501159667685
 31
0.0
  0
LINE
  5
5A5
  8
0
  6
CONTINUOUS
 62
     4
 10
239.4786504393507
 20
80.9578552246094
 30
0.0
 11
259.4786504393508
 21
80.9578552246094
 31
0.0
  0
LINE
  5
5A6
  8
0
  6
CONTINUOUS
 62
     4
 10
239.4786504393507
 20
74.15783691406253
 30
0.0
 11
259.4786504393508
 21
74.15783691406253
 31
0.0
  0
LINE
  5
5A7
  8
0
  6
CONTINUOUS
 62
     4
 10
251.4786504393507
 20
69.55784606933597
 30
0.0
 11
251.4786504393507
 21
66.05784988403323
 31
0.0
  0
LINE
  5
5A8
  8
0
  6
CONTINUOUS
 62
     4
 10
251.4786504393507
 20
116.557861328125
 30
0.0
 11
251.4786504393507
 21
110.557861328125
 31
0.0
  0
LINE
  5
5A9
  8
0
  6
CONTINUOUS
 62
     4
 10
233.2286504393507
 20
60.58084793090823
 30
0.0
 11
242.2286504393507
 21
60.58084793090823
 31
0.0
  0
LINE
  5
5AA
  8
0
  6
CONTINUOUS
 62
     4
 10
233.2286504393507
 20
7.534851837158231
 30
0.0
 11
242.2286504393507
 21
7.534851837158231
 31
0.0
  0
LINE
  5
5AB
  8
0
  6
CONTINUOUS
 62
     4
 10
233.7286504393507
 20
59.55784606933597
 30
0.0
 11
237.2286504393507
 21
59.55784606933597
 31
0.0
  0
LINE
  5
5AC
  8
0
  6
CONTINUOUS
 62
     4
 10
233.7286504393507
 20
56.55784606933597
 30
0.0
 11
237.2286504393507
 21
56.55784606933597
 31
0.0
  0
LINE
  5
5AD
  8
0
  6
CONTINUOUS
 62
     4
 10
241.2286504393507
 20
60.05784606933597
 30
0.0
 11
242.2286504393507
 21
60.05784606933597
 31
0.0
  0
LINE
  5
5AE
  8
0
  6
CONTINUOUS
 62
     4
 10
241.2286504393507
 20
56.05784606933597
 30
0.0
 11
242.2286504393507
 21
56.05784606933597
 31
0.0
  0
LINE
  5
5AF
  8
0
  6
CONTINUOUS
 62
     4
 10
237.4786504393507
 20
59.55784606933597
 30
0.0
 11
241.2286504393507
 21
59.55784606933597
 31
0.0
  0
LINE
  5
5B0
  8
0
  6
CONTINUOUS
 62
     4
 10
237.4786504393507
 20
56.55784606933597
 30
0.0
 11
241.2286504393507
 21
56.55784606933597
 31
0.0
  0
LINE
  5
5B1
  8
0
  6
CONTINUOUS
 62
     5
 10
539.469712140206
 20
75.8078963839902
 30
0.0
 11
541.7197112014327
 21
71.91078160046473
 31
0.0
  0
LINE
  5
5B2
  8
0
  6
CONTINUOUS
 62
     5
 10
540.4941858652586
 20
75.53340452843443
 30
0.0
 11
539.4696878299458
 21
75.80791804677304
 31
0.0
  0
LINE
  5
5B3
  8
0
  6
CONTINUOUS
 62
     5
 10
539.1952284266018
 20
74.78335099064501
 30
0.0
 11
539.4697496854215
 21
75.80787850367418
 31
0.0
  0
LINE
  5
5B4
  8
0
  6
CONTINUOUS
 62
     5
 10
541.7198018750306
 20
71.91073902845713
 30
0.0
 11
541.9943231338502
 21
72.9352665414863
 31
0.0
  0
LINE
  5
5B5
  8
0
  6
CONTINUOUS
 62
     5
 10
541.7196845392349
 20
71.91080863331993
 30
0.0
 11
540.6951570262057
 21
72.18533005019165
 31
0.0
  0
LINE
  5
5B6
  8
0
  6
CONTINUOUS
 62
     5
 10
532.5994869323998
 20
72.70741503491755
 30
0.0
 11
545.5898695441514
 21
80.2074119056737
 31
0.0
  0
LINE
  5
5B7
  8
0
  6
CONTINUOUS
 62
     5
 10
537.9556216561474
 20
82.18187902103003
 30
0.0
 11
537.1889108665641
 21
81.56100910250737
 31
0.0
  0
LINE
  5
5B8
  8
0
  6
CONTINUOUS
 62
     5
 10
537.9556509870645
 20
82.18189760131648
 30
0.0
 11
537.3348001562673
 21
82.94858455667784
 31
0.0
  0
LINE
  5
5B9
  8
0
  6
CONTINUOUS
 62
     5
 10
545.5898695441514
 20
80.2074119056737
 30
0.0
 11
541.8398711087733
 21
86.70260321154947
 31
0.0
  0
LINE
  5
5BA
  8
0
  6
CONTINUOUS
 62
     5
 10
528.8494961264131
 20
79.20259312629278
 30
0.0
 11
541.8398787381647
 21
86.70258999704893
 31
0.0
  0
LINE
  5
5BB
  8
0
  6
CONTINUOUS
 62
     5
 10
532.5994869323998
 20
72.70741503491755
 30
0.0
 11
526.9744969087241
 21
82.45018877923067
 31
0.0
  0
LINE
  5
5BC
  8
0
  6
CONTINUOUS
 62
     5
 10
526.9744969087241
 20
82.45018877923067
 30
0.0
 11
528.9230543004868
 21
83.57518830984409
 31
0.0
  0
LINE
  5
5BD
  8
0
  6
CONTINUOUS
 62
     5
 10
529.4855540657935
 20
82.60090961396273
 30
0.0
 11
528.9230619298783
 21
83.57517509534355
 31
0.0
  0
LINE
  5
5BE
  8
0
  6
CONTINUOUS
 62
     5
 10
529.4855540657935
 20
82.60090961396273
 30
0.0
 11
530.7845923269687
 21
83.35090930103834
 31
0.0
  0
LINE
  5
5BF
  8
0
  6
CONTINUOUS
 62
     5
 10
531.3470920922754
 20
82.37663060515698
 30
0.0
 11
530.7845923269687
 21
83.35090930103834
 31
0.0
  0
LINE
  5
5C0
  8
0
  6
CONTINUOUS
 62
     5
 10
531.3471185212765
 20
82.37664586393967
 30
0.0
 11
532.6461567824516
 21
83.12664555101529
 31
0.0
  0
LINE
  5
5C1
  8
0
  6
CONTINUOUS
 62
     5
 10
533.3961224111348
 20
81.82760524555798
 30
0.0
 11
532.6461303534505
 21
83.12663029223259
 31
0.0
  0
LINE
  5
5C2
  8
0
  6
CONTINUOUS
 62
     5
 10
533.5200687218604
 20
84.61298231215645
 30
0.0
 11
533.79458998068
 21
85.63750982518562
 31
0.0
  0
LINE
  5
5C3
  8
0
  6
CONTINUOUS
 62
     5
 10
531.2314443736708
 20
84.15768856243122
 30
0.0
 11
533.7945553275898
 21
85.63750056707559
 31
0.0
  0
LINE
  5
5C4
  8
0
  6
CONTINUOUS
 62
     5
 10
533.7945568242333
 20
85.63753529627141
 30
0.0
 11
532.7700293112042
 21
85.91205671314313
 31
0.0
  0
ARC
  5
5C5
  8
0
  6
CONTINUOUS
 62
     5
 10
537.2762193540157
 20
79.64630889892581
 30
0.0
 40
2.625001907348633
 50
75.00008746442975
 51
369.9999260571885
  0
TEXT
  5
5C6
  8
0
 62
     5
 10
465.5289867976727
 20
-33.44215011596677
 30
0.0
 40
5.0
  1
NIKKO
 41
0.635880610320819
  7
FDASTYLE1
 72
     5
 11
481.4260020556932
 21
-33.44215011596677
 31
0.0
  0
TEXT
  5
5C7
  8
0
 62
     5
 10
496.8860993245663
 20
-32.94215011596677
 30
0.0
 40
4.0
  1
HF3-6B
 41
0.7326009741935735
  7
FDASTYLE1
 72
     5
 11
514.4685227052121
 21
-32.94215011596677
 31
0.0
  0
TEXT
  5
5C8
  8
0
 62
     5
 10
497.2432424882473
 20
-39.44215393066403
 30
0.0
 40
3.0
  1
0001
 41
0.6190477764350769
  7
FDASTYLE1
 72
     5
 11
504.6718158054682
 21
-39.44215393066403
 31
0.0
  0
TEXT
  5
5C9
  8
0
 62
     5
 10
564.2880343998477
 20
43.36048581224523
 30
0.0
 40
2.5
  1
F MAX   17KN
 50
120.0
 41
0.7578772143703342
  7
FDASTYLE1
 72
     5
 11
552.9198761842927
 21
63.05071343006806
 31
0.0
  0
TEXT
  5
5CA
  8
0
 62
     5
 10
567.7521457279727
 20
45.3604858122452
 30
0.0
 40
2.5
  1
ΣS MAX  58KN
 50
120.0
 41
0.6460330630949737
  7
FDASTYLE1
 72
     5
 11
557.9001415157743
 21
62.42465766415531
 31
0.0
  0
TEXT
  5
5CB
  8
0
 62
     5
 10
571.2162570560977
 20
47.36048581224523
 30
0.0
 40
2.5
  1
N MAX 6500 AT ΣS MAX
 50
120.0
 41
0.6445640188692571
  7
FDASTYLE1
 72
     5
 11
554.9410155796489
 21
75.55003095490676
 31
0.0
  0
TEXT
  5
5CC
  8
0
 62
     5
 10
539.4436633492514
 20
72.0931993712708
 30
0.0
 40
2.5
  1
F
 50
120.0
 41
0.5442179498218767
  7
FDASTYLE1
 72
     5
 11
538.7633909119741
 21
73.27146579562385
 31
0.0
  0
TEXT
  5
5CD
  8
0
 62
     5
 10
542.058397283654
 20
82.60253721456934
 30
0.0
 40
2.5
  1
N min
 50
120.0
 41
0.6995393319099827
  7
FDASTYLE1
 72
     5
 11
537.6862764592166
 21
90.17527261932483
 31
0.0
  0
TEXT
  5
5CE
  8
0
 62
     5
 10
534.0491215649781
 20
92.91731716337247
 30
0.0
 40
1.25
  1
-1
 50
120.0
 41
0.6149070012128498
  7
FDASTYLE1
 72
     5
 11
533.2804878134621
 21
94.24862987341057
 31
0.0
  0
TEXT
  5
5CF
  8
0
 62
     5
 10
532.7888781930014
 20
87.02449667351689
 30
0.0
 40
2.5
  1
ΣS
 50
120.0
 41
0.7846700504791802
  7
FDASTYLE1
 72
     5
 11
530.6310355541837
 21
90.7619897586877
 31
0.0
  0
INSERT
  5
5D0
  8
LAYER0001
  6
CONTINUOUS
  2
DC_GROUP_1
 10
0.0
 20
0.0
 30
0.0
  0
INSERT
  5
5D1
  8
LAYER0001
  6
CONTINUOUS
  2
DC_GROUP_4
 10
0.0
 20
0.0
 30
0.0
  0
INSERT
  5
5D2
  8
LAYER0001
  6
CONTINUOUS
  2
DC_GROUP_7
 10
0.0
 20
0.0
 30
0.0
  0
INSERT
  5
5D3
  8
LAYER0001
  6
CONTINUOUS
  2
DC_GROUP_10
 10
0.0
 20
0.0
 30
0.0
  0
INSERT
  5
5D4
  8
LAYER0001
  6
CONTINUOUS
  2
DC_GROUP_13
 10
0.0
 20
0.0
 30
0.0
  0
INSERT
  5
5D5
  8
LAYER0001
  6
CONTINUOUS
  2
DC_GROUP_15
 10
0.0
 20
0.0
 30
0.0
  0
INSERT
  5
5D6
  8
LAYER0001
  6
CONTINUOUS
  2
DC_GROUP_17
 10
0.0
 20
0.0
 30
0.0
  0
INSERT
  5
5D7
  8
LAYER0001
  6
CONTINUOUS
  2
DC_GROUP_20
 10
0.0
 20
0.0
 30
0.0
  0
INSERT
  5
5D8
  8
LAYER0001
  6
CONTINUOUS
  2
DC_GROUP_23
 10
0.0
 20
0.0
 30
0.0
  0
INSERT
  5
5D9
  8
LAYER0001
  6
CONTINUOUS
  2
DC_GROUP_26
 10
0.0
 20
0.0
 30
0.0
  0
INSERT
  5
5DA
  8
LAYER0001
  6
CONTINUOUS
  2
DC_GROUP_28
 10
0.0
 20
0.0
 30
0.0
  0
INSERT
  5
5DB
  8
LAYER0001
  6
CONTINUOUS
  2
DC_GROUP_31
 10
0.0
 20
0.0
 30
0.0
  0
INSERT
  5
5DC
  8
LAYER0001
  6
CONTINUOUS
  2
DC_GROUP_33
 10
0.0
 20
0.0
 30
0.0
  0
INSERT
  5
5DD
  8
LAYER0001
  6
CONTINUOUS
  2
DC_GROUP_36
 10
0.0
 20
0.0
 30
0.0
  0
INSERT
  5
5DE
  8
LAYER0001
  6
CONTINUOUS
  2
DC_GROUP_39
 10
0.0
 20
0.0
 30
0.0
  0
INSERT
  5
5DF
  8
LAYER0001
  6
CONTINUOUS
  2
DC_GROUP_42
 10
0.0
 20
0.0
 30
0.0
  0
INSERT
  5
5E0
  8
LAYER0001
  6
CONTINUOUS
  2
DC_GROUP_45
 10
0.0
 20
0.0
 30
0.0
  0
INSERT
  5
5E1
  8
LAYER0001
  6
CONTINUOUS
  2
DC_GROUP_48
 10
0.0
 20
0.0
 30
0.0
  0
INSERT
  5
5E2
  8
LAYER0001
  6
CONTINUOUS
  2
DC_GROUP_51
 10
0.0
 20
0.0
 30
0.0
  0
INSERT
  5
5E3
  8
LAYER0001
  6
CONTINUOUS
  2
DC_GROUP_54
 10
0.0
 20
0.0
 30
0.0
  0
INSERT
  5
5E4
  8
LAYER0001
  6
CONTINUOUS
  2
DC_GROUP_57
 10
0.0
 20
0.0
 30
0.0
  0
INSERT
  5
5E5
  8
LAYER0001
  6
CONTINUOUS
  2
DC_GROUP_60
 10
0.0
 20
0.0
 30
0.0
  0
INSERT
  5
5E6
  8
LAYER0001
  6
CONTINUOUS
  2
DC_GROUP_63
 10
0.0
 20
0.0
 30
0.0
  0
INSERT
  5
5E7
  8
LAYER0001
  6
CONTINUOUS
  2
DC_GROUP_66
 10
0.0
 20
0.0
 30
0.0
  0
INSERT
  5
5E8
  8
LAYER0001
  6
CONTINUOUS
  2
DC_GROUP_68
 10
0.0
 20
0.0
 30
0.0
  0
INSERT
  5
5E9
  8
LAYER0001
  6
CONTINUOUS
  2
DC_GROUP_71
 10
0.0
 20
0.0
 30
0.0
  0
INSERT
  5
5EA
  8
LAYER0001
  6
CONTINUOUS
  2
DC_GROUP_73
 10
0.0
 20
0.0
 30
0.0
  0
INSERT
  5
5EB
  8
LAYER0001
  6
CONTINUOUS
  2
DC_GROUP_76
 10
0.0
 20
0.0
 30
0.0
  0
INSERT
  5
5EC
  8
LAYER0001
  6
CONTINUOUS
  2
DC_GROUP_79
 10
0.0
 20
0.0
 30
0.0
  0
INSERT
  5
5ED
  8
LAYER0001
  6
CONTINUOUS
  2
DC_GROUP_82
 10
0.0
 20
0.0
 30
0.0
  0
INSERT
  5
5EE
  8
LAYER0001
  6
CONTINUOUS
  2
DC_GROUP_85
 10
0.0
 20
0.0
 30
0.0
  0
INSERT
  5
5EF
  8
LAYER0001
  6
CONTINUOUS
  2
DC_GROUP_88
 10
0.0
 20
0.0
 30
0.0
  0
INSERT
  5
5F0
  8
LAYER0001
  6
CONTINUOUS
  2
DC_GROUP_91
 10
0.0
 20
0.0
 30
0.0
  0
INSERT
  5
5F1
  8
LAYER0001
  6
CONTINUOUS
  2
DC_GROUP_92
 10
0.0
 20
0.0
 30
0.0
  0
INSERT
  5
5F2
  8
LAYER0001
  6
CONTINUOUS
  2
DC_GROUP_93
 10
0.0
 20
0.0
 30
0.0
  0
INSERT
  5
5F3
  8
LAYER0001
  6
CONTINUOUS
  2
DC_GROUP_94
 10
0.0
 20
0.0
 30
0.0
  0
LINE
  5
5F4
  8
0
  6
CONTINUOUS
 62
     6
 10
266.4153481958701
 20
-128.2426562195861
 30
0.0
 11
417.6153451441123
 21
-128.2426562195861
 31
0.0
  0
LINE
  5
5F5
  8
0
  6
CONTINUOUS
 62
     6
 10
266.4153481958701
 20
-121.4926409607971
 30
0.0
 11
417.6153451441123
 21
-121.4926409607971
 31
0.0
  0
LINE
  5
5F6
  8
0
  6
CONTINUOUS
 62
     6
 10
266.4153481958701
 20
-114.7426485901916
 30
0.0
 11
417.6153451441123
 21
-114.7426485901916
 31
0.0
  0
LINE
  5
5F7
  8
0
  6
CONTINUOUS
 62
     6
 10
266.4153481958701
 20
-107.9926485901916
 30
0.0
 11
417.6153451441123
 21
-107.9926485901916
 31
0.0
  0
LINE
  5
5F8
  8
0
  6
CONTINUOUS
 62
     6
 10
266.4153481958701
 20
-101.2426485901916
 30
0.0
 11
292.864521169503
 21
-101.2426485901916
 31
0.0
  0
LINE
  5
5F9
  8
0
  6
CONTINUOUS
 62
     6
 10
266.4153481958701
 20
-134.9926562195861
 30
0.0
 11
417.6153451441123
 21
-134.9926562195861
 31
0.0
  0
LINE
  5
5FA
  8
0
  6
CONTINUOUS
 62
     6
 10
266.4153481958701
 20
-141.7426562195861
 30
0.0
 11
417.6153451441123
 21
-141.7426562195861
 31
0.0
  0
LINE
  5
5FB
  8
0
  6
CONTINUOUS
 62
     6
 10
266.4153481958701
 20
-148.4926562195861
 30
0.0
 11
417.6153451441123
 21
-148.4926562195861
 31
0.0
  0
LINE
  5
5FC
  8
0
  6
CONTINUOUS
 62
     6
 10
266.4153481958701
 20
-155.2426562195861
 30
0.0
 11
417.6153451441123
 21
-155.2426562195861
 31
0.0
  0
LINE
  5
5FD
  8
0
  6
CONTINUOUS
 62
     6
 10
266.4153481958701
 20
-168.7426562195861
 30
0.0
 11
417.6153451441123
 21
-168.7426562195861
 31
0.0
  0
LINE
  5
5FE
  8
0
  6
CONTINUOUS
 62
     6
 10
266.4153481958701
 20
-161.9926562195861
 30
0.0
 11
417.6153451441123
 21
-161.9926562195861
 31
0.0
  0
TEXT
  5
5FF
  8
0
 62
     6
 10
267.0324558256461
 20
-153.6226562148177
 30
0.0
 40
3.509999990463257
  1
 8.慣性モーメント               0.０４ ｋg・m
 41
0.7101794875883111
  7
FDASTYLE1
 72
     5
 11
357.2692816324168
 21
-153.6226562148177
 31
0.0
  0
TEXT
  5
600
  8
0
 62
     6
 10
413.603890561898
 20
-151.1251561528289
 30
0.0
 40
1.754999995231628
  1
2
 41
0.5860808697256095
  7
FDASTYLE1
 72
     5
 11
414.6324624854718
 21
-151.1251561528289
 31
0.0
  0
TEXT
  5
601
  8
0
 62
     6
 10
267.0324558256461
 20
-146.8726562148177
 30
0.0
 40
3.509999990463257
  1
 7.最高使用回転速度              6500  min
 41
0.7164702387555989
  7
FDASTYLE1
 72
     5
 11
356.5597107363433
 21
-146.8726562148177
 31
0.0
  0
TEXT
  5
602
  8
0
 62
     6
 10
413.603890561898
 20
-144.3751561528289
 30
0.0
 40
1.754999995231628
  1
-1
 41
0.7049401913817294
  7
FDASTYLE1
 72
     5
 11
416.078230626925
 21
-144.3751561528289
 31
0.0
  0
TEXT
  5
603
  8
0
 62
     6
 10
267.0324558256461
 20
-167.1226562148177
 30
0.0
 40
3.509999990463257
  1
10.ｱﾝバﾗﾝｽ量        
 41
0.7298877514359135
  7
FDASTYLE1
 72
     5
 11
314.1715262363053
 21
-167.1226562148177
 31
0.0
  0
TEXT
  5
604
  8
0
 62
     6
 10
344.6381733654334
 20
-166.6839062160098
 30
0.0
 40
2.632499992847443
  1
ﾁｬｯｸ外周ﾆﾃ
 41
0.7313140722917264
  7
FDASTYLE1
 72
     5
 11
360.809721402082
 21
-166.6839062160098
 31
0.0
  0
TEXT
  5
605
  8
0
 62
     6
 10
370.7124599455192
 20
-167.1226562148177
 30
0.0
 40
3.509999990463257
  1
    3  g以内
 41
0.7308462202072339
  7
FDASTYLE1
 72
     5
 11
397.3912702954772
 21
-167.1226562148177
 31
0.0
  0
TEXT
  5
606
  8
0
 62
     6
 10
267.0324558256461
 20
-160.3726562148177
 30
0.0
 40
3.509999990463257
  1
 9.質 量                      9   ｋg
 41
0.7270998660677507
  7
FDASTYLE1
 72
     5
 11
355.3358259201881
 21
-160.3726562148177
 31
0.0
  0
TEXT
  5
607
  8
0
 62
     6
 10
267.0324558256461
 20
-140.1226562148177
 30
0.0
 40
3.509999990463257
  1
 6.最大静的把握力               58.5   ｋN
 41
0.7164702387555989
  7
FDASTYLE1
 72
     5
 11
356.5597107363433
 21
-140.1226562148177
 31
0.0
  0
TEXT
  5
608
  8
0
 62
     6
 10
267.0324558256461
 20
-113.1226485854232
 30
0.0
 40
3.509999990463257
  1
 2.ピｽﾄﾝｽﾄﾛ-ｸ             17.5   mm
 41
0.7314001561554082
  7
FDASTYLE1
 72
     5
 11
354.8311931323026
 21
-113.1226485854232
 31
0.0
  0
TEXT
  5
609
  8
0
 62
     6
 10
267.0324558256461
 20
-106.3726485854232
 30
0.0
 40
3.509999990463257
  1
 1.爪ｽﾄﾛ-ｸ            
 41
0.7332405561044704
  7
FDASTYLE1
 72
     5
 11
321.5943519382462
 21
-106.3726485854232
 31
0.0
  0
TEXT
  5
60A
  8
0
 62
     6
 10
357.5981738804176
 20
-105.9338985866153
 30
0.0
 40
2.632499992847443
  1
直径ﾆﾃ
 41
0.7329107008953698
  7
FDASTYLE1
 72
     5
 11
366.087478505823
 21
-105.9338985866153
 31
0.0
  0
TEXT
  5
60B
  8
0
 62
     6
 10
370.7124599455192
 20
-106.3726485854232
 30
0.0
 40
3.509999990463257
  1
    5   mm
 41
0.5881550554054114
  7
FDASTYLE1
 72
     5
 11
391.3567023341583
 21
-106.3726485854232
 31
0.0
  0
TEXT
  5
60C
  8
0
 62
     6
 10
267.0324558256461
 20
-119.8726409560287
 30
0.0
 40
3.509999990463257
  1
 3.推奨ｼﾘﾝダ              46TS-TA1  型
 41
0.7249598799352157
  7
FDASTYLE1
 72
     5
 11
355.5848549993742
 21
-119.8726409560287
 31
0.0
  0
TEXT
  5
60D
  8
0
 62
     6
 10
267.0324558256461
 20
-126.6226562148177
 30
0.0
 40
3.509999990463257
  1
 4.許容ｼﾘﾝダ推力　             16.9   ｋN
 41
0.7185819017466418
  7
FDASTYLE1
 72
     5
 11
356.3191312026796
 21
-126.6226562148177
 31
0.0
  0
TEXT
  5
60E
  8
0
 62
     6
 10
267.0324558256461
 20
-133.3726562148177
 30
0.0
 40
3.509999990463257
  1
 5.最大使用圧力 
 41
0.7008426467141248
  7
FDASTYLE1
 72
     5
 11
294.5839818784137
 21
-133.3726562148177
 31
0.0
  0
TEXT
  5
60F
  8
0
 62
     6
 10
310.0781719921424
 20
-132.9339062160098
 30
0.0
 40
2.632499992847443
  1
 (46TS-TA1型使用時)
 41
0.7201904255390395
  7
FDASTYLE1
 72
     5
 11
340.0334123754114
 21
-132.9339062160098
 31
0.0
  0
TEXT
  5
610
  8
0
 62
     6
 10
353.7447910157332
 20
-133.3726562148177
 30
0.0
 40
3.509999990463257
  1
 　　   3.4  MPa
 41
0.7302488857004646
  7
FDASTYLE1
 72
     5
 11
390.6544905942931
 21
-133.3726562148177
 31
0.0
  0
TEXT
  5
611
  8
0
 62
     6
 10
267.0324558256461
 20
-99.62264858542321
 30
0.0
 40
3.509999990463257
  1
 仕  様
 41
0.7324180182018207
  7
FDASTYLE1
 72
     5
 11
280.9147069049251
 21
-99.62264858542321
 31
0.0
  0
INSERT
  5
612
  8
0
  6
CONTINUOUS
  2
DC_GROUP_95
 10
0.0
 20
0.0
 30
0.0
  0
INSERT
  5
613
  8
0
  6
CONTINUOUS
  2
DC_GROUP_96
 10
0.0
 20
0.0
 30
0.0
  0
INSERT
  5
614
  8
0
  6
CONTINUOUS
  2
DC_GROUP_97
 10
0.0
 20
0.0
 30
0.0
  0
INSERT
  5
615
  8
0
  6
CONTINUOUS
  2
DC_GROUP_98
 10
0.0
 20
0.0
 30
0.0
  0
INSERT
  5
616
  8
0
  6
CONTINUOUS
  2
DC_GROUP_99
 10
0.0
 20
0.0
 30
0.0
  0
INSERT
  5
617
  8
0
  6
CONTINUOUS
  2
DC_GROUP_100
 10
0.0
 20
0.0
 30
0.0
  0
INSERT
  5
618
  8
0
  6
CONTINUOUS
  2
DC_GROUP_103
 10
0.0
 20
0.0
 30
0.0
  0
INSERT
  5
619
  8
0
  6
CONTINUOUS
  2
DC_GROUP_106
 10
0.0
 20
0.0
 30
0.0
  0
INSERT
  5
61A
  8
0
  6
CONTINUOUS
  2
DC_GROUP_109
 10
0.0
 20
0.0
 30
0.0
  0
INSERT
  5
61B
  8
0
  6
CONTINUOUS
  2
DC_GROUP_112
 10
0.0
 20
0.0
 30
0.0
  0
INSERT
  5
61C
  8
0
  6
CONTINUOUS
  2
DC_GROUP_115
 10
0.0
 20
0.0
 30
0.0
  0
INSERT
  5
61D
  8
0
  6
CONTINUOUS
  2
DC_GROUP_117
 10
0.0
 20
0.0
 30
0.0
  0
INSERT
  5
61E
  8
0
  6
CONTINUOUS
  2
DC_GROUP_120
 10
0.0
 20
0.0
 30
0.0
  0
LINE
  5
61F
  8
0
  6
DIVIDE
 62
     9
 10
193.4786046629835
 20
63.55784988403323
 30
0.0
 11
193.4786046629835
 21
38.13300704956058
 31
0.0
  0
LINE
  5
620
  8
0
  6
DIVIDE
 62
     9
 10
193.4786469865553
 20
63.55783873787485
 30
0.0
 11
194.4786480481448
 21
64.55783979946435
 31
0.0
  0
LINE
  5
621
  8
0
  6
DIVIDE
 62
     9
 10
247.2085088377882
 20
64.55784988403323
 30
0.0
 11
249.9786504393507
 21
64.55784988403323
 31
0.0
  0
LINE
  5
622
  8
0
  6
DIVIDE
 62
     9
 10
250.9786567773847
 20
63.55785222486614
 30
0.0
 11
249.9786557157952
 21
64.55785328645564
 31
0.0
  0
LINE
  5
623
  8
0
  6
DIVIDE
 62
     9
 10
250.9786504393507
 20
63.55784988403323
 30
0.0
 11
250.9786504393507
 21
58.38180923461917
 31
0.0
  0
LINE
  5
624
  8
LAYER0001
  6
CONTINUOUS
 62
     7
 10
252.4786504393507
 20
134.0
 30
0.0
 11
246.0850652342726
 21
134.0
 31
0.0
  0
LINE
  5
625
  8
LAYER0001
  6
CONTINUOUS
 62
     7
 10
253.4786504393507
 20
12.38682937622073
 30
0.0
 11
264.9467404967238
 21
12.38682937622073
 31
0.0
  0
VIEWPORT
  5
48
 67
     1
  8
0
 10
356.5723937454768
 20
0.0
 30
0.0
 40
1662.0
 41
1140.0
 68
     1
 69
     1
1001
ACAD
1000
MVIEW
1002
{
1070
    16
1010
0.0
1020
0.0
1030
0.0
1020
0.0
1030
0.0
1010
0.0
1020
0.0
1030
1.0
1020
0.0
1030
1.0
1040
0.0
1040
1140.0
1040
356.5723937454768
1040
0.0
1040
50.0
1040
0.0
1040
0.0
1070
     0
1070
   100
1070
     0
1070
     1
1070
     0
1070
     0
1070
     0
1070
     0
1040
0.0
1040
0.0
1040
0.0
1040
0.5
1040
0.5
1040
0.0
1040
0.0
1070
     0
1002
{
1002
}
1002
}
  0
ENDSEC
  0
EOF
