  0
SECTION
  2
HEADER
  9
$ACADVER
  1
AC1009
  9
$DWGCODEPAGE
  3
ansi_932
  9
$INSBASE
 10
0.0
 20
0.0
 30
0.0
  9
$EXTMIN
 10
-831.0
 20
-569.9999999999999
 30
0.0
  9
$EXTMAX
 10
831.0
 20
569.9999999999999
 30
0.0
  9
$LIMMIN
 10
-297.0
 20
-210.0
  9
$LIMMAX
 10
297.0
 20
210.0
  9
$ORTHOMODE
 70
     0
  9
$REGENMODE
 70
     1
  9
$FILLMODE
 70
     1
  9
$QTEXTMODE
 70
     0
  9
$MIRRTEXT
 70
     1
  9
$DRAGMODE
 70
     2
  9
$LTSCALE
 40
1.0
  9
$OSMODE
 70
    37
  9
$ATTMODE
 70
     1
  9
$TEXTSIZE
 40
0.2
  9
$TRACEWID
 40
0.05
  9
$TEXTSTYLE
  7
STANDARD
  9
$CLAYER
  8
0
  9
$CELTYPE
  6
BYLAYER
  9
$CECOLOR
 62
   256
  9
$DIMSCALE
 40
1.0
  9
$DIMASZ
 40
2.5
  9
$DIMEXO
 40
0.0625
  9
$DIMDLI
 40
0.38
  9
$DIMRND
 40
0.0
  9
$DIMDLE
 40
0.0
  9
$DIMEXE
 40
0.18
  9
$DIMTP
 40
0.0
  9
$DIMTM
 40
0.0
  9
$DIMTXT
 40
0.18
  9
$DIMCEN
 40
0.09
  9
$DIMTSZ
 40
0.0
  9
$DIMTOL
 70
     0
  9
$DIMLIM
 70
     0
  9
$DIMTIH
 70
     1
  9
$DIMTOH
 70
     1
  9
$DIMSE1
 70
     0
  9
$DIMSE2
 70
     0
  9
$DIMTAD
 70
     3
  9
$DIMZIN
 70
     0
  9
$DIMBLK
  1

  9
$DIMASO
 70
     1
  9
$DIMSHO
 70
     1
  9
$DIMPOST
  1

  9
$DIMAPOST
  1

  9
$DIMALT
 70
     0
  9
$DIMALTD
 70
     2
  9
$DIMALTF
 40
25.4
  9
$DIMLFAC
 40
1.0
  9
$DIMTOFL
 70
     0
  9
$DIMTVP
 40
0.0
  9
$DIMTIX
 70
     0
  9
$DIMSOXD
 70
     0
  9
$DIMSAH
 70
     0
  9
$DIMBLK1
  1

  9
$DIMBLK2
  1

  9
$DIMSTYLE
  2
STANDARD
  9
$DIMCLRD
 70
     0
  9
$DIMCLRE
 70
     0
  9
$DIMCLRT
 70
     0
  9
$DIMTFAC
 40
1.0
  9
$DIMGAP
 40
0.09
  9
$LUNITS
 70
     2
  9
$LUPREC
 70
     4
  9
$SKETCHINC
 40
0.1
  9
$FILLETRAD
 40
0.5
  9
$AUNITS
 70
     0
  9
$AUPREC
 70
     0
  9
$MENU
  1
.
  9
$ELEVATION
 40
0.0
  9
$PELEVATION
 40
0.0
  9
$THICKNESS
 40
0.0
  9
$LIMCHECK
 70
     0
  9
$CHAMFERA
 40
0.5
  9
$CHAMFERB
 40
0.5
  9
$SKPOLY
 70
     0
  9
$TDCREATE
 40
2454889.623376261
  9
$TDUPDATE
 40
2454889.623376273
  9
$TDINDWG
 40
0.0000000116
  9
$TDUSRTIMER
 40
0.0000000116
  9
$USRTIMER
 70
     1
  9
$ANGBASE
 50
0.0
  9
$ANGDIR
 70
     0
  9
$PDMODE
 70
     0
  9
$PDSIZE
 40
1.0
  9
$PLINEWID
 40
0.0
  9
$COORDS
 70
     1
  9
$SPLFRAME
 70
     0
  9
$SPLINETYPE
 70
     6
  9
$SPLINESEGS
 70
     8
  9
$ATTDIA
 70
     0
  9
$ATTREQ
 70
     1
  9
$HANDLING
 70
     1
  9
$HANDSEED
  5
4DD
  9
$SURFTAB1
 70
     6
  9
$SURFTAB2
 70
     6
  9
$SURFTYPE
 70
     6
  9
$SURFU
 70
     6
  9
$SURFV
 70
     6
  9
$UCSNAME
  2

  9
$UCSORG
 10
0.0
 20
0.0
 30
0.0
  9
$UCSXDIR
 10
1.0
 20
0.0
 30
0.0
  9
$UCSYDIR
 10
0.0
 20
1.0
 30
0.0
  9
$PUCSNAME
  2

  9
$PUCSORG
 10
0.0
 20
0.0
 30
0.0
  9
$PUCSXDIR
 10
1.0
 20
0.0
 30
0.0
  9
$PUCSYDIR
 10
0.0
 20
1.0
 30
0.0
  9
$USERI1
 70
     0
  9
$USERI2
 70
     0
  9
$USERI3
 70
     0
  9
$USERI4
 70
     0
  9
$USERI5
 70
     0
  9
$USERR1
 40
0.0
  9
$USERR2
 40
0.0
  9
$USERR3
 40
0.0
  9
$USERR4
 40
0.0
  9
$USERR5
 40
0.0
  9
$WORLDVIEW
 70
     1
  9
$SHADEDGE
 70
     3
  9
$SHADEDIF
 70
    70
  9
$TILEMODE
 70
     1
  9
$MAXACTVP
 70
    64
  9
$PLIMCHECK
 70
     0
  9
$PEXTMIN
 10
1.000000000000000E+20
 20
1.000000000000000E+20
 30
1.000000000000000E+20
  9
$PEXTMAX
 10
-1.000000000000000E+20
 20
-1.000000000000000E+20
 30
-1.000000000000000E+20
  9
$PLIMMIN
 10
0.0
 20
0.0
  9
$PLIMMAX
 10
12.0
 20
9.0
  9
$UNITMODE
 70
     0
  9
$VISRETAIN
 70
     0
  9
$PLINEGEN
 70
     1
  9
$PSLTSCALE
 70
     0
  0
ENDSEC
  0
SECTION
  2
TABLES
  0
TABLE
  2
VPORT
 70
     1
  0
VPORT
  2
*ACTIVE
 70
     0
 10
0.0
 20
0.0
 11
1.0
 21
1.0
 12
0.0
 22
0.0
 13
0.0
 23
0.0
 14
0.5
 24
0.5
 15
0.5
 25
0.5
 16
0.0
 26
0.0
 36
1.0
 17
-0.0000000000000036
 27
0.0
 37
0.0
 40
387.6
 41
1.457894736842106
 42
50.0
 43
0.0
 44
0.0
 50
0.0
 51
0.0
 71
     0
 72
  1000
 73
     1
 74
     1
 75
     0
 76
     0
 77
     0
 78
     0
  0
ENDTAB
  0
TABLE
  2
LTYPE
 70
    28
  0
LTYPE
  2
CONTINUOUS
 70
     0
  3
Solid line
 72
    65
 73
     0
 40
0.0
  0
LTYPE
  2
HIDDENX2
 70
     0
  3
CADPAC LINETYPE
 72
    65
 73
     2
 40
9.893992932862261
 49
7.420494699646696
 49
-2.473498233215565
  0
LTYPE
  2
HIDDEN
 70
     0
  3
CADPAC LINETYPE
 72
    65
 73
     2
 40
7.420494699646696
 49
4.946996466431131
 49
-2.473498233215565
  0
LTYPE
  2
HIDDEN2
 70
     0
  3
CADPAC LINETYPE
 72
    65
 73
     2
 40
6.183745583038913
 49
3.710247349823348
 49
-2.473498233215565
  0
LTYPE
  2
DASHED
 70
     0
  3
CADPAC LINETYPE
 72
    65
 73
     2
 40
6.925795053003526
 49
4.946996466431131
 49
-1.978798586572395
  0
LTYPE
  2
DASHED2
 70
     0
  3
CADPAC LINETYPE
 72
    65
 73
     2
 40
4.452296819787989
 49
2.968197879858678
 49
-1.484098939929311
  0
LTYPE
  2
DASHEDX2
 70
     0
  3
CADPAC LINETYPE
 72
    65
 73
     2
 40
11.8727915194346
 49
9.893992932862204
 49
-1.978798586572395
  0
LTYPE
  2
DOTX2
 70
     0
  3
CADPAC LINETYPE
 72
    65
 73
     2
 40
4.328621908127204
 49
0.0
 49
-4.328621908127204
  0
LTYPE
  2
DOT
 70
     0
  3
CADPAC LINETYPE
 72
    65
 73
     2
 40
3.462897526501763
 49
0.0
 49
-3.462897526501763
  0
LTYPE
  2
DOT2
 70
     0
  3
CADPAC LINETYPE
 72
    65
 73
     2
 40
2.597173144876322
 49
0.0
 49
-2.597173144876322
  0
LTYPE
  2
CENTERX2
 70
     0
  3
CADPAC LINETYPE
 72
    65
 73
     4
 40
14.84098939929339
 49
6.183745583038913
 49
-3.091872791519457
 49
2.473498233215565
 49
-3.091872791519457
  0
LTYPE
  2
CENTER
 70
     0
  3
CADPAC LINETYPE
 72
    65
 73
     4
 40
11.3780918727916
 49
4.946996466431131
 49
-2.473498233215565
 49
1.484098939929339
 49
-2.473498233215565
  0
LTYPE
  2
CENTER2
 70
     0
  3
CADPAC LINETYPE
 72
    65
 73
     4
 40
7.915194346289809
 49
3.710247349823348
 49
-1.855123674911674
 49
0.4946996466431131
 49
-1.855123674911674
  0
LTYPE
  2
DASHDOTX2
 70
     0
  3
CADPAC LINETYPE
 72
    65
 73
     4
 40
23.7455830388692
 49
11.87279151943466
 49
-3.957597173144848
 49
3.957597173144848
 49
-3.957597173144848
  0
LTYPE
  2
DASHDOT
 70
     0
  3
CADPAC LINETYPE
 72
    65
 73
     4
 40
11.87279151943449
 49
5.9363957597173
 49
-1.978798586572395
 49
1.978798586572395
 49
-1.978798586572395
  0
LTYPE
  2
DASHDOT2
 70
     0
  3
CADPAC LINETYPE
 72
    65
 73
     4
 40
7.618374558303808
 49
4.452296819787975
 49
-1.484098939929297
 49
0.1978798586572396
 49
-1.484098939929297
  0
LTYPE
  2
DIVIDEX2
 70
     0
  3
CADPAC LINETYPE
 72
    65
 73
     6
 40
31.6607773851589
 49
11.87279151943466
 49
-3.957597173144848
 49
3.957597173144848
 49
-3.957597173144848
 49
3.957597173144848
 49
-3.957597173144848
  0
LTYPE
  2
DIVIDE
 70
     0
  3
CADPAC LINETYPE
 72
    65
 73
     6
 40
15.83038869257928
 49
5.9363957597173
 49
-1.978798586572395
 49
1.978798586572395
 49
-1.978798586572395
 49
1.978798586572395
 49
-1.978798586572395
  0
LTYPE
  2
DIVIDE2
 70
     0
  3
CADPAC LINETYPE
 72
    65
 73
     6
 40
11.87279151943446
 49
4.452296819787975
 49
-1.484098939929297
 49
1.484098939929297
 49
-1.484098939929297
 49
1.484098939929297
 49
-1.484098939929297
  0
LTYPE
  2
BORDERX2
 70
     0
  3
CADPAC LINETYPE
 72
    65
 73
     6
 40
21.6431095406362
 49
6.183745583038913
 49
-3.091872791519457
 49
6.183745583038913
 49
-3.091872791519457
 49
0.0
 49
-3.091872791519457
  0
LTYPE
  2
BORDER
 70
     0
  3
CADPAC LINETYPE
 72
    65
 73
     6
 40
17.31448763250896
 49
4.946996466431131
 49
-2.473498233215565
 49
4.946996466431131
 49
-2.473498233215565
 49
0.0
 49
-2.473498233215565
  0
LTYPE
  2
BORDER2
 70
     0
  3
CADPAC LINETYPE
 72
    65
 73
     6
 40
12.86219081272091
 49
3.957597173144848
 49
-2.473498233215594
 49
1.484098939929311
 49
-2.473498233215594
 49
0.0
 49
-2.473498233215565
  0
LTYPE
  2
PHANTOMX2
 70
     0
  3
CADPAC LINETYPE
 72
    65
 73
     6
 40
18.55123674911674
 49
6.183745583038913
 49
-2.473498233215565
 49
2.473498233215565
 49
-2.473498233215565
 49
2.473498233215565
 49
-2.473498233215565
  0
LTYPE
  2
PHANTOM
 70
     0
  3
CADPAC LINETYPE
 72
    65
 73
     6
 40
15.33568904593651
 49
4.946996466431131
 49
-2.473498233215565
 49
1.484098939929339
 49
-2.473498233215565
 49
1.484098939929339
 49
-2.473498233215565
  0
LTYPE
  2
PHANTOM2
 70
     0
  3
CADPAC LINETYPE
 72
    65
 73
     6
 40
13.1095406360425
 49
3.710247349823348
 49
-2.473498233215565
 49
0.9893992932862261
 49
-2.473498233215565
 49
0.9893992932862261
 49
-2.473498233215565
  0
LTYPE
  2
ACAD_ISO06W100
 70
     0
  3
CADPAC LINETYPE
 72
    65
 73
     8
 40
26.21908127208496
 49
11.87279151943466
 49
-2.473498233215594
 49
1.484098939929311
 49
-2.473498233215594
 49
1.484098939929311
 49
-2.473498233215594
 49
1.484098939929311
 49
-2.473498233215594
  0
LTYPE
  2
ACAD_ISO13W100
 70
     0
  3
CADPAC LINETYPE
 72
    65
 73
     8
 40
19.78798586572452
 49
4.946996466431131
 49
-2.473498233215565
 49
4.946996466431131
 49
-2.473498233215565
 49
0.0
 49
-2.473498233215565
 49
0.0
 49
-2.473498233215565
  0
LTYPE
  2
ACAD_ISO14W100
 70
     0
  3
CADPAC LINETYPE
 72
    65
 73
     8
 40
14.84098939929339
 49
4.946996466431131
 49
-2.473498233215565
 49
0.0
 49
-2.473498233215565
 49
0.0
 49
-2.473498233215565
 49
0.0
 49
-2.473498233215565
  0
ENDTAB
  0
TABLE
  2
LAYER
 70
     3
  0
LAYER
  2
0
 70
     0
 62
     7
  6
CONTINUOUS
  0
LAYER
  2
LAYER0014
 70
     0
 62
     7
  6
CONTINUOUS
  0
LAYER
  2
ZUWAKU
 70
     0
 62
     7
  6
CONTINUOUS
  0
ENDTAB
  0
TABLE
  2
STYLE
 70
     5
  0
STYLE
  2
STANDARD
 70
     0
 40
0.0
 41
1.0
 50
0.0
 71
     0
 42
0.2
  3
txt
  4

  0
STYLE
  2
FDASTYLE1
 70
     0
 40
4.0
 41
0.8000000000000002
 50
0.0
 71
     0
 42
0.2
  3
txt.shx
  4
bigfont
  0
STYLE
  2
FDASTYLE0
 70
     4
 40
2.6656
 41
0.8
 50
0.0
 71
     0
 42
0.2
  3
txt.shx
  4
bigfont
  0
STYLE
  2
FDASTYLE2
 70
     0
 40
7.0
 41
0.8123476848090983
 50
0.0
 71
     0
 42
0.2
  3
MSMINCHO.TTC
  4

  0
STYLE
  2
FDASTYLE3
 70
     0
 40
8.0
 41
0.77
 50
0.0
 71
     0
 42
0.2
  3
MSGOTHIC.TTC
  4

  0
ENDTAB
  0
TABLE
  2
VIEW
 70
     0
  0
ENDTAB
  0
TABLE
  2
UCS
 70
     0
  0
ENDTAB
  0
TABLE
  2
APPID
 70
     2
  0
APPID
  2
ACAD
 70
     0
  0
APPID
  2
DAFUSIONOUT
 70
     0
  0
ENDTAB
  0
TABLE
  2
DIMSTYLE
 70
     1
  0
DIMSTYLE
  2
STANDARD
 70
     0
  3

  4

  5

  6

  7

 40
1.0
 41
0.18
 42
0.0625
 43
0.38
 44
0.18
 45
0.0
 46
0.0
 47
0.0
 48
0.0
140
0.18
141
0.09
142
0.0
143
25.4
144
1.0
145
0.0
146
1.0
147
0.09
 71
     0
 72
     0
 73
     1
 74
     1
 75
     0
 76
     0
 77
     0
 78
     0
170
     0
171
     2
172
     0
173
     0
174
     0
175
     0
176
     0
177
     0
178
     0
  0
ENDTAB
  0
ENDSEC
  0
SECTION
  2
BLOCKS
  0
BLOCK
  8
0
  2
$MODEL_SPACE
 70
     0
 10
0.0
 20
0.0
 30
0.0
  3
$MODEL_SPACE
  1

  0
ENDBLK
  5
21
  8
0
  0
BLOCK
 67
     1
  8
0
  2
$PAPER_SPACE
 70
     0
 10
0.0
 20
0.0
 30
0.0
  3
$PAPER_SPACE
  1

  0
ENDBLK
  5
1D
 67
     1
  8
0
  0
BLOCK
  8
0
  2
DA_IMAGEDIMGROUP_1
 70
     0
 10
0.0
 20
0.0
 30
0.0
  3
DA_IMAGEDIMGROUP_1
  1

  0
LINE
  5
BB
  8
LAYER0014
  6
CONTINUOUS
 62
     7
 10
-172.126096378436
 20
-59.13779534208156
 30
0.0
 11
-143.4761024819516
 21
-59.13779534208156
 31
0.0
  0
LINE
  5
BC
  8
LAYER0014
  6
CONTINUOUS
 62
     7
 10
-172.126096378436
 20
13.62062725813376
 30
0.0
 11
-172.126096378436
 21
-60.13779534208156
 31
0.0
  0
LINE
  5
BD
  8
LAYER0014
  6
CONTINUOUS
 62
     7
 10
-143.4761024819516
 20
-32.71270861833109
 30
0.0
 11
-143.4761024819516
 21
-60.13779534208156
 31
0.0
  0
LINE
  5
BE
  8
LAYER0014
  6
CONTINUOUS
 62
     7
 10
-198.457946378436
 20
-59.13779534208156
 30
0.0
 11
-172.126096378436
 21
-59.13779534208156
 31
0.0
  0
INSERT
  5
C5
  8
LAYER0014
 62
     7
  2
_OPEN30
 10
-172.126096378436
 20
-59.13779534208156
 30
0.0
 41
1.999998407630662
 42
2.000005728319971
 50
360.0
  0
LINE
  5
C6
  8
LAYER0014
  6
CONTINUOUS
 62
     7
 10
-138.4761024819516
 20
-59.13779534208156
 30
0.0
 11
-143.4761024819516
 21
-59.13779534208156
 31
0.0
  0
INSERT
  5
C7
  8
LAYER0014
 62
     7
  2
_OPEN30
 10
-143.4761024819516
 20
-59.13779534208156
 30
0.0
 41
1.999998407630662
 42
2.000005728319971
 50
180.0
  0
TEXT
  5
C9
  8
LAYER0014
 62
     7
 10
-197.457946378436
 20
-58.13779534208156
 30
0.0
 40
4.0
  1
MAX36.2
 41
0.8000000000000002
  7
FDASTYLE1
 72
     5
 11
-175.057946378436
 21
-58.13779534208156
 31
0.0
  0
ENDBLK
  5
4E
  8
0
  0
BLOCK
  8
0
  2
DA_IMAGEDIMGROUP_2
 70
     0
 10
0.0
 20
0.0
 30
0.0
  3
DA_IMAGEDIMGROUP_2
  1

  0
LINE
  5
CA
  8
LAYER0014
  6
CONTINUOUS
 62
     7
 10
-174.2051893960141
 20
16.32729138166891
 30
0.0
 11
-203.6495491372251
 21
16.32729138166891
 31
0.0
  0
LINE
  5
CB
  8
LAYER0014
  6
CONTINUOUS
 62
     7
 10
-173.8718611489438
 20
73.32729138166891
 30
0.0
 11
-203.4814735757016
 21
73.32729138166891
 31
0.0
  0
LINE
  5
CC
  8
LAYER0014
  6
CONTINUOUS
 62
     7
 10
-201.3635536538266
 20
16.32729138166891
 30
0.0
 11
-201.3635536538266
 21
73.32729138166891
 31
0.0
  0
INSERT
  5
CD
  8
LAYER0014
 62
     7
  2
_OPEN30
 10
-201.3635536538266
 20
16.32729138166891
 30
0.0
 41
1.999998407630662
 42
2.000005728319971
 50
270.0
  0
INSERT
  5
CE
  8
LAYER0014
 62
     7
  2
_OPEN30
 10
-201.3635536538266
 20
73.32729138166891
 30
0.0
 41
1.999998407630662
 42
2.000005728319971
 50
90.0
  0
TEXT
  5
CF
  8
LAYER0014
 62
     7
 10
-202.371931229983
 20
40.02729869248513
 30
0.0
 40
4.0
  1
φ57
 50
89.90000000000001
 41
0.7500000000000018
  7
FDASTYLE1
 72
     5
 11
-202.3551760776703
 21
49.62728407085271
 31
0.0
  0
ENDBLK
  5
51
  8
0
  0
BLOCK
  8
0
  2
DA_IMAGEDIMGROUP_3
 70
     0
 10
0.0
 20
0.0
 30
0.0
  3
DA_IMAGEDIMGROUP_3
  1

  0
LINE
  5
D0
  8
LAYER0014
  6
CONTINUOUS
 62
     7
 10
-150.5385329018735
 20
119.8272913816689
 30
0.0
 11
-228.9238869057798
 21
119.8272913816689
 31
0.0
  0
LINE
  5
D1
  8
LAYER0014
  6
CONTINUOUS
 62
     7
 10
-150.5385329018735
 20
-30.17270861833109
 30
0.0
 11
-228.9238869057798
 21
-30.17270861833109
 31
0.0
  0
LINE
  5
D2
  8
LAYER0014
  6
CONTINUOUS
 62
     7
 10
-226.6378761635923
 20
119.8272913816689
 30
0.0
 11
-226.6378761635923
 21
-30.17270861833109
 31
0.0
  0
INSERT
  5
D3
  8
LAYER0014
 62
     7
  2
_OPEN30
 10
-226.6378761635923
 20
119.8272913816689
 30
0.0
 41
1.999998407630662
 42
2.000005728319971
 50
90.0
  0
INSERT
  5
D4
  8
LAYER0014
 62
     7
  2
_OPEN30
 10
-226.6378761635923
 20
-30.17270861833109
 30
0.0
 41
1.999998407630662
 42
2.000005728319971
 50
270.0
  0
TEXT
  5
D5
  8
LAYER0014
 62
     7
 10
-227.6546313159049
 20
35.22730600330136
 30
0.0
 40
4.0
  1
φ150H7
 50
89.90000000000001
 41
0.7741935483870963
  7
FDASTYLE1
 72
     5
 11
-227.6211210112797
 21
54.42727676003647
 31
0.0
  0
ENDBLK
  5
54
  8
0
  0
BLOCK
  8
0
  2
DA_IMAGEDIMGROUP_4
 70
     0
 10
0.0
 20
0.0
 30
0.0
  3
DA_IMAGEDIMGROUP_4
  1

  0
LINE
  5
D6
  8
LAYER0014
  6
CONTINUOUS
 62
     7
 10
-150.2051893960141
 20
-37.67270861833109
 30
0.0
 11
-242.0291115151548
 21
-37.67270861833109
 31
0.0
  0
LINE
  5
D7
  8
LAYER0014
  6
CONTINUOUS
 62
     7
 10
-150.5385329018735
 20
127.3272913816689
 30
0.0
 11
-242.0291115151548
 21
127.3272913816689
 31
0.0
  0
LINE
  5
D8
  8
LAYER0014
  6
CONTINUOUS
 62
     7
 10
-239.7431007729673
 20
-37.67270861833109
 30
0.0
 11
-239.7431007729673
 21
127.3272913816689
 31
0.0
  0
INSERT
  5
D9
  8
LAYER0014
 62
     7
  2
_OPEN30
 10
-239.7431007729673
 20
-37.67270861833109
 30
0.0
 41
1.999998407630662
 42
2.000005728319971
 50
270.0
  0
INSERT
  5
DA
  8
LAYER0014
 62
     7
  2
_OPEN30
 10
-239.7431007729673
 20
127.3272913816689
 30
0.0
 41
1.999998407630662
 42
2.000005728319971
 50
90.0
  0
TEXT
  5
DB
  8
LAYER0014
 62
     7
 10
-240.754270874509
 20
38.42730112942387
 30
0.0
 40
4.0
  1
φ165
 50
89.90000000000001
 41
0.7619047619047625
  7
FDASTYLE1
 72
     5
 11
-240.7319306714255
 21
51.22728163391396
 31
0.0
  0
ENDBLK
  5
57
  8
0
  0
BLOCK
  8
0
  2
DA_IMAGEDIMGROUP_5
 70
     0
 10
0.0
 20
0.0
 30
0.0
  3
DA_IMAGEDIMGROUP_5
  1

  0
LINE
  5
DC
  8
LAYER0014
  6
CONTINUOUS
 62
     7
 10
-83.0570131264829
 20
67.82729138166891
 30
0.0
 11
-51.60264361964696
 21
67.82729138166891
 31
0.0
  0
LINE
  5
DD
  8
LAYER0014
  6
CONTINUOUS
 62
     7
 10
-83.33171710597509
 20
21.82729138166891
 30
0.0
 11
-51.60264361964696
 21
21.82729138166891
 31
0.0
  0
LINE
  5
DE
  8
LAYER0014
  6
CONTINUOUS
 62
     7
 10
-53.88863910304539
 20
67.82729138166891
 30
0.0
 11
-53.88863910304539
 21
21.82729138166891
 31
0.0
  0
INSERT
  5
DF
  8
LAYER0014
 62
     7
  2
_OPEN30
 10
-53.88863910304539
 20
67.82729138166891
 30
0.0
 41
1.999998407630662
 42
2.000005728319971
 50
90.0
  0
INSERT
  5
E0
  8
LAYER0014
 62
     7
  2
_OPEN30
 10
-53.88863910304539
 20
21.82729138166891
 30
0.0
 41
1.999998407630662
 42
2.000005728319971
 50
270.0
  0
TEXT
  5
E1
  8
LAYER0014
 62
     7
 10
-54.89701667920171
 20
36.44729869248513
 30
0.0
 40
4.0
  1
φ46
 50
89.90000000000001
 41
0.749999999999999
  7
FDASTYLE1
 72
     5
 11
-54.88026152688908
 21
46.04728407085268
 31
0.0
  0
TEXT
  5
E2
  8
LAYER0014
 62
     7
 10
-57.07956004475195
 20
46.45112318402299
 30
0.0
 40
2.2
  1
+0.3
 50
89.90000000000001
 41
0.7000000000000006
  7
FDASTYLE1
 72
     5
 11
-57.06880882201802
 21
52.61111380180885
 31
0.0
  0
TEXT
  5
E3
  8
LAYER0014
 62
     7
 10
-54.67956370016006
 20
46.44693439594484
 30
0.0
 40
2.2
  1
　0
 50
89.90000000000001
 41
0.6363636363636364
  7
FDASTYLE1
 72
     5
 11
-54.6741880887931
 21
49.52692970483776
 31
0.0
  0
ENDBLK
  5
5A
  8
0
  0
BLOCK
  8
0
  2
DA_IMAGEDIMGROUP_6
 70
     0
 10
0.0
 20
0.0
 30
0.0
  3
DA_IMAGEDIMGROUP_6
  1

  0
LINE
  5
E4
  8
LAYER0014
  6
CONTINUOUS
 62
     7
 10
-73.62610628748791
 20
11.32729138166891
 30
0.0
 11
-38.96546710597508
 21
11.32729138166891
 31
0.0
  0
LINE
  5
E5
  8
LAYER0014
  6
CONTINUOUS
 62
     7
 10
-41.25147021876805
 20
11.32729138166891
 30
0.0
 11
-41.25147021876805
 21
70.32729138166891
 31
0.0
  0
INSERT
  5
E6
  8
LAYER0014
 62
     7
  2
_OPEN30
 10
-41.25147021876805
 20
11.32729138166891
 30
0.0
 41
1.999998407630662
 42
2.000005728319971
 50
270.0
  0
TEXT
  5
E7
  8
LAYER0014
 62
     7
 10
-42.8654304087565
 20
35.08009609174805
 30
0.0
 40
4.0
  1
PCD67
 50
89.90000000000001
 41
0.8000000000000004
  7
FDASTYLE1
 72
     5
 11
-42.83750515490213
 21
51.08007172236066
 31
0.0
  0
ENDBLK
  5
5D
  8
0
  0
BLOCK
  8
0
  2
DA_IMAGEDIMGROUP_7
 70
     0
 10
0.0
 20
0.0
 30
0.0
  3
DA_IMAGEDIMGROUP_7
  1

  0
LINE
  5
E8
  8
LAYER0014
  6
CONTINUOUS
 62
     7
 10
-75.09040698634618
 20
3.827291381668914
 30
0.0
 11
-27.54880202876561
 21
3.827291381668914
 31
0.0
  0
LINE
  5
E9
  8
LAYER0014
  6
CONTINUOUS
 62
     7
 10
-29.83480228053563
 20
3.827291381668914
 30
0.0
 11
-29.83480228053563
 21
70.32729138166891
 31
0.0
  0
INSERT
  5
EA
  8
LAYER0014
 62
     7
  2
_OPEN30
 10
-29.83480228053563
 20
3.827291381668914
 30
0.0
 41
1.999998407630662
 42
2.000005728319971
 50
270.0
  0
TEXT
  5
EB
  8
LAYER0014
 62
     7
 10
-31.43480228053563
 20
39.8864565733193
 30
0.0
 40
4.0
  1
φ82
 50
90.0
 41
0.7500000000000001
  7
FDASTYLE1
 72
     5
 11
-31.43480228053563
 21
49.4864565733193
 31
0.0
  0
ENDBLK
  5
60
  8
0
  0
BLOCK
  8
0
  2
DA_IMAGEDIMGROUP_8
 70
     0
 10
0.0
 20
0.0
 30
0.0
  3
DA_IMAGEDIMGROUP_8
  1

  0
LINE
  5
EC
  8
LAYER0014
  6
CONTINUOUS
 62
     7
 10
-172.126096378436
 20
31.40191448957907
 30
0.0
 11
-156.126096378436
 21
31.40191448957907
 31
0.0
  0
INSERT
  5
ED
  8
LAYER0014
 62
     7
  2
_OPEN30
 10
-172.126096378436
 20
31.40191448957907
 30
0.0
 41
1.999998407630662
 42
2.000005728319971
 50
180.0
  0
INSERT
  5
EE
  8
LAYER0014
 62
     7
  2
_OPEN30
 10
-156.126096378436
 20
31.40191448957907
 30
0.0
 41
1.999998407630662
 42
2.000005728319971
 50
360.0
  0
TEXT
  5
EF
  8
LAYER0014
 62
     7
 10
-167.326096378436
 20
32.40191448957907
 30
0.0
 40
4.0
  1
16
 41
0.7999999999999972
  7
FDASTYLE1
 72
     5
 11
-160.926096378436
 21
32.40191448957907
 31
0.0
  0
ENDBLK
  5
63
  8
0
  0
BLOCK
  8
0
  2
DA_IMAGEDIMGROUP_9
 70
     0
 10
0.0
 20
0.0
 30
0.0
  3
DA_IMAGEDIMGROUP_9
  1

  0
LINE
  5
F0
  8
LAYER0014
  6
CONTINUOUS
 62
     7
 10
-156.126096378436
 20
31.40191448957907
 30
0.0
 11
-152.126096378436
 21
31.40191448957907
 31
0.0
  0
TEXT
  5
F1
  8
LAYER0014
 62
     7
 10
-155.726096378436
 20
32.40191448957907
 30
0.0
 40
4.0
  1
4
 41
0.7999999999999972
  7
FDASTYLE1
 72
     5
 11
-152.526096378436
 21
32.40191448957907
 31
0.0
  0
ENDBLK
  5
66
  8
0
  0
BLOCK
  8
0
  2
DA_IMAGEDIMGROUP_10
 70
     0
 10
0.0
 20
0.0
 30
0.0
  3
DA_IMAGEDIMGROUP_10
  1

  0
LINE
  5
F2
  8
LAYER0014
  6
CONTINUOUS
 62
     7
 10
-152.126096378436
 20
31.40191448957907
 30
0.0
 11
-127.126096378436
 21
31.40191448957907
 31
0.0
  0
INSERT
  5
F3
  8
LAYER0014
 62
     7
  2
_OPEN30
 10
-152.126096378436
 20
31.40191448957907
 30
0.0
 41
1.999998407630662
 42
2.000005728319971
 50
180.0
  0
INSERT
  5
F4
  8
LAYER0014
 62
     7
  2
_OPEN30
 10
-127.126096378436
 20
31.40191448957907
 30
0.0
 41
1.999998407630662
 42
2.000005728319971
 50
360.0
  0
TEXT
  5
F5
  8
LAYER0014
 62
     7
 10
-142.826096378436
 20
32.40191448957907
 30
0.0
 40
4.0
  1
25
 41
0.7999999999999972
  7
FDASTYLE1
 72
     5
 11
-136.426096378436
 21
32.40191448957907
 31
0.0
  0
ENDBLK
  5
69
  8
0
  0
BLOCK
  8
0
  2
DA_IMAGEDIMGROUP_11
 70
     0
 10
0.0
 20
0.0
 30
0.0
  3
DA_IMAGEDIMGROUP_11
  1

  0
LINE
  5
F6
  8
LAYER0014
  6
CONTINUOUS
 62
     7
 10
-127.126096378436
 20
31.40191448957907
 30
0.0
 11
-85.62609637843602
 21
31.40191448957907
 31
0.0
  0
INSERT
  5
F7
  8
LAYER0014
 62
     7
  2
_OPEN30
 10
-127.126096378436
 20
31.40191448957907
 30
0.0
 41
1.999998407630662
 42
2.000005728319971
 50
180.0
  0
INSERT
  5
F8
  8
LAYER0014
 62
     7
  2
_OPEN30
 10
-85.62609637843602
 20
31.40191448957907
 30
0.0
 41
1.999998407630662
 42
2.000005728319971
 50
360.0
  0
TEXT
  5
F9
  8
LAYER0014
 62
     7
 10
-112.776096378436
 20
32.40191448957907
 30
0.0
 40
4.0
  1
41.5
 41
0.8000000000000007
  7
FDASTYLE1
 72
     5
 11
-99.97609637843601
 21
32.40191448957907
 31
0.0
  0
ENDBLK
  5
6C
  8
0
  0
BLOCK
  8
0
  2
DA_IMAGEDIMGROUP_12
 70
     0
 10
0.0
 20
0.0
 30
0.0
  3
DA_IMAGEDIMGROUP_12
  1

  0
LINE
  5
FA
  8
LAYER0014
  6
CONTINUOUS
 62
     7
 10
-85.62609637843602
 20
31.40191448957907
 30
0.0
 11
-77.67609943019383
 21
31.40191448957907
 31
0.0
  0
LINE
  5
FB
  8
LAYER0014
  6
CONTINUOUS
 62
     7
 10
-72.67609943019383
 20
31.40191448957907
 30
0.0
 11
-77.67609943019383
 21
31.40191448957907
 31
0.0
  0
INSERT
  5
FC
  8
LAYER0014
 62
     7
  2
_OPEN30
 10
-77.67609943019383
 20
31.40191448957907
 30
0.0
 41
1.999998407630662
 42
2.000005728319971
 50
180.0
  0
LINE
  5
FD
  8
LAYER0014
  6
CONTINUOUS
 62
     7
 10
-90.62609637843602
 20
31.40191448957907
 30
0.0
 11
-85.62609637843602
 21
31.40191448957907
 31
0.0
  0
INSERT
  5
FE
  8
LAYER0014
 62
     7
  2
_OPEN30
 10
-85.62609637843602
 20
31.40191448957907
 30
0.0
 41
1.999998407630662
 42
2.000005728319971
 50
360.0
  0
TEXT
  5
FF
  8
LAYER0014
 62
     7
 10
-83.25109790431492
 20
32.40191448957907
 30
0.0
 40
4.0
  1
8
 41
0.7999999999999972
  7
FDASTYLE1
 72
     5
 11
-80.05109790431493
 21
32.40191448957907
 31
0.0
  0
ENDBLK
  5
6F
  8
0
  0
BLOCK
  8
0
  2
DA_IMAGEDIMGROUP_13
 70
     0
 10
0.0
 20
0.0
 30
0.0
  3
DA_IMAGEDIMGROUP_13
  1

  0
LINE
  5
100
  8
LAYER0014
  6
CONTINUOUS
 62
     7
 10
-26.80001697169774
 20
44.82729138166891
 30
0.0
 11
-15.30665744410985
 21
44.82729138166891
 31
0.0
  0
LINE
  5
101
  8
LAYER0014
  6
CONTINUOUS
 62
     7
 10
-72.89272174464696
 20
79.32729138166891
 30
0.0
 11
-15.30665744410985
 21
79.32729138166891
 31
0.0
  0
LINE
  5
102
  8
LAYER0014
  6
CONTINUOUS
 62
     7
 10
-17.59265674220555
 20
44.82729138166891
 30
0.0
 11
-17.59265674220555
 21
79.32729138166891
 31
0.0
  0
INSERT
  5
103
  8
LAYER0014
 62
     7
  2
_OPEN30
 10
-17.59265674220555
 20
44.82729138166891
 30
0.0
 41
1.999998407630662
 42
2.000005728319971
 50
270.0
  0
INSERT
  5
104
  8
LAYER0014
 62
     7
  2
_OPEN30
 10
-17.59265674220555
 20
79.32729138166891
 30
0.0
 41
1.999998407630662
 42
2.000005728319971
 50
90.0
  0
TEXT
  5
105
  8
LAYER0014
 62
     7
 10
-18.61499694528905
 20
49.27731087717883
 30
0.0
 40
4.0
  1
MAX35.75
 50
89.90000000000001
 41
0.7999999999999998
  7
FDASTYLE1
 72
     5
 11
-18.57031653912205
 21
74.87727188615899
 31
0.0
  0
ENDBLK
  5
72
  8
0
  0
BLOCK
  8
0
  2
DA_IMAGEDIMGROUP_14
 70
     0
 10
0.0
 20
0.0
 30
0.0
  3
DA_IMAGEDIMGROUP_14
  1

  0
LINE
  5
106
  8
LAYER0014
  6
CONTINUOUS
 62
     7
 10
-73.16743335353368
 20
127.3272913816689
 30
0.0
 11
-15.30665744410985
 21
127.3272913816689
 31
0.0
  0
LINE
  5
107
  8
LAYER0014
  6
CONTINUOUS
 62
     7
 10
-17.59265674220555
 20
79.32729138166891
 30
0.0
 11
-17.59265674220555
 21
127.3272913816689
 31
0.0
  0
INSERT
  5
108
  8
LAYER0014
 62
     7
  2
_OPEN30
 10
-17.59265674220555
 20
79.32729138166891
 30
0.0
 41
1.999998407630662
 42
2.000005728319971
 50
270.0
  0
INSERT
  5
109
  8
LAYER0014
 62
     7
  2
_OPEN30
 10
-17.59265674220555
 20
127.3272913816689
 30
0.0
 41
1.999998407630662
 42
2.000005728319971
 50
90.0
  0
TEXT
  5
10A
  8
LAYER0014
 62
     7
 10
-18.59824179297642
 20
100.1272962555464
 30
0.0
 40
4.0
  1
48
 50
89.90000000000001
 41
0.8000000000000007
  7
FDASTYLE1
 72
     5
 11
-18.58707169143467
 21
106.5272865077914
 31
0.0
  0
ENDBLK
  5
75
  8
0
  0
BLOCK
  8
0
  2
DA_IMAGEDIMGROUP_15
 70
     0
 10
0.0
 20
0.0
 30
0.0
  3
DA_IMAGEDIMGROUP_15
  1

  0
LINE
  5
10B
  8
LAYER0014
  6
CONTINUOUS
 62
     7
 10
21.45092873938822
 20
-1.52550177775907
 30
0.0
 11
16.36678327779006
 21
7.280500153295378
 31
0.0
  0
LINE
  5
10C
  8
LAYER0014
  6
CONTINUOUS
 62
     7
 10
17.50978074731737
 20
5.300754377372499
 30
0.0
 11
15.77773303604229
 21
4.300756582743787
 31
0.0
  0
LINE
  5
10D
  8
LAYER0014
  6
CONTINUOUS
 62
     7
 10
17.50978074731737
 20
5.300754377372499
 30
0.0
 11
23.00904263564459
 21
8.475753382662369
 31
0.0
  0
INSERT
  5
10E
  8
LAYER0014
 62
     7
  2
_OPEN30
 10
17.50978074731737
 20
5.300754377372499
 30
0.0
 41
1.999998407630662
 42
2.000005728319971
 50
209.999989636301
  0
LINE
  5
10F
  8
LAYER0014
  6
CONTINUOUS
 62
     7
 10
10.27847114771507
 20
1.125757577453918
 30
0.0
 11
15.77773303604229
 21
4.300756582743787
 31
0.0
  0
INSERT
  5
110
  8
LAYER0014
 62
     7
  2
_OPEN30
 10
15.77773303604229
 20
4.300756582743787
 30
0.0
 41
1.999998407630662
 42
2.000005728319971
 50
29.99998963630094
  0
TEXT
  5
111
  8
LAYER0014
 62
     7
 10
20.13122874727807
 20
8.664996757663459
 30
0.0
 40
4.0
  1
2
 50
29.9
 41
0.8000000000000012
  7
FDASTYLE1
 72
     5
 11
22.90529834387201
 21
10.26015752487572
 31
0.0
  0
ENDBLK
  5
78
  8
0
  0
BLOCK
  8
0
  2
DA_IMAGEDIMGROUP_16
 70
     0
 10
0.0
 20
0.0
 30
0.0
  3
DA_IMAGEDIMGROUP_16
  1

  0
LINE
  5
112
  8
LAYER0014
  6
CONTINUOUS
 62
     7
 10
-156.0426375161313
 20
81.82729138166891
 30
0.0
 11
-216.5579353676938
 21
81.82729138166891
 31
0.0
  0
LINE
  5
113
  8
LAYER0014
  6
CONTINUOUS
 62
     7
 10
-149.8718611489438
 20
7.827291381668914
 30
0.0
 11
-216.5579353676938
 21
7.827291381668914
 31
0.0
  0
LINE
  5
114
  8
LAYER0014
  6
CONTINUOUS
 62
     7
 10
-214.2719398842954
 20
81.82729138166891
 30
0.0
 11
-214.2719398842954
 21
7.827291381668914
 31
0.0
  0
INSERT
  5
115
  8
LAYER0014
 62
     7
  2
_OPEN30
 10
-214.2719398842954
 20
81.82729138166891
 30
0.0
 41
1.999998407630662
 42
2.000005728319971
 50
90.0
  0
INSERT
  5
116
  8
LAYER0014
 62
     7
  2
_OPEN30
 10
-214.2719398842954
 20
7.827291381668914
 30
0.0
 41
1.999998407630662
 42
2.000005728319971
 50
270.0
  0
TEXT
  5
117
  8
LAYER0014
 62
     7
 10
-215.2803174604517
 20
40.02729869248513
 30
0.0
 40
4.0
  1
φ74
 50
89.90000000000001
 41
0.7500000000000018
  7
FDASTYLE1
 72
     5
 11
-215.2635623081391
 21
49.62728407085271
 31
0.0
  0
ENDBLK
  5
7B
  8
0
  0
BLOCK
  8
0
  2
DA_IMAGEDIMGROUP_17
 70
     0
 10
0.0
 20
0.0
 30
0.0
  3
DA_IMAGEDIMGROUP_17
  1

  0
LINE
  5
118
  8
LAYER0014
  6
CONTINUOUS
 62
     7
 10
-174.2051893960141
 20
70.82729138166891
 30
0.0
 11
-191.5592781411313
 21
70.82729138166891
 31
0.0
  0
LINE
  5
119
  8
LAYER0014
  6
CONTINUOUS
 62
     7
 10
-174.5385329018735
 20
18.82729138166891
 30
0.0
 11
-191.5592781411313
 21
18.82729138166891
 31
0.0
  0
LINE
  5
11A
  8
LAYER0014
  6
CONTINUOUS
 62
     7
 10
-189.2732826577329
 20
70.82729138166891
 30
0.0
 11
-189.2732826577329
 21
18.82729138166891
 31
0.0
  0
INSERT
  5
11B
  8
LAYER0014
 62
     7
  2
_OPEN30
 10
-189.2732826577329
 20
70.82729138166891
 30
0.0
 41
1.999998407630662
 42
2.000005728319971
 50
90.0
  0
INSERT
  5
11C
  8
LAYER0014
 62
     7
  2
_OPEN30
 10
-189.2732826577329
 20
18.82729138166891
 30
0.0
 41
1.999998407630662
 42
2.000005728319971
 50
270.0
  0
TEXT
  5
11D
  8
LAYER0014
 62
     7
 10
-190.2956228608164
 20
32.02731087717882
 30
0.0
 40
4.0
  1
M52×P1.5
 50
89.90000000000001
 41
0.7804878048780496
  7
FDASTYLE1
 72
     5
 11
-190.2509424546494
 21
57.62727188615901
 31
0.0
  0
ENDBLK
  5
7E
  8
0
  0
BLOCK
  8
0
  2
DA_IMAGEDIMGROUP_18
 70
     0
 10
0.0
 20
0.0
 30
0.0
  3
DA_IMAGEDIMGROUP_18
  1

  0
LINE
  5
11E
  8
LAYER0014
  6
CONTINUOUS
 62
     7
 10
-147.6760994301938
 20
-71.05918382282557
 30
0.0
 11
-143.4761024819516
 21
-71.05918382282557
 31
0.0
  0
LINE
  5
11F
  8
LAYER0014
  6
CONTINUOUS
 62
     7
 10
-147.6760994301938
 20
-40.21270861833109
 30
0.0
 11
-147.6760994301938
 21
-72.05918382282557
 31
0.0
  0
LINE
  5
120
  8
LAYER0014
  6
CONTINUOUS
 62
     7
 10
-143.4761024819516
 20
-32.71270861833109
 30
0.0
 11
-143.4761024819516
 21
-72.05918382282557
 31
0.0
  0
LINE
  5
121
  8
LAYER0014
  6
CONTINUOUS
 62
     7
 10
-160.0811596659775
 20
-71.05918382282557
 30
0.0
 11
-147.6760994301938
 21
-71.05918382282557
 31
0.0
  0
INSERT
  5
122
  8
LAYER0014
 62
     7
  2
_OPEN30
 10
-147.6760994301938
 20
-71.05918382282557
 30
0.0
 41
1.999998407630662
 42
2.000005728319971
 50
360.0
  0
LINE
  5
123
  8
LAYER0014
  6
CONTINUOUS
 62
     7
 10
-138.4761024819516
 20
-71.05918382282557
 30
0.0
 11
-143.4761024819516
 21
-71.05918382282557
 31
0.0
  0
INSERT
  5
124
  8
LAYER0014
 62
     7
  2
_OPEN30
 10
-143.4761024819516
 20
-71.05918382282557
 30
0.0
 41
1.999998407630662
 42
2.000005728319971
 50
180.0
  0
TEXT
  5
125
  8
LAYER0014
 62
     7
 10
-160.2811450443451
 20
-70.04242867051295
 30
0.0
 40
4.0
  1
4.2
 50
-0.1000000000000078
 41
0.8000000000000002
  7
FDASTYLE1
 72
     5
 11
-150.6811596659775
 21
-70.05918382282557
 31
0.0
  0
ENDBLK
  5
81
  8
0
  0
BLOCK
  8
0
  2
DA_IMAGEDIMGROUP_19
 70
     0
 10
0.0
 20
0.0
 30
0.0
  3
DA_IMAGEDIMGROUP_19
  1

  0
LINE
  5
126
  8
LAYER0014
  6
CONTINUOUS
 62
     7
 10
-143.4761024819516
 20
-71.05918382282557
 30
0.0
 11
-77.67609943019383
 21
-71.05918382282557
 31
0.0
  0
INSERT
  5
127
  8
LAYER0014
 62
     7
  2
_OPEN30
 10
-143.4761024819516
 20
-71.05918382282557
 30
0.0
 41
1.999998407630662
 42
2.000005728319971
 50
180.0
  0
INSERT
  5
128
  8
LAYER0014
 62
     7
  2
_OPEN30
 10
-77.67609943019383
 20
-71.05918382282557
 30
0.0
 41
1.999998407630662
 42
2.000005728319971
 50
360.0
  0
LINE
  5
129
  8
LAYER0014
  6
CONTINUOUS
 62
     7
 10
-143.4761024819516
 20
-32.71270861833109
 30
0.0
 11
-143.4761024819516
 21
-72.05918382282557
 31
0.0
  0
LINE
  5
12A
  8
LAYER0014
  6
CONTINUOUS
 62
     7
 10
-77.67609943019383
 20
-38.71270861833109
 30
0.0
 11
-77.67609943019383
 21
-72.05918382282557
 31
0.0
  0
TEXT
  5
12B
  8
LAYER0014
 62
     7
 10
-116.9761009560727
 20
-70.05918382282557
 30
0.0
 40
4.0
  1
65.8
 41
0.8000000000000007
  7
FDASTYLE1
 72
     5
 11
-104.1761009560727
 21
-70.05918382282557
 31
0.0
  0
ENDBLK
  5
84
  8
0
  0
BLOCK
  8
0
  2
DA_IMAGEDIMGROUP_20
 70
     0
 10
0.0
 20
0.0
 30
0.0
  3
DA_IMAGEDIMGROUP_20
  1

  0
LINE
  5
12C
  8
LAYER0014
  6
CONTINUOUS
 62
     7
 10
-147.6760994301938
 20
-81.33186964133903
 30
0.0
 11
-77.67609943019383
 21
-81.33186964133903
 31
0.0
  0
INSERT
  5
12D
  8
LAYER0014
 62
     7
  2
_OPEN30
 10
-147.6760994301938
 20
-81.33186964133903
 30
0.0
 41
1.999998407630662
 42
2.000005728319971
 50
180.0
  0
INSERT
  5
12E
  8
LAYER0014
 62
     7
  2
_OPEN30
 10
-77.67609943019383
 20
-81.33186964133903
 30
0.0
 41
1.999998407630662
 42
2.000005728319971
 50
360.0
  0
LINE
  5
12F
  8
LAYER0014
  6
CONTINUOUS
 62
     7
 10
-147.6760994301938
 20
-63.26878466813578
 30
0.0
 11
-147.6760994301938
 21
-82.33186964133903
 31
0.0
  0
LINE
  5
130
  8
LAYER0014
  6
CONTINUOUS
 62
     7
 10
-77.67609943019383
 20
-38.71270861833109
 30
0.0
 11
-77.67609943019383
 21
-82.33186964133903
 31
0.0
  0
TEXT
  5
131
  8
LAYER0014
 62
     7
 10
-115.8760994301938
 20
-80.33186964133903
 30
0.0
 40
4.0
  1
70
 41
0.8000000000000007
  7
FDASTYLE1
 72
     5
 11
-109.4760994301938
 21
-80.33186964133903
 31
0.0
  0
ENDBLK
  5
87
  8
0
  0
BLOCK
  8
0
  2
DA_IMAGEDIMGROUP_21
 70
     0
 10
0.0
 20
0.0
 30
0.0
  3
DA_IMAGEDIMGROUP_21
  1

  0
LINE
  5
132
  8
LAYER0014
  6
CONTINUOUS
 62
     7
 10
-147.126096378436
 20
83.36729901106345
 30
0.0
 11
-147.126096378436
 21
96.14563549787985
 31
0.0
  0
LINE
  5
133
  8
LAYER0014
  6
CONTINUOUS
 62
     7
 10
-172.126096378436
 20
74.86729138166892
 30
0.0
 11
-172.126096378436
 21
96.14563549787985
 31
0.0
  0
LINE
  5
134
  8
LAYER0014
  6
CONTINUOUS
 62
     7
 10
-147.126096378436
 20
93.85963238508688
 30
0.0
 11
-172.126096378436
 21
93.85963238508688
 31
0.0
  0
INSERT
  5
135
  8
LAYER0014
 62
     7
  2
_OPEN30
 10
-147.126096378436
 20
93.85963238508688
 30
0.0
 41
1.999998407630662
 42
2.000005728319971
 50
360.0
  0
INSERT
  5
136
  8
LAYER0014
 62
     7
  2
_OPEN30
 10
-172.126096378436
 20
93.85963238508688
 30
0.0
 41
1.999998407630662
 42
2.000005728319971
 50
180.0
  0
TEXT
  5
137
  8
LAYER0014
 62
     7
 10
-162.826096378436
 20
94.85963238508688
 30
0.0
 40
4.0
  1
25
 41
0.7999999999999972
  7
FDASTYLE1
 72
     5
 11
-156.426096378436
 21
94.85963238508688
 31
0.0
  0
ENDBLK
  5
8A
  8
0
  0
BLOCK
  8
0
  2
DA_IMAGEDIMGROUP_22
 70
     0
 10
0.0
 20
0.0
 30
0.0
  3
DA_IMAGEDIMGROUP_22
  1

  0
LINE
  5
138
  8
LAYER0014
  6
CONTINUOUS
 62
     7
 10
-158.6760994301938
 20
-24.8902955252236
 30
0.0
 11
-143.4761024819516
 21
-24.8902955252236
 31
0.0
  0
INSERT
  5
139
  8
LAYER0014
 62
     7
  2
_OPEN30
 10
-158.6760994301938
 20
-24.8902955252236
 30
0.0
 41
1.999998407630662
 42
2.000005728319971
 50
180.0
  0
INSERT
  5
13A
  8
LAYER0014
 62
     7
  2
_OPEN30
 10
-143.4761024819516
 20
-24.8902955252236
 30
0.0
 41
1.999998407630662
 42
2.000005728319971
 50
360.0
  0
LINE
  5
13B
  8
LAYER0014
  6
CONTINUOUS
 62
     7
 10
-158.6760994301938
 20
-15.09770693986429
 30
0.0
 11
-158.6760994301938
 21
-25.8902955252236
 31
0.0
  0
TEXT
  5
13C
  8
LAYER0014
 62
     7
 10
-157.4761009560727
 20
-23.8902955252236
 30
0.0
 40
4.0
  1
15.2
 41
0.8000000000000007
  7
FDASTYLE1
 72
     5
 11
-144.6761009560727
 21
-23.8902955252236
 31
0.0
  0
ENDBLK
  5
8D
  8
0
  0
BLOCK
  8
0
  2
DA_IMAGEDIMGROUP_23
 70
     0
 10
0.0
 20
0.0
 30
0.0
  3
DA_IMAGEDIMGROUP_23
  1

  0
LINE
  5
13D
  8
LAYER0014
  6
CONTINUOUS
 62
     7
 10
-161.2160994301938
 20
-2.557706939864289
 30
0.0
 11
-191.5054146157407
 21
-2.557706939864289
 31
0.0
  0
LINE
  5
13E
  8
LAYER0014
  6
CONTINUOUS
 62
     7
 10
-161.2160994301938
 20
-12.55770693986429
 30
0.0
 11
-191.5054146157407
 21
-12.55770693986429
 31
0.0
  0
LINE
  5
13F
  8
LAYER0014
  6
CONTINUOUS
 62
     7
 10
-189.2194191323423
 20
-2.557706939864289
 30
0.0
 11
-189.2194191323423
 21
-12.55770693986429
 31
0.0
  0
INSERT
  5
140
  8
LAYER0014
 62
     7
  2
_OPEN30
 10
-189.2194191323423
 20
-2.557706939864289
 30
0.0
 41
1.999998407630662
 42
2.000005728319971
 50
90.0
  0
INSERT
  5
141
  8
LAYER0014
 62
     7
  2
_OPEN30
 10
-189.2194191323423
 20
-12.55770693986429
 30
0.0
 41
1.999998407630662
 42
2.000005728319971
 50
270.0
  0
TEXT
  5
142
  8
LAYER0014
 62
     7
 10
-190.8277942715598
 20
-12.35490710366264
 30
0.0
 40
4.0
  1
M10
 50
89.90000000000001
 41
0.8000000000000017
  7
FDASTYLE1
 72
     5
 11
-190.8110391192472
 21
-2.754921725295059
 31
0.0
  0
ENDBLK
  5
90
  8
0
  0
BLOCK
  8
0
  2
DC_GROUP_1
 70
     0
 10
0.0
 20
0.0
 30
0.0
  3
DC_GROUP_1
  1

  0
LINE
  5
143
  8
LAYER0014
  6
CONTINUOUS
 62
     7
 10
-76.58813250377247
 20
124.9019222720131
 30
0.0
 11
-55.43542554865493
 21
148.2522987503006
 31
0.0
  0
INSERT
  5
144
  8
LAYER0014
 62
     7
  2
_OPEN30
 10
-76.58813250377247
 20
124.9019222720131
 30
0.0
 41
1.999998407630662
 42
2.000005728319971
 50
227.8271070993489
  0
LINE
  5
145
  8
LAYER0014
  6
CONTINUOUS
 62
     7
 10
-55.43542636500828
 20
148.2522944334267
 30
0.0
 11
-8.805755268206525
 21
148.2522944334267
 31
0.0
  0
TEXT
  5
146
  8
LAYER0014
 62
     7
 10
-54.88599933253758
 20
149.8522944334267
 30
0.0
 40
4.0
  1
ｾﾚｰｼｮﾝP1.5山60ﾟ
 41
0.7887323943661972
  7
FDASTYLE1
 72
     5
 11
-10.08599933253758
 21
149.8522944334267
 31
0.0
  0
ENDBLK
  5
93
  8
0
  0
BLOCK
  8
0
  2
DC_GROUP_2
 70
     0
 10
0.0
 20
0.0
 30
0.0
  3
DC_GROUP_2
  1

  0
LINE
  5
147
  8
LAYER0014
  6
CONTINUOUS
 62
     7
 10
-64.22617149070456
 20
117.6606259632489
 30
0.0
 11
-46.36998728167632
 21
138.8133408284601
 31
0.0
  0
INSERT
  5
148
  8
LAYER0014
 62
     7
  2
_OPEN30
 10
-64.22617149070456
 20
117.6606259632489
 30
0.0
 41
1.999998407630662
 42
2.000005728319971
 50
229.8304257536478
  0
LINE
  5
149
  8
LAYER0014
  6
CONTINUOUS
 62
     7
 10
-46.36998332606785
 20
138.8133448484658
 30
0.0
 11
-38.140313755145
 21
138.8133448484658
 31
0.0
  0
TEXT
  5
14A
  8
LAYER0014
 62
     7
 10
-45.54585231410496
 20
140.4133448484658
 30
0.0
 40
4.0
  1
M8
 41
0.7999999999999998
  7
FDASTYLE1
 72
     5
 11
-39.14585231410496
 21
140.4133448484658
 31
0.0
  0
ENDBLK
  5
96
  8
0
  0
BLOCK
  8
0
  2
DA_IMAGEDIMGROUP_24
 70
     0
 10
0.0
 20
0.0
 30
0.0
  3
DA_IMAGEDIMGROUP_24
  1

  0
LINE
  5
14B
  8
LAYER0014
  6
CONTINUOUS
 62
     7
 10
-51.04781207667821
 20
89.32729138166891
 30
0.0
 11
-27.46623672114842
 21
89.32729138166891
 31
0.0
  0
LINE
  5
14C
  8
LAYER0014
  6
CONTINUOUS
 62
     7
 10
-73.13609943019384
 20
79.32729138166891
 30
0.0
 11
-27.46623672114842
 21
79.32729138166891
 31
0.0
  0
LINE
  5
14D
  8
LAYER0014
  6
CONTINUOUS
 62
     7
 10
-29.75223697291844
 20
89.32729138166891
 30
0.0
 11
-29.75223697291844
 21
79.32729138166891
 31
0.0
  0
INSERT
  5
14E
  8
LAYER0014
 62
     7
  2
_OPEN30
 10
-29.75223697291844
 20
89.32729138166891
 30
0.0
 41
1.999998407630662
 42
2.000005728319971
 50
90.0
  0
INSERT
  5
14F
  8
LAYER0014
 62
     7
  2
_OPEN30
 10
-29.75223697291844
 20
79.32729138166891
 30
0.0
 41
1.999998407630662
 42
2.000005728319971
 50
270.0
  0
TEXT
  5
150
  8
LAYER0014
 62
     7
 10
-30.75782202368931
 20
81.12729625554638
 30
0.0
 40
4.0
  1
10
 50
89.90000000000001
 41
0.8000000000000007
  7
FDASTYLE1
 72
     5
 11
-30.74665192214756
 21
87.52728650779143
 31
0.0
  0
ENDBLK
  5
99
  8
0
  0
BLOCK
  8
0
  2
DA_IMAGEDIMGROUP_25
 70
     0
 10
0.0
 20
0.0
 30
0.0
  3
DA_IMAGEDIMGROUP_25
  1

  0
LINE
  5
151
  8
LAYER0014
  6
CONTINUOUS
 62
     7
 10
-143.4761024819516
 20
122.3672913816689
 30
0.0
 11
-143.4761024819516
 21
142.1430872801064
 31
0.0
  0
LINE
  5
152
  8
LAYER0014
  6
CONTINUOUS
 62
     7
 10
-139.626096378436
 20
83.36729138166892
 30
0.0
 11
-139.626096378436
 21
142.1430872801064
 31
0.0
  0
LINE
  5
153
  8
LAYER0014
  6
CONTINUOUS
 62
     7
 10
-143.4761024819516
 20
141.1430872801064
 30
0.0
 11
-139.626096378436
 21
141.1430872801064
 31
0.0
  0
LINE
  5
154
  8
LAYER0014
  6
CONTINUOUS
 62
     7
 10
-127.294246378436
 20
141.1430872801064
 30
0.0
 11
-139.626096378436
 21
141.1430872801064
 31
0.0
  0
INSERT
  5
155
  8
LAYER0014
 62
     7
  2
_OPEN30
 10
-139.626096378436
 20
141.1430872801064
 30
0.0
 41
1.999998407630662
 42
2.000005728319971
 50
180.0
  0
LINE
  5
156
  8
LAYER0014
  6
CONTINUOUS
 62
     7
 10
-148.4761024819516
 20
141.1430872801064
 30
0.0
 11
-143.4761024819516
 21
141.1430872801064
 31
0.0
  0
INSERT
  5
157
  8
LAYER0014
 62
     7
  2
_OPEN30
 10
-143.4761024819516
 20
141.1430872801064
 30
0.0
 41
1.999998407630662
 42
2.000005728319971
 50
360.0
  0
TEXT
  5
158
  8
LAYER0014
 62
     7
 10
-136.694246378436
 20
142.1430872801064
 30
0.0
 40
4.0
  1
3.8
 41
0.7999999999999995
  7
FDASTYLE1
 72
     5
 11
-127.094246378436
 21
142.1430872801064
 31
0.0
  0
ENDBLK
  5
9C
  8
0
  0
BLOCK
  8
0
  2
DA_IMAGEDIMGROUP_26
 70
     0
 10
0.0
 20
0.0
 30
0.0
  3
DA_IMAGEDIMGROUP_26
  1

  0
LINE
  5
159
  8
LAYER0014
  6
CONTINUOUS
 62
     7
 10
-51.04781207667821
 20
89.32729138166891
 30
0.0
 11
-28.75223697291844
 21
89.32729138166891
 31
0.0
  0
LINE
  5
15A
  8
LAYER0014
  6
CONTINUOUS
 62
     7
 10
-51.04781207667821
 20
114.3272913816689
 30
0.0
 11
-28.75223697291844
 21
114.3272913816689
 31
0.0
  0
LINE
  5
15B
  8
LAYER0014
  6
CONTINUOUS
 62
     7
 10
-29.75223697291844
 20
89.32729138166891
 30
0.0
 11
-29.75223697291844
 21
114.3272913816689
 31
0.0
  0
INSERT
  5
15C
  8
LAYER0014
 62
     7
  2
_OPEN30
 10
-29.75223697291844
 20
89.32729138166891
 30
0.0
 41
1.999998407630662
 42
2.000005728319971
 50
270.0
  0
INSERT
  5
15D
  8
LAYER0014
 62
     7
  2
_OPEN30
 10
-29.75223697291844
 20
114.3272913816689
 30
0.0
 41
1.999998407630662
 42
2.000005728319971
 50
90.0
  0
TEXT
  5
15E
  8
LAYER0014
 62
     7
 10
-30.75223697291844
 20
98.62729138166891
 30
0.0
 40
4.0
  1
25
 50
90.0
 41
0.8000000000000007
  7
FDASTYLE1
 72
     5
 11
-30.75223697291844
 21
105.0272913816689
 31
0.0
  0
ENDBLK
  5
9F
  8
0
  0
BLOCK
  8
0
  2
DA_IMAGEDIMGROUP_27
 70
     0
 10
0.0
 20
0.0
 30
0.0
  3
DA_IMAGEDIMGROUP_27
  1

  0
LINE
  5
15F
  8
LAYER0014
  6
CONTINUOUS
 62
     7
 10
120.8163474692202
 20
129.8672913816689
 30
0.0
 11
120.8163474692202
 21
150.263585937333
 31
0.0
  0
LINE
  5
160
  8
LAYER0014
  6
CONTINUOUS
 62
     7
 10
148.8163474692202
 20
129.8672913816689
 30
0.0
 11
148.8163474692202
 21
150.263585937333
 31
0.0
  0
LINE
  5
161
  8
LAYER0014
  6
CONTINUOUS
 62
     7
 10
120.8163474692202
 20
147.9775904539345
 30
0.0
 11
148.8163474692202
 21
147.9775904539345
 31
0.0
  0
INSERT
  5
162
  8
LAYER0014
 62
     7
  2
_OPEN30
 10
120.8163474692202
 20
147.9775904539345
 30
0.0
 41
1.999998407630662
 42
2.000005728319971
 50
180.0
  0
INSERT
  5
163
  8
LAYER0014
 62
     7
  2
_OPEN30
 10
148.8163474692202
 20
147.9775904539345
 30
0.0
 41
1.999998407630662
 42
2.000005728319971
 50
360.0
  0
TEXT
  5
164
  8
LAYER0014
 62
     7
 10
131.8790783401629
 20
149.5831730677667
 30
0.0
 40
4.0
  1
28
 50
-0.1000000000000078
 41
0.7999999999999954
  7
FDASTYLE1
 72
     5
 11
138.2790685924079
 21
149.5720029662249
 31
0.0
  0
ENDBLK
  5
A2
  8
0
  0
BLOCK
  8
0
  2
DC_GROUP_3
 70
     0
 10
0.0
 20
0.0
 30
0.0
  3
DC_GROUP_3
  1

  0
LINE
  5
165
  8
LAYER0014
  6
CONTINUOUS
 62
     7
 10
129.6621995207994
 20
-14.87243984152488
 30
0.0
 11
104.3639374533775
 21
-55.94105687644131
 31
0.0
  0
INSERT
  5
166
  8
LAYER0014
 62
     7
  2
_OPEN30
 10
129.6621995207994
 20
-14.87243984152488
 30
0.0
 41
1.999998407630662
 42
2.000005728319971
 50
58.36693679084518
  0
LINE
  5
167
  8
LAYER0014
  6
CONTINUOUS
 62
     7
 10
104.3639396323062
 20
-55.94105731217874
 30
0.0
 11
73.73427044285305
 21
-55.94105731217874
 31
0.0
  0
TEXT
  5
168
  8
LAYER0014
 62
     7
 10
74.74257427586086
 20
-54.34105731217875
 30
0.0
 40
4.0
  1
PCD104.77
 41
0.7999999999999999
  7
FDASTYLE1
 72
     5
 11
103.5425742758609
 21
-54.34105731217875
 31
0.0
  0
ENDBLK
  5
A5
  8
0
  0
BLOCK
  8
0
  2
DC_GROUP_4
 70
     0
 10
0.0
 20
0.0
 30
0.0
  3
DC_GROUP_4
  1

  0
LINE
  5
169
  8
LAYER0014
  6
CONTINUOUS
 62
     7
 10
145.5968232147874
 20
9.11163132650276
 30
0.0
 11
182.0657636850648
 21
-55.94106296411761
 31
0.0
  0
INSERT
  5
16A
  8
LAYER0014
 62
     7
  2
_OPEN30
 10
145.5968232147874
 20
9.11163132650276
 30
0.0
 41
1.999998407630662
 42
2.000005728319971
 50
119.2752581588763
  0
LINE
  5
16B
  8
LAYER0014
  6
CONTINUOUS
 62
     7
 10
182.0657676352359
 20
-55.94105349748148
 30
0.0
 11
215.8954337729312
 21
-55.94105349748148
 31
0.0
  0
TEXT
  5
16C
  8
LAYER0014
 62
     7
 10
182.7228721274234
 20
-54.34105349748148
 30
0.0
 40
4.0
  1
3-M5 PCD70
 41
0.8
  7
FDASTYLE1
 72
     5
 11
214.7228721274234
 21
-54.34105349748148
 31
0.0
  0
ENDBLK
  5
A8
  8
0
  0
BLOCK
  8
0
  2
DA_IMAGEDIMGROUP_28
 70
     0
 10
0.0
 20
0.0
 30
0.0
  3
DA_IMAGEDIMGROUP_28
  1

  0
LINE
  5
16D
  8
LAYER0014
  6
CONTINUOUS
 62
     7
 10
30.03666910409024
 20
-9.316440606883869
 30
0.0
 11
48.47196400480974
 21
1.327180690708786
 31
0.0
  0
LINE
  5
16E
  8
LAYER0014
  6
CONTINUOUS
 62
     7
 10
35.53666686891618
 20
-18.84271722955901
 30
0.0
 11
53.97196176963567
 21
-8.199095931966355
 31
0.0
  0
LINE
  5
16F
  8
LAYER0014
  6
CONTINUOUS
 62
     7
 10
46.49222370170472
 20
0.1841929660486983
 30
0.0
 11
51.99222271822808
 21
-9.342086960251351
 31
0.0
  0
INSERT
  5
170
  8
LAYER0014
 62
     7
  2
_OPEN30
 10
46.49222370170472
 20
0.1841929660486983
 30
0.0
 41
1.999998407630662
 42
2.000005728319971
 50
119.9999943014067
  0
INSERT
  5
171
  8
LAYER0014
 62
     7
  2
_OPEN30
 10
51.99222271822808
 20
-9.342086960251351
 30
0.0
 41
1.999998407630662
 42
2.000005728319971
 50
299.9999943014067
  0
TEXT
  5
172
  8
LAYER0014
 62
     7
 10
49.02786854740425
 20
-1.007669696826349
 30
0.0
 40
4.0
  1
11
 50
-59.99999999999999
 41
0.8000000000000006
  7
FDASTYLE1
 72
     5
 11
52.22786854740425
 21
-6.55023228104676
 31
0.0
  0
ENDBLK
  5
AB
  8
0
  0
BLOCK
  8
0
  2
DA_IMAGEDIMGROUP_29
 70
     0
 10
0.0
 20
0.0
 30
0.0
  3
DA_IMAGEDIMGROUP_29
  1

  0
LINE
  5
173
  8
LAYER0014
  6
CONTINUOUS
 62
     7
 10
75.12556554413651
 20
79.28980994673196
 30
0.0
 11
50.98773165674712
 21
93.22576236822098
 31
0.0
  0
LINE
  5
174
  8
LAYER0014
  6
CONTINUOUS
 62
     7
 10
91.79400648047781
 20
56.35510862883769
 30
0.0
 11
41.31767992316932
 21
69.88019261600979
 31
0.0
  0
ARC
  5
175
  8
LAYER0014
  6
CONTINUOUS
 62
     7
 10
134.8163627280093
 20
44.82728375227438
 30
0.0
 40
94.51096343994141
 50
150.0000110043195
 51
164.9999943462595
  0
INSERT
  5
176
  8
LAYER0014
 62
     7
  2
_OPEN30
 10
52.9674583769155
 20
92.08274975221391
 30
0.0
 41
1.999998407630662
 42
2.000005728319971
 50
60.60624488299786
  0
INSERT
  5
177
  8
LAYER0014
 62
     7
  2
_OPEN30
 10
43.52578468765491
 20
69.2885300697437
 30
0.0
 41
1.999998407630662
 42
2.000005728319971
 50
254.3937604675811
  0
TEXT
  5
178
  8
LAYER0014
 62
     7
 10
44.17785162971303
 20
77.17850998273542
 30
0.0
 40
4.0
  1
15ﾟ
 50
67.40000000000001
 41
0.7999999999999997
  7
FDASTYLE1
 72
     5
 11
47.86708672724715
 21
86.04132806702003
 31
0.0
  0
ENDBLK
  5
AE
  8
0
  0
BLOCK
  8
0
  2
DA_IMAGEDIMGROUP_30
 70
     0
 10
0.0
 20
0.0
 30
0.0
  3
DA_IMAGEDIMGROUP_30
  1

  0
LINE
  5
179
  8
LAYER0014
  6
CONTINUOUS
 62
     7
 10
134.815554012189
 20
136.7006119993447
 30
0.0
 11
134.815554012189
 21
141.6242274168252
 31
0.0
  0
LINE
  5
17A
  8
LAYER0014
  6
CONTINUOUS
 62
     7
 10
75.12555116289987
 20
79.28981505083293
 30
0.0
 11
50.98772068600695
 21
93.22577502591312
 31
0.0
  0
ARC
  5
17B
  8
LAYER0014
  6
CONTINUOUS
 62
     7
 10
134.8163474692202
 20
44.82729901106345
 30
0.0
 40
94.51095581054688
 50
89.99998201391065
 51
150.0000110043195
  0
INSERT
  5
17C
  8
LAYER0014
 62
     7
  2
_OPEN30
 10
134.8163771377667
 20
139.3382548216057
 30
0.0
 41
1.999998407630662
 42
2.000005728319971
 50
0.6062159415270282
  0
INSERT
  5
17D
  8
LAYER0014
 62
     7
  2
_OPEN30
 10
52.96744972537665
 20
92.08276119630699
 30
0.0
 41
1.999998407630662
 42
2.000005728319971
 50
239.3937770767028
  0
TEXT
  5
17E
  8
LAYER0014
 62
     7
 10
82.60217715605525
 20
125.6704772410616
 30
0.0
 40
4.0
  1
60ﾟ
 50
29.9
 41
0.7999999999999994
  7
FDASTYLE1
 72
     5
 11
90.92438594583703
 21
130.4559595426983
 31
0.0
  0
ENDBLK
  5
B1
  8
0
  0
BLOCK
  8
0
  2
DC_GROUP_5
 70
     0
 10
0.0
 20
0.0
 30
0.0
  3
DC_GROUP_5
  1

  0
LINE
  5
17F
  8
0
  6
CONTINUOUS
 62
     7
 10
-110.4761024819516
 20
-37.67270861833109
 30
0.0
 11
-95.53298917140802
 21
-52.71534065312815
 31
0.0
  0
INSERT
  5
180
  8
0
 62
     7
  2
_OPEN30
 10
-110.4761024819516
 20
-37.67270861833109
 30
0.0
 41
1.999998407630662
 42
2.000005728319971
 50
134.8098435813055
  0
LINE
  5
181
  8
0
  6
CONTINUOUS
 62
     7
 10
-95.53298917140802
 20
-52.71534065312815
 30
0.0
 11
-79.53298917140802
 21
-52.71534065312815
 31
0.0
  0
TEXT
  5
182
  8
0
 62
     7
 10
-95.53298917140802
 20
-52.71534065312815
 30
0.0
 40
4.0
  1
M8×16
 41
0.7692307692307692
  7
FDASTYLE1
 72
     5
 11
-79.53298917140802
 21
-52.71534065312815
 31
0.0
  0
ENDBLK
  5
B4
  8
0
  0
BLOCK
  8
0
  2
DA_IMAGEDIMGROUP_31
 70
     0
 10
0.0
 20
0.0
 30
0.0
  3
DA_IMAGEDIMGROUP_31
  1

  0
LINE
  5
183
  8
0
  6
CONTINUOUS
 62
     9
 10
-110.4761024819516
 20
-42.77291381668933
 30
0.0
 11
-110.4761024819516
 21
-49.16758147416287
 31
0.0
  0
LINE
  5
184
  8
0
  6
CONTINUOUS
 62
     9
 10
-143.4761024819516
 20
-31.17270861833109
 30
0.0
 11
-143.4761024819516
 21
-49.16758147416287
 31
0.0
  0
LINE
  5
185
  8
0
  6
CONTINUOUS
 62
     9
 10
-143.4761024819516
 20
-48.16758147416287
 30
0.0
 11
-110.4761024819516
 21
-48.16758147416287
 31
0.0
  0
INSERT
  5
186
  8
0
 62
     9
  2
_OPEN30
 10
-143.4761024819516
 20
-48.16758147416287
 30
0.0
 41
1.999998407630662
 42
2.000005728319971
 50
180.0
  0
INSERT
  5
187
  8
0
 62
     9
  2
_OPEN30
 10
-110.4761024819516
 20
-48.16758147416287
 30
0.0
 41
1.999998407630662
 42
2.000005728319971
 50
360.0
  0
TEXT
  5
188
  8
0
 62
     7
 10
-130.1761024819516
 20
-47.16758147416287
 30
0.0
 40
4.0
  1
33
 41
0.7999999999999989
  7
FDASTYLE1
 72
     5
 11
-123.7761024819516
 21
-47.16758147416287
 31
0.0
  0
ENDBLK
  5
B7
  8
0
  0
BLOCK
  8
0
  2
DA_IMAGEDIMGROUP_32
 70
     0
 10
0.0
 20
0.0
 30
0.0
  3
DA_IMAGEDIMGROUP_32
  1

  0
LINE
  5
189
  8
0
  6
CONTINUOUS
 62
     9
 10
231.8110853189024
 20
44.82729138166891
 30
0.0
 11
226.9830039633609
 21
44.82729138166891
 31
0.0
  0
LINE
  5
18A
  8
0
  6
CONTINUOUS
 62
     9
 10
218.8162605356115
 20
93.3246423485997
 30
0.0
 11
210.2033817975457
 21
88.35199504006751
 31
0.0
  0
ARC
  5
18B
  8
0
  6
CONTINUOUS
 62
     9
 10
134.8163753479189
 20
44.82729138166891
 30
0.0
 40
95.99470997098347
 50
0.0
 51
29.99999725896548
  0
INSERT
  5
18C
  8
0
 62
     9
  2
_OPEN30
 10
230.8110853189024
 20
44.82729138166891
 30
0.0
 41
1.999998407630662
 42
2.000005728319971
 50
270.5968635975991
  0
INSERT
  5
18D
  8
0
 62
     9
  2
_OPEN30
 10
217.950235107907
 20
92.82464239003042
 30
0.0
 41
1.999998407630662
 42
2.000005728319971
 50
119.4031336613659
  0
TEXT
  5
18E
  8
0
 62
     7
 10
227.8165509634283
 20
64.77728531539444
 30
0.0
 40
4.0
  1
30°
 50
104.9999986294827
 41
0.7500000000000014
  7
FDASTYLE1
 72
     5
 11
225.3318883522519
 21
74.05017330720274
 31
0.0
  0
ENDBLK
  5
BA
  8
0
  0
BLOCK
  8
0
  2
_OPEN30
 70
     0
 10
0.0
 20
0.0
 30
0.0
  3
_OPEN30
  1

  0
LINE
  5
C2
  8
0
  6
BYBLOCK
 62
     0
 10
-1.0
 20
0.267949
 30
0.0
 11
0.0
 21
0.0
 31
0.0
  0
LINE
  5
C3
  8
0
  6
BYBLOCK
 62
     0
 10
0.0
 20
0.0
 30
0.0
 11
-1.0
 21
-0.267949
 31
0.0
  0
LINE
  5
C4
  8
0
  6
BYBLOCK
 62
     0
 10
0.0
 20
0.0
 30
0.0
 11
-1.0
 21
0.0
 31
0.0
  0
ENDBLK
  5
C1
  8
0
  0
ENDSEC
  0
SECTION
  2
ENTITIES
  0
LINE
  5
18F
  8
ZUWAKU
  6
CONTINUOUS
 62
     3
 10
-277.0
 20
-190.0
 30
0.0
 11
-277.0
 21
190.0
 31
0.0
  0
LINE
  5
190
  8
ZUWAKU
  6
CONTINUOUS
 62
     3
 10
277.0
 20
-190.0
 30
0.0
 11
277.0
 21
190.0
 31
0.0
  0
LINE
  5
191
  8
ZUWAKU
  6
CONTINUOUS
 62
     3
 10
-277.0
 20
-190.0
 30
0.0
 11
277.0
 21
-190.0
 31
0.0
  0
LINE
  5
192
  8
ZUWAKU
  6
CONTINUOUS
 62
     3
 10
-277.0
 20
189.9999999999999
 30
0.0
 11
277.0
 21
189.9999999999999
 31
0.0
  0
LINE
  5
193
  8
ZUWAKU
  6
CONTINUOUS
 62
     3
 10
97.00000000000001
 20
-190.0
 30
0.0
 11
97.00000000000001
 21
-130.0
 31
0.0
  0
LINE
  5
194
  8
ZUWAKU
  6
CONTINUOUS
 62
     3
 10
97.00000000000001
 20
-176.0
 30
0.0
 11
277.0
 21
-176.0
 31
0.0
  0
LINE
  5
195
  8
ZUWAKU
  6
CONTINUOUS
 62
     3
 10
146.0
 20
-162.0
 30
0.0
 11
277.0
 21
-162.0
 31
0.0
  0
LINE
  5
196
  8
ZUWAKU
  6
CONTINUOUS
 62
     3
 10
146.0
 20
-148.0
 30
0.0
 11
277.0
 21
-148.0
 31
0.0
  0
LINE
  5
197
  8
ZUWAKU
  6
CONTINUOUS
 62
     3
 10
146.0
 20
-138.0
 30
0.0
 11
277.0
 21
-138.0
 31
0.0
  0
LINE
  5
198
  8
ZUWAKU
  6
CONTINUOUS
 62
     3
 10
146.0
 20
-176.0
 30
0.0
 11
146.0
 21
-130.0
 31
0.0
  0
LINE
  5
199
  8
ZUWAKU
  6
CONTINUOUS
 62
     3
 10
255.0
 20
-176.0
 30
0.0
 11
255.0
 21
-130.0
 31
0.0
  0
LINE
  5
19A
  8
ZUWAKU
  6
CONTINUOUS
 62
     3
 10
171.0
 20
-190.0
 30
0.0
 11
171.0
 21
-176.0
 31
0.0
  0
LINE
  5
19B
  8
ZUWAKU
  6
CONTINUOUS
 62
     3
 10
262.0
 20
-188.0
 30
0.0
 11
272.0
 21
-188.0
 31
0.0
  0
LINE
  5
19C
  8
ZUWAKU
  6
CONTINUOUS
 62
     3
 10
267.0
 20
-178.0
 30
0.0
 11
262.0
 21
-188.0
 31
0.0
  0
LINE
  5
19D
  8
ZUWAKU
  6
CONTINUOUS
 62
     3
 10
267.0
 20
-178.0
 30
0.0
 11
272.0
 21
-188.0
 31
0.0
  0
LINE
  5
19E
  8
ZUWAKU
  6
CONTINUOUS
 62
     3
 10
97.00000000000001
 20
-130.0
 30
0.0
 11
277.0
 21
-130.0
 31
0.0
  0
LINE
  5
19F
  8
ZUWAKU
  6
CONTINUOUS
 62
     3
 10
226.0
 20
-176.0
 30
0.0
 11
226.0
 21
-148.0
 31
0.0
  0
LINE
  5
1A0
  8
ZUWAKU
  6
CONTINUOUS
 62
     7
 10
-126.1159444049019
 20
188.4983433964739
 30
0.0
 11
-126.0051246621524
 21
188.3875236537245
 31
0.0
  0
LINE
  5
1A1
  8
ZUWAKU
  6
CONTINUOUS
 62
     7
 10
-125.9745230486646
 20
188.4983433964739
 30
0.0
 11
-125.953360853132
 21
188.4771812009413
 31
0.0
  0
LINE
  5
1A2
  8
ZUWAKU
  6
CONTINUOUS
 62
     4
 10
105.0
 20
-172.0
 30
0.0
 11
105.0
 21
-130.0
 31
0.0
  0
LINE
  5
1A3
  8
ZUWAKU
  6
CONTINUOUS
 62
     4
 10
109.0
 20
-172.0
 30
0.0
 11
109.0
 21
-130.0
 31
0.0
  0
LINE
  5
1A4
  8
ZUWAKU
  6
CONTINUOUS
 62
     4
 10
121.5
 20
-176.0
 30
0.0
 11
121.5
 21
-130.0
 31
0.0
  0
LINE
  5
1A5
  8
ZUWAKU
  6
CONTINUOUS
 62
     4
 10
97.00000000000001
 20
-137.0
 30
0.0
 11
146.0
 21
-137.0
 31
0.0
  0
LINE
  5
1A6
  8
ZUWAKU
  6
CONTINUOUS
 62
     4
 10
97.00000000000001
 20
-144.0
 30
0.0
 11
146.0
 21
-144.0
 31
0.0
  0
LINE
  5
1A7
  8
ZUWAKU
  6
CONTINUOUS
 62
     4
 10
97.00000000000001
 20
-165.0
 30
0.0
 11
146.0
 21
-165.0
 31
0.0
  0
LINE
  5
1A8
  8
ZUWAKU
  6
CONTINUOUS
 62
     4
 10
97.00000000000001
 20
-172.0
 30
0.0
 11
146.0
 21
-172.0
 31
0.0
  0
LINE
  5
1A9
  8
ZUWAKU
  6
CONTINUOUS
 62
     4
 10
255.0
 20
-166.0
 30
0.0
 11
277.0
 21
-166.0
 31
0.0
  0
LINE
  5
1AA
  8
ZUWAKU
  6
CONTINUOUS
 62
     4
 10
202.0
 20
-148.0
 30
0.0
 11
202.0
 21
-146.5
 31
0.0
  0
LINE
  5
1AB
  8
ZUWAKU
  6
CONTINUOUS
 62
     4
 10
226.0
 20
-148.0
 30
0.0
 11
226.0
 21
-146.5
 31
0.0
  0
LINE
  5
1AC
  8
ZUWAKU
  6
CONTINUOUS
 62
     4
 10
243.0
 20
-148.0
 30
0.0
 11
243.0
 21
-146.5
 31
0.0
  0
LINE
  5
1AD
  8
ZUWAKU
  6
CONTINUOUS
 62
     4
 10
97.00000000000001
 20
-151.0
 30
0.0
 11
146.0
 21
-151.0
 31
0.0
  0
LINE
  5
1AE
  8
ZUWAKU
  6
CONTINUOUS
 62
     4
 10
97.00000000000001
 20
-158.0
 30
0.0
 11
146.0
 21
-158.0
 31
0.0
  0
LINE
  5
1AF
  8
ZUWAKU
  6
CONTINUOUS
 62
     4
 10
101.0
 20
-130.5
 30
0.0
 11
98.00000000000001
 21
-136.5
 31
0.0
  0
LINE
  5
1B0
  8
ZUWAKU
  6
CONTINUOUS
 62
     4
 10
101.0
 20
-130.5
 30
0.0
 11
104.0
 21
-136.5
 31
0.0
  0
LINE
  5
1B1
  8
ZUWAKU
  6
CONTINUOUS
 62
     4
 10
98.00000000000001
 20
-136.5
 30
0.0
 11
104.0
 21
-136.5
 31
0.0
  0
LINE
  5
1B2
  8
ZUWAKU
  6
CONTINUOUS
 62
     4
 10
101.0
 20
-158.5
 30
0.0
 11
98.00000000000001
 21
-164.5
 31
0.0
  0
LINE
  5
1B3
  8
ZUWAKU
  6
CONTINUOUS
 62
     4
 10
101.0
 20
-158.5
 30
0.0
 11
104.0
 21
-164.5
 31
0.0
  0
LINE
  5
1B4
  8
ZUWAKU
  6
CONTINUOUS
 62
     4
 10
98.00000000000001
 20
-164.5
 30
0.0
 11
104.0
 21
-164.5
 31
0.0
  0
LINE
  5
1B5
  8
ZUWAKU
  6
CONTINUOUS
 62
     4
 10
101.0
 20
-151.5
 30
0.0
 11
98.00000000000001
 21
-157.5
 31
0.0
  0
LINE
  5
1B6
  8
ZUWAKU
  6
CONTINUOUS
 62
     4
 10
101.0
 20
-151.5
 30
0.0
 11
104.0
 21
-157.5
 31
0.0
  0
LINE
  5
1B7
  8
ZUWAKU
  6
CONTINUOUS
 62
     4
 10
98.00000000000001
 20
-157.5
 30
0.0
 11
104.0
 21
-157.5
 31
0.0
  0
LINE
  5
1B8
  8
ZUWAKU
  6
CONTINUOUS
 62
     4
 10
101.0
 20
-144.5
 30
0.0
 11
98.00000000000001
 21
-150.5
 31
0.0
  0
LINE
  5
1B9
  8
ZUWAKU
  6
CONTINUOUS
 62
     4
 10
101.0
 20
-144.5
 30
0.0
 11
104.0
 21
-150.5
 31
0.0
  0
LINE
  5
1BA
  8
ZUWAKU
  6
CONTINUOUS
 62
     4
 10
98.00000000000001
 20
-150.5
 30
0.0
 11
104.0
 21
-150.5
 31
0.0
  0
LINE
  5
1BB
  8
ZUWAKU
  6
CONTINUOUS
 62
     4
 10
101.0
 20
-137.5
 30
0.0
 11
98.00000000000001
 21
-143.5
 31
0.0
  0
LINE
  5
1BC
  8
ZUWAKU
  6
CONTINUOUS
 62
     4
 10
101.0
 20
-137.5
 30
0.0
 11
104.0
 21
-143.5
 31
0.0
  0
LINE
  5
1BD
  8
ZUWAKU
  6
CONTINUOUS
 62
     4
 10
98.00000000000001
 20
-143.5
 30
0.0
 11
104.0
 21
-143.5
 31
0.0
  0
LINE
  5
1BE
  8
ZUWAKU
  6
CONTINUOUS
 62
     4
 10
172.6666666666666
 20
-176.0
 30
0.0
 11
172.6666666666666
 21
-162.0
 31
0.0
  0
LINE
  5
1BF
  8
ZUWAKU
  6
CONTINUOUS
 62
     4
 10
199.3333333333333
 20
-176.0
 30
0.0
 11
199.3333333333333
 21
-161.9509415757253
 31
0.0
  0
LINE
  5
1C0
  8
ZUWAKU
  6
CONTINUOUS
 62
     4
 10
212.6666666666666
 20
-167.5
 30
0.0
 11
212.6666666666666
 21
-161.9509415757253
 31
0.0
  0
LINE
  5
1C1
  8
ZUWAKU
  6
CONTINUOUS
 62
     4
 10
226.0
 20
-155.0
 30
0.0
 11
255.0
 21
-155.0
 31
0.0
  0
LINE
  5
1C2
  8
ZUWAKU
  6
CONTINUOUS
 62
     4
 10
146.0
 20
-166.0
 30
0.0
 11
226.0
 21
-166.0
 31
0.0
  0
LINE
  5
1C3
  8
ZUWAKU
  6
CONTINUOUS
 62
     4
 10
153.0
 20
-139.5
 30
0.0
 11
153.0
 21
-130.0
 31
0.0
  0
LINE
  5
1C4
  8
ZUWAKU
  6
CONTINUOUS
 62
     4
 10
202.0
 20
-139.5
 30
0.0
 11
202.0
 21
-130.0
 31
0.0
  0
LINE
  5
1C5
  8
ZUWAKU
  6
CONTINUOUS
 62
     4
 10
226.0
 20
-139.5
 30
0.0
 11
226.0
 21
-130.0
 31
0.0
  0
LINE
  5
1C6
  8
ZUWAKU
  6
CONTINUOUS
 62
     4
 10
243.0
 20
-139.5
 30
0.0
 11
243.0
 21
-130.0
 31
0.0
  0
TEXT
  5
1C8
  8
ZUWAKU
 62
     7
 10
148.3132301474747
 20
-130.821188728956
 30
0.0
 40
2.6656
  1
符号
 41
0.8
  7
FDASTYLE0
  0
TEXT
  5
1C9
  8
ZUWAKU
 62
     7
 10
162.4141311219058
 20
-135.8245525019963
 30
0.0
 40
4.0
  1
品       名
 41
0.765957446808511
  7
FDASTYLE1
 72
     5
 11
191.2141311219058
 21
-135.8245525019963
 31
0.0
  0
TEXT
  5
1CA
  8
ZUWAKU
 62
     7
 10
207.2331564413096
 20
-135.8245525019963
 30
0.0
 40
4.0
  1
材  料
 41
0.7272727272727279
  7
FDASTYLE1
 72
     5
 11
220.0331564413096
 21
-135.8245525019963
 31
0.0
  0
TEXT
  5
1CB
  8
ZUWAKU
 62
     7
 10
229.516061684855
 20
-135.8245525019963
 30
0.0
 40
4.0
  1
個 数
 41
0.7058823529411761
  7
FDASTYLE1
 72
     5
 11
239.116061684855
 21
-135.8245525019963
 31
0.0
  0
TEXT
  5
1CC
  8
ZUWAKU
 62
     7
 10
245.721810952888
 20
-133.5649080050572
 30
0.0
 40
2.5
  1
単重量
 41
0.6666666666666666
  7
FDASTYLE1
 72
     5
 11
251.721810952888
 21
-133.5649080050572
 31
0.0
  0
TEXT
  5
1CD
  8
ZUWAKU
 62
     7
 10
244.7089516236359
 20
-137.3631304897525
 30
0.0
 40
2.5
  1
(kg)
 41
0.8
  7
FDASTYLE1
 72
     5
 11
252.7089516236359
 21
-137.3631304897525
 31
0.0
  0
TEXT
  5
1CE
  8
ZUWAKU
 62
     7
 10
259.1421970654778
 20
-135.8245525019963
 30
0.0
 40
4.0
  1
記  事
 41
0.7272727272727279
  7
FDASTYLE1
 72
     5
 11
271.9421970654778
 21
-135.8245525019963
 31
0.0
  0
TEXT
  5
1CF
  8
ZUWAKU
 62
     7
 10
258.8450794551645
 20
-165.4873041997729
 30
0.0
 40
3.0
  1
コード番号
 41
0.6666666666666666
  7
FDASTYLE1
 72
     5
 11
270.8450794551645
 21
-165.4873041997729
 31
0.0
  0
TEXT
  5
1D0
  8
ZUWAKU
 62
     7
 10
101.9119920158317
 20
-175.1879010540338
 30
0.0
 40
2.5
  1
訂 正 来 歴
 41
0.717948717948718
  7
FDASTYLE1
 72
     5
 11
115.9119920158317
 21
-175.1879010540338
 31
0.0
  0
TEXT
  5
1D1
  8
ZUWAKU
 62
     7
 10
125.890334846765
 20
-175.2166697391651
 30
0.0
 40
2.5
  1
工 事 番 号
 41
0.717948717948718
  7
FDASTYLE1
 72
     5
 11
139.890334846765
 21
-175.2166697391651
 31
0.0
  0
TEXT
  5
1D2
  8
ZUWAKU
 62
     7
 10
99.96483784660289
 20
-165.9634530565915
 30
0.0
 40
2.0825
  1
記号
 41
0.8
  7
FDASTYLE0
  0
TEXT
  5
1D3
  8
ZUWAKU
 62
     7
 10
105.9042249067618
 20
-165.9634530565915
 30
0.0
 40
2.0825
  1
理由
 41
0.8
  7
FDASTYLE0
  0
TEXT
  5
1D4
  8
ZUWAKU
 62
     7
 10
111.6193667909843
 20
-169.8786046700178
 30
0.0
 40
3.0
  1
日 付
 41
0.7058823529411754
  7
FDASTYLE1
 72
     5
 11
118.8193667909843
 21
-169.8786046700178
 31
0.0
  0
TEXT
  5
1D5
  8
ZUWAKU
 62
     7
 10
259.5546970259841
 20
-142.3525309070082
 30
0.0
 40
3.0
  1
標　準
 41
0.5833333333333345
  7
FDASTYLE1
 72
     5
 11
265.8546970259841
 21
-142.3525309070082
 31
0.0
  0
TEXT
  5
1D6
  8
ZUWAKU
 62
     7
 10
153.4481689819652
 20
-165.7187911464244
 30
0.0
 40
3.0
  1
承   認
 41
0.7407407407407408
  7
FDASTYLE1
 72
     5
 11
165.4481689819652
 21
-165.7187911464244
 31
0.0
  0
TEXT
  5
1D7
  8
ZUWAKU
 62
     7
 10
179.863228033234
 20
-165.4873041997729
 30
0.0
 40
3.0
  1
検   図
 41
0.7407407407407408
  7
FDASTYLE1
 72
     5
 11
191.863228033234
 21
-165.4873041997729
 31
0.0
  0
TEXT
  5
1D8
  8
ZUWAKU
 62
     7
 10
201.4771920983751
 20
-165.4873041997729
 30
0.0
 40
3.0
  1
担  当
 41
0.7272727272727269
  7
FDASTYLE1
 72
     5
 11
211.0771920983751
 21
-165.4873041997729
 31
0.0
  0
TEXT
  5
1D9
  8
ZUWAKU
 62
     7
 10
214.6770574841112
 20
-165.4873041997729
 30
0.0
 40
3.0
  1
製  図
 41
0.7272727272727269
  7
FDASTYLE1
 72
     5
 11
224.2770574841112
 21
-165.4873041997729
 31
0.0
  0
TEXT
  5
1DA
  8
ZUWAKU
 62
     7
 10
226.9462372304199
 20
-153.2184960272417
 30
0.0
 40
3.0
  1
作図
 41
0.6666666666666683
  7
FDASTYLE1
 72
     5
 11
231.7462372304199
 21
-153.2184960272417
 31
0.0
  0
TEXT
  5
1DB
  8
ZUWAKU
 62
     7
 10
228.1036719636776
 20
-160.2371566401815
 30
0.0
 40
4.0
  1
第 三 角 法
 41
0.7179487179487182
  7
FDASTYLE1
 72
     5
 11
250.5036719636776
 21
-160.2371566401815
 31
0.0
  0
TEXT
  5
1DC
  8
ZUWAKU
 62
     7
 10
227.409211123723
 20
-166.413251986379
 30
0.0
 40
3.0
  1
尺度
 41
0.6666666666666683
  7
FDASTYLE1
 72
     5
 11
232.209211123723
 21
-166.413251986379
 31
0.0
  0
TEXT
  5
1DE
  8
ZUWAKU
 62
     3
 10
105.379154370034
 20
-185.9272077185017
 30
0.0
 40
7.0
  1
株式会社 野村製作所
 41
0.5763738641280831
  7
FDASTYLE2
 72
     5
 11
161.379154370034
 21
-185.9272077185017
 31
0.0
  0
TEXT
  5
1E0
  8
ZUWAKU
 62
     3
 10
176.0422636668242
 20
-187.1216685584563
 30
0.0
 40
8.0
  1
２－
 41
0.8244023083264632
  7
FDASTYLE3
 72
     5
 11
192.0422636668242
 21
-187.1216685584563
 31
0.0
  0
TEXT
  5
1E1
  8
ZUWAKU
 62
     3
 10
192.954221291231
 20
-187.1216685584563
 30
0.0
 40
8.0
  1
8606048
 41
1.561106155218555
  7
FDASTYLE3
 72
     5
 11
248.954221291231
 21
-187.1216685584563
 31
0.0
  0
TEXT
  5
1E2
  8
ZUWAKU
 62
     6
 10
231.384312273996
 20
-145.1178196492171
 30
0.0
 40
4.0
  1
一式
 41
0.5833333333333328
  7
FDASTYLE1
 72
     5
 11
236.984312273996
 21
-145.1178196492171
 31
0.0
  0
TEXT
  5
1E3
  8
ZUWAKU
 62
     6
 10
163.7236800359233
 20
-145.1021206743685
 30
0.0
 40
5.0
  1
外　形　図
 41
0.5833333333333334
  7
FDASTYLE1
 72
     5
 11
181.2236800359233
 21
-145.1021206743685
 31
0.0
  0
TEXT
  5
1E4
  8
ZUWAKU
 62
     4
 10
237.4612965606293
 20
-172.4797619591963
 30
0.0
 40
4.0
  1
1/1
 41
0.7000000000000005
  7
FDASTYLE1
 72
     5
 11
245.8612965606293
 21
-172.4797619591963
 31
0.0
  0
TEXT
  5
1E5
  8
0
 62
     6
 10
153.751689452146
 20
-154.3880453471329
 30
0.0
 40
5.0
  1
日鋼プレシジォン
 41
0.6666666666666666
  7
FDASTYLE1
 72
     5
 11
185.751689452146
 21
-154.3880453471329
 31
0.0
  0
TEXT
  5
1E6
  8
0
 62
     6
 10
170.4103460444692
 20
-160.9091595284539
 30
0.0
 40
5.0
  1
HWB3-165型チャック
 41
0.65
  7
FDASTYLE1
 72
     5
 11
215.9103460444692
 21
-160.9091595284539
 31
0.0
  0
TEXT
  5
1E7
  8
0
 62
     6
 10
-113.8586464034223
 20
-178.1835881349327
 30
0.0
 40
4.0
  1
アンバランス量
 41
0.663841963128279
  7
FDASTYLE1
 72
     5
 11
-87.00150228606694
 21
-178.1835881349327
 31
0.0
  0
TEXT
  5
1E8
  8
0
 62
     6
 10
-113.8586464034223
 20
-170.1835881349327
 30
0.0
 40
4.0
  1
質 量
 41
0.7364342569567148
  7
FDASTYLE1
 72
     5
 11
-103.0015022860669
 21
-170.1835881349327
 31
0.0
  0
TEXT
  5
1E9
  8
0
 62
     6
 10
-113.8586464034223
 20
-162.1835881349327
 30
0.0
 40
4.0
  1
慣性モーメント
 41
0.663841963128279
  7
FDASTYLE1
 72
     5
 11
-87.00150228606694
 21
-162.1835881349327
 31
0.0
  0
TEXT
  5
1EA
  8
0
 62
     6
 10
-113.8586464034223
 20
-154.1835881349327
 30
0.0
 40
4.0
  1
最高使用回転速度
 41
0.665024784134981
  7
FDASTYLE1
 72
     5
 11
-83.00150228606694
 21
-154.1835881349327
 31
0.0
  0
TEXT
  5
1EB
  8
0
 62
     6
 10
-113.8586464034223
 20
-146.1835881349327
 30
0.0
 40
4.0
  1
最大静的把握力
 41
0.663841963128279
  7
FDASTYLE1
 72
     5
 11
-87.00150228606694
 21
-146.1835881349327
 31
0.0
  0
TEXT
  5
1EC
  8
0
 62
     6
 10
-113.8586464034223
 20
-138.1835881349327
 30
0.0
 40
4.0
  1
許容シリンダー力
 41
0.665024784134981
  7
FDASTYLE1
 72
     5
 11
-83.00150228606694
 21
-138.1835881349327
 31
0.0
  0
TEXT
  5
1ED
  8
0
 62
     6
 10
-113.8586464034223
 20
-130.1835881349327
 30
0.0
 40
4.0
  1
推奨シリンダー
 41
0.663841963128279
  7
FDASTYLE1
 72
     5
 11
-87.00150228606694
 21
-130.1835881349327
 31
0.0
  0
TEXT
  5
1EE
  8
0
 62
     6
 10
-113.8586464034223
 20
-122.1835881349327
 30
0.0
 40
4.0
  1
ピストンストローク
 41
0.6659390169707117
  7
FDASTYLE1
 72
     5
 11
-79.00150228606694
 21
-122.1835881349327
 31
0.0
  0
TEXT
  5
1EF
  8
0
 62
     6
 10
-113.8586464034223
 20
-114.1835805055381
 30
0.0
 40
4.0
  1
爪ﾉｽﾄﾛｰｸ
 41
0.7781458739383595
  7
FDASTYLE1
 72
     5
 11
-87.00150228606694
 21
-114.1835805055381
 31
0.0
  0
TEXT
  5
1F0
  8
0
 62
     6
 10
-113.8586464034223
 20
-106.1835805055381
 30
0.0
 40
4.0
  1
仕 様
 41
0.7364342569567148
  7
FDASTYLE1
 72
     5
 11
-103.0015022860669
 21
-106.1835805055381
 31
0.0
  0
TEXT
  5
1F1
  8
0
 62
     6
 10
-18.5001006232404
 20
-113.9082432862998
 30
0.0
 40
4.0
  1
(直径ﾆﾃ)  5 mm
 41
0.767790441367099
  7
FDASTYLE1
 72
     5
 11
28.35704349411495
 21
-113.9082432862998
 31
0.0
  0
TEXT
  5
1F2
  8
0
 62
     6
 10
9.489356984028888
 20
-121.6879750367881
 30
0.0
 40
4.0
  1
15 mm
 41
0.7674420691942423
  7
FDASTYLE1
 72
     5
 11
28.34650110138423
 21
-121.6879750367881
 31
0.0
  0
TEXT
  5
1F3
  8
0
 62
     6
 10
-10.37342715432337
 20
-129.9642888185264
 30
0.0
 40
4.0
  1
46TS-TA1 型
 41
0.7780322189036011
  7
FDASTYLE1
 72
     5
 11
28.48371696303197
 21
-129.9642888185264
 31
0.0
  0
TEXT
  5
1F4
  8
0
 62
     6
 10
1.618064869771075
 20
-137.9095555421592
 30
0.0
 40
4.0
  1
１６．８ kN
 41
0.7275543378949095
  7
FDASTYLE1
 72
     5
 11
28.47520898712642
 21
-137.9095555421592
 31
0.0
  0
TEXT
  5
1F5
  8
0
 62
     6
 10
1.507278431782794
 20
-145.854807007003
 30
0.0
 40
4.0
  1
５３．９ kN
 41
0.7275543378949095
  7
FDASTYLE1
 72
     5
 11
28.36442254913814
 21
-145.854807007003
 31
0.0
  0
TEXT
  5
1F6
  8
0
 62
     6
 10
-2.03667641746037
 20
-153.8000737306358
 30
0.0
 40
4.0
  1
6000 min
 41
0.7714287730626143
  7
FDASTYLE1
 72
     5
 11
28.82046769989498
 21
-153.8000737306358
 31
0.0
  0
TEXT
  5
1F7
  8
0
 62
     6
 10
29.67760961187847
 20
-151.3000736710311
 30
0.0
 40
2.0
  1
-1
 41
0.75000024121258
  7
FDASTYLE1
 72
     5
 11
33.10618167055614
 21
-151.3000736710311
 31
0.0
  0
TEXT
  5
1F8
  8
0
 62
     6
 10
-6.466688166727948
 20
-161.9108525392295
 30
0.0
 40
4.0
  1
0.０４ kg・m
 41
0.7512316970762137
  7
FDASTYLE1
 72
     5
 11
28.3904559506274
 21
-161.9108525392295
 31
0.0
  0
TEXT
  5
1F9
  8
0
 62
     6
 10
29.24759786261089
 20
-159.4108524796249
 30
0.0
 40
2.0
  1
2
 41
0.7142860293388367
  7
FDASTYLE1
 72
     5
 11
30.67616992128856
 21
-159.4108524796249
 31
0.0
  0
TEXT
  5
1FA
  8
0
 62
     6
 10
9.958564747700763
 20
-169.8561192628623
 30
0.0
 40
4.0
  1
 9 kg
 41
0.7674420691942423
  7
FDASTYLE1
 72
     5
 11
28.81570886505611
 21
-169.8561192628623
 31
0.0
  0
TEXT
  5
1FB
  8
0
 62
     6
 10
-18.68089295493596
 20
-177.9668980714561
 30
0.0
 40
4.0
  1
外周ﾆﾃ   3 g以内
 41
0.7481753531516472
  7
FDASTYLE1
 72
     5
 11
28.17625116241939
 21
-177.9668980714561
 31
0.0
  0
TEXT
  5
1FC
  8
0
 62
     6
 10
-72.2200930224561
 20
-137.9116612550498
 30
0.0
 40
3.0
  1
４６TS-TA1型 引側使用圧  3.4MPa
 41
0.7422970148894431
  7
FDASTYLE1
 72
     5
 11
-4.077241788973737
 21
-137.9116612550498
 31
0.0
  0
LINE
  5
1FD
  8
0
  6
CONTINUOUS
 62
     3
 10
22.72092837165954
 20
-3.7252064183713
 30
0.0
 11
26.97093173932231
 21
-11.08642717385524
 31
0.0
  0
LINE
  5
1FE
  8
0
  6
CONTINUOUS
 62
     3
 10
34.98889229154182
 20
-28.97392089901294
 30
0.0
 11
42.26944316250277
 21
-41.58420318501206
 31
0.0
  0
LINE
  5
1FF
  8
0
  6
CONTINUOUS
 62
     3
 10
4.864507514796202
 20
-4.797010243702204
 30
0.0
 11
8.86451085265665
 21
-11.72521830506574
 31
0.0
  0
LINE
  5
200
  8
0
  6
CONTINUOUS
 62
     3
 10
22.86451156791227
 20
-35.9739275239962
 30
0.0
 11
26.86451013740057
 21
-42.90212732629803
 31
0.0
  0
LINE
  5
201
  8
0
  6
CONTINUOUS
 62
     3
 10
-5.758339793515376
 20
-10.93012653411275
 30
0.0
 11
-2.929696860409791
 21
-9.297008955672894
 31
0.0
  0
LINE
  5
202
  8
0
  6
CONTINUOUS
 62
     3
 10
8.864517733957854
 20
-11.72522540860641
 30
0.0
 11
22.72093976579728
 21
-3.725217302375228
 31
0.0
  0
LINE
  5
203
  8
0
  6
CONTINUOUS
 62
     3
 10
22.86453437129163
 20
-35.97393006334912
 30
0.0
 11
36.72093988500652
 21
-27.97393149386053
 31
0.0
  0
LINE
  5
204
  8
0
  6
CONTINUOUS
 62
     3
 10
22.45984706826621
 20
-45.44518943726479
 30
0.0
 11
26.86453134032027
 21
-42.90214406805964
 31
0.0
  0
LINE
  5
205
  8
0
  6
CONTINUOUS
 62
     3
 10
32.4709323949734
 20
-20.6127064445042
 30
0.0
 11
36.72093480896174
 21
-27.9739255481758
 31
0.0
  0
LINE
  5
206
  8
0
  6
CONTINUOUS
 62
     3
 10
21.09658052016144
 20
-28.91175484905833
 30
0.0
 11
27.15875865507965
 21
-25.41175505767458
 31
0.0
  0
LINE
  5
207
  8
0
  6
CONTINUOUS
 62
     3
 10
14.09658258920641
 20
-16.78739762554764
 30
0.0
 11
20.15876237593707
 21
-13.28739688048964
 31
0.0
  0
LINE
  5
208
  8
0
  6
CONTINUOUS
 62
     3
 10
20.15875609511502
 20
-13.28739706965033
 30
0.0
 11
20.90875809187085
 21
-14.58643845563623
 31
0.0
  0
LINE
  5
209
  8
0
  6
CONTINUOUS
 62
     3
 10
26.40875874752194
 20
-24.11271772628518
 30
0.0
 11
27.15875692958005
 21
-25.41175250502172
 31
0.0
  0
LINE
  5
20A
  8
0
  6
CONTINUOUS
 62
     3
 10
14.09658142551749
 20
-16.78739132223487
 30
0.0
 11
21.09658225998251
 21
-28.91174675760627
 31
0.0
  0
LINE
  5
20B
  8
0
  6
CONTINUOUS
 62
     3
 10
27.83696233853667
 20
-10.58642851052642
 30
0.0
 11
28.58696242794363
 21
-11.88546659288764
 31
0.0
  0
LINE
  5
20C
  8
0
  6
CONTINUOUS
 62
     3
 10
26.40876035159559
 20
-24.11271593223214
 30
0.0
 11
33.33696228254681
 21
-20.11271712432497
 31
0.0
  0
LINE
  5
20D
  8
0
  6
CONTINUOUS
 62
     3
 10
20.90876207569752
 20
-14.58643079495866
 30
0.0
 11
27.83696400664874
 21
-10.5864319870515
 31
0.0
  0
LINE
  5
20E
  8
0
  6
CONTINUOUS
 62
     3
 10
15.13759265290562
 20
-16.59051808101341
 30
0.0
 11
20.33374533997838
 21
-13.59051825982735
 31
0.0
  0
LINE
  5
20F
  8
0
  6
CONTINUOUS
 62
     3
 10
21.78760864872564
 20
-28.10865059718961
 30
0.0
 11
26.98376133579839
 21
-25.10865077600354
 31
0.0
  0
LINE
  5
210
  8
0
  6
CONTINUOUS
 62
     3
 10
15.13759616080634
 20
-16.59050454911122
 30
0.0
 11
21.78759657207834
 21
-28.10864155198911
 31
0.0
  0
LINE
  5
211
  8
0
  6
CONTINUOUS
 62
     3
 10
33.39914077509289
 20
-6.220411958795722
 30
0.0
 11
40.32734435785656
 21
-2.220412197214301
 31
0.0
  0
LINE
  5
212
  8
0
  6
CONTINUOUS
 62
     3
 10
39.89914420235974
 20
-17.47874938803651
 30
0.0
 11
46.82734778512341
 21
-13.47874962645508
 31
0.0
  0
LINE
  5
213
  8
0
  6
CONTINUOUS
 62
     3
 10
33.39914190396658
 20
-6.22040600867777
 30
0.0
 11
39.89914649352468
 21
-17.47874266305772
 31
0.0
  0
LINE
  5
214
  8
0
  6
CONTINUOUS
 62
     3
 10
40.32734170626841
 20
-2.220407439189472
 30
0.0
 11
46.8273424811288
 21
-13.47873748632006
 31
0.0
  0
LINE
  5
215
  8
0
  6
CONTINUOUS
 62
     3
 10
16.46259638495772
 20
-18.88548067460616
 30
0.0
 11
34.64913739696218
 21
-8.385477485757889
 31
0.0
  0
LINE
  5
216
  8
0
  6
CONTINUOUS
 62
     3
 10
20.46260605741387
 20
-25.81367853532427
 30
0.0
 11
38.6491371585436
 21
-15.31368106852156
 31
0.0
  0
LINE
  5
217
  8
0
  6
CONTINUOUS
 62
     3
 10
17.32862437728787
 20
-18.38547639341928
 30
0.0
 11
21.32862294677616
 21
-25.31367619572112
 31
0.0
  0
LINE
  5
218
  8
0
  6
CONTINUOUS
 62
     3
 10
32.58696099743193
 20
-18.81366639518947
 30
0.0
 11
33.3369610868389
 21
-20.11270447755069
 31
0.0
  0
LINE
  5
219
  8
0
  6
CONTINUOUS
 62
     3
 10
21.85491696452701
 20
-4.225211620477836
 30
0.0
 11
26.10491842484092
 21
-11.5864290723371
 31
0.0
  0
LINE
  5
21A
  8
0
  6
CONTINUOUS
 62
     3
 10
31.60491717314315
 20
-21.11270503936137
 30
0.0
 11
35.85492149448035
 21
-28.47392744665766
 31
0.0
  0
LINE
  5
21B
  8
0
  6
CONTINUOUS
 62
     3
 10
-14.02778812145742
 20
3.925420898615613
 30
0.0
 11
-1.903420288933816
 21
10.92542715710292
 31
0.0
  0
LINE
  5
21C
  8
0
  6
CONTINUOUS
 62
     3
 10
-15.88133661550535
 20
7.135874455320959
 30
0.0
 11
-14.02777690052528
 21
3.925415294451227
 31
0.0
  0
LINE
  5
21D
  8
0
  6
CONTINUOUS
 62
     3
 10
-3.249393657115178
 20
13.25671470693348
 30
0.0
 11
-1.903421435505578
 21
10.92542275328353
 31
0.0
  0
LINE
  5
21E
  8
0
  6
CONTINUOUS
 62
     3
 10
10.62058513398907
 20
13.23321940328592
 30
0.0
 11
20.98888966893733
 21
-4.7252083764578
 31
0.0
  0
LINE
  5
21F
  8
0
  6
CONTINUOUS
 62
     3
 10
-17.59477151637961
 20
11.10362549714873
 30
0.0
 11
-13.59477103954245
 21
4.175422391222213
 31
0.0
  0
LINE
  5
220
  8
0
  6
CONTINUOUS
 62
     3
 10
-6.336435083300358
 20
17.60362665531389
 30
0.0
 11
-2.336434129625985
 21
10.67542272348121
 31
0.0
  0
LINE
  5
221
  8
0
  6
CONTINUOUS
 62
     3
 10
-17.59477676844142
 20
11.10362725391164
 30
0.0
 11
-6.336447598262911
 21
17.60362591280719
 31
0.0
  0
LINE
  5
222
  8
0
  6
CONTINUOUS
 62
     3
 10
-4.501508848081272
 20
9.425424890184019
 30
0.0
 11
5.498492344011623
 21
-7.895082874632266
 31
0.0
  0
LINE
  5
223
  8
0
  6
CONTINUOUS
 62
     3
 10
-11.42971608353864
 20
5.425422029160785
 30
0.0
 11
-1.429711076748021
 21
-11.89509234290486
 31
0.0
  0
LINE
  5
224
  8
0
  6
CONTINUOUS
 62
     3
 10
-1.429698188676099
 20
-11.89508601446497
 30
0.0
 11
5.498491353681715
 21
-7.895094359114751
 31
0.0
  0
LINE
  5
225
  8
0
  6
CONTINUOUS
 62
     3
 10
-3.758338211852703
 20
-14.39423174832877
 30
0.0
 11
6.864519504979597
 21
-8.26112266355031
 31
0.0
  0
LINE
  5
226
  8
0
  6
CONTINUOUS
 62
     3
 10
3.998493094901136
 20
-5.297017061904114
 30
0.0
 11
4.864517716840368
 21
-4.797017568543566
 31
0.0
  0
LINE
  5
227
  8
0
  6
CONTINUOUS
 62
     3
 10
19.44085399552151
 20
-42.5694035745617
 30
0.0
 11
24.86453311134201
 21
-39.43804132300355
 31
0.0
  0
LINE
  5
228
  8
0
  6
CONTINUOUS
 62
     3
 10
32.92668950689861
 20
-39.40212595539109
 30
0.0
 11
34.70711955923028
 21
-42.48592084238638
 31
0.0
  0
LINE
  5
229
  8
0
  6
CONTINUOUS
 62
     3
 10
40.92670836873313
 20
-53.25856942507417
 30
0.0
 11
46.98889971815098
 21
-49.75856200429635
 31
0.0
  0
LINE
  5
22A
  8
0
  6
CONTINUOUS
 62
     3
 10
32.92670947523848
 20
-39.4021442766759
 30
0.0
 11
38.9888876101567
 21
-35.90214448529216
 31
0.0
  0
LINE
  5
22B
  8
0
  6
CONTINUOUS
 62
     3
 10
32.92669903172023
 20
-39.40213214128031
 30
0.0
 11
32.92669903172023
 21
-43.71260272233499
 31
0.0
  0
LINE
  5
22C
  8
0
  6
CONTINUOUS
 62
     3
 10
30.90608423410291
 20
-52.75085563496242
 30
0.0
 11
35.70171782594039
 21
-49.9820955956782
 31
0.0
  0
LINE
  5
22D
  8
0
  6
CONTINUOUS
 62
     3
 10
26.99144835304506
 20
-49.12198288753328
 30
0.0
 11
33.15170450422775
 21
-45.56535773331373
 31
0.0
  0
LINE
  5
22E
  8
0
  6
CONTINUOUS
 62
     3
 10
31.28218141312996
 20
-53.05332756753657
 30
0.0
 11
35.92670802758826
 21
-50.37180917268003
 31
0.0
  0
LINE
  5
22F
  8
0
  6
CONTINUOUS
 62
     3
 10
26.76646165126013
 20
-48.73228490921673
 30
0.0
 11
32.92671862834905
 21
-45.17565927816006
 31
0.0
  0
LINE
  5
230
  8
0
  6
CONTINUOUS
 62
     3
 10
26.76643458553448
 20
-48.7322454548806
 30
0.0
 11
27.41394519128821
 21
-49.85376656866069
 31
0.0
  0
LINE
  5
231
  8
0
  6
CONTINUOUS
 62
     3
 10
35.92672520173144
 20
-50.37178371463236
 30
0.0
 11
32.92671149264768
 21
-45.17562174697653
 31
0.0
  0
LINE
  5
232
  8
0
  6
CONTINUOUS
 62
     3
 10
39.16756549500954
 20
-50.21163876792983
 30
0.0
 11
40.92669046057293
 21
-53.25853216724411
 31
0.0
  0
LINE
  5
233
  8
0
  6
CONTINUOUS
 62
     3
 10
37.26243799209121
 20
-51.14298992432637
 30
0.0
 11
40.92670641664014
 21
-53.25855605189091
 31
0.0
  0
LINE
  5
234
  8
0
  6
CONTINUOUS
 62
     3
 10
-147.6760994301938
 20
127.3272913816689
 30
0.0
 11
-147.6760994301938
 21
76.16061962873923
 31
0.0
  0
LINE
  5
235
  8
0
  6
CONTINUOUS
 62
     3
 10
-147.6760994301938
 20
-37.67270861833109
 30
0.0
 11
-79.17609943019383
 21
-37.67270861833109
 31
0.0
  0
LINE
  5
236
  8
0
  6
CONTINUOUS
 62
     3
 10
-143.4761024819516
 20
119.8272913816689
 30
0.0
 11
-143.4761024819516
 21
81.82729138166891
 31
0.0
  0
LINE
  5
237
  8
0
  6
CONTINUOUS
 62
     3
 10
-147.6760994301938
 20
-30.17270861833109
 30
0.0
 11
-143.4761024819516
 21
-30.17270861833109
 31
0.0
  0
LINE
  5
238
  8
0
  6
CONTINUOUS
 62
     3
 10
-147.6760994301938
 20
119.8272913816689
 30
0.0
 11
-143.4761024819516
 21
119.8272913816689
 31
0.0
  0
LINE
  5
239
  8
0
  6
CONTINUOUS
 62
     3
 10
-146.126096378436
 20
7.827291381668914
 30
0.0
 11
-110.126096378436
 21
7.827291381668914
 31
0.0
  0
LINE
  5
23A
  8
0
  6
CONTINUOUS
 62
     3
 10
-85.62609637843602
 20
70.32729138166891
 30
0.0
 11
-85.62609637843602
 21
19.32729138166891
 31
0.0
  0
LINE
  5
23B
  8
0
  6
CONTINUOUS
 62
     3
 10
-104.126096378436
 20
80.82729138166891
 30
0.0
 11
-104.126096378436
 21
70.32729138166891
 31
0.0
  0
LINE
  5
23C
  8
0
  6
CONTINUOUS
 62
     3
 10
-104.126096378436
 20
19.32729138166891
 30
0.0
 11
-77.67609943019383
 21
19.32729138166891
 31
0.0
  0
LINE
  5
23D
  8
0
  6
CONTINUOUS
 62
     3
 10
-104.126096378436
 20
70.32729138166891
 30
0.0
 11
-77.67609943019383
 21
70.32729138166891
 31
0.0
  0
LINE
  5
23E
  8
0
  6
CONTINUOUS
 62
     3
 10
-143.4761024819516
 20
6.511201751541961
 30
0.0
 11
-143.4761024819516
 21
-2.557706939864289
 31
0.0
  0
LINE
  5
23F
  8
0
  6
CONTINUOUS
 62
     3
 10
-104.126096378436
 20
19.32729138166891
 30
0.0
 11
-104.126096378436
 21
8.827291381668914
 31
0.0
  0
LINE
  5
240
  8
0
  6
CONTINUOUS
 62
     3
 10
-127.126096378436
 20
77.32729138166891
 30
0.0
 11
-127.126096378436
 21
13.32730526971213
 31
0.0
  0
LINE
  5
241
  8
0
  6
CONTINUOUS
 62
     3
 10
-134.126096378436
 20
12.32729138166891
 30
0.0
 11
-127.126096378436
 21
12.32729138166891
 31
0.0
  0
LINE
  5
242
  8
0
  6
CONTINUOUS
 62
     3
 10
-134.126096378436
 20
77.32729138166891
 30
0.0
 11
-127.126096378436
 21
77.32729138166891
 31
0.0
  0
LINE
  5
243
  8
0
  6
CONTINUOUS
 62
     3
 10
-134.126096378436
 20
78.82729138166891
 30
0.0
 11
-134.126096378436
 21
73.32729138166891
 31
0.0
  0
LINE
  5
244
  8
0
  6
CONTINUOUS
 62
     3
 10
-147.126096378436
 20
78.01228894026266
 30
0.0
 11
-134.126096378436
 21
78.01228894026266
 31
0.0
  0
LINE
  5
245
  8
0
  6
CONTINUOUS
 62
     3
 10
-147.126096378436
 20
11.6422900083779
 30
0.0
 11
-142.126096378436
 21
11.6422900083779
 31
0.0
  0
LINE
  5
246
  8
0
  6
CONTINUOUS
 62
     3
 10
-147.126096378436
 20
73.32729138166891
 30
0.0
 11
-134.126096378436
 21
73.32729138166891
 31
0.0
  0
LINE
  5
247
  8
0
  6
CONTINUOUS
 62
     3
 10
-147.126096378436
 20
16.32729138166891
 30
0.0
 11
-134.126096378436
 21
16.32729138166891
 31
0.0
  0
LINE
  5
248
  8
0
  6
CONTINUOUS
 62
     3
 10
-134.126096378436
 20
16.32729138166891
 30
0.0
 11
-134.126096378436
 21
10.82729138166891
 31
0.0
  0
LINE
  5
249
  8
0
  6
CONTINUOUS
 62
     3
 10
-147.126096378436
 20
80.82729901106345
 30
0.0
 11
-147.126096378436
 21
73.32729138166891
 31
0.0
  0
LINE
  5
24A
  8
0
  6
CONTINUOUS
 62
     3
 10
-147.6760994301938
 20
12.49395836622702
 30
0.0
 11
-147.6760994301938
 21
-2.557706939864289
 31
0.0
  0
LINE
  5
24B
  8
0
  6
CONTINUOUS
 62
     3
 10
-127.126096378436
 20
67.82729138166891
 30
0.0
 11
-85.62609637843602
 21
67.82729138166891
 31
0.0
  0
LINE
  5
24C
  8
0
  6
CONTINUOUS
 62
     3
 10
-127.126096378436
 20
21.82729138166891
 30
0.0
 11
-85.62609637843602
 21
21.82729138166891
 31
0.0
  0
LINE
  5
24D
  8
0
  6
CONTINUOUS
 62
     3
 10
-143.4761024819516
 20
-13.05770693986429
 30
0.0
 11
-88.67609943019383
 21
-13.05770693986429
 31
0.0
  0
LINE
  5
24E
  8
0
  6
CONTINUOUS
 62
     3
 10
-143.4761024819516
 20
-2.057706939864289
 30
0.0
 11
-88.67609943019383
 21
-2.057706939864289
 31
0.0
  0
LINE
  5
24F
  8
0
  6
CONTINUOUS
 62
     3
 10
-88.67609943019383
 20
1.192293060135711
 30
0.0
 11
-77.67609943019383
 21
1.192293060135711
 31
0.0
  0
LINE
  5
250
  8
0
  6
CONTINUOUS
 62
     3
 10
-88.67609943019383
 20
-16.30770693986429
 30
0.0
 11
-77.67609943019383
 21
-16.30770693986429
 31
0.0
  0
LINE
  5
251
  8
0
  6
CONTINUOUS
 62
     3
 10
-88.67609943019383
 20
1.192293060135711
 30
0.0
 11
-88.67609943019383
 21
-16.30770693986429
 31
0.0
  0
LINE
  5
252
  8
0
  6
CONTINUOUS
 62
     3
 10
-96.67609943019383
 20
19.32729138166891
 30
0.0
 11
-96.67609943019383
 21
7.827291381668914
 31
0.0
  0
LINE
  5
253
  8
0
  6
CONTINUOUS
 62
     3
 10
-142.126096378436
 20
16.32729138166891
 30
0.0
 11
-142.126096378436
 21
7.827291381668914
 31
0.0
  0
LINE
  5
254
  8
0
  6
CONTINUOUS
 62
     3
 10
-138.126096378436
 20
16.32729138166891
 30
0.0
 11
-138.126096378436
 21
7.827291381668914
 31
0.0
  0
LINE
  5
255
  8
0
  6
CONTINUOUS
 62
     3
 10
-138.126096378436
 20
11.6422900083779
 30
0.0
 11
-134.126096378436
 21
11.6422900083779
 31
0.0
  0
LINE
  5
256
  8
0
  6
CONTINUOUS
 62
     3
 10
-147.126096378436
 20
16.32729138166891
 30
0.0
 11
-147.126096378436
 21
8.827291381668914
 31
0.0
  0
LINE
  5
257
  8
0
  6
CONTINUOUS
 62
     3
 10
-110.126096378436
 20
7.827291381668914
 30
0.0
 11
-96.67609943019383
 21
7.827291381668914
 31
0.0
  0
LINE
  5
258
  8
0
  6
CONTINUOUS
 62
     3
 10
-86.67609943019383
 20
79.32729138166891
 30
0.0
 11
-86.67609943019383
 21
72.82729138166891
 31
0.0
  0
LINE
  5
259
  8
0
  6
CONTINUOUS
 62
     3
 10
-86.67609943019383
 20
16.82729138166891
 30
0.0
 11
-86.67609943019383
 21
14.32729138166891
 31
0.0
  0
LINE
  5
25A
  8
0
  6
CONTINUOUS
 62
     3
 10
-86.67609943019383
 20
3.827291381668914
 30
0.0
 11
-77.67609943019383
 21
3.827291381668914
 31
0.0
  0
LINE
  5
25B
  8
0
  6
CONTINUOUS
 62
     3
 10
-95.67609943019383
 20
72.82729138166891
 30
0.0
 11
-86.67609943019383
 21
72.82729138166891
 31
0.0
  0
LINE
  5
25C
  8
0
  6
CONTINUOUS
 62
     3
 10
-95.67609943019383
 20
16.82729138166891
 30
0.0
 11
-86.67609943019383
 21
16.82729138166891
 31
0.0
  0
LINE
  5
25D
  8
0
  6
CONTINUOUS
 62
     3
 10
-95.67609943019383
 20
72.82729138166891
 30
0.0
 11
-95.67609943019383
 21
70.32729138166891
 31
0.0
  0
LINE
  5
25E
  8
0
  6
CONTINUOUS
 62
     3
 10
-95.67609943019383
 20
19.32729138166891
 30
0.0
 11
-95.67609943019383
 21
16.82729138166891
 31
0.0
  0
LINE
  5
25F
  8
0
  6
CONTINUOUS
 62
     3
 10
-86.67609943019383
 20
77.32729138166891
 30
0.0
 11
-85.17609943019383
 21
77.32729138166891
 31
0.0
  0
LINE
  5
260
  8
0
  6
CONTINUOUS
 62
     3
 10
-85.17610387147616
 20
77.327301792253
 30
0.0
 11
-77.67610888966047
 21
72.99717814898131
 31
0.0
  0
LINE
  5
261
  8
0
  6
CONTINUOUS
 62
     3
 10
-86.67609943019383
 20
79.32729138166891
 30
0.0
 11
-75.67609943019383
 21
79.32729138166891
 31
0.0
  0
LINE
  5
262
  8
0
  6
CONTINUOUS
 62
     3
 10
-95.67609943019383
 20
74.82729138166891
 30
0.0
 11
-86.67609943019383
 21
74.82729138166891
 31
0.0
  0
LINE
  5
263
  8
0
  6
CONTINUOUS
 62
     3
 10
-95.67609943019383
 20
83.82729138166891
 30
0.0
 11
-95.67609943019383
 21
74.82729138166891
 31
0.0
  0
LINE
  5
264
  8
0
  6
CONTINUOUS
 62
     3
 10
-96.67609943019383
 20
15.82729138166891
 30
0.0
 11
-86.67609943019383
 21
15.82729138166891
 31
0.0
  0
LINE
  5
265
  8
0
  6
CONTINUOUS
 62
     3
 10
-147.6760994301938
 20
127.3272913816689
 30
0.0
 11
-121.6760994301938
 21
127.3272913816689
 31
0.0
  0
LINE
  5
266
  8
0
  6
CONTINUOUS
 62
     3
 10
-67.67609943019383
 20
120.8272913816689
 30
0.0
 11
-67.67609943019383
 21
107.8272913816689
 31
0.0
  0
LINE
  5
267
  8
0
  6
CONTINUOUS
 62
     3
 10
-67.67609943019383
 20
95.82729138166891
 30
0.0
 11
-67.67609943019383
 21
82.82729138166891
 31
0.0
  0
LINE
  5
268
  8
0
  6
CONTINUOUS
 62
     3
 10
-67.67609943019383
 20
107.8272913816689
 30
0.0
 11
-59.67609943019383
 21
107.8272913816689
 31
0.0
  0
LINE
  5
269
  8
0
  6
CONTINUOUS
 62
     3
 10
-67.67609943019383
 20
120.8272913816689
 30
0.0
 11
-59.67609943019383
 21
120.8272913816689
 31
0.0
  0
LINE
  5
26A
  8
0
  6
CONTINUOUS
 62
     3
 10
-67.67609943019383
 20
95.82729138166891
 30
0.0
 11
-59.67609943019383
 21
95.82729138166891
 31
0.0
  0
LINE
  5
26B
  8
0
  6
CONTINUOUS
 62
     3
 10
-67.67609943019383
 20
82.82729138166891
 30
0.0
 11
-59.67609943019383
 21
82.82729138166891
 31
0.0
  0
LINE
  5
26C
  8
0
  6
CONTINUOUS
 62
     3
 10
-59.67609943019383
 20
120.8272913816689
 30
0.0
 11
-59.67609943019383
 21
107.8272913816689
 31
0.0
  0
LINE
  5
26D
  8
0
  6
CONTINUOUS
 62
     3
 10
-59.67609943019383
 20
95.82729138166891
 30
0.0
 11
-59.67609943019383
 21
82.82729138166891
 31
0.0
  0
LINE
  5
26E
  8
0
  6
CONTINUOUS
 62
     3
 10
-88.67609943019383
 20
118.3272913816689
 30
0.0
 11
-67.67609943019383
 21
118.3272913816689
 31
0.0
  0
LINE
  5
26F
  8
0
  6
CONTINUOUS
 62
     3
 10
-88.67609943019383
 20
110.3272913816689
 30
0.0
 11
-67.67609943019383
 21
110.3272913816689
 31
0.0
  0
LINE
  5
270
  8
0
  6
CONTINUOUS
 62
     3
 10
-88.67609943019383
 20
93.32729138166891
 30
0.0
 11
-67.67609943019383
 21
93.32729138166891
 31
0.0
  0
LINE
  5
271
  8
0
  6
CONTINUOUS
 62
     3
 10
-88.67609943019383
 20
85.32729138166891
 30
0.0
 11
-67.67609943019383
 21
85.32729138166891
 31
0.0
  0
LINE
  5
272
  8
0
  6
CONTINUOUS
 62
     3
 10
-86.67609943019383
 20
7.827291381668914
 30
0.0
 11
-83.67609943019383
 21
7.827291381668914
 31
0.0
  0
LINE
  5
273
  8
0
  6
CONTINUOUS
 62
     3
 10
-86.67609943019383
 20
14.82729138166891
 30
0.0
 11
-83.67609943019383
 21
14.82729138166891
 31
0.0
  0
LINE
  5
274
  8
0
  6
CONTINUOUS
 62
     3
 10
-83.67609943019383
 20
5.827291381668914
 30
0.0
 11
-77.67609943019383
 21
5.827291381668914
 31
0.0
  0
LINE
  5
275
  8
0
  6
CONTINUOUS
 62
     3
 10
-83.67609943019383
 20
16.82729138166891
 30
0.0
 11
-77.67609943019383
 21
16.82729138166891
 31
0.0
  0
LINE
  5
276
  8
0
  6
CONTINUOUS
 62
     3
 10
-83.67609943019383
 20
6.327291381668914
 30
0.0
 11
-77.67609943019383
 21
6.327291381668914
 31
0.0
  0
LINE
  5
277
  8
0
  6
CONTINUOUS
 62
     3
 10
-83.67609943019383
 20
16.32729138166891
 30
0.0
 11
-77.67609943019383
 21
16.32729138166891
 31
0.0
  0
LINE
  5
278
  8
0
  6
CONTINUOUS
 62
     3
 10
-96.67609943019383
 20
14.32729138166891
 30
0.0
 11
-83.67609943019383
 21
14.32729138166891
 31
0.0
  0
LINE
  5
279
  8
0
  6
CONTINUOUS
 62
     3
 10
-96.67609943019383
 20
8.327291381668914
 30
0.0
 11
-83.67609943019383
 21
8.327291381668914
 31
0.0
  0
LINE
  5
27A
  8
0
  6
CONTINUOUS
 62
     3
 10
-86.67609943019383
 20
8.327291381668914
 30
0.0
 11
-86.67609943019383
 21
3.827291381668914
 31
0.0
  0
LINE
  5
27B
  8
0
  6
CONTINUOUS
 62
     3
 10
-83.67609943019383
 20
16.82729138166891
 30
0.0
 11
-83.67609943019383
 21
5.827291381668914
 31
0.0
  0
LINE
  5
27C
  8
0
  6
CONTINUOUS
 62
     3
 10
-158.6760994301938
 20
-12.55770693986429
 30
0.0
 11
-88.67609943019383
 21
-12.55770693986429
 31
0.0
  0
LINE
  5
27D
  8
0
  6
CONTINUOUS
 62
     3
 10
-158.6760994301938
 20
-2.557706939864289
 30
0.0
 11
-88.67609943019383
 21
-2.557706939864289
 31
0.0
  0
LINE
  5
27E
  8
0
  6
CONTINUOUS
 62
     3
 10
-88.67609943019383
 20
-15.55770693986429
 30
0.0
 11
-78.67609943019383
 21
-15.55770693986429
 31
0.0
  0
LINE
  5
27F
  8
0
  6
CONTINUOUS
 62
     3
 10
-88.67609943019383
 20
0.4422930601357109
 30
0.0
 11
-78.67609943019383
 21
0.4422930601357109
 31
0.0
  0
LINE
  5
280
  8
0
  6
CONTINUOUS
 62
     3
 10
-78.67609943019383
 20
0.4422930601357109
 30
0.0
 11
-78.67609943019383
 21
-15.55770693986429
 31
0.0
  0
LINE
  5
281
  8
0
  6
CONTINUOUS
 62
     3
 10
-158.6760994301938
 20
-2.557706939864289
 30
0.0
 11
-158.6760994301938
 21
-12.55770693986429
 31
0.0
  0
LINE
  5
282
  8
0
  6
CONTINUOUS
 62
     3
 10
-143.4761024819516
 20
-12.55770693986429
 30
0.0
 11
-143.4761024819516
 21
-30.17270861833109
 31
0.0
  0
LINE
  5
283
  8
0
  6
CONTINUOUS
 62
     3
 10
-126.6760994301938
 20
-2.557706939864289
 30
0.0
 11
-126.6760994301938
 21
-12.55770693986429
 31
0.0
  0
LINE
  5
284
  8
0
  6
CONTINUOUS
 62
     3
 10
-79.17611688077565
 20
-37.6726935317943
 30
0.0
 11
-77.6761152883914
 21
-36.17269193941004
 31
0.0
  0
LINE
  5
285
  8
0
  6
CONTINUOUS
 62
     3
 10
-105.1260934147679
 20
81.8273023930262
 30
0.0
 11
-104.1260942919355
 21
80.82729939267958
 31
0.0
  0
LINE
  5
286
  8
0
  6
CONTINUOUS
 62
     3
 10
-146.1260742270104
 20
81.82726932817454
 30
0.0
 11
-147.1260736870034
 21
80.82727745458155
 31
0.0
  0
LINE
  5
287
  8
0
  6
CONTINUOUS
 62
     3
 10
-147.1260727579173
 20
8.827314022444483
 30
0.0
 11
-146.1260716963278
 21
7.827312960854982
 31
0.0
  0
LINE
  5
288
  8
0
  6
CONTINUOUS
 62
     3
 10
-104.1260729653392
 20
8.827273561470605
 30
0.0
 11
-105.1260713295304
 21
7.827275197279363
 31
0.0
  0
LINE
  5
289
  8
0
  6
CONTINUOUS
 62
     3
 10
35.92670522184019
 20
-50.37177240249733
 30
0.0
 11
32.92670486421233
 21
-45.17562007305244
 31
0.0
  0
LINE
  5
28A
  8
0
  6
CONTINUOUS
 62
     3
 10
43.85394383368001
 20
-45.10215983210745
 30
0.0
 11
41.45394202169862
 21
-40.94523532565179
 31
0.0
  0
LINE
  5
28B
  8
0
  6
CONTINUOUS
 62
     3
 10
34.51017327972298
 20
-43.16446841757809
 30
0.0
 11
33.04984067777414
 21
-44.00759195406036
 31
0.0
  0
LINE
  5
28C
  8
0
  6
CONTINUOUS
 62
     3
 10
38.46016688414377
 20
-50.00605709163168
 30
0.0
 11
36.9998326303826
 21
-50.84918158178837
 31
0.0
  0
LINE
  5
28D
  8
0
  6
CONTINUOUS
 62
     3
 10
42.31208691803479
 20
-47.03158375859496
 30
0.0
 11
39.0120911022814
 21
-41.31582412490482
 31
0.0
  0
LINE
  5
28E
  8
0
  6
CONTINUOUS
 62
     3
 10
38.72107810185756
 20
-49.21176806130009
 30
0.0
 11
35.32847668424441
 21
-43.33561084212309
 31
0.0
  0
LINE
  5
28F
  8
0
  6
CONTINUOUS
 62
     3
 10
37.36320177421501
 20
-48.38772764003105
 30
0.0
 11
36.08829336652005
 21
-49.12379645336321
 31
0.0
  0
LINE
  5
290
  8
0
  6
CONTINUOUS
 62
     3
 10
35.36320318760878
 20
-44.92362513339336
 30
0.0
 11
34.08829643172615
 21
-45.6596929930511
 31
0.0
  0
LINE
  5
291
  8
0
  6
CONTINUOUS
 62
     3
 10
39.01209702489322
 20
-41.31584078605633
 30
0.0
 11
41.45395578110546
 21
-40.9452632754595
 31
0.0
  0
LINE
  5
292
  8
0
  6
CONTINUOUS
 62
     3
 10
43.85398748566819
 20
-45.10218863771041
 30
0.0
 11
42.31212886617371
 21
-47.03161175310373
 31
0.0
  0
LINE
  5
293
  8
0
  6
CONTINUOUS
 62
     3
 10
41.10260305765488
 20
-46.93669256106105
 30
0.0
 11
38.45658376029124
 21
-42.35365332881784
 31
0.0
  0
LINE
  5
294
  8
0
  6
CONTINUOUS
 62
     3
 10
-127.126096378436
 20
76.32729138166891
 30
0.0
 11
-127.126096378436
 21
16.57729519636618
 31
0.0
  0
LINE
  5
295
  8
0
  6
CONTINUOUS
 62
     3
 10
-134.126096378436
 20
76.32729138166891
 30
0.0
 11
-134.126096378436
 21
73.32729138166891
 31
0.0
  0
LINE
  5
296
  8
0
  6
CONTINUOUS
 62
     3
 10
-172.126096378436
 20
72.32729138166891
 30
0.0
 11
-172.126096378436
 21
17.32728947432028
 31
0.0
  0
LINE
  5
297
  8
0
  6
CONTINUOUS
 62
     3
 10
-152.126096378436
 20
67.82729138166891
 30
0.0
 11
-127.126096378436
 21
67.82729138166891
 31
0.0
  0
LINE
  5
298
  8
0
  6
CONTINUOUS
 62
     3
 10
-152.126096378436
 20
21.82729138166891
 30
0.0
 11
-127.126096378436
 21
21.82729138166891
 31
0.0
  0
LINE
  5
299
  8
0
  6
CONTINUOUS
 62
     3
 10
-171.126096378436
 20
16.32729138166891
 30
0.0
 11
-134.126096378436
 21
16.32729138166891
 31
0.0
  0
LINE
  5
29A
  8
0
  6
CONTINUOUS
 62
     3
 10
-171.126096378436
 20
73.32729138166891
 30
0.0
 11
-134.126096378436
 21
73.32729138166891
 31
0.0
  0
LINE
  5
29B
  8
0
  6
CONTINUOUS
 62
     3
 10
-133.126096378436
 20
12.32729138166891
 30
0.0
 11
-128.126096378436
 21
12.32729138166891
 31
0.0
  0
LINE
  5
29C
  8
0
  6
CONTINUOUS
 62
     3
 10
-133.126096378436
 20
77.32729138166891
 30
0.0
 11
-128.126096378436
 21
77.32729138166891
 31
0.0
  0
LINE
  5
29D
  8
0
  6
CONTINUOUS
 62
     3
 10
-134.126096378436
 20
16.32729138166891
 30
0.0
 11
-134.126096378436
 21
13.32729138166891
 31
0.0
  0
LINE
  5
29E
  8
0
  6
CONTINUOUS
 62
     3
 10
-156.126096378436
 20
70.97729290754782
 30
0.0
 11
-156.126096378436
 21
18.67729176313864
 31
0.0
  0
LINE
  5
29F
  8
0
  6
CONTINUOUS
 62
     3
 10
-152.126096378436
 20
70.97729290754782
 30
0.0
 11
-152.126096378436
 21
18.67729176313864
 31
0.0
  0
LINE
  5
2A0
  8
0
  6
CONTINUOUS
 62
     3
 10
-156.126096378436
 20
70.97729290754782
 30
0.0
 11
-152.126096378436
 21
70.97729290754782
 31
0.0
  0
LINE
  5
2A1
  8
0
  6
CONTINUOUS
 62
     3
 10
-156.126096378436
 20
18.67729176313864
 30
0.0
 11
-152.126096378436
 21
18.67729176313864
 31
0.0
  0
LINE
  5
2A2
  8
0
  6
CONTINUOUS
 62
     3
 10
-172.126096378436
 20
19.64229191572653
 30
0.0
 11
-156.126096378436
 21
19.64229191572653
 31
0.0
  0
LINE
  5
2A3
  8
0
  6
CONTINUOUS
 62
     3
 10
-172.126096378436
 20
70.01228894026266
 30
0.0
 11
-156.126096378436
 21
70.01228894026266
 31
0.0
  0
LINE
  5
2A4
  8
0
  6
CONTINUOUS
 62
     3
 10
-144.626096378436
 20
70.62729443342673
 30
0.0
 11
-137.626096378436
 21
70.62729443342673
 31
0.0
  0
LINE
  5
2A5
  8
0
  6
CONTINUOUS
 62
     3
 10
-144.626096378436
 20
19.02729214460837
 30
0.0
 11
-137.626096378436
 21
19.02729214460837
 31
0.0
  0
LINE
  5
2A6
  8
0
  6
CONTINUOUS
 62
     3
 10
-144.626096378436
 20
70.62729443342673
 30
0.0
 11
-144.626096378436
 21
67.82729138166891
 31
0.0
  0
LINE
  5
2A7
  8
0
  6
CONTINUOUS
 62
     3
 10
-137.626096378436
 20
70.62729443342673
 30
0.0
 11
-137.626096378436
 21
67.82729138166891
 31
0.0
  0
LINE
  5
2A8
  8
0
  6
CONTINUOUS
 62
     3
 10
-144.626096378436
 20
21.82729138166891
 30
0.0
 11
-144.626096378436
 21
19.02729214460837
 31
0.0
  0
LINE
  5
2A9
  8
0
  6
CONTINUOUS
 62
     3
 10
-137.626096378436
 20
21.82729138166891
 30
0.0
 11
-137.626096378436
 21
19.02729214460837
 31
0.0
  0
LINE
  5
2AA
  8
0
  6
CONTINUOUS
 62
     3
 10
-128.1260890025933
 20
77.32729637848362
 30
0.0
 11
-127.1260879410038
 21
76.32729531689412
 31
0.0
  0
LINE
  5
2AB
  8
0
  6
CONTINUOUS
 62
     3
 10
-127.126129432161
 20
13.32730526971213
 30
0.0
 11
-128.1261309152195
 21
12.32730454529778
 31
0.0
  0
LINE
  5
2AC
  8
0
  6
CONTINUOUS
 62
     3
 10
-133.1260740800538
 20
12.32731234321122
 30
0.0
 11
-134.1260751416433
 21
13.32731340480072
 31
0.0
  0
LINE
  5
2AD
  8
0
  6
CONTINUOUS
 62
     3
 10
-171.126079143687
 20
16.32730703347428
 30
0.0
 11
-172.1260811325081
 21
17.32730716783212
 31
0.0
  0
LINE
  5
2AE
  8
0
  6
CONTINUOUS
 62
     3
 10
-172.126080415867
 20
72.32727084004918
 30
0.0
 11
-171.1260793542775
 21
73.32727190163868
 31
0.0
  0
LINE
  5
2AF
  8
0
  6
CONTINUOUS
 62
     3
 10
-134.1260915367771
 20
76.3272780221358
 30
0.0
 11
-133.1260902223063
 21
77.32727883084394
 31
0.0
  0
LINE
  5
2B0
  8
0
  6
CONTINUOUS
 62
     3
 10
-77.67609943019383
 20
78.19012249739157
 30
0.0
 11
-77.67609943019383
 21
-36.17270861833109
 31
0.0
  0
LINE
  5
2B1
  8
0
  6
CONTINUOUS
 62
     3
 10
-121.6760994301938
 20
127.3272913816689
 30
0.0
 11
-121.6760994301938
 21
106.2922152985975
 31
0.0
  0
LINE
  5
2B2
  8
0
  6
CONTINUOUS
 62
     3
 10
-121.6760994301938
 20
127.3272913816689
 30
0.0
 11
-75.67609943019383
 21
127.3272913816689
 31
0.0
  0
LINE
  5
2B3
  8
0
  6
CONTINUOUS
 62
     3
 10
-121.1323982583188
 20
81.82729138166891
 30
0.0
 11
-105.126096378436
 21
81.82729138166891
 31
0.0
  0
LINE
  5
2B4
  8
0
  6
CONTINUOUS
 62
     3
 10
-103.3717628823423
 20
76.82729138166891
 30
0.0
 11
-95.67609943019383
 21
76.82729138166891
 31
0.0
  0
LINE
  5
2B5
  8
0
  6
CONTINUOUS
 62
     3
 10
-101.6760994301938
 20
83.82729138166891
 30
0.0
 11
-95.67609943019383
 21
83.82729138166891
 31
0.0
  0
LINE
  5
2B6
  8
0
  6
CONTINUOUS
 62
     3
 10
-82.67609943019383
 20
127.3272913816689
 30
0.0
 11
-82.67609943019383
 21
122.3272913816689
 31
0.0
  0
LINE
  5
2B7
  8
0
  6
CONTINUOUS
 62
     3
 10
-89.67609943019383
 20
127.3272913816689
 30
0.0
 11
-89.67609943019383
 21
76.32729138166891
 31
0.0
  0
LINE
  5
2B8
  8
0
  6
CONTINUOUS
 62
     3
 10
-89.67609943019383
 20
76.32729138166891
 30
0.0
 11
-86.67609943019383
 21
76.32729138166891
 31
0.0
  0
LINE
  5
2B9
  8
0
  6
CONTINUOUS
 62
     3
 10
-88.67609943019383
 20
122.3272913816689
 30
0.0
 11
-88.67609943019383
 21
81.32729138166891
 31
0.0
  0
LINE
  5
2BA
  8
0
  6
CONTINUOUS
 62
     3
 10
-74.67609943019383
 20
122.3272913816689
 30
0.0
 11
-74.67609943019383
 21
118.3272913816689
 31
0.0
  0
LINE
  5
2BB
  8
0
  6
CONTINUOUS
 62
     3
 10
-88.67609943019383
 20
81.32729138166891
 30
0.0
 11
-74.67609943019383
 21
81.32729138166891
 31
0.0
  0
LINE
  5
2BC
  8
0
  6
CONTINUOUS
 62
     3
 10
-88.67609943019383
 20
122.3272913816689
 30
0.0
 11
-74.67609943019383
 21
122.3272913816689
 31
0.0
  0
LINE
  5
2BD
  8
0
  6
CONTINUOUS
 62
     3
 10
-74.67609943019383
 20
110.3272913816689
 30
0.0
 11
-74.67609943019383
 21
93.32729138166891
 31
0.0
  0
LINE
  5
2BE
  8
0
  6
CONTINUOUS
 62
     3
 10
-74.67609943019383
 20
85.32729138166891
 30
0.0
 11
-74.67609943019383
 21
81.32729138166891
 31
0.0
  0
LINE
  5
2BF
  8
0
  6
CONTINUOUS
 62
     3
 10
-82.67609943019383
 20
81.32729138166891
 30
0.0
 11
-82.67609943019383
 21
79.32729138166891
 31
0.0
  0
LINE
  5
2C0
  8
0
  6
CONTINUOUS
 62
     3
 10
-85.67609943019383
 20
93.32729138166891
 30
0.0
 11
-85.67609943019383
 21
85.32729138166891
 31
0.0
  0
LINE
  5
2C1
  8
0
  6
CONTINUOUS
 62
     3
 10
-85.67609943019383
 20
118.3272913816689
 30
0.0
 11
-85.67609943019383
 21
110.3272913816689
 31
0.0
  0
LINE
  5
2C2
  8
0
  6
CONTINUOUS
 62
     3
 10
-95.67609943019383
 20
14.32729138166891
 30
0.0
 11
-95.67609943019383
 21
8.327291381668914
 31
0.0
  0
LINE
  5
2C3
  8
0
  6
CONTINUOUS
 62
     3
 10
-127.126096378436
 20
13.08727635176169
 30
0.0
 11
-127.126096378436
 21
12.32729138166891
 31
0.0
  0
LINE
  5
2C4
  8
0
  6
CONTINUOUS
 62
     3
 10
-146.1260582314634
 20
81.82729138166891
 30
0.0
 11
-121.1323982583188
 21
81.82729138166891
 31
0.0
  0
ARC
  5
2C5
  8
0
  6
CONTINUOUS
 62
     3
 10
37.02478252781398
 20
-46.27370654313577
 30
0.0
 40
3.0
 50
209.9999889956806
 51
251.8103021508074
  0
ARC
  5
2C6
  8
0
  6
CONTINUOUS
 62
     3
 10
34.42670666111476
 20
-47.77370654313577
 30
0.0
 40
3.0
 50
348.1896876796992
 51
431.8102730088179
  0
ARC
  5
2C7
  8
0
  6
CONTINUOUS
 62
     3
 10
37.02478252781398
 20
-46.27370654313577
 30
0.0
 40
3.0
 50
168.1896653678988
 51
209.9999716928365
  0
ARC
  5
2C8
  8
0
  6
CONTINUOUS
 62
     3
 10
40.66208874119289
 20
-44.17370806901468
 30
0.0
 40
3.299999952316284
 50
282.3602834779813
 51
299.9999710095912
  0
ARC
  5
2C9
  8
0
  6
CONTINUOUS
 62
     3
 10
40.66208874119289
 20
-44.17370806901468
 30
0.0
 40
3.299999952316284
 50
119.9999760185475
 51
137.6396772105358
  0
ARC
  5
2CA
  8
0
  6
CONTINUOUS
 62
     3
 10
41.47769390476711
 20
-50.39542590348734
 30
0.0
 40
3.0
 50
92.10684948604947
 51
156.7619665845238
  0
ARC
  5
2CB
  8
0
  6
CONTINUOUS
 62
     3
 10
35.68171154392726
 20
-40.35648547379984
 30
0.0
 40
3.0
 50
263.2379941039933
 51
327.8898190512877
  0
ARC
  5
2CC
  8
0
  6
CONTINUOUS
 62
     3
 10
37.71474682224758
 20
-49.33945666520609
 30
0.0
 40
1.0
 50
50.71543866290864
 51
119.9999760185475
  0
ARC
  5
2CD
  8
0
  6
CONTINUOUS
 62
     3
 10
37.71474682224758
 20
-49.33945666520609
 30
0.0
 40
1.0
 50
318.194864128264
 51
369.2845220256085
  0
ARC
  5
2CE
  8
0
  6
CONTINUOUS
 62
     3
 10
34.71474682224758
 20
-44.14330493180765
 30
0.0
 40
1.0
 50
299.9999710095912
 51
369.2845220256085
  0
ARC
  5
2CF
  8
0
  6
CONTINUOUS
 62
     3
 10
34.71474682224758
 20
-44.14330493180765
 30
0.0
 40
1.0
 50
50.71543866290864
 51
101.8050897300639
  0
ARC
  5
2D0
  8
0
  6
CONTINUOUS
 62
     3
 10
36.79524837864406
 20
-49.87033282487406
 30
0.0
 40
1.0
 50
209.9999889956806
 51
281.8051257022426
  0
ARC
  5
2D1
  8
0
  6
CONTINUOUS
 62
     3
 10
33.7952445639468
 20
-44.67417727677835
 30
0.0
 40
1.0
 50
209.9999889956806
 51
299.9999710095912
  0
ARC
  5
2D2
  8
0
  6
CONTINUOUS
 62
     3
 10
36.79524837864406
 20
-49.87033282487406
 30
0.0
 40
1.0
 50
119.9999760185475
 51
209.9999716928365
  0
ARC
  5
2D3
  8
0
  6
CONTINUOUS
 62
     3
 10
33.7952445639468
 20
-44.67417727677835
 30
0.0
 40
1.0
 50
138.1948349862745
 51
209.9999716928365
  0
ARC
  5
2D4
  8
0
  6
CONTINUOUS
 62
     3
 10
42.24008785618312
 20
-43.26264773576273
 30
0.0
 40
1.200000047683716
 50
323.4679614128106
 51
456.5320061058957
  0
LINE
  5
2D5
  8
0
  6
CONTINUOUS
 62
     3
 10
120.8163474692202
 20
127.3272913816689
 30
0.0
 11
120.8163474692202
 21
72.99728955061423
 31
0.0
  0
LINE
  5
2D6
  8
0
  6
CONTINUOUS
 62
     3
 10
148.8163474692202
 20
127.3272913816689
 30
0.0
 11
148.8163474692202
 21
72.99728955061423
 31
0.0
  0
LINE
  5
2D7
  8
0
  6
CONTINUOUS
 62
     3
 10
70.36926476476234
 20
-8.547064213071423
 30
0.0
 11
117.4204289319461
 21
18.61793508329569
 31
0.0
  0
LINE
  5
2D8
  8
0
  6
CONTINUOUS
 62
     3
 10
56.36925803830329
 20
15.70164616371685
 30
0.0
 11
103.4204155982372
 21
42.86664164538692
 31
0.0
  0
LINE
  5
2D9
  8
0
  6
CONTINUOUS
 62
     3
 10
166.2122792594031
 20
42.8666850340463
 30
0.0
 11
213.2634434265869
 21
15.70168573767919
 31
0.0
  0
LINE
  5
2DA
  8
0
  6
CONTINUOUS
 62
     3
 10
152.2122933083678
 20
18.61796486497937
 30
0.0
 11
199.2634574755515
 21
-8.547034431387743
 31
0.0
  0
LINE
  5
2DB
  8
0
  6
CONTINUOUS
 62
     3
 10
120.8163474692202
 20
127.3272913816689
 30
0.0
 11
148.8163474692202
 21
127.3272913816689
 31
0.0
  0
LINE
  5
2DC
  8
0
  6
CONTINUOUS
 62
     3
 10
199.2634882535719
 20
-8.547060001210099
 30
0.0
 11
213.2634899225019
 21
15.7016508695327
 31
0.0
  0
LINE
  5
2DD
  8
0
  6
CONTINUOUS
 62
     3
 10
56.36925856494761
 20
15.70165112171387
 30
0.0
 11
70.36925737285438
 21
-8.547054793591911
 31
0.0
  0
LINE
  5
2DE
  8
0
  6
CONTINUOUS
 62
     3
 10
152.2123235100109
 20
18.61793754538834
 30
0.0
 11
166.2123251789409
 21
42.86664841613114
 31
0.0
  0
LINE
  5
2DF
  8
0
  6
CONTINUOUS
 62
     3
 10
155.9622282413322
 20
16.45292874237734
 30
0.0
 11
169.9622299102622
 21
40.70163961312014
 31
0.0
  0
LINE
  5
2E0
  8
0
  6
CONTINUOUS
 62
     3
 10
99.67055249863691
 20
40.70167266436167
 30
0.0
 11
113.6705493991948
 21
16.45297005268057
 31
0.0
  0
LINE
  5
2E1
  8
0
  6
CONTINUOUS
 62
     3
 10
103.4204241937114
 20
42.86666239388407
 30
0.0
 11
117.4204210942693
 21
18.61795978220297
 31
0.0
  0
LINE
  5
2E2
  8
0
  6
CONTINUOUS
 62
     3
 10
214.6762726215249
 20
24.12360158817259
 30
0.0
 11
215.4070476656426
 21
23.70168846634792
 31
0.0
  0
LINE
  5
2E3
  8
0
  6
CONTINUOUS
 62
     3
 10
192.67627011813
 20
-13.98152472427742
 30
0.0
 11
193.4070451622478
 21
-14.40343784610209
 31
0.0
  0
LINE
  5
2E4
  8
0
  6
CONTINUOUS
 62
     3
 10
76.22566767826348
 20
-14.40348186442967
 30
0.0
 11
76.95643611513142
 21
-13.98157255730203
 31
0.0
  0
LINE
  5
2E5
  8
0
  6
CONTINUOUS
 62
     3
 10
112.8163474692202
 20
125.1836985471963
 30
0.0
 11
112.8163474692202
 21
124.339872253251
 31
0.0
  0
LINE
  5
2E6
  8
0
  6
CONTINUOUS
 62
     3
 10
156.8163474692202
 20
125.1836985471963
 30
0.0
 11
156.8163474692202
 21
124.339872253251
 31
0.0
  0
LINE
  5
2E7
  8
0
  6
CONTINUOUS
 62
     3
 10
148.8163165600724
 20
127.3272465090666
 30
0.0
 11
156.8163035058803
 21
125.1836566963401
 31
0.0
  0
LINE
  5
2E8
  8
0
  6
CONTINUOUS
 62
     3
 10
112.8163570616411
 20
125.1836655939731
 30
0.0
 11
120.8163587463072
 21
127.3272593559644
 31
0.0
  0
LINE
  5
2E9
  8
0
  6
CONTINUOUS
 62
     3
 10
56.36927452476479
 20
15.70165125690167
 30
0.0
 11
54.2256816266754
 21
23.70165297463672
 31
0.0
  0
LINE
  5
2EA
  8
0
  6
CONTINUOUS
 62
     3
 10
213.2634434784526
 20
15.70164594484308
 30
0.0
 11
215.407039708735
 21
23.70165499893832
 31
0.0
  0
LINE
  5
2EB
  8
0
  6
CONTINUOUS
 62
     3
 10
193.4070648147173
 20
-14.40349898080072
 30
0.0
 11
199.2634729842213
 21
-8.547091304954989
 31
0.0
  0
LINE
  5
2EC
  8
0
  6
CONTINUOUS
 62
     3
 10
70.36927230355096
 20
-8.547059273347855
 30
0.0
 11
76.22566968346101
 21
-14.40345615960055
 31
0.0
  0
LINE
  5
2ED
  8
0
  6
CONTINUOUS
 62
     3
 10
54.22566231384585
 20
23.70164940345771
 30
0.0
 11
54.95643735796361
 21
24.12356252528238
 31
0.0
  0
LINE
  5
2EE
  8
0
  6
CONTINUOUS
 62
     3
 10
60.61927106795318
 20
8.340422109040304
 30
0.0
 11
68.87761975461743
 21
13.10838141957433
 31
0.0
  0
LINE
  5
2EF
  8
0
  6
CONTINUOUS
 62
     3
 10
66.11927264747615
 20
-1.185861120884653
 30
0.0
 11
74.37761472689059
 21
3.582094374952334
 31
0.0
  0
LINE
  5
2F0
  8
0
  6
CONTINUOUS
 62
     3
 10
161.9442225111501
 20
22.81418807418126
 30
0.0
 11
167.6044287817798
 21
19.54626682121065
 31
0.0
  0
LINE
  5
2F1
  8
0
  6
CONTINUOUS
 62
     3
 10
167.4442353978242
 20
32.34046037108723
 30
0.0
 11
173.1045341699513
 21
29.07248571235809
 31
0.0
  0
LINE
  5
2F2
  8
0
  6
CONTINUOUS
 62
     3
 10
157.6942317449222
 20
15.45293829685565
 30
0.0
 11
161.9442284368639
 21
22.81414748965321
 31
0.0
  0
LINE
  5
2F3
  8
0
  6
CONTINUOUS
 62
     3
 10
97.93849511490592
 20
39.70166873045466
 30
0.0
 11
102.1884965752198
 21
32.3404512785954
 31
0.0
  0
LINE
  5
2F4
  8
0
  6
CONTINUOUS
 62
     3
 10
107.6885010455686
 20
22.81416540069708
 30
0.0
 11
111.9384996448593
 21
15.45295290427484
 31
0.0
  0
LINE
  5
2F5
  8
0
  6
CONTINUOUS
 62
     3
 10
167.444229092515
 20
32.34042676030217
 30
0.0
 11
171.6942334138522
 21
39.70164916759845
 31
0.0
  0
LINE
  5
2F6
  8
0
  6
CONTINUOUS
 62
     3
 10
87.09963102415705
 20
75.09010982597837
 30
0.0
 11
84.74963114932771
 21
71.01979370442959
 31
0.0
  0
LINE
  5
2F7
  8
0
  6
CONTINUOUS
 62
     3
 10
84.74955379714419
 20
71.01974877622013
 30
0.0
 11
87.09955091526027
 21
66.94943266972588
 31
0.0
  0
LINE
  5
2F8
  8
0
  6
CONTINUOUS
 62
     3
 10
87.09960399998195
 20
66.94945324690329
 30
0.0
 11
91.79960857761867
 21
66.94945324690329
 31
0.0
  0
LINE
  5
2F9
  8
0
  6
CONTINUOUS
 62
     3
 10
91.79960502087366
 20
66.94946669167834
 30
0.0
 11
94.14960657655288
 21
71.01978169266053
 31
0.0
  0
LINE
  5
2FA
  8
0
  6
CONTINUOUS
 62
     3
 10
94.14952015689465
 20
71.01972865992445
 30
0.0
 11
91.7995164137222
 21
75.09005321743776
 31
0.0
  0
LINE
  5
2FB
  8
0
  6
CONTINUOUS
 62
     3
 10
91.79960857761867
 20
75.09009350569235
 30
0.0
 11
87.09961162937648
 21
75.09009350569235
 31
0.0
  0
LINE
  5
2FC
  8
0
  6
CONTINUOUS
 62
     3
 10
182.533083309064
 20
75.09012402327048
 30
0.0
 11
177.8330863608218
 21
75.09012402327048
 31
0.0
  0
LINE
  5
2FD
  8
0
  6
CONTINUOUS
 62
     3
 10
177.83315724537
 20
75.09006987911639
 30
0.0
 11
175.4831573705407
 21
71.0197537575676
 31
0.0
  0
LINE
  5
2FE
  8
0
  6
CONTINUOUS
 62
     3
 10
175.4829784174
 20
71.01972534502315
 30
0.0
 11
177.832976191167
 21
66.94940810290777
 31
0.0
  0
LINE
  5
2FF
  8
0
  6
CONTINUOUS
 62
     3
 10
177.8330863608218
 20
66.94948376448141
 30
0.0
 11
182.533083309064
 21
66.94948376448141
 31
0.0
  0
LINE
  5
300
  8
0
  6
CONTINUOUS
 62
     3
 10
182.5330908958423
 20
66.94949776856342
 30
0.0
 11
184.883084822117
 21
71.01979955505234
 31
0.0
  0
LINE
  5
301
  8
0
  6
CONTINUOUS
 62
     3
 10
184.8829730457993
 20
71.01969745262599
 30
0.0
 11
182.5329701966968
 21
75.09002046156533
 31
0.0
  0
LINE
  5
302
  8
0
  6
CONTINUOUS
 62
     3
 10
132.4663413657046
 20
-3.487386810469758
 30
0.0
 11
137.1663535727359
 21
-3.487386810469758
 31
0.0
  0
LINE
  5
303
  8
0
  6
CONTINUOUS
 62
     3
 10
137.1663322448966
 20
-3.487405679951877
 30
0.0
 11
139.5163321525071
 21
-7.557730369743837
 31
0.0
  0
LINE
  5
304
  8
0
  6
CONTINUOUS
 62
     3
 10
139.5163804683454
 20
-7.557714082698254
 30
0.0
 11
137.1663789126662
 21
-11.62802908368045
 31
0.0
  0
LINE
  5
305
  8
0
  6
CONTINUOUS
 62
     3
 10
137.1663535727359
 20
-11.62802706925882
 30
0.0
 11
132.4663413657046
 21
-11.62802706925882
 31
0.0
  0
LINE
  5
306
  8
0
  6
CONTINUOUS
 62
     3
 10
132.4663382615223
 20
-11.62803311429676
 30
0.0
 11
130.1163411881095
 21
-7.557715592039727
 31
0.0
  0
LINE
  5
307
  8
0
  6
CONTINUOUS
 62
     3
 10
130.1164888760906
 20
-7.557784339024153
 30
0.0
 11
132.4664930722576
 21
-3.487457746318029
 31
0.0
  0
LINE
  5
308
  8
0
  6
CONTINUOUS
 62
     3
 10
64.94942102485848
 20
10.84043601216999
 30
0.0
 11
70.44941977316071
 21
1.314160045145712
 31
0.0
  0
LINE
  5
309
  8
0
  6
CONTINUOUS
 62
     3
 10
100.4564779497822
 20
31.34045650730295
 30
0.0
 11
105.9564786054333
 21
21.81417723665399
 31
0.0
  0
LINE
  5
30A
  8
0
  6
CONTINUOUS
 62
     3
 10
74.87762366876976
 20
16.57248491182813
 30
0.0
 11
90.5282559507539
 21
25.60838067451627
 31
0.0
  0
LINE
  5
30B
  8
0
  6
CONTINUOUS
 62
     3
 10
80.3776120337931
 20
7.046194052509094
 30
0.0
 11
96.02825092302706
 21
16.08209362989427
 31
0.0
  0
LINE
  5
30C
  8
0
  6
CONTINUOUS
 62
     3
 10
102.0282604222849
 20
19.54621796604178
 30
0.0
 11
107.6884799074143
 21
22.81414684840647
 31
0.0
  0
LINE
  5
30D
  8
0
  6
CONTINUOUS
 62
     3
 10
96.52823241376271
 20
29.07248593717858
 30
0.0
 11
102.1884783278913
 21
32.34043007833142
 31
0.0
  0
LINE
  5
30E
  8
0
  6
CONTINUOUS
 62
     3
 10
163.6763112274463
 20
21.81411126775888
 30
0.0
 11
169.1763118830974
 21
31.34039053840783
 31
0.0
  0
LINE
  5
30F
  8
0
  6
CONTINUOUS
 62
     3
 10
199.1833409751131
 20
1.314150511756765
 30
0.0
 11
204.6833416307642
 21
10.84042978240572
 31
0.0
  0
LINE
  5
310
  8
0
  6
CONTINUOUS
 62
     3
 10
179.1044814114081
 20
25.60840613043078
 30
0.0
 11
194.7551136933923
 21
16.57251036774264
 31
0.0
  0
LINE
  5
311
  8
0
  6
CONTINUOUS
 62
     3
 10
173.6044553102344
 20
16.08214146291888
 30
0.0
 11
189.2551008067182
 21
7.046238070836665
 31
0.0
  0
LINE
  5
312
  8
0
  6
CONTINUOUS
 62
     3
 10
200.7551176075446
 20
13.10840687548884
 30
0.0
 11
209.0135059377077
 21
8.340424676772585
 31
0.0
  0
LINE
  5
313
  8
0
  6
CONTINUOUS
 62
     3
 10
195.2550915063709
 20
3.582142207976943
 30
0.0
 11
203.5135062655333
 21
-1.185855249527464
 31
0.0
  0
LINE
  5
314
  8
0
  6
CONTINUOUS
 62
     3
 10
197.7778732432045
 20
40.80807446428102
 30
0.0
 11
199.7778737200416
 21
44.2721757788257
 31
0.0
  0
LINE
  5
315
  8
0
  6
CONTINUOUS
 62
     3
 10
199.7778648032046
 20
44.27215756208884
 30
0.0
 11
203.7778648032046
 21
44.27215756208884
 31
0.0
  0
LINE
  5
316
  8
0
  6
CONTINUOUS
 62
     3
 10
203.7779148785186
 20
44.27217800392313
 30
0.0
 11
205.7779134480071
 21
40.80807549728556
 31
0.0
  0
LINE
  5
317
  8
0
  6
CONTINUOUS
 62
     3
 10
205.7779661850538
 20
40.80800234094008
 30
0.0
 11
203.777963800868
 21
37.34390198006972
 31
0.0
  0
LINE
  5
318
  8
0
  6
CONTINUOUS
 62
     3
 10
203.7778648032046
 20
37.34395397932516
 30
0.0
 11
199.7778648032046
 21
37.34395397932516
 31
0.0
  0
LINE
  5
319
  8
0
  6
CONTINUOUS
 62
     3
 10
199.7779960222189
 20
37.34401510321763
 30
0.0
 11
197.7779969758932
 21
40.80811713301804
 31
0.0
  0
LINE
  5
31A
  8
0
  6
CONTINUOUS
 62
     3
 10
93.8548211586473
 20
-11.15346832846686
 30
0.0
 11
95.85482163548446
 21
-7.68936701392218
 31
0.0
  0
LINE
  5
31B
  8
0
  6
CONTINUOUS
 62
     3
 10
95.85482250584133
 20
-7.689363586592805
 30
0.0
 11
99.85482250584133
 21
-7.689363586592805
 31
0.0
  0
LINE
  5
31C
  8
0
  6
CONTINUOUS
 62
     3
 10
99.85483274080539
 20
-7.689369971631692
 30
0.0
 11
101.8548313102939
 21
-11.15347247826927
 31
0.0
  0
LINE
  5
31D
  8
0
  6
CONTINUOUS
 62
     3
 10
101.8548537705011
 20
-11.15349188164251
 30
0.0
 11
99.85485138631535
 21
-14.61759224251287
 31
0.0
  0
LINE
  5
31E
  8
0
  6
CONTINUOUS
 62
     3
 10
99.85482250584133
 20
-14.61757098405374
 30
0.0
 11
95.85482250584133
 21
-14.61757098405374
 31
0.0
  0
LINE
  5
31F
  8
0
  6
CONTINUOUS
 62
     3
 10
95.85485215658869
 20
-14.61755543145651
 30
0.0
 11
93.85485311026301
 21
-11.15345340165609
 31
0.0
  0
LINE
  5
320
  8
0
  6
CONTINUOUS
 62
     3
 10
100.8163461448518
 20
104.8272896243865
 30
0.0
 11
102.816346621689
 21
108.2913909389311
 31
0.0
  0
LINE
  5
321
  8
0
  6
CONTINUOUS
 62
     3
 10
102.8163474692202
 20
108.2913950803994
 30
0.0
 11
106.8163474692202
 21
108.2913950803994
 31
0.0
  0
LINE
  5
322
  8
0
  6
CONTINUOUS
 62
     3
 10
106.8163733799405
 20
108.2914235803732
 30
0.0
 11
108.8163719494291
 21
104.8273210737357
 31
0.0
  0
LINE
  5
323
  8
0
  6
CONTINUOUS
 62
     3
 10
108.8163656015205
 20
104.8272962147174
 30
0.0
 11
106.8163632173347
 21
101.363195853847
 31
0.0
  0
LINE
  5
324
  8
0
  6
CONTINUOUS
 62
     3
 10
106.8163474692202
 20
101.3631876829385
 30
0.0
 11
102.8163474692202
 21
101.3631876829385
 31
0.0
  0
LINE
  5
325
  8
0
  6
CONTINUOUS
 62
     3
 10
102.8164001027855
 20
101.3632340749135
 30
0.0
 11
100.8164010564598
 21
104.8273361047139
 31
0.0
  0
LINE
  5
326
  8
0
  6
CONTINUOUS
 62
     3
 10
120.8163474692202
 20
72.99728955061423
 30
0.0
 11
148.8163474692202
 21
72.99728955061423
 31
0.0
  0
LINE
  5
327
  8
0
  6
CONTINUOUS
 62
     3
 10
120.8163474692202
 20
77.32729138166891
 30
0.0
 11
148.8163474692202
 21
77.32729138166891
 31
0.0
  0
LINE
  5
328
  8
0
  6
CONTINUOUS
 62
     3
 10
120.8163474692202
 20
79.32729138166891
 30
0.0
 11
129.3163474692202
 21
79.32729138166891
 31
0.0
  0
LINE
  5
329
  8
0
  6
CONTINUOUS
 62
     3
 10
129.3163474692202
 20
127.3272913816689
 30
0.0
 11
129.3163474692202
 21
117.7913950803994
 31
0.0
  0
LINE
  5
32A
  8
0
  6
CONTINUOUS
 62
     3
 10
140.3163474692202
 20
127.3272913816689
 30
0.0
 11
140.3163474692202
 21
117.7913950803994
 31
0.0
  0
LINE
  5
32B
  8
0
  6
CONTINUOUS
 62
     3
 10
129.3163474692202
 20
81.32729138166891
 30
0.0
 11
140.3163474692202
 21
81.32729138166891
 31
0.0
  0
LINE
  5
32C
  8
0
  6
CONTINUOUS
 62
     3
 10
129.3163474692202
 20
122.3272913816689
 30
0.0
 11
140.3163474692202
 21
122.3272913816689
 31
0.0
  0
LINE
  5
32D
  8
0
  6
CONTINUOUS
 62
     3
 10
129.3163474692202
 20
110.8631876829385
 30
0.0
 11
129.3163474692202
 21
92.79139508039938
 31
0.0
  0
LINE
  5
32E
  8
0
  6
CONTINUOUS
 62
     3
 10
140.3163474692202
 20
110.8631876829385
 30
0.0
 11
140.3163474692202
 21
92.79139508039938
 31
0.0
  0
LINE
  5
32F
  8
0
  6
CONTINUOUS
 62
     3
 10
140.3163474692202
 20
85.86318768293845
 30
0.0
 11
140.3163474692202
 21
79.32729138166891
 31
0.0
  0
LINE
  5
330
  8
0
  6
CONTINUOUS
 62
     3
 10
129.3163474692202
 20
85.86318768293845
 30
0.0
 11
129.3163474692202
 21
79.32729138166891
 31
0.0
  0
LINE
  5
331
  8
0
  6
CONTINUOUS
 62
     3
 10
140.3163474692202
 20
79.32729138166891
 30
0.0
 11
148.8163474692202
 21
79.32729138166891
 31
0.0
  0
ARC
  5
332
  8
0
  6
CONTINUOUS
 62
     3
 10
134.8163474692202
 20
44.82729138166891
 30
0.0
 40
41.0
 50
0.0
 51
70.03393888118353
  0
ARC
  5
333
  8
0
  6
CONTINUOUS
 62
     3
 10
134.8163474692202
 20
44.82729138166891
 30
0.0
 40
82.5
 50
0.0
 51
80.22979938736845
  0
ARC
  5
334
  8
0
  6
CONTINUOUS
 62
     3
 10
134.8163474692202
 20
44.82729138166891
 30
0.0
 40
81.0
 50
0.0
 51
80.04704401574642
  0
ARC
  5
335
  8
0
  6
CONTINUOUS
 62
     3
 10
134.8163474692202
 20
44.82729138166891
 30
0.0
 40
81.0
 50
99.95297465358826
 51
200.0470063739156
  0
ARC
  5
336
  8
0
  6
CONTINUOUS
 62
     3
 10
134.8163474692202
 20
44.82729138166891
 30
0.0
 40
41.0
 50
109.9660797881511
 51
190.0339080695419
  0
ARC
  5
337
  8
0
  6
CONTINUOUS
 62
     3
 10
134.8163474692202
 20
44.82729138166891
 30
0.0
 40
81.0
 50
219.9529406542231
 51
320.0470475066314
  0
ARC
  5
338
  8
0
  6
CONTINUOUS
 62
     3
 10
134.8163474692202
 20
44.82729138166891
 30
0.0
 40
82.5
 50
219.7701784524119
 51
320.2297994631588
  0
ARC
  5
339
  8
0
  6
CONTINUOUS
 62
     3
 10
134.8163474692202
 20
44.82729138166891
 30
0.0
 40
82.5
 50
339.8548829676135
 51
360.0
  0
ARC
  5
33A
  8
0
  6
CONTINUOUS
 62
     3
 10
134.8163474692202
 20
44.82729138166891
 30
0.0
 40
81.0
 50
339.9529576539057
 51
360.0
  0
ARC
  5
33B
  8
0
  6
CONTINUOUS
 62
     3
 10
134.8163474692202
 20
44.82729138166891
 30
0.0
 40
41.0
 50
229.9660389585968
 51
310.0339457871631
  0
ARC
  5
33C
  8
0
  6
CONTINUOUS
 62
     3
 10
134.8163474692202
 20
44.82729138166891
 30
0.0
 40
41.0
 50
349.9660602271476
 51
360.0
  0
ARC
  5
33D
  8
0
  6
CONTINUOUS
 62
     3
 10
168.158327449689
 20
25.57729328901755
 30
0.0
 40
7.0
 50
94.84992175861829
 51
118.997317908768
  0
ARC
  5
33E
  8
0
  6
CONTINUOUS
 62
     3
 10
101.4743674887515
 20
25.57729328901755
 30
0.0
 40
7.0
 50
358.9973009090854
 51
360.0
  0
ARC
  5
33F
  8
0
  6
CONTINUOUS
 62
     3
 10
168.158327449689
 20
25.57729328901755
 30
0.0
 40
7.0
 50
181.0026667612015
 51
205.1500629113513
  0
ARC
  5
340
  8
0
  6
CONTINUOUS
 62
     3
 10
101.4743674887515
 20
25.57729328901755
 30
0.0
 40
7.0
 50
358.9973009090854
 51
360.0
  0
ARC
  5
341
  8
0
  6
CONTINUOUS
 62
     3
 10
101.4743674887515
 20
25.57729328901755
 30
0.0
 40
7.0
 50
334.8499201268614
 51
360.0
  0
ARC
  5
342
  8
0
  6
CONTINUOUS
 62
     3
 10
101.4743674887515
 20
25.57729328901755
 30
0.0
 40
7.0
 50
61.0026939303775
 51
85.15009691071639
  0
CIRCLE
  5
343
  8
0
  6
CONTINUOUS
 62
     3
 10
104.8163474692202
 20
104.8272913816689
 30
0.0
 40
8.0
  0
CIRCLE
  5
344
  8
0
  6
CONTINUOUS
 62
     3
 10
97.85482250584133
 20
-11.15346728532327
 30
0.0
 40
8.0
  0
CIRCLE
  5
345
  8
0
  6
CONTINUOUS
 62
     3
 10
201.7778648032046
 20
40.80805386335837
 30
0.0
 40
8.0
  0
CIRCLE
  5
346
  8
0
  6
CONTINUOUS
 62
     3
 10
101.0089439047671
 20
53.88596142561423
 30
0.0
 40
2.150000095367432
  0
CIRCLE
  5
347
  8
0
  6
CONTINUOUS
 62
     3
 10
143.8750175131656
 20
11.01988781721579
 30
0.0
 40
2.150000095367432
  0
CIRCLE
  5
348
  8
0
  6
CONTINUOUS
 62
     3
 10
159.5650962485171
 20
69.57602490217673
 30
0.0
 40
2.150000095367432
  0
CIRCLE
  5
349
  8
0
  6
CONTINUOUS
 62
     3
 10
180.1830924643374
 20
71.01978863508688
 30
0.0
 40
8.0
  0
CIRCLE
  5
34A
  8
0
  6
CONTINUOUS
 62
     3
 10
89.44960247410305
 20
71.01978863508688
 30
0.0
 40
8.0
  0
CIRCLE
  5
34B
  8
0
  6
CONTINUOUS
 62
     3
 10
134.8163474692202
 20
-7.557706939864289
 30
0.0
 40
8.0
  0
CIRCLE
  5
34C
  8
0
  6
CONTINUOUS
 62
     3
 10
134.8163474692202
 20
-7.557706939864289
 30
0.0
 40
8.75
  0
CIRCLE
  5
34D
  8
0
  6
CONTINUOUS
 62
     3
 10
180.1830924643374
 20
71.01978863508688
 30
0.0
 40
8.75
  0
CIRCLE
  5
34E
  8
0
  6
CONTINUOUS
 62
     3
 10
89.44960247410305
 20
71.01978863508688
 30
0.0
 40
8.75
  0
CIRCLE
  5
34F
  8
0
  6
CONTINUOUS
 62
     3
 10
201.7778648032046
 20
40.80805386335837
 30
0.0
 40
3.299999952316284
  0
CIRCLE
  5
350
  8
0
  6
CONTINUOUS
 62
     3
 10
201.7778648032046
 20
40.80805386335837
 30
0.0
 40
0.75
  0
CIRCLE
  5
351
  8
0
  6
CONTINUOUS
 62
     3
 10
201.7778648032046
 20
40.80805386335837
 30
0.0
 40
2.400000095367432
  0
CIRCLE
  5
352
  8
0
  6
CONTINUOUS
 62
     3
 10
97.85482250584133
 20
-11.15346728532327
 30
0.0
 40
3.299999952316284
  0
CIRCLE
  5
353
  8
0
  6
CONTINUOUS
 62
     3
 10
97.85482250584133
 20
-11.15346728532327
 30
0.0
 40
0.75
  0
CIRCLE
  5
354
  8
0
  6
CONTINUOUS
 62
     3
 10
97.85482250584133
 20
-11.15346728532327
 30
0.0
 40
2.400000095367432
  0
CIRCLE
  5
355
  8
0
  6
CONTINUOUS
 62
     3
 10
104.8163474692202
 20
104.8272913816689
 30
0.0
 40
3.299999952316284
  0
CIRCLE
  5
356
  8
0
  6
CONTINUOUS
 62
     3
 10
104.8163474692202
 20
104.8272913816689
 30
0.0
 40
0.75
  0
CIRCLE
  5
357
  8
0
  6
CONTINUOUS
 62
     3
 10
104.8163474692202
 20
104.8272913816689
 30
0.0
 40
2.400000095367432
  0
CIRCLE
  5
358
  8
0
  6
CONTINUOUS
 62
     3
 10
134.8163474692202
 20
44.82729138166891
 30
0.0
 40
25.5
  0
CIRCLE
  5
359
  8
0
  6
CONTINUOUS
 62
     3
 10
134.8163474692202
 20
44.82729138166891
 30
0.0
 40
23.0
  0
ARC
  5
35A
  8
0
  6
CONTINUOUS
 62
     3
 10
134.8163474692202
 20
83.32729138166891
 30
0.0
 40
7.0
 50
214.8498604384965
 51
238.9973112301596
  0
ARC
  5
35B
  8
0
  6
CONTINUOUS
 62
     3
 10
134.8163474692202
 20
83.32729138166891
 30
0.0
 40
7.0
 50
301.0026769306949
 51
325.1501208921688
  0
CIRCLE
  5
35C
  8
0
  6
CONTINUOUS
 62
     3
 10
163.8282035483218
 20
61.57727993757712
 30
0.0
 40
5.5
  0
CIRCLE
  5
35D
  8
0
  6
CONTINUOUS
 62
     3
 10
105.8044990195132
 20
61.57730282576071
 30
0.0
 40
5.5
  0
CIRCLE
  5
35E
  8
0
  6
CONTINUOUS
 62
     3
 10
134.8163474692202
 20
11.32729138166891
 30
0.0
 40
5.5
  0
LINE
  5
35F
  8
0
  6
CONTINUOUS
 62
     3
 10
43.65859585495812
 20
-43.99028589780349
 30
0.0
 11
55.22292447352359
 21
-64.02028787331622
 31
0.0
  0
ARC
  5
360
  8
0
  6
CONTINUOUS
 62
     3
 10
134.8163474692202
 20
44.82729138166891
 30
0.0
 40
82.5
 50
99.77021928196622
 51
200.2297549153485
  0
LINE
  5
361
  8
0
  6
CONTINUOUS
 62
     3
 10
-147.6760994301938
 20
-12.55770693986429
 30
0.0
 11
-147.6760994301938
 21
-18.71785313212338
 31
0.0
  0
LINE
  5
362
  8
0
  6
CONTINUOUS
 62
     3
 10
-147.6760994301938
 20
-27.05065036280868
 30
0.0
 11
-147.6760994301938
 21
-37.67270861833109
 31
0.0
  0
LINE
  5
363
  8
0
  6
CENTER
 62
     7
 10
-2.97798405347632
 20
-34.72831032208184
 30
0.0
 11
45.51655076702812
 21
-6.729980682547563
 31
0.0
  0
LINE
  5
364
  8
0
  6
CENTER
 62
     7
 10
-15.36499823437382
 20
20.24155382496005
 30
0.0
 11
4.534399603669812
 21
-14.22520954318188
 31
0.0
  0
LINE
  5
365
  8
0
  6
CENTER
 62
     7
 10
21.6164329109678
 20
-55.16973904094479
 30
0.0
 11
49.05668662443705
 21
-39.32710292316679
 31
0.0
  0
LINE
  5
366
  8
0
  6
CENTER
 62
     7
 10
-140.126096378436
 20
18.4939574125527
 30
0.0
 11
-140.126096378436
 21
4.990880072959541
 31
0.0
  0
LINE
  5
367
  8
0
  6
CENTER
 62
     7
 10
-90.00246966945164
 20
89.32729138166891
 30
0.0
 11
-53.58781207667821
 21
89.32729138166891
 31
0.0
  0
LINE
  5
368
  8
0
  6
CENTER
 62
     7
 10
-90.2394462929868
 20
114.3272913816689
 30
0.0
 11
-53.58781207667821
 21
114.3272913816689
 31
0.0
  0
LINE
  5
369
  8
0
  6
CENTER
 62
     7
 10
-99.27026141749852
 20
11.32729138166891
 30
0.0
 11
-75.41126630594351
 21
11.32729138166891
 31
0.0
  0
LINE
  5
36A
  8
0
  6
CENTER
 62
     7
 10
-166.5326057778501
 20
-7.557706939864289
 30
0.0
 11
-74.28379682060314
 21
-7.557706939864289
 31
0.0
  0
LINE
  5
36B
  8
0
  6
CENTER
 62
     7
 10
-180.5985542641782
 20
44.82729138166891
 30
0.0
 11
-64.99372638331883
 21
44.82729138166891
 31
0.0
  0
LINE
  5
36C
  8
0
  6
CENTER
 62
     7
 10
-141.126096378436
 20
74.67439068586813
 30
0.0
 11
-141.126096378436
 21
65.63457287580954
 31
0.0
  0
LINE
  5
36D
  8
0
  6
CENTER
 62
     7
 10
-141.126096378436
 20
23.33712376387106
 30
0.0
 11
-141.126096378436
 21
15.07851971418845
 31
0.0
  0
LINE
  5
36E
  8
0
  6
CENTER
 62
     7
 10
56.03313190295742
 20
-0.6582304035829623
 30
0.0
 11
134.8163533220941
 21
44.82727866505442
 31
0.0
  0
LINE
  5
36F
  8
0
  6
CENTER
 62
     7
 10
77.32525259112086
 20
78.01981186219527
 30
0.0
 11
112.2996921523897
 21
57.82731199764689
 31
0.0
  0
LINE
  5
370
  8
0
  6
CENTER
 62
     7
 10
134.8163474692202
 20
134.1606196287392
 30
0.0
 11
134.8163474692202
 21
-45.17270861833109
 31
0.0
  0
LINE
  5
371
  8
0
  6
CENTER
 62
     7
 10
104.8163474692202
 20
116.8272913816689
 30
0.0
 11
104.8163474692202
 21
92.82729138166891
 31
0.0
  0
LINE
  5
372
  8
0
  6
CENTER
 62
     7
 10
92.81634746922023
 20
104.8272913816689
 30
0.0
 11
116.8163474692202
 21
104.8272913816689
 31
0.0
  0
LINE
  5
373
  8
0
  6
CENTER
 62
     7
 10
195.7779151108045
 20
30.4157471563511
 30
0.0
 11
207.7779089119205
 21
51.20034325963192
 31
0.0
  0
LINE
  5
374
  8
0
  6
CENTER
 62
     7
 10
191.385574398884
 20
46.80807763838251
 30
0.0
 11
212.170185147175
 21
34.80807835363825
 31
0.0
  0
LINE
  5
375
  8
0
  6
CENTER
 62
     7
 10
87.4625220904999
 20
-17.15348592816704
 30
0.0
 11
108.2471328387909
 21
-5.153486643422781
 31
0.0
  0
LINE
  5
376
  8
0
  6
CENTER
 62
     7
 10
91.85483368353508
 20
-0.7611786418964641
 30
0.0
 11
103.854829392
 21
-21.54577804880196
 31
0.0
  0
LINE
  5
377
  8
0
  6
CENTER
 62
     7
 10
154.6153883345138
 20
64.62626662621264
 30
0.0
 11
164.5148839361679
 21
74.52576139340167
 31
0.0
  0
LINE
  5
378
  8
0
  6
CENTER
 62
     7
 10
107.7704354372392
 20
52.07423760280003
 30
0.0
 11
94.24746668971253
 21
55.69770744003935
 31
0.0
  0
LINE
  5
379
  8
0
  6
CENTER
 62
     7
 10
142.0632723670005
 20
17.78137412539886
 30
0.0
 11
145.6867393951415
 21
4.258412747301321
 31
0.0
  0
LINE
  5
37A
  8
0
  6
CENTER
 62
     7
 10
124.9191001547671
 20
114.3272913816689
 30
0.0
 11
144.4274619711734
 21
114.3272913816689
 31
0.0
  0
LINE
  5
37B
  8
0
  6
CENTER
 62
     7
 10
125.3763297690249
 20
89.32729138166891
 30
0.0
 11
144.2750571860171
 21
89.32729138166891
 31
0.0
  0
LINE
  5
37C
  8
0
  6
CENTER
 62
     7
 10
70.19862982033297
 20
17.74852428267317
 30
0.0
 11
79.2935710900812
 21
1.995626072242743
 31
0.0
  0
LINE
  5
37D
  8
0
  6
CENTER
 62
     7
 10
91.84769171180315
 20
30.25129574349066
 30
0.0
 11
100.9272463982963
 21
14.52504787335769
 31
0.0
  0
LINE
  5
37E
  8
0
  6
CENTER
 62
     7
 10
168.7424538384095
 20
14.58898888438748
 30
0.0
 11
177.9237293469652
 21
30.49142236235534
 31
0.0
  0
LINE
  5
37F
  8
0
  6
CENTER
 62
     7
 10
190.395333357095
 20
2.092845005752082
 30
0.0
 11
199.6163809040833
 21
18.0641656655574
 31
0.0
  0
LINE
  5
380
  8
0
  6
CENTER
 62
     7
 10
134.8163670108712
 20
44.82730514311319
 30
0.0
 11
214.8882796485647
 21
-1.402230065258806
 31
0.0
  0
LINE
  5
381
  8
0
  6
CENTER
 62
     7
 10
157.333014966076
 20
57.82727789019404
 30
0.0
 11
209.3373563698413
 21
87.85199508149823
 31
0.0
  0
ARC
  5
382
  8
0
  6
CENTER
 62
     7
 10
134.8163474692202
 20
44.82729138166891
 30
0.0
 40
35.0
 50
155.68602054495
 51
176.4783458125194
  0
ARC
  5
383
  8
0
  6
CENTER
 62
     7
 10
134.8163474692202
 20
44.82729138166891
 30
0.0
 40
35.0
 50
36.01231241777022
 51
56.47831515245851
  0
ARC
  5
384
  8
0
  6
CENTER
 62
     7
 10
134.8163474692202
 20
44.82729138166891
 30
0.0
 40
35.0
 50
275.8464003684318
 51
296.4783527942893
  0
ARC
  5
385
  8
0
  6
CENTER
 62
     7
 10
134.8163474692202
 20
44.82729138166891
 30
0.0
 40
52.3849983215332
 50
254.641627297642
 51
285.3583608632125
  0
ARC
  5
386
  8
0
  6
CENTER
 62
     7
 10
134.8163474692202
 20
44.82729138166891
 30
0.0
 40
52.3849983215332
 50
14.64163746713538
 51
45.35835395723297
  0
ARC
  5
387
  8
0
  6
CENTER
 62
     7
 10
134.8163474692202
 20
44.82729138166891
 30
0.0
 40
52.3849983215332
 50
134.6416612970071
 51
165.3583743720101
  0
ARC
  5
388
  8
0
  6
CENTER
 62
     7
 10
134.8163474692202
 20
44.82729138166891
 30
0.0
 40
33.5
 50
135.22591567861
 51
163.373384795421
  0
ARC
  5
389
  8
0
  6
CENTER
 62
     7
 10
134.8163474692202
 20
44.82729138166891
 30
0.0
 40
33.5
 50
15.22590550911662
 51
42.99644039129672
  0
ARC
  5
38A
  8
0
  6
CENTER
 62
     7
 10
134.8163474692202
 20
44.82729138166891
 30
0.0
 40
33.5
 50
255.2258748490557
 51
283.4942519745543
  0
LINE
  5
38B
  8
0
  6
CENTER
 62
     7
 10
43.64968334568508
 20
44.82729138166891
 30
0.0
 11
225.9830039633609
 21
44.82729138166891
 31
0.0
  0
LINE
  5
38C
  8
0
  6
CONTINUOUS
 62
     4
 10
20.16260162726124
 20
-25.29406319179057
 30
0.0
 11
38.34913272839097
 21
-14.79406572498786
 31
0.0
  0
LINE
  5
38D
  8
0
  6
CONTINUOUS
 62
     4
 10
16.76259090423562
 20
-19.40510174018542
 30
0.0
 11
34.94913521986499
 21
-8.905096643988628
 31
0.0
  0
LINE
  5
38E
  8
0
  6
CONTINUOUS
 62
     4
 10
-5.021128540919079
 20
9.12542227950027
 30
0.0
 11
4.978872651173816
 21
-8.195085485316014
 31
0.0
  0
LINE
  5
38F
  8
0
  6
CONTINUOUS
 62
     4
 10
-10.91007783746031
 20
5.725428744314598
 30
0.0
 11
-0.9100775990418413
 21
-11.59507736868935
 31
0.0
  0
LINE
  5
390
  8
0
  6
CONTINUOUS
 62
     4
 10
-147.126096378436
 20
78.82729138166891
 30
0.0
 11
-134.126096378436
 21
78.82729138166891
 31
0.0
  0
LINE
  5
391
  8
0
  6
CONTINUOUS
 62
     4
 10
-147.126096378436
 20
10.82729138166891
 30
0.0
 11
-142.126096378436
 21
10.82729138166891
 31
0.0
  0
LINE
  5
392
  8
0
  6
CONTINUOUS
 62
     4
 10
-141.626096378436
 20
16.32729138166891
 30
0.0
 11
-141.626096378436
 21
7.827291381668914
 31
0.0
  0
LINE
  5
393
  8
0
  6
CONTINUOUS
 62
     4
 10
-138.626096378436
 20
16.32729138166891
 30
0.0
 11
-138.626096378436
 21
7.827291381668914
 31
0.0
  0
LINE
  5
394
  8
0
  6
CONTINUOUS
 62
     4
 10
-138.126096378436
 20
10.82729138166891
 30
0.0
 11
-134.126096378436
 21
10.82729138166891
 31
0.0
  0
LINE
  5
395
  8
0
  6
CONTINUOUS
 62
     4
 10
-76.67609943019383
 20
127.3272913816689
 30
0.0
 11
-76.67609943019383
 21
122.3272913816689
 31
0.0
  0
LINE
  5
396
  8
0
  6
CONTINUOUS
 62
     4
 10
-75.67609943019383
 20
127.3272913816689
 30
0.0
 11
-75.67609943019383
 21
122.3272913816689
 31
0.0
  0
LINE
  5
397
  8
0
  6
CONTINUOUS
 62
     4
 10
-88.67609943019383
 20
117.67728985579
 30
0.0
 11
-67.67609943019383
 21
117.67728985579
 31
0.0
  0
LINE
  5
398
  8
0
  6
CONTINUOUS
 62
     4
 10
-88.67609943019383
 20
110.9772929075478
 30
0.0
 11
-67.67609943019383
 21
110.9772929075478
 31
0.0
  0
LINE
  5
399
  8
0
  6
CONTINUOUS
 62
     4
 10
-88.67609943019383
 20
92.67728985579001
 30
0.0
 11
-67.67609943019383
 21
92.67728985579001
 31
0.0
  0
LINE
  5
39A
  8
0
  6
CONTINUOUS
 62
     4
 10
-88.67609943019383
 20
85.97729290754782
 30
0.0
 11
-67.67609943019383
 21
85.97729290754782
 31
0.0
  0
LINE
  5
39B
  8
0
  6
CONTINUOUS
 62
     4
 10
-76.67609943019383
 20
81.32729138166891
 30
0.0
 11
-76.67609943019383
 21
79.32729138166891
 31
0.0
  0
LINE
  5
39C
  8
0
  6
CONTINUOUS
 62
     4
 10
-75.67609943019383
 20
81.32729138166891
 30
0.0
 11
-75.67609943019383
 21
79.32729138166891
 31
0.0
  0
LINE
  5
39D
  8
0
  6
CONTINUOUS
 62
     4
 10
-96.67609943019383
 20
13.87729157240378
 30
0.0
 11
-83.67609943019383
 21
13.87729157240378
 31
0.0
  0
LINE
  5
39E
  8
0
  6
CONTINUOUS
 62
     4
 10
-96.67609943019383
 20
8.777292144608367
 30
0.0
 11
-83.67609943019383
 21
8.777292144608367
 31
0.0
  0
LINE
  5
39F
  8
0
  6
CONTINUOUS
 62
     4
 10
-158.6760994301938
 20
-11.85770617692484
 30
0.0
 11
-126.6760994301938
 21
-11.85770617692484
 31
0.0
  0
LINE
  5
3A0
  8
0
  6
CONTINUOUS
 62
     4
 10
-158.6760994301938
 20
-3.257707702803742
 30
0.0
 11
-126.6760994301938
 21
-3.257707702803742
 31
0.0
  0
LINE
  5
3A1
  8
0
  6
CONTINUOUS
 62
     4
 10
-172.126096378436
 20
70.82729138166891
 30
0.0
 11
-156.126096378436
 21
70.82729138166891
 31
0.0
  0
LINE
  5
3A2
  8
0
  6
CONTINUOUS
 62
     4
 10
-172.126096378436
 20
18.82729138166891
 30
0.0
 11
-156.126096378436
 21
18.82729138166891
 31
0.0
  0
LINE
  5
3A3
  8
0
  6
CONTINUOUS
 62
     4
 10
-63.67610118544448
 20
88.3272949125172
 30
0.0
 11
-60.67609922836832
 21
86.5952431663903
 31
0.0
  0
LINE
  5
3A4
  8
0
  6
CONTINUOUS
 62
     4
 10
-63.67610915318923
 20
113.3272990237241
 30
0.0
 11
-60.67610058886325
 21
111.5952434629001
 31
0.0
  0
LINE
  5
3A5
  8
0
  6
CONTINUOUS
 62
     4
 10
-66.67610047059029
 20
111.5952474000723
 30
0.0
 11
-63.67610181713903
 21
113.3272972388507
 31
0.0
  0
LINE
  5
3A6
  8
0
  6
CONTINUOUS
 62
     4
 10
-66.67610166896887
 20
86.59524719716038
 30
0.0
 11
-63.67610565535264
 21
88.32729551182945
 31
0.0
  0
LINE
  5
3A7
  8
0
  6
CONTINUOUS
 62
     4
 10
-65.67610543780515
 20
88.32729724508371
 30
0.0
 11
-60.67610217601154
 21
85.44054433487221
 31
0.0
  0
LINE
  5
3A8
  8
0
  6
CONTINUOUS
 62
     4
 10
-66.67610243055728
 20
87.74994518091089
 30
0.0
 11
-60.67610512365476
 21
84.28584550335413
 31
0.0
  0
LINE
  5
3A9
  8
0
  6
CONTINUOUS
 62
     4
 10
-66.67609877095069
 20
86.59524253469576
 30
0.0
 11
-61.88187169741772
 21
83.82729454904356
 31
0.0
  0
LINE
  5
3AA
  8
0
  6
CONTINUOUS
 62
     4
 10
-66.67610171859391
 20
85.44054370317767
 30
0.0
 11
-63.88187594977839
 21
83.82729688161007
 31
0.0
  0
LINE
  5
3AB
  8
0
  6
CONTINUOUS
 62
     4
 10
-66.67610466623714
 20
84.28584487165958
 30
0.0
 11
-65.88187359488924
 21
83.82729539947954
 31
0.0
  0
LINE
  5
3AC
  8
0
  6
CONTINUOUS
 62
     4
 10
-66.67610203220949
 20
85.44054645410282
 30
0.0
 11
-61.67610553252311
 21
88.32729546021031
 31
0.0
  0
LINE
  5
3AD
  8
0
  6
CONTINUOUS
 62
     4
 10
-66.67610233657203
 20
84.28584574503853
 30
0.0
 11
-60.67610110661494
 21
87.74994768757165
 31
0.0
  0
LINE
  5
3AE
  8
0
  6
CONTINUOUS
 62
     4
 10
-65.47033354318609
 20
83.82729607222774
 30
0.0
 11
-60.67610146259662
 21
86.59524694870504
 31
0.0
  0
LINE
  5
3AF
  8
0
  6
CONTINUOUS
 62
     4
 10
-63.47033336873741
 20
83.82729605041092
 30
0.0
 11
-60.6761018185783
 21
85.44054620983843
 31
0.0
  0
LINE
  5
3B0
  8
0
  6
CONTINUOUS
 62
     4
 10
-61.47033345238444
 20
83.82729587958249
 30
0.0
 11
-60.67610217455999
 21
84.28584547097182
 31
0.0
  0
LINE
  5
3B1
  8
0
  6
CONTINUOUS
 62
     4
 10
-65.67610679830008
 20
113.3272975415935
 30
0.0
 11
-60.67609692925666
 21
110.440540816685
 31
0.0
  0
LINE
  5
3B2
  8
0
  6
CONTINUOUS
 62
     4
 10
-66.67610379105221
 20
112.7499454774207
 30
0.0
 11
-60.67609987689988
 21
109.2858419851669
 31
0.0
  0
LINE
  5
3B3
  8
0
  6
CONTINUOUS
 62
     4
 10
-66.67610013144562
 20
111.5952428312056
 30
0.0
 11
-61.88187966516247
 21
108.8272986602504
 31
0.0
  0
LINE
  5
3B4
  8
0
  6
CONTINUOUS
 62
     4
 10
-66.67610307908885
 20
110.4405439996875
 30
0.0
 11
-63.88187731027333
 21
108.8272971781199
 31
0.0
  0
LINE
  5
3B5
  8
0
  6
CONTINUOUS
 62
     4
 10
-66.67609941948226
 20
109.2858413534724
 30
0.0
 11
-65.88187495538418
 21
108.8272956959894
 31
0.0
  0
LINE
  5
3B6
  8
0
  6
CONTINUOUS
 62
     4
 10
-66.67610082657197
 20
110.4405466612057
 30
0.0
 11
-61.67610252021572
 21
113.3272967103944
 31
0.0
  0
LINE
  5
3B7
  8
0
  6
CONTINUOUS
 62
     4
 10
-66.67610200845988
 20
109.2858454455019
 30
0.0
 11
-60.67610387565114
 21
112.7499455998958
 31
0.0
  0
LINE
  5
3B8
  8
0
  6
CONTINUOUS
 62
     4
 10
-65.47032965335333
 20
108.8272978290513
 30
0.0
 11
-60.67610092800791
 21
111.5952467683777
 31
0.0
  0
LINE
  5
3B9
  8
0
  6
CONTINUOUS
 62
     4
 10
-63.4703295305238
 20
108.8272977774321
 30
0.0
 11
-60.6761012839896
 21
110.4405460295111
 31
0.0
  0
LINE
  5
3BA
  8
0
  6
CONTINUOUS
 62
     4
 10
-61.47032940769427
 20
108.827297725813
 30
0.0
 11
-60.67610163997128
 21
109.2858452906445
 31
0.0
  0
LINE
  5
3BB
  8
0
  6
CONTINUOUS
 62
     4
 10
-66.6761001146086
 20
112.7499481389389
 30
0.0
 11
-65.67610193996856
 21
113.3272972904698
 31
0.0
  0
LINE
  5
3BC
  8
0
  6
CONTINUOUS
 62
     4
 10
-61.67610490082856
 20
113.3272966911576
 30
0.0
 11
-60.67609764122003
 21
112.7499422944182
 31
0.0
  0
LINE
  5
3BD
  8
0
  6
CONTINUOUS
 62
     4
 10
-61.67610354033363
 20
88.32729639464773
 30
0.0
 11
-60.67610288797491
 21
87.74994581260543
 31
0.0
  0
LINE
  5
3BE
  8
0
  6
CONTINUOUS
 62
     4
 10
-66.67610132024612
 20
87.74994793183603
 30
0.0
 11
-65.6761056749439
 21
88.32729562305323
 31
0.0
  0
LINE
  5
3BF
  8
0
  6
CONTINUOUS
 62
     4
 10
38.88119700596215
 20
-13.71560320414008
 30
0.0
 11
40.61324620078077
 21
-10.71560640897761
 31
0.0
  0
LINE
  5
3C0
  8
0
  6
CONTINUOUS
 62
     4
 10
40.61324154270656
 20
-10.71560679643167
 30
0.0
 11
44.0773490561343
 21
-10.71560679643167
 31
0.0
  0
LINE
  5
3C1
  8
0
  6
CONTINUOUS
 62
     4
 10
-10.83162749873631
 20
6.925425899338592
 30
0.0
 11
-10.83162749873631
 21
10.38952673704611
 31
0.0
  0
LINE
  5
3C2
  8
0
  6
CONTINUOUS
 62
     4
 10
-13.83163057952704
 20
12.12157958618498
 30
0.0
 11
-10.83162697063843
 21
10.38952688638382
 31
0.0
  0
LINE
  5
3C3
  8
0
  6
CONTINUOUS
 62
     4
 10
-14.83163108238064
 20
11.54422954856995
 30
0.0
 11
-9.83162720115736
 21
8.657476280730606
 31
0.0
  0
LINE
  5
3C4
  8
0
  6
CONTINUOUS
 62
     4
 10
-15.83163096580456
 20
10.96687915332708
 30
0.0
 11
-9.831626845175677
 21
7.502775541863997
 31
0.0
  0
LINE
  5
3C5
  8
0
  6
CONTINUOUS
 62
     4
 10
-15.62586474539008
 20
9.693379450365292
 30
0.0
 11
-10.83162714155272
 21
6.925425385039688
 31
0.0
  0
LINE
  5
3C6
  8
0
  6
CONTINUOUS
 62
     4
 10
-14.62586447568862
 20
7.961328280607674
 30
0.0
 11
-11.83162755713904
 21
6.348075021738822
 31
0.0
  0
LINE
  5
3C7
  8
0
  6
CONTINUOUS
 62
     4
 10
-13.62586429325445
 20
6.229277436535895
 30
0.0
 11
-12.83162785351608
 21
5.770724864914513
 31
0.0
  0
LINE
  5
3C8
  8
0
  6
CONTINUOUS
 62
     4
 10
-11.83162749873631
 20
6.348075759720672
 30
0.0
 11
-11.83162749873631
 21
12.12157715589987
 31
0.0
  0
LINE
  5
3C9
  8
0
  6
CONTINUOUS
 62
     4
 10
-12.83162749873631
 20
5.770725143265594
 30
0.0
 11
-12.83162749873631
 21
12.69893206388937
 31
0.0
  0
LINE
  5
3CA
  8
0
  6
CONTINUOUS
 62
     4
 10
-13.83162749873631
 20
6.585669410538543
 30
0.0
 11
-13.83162749873631
 21
12.12158192427145
 31
0.0
  0
LINE
  5
3CB
  8
0
  6
CONTINUOUS
 62
     4
 10
-14.83162749873631
 20
8.317719829392303
 30
0.0
 11
-14.83162749873631
 21
11.54423154623495
 31
0.0
  0
LINE
  5
3CC
  8
0
  6
CONTINUOUS
 62
     4
 10
-15.83162749873631
 20
10.04977024824606
 30
0.0
 11
-15.83162749873631
 21
10.96688140661703
 31
0.0
  0
LINE
  5
3CD
  8
0
  6
CONTINUOUS
 62
     4
 10
38.88118969334133
 20
-11.71560679643167
 30
0.0
 11
44.65469585789211
 21
-11.71560679643167
 31
0.0
  0
LINE
  5
3CE
  8
0
  6
CONTINUOUS
 62
     4
 10
38.30384670628078
 20
-12.71560679643167
 30
0.0
 11
45.23205028904445
 21
-12.71560679643167
 31
0.0
  0
LINE
  5
3CF
  8
0
  6
CONTINUOUS
 62
     4
 10
38.88119732273586
 20
-13.71560679643167
 30
0.0
 11
44.41707836521633
 21
-13.71560679643167
 31
0.0
  0
LINE
  5
3D0
  8
0
  6
CONTINUOUS
 62
     4
 10
39.45854793919094
 20
-14.71560679643167
 30
0.0
 11
42.68503033054836
 21
-14.71560679643167
 31
0.0
  0
LINE
  5
3D1
  8
0
  6
CONTINUOUS
 62
     4
 10
40.03589855564601
 20
-15.71560679643167
 30
0.0
 11
40.95297848118312
 21
-15.71560679643167
 31
0.0
  0
LINE
  5
3D2
  8
0
  6
CONTINUOUS
 62
     4
 10
39.45854752839986
 20
-14.71560272960514
 30
0.0
 11
42.3452966632681
 21
-9.715607245094844
 31
0.0
  0
LINE
  5
3D3
  8
0
  6
CONTINUOUS
 62
     4
 10
40.03589757400036
 20
-15.71560308097637
 30
0.0
 11
43.49999739414923
 21
-9.715607012932907
 31
0.0
  0
LINE
  5
3D4
  8
0
  6
CONTINUOUS
 62
     4
 10
41.30940182017312
 20
-15.50982915243495
 30
0.0
 11
44.07734743974973
 21
-10.71560736430413
 31
0.0
  0
LINE
  5
3D5
  8
0
  6
CONTINUOUS
 62
     4
 10
43.04145323633489
 20
-14.50982833673984
 30
0.0
 11
44.65469843902466
 21
-11.71560606386302
 31
0.0
  0
LINE
  5
3D6
  8
0
  6
CONTINUOUS
 62
     4
 10
44.77350322198501
 20
-13.50982999876325
 30
0.0
 11
45.23204800778794
 21
-12.71560724114042
 31
0.0
  0
LINE
  5
3D7
  8
0
  6
CONTINUOUS
 62
     4
 10
38.30384696036165
 20
-12.71560285276885
 30
0.0
 11
38.881194784619
 21
-11.71560722467271
 31
0.0
  0
LINE
  5
3D8
  8
0
  6
CONTINUOUS
 62
     4
 10
42.3452933920718
 20
-9.715606796431672
 30
0.0
 11
43.49999462498195
 21
-9.715606796431672
 31
0.0
  0
LINE
  5
3D9
  8
0
  6
CONTINUOUS
 62
     4
 10
-12.8316313474748
 20
12.6989298068933
 30
0.0
 11
-11.83162739149117
 21
12.12157731750249
 31
0.0
  0
LINE
  5
3DA
  8
0
  6
CONTINUOUS
 62
     4
 10
-9.83162749873631
 20
7.502776038956512
 30
0.0
 11
-9.83162749873631
 21
8.657476318192352
 31
0.0
  0
LINE
  5
3DB
  8
0
  6
CONTINUOUS
 62
     4
 10
-87.67610323645098
 20
-10.86710857361473
 30
0.0
 11
-83.6761006270161
 21
-8.55770624544553
 31
0.0
  0
LINE
  5
3DC
  8
0
  6
CONTINUOUS
 62
     4
 10
-82.67610321836568
 20
9.172590617878399
 30
0.0
 11
-80.67610191364824
 21
10.327291781963
 31
0.0
  0
LINE
  5
3DD
  8
0
  6
CONTINUOUS
 62
     4
 10
-80.67610606157669
 20
10.32729195693784
 30
0.0
 11
-78.67610145323434
 21
9.172588885504723
 31
0.0
  0
LINE
  5
3DE
  8
0
  6
CONTINUOUS
 62
     4
 10
-83.67610263349204
 20
-8.557706957701299
 30
0.0
 11
-79.67610002405715
 21
-10.8671092858705
 31
0.0
  0
LINE
  5
3DF
  8
0
  6
CONTINUOUS
 62
     4
 10
-82.67610027072246
 20
8.017891786360309
 30
0.0
 11
-78.67610096491248
 21
10.32729220718099
 31
0.0
  0
LINE
  5
3E0
  8
0
  6
CONTINUOUS
 62
     4
 10
-81.87225600687438
 20
7.327290903864395
 30
0.0
 11
-78.67610132089416
 21
9.17259146831438
 31
0.0
  0
LINE
  5
3E1
  8
0
  6
CONTINUOUS
 62
     4
 10
-79.87225836176353
 20
7.327289421733866
 30
0.0
 11
-78.67610167687585
 21
8.017890729447771
 31
0.0
  0
LINE
  5
3E2
  8
0
  6
CONTINUOUS
 62
     4
 10
-82.67610370668754
 20
10.32729047480731
 30
0.0
 11
-78.67610109725266
 21
8.017888146638114
 31
0.0
  0
LINE
  5
3E3
  8
0
  6
CONTINUOUS
 62
     4
 10
-82.67610335070586
 20
9.172589735940704
 30
0.0
 11
-79.47995196835055
 21
7.327291078839238
 31
0.0
  0
LINE
  5
3E4
  8
0
  6
CONTINUOUS
 62
     4
 10
-82.67610299472418
 20
8.017888997074095
 30
0.0
 11
-81.4799496134614
 21
7.32728959670871
 31
0.0
  0
LINE
  5
3E5
  8
0
  6
CONTINUOUS
 62
     4
 10
-86.67610240478322
 20
-8.557707273548573
 30
0.0
 11
-79.67610114189708
 21
-12.59915944049615
 31
0.0
  0
LINE
  5
3E6
  8
0
  6
CONTINUOUS
 62
     4
 10
-87.67610087135697
 20
-9.712408753480446
 30
0.0
 11
-79.67610225973701
 21
-14.33120959512181
 31
0.0
  0
LINE
  5
3E7
  8
0
  6
CONTINUOUS
 62
     4
 10
-87.67610198919689
 20
-11.4444589081061
 30
0.0
 11
-82.283799876845
 21
-14.55770564026673
 31
0.0
  0
LINE
  5
3E8
  8
0
  6
CONTINUOUS
 62
     4
 10
-87.67610310703682
 20
-13.17650906273175
 30
0.0
 11
-85.28379964813618
 21
-14.55770595611401
 31
0.0
  0
LINE
  5
3E9
  8
0
  6
CONTINUOUS
 62
     4
 10
-87.67610494539883
 20
-12.59916146149513
 30
0.0
 11
-80.67610037888778
 21
-8.557707387199031
 31
0.0
  0
LINE
  5
3EA
  8
0
  6
CONTINUOUS
 62
     4
 10
-87.676100523934
 20
-14.33120970877226
 30
0.0
 11
-79.67610191231404
 21
-9.712408867130904
 31
0.0
  0
LINE
  5
3EB
  8
0
  6
CONTINUOUS
 62
     4
 10
-85.06840621045092
 20
-14.55770766126571
 30
0.0
 11
-79.67610079447411
 21
-11.44445902175656
 31
0.0
  0
LINE
  5
3EC
  8
0
  6
CONTINUOUS
 62
     4
 10
-82.06840643915973
 20
-14.55770797711298
 30
0.0
 11
-79.67609967663418
 21
-13.17650917638221
 31
0.0
  0
LINE
  5
3ED
  8
0
  6
CONTINUOUS
 62
     4
 10
-80.67610286220085
 20
-8.557706641854026
 30
0.0
 11
-79.67610220984213
 21
-9.135057223896325
 31
0.0
  0
LINE
  5
3EE
  8
0
  6
CONTINUOUS
 62
     4
 10
-87.67610105066601
 20
-9.135056511640556
 30
0.0
 11
-86.67610039830728
 21
-8.557705929598257
 31
0.0
  0
LINE
  5
3EF
  8
0
  6
CONTINUOUS
 62
     4
 10
141.3163474692202
 20
80.82729138166891
 30
0.0
 11
147.8163474692202
 21
80.82729138166891
 31
0.0
  0
LINE
  5
3F0
  8
0
  6
CONTINUOUS
 62
     4
 10
121.8163474692202
 20
80.82729138166891
 30
0.0
 11
128.3163474692202
 21
80.82729138166891
 31
0.0
  0
LINE
  5
3F1
  8
0
  6
CONTINUOUS
 62
     4
 10
169.2433012928738
 20
32.45645001484385
 30
0.0
 11
172.493301680304
 21
38.08561503840915
 31
0.0
  0
LINE
  5
3F2
  8
0
  6
CONTINUOUS
 62
     4
 10
159.4933001305832
 20
15.56895494414798
 30
0.0
 11
162.7433005180134
 21
21.19811996771327
 31
0.0
  0
LINE
  5
3F3
  8
0
  6
CONTINUOUS
 62
     4
 10
121.8163474692202
 20
125.8272913816689
 30
0.0
 11
128.3163474692202
 21
125.8272913816689
 31
0.0
  0
LINE
  5
3F4
  8
0
  6
CONTINUOUS
 62
     4
 10
141.3163474692202
 20
125.8272913816689
 30
0.0
 11
147.8163474692202
 21
125.8272913816689
 31
0.0
  0
LINE
  5
3F5
  8
0
  6
CONTINUOUS
 62
     4
 10
208.2144437637104
 20
9.956447332634838
 30
0.0
 11
211.4644441511406
 21
15.58561235620013
 31
0.0
  0
LINE
  5
3F6
  8
0
  6
CONTINUOUS
 62
     4
 10
198.4644426014199
 20
-6.931047738061039
 30
0.0
 11
201.71444298885
 21
-1.301882714495747
 31
0.0
  0
LINE
  5
3F7
  8
0
  6
CONTINUOUS
 62
     4
 10
160.7923382129444
 20
14.81895485474101
 30
0.0
 11
164.0423386003746
 21
20.4481198783063
 31
0.0
  0
LINE
  5
3F8
  8
0
  6
CONTINUOUS
 62
     4
 10
162.0913801100034
 20
14.0689613725834
 30
0.0
 11
165.3413804974336
 21
19.6981263961487
 31
0.0
  0
LINE
  5
3F9
  8
0
  6
CONTINUOUS
 62
     4
 10
163.3903841339717
 20
13.3189633274686
 30
0.0
 11
166.6403845214019
 21
18.94812835103389
 31
0.0
  0
LINE
  5
3FA
  8
0
  6
CONTINUOUS
 62
     4
 10
164.6894430602271
 20
12.56896882316491
 30
0.0
 11
167.532068063401
 21
17.49253908022305
 31
0.0
  0
LINE
  5
3FB
  8
0
  6
CONTINUOUS
 62
     4
 10
170.542339375235
 20
31.70644992543689
 30
0.0
 11
173.7923397626652
 21
37.33561494900218
 31
0.0
  0
LINE
  5
3FC
  8
0
  6
CONTINUOUS
 62
     4
 10
171.8413812722939
 20
30.95645644327928
 30
0.0
 11
175.0913816597241
 21
36.58562146684457
 31
0.0
  0
LINE
  5
3FD
  8
0
  6
CONTINUOUS
 62
     4
 10
173.1403852962623
 20
30.20645839816447
 30
0.0
 11
176.3903856836925
 21
35.83562342172976
 31
0.0
  0
LINE
  5
3FE
  8
0
  6
CONTINUOUS
 62
     4
 10
174.815264427231
 20
30.107403493654
 30
0.0
 11
177.6894446099479
 21
35.08562891742608
 31
0.0
  0
LINE
  5
3FF
  8
0
  6
CONTINUOUS
 62
     4
 10
206.9154188958479
 20
10.70643979264636
 30
0.0
 11
210.1654192832781
 21
16.33560481621166
 31
0.0
  0
LINE
  5
400
  8
0
  6
CONTINUOUS
 62
     4
 10
205.616358199187
 20
11.45646174809357
 30
0.0
 11
208.8663585866172
 21
17.08562677165887
 31
0.0
  0
LINE
  5
401
  8
0
  6
CONTINUOUS
 62
     4
 10
204.3173201168258
 20
12.20646183750054
 30
0.0
 11
207.567320504256
 21
17.83562686106583
 31
0.0
  0
LINE
  5
402
  8
0
  6
CONTINUOUS
 62
     4
 10
203.0182952489633
 20
12.95645429751207
 30
0.0
 11
206.2682956363935
 21
18.58561932107736
 31
0.0
  0
LINE
  5
403
  8
0
  6
CONTINUOUS
 62
     4
 10
197.1654177335574
 20
-6.181055278049513
 30
0.0
 11
200.4154181209875
 21
-0.5518902544842206
 31
0.0
  0
LINE
  5
404
  8
0
  6
CONTINUOUS
 62
     4
 10
195.8663570368964
 20
-5.431033322602303
 30
0.0
 11
199.1163574243266
 21
0.198131700962989
 31
0.0
  0
LINE
  5
405
  8
0
  6
CONTINUOUS
 62
     4
 10
194.5673189545352
 20
-4.681033233195336
 30
0.0
 11
197.8173193419654
 21
0.9481317903699562
 31
0.0
  0
LINE
  5
406
  8
0
  6
CONTINUOUS
 62
     4
 10
193.2682940866727
 20
-3.93104077318381
 30
0.0
 11
196.5182944741029
 21
1.698124250381483
 31
0.0
  0
LINE
  5
407
  8
0
  6
CONTINUOUS
 62
     4
 10
141.3163474692202
 20
124.3272913816689
 30
0.0
 11
147.8163474692202
 21
124.3272913816689
 31
0.0
  0
LINE
  5
408
  8
0
  6
CONTINUOUS
 62
     4
 10
141.3163474692202
 20
122.8272913816689
 30
0.0
 11
147.8163474692202
 21
122.8272913816689
 31
0.0
  0
LINE
  5
409
  8
0
  6
CONTINUOUS
 62
     4
 10
141.3163474692202
 20
121.3272913816689
 30
0.0
 11
147.8163474692202
 21
121.3272913816689
 31
0.0
  0
LINE
  5
40A
  8
0
  6
CONTINUOUS
 62
     4
 10
141.3163474692202
 20
119.8272913816689
 30
0.0
 11
147.8163474692202
 21
119.8272913816689
 31
0.0
  0
LINE
  5
40B
  8
0
  6
CONTINUOUS
 62
     4
 10
121.8163474692202
 20
124.3272913816689
 30
0.0
 11
128.3163474692202
 21
124.3272913816689
 31
0.0
  0
LINE
  5
40C
  8
0
  6
CONTINUOUS
 62
     4
 10
121.8163474692202
 20
122.8272913816689
 30
0.0
 11
128.3163474692202
 21
122.8272913816689
 31
0.0
  0
LINE
  5
40D
  8
0
  6
CONTINUOUS
 62
     4
 10
121.8163474692202
 20
121.3272913816689
 30
0.0
 11
128.3163474692202
 21
121.3272913816689
 31
0.0
  0
LINE
  5
40E
  8
0
  6
CONTINUOUS
 62
     4
 10
121.8163474692202
 20
119.8272913816689
 30
0.0
 11
128.3163474692202
 21
119.8272913816689
 31
0.0
  0
LINE
  5
40F
  8
0
  6
CONTINUOUS
 62
     4
 10
121.8163474692202
 20
82.32729138166891
 30
0.0
 11
128.3163474692202
 21
82.32729138166891
 31
0.0
  0
LINE
  5
410
  8
0
  6
CONTINUOUS
 62
     4
 10
121.8163474692202
 20
83.82729138166891
 30
0.0
 11
128.3163474692202
 21
83.82729138166891
 31
0.0
  0
LINE
  5
411
  8
0
  6
CONTINUOUS
 62
     4
 10
121.8163474692202
 20
85.32729138166891
 30
0.0
 11
128.3163474692202
 21
85.32729138166891
 31
0.0
  0
LINE
  5
412
  8
0
  6
CONTINUOUS
 62
     4
 10
121.8163474692202
 20
86.82729138166891
 30
0.0
 11
127.4622672690249
 21
86.82729138166891
 31
0.0
  0
LINE
  5
413
  8
0
  6
CONTINUOUS
 62
     4
 10
141.3163474692202
 20
82.32729138166891
 30
0.0
 11
147.8163474692202
 21
82.32729138166891
 31
0.0
  0
LINE
  5
414
  8
0
  6
CONTINUOUS
 62
     4
 10
141.3163474692202
 20
83.82729138166891
 30
0.0
 11
147.8163474692202
 21
83.82729138166891
 31
0.0
  0
LINE
  5
415
  8
0
  6
CONTINUOUS
 62
     4
 10
141.3163474692202
 20
85.32729138166891
 30
0.0
 11
147.8163474692202
 21
85.32729138166891
 31
0.0
  0
LINE
  5
416
  8
0
  6
CONTINUOUS
 62
     4
 10
142.4122642172671
 20
86.82729138166891
 30
0.0
 11
147.8163474692202
 21
86.82729138166891
 31
0.0
  0
CIRCLE
  5
417
  8
0
  6
CONTINUOUS
 62
     4
 10
159.5650962485171
 20
69.57602490217673
 30
0.0
 40
2.5
  0
CIRCLE
  5
418
  8
0
  6
CONTINUOUS
 62
     4
 10
101.0089439047671
 20
53.88596142561423
 30
0.0
 40
2.5
  0
CIRCLE
  5
419
  8
0
  6
CONTINUOUS
 62
     4
 10
143.8750175131656
 20
11.01988781721579
 30
0.0
 40
2.5
  0
ARC
  5
41A
  8
0
  6
CONTINUOUS
 62
     4
 10
134.8163474692202
 20
44.82729138166891
 30
0.0
 40
45.0
 50
110.1479062540461
 51
141.6044244388098
  0
ARC
  5
41B
  8
0
  6
CONTINUOUS
 62
     4
 10
134.8163474692202
 20
44.82729138166891
 30
0.0
 40
45.0
 50
350.1478986458736
 51
381.6044040240327
  0
ARC
  5
41C
  8
0
  6
CONTINUOUS
 62
     4
 10
134.8163474692202
 20
44.82729138166891
 30
0.0
 40
45.0
 50
230.1478722546809
 51
261.6043904394447
  0
ARC
  5
41D
  8
0
  6
CONTINUOUS
 62
     4
 10
134.8163474692202
 20
44.82729138166891
 30
0.0
 40
51.0
 50
347.6933028279948
 51
378.7239271283834
  0
ARC
  5
41E
  8
0
  6
CONTINUOUS
 62
     4
 10
134.8163474692202
 20
44.82729138166891
 30
0.0
 40
51.0
 50
107.6933138512619
 51
138.723956080897
  0
ARC
  5
41F
  8
0
  6
CONTINUOUS
 62
     4
 10
134.8163474692202
 20
44.82729138166891
 30
0.0
 40
51.0
 50
227.6932798518968
 51
258.7239084211536
  0
ARC
  5
420
  8
0
  6
CONTINUOUS
 62
     4
 10
134.8163474692202
 20
44.82729138166891
 30
0.0
 40
63.0
 50
224.2427912266114
 51
228.9990480966631
  0
ARC
  5
421
  8
0
  6
CONTINUOUS
 62
     4
 10
134.8163474692202
 20
44.82729138166891
 30
0.0
 40
69.0
 50
222.9815558152335
 51
228.7231357749513
  0
ARC
  5
422
  8
0
  6
CONTINUOUS
 62
     4
 10
134.8163474692202
 20
44.82729138166891
 30
0.0
 40
45.0
 50
278.3955908912207
 51
309.8521261514573
  0
ARC
  5
423
  8
0
  6
CONTINUOUS
 62
     4
 10
134.8163474692202
 20
44.82729138166891
 30
0.0
 40
51.0
 50
281.2760729095118
 51
312.3067185542415
  0
ARC
  5
424
  8
0
  6
CONTINUOUS
 62
     4
 10
134.8163474692202
 20
44.82729138166891
 30
0.0
 40
51.0
 50
161.2760932484986
 51
192.306667176242
  0
ARC
  5
425
  8
0
  6
CONTINUOUS
 62
     4
 10
134.8163474692202
 20
44.82729138166891
 30
0.0
 40
45.0
 50
158.3956112302074
 51
189.8520747734578
  0
ARC
  5
426
  8
0
  6
CONTINUOUS
 62
     4
 10
134.8163474692202
 20
44.82729138166891
 30
0.0
 40
51.0
 50
41.27605575824849
 51
72.30670481807279
  0
ARC
  5
427
  8
0
  6
CONTINUOUS
 62
     4
 10
134.8163474692202
 20
44.82729138166891
 30
0.0
 40
45.0
 50
38.39559081543028
 51
69.85211241528863
  0
LINE
  5
428
  8
0
  6
DIVIDE
 62
     9
 10
-153.626096378436
 20
81.82729138166891
 30
0.0
 11
-149.5599953042173
 21
81.82729138166891
 31
0.0
  0
LINE
  5
429
  8
0
  6
DIVIDE
 62
     9
 10
-139.626096378436
 20
80.82729138166891
 30
0.0
 11
-139.626096378436
 21
74.2573908689736
 31
0.0
  0
LINE
  5
42A
  8
0
  6
DIVIDE
 62
     9
 10
-154.626096378436
 20
80.82729138166891
 30
0.0
 11
-154.626096378436
 21
74.2573908689736
 31
0.0
  0
LINE
  5
42B
  8
0
  6
DIVIDE
 62
     9
 10
-139.6260854496362
 20
80.82728374973507
 30
0.0
 11
-138.9281646202972
 21
81.52520987382363
 31
0.0
  0
LINE
  5
42C
  8
0
  6
DIVIDE
 62
     9
 10
-154.6260915094316
 20
80.82729335055123
 30
0.0
 11
-153.6260931452403
 21
81.82729171474247
 31
0.0
  0
LINE
  5
42D
  8
0
  6
CONTINUOUS
 62
     6
 10
-116.4300743447446
 20
-179.8502446290733
 30
0.0
 11
32.52017055881984
 21
-179.8502446290733
 31
0.0
  0
LINE
  5
42E
  8
0
  6
CONTINUOUS
 62
     6
 10
-116.4300743447446
 20
-171.8502446290733
 30
0.0
 11
32.52017055881984
 21
-171.8502446290733
 31
0.0
  0
LINE
  5
42F
  8
0
  6
CONTINUOUS
 62
     6
 10
-116.4300743447446
 20
-163.8502446290733
 30
0.0
 11
32.52017055881984
 21
-163.8502446290733
 31
0.0
  0
LINE
  5
430
  8
0
  6
CONTINUOUS
 62
     6
 10
-116.4300743447446
 20
-155.8502446290733
 30
0.0
 11
32.52017055881984
 21
-155.8502446290733
 31
0.0
  0
LINE
  5
431
  8
0
  6
CONTINUOUS
 62
     6
 10
-116.4300743447446
 20
-147.8502446290733
 30
0.0
 11
32.52017055881984
 21
-147.8502446290733
 31
0.0
  0
LINE
  5
432
  8
0
  6
CONTINUOUS
 62
     6
 10
-116.4300743447446
 20
-139.8502446290733
 30
0.0
 11
32.52017055881984
 21
-139.8502446290733
 31
0.0
  0
LINE
  5
433
  8
0
  6
CONTINUOUS
 62
     6
 10
-116.4300743447446
 20
-131.8502446290733
 30
0.0
 11
32.52017055881984
 21
-131.8502446290733
 31
0.0
  0
LINE
  5
434
  8
0
  6
CONTINUOUS
 62
     6
 10
-116.4300743447446
 20
-123.8502446290733
 30
0.0
 11
32.52017055881984
 21
-123.8502446290733
 31
0.0
  0
LINE
  5
435
  8
0
  6
CONTINUOUS
 62
     6
 10
-116.4300743447446
 20
-115.8502369996787
 30
0.0
 11
32.52017055881984
 21
-115.8502369996787
 31
0.0
  0
LINE
  5
436
  8
0
  6
CONTINUOUS
 62
     6
 10
-116.4300743447446
 20
-107.8502369996787
 30
0.0
 11
-100.4300743447446
 21
-107.8502369996787
 31
0.0
  0
TEXT
  5
437
  8
0
 62
     7
 10
-197.5032335029047
 20
-64.01930511699862
 30
0.0
 40
4.0
  1
MIN21.2
 41
0.8000000000000002
  7
FDASTYLE1
 72
     5
 11
-175.1032335029047
 21
-64.01930511699862
 31
0.0
  0
TEXT
  5
438
  8
0
 62
     7
 10
-35.25510943995946
 20
80.29766339094626
 30
0.0
 40
3.0
  1
MIN
 50
90.0
 41
0.8000000000000003
  7
FDASTYLE1
 72
     5
 11
-35.25510943995946
 21
87.49766339094626
 31
0.0
  0
TEXT
  5
439
  8
0
 62
     7
 10
-13.15036150518447
 20
49.45939437586665
 30
0.0
 40
4.0
  1
MIN33.25
 50
90.0
 41
0.7999999999999998
  7
FDASTYLE1
 72
     5
 11
-13.15036150518447
 21
75.05939437586665
 31
0.0
  0
LINE
  5
43A
  8
LAYER0014
  6
CONTINUOUS
 62
     7
 10
17.5097809531658
 20
5.300756808817567
 30
0.0
 11
23.30559071648875
 21
8.64696959480213
 31
0.0
  0
LINE
  5
43B
  8
LAYER0014
  6
CONTINUOUS
 62
     7
 10
-139.626096378436
 20
141.1430872801064
 30
0.0
 11
-126.3801246987485
 21
141.1430872801064
 31
0.0
  0
LINE
  5
43C
  8
LAYER0014
  6
CONTINUOUS
 62
     7
 10
-154.626096378436
 20
141.1430872801064
 30
0.0
 11
-169.2319160805845
 21
141.1430872801064
 31
0.0
  0
LINE
  5
43D
  8
LAYER0014
  6
CONTINUOUS
 62
     7
 10
-154.626096378436
 20
83.36729138166892
 30
0.0
 11
-154.626096378436
 21
142.1430872801064
 31
0.0
  0
LINE
  5
43E
  8
LAYER0014
  6
CONTINUOUS
 62
     7
 10
-154.626096378436
 20
141.1430872801064
 30
0.0
 11
-143.4761024819516
 21
141.1430872801064
 31
0.0
  0
INSERT
  5
43F
  8
LAYER0014
 62
     7
  2
_OPEN30
 10
-154.626096378436
 20
141.1430872801064
 30
0.0
 41
1.999998407630662
 42
2.000005728319971
 50
180.0
  0
INSERT
  5
440
  8
LAYER0014
 62
     7
  2
_OPEN30
 10
-143.4761024819516
 20
141.1430872801064
 30
0.0
 41
1.999998407630662
 42
2.000005728319971
 50
360.0
  0
LINE
  5
441
  8
LAYER0014
  6
CONTINUOUS
 62
     4
 10
-143.4761024819516
 20
122.3672913816689
 30
0.0
 11
-143.4761024819516
 21
142.1430872801064
 31
0.0
  0
TEXT
  5
442
  8
LAYER0014
 62
     7
 10
-169.6889076577329
 20
142.7430872801064
 30
0.0
 40
4.0
  1
11.2
 41
0.8000000000000007
  7
FDASTYLE1
 72
     5
 11
-156.8889076577329
 21
142.7430872801064
 31
0.0
  0
INSERT
  5
443
  8
LAYER0014
  6
CONTINUOUS
  2
DA_IMAGEDIMGROUP_1
 10
0.0
 20
0.0
 30
0.0
  0
INSERT
  5
444
  8
LAYER0014
  6
CONTINUOUS
  2
DA_IMAGEDIMGROUP_2
 10
0.0
 20
0.0
 30
0.0
  0
INSERT
  5
445
  8
LAYER0014
  6
CONTINUOUS
  2
DA_IMAGEDIMGROUP_3
 10
0.0
 20
0.0
 30
0.0
  0
INSERT
  5
446
  8
LAYER0014
  6
CONTINUOUS
  2
DA_IMAGEDIMGROUP_4
 10
0.0
 20
0.0
 30
0.0
  0
INSERT
  5
447
  8
LAYER0014
  6
CONTINUOUS
  2
DA_IMAGEDIMGROUP_5
 10
0.0
 20
0.0
 30
0.0
  0
INSERT
  5
448
  8
LAYER0014
  6
CONTINUOUS
  2
DA_IMAGEDIMGROUP_6
 10
0.0
 20
0.0
 30
0.0
  0
INSERT
  5
449
  8
LAYER0014
  6
CONTINUOUS
  2
DA_IMAGEDIMGROUP_7
 10
0.0
 20
0.0
 30
0.0
  0
INSERT
  5
44A
  8
LAYER0014
  6
CONTINUOUS
  2
DA_IMAGEDIMGROUP_8
 10
0.0
 20
0.0
 30
0.0
  0
INSERT
  5
44B
  8
LAYER0014
  6
CONTINUOUS
  2
DA_IMAGEDIMGROUP_9
 10
0.0
 20
0.0
 30
0.0
  0
INSERT
  5
44C
  8
LAYER0014
  6
CONTINUOUS
  2
DA_IMAGEDIMGROUP_10
 10
0.0
 20
0.0
 30
0.0
  0
INSERT
  5
44D
  8
LAYER0014
  6
CONTINUOUS
  2
DA_IMAGEDIMGROUP_11
 10
0.0
 20
0.0
 30
0.0
  0
INSERT
  5
44E
  8
LAYER0014
  6
CONTINUOUS
  2
DA_IMAGEDIMGROUP_12
 10
0.0
 20
0.0
 30
0.0
  0
INSERT
  5
44F
  8
LAYER0014
  6
CONTINUOUS
  2
DA_IMAGEDIMGROUP_13
 10
0.0
 20
0.0
 30
0.0
  0
INSERT
  5
450
  8
LAYER0014
  6
CONTINUOUS
  2
DA_IMAGEDIMGROUP_14
 10
0.0
 20
0.0
 30
0.0
  0
INSERT
  5
451
  8
LAYER0014
  6
CONTINUOUS
  2
DA_IMAGEDIMGROUP_15
 10
0.0
 20
0.0
 30
0.0
  0
INSERT
  5
452
  8
LAYER0014
  6
CONTINUOUS
  2
DA_IMAGEDIMGROUP_16
 10
0.0
 20
0.0
 30
0.0
  0
INSERT
  5
453
  8
LAYER0014
  6
CONTINUOUS
  2
DA_IMAGEDIMGROUP_17
 10
0.0
 20
0.0
 30
0.0
  0
INSERT
  5
454
  8
LAYER0014
  6
CONTINUOUS
  2
DA_IMAGEDIMGROUP_18
 10
0.0
 20
0.0
 30
0.0
  0
INSERT
  5
455
  8
LAYER0014
  6
CONTINUOUS
  2
DA_IMAGEDIMGROUP_19
 10
0.0
 20
0.0
 30
0.0
  0
INSERT
  5
456
  8
LAYER0014
  6
CONTINUOUS
  2
DA_IMAGEDIMGROUP_20
 10
0.0
 20
0.0
 30
0.0
  0
INSERT
  5
457
  8
LAYER0014
  6
CONTINUOUS
  2
DA_IMAGEDIMGROUP_21
 10
0.0
 20
0.0
 30
0.0
  0
INSERT
  5
458
  8
LAYER0014
  6
CONTINUOUS
  2
DA_IMAGEDIMGROUP_22
 10
0.0
 20
0.0
 30
0.0
  0
INSERT
  5
459
  8
LAYER0014
  6
CONTINUOUS
  2
DA_IMAGEDIMGROUP_23
 10
0.0
 20
0.0
 30
0.0
  0
INSERT
  5
45A
  8
LAYER0014
  6
CONTINUOUS
  2
DC_GROUP_1
 10
0.0
 20
0.0
 30
0.0
  0
INSERT
  5
45B
  8
LAYER0014
  6
CONTINUOUS
  2
DC_GROUP_2
 10
0.0
 20
0.0
 30
0.0
  0
INSERT
  5
45C
  8
LAYER0014
  6
CONTINUOUS
  2
DA_IMAGEDIMGROUP_24
 10
0.0
 20
0.0
 30
0.0
  0
INSERT
  5
45D
  8
LAYER0014
  6
CONTINUOUS
  2
DA_IMAGEDIMGROUP_25
 10
0.0
 20
0.0
 30
0.0
  0
INSERT
  5
45E
  8
LAYER0014
  6
CONTINUOUS
  2
DA_IMAGEDIMGROUP_26
 10
0.0
 20
0.0
 30
0.0
  0
INSERT
  5
45F
  8
LAYER0014
  6
CONTINUOUS
  2
DA_IMAGEDIMGROUP_27
 10
0.0
 20
0.0
 30
0.0
  0
INSERT
  5
460
  8
LAYER0014
  6
CONTINUOUS
  2
DC_GROUP_3
 10
0.0
 20
0.0
 30
0.0
  0
INSERT
  5
461
  8
LAYER0014
  6
CONTINUOUS
  2
DC_GROUP_4
 10
0.0
 20
0.0
 30
0.0
  0
INSERT
  5
462
  8
LAYER0014
  6
CONTINUOUS
  2
DA_IMAGEDIMGROUP_28
 10
0.0
 20
0.0
 30
0.0
  0
INSERT
  5
463
  8
LAYER0014
  6
CONTINUOUS
  2
DA_IMAGEDIMGROUP_29
 10
0.0
 20
0.0
 30
0.0
  0
INSERT
  5
464
  8
LAYER0014
  6
CONTINUOUS
  2
DA_IMAGEDIMGROUP_30
 10
0.0
 20
0.0
 30
0.0
  0
LINE
  5
465
  8
0
  6
CONTINUOUS
 62
     2
 10
134.8163531723143
 20
117.8272913428327
 30
0.0
 11
131.7852634790064
 21
116.0772926988384
 31
0.0
  0
LINE
  5
466
  8
0
  6
CONTINUOUS
 62
     2
 10
137.847392399479
 20
116.077205794575
 30
0.0
 11
134.8163043751012
 21
117.8272072548888
 31
0.0
  0
LINE
  5
467
  8
0
  6
CONTINUOUS
 62
     2
 10
131.7852500571109
 20
116.0772913816689
 30
0.0
 11
131.7852500571109
 21
112.5772913816689
 31
0.0
  0
LINE
  5
468
  8
0
  6
CONTINUOUS
 62
     2
 10
131.7852599319496
 20
112.57728339831
 30
0.0
 11
134.8163485821762
 21
110.8272829810775
 31
0.0
  0
LINE
  5
469
  8
0
  6
CONTINUOUS
 62
     2
 10
134.8163631855891
 20
110.8272891364726
 30
0.0
 11
137.8474522530482
 21
112.5772888235482
 31
0.0
  0
LINE
  5
46A
  8
0
  6
CONTINUOUS
 62
     2
 10
137.8474448813296
 20
112.5772913816689
 30
0.0
 11
137.8474448813296
 21
116.0772913816689
 31
0.0
  0
LINE
  5
46B
  8
0
  6
CONTINUOUS
 62
     2
 10
134.8163446947955
 20
92.82728668979766
 30
0.0
 11
131.7852550014876
 21
91.07728804580333
 31
0.0
  0
LINE
  5
46C
  8
0
  6
CONTINUOUS
 62
     2
 10
137.8474108736993
 20
91.07725922050199
 30
0.0
 11
134.8163228493214
 21
92.82726068081578
 31
0.0
  0
LINE
  5
46D
  8
0
  6
CONTINUOUS
 62
     2
 10
131.7852500571109
 20
91.07729138166891
 30
0.0
 11
131.7852500571109
 21
87.57729138166891
 31
0.0
  0
LINE
  5
46E
  8
0
  6
CONTINUOUS
 62
     2
 10
131.7852433616346
 20
87.57729144950812
 30
0.0
 11
134.8163320118612
 21
85.82729103227561
 31
0.0
  0
LINE
  5
46F
  8
0
  6
CONTINUOUS
 62
     2
 10
134.8163576735933
 20
85.82729454045816
 30
0.0
 11
137.8474467410524
 21
87.57729422753377
 31
0.0
  0
LINE
  5
470
  8
0
  6
CONTINUOUS
 62
     2
 10
137.8474448813296
 20
87.57729138166891
 30
0.0
 11
137.8474448813296
 21
91.07729138166891
 31
0.0
  0
LINE
  5
471
  8
0
  6
CONTINUOUS
 62
     2
 10
195.005077645356
 20
13.57728542202025
 30
0.0
 11
191.9739879520481
 21
11.82728677802592
 31
0.0
  0
LINE
  5
472
  8
0
  6
CONTINUOUS
 62
     2
 10
198.0361575514031
 20
11.82729674267679
 30
0.0
 11
195.0050695270253
 21
13.57729820299059
 31
0.0
  0
LINE
  5
473
  8
0
  6
CONTINUOUS
 62
     2
 10
191.974001277814
 20
11.82729519636618
 30
0.0
 11
191.974001277814
 21
8.32729519636618
 31
0.0
  0
LINE
  5
474
  8
0
  6
CONTINUOUS
 62
     2
 10
191.9740100274641
 20
8.327274700133643
 30
0.0
 11
195.0050986776907
 21
6.577274282901129
 31
0.0
  0
LINE
  5
475
  8
0
  6
CONTINUOUS
 62
     2
 10
195.0050804156266
 20
6.577318388773477
 30
0.0
 11
198.0361694830857
 21
8.327318075849092
 31
0.0
  0
LINE
  5
476
  8
0
  6
CONTINUOUS
 62
     2
 10
198.0361808432437
 20
8.32729519636618
 30
0.0
 11
198.0361808432437
 21
11.82729519636618
 31
0.0
  0
LINE
  5
477
  8
0
  6
CONTINUOUS
 62
     2
 10
173.3544559467993
 20
26.07728159086932
 30
0.0
 11
170.3233662534914
 21
24.32728294687499
 31
0.0
  0
LINE
  5
478
  8
0
  6
CONTINUOUS
 62
     2
 10
176.3855267615406
 20
24.32727311509856
 30
0.0
 11
173.3544387371627
 21
26.07727457541236
 31
0.0
  0
LINE
  5
479
  8
0
  6
CONTINUOUS
 62
     2
 10
170.323366512189
 20
24.32729328901755
 30
0.0
 11
170.323366512189
 21
20.82729328901755
 31
0.0
  0
LINE
  5
47A
  8
0
  6
CONTINUOUS
 62
     2
 10
170.3233503825642
 20
20.82729293915858
 30
0.0
 11
173.3544390327908
 21
19.07729252192607
 31
0.0
  0
LINE
  5
47B
  8
0
  6
CONTINUOUS
 62
     2
 10
173.3544583145532
 20
19.07730035364997
 30
0.0
 11
176.3855473820123
 21
20.82730004072559
 31
0.0
  0
LINE
  5
47C
  8
0
  6
CONTINUOUS
 62
     2
 10
176.3855460776187
 20
20.82729328901755
 30
0.0
 11
176.3855460776187
 21
24.32729138166891
 31
0.0
  0
LINE
  5
47D
  8
0
  6
CONTINUOUS
 62
     2
 10
96.27823905845347
 20
26.0772856165689
 30
0.0
 11
93.24714936514559
 21
24.32728697257457
 31
0.0
  0
LINE
  5
47E
  8
0
  6
CONTINUOUS
 62
     2
 10
99.30933316923998
 20
24.32728855618902
 30
0.0
 11
96.27824514486215
 21
26.07729001650282
 31
0.0
  0
LINE
  5
47F
  8
0
  6
CONTINUOUS
 62
     2
 10
93.2471488608218
 20
24.32729328901755
 30
0.0
 11
93.2471488608218
 21
20.82729328901755
 31
0.0
  0
LINE
  5
480
  8
0
  6
CONTINUOUS
 62
     2
 10
93.24714312520169
 20
20.82728922546343
 30
0.0
 11
96.27823177542828
 21
19.07728880823092
 31
0.0
  0
LINE
  5
481
  8
0
  6
CONTINUOUS
 62
     2
 10
96.27822852535192
 20
19.07730072053445
 30
0.0
 11
99.30931759281103
 21
20.82730040761007
 31
0.0
  0
LINE
  5
482
  8
0
  6
CONTINUOUS
 62
     2
 10
99.30932842625148
 20
20.82729328901755
 30
0.0
 11
99.30932842625148
 21
24.32729138166891
 31
0.0
  0
LINE
  5
483
  8
0
  6
CONTINUOUS
 62
     2
 10
74.62760690656697
 20
13.5772958133924
 30
0.0
 11
71.59651721325909
 21
11.82729716939807
 31
0.0
  0
LINE
  5
484
  8
0
  6
CONTINUOUS
 62
     2
 10
77.65869517284787
 20
11.82728913300056
 30
0.0
 11
74.62760714847005
 21
13.57729059331436
 31
0.0
  0
LINE
  5
485
  8
0
  6
CONTINUOUS
 62
     2
 10
71.5965140951968
 20
11.82729519636618
 30
0.0
 11
71.5965140951968
 21
8.32729519636618
 31
0.0
  0
LINE
  5
486
  8
0
  6
CONTINUOUS
 62
     2
 10
71.59650566827864
 20
8.32730635306902
 30
0.0
 11
74.62759431850523
 21
6.577305935836506
 31
0.0
  0
LINE
  5
487
  8
0
  6
CONTINUOUS
 62
     2
 10
74.62759232921545
 20
6.577302955708632
 30
0.0
 11
77.65868139667455
 21
8.327302642784247
 31
0.0
  0
LINE
  5
488
  8
0
  6
CONTINUOUS
 62
     2
 10
77.65869366062648
 20
8.32729519636618
 30
0.0
 11
77.65869366062648
 21
11.82729519636618
 31
0.0
  0
LINE
  5
489
  8
0
  6
CONTINUOUS
 62
     2
 10
132.2615656267123
 20
12.80228963444264
 30
0.0
 11
134.8163526761315
 21
14.27729310044182
 31
0.0
  0
LINE
  5
48A
  8
0
  6
CONTINUOUS
 62
     2
 10
134.816336454676
 20
14.27729353585286
 30
0.0
 11
137.3711198115722
 21
12.80228373981421
 31
0.0
  0
LINE
  5
48B
  8
0
  6
CONTINUOUS
 62
     2
 10
137.3711265219546
 20
12.80228794844138
 30
0.0
 11
137.3711265219546
 21
9.852288139176238
 31
0.0
  0
LINE
  5
48C
  8
0
  6
CONTINUOUS
 62
     2
 10
137.3711342499998
 20
9.852293431660058
 30
0.0
 11
134.8163472005805
 21
8.377290053578093
 31
0.0
  0
LINE
  5
48D
  8
0
  6
CONTINUOUS
 62
     2
 10
134.816359463987
 20
8.377284654145882
 30
0.0
 11
132.2615752279186
 21
9.852293043509093
 31
0.0
  0
LINE
  5
48E
  8
0
  6
CONTINUOUS
 62
     2
 10
132.2615684164859
 20
9.852293384384979
 30
0.0
 11
132.2615684164859
 21
12.80229271681296
 31
0.0
  0
LINE
  5
48F
  8
0
  6
CONTINUOUS
 62
     2
 10
103.2497236886765
 20
63.05230241799913
 30
0.0
 11
105.8045107380957
 21
64.52730588399831
 31
0.0
  0
LINE
  5
490
  8
0
  6
CONTINUOUS
 62
     2
 10
105.8045106514093
 20
64.52729819341752
 30
0.0
 11
108.3592807938177
 21
63.0522960267925
 31
0.0
  0
LINE
  5
491
  8
0
  6
CONTINUOUS
 62
     2
 10
108.3592704428531
 20
63.05229748518454
 30
0.0
 11
108.3592704428531
 21
60.10230053694235
 31
0.0
  0
LINE
  5
492
  8
0
  6
CONTINUOUS
 62
     2
 10
108.3592770120081
 20
60.10230519309093
 30
0.0
 11
105.8044899625889
 21
58.62730181500896
 31
0.0
  0
LINE
  5
493
  8
0
  6
CONTINUOUS
 62
     2
 10
105.8044964735156
 20
58.62730526266918
 30
0.0
 11
103.2497254519396
 21
60.10230602262604
 31
0.0
  0
LINE
  5
494
  8
0
  6
CONTINUOUS
 62
     2
 10
103.2497275961734
 20
60.10230435163962
 30
0.0
 11
103.2497275961734
 21
63.05230511457907
 31
0.0
  0
LINE
  5
495
  8
0
  6
CONTINUOUS
 62
     2
 10
161.2734226459628
 20
63.05227866898335
 30
0.0
 11
163.8282096953821
 21
64.52728213498253
 31
0.0
  0
LINE
  5
496
  8
0
  6
CONTINUOUS
 62
     2
 10
163.8281952747695
 20
64.5272914228652
 30
0.0
 11
166.3829786316657
 21
63.05228162682656
 31
0.0
  0
LINE
  5
497
  8
0
  6
CONTINUOUS
 62
     2
 10
166.3829826010562
 20
63.05227459700095
 30
0.0
 11
166.3829826010562
 21
60.10227764875876
 31
0.0
  0
LINE
  5
498
  8
0
  6
CONTINUOUS
 62
     2
 10
166.3829902265269
 20
60.1022842722617
 30
0.0
 11
163.8282031771077
 21
58.62728089417973
 31
0.0
  0
LINE
  5
499
  8
0
  6
CONTINUOUS
 62
     2
 10
163.8282170451841
 20
58.62728457472062
 30
0.0
 11
161.2734328091157
 21
60.10229296408383
 31
0.0
  0
LINE
  5
49A
  8
0
  6
CONTINUOUS
 62
     2
 10
161.2734244955874
 20
60.10228146345602
 30
0.0
 11
161.2734244955874
 21
63.05228222639548
 31
0.0
  0
CIRCLE
  5
49B
  8
0
  6
CONTINUOUS
 62
     2
 10
134.8163474692202
 20
114.3272913816689
 30
0.0
 40
6.5
  0
CIRCLE
  5
49C
  8
0
  6
CONTINUOUS
 62
     2
 10
134.8163474692202
 20
89.32729138166891
 30
0.0
 40
6.5
  0
CIRCLE
  5
49D
  8
0
  6
CONTINUOUS
 62
     2
 10
195.0050834311343
 20
10.07729519636618
 30
0.0
 40
6.5
  0
CIRCLE
  5
49E
  8
0
  6
CONTINUOUS
 62
     2
 10
173.3544486655093
 20
22.57729328901755
 30
0.0
 40
6.5
  0
CIRCLE
  5
49F
  8
0
  6
CONTINUOUS
 62
     2
 10
96.27824627293117
 20
22.57729328901755
 30
0.0
 40
6.5
  0
CIRCLE
  5
4A0
  8
0
  6
CONTINUOUS
 62
     2
 10
74.62761150730617
 20
10.07729519636618
 30
0.0
 40
6.5
  0
CIRCLE
  5
4A1
  8
0
  6
CONTINUOUS
 62
     2
 10
134.8163474692202
 20
11.32729138166891
 30
0.0
 40
5.0
  0
CIRCLE
  5
4A2
  8
0
  6
CONTINUOUS
 62
     2
 10
105.8044990195132
 20
61.57730282576071
 30
0.0
 40
5.0
  0
CIRCLE
  5
4A3
  8
0
  6
CONTINUOUS
 62
     2
 10
163.8282035483218
 20
61.57727993757712
 30
0.0
 40
5.0
  0
LINE
  5
4A4
  8
0
  6
CONTINUOUS
 62
     5
 10
186.0911775779106
 20
90.97666115220656
 30
0.0
 11
182.3411785315849
 21
97.47184991220033
 31
0.0
  0
LINE
  5
4A5
  8
0
  6
CONTINUOUS
 62
     5
 10
173.1007948469498
 20
83.47666445583124
 30
0.0
 11
186.091175670562
 21
90.97666445583124
 31
0.0
  0
LINE
  5
4A6
  8
0
  6
CONTINUOUS
 62
     5
 10
179.6965341847655
 20
85.55260040273774
 30
0.0
 11
179.9710554119749
 21
86.5771279789877
 31
0.0
  0
LINE
  5
4A7
  8
0
  6
CONTINUOUS
 62
     5
 10
180.9954740019522
 20
86.30264454215998
 30
0.0
 11
179.9709612277813
 21
86.57716191493532
 31
0.0
  0
LINE
  5
4A8
  8
0
  6
CONTINUOUS
 62
     5
 10
179.9710032416262
 20
86.57714478498346
 30
0.0
 11
182.2210051489748
 21
82.68002723427512
 31
0.0
  0
LINE
  5
4A9
  8
0
  6
CONTINUOUS
 62
     5
 10
182.2210784083606
 20
82.67999630746894
 30
0.0
 11
182.4955996355699
 21
83.70452388371891
 31
0.0
  0
LINE
  5
4AA
  8
0
  6
CONTINUOUS
 62
     5
 10
182.2209876992776
 20
82.68004488744268
 30
0.0
 11
181.1964601862484
 21
82.9545662094832
 31
0.0
  0
LINE
  5
4AB
  8
0
  6
CONTINUOUS
 62
     5
 10
178.4569382426661
 20
92.95112793446069
 30
0.0
 11
177.6902275118872
 21
92.33025795713374
 31
0.0
  0
LINE
  5
4AC
  8
0
  6
CONTINUOUS
 62
     5
 10
178.4569348563718
 20
92.95114211944301
 30
0.0
 11
177.8360743641041
 21
93.7178408743076
 31
0.0
  0
LINE
  5
4AD
  8
0
  6
CONTINUOUS
 62
     5
 10
173.100798661647
 20
83.47665784858188
 30
0.0
 11
167.4757996153213
 21
93.2194418144787
 31
0.0
  0
LINE
  5
4AE
  8
0
  6
CONTINUOUS
 62
     5
 10
169.3507977079727
 20
89.97184991220033
 30
0.0
 11
182.3411785315849
 21
97.47184991220033
 31
0.0
  0
LINE
  5
4AF
  8
0
  6
CONTINUOUS
 62
     5
 10
167.4757977079727
 20
93.21944511810338
 30
0.0
 11
169.4243548315145
 21
94.34444511810338
 31
0.0
  0
LINE
  5
4B0
  8
0
  6
CONTINUOUS
 62
     5
 10
169.9868454317131
 20
93.37015231968857
 30
0.0
 11
169.4243492464103
 21
94.34442427421013
 31
0.0
  0
LINE
  5
4B1
  8
0
  6
CONTINUOUS
 62
     5
 10
169.9868557851889
 20
93.37016490452012
 30
0.0
 11
171.2858938675501
 21
94.12016490452012
 31
0.0
  0
LINE
  5
4B2
  8
0
  6
CONTINUOUS
 62
     5
 10
171.8483919602014
 20
93.14588964637389
 30
0.0
 11
171.2858919602014
 21
94.1201682081448
 31
0.0
  0
LINE
  5
4B3
  8
0
  6
CONTINUOUS
 62
     5
 10
171.8483986359217
 20
93.14587808368751
 30
0.0
 11
173.1474367182829
 21
93.89587808368751
 31
0.0
  0
LINE
  5
4B4
  8
0
  6
CONTINUOUS
 62
     5
 10
173.8974187354126
 20
92.59684063099346
 30
0.0
 11
173.1474187354126
 21
93.89587871335468
 31
0.0
  0
LINE
  5
4B5
  8
0
  6
CONTINUOUS
 62
     5
 10
174.0213757370872
 20
95.38223933286722
 30
0.0
 11
174.2958969642965
 21
96.40676690911718
 31
0.0
  0
LINE
  5
4B6
  8
0
  6
CONTINUOUS
 62
     5
 10
174.295829504502
 20
96.40677844686692
 30
0.0
 11
173.2713167303311
 21
96.68129581964226
 31
0.0
  0
LINE
  5
4B7
  8
0
  6
CONTINUOUS
 62
     5
 10
171.732731552711
 20
94.92693829655977
 30
0.0
 11
174.2958421538152
 21
96.40675091863008
 31
0.0
  0
ARC
  5
4B8
  8
0
  6
CONTINUOUS
 62
     5
 10
177.7775291098452
 20
90.41555584700095
 30
0.0
 40
2.625001907348633
 50
75.00010795499728
 51
369.999953377945
  0
TEXT
  5
4B9
  8
0
 62
     5
 10
106.3306352986193
 20
-22.9727116700889
 30
0.0
 40
5.0
  1
NIKKO
 41
0.7674421159044379
  7
FDASTYLE1
 72
     5
 11
129.9020666970111
 21
-22.9727116700889
 31
0.0
  0
TEXT
  5
4BA
  8
0
 62
     5
 10
137.687763084302
 20
-22.4727116700889
 30
0.0
 40
4.0
  1
HWB3-165
 41
0.7714288207463406
  7
FDASTYLE1
 72
     5
 11
168.544909109006
 21
-22.4727116700889
 31
0.0
  0
TEXT
  5
4BB
  8
0
 62
     5
 10
138.0449062479831
 20
-28.9727116700889
 30
0.0
 40
3.0
  1
0001
 41
0.7647060767727455
  7
FDASTYLE1
 72
     5
 11
149.1877639187671
 21
-28.9727116700889
 31
0.0
  0
TEXT
  5
4BC
  8
0
 62
     5
 10
204.8079751371226
 20
54.19823327911918
 30
0.0
 40
2.5
  1
F MAX   16KN
 50
120.0
 41
0.7991006611770903
  7
FDASTYLE1
 72
     5
 11
189.5503412424406
 21
80.6252303879933
 31
0.0
  0
TEXT
  5
4BD
  8
0
 62
     5
 10
208.2720712064585
 20
56.19823327911918
 30
0.0
 40
2.5
  1
ΣS MAX  53KN
 50
120.0
 41
0.8042452418121094
  7
FDASTYLE1
 72
     5
 11
193.0144373117766
 21
82.6252303879933
 31
0.0
  0
TEXT
  5
4BE
  8
0
 62
     5
 10
211.7361825345835
 20
58.19823327911918
 30
0.0
 40
2.5
  1
N MAX 6000 AT ΣS MAX
 50
120.0
 41
0.8037156284666039
  7
FDASTYLE1
 72
     5
 11
186.0587013899169
 21
102.6729352320737
 31
0.0
  0
TEXT
  5
4BF
  8
0
 62
     5
 10
179.9449578462919
 20
82.86244631934595
 30
0.0
 40
2.5
  1
F
 50
120.0
 41
0.8791213035583498
  7
FDASTYLE1
 72
     5
 11
178.846056216844
 21
84.76579977407
 31
0.0
  0
TEXT
  5
4C0
  8
0
 62
     5
 10
182.5597070394835
 20
93.37178416264447
 30
0.0
 40
2.5
  1
N min
 50
120.0
 41
0.7983872809842201
  7
FDASTYLE1
 72
     5
 11
176.3722070394835
 21
104.0888485344769
 31
0.0
  0
TEXT
  5
4C1
  8
0
 62
     5
 10
174.5504313208077
 20
103.6865641114476
 30
0.0
 40
1.25
  1
-1
 50
120.0
 41
0.782608910634555
  7
FDASTYLE1
 72
     5
 11
173.4254311866973
 21
105.6351215022487
 31
0.0
  0
TEXT
  5
4C2
  8
0
 62
     5
 10
173.290187948831
 20
97.79374362159204
 30
0.0
 40
2.5
  1
ΣS
 50
120.0
 41
0.9590411728078666
  7
FDASTYLE1
 72
     5
 11
170.6528247236094
 21
102.3617907256896
 31
0.0
  0
LINE
  5
4C3
  8
0
  6
CENTER
 62
     7
 10
-110.4761024819516
 20
-12.55770693986429
 30
0.0
 11
-110.4761024819516
 21
-41.77291381668933
 31
0.0
  0
LINE
  5
4C4
  8
0
  6
DASHED2
 62
     7
 10
-113.8761024819517
 20
-16.67270861833109
 30
0.0
 11
-107.0761024819516
 21
-16.67270861833109
 31
0.0
  0
LINE
  5
4C5
  8
0
  6
DASHED2
 62
     7
 10
-114.4761024819516
 20
-21.67270861833109
 30
0.0
 11
-114.4761024819516
 21
-37.67270861833109
 31
0.0
  0
LINE
  5
4C6
  8
0
  6
DASHED2
 62
     7
 10
-113.8761024819517
 20
-16.67270861833109
 30
0.0
 11
-113.8761024819517
 21
-37.67270861833109
 31
0.0
  0
LINE
  5
4C7
  8
0
  6
DASHED2
 62
     7
 10
-114.4761024819516
 20
-21.67270861833109
 30
0.0
 11
-106.4761024819516
 21
-21.67270861833109
 31
0.0
  0
LINE
  5
4C8
  8
0
  6
DASHED2
 62
     7
 10
-113.8761024819515
 20
-16.67270861833097
 30
0.0
 11
-110.4761024819518
 21
-14.70971770308642
 31
0.0
  0
LINE
  5
4C9
  8
0
  6
DASHED2
 62
     7
 10
-107.0761024819518
 20
-16.67270861833097
 30
0.0
 11
-110.4761024819515
 21
-14.70971770308642
 31
0.0
  0
LINE
  5
4CA
  8
0
  6
DASHED2
 62
     7
 10
-107.0761024819516
 20
-16.67270861833109
 30
0.0
 11
-107.0761024819516
 21
-37.67270861833109
 31
0.0
  0
LINE
  5
4CB
  8
0
  6
DASHED2
 62
     7
 10
-106.4761024819516
 20
-21.67270861833109
 30
0.0
 11
-106.4761024819516
 21
-37.67270861833109
 31
0.0
  0
LINE
  5
4CC
  8
0
  6
DASHED2
 62
     7
 10
186.3768410886905
 20
78.5217509115617
 30
0.0
 11
204.5027369789908
 21
88.9867417831297
 31
0.0
  0
LINE
  5
4CD
  8
0
  6
DASHED2
 62
     7
 10
190.4069681076127
 20
81.54136615383236
 30
0.0
 11
204.1989662727919
 21
89.50418000716141
 31
0.0
  0
LINE
  5
4CE
  8
0
  6
DASHED2
 62
     7
 10
189.7768410886905
 20
72.6327781658275
 30
0.0
 11
207.9168627242975
 21
83.10592454025091
 31
0.0
  0
LINE
  5
4CF
  8
0
  6
DASHED2
 62
     7
 10
194.4069681076127
 20
74.61316292355686
 30
0.0
 11
208.1989677294951
 21
82.57597761791384
 31
0.0
  0
LINE
  5
4D0
  8
0
  6
DASHED2
 62
     7
 10
194.4069681076127
 20
74.61316292355686
 30
0.0
 11
190.4069681076127
 21
81.54136615383236
 31
0.0
  0
LINE
  5
4D1
  8
0
  6
DASHED2
 62
     7
 10
189.7768410886905
 20
72.6327781658275
 30
0.0
 11
186.3768410886905
 21
78.5217509115617
 31
0.0
  0
LINE
  5
4D2
  8
0
  6
DASHED2
 62
     7
 10
186.3768410886905
 20
78.52175091156147
 30
0.0
 11
186.3768410886905
 21
74.59576908107236
 31
0.0
  0
LINE
  5
4D3
  8
0
  6
DASHED2
 62
     7
 10
189.7768410886903
 20
72.63277816582762
 30
0.0
 11
186.3768410886906
 21
74.59576908107216
 31
0.0
  0
INSERT
  5
4D4
  8
0
  6
CONTINUOUS
  2
DC_GROUP_5
 10
0.0
 20
0.0
 30
0.0
  0
INSERT
  5
4D5
  8
0
  6
CONTINUOUS
  2
DA_IMAGEDIMGROUP_31
 10
0.0
 20
0.0
 30
0.0
  0
INSERT
  5
4D6
  8
0
  6
CONTINUOUS
  2
DA_IMAGEDIMGROUP_32
 10
0.0
 20
0.0
 30
0.0
  0
VIEWPORT
  5
48
 67
     1
  8
0
 10
0.0
 20
0.0
 30
0.0
 40
1662.0
 41
1140.0
 68
     1
 69
     1
1001
ACAD
1000
MVIEW
1002
{
1070
    16
1010
0.0
1020
0.0
1030
0.0
1020
0.0
1030
0.0
1010
0.0
1020
0.0
1030
1.0
1020
0.0
1030
1.0
1040
0.0
1040
1140.0
1040
0.0
1040
0.0
1040
50.0
1040
0.0
1040
0.0
1070
     0
1070
   100
1070
     0
1070
     1
1070
     0
1070
     0
1070
     0
1070
     0
1040
0.0
1040
0.0
1040
0.0
1040
0.5
1040
0.5
1040
0.0
1040
0.0
1070
     0
1002
{
1002
}
1002
}
  0
ENDSEC
  0
EOF
