  0
SECTION
  2
HEADER
  9
$ACADVER
  1
AC1009
  9
$DWGCODEPAGE
  3
ansi_932
  9
$INSBASE
 10
0.0
 20
0.0
 30
0.0
  9
$EXTMIN
 10
-831.0
 20
-569.9999999999999
 30
0.0
  9
$EXTMAX
 10
831.0
 20
569.9999999999999
 30
0.0
  9
$LIMMIN
 10
-297.0
 20
-210.0
  9
$LIMMAX
 10
297.0
 20
210.0
  9
$ORTHOMODE
 70
     0
  9
$REGENMODE
 70
     1
  9
$FILLMODE
 70
     1
  9
$QTEXTMODE
 70
     0
  9
$MIRRTEXT
 70
     1
  9
$DRAGMODE
 70
     2
  9
$LTSCALE
 40
1.0
  9
$OSMODE
 70
    37
  9
$ATTMODE
 70
     1
  9
$TEXTSIZE
 40
0.2
  9
$TRACEWID
 40
0.05
  9
$TEXTSTYLE
  7
STANDARD
  9
$CLAYER
  8
0
  9
$CELTYPE
  6
BYLAYER
  9
$CECOLOR
 62
   256
  9
$DIMSCALE
 40
1.0
  9
$DIMASZ
 40
2.5
  9
$DIMEXO
 40
0.0625
  9
$DIMDLI
 40
0.38
  9
$DIMRND
 40
0.0
  9
$DIMDLE
 40
0.0
  9
$DIMEXE
 40
0.18
  9
$DIMTP
 40
0.0
  9
$DIMTM
 40
0.0
  9
$DIMTXT
 40
0.18
  9
$DIMCEN
 40
0.09
  9
$DIMTSZ
 40
0.0
  9
$DIMTOL
 70
     0
  9
$DIMLIM
 70
     0
  9
$DIMTIH
 70
     1
  9
$DIMTOH
 70
     1
  9
$DIMSE1
 70
     0
  9
$DIMSE2
 70
     0
  9
$DIMTAD
 70
     3
  9
$DIMZIN
 70
     0
  9
$DIMBLK
  1

  9
$DIMASO
 70
     1
  9
$DIMSHO
 70
     1
  9
$DIMPOST
  1

  9
$DIMAPOST
  1

  9
$DIMALT
 70
     0
  9
$DIMALTD
 70
     2
  9
$DIMALTF
 40
25.4
  9
$DIMLFAC
 40
1.0
  9
$DIMTOFL
 70
     0
  9
$DIMTVP
 40
0.0
  9
$DIMTIX
 70
     0
  9
$DIMSOXD
 70
     0
  9
$DIMSAH
 70
     0
  9
$DIMBLK1
  1

  9
$DIMBLK2
  1

  9
$DIMSTYLE
  2
STANDARD
  9
$DIMCLRD
 70
     0
  9
$DIMCLRE
 70
     0
  9
$DIMCLRT
 70
     0
  9
$DIMTFAC
 40
1.0
  9
$DIMGAP
 40
0.09
  9
$LUNITS
 70
     2
  9
$LUPREC
 70
     4
  9
$SKETCHINC
 40
0.1
  9
$FILLETRAD
 40
0.5
  9
$AUNITS
 70
     0
  9
$AUPREC
 70
     0
  9
$MENU
  1
.
  9
$ELEVATION
 40
0.0
  9
$PELEVATION
 40
0.0
  9
$THICKNESS
 40
0.0
  9
$LIMCHECK
 70
     0
  9
$CHAMFERA
 40
0.5
  9
$CHAMFERB
 40
0.5
  9
$SKPOLY
 70
     0
  9
$TDCREATE
 40
2454889.627116632
  9
$TDUPDATE
 40
2454889.627116643
  9
$TDINDWG
 40
0.0000000116
  9
$TDUSRTIMER
 40
0.0000000116
  9
$USRTIMER
 70
     1
  9
$ANGBASE
 50
0.0
  9
$ANGDIR
 70
     0
  9
$PDMODE
 70
     0
  9
$PDSIZE
 40
1.0
  9
$PLINEWID
 40
0.0
  9
$COORDS
 70
     1
  9
$SPLFRAME
 70
     0
  9
$SPLINETYPE
 70
     6
  9
$SPLINESEGS
 70
     8
  9
$ATTDIA
 70
     0
  9
$ATTREQ
 70
     1
  9
$HANDLING
 70
     1
  9
$HANDSEED
  5
4D7
  9
$SURFTAB1
 70
     6
  9
$SURFTAB2
 70
     6
  9
$SURFTYPE
 70
     6
  9
$SURFU
 70
     6
  9
$SURFV
 70
     6
  9
$UCSNAME
  2

  9
$UCSORG
 10
0.0
 20
0.0
 30
0.0
  9
$UCSXDIR
 10
1.0
 20
0.0
 30
0.0
  9
$UCSYDIR
 10
0.0
 20
1.0
 30
0.0
  9
$PUCSNAME
  2

  9
$PUCSORG
 10
0.0
 20
0.0
 30
0.0
  9
$PUCSXDIR
 10
1.0
 20
0.0
 30
0.0
  9
$PUCSYDIR
 10
0.0
 20
1.0
 30
0.0
  9
$USERI1
 70
     0
  9
$USERI2
 70
     0
  9
$USERI3
 70
     0
  9
$USERI4
 70
     0
  9
$USERI5
 70
     0
  9
$USERR1
 40
0.0
  9
$USERR2
 40
0.0
  9
$USERR3
 40
0.0
  9
$USERR4
 40
0.0
  9
$USERR5
 40
0.0
  9
$WORLDVIEW
 70
     1
  9
$SHADEDGE
 70
     3
  9
$SHADEDIF
 70
    70
  9
$TILEMODE
 70
     1
  9
$MAXACTVP
 70
    64
  9
$PLIMCHECK
 70
     0
  9
$PEXTMIN
 10
1.000000000000000E+20
 20
1.000000000000000E+20
 30
1.000000000000000E+20
  9
$PEXTMAX
 10
-1.000000000000000E+20
 20
-1.000000000000000E+20
 30
-1.000000000000000E+20
  9
$PLIMMIN
 10
0.0
 20
0.0
  9
$PLIMMAX
 10
12.0
 20
9.0
  9
$UNITMODE
 70
     0
  9
$VISRETAIN
 70
     0
  9
$PLINEGEN
 70
     1
  9
$PSLTSCALE
 70
     0
  0
ENDSEC
  0
SECTION
  2
TABLES
  0
TABLE
  2
VPORT
 70
     1
  0
VPORT
  2
*ACTIVE
 70
     0
 10
0.0
 20
0.0
 11
1.0
 21
1.0
 12
0.0
 22
0.0
 13
0.0
 23
0.0
 14
0.5
 24
0.5
 15
0.5
 25
0.5
 16
0.0
 26
0.0
 36
1.0
 17
-0.0000000000000036
 27
0.0
 37
0.0
 40
387.6
 41
1.457894736842106
 42
50.0
 43
0.0
 44
0.0
 50
0.0
 51
0.0
 71
     0
 72
  1000
 73
     1
 74
     1
 75
     0
 76
     0
 77
     0
 78
     0
  0
ENDTAB
  0
TABLE
  2
LTYPE
 70
    28
  0
LTYPE
  2
CONTINUOUS
 70
     0
  3
Solid line
 72
    65
 73
     0
 40
0.0
  0
LTYPE
  2
HIDDENX2
 70
     0
  3
CADPAC LINETYPE
 72
    65
 73
     2
 40
9.893992932862261
 49
7.420494699646696
 49
-2.473498233215565
  0
LTYPE
  2
HIDDEN
 70
     0
  3
CADPAC LINETYPE
 72
    65
 73
     2
 40
7.420494699646696
 49
4.946996466431131
 49
-2.473498233215565
  0
LTYPE
  2
HIDDEN2
 70
     0
  3
CADPAC LINETYPE
 72
    65
 73
     2
 40
6.183745583038913
 49
3.710247349823348
 49
-2.473498233215565
  0
LTYPE
  2
DASHED
 70
     0
  3
CADPAC LINETYPE
 72
    65
 73
     2
 40
6.925795053003526
 49
4.946996466431131
 49
-1.978798586572395
  0
LTYPE
  2
DASHED2
 70
     0
  3
CADPAC LINETYPE
 72
    65
 73
     2
 40
4.452296819787989
 49
2.968197879858678
 49
-1.484098939929311
  0
LTYPE
  2
DASHEDX2
 70
     0
  3
CADPAC LINETYPE
 72
    65
 73
     2
 40
11.8727915194346
 49
9.893992932862204
 49
-1.978798586572395
  0
LTYPE
  2
DOTX2
 70
     0
  3
CADPAC LINETYPE
 72
    65
 73
     2
 40
4.328621908127204
 49
0.0
 49
-4.328621908127204
  0
LTYPE
  2
DOT
 70
     0
  3
CADPAC LINETYPE
 72
    65
 73
     2
 40
3.462897526501763
 49
0.0
 49
-3.462897526501763
  0
LTYPE
  2
DOT2
 70
     0
  3
CADPAC LINETYPE
 72
    65
 73
     2
 40
2.597173144876322
 49
0.0
 49
-2.597173144876322
  0
LTYPE
  2
CENTERX2
 70
     0
  3
CADPAC LINETYPE
 72
    65
 73
     4
 40
14.84098939929339
 49
6.183745583038913
 49
-3.091872791519457
 49
2.473498233215565
 49
-3.091872791519457
  0
LTYPE
  2
CENTER
 70
     0
  3
CADPAC LINETYPE
 72
    65
 73
     4
 40
11.3780918727916
 49
4.946996466431131
 49
-2.473498233215565
 49
1.484098939929339
 49
-2.473498233215565
  0
LTYPE
  2
CENTER2
 70
     0
  3
CADPAC LINETYPE
 72
    65
 73
     4
 40
7.915194346289809
 49
3.710247349823348
 49
-1.855123674911674
 49
0.4946996466431131
 49
-1.855123674911674
  0
LTYPE
  2
DASHDOTX2
 70
     0
  3
CADPAC LINETYPE
 72
    65
 73
     4
 40
23.7455830388692
 49
11.87279151943466
 49
-3.957597173144848
 49
3.957597173144848
 49
-3.957597173144848
  0
LTYPE
  2
DASHDOT
 70
     0
  3
CADPAC LINETYPE
 72
    65
 73
     4
 40
11.87279151943449
 49
5.9363957597173
 49
-1.978798586572395
 49
1.978798586572395
 49
-1.978798586572395
  0
LTYPE
  2
DASHDOT2
 70
     0
  3
CADPAC LINETYPE
 72
    65
 73
     4
 40
7.618374558303808
 49
4.452296819787975
 49
-1.484098939929297
 49
0.1978798586572396
 49
-1.484098939929297
  0
LTYPE
  2
DIVIDEX2
 70
     0
  3
CADPAC LINETYPE
 72
    65
 73
     6
 40
31.6607773851589
 49
11.87279151943466
 49
-3.957597173144848
 49
3.957597173144848
 49
-3.957597173144848
 49
3.957597173144848
 49
-3.957597173144848
  0
LTYPE
  2
DIVIDE
 70
     0
  3
CADPAC LINETYPE
 72
    65
 73
     6
 40
15.83038869257928
 49
5.9363957597173
 49
-1.978798586572395
 49
1.978798586572395
 49
-1.978798586572395
 49
1.978798586572395
 49
-1.978798586572395
  0
LTYPE
  2
DIVIDE2
 70
     0
  3
CADPAC LINETYPE
 72
    65
 73
     6
 40
11.87279151943446
 49
4.452296819787975
 49
-1.484098939929297
 49
1.484098939929297
 49
-1.484098939929297
 49
1.484098939929297
 49
-1.484098939929297
  0
LTYPE
  2
BORDERX2
 70
     0
  3
CADPAC LINETYPE
 72
    65
 73
     6
 40
21.6431095406362
 49
6.183745583038913
 49
-3.091872791519457
 49
6.183745583038913
 49
-3.091872791519457
 49
0.0
 49
-3.091872791519457
  0
LTYPE
  2
BORDER
 70
     0
  3
CADPAC LINETYPE
 72
    65
 73
     6
 40
17.31448763250896
 49
4.946996466431131
 49
-2.473498233215565
 49
4.946996466431131
 49
-2.473498233215565
 49
0.0
 49
-2.473498233215565
  0
LTYPE
  2
BORDER2
 70
     0
  3
CADPAC LINETYPE
 72
    65
 73
     6
 40
12.86219081272091
 49
3.957597173144848
 49
-2.473498233215594
 49
1.484098939929311
 49
-2.473498233215594
 49
0.0
 49
-2.473498233215565
  0
LTYPE
  2
PHANTOMX2
 70
     0
  3
CADPAC LINETYPE
 72
    65
 73
     6
 40
18.55123674911674
 49
6.183745583038913
 49
-2.473498233215565
 49
2.473498233215565
 49
-2.473498233215565
 49
2.473498233215565
 49
-2.473498233215565
  0
LTYPE
  2
PHANTOM
 70
     0
  3
CADPAC LINETYPE
 72
    65
 73
     6
 40
15.33568904593651
 49
4.946996466431131
 49
-2.473498233215565
 49
1.484098939929339
 49
-2.473498233215565
 49
1.484098939929339
 49
-2.473498233215565
  0
LTYPE
  2
PHANTOM2
 70
     0
  3
CADPAC LINETYPE
 72
    65
 73
     6
 40
13.1095406360425
 49
3.710247349823348
 49
-2.473498233215565
 49
0.9893992932862261
 49
-2.473498233215565
 49
0.9893992932862261
 49
-2.473498233215565
  0
LTYPE
  2
ACAD_ISO06W100
 70
     0
  3
CADPAC LINETYPE
 72
    65
 73
     8
 40
26.21908127208496
 49
11.87279151943466
 49
-2.473498233215594
 49
1.484098939929311
 49
-2.473498233215594
 49
1.484098939929311
 49
-2.473498233215594
 49
1.484098939929311
 49
-2.473498233215594
  0
LTYPE
  2
ACAD_ISO13W100
 70
     0
  3
CADPAC LINETYPE
 72
    65
 73
     8
 40
19.78798586572452
 49
4.946996466431131
 49
-2.473498233215565
 49
4.946996466431131
 49
-2.473498233215565
 49
0.0
 49
-2.473498233215565
 49
0.0
 49
-2.473498233215565
  0
LTYPE
  2
ACAD_ISO14W100
 70
     0
  3
CADPAC LINETYPE
 72
    65
 73
     8
 40
14.84098939929339
 49
4.946996466431131
 49
-2.473498233215565
 49
0.0
 49
-2.473498233215565
 49
0.0
 49
-2.473498233215565
 49
0.0
 49
-2.473498233215565
  0
ENDTAB
  0
TABLE
  2
LAYER
 70
     3
  0
LAYER
  2
0
 70
     0
 62
     7
  6
CONTINUOUS
  0
LAYER
  2
LAYER0014
 70
     0
 62
     7
  6
CONTINUOUS
  0
LAYER
  2
ZUWAKU
 70
     0
 62
     7
  6
CONTINUOUS
  0
ENDTAB
  0
TABLE
  2
STYLE
 70
     5
  0
STYLE
  2
STANDARD
 70
     0
 40
0.0
 41
1.0
 50
0.0
 71
     0
 42
0.2
  3
txt
  4

  0
STYLE
  2
FDASTYLE1
 70
     0
 40
4.0
 41
0.7999999999999972
 50
0.0
 71
     0
 42
0.2
  3
txt.shx
  4
bigfont
  0
STYLE
  2
FDASTYLE0
 70
     4
 40
2.6656
 41
0.8
 50
0.0
 71
     0
 42
0.2
  3
txt.shx
  4
bigfont
  0
STYLE
  2
FDASTYLE2
 70
     0
 40
7.0
 41
0.8123476848090983
 50
0.0
 71
     0
 42
0.2
  3
MSMINCHO.TTC
  4

  0
STYLE
  2
FDASTYLE3
 70
     0
 40
8.0
 41
0.77
 50
0.0
 71
     0
 42
0.2
  3
MSGOTHIC.TTC
  4

  0
ENDTAB
  0
TABLE
  2
VIEW
 70
     0
  0
ENDTAB
  0
TABLE
  2
UCS
 70
     0
  0
ENDTAB
  0
TABLE
  2
APPID
 70
     2
  0
APPID
  2
ACAD
 70
     0
  0
APPID
  2
DAFUSIONOUT
 70
     0
  0
ENDTAB
  0
TABLE
  2
DIMSTYLE
 70
     1
  0
DIMSTYLE
  2
STANDARD
 70
     0
  3

  4

  5

  6

  7

 40
1.0
 41
0.18
 42
0.0625
 43
0.38
 44
0.18
 45
0.0
 46
0.0
 47
0.0
 48
0.0
140
0.18
141
0.09
142
0.0
143
25.4
144
1.0
145
0.0
146
1.0
147
0.09
 71
     0
 72
     0
 73
     1
 74
     1
 75
     0
 76
     0
 77
     0
 78
     0
170
     0
171
     2
172
     0
173
     0
174
     0
175
     0
176
     0
177
     0
178
     0
  0
ENDTAB
  0
ENDSEC
  0
SECTION
  2
BLOCKS
  0
BLOCK
  8
0
  2
$MODEL_SPACE
 70
     0
 10
0.0
 20
0.0
 30
0.0
  3
$MODEL_SPACE
  1

  0
ENDBLK
  5
21
  8
0
  0
BLOCK
 67
     1
  8
0
  2
$PAPER_SPACE
 70
     0
 10
0.0
 20
0.0
 30
0.0
  3
$PAPER_SPACE
  1

  0
ENDBLK
  5
1D
 67
     1
  8
0
  0
BLOCK
  8
0
  2
DA_IMAGEDIMGROUP_1
 70
     0
 10
0.0
 20
0.0
 30
0.0
  3
DA_IMAGEDIMGROUP_1
  1

  0
LINE
  5
C7
  8
LAYER0014
  6
CONTINUOUS
 62
     7
 10
130.7638021662968
 20
140.3108747915951
 30
0.0
 11
130.7638021662968
 21
151.4682319693295
 31
0.0
  0
LINE
  5
C8
  8
LAYER0014
  6
CONTINUOUS
 62
     7
 10
165.7638021662968
 20
140.3108747915951
 30
0.0
 11
165.7638021662968
 21
151.4682319693295
 31
0.0
  0
LINE
  5
C9
  8
LAYER0014
  6
CONTINUOUS
 62
     7
 10
130.7638021662968
 20
150.4682319693295
 30
0.0
 11
165.7638021662968
 21
150.4682319693295
 31
0.0
  0
INSERT
  5
D0
  8
LAYER0014
 62
     7
  2
_OPEN30
 10
130.7638021662968
 20
150.4682319693295
 30
0.0
 41
1.999998407630662
 42
2.000005728319971
 50
180.0
  0
INSERT
  5
D1
  8
LAYER0014
 62
     7
  2
_OPEN30
 10
165.7638021662968
 20
150.4682319693295
 30
0.0
 41
1.999998407630662
 42
2.000005728319971
 50
360.0
  0
TEXT
  5
D3
  8
LAYER0014
 62
     7
 10
145.0638021662968
 20
151.4682319693295
 30
0.0
 40
4.0
  1
35
 41
0.7999999999999972
  7
FDASTYLE1
 72
     5
 11
151.4638021662968
 21
151.4682319693295
 31
0.0
  0
ENDBLK
  5
4E
  8
0
  0
BLOCK
  8
0
  2
DA_IMAGEDIMGROUP_2
 70
     0
 10
0.0
 20
0.0
 30
0.0
  3
DA_IMAGEDIMGROUP_2
  1

  0
LINE
  5
D4
  8
LAYER0014
  6
CONTINUOUS
 62
     7
 10
148.2638021662968
 20
164.4015015953285
 30
0.0
 11
148.2638021662968
 21
156.3892829947201
 31
0.0
  0
LINE
  5
D5
  8
LAYER0014
  6
CONTINUOUS
 62
     7
 10
108.2638021662968
 20
126.3108671622006
 30
0.0
 11
108.2638021662968
 21
163.3103340201107
 31
0.0
  0
LINE
  5
D6
  8
LAYER0014
  6
CONTINUOUS
 62
     7
 10
148.2638021662968
 20
162.3103340201107
 30
0.0
 11
108.2638021662968
 21
162.3103340201107
 31
0.0
  0
INSERT
  5
D7
  8
LAYER0014
 62
     7
  2
_OPEN30
 10
148.2638021662968
 20
162.3103340201107
 30
0.0
 41
1.999998407630662
 42
2.000005728319971
 50
360.0
  0
INSERT
  5
D8
  8
LAYER0014
 62
     7
  2
_OPEN30
 10
108.2638021662968
 20
162.3103340201107
 30
0.0
 41
1.999998407630662
 42
2.000005728319971
 50
180.0
  0
TEXT
  5
D9
  8
LAYER0014
 62
     7
 10
125.0638021662968
 20
163.3103340201107
 30
0.0
 40
4.0
  1
40
 41
0.7999999999999989
  7
FDASTYLE1
 72
     5
 11
131.4638021662968
 21
163.3103340201107
 31
0.0
  0
ENDBLK
  5
51
  8
0
  0
BLOCK
  8
0
  2
DA_IMAGEDIMGROUP_3
 70
     0
 10
0.0
 20
0.0
 30
0.0
  3
DA_IMAGEDIMGROUP_3
  1

  0
LINE
  5
DA
  8
LAYER0014
  6
CONTINUOUS
 62
     7
 10
90.72380216629678
 20
108.7708671622006
 30
0.0
 11
21.08341657669718
 21
108.7708671622006
 31
0.0
  0
LINE
  5
DB
  8
LAYER0014
  6
CONTINUOUS
 62
     7
 10
25.12380369217569
 20
35.27086716220056
 30
0.0
 11
21.08341657669718
 21
35.27086716220056
 31
0.0
  0
LINE
  5
DC
  8
LAYER0014
  6
CONTINUOUS
 62
     7
 10
23.36942350418741
 20
108.7708671622006
 30
0.0
 11
23.36942350418741
 21
35.27086716220056
 31
0.0
  0
INSERT
  5
DD
  8
LAYER0014
 62
     7
  2
_OPEN30
 10
23.36942350418741
 20
108.7708671622006
 30
0.0
 41
1.999998407630662
 42
2.000005728319971
 50
90.0
  0
INSERT
  5
DE
  8
LAYER0014
 62
     7
  2
_OPEN30
 10
23.36942350418741
 20
35.27086716220056
 30
0.0
 41
1.999998407630662
 42
2.000005728319971
 50
270.0
  0
TEXT
  5
DF
  8
LAYER0014
 62
     7
 10
21.7582558395844
 20
67.89907531913001
 30
0.0
 40
4.0
  1
73.5
 50
89.90000000000001
 41
0.8000000000000007
  7
FDASTYLE1
 72
     5
 11
21.7805960426679
 21
80.6990558236201
 31
0.0
  0
ENDBLK
  5
54
  8
0
  0
BLOCK
  8
0
  2
DA_IMAGEDIMGROUP_4
 70
     0
 10
0.0
 20
0.0
 30
0.0
  3
DA_IMAGEDIMGROUP_4
  1

  0
LINE
  5
E0
  8
LAYER0014
  6
CONTINUOUS
 62
     7
 10
15.73207471881714
 20
-33.16394064160225
 30
0.0
 11
-14.28703375212984
 21
-50.49548130920657
 31
0.0
  0
LINE
  5
E1
  8
LAYER0014
  6
CONTINUOUS
 62
     7
 10
22.73208581138791
 20
-45.28833723200621
 30
0.0
 11
-7.287017671343904
 21
-62.61987398662295
 31
0.0
  0
LINE
  5
E2
  8
LAYER0014
  6
CONTINUOUS
 62
     7
 10
-12.30730032247828
 20
-49.35248166015872
 30
0.0
 11
-5.307294600432385
 21
-61.47684700640416
 31
0.0
  0
INSERT
  5
E3
  8
LAYER0014
 62
     7
  2
_OPEN30
 10
-12.30730032247828
 20
-49.35248166015872
 30
0.0
 41
1.999998407630662
 42
2.000005728319971
 50
120.0000004452921
  0
INSERT
  5
E4
  8
LAYER0014
 62
     7
  2
_OPEN30
 10
-5.307294600432385
 20
-61.47684700640416
 30
0.0
 41
1.999998407630662
 42
2.000005728319971
 50
300.0000004452921
  0
TEXT
  5
E5
  8
LAYER0014
 62
     7
 10
-9.541272061556803
 20
-52.14338303444065
 30
0.0
 40
4.0
  1
14
 50
-59.99999999999999
 41
0.7999999999999998
  7
FDASTYLE1
 72
     5
 11
-6.341272061556802
 21
-57.68594561866105
 31
0.0
  0
ENDBLK
  5
57
  8
0
  0
BLOCK
  8
0
  2
DA_IMAGEDIMGROUP_5
 70
     0
 10
0.0
 20
0.0
 30
0.0
  3
DA_IMAGEDIMGROUP_5
  1

  0
LINE
  5
E6
  8
LAYER0014
  6
CONTINUOUS
 62
     7
 10
18.33999437550289
 20
-16.60097925249827
 30
0.0
 11
13.89362128395334
 21
-8.899631931474531
 31
0.0
  0
LINE
  5
E7
  8
LAYER0014
  6
CONTINUOUS
 62
     7
 10
13.30457269401813
 20
-11.87937454835209
 30
0.0
 11
15.03663031616861
 21
-10.87937103167919
 31
0.0
  0
LINE
  5
E8
  8
LAYER0014
  6
CONTINUOUS
 62
     7
 10
22.65442947872728
 20
-6.481234471760075
 30
0.0
 11
15.03663031616861
 21
-10.87937103167919
 31
0.0
  0
INSERT
  5
E9
  8
LAYER0014
 62
     7
  2
_OPEN30
 10
15.03663031616861
 20
-10.87937103167919
 30
0.0
 41
1.999998407630662
 42
2.000005728319971
 50
209.9999896363009
  0
LINE
  5
EA
  8
LAYER0014
  6
CONTINUOUS
 62
     7
 10
8.974445222894333
 20
-14.37937376511577
 30
0.0
 11
13.30457269401813
 21
-11.87937454835209
 31
0.0
  0
INSERT
  5
EB
  8
LAYER0014
 62
     7
  2
_OPEN30
 10
13.30457269401813
 20
-11.87937454835209
 30
0.0
 41
1.999998407630662
 42
2.000005728319971
 50
29.99998963630094
  0
TEXT
  5
EC
  8
LAYER0014
 62
     7
 10
18.51712255963055
 20
-7.715208319616805
 30
0.0
 40
4.0
  1
2
 50
29.9
 41
0.8
  7
FDASTYLE1
 72
     5
 11
21.29119215622448
 21
-6.120047552404548
 31
0.0
  0
ENDBLK
  5
5A
  8
0
  0
BLOCK
  8
0
  2
DC_GROUP_1
 70
     0
 10
0.0
 20
0.0
 30
0.0
  3
DC_GROUP_1
  1

  0
LINE
  5
ED
  8
LAYER0014
  6
CONTINUOUS
 62
     7
 10
124.728870422066
 20
-37.25321289044454
 30
0.0
 11
95.02583177033574
 21
-83.66423356893453
 31
0.0
  0
INSERT
  5
EE
  8
LAYER0014
 62
     7
  2
_OPEN30
 10
124.728870422066
 20
-37.25321289044454
 30
0.0
 41
1.999998407630662
 42
2.000005728319971
 50
57.38076970018544
  0
LINE
  5
EF
  8
LAYER0014
  6
CONTINUOUS
 62
     7
 10
95.02583372147257
 20
-83.66423720791663
 30
0.0
 11
63.004944439246
 21
-83.66423720791663
 31
0.0
  0
TEXT
  5
F0
  8
LAYER0014
 62
     7
 10
64.83351499588663
 20
-82.06423720791663
 30
0.0
 40
4.0
  1
PCD133.35
 41
0.7999999999999999
  7
FDASTYLE1
 72
     5
 11
93.63351499588663
 21
-82.06423720791663
 31
0.0
  0
ENDBLK
  5
5D
  8
0
  0
BLOCK
  8
0
  2
DC_GROUP_2
 70
     0
 10
0.0
 20
0.0
 30
0.0
  3
DC_GROUP_2
  1

  0
LINE
  5
F1
  8
LAYER0014
  6
CONTINUOUS
 62
     7
 10
149.7786585199572
 20
-11.9117664663443
 30
0.0
 11
194.7973209760565
 21
-82.92057661099697
 31
0.0
  0
INSERT
  5
F2
  8
LAYER0014
 62
     7
  2
_OPEN30
 10
149.7786585199572
 20
-11.9117664663443
 30
0.0
 41
1.999998407630662
 42
2.000005728319971
 50
122.3741660242288
  0
LINE
  5
F3
  8
LAYER0014
  6
CONTINUOUS
 62
     7
 10
194.797310467078
 20
-82.9205772347721
 30
0.0
 11
229.5541158869999
 21
-82.9205772347721
 31
0.0
  0
TEXT
  5
F4
  8
LAYER0014
 62
     7
 10
195.7255483821171
 20
-81.3205772347721
 30
0.0
 40
4.0
  1
3-M5 PCD90
 41
0.8
  7
FDASTYLE1
 72
     5
 11
227.7255483821171
 21
-81.3205772347721
 31
0.0
  0
ENDBLK
  5
60
  8
0
  0
BLOCK
  8
0
  2
DA_IMAGEDIMGROUP_6
 70
     0
 10
0.0
 20
0.0
 30
0.0
  3
DA_IMAGEDIMGROUP_6
  1

  0
LINE
  5
F5
  8
LAYER0014
  6
CONTINUOUS
 62
     7
 10
102.7580771844009
 20
61.54379005975608
 30
0.0
 11
47.08427710991937
 21
93.68690753062904
 31
0.0
  0
LINE
  5
F6
  8
LAYER0014
  6
CONTINUOUS
 62
     7
 10
30.90940710064584
 20
35.2708997337983
 30
0.0
 11
36.00373403571786
 21
35.27097228104674
 31
0.0
  0
ARC
  5
F7
  8
LAYER0014
  6
CONTINUOUS
 62
     7
 10
148.2638021662968
 20
35.27086716220056
 30
0.0
 40
114.5460815429688
 50
150.0000246646978
 51
179.9999640278213
  0
INSERT
  5
F8
  8
LAYER0014
 62
     7
  2
_OPEN30
 10
49.06396099122202
 20
92.54386523012423
 30
0.0
 41
1.999998407630662
 42
2.000005728319971
 50
60.50022290083138
  0
INSERT
  5
F9
  8
LAYER0014
 62
     7
  2
_OPEN30
 10
33.71772062335062
 20
35.27093907800568
 30
0.0
 41
1.999998407630662
 42
2.000005728319971
 50
269.4997657916877
  0
TEXT
  5
FA
  8
LAYER0014
 62
     7
 10
34.82561894431156
 20
60.70012663403898
 30
0.0
 40
4.0
  1
30ﾟ
 50
74.89999999999999
 41
0.8000000000000006
  7
FDASTYLE1
 72
     5
 11
37.32646222728099
 21
69.96866389047955
 31
0.0
  0
ENDBLK
  5
63
  8
0
  0
BLOCK
  8
0
  2
DA_IMAGEDIMGROUP_7
 70
     0
 10
0.0
 20
0.0
 30
0.0
  3
DA_IMAGEDIMGROUP_7
  1

  0
LINE
  5
FB
  8
0
  6
CONTINUOUS
 62
     9
 10
240.4827167310412
 20
88.51346334437262
 30
0.0
 11
246.484732272385
 21
91.97872824999865
 31
0.0
  0
ARC
  5
FC
  8
0
  6
CONTINUOUS
 62
     9
 10
148.2638248281257
 20
35.27086716220056
 30
0.0
 40
112.4157315733877
 50
0.0
 51
29.99999725896546
  0
INSERT
  5
FD
  8
0
 62
     9
  2
_OPEN30
 10
260.6795564015134
 20
35.27086716220056
 30
0.0
 41
1.999998407630662
 42
2.000005728319971
 50
270.5096773124355
  0
INSERT
  5
FE
  8
0
 62
     9
  2
_OPEN30
 10
245.6187068446805
 20
91.47872829142935
 30
0.0
 41
1.999998407630662
 42
2.000005728319971
 50
119.4903199465292
  0
TEXT
  5
FF
  8
0
 62
     7
 10
258.4042204019947
 20
52.75224310532489
 30
0.0
 40
4.0
  1
30°
 50
101.4855849176378
 41
0.7500000000000023
  7
FDASTYLE1
 72
     5
 11
256.4926550751072
 21
62.16000149938678
 31
0.0
  0
ENDBLK
  5
66
  8
0
  0
BLOCK
  8
0
  2
DA_IMAGEDIMGROUP_8
 70
     0
 10
0.0
 20
0.0
 30
0.0
  3
DA_IMAGEDIMGROUP_8
  1

  0
LINE
  5
100
  8
0
  6
CONTINUOUS
 62
     9
 10
272.674607316251
 20
35.27086716220056
 30
0.0
 11
265.7027670100468
 21
35.27086716220056
 31
0.0
  0
LINE
  5
101
  8
0
  6
CONTINUOUS
 62
     9
 10
268.435412858447
 20
67.47074922041264
 30
0.0
 11
228.1458570389705
 21
56.6751964277718
 31
0.0
  0
ARC
  5
102
  8
0
  6
CONTINUOUS
 62
     9
 10
148.2638041892497
 20
35.27086716220056
 30
0.0
 40
123.4108031270013
 50
0.0
 51
14.99999847069179
  0
INSERT
  5
103
  8
0
 62
     9
  2
_OPEN30
 10
271.674607316251
 20
35.27086716220056
 30
0.0
 41
1.999998407630662
 42
2.000005728319971
 50
270.4642684958868
  0
INSERT
  5
104
  8
0
 62
     9
  2
_OPEN30
 10
267.4694870252497
 20
67.2119302010921
 30
0.0
 41
1.999998407630662
 42
2.000005728319971
 50
104.5357299748075
  0
TEXT
  5
105
  8
0
 62
     7
 10
270.2538917985367
 20
46.48974621832514
 30
0.0
 40
4.0
  1
15°
 50
97.4999992353459
 41
0.7500000000000014
  7
FDASTYLE1
 72
     5
 11
269.0008404802472
 21
56.00761690423663
 31
0.0
  0
ENDBLK
  5
69
  8
0
  0
BLOCK
  8
0
  2
DA_IMAGEDIMGROUP_9
 70
     0
 10
0.0
 20
0.0
 30
0.0
  3
DA_IMAGEDIMGROUP_9
  1

  0
LINE
  5
106
  8
0
  6
CONTINUOUS
 62
     9
 10
256.0005582070822
 20
97.47269230797397
 30
0.0
 11
246.484732272385
 21
91.97872824999865
 31
0.0
  0
ARC
  5
107
  8
0
  6
CONTINUOUS
 62
     9
 10
148.2638427019172
 20
35.27087748163762
 30
0.0
 40
123.4036399609381
 50
14.99999847069179
 51
29.9999972589655
  0
INSERT
  5
108
  8
0
 62
     9
  2
_OPEN30
 10
267.4626064507693
 20
67.21008655691344
 30
0.0
 41
1.999998407630662
 42
2.000005728319971
 50
285.4642939158013
  0
INSERT
  5
109
  8
0
 62
     9
  2
_OPEN30
 10
255.1345327793778
 20
96.9726923494047
 30
0.0
 41
1.999998407630662
 42
2.000005728319971
 50
119.5357018138559
  0
TEXT
  5
10A
  8
0
 62
     7
 10
263.1869424223987
 20
77.67809651711808
 30
0.0
 40
4.0
  1
15°
 50
112.4999978648286
 41
0.7500000000000007
  7
FDASTYLE1
 72
     5
 11
259.513181802213
 21
86.54734016613197
 31
0.0
  0
ENDBLK
  5
6C
  8
0
  0
BLOCK
  8
0
  2
DA_IMAGEDIMGROUP_10
 70
     0
 10
0.0
 20
0.0
 30
0.0
  3
DA_IMAGEDIMGROUP_10
  1

  0
LINE
  5
10B
  8
LAYER0014
  6
CONTINUOUS
 62
     7
 10
-185.5097916563253
 20
65.27086716220056
 30
0.0
 11
-200.5238840635519
 21
65.27086716220056
 31
0.0
  0
LINE
  5
10C
  8
LAYER0014
  6
CONTINUOUS
 62
     7
 10
-185.5097916563253
 20
5.270866208526243
 30
0.0
 11
-200.5238840635519
 21
5.270866208526243
 31
0.0
  0
LINE
  5
10D
  8
LAYER0014
  6
CONTINUOUS
 62
     7
 10
-198.2378885801534
 20
65.27086716220056
 30
0.0
 11
-198.2378885801534
 21
5.270866208526243
 31
0.0
  0
INSERT
  5
10E
  8
LAYER0014
 62
     7
  2
_OPEN30
 10
-198.2378885801534
 20
65.27086716220056
 30
0.0
 41
1.999998407630662
 42
2.000005728319971
 50
90.0
  0
INSERT
  5
10F
  8
LAYER0014
 62
     7
  2
_OPEN30
 10
-198.2378885801534
 20
5.270866208526243
 30
0.0
 41
1.999998407630662
 42
2.000005728319971
 50
270.0
  0
TEXT
  5
110
  8
LAYER0014
 62
     7
 10
-199.2602287832369
 20
22.47088618087331
 30
0.0
 40
4.0
  1
M60×P1.5
 50
89.90000000000001
 41
0.7804878048780496
  7
FDASTYLE1
 72
     5
 11
-199.2155483770699
 21
48.0708471898535
 31
0.0
  0
ENDBLK
  5
6F
  8
0
  0
BLOCK
  8
0
  2
DA_IMAGEDIMGROUP_11
 70
     0
 10
0.0
 20
0.0
 30
0.0
  3
DA_IMAGEDIMGROUP_11
  1

  0
LINE
  5
111
  8
LAYER0014
  6
CONTINUOUS
 62
     7
 10
-184.5097916563253
 20
68.77086716220056
 30
0.0
 11
-213.8572123106222
 21
68.77086716220056
 31
0.0
  0
LINE
  5
112
  8
LAYER0014
  6
CONTINUOUS
 62
     7
 10
-184.5097916563253
 20
1.770866208526243
 30
0.0
 11
-213.8572123106222
 21
1.770866208526243
 31
0.0
  0
LINE
  5
113
  8
LAYER0014
  6
CONTINUOUS
 62
     7
 10
-211.5712168272237
 20
68.77086716220056
 30
0.0
 11
-211.5712168272237
 21
1.770866208526243
 31
0.0
  0
INSERT
  5
114
  8
LAYER0014
 62
     7
  2
_OPEN30
 10
-211.5712168272237
 20
68.77086716220056
 30
0.0
 41
1.999998407630662
 42
2.000005728319971
 50
90.0
  0
INSERT
  5
115
  8
LAYER0014
 62
     7
  2
_OPEN30
 10
-211.5712168272237
 20
1.770866208526243
 30
0.0
 41
1.999998407630662
 42
2.000005728319971
 50
270.0
  0
TEXT
  5
116
  8
LAYER0014
 62
     7
 10
-212.57959440338
 20
30.47087399617961
 30
0.0
 40
4.0
  1
φ67
 50
89.90000000000001
 41
0.7500000000000018
  7
FDASTYLE1
 72
     5
 11
-212.5628392510674
 21
40.0708593745472
 31
0.0
  0
ENDBLK
  5
72
  8
0
  0
BLOCK
  8
0
  2
DA_IMAGEDIMGROUP_12
 70
     0
 10
0.0
 20
0.0
 30
0.0
  3
DA_IMAGEDIMGROUP_12
  1

  0
LINE
  5
117
  8
LAYER0014
  6
CONTINUOUS
 62
     7
 10
-169.7778885801534
 20
79.27086716220056
 30
0.0
 11
-227.5238840635519
 21
79.27086716220056
 31
0.0
  0
LINE
  5
118
  8
LAYER0014
  6
CONTINUOUS
 62
     7
 10
-159.1112168272238
 20
-8.729133851078402
 30
0.0
 11
-227.5238840635519
 21
-8.729133851078402
 31
0.0
  0
LINE
  5
119
  8
LAYER0014
  6
CONTINUOUS
 62
     7
 10
-225.2378885801534
 20
79.27086716220056
 30
0.0
 11
-225.2378885801534
 21
-8.729133851078402
 31
0.0
  0
INSERT
  5
11A
  8
LAYER0014
 62
     7
  2
_OPEN30
 10
-225.2378885801534
 20
79.27086716220056
 30
0.0
 41
1.999998407630662
 42
2.000005728319971
 50
90.0
  0
INSERT
  5
11B
  8
LAYER0014
 62
     7
  2
_OPEN30
 10
-225.2378885801534
 20
-8.729133851078402
 30
0.0
 41
1.999998407630662
 42
2.000005728319971
 50
270.0
  0
TEXT
  5
11C
  8
LAYER0014
 62
     7
 10
-226.2462661563097
 20
30.47087396637729
 30
0.0
 40
4.0
  1
φ88
 50
89.90000000000001
 41
0.7500000000000018
  7
FDASTYLE1
 72
     5
 11
-226.2295110039971
 21
40.07085934474488
 31
0.0
  0
ENDBLK
  5
75
  8
0
  0
BLOCK
  8
0
  2
DA_IMAGEDIMGROUP_13
 70
     0
 10
0.0
 20
0.0
 30
0.0
  3
DA_IMAGEDIMGROUP_13
  1

  0
LINE
  5
11D
  8
LAYER0014
  6
CONTINUOUS
 62
     7
 10
-162.7778885801534
 20
137.7708671622006
 30
0.0
 11
-254.5238840635519
 21
137.7708671622006
 31
0.0
  0
LINE
  5
11E
  8
LAYER0014
  6
CONTINUOUS
 62
     7
 10
-162.7778885801534
 20
-67.22913283779944
 30
0.0
 11
-254.5238840635519
 21
-67.22913283779944
 31
0.0
  0
LINE
  5
11F
  8
LAYER0014
  6
CONTINUOUS
 62
     7
 10
-252.2378885801534
 20
137.7708671622006
 30
0.0
 11
-252.2378885801534
 21
-67.22913283779944
 31
0.0
  0
INSERT
  5
120
  8
LAYER0014
 62
     7
  2
_OPEN30
 10
-252.2378885801534
 20
137.7708671622006
 30
0.0
 41
1.999998407630662
 42
2.000005728319971
 50
90.0
  0
INSERT
  5
121
  8
LAYER0014
 62
     7
  2
_OPEN30
 10
-252.2378885801534
 20
-67.22913283779944
 30
0.0
 41
1.999998407630662
 42
2.000005728319971
 50
270.0
  0
TEXT
  5
122
  8
LAYER0014
 62
     7
 10
-253.2490586816952
 20
28.87087690995553
 30
0.0
 40
4.0
  1
φ205
 50
89.90000000000001
 41
0.7619047619047609
  7
FDASTYLE1
 72
     5
 11
-253.2267184786117
 21
41.67085741444559
 31
0.0
  0
ENDBLK
  5
78
  8
0
  0
BLOCK
  8
0
  2
DA_IMAGEDIMGROUP_14
 70
     0
 10
0.0
 20
0.0
 30
0.0
  3
DA_IMAGEDIMGROUP_14
  1

  0
LINE
  5
123
  8
LAYER0014
  6
CONTINUOUS
 62
     7
 10
-124.4297916563253
 20
61.27086716220056
 30
0.0
 11
-61.07135415632531
 21
61.27086716220056
 31
0.0
  0
LINE
  5
124
  8
LAYER0014
  6
CONTINUOUS
 62
     7
 10
-124.4297916563253
 20
9.270865254851927
 30
0.0
 11
-61.07135415632531
 21
9.270865254851927
 31
0.0
  0
LINE
  5
125
  8
LAYER0014
  6
CONTINUOUS
 62
     7
 10
-63.35735345442102
 20
61.27086716220056
 30
0.0
 11
-63.35735345442102
 21
9.270865254851927
 31
0.0
  0
INSERT
  5
126
  8
LAYER0014
 62
     7
  2
_OPEN30
 10
-63.35735345442102
 20
61.27086716220056
 30
0.0
 41
1.999998407630662
 42
2.000005728319971
 50
90.0
  0
INSERT
  5
127
  8
LAYER0014
 62
     7
  2
_OPEN30
 10
-63.35735345442102
 20
9.270865254851927
 30
0.0
 41
1.999998407630662
 42
2.000005728319971
 50
270.0
  0
TEXT
  5
128
  8
LAYER0014
 62
     7
 10
-64.9713136444927
 20
27.33857126917614
 30
0.0
 40
4.0
  1
φ52
 50
89.90000000000001
 41
0.7499999999999996
  7
FDASTYLE1
 72
     5
 11
-64.95455849218007
 21
36.93855664754369
 31
0.0
  0
TEXT
  5
129
  8
LAYER0014
 62
     7
 10
-67.1528098130234
 20
37.94239484686196
 30
0.0
 40
2.2
  1
+0.3
 50
89.90000000000001
 41
0.7999999999999998
  7
FDASTYLE1
 72
     5
 11
-67.14052270132747
 21
44.9823841243315
 31
0.0
  0
TEXT
  5
12A
  8
LAYER0014
 62
     7
 10
-64.75281346843151
 20
37.93820605878381
 30
0.0
 40
2.2
  1
 0
 50
89.90000000000001
 41
0.7999999999999998
  7
FDASTYLE1
 72
     5
 11
-64.74666991258356
 21
41.45820069751858
 31
0.0
  0
ENDBLK
  5
7B
  8
0
  0
BLOCK
  8
0
  2
DA_IMAGEDIMGROUP_15
 70
     0
 10
0.0
 20
0.0
 30
0.0
  3
DA_IMAGEDIMGROUP_15
  1

  0
LINE
  5
12B
  8
LAYER0014
  6
CONTINUOUS
 62
     7
 10
-124.4297916563253
 20
40.77086716220056
 30
0.0
 11
-111.9985773618917
 21
40.77086716220056
 31
0.0
  0
LINE
  5
12C
  8
LAYER0014
  6
CONTINUOUS
 62
     7
 10
-124.4297916563253
 20
29.77086716220056
 30
0.0
 11
-111.9985773618917
 21
29.77086716220056
 31
0.0
  0
LINE
  5
12D
  8
LAYER0014
  6
CONTINUOUS
 62
     7
 10
-114.2845804746847
 20
40.77086716220056
 30
0.0
 11
-114.2845804746847
 21
29.77086716220056
 31
0.0
  0
INSERT
  5
12E
  8
LAYER0014
 62
     7
  2
_OPEN30
 10
-114.2845804746847
 20
40.77086716220056
 30
0.0
 41
1.999998407630662
 42
2.000005728319971
 50
90.0
  0
INSERT
  5
12F
  8
LAYER0014
 62
     7
  2
_OPEN30
 10
-114.2845804746847
 20
29.77086716220056
 30
0.0
 41
1.999998407630662
 42
2.000005728319971
 50
270.0
  0
TEXT
  5
130
  8
LAYER0014
 62
     7
 10
-115.8901630885168
 20
32.07366456146347
 30
0.0
 40
4.0
  1
11
 50
89.90000000000001
 41
0.8000000000000007
  7
FDASTYLE1
 72
     5
 11
-115.8789929869751
 21
38.47365481370852
 31
0.0
  0
ENDBLK
  5
7E
  8
0
  0
BLOCK
  8
0
  2
DA_IMAGEDIMGROUP_16
 70
     0
 10
0.0
 20
0.0
 30
0.0
  3
DA_IMAGEDIMGROUP_16
  1

  0
LINE
  5
131
  8
LAYER0014
  6
CONTINUOUS
 62
     7
 10
-182.9697916563253
 20
17.79958801791345
 30
0.0
 11
-166.9697916563253
 21
17.79958801791345
 31
0.0
  0
INSERT
  5
132
  8
LAYER0014
 62
     7
  2
_OPEN30
 10
-182.9697916563253
 20
17.79958801791345
 30
0.0
 41
1.999998407630662
 42
2.000005728319971
 50
180.0
  0
INSERT
  5
133
  8
LAYER0014
 62
     7
  2
_OPEN30
 10
-166.9697916563253
 20
17.79958801791345
 30
0.0
 41
1.999998407630662
 42
2.000005728319971
 50
360.0
  0
TEXT
  5
134
  8
LAYER0014
 62
     7
 10
-177.5180049308147
 20
18.79958801791345
 30
0.0
 40
4.0
  1
16
 41
0.7999999999999972
  7
FDASTYLE1
 72
     5
 11
-171.1180049308148
 21
18.79958801791345
 31
0.0
  0
ENDBLK
  5
81
  8
0
  0
BLOCK
  8
0
  2
DA_IMAGEDIMGROUP_17
 70
     0
 10
0.0
 20
0.0
 30
0.0
  3
DA_IMAGEDIMGROUP_17
  1

  0
LINE
  5
135
  8
LAYER0014
  6
CONTINUOUS
 62
     7
 10
-166.9697916563253
 20
17.79958801791345
 30
0.0
 11
-162.9697916563253
 21
17.79958801791345
 31
0.0
  0
TEXT
  5
136
  8
LAYER0014
 62
     7
 10
-166.5697916563253
 20
18.79958801791345
 30
0.0
 40
4.0
  1
4
 41
0.7999999999999972
  7
FDASTYLE1
 72
     5
 11
-163.3697916563253
 21
18.79958801791345
 31
0.0
  0
ENDBLK
  5
84
  8
0
  0
BLOCK
  8
0
  2
DA_IMAGEDIMGROUP_18
 70
     0
 10
0.0
 20
0.0
 30
0.0
  3
DA_IMAGEDIMGROUP_18
  1

  0
LINE
  5
137
  8
LAYER0014
  6
CONTINUOUS
 62
     7
 10
-162.9697916563253
 20
17.79958801791345
 30
0.0
 11
-126.9697916563253
 21
17.79958801791345
 31
0.0
  0
INSERT
  5
138
  8
LAYER0014
 62
     7
  2
_OPEN30
 10
-162.9697916563253
 20
17.79958801791345
 30
0.0
 41
1.999998407630662
 42
2.000005728319971
 50
180.0
  0
INSERT
  5
139
  8
LAYER0014
 62
     7
  2
_OPEN30
 10
-126.9697916563253
 20
17.79958801791345
 30
0.0
 41
1.999998407630662
 42
2.000005728319971
 50
360.0
  0
TEXT
  5
13A
  8
LAYER0014
 62
     7
 10
-148.1697916563253
 20
18.79958801791345
 30
0.0
 40
4.0
  1
36
 41
0.7999999999999972
  7
FDASTYLE1
 72
     5
 11
-141.7697916563253
 21
18.79958801791345
 31
0.0
  0
ENDBLK
  5
87
  8
0
  0
BLOCK
  8
0
  2
DA_IMAGEDIMGROUP_19
 70
     0
 10
0.0
 20
0.0
 30
0.0
  3
DA_IMAGEDIMGROUP_19
  1

  0
LINE
  5
13B
  8
LAYER0014
  6
CONTINUOUS
 62
     7
 10
-126.9697916563253
 20
17.79958801791345
 30
0.0
 11
-84.46978402693078
 21
17.79958801791345
 31
0.0
  0
INSERT
  5
13C
  8
LAYER0014
 62
     7
  2
_OPEN30
 10
-126.9697916563253
 20
17.79958801791345
 30
0.0
 41
1.999998407630662
 42
2.000005728319971
 50
180.0
  0
INSERT
  5
13D
  8
LAYER0014
 62
     7
  2
_OPEN30
 10
-84.46978402693078
 20
17.79958801791345
 30
0.0
 41
1.999998407630662
 42
2.000005728319971
 50
360.0
  0
TEXT
  5
13E
  8
LAYER0014
 62
     7
 10
-112.1197878416281
 20
18.79958801791345
 30
0.0
 40
4.0
  1
42.5
 41
0.8000000000000007
  7
FDASTYLE1
 72
     5
 11
-99.31978784162804
 21
18.79958801791345
 31
0.0
  0
ENDBLK
  5
8A
  8
0
  0
BLOCK
  8
0
  2
DA_IMAGEDIMGROUP_20
 70
     0
 10
0.0
 20
0.0
 30
0.0
  3
DA_IMAGEDIMGROUP_20
  1

  0
LINE
  5
13F
  8
LAYER0014
  6
CONTINUOUS
 62
     7
 10
-84.46978402693078
 20
17.79958801791345
 30
0.0
 11
-75.23788858015344
 21
17.79958801791345
 31
0.0
  0
LINE
  5
140
  8
LAYER0014
  6
CONTINUOUS
 62
     7
 10
-70.23788858015344
 20
17.79958801791345
 30
0.0
 11
-75.23788858015344
 21
17.79958801791345
 31
0.0
  0
INSERT
  5
141
  8
LAYER0014
 62
     7
  2
_OPEN30
 10
-75.23788858015344
 20
17.79958801791345
 30
0.0
 41
1.999998407630662
 42
2.000005728319971
 50
180.0
  0
LINE
  5
142
  8
LAYER0014
  6
CONTINUOUS
 62
     7
 10
-89.46978402693078
 20
17.79958801791345
 30
0.0
 11
-84.46978402693078
 21
17.79958801791345
 31
0.0
  0
INSERT
  5
143
  8
LAYER0014
 62
     7
  2
_OPEN30
 10
-84.46978402693078
 20
17.79958801791345
 30
0.0
 41
1.999998407630662
 42
2.000005728319971
 50
360.0
  0
TEXT
  5
144
  8
LAYER0014
 62
     7
 10
-84.65383630354211
 20
18.79958801791345
 30
0.0
 40
4.0
  1
9.5
 41
0.7999999999999995
  7
FDASTYLE1
 72
     5
 11
-75.05383630354211
 21
18.79958801791345
 31
0.0
  0
ENDBLK
  5
8D
  8
0
  0
BLOCK
  8
0
  2
DA_IMAGEDIMGROUP_21
 70
     0
 10
0.0
 20
0.0
 30
0.0
  3
DA_IMAGEDIMGROUP_21
  1

  0
LINE
  5
145
  8
LAYER0014
  6
CONTINUOUS
 62
     7
 10
-157.9697916563253
 20
66.23086716220055
 30
0.0
 11
-157.9697916563253
 21
46.31819992587244
 31
0.0
  0
LINE
  5
146
  8
LAYER0014
  6
CONTINUOUS
 62
     7
 10
-182.9697916563253
 20
48.60419922396814
 30
0.0
 11
-157.9697916563253
 21
48.60419922396814
 31
0.0
  0
INSERT
  5
147
  8
LAYER0014
 62
     7
  2
_OPEN30
 10
-182.9697916563253
 20
48.60419922396814
 30
0.0
 41
1.999998407630662
 42
2.000005728319971
 50
180.0
  0
INSERT
  5
148
  8
LAYER0014
 62
     7
  2
_OPEN30
 10
-157.9697916563253
 20
48.60419922396814
 30
0.0
 41
1.999998407630662
 42
2.000005728319971
 50
360.0
  0
TEXT
  5
149
  8
LAYER0014
 62
     7
 10
-175.0125123117364
 20
49.60978427473901
 30
0.0
 40
4.0
  1
25
 50
-0.1000000000000078
 41
0.7999999999999954
  7
FDASTYLE1
 72
     5
 11
-168.6125220594914
 21
49.59861417319726
 31
0.0
  0
ENDBLK
  5
90
  8
0
  0
BLOCK
  8
0
  2
DA_IMAGEDIMGROUP_22
 70
     0
 10
0.0
 20
0.0
 30
0.0
  3
DA_IMAGEDIMGROUP_22
  1

  0
LINE
  5
14A
  8
LAYER0014
  6
CONTINUOUS
 62
     7
 10
-175.7778885801534
 20
-25.40413779690589
 30
0.0
 11
-200.5238840635519
 21
-25.40413779690589
 31
0.0
  0
LINE
  5
14B
  8
LAYER0014
  6
CONTINUOUS
 62
     7
 10
-175.7778885801534
 20
-37.40413779690589
 30
0.0
 11
-200.5238840635519
 21
-37.40413779690589
 31
0.0
  0
LINE
  5
14C
  8
LAYER0014
  6
CONTINUOUS
 62
     7
 10
-198.2378885801534
 20
-25.40413779690589
 30
0.0
 11
-198.2378885801534
 21
-37.40413779690589
 31
0.0
  0
INSERT
  5
14D
  8
LAYER0014
 62
     7
  2
_OPEN30
 10
-198.2378885801534
 20
-25.40413779690589
 30
0.0
 41
1.999998407630662
 42
2.000005728319971
 50
90.0
  0
INSERT
  5
14E
  8
LAYER0014
 62
     7
  2
_OPEN30
 10
-198.2378885801534
 20
-37.40413779690589
 30
0.0
 41
1.999998407630662
 42
2.000005728319971
 50
270.0
  0
TEXT
  5
14F
  8
LAYER0014
 62
     7
 10
-199.2462661563097
 20
-36.20413048608967
 30
0.0
 40
4.0
  1
M12
 50
89.90000000000001
 41
0.8000000000000016
  7
FDASTYLE1
 72
     5
 11
-199.2295110039971
 21
-26.60414510772209
 31
0.0
  0
ENDBLK
  5
93
  8
0
  0
BLOCK
  8
0
  2
DA_IMAGEDIMGROUP_23
 70
     0
 10
0.0
 20
0.0
 30
0.0
  3
DA_IMAGEDIMGROUP_23
  1

  0
LINE
  5
150
  8
LAYER0014
  6
CONTINUOUS
 62
     7
 10
-162.7778885801534
 20
130.2708671622006
 30
0.0
 11
-240.5238840635519
 21
130.2708671622006
 31
0.0
  0
LINE
  5
151
  8
LAYER0014
  6
CONTINUOUS
 62
     7
 10
-162.7778885801534
 20
-59.72913283779944
 30
0.0
 11
-240.5238840635519
 21
-59.72913283779944
 31
0.0
  0
LINE
  5
152
  8
LAYER0014
  6
CONTINUOUS
 62
     7
 10
-238.2378885801534
 20
130.2708671622006
 30
0.0
 11
-238.2378885801534
 21
-59.72913283779944
 31
0.0
  0
INSERT
  5
153
  8
LAYER0014
 62
     7
  2
_OPEN30
 10
-238.2378885801534
 20
130.2708671622006
 30
0.0
 41
1.999998407630662
 42
2.000005728319971
 50
90.0
  0
INSERT
  5
154
  8
LAYER0014
 62
     7
  2
_OPEN30
 10
-238.2378885801534
 20
-59.72913283779944
 30
0.0
 41
1.999998407630662
 42
2.000005728319971
 50
270.0
  0
TEXT
  5
155
  8
LAYER0014
 62
     7
 10
-239.2546437324661
 20
25.67088178383299
 30
0.0
 40
4.0
  1
φ190H7
 50
89.90000000000001
 41
0.7741935483870963
  7
FDASTYLE1
 72
     5
 11
-239.2211334278408
 21
44.8708525405681
 31
0.0
  0
ENDBLK
  5
96
  8
0
  0
BLOCK
  8
0
  2
DA_IMAGEDIMGROUP_24
 70
     0
 10
0.0
 20
0.0
 30
0.0
  3
DA_IMAGEDIMGROUP_24
  1

  0
LINE
  5
156
  8
LAYER0014
  6
CONTINUOUS
 62
     7
 10
-173.2378885801534
 20
-39.94413779690589
 30
0.0
 11
-173.2378885801534
 21
-52.98491210415686
 31
0.0
  0
LINE
  5
157
  8
LAYER0014
  6
CONTINUOUS
 62
     7
 10
-173.2378885801534
 20
-51.98491210415686
 30
0.0
 11
-156.0378916319112
 21
-51.98491210415686
 31
0.0
  0
LINE
  5
158
  8
LAYER0014
  6
CONTINUOUS
 62
     7
 10
-199.4762160423919
 20
-51.98491210415686
 30
0.0
 11
-173.2378885801534
 21
-51.98491210415686
 31
0.0
  0
INSERT
  5
159
  8
LAYER0014
 62
     7
  2
_OPEN30
 10
-173.2378885801534
 20
-51.98491210415686
 30
0.0
 41
1.999998407630662
 42
2.000005728319971
 50
360.0
  0
LINE
  5
15A
  8
LAYER0014
  6
CONTINUOUS
 62
     7
 10
-151.0378916319112
 20
-51.98491210415686
 30
0.0
 11
-156.0378916319112
 21
-51.98491210415686
 31
0.0
  0
INSERT
  5
15B
  8
LAYER0014
 62
     7
  2
_OPEN30
 10
-156.0378916319112
 20
-51.98491210415686
 30
0.0
 41
1.999998407630662
 42
2.000005728319971
 50
180.0
  0
TEXT
  5
15C
  8
LAYER0014
 62
     7
 10
-198.4762160423919
 20
-50.98491210415686
 30
0.0
 40
4.0
  1
17.2
 41
0.8000000000000007
  7
FDASTYLE1
 72
     5
 11
-185.6762160423919
 21
-50.98491210415686
 31
0.0
  0
ENDBLK
  5
99
  8
0
  0
BLOCK
  8
0
  2
DA_IMAGEDIMGROUP_25
 70
     0
 10
0.0
 20
0.0
 30
0.0
  3
DA_IMAGEDIMGROUP_25
  1

  0
LINE
  5
15D
  8
LAYER0014
  6
CONTINUOUS
 62
     7
 10
-160.2378885801534
 20
-110.3070341009186
 30
0.0
 11
-156.0378916319112
 21
-110.3070341009186
 31
0.0
  0
LINE
  5
15E
  8
LAYER0014
  6
CONTINUOUS
 62
     7
 10
-160.2378885801534
 20
-69.76913283779945
 30
0.0
 11
-160.2378885801534
 21
-111.3070341009186
 31
0.0
  0
LINE
  5
15F
  8
LAYER0014
  6
CONTINUOUS
 62
     7
 10
-156.0378916319112
 20
-62.26913283779944
 30
0.0
 11
-156.0378916319112
 21
-111.3070341009186
 31
0.0
  0
LINE
  5
160
  8
LAYER0014
  6
CONTINUOUS
 62
     7
 10
-173.7697385801534
 20
-110.3070341009186
 30
0.0
 11
-160.2378885801534
 21
-110.3070341009186
 31
0.0
  0
INSERT
  5
161
  8
LAYER0014
 62
     7
  2
_OPEN30
 10
-160.2378885801534
 20
-110.3070341009186
 30
0.0
 41
1.999998407630662
 42
2.000005728319971
 50
360.0
  0
LINE
  5
162
  8
LAYER0014
  6
CONTINUOUS
 62
     7
 10
-151.0378916319112
 20
-110.3070341009186
 30
0.0
 11
-156.0378916319112
 21
-110.3070341009186
 31
0.0
  0
INSERT
  5
163
  8
LAYER0014
 62
     7
  2
_OPEN30
 10
-156.0378916319112
 20
-110.3070341009186
 30
0.0
 41
1.999998407630662
 42
2.000005728319971
 50
180.0
  0
TEXT
  5
164
  8
LAYER0014
 62
     7
 10
-172.769723958521
 20
-109.2902789486059
 30
0.0
 40
4.0
  1
4.2
 50
-0.1000000000000078
 41
0.8000000000000002
  7
FDASTYLE1
 72
     5
 11
-163.1697385801534
 21
-109.3070341009186
 31
0.0
  0
ENDBLK
  5
9C
  8
0
  0
BLOCK
  8
0
  2
DA_IMAGEDIMGROUP_26
 70
     0
 10
0.0
 20
0.0
 30
0.0
  3
DA_IMAGEDIMGROUP_26
  1

  0
LINE
  5
165
  8
LAYER0014
  6
CONTINUOUS
 62
     7
 10
-156.0378916319112
 20
-110.3070341009186
 30
0.0
 11
-75.23788858015344
 21
-110.3070341009186
 31
0.0
  0
INSERT
  5
166
  8
LAYER0014
 62
     7
  2
_OPEN30
 10
-156.0378916319112
 20
-110.3070341009186
 30
0.0
 41
1.999998407630662
 42
2.000005728319971
 50
180.0
  0
INSERT
  5
167
  8
LAYER0014
 62
     7
  2
_OPEN30
 10
-75.23788858015344
 20
-110.3070341009186
 30
0.0
 41
1.999998407630662
 42
2.000005728319971
 50
360.0
  0
LINE
  5
168
  8
LAYER0014
  6
CONTINUOUS
 62
     7
 10
-156.0378916319112
 20
-62.26913283779944
 30
0.0
 11
-156.0378916319112
 21
-111.3070341009186
 31
0.0
  0
LINE
  5
169
  8
LAYER0014
  6
CONTINUOUS
 62
     7
 10
-75.23788858015344
 20
-67.76913283779945
 30
0.0
 11
-75.23788858015344
 21
-111.3070341009186
 31
0.0
  0
TEXT
  5
16A
  8
LAYER0014
 62
     7
 10
-122.0378901060324
 20
-108.7070341009186
 30
0.0
 40
4.0
  1
80.8
 41
0.8000000000000007
  7
FDASTYLE1
 72
     5
 11
-109.2378901060323
 21
-108.7070341009186
 31
0.0
  0
ENDBLK
  5
9F
  8
0
  0
BLOCK
  8
0
  2
DA_IMAGEDIMGROUP_27
 70
     0
 10
0.0
 20
0.0
 30
0.0
  3
DA_IMAGEDIMGROUP_27
  1

  0
LINE
  5
16B
  8
LAYER0014
  6
CONTINUOUS
 62
     7
 10
-182.9697916563253
 20
-92.83125707814267
 30
0.0
 11
-156.0378916319112
 21
-92.83125707814267
 31
0.0
  0
LINE
  5
16C
  8
LAYER0014
  6
CONTINUOUS
 62
     7
 10
-182.9697916563253
 20
0.2308662085262432
 30
0.0
 11
-182.9697916563253
 21
-93.83125707814267
 31
0.0
  0
LINE
  5
16D
  8
LAYER0014
  6
CONTINUOUS
 62
     7
 10
-156.0378916319112
 20
-62.26913283779944
 30
0.0
 11
-156.0378916319112
 21
-93.83125707814267
 31
0.0
  0
LINE
  5
16E
  8
LAYER0014
  6
CONTINUOUS
 62
     7
 10
-209.3016416563253
 20
-92.83125707814267
 30
0.0
 11
-182.9697916563253
 21
-92.83125707814267
 31
0.0
  0
INSERT
  5
16F
  8
LAYER0014
 62
     7
  2
_OPEN30
 10
-182.9697916563253
 20
-92.83125707814267
 30
0.0
 41
1.999998407630662
 42
2.000005728319971
 50
360.0
  0
LINE
  5
170
  8
LAYER0014
  6
CONTINUOUS
 62
     7
 10
-151.0378916319112
 20
-92.83125707814267
 30
0.0
 11
-156.0378916319112
 21
-92.83125707814267
 31
0.0
  0
INSERT
  5
171
  8
LAYER0014
 62
     7
  2
_OPEN30
 10
-156.0378916319112
 20
-92.83125707814267
 30
0.0
 41
1.999998407630662
 42
2.000005728319971
 50
180.0
  0
TEXT
  5
172
  8
LAYER0014
 62
     7
 10
-208.3016416563253
 20
-91.83125707814267
 30
0.0
 40
4.0
  1
MAX36.2
 41
0.8000000000000002
  7
FDASTYLE1
 72
     5
 11
-185.9016416563253
 21
-91.83125707814267
 31
0.0
  0
ENDBLK
  5
A2
  8
0
  0
BLOCK
  8
0
  2
DA_IMAGEDIMGROUP_28
 70
     0
 10
0.0
 20
0.0
 30
0.0
  3
DA_IMAGEDIMGROUP_28
  1

  0
LINE
  5
173
  8
LAYER0014
  6
CONTINUOUS
 62
     7
 10
-24.07947393134742
 20
87.77086716220056
 30
0.0
 11
-24.07947393134742
 21
117.7708671622006
 31
0.0
  0
INSERT
  5
174
  8
LAYER0014
 62
     7
  2
_OPEN30
 10
-24.07947393134742
 20
87.77086716220056
 30
0.0
 41
1.999998407630662
 42
2.000005728319971
 50
270.0
  0
INSERT
  5
175
  8
LAYER0014
 62
     7
  2
_OPEN30
 10
-24.07947393134742
 20
117.7708671622006
 30
0.0
 41
1.999998407630662
 42
2.000005728319971
 50
90.0
  0
LINE
  5
176
  8
LAYER0014
  6
CONTINUOUS
 62
     7
 10
-46.60713311750696
 20
87.77086716220056
 30
0.0
 11
-23.07947393134742
 21
87.77086716220056
 31
0.0
  0
LINE
  5
177
  8
LAYER0014
  6
CONTINUOUS
 62
     7
 10
-46.60713311750696
 20
117.7708671622006
 30
0.0
 11
-23.07947393134742
 21
117.7708671622006
 31
0.0
  0
TEXT
  5
178
  8
LAYER0014
 62
     7
 10
-25.67947393134742
 20
99.57086716220056
 30
0.0
 40
4.0
  1
30
 50
90.0
 41
0.8000000000000007
  7
FDASTYLE1
 72
     5
 11
-25.67947393134742
 21
105.9708671622006
 31
0.0
  0
ENDBLK
  5
A5
  8
0
  0
BLOCK
  8
0
  2
DA_IMAGEDIMGROUP_29
 70
     0
 10
0.0
 20
0.0
 30
0.0
  3
DA_IMAGEDIMGROUP_29
  1

  0
LINE
  5
179
  8
LAYER0014
  6
CONTINUOUS
 62
     7
 10
-81.92978402693078
 20
63.27086716220056
 30
0.0
 11
-48.18050027448938
 21
63.27086716220056
 31
0.0
  0
LINE
  5
17A
  8
LAYER0014
  6
CONTINUOUS
 62
     7
 10
-81.92978402693078
 20
7.270866208526243
 30
0.0
 11
-48.18050027448938
 21
7.270866208526243
 31
0.0
  0
LINE
  5
17B
  8
LAYER0014
  6
CONTINUOUS
 62
     7
 10
-50.46649957258508
 20
63.27086716220056
 30
0.0
 11
-50.46649957258508
 21
7.270866208526243
 31
0.0
  0
INSERT
  5
17C
  8
LAYER0014
 62
     7
  2
_OPEN30
 10
-50.46649957258508
 20
63.27086716220056
 30
0.0
 41
1.999998407630662
 42
2.000005728319971
 50
90.0
  0
INSERT
  5
17D
  8
LAYER0014
 62
     7
  2
_OPEN30
 10
-50.46649957258508
 20
7.270866208526243
 30
0.0
 41
1.999998407630662
 42
2.000005728319971
 50
270.0
  0
TEXT
  5
17E
  8
LAYER0014
 62
     7
 10
-52.08045976265675
 20
27.33857126917614
 30
0.0
 40
4.0
  1
φ56
 50
89.90000000000001
 41
0.7499999999999996
  7
FDASTYLE1
 72
     5
 11
-52.06370461034413
 21
36.93855664754369
 31
0.0
  0
TEXT
  5
17F
  8
LAYER0014
 62
     7
 10
-54.26195593118746
 20
37.94239484686196
 30
0.0
 40
2.2
  1
+0.3
 50
89.90000000000001
 41
0.7999999999999998
  7
FDASTYLE1
 72
     5
 11
-54.24966881949153
 21
44.9823841243315
 31
0.0
  0
TEXT
  5
180
  8
LAYER0014
 62
     7
 10
-51.86195958659557
 20
37.93820605878381
 30
0.0
 40
2.2
  1
 0
 50
89.90000000000001
 41
0.7999999999999998
  7
FDASTYLE1
 72
     5
 11
-51.8558160307476
 21
41.45820069751858
 31
0.0
  0
ENDBLK
  5
A8
  8
0
  0
BLOCK
  8
0
  2
DA_IMAGEDIMGROUP_30
 70
     0
 10
0.0
 20
0.0
 30
0.0
  3
DA_IMAGEDIMGROUP_30
  1

  0
LINE
  5
181
  8
LAYER0014
  6
CONTINUOUS
 62
     7
 10
-24.07947393134742
 20
76.27086716220056
 30
0.0
 11
-24.07947393134742
 21
87.77086716220056
 31
0.0
  0
INSERT
  5
182
  8
LAYER0014
 62
     7
  2
_OPEN30
 10
-24.07947393134742
 20
76.27086716220056
 30
0.0
 41
1.999998407630662
 42
2.000005728319971
 50
270.0
  0
INSERT
  5
183
  8
LAYER0014
 62
     7
  2
_OPEN30
 10
-24.07947393134742
 20
87.77086716220056
 30
0.0
 41
1.999998407630662
 42
2.000005728319971
 50
90.0
  0
LINE
  5
184
  8
LAYER0014
  6
CONTINUOUS
 62
     7
 10
-70.69788476545617
 20
76.27086716220056
 30
0.0
 11
-23.07947393134742
 21
76.27086716220056
 31
0.0
  0
LINE
  5
185
  8
LAYER0014
  6
CONTINUOUS
 62
     7
 10
-46.60713311750696
 20
87.77086716220056
 30
0.0
 11
-23.07947393134742
 21
87.77086716220056
 31
0.0
  0
TEXT
  5
186
  8
LAYER0014
 62
     7
 10
-30.47947412208228
 20
78.42086715624009
 30
0.0
 40
4.0
  1
11
 50
90.0
 41
0.8000000000000007
  7
FDASTYLE1
 72
     5
 11
-30.47947412208228
 21
84.8208671562401
 31
0.0
  0
TEXT
  5
187
  8
LAYER0014
 62
     7
 10
-26.27947395518928
 20
77.22086716220056
 30
0.0
 40
4.0
  1
MIN
 50
90.0
 41
0.7999999999999995
  7
FDASTYLE1
 72
     5
 11
-26.27947395518928
 21
86.82086716220056
 31
0.0
  0
ENDBLK
  5
AB
  8
0
  0
BLOCK
  8
0
  2
DA_IMAGEDIMGROUP_31
 70
     0
 10
0.0
 20
0.0
 30
0.0
  3
DA_IMAGEDIMGROUP_31
  1

  0
LINE
  5
188
  8
LAYER0014
  6
CONTINUOUS
 62
     7
 10
-10.35393777327588
 20
76.27086716220056
 30
0.0
 11
-10.35393777327588
 21
137.7708671622006
 31
0.0
  0
INSERT
  5
189
  8
LAYER0014
 62
     7
  2
_OPEN30
 10
-10.35393777327588
 20
76.27086716220056
 30
0.0
 41
1.999998407630662
 42
2.000005728319971
 50
270.0
  0
INSERT
  5
18A
  8
LAYER0014
 62
     7
  2
_OPEN30
 10
-10.35393777327588
 20
137.7708671622006
 30
0.0
 41
1.999998407630662
 42
2.000005728319971
 50
90.0
  0
LINE
  5
18B
  8
LAYER0014
  6
CONTINUOUS
 62
     7
 10
-70.69788476545617
 20
76.27086716220056
 30
0.0
 11
-9.353937773275876
 21
76.27086716220056
 31
0.0
  0
LINE
  5
18C
  8
LAYER0014
  6
CONTINUOUS
 62
     7
 10
-70.69788476545617
 20
137.7708671622006
 30
0.0
 11
-9.353937773275876
 21
137.7708671622006
 31
0.0
  0
TEXT
  5
18D
  8
LAYER0014
 62
     7
 10
-11.36510787481763
 20
100.6208769099555
 30
0.0
 40
4.0
  1
61.5
 50
89.90000000000001
 41
0.8000000000000007
  7
FDASTYLE1
 72
     5
 11
-11.34276767173413
 21
113.4208574144456
 31
0.0
  0
ENDBLK
  5
AE
  8
0
  0
BLOCK
  8
0
  2
DA_IMAGEDIMGROUP_32
 70
     0
 10
0.0
 20
0.0
 30
0.0
  3
DA_IMAGEDIMGROUP_32
  1

  0
LINE
  5
18E
  8
LAYER0014
  6
CONTINUOUS
 62
     7
 10
-10.35393777327588
 20
35.27086716220056
 30
0.0
 11
-10.35393777327588
 21
76.27086716220056
 31
0.0
  0
INSERT
  5
18F
  8
LAYER0014
 62
     7
  2
_OPEN30
 10
-10.35393777327588
 20
35.27086716220056
 30
0.0
 41
1.999998407630662
 42
2.000005728319971
 50
270.0
  0
INSERT
  5
190
  8
LAYER0014
 62
     7
  2
_OPEN30
 10
-10.35393777327588
 20
76.27086716220056
 30
0.0
 41
1.999998407630662
 42
2.000005728319971
 50
90.0
  0
LINE
  5
191
  8
LAYER0014
  6
CONTINUOUS
 62
     7
 10
-21.99392237836412
 20
35.27086716220056
 30
0.0
 11
-9.353937773275876
 21
35.27086716220056
 31
0.0
  0
LINE
  5
192
  8
LAYER0014
  6
CONTINUOUS
 62
     7
 10
-70.69788476545617
 20
76.27086716220056
 30
0.0
 11
-9.353937773275876
 21
76.27086716220056
 31
0.0
  0
TEXT
  5
193
  8
LAYER0014
 62
     7
 10
-11.97906806480607
 20
41.37368162003465
 30
0.0
 40
4.0
  1
MAX 42.45
 50
89.90000000000001
 41
0.8000000000000002
  7
FDASTYLE1
 72
     5
 11
-11.9288026078682
 21
70.17363775513734
 31
0.0
  0
ENDBLK
  5
B1
  8
0
  0
BLOCK
  8
0
  2
DA_IMAGEDIMGROUP_33
 70
     0
 10
0.0
 20
0.0
 30
0.0
  3
DA_IMAGEDIMGROUP_33
  1

  0
LINE
  5
194
  8
LAYER0014
  6
CONTINUOUS
 62
     7
 10
-37.21844871514235
 20
-9.729133910683048
 30
0.0
 11
-37.21844871514235
 21
54.11999455175534
 31
0.0
  0
INSERT
  5
195
  8
LAYER0014
 62
     7
  2
_OPEN30
 10
-37.21844871514235
 20
-9.729133910683048
 30
0.0
 41
1.999998407630662
 42
2.000005728319971
 50
270.0
  0
LINE
  5
196
  8
LAYER0014
  6
CONTINUOUS
 62
     7
 10
-68.03121301252648
 20
-9.729133910683046
 30
0.0
 11
-36.21844871514235
 21
-9.729133910683048
 31
0.0
  0
TEXT
  5
197
  8
LAYER0014
 62
     7
 10
-38.21844871514235
 20
26.94989237538931
 30
0.0
 40
4.0
  1
PCD90
 50
90.0
 41
0.7999999999999998
  7
FDASTYLE1
 72
     5
 11
-38.21844871514235
 21
42.94989237538931
 31
0.0
  0
ENDBLK
  5
B4
  8
0
  0
BLOCK
  8
0
  2
DC_GROUP_3
 70
     0
 10
0.0
 20
0.0
 30
0.0
  3
DC_GROUP_3
  1

  0
LINE
  5
198
  8
LAYER0014
  6
CONTINUOUS
 62
     7
 10
-73.02642849014258
 20
132.3748137755821
 30
0.0
 11
-53.95832421755979
 21
160.9717675557797
 31
0.0
  0
INSERT
  5
199
  8
LAYER0014
 62
     7
  2
_OPEN30
 10
-73.02642849014258
 20
132.3748137755821
 30
0.0
 41
1.999998407630662
 42
2.000005728319971
 50
236.3051217629283
  0
LINE
  5
19A
  8
LAYER0014
  6
CONTINUOUS
 62
     7
 10
-53.95832086164758
 20
160.9717643789974
 30
0.0
 11
-5.743156677077266
 21
160.9717643789974
 31
0.0
  0
TEXT
  5
19B
  8
LAYER0014
 62
     7
 10
-52.37172723371789
 20
162.5717643789974
 30
0.0
 40
4.0
  1
ｾﾚｰｼｮﾝP1.5山60ﾟ
 41
0.7887323943661972
  7
FDASTYLE1
 72
     5
 11
-7.571727233717887
 21
162.5717643789974
 31
0.0
  0
ENDBLK
  5
B7
  8
0
  0
BLOCK
  8
0
  2
DA_IMAGEDIMGROUP_34
 70
     0
 10
0.0
 20
0.0
 30
0.0
  3
DA_IMAGEDIMGROUP_34
  1

  0
LINE
  5
19C
  8
LAYER0014
  6
CONTINUOUS
 62
     7
 10
-160.2378885801534
 20
-120.7361268403171
 30
0.0
 11
-75.23788858015344
 21
-120.7361268403171
 31
0.0
  0
INSERT
  5
19D
  8
LAYER0014
 62
     7
  2
_OPEN30
 10
-160.2378885801534
 20
-120.7361268403171
 30
0.0
 41
1.999998407630662
 42
2.000005728319971
 50
180.0
  0
INSERT
  5
19E
  8
LAYER0014
 62
     7
  2
_OPEN30
 10
-75.23788858015344
 20
-120.7361268403171
 30
0.0
 41
1.999998407630662
 42
2.000005728319971
 50
360.0
  0
LINE
  5
19F
  8
LAYER0014
  6
CONTINUOUS
 62
     7
 10
-160.2378885801534
 20
-91.00160048916663
 30
0.0
 11
-160.2378885801534
 21
-121.7361268403171
 31
0.0
  0
LINE
  5
1A0
  8
LAYER0014
  6
CONTINUOUS
 62
     7
 10
-75.23788858015344
 20
-67.76913283779945
 30
0.0
 11
-75.23788858015344
 21
-121.7361268403171
 31
0.0
  0
TEXT
  5
1A1
  8
LAYER0014
 62
     7
 10
-120.9378885801534
 20
-119.1361268403171
 30
0.0
 40
4.0
  1
85
 41
0.8000000000000007
  7
FDASTYLE1
 72
     5
 11
-114.5378885801534
 21
-119.1361268403171
 31
0.0
  0
ENDBLK
  5
BA
  8
0
  0
BLOCK
  8
0
  2
DC_GROUP_4
 70
     0
 10
0.0
 20
0.0
 30
0.0
  3
DC_GROUP_4
  1

  0
LINE
  5
1A2
  8
LAYER0014
  6
CONTINUOUS
 62
     7
 10
-59.48393057223332
 20
122.3626292735427
 30
0.0
 11
-43.22745336141709
 21
149.11808010565
 31
0.0
  0
INSERT
  5
1A3
  8
LAYER0014
 62
     7
  2
_OPEN30
 10
-59.48393057223332
 20
122.3626292735427
 30
0.0
 41
1.999998407630662
 42
2.000005728319971
 50
238.7173451361447
  0
LINE
  5
1A4
  8
LAYER0014
  6
CONTINUOUS
 62
     7
 10
-43.22745538313195
 20
149.1180809073177
 30
0.0
 11
-30.44475007612512
 21
149.1180809073177
 31
0.0
  0
TEXT
  5
1A5
  8
LAYER0014
 62
     7
 10
-41.87275147993371
 20
150.7180809073178
 30
0.0
 40
4.0
  1
M10
 41
0.8000000000000002
  7
FDASTYLE1
 72
     5
 11
-32.27275147993371
 21
150.7180809073178
 31
0.0
  0
ENDBLK
  5
BD
  8
0
  0
BLOCK
  8
0
  2
DC_GROUP_5
 70
     0
 10
0.0
 20
0.0
 30
0.0
  3
DC_GROUP_5
  1

  0
LINE
  5
1A6
  8
LAYER0014
  6
CONTINUOUS
 62
     7
 10
-116.061819168438
 20
-67.35375240595526
 30
0.0
 11
-106.4456539026816
 21
-81.93309074476709
 31
0.0
  0
INSERT
  5
1A7
  8
LAYER0014
 62
     7
  2
_OPEN30
 10
-116.061819168438
 20
-67.35375240595526
 30
0.0
 41
1.999998407630662
 42
2.000005728319971
 50
123.4078408454921
  0
LINE
  5
1A8
  8
LAYER0014
  6
CONTINUOUS
 62
     7
 10
-106.4456522520284
 20
-81.93309325650061
 30
0.0
 11
-88.6159861143331
 21
-81.93309325650061
 31
0.0
  0
TEXT
  5
1A9
  8
LAYER0014
 62
     7
 10
-105.9803736265401
 20
-80.33309325650062
 30
0.0
 40
4.0
  1
M8×１６
 41
0.7142857142857143
  7
FDASTYLE1
 72
     5
 11
-89.98037362654013
 21
-80.33309325650062
 31
0.0
  0
ENDBLK
  5
C0
  8
0
  0
BLOCK
  8
0
  2
DA_IMAGEDIMGROUP_35
 70
     0
 10
0.0
 20
0.0
 30
0.0
  3
DA_IMAGEDIMGROUP_35
  1

  0
LINE
  5
1AA
  8
0
  6
CONTINUOUS
 62
     9
 10
-156.0378916319112
 20
-81.69749591040643
 30
0.0
 11
-116.0378916319112
 21
-81.69749591040643
 31
0.0
  0
INSERT
  5
1AB
  8
0
 62
     9
  2
_OPEN30
 10
-156.0378916319112
 20
-81.69749591040643
 30
0.0
 41
1.999998407630662
 42
2.000005728319971
 50
180.0
  0
INSERT
  5
1AC
  8
0
 62
     9
  2
_OPEN30
 10
-116.0378916319112
 20
-81.69749591040643
 30
0.0
 41
1.999998407630662
 42
2.000005728319971
 50
360.0
  0
LINE
  5
1AD
  8
0
  6
CONTINUOUS
 62
     9
 10
-156.0378916319112
 20
-60.72913283779944
 30
0.0
 11
-156.0378916319112
 21
-82.69749591040643
 31
0.0
  0
LINE
  5
1AE
  8
0
  6
CONTINUOUS
 62
     9
 10
-116.0378916319112
 20
-73.35747354343282
 30
0.0
 11
-116.0378916319112
 21
-82.69749591040643
 31
0.0
  0
TEXT
  5
1AF
  8
0
 62
     7
 10
-139.2378916319112
 20
-80.69749591040643
 30
0.0
 40
4.0
  1
40
 41
0.7999999999999972
  7
FDASTYLE1
 72
     5
 11
-132.8378916319113
 21
-80.69749591040643
 31
0.0
  0
ENDBLK
  5
C3
  8
0
  0
BLOCK
  8
0
  2
DA_IMAGEDIMGROUP_36
 70
     0
 10
0.0
 20
0.0
 30
0.0
  3
DA_IMAGEDIMGROUP_36
  1

  0
LINE
  5
1B0
  8
0
  6
CONTINUOUS
 62
     9
 10
-167.2378885801534
 20
79.27086716220056
 30
0.0
 11
-167.2378885801534
 21
150.005727761233
 31
0.0
  0
LINE
  5
1B1
  8
0
  6
CONTINUOUS
 62
     9
 10
-156.0378916319112
 20
131.2708671622006
 30
0.0
 11
-156.0378916319112
 21
150.005727761233
 31
0.0
  0
LINE
  5
1B2
  8
0
  6
CONTINUOUS
 62
     9
 10
-167.2378885801534
 20
149.005727761233
 30
0.0
 11
-156.0378916319112
 21
149.005727761233
 31
0.0
  0
LINE
  5
1B3
  8
0
  6
CONTINUOUS
 62
     9
 10
-149.2378885801534
 20
79.27086716220056
 30
0.0
 11
-149.2378885801534
 21
150.005727761233
 31
0.0
  0
LINE
  5
1B4
  8
0
  6
CONTINUOUS
 62
     9
 10
-183.9697385801534
 20
149.005727761233
 30
0.0
 11
-167.2378885801534
 21
149.005727761233
 31
0.0
  0
INSERT
  5
1B5
  8
0
 62
     9
  2
_OPEN30
 10
-167.2378885801534
 20
149.005727761233
 30
0.0
 41
1.999998407630662
 42
2.000005728319971
 50
360.0
  0
LINE
  5
1B6
  8
0
  6
CONTINUOUS
 62
     9
 10
-135.7060385801534
 20
149.005727761233
 30
0.0
 11
-149.2378885801534
 21
149.005727761233
 31
0.0
  0
INSERT
  5
1B7
  8
0
 62
     9
  2
_OPEN30
 10
-149.2378885801534
 20
149.005727761233
 30
0.0
 41
1.999998407630662
 42
2.000005728319971
 50
180.0
  0
LINE
  5
1B8
  8
0
  6
CONTINUOUS
 62
     9
 10
-156.0378916319112
 20
149.005727761233
 30
0.0
 11
-149.2378885801534
 21
149.005727761233
 31
0.0
  0
INSERT
  5
1BE
  8
0
 62
     9
  2
_DOT
 10
-156.0378916319112
 20
149.005727761233
 30
0.0
 41
2.5
 42
2.5
 50
180.0
  0
TEXT
  5
1BF
  8
0
 62
     7
 10
-182.9697385801534
 20
150.005727761233
 30
0.0
 40
4.0
  1
11.2
 41
0.8000000000000007
  7
FDASTYLE1
 72
     5
 11
-170.1697385801534
 21
150.005727761233
 31
0.0
  0
TEXT
  5
1C0
  8
0
 62
     7
 10
-146.3060385801534
 20
150.005727761233
 30
0.0
 40
4.0
  1
6.8
 41
0.7999999999999995
  7
FDASTYLE1
 72
     5
 11
-136.7060385801534
 21
150.005727761233
 31
0.0
  0
ENDBLK
  5
C6
  8
0
  0
BLOCK
  8
0
  2
_OPEN30
 70
     0
 10
0.0
 20
0.0
 30
0.0
  3
_OPEN30
  1

  0
LINE
  5
CD
  8
0
  6
BYBLOCK
 62
     0
 10
-1.0
 20
0.267949
 30
0.0
 11
0.0
 21
0.0
 31
0.0
  0
LINE
  5
CE
  8
0
  6
BYBLOCK
 62
     0
 10
0.0
 20
0.0
 30
0.0
 11
-1.0
 21
-0.267949
 31
0.0
  0
LINE
  5
CF
  8
0
  6
BYBLOCK
 62
     0
 10
0.0
 20
0.0
 30
0.0
 11
-1.0
 21
0.0
 31
0.0
  0
ENDBLK
  5
CC
  8
0
  0
BLOCK
  8
0
  2
_DOT
 70
     0
 10
0.0
 20
0.0
 30
0.0
  3
_DOT
  1

  0
POLYLINE
  5
1BC
  8
0
  6
BYBLOCK
 62
     0
 66
     1
 10
0.0
 20
0.0
 30
0.0
 70
     1
 40
0.5
 41
0.5
  0
VERTEX
  5
4D5
  8
0
  6
BYBLOCK
 62
     0
 10
-0.25
 20
0.0
 30
0.0
 42
1.0
  0
VERTEX
  5
4D6
  8
0
  6
BYBLOCK
 62
     0
 10
0.25
 20
0.0
 30
0.0
 42
1.0
  0
SEQEND
  5
4D4
  8
0
  6
BYBLOCK
 62
     0
  0
LINE
  5
1BD
  8
0
  6
BYBLOCK
 62
     0
 10
-0.5
 20
0.0
 30
0.0
 11
-1.0
 21
0.0
 31
0.0
  0
ENDBLK
  5
1BB
  8
0
  0
ENDSEC
  0
SECTION
  2
ENTITIES
  0
LINE
  5
1C1
  8
ZUWAKU
  6
CONTINUOUS
 62
     3
 10
-277.0
 20
-190.0
 30
0.0
 11
-277.0
 21
190.0
 31
0.0
  0
LINE
  5
1C2
  8
ZUWAKU
  6
CONTINUOUS
 62
     3
 10
277.0
 20
-190.0
 30
0.0
 11
277.0
 21
190.0
 31
0.0
  0
LINE
  5
1C3
  8
ZUWAKU
  6
CONTINUOUS
 62
     3
 10
-277.0
 20
-190.0
 30
0.0
 11
277.0
 21
-190.0
 31
0.0
  0
LINE
  5
1C4
  8
ZUWAKU
  6
CONTINUOUS
 62
     3
 10
-277.0
 20
189.9999999999999
 30
0.0
 11
277.0
 21
189.9999999999999
 31
0.0
  0
LINE
  5
1C5
  8
ZUWAKU
  6
CONTINUOUS
 62
     3
 10
97.00000000000001
 20
-190.0
 30
0.0
 11
97.00000000000001
 21
-130.0
 31
0.0
  0
LINE
  5
1C6
  8
ZUWAKU
  6
CONTINUOUS
 62
     3
 10
97.00000000000001
 20
-176.0
 30
0.0
 11
277.0
 21
-176.0
 31
0.0
  0
LINE
  5
1C7
  8
ZUWAKU
  6
CONTINUOUS
 62
     3
 10
146.0
 20
-162.0
 30
0.0
 11
277.0
 21
-162.0
 31
0.0
  0
LINE
  5
1C8
  8
ZUWAKU
  6
CONTINUOUS
 62
     3
 10
146.0
 20
-148.0
 30
0.0
 11
277.0
 21
-148.0
 31
0.0
  0
LINE
  5
1C9
  8
ZUWAKU
  6
CONTINUOUS
 62
     3
 10
146.0
 20
-138.0
 30
0.0
 11
277.0
 21
-138.0
 31
0.0
  0
LINE
  5
1CA
  8
ZUWAKU
  6
CONTINUOUS
 62
     3
 10
146.0
 20
-176.0
 30
0.0
 11
146.0
 21
-130.0
 31
0.0
  0
LINE
  5
1CB
  8
ZUWAKU
  6
CONTINUOUS
 62
     3
 10
255.0
 20
-176.0
 30
0.0
 11
255.0
 21
-130.0
 31
0.0
  0
LINE
  5
1CC
  8
ZUWAKU
  6
CONTINUOUS
 62
     3
 10
171.0
 20
-190.0
 30
0.0
 11
171.0
 21
-176.0
 31
0.0
  0
LINE
  5
1CD
  8
ZUWAKU
  6
CONTINUOUS
 62
     3
 10
262.0
 20
-188.0
 30
0.0
 11
272.0
 21
-188.0
 31
0.0
  0
LINE
  5
1CE
  8
ZUWAKU
  6
CONTINUOUS
 62
     3
 10
267.0
 20
-178.0
 30
0.0
 11
262.0
 21
-188.0
 31
0.0
  0
LINE
  5
1CF
  8
ZUWAKU
  6
CONTINUOUS
 62
     3
 10
267.0
 20
-178.0
 30
0.0
 11
272.0
 21
-188.0
 31
0.0
  0
LINE
  5
1D0
  8
ZUWAKU
  6
CONTINUOUS
 62
     3
 10
97.00000000000001
 20
-130.0
 30
0.0
 11
277.0
 21
-130.0
 31
0.0
  0
LINE
  5
1D1
  8
ZUWAKU
  6
CONTINUOUS
 62
     3
 10
226.0
 20
-176.0
 30
0.0
 11
226.0
 21
-148.0
 31
0.0
  0
LINE
  5
1D2
  8
ZUWAKU
  6
CONTINUOUS
 62
     4
 10
105.0
 20
-172.0
 30
0.0
 11
105.0
 21
-130.0
 31
0.0
  0
LINE
  5
1D3
  8
ZUWAKU
  6
CONTINUOUS
 62
     4
 10
109.0
 20
-172.0
 30
0.0
 11
109.0
 21
-130.0
 31
0.0
  0
LINE
  5
1D4
  8
ZUWAKU
  6
CONTINUOUS
 62
     4
 10
121.5
 20
-176.0
 30
0.0
 11
121.5
 21
-130.0
 31
0.0
  0
LINE
  5
1D5
  8
ZUWAKU
  6
CONTINUOUS
 62
     4
 10
97.00000000000001
 20
-137.0
 30
0.0
 11
146.0
 21
-137.0
 31
0.0
  0
LINE
  5
1D6
  8
ZUWAKU
  6
CONTINUOUS
 62
     4
 10
97.00000000000001
 20
-144.0
 30
0.0
 11
146.0
 21
-144.0
 31
0.0
  0
LINE
  5
1D7
  8
ZUWAKU
  6
CONTINUOUS
 62
     4
 10
97.00000000000001
 20
-165.0
 30
0.0
 11
146.0
 21
-165.0
 31
0.0
  0
LINE
  5
1D8
  8
ZUWAKU
  6
CONTINUOUS
 62
     4
 10
97.00000000000001
 20
-172.0
 30
0.0
 11
146.0
 21
-172.0
 31
0.0
  0
LINE
  5
1D9
  8
ZUWAKU
  6
CONTINUOUS
 62
     4
 10
255.0
 20
-166.0
 30
0.0
 11
277.0
 21
-166.0
 31
0.0
  0
LINE
  5
1DA
  8
ZUWAKU
  6
CONTINUOUS
 62
     4
 10
202.0
 20
-148.0
 30
0.0
 11
202.0
 21
-146.5
 31
0.0
  0
LINE
  5
1DB
  8
ZUWAKU
  6
CONTINUOUS
 62
     4
 10
226.0
 20
-148.0
 30
0.0
 11
226.0
 21
-146.5
 31
0.0
  0
LINE
  5
1DC
  8
ZUWAKU
  6
CONTINUOUS
 62
     4
 10
243.0
 20
-148.0
 30
0.0
 11
243.0
 21
-146.5
 31
0.0
  0
LINE
  5
1DD
  8
ZUWAKU
  6
CONTINUOUS
 62
     4
 10
97.00000000000001
 20
-151.0
 30
0.0
 11
146.0
 21
-151.0
 31
0.0
  0
LINE
  5
1DE
  8
ZUWAKU
  6
CONTINUOUS
 62
     4
 10
97.00000000000001
 20
-158.0
 30
0.0
 11
146.0
 21
-158.0
 31
0.0
  0
LINE
  5
1DF
  8
ZUWAKU
  6
CONTINUOUS
 62
     4
 10
101.0
 20
-130.5
 30
0.0
 11
98.00000000000001
 21
-136.5
 31
0.0
  0
LINE
  5
1E0
  8
ZUWAKU
  6
CONTINUOUS
 62
     4
 10
101.0
 20
-130.5
 30
0.0
 11
104.0
 21
-136.5
 31
0.0
  0
LINE
  5
1E1
  8
ZUWAKU
  6
CONTINUOUS
 62
     4
 10
98.00000000000001
 20
-136.5
 30
0.0
 11
104.0
 21
-136.5
 31
0.0
  0
LINE
  5
1E2
  8
ZUWAKU
  6
CONTINUOUS
 62
     4
 10
101.0
 20
-158.5
 30
0.0
 11
98.00000000000001
 21
-164.5
 31
0.0
  0
LINE
  5
1E3
  8
ZUWAKU
  6
CONTINUOUS
 62
     4
 10
101.0
 20
-158.5
 30
0.0
 11
104.0
 21
-164.5
 31
0.0
  0
LINE
  5
1E4
  8
ZUWAKU
  6
CONTINUOUS
 62
     4
 10
98.00000000000001
 20
-164.5
 30
0.0
 11
104.0
 21
-164.5
 31
0.0
  0
LINE
  5
1E5
  8
ZUWAKU
  6
CONTINUOUS
 62
     4
 10
101.0
 20
-151.5
 30
0.0
 11
98.00000000000001
 21
-157.5
 31
0.0
  0
LINE
  5
1E6
  8
ZUWAKU
  6
CONTINUOUS
 62
     4
 10
101.0
 20
-151.5
 30
0.0
 11
104.0
 21
-157.5
 31
0.0
  0
LINE
  5
1E7
  8
ZUWAKU
  6
CONTINUOUS
 62
     4
 10
98.00000000000001
 20
-157.5
 30
0.0
 11
104.0
 21
-157.5
 31
0.0
  0
LINE
  5
1E8
  8
ZUWAKU
  6
CONTINUOUS
 62
     4
 10
101.0
 20
-144.5
 30
0.0
 11
98.00000000000001
 21
-150.5
 31
0.0
  0
LINE
  5
1E9
  8
ZUWAKU
  6
CONTINUOUS
 62
     4
 10
101.0
 20
-144.5
 30
0.0
 11
104.0
 21
-150.5
 31
0.0
  0
LINE
  5
1EA
  8
ZUWAKU
  6
CONTINUOUS
 62
     4
 10
98.00000000000001
 20
-150.5
 30
0.0
 11
104.0
 21
-150.5
 31
0.0
  0
LINE
  5
1EB
  8
ZUWAKU
  6
CONTINUOUS
 62
     4
 10
101.0
 20
-137.5
 30
0.0
 11
98.00000000000001
 21
-143.5
 31
0.0
  0
LINE
  5
1EC
  8
ZUWAKU
  6
CONTINUOUS
 62
     4
 10
101.0
 20
-137.5
 30
0.0
 11
104.0
 21
-143.5
 31
0.0
  0
LINE
  5
1ED
  8
ZUWAKU
  6
CONTINUOUS
 62
     4
 10
98.00000000000001
 20
-143.5
 30
0.0
 11
104.0
 21
-143.5
 31
0.0
  0
LINE
  5
1EE
  8
ZUWAKU
  6
CONTINUOUS
 62
     4
 10
172.6666666666666
 20
-176.0
 30
0.0
 11
172.6666666666666
 21
-162.0
 31
0.0
  0
LINE
  5
1EF
  8
ZUWAKU
  6
CONTINUOUS
 62
     4
 10
199.3333333333333
 20
-176.0
 30
0.0
 11
199.3333333333333
 21
-161.9509415757253
 31
0.0
  0
LINE
  5
1F0
  8
ZUWAKU
  6
CONTINUOUS
 62
     4
 10
212.6666666666666
 20
-167.5
 30
0.0
 11
212.6666666666666
 21
-161.9509415757253
 31
0.0
  0
LINE
  5
1F1
  8
ZUWAKU
  6
CONTINUOUS
 62
     4
 10
226.0
 20
-155.0
 30
0.0
 11
255.0
 21
-155.0
 31
0.0
  0
LINE
  5
1F2
  8
ZUWAKU
  6
CONTINUOUS
 62
     4
 10
146.0
 20
-166.0
 30
0.0
 11
226.0
 21
-166.0
 31
0.0
  0
LINE
  5
1F3
  8
ZUWAKU
  6
CONTINUOUS
 62
     4
 10
153.0
 20
-139.5
 30
0.0
 11
153.0
 21
-130.0
 31
0.0
  0
LINE
  5
1F4
  8
ZUWAKU
  6
CONTINUOUS
 62
     4
 10
202.0
 20
-139.5
 30
0.0
 11
202.0
 21
-130.0
 31
0.0
  0
LINE
  5
1F5
  8
ZUWAKU
  6
CONTINUOUS
 62
     4
 10
226.0
 20
-139.5
 30
0.0
 11
226.0
 21
-130.0
 31
0.0
  0
LINE
  5
1F6
  8
ZUWAKU
  6
CONTINUOUS
 62
     4
 10
243.0
 20
-139.5
 30
0.0
 11
243.0
 21
-130.0
 31
0.0
  0
TEXT
  5
1F8
  8
ZUWAKU
 62
     7
 10
148.3132301474747
 20
-130.821188728956
 30
0.0
 40
2.6656
  1
符号
 41
0.8
  7
FDASTYLE0
  0
TEXT
  5
1F9
  8
ZUWAKU
 62
     7
 10
162.4141311219058
 20
-135.8245525019963
 30
0.0
 40
4.0
  1
品       名
 41
0.765957446808511
  7
FDASTYLE1
 72
     5
 11
191.2141311219058
 21
-135.8245525019963
 31
0.0
  0
TEXT
  5
1FA
  8
ZUWAKU
 62
     7
 10
207.2331564413096
 20
-135.8245525019963
 30
0.0
 40
4.0
  1
材  料
 41
0.7272727272727279
  7
FDASTYLE1
 72
     5
 11
220.0331564413096
 21
-135.8245525019963
 31
0.0
  0
TEXT
  5
1FB
  8
ZUWAKU
 62
     7
 10
229.516061684855
 20
-135.8245525019963
 30
0.0
 40
4.0
  1
個 数
 41
0.7058823529411761
  7
FDASTYLE1
 72
     5
 11
239.116061684855
 21
-135.8245525019963
 31
0.0
  0
TEXT
  5
1FC
  8
ZUWAKU
 62
     7
 10
245.721810952888
 20
-133.5649080050572
 30
0.0
 40
2.5
  1
単重量
 41
0.6666666666666666
  7
FDASTYLE1
 72
     5
 11
251.721810952888
 21
-133.5649080050572
 31
0.0
  0
TEXT
  5
1FD
  8
ZUWAKU
 62
     7
 10
244.7089516236359
 20
-137.3631304897525
 30
0.0
 40
2.5
  1
(kg)
 41
0.8
  7
FDASTYLE1
 72
     5
 11
252.7089516236359
 21
-137.3631304897525
 31
0.0
  0
TEXT
  5
1FE
  8
ZUWAKU
 62
     7
 10
259.1421970654778
 20
-135.8245525019963
 30
0.0
 40
4.0
  1
記  事
 41
0.7272727272727279
  7
FDASTYLE1
 72
     5
 11
271.9421970654778
 21
-135.8245525019963
 31
0.0
  0
TEXT
  5
1FF
  8
ZUWAKU
 62
     7
 10
258.8450794551645
 20
-165.4873041997729
 30
0.0
 40
3.0
  1
コード番号
 41
0.6666666666666666
  7
FDASTYLE1
 72
     5
 11
270.8450794551645
 21
-165.4873041997729
 31
0.0
  0
TEXT
  5
200
  8
ZUWAKU
 62
     7
 10
101.9119920158317
 20
-175.1879010540338
 30
0.0
 40
2.5
  1
訂 正 来 歴
 41
0.717948717948718
  7
FDASTYLE1
 72
     5
 11
115.9119920158317
 21
-175.1879010540338
 31
0.0
  0
TEXT
  5
201
  8
ZUWAKU
 62
     7
 10
125.890334846765
 20
-175.2166697391651
 30
0.0
 40
2.5
  1
工 事 番 号
 41
0.717948717948718
  7
FDASTYLE1
 72
     5
 11
139.890334846765
 21
-175.2166697391651
 31
0.0
  0
TEXT
  5
202
  8
ZUWAKU
 62
     7
 10
99.96483784660289
 20
-165.9634530565915
 30
0.0
 40
2.0825
  1
記号
 41
0.8
  7
FDASTYLE0
  0
TEXT
  5
203
  8
ZUWAKU
 62
     7
 10
105.9042249067618
 20
-165.9634530565915
 30
0.0
 40
2.0825
  1
理由
 41
0.8
  7
FDASTYLE0
  0
TEXT
  5
204
  8
ZUWAKU
 62
     7
 10
111.6193667909843
 20
-169.8786046700178
 30
0.0
 40
3.0
  1
日 付
 41
0.7058823529411754
  7
FDASTYLE1
 72
     5
 11
118.8193667909843
 21
-169.8786046700178
 31
0.0
  0
TEXT
  5
205
  8
ZUWAKU
 62
     7
 10
257.2094542567131
 20
-142.3525309070082
 30
0.0
 40
3.0
  1
標　準
 41
0.5833333333333345
  7
FDASTYLE1
 72
     5
 11
263.5094542567131
 21
-142.3525309070082
 31
0.0
  0
TEXT
  5
206
  8
ZUWAKU
 62
     7
 10
153.4481689819652
 20
-165.7187911464244
 30
0.0
 40
3.0
  1
承   認
 41
0.7407407407407408
  7
FDASTYLE1
 72
     5
 11
165.4481689819652
 21
-165.7187911464244
 31
0.0
  0
TEXT
  5
207
  8
ZUWAKU
 62
     7
 10
179.863228033234
 20
-165.4873041997729
 30
0.0
 40
3.0
  1
検   図
 41
0.7407407407407408
  7
FDASTYLE1
 72
     5
 11
191.863228033234
 21
-165.4873041997729
 31
0.0
  0
TEXT
  5
208
  8
ZUWAKU
 62
     7
 10
201.4771920983751
 20
-165.4873041997729
 30
0.0
 40
3.0
  1
担  当
 41
0.7272727272727269
  7
FDASTYLE1
 72
     5
 11
211.0771920983751
 21
-165.4873041997729
 31
0.0
  0
TEXT
  5
209
  8
ZUWAKU
 62
     7
 10
214.6770574841112
 20
-165.4873041997729
 30
0.0
 40
3.0
  1
製  図
 41
0.7272727272727269
  7
FDASTYLE1
 72
     5
 11
224.2770574841112
 21
-165.4873041997729
 31
0.0
  0
TEXT
  5
20A
  8
ZUWAKU
 62
     7
 10
226.9462372304199
 20
-153.2184960272417
 30
0.0
 40
3.0
  1
作図
 41
0.6666666666666683
  7
FDASTYLE1
 72
     5
 11
231.7462372304199
 21
-153.2184960272417
 31
0.0
  0
TEXT
  5
20B
  8
ZUWAKU
 62
     7
 10
228.1036719636776
 20
-160.2371566401815
 30
0.0
 40
4.0
  1
第 三 角 法
 41
0.7179487179487182
  7
FDASTYLE1
 72
     5
 11
250.5036719636776
 21
-160.2371566401815
 31
0.0
  0
TEXT
  5
20C
  8
ZUWAKU
 62
     7
 10
227.409211123723
 20
-166.413251986379
 30
0.0
 40
3.0
  1
尺度
 41
0.6666666666666683
  7
FDASTYLE1
 72
     5
 11
232.209211123723
 21
-166.413251986379
 31
0.0
  0
TEXT
  5
20E
  8
ZUWAKU
 62
     3
 10
105.379154370034
 20
-185.9272077185017
 30
0.0
 40
7.0
  1
株式会社 野村製作所
 41
0.5763738641280831
  7
FDASTYLE2
 72
     5
 11
161.379154370034
 21
-185.9272077185017
 31
0.0
  0
TEXT
  5
210
  8
ZUWAKU
 62
     3
 10
176.0422636668242
 20
-187.1216685584563
 30
0.0
 40
8.0
  1
２－
 41
0.8244023083264632
  7
FDASTYLE3
 72
     5
 11
192.0422636668242
 21
-187.1216685584563
 31
0.0
  0
TEXT
  5
211
  8
ZUWAKU
 62
     3
 10
192.954221291231
 20
-187.1216685584563
 30
0.0
 40
8.0
  1
9308137
 41
1.568451714093659
  7
FDASTYLE3
 72
     5
 11
248.954221291231
 21
-187.1216685584563
 31
0.0
  0
TEXT
  5
212
  8
ZUWAKU
 62
     6
 10
231.384312273996
 20
-145.1178196492171
 30
0.0
 40
4.0
  1
一式
 41
0.5833333333333328
  7
FDASTYLE1
 72
     5
 11
236.984312273996
 21
-145.1178196492171
 31
0.0
  0
TEXT
  5
213
  8
ZUWAKU
 62
     6
 10
163.7236800359233
 20
-145.1021206743685
 30
0.0
 40
5.0
  1
外　形　図
 41
0.5833333333333334
  7
FDASTYLE1
 72
     5
 11
181.2236800359233
 21
-145.1021206743685
 31
0.0
  0
TEXT
  5
214
  8
ZUWAKU
 62
     4
 10
237.4612965606293
 20
-172.4797619591963
 30
0.0
 40
4.0
  1
1/1
 41
0.7000000000000005
  7
FDASTYLE1
 72
     5
 11
245.8612965606293
 21
-172.4797619591963
 31
0.0
  0
TEXT
  5
215
  8
0
 62
     6
 10
153.751689452146
 20
-154.3880453471329
 30
0.0
 40
5.0
  1
日鋼プレシジォン
 41
0.6666666666666666
  7
FDASTYLE1
 72
     5
 11
185.751689452146
 21
-154.3880453471329
 31
0.0
  0
TEXT
  5
216
  8
0
 62
     6
 10
162.4377590193254
 20
-160.9091595284539
 30
0.0
 40
5.0
  1
HWB3-205型チャック
 41
0.65
  7
FDASTYLE1
 72
     5
 11
207.9377590193254
 21
-160.9091595284539
 31
0.0
  0
TEXT
  5
217
  8
0
 62
     6
 10
-54.39421383708184
 20
-183.0018874767219
 30
0.0
 40
4.0
  1
アンバランス量
 41
0.663841963128279
  7
FDASTYLE1
 72
     5
 11
-27.53706971972649
 21
-183.0018874767219
 31
0.0
  0
TEXT
  5
218
  8
0
 62
     6
 10
-54.39421383708184
 20
-175.0018874767219
 30
0.0
 40
4.0
  1
質 量
 41
0.7364342569567148
  7
FDASTYLE1
 72
     5
 11
-43.53706971972649
 21
-175.0018874767219
 31
0.0
  0
TEXT
  5
219
  8
0
 62
     6
 10
-54.39421383708184
 20
-167.0018874767219
 30
0.0
 40
4.0
  1
慣性モーメント
 41
0.663841963128279
  7
FDASTYLE1
 72
     5
 11
-27.53706971972649
 21
-167.0018874767219
 31
0.0
  0
TEXT
  5
21A
  8
0
 62
     6
 10
-54.39421383708184
 20
-159.0018874767219
 30
0.0
 40
4.0
  1
最高使用回転速度
 41
0.665024784134981
  7
FDASTYLE1
 72
     5
 11
-23.53706971972649
 21
-159.0018874767219
 31
0.0
  0
TEXT
  5
21B
  8
0
 62
     6
 10
-54.39421383708184
 20
-151.0018874767219
 30
0.0
 40
4.0
  1
最大静的把握力
 41
0.663841963128279
  7
FDASTYLE1
 72
     5
 11
-27.53706971972649
 21
-151.0018874767219
 31
0.0
  0
TEXT
  5
21C
  8
0
 62
     6
 10
-54.39421383708184
 20
-143.0018874767219
 30
0.0
 40
4.0
  1
許容シリンダー力
 41
0.665024784134981
  7
FDASTYLE1
 72
     5
 11
-23.53706971972649
 21
-143.0018874767219
 31
0.0
  0
TEXT
  5
21D
  8
0
 62
     6
 10
-54.39421383708184
 20
-135.0018874767219
 30
0.0
 40
4.0
  1
推奨シリンダー
 41
0.663841963128279
  7
FDASTYLE1
 72
     5
 11
-27.53706971972649
 21
-135.0018874767219
 31
0.0
  0
TEXT
  5
21E
  8
0
 62
     6
 10
-54.39421383708184
 20
-127.0018874767219
 30
0.0
 40
4.0
  1
ピストンストローク
 41
0.6659390169707117
  7
FDASTYLE1
 72
     5
 11
-19.53706971972649
 21
-127.0018874767219
 31
0.0
  0
TEXT
  5
21F
  8
0
 62
     6
 10
-54.39421383708184
 20
-119.0018798473274
 30
0.0
 40
4.0
  1
爪ﾉｽﾄﾛｰｸ
 41
0.7781458739383595
  7
FDASTYLE1
 72
     5
 11
-27.53706971972649
 21
-119.0018798473274
 31
0.0
  0
TEXT
  5
220
  8
0
 62
     6
 10
-54.39421383708184
 20
-111.0018798473274
 30
0.0
 40
4.0
  1
仕 様
 41
0.7364342569567148
  7
FDASTYLE1
 72
     5
 11
-43.53706971972649
 21
-111.0018798473274
 31
0.0
  0
TEXT
  5
221
  8
0
 62
     6
 10
27.96432765156563
 20
-118.7265426280891
 30
0.0
 40
4.0
  1
(直径ﾆﾃ)  5.8 mm
 41
0.7692309500212766
  7
FDASTYLE1
 72
     5
 11
82.82147176892097
 21
-118.7265426280891
 31
0.0
  0
TEXT
  5
222
  8
0
 62
     6
 10
63.9537933650666
 20
-126.5062820079719
 30
0.0
 40
4.0
  1
18 mm
 41
0.7674420691942423
  7
FDASTYLE1
 72
     5
 11
82.81093748242195
 21
-126.5062820079719
 31
0.0
  0
TEXT
  5
223
  8
0
 62
     6
 10
48.08488523621
 20
-134.7825881603156
 30
0.0
 40
4.0
  1
52TS-TA1型
 41
0.7780614058262111
  7
FDASTYLE1
 72
     5
 11
82.94202935356535
 21
-134.7825881603156
 31
0.0
  0
TEXT
  5
224
  8
0
 62
     6
 10
56.38250048786934
 20
-142.7278548839485
 30
0.0
 40
4.0
  1
  24 kN
 41
0.7704920065688554
  7
FDASTYLE1
 72
     5
 11
83.23964460522468
 21
-142.7278548839485
 31
0.0
  0
TEXT
  5
225
  8
0
 62
     6
 10
56.47171481282051
 20
-150.6731063487922
 30
0.0
 40
4.0
  1
78.5 kN
 41
0.7704920065688554
  7
FDASTYLE1
 72
     5
 11
83.32885893017586
 21
-150.6731063487922
 31
0.0
  0
TEXT
  5
226
  8
0
 62
     6
 10
52.42775424153145
 20
-158.618373072425
 30
0.0
 40
4.0
  1
5000 min
 41
0.7714287730626143
  7
FDASTYLE1
 72
     5
 11
83.28489835888679
 21
-158.618373072425
 31
0.0
  0
TEXT
  5
227
  8
0
 62
     6
 10
84.14204027087028
 20
-156.1183730128204
 30
0.0
 40
2.0
  1
-1
 41
0.75000024121258
  7
FDASTYLE1
 72
     5
 11
87.57061232954796
 21
-156.1183730128204
 31
0.0
  0
TEXT
  5
228
  8
0
 62
     6
 10
44.99774630696113
 20
-166.7291518810188
 30
0.0
 40
4.0
  1
　　0.1 kg・m
 41
0.7538804379829874
  7
FDASTYLE1
 72
     5
 11
83.85489042431648
 21
-166.7291518810188
 31
0.0
  0
TEXT
  5
229
  8
0
 62
     6
 10
84.71203233629997
 20
-164.2291518214141
 30
0.0
 40
2.0
  1
2
 41
0.7142860293388367
  7
FDASTYLE1
 72
     5
 11
86.14060439497764
 21
-164.2291518214141
 31
0.0
  0
TEXT
  5
22A
  8
0
 62
     6
 10
64.92300112873848
 20
-174.6744186046516
 30
0.0
 40
4.0
  1
17 kg
 41
0.7674420691942423
  7
FDASTYLE1
 72
     5
 11
83.78014524609382
 21
-174.6744186046516
 31
0.0
  0
TEXT
  5
22B
  8
0
 62
     6
 10
37.28353579670723
 20
-182.7851974132453
 30
0.0
 40
4.0
  1
外周ﾆﾃ 　　4 g以内
 41
0.7295375293094948
  7
FDASTYLE1
 72
     5
 11
84.14067991406257
 21
-182.7851974132453
 31
0.0
  0
TEXT
  5
22C
  8
0
 62
     6
 10
-15.9230928308834
 20
-142.7299605968391
 30
0.0
 40
3.0
  1
52TS-TA1型 引側使用圧  3.5MPa
 41
0.7521287655849324
  7
FDASTYLE1
 72
     5
 11
52.21975840259896
 21
-142.7299605968391
 31
0.0
  0
TEXT
  5
22D
  8
0
 62
     7
 10
257.1813850232905
 20
-146.9637506240703
 30
0.0
 40
3.0
  1
M60×P1.5
 41
0.7804878048780483
  7
FDASTYLE1
 72
     5
 11
276.3813850232905
 21
-146.9637506240703
 31
0.0
  0
TEXT
  5
22E
  8
0
 62
     7
 10
-208.4351529037306
 20
-98.06876039666015
 30
0.0
 40
4.0
  1
MIN18.2
 41
0.8000000000000002
  7
FDASTYLE1
 72
     5
 11
-186.0351529037306
 21
-98.06876039666015
 31
0.0
  0
TEXT
  5
22F
  8
0
 62
     7
 10
-67.84918499548242
 20
101.7235572867123
 30
0.0
 40
3.0
  1
2
 41
0.7143750190734863
  7
FDASTYLE1
 72
     5
 11
-65.70605993826196
 21
101.7235572867123
 31
0.0
  0
TEXT
  5
230
  8
0
 62
     7
 10
-4.658601115333555
 20
41.06972812394672
 30
0.0
 40
4.0
  1
MIN 39.55
 50
90.0
 41
0.8000000000000002
  7
FDASTYLE1
 72
     5
 11
-4.658601115333555
 21
69.86972812394673
 31
0.0
  0
LINE
  5
231
  8
0
  6
CONTINUOUS
 62
     3
 10
172.8558125091739
 20
0.865413555840135
 30
0.0
 11
190.3558145953364
 21
31.17630214426863
 31
0.0
  0
LINE
  5
232
  8
0
  6
CONTINUOUS
 62
     3
 10
106.1718413854989
 20
31.17632303595799
 30
0.0
 11
123.6718444253359
 21
0.8654327957171546
 31
0.0
  0
LINE
  5
233
  8
0
  6
CONTINUOUS
 62
     3
 10
130.7638021662968
 20
73.77086716220056
 30
0.0
 11
165.7638021662968
 21
73.77086716220056
 31
0.0
  0
LINE
  5
234
  8
0
  6
CONTINUOUS
 62
     3
 10
169.1059039631548
 20
3.03041575160178
 30
0.0
 11
186.6059098640151
 21
33.34131094727964
 31
0.0
  0
LINE
  5
235
  8
0
  6
CONTINUOUS
 62
     3
 10
109.921715873125
 20
33.34132318742748
 30
0.0
 11
127.4217227276598
 21
3.030426339937279
 31
0.0
  0
LINE
  5
236
  8
0
  6
CONTINUOUS
 62
     3
 10
130.7638021662968
 20
69.44086533114587
 30
0.0
 11
165.7638021662968
 21
69.44086533114587
 31
0.0
  0
LINE
  5
237
  8
0
  6
CONTINUOUS
 62
     3
 10
130.7638021662968
 20
137.7708747915951
 30
0.0
 11
130.7638021662968
 21
69.44086533114587
 31
0.0
  0
LINE
  5
238
  8
0
  6
CONTINUOUS
 62
     3
 10
165.7638021662968
 20
137.7708747915951
 30
0.0
 11
165.7638021662968
 21
69.44086533114587
 31
0.0
  0
LINE
  5
239
  8
0
  6
CONTINUOUS
 62
     3
 10
50.7462068553956
 20
-0.8236924737101816
 30
0.0
 11
109.921717381541
 21
33.34130068337886
 31
0.0
  0
LINE
  5
23A
  8
0
  6
CONTINUOUS
 62
     3
 10
68.24620118088302
 20
-31.13460564400741
 30
0.0
 11
127.4217249215281
 21
3.030395142475712
 31
0.0
  0
LINE
  5
23B
  8
0
  6
CONTINUOUS
 62
     3
 10
169.1059181238484
 20
3.030426793446807
 30
0.0
 11
228.2814517753682
 21
-31.13457971508187
 31
0.0
  0
LINE
  5
23C
  8
0
  6
CONTINUOUS
 62
     3
 10
186.6059417393579
 20
33.34132966039324
 30
0.0
 11
245.7814621763781
 21
-0.8236692187413581
 31
0.0
  0
LINE
  5
23D
  8
0
  6
CONTINUOUS
 62
     3
 10
130.7638021662968
 20
137.7708747915951
 30
0.0
 11
165.7638021662968
 21
137.7708747915951
 31
0.0
  0
LINE
  5
23E
  8
0
  6
CONTINUOUS
 62
     3
 10
228.2814731853844
 20
-31.13461975429281
 30
0.0
 11
245.781475271547
 21
-0.8237311658643165
 31
0.0
  0
LINE
  5
23F
  8
0
  6
CONTINUOUS
 62
     3
 10
50.74619620526568
 20
-0.8236837082342134
 30
0.0
 11
68.24620305980039
 21
-31.13458055572441
 31
0.0
  0
LINE
  5
240
  8
0
  6
CONTINUOUS
 62
     3
 10
19.60999823095483
 20
-18.8006850116743
 30
0.0
 11
24.85999981047803
 21
-27.89395324001519
 31
0.0
  0
LINE
  5
241
  8
0
  6
CONTINUOUS
 62
     3
 10
120.8092962458866
 20
40.77086716220056
 30
0.0
 11
122.8521887019413
 21
40.77086716220056
 31
0.0
  0
LINE
  5
242
  8
0
  6
CONTINUOUS
 62
     3
 10
120.8092962458866
 20
29.77086716220056
 30
0.0
 11
122.8521887019413
 21
29.77086716220056
 31
0.0
  0
LINE
  5
243
  8
0
  6
CONTINUOUS
 62
     3
 10
173.6754080012577
 20
40.77086716220056
 30
0.0
 11
175.7183004573124
 21
40.77086716220056
 31
0.0
  0
LINE
  5
244
  8
0
  6
CONTINUOUS
 62
     3
 10
173.6754080012577
 20
29.77086716220056
 30
0.0
 11
175.7183004573124
 21
29.77086716220056
 31
0.0
  0
LINE
  5
245
  8
0
  6
CONTINUOUS
 62
     3
 10
120.7638049981952
 20
135.09135917876
 30
0.0
 11
130.7638255276007
 21
137.77085631783
 31
0.0
  0
LINE
  5
246
  8
0
  6
CONTINUOUS
 62
     3
 10
165.7637666816948
 20
137.7707670667552
 30
0.0
 11
175.763772472242
 21
135.09127387695
 31
0.0
  0
LINE
  5
247
  8
0
  6
CONTINUOUS
 62
     3
 10
220.960956933084
 20
-38.45513450001981
 30
0.0
 11
228.2814590527685
 21
-31.13463299740742
 31
0.0
  0
LINE
  5
248
  8
0
  6
CONTINUOUS
 62
     3
 10
68.24617984177752
 20
-31.13458367505591
 30
0.0
 11
75.566692751056
 21
-38.45509596726133
 31
0.0
  0
LINE
  5
249
  8
0
  6
CONTINUOUS
 62
     3
 10
245.7814106825741
 20
-0.8236953588464502
 30
0.0
 11
248.4609025148196
 21
9.176303062271657
 31
0.0
  0
LINE
  5
24A
  8
0
  6
CONTINUOUS
 62
     3
 10
48.06671665127422
 20
9.17631223420922
 30
0.0
 11
50.74620897717793
 21
-0.8236880292661652
 31
0.0
  0
LINE
  5
24B
  8
0
  6
CONTINUOUS
 62
     3
 10
175.7638021662968
 20
135.0913856558529
 30
0.0
 11
175.7638021662968
 21
134.0129554800716
 31
0.0
  0
LINE
  5
24C
  8
0
  6
CONTINUOUS
 62
     3
 10
120.7638021662968
 20
135.0913856558529
 30
0.0
 11
120.7638021662968
 21
134.0129554800716
 31
0.0
  0
LINE
  5
24D
  8
0
  6
CONTINUOUS
 62
     3
 10
220.0269812894656
 20
-37.9158736276252
 30
0.0
 11
220.960916050917
 21
-38.45508105398203
 31
0.0
  0
LINE
  5
24E
  8
0
  6
CONTINUOUS
 62
     3
 10
247.5269893240205
 20
9.715573276768012
 30
0.0
 11
248.4609240854719
 21
9.176365850411187
 31
0.0
  0
LINE
  5
24F
  8
0
  6
CONTINUOUS
 62
     3
 10
75.56672266869038
 20
-38.45509758310497
 30
0.0
 11
76.50065082289194
 21
-37.91589397144519
 31
0.0
  0
LINE
  5
250
  8
0
  6
CONTINUOUS
 62
     3
 10
48.06671763209829
 20
9.176313611082449
 30
0.0
 11
49.00065239354967
 21
9.715521037439274
 31
0.0
  0
LINE
  5
251
  8
0
  6
CONTINUOUS
 62
     3
 10
155.2638021662968
 20
137.7708747915951
 30
0.0
 11
155.2638021662968
 21
121.6438530020443
 31
0.0
  0
LINE
  5
252
  8
0
  6
CONTINUOUS
 62
     3
 10
141.2638021662968
 20
137.7708747915951
 30
0.0
 11
141.2638021662968
 21
121.6438530020443
 31
0.0
  0
LINE
  5
253
  8
0
  6
CONTINUOUS
 62
     3
 10
55.99620228517205
 20
-9.916959931623566
 30
0.0
 11
69.96261685650615
 21
-1.853447610122359
 31
0.0
  0
LINE
  5
254
  8
0
  6
CONTINUOUS
 62
     3
 10
62.99619856431463
 20
-22.04131810880851
 30
0.0
 11
76.96260983202382
 21
-13.97780769465582
 31
0.0
  0
LINE
  5
255
  8
0
  6
CONTINUOUS
 62
     3
 10
180.2708561762518
 20
8.70869430599096
 30
0.0
 11
186.8760445300248
 21
4.89518745321557
 31
0.0
  0
LINE
  5
256
  8
0
  6
CONTINUOUS
 62
     3
 10
187.2708633884134
 20
20.83306379032702
 30
0.0
 11
193.8760517421864
 21
17.01955693755163
 31
0.0
  0
LINE
  5
257
  8
0
  6
CONTINUOUS
 62
     3
 10
175.0208589505795
 20
-0.3845855710253971
 30
0.0
 11
180.2708557617305
 21
8.708674398253791
 31
0.0
  0
LINE
  5
258
  8
0
  6
CONTINUOUS
 62
     3
 10
130.7638021662968
 20
76.27086716220056
 30
0.0
 11
141.2638021662968
 21
76.27086716220056
 31
0.0
  0
LINE
  5
259
  8
0
  6
CONTINUOUS
 62
     3
 10
104.0067589783516
 20
29.92632516842498
 30
0.0
 11
109.2567643725725
 21
20.83305033283473
 31
0.0
  0
LINE
  5
25A
  8
0
  6
CONTINUOUS
 62
     3
 10
187.2708565961955
 20
20.83302983362519
 30
0.0
 11
192.520861036742
 21
29.9263030174031
 31
0.0
  0
LINE
  5
25B
  8
0
  6
CONTINUOUS
 62
     3
 10
155.2638021662968
 20
76.27086716220056
 30
0.0
 11
165.7638021662968
 21
76.27086716220056
 31
0.0
  0
LINE
  5
25C
  8
0
  6
CONTINUOUS
 62
     3
 10
116.2567671143864
 20
8.708691593838651
 30
0.0
 11
121.5067639255374
 21
-0.3845683754405371
 31
0.0
  0
LINE
  5
25D
  8
0
  6
CONTINUOUS
 62
     3
 10
141.2638021662968
 20
113.8978813223568
 30
0.0
 11
141.2638021662968
 21
91.64385300204431
 31
0.0
  0
LINE
  5
25E
  8
0
  6
CONTINUOUS
 62
     3
 10
155.2638021662968
 20
113.8978813223568
 30
0.0
 11
155.2638021662968
 21
91.64385300204431
 31
0.0
  0
LINE
  5
25F
  8
0
  6
CONTINUOUS
 62
     3
 10
155.2638021662968
 20
83.89788132235681
 30
0.0
 11
155.2638021662968
 21
76.27086716220056
 31
0.0
  0
LINE
  5
260
  8
0
  6
CONTINUOUS
 62
     3
 10
141.2638021662968
 20
83.89788132235681
 30
0.0
 11
141.2638021662968
 21
76.27086716220056
 31
0.0
  0
LINE
  5
261
  8
0
  6
CONTINUOUS
 62
     3
 10
76.67081553853103
 20
2.019532276827889
 30
0.0
 11
95.94337698824501
 21
13.14654958845945
 31
0.0
  0
LINE
  5
262
  8
0
  6
CONTINUOUS
 62
     3
 10
102.651572366645
 20
17.01952756806118
 30
0.0
 11
109.2567739349176
 21
20.83304205023065
 31
0.0
  0
LINE
  5
263
  8
0
  6
CONTINUOUS
 62
     3
 10
109.6515719494125
 20
4.895171298224753
 30
0.0
 11
116.2567669104353
 21
8.708681965697181
 31
0.0
  0
LINE
  5
264
  8
0
  6
CONTINUOUS
 62
     3
 10
83.67081512129852
 20
-10.10482399300854
 30
0.0
 11
102.9433699637627
 21
1.022189503925986
 31
0.0
  0
LINE
  5
265
  8
0
  6
CONTINUOUS
 62
     3
 10
226.5650237704497
 20
-1.853427777374506
 30
0.0
 11
240.5314284309091
 21
-9.916934376830156
 31
0.0
  0
LINE
  5
266
  8
0
  6
CONTINUOUS
 62
     3
 10
219.5650165582882
 20
-13.97779726171056
 30
0.0
 11
233.5314212187475
 21
-22.04130386116621
 31
0.0
  0
LINE
  5
267
  8
0
  6
CONTINUOUS
 62
     3
 10
200.584260335086
 20
13.14657132855582
 30
0.0
 11
219.8568151775501
 21
2.019557831621299
 31
0.0
  0
LINE
  5
268
  8
0
  6
CONTINUOUS
 62
     3
 10
193.5842531229244
 20
1.022201844219765
 30
0.0
 11
212.8568079653886
 21
-10.10481165271476
 31
0.0
  0
LINE
  5
269
  8
0
  6
CONTINUOUS
 62
     3
 10
141.2638021662968
 20
78.77086716220056
 30
0.0
 11
155.2638021662968
 21
78.77086716220056
 31
0.0
  0
LINE
  5
26A
  8
0
  6
CONTINUOUS
 62
     3
 10
141.2638021662968
 20
126.7708671622006
 30
0.0
 11
155.2638021662968
 21
126.7708671622006
 31
0.0
  0
LINE
  5
26B
  8
0
  6
CONTINUOUS
 62
     3
 10
224.0051681115868
 20
-16.54133726332229
 30
0.0
 11
231.0051689460518
 21
-4.416981827950892
 31
0.0
  0
LINE
  5
26C
  8
0
  6
CONTINUOUS
 62
     3
 10
182.4359571054231
 20
7.458678812199381
 30
0.0
 11
189.4359541251905
 21
19.58302764032142
 31
0.0
  0
LINE
  5
26D
  8
0
  6
CONTINUOUS
 62
     3
 10
107.0916923873722
 20
19.58304967275008
 30
0.0
 11
114.0916932218373
 21
7.45869423737868
 31
0.0
  0
LINE
  5
26E
  8
0
  6
CONTINUOUS
 62
     3
 10
65.52247705543783
 20
-4.41695128092401
 30
0.0
 11
72.52247788990286
 21
-16.54130671629541
 31
0.0
  0
LINE
  5
26F
  8
0
  6
CONTINUOUS
 62
     3
 10
145.9762701427174
 20
121.7329430217094
 30
0.0
 11
143.6887713959052
 21
117.7708795134074
 31
0.0
  0
LINE
  5
270
  8
0
  6
CONTINUOUS
 62
     3
 10
143.6887110603303
 20
117.7708033501553
 30
0.0
 11
145.9762083073416
 21
113.8087390237801
 31
0.0
  0
LINE
  5
271
  8
0
  6
CONTINUOUS
 62
     3
 10
145.9762960627812
 20
113.8088005118099
 30
0.0
 11
150.5513082698124
 21
113.8088005118099
 31
0.0
  0
LINE
  5
272
  8
0
  6
CONTINUOUS
 62
     3
 10
150.5512990247028
 20
113.8087936897716
 30
0.0
 11
152.8388064916783
 21
117.7708698671883
 31
0.0
  0
LINE
  5
273
  8
0
  6
CONTINUOUS
 62
     3
 10
152.8387576956666
 20
117.7708590298978
 30
0.0
 11
150.5512558158856
 21
121.7329294181406
 31
0.0
  0
LINE
  5
274
  8
0
  6
CONTINUOUS
 62
     3
 10
150.5513082698124
 20
121.7329338125912
 30
0.0
 11
145.9762960627812
 21
121.7329338125912
 31
0.0
  0
LINE
  5
275
  8
0
  6
CONTINUOUS
 62
     3
 10
145.976276691509
 20
91.73294170156915
 30
0.0
 11
143.6887779446968
 21
87.77087819326717
 31
0.0
  0
LINE
  5
276
  8
0
  6
CONTINUOUS
 62
     3
 10
143.6886962835413
 20
87.77081241391019
 30
0.0
 11
145.9761950206679
 21
83.80874550657769
 31
0.0
  0
LINE
  5
277
  8
0
  6
CONTINUOUS
 62
     3
 10
145.9762960627812
 20
83.80880051180994
 30
0.0
 11
150.5513082698124
 21
83.80880051180994
 31
0.0
  0
LINE
  5
278
  8
0
  6
CONTINUOUS
 62
     3
 10
150.5513594849797
 20
83.80877578750388
 30
0.0
 11
152.8388609587026
 21
87.77083765965945
 31
0.0
  0
LINE
  5
279
  8
0
  6
CONTINUOUS
 62
     3
 10
152.8387452894651
 20
87.77082157137478
 30
0.0
 11
150.5512450458331
 21
91.73289305038374
 31
0.0
  0
LINE
  5
27A
  8
0
  6
CONTINUOUS
 62
     3
 10
150.5513082698124
 20
91.73293381259119
 30
0.0
 11
145.9762960627812
 21
91.73293381259119
 31
0.0
  0
LINE
  5
27B
  8
0
  6
CONTINUOUS
 62
     3
 10
98.24227020517702
 20
87.38422842393648
 30
0.0
 11
95.38476372555471
 21
82.43488362776243
 31
0.0
  0
LINE
  5
27C
  8
0
  6
CONTINUOUS
 62
     3
 10
95.38478291314499
 20
82.43488083081111
 30
0.0
 11
98.2422843858264
 21
77.48554196060441
 31
0.0
  0
LINE
  5
27D
  8
0
  6
CONTINUOUS
 62
     3
 10
98.24227964432413
 20
77.48552017733728
 30
0.0
 11
103.9572836116093
 21
77.48552017733728
 31
0.0
  0
LINE
  5
27E
  8
0
  6
CONTINUOUS
 62
     3
 10
103.9572843423949
 20
77.48554695861908
 30
0.0
 11
106.8147887105229
 21
82.43488412562188
 31
0.0
  0
LINE
  5
27F
  8
0
  6
CONTINUOUS
 62
     3
 10
106.8147837480043
 20
82.43488218776243
 30
0.0
 11
103.9572877932212
 21
87.38421547264029
 31
0.0
  0
LINE
  5
280
  8
0
  6
CONTINUOUS
 62
     3
 10
103.9572836116093
 20
87.38419418856775
 30
0.0
 11
98.24227964432413
 21
87.38419418856775
 31
0.0
  0
LINE
  5
281
  8
0
  6
CONTINUOUS
 62
     3
 10
80.97905771283519
 20
57.48343832812061
 30
0.0
 11
78.12155709175573
 21
52.53409911727313
 31
0.0
  0
LINE
  5
282
  8
0
  6
CONTINUOUS
 62
     3
 10
78.12156377737706
 20
52.53409307922163
 30
0.0
 11
80.9790609244014
 21
47.58476047562442
 31
0.0
  0
LINE
  5
283
  8
0
  6
CONTINUOUS
 62
     3
 10
80.97905790360147
 20
47.58472519442712
 30
0.0
 11
86.6940542414921
 21
47.58472519442712
 31
0.0
  0
LINE
  5
284
  8
0
  6
CONTINUOUS
 62
     3
 10
86.69404056671652
 20
47.58476535527639
 30
0.0
 11
89.55154112014412
 21
52.53409591503164
 31
0.0
  0
LINE
  5
285
  8
0
  6
CONTINUOUS
 62
     3
 10
89.55153793878696
 20
52.53407476966363
 30
0.0
 11
86.69404092825801
 21
57.48341169880764
 31
0.0
  0
LINE
  5
286
  8
0
  6
CONTINUOUS
 62
     3
 10
86.6940542414921
 20
57.48342972323572
 30
0.0
 11
80.97905790360147
 21
57.48342972323572
 31
0.0
  0
LINE
  5
287
  8
0
  6
CONTINUOUS
 62
     3
 10
192.5703220786189
 20
87.38421301447779
 30
0.0
 11
189.7128232283929
 21
82.43488143280156
 31
0.0
  0
LINE
  5
288
  8
0
  6
CONTINUOUS
 62
     3
 10
189.7128299172993
 20
82.43488183497784
 30
0.0
 11
192.5703266216099
 21
77.48555122383341
 31
0.0
  0
LINE
  5
289
  8
0
  6
CONTINUOUS
 62
     3
 10
192.5703207209843
 20
77.48558884188806
 30
0.0
 11
198.285332317664
 21
77.48558884188806
 31
0.0
  0
LINE
  5
28A
  8
0
  6
CONTINUOUS
 62
     3
 10
198.2853156055069
 20
77.48556320895041
 30
0.0
 11
201.1428161589345
 21
82.43489376870566
 31
0.0
  0
LINE
  5
28B
  8
0
  6
CONTINUOUS
 62
     3
 10
201.1428189058284
 20
82.43487188624904
 30
0.0
 11
198.2853181826773
 21
87.38421343019088
 31
0.0
  0
LINE
  5
28C
  8
0
  6
CONTINUOUS
 62
     3
 10
198.285332317664
 20
87.384255223724
 30
0.0
 11
192.5703207209843
 21
87.384255223724
 31
0.0
  0
LINE
  5
28D
  8
0
  6
CONTINUOUS
 62
     3
 10
209.8334435286532
 20
57.48349268381863
 30
0.0
 11
206.9759439971465
 21
52.53416144278272
 31
0.0
  0
LINE
  5
28E
  8
0
  6
CONTINUOUS
 62
     3
 10
206.9760110525381
 20
52.53409692549708
 30
0.0
 11
209.8335139216063
 21
47.58475441102446
 31
0.0
  0
LINE
  5
28F
  8
0
  6
CONTINUOUS
 62
     3
 10
209.8335500911015
 20
47.58479004428064
 30
0.0
 11
215.5485464289921
 21
47.58479004428064
 31
0.0
  0
LINE
  5
290
  8
0
  6
CONTINUOUS
 62
     3
 10
215.5485685908569
 20
47.58476892268273
 30
0.0
 11
218.4060662488417
 21
52.53410118563961
 31
0.0
  0
LINE
  5
291
  8
0
  6
CONTINUOUS
 62
     3
 10
218.4060189602931
 20
52.53407020182586
 30
0.0
 11
215.5485200424176
 21
57.48341043459568
 31
0.0
  0
LINE
  5
292
  8
0
  6
CONTINUOUS
 62
     3
 10
215.5485464289921
 20
57.48342972323572
 30
0.0
 11
209.8335500911015
 21
57.48342972323572
 31
0.0
  0
LINE
  5
293
  8
0
  6
CONTINUOUS
 62
     3
 10
100.50992098732
 20
12.98296288639649
 30
0.0
 11
98.22241896970246
 21
9.020896892543718
 31
0.0
  0
LINE
  5
294
  8
0
  6
CONTINUOUS
 62
     3
 10
98.22245787875653
 20
9.020862955506303
 30
0.0
 11
100.509955943841
 21
5.058799174513254
 31
0.0
  0
LINE
  5
295
  8
0
  6
CONTINUOUS
 62
     3
 10
100.5099645808476
 20
5.058785253020872
 30
0.0
 11
105.0849691584843
 21
5.058785253020872
 31
0.0
  0
LINE
  5
296
  8
0
  6
CONTINUOUS
 62
     3
 10
105.0849485612064
 20
5.058825004610938
 30
0.0
 11
107.3724500349293
 21
9.020886876766511
 31
0.0
  0
LINE
  5
297
  8
0
  6
CONTINUOUS
 62
     3
 10
107.3724335173715
 20
9.020855900976542
 30
0.0
 11
105.0849313648989
 21
12.98292628921941
 31
0.0
  0
LINE
  5
298
  8
0
  6
CONTINUOUS
 62
     3
 10
105.0849691584843
 20
12.98293381259119
 30
0.0
 11
100.5099722102421
 21
12.98293381259119
 31
0.0
  0
LINE
  5
299
  8
0
  6
CONTINUOUS
 62
     3
 10
81.39168721676339
 20
-5.979116396566994
 30
0.0
 11
79.10418846995123
 21
-9.941179904868974
 31
0.0
  0
LINE
  5
29A
  8
0
  6
CONTINUOUS
 62
     3
 10
79.10420286209757
 20
-9.9411956734928
 30
0.0
 11
74.52920591385538
 21
-9.9411956734928
 31
0.0
  0
LINE
  5
29B
  8
0
  6
CONTINUOUS
 62
     3
 10
74.52918180169678
 20
-9.941198797655076
 30
0.0
 11
72.24168455468549
 21
-5.979134471279892
 31
0.0
  0
LINE
  5
29C
  8
0
  6
CONTINUOUS
 62
     3
 10
72.2416894855383
 20
-5.97911469359228
 30
0.0
 11
74.52918673254959
 21
-2.017050367217095
 31
0.0
  0
LINE
  5
29D
  8
0
  6
CONTINUOUS
 62
     3
 10
74.52920591385538
 20
-2.01706237271155
 30
0.0
 11
79.10420286209757
 21
-2.01706237271155
 31
0.0
  0
LINE
  5
29E
  8
0
  6
CONTINUOUS
 62
     3
 10
79.10418250401023
 20
-2.017070800013968
 30
0.0
 11
81.39167797852957
 21
-5.979136217153425
 31
0.0
  0
LINE
  5
29F
  8
0
  6
CONTINUOUS
 62
     3
 10
128.143100459662
 20
-24.20705509278564
 30
0.0
 11
125.2855993276214
 21
-29.15639430363312
 31
0.0
  0
LINE
  5
2A0
  8
0
  6
CONTINUOUS
 62
     3
 10
125.2855767078877
 20
-29.156379203904
 30
0.0
 11
128.1430743658726
 21
-34.10571146686088
 31
0.0
  0
LINE
  5
2A1
  8
0
  6
CONTINUOUS
 62
     3
 10
128.1430746272343
 20
-34.10571975186194
 30
0.0
 11
133.8580709651249
 21
-34.10571975186194
 31
0.0
  0
LINE
  5
2A2
  8
0
  6
CONTINUOUS
 62
     3
 10
133.8581398685843
 20
-34.1057608748777
 30
0.0
 11
136.7156426023428
 21
-29.15643600322692
 31
0.0
  0
LINE
  5
2A3
  8
0
  6
CONTINUOUS
 62
     3
 10
136.7155739338203
 20
-29.15639666299357
 30
0.0
 11
133.8580705199691
 21
-24.20705016361335
 31
0.0
  0
LINE
  5
2A4
  8
0
  6
CONTINUOUS
 62
     3
 10
133.8580709651249
 20
-24.207053370026
 30
0.0
 11
128.1430746272343
 21
-24.207053370026
 31
0.0
  0
LINE
  5
2A5
  8
0
  6
CONTINUOUS
 62
     3
 10
162.669487262813
 20
-24.20703017197711
 30
0.0
 11
159.8119871865191
 21
-29.15636539791835
 31
0.0
  0
LINE
  5
2A6
  8
0
  6
CONTINUOUS
 62
     3
 10
159.8120298157003
 20
-29.15639456894591
 30
0.0
 11
162.6695274736852
 21
-34.1057268319028
 31
0.0
  0
LINE
  5
2A7
  8
0
  6
CONTINUOUS
 62
     3
 10
162.6695333674687
 20
-34.10571975186194
 30
0.0
 11
168.3845297053593
 21
-34.10571975186194
 31
0.0
  0
LINE
  5
2A8
  8
0
  6
CONTINUOUS
 62
     3
 10
168.3845956151279
 20
-34.10573973484024
 30
0.0
 11
171.2420976676063
 21
-29.15641418190926
 31
0.0
  0
LINE
  5
2A9
  8
0
  6
CONTINUOUS
 62
     3
 10
171.2420351066501
 20
-29.15639365134648
 30
0.0
 11
168.384535507493
 21
-24.20705375921743
 31
0.0
  0
LINE
  5
2AA
  8
0
  6
CONTINUOUS
 62
     3
 10
168.3845297053593
 20
-24.20703811123694
 30
0.0
 11
162.6695333674687
 21
-24.20703811123694
 31
0.0
  0
LINE
  5
2AB
  8
0
  6
CONTINUOUS
 62
     3
 10
191.4425146657548
 20
12.98297965398724
 30
0.0
 11
189.1550145554873
 21
9.020916963758467
 31
0.0
  0
LINE
  5
2AC
  8
0
  6
CONTINUOUS
 62
     3
 10
189.1551359018411
 20
9.020849734997867
 30
0.0
 11
191.4426339669256
 21
5.058785954004819
 31
0.0
  0
LINE
  5
2AD
  8
0
  6
CONTINUOUS
 62
     3
 10
191.4426351741093
 20
5.058819585296263
 30
0.0
 11
196.0176321223515
 21
5.058819585296263
 31
0.0
  0
LINE
  5
2AE
  8
0
  6
CONTINUOUS
 62
     3
 10
196.0175088088179
 20
5.058860001163524
 30
0.0
 11
198.3050102825408
 21
9.020921873319097
 31
0.0
  0
LINE
  5
2AF
  8
0
  6
CONTINUOUS
 62
     3
 10
198.3050499483716
 20
9.020836678507479
 30
0.0
 11
196.017547795899
 21
12.98290706675034
 31
0.0
  0
LINE
  5
2B0
  8
0
  6
CONTINUOUS
 62
     3
 10
196.0176321223515
 20
12.98293381259119
 30
0.0
 11
191.4426351741093
 21
12.98293381259119
 31
0.0
  0
LINE
  5
2B1
  8
0
  6
CONTINUOUS
 62
     3
 10
217.4233094717877
 20
-2.016989296489825
 30
0.0
 11
215.1358122247764
 21
-5.97905362286501
 31
0.0
  0
LINE
  5
2B2
  8
0
  6
CONTINUOUS
 62
     3
 10
215.1357826353365
 20
-5.979183349645425
 30
0.0
 11
217.4232798823478
 21
-9.941247676020609
 31
0.0
  0
LINE
  5
2B3
  8
0
  6
CONTINUOUS
 62
     3
 10
217.4234090998905
 20
-9.9411956734928
 30
0.0
 11
221.9983907893437
 21
-9.9411956734928
 31
0.0
  0
LINE
  5
2B4
  8
0
  6
CONTINUOUS
 62
     3
 10
221.9983258545956
 20
-9.941149052890339
 30
0.0
 11
224.2858246014078
 21
-5.979085544588358
 31
0.0
  0
LINE
  5
2B5
  8
0
  6
CONTINUOUS
 62
     3
 10
224.2858153450482
 20
-5.979162372960488
 30
0.0
 11
221.9983274999134
 21
-2.01711017032612
 31
0.0
  0
LINE
  5
2B6
  8
0
  6
CONTINUOUS
 62
     3
 10
221.9983907893437
 20
-2.01706237271155
 30
0.0
 11
217.4234090998905
 21
-2.01706237271155
 31
0.0
  0
LINE
  5
2B7
  8
0
  6
CONTINUOUS
 62
     3
 10
115.0139697905593
 20
69.56751197920103
 30
0.0
 11
113.5839695706182
 21
67.09067884025235
 31
0.0
  0
LINE
  5
2B8
  8
0
  6
CONTINUOUS
 62
     3
 10
113.5839869003816
 20
67.09065727074447
 30
0.0
 11
115.0139835249724
 21
64.6138256227069
 31
0.0
  0
LINE
  5
2B9
  8
0
  6
CONTINUOUS
 62
     3
 10
115.0139929011601
 20
64.61381607577478
 30
0.0
 11
117.8739935115116
 21
64.61381607577478
 31
0.0
  0
LINE
  5
2BA
  8
0
  6
CONTINUOUS
 62
     3
 10
117.8739622662068
 20
64.61385763424251
 30
0.0
 11
119.3039647874837
 21
67.09068957990594
 31
0.0
  0
LINE
  5
2BB
  8
0
  6
CONTINUOUS
 62
     3
 10
119.3039695487778
 20
67.0906441750147
 30
0.0
 11
117.8739682738359
 21
69.5674811289967
 31
0.0
  0
LINE
  5
2BC
  8
0
  6
CONTINUOUS
 62
     3
 10
117.8739935115116
 20
69.56750565097009
 30
0.0
 11
115.0140005305546
 21
69.56750565097009
 31
0.0
  0
LINE
  5
2BD
  8
0
  6
CONTINUOUS
 62
     3
 10
103.367130121337
 20
49.39455930212826
 30
0.0
 11
101.9371294752226
 21
46.9177263336489
 31
0.0
  0
LINE
  5
2BE
  8
0
  6
CONTINUOUS
 62
     3
 10
101.9371197093778
 20
46.91771825314193
 30
0.0
 11
103.3671198786549
 21
44.44088611056868
 31
0.0
  0
LINE
  5
2BF
  8
0
  6
CONTINUOUS
 62
     3
 10
103.367134685828
 20
44.4408729605404
 30
0.0
 11
106.2271352961796
 21
44.4408729605404
 31
0.0
  0
LINE
  5
2C0
  8
0
  6
CONTINUOUS
 62
     3
 10
106.22711160406
 20
44.44091025817097
 30
0.0
 11
107.6571125911131
 21
46.91774305618101
 31
0.0
  0
LINE
  5
2C1
  8
0
  6
CONTINUOUS
 62
     3
 10
107.657139142419
 20
46.91772404326919
 30
0.0
 11
106.2271393486512
 21
49.39455752315651
 31
0.0
  0
LINE
  5
2C2
  8
0
  6
CONTINUOUS
 62
     3
 10
106.2271352961796
 20
49.39455490634119
 30
0.0
 11
103.367134685828
 21
49.39455490634119
 31
0.0
  0
LINE
  5
2C3
  8
0
  6
CONTINUOUS
 62
     3
 10
135.1869087691399
 20
-5.71893663874657
 30
0.0
 11
133.7569104565473
 21
-8.195766474070567
 31
0.0
  0
LINE
  5
2C4
  8
0
  6
CONTINUOUS
 62
     3
 10
133.7569309645549
 20
-8.195805897471743
 30
0.0
 11
135.1869297355068
 21
-10.67263988876702
 31
0.0
  0
LINE
  5
2C5
  8
0
  6
CONTINUOUS
 62
     3
 10
135.186943645789
 20
-10.672629541901
 30
0.0
 11
138.0469442561405
 21
-10.672629541901
 31
0.0
  0
LINE
  5
2C6
  8
0
  6
CONTINUOUS
 62
     3
 10
138.0468907114974
 20
-10.67260549194798
 30
0.0
 11
139.4768913254227
 21
-8.195776849907631
 31
0.0
  0
LINE
  5
2C7
  8
0
  6
CONTINUOUS
 62
     3
 10
139.4770187616153
 20
-8.195784113897432
 30
0.0
 11
138.047017113554
 21
-5.718942833471417
 31
0.0
  0
LINE
  5
2C8
  8
0
  6
CONTINUOUS
 62
     3
 10
138.0469442561405
 20
-5.718962854889284
 30
0.0
 11
135.186943645789
 21
-5.718962854889284
 31
0.0
  0
LINE
  5
2C9
  8
0
  6
CONTINUOUS
 62
     3
 10
158.4806080010868
 20
-5.718935479996887
 30
0.0
 11
157.0506077811456
 21
-8.195768618945564
 31
0.0
  0
LINE
  5
2CA
  8
0
  6
CONTINUOUS
 62
     3
 10
157.0506320781745
 20
-8.195793296517692
 30
0.0
 11
158.4806308491264
 21
-10.67262728781297
 31
0.0
  0
LINE
  5
2CB
  8
0
  6
CONTINUOUS
 62
     3
 10
158.480660076453
 20
-10.672629541901
 30
0.0
 11
161.3406606868046
 21
-10.672629541901
 31
0.0
  0
LINE
  5
2CC
  8
0
  6
CONTINUOUS
 62
     3
 10
161.3405844281486
 20
-10.67259085558071
 30
0.0
 11
162.7705869494255
 21
-8.195758909917274
 31
0.0
  0
LINE
  5
2CD
  8
0
  6
CONTINUOUS
 62
     3
 10
162.7706735938114
 20
-8.195790576609213
 30
0.0
 11
161.3406719457501
 21
-5.718949296183197
 31
0.0
  0
LINE
  5
2CE
  8
0
  6
CONTINUOUS
 62
     3
 10
161.3406606868046
 20
-5.718962854889284
 30
0.0
 11
158.480660076453
 21
-5.718962854889284
 31
0.0
  0
LINE
  5
2CF
  8
0
  6
CONTINUOUS
 62
     3
 10
178.6535695389205
 20
69.56753138603877
 30
0.0
 11
177.2235616895853
 21
67.09068503259137
 31
0.0
  0
LINE
  5
2D0
  8
0
  6
CONTINUOUS
 62
     3
 10
177.2235086387107
 20
67.09060771472214
 30
0.0
 11
178.6535096257638
 21
64.6137749167121
 31
0.0
  0
LINE
  5
2D1
  8
0
  6
CONTINUOUS
 62
     3
 10
178.6536031916874
 20
64.61386185214197
 30
0.0
 11
181.513603802039
 21
64.61386185214197
 31
0.0
  0
LINE
  5
2D2
  8
0
  6
CONTINUOUS
 62
     3
 10
181.5135308353673
 20
64.61388483070114
 30
0.0
 11
182.9435241930221
 21
67.09070441421427
 31
0.0
  0
LINE
  5
2D3
  8
0
  6
CONTINUOUS
 62
     3
 10
182.9435689869247
 20
67.09064961130362
 30
0.0
 11
181.5135696193302
 21
69.56748326166026
 31
0.0
  0
LINE
  5
2D4
  8
0
  6
CONTINUOUS
 62
     3
 10
181.513603802039
 20
69.56750565097009
 30
0.0
 11
178.6536031916874
 21
69.56750565097009
 31
0.0
  0
LINE
  5
2D5
  8
0
  6
CONTINUOUS
 62
     3
 10
193.1604696467655
 20
49.39455490634119
 30
0.0
 11
190.300469036414
 21
49.39455490634119
 31
0.0
  0
LINE
  5
2D6
  8
0
  6
CONTINUOUS
 62
     3
 10
190.3005068374421
 20
49.39457518425498
 30
0.0
 11
188.8705061913277
 21
46.91774221577562
 31
0.0
  0
LINE
  5
2D7
  8
0
  6
CONTINUOUS
 62
     3
 10
188.8704712900533
 20
46.91771538927169
 30
0.0
 11
190.3004719361678
 21
44.44088242079234
 31
0.0
  0
LINE
  5
2D8
  8
0
  6
CONTINUOUS
 62
     3
 10
190.300469036414
 20
44.44090347811853
 30
0.0
 11
193.1604696467655
 21
44.44090347811853
 31
0.0
  0
LINE
  5
2D9
  8
0
  6
CONTINUOUS
 62
     3
 10
193.1603659953051
 20
44.44091512242922
 30
0.0
 11
194.5903746117563
 21
46.91776113493616
 31
0.0
  0
LINE
  5
2DA
  8
0
  6
CONTINUOUS
 62
     3
 10
194.5904868028161
 20
46.91772915775296
 30
0.0
 11
193.1604870090483
 21
49.39456263764028
 31
0.0
  0
LINE
  5
2DB
  8
0
  6
CONTINUOUS
 62
     3
 10
102.5638489070878
 20
108.7708911144423
 30
0.0
 11
105.4138460222237
 21
103.8345483648768
 31
0.0
  0
LINE
  5
2DC
  8
0
  6
CONTINUOUS
 62
     3
 10
105.4137960627812
 20
103.8345192007748
 30
0.0
 11
111.1137930110234
 21
103.8345192007748
 31
0.0
  0
LINE
  5
2DD
  8
0
  6
CONTINUOUS
 62
     3
 10
111.113796630845
 20
103.8345229637973
 30
0.0
 11
113.9638061318327
 21
108.7708762098857
 31
0.0
  0
LINE
  5
2DE
  8
0
  6
CONTINUOUS
 62
     3
 10
113.9638685703447
 20
108.7708939300885
 30
0.0
 11
111.1138719648282
 21
113.7072373591465
 31
0.0
  0
LINE
  5
2DF
  8
0
  6
CONTINUOUS
 62
     3
 10
111.1138006404179
 20
113.7072074942318
 30
0.0
 11
105.4138036921757
 21
113.7072074942318
 31
0.0
  0
LINE
  5
2E0
  8
0
  6
CONTINUOUS
 62
     3
 10
105.4138018847651
 20
113.7072103238085
 30
0.0
 11
102.5638023914051
 21
108.7708685934819
 31
0.0
  0
LINE
  5
2E1
  8
0
  6
CONTINUOUS
 62
     3
 10
226.2167621110764
 20
33.16193259640995
 30
0.0
 11
229.0667592262124
 21
28.22558984684447
 31
0.0
  0
LINE
  5
2E2
  8
0
  6
CONTINUOUS
 62
     3
 10
229.0666738703984
 20
28.22553902194177
 30
0.0
 11
234.7666708186405
 21
28.22553902194177
 31
0.0
  0
LINE
  5
2E3
  8
0
  6
CONTINUOUS
 62
     3
 10
234.7665811965961
 20
28.22558040046825
 30
0.0
 11
237.6165830681801
 21
33.16192043206338
 31
0.0
  0
LINE
  5
2E4
  8
0
  6
CONTINUOUS
 62
     3
 10
237.6167124419461
 20
33.16190664954839
 30
0.0
 11
234.76670820704
 21
38.09826329310882
 31
0.0
  0
LINE
  5
2E5
  8
0
  6
CONTINUOUS
 62
     3
 10
234.7666708186405
 20
38.09822922274744
 30
0.0
 11
229.0666738703984
 21
38.09822922274744
 31
0.0
  0
LINE
  5
2E6
  8
0
  6
CONTINUOUS
 62
     3
 10
229.0667393900711
 20
38.09819415841339
 30
0.0
 11
226.2167398967111
 21
33.16185242808679
 31
0.0
  0
LINE
  5
2E7
  8
0
  6
CONTINUOUS
 62
     3
 10
98.91093664000374
 20
-36.12014099343359
 30
0.0
 11
101.7609337551397
 21
-41.05648374299908
 31
0.0
  0
LINE
  5
2E8
  8
0
  6
CONTINUOUS
 62
     3
 10
101.760933513953
 20
-41.05649489834632
 30
0.0
 11
107.4609304621952
 21
-41.05649489834632
 31
0.0
  0
LINE
  5
2E9
  8
0
  6
CONTINUOUS
 62
     3
 10
107.4609215000988
 20
-41.05648417920672
 30
0.0
 11
110.3109233716828
 21
-36.12014414761158
 31
0.0
  0
LINE
  5
2EA
  8
0
  6
CONTINUOUS
 62
     3
 10
110.31094093444
 20
-36.12013904006771
 30
0.0
 11
107.4609443289235
 21
-31.18379561100964
 31
0.0
  0
LINE
  5
2EB
  8
0
  6
CONTINUOUS
 62
     3
 10
107.4609304621952
 20
-31.18379897549475
 30
0.0
 11
101.760933513953
 21
-31.18379897549475
 31
0.0
  0
LINE
  5
2EC
  8
0
  6
CONTINUOUS
 62
     3
 10
101.7609578763034
 20
-31.18381867450971
 30
0.0
 11
98.91095838294342
 21
-36.12016040483631
 31
0.0
  0
LINE
  5
2ED
  8
0
  6
CONTINUOUS
 62
     3
 10
23.68660235547719
 20
-56.86157490048485
 30
0.0
 11
37.10998936392576
 21
-49.11157965395502
 31
0.0
  0
LINE
  5
2EE
  8
0
  6
CONTINUOUS
 62
     3
 10
6.186597489446854
 20
-26.55068543510411
 30
0.0
 11
19.60997128339579
 21
-18.80069781796836
 31
0.0
  0
LINE
  5
2EF
  8
0
  6
CONTINUOUS
 62
     3
 10
31.86000255229192
 20
-40.01831197901127
 30
0.0
 11
37.11000317814069
 21
-49.11157855553982
 31
0.0
  0
LINE
  5
2F0
  8
0
  6
CONTINUOUS
 62
     3
 10
35.37794744622204
 20
-50.1115815357724
 30
0.0
 11
42.55937911896569
 21
-62.55018435800081
 31
0.0
  0
LINE
  5
2F1
  8
0
  6
CONTINUOUS
 62
     3
 10
10.36960598808906
 20
-32.79588082168145
 30
0.0
 11
16.43178432948383
 21
-29.29588091108843
 31
0.0
  0
LINE
  5
2F2
  8
0
  6
CONTINUOUS
 62
     3
 10
20.36960431060032
 20
-50.11638599812859
 30
0.0
 11
26.43178244551854
 21
-46.61638620674485
 31
0.0
  0
LINE
  5
2F3
  8
0
  6
CONTINUOUS
 62
     3
 10
10.36960931013093
 20
-32.7958834529904
 30
0.0
 11
20.36960859487496
 21
-50.116387914182
 31
0.0
  0
LINE
  5
2F4
  8
0
  6
CONTINUOUS
 62
     3
 10
16.43177546513024
 20
-29.29588971147889
 30
0.0
 11
17.93177373659532
 21
-31.89396257257666
 31
0.0
  0
LINE
  5
2F5
  8
0
  6
CONTINUOUS
 62
     3
 10
24.93177457106035
 20
-44.01831800794805
 30
0.0
 11
26.43177474987428
 21
-46.6163941726705
 31
0.0
  0
LINE
  5
2F6
  8
0
  6
CONTINUOUS
 62
     3
 10
11.48563942807456
 20
-32.72888896918376
 30
0.0
 11
20.98564056056281
 21
-49.18337134575923
 31
0.0
  0
LINE
  5
2F7
  8
0
  6
CONTINUOUS
 62
     3
 10
26.15904310381279
 20
-27.14395454688405
 30
0.0
 11
27.15904322302208
 21
-28.87600532336568
 31
0.0
  0
LINE
  5
2F8
  8
0
  6
CONTINUOUS
 62
     3
 10
11.48562621005993
 20
-32.72889217913011
 30
0.0
 11
16.68177992951547
 21
-29.72889176189764
 31
0.0
  0
LINE
  5
2F9
  8
0
  6
CONTINUOUS
 62
     3
 10
20.98563193623153
 20
-49.18338086493226
 30
0.0
 11
26.18178544921051
 21
-46.18338056690907
 31
0.0
  0
LINE
  5
2FA
  8
0
  6
CONTINUOUS
 62
     3
 10
17.93178908715669
 20
-31.89396326582821
 30
0.0
 11
26.15901804014203
 21
-27.14397093992578
 31
0.0
  0
LINE
  5
2FB
  8
0
  6
CONTINUOUS
 62
     3
 10
24.93178943653237
 20
-44.01833230756213
 30
0.0
 11
33.15901838951771
 21
-39.26833998165971
 31
0.0
  0
LINE
  5
2FC
  8
0
  6
CONTINUOUS
 62
     3
 10
32.15904381906853
 20
-37.53625920577382
 30
0.0
 11
33.15904393827782
 21
-39.26830998225545
 31
0.0
  0
LINE
  5
2FD
  8
0
  6
CONTINUOUS
 62
     3
 10
33.02021570089431
 20
-22.02793594150528
 30
0.0
 11
41.02021665456863
 21
-35.8843421533583
 31
0.0
  0
LINE
  5
2FE
  8
0
  6
CONTINUOUS
 62
     3
 10
41.68049321974826
 20
-17.02793050861503
 30
0.0
 11
49.68049798812029
 21
-30.88434332771742
 31
0.0
  0
LINE
  5
2FF
  8
0
  6
CONTINUOUS
 62
     3
 10
13.7356326831993
 20
-36.62600287973764
 30
0.0
 11
34.52024508330277
 21
-24.62600264131912
 31
0.0
  0
LINE
  5
300
  8
0
  6
CONTINUOUS
 62
     3
 10
18.73563753685147
 20
-45.28627200320325
 30
0.0
 11
39.52025076286117
 21
-33.2862712879476
 31
0.0
  0
LINE
  5
301
  8
0
  6
CONTINUOUS
 62
     3
 10
33.02024186908483
 20
-22.02792820513126
 30
0.0
 11
41.68049634753942
 21
-17.02792850315448
 31
0.0
  0
LINE
  5
302
  8
0
  6
CONTINUOUS
 62
     3
 10
41.02024520694471
 20
-35.88434197790842
 30
0.0
 11
49.6804996853993
 21
-30.88434227593164
 31
0.0
  0
LINE
  5
303
  8
0
  6
CONTINUOUS
 62
     3
 10
17.19971843871909
 20
-34.62600733785543
 30
0.0
 11
22.19971903476554
 21
-43.28626122026357
 31
0.0
  0
LINE
  5
304
  8
0
  6
CONTINUOUS
 62
     3
 10
-8.311169633692543
 20
-23.37396452329337
 30
0.0
 11
1.186595880121558
 21
-17.89042765302462
 31
0.0
  0
LINE
  5
305
  8
0
  6
CONTINUOUS
 62
     3
 10
20.62591274888979
 20
-70.17568762625946
 30
0.0
 11
28.68660803503559
 21
-65.52184354711334
 31
0.0
  0
LINE
  5
306
  8
0
  6
CONTINUOUS
 62
     3
 10
8.562263745698601
 20
-3.665461297204033
 30
0.0
 11
17.87794249903618
 21
-19.80068799190688
 31
0.0
  0
LINE
  5
307
  8
0
  6
CONTINUOUS
 62
     3
 10
18.74396845764665
 20
-19.30068319816591
 30
0.0
 11
23.99397003716985
 21
-28.3939514265068
 31
0.0
  0
LINE
  5
308
  8
0
  6
CONTINUOUS
 62
     3
 10
30.99397087163487
 20
-40.5183068618782
 30
0.0
 11
36.24397531218136
 21
-49.61158004565611
 31
0.0
  0
LINE
  5
309
  8
0
  6
CONTINUOUS
 62
     3
 10
23.68660511792413
 20
-56.8615821020165
 30
0.0
 11
28.68660571397058
 21
-65.52183598442464
 31
0.0
  0
LINE
  5
30A
  8
0
  6
CONTINUOUS
 62
     3
 10
1.186597667342966
 20
-17.89043137211816
 30
0.0
 11
6.186598263389413
 21
-26.5506852545263
 31
0.0
  0
ARC
  5
30B
  8
0
  6
CONTINUOUS
 62
     3
 10
148.2638021662968
 20
35.27086716220056
 30
0.0
 40
102.5
 50
0.0
 51
80.16963225096981
  0
ARC
  5
30C
  8
0
  6
CONTINUOUS
 62
     3
 10
148.2638021662968
 20
35.27086716220056
 30
0.0
 40
102.5
 50
219.8303524189998
 51
320.1696357418547
  0
ARC
  5
30D
  8
0
  6
CONTINUOUS
 62
     3
 10
148.2638021662968
 20
35.27086716220056
 30
0.0
 40
102.5
 50
99.83038641836487
 51
200.169594609139
  0
ARC
  5
30E
  8
0
  6
CONTINUOUS
 62
     3
 10
148.2638021662968
 20
35.27086716220056
 30
0.0
 40
102.5
 50
339.830367711135
 51
360.0
  0
CIRCLE
  5
30F
  8
0
  6
CONTINUOUS
 62
     3
 10
148.2638021662968
 20
35.27086716220056
 30
0.0
 40
30.5
  0
ARC
  5
310
  8
0
  6
CONTINUOUS
 62
     3
 10
148.2638021662968
 20
35.27086716220056
 30
0.0
 40
53.0
 50
0.0
 51
70.71977183612286
  0
ARC
  5
311
  8
0
  6
CONTINUOUS
 62
     3
 10
148.2638021662968
 20
35.27086716220056
 30
0.0
 40
53.0
 50
109.2802468332118
 51
190.7197273641029
  0
ARC
  5
312
  8
0
  6
CONTINUOUS
 62
     3
 10
148.2638021662968
 20
35.27086716220056
 30
0.0
 40
53.0
 50
349.2802306873029
 51
360.0
  0
ARC
  5
313
  8
0
  6
CONTINUOUS
 62
     3
 10
148.2638021662968
 20
35.27086716220056
 30
0.0
 40
53.0
 50
229.2802060036575
 51
310.7197753270078
  0
CIRCLE
  5
314
  8
0
  6
CONTINUOUS
 62
     3
 10
116.4439779475468
 20
67.0906761221615
 30
0.0
 40
5.0
  0
CIRCLE
  5
315
  8
0
  6
CONTINUOUS
 62
     3
 10
104.7971273616093
 20
46.91772156283533
 30
0.0
 40
5.0
  0
CIRCLE
  5
316
  8
0
  6
CONTINUOUS
 62
     3
 10
180.0836263850468
 20
67.0906761221615
 30
0.0
 40
5.0
  0
CIRCLE
  5
317
  8
0
  6
CONTINUOUS
 62
     3
 10
191.7304769709843
 20
46.91772156283533
 30
0.0
 40
5.0
  0
CIRCLE
  5
318
  8
0
  6
CONTINUOUS
 62
     3
 10
159.9106527522343
 20
-8.195796198395144
 30
0.0
 40
5.0
  0
CIRCLE
  5
319
  8
0
  6
CONTINUOUS
 62
     3
 10
136.6169515803593
 20
-8.195796198395144
 30
0.0
 40
5.0
  0
CIRCLE
  5
31A
  8
0
  6
CONTINUOUS
 62
     3
 10
136.6169515803593
 20
-8.195796198395144
 30
0.0
 40
5.5
  0
CIRCLE
  5
31B
  8
0
  6
CONTINUOUS
 62
     3
 10
159.9106527522343
 20
-8.195796198395144
 30
0.0
 40
5.5
  0
CIRCLE
  5
31C
  8
0
  6
CONTINUOUS
 62
     3
 10
191.7304769709843
 20
46.91772156283533
 30
0.0
 40
5.5
  0
CIRCLE
  5
31D
  8
0
  6
CONTINUOUS
 62
     3
 10
180.0836263850468
 20
67.0906761221615
 30
0.0
 40
5.5
  0
CIRCLE
  5
31E
  8
0
  6
CONTINUOUS
 62
     3
 10
116.4439779475468
 20
67.0906761221615
 30
0.0
 40
5.5
  0
CIRCLE
  5
31F
  8
0
  6
CONTINUOUS
 62
     3
 10
104.7971273616093
 20
46.91772156283533
 30
0.0
 40
5.5
  0
CIRCLE
  5
320
  8
0
  6
CONTINUOUS
 62
     3
 10
195.4278036311405
 20
82.43488388583337
 30
0.0
 40
9.0
  0
CIRCLE
  5
321
  8
0
  6
CONTINUOUS
 62
     3
 10
165.527046795203
 20
-29.15637893154944
 30
0.0
 40
9.0
  0
CIRCLE
  5
322
  8
0
  6
CONTINUOUS
 62
     3
 10
131.0005575373905
 20
-29.15637893154944
 30
0.0
 40
9.0
  0
CIRCLE
  5
323
  8
0
  6
CONTINUOUS
 62
     3
 10
83.83655607254678
 20
52.53409271762048
 30
0.0
 40
9.0
  0
CIRCLE
  5
324
  8
0
  6
CONTINUOUS
 62
     3
 10
101.0997701838749
 20
82.43488388583337
 30
0.0
 40
9.0
  0
CIRCLE
  5
325
  8
0
  6
CONTINUOUS
 62
     3
 10
195.4278036311405
 20
82.43488388583337
 30
0.0
 40
10.0
  0
CIRCLE
  5
326
  8
0
  6
CONTINUOUS
 62
     3
 10
165.527046795203
 20
-29.15637893154944
 30
0.0
 40
10.0
  0
CIRCLE
  5
327
  8
0
  6
CONTINUOUS
 62
     3
 10
131.0005575373905
 20
-29.15637893154944
 30
0.0
 40
10.0
  0
CIRCLE
  5
328
  8
0
  6
CONTINUOUS
 62
     3
 10
83.83655607254678
 20
52.53409271762048
 30
0.0
 40
10.0
  0
CIRCLE
  5
329
  8
0
  6
CONTINUOUS
 62
     3
 10
101.0997701838749
 20
82.43488388583337
 30
0.0
 40
10.0
  0
CIRCLE
  5
32A
  8
0
  6
CONTINUOUS
 62
     3
 10
212.6910482600468
 20
52.53409271762048
 30
0.0
 40
9.0
  0
CIRCLE
  5
32B
  8
0
  6
CONTINUOUS
 62
     3
 10
212.6910482600468
 20
52.53409271762048
 30
0.0
 40
10.0
  0
ARC
  5
32C
  8
0
  6
CONTINUOUS
 62
     3
 10
148.2638021662968
 20
35.27086716220056
 30
0.0
 40
100.5
 50
0.0
 51
79.97200072733548
  0
CIRCLE
  5
32D
  8
0
  6
CONTINUOUS
 62
     3
 10
148.2638021662968
 20
35.27086716220056
 30
0.0
 40
28.0
  0
ARC
  5
32E
  8
0
  6
CONTINUOUS
 62
     3
 10
148.2638021662968
 20
35.27086716220056
 30
0.0
 40
100.5
 50
100.0280179419992
 51
199.9719699156938
  0
ARC
  5
32F
  8
0
  6
CONTINUOUS
 62
     3
 10
148.2638021662968
 20
35.27086716220056
 30
0.0
 40
100.5
 50
340.0279992347693
 51
360.0
  0
ARC
  5
330
  8
0
  6
CONTINUOUS
 62
     3
 10
148.2638021662968
 20
35.27086716220056
 30
0.0
 40
100.5
 50
220.0279771124449
 51
319.9720042182204
  0
CIRCLE
  5
331
  8
0
  6
CONTINUOUS
 62
     3
 10
108.2638021662968
 20
108.7708671622006
 30
0.0
 40
9.0
  0
CIRCLE
  5
332
  8
0
  6
CONTINUOUS
 62
     3
 10
104.6109396174687
 20
-36.12015456631507
 30
0.0
 40
9.0
  0
CIRCLE
  5
333
  8
0
  6
CONTINUOUS
 62
     3
 10
231.916695232703
 20
33.16188507601892
 30
0.0
 40
9.0
  0
CIRCLE
  5
334
  8
0
  6
CONTINUOUS
 62
     3
 10
148.2638021662968
 20
87.77086716220056
 30
0.0
 40
8.0
  0
CIRCLE
  5
335
  8
0
  6
CONTINUOUS
 62
     3
 10
148.2638021662968
 20
117.7708671622006
 30
0.0
 40
8.0
  0
CIRCLE
  5
336
  8
0
  6
CONTINUOUS
 62
     3
 10
193.730171795203
 20
9.02086716220056
 30
0.0
 40
8.0
  0
CIRCLE
  5
337
  8
0
  6
CONTINUOUS
 62
     3
 10
219.710884685828
 20
-5.979129023102175
 30
0.0
 40
8.0
  0
CIRCLE
  5
338
  8
0
  6
CONTINUOUS
 62
     3
 10
102.7974630549687
 20
9.02086716220056
 30
0.0
 40
8.0
  0
CIRCLE
  5
339
  8
0
  6
CONTINUOUS
 62
     3
 10
76.81671964676553
 20
-5.979129023102175
 30
0.0
 40
8.0
  0
ARC
  5
33A
  8
0
  6
CONTINUOUS
 62
     3
 10
188.966988201453
 20
11.77086716220056
 30
0.0
 40
10.0
 50
96.86993654527122
 51
118.2117095504331
  0
ARC
  5
33B
  8
0
  6
CONTINUOUS
 62
     3
 10
148.2638021662968
 20
82.27086716220056
 30
0.0
 40
10.0
 50
216.8698752251494
 51
238.2116618906897
  0
ARC
  5
33C
  8
0
  6
CONTINUOUS
 62
     3
 10
148.2638021662968
 20
82.27086716220056
 30
0.0
 40
10.0
 50
301.788333100354
 51
323.1301026904213
  0
ARC
  5
33D
  8
0
  6
CONTINUOUS
 62
     3
 10
188.966988201453
 20
11.77086716220056
 30
0.0
 40
10.0
 50
181.7882751195364
 51
203.1300617850767
  0
ARC
  5
33E
  8
0
  6
CONTINUOUS
 62
     3
 10
107.5606161311405
 20
11.77086716220056
 30
0.0
 40
10.0
 50
61.78830228871236
 51
83.13008212406345
  0
ARC
  5
33F
  8
0
  6
CONTINUOUS
 62
     3
 10
107.5606161311405
 20
11.77086716220056
 30
0.0
 40
10.0
 50
336.8699178380414
 51
358.2117198715073
  0
CIRCLE
  5
340
  8
0
  6
CONTINUOUS
 62
     3
 10
108.2638021662968
 20
108.7708671622006
 30
0.0
 40
0.75
  0
CIRCLE
  5
341
  8
0
  6
CONTINUOUS
 62
     3
 10
108.2638021662968
 20
108.7708671622006
 30
0.0
 40
2.400000095367432
  0
CIRCLE
  5
342
  8
0
  6
CONTINUOUS
 62
     3
 10
108.2638021662968
 20
108.7708671622006
 30
0.0
 40
3.299999952316284
  0
CIRCLE
  5
343
  8
0
  6
CONTINUOUS
 62
     3
 10
231.916695232703
 20
33.16188507601892
 30
0.0
 40
0.75
  0
CIRCLE
  5
344
  8
0
  6
CONTINUOUS
 62
     3
 10
231.916695232703
 20
33.16188507601892
 30
0.0
 40
2.400000095367432
  0
CIRCLE
  5
345
  8
0
  6
CONTINUOUS
 62
     3
 10
231.916695232703
 20
33.16188507601892
 30
0.0
 40
3.299999952316284
  0
CIRCLE
  5
346
  8
0
  6
CONTINUOUS
 62
     3
 10
104.6109396174687
 20
-36.12015456631507
 30
0.0
 40
0.75
  0
CIRCLE
  5
347
  8
0
  6
CONTINUOUS
 62
     3
 10
104.6109396174687
 20
-36.12015456631507
 30
0.0
 40
2.400000095367432
  0
CIRCLE
  5
348
  8
0
  6
CONTINUOUS
 62
     3
 10
104.6109396174687
 20
-36.12015456631507
 30
0.0
 40
3.299999952316284
  0
CIRCLE
  5
349
  8
0
  6
CONTINUOUS
 62
     3
 10
148.2638021662968
 20
-9.72913283779944
 30
0.0
 40
2.0
  0
CIRCLE
  5
34A
  8
0
  6
CONTINUOUS
 62
     3
 10
109.292671795203
 20
57.77087479159509
 30
0.0
 40
2.0
  0
CIRCLE
  5
34B
  8
0
  6
CONTINUOUS
 62
     3
 10
187.2349325373905
 20
57.77085953280603
 30
0.0
 40
2.0
  0
CIRCLE
  5
34C
  8
0
  6
CONTINUOUS
 62
     3
 10
148.2638021662968
 20
35.27086716220056
 30
0.0
 40
26.0
  0
LINE
  5
34D
  8
0
  6
CONTINUOUS
 62
     3
 10
-160.2378885801534
 20
-67.22913283779944
 30
0.0
 11
-77.23788858015344
 21
-67.22913283779944
 31
0.0
  0
LINE
  5
34E
  8
0
  6
CONTINUOUS
 62
     3
 10
-160.2378885801534
 20
137.7708671622006
 30
0.0
 11
-73.23788476545617
 21
137.7708671622006
 31
0.0
  0
LINE
  5
34F
  8
0
  6
CONTINUOUS
 62
     3
 10
-75.23788858015344
 20
76.27086716220056
 30
0.0
 11
-75.23788858015344
 21
-65.22913283779944
 31
0.0
  0
LINE
  5
350
  8
0
  6
CONTINUOUS
 62
     3
 10
-73.23788476545617
 20
137.7708671622006
 30
0.0
 11
-73.23788476545617
 21
126.7708671622006
 31
0.0
  0
LINE
  5
351
  8
0
  6
CONTINUOUS
 62
     3
 10
-75.23788219643349
 20
-65.22913046962741
 30
0.0
 11
-77.23788431961249
 21
-67.22913259280641
 31
0.0
  0
LINE
  5
352
  8
0
  6
CONTINUOUS
 62
     3
 10
-156.9698069151144
 20
-8.729133851078402
 30
0.0
 11
-111.9697916563253
 21
-8.729133851078402
 31
0.0
  0
LINE
  5
353
  8
0
  6
CONTINUOUS
 62
     3
 10
-96.23788858015344
 20
1.270866208526243
 30
0.0
 11
-84.23788858015344
 21
1.270866208526243
 31
0.0
  0
LINE
  5
354
  8
0
  6
CONTINUOUS
 62
     3
 10
-84.23788858015344
 20
76.27086716220056
 30
0.0
 11
-84.23788858015344
 21
68.27086716220056
 31
0.0
  0
LINE
  5
355
  8
0
  6
CONTINUOUS
 62
     3
 10
-96.23788858015344
 20
4.770866208526243
 30
0.0
 11
-96.23788858015344
 21
-8.729133851078402
 31
0.0
  0
LINE
  5
356
  8
0
  6
CONTINUOUS
 62
     3
 10
-84.23788858015344
 20
-17.72913379147376
 30
0.0
 11
-75.23788858015344
 21
-17.72913379147376
 31
0.0
  0
LINE
  5
357
  8
0
  6
CONTINUOUS
 62
     3
 10
-126.7378885801534
 20
137.7708671622006
 30
0.0
 11
-126.7378885801534
 21
115.2152107290951
 31
0.0
  0
LINE
  5
358
  8
0
  6
CONTINUOUS
 62
     3
 10
-110.9697840269308
 20
79.27086716220056
 30
0.0
 11
-105.9697840269308
 21
79.27086716220056
 31
0.0
  0
LINE
  5
359
  8
0
  6
CONTINUOUS
 62
     3
 10
-84.23788858015344
 20
76.27086716220056
 30
0.0
 11
-73.23788476545617
 21
76.27086716220056
 31
0.0
  0
LINE
  5
35A
  8
0
  6
CONTINUOUS
 62
     3
 10
-94.73788858015344
 20
70.77086716220056
 30
0.0
 11
-84.23788858015344
 21
70.77086716220056
 31
0.0
  0
LINE
  5
35B
  8
0
  6
CONTINUOUS
 62
     3
 10
-105.3949079317139
 20
86.27086716220056
 30
0.0
 11
-94.73788858015344
 21
86.27086716220056
 31
0.0
  0
LINE
  5
35C
  8
0
  6
CONTINUOUS
 62
     3
 10
-94.73788858015344
 20
86.27086716220056
 30
0.0
 11
-94.73788858015344
 21
70.77086716220056
 31
0.0
  0
LINE
  5
35D
  8
0
  6
CONTINUOUS
 62
     3
 10
-88.23788858015344
 20
137.7708671622006
 30
0.0
 11
-88.23788858015344
 21
72.27086716220056
 31
0.0
  0
LINE
  5
35E
  8
0
  6
CONTINUOUS
 62
     3
 10
-88.23788858015344
 20
72.27086716220056
 30
0.0
 11
-84.23788858015344
 21
72.27086716220056
 31
0.0
  0
LINE
  5
35F
  8
0
  6
CONTINUOUS
 62
     3
 10
-81.23788858015344
 20
137.7708671622006
 30
0.0
 11
-81.23788858015344
 21
126.7708671622006
 31
0.0
  0
LINE
  5
360
  8
0
  6
CONTINUOUS
 62
     3
 10
-87.23788858015344
 20
126.7708671622006
 30
0.0
 11
-71.73788476545617
 21
126.7708671622006
 31
0.0
  0
LINE
  5
361
  8
0
  6
CONTINUOUS
 62
     3
 10
-87.23788858015344
 20
78.77086716220056
 30
0.0
 11
-71.73788476545617
 21
78.77086716220056
 31
0.0
  0
LINE
  5
362
  8
0
  6
CONTINUOUS
 62
     3
 10
-87.23788858015344
 20
126.7708671622006
 30
0.0
 11
-87.23788858015344
 21
78.77086716220056
 31
0.0
  0
LINE
  5
363
  8
0
  6
CONTINUOUS
 62
     3
 10
-71.73788476545617
 20
126.7708671622006
 30
0.0
 11
-71.73788476545617
 21
122.7708671622006
 31
0.0
  0
LINE
  5
364
  8
0
  6
CONTINUOUS
 62
     3
 10
-81.23788858015344
 20
78.77086716220056
 30
0.0
 11
-81.23788858015344
 21
76.27086716220056
 31
0.0
  0
LINE
  5
365
  8
0
  6
CONTINUOUS
 62
     3
 10
-73.23788476545617
 20
78.77086716220056
 30
0.0
 11
-73.23788476545617
 21
76.27086716220056
 31
0.0
  0
LINE
  5
366
  8
0
  6
CONTINUOUS
 62
     3
 10
-71.73788476545617
 20
82.77086716220056
 30
0.0
 11
-71.73788476545617
 21
78.77086716220056
 31
0.0
  0
LINE
  5
367
  8
0
  6
CONTINUOUS
 62
     3
 10
-64.23788476545617
 20
125.7708671622006
 30
0.0
 11
-64.23788476545617
 21
109.7708671622006
 31
0.0
  0
LINE
  5
368
  8
0
  6
CONTINUOUS
 62
     3
 10
-64.23788476545617
 20
95.77086716220056
 30
0.0
 11
-64.23788476545617
 21
79.77086716220056
 31
0.0
  0
LINE
  5
369
  8
0
  6
CONTINUOUS
 62
     3
 10
-87.23788858015344
 20
82.77086716220056
 30
0.0
 11
-64.23788476545617
 21
82.77086716220056
 31
0.0
  0
LINE
  5
36A
  8
0
  6
CONTINUOUS
 62
     3
 10
-87.23788858015344
 20
92.77086716220056
 30
0.0
 11
-64.23788476545617
 21
92.77086716220056
 31
0.0
  0
LINE
  5
36B
  8
0
  6
CONTINUOUS
 62
     3
 10
-87.23788858015344
 20
122.7708671622006
 30
0.0
 11
-64.23788476545617
 21
122.7708671622006
 31
0.0
  0
LINE
  5
36C
  8
0
  6
CONTINUOUS
 62
     3
 10
-87.23788858015344
 20
112.7708671622006
 30
0.0
 11
-64.23788476545617
 21
112.7708671622006
 31
0.0
  0
LINE
  5
36D
  8
0
  6
CONTINUOUS
 62
     3
 10
-84.23788858015344
 20
122.7708671622006
 30
0.0
 11
-84.23788858015344
 21
112.7708671622006
 31
0.0
  0
LINE
  5
36E
  8
0
  6
CONTINUOUS
 62
     3
 10
-84.23788858015344
 20
92.77086716220056
 30
0.0
 11
-84.23788858015344
 21
82.77086716220056
 31
0.0
  0
LINE
  5
36F
  8
0
  6
CONTINUOUS
 62
     3
 10
-157.9697916563253
 20
78.27086716220056
 30
0.0
 11
-157.9697916563253
 21
68.77086716220056
 31
0.0
  0
LINE
  5
370
  8
0
  6
CONTINUOUS
 62
     3
 10
-104.9697916563253
 20
78.27086716220056
 30
0.0
 11
-104.9697916563253
 21
65.77086716220056
 31
0.0
  0
LINE
  5
371
  8
0
  6
CONTINUOUS
 62
     3
 10
-84.46979165632531
 20
65.77086716220056
 30
0.0
 11
-84.46979165632531
 21
4.770866208526243
 31
0.0
  0
LINE
  5
372
  8
0
  6
CONTINUOUS
 62
     3
 10
-132.9697916563253
 20
7.270866208526243
 30
0.0
 11
-84.46978402693078
 21
7.270866208526243
 31
0.0
  0
LINE
  5
373
  8
0
  6
CONTINUOUS
 62
     3
 10
-132.9697916563253
 20
63.27086716220056
 30
0.0
 11
-84.46978402693078
 21
63.27086716220056
 31
0.0
  0
LINE
  5
374
  8
0
  6
CONTINUOUS
 62
     3
 10
-104.9697916563253
 20
4.770866208526243
 30
0.0
 11
-104.9697916563253
 21
-7.729133880880724
 31
0.0
  0
LINE
  5
375
  8
0
  6
CONTINUOUS
 62
     3
 10
-132.9697916563253
 20
73.27086716220056
 30
0.0
 11
-132.9697916563253
 21
63.27086716220056
 31
0.0
  0
LINE
  5
376
  8
0
  6
CONTINUOUS
 62
     3
 10
-140.9697916563253
 20
-2.729133791473757
 30
0.0
 11
-132.9697916563253
 21
-2.729133791473757
 31
0.0
  0
LINE
  5
377
  8
0
  6
CONTINUOUS
 62
     3
 10
-140.9697916563253
 20
73.27086716220056
 30
0.0
 11
-132.9697916563253
 21
73.27086716220056
 31
0.0
  0
LINE
  5
378
  8
0
  6
CONTINUOUS
 62
     3
 10
-140.9697916563253
 20
75.27086716220056
 30
0.0
 11
-140.9697916563253
 21
68.77086716220056
 31
0.0
  0
LINE
  5
379
  8
0
  6
CONTINUOUS
 62
     3
 10
-157.9697916563253
 20
75.27086716220056
 30
0.0
 11
-140.9697916563253
 21
75.27086716220056
 31
0.0
  0
LINE
  5
37A
  8
0
  6
CONTINUOUS
 62
     3
 10
-157.9697916563253
 20
-4.729133791473757
 30
0.0
 11
-152.9697916563253
 21
-4.729133791473757
 31
0.0
  0
LINE
  5
37B
  8
0
  6
CONTINUOUS
 62
     3
 10
-140.9697916563253
 20
1.770866208526243
 30
0.0
 11
-140.9697916563253
 21
-4.729133791473757
 31
0.0
  0
LINE
  5
37C
  8
0
  6
CONTINUOUS
 62
     3
 10
-157.9697916563253
 20
1.770866208526243
 30
0.0
 11
-157.9697916563253
 21
-7.729133880880724
 31
0.0
  0
LINE
  5
37D
  8
0
  6
CONTINUOUS
 62
     3
 10
-182.9697916563253
 20
67.77085953280603
 30
0.0
 11
-182.9697916563253
 21
2.770866208526243
 31
0.0
  0
LINE
  5
37E
  8
0
  6
CONTINUOUS
 62
     3
 10
-181.9697916563253
 20
1.770866208526243
 30
0.0
 11
-140.9697916563253
 21
1.770866208526243
 31
0.0
  0
LINE
  5
37F
  8
0
  6
CONTINUOUS
 62
     3
 10
-181.9697916563253
 20
68.77086716220056
 30
0.0
 11
-140.9697916563253
 21
68.77086716220056
 31
0.0
  0
LINE
  5
380
  8
0
  6
CONTINUOUS
 62
     3
 10
-132.9697916563253
 20
7.270866208526243
 30
0.0
 11
-132.9697916563253
 21
-1.729124164328383
 31
0.0
  0
LINE
  5
381
  8
0
  6
CONTINUOUS
 62
     3
 10
-166.9697916563253
 20
65.52086716220056
 30
0.0
 11
-166.9697916563253
 21
5.020866208526243
 31
0.0
  0
LINE
  5
382
  8
0
  6
CONTINUOUS
 62
     3
 10
-162.9697916563253
 20
65.52086716220056
 30
0.0
 11
-162.9697916563253
 21
5.020866208526243
 31
0.0
  0
LINE
  5
383
  8
0
  6
CONTINUOUS
 62
     3
 10
-131.9697916563253
 20
40.77086716220056
 30
0.0
 11
-131.9697916563253
 21
29.77086716220056
 31
0.0
  0
LINE
  5
384
  8
0
  6
CONTINUOUS
 62
     3
 10
-131.9697916563253
 20
29.77086716220056
 30
0.0
 11
-126.9697916563253
 21
29.77086716220056
 31
0.0
  0
LINE
  5
385
  8
0
  6
CONTINUOUS
 62
     3
 10
-162.9697916563253
 20
61.27086716220056
 30
0.0
 11
-126.9697916563253
 21
61.27086716220056
 31
0.0
  0
LINE
  5
386
  8
0
  6
CONTINUOUS
 62
     3
 10
-162.9697916563253
 20
9.270865254851927
 30
0.0
 11
-126.9697916563253
 21
9.270865254851927
 31
0.0
  0
LINE
  5
387
  8
0
  6
CONTINUOUS
 62
     3
 10
-126.9697916563253
 20
29.77086716220056
 30
0.0
 11
-126.9697916563253
 21
7.270866208526243
 31
0.0
  0
LINE
  5
388
  8
0
  6
CONTINUOUS
 62
     3
 10
-182.9697916563253
 20
6.090865903350462
 30
0.0
 11
-166.9697916563253
 21
6.090865903350462
 31
0.0
  0
LINE
  5
389
  8
0
  6
CONTINUOUS
 62
     3
 10
-182.9697916563253
 20
64.45086746737634
 30
0.0
 11
-166.9697916563253
 21
64.45086746737634
 31
0.0
  0
LINE
  5
38A
  8
0
  6
CONTINUOUS
 62
     3
 10
-166.9697916563253
 20
5.020866208526243
 30
0.0
 11
-162.9697916563253
 21
5.020866208526243
 31
0.0
  0
LINE
  5
38B
  8
0
  6
CONTINUOUS
 62
     3
 10
-166.9697916563253
 20
65.52086716220056
 30
0.0
 11
-162.9697916563253
 21
65.52086716220056
 31
0.0
  0
LINE
  5
38C
  8
0
  6
CONTINUOUS
 62
     3
 10
-131.9697916563253
 20
40.77086716220056
 30
0.0
 11
-126.9697916563253
 21
40.77086716220056
 31
0.0
  0
LINE
  5
38D
  8
0
  6
CONTINUOUS
 62
     3
 10
-126.9697916563253
 20
63.27086716220056
 30
0.0
 11
-126.9697916563253
 21
40.77086716220056
 31
0.0
  0
LINE
  5
38E
  8
0
  6
CONTINUOUS
 62
     3
 10
-181.9697747531043
 20
68.77086280192016
 30
0.0
 11
-182.9697792707228
 21
67.77085440676656
 31
0.0
  0
LINE
  5
38F
  8
0
  6
CONTINUOUS
 62
     3
 10
-182.9697992597006
 20
2.770865516957841
 30
0.0
 11
-181.9697981981111
 21
1.77086445536834
 31
0.0
  0
LINE
  5
390
  8
0
  6
CONTINUOUS
 62
     3
 10
-105.9697667448272
 20
79.27086513225733
 30
0.0
 11
-104.9697656832377
 21
78.27086407066783
 31
0.0
  0
LINE
  5
391
  8
0
  6
CONTINUOUS
 62
     3
 10
-157.9697700225648
 20
78.2708512580261
 30
0.0
 11
-156.9697689609753
 21
79.2708523196156
 31
0.0
  0
LINE
  5
392
  8
0
  6
CONTINUOUS
 62
     3
 10
-157.9697996939456
 20
-7.729129445342366
 30
0.0
 11
-156.9697986323561
 21
-8.729130506931867
 31
0.0
  0
LINE
  5
393
  8
0
  6
CONTINUOUS
 62
     3
 10
-104.9697650088882
 20
-7.7291402349354
 30
0.0
 11
-105.9697606756811
 21
-8.729135901728384
 31
0.0
  0
LINE
  5
394
  8
0
  6
CONTINUOUS
 62
     3
 10
-148.9697916563253
 20
1.770866208526243
 30
0.0
 11
-148.9697916563253
 21
-8.729133851078402
 31
0.0
  0
LINE
  5
395
  8
0
  6
CONTINUOUS
 62
     3
 10
-152.9697916563253
 20
1.770866208526243
 30
0.0
 11
-152.9697916563253
 21
-8.729133851078402
 31
0.0
  0
LINE
  5
396
  8
0
  6
CONTINUOUS
 62
     3
 10
-148.9697916563253
 20
-4.729133791473757
 30
0.0
 11
-140.9697916563253
 21
-4.729133791473757
 31
0.0
  0
LINE
  5
397
  8
0
  6
CONTINUOUS
 62
     3
 10
-152.9697916563253
 20
-0.7291337914737568
 30
0.0
 11
-148.9697916563253
 21
-0.7291337914737568
 31
0.0
  0
LINE
  5
398
  8
0
  6
CONTINUOUS
 62
     3
 10
-95.73788858015344
 20
68.27086716220056
 30
0.0
 11
-95.73788858015344
 21
65.77086716220056
 31
0.0
  0
LINE
  5
399
  8
0
  6
CONTINUOUS
 62
     3
 10
-95.73788858015344
 20
2.270866208526243
 30
0.0
 11
-84.23788858015344
 21
2.270866208526243
 31
0.0
  0
LINE
  5
39A
  8
0
  6
CONTINUOUS
 62
     3
 10
-95.73788858015344
 20
68.27086716220056
 30
0.0
 11
-84.23788858015344
 21
68.27086716220056
 31
0.0
  0
LINE
  5
39B
  8
0
  6
CONTINUOUS
 62
     3
 10
-84.23788858015344
 20
2.270866208526243
 30
0.0
 11
-84.23788858015344
 21
-17.72913379147376
 31
0.0
  0
LINE
  5
39C
  8
0
  6
CONTINUOUS
 62
     3
 10
-95.73788858015344
 20
4.770866208526243
 30
0.0
 11
-95.73788858015344
 21
2.270866208526243
 31
0.0
  0
LINE
  5
39D
  8
0
  6
CONTINUOUS
 62
     3
 10
-104.9697840269308
 20
4.770866208526243
 30
0.0
 11
-75.23788858015344
 21
4.770866208526243
 31
0.0
  0
LINE
  5
39E
  8
0
  6
CONTINUOUS
 62
     3
 10
-104.9697840269308
 20
65.77086716220056
 30
0.0
 11
-75.23788858015344
 21
65.77086716220056
 31
0.0
  0
LINE
  5
39F
  8
0
  6
CONTINUOUS
 62
     3
 10
-84.23788858015344
 20
73.77086716220056
 30
0.0
 11
-82.73788858015344
 21
73.77086716220056
 31
0.0
  0
LINE
  5
3A0
  8
0
  6
CONTINUOUS
 62
     3
 10
-82.73788915891676
 20
73.77087087489572
 30
0.0
 11
-75.23788756985125
 21
69.44074341692699
 31
0.0
  0
LINE
  5
3A1
  8
0
  6
CONTINUOUS
 62
     3
 10
-111.9697916563253
 20
-8.729133851078402
 30
0.0
 11
-96.23788858015344
 21
-8.729133851078402
 31
0.0
  0
LINE
  5
3A2
  8
0
  6
CONTINUOUS
 62
     3
 10
-84.23788858015344
 20
-7.729133880880724
 30
0.0
 11
-75.23788858015344
 21
-7.729133880880724
 31
0.0
  0
LINE
  5
3A3
  8
0
  6
CONTINUOUS
 62
     3
 10
-84.23788858015344
 20
-11.72913379147376
 30
0.0
 11
-75.23788858015344
 21
-11.72913379147376
 31
0.0
  0
LINE
  5
3A4
  8
0
  6
CONTINUOUS
 62
     3
 10
-160.2378885801534
 20
137.7708671622006
 30
0.0
 11
-160.2378885801534
 21
70.27086716220056
 31
0.0
  0
LINE
  5
3A5
  8
0
  6
CONTINUOUS
 62
     3
 10
-160.2378885801534
 20
0.6042001776424542
 30
0.0
 11
-160.2378885801534
 21
-67.22913283779944
 31
0.0
  0
LINE
  5
3A6
  8
0
  6
CONTINUOUS
 62
     3
 10
-156.0378916319112
 20
-8.729133851078402
 30
0.0
 11
-156.0378916319112
 21
-59.72913283779944
 31
0.0
  0
LINE
  5
3A7
  8
0
  6
CONTINUOUS
 62
     3
 10
-156.0378916319112
 20
130.2708671622006
 30
0.0
 11
-156.0378916319112
 21
79.27086716220056
 31
0.0
  0
LINE
  5
3A8
  8
0
  6
CONTINUOUS
 62
     3
 10
-160.2378885801534
 20
130.2708671622006
 30
0.0
 11
-156.0378916319112
 21
130.2708671622006
 31
0.0
  0
LINE
  5
3A9
  8
0
  6
CONTINUOUS
 62
     3
 10
-160.2378885801534
 20
-59.72913283779944
 30
0.0
 11
-156.0378916319112
 21
-59.72913283779944
 31
0.0
  0
LINE
  5
3AA
  8
0
  6
CONTINUOUS
 62
     3
 10
-156.9697611387472
 20
79.27086716220056
 30
0.0
 11
-110.9697840269308
 21
79.27086716220056
 31
0.0
  0
LINE
  5
3AB
  8
0
  6
CONTINUOUS
 62
     3
 10
-132.9697916563253
 20
-0.4791337914737568
 30
0.0
 11
-132.9697916563253
 21
-2.729133791473757
 31
0.0
  0
LINE
  5
3AC
  8
0
  6
CONTINUOUS
 62
     3
 10
-132.9697967213327
 20
-1.729129229296902
 30
0.0
 11
-133.9698016604364
 21
-2.729126497665945
 31
0.0
  0
LINE
  5
3AD
  8
0
  6
CONTINUOUS
 62
     3
 10
-139.9697861381881
 20
-2.729133626210839
 30
0.0
 11
-140.969786272546
 21
-1.729131553095883
 31
0.0
  0
LINE
  5
3AE
  8
0
  6
CONTINUOUS
 62
     3
 10
-140.9697884230462
 20
72.27087243344813
 30
0.0
 11
-139.9697742958841
 21
73.27087130335231
 31
0.0
  0
LINE
  5
3AF
  8
0
  6
CONTINUOUS
 62
     3
 10
-133.9697877027889
 20
73.27086752926466
 30
0.0
 11
-132.9697866411994
 21
72.27086646767516
 31
0.0
  0
LINE
  5
3B0
  8
0
  6
CONTINUOUS
 62
     3
 10
-71.73788476545617
 20
112.7708671622006
 30
0.0
 11
-71.73788476545617
 21
92.77086716220056
 31
0.0
  0
LINE
  5
3B1
  8
0
  6
CONTINUOUS
 62
     3
 10
-54.23788476545617
 20
125.7708671622006
 30
0.0
 11
-54.23788476545617
 21
109.7708671622006
 31
0.0
  0
LINE
  5
3B2
  8
0
  6
CONTINUOUS
 62
     3
 10
-54.23788476545617
 20
95.77086716220056
 30
0.0
 11
-54.23788476545617
 21
79.77086716220056
 31
0.0
  0
LINE
  5
3B3
  8
0
  6
CONTINUOUS
 62
     3
 10
-64.23788476545617
 20
79.77086716220056
 30
0.0
 11
-54.23788476545617
 21
79.77086716220056
 31
0.0
  0
LINE
  5
3B4
  8
0
  6
CONTINUOUS
 62
     3
 10
-64.23788476545617
 20
95.77086716220056
 30
0.0
 11
-54.23788476545617
 21
95.77086716220056
 31
0.0
  0
LINE
  5
3B5
  8
0
  6
CONTINUOUS
 62
     3
 10
-64.23788476545617
 20
109.7708671622006
 30
0.0
 11
-54.23788476545617
 21
109.7708671622006
 31
0.0
  0
LINE
  5
3B6
  8
0
  6
CONTINUOUS
 62
     3
 10
-64.23788476545617
 20
125.7708671622006
 30
0.0
 11
-54.23788476545617
 21
125.7708671622006
 31
0.0
  0
LINE
  5
3B7
  8
0
  6
CENTER
 62
     7
 10
103.8393950766956
 20
60.91933542377572
 30
0.0
 11
115.3548466099886
 21
54.27088711572237
 31
0.0
  0
LINE
  5
3B8
  8
0
  6
CENTER
 62
     7
 10
181.1052728867411
 20
44.07071123842242
 30
0.0
 11
227.1799312057732
 21
56.41637740845125
 31
0.0
  0
LINE
  5
3B9
  8
0
  6
CENTER
 62
     7
 10
69.34766514708605
 20
56.41636257680712
 30
0.0
 11
115.4223308355473
 21
44.07069443214591
 31
0.0
  0
LINE
  5
3BA
  8
0
  6
CENTER
 62
     7
 10
172.3054510594782
 20
59.31249234591833
 30
0.0
 11
206.0344446300522
 21
93.0414830733509
 31
0.0
  0
LINE
  5
3BB
  8
0
  6
CENTER
 62
     7
 10
90.49321365204537
 20
93.04151570555081
 30
0.0
 11
124.2222080655563
 21
59.31252413518128
 31
0.0
  0
LINE
  5
3BC
  8
0
  6
CENTER
 62
     7
 10
127.1182951029652
 20
-43.64526758259324
 30
0.0
 11
139.4639638693063
 21
2.429389815260223
 31
0.0
  0
LINE
  5
3BD
  8
0
  6
CENTER
 62
     7
 10
157.0636164927311
 20
2.429381678466783
 30
0.0
 11
169.4092845185849
 21
-43.64527295585076
 31
0.0
  0
LINE
  5
3BE
  8
0
  6
CENTER
 62
     7
 10
93.26380216629678
 20
108.7708671622006
 30
0.0
 11
123.2638021662968
 21
108.7708671622006
 31
0.0
  0
LINE
  5
3BF
  8
0
  6
CENTER
 62
     7
 10
224.4167300597972
 20
20.17147521112129
 30
0.0
 11
239.4167318479366
 21
46.15223685834572
 31
0.0
  0
LINE
  5
3C0
  8
0
  6
CENTER
 62
     7
 10
97.11096289119161
 20
-23.1297558875538
 30
0.0
 11
112.110964679331
 21
-49.11051753477823
 31
0.0
  0
LINE
  5
3C1
  8
0
  6
CENTER
 62
     7
 10
108.2638021662968
 20
123.7708671622006
 30
0.0
 11
108.2638021662968
 21
93.77086716220056
 31
0.0
  0
LINE
  5
3C2
  8
0
  6
CENTER
 62
     7
 10
91.62056948359469
 20
-43.62016249377034
 30
0.0
 11
117.6013329189585
 21
-28.62016338784001
 31
0.0
  0
LINE
  5
3C3
  8
0
  6
CENTER
 62
     7
 10
218.9263209567319
 20
40.66189646137373
 30
0.0
 11
244.9070843920957
 21
25.6618973554434
 31
0.0
  0
LINE
  5
3C4
  8
0
  6
CENTER
 62
     7
 10
136.2638021662968
 20
117.7708671622006
 30
0.0
 11
160.2638021662968
 21
117.7708671622006
 31
0.0
  0
LINE
  5
3C5
  8
0
  6
CENTER
 62
     7
 10
136.2638021662968
 20
87.77086716220056
 30
0.0
 11
160.2638021662968
 21
87.77086716220056
 31
0.0
  0
LINE
  5
3C6
  8
0
  6
CENTER
 62
     7
 10
70.81672558440306
 20
4.413179126216804
 30
0.0
 11
82.81672320021681
 21
-16.37142358431338
 31
0.0
  0
LINE
  5
3C7
  8
0
  6
CENTER
 62
     7
 10
213.7109487191972
 20
-16.37147790472936
 30
0.0
 11
225.7109501497087
 21
4.413131413050181
 31
0.0
  0
LINE
  5
3C8
  8
0
  6
CENTER
 62
     7
 10
187.7302023307637
 20
-1.371449687592573
 30
0.0
 11
199.7302075759729
 21
19.41316623743633
 31
0.0
  0
LINE
  5
3C9
  8
0
  6
CENTER
 62
     7
 10
96.79747592447762
 20
19.41316998133603
 30
0.0
 11
108.7974716329425
 21
-1.371429425569474
 31
0.0
  0
LINE
  5
3CA
  8
0
  6
CENTER
 62
     7
 10
0.4201366658739403
 20
-50.08721871674986
 30
0.0
 11
50.07280964287332
 21
-21.42023777467834
 31
0.0
  0
LINE
  5
3CB
  8
0
  6
CENTER
 62
     7
 10
53.76898177467018
 20
-19.28574988422285
 30
0.0
 11
148.263823695215
 21
35.27086650811425
 31
0.0
  0
LINE
  5
3CC
  8
0
  6
CENTER
 62
     7
 10
148.2638021662968
 20
146.520859532806
 30
0.0
 11
148.2638021662968
 21
-75.03705520108069
 31
0.0
  0
LINE
  5
3CD
  8
0
  6
CENTER
 62
     7
 10
148.2638400571153
 20
35.27087298942247
 30
0.0
 11
243.0034045999594
 21
-19.42703405916591
 31
0.0
  0
LINE
  5
3CE
  8
0
  6
CENTER
 62
     7
 10
181.1727774988428
 20
54.27085774623193
 30
0.0
 11
239.4242635188745
 21
87.90236516491891
 31
0.0
  0
ARC
  5
3CF
  8
0
  6
CENTER
 62
     7
 10
148.2638021662968
 20
35.27086716220056
 30
0.0
 40
45.0
 50
0.0
 51
59.04074258185884
  0
ARC
  5
3D0
  8
0
  6
CENTER
 62
     7
 10
148.2638021662968
 20
35.27086716220056
 30
0.0
 40
45.0
 50
120.9592760874758
 51
179.0407595815414
  0
ARC
  5
3D1
  8
0
  6
CENTER
 62
     7
 10
148.2638021662968
 20
35.27086716220056
 30
0.0
 40
45.0
 50
240.9592420881107
 51
299.0407460727438
  0
ARC
  5
3D2
  8
0
  6
CENTER
 62
     7
 10
148.2638021662968
 20
35.27086716220056
 30
0.0
 40
66.69999694824219
 50
2.087582219573871
 51
57.91241582154024
  0
ARC
  5
3D3
  8
0
  6
CENTER
 62
     7
 10
148.2638021662968
 20
35.27086716220056
 30
0.0
 40
66.69999694824219
 50
122.0876096779836
 51
177.912439651412
  0
ARC
  5
3D4
  8
0
  6
CENTER
 62
     7
 10
148.2638021662968
 20
35.27086716220056
 30
0.0
 40
66.69999694824219
 50
242.0875620182401
 51
297.9124193124252
  0
LINE
  5
3D5
  8
0
  6
CENTER
 62
     7
 10
28.36941587479288
 20
35.27086716220056
 30
0.0
 11
264.7027670100468
 21
35.27086716220056
 31
0.0
  0
LINE
  5
3D6
  8
0
  6
CENTER
 62
     7
 10
-150.9697916563253
 20
3.56027203128015
 30
0.0
 11
-150.9697916563253
 21
-11.6593263705381
 31
0.0
  0
LINE
  5
3D7
  8
0
  6
CENTER
 62
     7
 10
-98.90454507429406
 20
-9.729133910683046
 30
0.0
 11
-70.57121301252649
 21
-9.729133910683046
 31
0.0
  0
LINE
  5
3D8
  8
0
  6
CENTER
 62
     7
 10
-176.9045450742941
 20
-31.40413779690589
 30
0.0
 11
-93.14838052351281
 21
-31.40413779690589
 31
0.0
  0
LINE
  5
3D9
  8
0
  6
CENTER
 62
     7
 10
-90.57122445661828
 20
117.7708671622006
 30
0.0
 11
-49.14713311750695
 21
117.7708671622006
 31
0.0
  0
LINE
  5
3DA
  8
0
  6
CENTER
 62
     7
 10
-91.23788858015344
 20
87.77086716220056
 30
0.0
 11
-49.14713311750695
 21
87.77086716220056
 31
0.0
  0
LINE
  5
3DB
  8
0
  6
CENTER
 62
     7
 10
-190.2378885801534
 20
35.27086716220056
 30
0.0
 11
-120.4149813684119
 21
35.27086716220056
 31
0.0
  0
LINE
  5
3DC
  8
0
  6
CENTER
 62
     7
 10
-113.4818336725683
 20
35.27086716220056
 30
0.0
 11
-70.64349008161828
 21
35.27086716220056
 31
0.0
  0
LINE
  5
3DD
  8
0
  6
CONTINUOUS
 62
     4
 10
14.16061207317847
 20
-37.36213463304743
 30
0.0
 11
34.94522282146949
 21
-25.36213534830317
 31
0.0
  0
LINE
  5
3DE
  8
0
  6
CONTINUOUS
 62
     4
 10
18.31064328056021
 20
-44.5501488329618
 30
0.0
 11
39.09525485475746
 21
-32.5501490713804
 31
0.0
  0
LINE
  5
3DF
  8
0
  6
CONTINUOUS
 62
     4
 10
156.2638021662968
 20
77.77086716220056
 30
0.0
 11
164.7638021662968
 21
77.77086716220056
 31
0.0
  0
LINE
  5
3E0
  8
0
  6
CONTINUOUS
 62
     4
 10
131.7638021662968
 20
77.77086716220056
 30
0.0
 11
140.2638021662968
 21
77.77086716220056
 31
0.0
  0
LINE
  5
3E1
  8
0
  6
CONTINUOUS
 62
     4
 10
156.2638021662968
 20
136.2708747915951
 30
0.0
 11
164.7638021662968
 21
136.2708747915951
 31
0.0
  0
LINE
  5
3E2
  8
0
  6
CONTINUOUS
 62
     4
 10
131.7638021662968
 20
136.2708747915951
 30
0.0
 11
140.2638021662968
 21
136.2708747915951
 31
0.0
  0
LINE
  5
3E3
  8
0
  6
CONTINUOUS
 62
     4
 10
131.7638021662968
 20
79.27086716220056
 30
0.0
 11
140.2638021662968
 21
79.27086716220056
 31
0.0
  0
LINE
  5
3E4
  8
0
  6
CONTINUOUS
 62
     4
 10
131.7638021662968
 20
80.77086716220056
 30
0.0
 11
140.2638021662968
 21
80.77086716220056
 31
0.0
  0
LINE
  5
3E5
  8
0
  6
CONTINUOUS
 62
     4
 10
131.7638021662968
 20
82.27086716220056
 30
0.0
 11
140.2638021662968
 21
82.27086716220056
 31
0.0
  0
LINE
  5
3E6
  8
0
  6
CONTINUOUS
 62
     4
 10
131.7638021662968
 20
83.77086716220056
 30
0.0
 11
140.2638021662968
 21
83.77086716220056
 31
0.0
  0
LINE
  5
3E7
  8
0
  6
CONTINUOUS
 62
     4
 10
131.7638021662968
 20
85.27086716220056
 30
0.0
 11
139.558525677039
 21
85.27086716220056
 31
0.0
  0
LINE
  5
3E8
  8
0
  6
CONTINUOUS
 62
     4
 10
156.2638021662968
 20
79.27086716220056
 30
0.0
 11
164.7638021662968
 21
79.27086716220056
 31
0.0
  0
LINE
  5
3E9
  8
0
  6
CONTINUOUS
 62
     4
 10
156.2638021662968
 20
80.77086716220056
 30
0.0
 11
164.7638021662968
 21
80.77086716220056
 31
0.0
  0
LINE
  5
3EA
  8
0
  6
CONTINUOUS
 62
     4
 10
156.2638021662968
 20
82.27086716220056
 30
0.0
 11
164.7638021662968
 21
82.27086716220056
 31
0.0
  0
LINE
  5
3EB
  8
0
  6
CONTINUOUS
 62
     4
 10
156.2638021662968
 20
83.77086716220056
 30
0.0
 11
164.7638021662968
 21
83.77086716220056
 31
0.0
  0
LINE
  5
3EC
  8
0
  6
CONTINUOUS
 62
     4
 10
157.5205465510624
 20
85.27086716220056
 30
0.0
 11
164.7638021662968
 21
85.27086716220056
 31
0.0
  0
LINE
  5
3ED
  8
0
  6
CONTINUOUS
 62
     4
 10
156.2638021662968
 20
134.7708747915951
 30
0.0
 11
164.7638021662968
 21
134.7708747915951
 31
0.0
  0
LINE
  5
3EE
  8
0
  6
CONTINUOUS
 62
     4
 10
156.2638021662968
 20
133.2708747915951
 30
0.0
 11
164.7638021662968
 21
133.2708747915951
 31
0.0
  0
LINE
  5
3EF
  8
0
  6
CONTINUOUS
 62
     4
 10
156.2638021662968
 20
131.7708747915951
 30
0.0
 11
164.7638021662968
 21
131.7708747915951
 31
0.0
  0
LINE
  5
3F0
  8
0
  6
CONTINUOUS
 62
     4
 10
156.2638021662968
 20
130.2708747915951
 30
0.0
 11
164.7638021662968
 21
130.2708747915951
 31
0.0
  0
LINE
  5
3F1
  8
0
  6
CONTINUOUS
 62
     4
 10
156.2638021662968
 20
128.7708747915951
 30
0.0
 11
164.7638021662968
 21
128.7708747915951
 31
0.0
  0
LINE
  5
3F2
  8
0
  6
CONTINUOUS
 62
     4
 10
131.7638021662968
 20
134.7708747915951
 30
0.0
 11
140.2638021662968
 21
134.7708747915951
 31
0.0
  0
LINE
  5
3F3
  8
0
  6
CONTINUOUS
 62
     4
 10
131.7638021662968
 20
133.2708747915951
 30
0.0
 11
140.2638021662968
 21
133.2708747915951
 31
0.0
  0
LINE
  5
3F4
  8
0
  6
CONTINUOUS
 62
     4
 10
131.7638021662968
 20
131.7708747915951
 30
0.0
 11
140.2638021662968
 21
131.7708747915951
 31
0.0
  0
LINE
  5
3F5
  8
0
  6
CONTINUOUS
 62
     4
 10
131.7638021662968
 20
130.2708747915951
 30
0.0
 11
140.2638021662968
 21
130.2708747915951
 31
0.0
  0
LINE
  5
3F6
  8
0
  6
CONTINUOUS
 62
     4
 10
131.7638021662968
 20
128.7708747915951
 30
0.0
 11
140.2638021662968
 21
128.7708747915951
 31
0.0
  0
LINE
  5
3F7
  8
0
  6
CONTINUOUS
 62
     4
 10
39.54095822016785
 20
-31.32219112770513
 30
0.0
 11
41.85037562403475
 21
-27.32216339695773
 31
0.0
  0
LINE
  5
3F8
  8
0
  6
CONTINUOUS
 62
     4
 10
41.85036909134561
 20
-27.3221656747135
 30
0.0
 11
46.46917402298624
 21
-27.3221656747135
 31
0.0
  0
LINE
  5
3F9
  8
0
  6
CONTINUOUS
 62
     4
 10
39.25228940994913
 20
-28.8221656747135
 30
0.0
 11
47.33519804032022
 21
-28.8221656747135
 31
0.0
  0
LINE
  5
3FA
  8
0
  6
CONTINUOUS
 62
     4
 10
38.96359312088663
 20
-30.3221656747135
 30
0.0
 11
48.20122205765421
 21
-30.3221656747135
 31
0.0
  0
LINE
  5
3FB
  8
0
  6
CONTINUOUS
 62
     4
 10
39.82961713822061
 20
-31.8221656747135
 30
0.0
 11
46.05613767655069
 21
-31.8221656747135
 31
0.0
  0
LINE
  5
3FC
  8
0
  6
CONTINUOUS
 62
     4
 10
40.6956411555546
 20
-33.3221656747135
 30
0.0
 11
43.45806180985147
 21
-33.3221656747135
 31
0.0
  0
LINE
  5
3FD
  8
0
  6
CONTINUOUS
 62
     4
 10
40.4069832885686
 20
-32.82219165476197
 30
0.0
 11
44.44845179460297
 21
-25.82216382522742
 31
0.0
  0
LINE
  5
3FE
  8
0
  6
CONTINUOUS
 62
     4
 10
41.27300931064377
 20
-34.32219053000647
 30
0.0
 11
45.89182564093549
 21
-26.32216707237578
 31
0.0
  0
LINE
  5
3FF
  8
0
  6
CONTINUOUS
 62
     4
 10
43.64460306285577
 20
-33.21446996008619
 30
0.0
 11
46.75785070933624
 21
-27.82216759943262
 31
0.0
  0
LINE
  5
400
  8
0
  6
CONTINUOUS
 62
     4
 10
46.24267911421468
 20
-31.71447059483242
 30
0.0
 11
47.62387577773698
 21
-29.32216812648946
 31
0.0
  0
LINE
  5
401
  8
0
  6
CONTINUOUS
 62
     4
 10
44.44844495804483
 20
-25.8221656747135
 30
0.0
 11
45.60314619095499
 21
-25.8221656747135
 31
0.0
  0
LINE
  5
402
  8
0
  6
CONTINUOUS
 62
     4
 10
38.67493315176711
 20
-29.82219060064828
 30
0.0
 11
39.25229897662932
 21
-28.82216379459422
 31
0.0
  0
CIRCLE
  5
403
  8
0
  6
CONTINUOUS
 62
     4
 10
148.2638021662968
 20
-9.72913283779944
 30
0.0
 40
2.5
  0
CIRCLE
  5
404
  8
0
  6
CONTINUOUS
 62
     4
 10
187.2349325373905
 20
57.77086334750329
 30
0.0
 40
2.5
  0
CIRCLE
  5
405
  8
0
  6
CONTINUOUS
 62
     4
 10
109.292671795203
 20
57.77086334750329
 30
0.0
 40
2.5
  0
ARC
  5
406
  8
0
  6
CONTINUOUS
 62
     4
 10
148.2638021662968
 20
35.27086716220056
 30
0.0
 40
58.0
 50
349.1223465957698
 51
368.0678757966797
  0
ARC
  5
407
  8
0
  6
CONTINUOUS
 62
     4
 10
148.2638021662968
 20
35.27086716220056
 30
0.0
 40
58.0
 50
229.1223193508035
 51
248.067863919639
  0
ARC
  5
408
  8
0
  6
CONTINUOUS
 62
     4
 10
148.2638021662968
 20
35.27086716220056
 30
0.0
 40
58.0
 50
109.1223533501686
 51
128.0679047491933
  0
ARC
  5
409
  8
0
  6
CONTINUOUS
 62
     4
 10
148.2638021662968
 20
35.27086716220056
 30
0.0
 40
64.0
 50
107.2700265378287
 51
125.1851141269627
  0
ARC
  5
40A
  8
0
  6
CONTINUOUS
 62
     4
 10
148.2638021662968
 20
35.27086716220056
 30
0.0
 40
70.0
 50
105.749312239882
 51
125.7526208847207
  0
ARC
  5
40B
  8
0
  6
CONTINUOUS
 62
     4
 10
148.2638021662968
 20
35.27086716220056
 30
0.0
 40
76.0
 50
104.4775310164257
 51
113.4093625638622
  0
ARC
  5
40C
  8
0
  6
CONTINUOUS
 62
     4
 10
148.2638021662968
 20
35.27086716220056
 30
0.0
 40
64.0
 50
227.2699993686527
 51
245.1850664672193
  0
ARC
  5
40D
  8
0
  6
CONTINUOUS
 62
     4
 10
148.2638021662968
 20
35.27086716220056
 30
0.0
 40
70.0
 50
225.7492850707061
 51
245.7525800551665
  0
ARC
  5
40E
  8
0
  6
CONTINUOUS
 62
     4
 10
148.2638021662968
 20
35.27086716220056
 30
0.0
 40
76.0
 50
224.4775038472497
 51
233.4093149041187
  0
ARC
  5
40F
  8
0
  6
CONTINUOUS
 62
     4
 10
148.2638021662968
 20
35.27086716220056
 30
0.0
 40
64.0
 50
347.2700155145616
 51
365.185083040015
  0
ARC
  5
410
  8
0
  6
CONTINUOUS
 62
     4
 10
148.2638021662968
 20
35.27086716220056
 30
0.0
 40
70.0
 50
345.7493046317096
 51
365.752592359094
  0
ARC
  5
411
  8
0
  6
CONTINUOUS
 62
     4
 10
148.2638021662968
 20
35.27086716220056
 30
0.0
 40
76.0
 50
344.4775225544796
 51
353.4093378802168
  0
ARC
  5
412
  8
0
  6
CONTINUOUS
 62
     4
 10
148.2638021662968
 20
35.27086716220056
 30
0.0
 40
58.0
 50
261.9320892554435
 51
278.0678920752218
  0
ARC
  5
413
  8
0
  6
CONTINUOUS
 62
     4
 10
148.2638021662968
 20
35.27086716220056
 30
0.0
 40
58.0
 50
291.9321174110263
 51
310.8776722251456
  0
ARC
  5
414
  8
0
  6
CONTINUOUS
 62
     4
 10
148.2638021662968
 20
35.27086716220056
 30
0.0
 40
64.0
 50
294.8149080332569
 51
312.729995622391
  0
ARC
  5
415
  8
0
  6
CONTINUOUS
 62
     4
 10
148.2638021662968
 20
35.27086716220056
 30
0.0
 40
70.0
 50
271.9463486919762
 51
275.7525877201817
  0
ARC
  5
416
  8
0
  6
CONTINUOUS
 62
     4
 10
148.2638021662968
 20
35.27086716220056
 30
0.0
 40
70.0
 50
294.2474081056881
 51
314.2507167505268
  0
ARC
  5
417
  8
0
  6
CONTINUOUS
 62
     4
 10
148.2638021662968
 20
35.27086716220056
 30
0.0
 40
70.0
 50
264.2473867802945
 51
268.0536462990675
  0
ARC
  5
418
  8
0
  6
CONTINUOUS
 62
     4
 10
148.2638021662968
 20
35.27086716220056
 30
0.0
 40
76.0
 50
260.4457512995896
 51
279.5542300310758
  0
ARC
  5
419
  8
0
  6
CONTINUOUS
 62
     4
 10
148.2638021662968
 20
35.27086716220056
 30
0.0
 40
76.0
 50
290.445765794794
 51
315.5224979739832
  0
ARC
  5
41A
  8
0
  6
CONTINUOUS
 62
     4
 10
148.2638021662968
 20
35.27086716220056
 30
0.0
 40
76.0
 50
243.7022733795445
 51
249.5542155358714
  0
ARC
  5
41B
  8
0
  6
CONTINUOUS
 62
     4
 10
148.2638021662968
 20
35.27086716220056
 30
0.0
 40
76.0
 50
123.7023073789096
 51
129.5542631956148
  0
ARC
  5
41C
  8
0
  6
CONTINUOUS
 62
     4
 10
148.2638021662968
 20
35.27086716220056
 30
0.0
 40
76.0
 50
140.4457921291439
 51
159.5542572002517
  0
ARC
  5
41D
  8
0
  6
CONTINUOUS
 62
     4
 10
148.2638021662968
 20
35.27086716220056
 30
0.0
 40
70.0
 50
144.247434440038
 51
155.7526148893576
  0
ARC
  5
41E
  8
0
  6
CONTINUOUS
 62
     4
 10
148.2638021662968
 20
35.27086716220056
 30
0.0
 40
64.0
 50
174.8149352024329
 51
192.7299613198643
  0
ARC
  5
41F
  8
0
  6
CONTINUOUS
 62
     4
 10
148.2638021662968
 20
35.27086716220056
 30
0.0
 40
58.0
 50
141.932136915187
 51
158.0678987538302
  0
ARC
  5
420
  8
0
  6
CONTINUOUS
 62
     4
 10
148.2638021662968
 20
35.27086716220056
 30
0.0
 40
58.0
 50
171.9321445802023
 51
190.8776276773352
  0
ARC
  5
421
  8
0
  6
CONTINUOUS
 62
     4
 10
148.2638021662968
 20
35.27086716220056
 30
0.0
 40
76.0
 50
170.4457861337808
 51
195.522443180889
  0
ARC
  5
422
  8
0
  6
CONTINUOUS
 62
     4
 10
148.2638021662968
 20
35.27086716220056
 30
0.0
 40
70.0
 50
174.2474284446748
 51
194.2506619574326
  0
ARC
  5
423
  8
0
  6
CONTINUOUS
 62
     4
 10
148.2638021662968
 20
35.27086716220056
 30
0.0
 40
70.0
 50
54.03400218437523
 51
74.25070642945265
  0
ARC
  5
424
  8
0
  6
CONTINUOUS
 62
     4
 10
148.2638021662968
 20
35.27086716220056
 30
0.0
 40
76.0
 50
50.60720407022603
 51
75.52248765290902
  0
ARC
  5
425
  8
0
  6
CONTINUOUS
 62
     4
 10
148.2638021662968
 20
35.27086716220056
 30
0.0
 40
64.0
 50
54.81489771218278
 51
72.72999213150598
  0
ARC
  5
426
  8
0
  6
CONTINUOUS
 62
     4
 10
148.2638021662968
 20
35.27086716220056
 30
0.0
 40
58.0
 50
51.93209001447926
 51
70.87766531916604
  0
ARC
  5
427
  8
0
  6
CONTINUOUS
 62
     4
 10
148.2638021662968
 20
35.27086716220056
 30
0.0
 40
58.0
 50
22.4414266313448
 51
38.06788858433682
  0
ARC
  5
428
  8
0
  6
CONTINUOUS
 62
     4
 10
148.2638021662968
 20
35.27086716220056
 30
0.0
 40
70.0
 50
24.64798583706183
 51
35.75258422929672
  0
ARC
  5
429
  8
0
  6
CONTINUOUS
 62
     4
 10
148.2638021662968
 20
35.27086716220056
 30
0.0
 40
76.0
 50
3.70229422120848
 51
9.554238511969441
  0
ARC
  5
42A
  8
0
  6
CONTINUOUS
 62
     4
 10
148.2638021662968
 20
35.27086716220056
 30
0.0
 40
76.0
 50
20.44575976153568
 51
39.55421629490705
  0
LINE
  5
42B
  8
0
  6
CONTINUOUS
 62
     4
 10
-74.23788476545617
 20
137.7708671622006
 30
0.0
 11
-74.23788476545617
 21
126.7708671622006
 31
0.0
  0
LINE
  5
42C
  8
0
  6
CONTINUOUS
 62
     4
 10
-74.23788476545617
 20
78.77086716220056
 30
0.0
 11
-74.23788476545617
 21
76.27086716220056
 31
0.0
  0
LINE
  5
42D
  8
0
  6
CONTINUOUS
 62
     4
 10
-87.23788858015344
 20
113.4208686880795
 30
0.0
 11
-64.23788476545617
 21
113.4208686880795
 31
0.0
  0
LINE
  5
42E
  8
0
  6
CONTINUOUS
 62
     4
 10
-87.23788858015344
 20
122.1208580069271
 30
0.0
 11
-64.23788476545617
 21
122.1208580069271
 31
0.0
  0
LINE
  5
42F
  8
0
  6
CONTINUOUS
 62
     4
 10
-87.23788858015344
 20
83.42086868807947
 30
0.0
 11
-64.23788476545617
 21
83.42086868807947
 31
0.0
  0
LINE
  5
430
  8
0
  6
CONTINUOUS
 62
     4
 10
-87.23788858015344
 20
92.12086563632165
 30
0.0
 11
-64.23788476545617
 21
92.12086563632165
 31
0.0
  0
LINE
  5
431
  8
0
  6
CONTINUOUS
 62
     4
 10
-157.9697916563253
 20
-3.909134096649538
 30
0.0
 11
-152.9697916563253
 21
-3.909134096649538
 31
0.0
  0
LINE
  5
432
  8
0
  6
CONTINUOUS
 62
     4
 10
-157.9697916563253
 20
74.45086746737634
 30
0.0
 11
-140.9697916563253
 21
74.45086746737634
 31
0.0
  0
LINE
  5
433
  8
0
  6
CONTINUOUS
 62
     4
 10
-182.9697916563253
 20
5.270866208526243
 30
0.0
 11
-166.9697916563253
 21
5.270866208526243
 31
0.0
  0
LINE
  5
434
  8
0
  6
CONTINUOUS
 62
     4
 10
-182.9697916563253
 20
65.27086716220056
 30
0.0
 11
-166.9697916563253
 21
65.27086716220056
 31
0.0
  0
LINE
  5
435
  8
0
  6
CONTINUOUS
 62
     4
 10
-152.4697916563253
 20
1.770866208526243
 30
0.0
 11
-152.4697916563253
 21
-8.729133851078402
 31
0.0
  0
LINE
  5
436
  8
0
  6
CONTINUOUS
 62
     4
 10
-149.4697916563253
 20
1.770866208526243
 30
0.0
 11
-149.4697916563253
 21
-8.729133851078402
 31
0.0
  0
LINE
  5
437
  8
0
  6
CONTINUOUS
 62
     4
 10
-148.9697916563253
 20
-3.909134096649538
 30
0.0
 11
-140.9697916563253
 21
-3.909134096649538
 31
0.0
  0
LINE
  5
438
  8
0
  6
CONTINUOUS
 62
     4
 10
-63.23789061363262
 20
114.4614729569132
 30
0.0
 11
-59.23788965601018
 21
116.7708743314081
 31
0.0
  0
LINE
  5
439
  8
0
  6
CONTINUOUS
 62
     4
 10
-63.23788516194763
 20
84.46146259574577
 30
0.0
 11
-59.23787899079214
 21
86.77086698027509
 31
0.0
  0
LINE
  5
43A
  8
0
  6
CONTINUOUS
 62
     4
 10
-63.23788475208615
 20
113.8841152366221
 30
0.0
 11
-57.84557603248443
 21
110.7708646897645
 31
0.0
  0
LINE
  5
43B
  8
0
  6
CONTINUOUS
 62
     4
 10
-63.23788256630117
 20
112.152063174648
 30
0.0
 11
-60.84558241102543
 21
110.7708681886142
 31
0.0
  0
LINE
  5
43C
  8
0
  6
CONTINUOUS
 62
     4
 10
-63.23788949579269
 20
112.7294228022875
 30
0.0
 11
-56.237889884719
 21
116.7708740155608
 31
0.0
  0
LINE
  5
43D
  8
0
  6
CONTINUOUS
 62
     4
 10
-63.23788159361341
 20
83.88411752371026
 30
0.0
 11
-57.84557948126151
 21
80.77087079154963
 31
0.0
  0
LINE
  5
43E
  8
0
  6
CONTINUOUS
 62
     4
 10
-63.23788601507825
 20
82.15206927643312
 30
0.0
 11
-60.8455792525527
 21
80.77087047570235
 31
0.0
  0
LINE
  5
43F
  8
0
  6
CONTINUOUS
 62
     4
 10
-63.23788734128021
 20
82.72941053749689
 30
0.0
 11
-56.23787880654784
 21
86.77086690284638
 31
0.0
  0
LINE
  5
440
  8
0
  6
CONTINUOUS
 62
     4
 10
-63.23788622816842
 20
86.19351278017375
 30
0.0
 11
-62.23787896855988
 21
86.77086717691309
 31
0.0
  0
LINE
  5
441
  8
0
  6
CONTINUOUS
 62
     4
 10
-63.23789173147254
 20
116.1935231115388
 30
0.0
 11
-62.23788942730137
 21
116.7708746472554
 31
0.0
  0
LINE
  5
442
  8
0
  6
CONTINUOUS
 62
     4
 10
-84.23788858015344
 20
-12.22913379147376
 30
0.0
 11
-75.23788858015344
 21
-12.22913379147376
 31
0.0
  0
LINE
  5
443
  8
0
  6
CONTINUOUS
 62
     4
 10
-84.23788858015344
 20
-7.229133851078402
 30
0.0
 11
-75.23788858015344
 21
-7.229133851078402
 31
0.0
  0
LINE
  5
444
  8
0
  6
CONTINUOUS
 62
     4
 10
-59.23787893428364
 20
86.77086756676654
 30
0.0
 11
-55.23788293209857
 21
84.46146905329438
 31
0.0
  0
LINE
  5
445
  8
0
  6
CONTINUOUS
 62
     4
 10
-59.2378887000062
 20
116.7708690943754
 30
0.0
 11
-55.23788609057131
 21
114.4614667662062
 31
0.0
  0
LINE
  5
446
  8
0
  6
CONTINUOUS
 62
     4
 10
-62.23788847129738
 20
116.7708687785282
 30
0.0
 11
-55.23788390478633
 21
112.7294147042321
 31
0.0
  0
LINE
  5
447
  8
0
  6
CONTINUOUS
 62
     4
 10
-63.23788693787112
 20
115.6161672985963
 30
0.0
 11
-55.23788832625117
 21
110.9973664569549
 31
0.0
  0
LINE
  5
448
  8
0
  6
CONTINUOUS
 62
     4
 10
-63.23789168157767
 20
110.9973707403133
 30
0.0
 11
-55.2378897663328
 21
115.6161734893032
 31
0.0
  0
LINE
  5
449
  8
0
  6
CONTINUOUS
 62
     4
 10
-60.63019024977264
 20
110.7708680879186
 30
0.0
 11
-55.23788483379583
 21
113.8841167274278
 31
0.0
  0
LINE
  5
44A
  8
0
  6
CONTINUOUS
 62
     4
 10
-57.630188826669
 20
110.7708687257456
 30
0.0
 11
-55.23788701958081
 21
112.1520646654536
 31
0.0
  0
LINE
  5
44B
  8
0
  6
CONTINUOUS
 62
     4
 10
-62.23787870557483
 20
86.77086725091927
 30
0.0
 11
-55.23788074631359
 21
82.72941699132021
 31
0.0
  0
LINE
  5
44C
  8
0
  6
CONTINUOUS
 62
     4
 10
-63.23788377939839
 20
85.61616958568443
 30
0.0
 11
-55.23788516777843
 21
80.99736874404307
 31
0.0
  0
LINE
  5
44D
  8
0
  6
CONTINUOUS
 62
     4
 10
-63.23788622989268
 20
80.99736037914595
 30
0.0
 11
-55.23788446950523
 21
85.61616303872886
 31
0.0
  0
LINE
  5
44E
  8
0
  6
CONTINUOUS
 62
     4
 10
-60.63018525754065
 20
80.77086627115186
 30
0.0
 11
-55.23788665529021
 21
83.88411097675468
 31
0.0
  0
LINE
  5
44F
  8
0
  6
CONTINUOUS
 62
     4
 10
-57.63018548624946
 20
80.77086595530459
 30
0.0
 11
-55.23788553745028
 21
82.15206082212903
 31
0.0
  0
LINE
  5
450
  8
0
  6
CONTINUOUS
 62
     4
 10
-56.23787916299246
 20
86.77086788261381
 30
0.0
 11
-55.23788511788355
 21
86.19352111526855
 31
0.0
  0
LINE
  5
451
  8
0
  6
CONTINUOUS
 62
     4
 10
-56.23788892871501
 20
116.7708694102227
 30
0.0
 11
-55.23788166910647
 21
116.1935150134834
 31
0.0
  0
LINE
  5
452
  8
0
  6
CONTINUOUS
 62
     5
 10
207.9934354517689
 20
104.7768289582907
 30
0.0
 11
204.2434364054432
 21
111.2720177182844
 31
0.0
  0
LINE
  5
453
  8
0
  6
CONTINUOUS
 62
     5
 10
201.8732450399628
 20
100.3773099171101
 30
0.0
 11
204.1232450399628
 21
96.48019567002639
 31
0.0
  0
LINE
  5
454
  8
0
  6
CONTINUOUS
 62
     5
 10
204.1232254588802
 20
96.48022094182507
 30
0.0
 11
203.0987126847093
 21
96.7547383146004
 31
0.0
  0
LINE
  5
455
  8
0
  6
CONTINUOUS
 62
     5
 10
204.123299484432
 20
96.48017760192143
 30
0.0
 11
204.3978207116414
 21
97.50470517817139
 31
0.0
  0
LINE
  5
456
  8
0
  6
CONTINUOUS
 62
     5
 10
201.5987699996961
 20
99.3527777479264
 30
0.0
 11
201.8732912269055
 21
100.3773053241764
 31
0.0
  0
LINE
  5
457
  8
0
  6
CONTINUOUS
 62
     5
 10
202.8977412392713
 20
100.102812698012
 30
0.0
 11
201.8732284651003
 21
100.3773300707873
 31
0.0
  0
LINE
  5
458
  8
0
  6
CONTINUOUS
 62
     5
 10
195.0030375989607
 20
97.27682793614549
 30
0.0
 11
207.9934184225729
 21
104.7768279361455
 31
0.0
  0
LINE
  5
459
  8
0
  6
CONTINUOUS
 62
     5
 10
195.003041413658
 20
97.27682132889613
 30
0.0
 11
189.378038552635
 21
107.0196119020423
 31
0.0
  0
LINE
  5
45A
  8
0
  6
CONTINUOUS
 62
     5
 10
189.378038552635
 20
107.0196119020423
 30
0.0
 11
191.3265956761769
 21
108.1446119020423
 31
0.0
  0
LINE
  5
45B
  8
0
  6
CONTINUOUS
 62
     5
 10
195.923607602754
 20
109.1824019391967
 30
0.0
 11
196.1981288299633
 21
110.2069295154467
 31
0.0
  0
LINE
  5
45C
  8
0
  6
CONTINUOUS
 62
     5
 10
196.1980899014932
 20
110.2069800297006
 30
0.0
 11
195.1735771273223
 21
110.4814974024759
 31
0.0
  0
LINE
  5
45D
  8
0
  6
CONTINUOUS
 62
     5
 10
193.6349800267679
 20
108.727091866
 30
0.0
 11
196.1980906278721
 21
110.2069044880703
 31
0.0
  0
LINE
  5
45E
  8
0
  6
CONTINUOUS
 62
     5
 10
191.8890994908741
 20
107.170326733022
 30
0.0
 11
191.3266033055714
 21
108.1445986875436
 31
0.0
  0
LINE
  5
45F
  8
0
  6
CONTINUOUS
 62
     5
 10
191.8890862763754
 20
107.1703191036275
 30
0.0
 11
193.1881243587366
 21
107.9203191036275
 31
0.0
  0
LINE
  5
460
  8
0
  6
CONTINUOUS
 62
     5
 10
193.7506375732353
 20
106.9460481712511
 30
0.0
 11
193.1881375732353
 21
107.920326733022
 31
0.0
  0
LINE
  5
461
  8
0
  6
CONTINUOUS
 62
     5
 10
195.7996756555966
 20
106.3970100888899
 30
0.0
 11
195.0496756555966
 21
107.6960481712511
 31
0.0
  0
LINE
  5
462
  8
0
  6
CONTINUOUS
 62
     5
 10
193.7506205440394
 20
106.946047149106
 30
0.0
 11
195.0496718408993
 21
107.6960547785005
 31
0.0
  0
LINE
  5
463
  8
0
  6
CONTINUOUS
 62
     5
 10
191.2530423673323
 20
103.7720100888899
 30
0.0
 11
204.2434231909445
 21
111.2720100888899
 31
0.0
  0
LINE
  5
464
  8
0
  6
CONTINUOUS
 62
     5
 10
200.3591768462684
 20
106.7513029556812
 30
0.0
 11
199.5924661154896
 21
106.1304329783543
 31
0.0
  0
LINE
  5
465
  8
0
  6
CONTINUOUS
 62
     5
 10
200.3591961042162
 20
106.7513095214612
 30
0.0
 11
199.7383356119486
 21
107.5180082763258
 31
0.0
  0
ARC
  5
466
  8
0
  6
CONTINUOUS
 62
     5
 10
199.6797872737187
 20
104.2157218985287
 30
0.0
 40
2.625001907348633
 50
75.00010795499728
 51
369.999953377945
  0
TEXT
  5
467
  8
0
 62
     5
 10
117.7780899956959
 20
-49.52913588955725
 30
0.0
 40
5.0
  1
NIKKO
 41
0.7674421159044379
  7
FDASTYLE1
 72
     5
 11
141.3495213940876
 21
-49.52913588955725
 31
0.0
  0
TEXT
  5
468
  8
0
 62
     5
 10
155.1352177813786
 20
-49.02913588955725
 30
0.0
 40
4.0
  1
HWB3-205
 41
0.7714288207463406
  7
FDASTYLE1
 72
     5
 11
185.9923638060826
 21
-49.02913588955725
 31
0.0
  0
TEXT
  5
469
  8
0
 62
     5
 10
155.4923609450596
 20
-55.52913588955725
 30
0.0
 40
3.0
  1
0001
 41
0.7647060767727455
  7
FDASTYLE1
 72
     5
 11
166.6352186158436
 21
-55.52913588955725
 31
0.0
  0
TEXT
  5
46A
  8
0
 62
     5
 10
235.4207140693901
 20
49.91068666896747
 30
0.0
 40
3.0
  1
F MAX       24KN
 50
120.0
 41
0.8461540746677685
  7
FDASTYLE1
 72
     5
 11
209.0207138846157
 21
95.63682830882448
 31
0.0
  0
TEXT
  5
46B
  8
0
 62
     5
 10
195.4844865689514
 20
111.588061965431
 30
0.0
 40
3.0
  1
ΣS
 50
120.0
 41
0.9090909271529234
  7
FDASTYLE1
 72
     5
 11
192.4844865093468
 21
116.7842144913759
 31
0.0
  0
TEXT
  5
46C
  8
0
 62
     5
 10
202.1736125240563
 20
96.59728465479581
 30
0.0
 40
3.0
  1
F
 50
120.0
 41
0.8791213035583497
  7
FDASTYLE1
 72
     5
 11
200.8549305687187
 21
98.88130880046468
 31
0.0
  0
TEXT
  5
46D
  8
0
 62
     5
 10
204.7722062955139
 20
107.1345780803572
 30
0.0
 40
3.0
  1
N min
 50
120.0
 41
0.7983872414958763
  7
FDASTYLE1
 72
     5
 11
197.3472067008255
 21
119.9950546245358
 31
0.0
  0
TEXT
  5
46E
  8
0
 62
     5
 10
195.1610758267077
 20
119.512313289494
 30
0.0
 40
1.5
  1
-1
 50
120.0
 41
0.7826088684192838
  7
FDASTYLE1
 72
     5
 11
193.8110757432612
 21
121.8505820242456
 31
0.0
  0
TEXT
  5
46F
  8
0
 62
     5
 10
240.1838366279839
 20
52.66068666896747
 30
0.0
 40
3.0
  1
ΣS MAX      78KN
 50
120.0
 41
0.85106404591412
  7
FDASTYLE1
 72
     5
 11
213.7838364432095
 21
98.38682830882448
 31
0.0
  0
TEXT
  5
470
  8
0
 62
     5
 10
244.9469897041558
 20
55.41068666896749
 30
0.0
 40
3.0
  1
N MAX 5000 AT ΣS MAX
 50
120.0
 41
0.8505395087621922
  7
FDASTYLE1
 72
     5
 11
211.8269896099804
 21
112.7762095787652
 31
0.0
  0
LINE
  5
471
  8
LAYER0014
  6
CONTINUOUS
 62
     7
 10
15.03662844296008
 20
-10.87937177983746
 30
0.0
 11
21.39008878916235
 21
-7.21119810853024
 31
0.0
  0
INSERT
  5
472
  8
LAYER0014
  6
CONTINUOUS
  2
DA_IMAGEDIMGROUP_1
 10
0.0
 20
0.0
 30
0.0
  0
INSERT
  5
473
  8
LAYER0014
  6
CONTINUOUS
  2
DA_IMAGEDIMGROUP_2
 10
0.0
 20
0.0
 30
0.0
  0
INSERT
  5
474
  8
LAYER0014
  6
CONTINUOUS
  2
DA_IMAGEDIMGROUP_3
 10
0.0
 20
0.0
 30
0.0
  0
INSERT
  5
475
  8
LAYER0014
  6
CONTINUOUS
  2
DA_IMAGEDIMGROUP_4
 10
0.0
 20
0.0
 30
0.0
  0
INSERT
  5
476
  8
LAYER0014
  6
CONTINUOUS
  2
DA_IMAGEDIMGROUP_5
 10
0.0
 20
0.0
 30
0.0
  0
INSERT
  5
477
  8
LAYER0014
  6
CONTINUOUS
  2
DC_GROUP_1
 10
0.0
 20
0.0
 30
0.0
  0
INSERT
  5
478
  8
LAYER0014
  6
CONTINUOUS
  2
DC_GROUP_2
 10
0.0
 20
0.0
 30
0.0
  0
INSERT
  5
479
  8
LAYER0014
  6
CONTINUOUS
  2
DA_IMAGEDIMGROUP_6
 10
0.0
 20
0.0
 30
0.0
  0
INSERT
  5
47A
  8
LAYER0014
  6
CONTINUOUS
  2
DA_IMAGEDIMGROUP_10
 10
0.0
 20
0.0
 30
0.0
  0
INSERT
  5
47B
  8
LAYER0014
  6
CONTINUOUS
  2
DA_IMAGEDIMGROUP_11
 10
0.0
 20
0.0
 30
0.0
  0
INSERT
  5
47C
  8
LAYER0014
  6
CONTINUOUS
  2
DA_IMAGEDIMGROUP_12
 10
0.0
 20
0.0
 30
0.0
  0
INSERT
  5
47D
  8
LAYER0014
  6
CONTINUOUS
  2
DA_IMAGEDIMGROUP_13
 10
0.0
 20
0.0
 30
0.0
  0
INSERT
  5
47E
  8
LAYER0014
  6
CONTINUOUS
  2
DA_IMAGEDIMGROUP_14
 10
0.0
 20
0.0
 30
0.0
  0
INSERT
  5
47F
  8
LAYER0014
  6
CONTINUOUS
  2
DA_IMAGEDIMGROUP_15
 10
0.0
 20
0.0
 30
0.0
  0
INSERT
  5
480
  8
LAYER0014
  6
CONTINUOUS
  2
DA_IMAGEDIMGROUP_16
 10
0.0
 20
0.0
 30
0.0
  0
INSERT
  5
481
  8
LAYER0014
  6
CONTINUOUS
  2
DA_IMAGEDIMGROUP_17
 10
0.0
 20
0.0
 30
0.0
  0
INSERT
  5
482
  8
LAYER0014
  6
CONTINUOUS
  2
DA_IMAGEDIMGROUP_18
 10
0.0
 20
0.0
 30
0.0
  0
INSERT
  5
483
  8
LAYER0014
  6
CONTINUOUS
  2
DA_IMAGEDIMGROUP_19
 10
0.0
 20
0.0
 30
0.0
  0
INSERT
  5
484
  8
LAYER0014
  6
CONTINUOUS
  2
DA_IMAGEDIMGROUP_20
 10
0.0
 20
0.0
 30
0.0
  0
INSERT
  5
485
  8
LAYER0014
  6
CONTINUOUS
  2
DA_IMAGEDIMGROUP_21
 10
0.0
 20
0.0
 30
0.0
  0
INSERT
  5
486
  8
LAYER0014
  6
CONTINUOUS
  2
DA_IMAGEDIMGROUP_22
 10
0.0
 20
0.0
 30
0.0
  0
INSERT
  5
487
  8
LAYER0014
  6
CONTINUOUS
  2
DA_IMAGEDIMGROUP_23
 10
0.0
 20
0.0
 30
0.0
  0
INSERT
  5
488
  8
LAYER0014
  6
CONTINUOUS
  2
DA_IMAGEDIMGROUP_24
 10
0.0
 20
0.0
 30
0.0
  0
INSERT
  5
489
  8
LAYER0014
  6
CONTINUOUS
  2
DA_IMAGEDIMGROUP_25
 10
0.0
 20
0.0
 30
0.0
  0
INSERT
  5
48A
  8
LAYER0014
  6
CONTINUOUS
  2
DA_IMAGEDIMGROUP_26
 10
0.0
 20
0.0
 30
0.0
  0
INSERT
  5
48B
  8
LAYER0014
  6
CONTINUOUS
  2
DA_IMAGEDIMGROUP_27
 10
0.0
 20
0.0
 30
0.0
  0
INSERT
  5
48C
  8
LAYER0014
  6
CONTINUOUS
  2
DA_IMAGEDIMGROUP_28
 10
0.0
 20
0.0
 30
0.0
  0
INSERT
  5
48D
  8
LAYER0014
  6
CONTINUOUS
  2
DA_IMAGEDIMGROUP_29
 10
0.0
 20
0.0
 30
0.0
  0
INSERT
  5
48E
  8
LAYER0014
  6
CONTINUOUS
  2
DA_IMAGEDIMGROUP_30
 10
0.0
 20
0.0
 30
0.0
  0
INSERT
  5
48F
  8
LAYER0014
  6
CONTINUOUS
  2
DA_IMAGEDIMGROUP_31
 10
0.0
 20
0.0
 30
0.0
  0
INSERT
  5
490
  8
LAYER0014
  6
CONTINUOUS
  2
DA_IMAGEDIMGROUP_32
 10
0.0
 20
0.0
 30
0.0
  0
INSERT
  5
491
  8
LAYER0014
  6
CONTINUOUS
  2
DA_IMAGEDIMGROUP_33
 10
0.0
 20
0.0
 30
0.0
  0
INSERT
  5
492
  8
LAYER0014
  6
CONTINUOUS
  2
DC_GROUP_3
 10
0.0
 20
0.0
 30
0.0
  0
INSERT
  5
493
  8
LAYER0014
  6
CONTINUOUS
  2
DA_IMAGEDIMGROUP_34
 10
0.0
 20
0.0
 30
0.0
  0
INSERT
  5
494
  8
LAYER0014
  6
CONTINUOUS
  2
DC_GROUP_4
 10
0.0
 20
0.0
 30
0.0
  0
INSERT
  5
495
  8
LAYER0014
  6
CONTINUOUS
  2
DC_GROUP_5
 10
0.0
 20
0.0
 30
0.0
  0
LINE
  5
496
  8
0
  6
CONTINUOUS
 62
     6
 10
-56.96564177840416
 20
-160.6685439708625
 30
0.0
 11
86.03435822159584
 21
-160.6685439708625
 31
0.0
  0
LINE
  5
497
  8
0
  6
CONTINUOUS
 62
     6
 10
-56.96564177840416
 20
-152.6685439708625
 30
0.0
 11
86.03435822159584
 21
-152.6685439708625
 31
0.0
  0
LINE
  5
498
  8
0
  6
CONTINUOUS
 62
     6
 10
-56.96564177840416
 20
-144.6685439708625
 30
0.0
 11
86.03435822159584
 21
-144.6685439708625
 31
0.0
  0
LINE
  5
499
  8
0
  6
CONTINUOUS
 62
     6
 10
-56.96564177840416
 20
-136.6685439708625
 30
0.0
 11
86.03435822159584
 21
-136.6685439708625
 31
0.0
  0
LINE
  5
49A
  8
0
  6
CONTINUOUS
 62
     6
 10
-56.96564177840416
 20
-128.6685439708625
 30
0.0
 11
86.03435822159584
 21
-128.6685439708625
 31
0.0
  0
LINE
  5
49B
  8
0
  6
CONTINUOUS
 62
     6
 10
-56.96564177840416
 20
-120.668536341468
 30
0.0
 11
86.03435822159584
 21
-120.668536341468
 31
0.0
  0
LINE
  5
49C
  8
0
  6
CONTINUOUS
 62
     6
 10
-56.96564177840416
 20
-112.668536341468
 30
0.0
 11
-40.96564177840416
 21
-112.668536341468
 31
0.0
  0
LINE
  5
49D
  8
0
  6
CONTINUOUS
 62
     6
 10
-56.96564177840416
 20
-168.6685439708625
 30
0.0
 11
86.03435822159584
 21
-168.6685439708625
 31
0.0
  0
LINE
  5
49E
  8
0
  6
CONTINUOUS
 62
     6
 10
-56.96564177840416
 20
-184.6685439708625
 30
0.0
 11
86.03435822159584
 21
-184.6685439708625
 31
0.0
  0
LINE
  5
49F
  8
0
  6
CONTINUOUS
 62
     6
 10
-56.96564177840416
 20
-176.6685439708625
 30
0.0
 11
86.03435822159584
 21
-176.6685439708625
 31
0.0
  0
INSERT
  5
4A0
  8
0
  6
CONTINUOUS
  2
DA_IMAGEDIMGROUP_7
 10
0.0
 20
0.0
 30
0.0
  0
INSERT
  5
4A1
  8
0
  6
CONTINUOUS
  2
DA_IMAGEDIMGROUP_8
 10
0.0
 20
0.0
 30
0.0
  0
INSERT
  5
4A2
  8
0
  6
CONTINUOUS
  2
DA_IMAGEDIMGROUP_9
 10
0.0
 20
0.0
 30
0.0
  0
INSERT
  5
4A3
  8
0
  6
CONTINUOUS
  2
DA_IMAGEDIMGROUP_35
 10
0.0
 20
0.0
 30
0.0
  0
INSERT
  5
4A4
  8
0
  6
CONTINUOUS
  2
DA_IMAGEDIMGROUP_36
 10
0.0
 20
0.0
 30
0.0
  0
LINE
  5
4A5
  8
0
  6
DASHED2
 62
     7
 10
225.1750077109104
 20
75.05675148755411
 30
0.0
 11
221.1750077109104
 21
81.98495471782961
 31
0.0
  0
LINE
  5
4A6
  8
0
  6
DASHED2
 62
     7
 10
225.1750077109104
 20
75.05675148755411
 30
0.0
 11
239.0314141714614
 21
83.05675148755411
 31
0.0
  0
LINE
  5
4A7
  8
0
  6
DASHED2
 62
     7
 10
221.2609091475304
 20
73.83616906516052
 30
0.0
 11
218.1609068587121
 21
79.20553053297373
 31
0.0
  0
LINE
  5
4A8
  8
0
  6
DASHED2
 62
     7
 10
221.2609091475304
 20
73.83616906516052
 30
0.0
 11
238.5814172232192
 21
83.83616906516052
 31
0.0
  0
LINE
  5
4A9
  8
0
  6
DASHED2
 62
     7
 10
221.2609218334579
 20
73.83616165388902
 30
0.0
 11
218.1609061071691
 21
75.62595676569391
 31
0.0
  0
LINE
  5
4AA
  8
0
  6
DASHED2
 62
     7
 10
218.1609068587121
 20
79.20553053297373
 30
0.0
 11
235.4814149344009
 21
89.20553053297373
 31
0.0
  0
LINE
  5
4AB
  8
0
  6
DASHED2
 62
     7
 10
221.1750077109104
 20
81.98495471782961
 30
0.0
 11
235.0314141714614
 21
89.98495471782961
 31
0.0
  0
LINE
  5
4AC
  8
0
  6
DASHED2
 62
     7
 10
218.1609107754655
 20
75.62596189699995
 30
0.0
 11
218.1609106042188
 21
79.20552893581565
 31
0.0
  0
LINE
  5
4AD
  8
0
  6
DASHED2
 62
     7
 10
-96.23788858015344
 20
-12.2791330285343
 30
0.0
 11
-87.67896676618859
 21
-12.2791330285343
 31
0.0
  0
LINE
  5
4AE
  8
0
  6
DASHED2
 62
     7
 10
-96.23788858015344
 20
-7.1791346736225
 30
0.0
 11
-88.26945901472375
 21
-7.1791346736225
 31
0.0
  0
LINE
  5
4AF
  8
0
  6
DASHED2
 62
     7
 10
-96.23788858015344
 20
-12.72913379147376
 30
0.0
 11
-87.67896676618859
 21
-12.72913379147376
 31
0.0
  0
LINE
  5
4B0
  8
0
  6
DASHED2
 62
     7
 10
-96.23788858015344
 20
-6.729133910683046
 30
0.0
 11
-88.38755441267297
 21
-6.729133910683046
 31
0.0
  0
LINE
  5
4B1
  8
0
  6
DASHED2
 62
     7
 10
-96.23788858015344
 20
-8.729133851078402
 30
0.0
 11
-96.23788858015344
 21
-12.72913379147376
 31
0.0
  0
LINE
  5
4B2
  8
0
  6
DASHED2
 62
     7
 10
-173.2378885801534
 20
-37.40413779690589
 30
0.0
 11
-98.69900918562219
 21
-37.40413779690589
 31
0.0
  0
LINE
  5
4B3
  8
0
  6
DASHED2
 62
     7
 10
-173.2378885801534
 20
-25.40413779690589
 30
0.0
 11
-101.2378885801534
 21
-25.40413779690589
 31
0.0
  0
LINE
  5
4B4
  8
0
  6
DASHED2
 62
     7
 10
-173.2378885801534
 20
-25.40413779690589
 30
0.0
 11
-173.2378885801534
 21
-37.40413779690589
 31
0.0
  0
LINE
  5
4B5
  8
0
  6
DASHED2
 62
     7
 10
-137.2378885801534
 20
-25.40413779690589
 30
0.0
 11
-137.2378885801534
 21
-37.40413779690589
 31
0.0
  0
LINE
  5
4B6
  8
0
  6
DASHED2
 62
     7
 10
-173.2378885801534
 20
-26.25413627102698
 30
0.0
 11
-137.2378885801534
 21
-26.25413627102698
 31
0.0
  0
LINE
  5
4B7
  8
0
  6
DASHED2
 62
     7
 10
-173.2378885801534
 20
-36.55413932278479
 30
0.0
 11
-137.2378885801534
 21
-36.55413932278479
 31
0.0
  0
LINE
  5
4B8
  8
0
  6
DASHED2
 62
     7
 10
-120.0378840025167
 20
-51.22913283779943
 30
0.0
 11
-112.0378916319112
 21
-51.22913283779943
 31
0.0
  0
LINE
  5
4B9
  8
0
  6
DASHED2
 62
     7
 10
-119.1378901060323
 20
-47.22913283779943
 30
0.0
 11
-112.9378931577901
 21
-47.22913283779943
 31
0.0
  0
LINE
  5
4BA
  8
0
  6
DASHED2
 62
     7
 10
-119.1378901060323
 20
-47.22913283779943
 30
0.0
 11
-119.1378901060323
 21
-67.22913283779944
 31
0.0
  0
LINE
  5
4BB
  8
0
  6
DASHED2
 62
     7
 10
-120.0378840025167
 20
-51.22913283779943
 30
0.0
 11
-120.0378840025167
 21
-67.22913283779944
 31
0.0
  0
LINE
  5
4BC
  8
0
  6
DASHED2
 62
     7
 10
-119.1378979292139
 20
-47.22913624698257
 30
0.0
 11
-116.0378952461769
 21
-45.43934906118174
 31
0.0
  0
LINE
  5
4BD
  8
0
  6
DASHED2
 62
     7
 10
-112.9378931577901
 20
-47.22913283779943
 30
0.0
 11
-112.9378931577901
 21
-67.22913283779944
 31
0.0
  0
LINE
  5
4BE
  8
0
  6
DASHED2
 62
     7
 10
-112.0378916319112
 20
-51.22913283779943
 30
0.0
 11
-112.0378916319112
 21
-67.22913283779944
 31
0.0
  0
LINE
  5
4BF
  8
0
  6
DASHED2
 62
     7
 10
-116.037897454786
 20
-45.43934590682719
 30
0.0
 11
-112.9379013789988
 21
-47.22912927793099
 31
0.0
  0
LINE
  5
4C0
  8
0
  6
CENTER
 62
     7
 10
-116.0378916319112
 20
-43.45466182595536
 30
0.0
 11
-116.0378916319112
 21
-72.35747354343282
 31
0.0
  0
LINE
  5
4C1
  8
0
  6
DIVIDE
 62
     9
 10
-166.2379038389425
 20
79.27086716220056
 30
0.0
 11
-161.9102060850362
 21
79.27086716220056
 31
0.0
  0
LINE
  5
4C2
  8
0
  6
DIVIDE
 62
     9
 10
-167.2378885801534
 20
78.27086716220056
 30
0.0
 11
-167.2378885801534
 21
70.10272293612634
 31
0.0
  0
LINE
  5
4C3
  8
0
  6
DIVIDE
 62
     9
 10
-167.2378792201437
 20
78.27086773995616
 30
0.0
 11
-166.2378965345063
 21
79.27086568260457
 31
0.0
  0
LINE
  5
4C4
  8
0
  6
DIVIDE
 62
     9
 10
-149.2378885801534
 20
78.27086716220056
 30
0.0
 11
-149.2378885801534
 21
70.10272293612634
 31
0.0
  0
LINE
  5
4C5
  8
0
  6
DIVIDE
 62
     9
 10
-149.2378728387899
 20
78.27086209232012
 30
0.0
 11
-148.2378901531525
 21
79.27086003496852
 31
0.0
  0
LINE
  5
4C6
  8
0
  6
CONTINUOUS
 62
     4
 10
-66.65590137760167
 20
106.3225018158943
 30
0.0
 11
-69.65590137760167
 21
101.1263494864495
 31
0.0
  0
LINE
  5
4C7
  8
0
  6
CONTINUOUS
 62
     4
 10
-69.65589929182336
 20
101.1263511709896
 30
0.0
 11
-63.65589929182336
 21
101.1263511709896
 31
0.0
  0
LINE
  5
4C8
  8
0
  6
CONTINUOUS
 62
     4
 10
-66.65590239214261
 20
106.3225014921433
 30
0.0
 11
-63.65590239214261
 21
101.1263491626985
 31
0.0
  0
LINE
  5
4C9
  8
LAYER0014
  6
CONTINUOUS
 62
     7
 10
-24.07947393134744
 20
35.27086716220056
 30
0.0
 11
-24.07947393134744
 21
54.67204742953454
 31
0.0
  0
LINE
  5
4CA
  8
LAYER0014
  6
CONTINUOUS
 62
     7
 10
-73.54660081819412
 20
-17.72913379147376
 30
0.0
 11
-20.74259144657412
 21
-17.72913379147376
 31
0.0
  0
LINE
  5
4CB
  8
LAYER0014
  6
CONTINUOUS
 62
     7
 10
-24.07947393134744
 20
-17.72913379147376
 30
0.0
 11
-24.07947393134744
 21
35.27086716220056
 31
0.0
  0
INSERT
  5
4CC
  8
LAYER0014
 62
     7
  2
_OPEN30
 10
-24.07947393134744
 20
-17.72913379147376
 30
0.0
 41
1.999998407630662
 42
2.000005728319971
 50
270.0
  0
TEXT
  5
4CD
  8
LAYER0014
 62
     7
 10
-25.67947393134744
 20
28.93576660678064
 30
0.0
 40
4.0
  1
φ106
 50
90.0
 41
0.7619047619047618
  7
FDASTYLE1
 72
     5
 11
-25.67947393134744
 21
41.73576660678064
 31
0.0
  0
VIEWPORT
  5
48
 67
     1
  8
0
 10
0.0
 20
0.0
 30
0.0
 40
1662.0
 41
1140.0
 68
     1
 69
     1
1001
ACAD
1000
MVIEW
1002
{
1070
    16
1010
0.0
1020
0.0
1030
0.0
1020
0.0
1030
0.0
1010
0.0
1020
0.0
1030
1.0
1020
0.0
1030
1.0
1040
0.0
1040
1140.0
1040
0.0
1040
0.0
1040
50.0
1040
0.0
1040
0.0
1070
     0
1070
   100
1070
     0
1070
     1
1070
     0
1070
     0
1070
     0
1070
     0
1040
0.0
1040
0.0
1040
0.0
1040
0.5
1040
0.5
1040
0.0
1040
0.0
1070
     0
1002
{
1002
}
1002
}
  0
ENDSEC
  0
EOF
