  0
SECTION
  2
HEADER
  9
$ACADVER
  1
AC1009
  9
$DWGCODEPAGE
  3
ansi_932
  9
$INSBASE
 10
0.0
 20
0.0
 30
0.0
  9
$EXTMIN
 10
-831.0
 20
-569.9999999999999
 30
0.0
  9
$EXTMAX
 10
831.0
 20
569.9999999999999
 30
0.0
  9
$LIMMIN
 10
-297.0
 20
-210.0
  9
$LIMMAX
 10
297.0
 20
210.0
  9
$ORTHOMODE
 70
     0
  9
$REGENMODE
 70
     1
  9
$FILLMODE
 70
     1
  9
$QTEXTMODE
 70
     0
  9
$MIRRTEXT
 70
     1
  9
$DRAGMODE
 70
     2
  9
$LTSCALE
 40
1.0
  9
$OSMODE
 70
    37
  9
$ATTMODE
 70
     1
  9
$TEXTSIZE
 40
0.2
  9
$TRACEWID
 40
0.05
  9
$TEXTSTYLE
  7
STANDARD
  9
$CLAYER
  8
0
  9
$CELTYPE
  6
BYLAYER
  9
$CECOLOR
 62
   256
  9
$DIMSCALE
 40
1.0
  9
$DIMASZ
 40
2.5
  9
$DIMEXO
 40
0.0625
  9
$DIMDLI
 40
0.38
  9
$DIMRND
 40
0.0
  9
$DIMDLE
 40
0.0
  9
$DIMEXE
 40
0.18
  9
$DIMTP
 40
0.0
  9
$DIMTM
 40
0.0
  9
$DIMTXT
 40
0.18
  9
$DIMCEN
 40
0.09
  9
$DIMTSZ
 40
0.0
  9
$DIMTOL
 70
     0
  9
$DIMLIM
 70
     0
  9
$DIMTIH
 70
     1
  9
$DIMTOH
 70
     1
  9
$DIMSE1
 70
     0
  9
$DIMSE2
 70
     0
  9
$DIMTAD
 70
     3
  9
$DIMZIN
 70
     0
  9
$DIMBLK
  1

  9
$DIMASO
 70
     1
  9
$DIMSHO
 70
     1
  9
$DIMPOST
  1

  9
$DIMAPOST
  1

  9
$DIMALT
 70
     0
  9
$DIMALTD
 70
     2
  9
$DIMALTF
 40
25.4
  9
$DIMLFAC
 40
1.0
  9
$DIMTOFL
 70
     0
  9
$DIMTVP
 40
0.0
  9
$DIMTIX
 70
     0
  9
$DIMSOXD
 70
     0
  9
$DIMSAH
 70
     0
  9
$DIMBLK1
  1

  9
$DIMBLK2
  1

  9
$DIMSTYLE
  2
STANDARD
  9
$DIMCLRD
 70
     0
  9
$DIMCLRE
 70
     0
  9
$DIMCLRT
 70
     0
  9
$DIMTFAC
 40
1.0
  9
$DIMGAP
 40
0.09
  9
$LUNITS
 70
     2
  9
$LUPREC
 70
     4
  9
$SKETCHINC
 40
0.1
  9
$FILLETRAD
 40
0.5
  9
$AUNITS
 70
     0
  9
$AUPREC
 70
     0
  9
$MENU
  1
.
  9
$ELEVATION
 40
0.0
  9
$PELEVATION
 40
0.0
  9
$THICKNESS
 40
0.0
  9
$LIMCHECK
 70
     0
  9
$CHAMFERA
 40
0.5
  9
$CHAMFERB
 40
0.5
  9
$SKPOLY
 70
     0
  9
$TDCREATE
 40
2454889.636568496
  9
$TDUPDATE
 40
2454889.636568507
  9
$TDINDWG
 40
0.0000000116
  9
$TDUSRTIMER
 40
0.0000000116
  9
$USRTIMER
 70
     1
  9
$ANGBASE
 50
0.0
  9
$ANGDIR
 70
     0
  9
$PDMODE
 70
     0
  9
$PDSIZE
 40
1.0
  9
$PLINEWID
 40
0.0
  9
$COORDS
 70
     1
  9
$SPLFRAME
 70
     0
  9
$SPLINETYPE
 70
     6
  9
$SPLINESEGS
 70
     8
  9
$ATTDIA
 70
     0
  9
$ATTREQ
 70
     1
  9
$HANDLING
 70
     1
  9
$HANDSEED
  5
475
  9
$SURFTAB1
 70
     6
  9
$SURFTAB2
 70
     6
  9
$SURFTYPE
 70
     6
  9
$SURFU
 70
     6
  9
$SURFV
 70
     6
  9
$UCSNAME
  2

  9
$UCSORG
 10
0.0
 20
0.0
 30
0.0
  9
$UCSXDIR
 10
1.0
 20
0.0
 30
0.0
  9
$UCSYDIR
 10
0.0
 20
1.0
 30
0.0
  9
$PUCSNAME
  2

  9
$PUCSORG
 10
0.0
 20
0.0
 30
0.0
  9
$PUCSXDIR
 10
1.0
 20
0.0
 30
0.0
  9
$PUCSYDIR
 10
0.0
 20
1.0
 30
0.0
  9
$USERI1
 70
     0
  9
$USERI2
 70
     0
  9
$USERI3
 70
     0
  9
$USERI4
 70
     0
  9
$USERI5
 70
     0
  9
$USERR1
 40
0.0
  9
$USERR2
 40
0.0
  9
$USERR3
 40
0.0
  9
$USERR4
 40
0.0
  9
$USERR5
 40
0.0
  9
$WORLDVIEW
 70
     1
  9
$SHADEDGE
 70
     3
  9
$SHADEDIF
 70
    70
  9
$TILEMODE
 70
     1
  9
$MAXACTVP
 70
    64
  9
$PLIMCHECK
 70
     0
  9
$PEXTMIN
 10
1.000000000000000E+20
 20
1.000000000000000E+20
 30
1.000000000000000E+20
  9
$PEXTMAX
 10
-1.000000000000000E+20
 20
-1.000000000000000E+20
 30
-1.000000000000000E+20
  9
$PLIMMIN
 10
0.0
 20
0.0
  9
$PLIMMAX
 10
12.0
 20
9.0
  9
$UNITMODE
 70
     0
  9
$VISRETAIN
 70
     0
  9
$PLINEGEN
 70
     1
  9
$PSLTSCALE
 70
     0
  0
ENDSEC
  0
SECTION
  2
TABLES
  0
TABLE
  2
VPORT
 70
     1
  0
VPORT
  2
*ACTIVE
 70
     0
 10
0.0
 20
0.0
 11
1.0
 21
1.0
 12
0.0
 22
0.0
 13
0.0
 23
0.0
 14
0.5
 24
0.5
 15
0.5
 25
0.5
 16
0.0
 26
0.0
 36
1.0
 17
-0.0000000000000036
 27
0.0
 37
0.0
 40
387.6
 41
1.457894736842106
 42
50.0
 43
0.0
 44
0.0
 50
0.0
 51
0.0
 71
     0
 72
  1000
 73
     1
 74
     1
 75
     0
 76
     0
 77
     0
 78
     0
  0
ENDTAB
  0
TABLE
  2
LTYPE
 70
    28
  0
LTYPE
  2
CONTINUOUS
 70
     0
  3
Solid line
 72
    65
 73
     0
 40
0.0
  0
LTYPE
  2
HIDDENX2
 70
     0
  3
CADPAC LINETYPE
 72
    65
 73
     2
 40
9.893992932862261
 49
7.420494699646696
 49
-2.473498233215565
  0
LTYPE
  2
HIDDEN
 70
     0
  3
CADPAC LINETYPE
 72
    65
 73
     2
 40
7.420494699646696
 49
4.946996466431131
 49
-2.473498233215565
  0
LTYPE
  2
HIDDEN2
 70
     0
  3
CADPAC LINETYPE
 72
    65
 73
     2
 40
6.183745583038913
 49
3.710247349823348
 49
-2.473498233215565
  0
LTYPE
  2
DASHED
 70
     0
  3
CADPAC LINETYPE
 72
    65
 73
     2
 40
6.925795053003526
 49
4.946996466431131
 49
-1.978798586572395
  0
LTYPE
  2
DASHED2
 70
     0
  3
CADPAC LINETYPE
 72
    65
 73
     2
 40
4.452296819787989
 49
2.968197879858678
 49
-1.484098939929311
  0
LTYPE
  2
DASHEDX2
 70
     0
  3
CADPAC LINETYPE
 72
    65
 73
     2
 40
11.8727915194346
 49
9.893992932862204
 49
-1.978798586572395
  0
LTYPE
  2
DOTX2
 70
     0
  3
CADPAC LINETYPE
 72
    65
 73
     2
 40
4.328621908127204
 49
0.0
 49
-4.328621908127204
  0
LTYPE
  2
DOT
 70
     0
  3
CADPAC LINETYPE
 72
    65
 73
     2
 40
3.462897526501763
 49
0.0
 49
-3.462897526501763
  0
LTYPE
  2
DOT2
 70
     0
  3
CADPAC LINETYPE
 72
    65
 73
     2
 40
2.597173144876322
 49
0.0
 49
-2.597173144876322
  0
LTYPE
  2
CENTERX2
 70
     0
  3
CADPAC LINETYPE
 72
    65
 73
     4
 40
14.84098939929339
 49
6.183745583038913
 49
-3.091872791519457
 49
2.473498233215565
 49
-3.091872791519457
  0
LTYPE
  2
CENTER
 70
     0
  3
CADPAC LINETYPE
 72
    65
 73
     4
 40
11.3780918727916
 49
4.946996466431131
 49
-2.473498233215565
 49
1.484098939929339
 49
-2.473498233215565
  0
LTYPE
  2
CENTER2
 70
     0
  3
CADPAC LINETYPE
 72
    65
 73
     4
 40
7.915194346289809
 49
3.710247349823348
 49
-1.855123674911674
 49
0.4946996466431131
 49
-1.855123674911674
  0
LTYPE
  2
DASHDOTX2
 70
     0
  3
CADPAC LINETYPE
 72
    65
 73
     4
 40
23.7455830388692
 49
11.87279151943466
 49
-3.957597173144848
 49
3.957597173144848
 49
-3.957597173144848
  0
LTYPE
  2
DASHDOT
 70
     0
  3
CADPAC LINETYPE
 72
    65
 73
     4
 40
11.87279151943449
 49
5.9363957597173
 49
-1.978798586572395
 49
1.978798586572395
 49
-1.978798586572395
  0
LTYPE
  2
DASHDOT2
 70
     0
  3
CADPAC LINETYPE
 72
    65
 73
     4
 40
7.618374558303808
 49
4.452296819787975
 49
-1.484098939929297
 49
0.1978798586572396
 49
-1.484098939929297
  0
LTYPE
  2
DIVIDEX2
 70
     0
  3
CADPAC LINETYPE
 72
    65
 73
     6
 40
31.6607773851589
 49
11.87279151943466
 49
-3.957597173144848
 49
3.957597173144848
 49
-3.957597173144848
 49
3.957597173144848
 49
-3.957597173144848
  0
LTYPE
  2
DIVIDE
 70
     0
  3
CADPAC LINETYPE
 72
    65
 73
     6
 40
15.83038869257928
 49
5.9363957597173
 49
-1.978798586572395
 49
1.978798586572395
 49
-1.978798586572395
 49
1.978798586572395
 49
-1.978798586572395
  0
LTYPE
  2
DIVIDE2
 70
     0
  3
CADPAC LINETYPE
 72
    65
 73
     6
 40
11.87279151943446
 49
4.452296819787975
 49
-1.484098939929297
 49
1.484098939929297
 49
-1.484098939929297
 49
1.484098939929297
 49
-1.484098939929297
  0
LTYPE
  2
BORDERX2
 70
     0
  3
CADPAC LINETYPE
 72
    65
 73
     6
 40
21.6431095406362
 49
6.183745583038913
 49
-3.091872791519457
 49
6.183745583038913
 49
-3.091872791519457
 49
0.0
 49
-3.091872791519457
  0
LTYPE
  2
BORDER
 70
     0
  3
CADPAC LINETYPE
 72
    65
 73
     6
 40
17.31448763250896
 49
4.946996466431131
 49
-2.473498233215565
 49
4.946996466431131
 49
-2.473498233215565
 49
0.0
 49
-2.473498233215565
  0
LTYPE
  2
BORDER2
 70
     0
  3
CADPAC LINETYPE
 72
    65
 73
     6
 40
12.86219081272091
 49
3.957597173144848
 49
-2.473498233215594
 49
1.484098939929311
 49
-2.473498233215594
 49
0.0
 49
-2.473498233215565
  0
LTYPE
  2
PHANTOMX2
 70
     0
  3
CADPAC LINETYPE
 72
    65
 73
     6
 40
18.55123674911674
 49
6.183745583038913
 49
-2.473498233215565
 49
2.473498233215565
 49
-2.473498233215565
 49
2.473498233215565
 49
-2.473498233215565
  0
LTYPE
  2
PHANTOM
 70
     0
  3
CADPAC LINETYPE
 72
    65
 73
     6
 40
15.33568904593651
 49
4.946996466431131
 49
-2.473498233215565
 49
1.484098939929339
 49
-2.473498233215565
 49
1.484098939929339
 49
-2.473498233215565
  0
LTYPE
  2
PHANTOM2
 70
     0
  3
CADPAC LINETYPE
 72
    65
 73
     6
 40
13.1095406360425
 49
3.710247349823348
 49
-2.473498233215565
 49
0.9893992932862261
 49
-2.473498233215565
 49
0.9893992932862261
 49
-2.473498233215565
  0
LTYPE
  2
ACAD_ISO06W100
 70
     0
  3
CADPAC LINETYPE
 72
    65
 73
     8
 40
26.21908127208496
 49
11.87279151943466
 49
-2.473498233215594
 49
1.484098939929311
 49
-2.473498233215594
 49
1.484098939929311
 49
-2.473498233215594
 49
1.484098939929311
 49
-2.473498233215594
  0
LTYPE
  2
ACAD_ISO13W100
 70
     0
  3
CADPAC LINETYPE
 72
    65
 73
     8
 40
19.78798586572452
 49
4.946996466431131
 49
-2.473498233215565
 49
4.946996466431131
 49
-2.473498233215565
 49
0.0
 49
-2.473498233215565
 49
0.0
 49
-2.473498233215565
  0
LTYPE
  2
ACAD_ISO14W100
 70
     0
  3
CADPAC LINETYPE
 72
    65
 73
     8
 40
14.84098939929339
 49
4.946996466431131
 49
-2.473498233215565
 49
0.0
 49
-2.473498233215565
 49
0.0
 49
-2.473498233215565
 49
0.0
 49
-2.473498233215565
  0
ENDTAB
  0
TABLE
  2
LAYER
 70
     3
  0
LAYER
  2
0
 70
     0
 62
     7
  6
CONTINUOUS
  0
LAYER
  2
LAYER0014
 70
     0
 62
     7
  6
CONTINUOUS
  0
LAYER
  2
ZUWAKU
 70
     0
 62
     7
  6
CONTINUOUS
  0
ENDTAB
  0
TABLE
  2
STYLE
 70
     5
  0
STYLE
  2
STANDARD
 70
     0
 40
0.0
 41
1.0
 50
0.0
 71
     0
 42
0.2
  3
txt
  4

  0
STYLE
  2
FDASTYLE1
 70
     0
 40
4.0
 41
0.7619047619047592
 50
0.0
 71
     0
 42
0.2
  3
txt.shx
  4
bigfont
  0
STYLE
  2
FDASTYLE0
 70
     4
 40
2.6656
 41
0.8
 50
0.0
 71
     0
 42
0.2
  3
txt.shx
  4
bigfont
  0
STYLE
  2
FDASTYLE2
 70
     0
 40
7.0
 41
0.8123476848090983
 50
0.0
 71
     0
 42
0.2
  3
MSMINCHO.TTC
  4

  0
STYLE
  2
FDASTYLE3
 70
     0
 40
8.0
 41
0.77
 50
0.0
 71
     0
 42
0.2
  3
MSGOTHIC.TTC
  4

  0
ENDTAB
  0
TABLE
  2
VIEW
 70
     0
  0
ENDTAB
  0
TABLE
  2
UCS
 70
     0
  0
ENDTAB
  0
TABLE
  2
APPID
 70
     2
  0
APPID
  2
ACAD
 70
     0
  0
APPID
  2
DAFUSIONOUT
 70
     0
  0
ENDTAB
  0
TABLE
  2
DIMSTYLE
 70
     1
  0
DIMSTYLE
  2
STANDARD
 70
     0
  3

  4

  5

  6

  7

 40
1.0
 41
0.18
 42
0.0625
 43
0.38
 44
0.18
 45
0.0
 46
0.0
 47
0.0
 48
0.0
140
0.18
141
0.09
142
0.0
143
25.4
144
1.0
145
0.0
146
1.0
147
0.09
 71
     0
 72
     0
 73
     1
 74
     1
 75
     0
 76
     0
 77
     0
 78
     0
170
     0
171
     2
172
     0
173
     0
174
     0
175
     0
176
     0
177
     0
178
     0
  0
ENDTAB
  0
ENDSEC
  0
SECTION
  2
BLOCKS
  0
BLOCK
  8
0
  2
$MODEL_SPACE
 70
     0
 10
0.0
 20
0.0
 30
0.0
  3
$MODEL_SPACE
  1

  0
ENDBLK
  5
21
  8
0
  0
BLOCK
 67
     1
  8
0
  2
$PAPER_SPACE
 70
     0
 10
0.0
 20
0.0
 30
0.0
  3
$PAPER_SPACE
  1

  0
ENDBLK
  5
1D
 67
     1
  8
0
  0
BLOCK
  8
0
  2
DA_IMAGEDIMGROUP_1
 70
     0
 10
0.0
 20
0.0
 30
0.0
  3
DA_IMAGEDIMGROUP_1
  1

  0
LINE
  5
BE
  8
LAYER0014
  6
CONTINUOUS
 62
     7
 10
-182.4004651162781
 20
155.8504833738073
 30
0.0
 11
-266.7507696817078
 21
155.8504833738073
 31
0.0
  0
LINE
  5
BF
  8
LAYER0014
  6
CONTINUOUS
 62
     7
 10
-182.4004651162781
 20
-94.14952425558725
 30
0.0
 11
-266.7507696817078
 21
-94.14952425558725
 31
0.0
  0
LINE
  5
C0
  8
LAYER0014
  6
CONTINUOUS
 62
     7
 10
-264.4647589395203
 20
155.8504833738073
 30
0.0
 11
-264.4647589395203
 21
-94.14952425558725
 31
0.0
  0
INSERT
  5
C7
  8
LAYER0014
 62
     7
  2
_OPEN30
 10
-264.4647589395203
 20
155.8504833738073
 30
0.0
 41
1.999998407630662
 42
2.000005728319971
 50
90.0
  0
INSERT
  5
C8
  8
LAYER0014
 62
     7
  2
_OPEN30
 10
-264.4647589395203
 20
-94.14952425558725
 30
0.0
 41
1.999998407630662
 42
2.000005728319971
 50
270.0
  0
TEXT
  5
CA
  8
LAYER0014
 62
     7
 10
-265.4759290410621
 20
24.45048930686498
 30
0.0
 40
4.0
  1
φ250
 50
89.90000000000001
 41
0.7619047619047592
  7
FDASTYLE1
 72
     5
 11
-265.4535888379786
 21
37.25046981135502
 31
0.0
  0
ENDBLK
  5
4E
  8
0
  0
BLOCK
  8
0
  2
DA_IMAGEDIMGROUP_2
 70
     0
 10
0.0
 20
0.0
 30
0.0
  3
DA_IMAGEDIMGROUP_2
  1

  0
LINE
  5
CB
  8
LAYER0014
  6
CONTINUOUS
 62
     7
 10
-182.4004651162781
 20
143.3504833738073
 30
0.0
 11
-255.0507269570985
 21
143.3504833738073
 31
0.0
  0
LINE
  5
CC
  8
LAYER0014
  6
CONTINUOUS
 62
     7
 10
-182.4004651162781
 20
-81.64952425558725
 30
0.0
 11
-255.0507269570985
 21
-81.64952425558725
 31
0.0
  0
LINE
  5
CD
  8
LAYER0014
  6
CONTINUOUS
 62
     7
 10
-252.7647314737
 20
143.3504833738073
 30
0.0
 11
-252.7647314737
 21
-81.64952425558725
 31
0.0
  0
INSERT
  5
CE
  8
LAYER0014
 62
     7
  2
_OPEN30
 10
-252.7647314737
 20
143.3504833738073
 30
0.0
 41
1.999998407630662
 42
2.000005728319971
 50
90.0
  0
INSERT
  5
CF
  8
LAYER0014
 62
     7
  2
_OPEN30
 10
-252.7647314737
 20
-81.64952425558725
 30
0.0
 41
1.999998407630662
 42
2.000005728319971
 50
270.0
  0
TEXT
  5
D0
  8
LAYER0014
 62
     7
 10
-253.7814866260127
 20
21.25049418074242
 30
0.0
 40
4.0
  1
φ225H7
 50
89.90000000000001
 41
0.7741935483870974
  7
FDASTYLE1
 72
     5
 11
-253.7479763213874
 21
40.45046493747756
 31
0.0
  0
ENDBLK
  5
51
  8
0
  0
BLOCK
  8
0
  2
DA_IMAGEDIMGROUP_3
 70
     0
 10
0.0
 20
0.0
 30
0.0
  3
DA_IMAGEDIMGROUP_3
  1

  0
LINE
  5
D1
  8
LAYER0014
  6
CONTINUOUS
 62
     7
 10
-178.3964520547547
 20
88.85047574441275
 30
0.0
 11
-242.9173956582703
 21
88.85047574441275
 31
0.0
  0
LINE
  5
D2
  8
LAYER0014
  6
CONTINUOUS
 62
     7
 10
-178.3964520547547
 20
-27.14952425558725
 30
0.0
 11
-242.9173956582703
 21
-27.14952425558725
 31
0.0
  0
LINE
  5
D3
  8
LAYER0014
  6
CONTINUOUS
 62
     7
 10
-240.6314001748719
 20
88.85047574441275
 30
0.0
 11
-240.6314001748719
 21
-27.14952425558725
 31
0.0
  0
INSERT
  5
D4
  8
LAYER0014
 62
     7
  2
_OPEN30
 10
-240.6314001748719
 20
88.85047574441275
 30
0.0
 41
1.999998407630662
 42
2.000005728319971
 50
90.0
  0
INSERT
  5
D5
  8
LAYER0014
 62
     7
  2
_OPEN30
 10
-240.6314001748719
 20
-27.14952425558725
 30
0.0
 41
1.999998407630662
 42
2.000005728319971
 50
270.0
  0
TEXT
  5
D6
  8
LAYER0014
 62
     7
 10
-241.6425702764136
 20
24.4504854921677
 30
0.0
 40
4.0
  1
φ116
 50
89.90000000000001
 41
0.7619047619047625
  7
FDASTYLE1
 72
     5
 11
-241.6202300733301
 21
37.2504659966578
 31
0.0
  0
ENDBLK
  5
54
  8
0
  0
BLOCK
  8
0
  2
DA_IMAGEDIMGROUP_4
 70
     0
 10
0.0
 20
0.0
 30
0.0
  3
DA_IMAGEDIMGROUP_4
  1

  0
LINE
  5
D7
  8
LAYER0014
  6
CONTINUOUS
 62
     7
 10
-203.3964520547547
 20
79.35047574441275
 30
0.0
 11
-230.7840643594422
 21
79.35047574441275
 31
0.0
  0
LINE
  5
D8
  8
LAYER0014
  6
CONTINUOUS
 62
     7
 10
-203.3964520547547
 20
-17.64952234823862
 30
0.0
 11
-230.7840643594422
 21
-17.64952234823862
 31
0.0
  0
LINE
  5
D9
  8
LAYER0014
  6
CONTINUOUS
 62
     7
 10
-228.4980688760438
 20
79.35047574441275
 30
0.0
 11
-228.4980688760438
 21
-17.64952234823862
 31
0.0
  0
INSERT
  5
DA
  8
LAYER0014
 62
     7
  2
_OPEN30
 10
-228.4980688760438
 20
79.35047574441275
 30
0.0
 41
1.999998407630662
 42
2.000005728319971
 50
90.0
  0
INSERT
  5
DB
  8
LAYER0014
 62
     7
  2
_OPEN30
 10
-228.4980688760438
 20
-17.64952234823862
 30
0.0
 41
1.999998407630662
 42
2.000005728319971
 50
270.0
  0
TEXT
  5
DC
  8
LAYER0014
 62
     7
 10
-229.5064464522001
 20
26.05048400890328
 30
0.0
 40
4.0
  1
φ97
 50
89.90000000000001
 41
0.7500000000000018
  7
FDASTYLE1
 72
     5
 11
-229.4896912998875
 21
35.65046938727086
 31
0.0
  0
ENDBLK
  5
57
  8
0
  0
BLOCK
  8
0
  2
DA_IMAGEDIMGROUP_5
 70
     0
 10
0.0
 20
0.0
 30
0.0
  3
DA_IMAGEDIMGROUP_5
  1

  0
LINE
  5
DD
  8
LAYER0014
  6
CONTINUOUS
 62
     7
 10
-67.27142752642116
 20
-12.14952234823862
 30
0.0
 11
-67.27142752642116
 21
73.85047574441275
 31
0.0
  0
INSERT
  5
DE
  8
LAYER0014
 62
     7
  2
_OPEN30
 10
-67.27142752642116
 20
-12.14952234823862
 30
0.0
 41
1.999998407630662
 42
2.000005728319971
 50
270.0
  0
INSERT
  5
DF
  8
LAYER0014
 62
     7
  2
_OPEN30
 10
-67.27142752642116
 20
73.85047574441275
 30
0.0
 41
1.999998407630662
 42
2.000005728319971
 50
90.0
  0
LINE
  5
E0
  8
LAYER0014
  6
CONTINUOUS
 62
     7
 10
-93.81645205475469
 20
-12.14952234823862
 30
0.0
 11
-66.27142752642116
 21
-12.14952234823862
 31
0.0
  0
LINE
  5
E1
  8
LAYER0014
  6
CONTINUOUS
 62
     7
 10
-93.81645205475469
 20
73.85047574441275
 30
0.0
 11
-66.27142752642116
 21
73.85047574441275
 31
0.0
  0
TEXT
  5
E2
  8
LAYER0014
 62
     7
 10
-68.27980510257748
 20
24.72346719037589
 30
0.0
 40
4.0
  1
φ86
 50
89.90000000000001
 41
0.7499999999999996
  7
FDASTYLE1
 72
     5
 11
-68.26304995026486
 21
34.32345256874345
 31
0.0
  0
TEXT
  5
E3
  8
LAYER0014
 62
     7
 10
-70.4613012711082
 20
35.32729076806172
 30
0.0
 40
2.2
  1
+0.3
 50
89.90000000000001
 41
0.7999999999999998
  7
FDASTYLE1
 72
     5
 11
-70.44901415941227
 21
42.36728004553126
 31
0.0
  0
TEXT
  5
E4
  8
LAYER0014
 62
     7
 10
-68.0613049265163
 20
35.32310197998356
 30
0.0
 40
2.2
  1
　0
 50
89.90000000000001
 41
0.7272727272727272
  7
FDASTYLE1
 72
     5
 11
-68.05516137066834
 21
38.84309661871833
 31
0.0
  0
ENDBLK
  5
5A
  8
0
  0
BLOCK
  8
0
  2
DA_IMAGEDIMGROUP_6
 70
     0
 10
0.0
 20
0.0
 30
0.0
  3
DA_IMAGEDIMGROUP_6
  1

  0
LINE
  5
E5
  8
LAYER0014
  6
CONTINUOUS
 62
     7
 10
-57.56048247604113
 20
-26.64952425558725
 30
0.0
 11
-57.56048247604113
 21
54.51714368264517
 31
0.0
  0
INSERT
  5
E6
  8
LAYER0014
 62
     7
  2
_OPEN30
 10
-57.56048247604113
 20
-26.64952425558725
 30
0.0
 41
1.999998407630662
 42
2.000005728319971
 50
270.0
  0
LINE
  5
E7
  8
LAYER0014
  6
CONTINUOUS
 62
     7
 10
-76.10237124420782
 20
-26.64952425558725
 30
0.0
 11
-56.56048247604113
 21
-26.64952425558725
 31
0.0
  0
TEXT
  5
E8
  8
LAYER0014
 62
     7
 10
-58.56048247604113
 20
23.19562614653555
 30
0.0
 40
4.0
  1
PCD115
 50
90.0
 41
0.7999999999999998
  7
FDASTYLE1
 72
     5
 11
-58.56048247604113
 21
42.39562614653555
 31
0.0
  0
ENDBLK
  5
5D
  8
0
  0
BLOCK
  8
0
  2
DA_IMAGEDIMGROUP_7
 70
     0
 10
0.0
 20
0.0
 30
0.0
  3
DA_IMAGEDIMGROUP_7
  1

  0
LINE
  5
E9
  8
LAYER0014
  6
CONTINUOUS
 62
     7
 10
-201.8564520547547
 20
-0.398784204317721
 30
0.0
 11
-185.8564520547547
 21
-0.398784204317721
 31
0.0
  0
INSERT
  5
EA
  8
LAYER0014
 62
     7
  2
_OPEN30
 10
-201.8564520547547
 20
-0.398784204317721
 30
0.0
 41
1.999998407630662
 42
2.000005728319971
 50
180.0
  0
INSERT
  5
EB
  8
LAYER0014
 62
     7
  2
_OPEN30
 10
-185.8564520547547
 20
-0.398784204317721
 30
0.0
 41
1.999998407630662
 42
2.000005728319971
 50
360.0
  0
TEXT
  5
EC
  8
LAYER0014
 62
     7
 10
-197.0564520547547
 20
0.601215795682279
 30
0.0
 40
4.0
  1
16
 41
0.7999999999999972
  7
FDASTYLE1
 72
     5
 11
-190.6564520547547
 21
0.601215795682279
 31
0.0
  0
ENDBLK
  5
60
  8
0
  0
BLOCK
  8
0
  2
DA_IMAGEDIMGROUP_8
 70
     0
 10
0.0
 20
0.0
 30
0.0
  3
DA_IMAGEDIMGROUP_8
  1

  0
LINE
  5
ED
  8
LAYER0014
  6
CONTINUOUS
 62
     7
 10
-185.8564520547547
 20
-0.398784204317721
 30
0.0
 11
-181.8564520547547
 21
-0.398784204317721
 31
0.0
  0
TEXT
  5
EE
  8
LAYER0014
 62
     7
 10
-185.4564520547547
 20
0.601215795682279
 30
0.0
 40
4.0
  1
4
 41
0.7999999999999972
  7
FDASTYLE1
 72
     5
 11
-182.2564520547547
 21
0.601215795682279
 31
0.0
  0
ENDBLK
  5
63
  8
0
  0
BLOCK
  8
0
  2
DA_IMAGEDIMGROUP_9
 70
     0
 10
0.0
 20
0.0
 30
0.0
  3
DA_IMAGEDIMGROUP_9
  1

  0
LINE
  5
EF
  8
LAYER0014
  6
CONTINUOUS
 62
     7
 10
-181.8564520547547
 20
-0.398784204317721
 30
0.0
 11
-151.8564520547547
 21
-0.398784204317721
 31
0.0
  0
INSERT
  5
F0
  8
LAYER0014
 62
     7
  2
_OPEN30
 10
-181.8564520547547
 20
-0.398784204317721
 30
0.0
 41
1.999998407630662
 42
2.000005728319971
 50
180.0
  0
INSERT
  5
F1
  8
LAYER0014
 62
     7
  2
_OPEN30
 10
-151.8564520547547
 20
-0.398784204317721
 30
0.0
 41
1.999998407630662
 42
2.000005728319971
 50
360.0
  0
TEXT
  5
F2
  8
LAYER0014
 62
     7
 10
-170.0564520547547
 20
0.601215795682279
 30
0.0
 40
4.0
  1
30
 41
0.7999999999999972
  7
FDASTYLE1
 72
     5
 11
-163.6564520547547
 21
0.601215795682279
 31
0.0
  0
ENDBLK
  5
66
  8
0
  0
BLOCK
  8
0
  2
DA_IMAGEDIMGROUP_10
 70
     0
 10
0.0
 20
0.0
 30
0.0
  3
DA_IMAGEDIMGROUP_10
  1

  0
LINE
  5
F3
  8
LAYER0014
  6
CONTINUOUS
 62
     7
 10
-151.8564520547547
 20
-0.398784204317721
 30
0.0
 11
-96.3564520547547
 21
-0.398784204317721
 31
0.0
  0
INSERT
  5
F4
  8
LAYER0014
 62
     7
  2
_OPEN30
 10
-151.8564520547547
 20
-0.398784204317721
 30
0.0
 41
1.999998407630662
 42
2.000005728319971
 50
180.0
  0
INSERT
  5
F5
  8
LAYER0014
 62
     7
  2
_OPEN30
 10
-96.3564520547547
 20
-0.398784204317721
 30
0.0
 41
1.999998407630662
 42
2.000005728319971
 50
360.0
  0
TEXT
  5
F6
  8
LAYER0014
 62
     7
 10
-130.5064520547547
 20
0.601215795682279
 30
0.0
 40
4.0
  1
55.5
 41
0.8000000000000007
  7
FDASTYLE1
 72
     5
 11
-117.7064520547547
 21
0.601215795682279
 31
0.0
  0
ENDBLK
  5
69
  8
0
  0
BLOCK
  8
0
  2
DA_IMAGEDIMGROUP_11
 70
     0
 10
0.0
 20
0.0
 30
0.0
  3
DA_IMAGEDIMGROUP_11
  1

  0
LINE
  5
F7
  8
LAYER0014
  6
CONTINUOUS
 62
     7
 10
-96.3564520547547
 20
-0.398784204317721
 30
0.0
 11
-84.86046511627814
 21
-0.398784204317721
 31
0.0
  0
LINE
  5
F8
  8
LAYER0014
  6
CONTINUOUS
 62
     7
 10
-68.12861511627813
 20
-0.398784204317721
 30
0.0
 11
-84.86046511627814
 21
-0.398784204317721
 31
0.0
  0
INSERT
  5
F9
  8
LAYER0014
 62
     7
  2
_OPEN30
 10
-84.86046511627814
 20
-0.398784204317721
 30
0.0
 41
1.999998407630662
 42
2.000005728319971
 50
180.0
  0
LINE
  5
FA
  8
LAYER0014
  6
CONTINUOUS
 62
     7
 10
-101.3564520547547
 20
-0.3987842043177204
 30
0.0
 11
-96.3564520547547
 21
-0.398784204317721
 31
0.0
  0
INSERT
  5
FB
  8
LAYER0014
 62
     7
  2
_OPEN30
 10
-96.3564520547547
 20
-0.398784204317721
 30
0.0
 41
1.999998407630662
 42
2.000005728319971
 50
360.0
  0
TEXT
  5
FC
  8
LAYER0014
 62
     7
 10
-81.92861511627814
 20
0.601215795682279
 30
0.0
 40
4.0
  1
11.5
 41
0.7999999999999998
  7
FDASTYLE1
 72
     5
 11
-69.12861511627814
 21
0.601215795682279
 31
0.0
  0
ENDBLK
  5
6C
  8
0
  0
BLOCK
  8
0
  2
DA_IMAGEDIMGROUP_12
 70
     0
 10
0.0
 20
0.0
 30
0.0
  3
DA_IMAGEDIMGROUP_12
  1

  0
LINE
  5
FD
  8
LAYER0014
  6
CONTINUOUS
 62
     7
 10
-82.86046511627814
 20
85.81048337380727
 30
0.0
 11
-82.86046511627814
 21
79.56447263161978
 31
0.0
  0
LINE
  5
FE
  8
LAYER0014
  6
CONTINUOUS
 62
     7
 10
-84.86046511627814
 20
81.85047574441275
 30
0.0
 11
-82.86046511627814
 21
81.85047574441275
 31
0.0
  0
LINE
  5
FF
  8
LAYER0014
  6
CONTINUOUS
 62
     7
 10
-75.82832465593228
 20
81.85047574441275
 30
0.0
 11
-82.86046511627814
 21
81.85047574441275
 31
0.0
  0
INSERT
  5
100
  8
LAYER0014
 62
     7
  2
_OPEN30
 10
-82.86046511627814
 20
81.85047574441275
 30
0.0
 41
1.999998407630662
 42
2.000005728319971
 50
180.0
  0
LINE
  5
101
  8
LAYER0014
  6
CONTINUOUS
 62
     7
 10
-89.86046511627814
 20
81.85047574441275
 30
0.0
 11
-84.86046511627814
 21
81.85047574441275
 31
0.0
  0
INSERT
  5
102
  8
LAYER0014
 62
     7
  2
_OPEN30
 10
-84.86046511627814
 20
81.85047574441275
 30
0.0
 41
1.999998407630662
 42
2.000005728319971
 50
360.0
  0
TEXT
  5
103
  8
LAYER0014
 62
     7
 10
-80.02832465593227
 20
82.85047574441275
 30
0.0
 40
4.0
  1
2
 50
-0.1000000000000078
 41
0.8000000000000025
  7
FDASTYLE1
 72
     5
 11
-76.82832952980974
 21
82.84489069364187
 31
0.0
  0
ENDBLK
  5
6F
  8
0
  0
BLOCK
  8
0
  2
DA_IMAGEDIMGROUP_13
 70
     0
 10
0.0
 20
0.0
 30
0.0
  3
DA_IMAGEDIMGROUP_13
  1

  0
LINE
  5
104
  8
LAYER0014
  6
CONTINUOUS
 62
     7
 10
-204.1964551065125
 20
76.85047574441275
 30
0.0
 11
-219.0840674112
 21
76.85047574441275
 31
0.0
  0
LINE
  5
105
  8
LAYER0014
  6
CONTINUOUS
 62
     7
 10
-204.1964551065125
 20
-15.14952234823862
 30
0.0
 11
-219.0840674112
 21
-15.14952234823862
 31
0.0
  0
LINE
  5
106
  8
LAYER0014
  6
CONTINUOUS
 62
     7
 10
-216.7980719278016
 20
76.85047574441275
 30
0.0
 11
-216.7980719278016
 21
-15.14952234823862
 31
0.0
  0
INSERT
  5
107
  8
LAYER0014
 62
     7
  2
_OPEN30
 10
-216.7980719278016
 20
76.85047574441275
 30
0.0
 41
1.999998407630662
 42
2.000005728319971
 50
90.0
  0
INSERT
  5
108
  8
LAYER0014
 62
     7
  2
_OPEN30
 10
-216.7980719278016
 20
-15.14952234823862
 30
0.0
 41
1.999998407630662
 42
2.000005728319971
 50
270.0
  0
TEXT
  5
109
  8
LAYER0014
 62
     7
 10
-217.8204121308851
 20
18.05049619359697
 30
0.0
 40
4.0
  1
M92×P1.5
 50
89.90000000000001
 41
0.7804878048780496
  7
FDASTYLE1
 72
     5
 11
-217.7757317247181
 21
43.65045720257716
 31
0.0
  0
ENDBLK
  5
72
  8
0
  0
BLOCK
  8
0
  2
DA_IMAGEDIMGROUP_14
 70
     0
 10
0.0
 20
0.0
 30
0.0
  3
DA_IMAGEDIMGROUP_14
  1

  0
LINE
  5
10A
  8
LAYER0014
  6
CONTINUOUS
 62
     7
 10
-201.8564520547547
 20
75.81047574441274
 30
0.0
 11
-201.8564520547547
 21
52.28793378274283
 31
0.0
  0
LINE
  5
10B
  8
LAYER0014
  6
CONTINUOUS
 62
     7
 10
-176.8564520547547
 20
76.81047574441274
 30
0.0
 11
-176.8564520547547
 21
52.28793378274283
 31
0.0
  0
LINE
  5
10C
  8
LAYER0014
  6
CONTINUOUS
 62
     7
 10
-201.8564520547547
 20
54.57393308083853
 30
0.0
 11
-176.8564520547547
 21
54.57393308083853
 31
0.0
  0
INSERT
  5
10D
  8
LAYER0014
 62
     7
  2
_OPEN30
 10
-201.8564520547547
 20
54.57393308083853
 30
0.0
 41
1.999998407630662
 42
2.000005728319971
 50
180.0
  0
INSERT
  5
10E
  8
LAYER0014
 62
     7
  2
_OPEN30
 10
-176.8564520547547
 20
54.57393308083853
 30
0.0
 41
1.999998407630662
 42
2.000005728319971
 50
360.0
  0
TEXT
  5
10F
  8
LAYER0014
 62
     7
 10
-193.2730666736848
 20
55.5795181316094
 30
0.0
 40
4.0
  1
25
 50
-0.1000000000000078
 41
0.7999999999999954
  7
FDASTYLE1
 72
     5
 11
-186.8730764214398
 21
55.56834803006765
 31
0.0
  0
ENDBLK
  5
75
  8
0
  0
BLOCK
  8
0
  2
DA_IMAGEDIMGROUP_15
 70
     0
 10
0.0
 20
0.0
 30
0.0
  3
DA_IMAGEDIMGROUP_15
  1

  0
LINE
  5
110
  8
LAYER0014
  6
CONTINUOUS
 62
     7
 10
-205.4004651162781
 20
-46.84952120382944
 30
0.0
 11
-219.4475317666688
 21
-46.84952120382944
 31
0.0
  0
LINE
  5
111
  8
LAYER0014
  6
CONTINUOUS
 62
     7
 10
-205.4004651162781
 20
-62.84952120382944
 30
0.0
 11
-219.4475317666688
 21
-62.84952120382944
 31
0.0
  0
LINE
  5
112
  8
LAYER0014
  6
CONTINUOUS
 62
     7
 10
-217.1615362832703
 20
-46.84952120382944
 30
0.0
 11
-217.1615362832703
 21
-62.84952120382944
 31
0.0
  0
INSERT
  5
113
  8
LAYER0014
 62
     7
  2
_OPEN30
 10
-217.1615362832703
 20
-46.84952120382944
 30
0.0
 41
1.999998407630662
 42
2.000005728319971
 50
90.0
  0
INSERT
  5
114
  8
LAYER0014
 62
     7
  2
_OPEN30
 10
-217.1615362832703
 20
-62.84952120382944
 30
0.0
 41
1.999998407630662
 42
2.000005728319971
 50
270.0
  0
TEXT
  5
115
  8
LAYER0014
 62
     7
 10
-218.1699138594266
 20
-59.64951389301323
 30
0.0
 40
4.0
  1
M16
 50
89.90000000000001
 41
0.8000000000000019
  7
FDASTYLE1
 72
     5
 11
-218.153158707114
 21
-50.04952851464564
 31
0.0
  0
ENDBLK
  5
78
  8
0
  0
BLOCK
  8
0
  2
DA_IMAGEDIMGROUP_16
 70
     0
 10
0.0
 20
0.0
 30
0.0
  3
DA_IMAGEDIMGROUP_16
  1

  0
LINE
  5
116
  8
LAYER0014
  6
CONTINUOUS
 62
     7
 10
-202.8604651162781
 20
-65.38952120382945
 30
0.0
 11
-202.8604651162781
 21
-75.58599428732553
 31
0.0
  0
LINE
  5
117
  8
LAYER0014
  6
CONTINUOUS
 62
     7
 10
-202.8604651162781
 20
-73.29999117453257
 30
0.0
 11
-175.660468168036
 21
-73.29999117453257
 31
0.0
  0
INSERT
  5
118
  8
LAYER0014
 62
     7
  2
_OPEN30
 10
-202.8604651162781
 20
-73.29999117453257
 30
0.0
 41
1.999998407630662
 42
2.000005728319971
 50
180.0
  0
INSERT
  5
119
  8
LAYER0014
 62
     7
  2
_OPEN30
 10
-175.660468168036
 20
-73.29999117453257
 30
0.0
 41
1.999998407630662
 42
2.000005728319971
 50
360.0
  0
TEXT
  5
11A
  8
LAYER0014
 62
     7
 10
-195.6604666421571
 20
-72.29999117453257
 30
0.0
 40
4.0
  1
27.2
 41
0.8000000000000007
  7
FDASTYLE1
 72
     5
 11
-182.860466642157
 21
-72.29999117453257
 31
0.0
  0
ENDBLK
  5
7B
  8
0
  0
BLOCK
  8
0
  2
DA_IMAGEDIMGROUP_17
 70
     0
 10
0.0
 20
0.0
 30
0.0
  3
DA_IMAGEDIMGROUP_17
  1

  0
LINE
  5
11B
  8
LAYER0014
  6
CONTINUOUS
 62
     7
 10
-50.55299761749884
 20
102.8504833738073
 30
0.0
 11
-45.06475741364142
 21
102.8504833738073
 31
0.0
  0
LINE
  5
11C
  8
LAYER0014
  6
CONTINUOUS
 62
     7
 10
-50.55299761749884
 20
132.8504833738073
 30
0.0
 11
-45.06475741364142
 21
132.8504833738073
 31
0.0
  0
LINE
  5
11D
  8
LAYER0014
  6
CONTINUOUS
 62
     7
 10
-46.06475741364142
 20
102.8504833738073
 30
0.0
 11
-46.06475741364142
 21
132.8504833738073
 31
0.0
  0
INSERT
  5
11E
  8
LAYER0014
 62
     7
  2
_OPEN30
 10
-46.06475741364142
 20
102.8504833738073
 30
0.0
 41
1.999998407630662
 42
2.000005728319971
 50
270.0
  0
INSERT
  5
11F
  8
LAYER0014
 62
     7
  2
_OPEN30
 10
-46.06475741364142
 20
132.8504833738073
 30
0.0
 41
1.999998407630662
 42
2.000005728319971
 50
90.0
  0
TEXT
  5
120
  8
LAYER0014
 62
     7
 10
-47.06475741364142
 20
114.6504833738073
 30
0.0
 40
4.0
  1
30
 50
90.0
 41
0.8000000000000007
  7
FDASTYLE1
 72
     5
 11
-47.06475741364142
 21
121.0504833738073
 31
0.0
  0
ENDBLK
  5
7E
  8
0
  0
BLOCK
  8
0
  2
DA_IMAGEDIMGROUP_18
 70
     0
 10
0.0
 20
0.0
 30
0.0
  3
DA_IMAGEDIMGROUP_18
  1

  0
LINE
  5
121
  8
LAYER0014
  6
CONTINUOUS
 62
     7
 10
11.01997762953136
 20
-24.25926367337599
 30
0.0
 11
-5.847464694145572
 21
-33.99768322220619
 31
0.0
  0
LINE
  5
122
  8
LAYER0014
  6
CONTINUOUS
 62
     7
 10
21.01998273271324
 20
-41.57977849863529
 30
0.0
 11
4.152538694487475
 21
-51.31820144897809
 31
0.0
  0
LINE
  5
123
  8
LAYER0014
  6
CONTINUOUS
 62
     7
 10
-3.867729528222355
 20
-32.85468465523034
 30
0.0
 11
6.132272140707357
 21
-50.17519856757689
 31
0.0
  0
INSERT
  5
124
  8
LAYER0014
 62
     7
  2
_OPEN30
 10
-3.867729528222355
 20
-32.85468465523034
 30
0.0
 41
1.999998407630662
 42
2.000005728319971
 50
119.9999957801861
  0
INSERT
  5
125
  8
LAYER0014
 62
     7
  2
_OPEN30
 10
6.132272140707357
 20
-50.17519856757689
 30
0.0
 41
1.999998407630662
 42
2.000005728319971
 50
299.9999957801861
  0
TEXT
  5
126
  8
LAYER0014
 62
     7
 10
-0.6820881306539413
 20
-35.1723791518356
 30
0.0
 40
4.0
  1
20H8
 50
-59.99999999999999
 41
0.7999999999999998
  7
FDASTYLE1
 72
     5
 11
5.717911869346059
 21
-46.25750432027641
 31
0.0
  0
ENDBLK
  5
81
  8
0
  0
BLOCK
  8
0
  2
DA_IMAGEDIMGROUP_19
 70
     0
 10
0.0
 20
0.0
 30
0.0
  3
DA_IMAGEDIMGROUP_19
  1

  0
LINE
  5
127
  8
LAYER0014
  6
CONTINUOUS
 62
     7
 10
63.67427243254998
 20
122.8504757444128
 30
0.0
 11
-14.14647013641974
 21
122.8504757444128
 31
0.0
  0
LINE
  5
128
  8
LAYER0014
  6
CONTINUOUS
 62
     7
 10
-13.73380337692877
 20
30.85047574441275
 30
0.0
 11
-14.14647013641974
 21
30.85047574441275
 31
0.0
  0
LINE
  5
129
  8
LAYER0014
  6
CONTINUOUS
 62
     7
 10
-11.86047036148688
 20
122.8504757444128
 30
0.0
 11
-11.86047036148688
 21
30.85047574441275
 31
0.0
  0
INSERT
  5
12A
  8
LAYER0014
 62
     7
  2
_OPEN30
 10
-11.86047036148688
 20
122.8504757444128
 30
0.0
 41
1.999998407630662
 42
2.000005728319971
 50
90.0
  0
INSERT
  5
12B
  8
LAYER0014
 62
     7
  2
_OPEN30
 10
-11.86047036148688
 20
30.85047574441275
 30
0.0
 41
1.999998407630662
 42
2.000005728319971
 50
270.0
  0
TEXT
  5
12C
  8
LAYER0014
 62
     7
 10
-12.86605541225775
 20
73.65048061829022
 30
0.0
 40
4.0
  1
92
 50
89.90000000000001
 41
0.8000000000000007
  7
FDASTYLE1
 72
     5
 11
-12.854885310716
 21
80.05047087053526
 31
0.0
  0
ENDBLK
  5
84
  8
0
  0
BLOCK
  8
0
  2
DA_IMAGEDIMGROUP_20
 70
     0
 10
0.0
 20
0.0
 30
0.0
  3
DA_IMAGEDIMGROUP_20
  1

  0
LINE
  5
12D
  8
LAYER0014
  6
CONTINUOUS
 62
     7
 10
4.769977933014157
 20
-13.433949141924
 30
0.0
 11
-23.10023727775905
 21
-29.52482568503949
 31
0.0
  0
LINE
  5
12E
  8
LAYER0014
  6
CONTINUOUS
 62
     7
 10
27.26997895057255
 20
-52.40509432889773
 30
0.0
 11
-0.6002374990599151
 21
-68.49597158726895
 31
0.0
  0
LINE
  5
12F
  8
LAYER0014
  6
CONTINUOUS
 62
     7
 10
-21.12050427558629
 20
-28.38182525257587
 30
0.0
 11
1.379497721169116
 21
-67.3529735047557
 31
0.0
  0
INSERT
  5
130
  8
LAYER0014
 62
     7
  2
_OPEN30
 10
-21.12050427558629
 20
-28.38182525257587
 30
0.0
 41
1.999998407630662
 42
2.000005728319971
 50
119.9999989665127
  0
INSERT
  5
131
  8
LAYER0014
 62
     7
  2
_OPEN30
 10
1.379497721169116
 20
-67.3529735047557
 30
0.0
 41
1.999998407630662
 42
2.000005728319971
 50
299.9999989665127
  0
TEXT
  5
132
  8
LAYER0014
 62
     7
 10
-10.08486189240321
 20
-44.29611939780322
 30
0.0
 40
4.0
  1
45
 50
-59.99999999999999
 41
0.7999999999999998
  7
FDASTYLE1
 72
     5
 11
-6.884861892403209
 21
-49.83868198202363
 31
0.0
  0
ENDBLK
  5
87
  8
0
  0
BLOCK
  8
0
  2
DA_IMAGEDIMGROUP_21
 70
     0
 10
0.0
 20
0.0
 30
0.0
  3
DA_IMAGEDIMGROUP_21
  1

  0
LINE
  5
133
  8
LAYER0014
  6
CONTINUOUS
 62
     7
 10
-80.32046511627813
 20
88.35048337380728
 30
0.0
 11
-43.77875811554571
 21
88.35048337380728
 31
0.0
  0
LINE
  5
134
  8
LAYER0014
  6
CONTINUOUS
 62
     7
 10
-50.95053866364142
 20
102.8504833738073
 30
0.0
 11
-43.94953829743048
 21
102.8504833738073
 31
0.0
  0
LINE
  5
135
  8
LAYER0014
  6
CONTINUOUS
 62
     7
 10
-46.06475741364142
 20
88.35048337380728
 30
0.0
 11
-46.06475741364142
 21
102.8504833738073
 31
0.0
  0
INSERT
  5
136
  8
LAYER0014
 62
     7
  2
_OPEN30
 10
-46.06475741364142
 20
88.35048337380728
 30
0.0
 41
1.999998407630662
 42
2.000005728319971
 50
270.0
  0
INSERT
  5
137
  8
LAYER0014
 62
     7
  2
_OPEN30
 10
-46.06475741364142
 20
102.8504833738073
 30
0.0
 41
1.999998407630662
 42
2.000005728319971
 50
90.0
  0
TEXT
  5
138
  8
LAYER0014
 62
     7
 10
-47.06475741364142
 20
92.40048337380728
 30
0.0
 40
4.0
  1
12
 50
90.0
 41
0.8000000000000007
  7
FDASTYLE1
 72
     5
 11
-47.06475741364142
 21
98.80048337380728
 31
0.0
  0
ENDBLK
  5
8A
  8
0
  0
BLOCK
  8
0
  2
DA_IMAGEDIMGROUP_22
 70
     0
 10
0.0
 20
0.0
 30
0.0
  3
DA_IMAGEDIMGROUP_22
  1

  0
LINE
  5
139
  8
LAYER0014
  6
CONTINUOUS
 62
     7
 10
-31.58172236420294
 20
30.85047574441275
 30
0.0
 11
-44.69380480744025
 21
30.85047574441275
 31
0.0
  0
LINE
  5
13A
  8
LAYER0014
  6
CONTINUOUS
 62
     7
 10
-80.32046511627813
 20
88.35048337380728
 30
0.0
 11
-31.64542681671759
 21
88.35048337380728
 31
0.0
  0
LINE
  5
13B
  8
LAYER0014
  6
CONTINUOUS
 62
     7
 10
-33.93142611481329
 20
30.85047574441275
 30
0.0
 11
-33.93142611481329
 21
88.35048337380728
 31
0.0
  0
INSERT
  5
13C
  8
LAYER0014
 62
     7
  2
_OPEN30
 10
-33.93142611481329
 20
30.85047574441275
 30
0.0
 41
1.999998407630662
 42
2.000005728319971
 50
270.0
  0
INSERT
  5
13D
  8
LAYER0014
 62
     7
  2
_OPEN30
 10
-33.93142611481329
 20
88.35048337380728
 30
0.0
 41
1.999998407630662
 42
2.000005728319971
 50
90.0
  0
TEXT
  5
13E
  8
LAYER0014
 62
     7
 10
-34.93142611481329
 20
46.80047955911002
 30
0.0
 40
4.0
  1
MAX 59.3
 50
90.0
 41
0.7999999999999998
  7
FDASTYLE1
 72
     5
 11
-34.93142611481329
 21
72.40047955911001
 31
0.0
  0
ENDBLK
  5
8D
  8
0
  0
BLOCK
  8
0
  2
DA_IMAGEDIMGROUP_23
 70
     0
 10
0.0
 20
0.0
 30
0.0
  3
DA_IMAGEDIMGROUP_23
  1

  0
LINE
  5
13F
  8
LAYER0014
  6
CONTINUOUS
 62
     7
 10
-80.32046511627813
 20
88.35048337380728
 30
0.0
 11
-31.64542681671759
 21
88.35048337380728
 31
0.0
  0
LINE
  5
140
  8
LAYER0014
  6
CONTINUOUS
 62
     7
 10
-80.32046511627813
 20
155.8504833738073
 30
0.0
 11
-31.64542681671759
 21
155.8504833738073
 31
0.0
  0
LINE
  5
141
  8
LAYER0014
  6
CONTINUOUS
 62
     7
 10
-33.93142611481329
 20
88.35048337380728
 30
0.0
 11
-33.93142611481329
 21
155.8504833738073
 31
0.0
  0
INSERT
  5
142
  8
LAYER0014
 62
     7
  2
_OPEN30
 10
-33.93142611481329
 20
88.35048337380728
 30
0.0
 41
1.999998407630662
 42
2.000005728319971
 50
270.0
  0
INSERT
  5
143
  8
LAYER0014
 62
     7
  2
_OPEN30
 10
-33.93142611481329
 20
155.8504833738073
 30
0.0
 41
1.999998407630662
 42
2.000005728319971
 50
90.0
  0
TEXT
  5
144
  8
LAYER0014
 62
     7
 10
-34.93142611481329
 20
115.7004833738073
 30
0.0
 40
4.0
  1
67.5
 50
90.0
 41
0.8000000000000007
  7
FDASTYLE1
 72
     5
 11
-34.93142611481329
 21
128.5004833738073
 31
0.0
  0
ENDBLK
  5
90
  8
0
  0
BLOCK
  8
0
  2
DC_GROUP_1
 70
     0
 10
0.0
 20
0.0
 30
0.0
  3
DC_GROUP_1
  1

  0
LINE
  5
145
  8
LAYER0014
  6
CONTINUOUS
 62
     7
 10
-82.79261296816861
 20
149.6011981443237
 30
0.0
 11
-64.45927907811569
 21
172.9345302566992
 31
0.0
  0
INSERT
  5
146
  8
LAYER0014
 62
     7
  2
_OPEN30
 10
-82.79261296816861
 20
149.6011981443237
 30
0.0
 41
1.999998407630662
 42
2.000005728319971
 50
231.842771110901
  0
LINE
  5
147
  8
LAYER0014
  6
CONTINUOUS
 62
     7
 10
-64.45927721954962
 20
172.9345287839635
 30
0.0
 11
-13.87832266785284
 21
172.9345287839635
 31
0.0
  0
TEXT
  5
148
  8
LAYER0014
 62
     7
 10
-62.7926092813172
 20
174.5345287839635
 30
0.0
 40
4.0
  1
ｾﾚｰｼｮﾝP1.5 山60ﾟ
 41
0.7894736842105263
  7
FDASTYLE1
 72
     5
 11
-14.7926092813172
 21
174.5345287839635
 31
0.0
  0
ENDBLK
  5
93
  8
0
  0
BLOCK
  8
0
  2
DC_GROUP_2
 70
     0
 10
0.0
 20
0.0
 30
0.0
  3
DC_GROUP_2
  1

  0
LINE
  5
149
  8
LAYER0014
  6
CONTINUOUS
 62
     7
 10
-63.45929326088975
 20
138.2678637745114
 30
0.0
 11
-48.12595837370503
 21
162.6011915984384
 31
0.0
  0
INSERT
  5
14A
  8
LAYER0014
 62
     7
  2
_OPEN30
 10
-63.45929326088975
 20
138.2678637745114
 30
0.0
 41
1.999998407630662
 42
2.000005728319971
 50
237.7834454714099
  0
LINE
  5
14B
  8
LAYER0014
  6
CONTINUOUS
 62
     7
 10
-48.12595278717657
 20
162.6012005368932
 30
0.0
 11
-36.61167056061407
 21
162.6012005368932
 31
0.0
  0
TEXT
  5
14C
  8
LAYER0014
 62
     7
 10
-47.12595660187384
 20
164.2012005368932
 30
0.0
 40
4.0
  1
M12
 41
0.8000000000000002
  7
FDASTYLE1
 72
     5
 11
-37.52595660187384
 21
164.2012005368932
 31
0.0
  0
ENDBLK
  5
96
  8
0
  0
BLOCK
  8
0
  2
DA_IMAGEDIMGROUP_24
 70
     0
 10
0.0
 20
0.0
 30
0.0
  3
DA_IMAGEDIMGROUP_24
  1

  0
LINE
  5
14D
  8
LAYER0014
  6
CONTINUOUS
 62
     7
 10
-179.8604651162781
 20
-119.0476642092005
 30
0.0
 11
-175.660468168036
 21
-119.0476642092005
 31
0.0
  0
LINE
  5
14E
  8
LAYER0014
  6
CONTINUOUS
 62
     7
 10
-179.8604651162781
 20
-96.68952425558726
 30
0.0
 11
-179.8604651162781
 21
-120.0476642092005
 31
0.0
  0
LINE
  5
14F
  8
LAYER0014
  6
CONTINUOUS
 62
     7
 10
-162.0426048552718
 20
-119.0476642092005
 30
0.0
 11
-175.660468168036
 21
-119.0476642092005
 31
0.0
  0
INSERT
  5
150
  8
LAYER0014
 62
     7
  2
_OPEN30
 10
-175.660468168036
 20
-119.0476642092005
 30
0.0
 41
1.999998407630662
 42
2.000005728319971
 50
180.0
  0
LINE
  5
151
  8
LAYER0014
  6
CONTINUOUS
 62
     7
 10
-184.8604651162781
 20
-119.0476642092005
 30
0.0
 11
-179.8604651162781
 21
-119.0476642092005
 31
0.0
  0
INSERT
  5
152
  8
LAYER0014
 62
     7
  2
_OPEN30
 10
-179.8604651162781
 20
-119.0476642092005
 30
0.0
 41
1.999998407630662
 42
2.000005728319971
 50
360.0
  0
TEXT
  5
153
  8
LAYER0014
 62
     7
 10
-172.6426048552718
 20
-118.0476642092005
 30
0.0
 40
4.0
  1
4.2
 50
-0.1000000000000078
 41
0.8000000000000002
  7
FDASTYLE1
 72
     5
 11
-163.0426194769042
 21
-118.0644193615132
 31
0.0
  0
ENDBLK
  5
99
  8
0
  0
BLOCK
  8
0
  2
DA_IMAGEDIMGROUP_25
 70
     0
 10
0.0
 20
0.0
 30
0.0
  3
DA_IMAGEDIMGROUP_25
  1

  0
LINE
  5
154
  8
LAYER0014
  6
CONTINUOUS
 62
     7
 10
-175.660468168036
 20
-129.6942782839076
 30
0.0
 11
-84.86046511627814
 21
-129.6942782839076
 31
0.0
  0
INSERT
  5
155
  8
LAYER0014
 62
     7
  2
_OPEN30
 10
-175.660468168036
 20
-129.6942782839076
 30
0.0
 41
1.999998407630662
 42
2.000005728319971
 50
180.0
  0
INSERT
  5
156
  8
LAYER0014
 62
     7
  2
_OPEN30
 10
-84.86046511627814
 20
-129.6942782839076
 30
0.0
 41
1.999998407630662
 42
2.000005728319971
 50
360.0
  0
LINE
  5
157
  8
LAYER0014
  6
CONTINUOUS
 62
     7
 10
-175.660468168036
 20
-84.18952425558726
 30
0.0
 11
-175.660468168036
 21
-130.6942782839076
 31
0.0
  0
LINE
  5
158
  8
LAYER0014
  6
CONTINUOUS
 62
     7
 10
-84.86046511627814
 20
-94.68952425558726
 30
0.0
 11
-84.86046511627814
 21
-130.6942782839076
 31
0.0
  0
TEXT
  5
159
  8
LAYER0014
 62
     7
 10
-136.6604666421571
 20
-128.6942782839076
 30
0.0
 40
4.0
  1
90.8
 41
0.8000000000000007
  7
FDASTYLE1
 72
     5
 11
-123.860466642157
 21
-128.6942782839076
 31
0.0
  0
ENDBLK
  5
9C
  8
0
  0
BLOCK
  8
0
  2
DA_IMAGEDIMGROUP_26
 70
     0
 10
0.0
 20
0.0
 30
0.0
  3
DA_IMAGEDIMGROUP_26
  1

  0
LINE
  5
15A
  8
LAYER0014
  6
CONTINUOUS
 62
     7
 10
-179.8604651162781
 20
-140.6445346315638
 30
0.0
 11
-84.86046511627814
 21
-140.6445346315638
 31
0.0
  0
INSERT
  5
15B
  8
LAYER0014
 62
     7
  2
_OPEN30
 10
-179.8604651162781
 20
-140.6445346315638
 30
0.0
 41
1.999998407630662
 42
2.000005728319971
 50
180.0
  0
INSERT
  5
15C
  8
LAYER0014
 62
     7
  2
_OPEN30
 10
-84.86046511627814
 20
-140.6445346315638
 30
0.0
 41
1.999998407630662
 42
2.000005728319971
 50
360.0
  0
LINE
  5
15D
  8
LAYER0014
  6
CONTINUOUS
 62
     7
 10
-179.8604651162781
 20
-96.68952425558726
 30
0.0
 11
-179.8604651162781
 21
-141.6445346315638
 31
0.0
  0
LINE
  5
15E
  8
LAYER0014
  6
CONTINUOUS
 62
     7
 10
-84.86046511627814
 20
-94.68952425558726
 30
0.0
 11
-84.86046511627814
 21
-141.6445346315638
 31
0.0
  0
TEXT
  5
15F
  8
LAYER0014
 62
     7
 10
-135.5604651162781
 20
-139.6445346315638
 30
0.0
 40
4.0
  1
95
 41
0.7999999999999972
  7
FDASTYLE1
 72
     5
 11
-129.1604651162782
 21
-139.6445346315638
 31
0.0
  0
ENDBLK
  5
9F
  8
0
  0
BLOCK
  8
0
  2
DA_IMAGEDIMGROUP_27
 70
     0
 10
0.0
 20
0.0
 30
0.0
  3
DA_IMAGEDIMGROUP_27
  1

  0
LINE
  5
160
  8
LAYER0014
  6
CONTINUOUS
 62
     7
 10
-82.32046511627813
 20
-35.14952425558725
 30
0.0
 11
-44.0744696328797
 21
-35.14952425558725
 31
0.0
  0
LINE
  5
161
  8
LAYER0014
  6
CONTINUOUS
 62
     7
 10
-46.3604689309754
 20
-35.14952425558725
 30
0.0
 11
-46.3604689309754
 21
54.51714368264517
 31
0.0
  0
INSERT
  5
162
  8
LAYER0014
 62
     7
  2
_OPEN30
 10
-46.3604689309754
 20
-35.14952425558725
 30
0.0
 41
1.999998407630662
 42
2.000005728319971
 50
270.0
  0
TEXT
  5
163
  8
LAYER0014
 62
     7
 10
-47.3604689309754
 20
25.97341114434511
 30
0.0
 40
4.0
  1
φ132
 50
90.0
 41
0.7619047619047618
  7
FDASTYLE1
 72
     5
 11
-47.3604689309754
 21
38.7734111443451
 31
0.0
  0
ENDBLK
  5
A2
  8
0
  0
BLOCK
  8
0
  2
DC_GROUP_3
 70
     0
 10
0.0
 20
0.0
 30
0.0
  3
DC_GROUP_3
  1

  0
LINE
  5
164
  8
LAYER0014
  6
CONTINUOUS
 62
     7
 10
127.3588364088678
 20
-29.38380352097077
 30
0.0
 11
157.6959546011918
 21
-107.8085523160487
 31
0.0
  0
INSERT
  5
165
  8
LAYER0014
 62
     7
  2
_OPEN30
 10
127.3588364088678
 20
-29.38380352097077
 30
0.0
 41
1.999998407630662
 42
2.000005728319971
 50
111.1480116304081
  0
LINE
  5
166
  8
LAYER0014
  6
CONTINUOUS
 62
     7
 10
157.695961885675
 20
-107.8085513551966
 30
0.0
 11
196.1946954061828
 21
-107.8085513551966
 31
0.0
  0
TEXT
  5
167
  8
LAYER0014
 62
     7
 10
159.1661156942687
 20
-106.2085513551966
 30
0.0
 40
4.0
  1
3-M5 PCD115
 41
0.7999999999999997
  7
FDASTYLE1
 72
     5
 11
194.3661156942687
 21
-106.2085513551966
 31
0.0
  0
ENDBLK
  5
A5
  8
0
  0
BLOCK
  8
0
  2
DC_GROUP_4
 70
     0
 10
0.0
 20
0.0
 30
0.0
  3
DC_GROUP_4
  1

  0
LINE
  5
168
  8
LAYER0014
  6
CONTINUOUS
 62
     7
 10
97.22002896737328
 20
-63.19808969336377
 30
0.0
 11
73.38192972054804
 21
-107.8085520690126
 31
0.0
  0
INSERT
  5
169
  8
LAYER0014
 62
     7
  2
_OPEN30
 10
97.22002896737328
 20
-63.19808969336377
 30
0.0
 41
1.999998407630662
 42
2.000005728319971
 50
61.8816830927924
  0
LINE
  5
16A
  8
LAYER0014
  6
CONTINUOUS
 62
     7
 10
73.38192837737421
 20
-107.8085513551966
 30
0.0
 11
44.72819226287226
 21
-107.8085513551966
 31
0.0
  0
TEXT
  5
16B
  8
LAYER0014
 62
     7
 10
46.55676205657343
 20
-106.2085513551966
 30
0.0
 40
4.0
  1
PCD171.4
 41
0.8
  7
FDASTYLE1
 72
     5
 11
72.15676205657343
 21
-106.2085513551966
 31
0.0
  0
ENDBLK
  5
A8
  8
0
  0
BLOCK
  8
0
  2
DA_IMAGEDIMGROUP_28
 70
     0
 10
0.0
 20
0.0
 30
0.0
  3
DA_IMAGEDIMGROUP_28
  1

  0
LINE
  5
16C
  8
LAYER0014
  6
CONTINUOUS
 62
     7
 10
126.4728631307922
 20
167.8102544919714
 30
0.0
 11
126.4728631307922
 21
163.6662334958776
 31
0.0
  0
LINE
  5
16D
  8
LAYER0014
  6
CONTINUOUS
 62
     7
 10
81.47286313079218
 20
139.3904681150182
 30
0.0
 11
81.47286313079218
 21
169.469807104276
 31
0.0
  0
LINE
  5
16E
  8
LAYER0014
  6
CONTINUOUS
 62
     7
 10
126.4728631307922
 20
167.1838116208776
 30
0.0
 11
81.47286313079218
 21
167.1838116208776
 31
0.0
  0
INSERT
  5
16F
  8
LAYER0014
 62
     7
  2
_OPEN30
 10
126.4728631307922
 20
167.1838116208776
 30
0.0
 41
1.999998407630662
 42
2.000005728319971
 50
360.0
  0
INSERT
  5
170
  8
LAYER0014
 62
     7
  2
_OPEN30
 10
81.47286313079218
 20
167.1838116208776
 30
0.0
 41
1.999998407630662
 42
2.000005728319971
 50
180.0
  0
TEXT
  5
171
  8
LAYER0014
 62
     7
 10
100.7728631307922
 20
168.1838116208776
 30
0.0
 40
4.0
  1
45
 41
0.8000000000000007
  7
FDASTYLE1
 72
     5
 11
107.1728631307922
 21
168.1838116208776
 31
0.0
  0
ENDBLK
  5
AB
  8
0
  0
BLOCK
  8
0
  2
DA_IMAGEDIMGROUP_29
 70
     0
 10
0.0
 20
0.0
 30
0.0
  3
DA_IMAGEDIMGROUP_29
  1

  0
LINE
  5
172
  8
LAYER0014
  6
CONTINUOUS
 62
     7
 10
98.97594144702443
 20
-71.7694735869554
 30
0.0
 11
89.12948117527282
 21
-108.5167189219794
 31
0.0
  0
LINE
  5
173
  8
LAYER0014
  6
CONTINUOUS
 62
     7
 10
126.4727906282225
 20
-106.3208606512623
 30
0.0
 11
126.4730143812609
 21
-113.7159879107258
 31
0.0
  0
ARC
  5
174
  8
LAYER0014
  6
CONTINUOUS
 62
     7
 10
126.4728631307922
 20
30.85046430032095
 30
0.0
 40
140.9790802001953
 50
254.9999800026359
 51
270.0000179860894
  0
INSERT
  5
175
  8
LAYER0014
 62
     7
  2
_OPEN30
 10
89.9847446860539
 20
-105.3248574964564
 30
0.0
 41
1.999998407630662
 42
2.000005728319971
 50
165.4063931233796
  0
INSERT
  5
176
  8
LAYER0014
 62
     7
  2
_OPEN30
 10
126.4729073864486
 20
-110.1286158998674
 30
0.0
 41
1.999998407630662
 42
2.000005728319971
 50
359.5936048653447
  0
TEXT
  5
177
  8
LAYER0014
 62
     7
 10
105.3233135055267
 20
-106.9940501969917
 30
0.0
 40
4.0
  1
15ﾟ
 50
-6.80000000000005
 41
0.7999999999999997
  7
FDASTYLE1
 72
     5
 11
114.8557823833494
 21
-108.1307282927341
 31
0.0
  0
ENDBLK
  5
AE
  8
0
  0
BLOCK
  8
0
  2
DC_GROUP_5
 70
     0
 10
0.0
 20
0.0
 30
0.0
  3
DC_GROUP_5
  1

  0
LINE
  5
178
  8
0
  6
CONTINUOUS
 62
     7
 10
-130.660468168036
 20
-94.20103832595662
 30
0.0
 11
-119.0512632624378
 21
-108.2482320912636
 31
0.0
  0
INSERT
  5
179
  8
0
 62
     7
  2
_OPEN30
 10
-130.660468168036
 20
-94.20103832595662
 30
0.0
 41
1.999998407630662
 42
2.000005728319971
 50
129.5717909925218
  0
LINE
  5
17A
  8
0
  6
CONTINUOUS
 62
     7
 10
-119.0512632624378
 20
-108.2482320912636
 30
0.0
 11
-100.2283819739915
 21
-108.2482320912636
 31
0.0
  0
TEXT
  5
17B
  8
0
 62
     7
 10
-119.4283819739915
 20
-108.2482320912636
 30
0.0
 40
4.0
  1
Ｍ10×20
 41
0.7500000000000001
  7
FDASTYLE1
 72
     5
 11
-100.2283819739915
 21
-108.2482320912636
 31
0.0
  0
ENDBLK
  5
B1
  8
0
  0
BLOCK
  8
0
  2
DA_IMAGEDIMGROUP_30
 70
     0
 10
0.0
 20
0.0
 30
0.0
  3
DA_IMAGEDIMGROUP_30
  1

  0
LINE
  5
17C
  8
0
  6
CONTINUOUS
 62
     9
 10
-130.660468168036
 20
-99.9803910044575
 30
0.0
 11
-130.660468168036
 21
-109.9245929669994
 31
0.0
  0
LINE
  5
17D
  8
0
  6
CONTINUOUS
 62
     9
 10
-175.660468168036
 20
-82.64952425558725
 30
0.0
 11
-175.660468168036
 21
-109.9245929669994
 31
0.0
  0
LINE
  5
17E
  8
0
  6
CONTINUOUS
 62
     9
 10
-175.660468168036
 20
-108.9245929669994
 30
0.0
 11
-130.660468168036
 21
-108.9245929669994
 31
0.0
  0
INSERT
  5
17F
  8
0
 62
     9
  2
_OPEN30
 10
-175.660468168036
 20
-108.9245929669994
 30
0.0
 41
1.999998407630662
 42
2.000005728319971
 50
180.0
  0
INSERT
  5
180
  8
0
 62
     9
  2
_OPEN30
 10
-130.660468168036
 20
-108.9245929669994
 30
0.0
 41
1.999998407630662
 42
2.000005728319971
 50
360.0
  0
TEXT
  5
181
  8
0
 62
     7
 10
-156.3604681680359
 20
-107.9245929669994
 30
0.0
 40
4.0
  1
45
 41
0.7999999999999972
  7
FDASTYLE1
 72
     5
 11
-149.960468168036
 21
-107.9245929669994
 31
0.0
  0
ENDBLK
  5
B4
  8
0
  0
BLOCK
  8
0
  2
DA_IMAGEDIMGROUP_31
 70
     0
 10
0.0
 20
0.0
 30
0.0
  3
DA_IMAGEDIMGROUP_31
  1

  0
LINE
  5
182
  8
0
  6
CONTINUOUS
 62
     9
 10
244.9781928442616
 20
99.26954693286785
 30
0.0
 11
238.3425374976659
 21
95.43844995552824
 31
0.0
  0
ARC
  5
183
  8
0
  6
CONTINUOUS
 62
     9
 10
126.4728722464898
 20
30.85047574441275
 30
0.0
 40
135.8381537155174
 50
0.0
 51
29.9999972589655
  0
INSERT
  5
184
  8
0
 62
     9
  2
_OPEN30
 10
262.3110259620072
 20
30.85047574441275
 30
0.0
 41
1.999998407630662
 42
2.000005728319971
 50
270.4217942189038
  0
INSERT
  5
185
  8
0
 62
     9
  2
_OPEN30
 10
244.1121674165572
 20
98.76954697429858
 30
0.0
 41
1.999998407630662
 42
2.000005728319971
 50
119.5782030400609
  0
TEXT
  5
186
  8
0
 62
     7
 10
255.9309965262617
 20
68.86312831395375
 30
0.0
 40
4.0
  1
30°
 50
108.4025333476229
 41
0.7499999999999997
  7
FDASTYLE1
 72
     5
 11
252.9003630084822
 21
77.97220403440481
 31
0.0
  0
ENDBLK
  5
B7
  8
0
  0
BLOCK
  8
0
  2
DA_IMAGEDIMGROUP_32
 70
     0
 10
0.0
 20
0.0
 30
0.0
  3
DA_IMAGEDIMGROUP_32
  1

  0
LINE
  5
187
  8
0
  6
CONTINUOUS
 62
     9
 10
274.0806720256803
 20
30.85047574441275
 30
0.0
 11
260.4728631307922
 21
30.85047574441275
 31
0.0
  0
LINE
  5
188
  8
0
  6
CONTINUOUS
 62
     9
 10
269.0510584763472
 20
69.05418748704629
 30
0.0
 11
227.6052957143778
 21
57.94883001095779
 31
0.0
  0
ARC
  5
189
  8
0
  6
CONTINUOUS
 62
     9
 10
126.472849992639
 20
30.85047574441275
 30
0.0
 40
146.6078220330414
 50
0.0
 51
14.99999847069179
  0
INSERT
  5
18A
  8
0
 62
     9
  2
_OPEN30
 10
273.0806720256803
 20
30.85047574441275
 30
0.0
 41
1.999998407630662
 42
2.000005728319971
 50
270.390809624952
  0
INSERT
  5
18B
  8
0
 62
     9
  2
_OPEN30
 10
268.0851326431499
 20
68.79536846772575
 30
0.0
 41
1.999998407630662
 42
2.000005728319971
 50
104.6091888457397
  0
TEXT
  5
18C
  8
0
 62
     7
 10
271.461502835919
 20
45.0971730422666
 30
0.0
 40
4.0
  1
15°
 50
97.4999992353459
 41
0.7500000000000014
  7
FDASTYLE1
 72
     5
 11
270.2084515176294
 21
54.61504372817809
 31
0.0
  0
ENDBLK
  5
BA
  8
0
  0
BLOCK
  8
0
  2
DA_IMAGEDIMGROUP_33
 70
     0
 10
0.0
 20
0.0
 30
0.0
  3
DA_IMAGEDIMGROUP_33
  1

  0
LINE
  5
18D
  8
0
  6
CONTINUOUS
 62
     9
 10
230.8435471666881
 20
135.2211459051784
 30
0.0
 11
200.506952766404
 21
104.8845540620779
 31
0.0
  0
ARC
  5
18E
  8
0
  6
CONTINUOUS
 62
     9
 10
126.4728748754659
 20
30.85048241174545
 30
0.0
 40
146.6024140472679
 50
14.99999847069177
 51
44.99999758516351
  0
INSERT
  5
18F
  8
0
 62
     9
  2
_OPEN30
 10
268.0799338128127
 20
68.79397544548401
 30
0.0
 41
1.999998407630662
 42
2.000005728319971
 50
285.3908225121377
  0
INSERT
  5
190
  8
0
 62
     9
  2
_OPEN30
 10
230.1364403556992
 20
134.5140391537942
 30
0.0
 41
1.999998407630662
 42
2.000005728319971
 50
134.6091735437169
  0
TEXT
  5
191
  8
0
 62
     7
 10
254.9682666554184
 20
99.49476307451124
 30
0.0
 40
4.0
  1
30°
 50
119.9999980279276
 41
0.7499999999999996
  7
FDASTYLE1
 72
     5
 11
250.1682669415739
 21
107.8086071160538
 31
0.0
  0
ENDBLK
  5
BD
  8
0
  0
BLOCK
  8
0
  2
_OPEN30
 70
     0
 10
0.0
 20
0.0
 30
0.0
  3
_OPEN30
  1

  0
LINE
  5
C4
  8
0
  6
BYBLOCK
 62
     0
 10
-1.0
 20
0.267949
 30
0.0
 11
0.0
 21
0.0
 31
0.0
  0
LINE
  5
C5
  8
0
  6
BYBLOCK
 62
     0
 10
0.0
 20
0.0
 30
0.0
 11
-1.0
 21
-0.267949
 31
0.0
  0
LINE
  5
C6
  8
0
  6
BYBLOCK
 62
     0
 10
0.0
 20
0.0
 30
0.0
 11
-1.0
 21
0.0
 31
0.0
  0
ENDBLK
  5
C3
  8
0
  0
ENDSEC
  0
SECTION
  2
ENTITIES
  0
LINE
  5
192
  8
ZUWAKU
  6
CONTINUOUS
 62
     3
 10
-277.0
 20
-190.0
 30
0.0
 11
-277.0
 21
190.0
 31
0.0
  0
LINE
  5
193
  8
ZUWAKU
  6
CONTINUOUS
 62
     3
 10
277.0
 20
-190.0
 30
0.0
 11
277.0
 21
190.0
 31
0.0
  0
LINE
  5
194
  8
ZUWAKU
  6
CONTINUOUS
 62
     3
 10
-277.0
 20
-190.0
 30
0.0
 11
277.0
 21
-190.0
 31
0.0
  0
LINE
  5
195
  8
ZUWAKU
  6
CONTINUOUS
 62
     3
 10
-277.0
 20
189.9999999999999
 30
0.0
 11
277.0
 21
189.9999999999999
 31
0.0
  0
LINE
  5
196
  8
ZUWAKU
  6
CONTINUOUS
 62
     3
 10
97.00000000000001
 20
-190.0
 30
0.0
 11
97.00000000000001
 21
-130.0
 31
0.0
  0
LINE
  5
197
  8
ZUWAKU
  6
CONTINUOUS
 62
     3
 10
97.00000000000001
 20
-176.0
 30
0.0
 11
277.0
 21
-176.0
 31
0.0
  0
LINE
  5
198
  8
ZUWAKU
  6
CONTINUOUS
 62
     3
 10
146.0
 20
-162.0
 30
0.0
 11
277.0
 21
-162.0
 31
0.0
  0
LINE
  5
199
  8
ZUWAKU
  6
CONTINUOUS
 62
     3
 10
146.0
 20
-148.0
 30
0.0
 11
277.0
 21
-148.0
 31
0.0
  0
LINE
  5
19A
  8
ZUWAKU
  6
CONTINUOUS
 62
     3
 10
146.0
 20
-138.0
 30
0.0
 11
277.0
 21
-138.0
 31
0.0
  0
LINE
  5
19B
  8
ZUWAKU
  6
CONTINUOUS
 62
     3
 10
146.0
 20
-176.0
 30
0.0
 11
146.0
 21
-130.0
 31
0.0
  0
LINE
  5
19C
  8
ZUWAKU
  6
CONTINUOUS
 62
     3
 10
255.0
 20
-176.0
 30
0.0
 11
255.0
 21
-130.0
 31
0.0
  0
LINE
  5
19D
  8
ZUWAKU
  6
CONTINUOUS
 62
     3
 10
171.0
 20
-190.0
 30
0.0
 11
171.0
 21
-176.0
 31
0.0
  0
LINE
  5
19E
  8
ZUWAKU
  6
CONTINUOUS
 62
     3
 10
262.0
 20
-188.0
 30
0.0
 11
272.0
 21
-188.0
 31
0.0
  0
LINE
  5
19F
  8
ZUWAKU
  6
CONTINUOUS
 62
     3
 10
267.0
 20
-178.0
 30
0.0
 11
262.0
 21
-188.0
 31
0.0
  0
LINE
  5
1A0
  8
ZUWAKU
  6
CONTINUOUS
 62
     3
 10
267.0
 20
-178.0
 30
0.0
 11
272.0
 21
-188.0
 31
0.0
  0
LINE
  5
1A1
  8
ZUWAKU
  6
CONTINUOUS
 62
     3
 10
97.00000000000001
 20
-130.0
 30
0.0
 11
277.0
 21
-130.0
 31
0.0
  0
LINE
  5
1A2
  8
ZUWAKU
  6
CONTINUOUS
 62
     3
 10
226.0
 20
-176.0
 30
0.0
 11
226.0
 21
-148.0
 31
0.0
  0
LINE
  5
1A3
  8
ZUWAKU
  6
CONTINUOUS
 62
     4
 10
105.0
 20
-172.0
 30
0.0
 11
105.0
 21
-130.0
 31
0.0
  0
LINE
  5
1A4
  8
ZUWAKU
  6
CONTINUOUS
 62
     4
 10
109.0
 20
-172.0
 30
0.0
 11
109.0
 21
-130.0
 31
0.0
  0
LINE
  5
1A5
  8
ZUWAKU
  6
CONTINUOUS
 62
     4
 10
121.5
 20
-176.0
 30
0.0
 11
121.5
 21
-130.0
 31
0.0
  0
LINE
  5
1A6
  8
ZUWAKU
  6
CONTINUOUS
 62
     4
 10
97.00000000000001
 20
-137.0
 30
0.0
 11
146.0
 21
-137.0
 31
0.0
  0
LINE
  5
1A7
  8
ZUWAKU
  6
CONTINUOUS
 62
     4
 10
97.00000000000001
 20
-144.0
 30
0.0
 11
146.0
 21
-144.0
 31
0.0
  0
LINE
  5
1A8
  8
ZUWAKU
  6
CONTINUOUS
 62
     4
 10
97.00000000000001
 20
-165.0
 30
0.0
 11
146.0
 21
-165.0
 31
0.0
  0
LINE
  5
1A9
  8
ZUWAKU
  6
CONTINUOUS
 62
     4
 10
97.00000000000001
 20
-172.0
 30
0.0
 11
146.0
 21
-172.0
 31
0.0
  0
LINE
  5
1AA
  8
ZUWAKU
  6
CONTINUOUS
 62
     4
 10
255.0
 20
-166.0
 30
0.0
 11
277.0
 21
-166.0
 31
0.0
  0
LINE
  5
1AB
  8
ZUWAKU
  6
CONTINUOUS
 62
     4
 10
202.0
 20
-148.0
 30
0.0
 11
202.0
 21
-146.5
 31
0.0
  0
LINE
  5
1AC
  8
ZUWAKU
  6
CONTINUOUS
 62
     4
 10
226.0
 20
-148.0
 30
0.0
 11
226.0
 21
-146.5
 31
0.0
  0
LINE
  5
1AD
  8
ZUWAKU
  6
CONTINUOUS
 62
     4
 10
243.0
 20
-148.0
 30
0.0
 11
243.0
 21
-146.5
 31
0.0
  0
LINE
  5
1AE
  8
ZUWAKU
  6
CONTINUOUS
 62
     4
 10
97.00000000000001
 20
-151.0
 30
0.0
 11
146.0
 21
-151.0
 31
0.0
  0
LINE
  5
1AF
  8
ZUWAKU
  6
CONTINUOUS
 62
     4
 10
97.00000000000001
 20
-158.0
 30
0.0
 11
146.0
 21
-158.0
 31
0.0
  0
LINE
  5
1B0
  8
ZUWAKU
  6
CONTINUOUS
 62
     4
 10
101.0
 20
-130.5
 30
0.0
 11
98.00000000000001
 21
-136.5
 31
0.0
  0
LINE
  5
1B1
  8
ZUWAKU
  6
CONTINUOUS
 62
     4
 10
101.0
 20
-130.5
 30
0.0
 11
104.0
 21
-136.5
 31
0.0
  0
LINE
  5
1B2
  8
ZUWAKU
  6
CONTINUOUS
 62
     4
 10
98.00000000000001
 20
-136.5
 30
0.0
 11
104.0
 21
-136.5
 31
0.0
  0
LINE
  5
1B3
  8
ZUWAKU
  6
CONTINUOUS
 62
     4
 10
101.0
 20
-158.5
 30
0.0
 11
98.00000000000001
 21
-164.5
 31
0.0
  0
LINE
  5
1B4
  8
ZUWAKU
  6
CONTINUOUS
 62
     4
 10
101.0
 20
-158.5
 30
0.0
 11
104.0
 21
-164.5
 31
0.0
  0
LINE
  5
1B5
  8
ZUWAKU
  6
CONTINUOUS
 62
     4
 10
98.00000000000001
 20
-164.5
 30
0.0
 11
104.0
 21
-164.5
 31
0.0
  0
LINE
  5
1B6
  8
ZUWAKU
  6
CONTINUOUS
 62
     4
 10
101.0
 20
-151.5
 30
0.0
 11
98.00000000000001
 21
-157.5
 31
0.0
  0
LINE
  5
1B7
  8
ZUWAKU
  6
CONTINUOUS
 62
     4
 10
101.0
 20
-151.5
 30
0.0
 11
104.0
 21
-157.5
 31
0.0
  0
LINE
  5
1B8
  8
ZUWAKU
  6
CONTINUOUS
 62
     4
 10
98.00000000000001
 20
-157.5
 30
0.0
 11
104.0
 21
-157.5
 31
0.0
  0
LINE
  5
1B9
  8
ZUWAKU
  6
CONTINUOUS
 62
     4
 10
101.0
 20
-144.5
 30
0.0
 11
98.00000000000001
 21
-150.5
 31
0.0
  0
LINE
  5
1BA
  8
ZUWAKU
  6
CONTINUOUS
 62
     4
 10
101.0
 20
-144.5
 30
0.0
 11
104.0
 21
-150.5
 31
0.0
  0
LINE
  5
1BB
  8
ZUWAKU
  6
CONTINUOUS
 62
     4
 10
98.00000000000001
 20
-150.5
 30
0.0
 11
104.0
 21
-150.5
 31
0.0
  0
LINE
  5
1BC
  8
ZUWAKU
  6
CONTINUOUS
 62
     4
 10
101.0
 20
-137.5
 30
0.0
 11
98.00000000000001
 21
-143.5
 31
0.0
  0
LINE
  5
1BD
  8
ZUWAKU
  6
CONTINUOUS
 62
     4
 10
101.0
 20
-137.5
 30
0.0
 11
104.0
 21
-143.5
 31
0.0
  0
LINE
  5
1BE
  8
ZUWAKU
  6
CONTINUOUS
 62
     4
 10
98.00000000000001
 20
-143.5
 30
0.0
 11
104.0
 21
-143.5
 31
0.0
  0
LINE
  5
1BF
  8
ZUWAKU
  6
CONTINUOUS
 62
     4
 10
172.6666666666666
 20
-176.0
 30
0.0
 11
172.6666666666666
 21
-162.0
 31
0.0
  0
LINE
  5
1C0
  8
ZUWAKU
  6
CONTINUOUS
 62
     4
 10
199.3333333333333
 20
-176.0
 30
0.0
 11
199.3333333333333
 21
-161.9509415757253
 31
0.0
  0
LINE
  5
1C1
  8
ZUWAKU
  6
CONTINUOUS
 62
     4
 10
212.6666666666666
 20
-167.5
 30
0.0
 11
212.6666666666666
 21
-161.9509415757253
 31
0.0
  0
LINE
  5
1C2
  8
ZUWAKU
  6
CONTINUOUS
 62
     4
 10
226.0
 20
-155.0
 30
0.0
 11
255.0
 21
-155.0
 31
0.0
  0
LINE
  5
1C3
  8
ZUWAKU
  6
CONTINUOUS
 62
     4
 10
146.0
 20
-166.0
 30
0.0
 11
226.0
 21
-166.0
 31
0.0
  0
LINE
  5
1C4
  8
ZUWAKU
  6
CONTINUOUS
 62
     4
 10
153.0
 20
-139.5
 30
0.0
 11
153.0
 21
-130.0
 31
0.0
  0
LINE
  5
1C5
  8
ZUWAKU
  6
CONTINUOUS
 62
     4
 10
202.0
 20
-139.5
 30
0.0
 11
202.0
 21
-130.0
 31
0.0
  0
LINE
  5
1C6
  8
ZUWAKU
  6
CONTINUOUS
 62
     4
 10
226.0
 20
-139.5
 30
0.0
 11
226.0
 21
-130.0
 31
0.0
  0
LINE
  5
1C7
  8
ZUWAKU
  6
CONTINUOUS
 62
     4
 10
243.0
 20
-139.5
 30
0.0
 11
243.0
 21
-130.0
 31
0.0
  0
TEXT
  5
1C9
  8
ZUWAKU
 62
     7
 10
148.3132301474747
 20
-130.821188728956
 30
0.0
 40
2.6656
  1
符号
 41
0.8
  7
FDASTYLE0
  0
TEXT
  5
1CA
  8
ZUWAKU
 62
     7
 10
162.4141311219058
 20
-135.8245525019963
 30
0.0
 40
4.0
  1
品       名
 41
0.765957446808511
  7
FDASTYLE1
 72
     5
 11
191.2141311219058
 21
-135.8245525019963
 31
0.0
  0
TEXT
  5
1CB
  8
ZUWAKU
 62
     7
 10
207.2331564413096
 20
-135.8245525019963
 30
0.0
 40
4.0
  1
材  料
 41
0.7272727272727279
  7
FDASTYLE1
 72
     5
 11
220.0331564413096
 21
-135.8245525019963
 31
0.0
  0
TEXT
  5
1CC
  8
ZUWAKU
 62
     7
 10
229.516061684855
 20
-135.8245525019963
 30
0.0
 40
4.0
  1
個 数
 41
0.7058823529411761
  7
FDASTYLE1
 72
     5
 11
239.116061684855
 21
-135.8245525019963
 31
0.0
  0
TEXT
  5
1CD
  8
ZUWAKU
 62
     7
 10
245.721810952888
 20
-133.5649080050572
 30
0.0
 40
2.5
  1
単重量
 41
0.6666666666666666
  7
FDASTYLE1
 72
     5
 11
251.721810952888
 21
-133.5649080050572
 31
0.0
  0
TEXT
  5
1CE
  8
ZUWAKU
 62
     7
 10
244.7089516236359
 20
-137.3631304897525
 30
0.0
 40
2.5
  1
(kg)
 41
0.8
  7
FDASTYLE1
 72
     5
 11
252.7089516236359
 21
-137.3631304897525
 31
0.0
  0
TEXT
  5
1CF
  8
ZUWAKU
 62
     7
 10
259.1421970654778
 20
-135.8245525019963
 30
0.0
 40
4.0
  1
記  事
 41
0.7272727272727279
  7
FDASTYLE1
 72
     5
 11
271.9421970654778
 21
-135.8245525019963
 31
0.0
  0
TEXT
  5
1D0
  8
ZUWAKU
 62
     7
 10
258.8450794551645
 20
-165.4873041997729
 30
0.0
 40
3.0
  1
コード番号
 41
0.6666666666666666
  7
FDASTYLE1
 72
     5
 11
270.8450794551645
 21
-165.4873041997729
 31
0.0
  0
TEXT
  5
1D1
  8
ZUWAKU
 62
     7
 10
101.9119920158317
 20
-175.1879010540338
 30
0.0
 40
2.5
  1
訂 正 来 歴
 41
0.717948717948718
  7
FDASTYLE1
 72
     5
 11
115.9119920158317
 21
-175.1879010540338
 31
0.0
  0
TEXT
  5
1D2
  8
ZUWAKU
 62
     7
 10
125.890334846765
 20
-175.2166697391651
 30
0.0
 40
2.5
  1
工 事 番 号
 41
0.717948717948718
  7
FDASTYLE1
 72
     5
 11
139.890334846765
 21
-175.2166697391651
 31
0.0
  0
TEXT
  5
1D3
  8
ZUWAKU
 62
     7
 10
99.96483784660289
 20
-165.9634530565915
 30
0.0
 40
2.0825
  1
記号
 41
0.8
  7
FDASTYLE0
  0
TEXT
  5
1D4
  8
ZUWAKU
 62
     7
 10
105.9042249067618
 20
-165.9634530565915
 30
0.0
 40
2.0825
  1
理由
 41
0.8
  7
FDASTYLE0
  0
TEXT
  5
1D5
  8
ZUWAKU
 62
     7
 10
111.6193667909843
 20
-169.8786046700178
 30
0.0
 40
3.0
  1
日 付
 41
0.7058823529411754
  7
FDASTYLE1
 72
     5
 11
118.8193667909843
 21
-169.8786046700178
 31
0.0
  0
TEXT
  5
1D6
  8
ZUWAKU
 62
     7
 10
257.2094542567131
 20
-142.3525309070082
 30
0.0
 40
3.0
  1
標　準
 41
0.5833333333333345
  7
FDASTYLE1
 72
     5
 11
263.5094542567131
 21
-142.3525309070082
 31
0.0
  0
TEXT
  5
1D7
  8
ZUWAKU
 62
     7
 10
153.4481689819652
 20
-165.7187911464244
 30
0.0
 40
3.0
  1
承   認
 41
0.7407407407407408
  7
FDASTYLE1
 72
     5
 11
165.4481689819652
 21
-165.7187911464244
 31
0.0
  0
TEXT
  5
1D8
  8
ZUWAKU
 62
     7
 10
179.863228033234
 20
-165.4873041997729
 30
0.0
 40
3.0
  1
検   図
 41
0.7407407407407408
  7
FDASTYLE1
 72
     5
 11
191.863228033234
 21
-165.4873041997729
 31
0.0
  0
TEXT
  5
1D9
  8
ZUWAKU
 62
     7
 10
201.4771920983751
 20
-165.4873041997729
 30
0.0
 40
3.0
  1
担  当
 41
0.7272727272727269
  7
FDASTYLE1
 72
     5
 11
211.0771920983751
 21
-165.4873041997729
 31
0.0
  0
TEXT
  5
1DA
  8
ZUWAKU
 62
     7
 10
214.6770574841112
 20
-165.4873041997729
 30
0.0
 40
3.0
  1
製  図
 41
0.7272727272727269
  7
FDASTYLE1
 72
     5
 11
224.2770574841112
 21
-165.4873041997729
 31
0.0
  0
TEXT
  5
1DB
  8
ZUWAKU
 62
     7
 10
226.9462372304199
 20
-153.2184960272417
 30
0.0
 40
3.0
  1
作図
 41
0.6666666666666683
  7
FDASTYLE1
 72
     5
 11
231.7462372304199
 21
-153.2184960272417
 31
0.0
  0
TEXT
  5
1DC
  8
ZUWAKU
 62
     7
 10
228.1036719636776
 20
-160.2371566401815
 30
0.0
 40
4.0
  1
第 三 角 法
 41
0.7179487179487182
  7
FDASTYLE1
 72
     5
 11
250.5036719636776
 21
-160.2371566401815
 31
0.0
  0
TEXT
  5
1DD
  8
ZUWAKU
 62
     7
 10
227.409211123723
 20
-166.413251986379
 30
0.0
 40
3.0
  1
尺度
 41
0.6666666666666683
  7
FDASTYLE1
 72
     5
 11
232.209211123723
 21
-166.413251986379
 31
0.0
  0
TEXT
  5
1DF
  8
ZUWAKU
 62
     3
 10
105.379154370034
 20
-185.9272077185017
 30
0.0
 40
7.0
  1
株式会社 野村製作所
 41
0.5763738641280831
  7
FDASTYLE2
 72
     5
 11
161.379154370034
 21
-185.9272077185017
 31
0.0
  0
TEXT
  5
1E1
  8
ZUWAKU
 62
     3
 10
176.0422636668242
 20
-187.1216685584563
 30
0.0
 40
8.0
  1
２－
 41
0.8244023083264632
  7
FDASTYLE3
 72
     5
 11
192.0422636668242
 21
-187.1216685584563
 31
0.0
  0
TEXT
  5
1E2
  8
ZUWAKU
 62
     3
 10
192.954221291231
 20
-187.1216685584563
 30
0.0
 40
8.0
  1
8610023
 41
1.564945226917058
  7
FDASTYLE3
 72
     5
 11
248.954221291231
 21
-187.1216685584563
 31
0.0
  0
TEXT
  5
1E3
  8
ZUWAKU
 62
     6
 10
231.384312273996
 20
-145.1178196492171
 30
0.0
 40
4.0
  1
一式
 41
0.5833333333333328
  7
FDASTYLE1
 72
     5
 11
236.984312273996
 21
-145.1178196492171
 31
0.0
  0
TEXT
  5
1E4
  8
ZUWAKU
 62
     6
 10
163.7236800359233
 20
-145.1021206743685
 30
0.0
 40
5.0
  1
外　形　図
 41
0.5833333333333334
  7
FDASTYLE1
 72
     5
 11
181.2236800359233
 21
-145.1021206743685
 31
0.0
  0
TEXT
  5
1E5
  8
ZUWAKU
 62
     4
 10
237.4612965606293
 20
-172.4797619591963
 30
0.0
 40
4.0
  1
1/1
 41
0.7000000000000005
  7
FDASTYLE1
 72
     5
 11
245.8612965606293
 21
-172.4797619591963
 31
0.0
  0
TEXT
  5
1E6
  8
0
 62
     6
 10
153.751689452146
 20
-154.3880453471329
 30
0.0
 40
5.0
  1
日鋼プレシジォン
 41
0.6666666666666666
  7
FDASTYLE1
 72
     5
 11
185.751689452146
 21
-154.3880453471329
 31
0.0
  0
TEXT
  5
1E7
  8
0
 62
     6
 10
162.4377590193254
 20
-160.9091595284539
 30
0.0
 40
5.0
  1
HWB3-250型チャック
 41
0.65
  7
FDASTYLE1
 72
     5
 11
207.9377590193254
 21
-160.9091595284539
 31
0.0
  0
TEXT
  5
1E8
  8
0
 62
     6
 10
-76.98197541990201
 20
-184.0575377416014
 30
0.0
 40
4.0
  1
アンバランス量
 41
0.663841963128279
  7
FDASTYLE1
 72
     5
 11
-50.12483130254667
 21
-184.0575377416014
 31
0.0
  0
TEXT
  5
1E9
  8
0
 62
     6
 10
-76.98197541990201
 20
-176.0575377416014
 30
0.0
 40
4.0
  1
質 量
 41
0.7364342569567148
  7
FDASTYLE1
 72
     5
 11
-66.12483130254667
 21
-176.0575377416014
 31
0.0
  0
TEXT
  5
1EA
  8
0
 62
     6
 10
-76.98197541990201
 20
-168.0575377416014
 30
0.0
 40
4.0
  1
慣性ﾓ-ﾒﾝﾄ
 41
0.7605179707361893
  7
FDASTYLE1
 72
     5
 11
-50.12483130254667
 21
-168.0575377416014
 31
0.0
  0
TEXT
  5
1EB
  8
0
 62
     6
 10
-76.98197541990201
 20
-160.0575377416014
 30
0.0
 40
4.0
  1
最高使用回転速度
 41
0.665024784134981
  7
FDASTYLE1
 72
     5
 11
-46.12483130254667
 21
-160.0575377416014
 31
0.0
  0
TEXT
  5
1EC
  8
0
 62
     6
 10
-76.98197541990201
 20
-152.0575377416014
 30
0.0
 40
4.0
  1
静的把握力
 41
0.6600001605510995
  7
FDASTYLE1
 72
     5
 11
-58.12483130254667
 21
-152.0575377416014
 31
0.0
  0
TEXT
  5
1ED
  8
0
 62
     6
 10
-76.98197541990201
 20
-144.0575377416014
 30
0.0
 40
4.0
  1
許容シリンダー力
 41
0.665024784134981
  7
FDASTYLE1
 72
     5
 11
-46.12483130254667
 21
-144.0575377416014
 31
0.0
  0
TEXT
  5
1EE
  8
0
 62
     6
 10
-76.98197541990201
 20
-136.0575377416014
 30
0.0
 40
4.0
  1
推奨シリンダー
 41
0.663841963128279
  7
FDASTYLE1
 72
     5
 11
-50.12483130254667
 21
-136.0575377416014
 31
0.0
  0
TEXT
  5
1EF
  8
0
 62
     6
 10
-76.98197541990201
 20
-128.0575224828124
 30
0.0
 40
4.0
  1
ピストンストローク
 41
0.6659390169707117
  7
FDASTYLE1
 72
     5
 11
-42.12483130254667
 21
-128.0575224828124
 31
0.0
  0
TEXT
  5
1F0
  8
0
 62
     6
 10
-76.98197541990201
 20
-120.0575224828124
 30
0.0
 40
4.0
  1
爪ﾉｽﾄﾛｰｸ
 41
0.7781458739383595
  7
FDASTYLE1
 72
     5
 11
-50.12483130254667
 21
-120.0575224828124
 31
0.0
  0
TEXT
  5
1F1
  8
0
 62
     6
 10
-76.98197541990201
 20
-112.0575224828124
 30
0.0
 40
4.0
  1
仕 様
 41
0.7364342569567148
  7
FDASTYLE1
 72
     5
 11
-66.12483130254667
 21
-112.0575224828124
 31
0.0
  0
TEXT
  5
1F2
  8
0
 62
     6
 10
29.22657026491244
 20
-119.7821852635741
 30
0.0
 40
4.0
  1
(直径ﾆﾃ)7.2mm
 41
0.766871343829245
  7
FDASTYLE1
 72
     5
 11
72.08371438226779
 21
-119.7821852635741
 31
0.0
  0
TEXT
  5
1F3
  8
0
 62
     6
 10
57.36603178224642
 20
-127.5619170140624
 30
0.0
 40
4.0
  1
22mm
 41
0.7647060960222284
  7
FDASTYLE1
 72
     5
 11
72.22317589960177
 21
-127.5619170140624
 31
0.0
  0
TEXT
  5
1F4
  8
0
 62
     6
 10
45.61366666994174
 20
-135.8382384251952
 30
0.0
 40
4.0
  1
　66TS　型
 41
0.7436710507235426
  7
FDASTYLE1
 72
     5
 11
72.47081078729708
 21
-135.8382384251952
 31
0.0
  0
TEXT
  5
1F5
  8
0
 62
     6
 10
6.494735853291346
 20
-143.7834898900389
 30
0.0
 40
4.0
  1
             29kN
 41
0.7748346327559453
  7
FDASTYLE1
 72
     5
 11
73.35187997064669
 21
-143.7834898900389
 31
0.0
  0
TEXT
  5
1F6
  8
0
 62
     6
 10
6.383949415303064
 20
-151.7287413548827
 30
0.0
 40
4.0
  1
           95.1kN
 41
0.7748346327559453
  7
FDASTYLE1
 72
     5
 11
73.24109353265841
 21
-151.7287413548827
 31
0.0
  0
TEXT
  5
1F7
  8
0
 62
     6
 10
22.43999494752963
 20
-159.6740233373046
 30
0.0
 40
4.0
  1
      3500min
 41
0.7739132407527793
  7
FDASTYLE1
 72
     5
 11
73.29713906488497
 21
-159.6740233373046
 31
0.0
  0
TEXT
  5
1F8
  8
0
 62
     6
 10
74.15428097686846
 20
-157.1740232776999
 30
0.0
 40
2.0
  1
-1
 41
0.75000024121258
  7
FDASTYLE1
 72
     5
 11
77.58285303554614
 21
-157.1740232776999
 31
0.0
  0
TEXT
  5
1F9
  8
0
 62
     6
 10
39.04718031129916
 20
-168.0623595189452
 30
0.0
 40
4.0
  1
0.275kg・m
 41
0.7780614058262111
  7
FDASTYLE1
 72
     5
 11
73.90432442865451
 21
-168.0623595189452
 31
0.0
  0
TEXT
  5
1FA
  8
0
 62
     6
 10
74.761466340638
 20
-165.5623594593405
 30
0.0
 40
2.0
  1
2
 41
0.7142860293388367
  7
FDASTYLE1
 72
     5
 11
76.19003839931567
 21
-165.5623594593405
 31
0.0
  0
TEXT
  5
1FB
  8
0
 62
     6
 10
57.8352395459183
 20
-175.7300536107421
 30
0.0
 40
4.0
  1
30kg
 41
0.7647060960222284
  7
FDASTYLE1
 72
     5
 11
72.69238366327365
 21
-175.7300536107421
 31
0.0
  0
TEXT
  5
1FC
  8
0
 62
     6
 10
29.69577802858431
 20
-183.8408324193358
 30
0.0
 40
4.0
  1
外周ﾆﾃ   6g以内
 41
0.7455270079806202
  7
FDASTYLE1
 72
     5
 11
72.55292214593966
 21
-183.8408324193358
 31
0.0
  0
TEXT
  5
1FD
  8
0
 62
     6
 10
-31.90617583551328
 20
-143.8503081273436
 30
0.0
 40
3.0
  1
66TS 型 引側使用圧  2.1MPa
 41
0.7483732599336531
  7
FDASTYLE1
 72
     5
 11
27.23668106041033
 21
-143.8503081273436
 31
0.0
  0
TEXT
  5
1FE
  8
0
 62
     7
 10
257.1813850232905
 20
-146.9637506240703
 30
0.0
 40
3.0
  1
M92×P1.5
 41
0.7804878048780483
  7
FDASTYLE1
 72
     5
 11
276.3813850232905
 21
-146.9637506240703
 31
0.0
  0
TEXT
  5
1FF
  8
0
 62
     7
 10
-51.68931109406134
 20
90.5051983396276
 30
0.0
 40
4.0
  1
MIN
 50
90.0
 41
0.7999999999999995
  7
FDASTYLE1
 72
     5
 11
-51.68931109406134
 21
100.1051983396276
 31
0.0
  0
TEXT
  5
200
  8
0
 62
     7
 10
-227.8575892361768
 20
-134.0265340714721
 30
0.0
 40
4.0
  1
MIN15.2
 41
0.8000000000000002
  7
FDASTYLE1
 72
     5
 11
-205.4575892361767
 21
-134.0265340714721
 31
0.0
  0
TEXT
  5
201
  8
0
 62
     7
 10
-28.82849805398613
 20
46.6438135963535
 30
0.0
 40
4.0
  1
MIN 55.7
 50
90.0
 41
0.8
  7
FDASTYLE1
 72
     5
 11
-28.82849805398613
 21
72.24381359635351
 31
0.0
  0
LINE
  5
202
  8
0
  6
CONTINUOUS
 62
     6
 10
-79.55340336122434
 20
-185.7241942357421
 30
0.0
 11
75.11328365049441
 21
-185.7241942357421
 31
0.0
  0
LINE
  5
203
  8
0
  6
CONTINUOUS
 62
     6
 10
-79.55340336122434
 20
-177.7241942357421
 30
0.0
 11
75.11328365049441
 21
-177.7241942357421
 31
0.0
  0
LINE
  5
204
  8
0
  6
CONTINUOUS
 62
     6
 10
-79.55340336122434
 20
-169.7241942357421
 30
0.0
 11
75.11328365049441
 21
-169.7241942357421
 31
0.0
  0
LINE
  5
205
  8
0
  6
CONTINUOUS
 62
     6
 10
-79.55340336122434
 20
-161.7241942357421
 30
0.0
 11
75.11328365049441
 21
-161.7241942357421
 31
0.0
  0
LINE
  5
206
  8
0
  6
CONTINUOUS
 62
     6
 10
-79.55340336122434
 20
-153.7241942357421
 30
0.0
 11
75.11328365049441
 21
-153.7241942357421
 31
0.0
  0
LINE
  5
207
  8
0
  6
CONTINUOUS
 62
     6
 10
-79.55340336122434
 20
-145.7241942357421
 30
0.0
 11
75.11328365049441
 21
-145.7241942357421
 31
0.0
  0
LINE
  5
208
  8
0
  6
CONTINUOUS
 62
     6
 10
-79.55340336122434
 20
-137.7241942357421
 30
0.0
 11
75.11328365049441
 21
-137.7241942357421
 31
0.0
  0
LINE
  5
209
  8
0
  6
CONTINUOUS
 62
     6
 10
-79.55340336122434
 20
-129.7241942357421
 30
0.0
 11
75.11328365049441
 21
-129.7241942357421
 31
0.0
  0
LINE
  5
20A
  8
0
  6
CONTINUOUS
 62
     6
 10
-79.55340336122434
 20
-121.724178976953
 30
0.0
 11
75.11328365049441
 21
-121.724178976953
 31
0.0
  0
LINE
  5
20B
  8
0
  6
CONTINUOUS
 62
     6
 10
-79.55340336122434
 20
-113.724178976953
 30
0.0
 11
-63.55340717592161
 21
-113.724178976953
 31
0.0
  0
LINE
  5
20C
  8
0
  6
CENTER
 62
     7
 10
-206.7659881820863
 20
30.85047574441275
 30
0.0
 11
-151.8564520547547
 21
30.85047574441275
 31
0.0
  0
LINE
  5
20D
  8
0
  6
CENTER
 62
     7
 10
-104.4420538613953
 20
132.8504833738073
 30
0.0
 11
-53.09299761749884
 21
132.8504833738073
 31
0.0
  0
LINE
  5
20E
  8
0
  6
CENTER
 62
     7
 10
-104.234831876532
 20
102.8504833738073
 30
0.0
 11
-53.09299761749884
 21
102.8504833738073
 31
0.0
  0
LINE
  5
20F
  8
0
  6
CENTER
 62
     7
 10
-151.8564520547547
 20
30.85047574441275
 30
0.0
 11
-77.93936068512579
 21
30.85047574441275
 31
0.0
  0
LINE
  5
210
  8
0
  6
CENTER
 62
     7
 10
-166.8564520547547
 20
78.48794980447134
 30
0.0
 11
-166.8564520547547
 21
71.85670895974478
 31
0.0
  0
LINE
  5
211
  8
0
  6
CENTER
 62
     7
 10
-169.8564520547547
 20
-16.00728182394663
 30
0.0
 11
-169.8564520547547
 21
-29.26480276750412
 31
0.0
  0
LINE
  5
212
  8
0
  6
CENTER
 62
     7
 10
-166.8564520547547
 20
-9.790488763643893
 30
0.0
 11
-166.8564520547547
 21
-16.62895922262827
 31
0.0
  0
LINE
  5
213
  8
0
  6
CENTER
 62
     7
 10
-206.7813248419901
 20
-54.84952120382944
 30
0.0
 11
-78.80191409562295
 21
-54.84952120382944
 31
0.0
  0
LINE
  5
214
  8
0
  6
CENTER
 62
     7
 10
-112.2130499551453
 20
-26.64952425558725
 30
0.0
 11
-78.64237124420782
 21
-26.64952425558725
 31
0.0
  0
LINE
  5
215
  8
0
  6
CENTER
 62
     7
 10
12.66336209813906
 20
-34.85746831653614
 30
0.0
 11
126.472863302503
 21
30.85047058060015
 31
0.0
  0
LINE
  5
216
  8
0
  6
CENTER
 62
     7
 10
71.29049310881106
 20
62.71003932286318
 30
0.0
 11
82.44041878307559
 21
56.27262744459996
 31
0.0
  0
LINE
  5
217
  8
0
  6
CENTER
 62
     7
 10
170.4224905285752
 20
42.62674517635141
 30
0.0
 11
226.6393698811804
 21
57.69001099163724
 31
0.0
  0
LINE
  5
218
  8
0
  6
CENTER
 62
     7
 10
26.30635690285538
 20
57.68999575793417
 30
0.0
 11
82.52323164956744
 21
42.62673117679357
 31
0.0
  0
LINE
  5
219
  8
0
  6
CENTER
 62
     7
 10
158.6462306836007
 20
63.02383550786932
 30
0.0
 11
199.7998459554152
 21
104.1774473106937
 31
0.0
  0
LINE
  5
21A
  8
0
  6
CENTER
 62
     7
 10
53.14590195274019
 20
104.1774584374623
 30
0.0
 11
94.29952261935165
 21
63.02384123984145
 31
0.0
  0
LINE
  5
21B
  8
0
  6
CENTER
 62
     7
 10
99.63332791388456
 20
-69.31602644085727
 30
0.0
 11
114.6965962108441
 21
-13.09915077296658
 31
0.0
  0
LINE
  5
21C
  8
0
  6
CENTER
 62
     7
 10
138.2491214718464
 20
-13.0991485526922
 30
0.0
 11
153.3123927307552
 21
-69.31603527472656
 31
0.0
  0
LINE
  5
21D
  8
0
  6
CENTER
 62
     7
 10
81.47286313079218
 20
136.8504681150182
 30
0.0
 11
81.47286313079218
 21
108.8504757444128
 31
0.0
  0
LINE
  5
21E
  8
0
  6
CENTER
 62
     7
 10
57.17417440065452
 20
-61.12066569135378
 30
0.0
 11
81.42288694032737
 21
-47.12066652581881
 31
0.0
  0
LINE
  5
21F
  8
0
  6
CENTER
 62
     7
 10
216.5228869109397
 20
30.82162854971035
 30
0.0
 11
240.7715994506125
 21
16.82162938417538
 31
0.0
  0
LINE
  5
220
  8
0
  6
CENTER
 62
     7
 10
66.21427243254999
 20
122.8504757444128
 30
0.0
 11
95.66559689544062
 21
122.8504757444128
 31
0.0
  0
LINE
  5
221
  8
0
  6
CENTER
 62
     7
 10
62.29852439804182
 20
-41.99629950222605
 30
0.0
 11
76.29852988166959
 21
-66.24501698021821
 31
0.0
  0
LINE
  5
222
  8
0
  6
CENTER
 62
     7
 10
221.6472209689419
 20
11.69727010263502
 30
0.0
 11
235.6472188231742
 21
35.94597436612845
 31
0.0
  0
LINE
  5
223
  8
0
  6
CENTER
 62
     7
 10
112.8455285360656
 20
132.8504833738073
 30
0.0
 11
139.4335412313781
 21
132.8504833738073
 31
0.0
  0
LINE
  5
224
  8
0
  6
CENTER
 62
     7
 10
31.12184225611378
 20
-7.996715326285752
 30
0.0
 11
45.1512075607464
 21
-32.2962854989846
 31
0.0
  0
LINE
  5
225
  8
0
  6
CENTER
 62
     7
 10
207.5530183428069
 20
-32.71463037676561
 30
0.0
 11
221.7595095993407
 21
-8.10826909811361
 31
0.0
  0
LINE
  5
226
  8
0
  6
CENTER
 62
     7
 10
182.2146538359853
 20
-16.60193373784635
 30
0.0
 11
195.6103959419152
 21
6.600169012371012
 31
0.0
  0
LINE
  5
227
  8
0
  6
CENTER
 62
     7
 10
112.4364861776672
 20
102.8504833738073
 30
0.0
 11
139.8425835897766
 21
102.8504833738073
 31
0.0
  0
LINE
  5
228
  8
0
  6
CENTER
 62
     7
 10
57.27094739894102
 20
6.71172227312583
 30
0.0
 11
71.02093377927787
 21
-17.10394947449912
 31
0.0
  0
ARC
  5
229
  8
0
  6
CENTER
 62
     7
 10
126.4728631307922
 20
30.85047574441275
 30
0.0
 40
85.69999694824219
 50
2.943648034622239
 51
57.86401710108154
  0
ARC
  5
22A
  8
0
  6
CENTER
 62
     7
 10
126.4728631307922
 20
30.85047574441275
 30
0.0
 40
57.5
 50
3.020809322006107
 51
56.97918999976849
  0
ARC
  5
22B
  8
0
  6
CENTER
 62
     7
 10
126.4728631307922
 20
30.85047574441275
 30
0.0
 40
57.5
 50
123.0208320846608
 51
176.9792035843564
  0
ARC
  5
22C
  8
0
  6
CENTER
 62
     7
 10
126.4728631307922
 20
30.85047574441275
 30
0.0
 40
85.69999694824219
 50
122.2156757249213
 51
177.0563710615993
  0
ARC
  5
22D
  8
0
  6
CENTER
 62
     7
 10
126.4728631307922
 20
30.85047574441275
 30
0.0
 40
85.69999694824219
 50
242.9436306080528
 51
297.0563438924233
  0
ARC
  5
22E
  8
0
  6
CENTER
 62
     7
 10
126.4728631307922
 20
30.85047574441275
 30
0.0
 40
57.5
 50
243.0207980852957
 51
296.9791900755589
  0
LINE
  5
22F
  8
0
  6
CENTER
 62
     7
 10
126.4728631307922
 20
162.4129833738073
 30
0.0
 11
126.4728631307922
 21
-101.6326785524623
 31
0.0
  0
LINE
  5
230
  8
0
  6
CENTER
 62
     7
 10
-11.19380337692877
 20
30.85047574441275
 30
0.0
 11
259.4728631307922
 21
30.85047574441275
 31
0.0
  0
LINE
  5
231
  8
0
  6
CENTER
 62
     7
 10
126.4728824762047
 20
30.850475486978
 30
0.0
 11
246.872990092094
 21
-38.66255137558186
 31
0.0
  0
LINE
  5
232
  8
0
  6
CENTER
 62
     7
 10
171.0809207088503
 20
56.60494168677725
 30
0.0
 11
181.0425941485578
 21
62.35631589334858
 31
0.0
  0
LINE
  5
233
  8
0
  6
CENTER
 62
     7
 10
209.081415807878
 20
78.54453533761117
 30
0.0
 11
237.4765120699614
 21
94.93844999695897
 31
0.0
  0
LINE
  5
234
  8
0
  6
DASHED
 62
     7
 10
-102.8604651162781
 20
-41.84952120382944
 30
0.0
 11
-102.8604651162781
 21
-67.84952120382944
 31
0.0
  0
LINE
  5
235
  8
0
  6
DASHED
 62
     7
 10
-102.8604651162781
 20
-41.84952120382944
 30
0.0
 11
-84.86046511627814
 21
-41.84952120382944
 31
0.0
  0
LINE
  5
236
  8
0
  6
DASHED
 62
     7
 10
-102.8604651162781
 20
-67.84952120382944
 30
0.0
 11
-84.86046511627814
 21
-67.84952120382944
 31
0.0
  0
LINE
  5
237
  8
0
  6
DASHED
 62
     7
 10
-86.86046511627814
 20
-42.84952120382944
 30
0.0
 11
-86.86046511627814
 21
-66.84952120382944
 31
0.0
  0
LINE
  5
238
  8
0
  6
DASHED
 62
     7
 10
-109.8604651162781
 20
-22.64952425558725
 30
0.0
 11
-109.8604651162781
 21
-30.64952425558725
 31
0.0
  0
LINE
  5
239
  8
0
  6
DASHED
 62
     7
 10
-202.8604651162781
 20
-46.84952120382944
 30
0.0
 11
-202.8604651162781
 21
-62.84952120382944
 31
0.0
  0
LINE
  5
23A
  8
0
  6
DASHED
 62
     7
 10
-202.8604651162781
 20
-62.84952120382944
 30
0.0
 11
-102.8604651162781
 21
-62.84952120382944
 31
0.0
  0
LINE
  5
23B
  8
0
  6
DASHED
 62
     7
 10
-202.8604651162781
 20
-46.84952120382944
 30
0.0
 11
-102.8604651162781
 21
-46.84952120382944
 31
0.0
  0
LINE
  5
23C
  8
0
  6
DASHED
 62
     7
 10
-110.8604651162781
 20
-22.64952425558725
 30
0.0
 11
-100.9559241006531
 21
-22.64952425558725
 31
0.0
  0
LINE
  5
23D
  8
0
  6
DASHED
 62
     7
 10
-110.8604651162781
 20
-30.64952425558725
 30
0.0
 11
-100.9559241006531
 21
-30.64952425558725
 31
0.0
  0
LINE
  5
23E
  8
0
  6
DASHED
 62
     7
 10
-110.8604651162781
 20
-29.99952272970835
 30
0.0
 11
-100.9559241006531
 21
-29.99952272970835
 31
0.0
  0
LINE
  5
23F
  8
0
  6
DASHED
 62
     7
 10
-110.8604651162781
 20
-23.29952578146616
 30
0.0
 11
-101.1275854776063
 21
-23.29952578146616
 31
0.0
  0
LINE
  5
240
  8
0
  6
DASHED
 62
     7
 10
-202.8604651162781
 20
-61.64952425558725
 30
0.0
 11
-158.8604651162781
 21
-61.64952425558725
 31
0.0
  0
LINE
  5
241
  8
0
  6
DASHED
 62
     7
 10
-202.8604651162781
 20
-48.04952196676889
 30
0.0
 11
-158.8604651162781
 21
-48.04952196676889
 31
0.0
  0
LINE
  5
242
  8
0
  6
DASHED
 62
     7
 10
-158.8604651162781
 20
-46.84952120382944
 30
0.0
 11
-158.8604651162781
 21
-62.84952120382944
 31
0.0
  0
LINE
  5
243
  8
0
  6
DASHED
 62
     7
 10
-102.8604651162781
 20
-42.84952120382944
 30
0.0
 11
-86.86046511627814
 21
-42.84952120382944
 31
0.0
  0
LINE
  5
244
  8
0
  6
DASHED
 62
     7
 10
-102.8604651162781
 20
-66.84952120382944
 30
0.0
 11
-86.86046511627814
 21
-66.84952120382944
 31
0.0
  0
LINE
  5
245
  8
0
  6
DASHED
 62
     7
 10
-110.8604651162781
 20
-27.14952425558725
 30
0.0
 11
-110.8604651162781
 21
-30.64952425558725
 31
0.0
  0
LINE
  5
246
  8
0
  6
CONTINUOUS
 62
     3
 10
-179.8604651162781
 20
155.8504833738073
 30
0.0
 11
-179.8604651162781
 21
80.76744504372915
 31
0.0
  0
LINE
  5
247
  8
0
  6
CONTINUOUS
 62
     3
 10
-84.86046511627814
 20
86.29983945290884
 30
0.0
 11
-84.86046511627814
 21
-92.14952425558725
 31
0.0
  0
LINE
  5
248
  8
0
  6
CONTINUOUS
 62
     3
 10
-179.8604651162781
 20
-94.14952425558725
 30
0.0
 11
-86.86046511627814
 21
-94.14952425558725
 31
0.0
  0
LINE
  5
249
  8
0
  6
CONTINUOUS
 62
     3
 10
-179.8604651162781
 20
155.8504833738073
 30
0.0
 11
-82.86046511627814
 21
155.8504833738073
 31
0.0
  0
LINE
  5
24A
  8
0
  6
CONTINUOUS
 62
     3
 10
-175.660468168036
 20
143.3504833738073
 30
0.0
 11
-175.660468168036
 21
91.3359875241979
 31
0.0
  0
LINE
  5
24B
  8
0
  6
CONTINUOUS
 62
     3
 10
-179.8604651162781
 20
143.3504833738073
 30
0.0
 11
-175.660468168036
 21
143.3504833738073
 31
0.0
  0
LINE
  5
24C
  8
0
  6
CONTINUOUS
 62
     3
 10
-179.8604651162781
 20
-81.64952425558725
 30
0.0
 11
-175.660468168036
 21
-81.64952425558725
 31
0.0
  0
LINE
  5
24D
  8
0
  6
CONTINUOUS
 62
     3
 10
-175.8564520547547
 20
-27.14952425558725
 30
0.0
 11
-110.8604651162781
 21
-27.14952425558725
 31
0.0
  0
LINE
  5
24E
  8
0
  6
CONTINUOUS
 62
     3
 10
-175.8564520547547
 20
88.85047574441275
 30
0.0
 11
-123.8564444762787
 21
88.85047574441275
 31
0.0
  0
LINE
  5
24F
  8
0
  6
CONTINUOUS
 62
     3
 10
-110.8604651162781
 20
-14.64952234823862
 30
0.0
 11
-110.8604651162781
 21
-27.14952425558725
 31
0.0
  0
LINE
  5
250
  8
0
  6
CONTINUOUS
 62
     3
 10
-98.86046511627814
 20
88.35048337380728
 30
0.0
 11
-98.86046511627814
 21
78.85047574441275
 31
0.0
  0
LINE
  5
251
  8
0
  6
CONTINUOUS
 62
     3
 10
-110.8604651162781
 20
-18.14952234823862
 30
0.0
 11
-98.86046511627814
 21
-18.14952234823862
 31
0.0
  0
LINE
  5
252
  8
0
  6
CONTINUOUS
 62
     3
 10
-98.86046511627814
 20
-35.14952425558725
 30
0.0
 11
-84.86046511627814
 21
-35.14952425558725
 31
0.0
  0
LINE
  5
253
  8
0
  6
CONTINUOUS
 62
     3
 10
-84.8604701282793
 20
-92.14952820799151
 30
0.0
 11
-86.86046146186527
 21
-94.14951954157748
 31
0.0
  0
LINE
  5
254
  8
0
  6
CONTINUOUS
 62
     3
 10
-149.8604651162781
 20
155.8504833738073
 30
0.0
 11
-149.8604651162781
 21
132.1595806638463
 31
0.0
  0
LINE
  5
255
  8
0
  6
CONTINUOUS
 62
     3
 10
-93.86046511627814
 20
155.8504833738073
 30
0.0
 11
-93.86046511627814
 21
143.8504833738073
 31
0.0
  0
LINE
  5
256
  8
0
  6
CONTINUOUS
 62
     3
 10
-102.8604651162781
 20
155.8504833738073
 30
0.0
 11
-102.8604651162781
 21
82.85048337380728
 31
0.0
  0
LINE
  5
257
  8
0
  6
CONTINUOUS
 62
     3
 10
-98.86046511627814
 20
88.35048337380728
 30
0.0
 11
-82.86046511627814
 21
88.35048337380728
 31
0.0
  0
LINE
  5
258
  8
0
  6
CONTINUOUS
 62
     3
 10
-109.8604651162781
 20
81.35048337380728
 30
0.0
 11
-98.86046511627814
 21
81.35048337380728
 31
0.0
  0
LINE
  5
259
  8
0
  6
CONTINUOUS
 62
     3
 10
-102.8604651162781
 20
82.85048337380728
 30
0.0
 11
-98.86046511627814
 21
82.85048337380728
 31
0.0
  0
LINE
  5
25A
  8
0
  6
CONTINUOUS
 62
     3
 10
-109.8604651162781
 20
91.85048337380728
 30
0.0
 11
-109.8604651162781
 21
81.35048337380728
 31
0.0
  0
LINE
  5
25B
  8
0
  6
CONTINUOUS
 62
     3
 10
-118.1377478311219
 20
82.35048337380728
 30
0.0
 11
-109.8604651162781
 21
82.35048337380728
 31
0.0
  0
LINE
  5
25C
  8
0
  6
CONTINUOUS
 62
     3
 10
-120.3926009815023
 20
91.85048337380728
 30
0.0
 11
-109.8604651162781
 21
91.85048337380728
 31
0.0
  0
LINE
  5
25D
  8
0
  6
CONTINUOUS
 62
     3
 10
-101.8604651162781
 20
91.85048337380728
 30
0.0
 11
-80.86046511627814
 21
91.85048337380728
 31
0.0
  0
LINE
  5
25E
  8
0
  6
CONTINUOUS
 62
     3
 10
-101.8604651162781
 20
143.8504833738073
 30
0.0
 11
-80.86046511627814
 21
143.8504833738073
 31
0.0
  0
LINE
  5
25F
  8
0
  6
CONTINUOUS
 62
     3
 10
-80.86046511627814
 20
143.8504833738073
 30
0.0
 11
-80.86046511627814
 21
138.0004925290807
 31
0.0
  0
LINE
  5
260
  8
0
  6
CONTINUOUS
 62
     3
 10
-101.8604651162781
 20
143.8504833738073
 30
0.0
 11
-101.8604651162781
 21
91.85048337380728
 31
0.0
  0
LINE
  5
261
  8
0
  6
CONTINUOUS
 62
     3
 10
-80.86046511627814
 20
126.8504833738073
 30
0.0
 11
-80.86046511627814
 21
108.0004848996862
 31
0.0
  0
LINE
  5
262
  8
0
  6
CONTINUOUS
 62
     3
 10
-93.86046511627814
 20
91.85048337380728
 30
0.0
 11
-93.86046511627814
 21
88.35048337380728
 31
0.0
  0
LINE
  5
263
  8
0
  6
CONTINUOUS
 62
     3
 10
-80.86046511627814
 20
97.70048184792837
 30
0.0
 11
-80.86046511627814
 21
91.85048337380728
 31
0.0
  0
LINE
  5
264
  8
0
  6
CONTINUOUS
 62
     3
 10
-101.8604651162781
 20
138.8504833738073
 30
0.0
 11
-70.86046511627814
 21
138.8504833738073
 31
0.0
  0
LINE
  5
265
  8
0
  6
CONTINUOUS
 62
     3
 10
-101.8604651162781
 20
126.8504833738073
 30
0.0
 11
-70.86046511627814
 21
126.8504833738073
 31
0.0
  0
LINE
  5
266
  8
0
  6
CONTINUOUS
 62
     3
 10
-101.8604651162781
 20
108.8504833738073
 30
0.0
 11
-70.86046511627814
 21
108.8504833738073
 31
0.0
  0
LINE
  5
267
  8
0
  6
CONTINUOUS
 62
     3
 10
-101.8604651162781
 20
96.85048337380728
 30
0.0
 11
-70.86046511627814
 21
96.85048337380728
 31
0.0
  0
LINE
  5
268
  8
0
  6
CONTINUOUS
 62
     3
 10
-70.86046511627814
 20
141.8504833738073
 30
0.0
 11
-70.86046511627814
 21
123.8504833738073
 31
0.0
  0
LINE
  5
269
  8
0
  6
CONTINUOUS
 62
     3
 10
-58.86046511627814
 20
141.8504833738073
 30
0.0
 11
-58.86046511627814
 21
123.8504833738073
 31
0.0
  0
LINE
  5
26A
  8
0
  6
CONTINUOUS
 62
     3
 10
-70.86046511627814
 20
93.85048337380728
 30
0.0
 11
-58.86046511627814
 21
93.85048337380728
 31
0.0
  0
LINE
  5
26B
  8
0
  6
CONTINUOUS
 62
     3
 10
-70.86046511627814
 20
111.8504833738073
 30
0.0
 11
-58.86046511627814
 21
111.8504833738073
 31
0.0
  0
LINE
  5
26C
  8
0
  6
CONTINUOUS
 62
     3
 10
-70.86046511627814
 20
141.8504833738073
 30
0.0
 11
-58.86046511627814
 21
141.8504833738073
 31
0.0
  0
LINE
  5
26D
  8
0
  6
CONTINUOUS
 62
     3
 10
-70.86046511627814
 20
123.8504833738073
 30
0.0
 11
-58.86046511627814
 21
123.8504833738073
 31
0.0
  0
LINE
  5
26E
  8
0
  6
CONTINUOUS
 62
     3
 10
-70.86046511627814
 20
111.8504833738073
 30
0.0
 11
-70.86046511627814
 21
93.85048337380728
 31
0.0
  0
LINE
  5
26F
  8
0
  6
CONTINUOUS
 62
     3
 10
-58.86046511627814
 20
111.8504833738073
 30
0.0
 11
-58.86046511627814
 21
93.85048337380728
 31
0.0
  0
LINE
  5
270
  8
0
  6
CONTINUOUS
 62
     3
 10
-95.86046511627814
 20
138.8504833738073
 30
0.0
 11
-95.86046511627814
 21
126.8504833738073
 31
0.0
  0
LINE
  5
271
  8
0
  6
CONTINUOUS
 62
     3
 10
-95.86046511627814
 20
108.8504833738073
 30
0.0
 11
-95.86046511627814
 21
96.85048337380728
 31
0.0
  0
LINE
  5
272
  8
0
  6
CONTINUOUS
 62
     3
 10
-176.8564520547547
 20
87.85047574441275
 30
0.0
 11
-176.8564520547547
 21
79.35047574441275
 31
0.0
  0
LINE
  5
273
  8
0
  6
CONTINUOUS
 62
     3
 10
-121.8564520547547
 20
86.85047574441275
 30
0.0
 11
-121.8564520547547
 21
76.35047574441275
 31
0.0
  0
LINE
  5
274
  8
0
  6
CONTINUOUS
 62
     3
 10
-175.660468168036
 20
-29.47699694235483
 30
0.0
 11
-175.660468168036
 21
-81.64952425558725
 31
0.0
  0
LINE
  5
275
  8
0
  6
CONTINUOUS
 62
     3
 10
-121.8564520547547
 20
-14.64952234823862
 30
0.0
 11
-121.8564520547547
 21
-25.14952425558725
 31
0.0
  0
LINE
  5
276
  8
0
  6
CONTINUOUS
 62
     3
 10
-96.3564520547547
 20
76.35047574441275
 30
0.0
 11
-96.3564520547547
 21
-14.64952234823862
 31
0.0
  0
LINE
  5
277
  8
0
  6
CONTINUOUS
 62
     3
 10
-121.8564520547547
 20
-14.64952234823862
 30
0.0
 11
-84.86046511627814
 21
-14.64952234823862
 31
0.0
  0
LINE
  5
278
  8
0
  6
CONTINUOUS
 62
     3
 10
-121.8564520547547
 20
76.35047574441275
 30
0.0
 11
-84.86046511627814
 21
76.35047574441275
 31
0.0
  0
LINE
  5
279
  8
0
  6
CONTINUOUS
 62
     3
 10
-151.8564520547547
 20
-12.14952234823862
 30
0.0
 11
-96.3564520547547
 21
-12.14952234823862
 31
0.0
  0
LINE
  5
27A
  8
0
  6
CONTINUOUS
 62
     3
 10
-151.8564520547547
 20
73.85047574441275
 30
0.0
 11
-96.3564520547547
 21
73.85047574441275
 31
0.0
  0
LINE
  5
27B
  8
0
  6
CONTINUOUS
 62
     3
 10
-151.8564520547547
 20
83.35047574441275
 30
0.0
 11
-151.8564520547547
 21
-21.64952425558725
 31
0.0
  0
LINE
  5
27C
  8
0
  6
CONTINUOUS
 62
     3
 10
-98.86046511627814
 20
-17.14952234823862
 30
0.0
 11
-98.86046511627814
 21
-35.14952425558725
 31
0.0
  0
LINE
  5
27D
  8
0
  6
CONTINUOUS
 62
     3
 10
-156.8564520547547
 20
85.10047574441275
 30
0.0
 11
-156.8564520547547
 21
83.35047574441275
 31
0.0
  0
LINE
  5
27E
  8
0
  6
CONTINUOUS
 62
     3
 10
-159.8564520547547
 20
85.10047574441275
 30
0.0
 11
-159.8564520547547
 21
83.35047574441275
 31
0.0
  0
LINE
  5
27F
  8
0
  6
CONTINUOUS
 62
     3
 10
-158.8564520547547
 20
-21.64952425558725
 30
0.0
 11
-151.8564520547547
 21
-21.64952425558725
 31
0.0
  0
LINE
  5
280
  8
0
  6
CONTINUOUS
 62
     3
 10
-158.8564367959656
 20
83.35047574441275
 30
0.0
 11
-151.8564520547547
 21
83.35047574441275
 31
0.0
  0
LINE
  5
281
  8
0
  6
CONTINUOUS
 62
     3
 10
-159.8564520547547
 20
85.10047574441275
 30
0.0
 11
-156.8564520547547
 21
85.10047574441275
 31
0.0
  0
LINE
  5
282
  8
0
  6
CONTINUOUS
 62
     3
 10
-159.8564520547547
 20
-23.39952425558725
 30
0.0
 11
-156.8564520547547
 21
-23.39952425558725
 31
0.0
  0
LINE
  5
283
  8
0
  6
CONTINUOUS
 62
     3
 10
-176.8564520547547
 20
84.85047574441275
 30
0.0
 11
-159.8564520547547
 21
84.85047574441275
 31
0.0
  0
LINE
  5
284
  8
0
  6
CONTINUOUS
 62
     3
 10
-176.8564520547547
 20
-23.14952425558725
 30
0.0
 11
-171.8564520547547
 21
-23.14952425558725
 31
0.0
  0
LINE
  5
285
  8
0
  6
CONTINUOUS
 62
     3
 10
-159.8564520547547
 20
-21.64952425558725
 30
0.0
 11
-159.8564520547547
 21
-23.39952425558725
 31
0.0
  0
LINE
  5
286
  8
0
  6
CONTINUOUS
 62
     3
 10
-156.8564520547547
 20
-21.64952425558725
 30
0.0
 11
-156.8564520547547
 21
-23.39952425558725
 31
0.0
  0
LINE
  5
287
  8
0
  6
CONTINUOUS
 62
     3
 10
-176.8564414495274
 20
87.85046933979358
 30
0.0
 11
-175.8564403879379
 21
88.85047040138308
 31
0.0
  0
LINE
  5
288
  8
0
  6
CONTINUOUS
 62
     3
 10
-176.8564333573326
 20
-26.14951411409832
 30
0.0
 11
-175.8564322957431
 21
-27.14951517568782
 31
0.0
  0
LINE
  5
289
  8
0
  6
CONTINUOUS
 62
     3
 10
-123.8564444762787
 20
88.85047574441275
 30
0.0
 11
-121.8564424048665
 21
86.85047367300059
 31
0.0
  0
LINE
  5
28A
  8
0
  6
CONTINUOUS
 62
     3
 10
-121.8564504970613
 20
-25.14952384210186
 30
0.0
 11
-123.8564526202403
 21
-27.14952596528086
 31
0.0
  0
LINE
  5
28B
  8
0
  6
CONTINUOUS
 62
     3
 10
-201.8564520547547
 20
78.35047574441275
 30
0.0
 11
-201.8564520547547
 21
-16.64951853354135
 31
0.0
  0
LINE
  5
28C
  8
0
  6
CONTINUOUS
 62
     3
 10
-181.8564520547547
 20
73.85047574441275
 30
0.0
 11
-151.8564520547547
 21
73.85047574441275
 31
0.0
  0
LINE
  5
28D
  8
0
  6
CONTINUOUS
 62
     3
 10
-181.8564520547547
 20
-12.14952234823862
 30
0.0
 11
-151.8564520547547
 21
-12.14952234823862
 31
0.0
  0
LINE
  5
28E
  8
0
  6
CONTINUOUS
 62
     3
 10
-200.8564520547547
 20
-17.64952234823862
 30
0.0
 11
-159.8564520547547
 21
-17.64952234823862
 31
0.0
  0
LINE
  5
28F
  8
0
  6
CONTINUOUS
 62
     3
 10
-200.8564520547547
 20
79.35047574441275
 30
0.0
 11
-159.8564520547547
 21
79.35047574441275
 31
0.0
  0
LINE
  5
290
  8
0
  6
CONTINUOUS
 62
     3
 10
-159.8564520547547
 20
82.35047574441275
 30
0.0
 11
-159.8564520547547
 21
79.35047574441275
 31
0.0
  0
LINE
  5
291
  8
0
  6
CONTINUOUS
 62
     3
 10
-179.8604651162781
 20
-19.11567644674936
 30
0.0
 11
-179.8604651162781
 21
-94.14952425558725
 31
0.0
  0
LINE
  5
292
  8
0
  6
CONTINUOUS
 62
     3
 10
-176.8564520547547
 20
-17.64952234823862
 30
0.0
 11
-176.8564520547547
 21
-26.14952425558725
 31
0.0
  0
LINE
  5
293
  8
0
  6
CONTINUOUS
 62
     3
 10
-159.8564520547547
 20
-17.64952234823862
 30
0.0
 11
-159.8564520547547
 21
-20.64952807028452
 31
0.0
  0
LINE
  5
294
  8
0
  6
CONTINUOUS
 62
     3
 10
-181.8564520547547
 20
76.10047574441275
 30
0.0
 11
-181.8564520547547
 21
-14.39952234823862
 31
0.0
  0
LINE
  5
295
  8
0
  6
CONTINUOUS
 62
     3
 10
-185.8564520547547
 20
76.10047574441275
 30
0.0
 11
-185.8564520547547
 21
-14.39952234823862
 31
0.0
  0
LINE
  5
296
  8
0
  6
CONTINUOUS
 62
     3
 10
-184.8564520547547
 20
77.10047574441275
 30
0.0
 11
-182.8564520547547
 21
77.10047574441275
 31
0.0
  0
LINE
  5
297
  8
0
  6
CONTINUOUS
 62
     3
 10
-184.8564520547547
 20
-15.39952234823862
 30
0.0
 11
-182.8564520547547
 21
-15.39952234823862
 31
0.0
  0
LINE
  5
298
  8
0
  6
CONTINUOUS
 62
     3
 10
-200.8564520547547
 20
-14.34952311117807
 30
0.0
 11
-185.8564520547547
 21
-14.34952311117807
 31
0.0
  0
LINE
  5
299
  8
0
  6
CONTINUOUS
 62
     3
 10
-200.8564520547547
 20
76.05048032204947
 30
0.0
 11
-185.8564520547547
 21
76.05048032204947
 31
0.0
  0
LINE
  5
29A
  8
0
  6
CONTINUOUS
 62
     3
 10
-159.8564221963142
 20
82.35045215863831
 30
0.0
 11
-158.8564080691521
 21
83.35045102854248
 31
0.0
  0
LINE
  5
29B
  8
0
  6
CONTINUOUS
 62
     3
 10
-152.856442945362
 20
83.35046995743734
 30
0.0
 11
-151.8564418837725
 21
82.35046889584784
 31
0.0
  0
LINE
  5
29C
  8
0
  6
CONTINUOUS
 62
     3
 10
-151.8564445811707
 20
-20.64952445974562
 30
0.0
 11
-152.8564456427602
 21
-21.64952552133512
 31
0.0
  0
LINE
  5
29D
  8
0
  6
CONTINUOUS
 62
     3
 10
-158.8564281506037
 20
-21.64948803814853
 30
0.0
 11
-159.8564257561433
 21
-20.64949422580888
 31
0.0
  0
LINE
  5
29E
  8
0
  6
CONTINUOUS
 62
     3
 10
-200.8564336464364
 20
-17.64951482032915
 30
0.0
 11
-201.8564327692688
 21
-16.64951181998252
 31
0.0
  0
LINE
  5
29F
  8
0
  6
CONTINUOUS
 62
     3
 10
-201.8564491074771
 20
78.3504673468881
 30
0.0
 11
-200.8564480458876
 21
79.3504684084776
 31
0.0
  0
LINE
  5
2A0
  8
0
  6
CONTINUOUS
 62
     3
 10
-200.8564534406841
 20
76.05048756337762
 30
0.0
 11
-201.8564545022736
 21
77.05048862496712
 31
0.0
  0
LINE
  5
2A1
  8
0
  6
CONTINUOUS
 62
     3
 10
-200.8564264667015
 20
-14.3495296402841
 30
0.0
 11
-201.856427528291
 21
-15.3495307018736
 31
0.0
  0
LINE
  5
2A2
  8
0
  6
CONTINUOUS
 62
     3
 10
-200.8564520547547
 20
76.05048032204947
 30
0.0
 11
-200.8564520547547
 21
65.85047574441275
 31
0.0
  0
LINE
  5
2A3
  8
0
  6
CONTINUOUS
 62
     3
 10
-200.8564520547547
 20
-4.149522348238619
 30
0.0
 11
-200.8564520547547
 21
-14.34952311117807
 31
0.0
  0
LINE
  5
2A4
  8
0
  6
CONTINUOUS
 62
     3
 10
-170.3564520547547
 20
-14.94952158529917
 30
0.0
 11
-163.3564520547547
 21
-14.94952158529917
 31
0.0
  0
LINE
  5
2A5
  8
0
  6
CONTINUOUS
 62
     3
 10
-170.3564520547547
 20
76.65047879617056
 30
0.0
 11
-163.3564520547547
 21
76.65047879617056
 31
0.0
  0
LINE
  5
2A6
  8
0
  6
CONTINUOUS
 62
     3
 10
-170.3564520547547
 20
-12.14952234823862
 30
0.0
 11
-170.3564520547547
 21
-14.94952158529917
 31
0.0
  0
LINE
  5
2A7
  8
0
  6
CONTINUOUS
 62
     3
 10
-163.3564520547547
 20
-12.14952234823862
 30
0.0
 11
-163.3564520547547
 21
-14.94952158529917
 31
0.0
  0
LINE
  5
2A8
  8
0
  6
CONTINUOUS
 62
     3
 10
-163.3564520547547
 20
76.65047879617056
 30
0.0
 11
-163.3564520547547
 21
73.85047574441275
 31
0.0
  0
LINE
  5
2A9
  8
0
  6
CONTINUOUS
 62
     3
 10
-170.3564520547547
 20
76.65047879617056
 30
0.0
 11
-170.3564520547547
 21
73.85047574441275
 31
0.0
  0
LINE
  5
2AA
  8
0
  6
CONTINUOUS
 62
     3
 10
-167.8564520547547
 20
-17.64952234823862
 30
0.0
 11
-167.8564520547547
 21
-27.14952425558725
 31
0.0
  0
LINE
  5
2AB
  8
0
  6
CONTINUOUS
 62
     3
 10
-171.8564520547547
 20
-17.64952234823862
 30
0.0
 11
-171.8564520547547
 21
-27.14952425558725
 31
0.0
  0
LINE
  5
2AC
  8
0
  6
CONTINUOUS
 62
     3
 10
-167.8564520547547
 20
-23.14952425558725
 30
0.0
 11
-159.8564520547547
 21
-23.14952425558725
 31
0.0
  0
LINE
  5
2AD
  8
0
  6
CONTINUOUS
 62
     3
 10
-171.8564520547547
 20
-19.14952425558725
 30
0.0
 11
-167.8564520547547
 21
-19.14952425558725
 31
0.0
  0
LINE
  5
2AE
  8
0
  6
CONTINUOUS
 62
     3
 10
-109.8604651162781
 20
78.85047574441275
 30
0.0
 11
-98.86046511627814
 21
78.85047574441275
 31
0.0
  0
LINE
  5
2AF
  8
0
  6
CONTINUOUS
 62
     3
 10
-109.8604651162781
 20
-17.14952234823862
 30
0.0
 11
-98.86046511627814
 21
-17.14952234823862
 31
0.0
  0
LINE
  5
2B0
  8
0
  6
CONTINUOUS
 62
     3
 10
-109.8604651162781
 20
78.85047574441275
 30
0.0
 11
-109.8604651162781
 21
76.35047574441275
 31
0.0
  0
LINE
  5
2B1
  8
0
  6
CONTINUOUS
 62
     3
 10
-109.8604651162781
 20
-14.64952234823862
 30
0.0
 11
-109.8604651162781
 21
-17.14952234823862
 31
0.0
  0
LINE
  5
2B2
  8
0
  6
CONTINUOUS
 62
     3
 10
-98.86046511627814
 20
85.35047574441275
 30
0.0
 11
-97.36046511627814
 21
85.35047574441275
 31
0.0
  0
LINE
  5
2B3
  8
0
  6
CONTINUOUS
 62
     3
 10
-97.36046772667851
 20
85.35047946219562
 30
0.0
 11
-84.86046948306921
 21
78.13360290871243
 31
0.0
  0
ARC
  5
2B4
  8
0
  6
CONTINUOUS
 62
     3
 10
-182.8564520547547
 20
76.10047574441275
 30
0.0
 40
1.0
 50
0.0
 51
89.99998201391065
  0
ARC
  5
2B5
  8
0
  6
CONTINUOUS
 62
     3
 10
-182.8564520547547
 20
-14.39952234823862
 30
0.0
 40
1.0
 50
270.0000179860894
 51
360.0
  0
ARC
  5
2B6
  8
0
  6
CONTINUOUS
 62
     3
 10
-184.8564520547547
 20
-14.39952234823862
 30
0.0
 40
1.0
 50
179.9999813306654
 51
270.0000179860894
  0
ARC
  5
2B7
  8
0
  6
CONTINUOUS
 62
     3
 10
-184.8564520547547
 20
76.10047574441275
 30
0.0
 40
1.0
 50
89.99998201391065
 51
179.9999640278213
  0
LINE
  5
2B8
  8
0
  6
CONTINUOUS
 62
     3
 10
6.969682890760936
 20
-12.16394899675687
 30
0.0
 11
29.46968128143502
 21
-51.13508403443798
 31
0.0
  0
LINE
  5
2B9
  8
0
  6
CONTINUOUS
 62
     3
 10
103.9728631307922
 20
155.8504833738073
 30
0.0
 11
148.9728631307922
 21
155.8504833738073
 31
0.0
  0
LINE
  5
2BA
  8
0
  6
CONTINUOUS
 62
     3
 10
29.46968495489324
 20
-51.13509636328386
 30
0.0
 11
96.75986291321038
 21
-12.28509829745461
 31
0.0
  0
LINE
  5
2BB
  8
0
  6
CONTINUOUS
 62
     3
 10
6.96968232388366
 20
-12.16394909870613
 30
0.0
 11
74.25986234696637
 21
26.68605015921595
 31
0.0
  0
LINE
  5
2BC
  8
0
  6
CONTINUOUS
 62
     3
 10
103.9728631307922
 20
155.8504833738073
 30
0.0
 11
103.9728631307922
 21
78.15047879617056
 31
0.0
  0
LINE
  5
2BD
  8
0
  6
CONTINUOUS
 62
     3
 10
148.9728631307922
 20
155.8504833738073
 30
0.0
 11
148.9728631307922
 21
78.15047879617056
 31
0.0
  0
LINE
  5
2BE
  8
0
  6
CONTINUOUS
 62
     3
 10
156.1858894727471
 20
-12.2850972057738
 30
0.0
 11
223.4760641274393
 21
-51.13509336425453
 31
0.0
  0
LINE
  5
2BF
  8
0
  6
CONTINUOUS
 62
     3
 10
214.7530886789525
 20
-57.64589143558463
 30
0.0
 11
216.1555567393359
 21
-58.45560665831793
 31
0.0
  0
LINE
  5
2C0
  8
0
  6
CONTINUOUS
 62
     3
 10
158.9728631307922
 20
153.1709942380651
 30
0.0
 11
158.9728631307922
 21
151.5515636960729
 31
0.0
  0
LINE
  5
2C1
  8
0
  6
CONTINUOUS
 62
     3
 10
93.97286313079218
 20
153.1709942380651
 30
0.0
 11
93.97286313079218
 21
151.5515636960729
 31
0.0
  0
LINE
  5
2C2
  8
0
  6
CONTINUOUS
 62
     3
 10
36.79019157638851
 20
-58.45559688544977
 30
0.0
 11
38.19265468133455
 21
-57.64588452373924
 31
0.0
  0
LINE
  5
2C3
  8
0
  6
CONTINUOUS
 62
     3
 10
4.290189750194926
 20
-2.163947701283277
 30
0.0
 11
5.692657810578325
 21
-1.354232478549974
 31
0.0
  0
LINE
  5
2C4
  8
0
  6
CONTINUOUS
 62
     3
 10
93.97286417790548
 20
153.1709825833102
 30
0.0
 11
103.9728699684527
 21
155.8504757731155
 31
0.0
  0
LINE
  5
2C5
  8
0
  6
CONTINUOUS
 62
     3
 10
148.9728598259481
 20
155.8504607201039
 30
0.0
 11
158.9728582470662
 21
153.170969504931
 31
0.0
  0
LINE
  5
2C6
  8
0
  6
CONTINUOUS
 62
     3
 10
216.1555734736645
 20
-58.45562276401891
 30
0.0
 11
223.476080988146
 21
-51.13511586661001
 31
0.0
  0
LINE
  5
2C7
  8
0
  6
CONTINUOUS
 62
     3
 10
29.46968108135002
 20
-51.13508518370257
 30
0.0
 11
36.79018589843304
 21
-58.45558938371322
 31
0.0
  0
LINE
  5
2C8
  8
0
  6
CONTINUOUS
 62
     3
 10
4.290189022070166
 20
-2.163947951347311
 30
0.0
 11
6.969680854315669
 21
-12.16394637246542
 31
0.0
  0
LINE
  5
2C9
  8
0
  6
CONTINUOUS
 62
     3
 10
103.9728631307922
 20
85.35047574441275
 30
0.0
 11
148.9728631307922
 21
85.35047574441275
 31
0.0
  0
LINE
  5
2CA
  8
0
  6
CONTINUOUS
 62
     3
 10
68.02447568664576
 20
23.08604918560879
 30
0.0
 11
90.52447455415705
 21
-15.88508667797849
 31
0.0
  0
LINE
  5
2CB
  8
0
  6
CONTINUOUS
 62
     3
 10
162.4212619063652
 20
-15.88509254032373
 30
0.0
 11
184.9212645885742
 21
23.08604993051291
 31
0.0
  0
LINE
  5
2CC
  8
0
  6
CONTINUOUS
 62
     3
 10
103.9728631307922
 20
78.15047879617056
 30
0.0
 11
148.9728631307922
 21
78.15047879617056
 31
0.0
  0
LINE
  5
2CD
  8
0
  6
CONTINUOUS
 62
     3
 10
74.25986340000367
 20
26.68605025176852
 30
0.0
 11
96.75986703588711
 21
-12.28509387088046
 31
0.0
  0
LINE
  5
2CE
  8
0
  6
CONTINUOUS
 62
     3
 10
156.1858741245356
 20
-12.28510685154809
 30
0.0
 11
178.6858768067446
 21
26.68603561928855
 31
0.0
  0
LINE
  5
2CF
  8
0
  6
CONTINUOUS
 62
     3
 10
116.4728631307922
 20
155.8504833738073
 30
0.0
 11
116.4728631307922
 21
88.35048337380728
 31
0.0
  0
LINE
  5
2D0
  8
0
  6
CONTINUOUS
 62
     3
 10
136.4728631307922
 20
155.8504833738073
 30
0.0
 11
136.4728631307922
 21
88.35048337380728
 31
0.0
  0
LINE
  5
2D1
  8
0
  6
CONTINUOUS
 62
     3
 10
23.2196850718862
 20
-40.30977400791646
 30
0.0
 11
81.67640445326714
 21
-6.559775065898961
 31
0.0
  0
LINE
  5
2D2
  8
0
  6
CONTINUOUS
 62
     3
 10
13.21968388835217
 20
-22.98926387603196
 30
0.0
 11
71.67640409563933
 21
10.76073554282267
 31
0.0
  0
LINE
  5
2D3
  8
0
  6
CONTINUOUS
 62
     3
 10
171.2693460253418
 20
-6.559777277843054
 30
0.0
 11
229.7260637549103
 21
-40.30977526618629
 31
0.0
  0
LINE
  5
2D4
  8
0
  6
CONTINUOUS
 62
     3
 10
181.2693492439924
 20
10.76073828631594
 30
0.0
 11
239.7260669735609
 21
-22.9892597020273
 31
0.0
  0
LINE
  5
2D5
  8
0
  6
CONTINUOUS
 62
     3
 10
165.0193589149818
 20
-17.38508713403438
 30
0.0
 11
171.2693558453421
 21
-6.559776388273562
 31
0.0
  0
LINE
  5
2D6
  8
0
  6
CONTINUOUS
 62
     3
 10
103.9728631307922
 20
88.35048337380728
 30
0.0
 11
116.4728631307922
 21
88.35048337380728
 31
0.0
  0
LINE
  5
2D7
  8
0
  6
CONTINUOUS
 62
     3
 10
65.42639666090003
 20
21.58605396223187
 30
0.0
 11
71.67640026698138
 21
10.76073165378467
 31
0.0
  0
LINE
  5
2D8
  8
0
  6
CONTINUOUS
 62
     3
 10
136.4728631307922
 20
88.35048337380728
 30
0.0
 11
148.9728631307922
 21
88.35048337380728
 31
0.0
  0
LINE
  5
2D9
  8
0
  6
CONTINUOUS
 62
     3
 10
81.67640336642313
 20
-6.55977941465629
 30
0.0
 11
87.92639648208575
 21
-17.38508355316775
 31
0.0
  0
LINE
  5
2DA
  8
0
  6
CONTINUOUS
 62
     3
 10
181.269357037435
 20
10.76073137654272
 30
0.0
 11
187.5193577824931
 21
21.5860487295529
 31
0.0
  0
LINE
  5
2DB
  8
0
  6
CONTINUOUS
 62
     3
 10
68.64530950078967
 20
9.010734748793098
 30
0.0
 11
78.64531069288256
 21
-8.309773016023186
 31
0.0
  0
LINE
  5
2DC
  8
0
  6
CONTINUOUS
 62
     3
 10
23.61199001040524
 20
-16.98926574516166
 30
0.0
 11
33.6119902488237
 21
-34.3097718581656
 31
0.0
  0
LINE
  5
2DD
  8
0
  6
CONTINUOUS
 62
     3
 10
116.4728631307922
 20
143.8504833738073
 30
0.0
 11
136.4728631307922
 21
143.8504833738073
 31
0.0
  0
LINE
  5
2DE
  8
0
  6
CONTINUOUS
 62
     3
 10
116.4728631307922
 20
91.85048337380728
 30
0.0
 11
136.4728631307922
 21
91.85048337380728
 31
0.0
  0
LINE
  5
2DF
  8
0
  6
CONTINUOUS
 62
     3
 10
174.3004276749885
 20
-8.309775574743739
 30
0.0
 11
184.3004288670814
 21
9.010732190072545
 31
0.0
  0
LINE
  5
2E0
  8
0
  6
CONTINUOUS
 62
     3
 10
219.3337819219037
 20
-34.30978071847743
 30
0.0
 11
229.3337792992989
 21
-16.9892795609105
 31
0.0
  0
LINE
  5
2E1
  8
0
  6
CONTINUOUS
 62
     3
 10
75.77288807623023
 20
122.8504870139552
 30
0.0
 11
78.62288519136615
 21
117.9141442643898
 31
0.0
  0
LINE
  5
2E2
  8
0
  6
CONTINUOUS
 62
     3
 10
78.62286465667108
 20
117.914127782987
 30
0.0
 11
84.32286160491327
 21
117.914127782987
 31
0.0
  0
LINE
  5
2E3
  8
0
  6
CONTINUOUS
 62
     3
 10
84.32284939699895
 20
117.9141099644182
 30
0.0
 11
87.1728588979866
 21
122.8504632105067
 31
0.0
  0
LINE
  5
2E4
  8
0
  6
CONTINUOUS
 62
     3
 10
87.17289349066692
 20
122.8504901099771
 30
0.0
 11
84.32289307045568
 21
127.7868401462863
 31
0.0
  0
LINE
  5
2E5
  8
0
  6
CONTINUOUS
 62
     3
 10
84.32286160491327
 20
127.7868237058385
 30
0.0
 11
78.62286465667108
 21
127.7868237058385
 31
0.0
  0
LINE
  5
2E6
  8
0
  6
CONTINUOUS
 62
     3
 10
78.62286771284994
 20
127.7868242641097
 30
0.0
 11
75.77286059009271
 21
122.8504693192853
 31
0.0
  0
LINE
  5
2E7
  8
0
  6
CONTINUOUS
 62
     3
 10
222.9472639768479
 20
23.82163857872526
 30
0.0
 11
225.7972610919838
 21
18.88529582915977
 31
0.0
  0
LINE
  5
2E8
  8
0
  6
CONTINUOUS
 62
     3
 10
225.7972192098937
 20
18.88527341286978
 30
0.0
 11
231.497231416925
 21
18.88527341286978
 31
0.0
  0
LINE
  5
2E9
  8
0
  6
CONTINUOUS
 62
     3
 10
231.4971834807489
 20
18.88527655133682
 30
0.0
 11
234.3471853523329
 21
23.82161658293195
 31
0.0
  0
LINE
  5
2EA
  8
0
  6
CONTINUOUS
 62
     3
 10
234.3472529917731
 20
23.82163553206807
 30
0.0
 11
231.4972563862567
 21
28.75797896112614
 31
0.0
  0
LINE
  5
2EB
  8
0
  6
CONTINUOUS
 62
     3
 10
231.497231416925
 20
28.75796170632681
 30
0.0
 11
225.7972192098937
 21
28.75796170632681
 31
0.0
  0
LINE
  5
2EC
  8
0
  6
CONTINUOUS
 62
     3
 10
225.7972464644877
 20
28.75796293888858
 30
0.0
 11
222.9472393417305
 21
23.82160799406417
 31
0.0
  0
LINE
  5
2ED
  8
0
  6
CONTINUOUS
 62
     3
 10
63.598525805463
 20
-54.12064740973959
 30
0.0
 11
66.44852292059892
 21
-59.05699015930507
 31
0.0
  0
LINE
  5
2EE
  8
0
  6
CONTINUOUS
 62
     3
 10
66.44852536223749
 20
-59.05700258810678
 30
0.0
 11
72.14852231047968
 21
-59.05700258810678
 31
0.0
  0
LINE
  5
2EF
  8
0
  6
CONTINUOUS
 62
     3
 10
72.14850967320257
 20
-59.05699508738694
 30
0.0
 11
74.9985115447866
 21
-54.1206550557918
 31
0.0
  0
LINE
  5
2F0
  8
0
  6
CONTINUOUS
 62
     3
 10
74.99853040384761
 20
-54.12065668216438
 30
0.0
 11
72.14853379833113
 21
-49.18431325310631
 31
0.0
  0
LINE
  5
2F1
  8
0
  6
CONTINUOUS
 62
     3
 10
72.14852231047968
 20
-49.18431047995249
 30
0.0
 11
66.44852536223749
 21
-49.18431047995249
 31
0.0
  0
LINE
  5
2F2
  8
0
  6
CONTINUOUS
 62
     3
 10
66.44853629875939
 20
-49.18431372963481
 30
0.0
 11
63.5985348980501
 21
-54.12065876358587
 31
0.0
  0
ARC
  5
2F3
  8
0
  6
CONTINUOUS
 62
     3
 10
126.4728631307922
 20
30.85047574441275
 30
0.0
 40
66.0
 50
0.0
 51
70.06772782700759
  0
CIRCLE
  5
2F4
  8
0
  6
CONTINUOUS
 62
     3
 10
69.29852383635858
 20
-54.120654626681
 30
0.0
 40
9.0
  0
CIRCLE
  5
2F5
  8
0
  6
CONTINUOUS
 62
     3
 10
228.6472253134094
 20
23.8216175595983
 30
0.0
 40
9.0
  0
CIRCLE
  5
2F6
  8
0
  6
CONTINUOUS
 62
     3
 10
81.47286313079218
 20
122.8504757444128
 30
0.0
 40
9.0
  0
CIRCLE
  5
2F7
  8
0
  6
CONTINUOUS
 62
     3
 10
126.4728631307922
 20
-26.64952425558725
 30
0.0
 40
2.150000095367432
  0
CIRCLE
  5
2F8
  8
0
  6
CONTINUOUS
 62
     3
 10
176.2693261434875
 20
59.60047574441275
 30
0.0
 40
2.150000095367432
  0
CIRCLE
  5
2F9
  8
0
  6
CONTINUOUS
 62
     3
 10
76.67640011809687
 20
59.60047574441275
 30
0.0
 40
2.150000095367432
  0
ARC
  5
2FA
  8
0
  6
CONTINUOUS
 62
     3
 10
126.4728631307922
 20
30.85047574441275
 30
0.0
 40
125.0
 50
100.3697801174991
 51
199.6302009100047
  0
ARC
  5
2FB
  8
0
  6
CONTINUOUS
 62
     3
 10
126.4728631307922
 20
30.85047574441275
 30
0.0
 40
123.0
 50
100.5403026203177
 51
199.4596784071862
  0
ARC
  5
2FC
  8
0
  6
CONTINUOUS
 62
     3
 10
126.4728631307922
 20
30.85047574441275
 30
0.0
 40
125.0
 50
220.3697324577557
 51
319.6302488729097
  0
ARC
  5
2FD
  8
0
  6
CONTINUOUS
 62
     3
 10
126.4728631307922
 20
30.85047574441275
 30
0.0
 40
123.0
 50
220.5402549605742
 51
319.4597127097128
  0
ARC
  5
2FE
  8
0
  6
CONTINUOUS
 62
     3
 10
126.4728631307922
 20
30.85047574441275
 30
0.0
 40
66.0
 50
109.9322908423271
 51
190.0676901851768
  0
ARC
  5
2FF
  8
0
  6
CONTINUOUS
 62
     3
 10
126.4728631307922
 20
30.85047574441275
 30
0.0
 40
66.0
 50
229.9322431825836
 51
310.067727902798
  0
ARC
  5
300
  8
0
  6
CONTINUOUS
 62
     3
 10
126.4728631307922
 20
30.85047574441275
 30
0.0
 40
66.0
 50
349.93227042755
 51
360.0
  0
CIRCLE
  5
301
  8
0
  6
CONTINUOUS
 62
     3
 10
126.4728631307922
 20
30.85047574441275
 30
0.0
 40
45.5
  0
CIRCLE
  5
302
  8
0
  6
CONTINUOUS
 62
     3
 10
126.4728631307922
 20
30.85047574441275
 30
0.0
 40
43.0
  0
ARC
  5
303
  8
0
  6
CONTINUOUS
 62
     3
 10
183.1975487997375
 20
-1.899525209261569
 30
0.0
 40
13.5
 50
96.34127307332307
 51
114.5691423453087
  0
ARC
  5
304
  8
0
  6
CONTINUOUS
 62
     3
 10
126.4728631307922
 20
96.35048337380728
 30
0.0
 40
13.5
 50
216.3411776022554
 51
234.5690946855652
  0
ARC
  5
305
  8
0
  6
CONTINUOUS
 62
     3
 10
69.74820035003046
 20
-1.899520440889987
 30
0.0
 40
13.5
 50
65.43098560705273
 51
83.65881389790332
  0
ARC
  5
306
  8
0
  6
CONTINUOUS
 62
     3
 10
126.4728631307922
 20
96.35048337380728
 30
0.0
 40
13.5
 50
305.4309071356676
 51
323.6588003133153
  0
ARC
  5
307
  8
0
  6
CONTINUOUS
 62
     3
 10
69.74820035003046
 20
-1.899520440889987
 30
0.0
 40
13.5
 50
336.3411826491069
 51
354.5690254541095
  0
ARC
  5
308
  8
0
  6
CONTINUOUS
 62
     3
 10
183.1975487997375
 20
-1.899525209261569
 30
0.0
 40
13.5
 50
185.4308286642825
 51
203.658691106079
  0
CIRCLE
  5
309
  8
0
  6
CONTINUOUS
 62
     3
 10
187.0719079305969
 20
91.44952817361197
 30
0.0
 40
13.0
  0
CIRCLE
  5
30A
  8
0
  6
CONTINUOUS
 62
     3
 10
209.2527093221984
 20
53.03126569192251
 30
0.0
 40
13.0
  0
CIRCLE
  5
30B
  8
0
  6
CONTINUOUS
 62
     3
 10
148.6536492636047
 20
-51.92936281759897
 30
0.0
 40
13.0
  0
CIRCLE
  5
30C
  8
0
  6
CONTINUOUS
 62
     3
 10
104.2920693685852
 20
-51.92936281759897
 30
0.0
 40
13.0
  0
CIRCLE
  5
30D
  8
0
  6
CONTINUOUS
 62
     3
 10
43.69302456878046
 20
53.03126569192251
 30
0.0
 40
13.0
  0
CIRCLE
  5
30E
  8
0
  6
CONTINUOUS
 62
     3
 10
65.87381070159296
 20
91.44952817361197
 30
0.0
 40
13.0
  0
CIRCLE
  5
30F
  8
0
  6
CONTINUOUS
 62
     3
 10
167.131508760675
 20
71.50911374490103
 30
0.0
 40
7.0
  0
CIRCLE
  5
310
  8
0
  6
CONTINUOUS
 62
     3
 10
182.0136040975891
 20
45.73257108132681
 30
0.0
 40
7.0
  0
CIRCLE
  5
311
  8
0
  6
CONTINUOUS
 62
     3
 10
141.3549584677062
 20
-24.6902575929896
 30
0.0
 40
7.0
  0
CIRCLE
  5
312
  8
0
  6
CONTINUOUS
 62
     3
 10
111.5907677938781
 20
-24.6902575929896
 30
0.0
 40
7.0
  0
CIRCLE
  5
313
  8
0
  6
CONTINUOUS
 62
     3
 10
70.93212979338983
 20
45.73257108132681
 30
0.0
 40
7.0
  0
CIRCLE
  5
314
  8
0
  6
CONTINUOUS
 62
     3
 10
85.8142251303039
 20
71.50911374490103
 30
0.0
 40
7.0
  0
CIRCLE
  5
315
  8
0
  6
CONTINUOUS
 62
     3
 10
81.47286313079218
 20
122.8504757444128
 30
0.0
 40
0.75
  0
CIRCLE
  5
316
  8
0
  6
CONTINUOUS
 62
     3
 10
81.47286313079218
 20
122.8504757444128
 30
0.0
 40
2.400000095367432
  0
CIRCLE
  5
317
  8
0
  6
CONTINUOUS
 62
     3
 10
81.47286313079218
 20
122.8504757444128
 30
0.0
 40
3.299999952316284
  0
CIRCLE
  5
318
  8
0
  6
CONTINUOUS
 62
     3
 10
228.6472253134094
 20
23.8216175595983
 30
0.0
 40
0.75
  0
CIRCLE
  5
319
  8
0
  6
CONTINUOUS
 62
     3
 10
228.6472253134094
 20
23.8216175595983
 30
0.0
 40
2.400000095367432
  0
CIRCLE
  5
31A
  8
0
  6
CONTINUOUS
 62
     3
 10
228.6472253134094
 20
23.8216175595983
 30
0.0
 40
3.299999952316284
  0
CIRCLE
  5
31B
  8
0
  6
CONTINUOUS
 62
     3
 10
69.29852383635858
 20
-54.120654626681
 30
0.0
 40
0.75
  0
CIRCLE
  5
31C
  8
0
  6
CONTINUOUS
 62
     3
 10
69.29852383635858
 20
-54.120654626681
 30
0.0
 40
2.400000095367432
  0
CIRCLE
  5
31D
  8
0
  6
CONTINUOUS
 62
     3
 10
69.29852383635858
 20
-54.120654626681
 30
0.0
 40
3.299999952316284
  0
CIRCLE
  5
31E
  8
0
  6
CONTINUOUS
 62
     3
 10
148.6536492636047
 20
-51.92936663229624
 30
0.0
 40
9.0
  0
CIRCLE
  5
31F
  8
0
  6
CONTINUOUS
 62
     3
 10
209.2526940634094
 20
53.03126950661978
 30
0.0
 40
9.0
  0
CIRCLE
  5
320
  8
0
  6
CONTINUOUS
 62
     3
 10
187.0719231893859
 20
91.44952054421744
 30
0.0
 40
9.0
  0
CIRCLE
  5
321
  8
0
  6
CONTINUOUS
 62
     3
 10
65.87381833098749
 20
91.4495358030065
 30
0.0
 40
9.0
  0
CIRCLE
  5
322
  8
0
  6
CONTINUOUS
 62
     3
 10
43.69302075408319
 20
53.03125806252798
 30
0.0
 40
9.0
  0
LINE
  5
323
  8
0
  6
CONTINUOUS
 62
     3
 10
247.2530924638471
 20
-1.354227414755073
 30
0.0
 11
248.6555605242305
 21
-2.163942637488376
 31
0.0
  0
LINE
  5
324
  8
0
  6
CONTINUOUS
 62
     3
 10
245.976059544874
 20
-12.16395961618967
 30
0.0
 11
248.6555503898031
 21
-2.163964879786121
 31
0.0
  0
LINE
  5
325
  8
0
  6
CONTINUOUS
 62
     3
 10
223.4760820210377
 20
-51.1351053939927
 30
0.0
 11
245.9760847032467
 21
-12.16396292315606
 31
0.0
  0
LINE
  5
326
  8
0
  6
CONTINUOUS
 62
     3
 10
178.6858919463396
 20
26.68605455452168
 30
0.0
 11
245.9760666010319
 21
-12.16394160395906
 31
0.0
  0
ARC
  5
327
  8
0
  6
CONTINUOUS
 62
     3
 10
126.4728631307922
 20
30.85047574441275
 30
0.0
 40
125.0
 50
0.0
 51
79.63023855183556
  0
ARC
  5
328
  8
0
  6
CONTINUOUS
 62
     3
 10
126.4728631307922
 20
30.85047574441275
 30
0.0
 40
123.0
 50
0.0
 51
79.45971604901702
  0
ARC
  5
329
  8
0
  6
CONTINUOUS
 62
     3
 10
126.4728631307922
 20
30.85047574441275
 30
0.0
 40
123.0
 50
340.5402856206351
 51
360.0
  0
ARC
  5
32A
  8
0
  6
CONTINUOUS
 62
     3
 10
126.4728631307922
 20
30.85047574441275
 30
0.0
 40
125.0
 50
340.3697614102692
 51
360.0
  0
LINE
  5
32B
  8
0
  6
CONTINUOUS
 62
     4
 10
-82.86046511627814
 20
155.8504833738073
 30
0.0
 11
-82.86046511627814
 21
143.8504833738073
 31
0.0
  0
LINE
  5
32C
  8
0
  6
CONTINUOUS
 62
     4
 10
-82.86046511627814
 20
91.85048337380728
 30
0.0
 11
-82.86046511627814
 21
88.35048337380728
 31
0.0
  0
LINE
  5
32D
  8
0
  6
CONTINUOUS
 62
     4
 10
-101.8604651162781
 20
108.0004848996862
 30
0.0
 11
-70.86046511627814
 21
108.0004848996862
 31
0.0
  0
LINE
  5
32E
  8
0
  6
CONTINUOUS
 62
     4
 10
-101.8604651162781
 20
97.70048184792837
 30
0.0
 11
-70.86046511627814
 21
97.70048184792837
 31
0.0
  0
LINE
  5
32F
  8
0
  6
CONTINUOUS
 62
     4
 10
-101.8604651162781
 20
138.0004925290807
 30
0.0
 11
-70.86046511627814
 21
138.0004925290807
 31
0.0
  0
LINE
  5
330
  8
0
  6
CONTINUOUS
 62
     4
 10
-101.8604651162781
 20
127.7004742185338
 30
0.0
 11
-70.86046511627814
 21
127.7004742185338
 31
0.0
  0
LINE
  5
331
  8
0
  6
CONTINUOUS
 62
     4
 10
-83.86046511627814
 20
155.8504833738073
 30
0.0
 11
-83.86046511627814
 21
143.8504833738073
 31
0.0
  0
LINE
  5
332
  8
0
  6
CONTINUOUS
 62
     4
 10
-83.86046511627814
 20
91.85048337380728
 30
0.0
 11
-83.86046511627814
 21
88.35048337380728
 31
0.0
  0
LINE
  5
333
  8
0
  6
CONTINUOUS
 62
     4
 10
-176.8564520547547
 20
-22.34952120382944
 30
0.0
 11
-171.8564520547547
 21
-22.34952120382944
 31
0.0
  0
LINE
  5
334
  8
0
  6
CONTINUOUS
 62
     4
 10
-176.8564520547547
 20
84.05048032204947
 30
0.0
 11
-159.8564520547547
 21
84.05048032204947
 31
0.0
  0
LINE
  5
335
  8
0
  6
CONTINUOUS
 62
     4
 10
-201.6564551065125
 20
-15.14952234823862
 30
0.0
 11
-185.517890043036
 21
-15.14952234823862
 31
0.0
  0
LINE
  5
336
  8
0
  6
CONTINUOUS
 62
     4
 10
-201.6564551065125
 20
76.85047574441275
 30
0.0
 11
-185.517890043036
 21
76.85047574441275
 31
0.0
  0
LINE
  5
337
  8
0
  6
CONTINUOUS
 62
     4
 10
-167.8564520547547
 20
-22.34952120382944
 30
0.0
 11
-159.8564520547547
 21
-22.34952120382944
 31
0.0
  0
LINE
  5
338
  8
0
  6
CONTINUOUS
 62
     4
 10
-171.5064459512391
 20
-17.64952234823862
 30
0.0
 11
-171.5064459512391
 21
-27.14952425558725
 31
0.0
  0
LINE
  5
339
  8
0
  6
CONTINUOUS
 62
     4
 10
-168.2064581582703
 20
-17.64952234823862
 30
0.0
 11
-168.2064581582703
 21
-27.14952425558725
 31
0.0
  0
LINE
  5
33A
  8
0
  6
CONTINUOUS
 62
     4
 10
-98.86046511627814
 20
-28.64952425558725
 30
0.0
 11
-84.86046511627814
 21
-28.64952425558725
 31
0.0
  0
LINE
  5
33B
  8
0
  6
CONTINUOUS
 62
     4
 10
-98.86046511627814
 20
-24.64952425558725
 30
0.0
 11
-84.86046511627814
 21
-24.64952425558725
 31
0.0
  0
LINE
  5
33C
  8
0
  6
CONTINUOUS
 62
     4
 10
-98.86046511627814
 20
-24.14952425558725
 30
0.0
 11
-84.86046511627814
 21
-24.14952425558725
 31
0.0
  0
LINE
  5
33D
  8
0
  6
CONTINUOUS
 62
     4
 10
-98.86046511627814
 20
-29.14952425558725
 30
0.0
 11
-84.86046511627814
 21
-29.14952425558725
 31
0.0
  0
LINE
  5
33E
  8
0
  6
CONTINUOUS
 62
     4
 10
-69.86046734323048
 20
128.9637395445237
 30
0.0
 11
-64.86046821096801
 21
131.8504900705495
 31
0.0
  0
LINE
  5
33F
  8
0
  6
CONTINUOUS
 62
     4
 10
-69.86046957767798
 20
98.96373355543202
 30
0.0
 11
-64.86046383816569
 21
101.8504878961549
 31
0.0
  0
LINE
  5
340
  8
0
  6
CONTINUOUS
 62
     4
 10
-64.86046166710452
 20
101.850486706124
 30
0.0
 11
-59.86046501256072
 21
98.96373761060956
 31
0.0
  0
LINE
  5
341
  8
0
  6
CONTINUOUS
 62
     4
 10
-64.86047804007689
 20
131.8504920484299
 30
0.0
 11
-59.86046817103346
 21
128.9637353235214
 31
0.0
  0
LINE
  5
342
  8
0
  6
CONTINUOUS
 62
     4
 10
-67.86047781136807
 20
131.8504917325827
 30
0.0
 11
-59.86046598524848
 21
127.2316832615473
 31
0.0
  0
LINE
  5
343
  8
0
  6
CONTINUOUS
 62
     4
 10
-69.86047032305072
 20
131.2731370199961
 30
0.0
 11
-59.8604637994635
 21
125.4996311995731
 31
0.0
  0
LINE
  5
344
  8
0
  6
CONTINUOUS
 62
     4
 10
-69.86046813726574
 20
129.5410849580219
 30
0.0
 11
-61.7361144768642
 21
124.8504877034236
 31
0.0
  0
LINE
  5
345
  8
0
  6
CONTINUOUS
 62
     4
 10
-69.86046595148076
 20
127.8090328960477
 30
0.0
 11
-64.73611424815539
 21
124.8504873875763
 31
0.0
  0
LINE
  5
346
  8
0
  6
CONTINUOUS
 62
     4
 10
-69.8604703729456
 20
126.0769846487706
 30
0.0
 11
-67.73611401944658
 21
124.8504870717291
 31
0.0
  0
LINE
  5
347
  8
0
  6
CONTINUOUS
 62
     4
 10
-69.86046952901546
 20
127.2316874825495
 30
0.0
 11
-61.86046843967682
 21
131.8504897547022
 31
0.0
  0
LINE
  5
348
  8
0
  6
CONTINUOUS
 62
     4
 10
-69.86046510755062
 20
125.4996392352723
 30
0.0
 11
-59.86046601711945
 21
131.2731407641612
 31
0.0
  0
LINE
  5
349
  8
0
  6
CONTINUOUS
 62
     4
 10
-67.98482681874333
 20
124.8504885865659
 30
0.0
 11
-59.86046820290443
 21
129.541088702187
 31
0.0
  0
LINE
  5
34A
  8
0
  6
CONTINUOUS
 62
     4
 10
-64.98482622154592
 20
124.8504887475558
 30
0.0
 11
-59.86047038868941
 21
127.8090366402128
 31
0.0
  0
LINE
  5
34B
  8
0
  6
CONTINUOUS
 62
     4
 10
-61.98482314662982
 20
124.850490339057
 30
0.0
 11
-59.86046596722457
 21
126.0769883929357
 31
0.0
  0
LINE
  5
34C
  8
0
  6
CONTINUOUS
 62
     4
 10
-67.8604614383957
 20
101.8504863902767
 30
0.0
 11
-59.86046943402556
 21
97.23168936333242
 31
0.0
  0
LINE
  5
34D
  8
0
  6
CONTINUOUS
 62
     4
 10
-69.86046716457798
 20
101.2731393070842
 30
0.0
 11
-59.86046724824058
 21
95.49963730135825
 31
0.0
  0
LINE
  5
34E
  8
0
  6
CONTINUOUS
 62
     4
 10
-69.860464978793
 20
99.54108724511004
 30
0.0
 11
-61.73611131839147
 21
94.85048999051175
 31
0.0
  0
LINE
  5
34F
  8
0
  6
CONTINUOUS
 62
     4
 10
-69.86046940025784
 20
97.8090389978329
 30
0.0
 11
-64.73611108968265
 21
94.85048967466447
 31
0.0
  0
LINE
  5
350
  8
0
  6
CONTINUOUS
 62
     4
 10
-69.86046721447286
 20
96.07698693585873
 30
0.0
 11
-67.73611086097384
 21
94.8504893588172
 31
0.0
  0
LINE
  5
351
  8
0
  6
CONTINUOUS
 62
     4
 10
-69.86046845983805
 20
97.23168340080636
 30
0.0
 11
-61.86046365392139
 21
101.8504878187262
 31
0.0
  0
LINE
  5
352
  8
0
  6
CONTINUOUS
 62
     4
 10
-69.86046734199812
 20
95.49963324618071
 30
0.0
 11
-59.86046825156694
 21
101.2731347750695
 31
0.0
  0
LINE
  5
353
  8
0
  6
CONTINUOUS
 62
     4
 10
-67.98481955526921
 20
94.85048808110129
 30
0.0
 11
-59.86046713372701
 21
99.54108462044388
 31
0.0
  0
LINE
  5
354
  8
0
  6
CONTINUOUS
 62
     4
 10
-64.98481937102491
 20
94.85048800367258
 30
0.0
 11
-59.86046911303544
 21
97.80903267767899
 31
0.0
  0
LINE
  5
355
  8
0
  6
CONTINUOUS
 62
     4
 10
-61.98481923517355
 20
94.8504878983042
 30
0.0
 11
-59.86046799519551
 21
96.07698252305333
 31
0.0
  0
LINE
  5
356
  8
0
  6
CONTINUOUS
 62
     4
 10
-69.860467391893
 20
100.6957856174062
 30
0.0
 11
-67.86046402240999
 21
101.8504879735836
 31
0.0
  0
LINE
  5
357
  8
0
  6
CONTINUOUS
 62
     4
 10
-61.86046189581333
 20
101.8504870219713
 30
0.0
 11
-59.8604671983457
 21
100.6957896725837
 31
0.0
  0
LINE
  5
358
  8
0
  6
CONTINUOUS
 62
     4
 10
-69.8604651574455
 20
130.6957916064978
 30
0.0
 11
-67.8604679822592
 21
131.8504903863968
 31
0.0
  0
LINE
  5
359
  8
0
  6
CONTINUOUS
 62
     4
 10
-61.86047166153588
 20
131.8504885495802
 30
0.0
 11
-59.86046374956862
 21
130.6957835707985
 31
0.0
  0
LINE
  5
35A
  8
0
  6
CONTINUOUS
 62
     4
 10
105.184372835382
 20
153.8504833738073
 30
0.0
 11
115.5269707968078
 21
153.8504833738073
 31
0.0
  0
LINE
  5
35B
  8
0
  6
CONTINUOUS
 62
     4
 10
137.6522607138
 20
153.8504833738073
 30
0.0
 11
147.8639458944641
 21
153.8504833738073
 31
0.0
  0
LINE
  5
35C
  8
0
  6
CONTINUOUS
 62
     4
 10
137.6522607138
 20
151.8504833738073
 30
0.0
 11
147.8639458944641
 21
151.8504833738073
 31
0.0
  0
LINE
  5
35D
  8
0
  6
CONTINUOUS
 62
     4
 10
137.6522607138
 20
149.8504833738073
 30
0.0
 11
147.8639458944641
 21
149.8504833738073
 31
0.0
  0
LINE
  5
35E
  8
0
  6
CONTINUOUS
 62
     4
 10
137.6522607138
 20
147.8504833738073
 30
0.0
 11
147.8639458944641
 21
147.8504833738073
 31
0.0
  0
LINE
  5
35F
  8
0
  6
CONTINUOUS
 62
     4
 10
137.6522607138
 20
145.8504833738073
 30
0.0
 11
147.8639458944641
 21
145.8504833738073
 31
0.0
  0
LINE
  5
360
  8
0
  6
CONTINUOUS
 62
     4
 10
137.6522607138
 20
143.8504833738073
 30
0.0
 11
147.8639458944641
 21
143.8504833738073
 31
0.0
  0
LINE
  5
361
  8
0
  6
CONTINUOUS
 62
     4
 10
105.184372835382
 20
151.8504833738073
 30
0.0
 11
115.5269707968078
 21
151.8504833738073
 31
0.0
  0
LINE
  5
362
  8
0
  6
CONTINUOUS
 62
     4
 10
105.184372835382
 20
149.8504833738073
 30
0.0
 11
115.5269707968078
 21
149.8504833738073
 31
0.0
  0
LINE
  5
363
  8
0
  6
CONTINUOUS
 62
     4
 10
105.184372835382
 20
147.8504833738073
 30
0.0
 11
115.5269707968078
 21
147.8504833738073
 31
0.0
  0
LINE
  5
364
  8
0
  6
CONTINUOUS
 62
     4
 10
105.184372835382
 20
145.8504833738073
 30
0.0
 11
115.5269707968078
 21
145.8504833738073
 31
0.0
  0
LINE
  5
365
  8
0
  6
CONTINUOUS
 62
     4
 10
105.184372835382
 20
143.8504833738073
 30
0.0
 11
115.5269707968078
 21
143.8504833738073
 31
0.0
  0
LINE
  5
366
  8
0
  6
CONTINUOUS
 62
     4
 10
137.6522607138
 20
141.8504833738073
 30
0.0
 11
147.8639458944641
 21
141.8504833738073
 31
0.0
  0
LINE
  5
367
  8
0
  6
CONTINUOUS
 62
     4
 10
105.184372835382
 20
141.8504833738073
 30
0.0
 11
115.5269707968078
 21
141.8504833738073
 31
0.0
  0
LINE
  5
368
  8
0
  6
CONTINUOUS
 62
     4
 10
105.184372835382
 20
90.35048337380728
 30
0.0
 11
115.5269707968078
 21
90.35048337380728
 31
0.0
  0
LINE
  5
369
  8
0
  6
CONTINUOUS
 62
     4
 10
137.6522607138
 20
90.35048337380728
 30
0.0
 11
147.8639458944641
 21
90.35048337380728
 31
0.0
  0
LINE
  5
36A
  8
0
  6
CONTINUOUS
 62
     4
 10
137.6522607138
 20
92.35048337380728
 30
0.0
 11
147.8639458944641
 21
92.35048337380728
 31
0.0
  0
LINE
  5
36B
  8
0
  6
CONTINUOUS
 62
     4
 10
137.6522607138
 20
94.35048337380728
 30
0.0
 11
147.8639458944641
 21
94.35048337380728
 31
0.0
  0
LINE
  5
36C
  8
0
  6
CONTINUOUS
 62
     4
 10
137.6522607138
 20
96.35048337380728
 30
0.0
 11
147.8639458944641
 21
96.35048337380728
 31
0.0
  0
LINE
  5
36D
  8
0
  6
CONTINUOUS
 62
     4
 10
137.6522607138
 20
98.35048337380728
 30
0.0
 11
147.8639458944641
 21
98.35048337380728
 31
0.0
  0
LINE
  5
36E
  8
0
  6
CONTINUOUS
 62
     4
 10
105.184372835382
 20
92.35048337380728
 30
0.0
 11
115.5269707968078
 21
92.35048337380728
 31
0.0
  0
LINE
  5
36F
  8
0
  6
CONTINUOUS
 62
     4
 10
105.184372835382
 20
94.35048337380728
 30
0.0
 11
115.5269707968078
 21
94.35048337380728
 31
0.0
  0
LINE
  5
370
  8
0
  6
CONTINUOUS
 62
     4
 10
105.184372835382
 20
96.35048337380728
 30
0.0
 11
115.5269707968078
 21
96.35048337380728
 31
0.0
  0
LINE
  5
371
  8
0
  6
CONTINUOUS
 62
     4
 10
105.184372835382
 20
98.35048337380728
 30
0.0
 11
115.5269707968078
 21
98.35048337380728
 31
0.0
  0
CIRCLE
  5
372
  8
0
  6
CONTINUOUS
 62
     4
 10
76.67640011809687
 20
59.60047574441275
 30
0.0
 40
2.5
  0
CIRCLE
  5
373
  8
0
  6
CONTINUOUS
 62
     4
 10
126.4728631307922
 20
-26.64952425558725
 30
0.0
 40
2.5
  0
CIRCLE
  5
374
  8
0
  6
CONTINUOUS
 62
     4
 10
176.2693261434875
 20
59.60047574441275
 30
0.0
 40
2.5
  0
ARC
  5
375
  8
0
  6
CONTINUOUS
 62
     4
 10
126.4728631307922
 20
30.85047574441275
 30
0.0
 40
69.0
 50
230.797860376856
 51
309.2021209538093
  0
ARC
  5
376
  8
0
  6
CONTINUOUS
 62
     4
 10
126.4728631307922
 20
30.85047574441275
 30
0.0
 40
75.0
 50
229.0665576864195
 51
247.4817790473386
  0
ARC
  5
377
  8
0
  6
CONTINUOUS
 62
     4
 10
126.4728631307922
 20
30.85047574441275
 30
0.0
 40
81.0
 50
227.605949053169
 51
245.1921698639561
  0
ARC
  5
378
  8
0
  6
CONTINUOUS
 62
     4
 10
126.4728631307922
 20
30.85047574441275
 30
0.0
 40
87.0
 50
226.3562566614884
 51
245.0717809496454
  0
ARC
  5
379
  8
0
  6
CONTINUOUS
 62
     4
 10
126.4728631307922
 20
30.85047574441275
 30
0.0
 40
93.0
 50
225.2743000554451
 51
232.7254080625253
  0
ARC
  5
37A
  8
0
  6
CONTINUOUS
 62
     4
 10
126.4728631307922
 20
30.85047574441275
 30
0.0
 40
99.0
 50
224.3281139497232
 51
230.1122596483485
  0
ARC
  5
37B
  8
0
  6
CONTINUOUS
 62
     4
 10
126.4728631307922
 20
30.85047574441275
 30
0.0
 40
99.0
 50
2.153613713705204
 51
75.67187072024638
  0
ARC
  5
37C
  8
0
  6
CONTINUOUS
 62
     4
 10
126.4728631307922
 20
30.85047574441275
 30
0.0
 40
93.0
 50
53.08005698375622
 51
74.72567095414617
  0
ARC
  5
37D
  8
0
  6
CONTINUOUS
 62
     4
 10
126.4728631307922
 20
30.85047574441275
 30
0.0
 40
87.0
 50
54.82762918479568
 51
73.64372800848112
  0
ARC
  5
37E
  8
0
  6
CONTINUOUS
 62
     4
 10
126.4728631307922
 20
30.85047574441275
 30
0.0
 40
81.0
 50
54.92007921030639
 51
72.39403561680057
  0
ARC
  5
37F
  8
0
  6
CONTINUOUS
 62
     4
 10
126.4728631307922
 20
30.85047574441275
 30
0.0
 40
75.0
 50
52.77842216963012
 51
70.93342015336086
  0
ARC
  5
380
  8
0
  6
CONTINUOUS
 62
     4
 10
126.4728631307922
 20
30.85047574441275
 30
0.0
 40
75.0
 50
22.1299973259489
 51
37.38288891247624
  0
ARC
  5
381
  8
0
  6
CONTINUOUS
 62
     4
 10
126.4728631307922
 20
30.85047574441275
 30
0.0
 40
81.0
 50
24.77152688367444
 51
35.07592080331815
  0
ARC
  5
382
  8
0
  6
CONTINUOUS
 62
     4
 10
126.4728631307922
 20
30.85047574441275
 30
0.0
 40
87.0
 50
24.95803544424539
 51
34.60229499570195
  0
ARC
  5
383
  8
0
  6
CONTINUOUS
 62
     4
 10
126.4728631307922
 20
30.85047574441275
 30
0.0
 40
93.0
 50
23.5507586355816
 51
36.13610276628753
  0
ARC
  5
384
  8
0
  6
CONTINUOUS
 62
     4
 10
126.4728631307922
 20
30.85047574441275
 30
0.0
 40
93.0
 50
239.2782095899655
 51
246.5825573223497
  0
ARC
  5
385
  8
0
  6
CONTINUOUS
 62
     4
 10
126.4728631307922
 20
30.85047574441275
 30
0.0
 40
99.0
 50
242.0170198244923
 51
250.6844410887792
  0
ARC
  5
386
  8
0
  6
CONTINUOUS
 62
     4
 10
126.4728631307922
 20
30.85047574441275
 30
0.0
 40
99.0
 50
259.6397206756364
 51
280.6844624141728
  0
ARC
  5
387
  8
0
  6
CONTINUOUS
 62
     4
 10
126.4728631307922
 20
30.85047574441275
 30
0.0
 40
93.0
 50
263.4174026829221
 51
276.5825718175541
  0
ARC
  5
388
  8
0
  6
CONTINUOUS
 62
     4
 10
126.4728631307922
 20
30.85047574441275
 30
0.0
 40
87.0
 50
264.9281722254372
 51
275.0718091052282
  0
ARC
  5
389
  8
0
  6
CONTINUOUS
 62
     4
 10
126.4728631307922
 20
30.85047574441275
 30
0.0
 40
81.0
 50
264.8077833111265
 51
275.1921911893496
  0
ARC
  5
38A
  8
0
  6
CONTINUOUS
 62
     4
 10
126.4728631307922
 20
30.85047574441275
 30
0.0
 40
75.0
 50
262.5181877881224
 51
277.481793542543
  0
ARC
  5
38B
  8
0
  6
CONTINUOUS
 62
     4
 10
126.4728631307922
 20
30.85047574441275
 30
0.0
 40
75.0
 50
292.5182022833267
 51
310.9334270593404
  0
ARC
  5
38C
  8
0
  6
CONTINUOUS
 62
     4
 10
126.4728631307922
 20
30.85047574441275
 30
0.0
 40
81.0
 50
294.8077978063309
 51
312.3940425227801
  0
ARC
  5
38D
  8
0
  6
CONTINUOUS
 62
     4
 10
126.4728631307922
 20
30.85047574441275
 30
0.0
 40
87.0
 50
294.9281867206416
 51
313.6437383295552
  0
ARC
  5
38E
  8
0
  6
CONTINUOUS
 62
     4
 10
126.4728631307922
 20
30.85047574441275
 30
0.0
 40
93.0
 50
293.4174171781264
 51
314.7256778601257
  0
ARC
  5
38F
  8
0
  6
CONTINUOUS
 62
     4
 10
126.4728631307922
 20
30.85047574441275
 30
0.0
 40
99.0
 50
289.4653945922762
 51
315.6718707960367
  0
ARC
  5
390
  8
0
  6
CONTINUOUS
 62
     4
 10
126.4728631307922
 20
30.85047574441275
 30
0.0
 40
69.0
 50
350.7979004284271
 51
429.2021174629244
  0
ARC
  5
391
  8
0
  6
CONTINUOUS
 62
     4
 10
126.4728631307922
 20
30.85047574441275
 30
0.0
 40
75.0
 50
349.0665943228959
 51
367.200557885304
  0
ARC
  5
392
  8
0
  6
CONTINUOUS
 62
     4
 10
126.4728631307922
 20
30.85047574441275
 30
0.0
 40
81.0
 50
347.6059805670035
 51
365.0630245713391
  0
ARC
  5
393
  8
0
  6
CONTINUOUS
 62
     4
 10
126.4728631307922
 20
30.85047574441275
 30
0.0
 40
87.0
 50
346.3562804913602
 51
364.9873183276919
  0
ARC
  5
394
  8
0
  6
CONTINUOUS
 62
     4
 10
126.4728631307922
 20
30.85047574441275
 30
0.0
 40
93.0
 50
345.2743409607897
 51
352.7254728735321
  0
ARC
  5
395
  8
0
  6
CONTINUOUS
 62
     4
 10
126.4728631307922
 20
30.85047574441275
 30
0.0
 40
99.0
 50
344.3281429022368
 51
350.1122868933148
  0
ARC
  5
396
  8
0
  6
CONTINUOUS
 62
     4
 10
126.4728631307922
 20
30.85047574441275
 30
0.0
 40
93.0
 50
359.4038561800428
 51
366.1778049320994
  0
ARC
  5
397
  8
0
  6
CONTINUOUS
 62
     4
 10
126.4728631307922
 20
30.85047574441275
 30
0.0
 40
75.0
 50
172.5182157921244
 51
190.9333756813409
  0
ARC
  5
398
  8
0
  6
CONTINUOUS
 62
     4
 10
126.4728631307922
 20
30.85047574441275
 30
0.0
 40
81.0
 50
174.8078181453177
 51
192.3939979749698
  0
ARC
  5
399
  8
0
  6
CONTINUOUS
 62
     4
 10
126.4728631307922
 20
30.85047574441275
 30
0.0
 40
87.0
 50
174.9282070596283
 51
193.6436903666503
  0
ARC
  5
39A
  8
0
  6
CONTINUOUS
 62
     4
 10
126.4728631307922
 20
30.85047574441275
 30
0.0
 40
93.0
 50
173.4174375171132
 51
194.7256333123154
  0
ARC
  5
39B
  8
0
  6
CONTINUOUS
 62
     4
 10
126.4728631307922
 20
30.85047574441275
 30
0.0
 40
99.0
 50
169.3155537506837
 51
195.6718330784156
  0
ARC
  5
39C
  8
0
  6
CONTINUOUS
 62
     4
 10
126.4728631307922
 20
30.85047574441275
 30
0.0
 40
99.0
 50
139.3155597460468
 51
160.6844895833487
  0
ARC
  5
39D
  8
0
  6
CONTINUOUS
 62
     4
 10
126.4728631307922
 20
30.85047574441275
 30
0.0
 40
93.0
 50
143.4174435124764
 51
156.5825921565409
  0
ARC
  5
39E
  8
0
  6
CONTINUOUS
 62
     4
 10
126.4728631307922
 20
30.85047574441275
 30
0.0
 40
87.0
 50
144.9282130549915
 51
155.0718226140258
  0
ARC
  5
39F
  8
0
  6
CONTINUOUS
 62
     4
 10
126.4728631307922
 20
30.85047574441275
 30
0.0
 40
81.0
 50
144.8078241406808
 51
155.1922115283364
  0
ARC
  5
3A0
  8
0
  6
CONTINUOUS
 62
     4
 10
126.4728631307922
 20
30.85047574441275
 30
0.0
 40
75.0
 50
142.5182217874875
 51
157.4818138815298
  0
ARC
  5
3A1
  8
0
  6
CONTINUOUS
 62
     4
 10
126.4728631307922
 20
30.85047574441275
 30
0.0
 40
93.0
 50
119.4039054096805
 51
126.582598151904
  0
ARC
  5
3A2
  8
0
  6
CONTINUOUS
 62
     4
 10
126.4728631307922
 20
30.85047574441275
 30
0.0
 40
99.0
 50
122.0170674842357
 51
130.6844819183335
  0
ARC
  5
3A3
  8
0
  6
CONTINUOUS
 62
     4
 10
126.4728631307922
 20
30.85047574441275
 30
0.0
 40
99.0
 50
104.3281479490883
 51
110.1123004779028
  0
ARC
  5
3A4
  8
0
  6
CONTINUOUS
 62
     4
 10
126.4728631307922
 20
30.85047574441275
 30
0.0
 40
93.0
 50
105.2743477151885
 51
112.725462552458
  0
ARC
  5
3A5
  8
0
  6
CONTINUOUS
 62
     4
 10
126.4728631307922
 20
30.85047574441275
 30
0.0
 40
87.0
 50
106.3562906608536
 51
125.0718286093889
  0
ARC
  5
3A6
  8
0
  6
CONTINUOUS
 62
     4
 10
126.4728631307922
 20
30.85047574441275
 30
0.0
 40
81.0
 50
107.6059830525341
 51
125.1922175236995
  0
ARC
  5
3A7
  8
0
  6
CONTINUOUS
 62
     4
 10
126.4728631307922
 20
30.85047574441275
 30
0.0
 40
75.0
 50
109.0665985159738
 51
127.4818198768929
  0
ARC
  5
3A8
  8
0
  6
CONTINUOUS
 62
     4
 10
126.4728631307922
 20
30.85047574441275
 30
0.0
 40
69.0
 50
110.7979012064103
 51
189.2020729909044
  0
LINE
  5
3A9
  8
0
  6
DIVIDE
 62
     9
 10
-212.8564520547547
 20
-8.203959985567721
 30
0.0
 11
-212.8564520547547
 21
-16.64952234823862
 31
0.0
  0
LINE
  5
3AA
  8
0
  6
DIVIDE
 62
     9
 10
-190.8564520547547
 20
-8.203959985567721
 30
0.0
 11
-190.8564520547547
 21
-16.64952234823862
 31
0.0
  0
LINE
  5
3AB
  8
0
  6
DIVIDE
 62
     9
 10
-187.8564520547547
 20
87.85047574441275
 30
0.0
 11
-187.8564520547547
 21
69.06180234353384
 31
0.0
  0
LINE
  5
3AC
  8
0
  6
DIVIDE
 62
     9
 10
-212.8564455888504
 20
-16.64951984457888
 30
0.0
 11
-212.2536463887568
 21
-17.25232824174576
 31
0.0
  0
LINE
  5
3AD
  8
0
  6
DIVIDE
 62
     9
 10
-190.8564428845197
 20
-16.64951503985024
 30
0.0
 11
-190.2645410907175
 21
-17.24142586446099
 31
0.0
  0
LINE
  5
3AE
  8
0
  6
DIVIDE
 62
     9
 10
-187.8564462113813
 20
87.85047491983347
 30
0.0
 11
-186.8564266893813
 21
88.85047918449324
 31
0.0
  0
LINE
  5
3AF
  8
LAYER0014
  6
CONTINUOUS
 62
     7
 10
-82.86046511627814
 20
81.85047574441275
 30
0.0
 11
-75.88427645661017
 21
81.85047574441275
 31
0.0
  0
LINE
  5
3B0
  8
LAYER0014
  6
CONTINUOUS
 62
     7
 10
-187.8564520547547
 20
167.7482037107213
 30
0.0
 11
-214.2650671670594
 21
167.7482037107213
 31
0.0
  0
LINE
  5
3B1
  8
LAYER0014
  6
CONTINUOUS
 62
     7
 10
-187.8564520547547
 20
90.39047574441275
 30
0.0
 11
-187.8564520547547
 21
170.0341991941198
 31
0.0
  0
LINE
  5
3B2
  8
LAYER0014
  6
CONTINUOUS
 62
     7
 10
-175.660468168036
 20
145.8904833738073
 30
0.0
 11
-175.660468168036
 21
170.0341991941198
 31
0.0
  0
LINE
  5
3B3
  8
LAYER0014
  6
CONTINUOUS
 62
     7
 10
-201.8564520547547
 20
-129.686911814213
 30
0.0
 11
-229.2309531521225
 21
-129.686911814213
 31
0.0
  0
LINE
  5
3B4
  8
LAYER0014
  6
CONTINUOUS
 62
     7
 10
-201.8564520547547
 20
-19.18951853354135
 30
0.0
 11
-201.8564520547547
 21
-131.0907880126007
 31
0.0
  0
LINE
  5
3B5
  8
LAYER0014
  6
CONTINUOUS
 62
     7
 10
-187.8564520547547
 20
167.7482037107213
 30
0.0
 11
-175.660468168036
 21
167.7482037107213
 31
0.0
  0
INSERT
  5
3B6
  8
LAYER0014
 62
     7
  2
_OPEN30
 10
-187.8564520547547
 20
167.7482037107213
 30
0.0
 41
1.999998407630662
 42
2.000005728319971
 50
180.0
  0
INSERT
  5
3B7
  8
LAYER0014
 62
     7
  2
_OPEN30
 10
-175.660468168036
 20
167.7482037107213
 30
0.0
 41
1.999998407630662
 42
2.000005728319971
 50
360.0
  0
LINE
  5
3B8
  8
LAYER0014
  6
CONTINUOUS
 62
     7
 10
-201.8564520547547
 20
-129.686911814213
 30
0.0
 11
-175.660468168036
 21
-129.686911814213
 31
0.0
  0
INSERT
  5
3B9
  8
LAYER0014
 62
     7
  2
_OPEN30
 10
-201.8564520547547
 20
-129.686911814213
 30
0.0
 41
1.999998407630662
 42
2.000005728319971
 50
180.0
  0
INSERT
  5
3BA
  8
LAYER0014
 62
     7
  2
_OPEN30
 10
-175.660468168036
 20
-129.686911814213
 30
0.0
 41
1.999998407630662
 42
2.000005728319971
 50
360.0
  0
TEXT
  5
3BB
  8
LAYER0014
 62
     7
 10
-213.0532701209191
 20
168.6735287117036
 30
0.0
 40
4.0
  1
MAX12.2
 50
-0.1000000000000078
 41
0.7999999999999995
  7
FDASTYLE1
 72
     5
 11
-190.6533042380615
 21
168.6344333563075
 31
0.0
  0
TEXT
  5
3BC
  8
LAYER0014
 62
     7
 10
-227.7271368692078
 20
-129.2704487042032
 30
0.0
 40
4.0
  1
MAX37.2
 41
0.7999999999999992
  7
FDASTYLE1
 72
     5
 11
-205.3271368692078
 21
-129.2704487042032
 31
0.0
  0
INSERT
  5
3BD
  8
LAYER0014
  6
CONTINUOUS
  2
DA_IMAGEDIMGROUP_1
 10
0.0
 20
0.0
 30
0.0
  0
INSERT
  5
3BE
  8
LAYER0014
  6
CONTINUOUS
  2
DA_IMAGEDIMGROUP_2
 10
0.0
 20
0.0
 30
0.0
  0
INSERT
  5
3BF
  8
LAYER0014
  6
CONTINUOUS
  2
DA_IMAGEDIMGROUP_3
 10
0.0
 20
0.0
 30
0.0
  0
INSERT
  5
3C0
  8
LAYER0014
  6
CONTINUOUS
  2
DA_IMAGEDIMGROUP_4
 10
0.0
 20
0.0
 30
0.0
  0
INSERT
  5
3C1
  8
LAYER0014
  6
CONTINUOUS
  2
DA_IMAGEDIMGROUP_5
 10
0.0
 20
0.0
 30
0.0
  0
INSERT
  5
3C2
  8
LAYER0014
  6
CONTINUOUS
  2
DA_IMAGEDIMGROUP_6
 10
0.0
 20
0.0
 30
0.0
  0
INSERT
  5
3C3
  8
LAYER0014
  6
CONTINUOUS
  2
DA_IMAGEDIMGROUP_7
 10
0.0
 20
0.0
 30
0.0
  0
INSERT
  5
3C4
  8
LAYER0014
  6
CONTINUOUS
  2
DA_IMAGEDIMGROUP_8
 10
0.0
 20
0.0
 30
0.0
  0
INSERT
  5
3C5
  8
LAYER0014
  6
CONTINUOUS
  2
DA_IMAGEDIMGROUP_9
 10
0.0
 20
0.0
 30
0.0
  0
INSERT
  5
3C6
  8
LAYER0014
  6
CONTINUOUS
  2
DA_IMAGEDIMGROUP_10
 10
0.0
 20
0.0
 30
0.0
  0
INSERT
  5
3C7
  8
LAYER0014
  6
CONTINUOUS
  2
DA_IMAGEDIMGROUP_11
 10
0.0
 20
0.0
 30
0.0
  0
INSERT
  5
3C8
  8
LAYER0014
  6
CONTINUOUS
  2
DA_IMAGEDIMGROUP_12
 10
0.0
 20
0.0
 30
0.0
  0
INSERT
  5
3C9
  8
LAYER0014
  6
CONTINUOUS
  2
DA_IMAGEDIMGROUP_13
 10
0.0
 20
0.0
 30
0.0
  0
INSERT
  5
3CA
  8
LAYER0014
  6
CONTINUOUS
  2
DA_IMAGEDIMGROUP_14
 10
0.0
 20
0.0
 30
0.0
  0
INSERT
  5
3CB
  8
LAYER0014
  6
CONTINUOUS
  2
DA_IMAGEDIMGROUP_15
 10
0.0
 20
0.0
 30
0.0
  0
INSERT
  5
3CC
  8
LAYER0014
  6
CONTINUOUS
  2
DA_IMAGEDIMGROUP_16
 10
0.0
 20
0.0
 30
0.0
  0
INSERT
  5
3CD
  8
LAYER0014
  6
CONTINUOUS
  2
DA_IMAGEDIMGROUP_17
 10
0.0
 20
0.0
 30
0.0
  0
INSERT
  5
3CE
  8
LAYER0014
  6
CONTINUOUS
  2
DA_IMAGEDIMGROUP_18
 10
0.0
 20
0.0
 30
0.0
  0
INSERT
  5
3CF
  8
LAYER0014
  6
CONTINUOUS
  2
DA_IMAGEDIMGROUP_19
 10
0.0
 20
0.0
 30
0.0
  0
INSERT
  5
3D0
  8
LAYER0014
  6
CONTINUOUS
  2
DA_IMAGEDIMGROUP_20
 10
0.0
 20
0.0
 30
0.0
  0
INSERT
  5
3D1
  8
LAYER0014
  6
CONTINUOUS
  2
DA_IMAGEDIMGROUP_21
 10
0.0
 20
0.0
 30
0.0
  0
INSERT
  5
3D2
  8
LAYER0014
  6
CONTINUOUS
  2
DA_IMAGEDIMGROUP_22
 10
0.0
 20
0.0
 30
0.0
  0
INSERT
  5
3D3
  8
LAYER0014
  6
CONTINUOUS
  2
DA_IMAGEDIMGROUP_23
 10
0.0
 20
0.0
 30
0.0
  0
INSERT
  5
3D4
  8
LAYER0014
  6
CONTINUOUS
  2
DC_GROUP_1
 10
0.0
 20
0.0
 30
0.0
  0
INSERT
  5
3D5
  8
LAYER0014
  6
CONTINUOUS
  2
DC_GROUP_2
 10
0.0
 20
0.0
 30
0.0
  0
INSERT
  5
3D6
  8
LAYER0014
  6
CONTINUOUS
  2
DA_IMAGEDIMGROUP_24
 10
0.0
 20
0.0
 30
0.0
  0
INSERT
  5
3D7
  8
LAYER0014
  6
CONTINUOUS
  2
DA_IMAGEDIMGROUP_25
 10
0.0
 20
0.0
 30
0.0
  0
INSERT
  5
3D8
  8
LAYER0014
  6
CONTINUOUS
  2
DA_IMAGEDIMGROUP_26
 10
0.0
 20
0.0
 30
0.0
  0
INSERT
  5
3D9
  8
LAYER0014
  6
CONTINUOUS
  2
DA_IMAGEDIMGROUP_27
 10
0.0
 20
0.0
 30
0.0
  0
INSERT
  5
3DA
  8
LAYER0014
  6
CONTINUOUS
  2
DC_GROUP_3
 10
0.0
 20
0.0
 30
0.0
  0
INSERT
  5
3DB
  8
LAYER0014
  6
CONTINUOUS
  2
DC_GROUP_4
 10
0.0
 20
0.0
 30
0.0
  0
INSERT
  5
3DC
  8
LAYER0014
  6
CONTINUOUS
  2
DA_IMAGEDIMGROUP_28
 10
0.0
 20
0.0
 30
0.0
  0
INSERT
  5
3DD
  8
LAYER0014
  6
CONTINUOUS
  2
DA_IMAGEDIMGROUP_29
 10
0.0
 20
0.0
 30
0.0
  0
LINE
  5
3DE
  8
0
  6
CONTINUOUS
 62
     2
 10
167.1315100117251
 20
75.00912140325671
 30
0.0
 11
164.1004203184173
 21
73.25912275926238
 31
0.0
  0
LINE
  5
3DF
  8
0
  6
CONTINUOUS
 62
     2
 10
170.1625894399459
 20
73.259123284495
 30
0.0
 11
167.131501415568
 21
75.0091247448088
 31
0.0
  0
LINE
  5
3E0
  8
0
  6
CONTINUOUS
 62
     2
 10
164.1004266073547
 20
73.25911374490103
 30
0.0
 11
164.1004266073547
 21
69.75911374490103
 31
0.0
  0
LINE
  5
3E1
  8
0
  6
CONTINUOUS
 62
     2
 10
164.1004148447824
 20
69.7591139876006
 30
0.0
 11
167.131503495009
 21
68.00911357036809
 31
0.0
  0
LINE
  5
3E2
  8
0
  6
CONTINUOUS
 62
     2
 10
167.1315155097194
 20
68.00912167404819
 30
0.0
 11
170.1626045771785
 21
69.7591213611238
 31
0.0
  0
LINE
  5
3E3
  8
0
  6
CONTINUOUS
 62
     2
 10
170.1625909139953
 20
69.75911374490103
 30
0.0
 11
170.1625909139953
 21
73.25911374490103
 31
0.0
  0
LINE
  5
3E4
  8
0
  6
CONTINUOUS
 62
     2
 10
182.0136079852691
 20
49.23257550052087
 30
0.0
 11
178.9825182919612
 21
47.48257685652654
 31
0.0
  0
LINE
  5
3E5
  8
0
  6
CONTINUOUS
 62
     2
 10
185.0446962133061
 20
47.48255709527463
 30
0.0
 11
182.0136081889282
 21
49.23255855558843
 31
0.0
  0
LINE
  5
3E6
  8
0
  6
CONTINUOUS
 62
     2
 10
178.9825219442687
 20
47.48257108132681
 30
0.0
 11
178.9825219442687
 21
43.98257108132681
 31
0.0
  0
LINE
  5
3E7
  8
0
  6
CONTINUOUS
 62
     2
 10
178.9825042335675
 20
43.98256807806435
 30
0.0
 11
182.0135928837941
 21
42.23256766083183
 31
0.0
  0
LINE
  5
3E8
  8
0
  6
CONTINUOUS
 62
     2
 10
182.0136100928557
 20
42.23257181236365
 30
0.0
 11
185.0446991603148
 21
43.98257149943926
 31
0.0
  0
LINE
  5
3E9
  8
0
  6
CONTINUOUS
 62
     2
 10
185.0446862509094
 20
43.98257108132681
 30
0.0
 11
185.0446862509094
 21
47.48257108132681
 31
0.0
  0
LINE
  5
3EA
  8
0
  6
CONTINUOUS
 62
     2
 10
141.3549568580086
 20
-21.19025331688248
 30
0.0
 11
138.3238671647007
 21
-22.94025196087681
 31
0.0
  0
LINE
  5
3EB
  8
0
  6
CONTINUOUS
 62
     2
 10
144.3860526209467
 20
-22.94026099178517
 30
0.0
 11
141.3549645965689
 21
-21.19025953147137
 31
0.0
  0
LINE
  5
3EC
  8
0
  6
CONTINUOUS
 62
     2
 10
138.3238763143859
 20
-22.9402575929896
 30
0.0
 11
138.3238763143859
 21
-26.4402575929896
 31
0.0
  0
LINE
  5
3ED
  8
0
  6
CONTINUOUS
 62
     2
 10
138.3238678464532
 20
-26.44026352750028
 30
0.0
 11
141.3549564966798
 21
-28.19026394473279
 31
0.0
  0
LINE
  5
3EE
  8
0
  6
CONTINUOUS
 62
     2
 10
141.3549552021173
 20
-28.19025192273396
 30
0.0
 11
144.3860442695764
 21
-26.44025223565835
 31
0.0
  0
LINE
  5
3EF
  8
0
  6
CONTINUOUS
 62
     2
 10
144.3860406210266
 20
-26.4402575929896
 30
0.0
 11
144.3860406210266
 21
-22.9402575929896
 31
0.0
  0
LINE
  5
3F0
  8
0
  6
CONTINUOUS
 62
     2
 10
111.5907732788219
 20
-21.19026235835075
 30
0.0
 11
108.5596835855141
 21
-22.94026100234508
 31
0.0
  0
LINE
  5
3F1
  8
0
  6
CONTINUOUS
 62
     2
 10
114.6218654062714
 20
-22.94026147457792
 30
0.0
 11
111.5907773818936
 21
-21.19026001426413
 31
0.0
  0
LINE
  5
3F2
  8
0
  6
CONTINUOUS
 62
     2
 10
108.5596780111633
 20
-22.9402575929896
 30
0.0
 11
108.5596780111633
 21
-26.4402575929896
 31
0.0
  0
LINE
  5
3F3
  8
0
  6
CONTINUOUS
 62
     2
 10
108.5596795725861
 20
-26.44026062785564
 30
0.0
 11
111.5907682228126
 21
-28.19026104508815
 31
0.0
  0
LINE
  5
3F4
  8
0
  6
CONTINUOUS
 62
     2
 10
111.5907641675406
 20
-28.19025809283515
 30
0.0
 11
114.6218532349997
 21
-26.44025840575954
 31
0.0
  0
LINE
  5
3F5
  8
0
  6
CONTINUOUS
 62
     2
 10
114.621857576593
 20
-26.4402575929896
 30
0.0
 11
114.621857576593
 21
-22.9402575929896
 31
0.0
  0
LINE
  5
3F6
  8
0
  6
CONTINUOUS
 62
     2
 10
70.93213725465758
 20
49.23257265824417
 30
0.0
 11
67.9010475613497
 21
47.48257401424984
 31
0.0
  0
LINE
  5
3F7
  8
0
  6
CONTINUOUS
 62
     2
 10
73.96322172179595
 20
47.48256371907861
 30
0.0
 11
70.93213369741812
 21
49.23256517939241
 31
0.0
  0
LINE
  5
3F8
  8
0
  6
CONTINUOUS
 62
     2
 10
67.90104001067499
 20
47.48257108132681
 30
0.0
 11
67.90104001067499
 21
43.98257108132681
 31
0.0
  0
LINE
  5
3F9
  8
0
  6
CONTINUOUS
 62
     2
 10
67.90103825533157
 20
43.98257485905266
 30
0.0
 11
70.93212690555816
 21
42.23257444182015
 31
0.0
  0
LINE
  5
3FA
  8
0
  6
CONTINUOUS
 62
     2
 10
70.93212528041306
 20
42.23257114298203
 30
0.0
 11
73.96321434787217
 21
43.98257083005764
 31
0.0
  0
LINE
  5
3FB
  8
0
  6
CONTINUOUS
 62
     2
 10
73.96321957610468
 20
43.98257108132681
 30
0.0
 11
73.96321957610468
 21
47.48257108132681
 31
0.0
  0
LINE
  5
3FC
  8
0
  6
CONTINUOUS
 62
     2
 10
85.81422977443378
 20
75.00911562680552
 30
0.0
 11
82.78314008112591
 21
73.25911698281119
 31
0.0
  0
LINE
  5
3FD
  8
0
  6
CONTINUOUS
 62
     2
 10
88.84531626280301
 20
73.25910903611909
 30
0.0
 11
85.81422823842519
 21
75.00911049643288
 31
0.0
  0
LINE
  5
3FE
  8
0
  6
CONTINUOUS
 62
     2
 10
82.78313534758905
 20
73.25911374490103
 30
0.0
 11
82.78313534758905
 21
69.75911374490103
 31
0.0
  0
LINE
  5
3FF
  8
0
  6
CONTINUOUS
 62
     2
 10
82.78314044403811
 20
69.75911596159519
 30
0.0
 11
85.8142290942647
 21
68.00911554436267
 31
0.0
  0
LINE
  5
400
  8
0
  6
CONTINUOUS
 62
     2
 10
85.81421953534652
 20
68.00911572043857
 30
0.0
 11
88.84530860280563
 21
69.75911540751419
 31
0.0
  0
LINE
  5
401
  8
0
  6
CONTINUOUS
 62
     2
 10
88.84531491301874
 20
69.75911374490103
 30
0.0
 11
88.84531491301874
 21
73.25911374490103
 31
0.0
  0
LINE
  5
402
  8
0
  6
CONTINUOUS
 62
     2
 10
121.4066157988187
 20
135.7754869341836
 30
0.0
 11
126.4728727440148
 21
138.7004847556284
 31
0.0
  0
LINE
  5
403
  8
0
  6
CONTINUOUS
 62
     2
 10
126.4729023993219
 20
138.7005148678566
 30
0.0
 11
131.5391454148358
 21
135.7755083083673
 31
0.0
  0
LINE
  5
404
  8
0
  6
CONTINUOUS
 62
     2
 10
131.5391167929016
 20
135.7754864255651
 30
0.0
 11
131.5391167929016
 21
129.9254803220495
 31
0.0
  0
LINE
  5
405
  8
0
  6
CONTINUOUS
 62
     2
 10
131.5391173469566
 20
129.9254707308185
 30
0.0
 11
126.4728604017606
 21
127.0004729093737
 31
0.0
  0
LINE
  5
406
  8
0
  6
CONTINUOUS
 62
     2
 10
126.4728567600219
 20
127.0004822884732
 30
0.0
 11
121.4066120010726
 21
129.9254857097787
 31
0.0
  0
LINE
  5
407
  8
0
  6
CONTINUOUS
 62
     2
 10
121.4066170980773
 20
129.9254803220495
 30
0.0
 11
121.4066170980773
 21
135.7754864255651
 31
0.0
  0
LINE
  5
408
  8
0
  6
CONTINUOUS
 62
     2
 10
121.4066199528797
 20
105.7754868855057
 30
0.0
 11
126.4728768980758
 21
108.7004847069504
 31
0.0
  0
LINE
  5
409
  8
0
  6
CONTINUOUS
 62
     2
 10
126.4728913953175
 20
108.7005179269213
 30
0.0
 11
131.5391377144534
 21
105.7755094600787
 31
0.0
  0
LINE
  5
40A
  8
0
  6
CONTINUOUS
 62
     2
 10
131.5391167929016
 20
105.7754787961706
 30
0.0
 11
131.5391167929016
 21
99.92548032204947
 31
0.0
  0
LINE
  5
40B
  8
0
  6
CONTINUOUS
 62
     2
 10
131.5391176863272
 20
99.92547728939395
 30
0.0
 11
126.4728607411311
 21
97.00047946794918
 31
0.0
  0
LINE
  5
40C
  8
0
  6
CONTINUOUS
 62
     2
 10
126.4728565341252
 20
97.00047243682208
 30
0.0
 11
121.4065985606836
 21
99.92548348753304
 31
0.0
  0
LINE
  5
40D
  8
0
  6
CONTINUOUS
 62
     2
 10
121.4066170980773
 20
99.925487951444
 30
0.0
 11
121.4066170980773
 21
105.7754864255651
 31
0.0
  0
LINE
  5
40E
  8
0
  6
CONTINUOUS
 62
     2
 10
183.7604682140278
 20
-2.224529771128559
 30
0.0
 11
188.8267251592238
 21
0.7004680503162177
 31
0.0
  0
LINE
  5
40F
  8
0
  6
CONTINUOUS
 62
     2
 10
188.8267112550489
 20
0.7004935072875611
 30
0.0
 11
193.8929608778067
 21
-2.224516866908502
 31
0.0
  0
LINE
  5
410
  8
0
  6
CONTINUOUS
 62
     2
 10
193.8929528524719
 20
-2.224530740572604
 30
0.0
 11
193.8929528524719
 21
-8.074529214693698
 31
0.0
  0
LINE
  5
411
  8
0
  6
CONTINUOUS
 62
     2
 10
193.8929715326013
 20
-8.074518523352467
 30
0.0
 11
188.8267145874052
 21
-10.99951634479724
 31
0.0
  0
LINE
  5
412
  8
0
  6
CONTINUOUS
 62
     2
 10
188.8266800089101
 20
-10.99952087055929
 30
0.0
 11
183.7604286427145
 21
-8.074513634551053
 31
0.0
  0
LINE
  5
413
  8
0
  6
CONTINUOUS
 62
     2
 10
183.7604455282531
 20
-8.074519677950534
 30
0.0
 11
183.7604455282531
 21
-2.22452120382944
 31
0.0
  0
LINE
  5
414
  8
0
  6
CONTINUOUS
 62
     2
 10
209.7412281740972
 20
-17.22451865018932
 30
0.0
 11
214.8074851192933
 21
-14.29952082874455
 31
0.0
  0
LINE
  5
415
  8
0
  6
CONTINUOUS
 62
     2
 10
214.8074875473299
 20
-14.29951202958885
 30
0.0
 11
219.8737371700877
 21
-17.22452240378492
 31
0.0
  0
LINE
  5
416
  8
0
  6
CONTINUOUS
 62
     2
 10
219.8737267782531
 20
-17.2245307405726
 30
0.0
 11
219.8737267782531
 21
-23.07453112204233
 31
0.0
  0
LINE
  5
417
  8
0
  6
CONTINUOUS
 62
     2
 10
219.8737182781638
 20
-23.07451503179412
 30
0.0
 11
214.8074613329678
 21
-25.9995128532389
 31
0.0
  0
LINE
  5
418
  8
0
  6
CONTINUOUS
 62
     2
 10
214.8074537977596
 20
-25.99953013589833
 30
0.0
 11
209.7412024315641
 21
-23.07452289989008
 31
0.0
  0
LINE
  5
419
  8
0
  6
CONTINUOUS
 62
     2
 10
209.7412194540344
 20
-23.07451967795053
 30
0.0
 11
209.7412194540344
 21
-17.22452120382944
 31
0.0
  0
LINE
  5
41A
  8
0
  6
CONTINUOUS
 62
     2
 10
59.0527886319623
 20
-2.224517069992302
 30
0.0
 11
64.11904557715837
 21
0.7004807514524742
 31
0.0
  0
LINE
  5
41B
  8
0
  6
CONTINUOUS
 62
     2
 10
64.1190482765474
 20
0.7004888901390274
 30
0.0
 11
69.18529459568327
 21
-2.224519576703628
 31
0.0
  0
LINE
  5
41C
  8
0
  6
CONTINUOUS
 62
     2
 10
69.18528073333124
 20
-2.224526925875338
 30
0.0
 11
69.18528073333124
 21
-8.074525399996432
 31
0.0
  0
LINE
  5
41D
  8
0
  6
CONTINUOUS
 62
     2
 10
69.18527880448374
 20
-8.074528828981087
 30
0.0
 11
64.11902846654112
 21
-10.99952283573542
 31
0.0
  0
LINE
  5
41E
  8
0
  6
CONTINUOUS
 62
     2
 10
64.11903236120457
 20
-10.99952423420358
 30
0.0
 11
59.05277769138598
 21
-8.074515090843974
 31
0.0
  0
LINE
  5
41F
  8
0
  6
CONTINUOUS
 62
     2
 10
59.05278866790155
 20
-8.074515863253268
 30
0.0
 11
59.05278866790155
 21
-2.224517389132174
 31
0.0
  0
LINE
  5
420
  8
0
  6
CONTINUOUS
 62
     2
 10
33.07202284661884
 20
-17.22451858426119
 30
0.0
 11
38.13827979181491
 21
-14.29952076281641
 31
0.0
  0
LINE
  5
421
  8
0
  6
CONTINUOUS
 62
     2
 10
38.13828029090888
 20
-14.29952247263758
 30
0.0
 11
43.2045233064228
 21
-17.22452903212682
 31
0.0
  0
LINE
  5
422
  8
0
  6
CONTINUOUS
 62
     2
 10
43.20451825164179
 20
-17.22452692587534
 30
0.0
 11
43.20451825164179
 21
-23.07452730734507
 31
0.0
  0
LINE
  5
423
  8
0
  6
CONTINUOUS
 62
     2
 10
43.20451441542178
 20
-23.07452513227803
 30
0.0
 11
38.1382624256658
 21
-25.99952009270497
 31
0.0
  0
LINE
  5
424
  8
0
  6
CONTINUOUS
 62
     2
 10
38.13826239958002
 20
-25.99951780031664
 30
0.0
 11
33.07201764063069
 21
-23.07451437901112
 31
0.0
  0
LINE
  5
425
  8
0
  6
CONTINUOUS
 62
     2
 10
33.07201855681757
 20
-23.07451586325327
 30
0.0
 11
33.07201855681757
 21
-17.22451738913217
 31
0.0
  0
LINE
  5
426
  8
0
  6
CONTINUOUS
 62
     2
 10
97.23396403826479
 20
-47.85435119648945
 30
0.0
 11
104.2920832531323
 21
-43.77935414841794
 31
0.0
  0
LINE
  5
427
  8
0
  6
CONTINUOUS
 62
     2
 10
104.2920854820282
 20
-43.77936211001996
 30
0.0
 11
111.3501812810615
 21
-47.85436974536695
 31
0.0
  0
LINE
  5
428
  8
0
  6
CONTINUOUS
 62
     2
 10
111.3501748373352
 20
-47.85437349875132
 30
0.0
 11
111.3501748373352
 21
-56.00436739523569
 31
0.0
  0
LINE
  5
429
  8
0
  6
CONTINUOUS
 62
     2
 10
111.3501475288477
 20
-56.00434817690142
 30
0.0
 11
104.2920415284871
 21
-60.07933783848124
 31
0.0
  0
LINE
  5
42A
  8
0
  6
CONTINUOUS
 62
     2
 10
104.2920620227425
 20
-60.0793620898887
 30
0.0
 11
97.23395718757564
 21
-56.0043554976139
 31
0.0
  0
LINE
  5
42B
  8
0
  6
CONTINUOUS
 62
     2
 10
97.23396389983515
 20
-56.00435976584116
 30
0.0
 11
97.23396389983515
 21
-47.85435823996225
 31
0.0
  0
CIRCLE
  5
42C
  8
0
  6
CONTINUOUS
 62
     2
 10
167.131508760675
 20
71.50911374490103
 30
0.0
 40
6.5
  0
CIRCLE
  5
42D
  8
0
  6
CONTINUOUS
 62
     2
 10
182.0136040975891
 20
45.73257108132681
 30
0.0
 40
6.5
  0
CIRCLE
  5
42E
  8
0
  6
CONTINUOUS
 62
     2
 10
141.3549584677062
 20
-24.6902575929896
 30
0.0
 40
6.5
  0
CIRCLE
  5
42F
  8
0
  6
CONTINUOUS
 62
     2
 10
111.5907677938781
 20
-24.6902575929896
 30
0.0
 40
6.5
  0
CIRCLE
  5
430
  8
0
  6
CONTINUOUS
 62
     2
 10
70.93212979338983
 20
45.73257108132681
 30
0.0
 40
6.5
  0
CIRCLE
  5
431
  8
0
  6
CONTINUOUS
 62
     2
 10
85.8142251303039
 20
71.50911374490103
 30
0.0
 40
6.5
  0
CIRCLE
  5
432
  8
0
  6
CONTINUOUS
 62
     2
 10
126.4728631307922
 20
132.8504833738073
 30
0.0
 40
9.0
  0
CIRCLE
  5
433
  8
0
  6
CONTINUOUS
 62
     2
 10
126.4728631307922
 20
102.8504833738073
 30
0.0
 40
9.0
  0
CIRCLE
  5
434
  8
0
  6
CONTINUOUS
 62
     2
 10
188.8266991903625
 20
-5.149524255587252
 30
0.0
 40
9.0
  0
CIRCLE
  5
435
  8
0
  6
CONTINUOUS
 62
     2
 10
214.8074731161437
 20
-20.14952425558725
 30
0.0
 40
9.0
  0
CIRCLE
  5
436
  8
0
  6
CONTINUOUS
 62
     2
 10
64.1190347006164
 20
-5.149520440889987
 30
0.0
 40
9.0
  0
CIRCLE
  5
437
  8
0
  6
CONTINUOUS
 62
     2
 10
38.13826840422968
 20
-20.14952044088999
 30
0.0
 40
9.0
  0
CIRCLE
  5
438
  8
0
  6
CONTINUOUS
 62
     2
 10
104.2920693685852
 20
-51.92936281759897
 30
0.0
 40
12.0
  0
LINE
  5
439
  8
0
  6
CONTINUOUS
 62
     5
 10
196.4868496616535
 20
117.2950123129395
 30
0.0
 11
195.8659891693858
 21
118.061711067804
 31
0.0
  0
LINE
  5
43A
  8
0
  6
CONTINUOUS
 62
     5
 10
196.4868397505541
 20
117.295022063192
 30
0.0
 11
195.7201290197752
 21
116.674152085865
 31
0.0
  0
LINE
  5
43B
  8
0
  6
CONTINUOUS
 62
     5
 10
187.3806972158596
 20
114.3157228137238
 30
0.0
 11
200.3710648249731
 21
121.8157151843292
 31
0.0
  0
LINE
  5
43C
  8
0
  6
CONTINUOUS
 62
     5
 10
189.8782715778694
 20
117.4897664811892
 30
0.0
 11
191.1773228747293
 21
118.2397741105837
 31
0.0
  0
LINE
  5
43D
  8
0
  6
CONTINUOUS
 62
     5
 10
191.9273305041239
 20
116.9407228137238
 30
0.0
 11
191.1773305041239
 21
118.239760896085
 31
0.0
  0
LINE
  5
43E
  8
0
  6
CONTINUOUS
 62
     5
 10
189.8782924217626
 20
117.489760896085
 30
0.0
 11
189.3157924217626
 21
118.4640394578559
 31
0.0
  0
LINE
  5
43F
  8
0
  6
CONTINUOUS
 62
     5
 10
188.0167411249027
 20
117.7140318284614
 30
0.0
 11
189.3157792072639
 21
118.4640318284614
 31
0.0
  0
LINE
  5
440
  8
0
  6
CONTINUOUS
 62
     5
 10
188.0167543394014
 20
117.7140394578559
 30
0.0
 11
187.45425457782
 21
118.6883176066737
 31
0.0
  0
LINE
  5
441
  8
0
  6
CONTINUOUS
 62
     5
 10
189.7626312990165
 20
119.2708107851301
 30
0.0
 11
192.3257419001207
 21
120.7506234072004
 31
0.0
  0
LINE
  5
442
  8
0
  6
CONTINUOUS
 62
     5
 10
192.3257362981954
 20
120.7506700423276
 30
0.0
 11
191.3012087851662
 21
121.0251913643681
 31
0.0
  0
LINE
  5
443
  8
0
  6
CONTINUOUS
 62
     5
 10
192.0512564138472
 20
119.7261068461901
 30
0.0
 11
192.3257776410565
 21
120.7506344224401
 31
0.0
  0
LINE
  5
444
  8
0
  6
CONTINUOUS
 62
     5
 10
185.5056898248836
 20
117.5633308211724
 30
0.0
 11
187.4542469484255
 21
118.6883308211724
 31
0.0
  0
LINE
  5
445
  8
0
  6
CONTINUOUS
 62
     5
 10
191.1306935203716
 20
107.8205388026905
 30
0.0
 11
185.5056898248836
 21
117.5633308211724
 31
0.0
  0
LINE
  5
446
  8
0
  6
CONTINUOUS
 62
     5
 10
191.1306803058729
 20
107.8205311732959
 30
0.0
 11
204.1210611294851
 21
115.3205311732959
 31
0.0
  0
LINE
  5
447
  8
0
  6
CONTINUOUS
 62
     5
 10
199.0253915852387
 20
110.6465174494972
 30
0.0
 11
198.0008788110677
 21
110.9210348222726
 31
0.0
  0
LINE
  5
448
  8
0
  6
CONTINUOUS
 62
     5
 10
197.7264188107893
 20
109.8964826549198
 30
0.0
 11
198.0009400379987
 21
110.9210102311697
 31
0.0
  0
LINE
  5
449
  8
0
  6
CONTINUOUS
 62
     5
 10
200.2509482955252
 20
107.0238825089148
 30
0.0
 11
200.5254695227346
 21
108.0484100851648
 31
0.0
  0
LINE
  5
44A
  8
0
  6
CONTINUOUS
 62
     5
 10
200.2508758048476
 20
107.0239256933103
 30
0.0
 11
199.2263482918184
 21
107.2984470153508
 31
0.0
  0
LINE
  5
44B
  8
0
  6
CONTINUOUS
 62
     5
 10
198.0008971466764
 20
110.9210273909044
 30
0.0
 11
200.2508970274672
 21
107.0239133502973
 31
0.0
  0
LINE
  5
44C
  8
0
  6
CONTINUOUS
 62
     5
 10
204.1210875584825
 20
115.320546432085
 30
0.0
 11
200.3710912539705
 21
121.8157304431183
 31
0.0
  0
ARC
  5
44D
  8
0
  6
CONTINUOUS
 62
     5
 10
195.8074425985656
 20
114.7594341794713
 30
0.0
 40
2.625001907348633
 50
75.00010795499728
 51
369.999953377945
  0
TEXT
  5
44E
  8
0
 62
     5
 10
235.8272584542575
 20
63.04311005454524
 30
0.0
 40
3.0
  1
ΣS MAX  95KN
 50
120.0
 41
0.7932926165614657
  7
FDASTYLE1
 72
     5
 11
217.8272597655597
 21
94.22002231954302
 31
0.0
  0
TEXT
  5
44F
  8
0
 62
     5
 10
200.8998463615718
 20
117.6782827319053
 30
0.0
 40
3.0
  1
N min
 50
120.0
 41
0.7983872414958763
  7
FDASTYLE1
 72
     5
 11
193.4748467668834
 21
130.5387592760839
 31
0.0
  0
TEXT
  5
450
  8
0
 62
     5
 10
191.2887158927656
 20
130.0560179410421
 30
0.0
 40
1.5
  1
-1
 50
120.0
 41
0.7826088684192838
  7
FDASTYLE1
 72
     5
 11
189.9387158093191
 21
132.3942866757937
 31
0.0
  0
TEXT
  5
451
  8
0
 62
     5
 10
198.3012678489032
 20
107.1409893063439
 30
0.0
 40
3.0
  1
F
 50
120.0
 41
0.8791213035583497
  7
FDASTYLE1
 72
     5
 11
196.9825858935657
 21
109.4250134520128
 31
0.0
  0
TEXT
  5
452
  8
0
 62
     5
 10
191.6121266350093
 20
122.1317666169791
 30
0.0
 40
3.0
  1
ΣS
 50
120.0
 41
0.9090909271529234
  7
FDASTYLE1
 72
     5
 11
188.6121265754047
 21
127.327919142924
 31
0.0
  0
TEXT
  5
453
  8
0
 62
     5
 10
231.4971345528903
 20
60.54311005454524
 30
0.0
 40
3.0
  1
F  MAX  29KN
 50
120.0
 41
0.7884616853741919
  7
FDASTYLE1
 72
     5
 11
213.4971358641925
 21
91.72002231954302
 31
0.0
  0
TEXT
  5
454
  8
0
 62
     5
 10
240.1524950131717
 20
65.55157517998782
 30
0.0
 40
3.0
  1
N MAX 3500 AT ΣS MAX
 50
120.0
 41
0.7873402530755311
  7
FDASTYLE1
 72
     5
 11
210.1295955941024
 21
117.552762364346
 31
0.0
  0
TEXT
  5
455
  8
0
 62
     5
 10
133.701421909555
 20
-82.94951967795053
 30
0.0
 40
3.0
  1
0001
 41
0.7647060767727455
  7
FDASTYLE1
 72
     5
 11
144.844279580339
 21
-82.94951967795053
 31
0.0
  0
TEXT
  5
456
  8
0
 62
     5
 10
133.344278745874
 20
-76.44951967795053
 30
0.0
 40
4.0
  1
HWB3-250
 41
0.7714288207463406
  7
FDASTYLE1
 72
     5
 11
164.2014247705779
 21
-76.44951967795053
 31
0.0
  0
TEXT
  5
457
  8
0
 62
     5
 10
97.98715096019129
 20
-76.94951967795053
 30
0.0
 40
5.0
  1
NIKKO
 41
0.7674421159044379
  7
FDASTYLE1
 72
     5
 11
121.558582358583
 21
-76.94951967795053
 31
0.0
  0
LINE
  5
458
  8
LAYER0014
  6
CONTINUOUS
 62
     4
 10
-175.660468168036
 20
-84.18952425558726
 30
0.0
 11
-175.660468168036
 21
-120.6942782839076
 31
0.0
  0
LINE
  5
459
  8
0
  6
DASHED2
 62
     7
 10
-126.3604681680359
 20
-69.1495242555873
 30
0.0
 11
-130.6604681680359
 21
-66.66691809807189
 31
0.0
  0
LINE
  5
45A
  8
0
  6
DASHED2
 62
     7
 10
-135.660468168036
 20
-74.14952425558725
 30
0.0
 11
-135.660468168036
 21
-94.14952425558725
 31
0.0
  0
LINE
  5
45B
  8
0
  6
DASHED2
 62
     7
 10
-135.660468168036
 20
-74.14952425558725
 30
0.0
 11
-125.660468168036
 21
-74.14952425558725
 31
0.0
  0
LINE
  5
45C
  8
0
  6
DASHED2
 62
     7
 10
-134.960468168036
 20
-69.14952425558725
 30
0.0
 11
-126.3604681680359
 21
-69.14952425558725
 31
0.0
  0
LINE
  5
45D
  8
0
  6
DASHED2
 62
     7
 10
-134.960468168036
 20
-69.14952425558725
 30
0.0
 11
-134.960468168036
 21
-94.14952425558725
 31
0.0
  0
LINE
  5
45E
  8
0
  6
DASHED2
 62
     7
 10
-134.960468168036
 20
-69.1495242555873
 30
0.0
 11
-130.660468168036
 21
-66.66691809807189
 31
0.0
  0
LINE
  5
45F
  8
0
  6
DASHED2
 62
     7
 10
-126.3604681680359
 20
-69.14952425558725
 30
0.0
 11
-126.3604681680359
 21
-94.14952425558725
 31
0.0
  0
LINE
  5
460
  8
0
  6
DASHED2
 62
     7
 10
-125.660468168036
 20
-74.14952425558725
 30
0.0
 11
-125.660468168036
 21
-94.14952425558725
 31
0.0
  0
LINE
  5
461
  8
0
  6
DASHED2
 62
     7
 10
214.860919020401
 20
87.65484402063358
 30
0.0
 11
232.1814270960898
 21
97.65484402063358
 31
0.0
  0
LINE
  5
462
  8
0
  6
DASHED2
 62
     7
 10
210.8807920014788
 20
84.54862623798449
 30
0.0
 11
232.5314270960898
 21
97.04862623798448
 31
0.0
  0
LINE
  5
463
  8
0
  6
DASHED2
 62
     7
 10
219.860919020401
 20
78.99458998278918
 30
0.0
 11
237.1814270960898
 21
88.99458998278918
 31
0.0
  0
LINE
  5
464
  8
0
  6
DASHED2
 62
     7
 10
215.1807920014788
 20
77.10080776543829
 30
0.0
 11
236.8314270960898
 21
89.60080776543829
 31
0.0
  0
LINE
  5
465
  8
0
  6
DASHED2
 62
     7
 10
215.1807920014788
 20
77.10080776543829
 30
0.0
 11
210.8807920014788
 21
84.54862623798449
 31
0.0
  0
LINE
  5
466
  8
0
  6
DASHED2
 62
     7
 10
215.180792001479
 20
77.10080776543822
 30
0.0
 11
210.8807920014789
 21
79.58341392295363
 31
0.0
  0
LINE
  5
467
  8
0
  6
DASHED2
 62
     7
 10
210.8807920014788
 20
84.54862623798458
 30
0.0
 11
210.8807920014788
 21
79.58341392295377
 31
0.0
  0
LINE
  5
468
  8
0
  6
DASHED2
 62
     7
 10
219.860919020401
 20
78.99458998278918
 30
0.0
 11
214.860919020401
 21
87.65484402063358
 31
0.0
  0
LINE
  5
469
  8
0
  6
CENTER
 62
     7
 10
-130.660468168036
 20
-63.82617907757185
 30
0.0
 11
-130.660468168036
 21
-98.9803910044575
 31
0.0
  0
INSERT
  5
46A
  8
0
  6
CONTINUOUS
  2
DC_GROUP_5
 10
0.0
 20
0.0
 30
0.0
  0
INSERT
  5
46B
  8
0
  6
CONTINUOUS
  2
DA_IMAGEDIMGROUP_30
 10
0.0
 20
0.0
 30
0.0
  0
INSERT
  5
46C
  8
0
  6
CONTINUOUS
  2
DA_IMAGEDIMGROUP_31
 10
0.0
 20
0.0
 30
0.0
  0
INSERT
  5
46D
  8
0
  6
CONTINUOUS
  2
DA_IMAGEDIMGROUP_32
 10
0.0
 20
0.0
 30
0.0
  0
INSERT
  5
46E
  8
0
  6
CONTINUOUS
  2
DA_IMAGEDIMGROUP_33
 10
0.0
 20
0.0
 30
0.0
  0
VIEWPORT
  5
48
 67
     1
  8
0
 10
0.0
 20
0.0
 30
0.0
 40
1662.0
 41
1140.0
 68
     1
 69
     1
1001
ACAD
1000
MVIEW
1002
{
1070
    16
1010
0.0
1020
0.0
1030
0.0
1020
0.0
1030
0.0
1010
0.0
1020
0.0
1030
1.0
1020
0.0
1030
1.0
1040
0.0
1040
1140.0
1040
0.0
1040
0.0
1040
50.0
1040
0.0
1040
0.0
1070
     0
1070
   100
1070
     0
1070
     1
1070
     0
1070
     0
1070
     0
1070
     0
1040
0.0
1040
0.0
1040
0.0
1040
0.5
1040
0.5
1040
0.0
1040
0.0
1070
     0
1002
{
1002
}
1002
}
  0
ENDSEC
  0
EOF
