  0
SECTION
  2
HEADER
  9
$ACADVER
  1
AC1009
  9
$DWGCODEPAGE
  3
ansi_932
  9
$INSBASE
 10
0.0
 20
0.0
 30
0.0
  9
$EXTMIN
 10
-1246.5
 20
-854.9999999999998
 30
0.0
  9
$EXTMAX
 10
1246.5
 20
854.9999999999998
 30
0.0
  9
$LIMMIN
 10
-445.5
 20
-315.0
  9
$LIMMAX
 10
445.5
 20
315.0
  9
$ORTHOMODE
 70
     0
  9
$REGENMODE
 70
     1
  9
$FILLMODE
 70
     1
  9
$QTEXTMODE
 70
     0
  9
$MIRRTEXT
 70
     1
  9
$DRAGMODE
 70
     2
  9
$LTSCALE
 40
1.5
  9
$OSMODE
 70
    37
  9
$ATTMODE
 70
     1
  9
$TEXTSIZE
 40
0.2
  9
$TRACEWID
 40
0.05
  9
$TEXTSTYLE
  7
STANDARD
  9
$CLAYER
  8
0
  9
$CELTYPE
  6
BYLAYER
  9
$CECOLOR
 62
   256
  9
$DIMSCALE
 40
1.0
  9
$DIMASZ
 40
3.75
  9
$DIMEXO
 40
0.0625
  9
$DIMDLI
 40
0.38
  9
$DIMRND
 40
0.0
  9
$DIMDLE
 40
0.0
  9
$DIMEXE
 40
0.18
  9
$DIMTP
 40
0.0
  9
$DIMTM
 40
0.0
  9
$DIMTXT
 40
0.18
  9
$DIMCEN
 40
0.09
  9
$DIMTSZ
 40
0.0
  9
$DIMTOL
 70
     0
  9
$DIMLIM
 70
     0
  9
$DIMTIH
 70
     1
  9
$DIMTOH
 70
     1
  9
$DIMSE1
 70
     0
  9
$DIMSE2
 70
     0
  9
$DIMTAD
 70
     3
  9
$DIMZIN
 70
     0
  9
$DIMBLK
  1

  9
$DIMASO
 70
     1
  9
$DIMSHO
 70
     1
  9
$DIMPOST
  1

  9
$DIMAPOST
  1

  9
$DIMALT
 70
     0
  9
$DIMALTD
 70
     2
  9
$DIMALTF
 40
25.4
  9
$DIMLFAC
 40
1.0
  9
$DIMTOFL
 70
     0
  9
$DIMTVP
 40
0.0
  9
$DIMTIX
 70
     0
  9
$DIMSOXD
 70
     0
  9
$DIMSAH
 70
     0
  9
$DIMBLK1
  1

  9
$DIMBLK2
  1

  9
$DIMSTYLE
  2
STANDARD
  9
$DIMCLRD
 70
     0
  9
$DIMCLRE
 70
     0
  9
$DIMCLRT
 70
     0
  9
$DIMTFAC
 40
1.0
  9
$DIMGAP
 40
0.09
  9
$LUNITS
 70
     2
  9
$LUPREC
 70
     4
  9
$SKETCHINC
 40
0.1
  9
$FILLETRAD
 40
0.5
  9
$AUNITS
 70
     0
  9
$AUPREC
 70
     0
  9
$MENU
  1
.
  9
$ELEVATION
 40
0.0
  9
$PELEVATION
 40
0.0
  9
$THICKNESS
 40
0.0
  9
$LIMCHECK
 70
     0
  9
$CHAMFERA
 40
0.5
  9
$CHAMFERB
 40
0.5
  9
$SKPOLY
 70
     0
  9
$TDCREATE
 40
2456272.479525428
  9
$TDUPDATE
 40
2456272.47952544
  9
$TDINDWG
 40
0.0000000116
  9
$TDUSRTIMER
 40
0.0000000116
  9
$USRTIMER
 70
     1
  9
$ANGBASE
 50
0.0
  9
$ANGDIR
 70
     0
  9
$PDMODE
 70
     0
  9
$PDSIZE
 40
1.0
  9
$PLINEWID
 40
0.0
  9
$COORDS
 70
     1
  9
$SPLFRAME
 70
     0
  9
$SPLINETYPE
 70
     6
  9
$SPLINESEGS
 70
     8
  9
$ATTDIA
 70
     0
  9
$ATTREQ
 70
     1
  9
$HANDLING
 70
     1
  9
$HANDSEED
  5
54D
  9
$SURFTAB1
 70
     6
  9
$SURFTAB2
 70
     6
  9
$SURFTYPE
 70
     6
  9
$SURFU
 70
     6
  9
$SURFV
 70
     6
  9
$UCSNAME
  2

  9
$UCSORG
 10
0.0
 20
0.0
 30
0.0
  9
$UCSXDIR
 10
1.0
 20
0.0
 30
0.0
  9
$UCSYDIR
 10
0.0
 20
1.0
 30
0.0
  9
$PUCSNAME
  2

  9
$PUCSORG
 10
0.0
 20
0.0
 30
0.0
  9
$PUCSXDIR
 10
1.0
 20
0.0
 30
0.0
  9
$PUCSYDIR
 10
0.0
 20
1.0
 30
0.0
  9
$USERI1
 70
     0
  9
$USERI2
 70
     0
  9
$USERI3
 70
     0
  9
$USERI4
 70
     0
  9
$USERI5
 70
     0
  9
$USERR1
 40
0.0
  9
$USERR2
 40
0.0
  9
$USERR3
 40
0.0
  9
$USERR4
 40
0.0
  9
$USERR5
 40
0.0
  9
$WORLDVIEW
 70
     1
  9
$SHADEDGE
 70
     3
  9
$SHADEDIF
 70
    70
  9
$TILEMODE
 70
     1
  9
$MAXACTVP
 70
    64
  9
$PLIMCHECK
 70
     0
  9
$PEXTMIN
 10
1.000000000000000E+20
 20
1.000000000000000E+20
 30
1.000000000000000E+20
  9
$PEXTMAX
 10
-1.000000000000000E+20
 20
-1.000000000000000E+20
 30
-1.000000000000000E+20
  9
$PLIMMIN
 10
0.0
 20
0.0
  9
$PLIMMAX
 10
12.0
 20
9.0
  9
$UNITMODE
 70
     0
  9
$VISRETAIN
 70
     0
  9
$PLINEGEN
 70
     1
  9
$PSLTSCALE
 70
     0
  0
ENDSEC
  0
SECTION
  2
TABLES
  0
TABLE
  2
VPORT
 70
     1
  0
VPORT
  2
*ACTIVE
 70
     0
 10
0.0
 20
0.0
 11
1.0
 21
1.0
 12
0.0
 22
0.0
 13
0.0
 23
0.0
 14
0.5
 24
0.5
 15
0.5
 25
0.5
 16
0.0
 26
0.0
 36
1.0
 17
-0.0000000000000036
 27
0.0
 37
0.0
 40
581.3999999999999
 41
1.457894736842106
 42
50.0
 43
0.0
 44
0.0
 50
0.0
 51
0.0
 71
     0
 72
  1000
 73
     1
 74
     1
 75
     0
 76
     0
 77
     0
 78
     0
  0
ENDTAB
  0
TABLE
  2
LTYPE
 70
    28
  0
LTYPE
  2
CONTINUOUS
 70
     0
  3
Solid line
 72
    65
 73
     0
 40
0.0
  0
LTYPE
  2
HIDDENX2
 70
     0
  3
CADPAC LINETYPE
 72
    65
 73
     2
 40
9.893992932862147
 49
7.420494699646611
 49
-2.473498233215537
  0
LTYPE
  2
HIDDEN
 70
     0
  3
CADPAC LINETYPE
 72
    65
 73
     2
 40
7.420494699646611
 49
4.946996466431074
 49
-2.473498233215537
  0
LTYPE
  2
HIDDEN2
 70
     0
  3
CADPAC LINETYPE
 72
    65
 73
     2
 40
6.183745583038842
 49
3.710247349823305
 49
-2.473498233215537
  0
LTYPE
  2
DASHED
 70
     0
  3
CADPAC LINETYPE
 72
    65
 73
     2
 40
6.925795053003563
 49
4.946996466431074
 49
-1.97879858657249
  0
LTYPE
  2
DASHED2
 70
     0
  3
CADPAC LINETYPE
 72
    65
 73
     2
 40
4.452296819787989
 49
2.968197879858659
 49
-1.48409893992933
  0
LTYPE
  2
DASHEDX2
 70
     0
  3
CADPAC LINETYPE
 72
    65
 73
     2
 40
11.87279151943471
 49
9.893992932862222
 49
-1.97879858657249
  0
LTYPE
  2
DOTX2
 70
     0
  3
CADPAC LINETYPE
 72
    65
 73
     2
 40
4.32862190812718
 49
0.0
 49
-4.32862190812718
  0
LTYPE
  2
DOT
 70
     0
  3
CADPAC LINETYPE
 72
    65
 73
     2
 40
3.462897526501744
 49
0.0
 49
-3.462897526501744
  0
LTYPE
  2
DOT2
 70
     0
  3
CADPAC LINETYPE
 72
    65
 73
     2
 40
2.597173144876308
 49
0.0
 49
-2.597173144876308
  0
LTYPE
  2
CENTERX2
 70
     0
  3
CADPAC LINETYPE
 72
    65
 73
     4
 40
14.84098939929322
 49
6.183745583038842
 49
-3.091872791519421
 49
2.473498233215537
 49
-3.091872791519421
  0
LTYPE
  2
CENTER
 70
     0
  3
CADPAC LINETYPE
 72
    65
 73
     4
 40
11.37809187279147
 49
4.946996466431074
 49
-2.473498233215537
 49
1.484098939929322
 49
-2.473498233215537
  0
LTYPE
  2
CENTER2
 70
     0
  3
CADPAC LINETYPE
 72
    65
 73
     4
 40
7.915194346289718
 49
3.710247349823305
 49
-1.855123674911653
 49
0.4946996466431074
 49
-1.855123674911653
  0
LTYPE
  2
DASHDOTX2
 70
     0
  3
CADPAC LINETYPE
 72
    65
 73
     4
 40
23.74558303886935
 49
11.87279151943464
 49
-3.957597173144904
 49
3.957597173144904
 49
-3.957597173144904
  0
LTYPE
  2
DASHDOT
 70
     0
  3
CADPAC LINETYPE
 72
    65
 73
     4
 40
11.87279151943479
 49
5.936395759717319
 49
-1.97879858657249
 49
1.97879858657249
 49
-1.97879858657249
  0
LTYPE
  2
DASHDOT2
 70
     0
  3
CADPAC LINETYPE
 72
    65
 73
     4
 40
7.618374558303973
 49
4.452296819787989
 49
-1.484098939929368
 49
0.197879858657249
 49
-1.484098939929368
  0
LTYPE
  2
DIVIDEX2
 70
     0
  3
CADPAC LINETYPE
 72
    65
 73
     6
 40
31.66077738515916
 49
11.87279151943464
 49
-3.957597173144904
 49
3.957597173144904
 49
-3.957597173144904
 49
3.957597173144904
 49
-3.957597173144904
  0
LTYPE
  2
DIVIDE
 70
     0
  3
CADPAC LINETYPE
 72
    65
 73
     6
 40
15.83038869257977
 49
5.936395759717319
 49
-1.97879858657249
 49
1.97879858657249
 49
-1.97879858657249
 49
1.97879858657249
 49
-1.97879858657249
  0
LTYPE
  2
DIVIDE2
 70
     0
  3
CADPAC LINETYPE
 72
    65
 73
     6
 40
11.87279151943483
 49
4.452296819787989
 49
-1.484098939929368
 49
1.484098939929368
 49
-1.484098939929368
 49
1.484098939929368
 49
-1.484098939929368
  0
LTYPE
  2
BORDERX2
 70
     0
  3
CADPAC LINETYPE
 72
    65
 73
     6
 40
21.64310954063595
 49
6.183745583038842
 49
-3.091872791519421
 49
6.183745583038842
 49
-3.091872791519421
 49
0.0
 49
-3.091872791519421
  0
LTYPE
  2
BORDER
 70
     0
  3
CADPAC LINETYPE
 72
    65
 73
     6
 40
17.31448763250876
 49
4.946996466431074
 49
-2.473498233215537
 49
4.946996466431074
 49
-2.473498233215537
 49
0.0
 49
-2.473498233215537
  0
LTYPE
  2
BORDER2
 70
     0
  3
CADPAC LINETYPE
 72
    65
 73
     6
 40
12.86219081272092
 49
3.957597173144904
 49
-2.473498233215575
 49
1.48409893992933
 49
-2.473498233215575
 49
0.0
 49
-2.473498233215537
  0
LTYPE
  2
PHANTOMX2
 70
     0
  3
CADPAC LINETYPE
 72
    65
 73
     6
 40
18.55123674911653
 49
6.183745583038842
 49
-2.473498233215537
 49
2.473498233215537
 49
-2.473498233215537
 49
2.473498233215537
 49
-2.473498233215537
  0
LTYPE
  2
PHANTOM
 70
     0
  3
CADPAC LINETYPE
 72
    65
 73
     6
 40
15.33568904593633
 49
4.946996466431074
 49
-2.473498233215537
 49
1.484098939929322
 49
-2.473498233215537
 49
1.484098939929322
 49
-2.473498233215537
  0
LTYPE
  2
PHANTOM2
 70
     0
  3
CADPAC LINETYPE
 72
    65
 73
     6
 40
13.10954063604235
 49
3.710247349823305
 49
-2.473498233215537
 49
0.9893992932862148
 49
-2.473498233215537
 49
0.9893992932862148
 49
-2.473498233215537
  0
LTYPE
  2
ACAD_ISO06W100
 70
     0
  3
CADPAC LINETYPE
 72
    65
 73
     8
 40
26.21908127208492
 49
11.87279151943464
 49
-2.473498233215575
 49
1.48409893992933
 49
-2.473498233215575
 49
1.48409893992933
 49
-2.473498233215575
 49
1.48409893992933
 49
-2.473498233215575
  0
LTYPE
  2
ACAD_ISO13W100
 70
     0
  3
CADPAC LINETYPE
 72
    65
 73
     8
 40
19.7879858657243
 49
4.946996466431074
 49
-2.473498233215537
 49
4.946996466431074
 49
-2.473498233215537
 49
0.0
 49
-2.473498233215537
 49
0.0
 49
-2.473498233215537
  0
LTYPE
  2
ACAD_ISO14W100
 70
     0
  3
CADPAC LINETYPE
 72
    65
 73
     8
 40
14.84098939929322
 49
4.946996466431074
 49
-2.473498233215537
 49
0.0
 49
-2.473498233215537
 49
0.0
 49
-2.473498233215537
 49
0.0
 49
-2.473498233215537
  0
ENDTAB
  0
TABLE
  2
LAYER
 70
     3
  0
LAYER
  2
0
 70
     0
 62
     7
  6
CONTINUOUS
  0
LAYER
  2
LAYER0014
 70
     0
 62
     7
  6
CONTINUOUS
  0
LAYER
  2
ZUWAKU
 70
     0
 62
     7
  6
CONTINUOUS
  0
ENDTAB
  0
TABLE
  2
STYLE
 70
     5
  0
STYLE
  2
STANDARD
 70
     0
 40
0.0
 41
1.0
 50
0.0
 71
     0
 42
0.2
  3
txt
  4

  0
STYLE
  2
FDASTYLE1
 70
     0
 40
0.0
 41
0.7999999999999986
 50
0.0
 71
     0
 42
0.2
  3
txt.shx
  4
bigfont
  0
STYLE
  2
FDASTYLE0
 70
     4
 40
0.0
 41
0.8
 50
0.0
 71
     0
 42
0.2
  3
txt.shx
  4
bigfont
  0
STYLE
  2
FDASTYLE2
 70
     0
 40
0.0
 41
0.8123476848090984
 50
0.0
 71
     0
 42
0.2
  3
MSMINCHO.TTC
  4

  0
STYLE
  2
FDASTYLE3
 70
     0
 40
0.0
 41
0.77
 50
0.0
 71
     0
 42
0.2
  3
MSGOTHIC.TTC
  4

  0
ENDTAB
  0
TABLE
  2
VIEW
 70
     0
  0
ENDTAB
  0
TABLE
  2
UCS
 70
     0
  0
ENDTAB
  0
TABLE
  2
APPID
 70
     2
  0
APPID
  2
ACAD
 70
     0
  0
APPID
  2
DAFUSIONOUT
 70
     0
  0
ENDTAB
  0
TABLE
  2
DIMSTYLE
 70
     1
  0
DIMSTYLE
  2
STANDARD
 70
     0
  3

  4

  5

  6

  7

 40
1.0
 41
0.18
 42
0.0625
 43
0.38
 44
0.18
 45
0.0
 46
0.0
 47
0.0
 48
0.0
140
0.18
141
0.09
142
0.0
143
25.4
144
1.0
145
0.0
146
1.0
147
0.09
 71
     0
 72
     0
 73
     1
 74
     1
 75
     0
 76
     0
 77
     0
 78
     0
170
     0
171
     2
172
     0
173
     0
174
     0
175
     0
176
     0
177
     0
178
     0
  0
ENDTAB
  0
ENDSEC
  0
SECTION
  2
BLOCKS
  0
BLOCK
  8
0
  2
$MODEL_SPACE
 70
     0
 10
0.0
 20
0.0
 30
0.0
  3
$MODEL_SPACE
  1

  0
ENDBLK
  5
21
  8
0
  0
BLOCK
 67
     1
  8
0
  2
$PAPER_SPACE
 70
     0
 10
0.0
 20
0.0
 30
0.0
  3
$PAPER_SPACE
  1

  0
ENDBLK
  5
1D
 67
     1
  8
0
  0
BLOCK
  8
0
  2
DA_IMAGEDIMGROUP_1
 70
     0
 10
0.0
 20
0.0
 30
0.0
  3
DA_IMAGEDIMGROUP_1
  1

  0
LINE
  5
BB
  8
LAYER0014
  6
CONTINUOUS
 62
     7
 10
179.3173247551177
 20
89.05844311148657
 30
0.0
 11
202.6634069746261
 21
75.57958015691055
 31
0.0
  0
ARC
  5
BC
  8
LAYER0014
  6
CONTINUOUS
 62
     7
 10
226.9704454046437
 20
61.54591490878882
 30
0.0
 40
31.30073956969326
 50
150.0000246646978
 51
179.9999640278213
  0
INSERT
  5
C3
  8
LAYER0014
 62
     7
  2
_OPEN30
 10
199.863203042877
 20
77.19627302450618
 30
0.0
 41
2.250002090868945
 42
2.249997751034238
 50
67.41352064651991
  0
INSERT
  5
C4
  8
LAYER0014
 62
     7
  2
_OPEN30
 10
195.6697058349566
 20
61.54593456042471
 30
0.0
 41
2.250002090868945
 42
2.249997751034238
 50
262.586468045999
  0
TEXT
  5
C6
  8
LAYER0014
 62
     7
 10
192.8104213763704
 20
65.02687372161627
 30
0.0
 40
6.0
  1
30ﾟ
 50
72.0
 41
0.7999999999999986
  7
FDASTYLE1
 72
     5
 11
197.2602660953696
 21
78.72208755626646
 31
0.0
  0
ENDBLK
  5
4E
  8
0
  0
BLOCK
  8
0
  2
DA_IMAGEDIMGROUP_2
 70
     0
 10
0.0
 20
0.0
 30
0.0
  3
DA_IMAGEDIMGROUP_2
  1

  0
LINE
  5
C7
  8
0
  6
CONTINUOUS
 62
     9
 10
-230.7083546296341
 20
6.545918618271571
 30
0.0
 11
-283.6936318826764
 21
6.545918618271571
 31
0.0
  0
LINE
  5
C8
  8
0
  6
CONTINUOUS
 62
     9
 10
-230.7083546296341
 20
116.5459219905286
 30
0.0
 11
-283.6936318826764
 21
116.5459219905286
 31
0.0
  0
LINE
  5
C9
  8
0
  6
CONTINUOUS
 62
     9
 10
-281.6936318826764
 20
6.545918618271571
 30
0.0
 11
-281.6936318826764
 21
116.5459219905286
 31
0.0
  0
INSERT
  5
CA
  8
0
 62
     9
  2
_OPEN30
 10
-281.6936318826764
 20
6.545918618271571
 30
0.0
 41
2.250002090868945
 42
2.249997751034238
 50
270.0
  0
INSERT
  5
CB
  8
0
 62
     9
  2
_OPEN30
 10
-281.6936318826764
 20
116.5459219905286
 30
0.0
 41
2.250002090868945
 42
2.249997751034238
 50
90.0
  0
TEXT
  5
CC
  8
0
 62
     7
 10
-283.6936318826764
 20
39.94592030440008
 30
0.0
 40
6.0
  1
M110×P1.5
 50
90.0
 41
0.7826086956521747
  7
FDASTYLE1
 72
     5
 11
-283.6936318826764
 21
83.14592030440012
 31
0.0
  0
ENDBLK
  5
51
  8
0
  0
BLOCK
  8
0
  2
DA_IMAGEDIMGROUP_3
 70
     0
 10
0.0
 20
0.0
 30
0.0
  3
DA_IMAGEDIMGROUP_3
  1

  0
LINE
  5
CD
  8
0
  6
CONTINUOUS
 62
     9
 10
-243.9083723002608
 20
0.0459224963671687
 30
0.0
 11
-303.6936318826764
 21
0.0459224963671687
 31
0.0
  0
LINE
  5
CE
  8
0
  6
CONTINUOUS
 62
     9
 10
-243.9083723002608
 20
123.0459177752073
 30
0.0
 11
-303.6936318826764
 21
123.0459177752073
 31
0.0
  0
LINE
  5
CF
  8
0
  6
CONTINUOUS
 62
     9
 10
-301.6936318826764
 20
0.0459224963671687
 30
0.0
 11
-301.6936318826764
 21
123.0459177752073
 31
0.0
  0
INSERT
  5
D0
  8
0
 62
     9
  2
_OPEN30
 10
-301.6936318826764
 20
0.0459224963671687
 30
0.0
 41
2.250002090868945
 42
2.249997751034238
 50
270.0
  0
INSERT
  5
D1
  8
0
 62
     9
  2
_OPEN30
 10
-301.6936318826764
 20
123.0459177752073
 30
0.0
 41
2.250002090868945
 42
2.249997751034238
 50
90.0
  0
TEXT
  5
D2
  8
0
 62
     7
 10
-303.6936318826764
 20
47.14592013578725
 30
0.0
 40
6.0
  1
φ123H7
 50
90.0
 41
0.7741935483870955
  7
FDASTYLE1
 72
     5
 11
-303.6936318826764
 21
75.94592013578721
 31
0.0
  0
ENDBLK
  5
54
  8
0
  0
BLOCK
  8
0
  2
DC_GROUP_1
 70
     0
 10
0.0
 20
0.0
 30
0.0
  3
DC_GROUP_1
  1

  0
LINE
  5
D3
  8
0
  6
CONTINUOUS
 62
     9
 10
-272.1998068010809
 20
147.2459142006148
 30
0.0
 11
-323.6936318826764
 21
147.2459142006148
 31
0.0
  0
LINE
  5
D4
  8
0
  6
CONTINUOUS
 62
     9
 10
-277.4009170829914
 20
61.54591490878882
 30
0.0
 11
-280.2306454716039
 21
61.54591490878882
 31
0.0
  0
LINE
  5
D5
  8
0
  6
CONTINUOUS
 62
     9
 10
-313.5542248349051
 20
61.54591490878882
 30
0.0
 11
-323.6936318826764
 21
61.54591490878882
 31
0.0
  0
LINE
  5
D6
  8
0
  6
CONTINUOUS
 62
     9
 10
-321.6936318826764
 20
61.54591490878882
 30
0.0
 11
-321.6936318826764
 21
147.2459142006148
 31
0.0
  0
INSERT
  5
D7
  8
0
 62
     9
  2
_OPEN30
 10
-321.6936318826764
 20
61.54591490878882
 30
0.0
 41
2.250002090868945
 42
2.249997751034238
 50
270.0
  0
INSERT
  5
D8
  8
0
 62
     9
  2
_OPEN30
 10
-321.6936318826764
 20
147.2459142006148
 30
0.0
 41
2.250002090868945
 42
2.249997751034238
 50
90.0
  0
TEXT
  5
D9
  8
0
 62
     7
 10
-323.6936318826764
 20
92.3959145547018
 30
0.0
 40
6.0
  1
R85.7
 50
90.0
 41
0.8
  7
FDASTYLE1
 72
     5
 11
-323.6936318826764
 21
116.3959145547018
 31
0.0
  0
ENDBLK
  5
57
  8
0
  0
BLOCK
  8
0
  2
DA_IMAGEDIMGROUP_4
 70
     0
 10
0.0
 20
0.0
 30
0.0
  3
DA_IMAGEDIMGROUP_4
  1

  0
LINE
  5
DA
  8
0
  6
CONTINUOUS
 62
     9
 10
-263.9083709513583
 20
159.3459141449726
 30
0.0
 11
-303.8503335463319
 21
159.3459141449726
 31
0.0
  0
LINE
  5
DB
  8
0
  6
CONTINUOUS
 62
     9
 10
-263.9083709513583
 20
135.1459142562571
 30
0.0
 11
-303.8503335463319
 21
135.1459142562571
 31
0.0
  0
LINE
  5
DC
  8
0
  6
CONTINUOUS
 62
     9
 10
-301.8503335463319
 20
204.1520948208998
 30
0.0
 11
-301.8503335463319
 21
159.3459141449726
 31
0.0
  0
LINE
  5
DD
  8
0
  6
CONTINUOUS
 62
     9
 10
-301.8503335463319
 20
135.1459142562571
 30
0.0
 11
-301.8503335463319
 21
159.3459141449726
 31
0.0
  0
INSERT
  5
DE
  8
0
 62
     9
  2
_OPEN30
 10
-301.8503335463319
 20
135.1459142562571
 30
0.0
 41
2.250002090868945
 42
2.249997751034238
 50
270.0
  0
INSERT
  5
DF
  8
0
 62
     9
  2
_OPEN30
 10
-301.8503335463319
 20
159.3459141449726
 30
0.0
 41
2.250002090868945
 42
2.249997751034238
 50
90.0
  0
TEXT
  5
E0
  8
0
 62
     7
 10
-303.8503335463319
 20
170.9167373484804
 30
0.0
 40
6.0
  1
24.2
 50
90.0
 41
0.7999999999999995
  7
FDASTYLE1
 72
     5
 11
-303.8503335463319
 21
190.1167373484803
 31
0.0
  0
TEXT
  5
E1
  8
0
 62
     7
 10
-307.1503335463319
 20
191.6167373484803
 30
0.0
 40
3.3
  1
+0.1
 50
90.0
 41
0.8000000000000002
  7
FDASTYLE1
 72
     5
 11
-307.1503335463319
 21
202.1767373484803
 31
0.0
  0
TEXT
  5
E2
  8
0
 62
     7
 10
-303.5503335463319
 20
191.6167373484803
 30
0.0
 40
3.3
  1
 0
 50
90.0
 41
0.7999999999999958
  7
FDASTYLE1
 72
     5
 11
-303.5503335463319
 21
196.8967373484803
 31
0.0
  0
ENDBLK
  5
5A
  8
0
  0
BLOCK
  8
0
  2
DA_IMAGEDIMGROUP_5
 70
     0
 10
0.0
 20
0.0
 30
0.0
  3
DA_IMAGEDIMGROUP_5
  1

  0
LINE
  5
E3
  8
0
  6
CONTINUOUS
 62
     9
 10
-263.9083709513583
 20
-8.313578127076582
 30
0.0
 11
-343.8444811643097
 21
-8.313578127076582
 31
0.0
  0
LINE
  5
E4
  8
0
  6
CONTINUOUS
 62
     9
 10
-263.9083709513583
 20
131.4054307740915
 30
0.0
 11
-343.8444811643097
 21
131.4054307740915
 31
0.0
  0
LINE
  5
E5
  8
0
  6
CONTINUOUS
 62
     9
 10
-341.8444811643097
 20
-8.313578127076582
 30
0.0
 11
-341.8444811643097
 21
131.4054307740915
 31
0.0
  0
INSERT
  5
E6
  8
0
 62
     9
  2
_OPEN30
 10
-341.8444811643097
 20
-8.313578127076582
 30
0.0
 41
2.250002090868945
 42
2.249997751034238
 50
270.0
  0
INSERT
  5
E7
  8
0
 62
     9
  2
_OPEN30
 10
-341.8444811643097
 20
131.4054307740915
 30
0.0
 41
2.250002090868945
 42
2.249997751034238
 50
90.0
  0
TEXT
  5
E8
  8
0
 62
     7
 10
-343.8444811643097
 20
20.74592632350745
 30
0.0
 40
6.0
  1
φ139.719（A2-8テーパ）
 50
90.0
 41
0.7472527472527475
  7
FDASTYLE1
 72
     5
 11
-343.8444811643097
 21
102.3459263235075
 31
0.0
  0
ENDBLK
  5
5D
  8
0
  0
BLOCK
  8
0
  2
DA_IMAGEDIMGROUP_6
 70
     0
 10
0.0
 20
0.0
 30
0.0
  3
DA_IMAGEDIMGROUP_6
  1

  0
LINE
  5
E9
  8
0
  6
CONTINUOUS
 62
     9
 10
-263.1083744585054
 20
-43.45407800947138
 30
0.0
 11
-365.8444811643097
 21
-43.45407800947138
 31
0.0
  0
LINE
  5
EA
  8
0
  6
CONTINUOUS
 62
     9
 10
-263.1083744585054
 20
166.5459186182716
 30
0.0
 11
-365.8444811643097
 21
166.5459186182716
 31
0.0
  0
LINE
  5
EB
  8
0
  6
CONTINUOUS
 62
     9
 10
-363.8444811643097
 20
-43.45407800947138
 30
0.0
 11
-363.8444811643097
 21
166.5459186182716
 31
0.0
  0
INSERT
  5
EC
  8
0
 62
     9
  2
_OPEN30
 10
-363.8444811643097
 20
-43.45407800947138
 30
0.0
 41
2.250002090868945
 42
2.249997751034238
 50
270.0
  0
INSERT
  5
ED
  8
0
 62
     9
  2
_OPEN30
 10
-363.8444811643097
 20
166.5459186182716
 30
0.0
 41
2.250002090868945
 42
2.249997751034238
 50
90.0
  0
TEXT
  5
EE
  8
0
 62
     7
 10
-365.8444811643097
 20
51.94592030440008
 30
0.0
 40
6.0
  1
φ210
 50
90.0
 41
0.7619047619047638
  7
FDASTYLE1
 72
     5
 11
-365.8444811643097
 21
71.14592030440012
 31
0.0
  0
ENDBLK
  5
60
  8
0
  0
BLOCK
  8
0
  2
DA_IMAGEDIMGROUP_7
 70
     0
 10
0.0
 20
0.0
 30
0.0
  3
DA_IMAGEDIMGROUP_7
  1

  0
LINE
  5
EF
  8
0
  6
CONTINUOUS
 62
     9
 10
-261.1083724351512
 20
-95.95407716640712
 30
0.0
 11
-385.8444811643097
 21
-95.95407716640712
 31
0.0
  0
LINE
  5
F0
  8
0
  6
CONTINUOUS
 62
     9
 10
-261.1083724351512
 20
219.0459177752073
 30
0.0
 11
-385.8444811643097
 21
219.0459177752073
 31
0.0
  0
LINE
  5
F1
  8
0
  6
CONTINUOUS
 62
     9
 10
-383.8444811643097
 20
-95.95407716640712
 30
0.0
 11
-383.8444811643097
 21
219.0459177752073
 31
0.0
  0
INSERT
  5
F2
  8
0
 62
     9
  2
_OPEN30
 10
-383.8444811643097
 20
-95.95407716640712
 30
0.0
 41
2.250002090868945
 42
2.249997751034238
 50
270.0
  0
INSERT
  5
F3
  8
0
 62
     9
  2
_OPEN30
 10
-383.8444811643097
 20
219.0459177752073
 30
0.0
 41
2.250002090868945
 42
2.249997751034238
 50
90.0
  0
TEXT
  5
F4
  8
0
 62
     7
 10
-385.8444811643097
 20
51.94592030440005
 30
0.0
 40
6.0
  1
φ315
 50
90.0
 41
0.7619047619047638
  7
FDASTYLE1
 72
     5
 11
-385.8444811643097
 21
71.14592030440009
 31
0.0
  0
ENDBLK
  5
63
  8
0
  0
BLOCK
  8
0
  2
DA_IMAGEDIMGROUP_8
 70
     0
 10
0.0
 20
0.0
 30
0.0
  3
DA_IMAGEDIMGROUP_8
  1

  0
LINE
  5
F5
  8
0
  6
CONTINUOUS
 62
     9
 10
-343.1800132314246
 20
-18.47250961299035
 30
0.0
 11
-264.9212865561368
 21
-8.690191695390027
 31
0.0
  0
ARC
  5
F6
  8
0
  6
CONTINUOUS
 62
     9
 10
-261.9083709513583
 20
-8.313578127076582
 30
0.0
 40
79.9041130092656
 50
180.0
 51
187.1249998288782
  0
ARC
  5
F7
  8
0
  6
CONTINUOUS
 62
     9
 10
-261.9083709513583
 20
-8.313578127076582
 30
0.0
 40
79.9041130092656
 50
187.1249998288782
 51
197.8048558479368
  0
INSERT
  5
F8
  8
0
 62
     9
  2
_OPEN30
 10
-341.1954574064718
 20
-18.22444071601651
 30
0.0
 41
2.250002090868945
 42
2.249997751034238
 50
97.93168926068969
  0
ENDBLK
  5
66
  8
0
  0
BLOCK
  8
0
  2
DA_IMAGEDIMGROUP_9
 70
     0
 10
0.0
 20
0.0
 30
0.0
  3
DA_IMAGEDIMGROUP_9
  1

  0
LINE
  5
F9
  8
0
  6
CONTINUOUS
 62
     9
 10
-287.9083736491638
 20
-32.15407898742593
 30
0.0
 11
-303.7930271132155
 21
-32.15407898742593
 31
0.0
  0
LINE
  5
FA
  8
0
  6
CONTINUOUS
 62
     9
 10
-287.9083736491638
 20
-16.15407898742593
 30
0.0
 11
-303.7930271132155
 21
-16.15407898742593
 31
0.0
  0
LINE
  5
FB
  8
0
  6
CONTINUOUS
 62
     9
 10
-301.7930271132155
 20
-32.15407898742593
 30
0.0
 11
-301.7930271132155
 21
-16.15407898742593
 31
0.0
  0
INSERT
  5
FC
  8
0
 62
     9
  2
_OPEN30
 10
-301.7930271132155
 20
-32.15407898742593
 30
0.0
 41
2.250002090868945
 42
2.249997751034238
 50
270.0
  0
INSERT
  5
FD
  8
0
 62
     9
  2
_OPEN30
 10
-301.7930271132155
 20
-16.15407898742593
 30
0.0
 41
2.250002090868945
 42
2.249997751034238
 50
90.0
  0
TEXT
  5
FE
  8
0
 62
     7
 10
-303.7930271132155
 20
-31.35407898742592
 30
0.0
 40
6.0
  1
M16
 50
90.0
 41
0.7999999999999987
  7
FDASTYLE1
 72
     5
 11
-303.7930271132155
 21
-16.95407898742595
 31
0.0
  0
ENDBLK
  5
69
  8
0
  0
BLOCK
  8
0
  2
DA_IMAGEDIMGROUP_10
 70
     0
 10
0.0
 20
0.0
 30
0.0
  3
DA_IMAGEDIMGROUP_10
  1

  0
LINE
  5
FF
  8
0
  6
CONTINUOUS
 62
     9
 10
-285.9083736491638
 20
-34.15407898742593
 30
0.0
 11
-285.9083736491638
 21
-65.75199133252779
 31
0.0
  0
LINE
  5
100
  8
0
  6
CONTINUOUS
 62
     9
 10
-261.9083709513583
 20
-45.45407800947139
 30
0.0
 11
-261.9083709513583
 21
-65.75199133252779
 31
0.0
  0
LINE
  5
101
  8
0
  6
CONTINUOUS
 62
     9
 10
-261.9083709513583
 20
-63.75199133252779
 30
0.0
 11
-261.1083744585054
 21
-63.75199133252779
 31
0.0
  0
LINE
  5
102
  8
0
  6
CONTINUOUS
 62
     9
 10
-285.9083736491638
 20
-63.75199133252779
 30
0.0
 11
-261.9083709513583
 21
-63.75199133252779
 31
0.0
  0
INSERT
  5
103
  8
0
 62
     9
  2
_OPEN30
 10
-285.9083736491638
 20
-63.75199133252779
 30
0.0
 41
2.250002090868945
 42
2.249997751034238
 50
180.0
  0
INSERT
  5
104
  8
0
 62
     9
  2
_OPEN30
 10
-261.9083709513583
 20
-63.75199133252779
 30
0.0
 41
2.250002090868945
 42
2.249997751034238
 50
360.0
  0
LINE
  5
105
  8
0
  6
CONTINUOUS
 62
     9
 10
-234.0446744585055
 20
-63.75199133252779
 30
0.0
 11
-261.1083744585054
 21
-63.75199133252779
 31
0.0
  0
INSERT
  5
106
  8
0
 62
     9
  2
_OPEN30
 10
-261.1083744585054
 20
-63.75199133252779
 30
0.0
 41
2.250002090868945
 42
2.249997751034238
 50
180.0
  0
TEXT
  5
107
  8
0
 62
     7
 10
-278.708372300261
 20
-61.75199133252779
 30
0.0
 40
6.0
  1
24
 41
0.8000000000000019
  7
FDASTYLE1
 72
     5
 11
-269.108372300261
 21
-61.75199133252779
 31
0.0
  0
TEXT
  5
108
  8
0
 62
     7
 10
-255.2446744585055
 20
-61.75199133252779
 30
0.0
 40
6.0
  1
0.5
 41
0.8000000000000003
  7
FDASTYLE1
 72
     5
 11
-240.8446744585055
 21
-61.75199133252779
 31
0.0
  0
ENDBLK
  5
6C
  8
0
  0
BLOCK
  8
0
  2
DA_IMAGEDIMGROUP_11
 70
     0
 10
0.0
 20
0.0
 30
0.0
  3
DA_IMAGEDIMGROUP_11
  1

  0
LINE
  5
109
  8
0
  6
CONTINUOUS
 62
     9
 10
-261.9083709513583
 20
-114.6323731138546
 30
0.0
 11
-228.9083591484585
 21
-114.6323731138546
 31
0.0
  0
LINE
  5
10A
  8
0
  6
CONTINUOUS
 62
     9
 10
-261.9083709513583
 20
-45.45407800947139
 30
0.0
 11
-261.9083709513583
 21
-116.1323731138546
 31
0.0
  0
LINE
  5
10B
  8
0
  6
CONTINUOUS
 62
     9
 10
-228.9083591484585
 20
-0.9540771664071173
 30
0.0
 11
-228.9083591484585
 21
-116.1323731138546
 31
0.0
  0
LINE
  5
10C
  8
0
  6
CONTINUOUS
 62
     9
 10
-293.7296773008824
 20
-114.6323731138546
 30
0.0
 11
-261.9083709513583
 21
-114.6323731138546
 31
0.0
  0
INSERT
  5
10D
  8
0
 62
     9
  2
_OPEN30
 10
-261.9083709513583
 20
-114.6323731138546
 30
0.0
 41
2.250002090868945
 42
2.249997751034238
 50
360.0
  0
LINE
  5
10E
  8
0
  6
CONTINUOUS
 62
     9
 10
-218.9083591484585
 20
-114.6323731138546
 30
0.0
 11
-228.9083591484585
 21
-114.6323731138546
 31
0.0
  0
INSERT
  5
10F
  8
0
 62
     9
  2
_OPEN30
 10
-228.9083591484585
 20
-114.6323731138546
 30
0.0
 41
2.250002090868945
 42
2.249997751034238
 50
180.0
  0
TEXT
  5
110
  8
0
 62
     7
 10
-291.7720709513582
 20
-112.6323731138546
 30
0.0
 40
6.0
  1
MAX48
 41
0.8
  7
FDASTYLE1
 72
     5
 11
-267.7720709513582
 21
-112.6323731138546
 31
0.0
  0
ENDBLK
  5
6F
  8
0
  0
BLOCK
  8
0
  2
DA_IMAGEDIMGROUP_12
 70
     0
 10
0.0
 20
0.0
 30
0.0
  3
DA_IMAGEDIMGROUP_12
  1

  0
LINE
  5
111
  8
0
  6
CONTINUOUS
 62
     9
 10
-196.9083699396809
 20
-114.6323731138546
 30
0.0
 11
-108.9083672418755
 21
-114.6323731138546
 31
0.0
  0
INSERT
  5
112
  8
0
 62
     9
  2
_OPEN30
 10
-196.9083699396809
 20
-114.6323731138546
 30
0.0
 41
2.250002090868945
 42
2.249997751034238
 50
180.0
  0
INSERT
  5
113
  8
0
 62
     9
  2
_OPEN30
 10
-108.9083672418755
 20
-114.6323731138546
 30
0.0
 41
2.250002090868945
 42
2.249997751034238
 50
360.0
  0
LINE
  5
114
  8
0
  6
CONTINUOUS
 62
     9
 10
-196.9083699396809
 20
-95.95407514305289
 30
0.0
 11
-196.9083699396809
 21
-116.1323731138546
 31
0.0
  0
LINE
  5
115
  8
0
  6
CONTINUOUS
 62
     9
 10
-108.9083672418755
 20
-70.45408171895414
 30
0.0
 11
-108.9083672418755
 21
-116.1323731138546
 31
0.0
  0
TEXT
  5
116
  8
0
 62
     7
 10
-158.451370888599
 20
-112.6323731138546
 30
0.0
 40
6.0
  1
88
 41
0.8000000000000019
  7
FDASTYLE1
 72
     5
 11
-148.851370888599
 21
-112.6323731138546
 31
0.0
  0
ENDBLK
  5
72
  8
0
  0
BLOCK
  8
0
  2
DA_IMAGEDIMGROUP_13
 70
     0
 10
0.0
 20
0.0
 30
0.0
  3
DA_IMAGEDIMGROUP_13
  1

  0
LINE
  5
117
  8
0
  6
CONTINUOUS
 62
     9
 10
-261.9083709513583
 20
-129.3593964334705
 30
0.0
 11
-108.9083672418755
 21
-129.3593964334705
 31
0.0
  0
INSERT
  5
118
  8
0
 62
     9
  2
_OPEN30
 10
-261.9083709513583
 20
-129.3593964334705
 30
0.0
 41
2.250002090868945
 42
2.249997751034238
 50
180.0
  0
INSERT
  5
119
  8
0
 62
     9
  2
_OPEN30
 10
-108.9083672418755
 20
-129.3593964334705
 30
0.0
 41
2.250002090868945
 42
2.249997751034238
 50
360.0
  0
LINE
  5
11A
  8
0
  6
CONTINUOUS
 62
     9
 10
-261.9083709513583
 20
-45.45407800947139
 30
0.0
 11
-261.9083709513583
 21
-130.8593964334705
 31
0.0
  0
LINE
  5
11B
  8
0
  6
CONTINUOUS
 62
     9
 10
-108.9083672418755
 20
-70.45408171895414
 30
0.0
 11
-108.9083672418755
 21
-130.8593964334705
 31
0.0
  0
TEXT
  5
11C
  8
0
 62
     7
 10
-192.6083690966166
 20
-127.3593964334705
 30
0.0
 40
6.0
  1
153
 41
0.7999999999999987
  7
FDASTYLE1
 72
     5
 11
-178.2083690966167
 21
-127.3593964334705
 31
0.0
  0
ENDBLK
  5
75
  8
0
  0
BLOCK
  8
0
  2
DA_IMAGEDIMGROUP_14
 70
     0
 10
0.0
 20
0.0
 30
0.0
  3
DA_IMAGEDIMGROUP_14
  1

  0
LINE
  5
11D
  8
0
  6
CONTINUOUS
 62
     9
 10
-261.9083709513583
 20
15.20439095054886
 30
0.0
 11
-241.9083723002608
 21
15.20439095054886
 31
0.0
  0
INSERT
  5
11E
  8
0
 62
     9
  2
_OPEN30
 10
-261.9083709513583
 20
15.20439095054886
 30
0.0
 41
2.250002090868945
 42
2.249997751034238
 50
180.0
  0
INSERT
  5
11F
  8
0
 62
     9
  2
_OPEN30
 10
-241.9083723002608
 20
15.20439095054886
 30
0.0
 41
2.250002090868945
 42
2.249997751034238
 50
360.0
  0
TEXT
  5
120
  8
0
 62
     7
 10
-256.7083716258096
 20
17.20439095054886
 30
0.0
 40
6.0
  1
20
 41
0.8000000000000019
  7
FDASTYLE1
 72
     5
 11
-247.1083716258095
 21
17.20439095054886
 31
0.0
  0
ENDBLK
  5
78
  8
0
  0
BLOCK
  8
0
  2
DA_IMAGEDIMGROUP_15
 70
     0
 10
0.0
 20
0.0
 30
0.0
  3
DA_IMAGEDIMGROUP_15
  1

  0
LINE
  5
121
  8
0
  6
CONTINUOUS
 62
     9
 10
-261.9083709513583
 20
36.74492766705109
 30
0.0
 11
-228.9083591484585
 21
36.74492766705109
 31
0.0
  0
INSERT
  5
122
  8
0
 62
     9
  2
_OPEN30
 10
-261.9083709513583
 20
36.74492766705109
 30
0.0
 41
2.250002090868945
 42
2.249997751034238
 50
180.0
  0
INSERT
  5
123
  8
0
 62
     9
  2
_OPEN30
 10
-228.9083591484585
 20
36.74492766705109
 30
0.0
 41
2.250002090868945
 42
2.249997751034238
 50
360.0
  0
LINE
  5
124
  8
0
  6
CONTINUOUS
 62
     9
 10
-228.9083591484585
 20
36.74492766705109
 30
0.0
 11
-203.9083554389757
 21
36.74492766705109
 31
0.0
  0
INSERT
  5
125
  8
0
 62
     9
  2
_OPEN30
 10
-228.9083591484585
 20
36.74492766705109
 30
0.0
 41
2.250002090868945
 42
2.249997751034238
 50
180.0
  0
INSERT
  5
126
  8
0
 62
     9
  2
_OPEN30
 10
-203.9083554389757
 20
36.74492766705109
 30
0.0
 41
2.250002090868945
 42
2.249997751034238
 50
360.0
  0
TEXT
  5
127
  8
0
 62
     7
 10
-254.5166211237199
 20
38.74492766705109
 30
0.0
 40
6.0
  1
33
 41
0.8000000000000019
  7
FDASTYLE1
 72
     5
 11
-244.9166211237198
 21
38.74492766705109
 31
0.0
  0
TEXT
  5
128
  8
0
 62
     7
 10
-221.2083572937171
 20
38.74492766705109
 30
0.0
 40
6.0
  1
25
 41
0.8000000000000019
  7
FDASTYLE1
 72
     5
 11
-211.6083572937171
 21
38.74492766705109
 31
0.0
  0
ENDBLK
  5
7B
  8
0
  0
BLOCK
  8
0
  2
DA_IMAGEDIMGROUP_16
 70
     0
 10
0.0
 20
0.0
 30
0.0
  3
DA_IMAGEDIMGROUP_16
  1

  0
LINE
  5
129
  8
0
  6
CONTINUOUS
 62
     9
 10
-253.9083628579411
 20
161.3459141449726
 30
0.0
 11
-253.9083628579411
 21
235.6507750637832
 31
0.0
  0
LINE
  5
12A
  8
0
  6
CONTINUOUS
 62
     9
 10
-261.9083709513583
 20
168.5459186182716
 30
0.0
 11
-261.9083709513583
 21
235.6507750637832
 31
0.0
  0
LINE
  5
12B
  8
0
  6
CONTINUOUS
 62
     9
 10
-261.9083709513583
 20
233.6507750637832
 30
0.0
 11
-253.9083628579411
 21
233.6507750637832
 31
0.0
  0
LINE
  5
12C
  8
0
  6
CONTINUOUS
 62
     9
 10
-276.1720709513583
 20
233.6507750637832
 30
0.0
 11
-261.9083709513583
 21
233.6507750637832
 31
0.0
  0
INSERT
  5
12D
  8
0
 62
     9
  2
_OPEN30
 10
-261.9083709513583
 20
233.6507750637832
 30
0.0
 41
2.250002090868945
 42
2.249997751034238
 50
360.0
  0
LINE
  5
12E
  8
0
  6
CONTINUOUS
 62
     9
 10
-243.9083628579411
 20
233.6507750637832
 30
0.0
 11
-253.9083628579411
 21
233.6507750637832
 31
0.0
  0
INSERT
  5
12F
  8
0
 62
     9
  2
_OPEN30
 10
-253.9083628579411
 20
233.6507750637832
 30
0.0
 41
2.250002090868945
 42
2.249997751034238
 50
180.0
  0
TEXT
  5
130
  8
0
 62
     7
 10
-272.5720709513582
 20
235.6507750637832
 30
0.0
 40
6.0
  1
8
 41
0.8000000000000019
  7
FDASTYLE1
 72
     5
 11
-267.7720709513582
 21
235.6507750637832
 31
0.0
  0
ENDBLK
  5
7E
  8
0
  0
BLOCK
  8
0
  2
DA_IMAGEDIMGROUP_17
 70
     0
 10
0.0
 20
0.0
 30
0.0
  3
DA_IMAGEDIMGROUP_17
  1

  0
LINE
  5
131
  8
0
  6
CONTINUOUS
 62
     9
 10
-108.9083652185212
 20
233.6507750637832
 30
0.0
 11
-106.9083652185212
 21
233.6507750637832
 31
0.0
  0
LINE
  5
132
  8
0
  6
CONTINUOUS
 62
     9
 10
-108.9083652185212
 20
217.0459137284989
 30
0.0
 11
-108.9083652185212
 21
235.1507750637832
 31
0.0
  0
LINE
  5
133
  8
0
  6
CONTINUOUS
 62
     9
 10
-106.9083652185212
 20
217.0459137284989
 30
0.0
 11
-106.9083652185212
 21
235.1507750637832
 31
0.0
  0
LINE
  5
134
  8
0
  6
CONTINUOUS
 62
     9
 10
-104.4083680849398
 20
204.545901082535
 30
0.0
 11
-104.4083680849398
 21
235.1507750637832
 31
0.0
  0
LINE
  5
135
  8
0
  6
CONTINUOUS
 62
     9
 10
-164.0860568611673
 20
233.6507750637832
 30
0.0
 11
-108.9083652185212
 21
233.6507750637832
 31
0.0
  0
INSERT
  5
136
  8
0
 62
     9
  2
_OPEN30
 10
-108.9083652185212
 20
233.6507750637832
 30
0.0
 41
2.250002090868945
 42
2.249997751034238
 50
360.0
  0
LINE
  5
137
  8
0
  6
CONTINUOUS
 62
     9
 10
-84.11059308493977
 20
233.6507750637832
 30
0.0
 11
-104.4083680849398
 21
233.6507750637832
 31
0.0
  0
INSERT
  5
138
  8
0
 62
     9
  2
_OPEN30
 10
-104.4083680849398
 20
233.6507750637832
 30
0.0
 41
2.250002090868945
 42
2.249997751034238
 50
180.0
  0
LINE
  5
139
  8
0
  6
CONTINUOUS
 62
     9
 10
-106.9083652185212
 20
233.6507750637832
 30
0.0
 11
-104.4083680849398
 21
233.6507750637832
 31
0.0
  0
INSERT
  5
13F
  8
0
 62
     9
  2
_DOT
 10
-106.9083652185212
 20
233.6507750637832
 30
0.0
 41
3.75
 42
3.75
 50
180.0
  0
TEXT
  5
140
  8
0
 62
     7
 10
-162.7720652185211
 20
235.6507750637832
 30
0.0
 40
6.0
  1
チャック上面より 2
 41
0.6896551724137934
  7
FDASTYLE1
 72
     5
 11
-114.7720652185211
 21
235.6507750637832
 31
0.0
  0
TEXT
  5
141
  8
0
 62
     7
 10
-100.0105930849398
 20
235.1507750637832
 30
0.0
 40
6.0
  1
2.5
 41
0.8000000000000003
  7
FDASTYLE1
 72
     5
 11
-85.61059308493977
 21
235.1507750637832
 31
0.0
  0
ENDBLK
  5
81
  8
0
  0
BLOCK
  8
0
  2
DA_IMAGEDIMGROUP_18
 70
     0
 10
0.0
 20
0.0
 30
0.0
  3
DA_IMAGEDIMGROUP_18
  1

  0
LINE
  5
142
  8
0
  6
CONTINUOUS
 62
     9
 10
-104.9083652185212
 20
132.5459273861399
 30
0.0
 11
-51.77960251467097
 21
132.5459273861399
 31
0.0
  0
LINE
  5
143
  8
0
  6
CONTINUOUS
 62
     9
 10
-70.09143527412643
 20
155.0459069839848
 30
0.0
 11
-51.77960251467097
 21
155.0459069839848
 31
0.0
  0
LINE
  5
144
  8
0
  6
CONTINUOUS
 62
     9
 10
-53.77960251467097
 20
132.5459273861399
 30
0.0
 11
-53.77960251467097
 21
155.0459069839848
 31
0.0
  0
LINE
  5
145
  8
0
  6
CONTINUOUS
 62
     9
 10
-53.77960251467097
 20
165.0459069839848
 30
0.0
 11
-53.77960251467097
 21
155.0459069839848
 31
0.0
  0
INSERT
  5
146
  8
0
 62
     9
  2
_OPEN30
 10
-53.77960251467097
 20
155.0459069839848
 30
0.0
 41
2.250002090868945
 42
2.249997751034238
 50
270.0
  0
LINE
  5
147
  8
0
  6
CONTINUOUS
 62
     9
 10
-53.77960251467097
 20
122.5459273861399
 30
0.0
 11
-53.77960251467097
 21
132.5459273861399
 31
0.0
  0
INSERT
  5
148
  8
0
 62
     9
  2
_OPEN30
 10
-53.77960251467097
 20
132.5459273861399
 30
0.0
 41
2.250002090868945
 42
2.249997751034238
 50
90.0
  0
TEXT
  5
149
  8
0
 62
     7
 10
-55.77960251467097
 20
135.3344016184678
 30
0.0
 40
4.5
  1
MIN21
 50
90.0
 41
0.8
  7
FDASTYLE1
 72
     5
 11
-55.77960251467097
 21
153.3344016184678
 31
0.0
  0
ENDBLK
  5
84
  8
0
  0
BLOCK
  8
0
  2
DA_IMAGEDIMGROUP_19
 70
     0
 10
0.0
 20
0.0
 30
0.0
  3
DA_IMAGEDIMGROUP_19
  1

  0
LINE
  5
14A
  8
0
  6
CONTINUOUS
 62
     9
 10
-123.6545968623269
 20
15.04592182191577
 30
0.0
 11
-71.77960251467097
 21
15.04592182191577
 31
0.0
  0
LINE
  5
14B
  8
0
  6
CONTINUOUS
 62
     9
 10
-123.5942116679381
 20
108.0459133912732
 30
0.0
 11
-71.77960251467097
 21
108.0459133912732
 31
0.0
  0
LINE
  5
14C
  8
0
  6
CONTINUOUS
 62
     9
 10
-73.77960251467097
 20
15.04592182191577
 30
0.0
 11
-73.77960251467097
 21
108.0459133912732
 31
0.0
  0
INSERT
  5
14D
  8
0
 62
     9
  2
_OPEN30
 10
-73.77960251467097
 20
15.04592182191577
 30
0.0
 41
2.250002090868945
 42
2.249997751034238
 50
270.0
  0
INSERT
  5
14E
  8
0
 62
     9
  2
_OPEN30
 10
-73.77960251467097
 20
108.0459133912732
 30
0.0
 41
2.250002090868945
 42
2.249997751034238
 50
90.0
  0
TEXT
  5
14F
  8
0
 62
     7
 10
-75.77960251467097
 20
48.74328226609353
 30
0.0
 40
6.0
  1
φ93
 50
90.0
 41
0.7500000000000003
  7
FDASTYLE1
 72
     5
 11
-75.77960251467097
 21
63.14328226609354
 31
0.0
  0
TEXT
  5
150
  8
0
 62
     7
 10
-80.17960251467106
 20
67.54328226609353
 30
0.0
 40
3.3
  1
+0.2
 50
90.0
 41
0.8000000000000002
  7
FDASTYLE1
 72
     5
 11
-80.17960251467106
 21
78.10328226609353
 31
0.0
  0
TEXT
  5
151
  8
0
 62
     7
 10
-75.37960251467111
 20
67.54328226609353
 30
0.0
 40
3.3
  1
+0.1
 50
90.0
 41
0.8000000000000002
  7
FDASTYLE1
 72
     5
 11
-75.37960251467111
 21
78.10328226609353
 31
0.0
  0
ENDBLK
  5
87
  8
0
  0
BLOCK
  8
0
  2
DA_IMAGEDIMGROUP_20
 70
     0
 10
0.0
 20
0.0
 30
0.0
  3
DA_IMAGEDIMGROUP_20
  1

  0
LINE
  5
152
  8
0
  6
CONTINUOUS
 62
     9
 10
-107.4083677477139
 20
9.045921147464355
 30
0.0
 11
-53.77960251467097
 21
9.045921147464355
 31
0.0
  0
LINE
  5
153
  8
0
  6
CONTINUOUS
 62
     9
 10
-107.4083677477139
 20
114.0459194613358
 30
0.0
 11
-53.77960251467097
 21
114.0459194613358
 31
0.0
  0
LINE
  5
154
  8
0
  6
CONTINUOUS
 62
     9
 10
-55.77960251467097
 20
9.045921147464355
 30
0.0
 11
-55.77960251467097
 21
114.0459194613358
 31
0.0
  0
INSERT
  5
155
  8
0
 62
     9
  2
_OPEN30
 10
-55.77960251467097
 20
9.045921147464355
 30
0.0
 41
2.250002090868945
 42
2.249997751034238
 50
270.0
  0
INSERT
  5
156
  8
0
 62
     9
  2
_OPEN30
 10
-55.77960251467097
 20
114.0459194613358
 30
0.0
 41
2.250002090868945
 42
2.249997751034238
 50
90.0
  0
TEXT
  5
157
  8
0
 62
     7
 10
-57.77960251467097
 20
51.94592030440009
 30
0.0
 40
6.0
  1
φ105
 50
90.0
 41
0.7619047619047626
  7
FDASTYLE1
 72
     5
 11
-57.77960251467097
 21
71.14592030440011
 31
0.0
  0
ENDBLK
  5
8A
  8
0
  0
BLOCK
  8
0
  2
DA_IMAGEDIMGROUP_21
 70
     0
 10
0.0
 20
0.0
 30
0.0
  3
DA_IMAGEDIMGROUP_21
  1

  0
LINE
  5
158
  8
0
  6
CONTINUOUS
 62
     9
 10
-107.1782651781131
 20
-13.45408509121118
 30
0.0
 11
-33.77960251467097
 21
-13.45408509121118
 31
0.0
  0
LINE
  5
159
  8
0
  6
CONTINUOUS
 62
     9
 10
-35.77960251467097
 20
-13.45408509121118
 30
0.0
 11
-35.77960251467097
 21
100.6822716657892
 31
0.0
  0
INSERT
  5
15A
  8
0
 62
     9
  2
_OPEN30
 10
-35.77960251467097
 20
-13.45408509121118
 30
0.0
 41
2.250002090868945
 42
2.249997751034238
 50
270.0
  0
TEXT
  5
15B
  8
0
 62
     7
 10
-37.77960251467097
 20
51.94591490878882
 30
0.0
 40
6.0
  1
φ150
 50
90.0
 41
0.7619047619047623
  7
FDASTYLE1
 72
     5
 11
-37.77960251467097
 21
71.14591490878883
 31
0.0
  0
ENDBLK
  5
8D
  8
0
  0
BLOCK
  8
0
  2
DC_GROUP_2
 70
     0
 10
0.0
 20
0.0
 30
0.0
  3
DC_GROUP_2
  1

  0
LINE
  5
15C
  8
0
  6
CONTINUOUS
 62
     9
 10
-104.9083652185212
 20
132.5459273861399
 30
0.0
 11
16.2412875845008
 21
132.5459273861399
 31
0.0
  0
LINE
  5
15D
  8
0
  6
CONTINUOUS
 62
     9
 10
-104.9083652185212
 20
215.0459137284989
 30
0.0
 11
-13.78018529392297
 21
215.0459137284989
 31
0.0
  0
LINE
  5
15E
  8
0
  6
CONTINUOUS
 62
     9
 10
-94.39975938714692
 20
61.54591490878882
 30
0.0
 11
-86.82852331167386
 21
61.54591490878882
 31
0.0
  0
LINE
  5
15F
  8
0
  6
CONTINUOUS
 62
     9
 10
-31.98320147442077
 20
61.54591490878882
 30
0.0
 11
-13.78018529392297
 21
61.54591490878882
 31
0.0
  0
LINE
  5
160
  8
0
  6
CONTINUOUS
 62
     9
 10
-15.78018529392297
 20
61.54591490878882
 30
0.0
 11
-15.78018529392297
 21
132.5459273861399
 31
0.0
  0
INSERT
  5
161
  8
0
 62
     9
  2
_OPEN30
 10
-15.78018529392297
 20
61.54591490878882
 30
0.0
 41
2.250002090868945
 42
2.249997751034238
 50
270.0
  0
INSERT
  5
162
  8
0
 62
     9
  2
_OPEN30
 10
-15.78018529392297
 20
132.5459273861399
 30
0.0
 41
2.250002090868945
 42
2.249997751034238
 50
90.0
  0
LINE
  5
163
  8
0
  6
CONTINUOUS
 62
     9
 10
-15.78018529392297
 20
132.5459273861399
 30
0.0
 11
-15.78018529392297
 21
215.0459137284989
 31
0.0
  0
INSERT
  5
164
  8
0
 62
     9
  2
_OPEN30
 10
-15.78018529392297
 20
132.5459273861399
 30
0.0
 41
2.250002090868945
 42
2.249997751034238
 50
270.0
  0
INSERT
  5
165
  8
0
 62
     9
  2
_OPEN30
 10
-15.78018529392297
 20
215.0459137284989
 30
0.0
 41
2.250002090868945
 42
2.249997751034238
 50
90.0
  0
TEXT
  5
166
  8
0
 62
     7
 10
-17.78018529392297
 20
80.24592114746437
 30
0.0
 40
6.0
  1
MAX74.7
 50
90.0
 41
0.7999999999999998
  7
FDASTYLE1
 72
     5
 11
-17.78018529392297
 21
113.8459211474644
 31
0.0
  0
TEXT
  5
167
  8
0
 62
     7
 10
-17.78018529392297
 20
164.1959205573193
 30
0.0
 40
6.0
  1
82.5
 50
90.0
 41
0.7999999999999995
  7
FDASTYLE1
 72
     5
 11
-17.78018529392297
 21
183.3959205573193
 31
0.0
  0
ENDBLK
  5
90
  8
0
  0
BLOCK
  8
0
  2
DA_IMAGEDIMGROUP_22
 70
     0
 10
0.0
 20
0.0
 30
0.0
  3
DA_IMAGEDIMGROUP_22
  1

  0
LINE
  5
168
  8
0
  6
CONTINUOUS
 62
     9
 10
14.00249145066083
 20
122.5459273861399
 30
0.0
 11
14.00249145066083
 21
142.5459273861399
 31
0.0
  0
INSERT
  5
169
  8
0
 62
     9
  2
_OPEN30
 10
14.00249145066083
 20
122.5459273861399
 30
0.0
 41
2.250002090868945
 42
2.249997751034238
 50
270.0
  0
INSERT
  5
16A
  8
0
 62
     9
  2
_OPEN30
 10
14.00249145066083
 20
142.5459273861399
 30
0.0
 41
2.250002090868945
 42
2.249997751034238
 50
90.0
  0
ENDBLK
  5
93
  8
0
  0
BLOCK
  8
0
  2
DC_GROUP_3
 70
     0
 10
0.0
 20
0.0
 30
0.0
  3
DC_GROUP_3
  1

  0
LINE
  5
16B
  8
0
  6
CONTINUOUS
 62
     7
 10
235.6859818038652
 20
-33.79976042582948
 30
0.0
 11
298.765071616509
 21
-103.6105954405548
 31
0.0
  0
INSERT
  5
16C
  8
0
 62
     7
  2
_OPEN30
 10
235.6859818038652
 20
-33.79976042582948
 30
0.0
 41
2.250002090868945
 42
2.249997751034238
 50
132.1000722386003
  0
LINE
  5
16D
  8
0
  6
CONTINUOUS
 62
     7
 10
298.765071616509
 20
-103.6105954405548
 30
0.0
 11
339.1238048842529
 21
-103.6105954405548
 31
0.0
  0
TEXT
  5
16E
  8
0
 62
     7
 10
298.765071616509
 20
-103.6105954405548
 30
0.0
 40
6.0
  1
PCD171.4
 41
0.8000000000000007
  7
FDASTYLE1
 72
     5
 11
337.1650716165091
 21
-103.6105954405548
 31
0.0
  0
ENDBLK
  5
96
  8
0
  0
BLOCK
  8
0
  2
DA_IMAGEDIMGROUP_23
 70
     0
 10
0.0
 20
0.0
 30
0.0
  3
DA_IMAGEDIMGROUP_23
  1

  0
LINE
  5
16F
  8
0
  6
CONTINUOUS
 62
     9
 10
272.9704238221989
 20
188.1741506036217
 30
0.0
 11
272.9704238221989
 21
233.9927959456185
 31
0.0
  0
LINE
  5
170
  8
0
  6
CONTINUOUS
 62
     9
 10
226.9704238221989
 20
230.1948457515529
 30
0.0
 11
226.9704238221989
 21
233.9927959456185
 31
0.0
  0
LINE
  5
171
  8
0
  6
CONTINUOUS
 62
     9
 10
294.8328377447452
 20
231.9927959456185
 30
0.0
 11
272.9704238221989
 21
231.9927959456185
 31
0.0
  0
LINE
  5
172
  8
0
  6
CONTINUOUS
 62
     9
 10
226.9704238221989
 20
231.9927959456185
 30
0.0
 11
272.9704238221989
 21
231.9927959456185
 31
0.0
  0
INSERT
  5
173
  8
0
 62
     9
  2
_OPEN30
 10
226.9704238221989
 20
231.9927959456185
 30
0.0
 41
2.250002090868945
 42
2.249997751034238
 50
180.0
  0
INSERT
  5
174
  8
0
 62
     9
  2
_OPEN30
 10
272.9704238221989
 20
231.9927959456185
 30
0.0
 41
2.250002090868945
 42
2.249997751034238
 50
360.0
  0
TEXT
  5
175
  8
0
 62
     7
 10
280.0328377447455
 20
233.9927959456185
 30
0.0
 40
6.0
  1
46
 41
0.8000000000000019
  7
FDASTYLE1
 72
     5
 11
289.6328377447455
 21
233.9927959456185
 31
0.0
  0
ENDBLK
  5
99
  8
0
  0
BLOCK
  8
0
  2
DA_IMAGEDIMGROUP_24
 70
     0
 10
0.0
 20
0.0
 30
0.0
  3
DA_IMAGEDIMGROUP_24
  1

  0
LINE
  5
176
  8
0
  6
CONTINUOUS
 62
     9
 10
216.4704131995891
 20
244.3387014162732
 30
0.0
 11
237.4704128623635
 21
244.3387014162732
 31
0.0
  0
INSERT
  5
177
  8
0
 62
     9
  2
_OPEN30
 10
216.4704131995891
 20
244.3387014162732
 30
0.0
 41
2.250002090868945
 42
2.249997751034238
 50
180.0
  0
INSERT
  5
178
  8
0
 62
     9
  2
_OPEN30
 10
237.4704128623635
 20
244.3387014162732
 30
0.0
 41
2.250002090868945
 42
2.249997751034238
 50
360.0
  0
LINE
  5
179
  8
0
  6
CONTINUOUS
 62
     9
 10
216.4704131995891
 20
217.0459165949173
 30
0.0
 11
216.4704131995891
 21
245.8387014162732
 31
0.0
  0
LINE
  5
17A
  8
0
  6
CONTINUOUS
 62
     9
 10
237.4704128623635
 20
217.0459165949173
 30
0.0
 11
237.4704128623635
 21
245.8387014162732
 31
0.0
  0
TEXT
  5
17B
  8
0
 62
     7
 10
217.3704130309761
 20
246.3387014162732
 30
0.0
 40
6.0
  1
21H8
 41
0.7999999999999995
  7
FDASTYLE1
 72
     5
 11
236.5704130309761
 21
246.3387014162732
 31
0.0
  0
ENDBLK
  5
9C
  8
0
  0
BLOCK
  8
0
  2
DC_GROUP_4
 70
     0
 10
0.0
 20
0.0
 30
0.0
  3
DC_GROUP_4
  1

  0
LINE
  5
17C
  8
0
  6
CONTINUOUS
 62
     7
 10
-85.14080179097518
 20
196.3935178473568
 30
0.0
 11
-55.6825376350529
 21
231.7729072334947
 31
0.0
  0
INSERT
  5
17D
  8
0
 62
     7
  2
_OPEN30
 10
-85.14080179097518
 20
196.3935178473568
 30
0.0
 41
2.250002090868945
 42
2.249997751034238
 50
230.2179104966477
  0
LINE
  5
17E
  8
0
  6
CONTINUOUS
 62
     7
 10
-55.6825376350529
 20
231.7729072334947
 30
0.0
 11
-37.72735353297198
 21
231.7729072334947
 31
0.0
  0
TEXT
  5
17F
  8
0
 62
     7
 10
-55.6825376350529
 20
231.7729072334947
 30
0.0
 40
6.0
  1
M16
 41
0.8000000000000003
  7
FDASTYLE1
 72
     5
 11
-41.28253763505289
 21
231.7729072334947
 31
0.0
  0
ENDBLK
  5
9F
  8
0
  0
BLOCK
  8
0
  2
DC_GROUP_5
 70
     0
 10
0.0
 20
0.0
 30
0.0
  3
DC_GROUP_5
  1

  0
LINE
  5
180
  8
0
  6
CONTINUOUS
 62
     7
 10
-106.9083652185212
 20
208.4160794337974
 30
0.0
 11
-59.57677117883704
 21
248.0424358367333
 31
0.0
  0
INSERT
  5
181
  8
0
 62
     7
  2
_OPEN30
 10
-106.9083652185212
 20
208.4160794337974
 30
0.0
 41
2.250002090868945
 42
2.249997751034238
 50
219.9363159489124
  0
LINE
  5
182
  8
0
  6
CONTINUOUS
 62
     7
 10
-59.57677117883704
 20
248.0424358367333
 30
0.0
 11
12.42322882116297
 21
248.0424358367333
 31
0.0
  0
TEXT
  5
183
  8
0
 62
     7
 10
-59.57677117883704
 20
248.0424358367333
 30
0.0
 40
6.0
  1
セレーションP1.5 山60゜
 41
0.7228915662650605
  7
FDASTYLE1
 72
     5
 11
12.42322882116298
 21
248.0424358367333
 31
0.0
  0
ENDBLK
  5
A2
  8
0
  0
BLOCK
  8
0
  2
DA_IMAGEDIMGROUP_25
 70
     0
 10
0.0
 20
0.0
 30
0.0
  3
DA_IMAGEDIMGROUP_25
  1

  0
LINE
  5
184
  8
0
  6
CONTINUOUS
 62
     9
 10
29.23483772253689
 20
11.15390751508156
 30
0.0
 11
41.92365030243761
 21
18.47979687378393
 31
0.0
  0
LINE
  5
185
  8
0
  6
CONTINUOUS
 62
     9
 10
38.2348417458503
 20
-4.434556721621579
 30
0.0
 11
50.923654325751
 21
2.891332637080804
 31
0.0
  0
LINE
  5
186
  8
0
  6
CONTINUOUS
 62
     9
 10
40.62461219676095
 20
17.72979687378393
 30
0.0
 11
49.62461622007434
 21
2.141332637080804
 31
0.0
  0
INSERT
  5
187
  8
0
 62
     9
  2
_OPEN30
 10
40.62461219676095
 20
17.72979687378393
 30
0.0
 41
2.250002090868945
 42
2.249997751034238
 50
120.0
  0
INSERT
  5
188
  8
0
 62
     9
  2
_OPEN30
 10
49.62461622007434
 20
2.141332637080804
 30
0.0
 41
2.250002090868945
 42
2.249997751034238
 50
299.9999999999999
  0
TEXT
  5
189
  8
0
 62
     7
 10
42.8236523140943
 20
16.92094766268033
 30
0.0
 40
6.0
  1
φ18
 50
-59.99999999999999
 41
0.7500000000000002
  7
FDASTYLE1
 72
     5
 11
50.0236523140943
 21
4.45018184818441
 31
0.0
  0
ENDBLK
  5
A5
  8
0
  0
BLOCK
  8
0
  2
DC_GROUP_6
 70
     0
 10
0.0
 20
0.0
 30
0.0
  3
DC_GROUP_6
  1

  0
LINE
  5
18A
  8
0
  6
CONTINUOUS
 62
     3
 10
-222.1604860243031
 20
-12.55278502142863
 30
0.0
 11
-221.1581091228837
 21
-13.16965768273748
 31
0.0
  0
LINE
  5
18B
  8
0
  6
CONTINUOUS
 62
     3
 10
-221.1581091228837
 20
-13.16965768273748
 30
0.0
 11
-220.233615622394
 21
-13.80759252599955
 31
0.0
  0
LINE
  5
18C
  8
0
  6
CONTINUOUS
 62
     3
 10
-220.233615622394
 20
-13.80759252599955
 30
0.0
 11
-219.4648889237633
 21
-14.48765173316801
 31
0.0
  0
LINE
  5
18D
  8
0
  6
CONTINUOUS
 62
     3
 10
-219.4648889237633
 20
-14.48765173316801
 30
0.0
 11
-218.9298124279215
 21
-15.23089748619609
 31
0.0
  0
LINE
  5
18E
  8
0
  6
CONTINUOUS
 62
     3
 10
-218.9298124279215
 20
-15.23089748619609
 30
0.0
 11
-218.7056423322597
 21
-16.05824384853845
 31
0.0
  0
LINE
  5
18F
  8
0
  6
CONTINUOUS
 62
     3
 10
-218.7056423322597
 20
-16.05824384853845
 30
0.0
 11
-218.8006832610301
 21
-16.97432148781295
 31
0.0
  0
LINE
  5
190
  8
0
  6
CONTINUOUS
 62
     3
 10
-218.8006832610301
 20
-16.97432148781295
 30
0.0
 11
-219.0929049597698
 21
-17.95298157923649
 31
0.0
  0
LINE
  5
191
  8
0
  6
CONTINUOUS
 62
     3
 10
-219.0929049597698
 20
-17.95298157923649
 30
0.0
 11
-219.4457902647627
 21
-18.96465411316999
 31
0.0
  0
LINE
  5
192
  8
0
  6
CONTINUOUS
 62
     3
 10
-219.4457902647627
 20
-18.96465411316999
 30
0.0
 11
-219.7228220122927
 21
-19.97976907997438
 31
0.0
  0
LINE
  5
193
  8
0
  6
CONTINUOUS
 62
     3
 10
-219.7228220122927
 20
-19.97976907997438
 30
0.0
 11
-219.7962781385999
 21
-20.9703317095859
 31
0.0
  0
LINE
  5
194
  8
0
  6
CONTINUOUS
 62
     3
 10
-219.7962781385999
 20
-20.9703317095859
 30
0.0
 11
-219.6387452608001
 21
-21.92631294064774
 31
0.0
  0
LINE
  5
195
  8
0
  6
CONTINUOUS
 62
     3
 10
-219.6387452608001
 20
-21.92631294064774
 30
0.0
 11
-219.2866184526856
 21
-22.8491120760851
 31
0.0
  0
LINE
  5
196
  8
0
  6
CONTINUOUS
 62
     3
 10
-219.2866184526856
 20
-22.8491120760851
 30
0.0
 11
-218.7773162533918
 21
-23.74031172579188
 31
0.0
  0
LINE
  5
197
  8
0
  6
CONTINUOUS
 62
     3
 10
-218.7773162533918
 20
-23.74031172579188
 30
0.0
 11
-218.1482572020542
 21
-24.60149449966198
 31
0.0
  0
LINE
  5
198
  8
0
  6
CONTINUOUS
 62
     3
 10
-218.1482572020542
 20
-24.60149449966198
 30
0.0
 11
-217.4368598378082
 21
-25.43424300758933
 31
0.0
  0
LINE
  5
199
  8
0
  6
CONTINUOUS
 62
     3
 10
-217.4368598378082
 20
-25.43424300758933
 30
0.0
 11
-216.680564763479
 21
-26.24015036039233
 31
0.0
  0
LINE
  5
19A
  8
0
  6
CONTINUOUS
 62
     3
 10
-216.680564763479
 20
-26.24015036039233
 30
0.0
 11
-215.92770127155
 21
-27.02599199833973
 31
0.0
  0
LINE
  5
19B
  8
0
  6
CONTINUOUS
 62
     3
 10
-215.92770127155
 20
-27.02599199833973
 30
0.0
 11
-215.2550420004336
 21
-27.81208060023841
 31
0.0
  0
LINE
  5
19C
  8
0
  6
CONTINUOUS
 62
     3
 10
-215.2550420004336
 20
-27.81208060023841
 30
0.0
 11
-214.7439461061108
 21
-28.62091173795358
 31
0.0
  0
LINE
  5
19D
  8
0
  6
CONTINUOUS
 62
     3
 10
-214.7439461061108
 20
-28.62091173795358
 30
0.0
 11
-214.4740936965613
 21
-29.47456709585271
 31
0.0
  0
LINE
  5
19E
  8
0
  6
CONTINUOUS
 62
     3
 10
-214.4740936965613
 20
-29.47456709585271
 30
0.0
 11
-214.4673677565729
 21
-30.3808812928973
 31
0.0
  0
LINE
  5
19F
  8
0
  6
CONTINUOUS
 62
     3
 10
-214.4673677565729
 20
-30.3808812928973
 30
0.0
 11
-214.6746302503535
 21
-31.3301821748823
 31
0.0
  0
LINE
  5
1A0
  8
0
  6
CONTINUOUS
 62
     3
 10
-214.6746302503535
 20
-31.3301821748823
 30
0.0
 11
-215.042384069461
 21
-32.31172307057261
 31
0.0
  0
LINE
  5
1A1
  8
0
  6
CONTINUOUS
 62
     3
 10
-215.042384069461
 20
-32.31172307057261
 30
0.0
 11
-215.517132105453
 21
-33.31475730873313
 31
0.0
  0
LINE
  5
1A2
  8
0
  6
CONTINUOUS
 62
     3
 10
-215.517132105453
 20
-33.31475730873313
 30
0.0
 11
-216.0453772498873
 21
-34.32853821812875
 31
0.0
  0
ENDBLK
  5
A8
  8
0
  0
BLOCK
  8
0
  2
DA_IMAGEDIMGROUP_26
 70
     0
 10
0.0
 20
0.0
 30
0.0
  3
DA_IMAGEDIMGROUP_26
  1

  0
LINE
  5
1A3
  8
0
  6
CONTINUOUS
 62
     9
 10
314.3904399550766
 20
-70.45408374230837
 30
0.0
 11
400.4761092150172
 21
-70.45408374230837
 31
0.0
  0
LINE
  5
1A4
  8
0
  6
CONTINUOUS
 62
     9
 10
398.9761092150172
 20
-70.45408374230837
 30
0.0
 11
398.9761092150172
 21
61.54591490878882
 31
0.0
  0
INSERT
  5
1A5
  8
0
 62
     9
  2
_OPEN30
 10
398.9761092150172
 20
-70.45408374230837
 30
0.0
 41
2.250002090868945
 42
2.249997751034238
 50
270.0
  0
INSERT
  5
1A6
  8
0
 62
     9
  2
_OPEN30
 10
398.9761092150172
 20
61.54591490878882
 30
0.0
 41
2.250002090868945
 42
2.249997751034238
 50
90.0
  0
TEXT
  5
1A7
  8
0
 62
     7
 10
397.4761092150172
 20
-11.65408441675977
 30
0.0
 40
6.0
  1
132
 50
90.0
 41
0.7999999999999987
  7
FDASTYLE1
 72
     5
 11
397.4761092150172
 21
2.745915583240212
 31
0.0
  0
ENDBLK
  5
AB
  8
0
  0
BLOCK
  8
0
  2
DC_GROUP_7
 70
     0
 10
0.0
 20
0.0
 30
0.0
  3
DC_GROUP_7
  1

  0
LINE
  5
1A8
  8
0
  6
CONTINUOUS
 62
     7
 10
229.0108427072915
 20
-5.398624875372477
 30
0.0
 11
332.5597269624575
 21
-86.12627986348123
 31
0.0
  0
INSERT
  5
1A9
  8
0
 62
     7
  2
_OPEN30
 10
229.0108427072915
 20
-5.398624875372477
 30
0.0
 41
2.250002090868945
 42
2.249997751034238
 50
142.0596958638855
  0
LINE
  5
1AA
  8
0
  6
CONTINUOUS
 62
     7
 10
332.5597269624575
 20
-86.12627986348123
 30
0.0
 11
400.1047464563242
 21
-86.12627986348123
 31
0.0
  0
TEXT
  5
1AB
  8
0
 62
     7
 10
332.5597269624575
 20
-86.12627986348123
 30
0.0
 40
6.0
  1
3-M5タップ PCD131
 41
0.7671232876712335
  7
FDASTYLE1
 72
     5
 11
399.7597269624575
 21
-86.12627986348123
 31
0.0
  0
ENDBLK
  5
AE
  8
0
  0
BLOCK
  8
0
  2
DC_GROUP_8
 70
     0
 10
0.0
 20
0.0
 30
0.0
  3
DC_GROUP_8
  1

  0
LINE
  5
1AC
  8
0
  6
CONTINUOUS
 62
     7
 10
90.50636056083607
 20
140.3301617006069
 30
0.0
 11
77.63409420705227
 21
168.2018950069725
 31
0.0
  0
INSERT
  5
1AD
  8
0
 62
     7
  2
_OPEN30
 10
90.50636056083607
 20
140.3301617006069
 30
0.0
 41
2.250002090868945
 42
2.249997751034238
 50
294.7893564861574
  0
LINE
  5
1AE
  8
0
  6
CONTINUOUS
 62
     7
 10
77.63409420705227
 20
168.2018950069725
 30
0.0
 11
58.43409420705228
 21
168.2018950069725
 31
0.0
  0
TEXT
  5
1AF
  8
0
 62
     7
 10
58.43409420705228
 20
168.2018950069725
 30
0.0
 40
8.0
  1
Ｍ16
 41
0.7500000000000001
  7
FDASTYLE1
 72
     5
 11
77.63409420705229
 21
168.2018950069725
 31
0.0
  0
ENDBLK
  5
B1
  8
0
  0
BLOCK
  8
0
  2
DA_IMAGEDIMGROUP_27
 70
     0
 10
0.0
 20
0.0
 30
0.0
  3
DA_IMAGEDIMGROUP_27
  1

  0
LINE
  5
1B0
  8
0
  6
CONTINUOUS
 62
     9
 10
-203.9083554389757
 20
36.74492766705109
 30
0.0
 11
-124.9083716258096
 21
36.74492766705109
 31
0.0
  0
INSERT
  5
1B1
  8
0
 62
     9
  2
_OPEN30
 10
-203.9083554389757
 20
36.74492766705109
 30
0.0
 41
2.250002090868945
 42
2.249997751034238
 50
180.0
  0
INSERT
  5
1B2
  8
0
 62
     9
  2
_OPEN30
 10
-124.9083716258096
 20
36.74492766705109
 30
0.0
 41
2.250002090868945
 42
2.249997751034238
 50
360.0
  0
LINE
  5
1B3
  8
0
  6
CONTINUOUS
 62
     9
 10
-124.9083716258096
 20
36.74492766705109
 30
0.0
 11
-109.4083677477139
 21
36.74492766705109
 31
0.0
  0
LINE
  5
1B4
  8
0
  6
CONTINUOUS
 62
     9
 10
-130.1073587347121
 20
49.24546437578831
 30
0.0
 11
-117.1583696867617
 21
36.74492766705109
 31
0.0
  0
LINE
  5
1B5
  8
0
  6
CONTINUOUS
 62
     9
 10
-152.3073587347121
 20
49.24546437578831
 30
0.0
 11
-130.1073587347121
 21
49.24546437578831
 31
0.0
  0
LINE
  5
1B6
  8
0
  6
CONTINUOUS
 62
     9
 10
-101.9083677477139
 20
36.74492766705109
 30
0.0
 11
-109.4083677477139
 21
36.74492766705109
 31
0.0
  0
INSERT
  5
1B7
  8
0
 62
     9
  2
_OPEN30
 10
-109.4083677477139
 20
36.74492766705109
 30
0.0
 41
2.250002090868945
 42
2.249997751034238
 50
180.0
  0
TEXT
  5
1B8
  8
0
 62
     7
 10
-169.2083635323926
 20
38.24492766705109
 30
0.0
 40
6.0
  1
79
 41
0.8000000000000019
  7
FDASTYLE1
 72
     5
 11
-159.6083635323926
 21
38.24492766705109
 31
0.0
  0
TEXT
  5
1B9
  8
0
 62
     7
 10
-150.8073587347121
 20
50.74546437578831
 30
0.0
 40
6.0
  1
15.5
 41
0.8000000000000007
  7
FDASTYLE1
 72
     5
 11
-131.6073587347121
 21
50.74546437578831
 31
0.0
  0
ENDBLK
  5
B4
  8
0
  0
BLOCK
  8
0
  2
DA_IMAGEDIMGROUP_28
 70
     0
 10
0.0
 20
0.0
 30
0.0
  3
DA_IMAGEDIMGROUP_28
  1

  0
LINE
  5
1BA
  8
0
  6
CONTINUOUS
 62
     9
 10
398.9972366073146
 20
61.54591490878882
 30
0.0
 11
398.9972366073146
 21
173.0459149087888
 31
0.0
  0
INSERT
  5
1BB
  8
0
 62
     9
  2
_OPEN30
 10
398.9972366073146
 20
61.54591490878882
 30
0.0
 41
2.250002090868945
 42
2.249997751034238
 50
270.0
  0
INSERT
  5
1BC
  8
0
 62
     9
  2
_OPEN30
 10
398.9972366073146
 20
173.0459149087888
 30
0.0
 41
2.250002090868945
 42
2.249997751034238
 50
90.0
  0
LINE
  5
1BD
  8
0
  6
CONTINUOUS
 62
     9
 10
286.6888585375792
 20
173.0459149087888
 30
0.0
 11
400.4972366073146
 21
173.0459149087888
 31
0.0
  0
TEXT
  5
1BE
  8
0
 62
     7
 10
397.4972366073146
 20
105.2959149087888
 30
0.0
 40
6.0
  1
111.5
 50
90.0
 41
0.8
  7
FDASTYLE1
 72
     5
 11
397.4972366073146
 21
129.2959149087888
 31
0.0
  0
ENDBLK
  5
B7
  8
0
  0
BLOCK
  8
0
  2
DC_GROUP_9
 70
     0
 10
0.0
 20
0.0
 30
0.0
  3
DC_GROUP_9
  1

  0
LINE
  5
1BF
  8
0
  6
CONTINUOUS
 62
     3
 10
-59.30783447332416
 20
-94.8262920656635
 30
0.0
 11
-52.09128961165055
 21
-95.29074174882564
 31
0.0
  0
LINE
  5
1C0
  8
0
  6
CONTINUOUS
 62
     3
 10
-52.09128961165055
 20
-95.29074174882564
 30
0.0
 11
-44.88837109969688
 21
-95.83821805392736
 31
0.0
  0
LINE
  5
1C1
  8
0
  6
CONTINUOUS
 62
     3
 10
-44.88837109969688
 20
-95.83821805392736
 30
0.0
 11
-37.71270528718297
 21
-96.55174760290819
 31
0.0
  0
LINE
  5
1C2
  8
0
  6
CONTINUOUS
 62
     3
 10
-37.71270528718297
 20
-96.55174760290819
 30
0.0
 11
-30.57791852382876
 21
-97.51435701770771
 31
0.0
  0
LINE
  5
1C3
  8
0
  6
CONTINUOUS
 62
     3
 10
-30.57791852382876
 20
-97.51435701770771
 30
0.0
 11
-23.49759848499738
 21
-98.80800878934417
 31
0.0
  0
LINE
  5
1C4
  8
0
  6
CONTINUOUS
 62
     3
 10
-23.49759848499738
 20
-98.80800878934417
 30
0.0
 11
-16.48365010364653
 21
-100.4683644907165
 31
0.0
  0
LINE
  5
1C5
  8
0
  6
CONTINUOUS
 62
     3
 10
-16.48365010364653
 20
-100.4683644907165
 30
0.0
 11
-9.545682602072581
 21
-102.4679188600314
 31
0.0
  0
LINE
  5
1C6
  8
0
  6
CONTINUOUS
 62
     3
 10
-9.545682602072581
 20
-102.4679188600314
 30
0.0
 11
-2.693140214656623
 21
-104.7746269674307
 31
0.0
  0
LINE
  5
1C7
  8
0
  6
CONTINUOUS
 62
     3
 10
-2.693140214656623
 20
-104.7746269674307
 30
0.0
 11
4.064532824220279
 21
-107.356443883056
 31
0.0
  0
LINE
  5
1C8
  8
0
  6
CONTINUOUS
 62
     3
 10
4.064532824220279
 20
-107.356443883056
 30
0.0
 11
10.71821111480411
 21
-110.1819354330651
 31
0.0
  0
LINE
  5
1C9
  8
0
  6
CONTINUOUS
 62
     3
 10
10.71821111480411
 20
-110.1819354330651
 30
0.0
 11
17.26411428518703
 21
-113.2299063186827
 31
0.0
  0
LINE
  5
1CA
  8
0
  6
CONTINUOUS
 62
     3
 10
17.26411428518703
 20
-113.2299063186827
 30
0.0
 11
23.70289163502822
 21
-116.4876466700343
 31
0.0
  0
LINE
  5
1CB
  8
0
  6
CONTINUOUS
 62
     3
 10
23.70289163502822
 20
-116.4876466700343
 30
0.0
 11
30.0353262000534
 21
-119.9427028005463
 31
0.0
  0
LINE
  5
1CC
  8
0
  6
CONTINUOUS
 62
     3
 10
30.0353262000534
 20
-119.9427028005463
 30
0.0
 11
36.2622010159882
 21
-123.5826210236453
 31
0.0
  0
LINE
  5
1CD
  8
0
  6
CONTINUOUS
 62
     3
 10
36.2622010159882
 20
-123.5826210236453
 30
0.0
 11
42.38431107989928
 21
-127.3949735838527
 31
0.0
  0
LINE
  5
1CE
  8
0
  6
CONTINUOUS
 62
     3
 10
42.38431107989928
 20
-127.3949735838527
 30
0.0
 11
48.40296221423009
 21
-131.368440148471
 31
0.0
  0
LINE
  5
1CF
  8
0
  6
CONTINUOUS
 62
     3
 10
48.40296221423009
 20
-131.368440148471
 30
0.0
 11
54.32015162278034
 21
-135.493199236463
 31
0.0
  0
LINE
  5
1D0
  8
0
  6
CONTINUOUS
 62
     3
 10
54.32015162278034
 20
-135.493199236463
 30
0.0
 11
60.13792562205188
 21
-139.7595358386461
 31
0.0
  0
LINE
  5
1D1
  8
0
  6
CONTINUOUS
 62
     3
 10
60.13792562205188
 20
-139.7595358386461
 30
0.0
 11
65.85833052854667
 21
-144.1577349458374
 31
0.0
  0
LINE
  5
1D2
  8
0
  6
CONTINUOUS
 62
     3
 10
65.85833052854667
 20
-144.1577349458374
 30
0.0
 11
71.48341265876655
 21
-148.6780815488546
 31
0.0
  0
LINE
  5
1D3
  8
0
  6
CONTINUOUS
 62
     3
 10
71.48341265876655
 20
-148.6780815488546
 30
0.0
 11
77.01511326646943
 21
-153.3111871144136
 31
0.0
  0
LINE
  5
1D4
  8
0
  6
CONTINUOUS
 62
     3
 10
77.01511326646943
 20
-153.3111871144136
 30
0.0
 11
82.45428382863429
 21
-158.0510495223413
 31
0.0
  0
LINE
  5
1D5
  8
0
  6
CONTINUOUS
 62
     3
 10
82.45428382863429
 20
-158.0510495223413
 30
0.0
 11
89.71866552667584
 21
-164.6303771350905
 31
0.0
  0
ENDBLK
  5
BA
  8
0
  0
BLOCK
  8
0
  2
_OPEN30
 70
     0
 10
0.0
 20
0.0
 30
0.0
  3
_OPEN30
  1

  0
LINE
  5
C0
  8
0
  6
BYBLOCK
 62
     0
 10
-1.0
 20
0.267949
 30
0.0
 11
0.0
 21
0.0
 31
0.0
  0
LINE
  5
C1
  8
0
  6
BYBLOCK
 62
     0
 10
0.0
 20
0.0
 30
0.0
 11
-1.0
 21
-0.267949
 31
0.0
  0
LINE
  5
C2
  8
0
  6
BYBLOCK
 62
     0
 10
0.0
 20
0.0
 30
0.0
 11
-1.0
 21
0.0
 31
0.0
  0
ENDBLK
  5
BF
  8
0
  0
BLOCK
  8
0
  2
_DOT
 70
     0
 10
0.0
 20
0.0
 30
0.0
  3
_DOT
  1

  0
POLYLINE
  5
13D
  8
0
  6
BYBLOCK
 62
     0
 66
     1
 10
0.0
 20
0.0
 30
0.0
 70
     1
 40
0.5
 41
0.5
  0
VERTEX
  5
54B
  8
0
  6
BYBLOCK
 62
     0
 10
-0.25
 20
0.0
 30
0.0
 42
1.0
  0
VERTEX
  5
54C
  8
0
  6
BYBLOCK
 62
     0
 10
0.25
 20
0.0
 30
0.0
 42
1.0
  0
SEQEND
  5
54A
  8
0
  6
BYBLOCK
 62
     0
  0
LINE
  5
13E
  8
0
  6
BYBLOCK
 62
     0
 10
-0.5
 20
0.0
 30
0.0
 11
-1.0
 21
0.0
 31
0.0
  0
ENDBLK
  5
13C
  8
0
  0
ENDSEC
  0
SECTION
  2
ENTITIES
  0
LINE
  5
1D6
  8
ZUWAKU
  6
CONTINUOUS
 62
     3
 10
-415.5
 20
-284.9999999999999
 30
0.0
 11
-415.5
 21
284.9999999999999
 31
0.0
  0
LINE
  5
1D7
  8
ZUWAKU
  6
CONTINUOUS
 62
     3
 10
415.5
 20
-284.9999999999999
 30
0.0
 11
415.5
 21
284.9999999999999
 31
0.0
  0
LINE
  5
1D8
  8
ZUWAKU
  6
CONTINUOUS
 62
     3
 10
-415.5
 20
-284.9999999999999
 30
0.0
 11
415.5
 21
-284.9999999999999
 31
0.0
  0
LINE
  5
1D9
  8
ZUWAKU
  6
CONTINUOUS
 62
     3
 10
-415.5
 20
284.9999999999999
 30
0.0
 11
415.5
 21
284.9999999999999
 31
0.0
  0
LINE
  5
1DA
  8
ZUWAKU
  6
CONTINUOUS
 62
     3
 10
145.5
 20
-284.9999999999999
 30
0.0
 11
145.5
 21
-194.9999999999999
 31
0.0
  0
LINE
  5
1DB
  8
ZUWAKU
  6
CONTINUOUS
 62
     3
 10
145.5
 20
-263.9999999999999
 30
0.0
 11
415.5
 21
-263.9999999999999
 31
0.0
  0
LINE
  5
1DC
  8
ZUWAKU
  6
CONTINUOUS
 62
     3
 10
219.0
 20
-242.9999999999999
 30
0.0
 11
415.5
 21
-242.9999999999999
 31
0.0
  0
LINE
  5
1DD
  8
ZUWAKU
  6
CONTINUOUS
 62
     3
 10
219.0
 20
-221.9999999999999
 30
0.0
 11
415.5
 21
-221.9999999999999
 31
0.0
  0
LINE
  5
1DE
  8
ZUWAKU
  6
CONTINUOUS
 62
     3
 10
219.0
 20
-206.9999999999999
 30
0.0
 11
415.5
 21
-206.9999999999999
 31
0.0
  0
LINE
  5
1DF
  8
ZUWAKU
  6
CONTINUOUS
 62
     3
 10
219.0
 20
-263.9999999999999
 30
0.0
 11
219.0
 21
-194.9999999999999
 31
0.0
  0
LINE
  5
1E0
  8
ZUWAKU
  6
CONTINUOUS
 62
     3
 10
382.5
 20
-263.9999999999999
 30
0.0
 11
382.5
 21
-194.9999999999999
 31
0.0
  0
LINE
  5
1E1
  8
ZUWAKU
  6
CONTINUOUS
 62
     3
 10
256.5
 20
-284.9999999999999
 30
0.0
 11
256.5
 21
-263.9999999999999
 31
0.0
  0
LINE
  5
1E2
  8
ZUWAKU
  6
CONTINUOUS
 62
     3
 10
393.0
 20
-281.9999999999999
 30
0.0
 11
408.0
 21
-281.9999999999999
 31
0.0
  0
LINE
  5
1E3
  8
ZUWAKU
  6
CONTINUOUS
 62
     3
 10
400.5
 20
-266.9999999999999
 30
0.0
 11
393.0
 21
-281.9999999999999
 31
0.0
  0
LINE
  5
1E4
  8
ZUWAKU
  6
CONTINUOUS
 62
     3
 10
400.5
 20
-266.9999999999999
 30
0.0
 11
408.0
 21
-281.9999999999999
 31
0.0
  0
LINE
  5
1E5
  8
ZUWAKU
  6
CONTINUOUS
 62
     3
 10
145.5
 20
-194.9999999999999
 30
0.0
 11
415.5
 21
-194.9999999999999
 31
0.0
  0
LINE
  5
1E6
  8
ZUWAKU
  6
CONTINUOUS
 62
     3
 10
338.9999999999999
 20
-263.9999999999999
 30
0.0
 11
338.9999999999999
 21
-221.9999999999999
 31
0.0
  0
LINE
  5
1E7
  8
ZUWAKU
  6
CONTINUOUS
 62
     4
 10
157.5
 20
-257.9999999999999
 30
0.0
 11
157.5
 21
-194.9999999999999
 31
0.0
  0
LINE
  5
1E8
  8
ZUWAKU
  6
CONTINUOUS
 62
     4
 10
163.5
 20
-257.9999999999999
 30
0.0
 11
163.5
 21
-194.9999999999999
 31
0.0
  0
LINE
  5
1E9
  8
ZUWAKU
  6
CONTINUOUS
 62
     4
 10
182.25
 20
-263.9999999999999
 30
0.0
 11
182.25
 21
-194.9999999999999
 31
0.0
  0
LINE
  5
1EA
  8
ZUWAKU
  6
CONTINUOUS
 62
     4
 10
145.5
 20
-205.4999999999999
 30
0.0
 11
219.0
 21
-205.4999999999999
 31
0.0
  0
LINE
  5
1EB
  8
ZUWAKU
  6
CONTINUOUS
 62
     4
 10
145.5
 20
-215.9999999999999
 30
0.0
 11
219.0
 21
-215.9999999999999
 31
0.0
  0
LINE
  5
1EC
  8
ZUWAKU
  6
CONTINUOUS
 62
     4
 10
145.5
 20
-247.4999999999999
 30
0.0
 11
219.0
 21
-247.4999999999999
 31
0.0
  0
LINE
  5
1ED
  8
ZUWAKU
  6
CONTINUOUS
 62
     4
 10
145.5
 20
-257.9999999999999
 30
0.0
 11
219.0
 21
-257.9999999999999
 31
0.0
  0
LINE
  5
1EE
  8
ZUWAKU
  6
CONTINUOUS
 62
     4
 10
382.5
 20
-248.9999999999999
 30
0.0
 11
415.5
 21
-248.9999999999999
 31
0.0
  0
LINE
  5
1EF
  8
ZUWAKU
  6
CONTINUOUS
 62
     4
 10
303.0
 20
-221.9999999999999
 30
0.0
 11
303.0
 21
-219.7499999999999
 31
0.0
  0
LINE
  5
1F0
  8
ZUWAKU
  6
CONTINUOUS
 62
     4
 10
339.0
 20
-221.9999999999999
 30
0.0
 11
339.0
 21
-219.7499999999999
 31
0.0
  0
LINE
  5
1F1
  8
ZUWAKU
  6
CONTINUOUS
 62
     4
 10
364.5
 20
-221.9999999999999
 30
0.0
 11
364.5
 21
-219.7499999999999
 31
0.0
  0
LINE
  5
1F2
  8
ZUWAKU
  6
CONTINUOUS
 62
     4
 10
303.0
 20
-209.2499999999999
 30
0.0
 11
303.0
 21
-194.9999999999999
 31
0.0
  0
LINE
  5
1F3
  8
ZUWAKU
  6
CONTINUOUS
 62
     4
 10
339.0
 20
-209.2499999999999
 30
0.0
 11
339.0
 21
-194.9999999999999
 31
0.0
  0
LINE
  5
1F4
  8
ZUWAKU
  6
CONTINUOUS
 62
     4
 10
364.5
 20
-209.2499999999999
 30
0.0
 11
364.5
 21
-194.9999999999999
 31
0.0
  0
LINE
  5
1F5
  8
ZUWAKU
  6
CONTINUOUS
 62
     4
 10
145.5
 20
-226.4999999999999
 30
0.0
 11
219.0
 21
-226.4999999999999
 31
0.0
  0
LINE
  5
1F6
  8
ZUWAKU
  6
CONTINUOUS
 62
     4
 10
145.5
 20
-236.9999999999999
 30
0.0
 11
219.0
 21
-236.9999999999999
 31
0.0
  0
LINE
  5
1F7
  8
ZUWAKU
  6
CONTINUOUS
 62
     4
 10
151.5
 20
-195.7499999999999
 30
0.0
 11
147.0
 21
-204.7499999999999
 31
0.0
  0
LINE
  5
1F8
  8
ZUWAKU
  6
CONTINUOUS
 62
     4
 10
151.5
 20
-195.7499999999999
 30
0.0
 11
156.0
 21
-204.7499999999999
 31
0.0
  0
LINE
  5
1F9
  8
ZUWAKU
  6
CONTINUOUS
 62
     4
 10
147.0
 20
-204.7499999999999
 30
0.0
 11
156.0
 21
-204.7499999999999
 31
0.0
  0
LINE
  5
1FA
  8
ZUWAKU
  6
CONTINUOUS
 62
     4
 10
151.5
 20
-237.7499999999999
 30
0.0
 11
147.0
 21
-246.7499999999999
 31
0.0
  0
LINE
  5
1FB
  8
ZUWAKU
  6
CONTINUOUS
 62
     4
 10
151.5
 20
-237.7499999999999
 30
0.0
 11
156.0
 21
-246.7499999999999
 31
0.0
  0
LINE
  5
1FC
  8
ZUWAKU
  6
CONTINUOUS
 62
     4
 10
147.0
 20
-246.7499999999999
 30
0.0
 11
156.0
 21
-246.7499999999999
 31
0.0
  0
LINE
  5
1FD
  8
ZUWAKU
  6
CONTINUOUS
 62
     4
 10
151.5
 20
-227.2499999999999
 30
0.0
 11
147.0
 21
-236.2499999999999
 31
0.0
  0
LINE
  5
1FE
  8
ZUWAKU
  6
CONTINUOUS
 62
     4
 10
151.5
 20
-227.2499999999999
 30
0.0
 11
156.0
 21
-236.2499999999999
 31
0.0
  0
LINE
  5
1FF
  8
ZUWAKU
  6
CONTINUOUS
 62
     4
 10
147.0
 20
-236.2499999999999
 30
0.0
 11
156.0
 21
-236.2499999999999
 31
0.0
  0
LINE
  5
200
  8
ZUWAKU
  6
CONTINUOUS
 62
     4
 10
151.5
 20
-216.7499999999999
 30
0.0
 11
147.0
 21
-225.7499999999999
 31
0.0
  0
LINE
  5
201
  8
ZUWAKU
  6
CONTINUOUS
 62
     4
 10
151.5
 20
-216.7499999999999
 30
0.0
 11
156.0
 21
-225.7499999999999
 31
0.0
  0
LINE
  5
202
  8
ZUWAKU
  6
CONTINUOUS
 62
     4
 10
147.0
 20
-225.7499999999999
 30
0.0
 11
156.0
 21
-225.7499999999999
 31
0.0
  0
LINE
  5
203
  8
ZUWAKU
  6
CONTINUOUS
 62
     4
 10
151.5
 20
-206.2499999999999
 30
0.0
 11
147.0
 21
-215.2499999999999
 31
0.0
  0
LINE
  5
204
  8
ZUWAKU
  6
CONTINUOUS
 62
     4
 10
151.5
 20
-206.2499999999999
 30
0.0
 11
156.0
 21
-215.2499999999999
 31
0.0
  0
LINE
  5
205
  8
ZUWAKU
  6
CONTINUOUS
 62
     4
 10
147.0
 20
-215.2499999999999
 30
0.0
 11
156.0
 21
-215.2499999999999
 31
0.0
  0
LINE
  5
206
  8
ZUWAKU
  6
CONTINUOUS
 62
     4
 10
258.9999999999999
 20
-263.9999999999999
 30
0.0
 11
258.9999999999999
 21
-242.9999999999999
 31
0.0
  0
LINE
  5
207
  8
ZUWAKU
  6
CONTINUOUS
 62
     4
 10
299.0
 20
-263.9999999999999
 30
0.0
 11
299.0
 21
-242.9264123635879
 31
0.0
  0
LINE
  5
208
  8
ZUWAKU
  6
CONTINUOUS
 62
     4
 10
318.9999999999999
 20
-251.2499999999999
 30
0.0
 11
318.9999999999999
 21
-242.9264123635879
 31
0.0
  0
LINE
  5
209
  8
ZUWAKU
  6
CONTINUOUS
 62
     4
 10
338.9999999999999
 20
-232.4999999999999
 30
0.0
 11
382.4999999999999
 21
-232.4999999999999
 31
0.0
  0
LINE
  5
20A
  8
ZUWAKU
  6
CONTINUOUS
 62
     4
 10
219.0
 20
-248.9999999999999
 30
0.0
 11
338.9999999999999
 21
-248.9999999999999
 31
0.0
  0
TEXT
  5
20C
  8
ZUWAKU
 62
     7
 10
222.4698452212121
 20
-196.2317830934339
 30
0.0
 40
3.998400000000001
  1
符号
 41
0.8
  7
FDASTYLE0
  0
TEXT
  5
20D
  8
ZUWAKU
 62
     7
 10
243.6211966828587
 20
-203.7368287529944
 30
0.0
 40
6.0
  1
品       名
 41
0.7659574468085104
  7
FDASTYLE1
 72
     5
 11
286.8211966828587
 21
-203.7368287529944
 31
0.0
  0
TEXT
  5
20E
  8
ZUWAKU
 62
     7
 10
310.8497346619644
 20
-203.7368287529944
 30
0.0
 40
6.0
  1
材  料
 41
0.7272727272727269
  7
FDASTYLE1
 72
     5
 11
330.0497346619644
 21
-203.7368287529944
 31
0.0
  0
TEXT
  5
20F
  8
ZUWAKU
 62
     7
 10
344.2740925272825
 20
-203.7368287529944
 30
0.0
 40
6.0
  1
個 数
 41
0.7058823529411754
  7
FDASTYLE1
 72
     5
 11
358.6740925272825
 21
-203.7368287529944
 31
0.0
  0
TEXT
  5
210
  8
ZUWAKU
 62
     7
 10
368.582716429332
 20
-200.3473620075858
 30
0.0
 40
3.75
  1
単重量
 41
0.6666666666666666
  7
FDASTYLE1
 72
     5
 11
377.582716429332
 21
-200.3473620075858
 31
0.0
  0
TEXT
  5
211
  8
ZUWAKU
 62
     7
 10
367.0634274354539
 20
-206.0446957346287
 30
0.0
 40
3.75
  1
(kg)
 41
0.8
  7
FDASTYLE1
 72
     5
 11
379.0634274354539
 21
-206.0446957346287
 31
0.0
  0
TEXT
  5
212
  8
ZUWAKU
 62
     7
 10
388.7132955982168
 20
-203.7368287529944
 30
0.0
 40
6.0
  1
記  事
 41
0.7272727272727269
  7
FDASTYLE1
 72
     5
 11
407.9132955982167
 21
-203.7368287529944
 31
0.0
  0
TEXT
  5
213
  8
ZUWAKU
 62
     7
 10
388.2676191827468
 20
-248.2309562996593
 30
0.0
 40
4.5
  1
コード番号
 41
0.6666666666666666
  7
FDASTYLE1
 72
     5
 11
406.2676191827468
 21
-248.2309562996593
 31
0.0
  0
TEXT
  5
214
  8
ZUWAKU
 62
     7
 10
152.8679880237475
 20
-262.7818515810507
 30
0.0
 40
3.75
  1
訂 正 来 歴
 41
0.717948717948718
  7
FDASTYLE1
 72
     5
 11
173.8679880237475
 21
-262.7818515810507
 31
0.0
  0
TEXT
  5
215
  8
ZUWAKU
 62
     7
 10
188.8355022701475
 20
-262.8250046087477
 30
0.0
 40
3.75
  1
工 事 番 号
 41
0.717948717948718
  7
FDASTYLE1
 72
     5
 11
209.8355022701475
 21
-262.8250046087477
 31
0.0
  0
TEXT
  5
216
  8
ZUWAKU
 62
     7
 10
149.9472567699043
 20
-248.9451795848872
 30
0.0
 40
3.12375
  1
記号
 41
0.8
  7
FDASTYLE0
  0
TEXT
  5
217
  8
ZUWAKU
 62
     7
 10
158.8563373601427
 20
-248.9451795848872
 30
0.0
 40
3.12375
  1
理由
 41
0.8
  7
FDASTYLE0
  0
TEXT
  5
218
  8
ZUWAKU
 62
     7
 10
167.4290501864765
 20
-254.8179070050267
 30
0.0
 40
4.5
  1
日 付
 41
0.7058823529411773
  7
FDASTYLE1
 72
     5
 11
178.2290501864765
 21
-254.8179070050267
 31
0.0
  0
TEXT
  5
219
  8
ZUWAKU
 62
     7
 10
230.1722534729479
 20
-248.5781867196366
 30
0.0
 40
4.5
  1
承   認
 41
0.7407407407407408
  7
FDASTYLE1
 72
     5
 11
248.1722534729479
 21
-248.5781867196366
 31
0.0
  0
TEXT
  5
21A
  8
ZUWAKU
 62
     7
 10
269.794842049851
 20
-248.2309562996593
 30
0.0
 40
4.5
  1
検   図
 41
0.7407407407407408
  7
FDASTYLE1
 72
     5
 11
287.794842049851
 21
-248.2309562996593
 31
0.0
  0
TEXT
  5
21B
  8
ZUWAKU
 62
     7
 10
302.2157881475626
 20
-248.2309562996593
 30
0.0
 40
4.5
  1
担  当
 41
0.7272727272727262
  7
FDASTYLE1
 72
     5
 11
316.6157881475626
 21
-248.2309562996593
 31
0.0
  0
TEXT
  5
21C
  8
ZUWAKU
 62
     7
 10
322.0155862261668
 20
-248.2309562996593
 30
0.0
 40
4.5
  1
製  図
 41
0.7272727272727262
  7
FDASTYLE1
 72
     5
 11
336.4155862261668
 21
-248.2309562996593
 31
0.0
  0
TEXT
  5
21D
  8
ZUWAKU
 62
     7
 10
340.4193558456298
 20
-229.8277440408625
 30
0.0
 40
4.5
  1
作図
 41
0.6666666666666656
  7
FDASTYLE1
 72
     5
 11
347.6193558456298
 21
-229.8277440408625
 31
0.0
  0
TEXT
  5
21E
  8
ZUWAKU
 62
     7
 10
342.1555079455163
 20
-240.3557349602723
 30
0.0
 40
6.0
  1
第 三 角 法
 41
0.7179487179487185
  7
FDASTYLE1
 72
     5
 11
375.7555079455163
 21
-240.3557349602723
 31
0.0
  0
TEXT
  5
21F
  8
ZUWAKU
 62
     7
 10
341.1138166855845
 20
-249.6198779795685
 30
0.0
 40
4.5
  1
尺度
 41
0.6666666666666656
  7
FDASTYLE1
 72
     5
 11
348.3138166855845
 21
-249.6198779795685
 31
0.0
  0
TEXT
  5
221
  8
ZUWAKU
 62
     3
 10
158.068731555051
 20
-278.8908115777525
 30
0.0
 40
10.5
  1
株式会社 野村製作所
 41
0.576373864128083
  7
FDASTYLE2
 72
     5
 11
242.068731555051
 21
-278.8908115777525
 31
0.0
  0
TEXT
  5
223
  8
ZUWAKU
 62
     3
 10
271.1828628140727
 20
-280.2616115407943
 30
0.0
 40
12.0
  1
２－
 41
0.8244023083264632
  7
FDASTYLE3
 72
     5
 11
295.1828628140727
 21
-280.2616115407943
 31
0.0
  0
TEXT
  5
224
  8
ZUWAKU
 62
     3
 10
296.5507992506829
 20
-279.3616115407942
 30
0.0
 40
10.2
  1
C712025
 41
1.564945226917057
  7
FDASTYLE3
 72
     5
 11
367.9507992506829
 21
-279.3616115407942
 31
0.0
  0
TEXT
  5
225
  8
ZUWAKU
 62
     6
 10
245.8029343811002
 20
-218.0383500342842
 30
0.0
 40
7.5
  1
外　形 図
 41
0.6034482758620683
  7
FDASTYLE1
 72
     5
 11
272.0529343811002
 21
-218.0383500342842
 31
0.0
  0
TEXT
  5
226
  8
ZUWAKU
 62
     6
 10
244.7694158389336
 20
-236.8793270847743
 30
0.0
 40
7.5
  1
MAC3-315A8型ﾁｬｯｸ
 41
0.6907894736842105
  7
FDASTYLE1
 72
     5
 11
323.5194158389336
 21
-236.8793270847743
 31
0.0
  0
TEXT
  5
227
  8
ZUWAKU
 62
     4
 10
355.0493489588106
 20
-257.2107194981232
 30
0.0
 40
5.985
  1
1/1.5
 41
0.6999999999999997
  7
FDASTYLE1
 72
     5
 11
375.9968489588106
 21
-257.2107194981232
 31
0.0
  0
LINE
  5
228
  8
0
  6
CONTINUOUS
 62
     3
 10
-261.9083709513583
 20
166.5459186182716
 30
0.0
 11
-261.9083709513583
 21
-16.15407898742593
 31
0.0
  0
LINE
  5
229
  8
0
  6
CONTINUOUS
 62
     3
 10
-108.9083672418755
 20
131.1452374897929
 30
0.0
 11
-108.9083672418755
 21
-68.45408171895414
 31
0.0
  0
LINE
  5
22A
  8
0
  6
CONTINUOUS
 62
     3
 10
-259.1083724351512
 20
219.0459177752073
 30
0.0
 11
-160.9083658929725
 21
219.0459177752073
 31
0.0
  0
LINE
  5
22B
  8
0
  6
CONTINUOUS
 62
     3
 10
-259.1083724351512
 20
-95.95407716640712
 30
0.0
 11
-198.9083719630352
 21
-95.95407716640712
 31
0.0
  0
LINE
  5
22C
  8
0
  6
CONTINUOUS
 62
     3
 10
-261.9083709513583
 20
-43.45407800947138
 30
0.0
 11
-261.1083744585054
 21
-43.45407800947138
 31
0.0
  0
LINE
  5
22D
  8
0
  6
CONTINUOUS
 62
     3
 10
-261.9083709513583
 20
166.5459186182716
 30
0.0
 11
-261.1083744585054
 21
166.5459186182716
 31
0.0
  0
LINE
  5
22E
  8
0
  6
CONTINUOUS
 62
     3
 10
-261.1083744585054
 20
217.0459157518531
 30
0.0
 11
-261.1083744585054
 21
166.5459186182716
 31
0.0
  0
LINE
  5
22F
  8
0
  6
CONTINUOUS
 62
     3
 10
-261.1083744585054
 20
-43.45407800947138
 30
0.0
 11
-261.1083744585054
 21
-93.95407514305289
 31
0.0
  0
LINE
  5
230
  8
0
  6
CONTINUOUS
 62
     3
 10
-261.108358349741
 20
-93.95405994207077
 30
0.0
 11
-259.1083615859828
 21
-95.95405670582885
 31
0.0
  0
LINE
  5
231
  8
0
  6
CONTINUOUS
 62
     3
 10
-261.1083669341057
 20
217.0459013318288
 30
0.0
 11
-259.1083644474378
 21
219.0459038184968
 31
0.0
  0
LINE
  5
232
  8
0
  6
CONTINUOUS
 62
     3
 10
-196.9083699396809
 20
-70.45408374230837
 30
0.0
 11
-196.9083699396809
 21
-93.95407514305289
 31
0.0
  0
LINE
  5
233
  8
0
  6
CONTINUOUS
 62
     3
 10
-196.9083699396809
 20
-70.45408374230837
 30
0.0
 11
-110.9083692652297
 21
-70.45408374230837
 31
0.0
  0
LINE
  5
234
  8
0
  6
CONTINUOUS
 62
     3
 10
-108.9083663639366
 20
-68.45408308160735
 30
0.0
 11
-110.9083707582412
 21
-70.45408747591195
 31
0.0
  0
LINE
  5
235
  8
0
  6
CONTINUOUS
 62
     3
 10
-196.9083660882205
 20
-93.95408283371032
 30
0.0
 11
-198.9083628519787
 21
-95.95407959746839
 31
0.0
  0
LINE
  5
236
  8
0
  6
CONTINUOUS
 62
     3
 10
-160.9083658929725
 20
217.0491315361743
 30
0.0
 11
-138.9083652185212
 21
217.0491315361743
 31
0.0
  0
LINE
  5
237
  8
0
  6
CONTINUOUS
 62
     3
 10
-261.9083709513583
 20
-15.65407848158738
 30
0.0
 11
-218.9298124279215
 21
-15.65407848158738
 31
0.0
  0
LINE
  5
238
  8
0
  6
CONTINUOUS
 62
     3
 10
-261.9083709513583
 20
-32.65407949326449
 30
0.0
 11
-215.2044254366433
 21
-32.65407949326449
 31
0.0
  0
LINE
  5
239
  8
0
  6
CONTINUOUS
 62
     3
 10
-160.9083658929725
 20
219.0459177752073
 30
0.0
 11
-160.9083658929725
 21
198.0459396948781
 31
0.0
  0
LINE
  5
23A
  8
0
  6
CONTINUOUS
 62
     3
 10
-138.9083652185212
 20
217.0459157518531
 30
0.0
 11
-138.9083652185212
 21
215.0459137284989
 31
0.0
  0
LINE
  5
23B
  8
0
  6
CONTINUOUS
 62
     3
 10
-123.9083716258096
 20
217.0491315361743
 30
0.0
 11
-123.9083716258096
 21
215.0459137284989
 31
0.0
  0
LINE
  5
23C
  8
0
  6
CONTINUOUS
 62
     3
 10
-241.9083723002608
 20
123.0459177752073
 30
0.0
 11
-190.9083638696183
 21
123.0459177752073
 31
0.0
  0
LINE
  5
23D
  8
0
  6
CONTINUOUS
 62
     3
 10
-241.9083723002608
 20
0.0459224963671687
 30
0.0
 11
-199.9083513922673
 21
0.0459224963671687
 31
0.0
  0
LINE
  5
23E
  8
0
  6
CONTINUOUS
 62
     3
 10
-123.9083716258096
 20
217.0491315361743
 30
0.0
 11
-110.9083692652297
 21
217.0491315361743
 31
0.0
  0
LINE
  5
23F
  8
0
  6
CONTINUOUS
 62
     3
 10
-123.9083716258096
 20
-13.13605865743709
 30
0.0
 11
-108.9083672418755
 21
-13.13605865743709
 31
0.0
  0
LINE
  5
240
  8
0
  6
CONTINUOUS
 62
     3
 10
-261.9083495326614
 20
131.4054280967607
 30
0.0
 11
-241.9083632496294
 21
128.9054356680563
 31
0.0
  0
LINE
  5
241
  8
0
  6
CONTINUOUS
 62
     3
 10
-261.9083709513583
 20
-8.313578127076582
 30
0.0
 11
-241.9083524988872
 21
-5.813581677201711
 31
0.0
  0
LINE
  5
242
  8
0
  6
CONTINUOUS
 62
     3
 10
-241.9083723002608
 20
128.9059293150709
 30
0.0
 11
-241.9083723002608
 21
-5.814086682916511
 31
0.0
  0
LINE
  5
243
  8
0
  6
CONTINUOUS
 62
     3
 10
-228.9083591484585
 20
122.0459167635302
 30
0.0
 11
-228.9083591484585
 21
1.045922833592883
 31
0.0
  0
LINE
  5
244
  8
0
  6
CONTINUOUS
 62
     3
 10
-158.4083525725572
 20
122.0459177752073
 30
0.0
 11
-158.4083525725572
 21
114.0459194613358
 31
0.0
  0
LINE
  5
245
  8
0
  6
CONTINUOUS
 62
     3
 10
-228.9083474330929
 20
1.045929976798831
 30
0.0
 11
-227.9083409149019
 21
0.0459244701385018
 31
0.0
  0
LINE
  5
246
  8
0
  6
CONTINUOUS
 62
     3
 10
-228.9083524610823
 20
122.0459262878479
 30
0.0
 11
-227.90835026393
 21
123.0459284850002
 31
0.0
  0
LINE
  5
247
  8
0
  6
CONTINUOUS
 62
     3
 10
-190.9083638696183
 20
123.0459177752073
 30
0.0
 11
-159.4083525725572
 21
123.0459177752073
 31
0.0
  0
LINE
  5
248
  8
0
  6
CONTINUOUS
 62
     3
 10
-158.4083525725572
 20
1.045922496367169
 30
0.0
 11
-158.4083525725572
 21
9.045921147464355
 31
0.0
  0
LINE
  5
249
  8
0
  6
CONTINUOUS
 62
     3
 10
-158.4083525725572
 20
9.045921147464355
 30
0.0
 11
-109.4083677477139
 21
9.045921147464355
 31
0.0
  0
LINE
  5
24A
  8
0
  6
CONTINUOUS
 62
     3
 10
-158.4083525725572
 20
114.0459194613358
 30
0.0
 11
-109.4083677477139
 21
114.0459194613358
 31
0.0
  0
LINE
  5
24B
  8
0
  6
CONTINUOUS
 62
     3
 10
-203.9083554389757
 20
15.04592182191577
 30
0.0
 11
-124.9083716258096
 21
15.04592182191577
 31
0.0
  0
LINE
  5
24C
  8
0
  6
CONTINUOUS
 62
     3
 10
-203.9083554389757
 20
108.0459133912732
 30
0.0
 11
-124.9083716258096
 21
108.0459133912732
 31
0.0
  0
LINE
  5
24D
  8
0
  6
CONTINUOUS
 62
     3
 10
-123.9083716258096
 20
5.045921484690055
 30
0.0
 11
-123.9083716258096
 21
-13.13605865743709
 31
0.0
  0
LINE
  5
24E
  8
0
  6
CONTINUOUS
 62
     3
 10
-124.9083716258096
 20
114.0459194613358
 30
0.0
 11
-124.9083716258096
 21
9.045921147464355
 31
0.0
  0
LINE
  5
24F
  8
0
  6
CONTINUOUS
 62
     3
 10
-203.9083554389757
 20
116.5459219905286
 30
0.0
 11
-203.9083554389757
 21
6.545917943820157
 31
0.0
  0
LINE
  5
250
  8
0
  6
CONTINUOUS
 62
     3
 10
-206.9083584740071
 20
116.5459219905286
 30
0.0
 11
-206.9083584740071
 21
6.545917943820157
 31
0.0
  0
LINE
  5
251
  8
0
  6
CONTINUOUS
 62
     3
 10
-206.4083579681686
 20
117.0459224963672
 30
0.0
 11
-204.4083559448144
 21
117.0459224963672
 31
0.0
  0
LINE
  5
252
  8
0
  6
CONTINUOUS
 62
     3
 10
-206.4083579681686
 20
6.045918112433014
 30
0.0
 11
-204.4083559448144
 21
6.045918112433014
 31
0.0
  0
LINE
  5
253
  8
0
  6
CONTINUOUS
 62
     3
 10
-227.9083581367812
 20
7.34592050673551
 30
0.0
 11
-206.9083584740071
 21
7.34592050673551
 31
0.0
  0
LINE
  5
254
  8
0
  6
CONTINUOUS
 62
     3
 10
-227.9083581367812
 20
115.7459254976759
 30
0.0
 11
-206.9083584740071
 21
115.7459254976759
 31
0.0
  0
LINE
  5
255
  8
0
  6
CONTINUOUS
 62
     3
 10
-227.9083581367812
 20
115.7459254976759
 30
0.0
 11
-227.9083581367812
 21
102.5459186182716
 31
0.0
  0
LINE
  5
256
  8
0
  6
CONTINUOUS
 62
     3
 10
-227.9083388181103
 20
115.7459181686983
 30
0.0
 11
-228.9083371999894
 21
116.7459165505774
 31
0.0
  0
LINE
  5
257
  8
0
  6
CONTINUOUS
 62
     3
 10
-227.9083497836708
 20
7.345920118902285
 30
0.0
 11
-228.9083518744668
 21
6.345925445939983
 31
0.0
  0
LINE
  5
258
  8
0
  6
CONTINUOUS
 62
     3
 10
-227.9083581367812
 20
20.54591929272297
 30
0.0
 11
-227.9083581367812
 21
7.34592050673551
 31
0.0
  0
LINE
  5
259
  8
0
  6
CONTINUOUS
 62
     3
 10
-199.9083513922673
 20
0.0459224963671687
 30
0.0
 11
-143.4083682535526
 21
0.0459224963671687
 31
0.0
  0
LINE
  5
25A
  8
0
  6
CONTINUOUS
 62
     3
 10
-139.4083657243597
 20
123.5459290722684
 30
0.0
 11
-123.9083716258096
 21
123.5459290722684
 31
0.0
  0
LINE
  5
25B
  8
0
  6
CONTINUOUS
 62
     3
 10
-160.9083815456339
 20
135.9589774798866
 30
0.0
 11
-139.408363130901
 21
123.5459374319753
 31
0.0
  0
LINE
  5
25C
  8
0
  6
CONTINUOUS
 62
     3
 10
-160.9083658929725
 20
215.0459137284989
 30
0.0
 11
-106.9083652185212
 21
215.0459137284989
 31
0.0
  0
LINE
  5
25D
  8
0
  6
CONTINUOUS
 62
     3
 10
-110.9083640815128
 20
217.0491261915498
 30
0.0
 11
-108.9083520566618
 21
215.0491141666986
 31
0.0
  0
LINE
  5
25E
  8
0
  6
CONTINUOUS
 62
     3
 10
-123.9083716258096
 20
132.5459273861399
 30
0.0
 11
-106.9083652185212
 21
132.5459273861399
 31
0.0
  0
LINE
  5
25F
  8
0
  6
CONTINUOUS
 62
     3
 10
-123.9083716258096
 20
132.5459273861399
 30
0.0
 11
-123.9083716258096
 21
118.0459245197214
 31
0.0
  0
LINE
  5
260
  8
0
  6
CONTINUOUS
 62
     3
 10
-118.908366567424
 20
215.0459137284989
 30
0.0
 11
-118.908366567424
 21
202.545901082535
 31
0.0
  0
LINE
  5
261
  8
0
  6
CONTINUOUS
 62
     3
 10
-130.4083674104883
 20
215.0459137284989
 30
0.0
 11
-130.4083674104883
 21
133.545928397817
 31
0.0
  0
LINE
  5
262
  8
0
  6
CONTINUOUS
 62
     3
 10
-130.4083674104883
 20
133.545928397817
 30
0.0
 11
-123.3083688605588
 21
133.545928397817
 31
0.0
  0
LINE
  5
263
  8
0
  6
CONTINUOUS
 62
     3
 10
-123.3083688605588
 20
133.545928397817
 30
0.0
 11
-123.3083688605588
 21
132.5459273861399
 31
0.0
  0
LINE
  5
264
  8
0
  6
CONTINUOUS
 62
     3
 10
-104.4083680849398
 20
202.545901082535
 30
0.0
 11
-104.4083680849398
 21
197.0459171007558
 31
0.0
  0
LINE
  5
265
  8
0
  6
CONTINUOUS
 62
     3
 10
-129.7083623858251
 20
202.545901082535
 30
0.0
 11
-129.7083623858251
 21
167.5459088387261
 31
0.0
  0
LINE
  5
266
  8
0
  6
CONTINUOUS
 62
     3
 10
-129.7083623858251
 20
142.5459051292434
 30
0.0
 11
-104.4083680849398
 21
142.5459051292434
 31
0.0
  0
LINE
  5
267
  8
0
  6
CONTINUOUS
 62
     3
 10
-129.7083623858251
 20
202.545901082535
 30
0.0
 11
-104.4083680849398
 21
202.545901082535
 31
0.0
  0
LINE
  5
268
  8
0
  6
CONTINUOUS
 62
     3
 10
-129.7083623858251
 20
182.0459019255991
 30
0.0
 11
-93.90835746232996
 21
182.0459019255991
 31
0.0
  0
LINE
  5
269
  8
0
  6
CONTINUOUS
 62
     3
 10
-129.7083623858251
 20
198.045918112433
 30
0.0
 11
-93.90835746232996
 21
198.045918112433
 31
0.0
  0
LINE
  5
26A
  8
0
  6
CONTINUOUS
 62
     3
 10
-129.7083623858251
 20
147.0458988905678
 30
0.0
 11
-93.90835746232996
 21
147.0458988905678
 31
0.0
  0
LINE
  5
26B
  8
0
  6
CONTINUOUS
 62
     3
 10
-129.7083623858251
 20
163.0459042861791
 30
0.0
 11
-93.90835746232996
 21
163.0459042861791
 31
0.0
  0
LINE
  5
26C
  8
0
  6
CONTINUOUS
 62
     3
 10
-129.7083623858251
 20
167.5459088387261
 30
0.0
 11
-129.7083623858251
 21
142.5459051292434
 31
0.0
  0
LINE
  5
26D
  8
0
  6
CONTINUOUS
 62
     3
 10
-118.908366567424
 20
142.5459051292434
 30
0.0
 11
-118.908366567424
 21
132.5459273861399
 31
0.0
  0
LINE
  5
26E
  8
0
  6
CONTINUOUS
 62
     3
 10
-104.4083680849398
 20
148.0459106934675
 30
0.0
 11
-104.4083680849398
 21
142.5459051292434
 31
0.0
  0
LINE
  5
26F
  8
0
  6
CONTINUOUS
 62
     3
 10
-104.4083680849398
 20
167.5459088387261
 30
0.0
 11
-104.4083680849398
 21
162.045903274502
 31
0.0
  0
LINE
  5
270
  8
0
  6
CONTINUOUS
 62
     3
 10
-104.4083680849398
 20
183.0459029372763
 30
0.0
 11
-104.4083680849398
 21
167.5459088387261
 31
0.0
  0
LINE
  5
271
  8
0
  6
CONTINUOUS
 62
     3
 10
-93.90835746232996
 20
167.0459083328876
 30
0.0
 11
-93.90835746232996
 21
143.0459056350819
 31
0.0
  0
LINE
  5
272
  8
0
  6
CONTINUOUS
 62
     3
 10
-93.90835746232996
 20
202.0459005766964
 30
0.0
 11
-93.90835746232996
 21
178.0459194613358
 31
0.0
  0
LINE
  5
273
  8
0
  6
CONTINUOUS
 62
     3
 10
-123.9083608345869
 20
163.0459042861791
 30
0.0
 11
-123.9083608345869
 21
147.0459096817904
 31
0.0
  0
LINE
  5
274
  8
0
  6
CONTINUOUS
 62
     3
 10
-123.9083608345869
 20
198.045918112433
 30
0.0
 11
-123.9083608345869
 21
182.0459019255991
 31
0.0
  0
LINE
  5
275
  8
0
  6
CONTINUOUS
 62
     3
 10
-109.4083677477139
 20
131.6962696870916
 30
0.0
 11
-109.4083677477139
 21
-13.13605865743709
 31
0.0
  0
LINE
  5
276
  8
0
  6
CONTINUOUS
 62
     3
 10
-141.9083682535526
 20
9.045921147464355
 30
0.0
 11
-141.9083682535526
 21
5.045921484690055
 31
0.0
  0
LINE
  5
277
  8
0
  6
CONTINUOUS
 62
     3
 10
-141.9083682535526
 20
118.0459245197214
 30
0.0
 11
-141.9083682535526
 21
114.0459194613358
 31
0.0
  0
LINE
  5
278
  8
0
  6
CONTINUOUS
 62
     3
 10
-141.9083682535526
 20
5.045921484690055
 30
0.0
 11
-123.9083716258096
 21
5.045921484690055
 31
0.0
  0
LINE
  5
279
  8
0
  6
CONTINUOUS
 62
     3
 10
-141.9083682535526
 20
118.0459245197214
 30
0.0
 11
-123.9083716258096
 21
118.0459245197214
 31
0.0
  0
LINE
  5
27A
  8
0
  6
CONTINUOUS
 62
     3
 10
-123.9083716258096
 20
128.2959122952896
 30
0.0
 11
-122.408370108294
 21
128.2959122952896
 31
0.0
  0
LINE
  5
27B
  8
0
  6
CONTINUOUS
 62
     3
 10
-122.4083614839505
 20
128.2959335452642
 30
0.0
 11
-109.4083594775976
 21
120.7903797166588
 31
0.0
  0
LINE
  5
27C
  8
0
  6
CONTINUOUS
 62
     3
 10
-285.9083736491638
 20
-16.15407898742593
 30
0.0
 11
-218.8006832610301
 21
-16.15407898742593
 31
0.0
  0
LINE
  5
27D
  8
0
  6
CONTINUOUS
 62
     3
 10
-285.9083736491638
 20
-32.15407898742593
 30
0.0
 11
-214.9833195782192
 21
-32.15407898742593
 31
0.0
  0
LINE
  5
27E
  8
0
  6
CONTINUOUS
 62
     3
 10
-285.9083736491638
 20
-16.15407898742593
 30
0.0
 11
-285.9083736491638
 21
-32.15407898742593
 31
0.0
  0
LINE
  5
27F
  8
0
  6
CONTINUOUS
 62
     3
 10
-241.9083723002608
 20
-16.15407898742593
 30
0.0
 11
-241.9083723002608
 21
-32.15407898742593
 31
0.0
  0
LINE
  5
280
  8
0
  6
CONTINUOUS
 62
     3
 10
-261.9083709513583
 20
-32.15407898742593
 30
0.0
 11
-261.9083709513583
 21
-43.45407800947138
 31
0.0
  0
LINE
  5
281
  8
0
  6
CONTINUOUS
 62
     3
 10
-204.9083780330979
 20
-67.99551950772472
 30
0.0
 11
-204.9083780330979
 21
-95.95407716640712
 31
0.0
  0
LINE
  5
282
  8
0
  6
CONTINUOUS
 62
     3
 10
-218.9083706141324
 20
-67.99552490333601
 30
0.0
 11
-218.9083706141324
 21
-95.95407716640712
 31
0.0
  0
LINE
  5
283
  8
0
  6
CONTINUOUS
 62
     3
 10
-211.9083749048467
 20
-63.95408088157551
 30
0.0
 11
-204.9083817322108
 21
-67.99552837761533
 31
0.0
  0
LINE
  5
284
  8
0
  6
CONTINUOUS
 62
     3
 10
-218.9083817679533
 20
-67.99553152040056
 30
0.0
 11
-211.9083979407911
 21
-63.95408941997169
 31
0.0
  0
LINE
  5
285
  8
0
  6
CONTINUOUS
 62
     3
 10
-204.9083780330979
 20
-67.99545476038939
 30
0.0
 11
-218.9083706141324
 21
-67.99545476038939
 31
0.0
  0
ARC
  5
286
  8
0
  6
CONTINUOUS
 62
     3
 10
-206.4083579681686
 20
6.545918618271571
 30
0.0
 40
0.5
 50
179.9999776881997
 51
270.000028004002
  0
ARC
  5
287
  8
0
  6
CONTINUOUS
 62
     3
 10
-206.4083579681686
 20
116.5459219905286
 30
0.0
 40
0.5
 50
89.99998201391065
 51
179.9999640278213
  0
ARC
  5
288
  8
0
  6
CONTINUOUS
 62
     3
 10
-204.4083559448144
 20
116.5459219905286
 30
0.0
 40
0.5
 50
0.0
 51
89.99998201391065
  0
ARC
  5
289
  8
0
  6
CONTINUOUS
 62
     3
 10
-204.4083559448144
 20
6.545918618271571
 30
0.0
 40
0.5
 50
270.0000179860894
 51
360.0
  0
LINE
  5
28A
  8
0
  6
CONTINUOUS
 62
     3
 10
104.800676550779
 20
-37.85632163760549
 30
0.0
 11
188.1584204214692
 21
10.27028890805634
 31
0.0
  0
LINE
  5
28B
  8
0
  6
CONTINUOUS
 62
     3
 10
79.80067568031524
 20
5.444954843312047
 30
0.0
 11
163.1584102055322
 21
53.57155999336293
 31
0.0
  0
LINE
  5
28C
  8
0
  6
CONTINUOUS
 62
     3
 10
201.9704093214933
 20
217.0491315361743
 30
0.0
 11
201.9704093214933
 21
120.7959262901563
 31
0.0
  0
LINE
  5
28D
  8
0
  6
CONTINUOUS
 62
     3
 10
251.9704275316813
 20
217.0491315361743
 30
0.0
 11
251.9704275316813
 21
120.7959262901563
 31
0.0
  0
LINE
  5
28E
  8
0
  6
CONTINUOUS
 62
     3
 10
290.7824517156337
 20
53.57157245730186
 30
0.0
 11
374.1401862408507
 21
5.444967307250977
 31
0.0
  0
LINE
  5
28F
  8
0
  6
CONTINUOUS
 62
     3
 10
265.7824441006565
 20
10.27028429454263
 30
0.0
 11
349.1401786258733
 21
-37.85632085550824
 31
0.0
  0
LINE
  5
290
  8
0
  6
CONTINUOUS
 62
     3
 10
71.72493095984197
 20
52.65287163478122
 30
0.0
 11
157.0492925703912
 21
200.438980797655
 31
0.0
  0
LINE
  5
291
  8
0
  6
CONTINUOUS
 62
     3
 10
296.8915708473447
 20
200.4389906373294
 30
0.0
 11
382.2159135732521
 21
52.65291418361001
 31
0.0
  0
LINE
  5
292
  8
0
  6
CONTINUOUS
 62
     3
 10
141.6460508006599
 20
-68.45408171895414
 30
0.0
 11
312.2947860525151
 21
-68.45408171895414
 31
0.0
  0
LINE
  5
293
  8
0
  6
CONTINUOUS
 62
     3
 10
-77.90836825355258
 20
202.0459005766964
 30
0.0
 11
-77.90836825355258
 21
178.0459194613358
 31
0.0
  0
LINE
  5
294
  8
0
  6
CONTINUOUS
 62
     3
 10
-77.90836825355258
 20
167.0459083328876
 30
0.0
 11
-77.90836825355258
 21
143.0459056350819
 31
0.0
  0
LINE
  5
295
  8
0
  6
CONTINUOUS
 62
     3
 10
201.9704093214933
 20
132.5459165949173
 30
0.0
 11
251.9704275316813
 21
132.5459165949173
 31
0.0
  0
LINE
  5
296
  8
0
  6
CONTINUOUS
 62
     3
 10
275.9582353899573
 20
4.395287420524085
 30
0.0
 11
300.9582420796729
 21
47.69656325757727
 31
0.0
  0
LINE
  5
297
  8
0
  6
CONTINUOUS
 62
     3
 10
152.9826219705793
 20
47.69656255938277
 30
0.0
 11
177.9826266369401
 21
4.395290226881841
 31
0.0
  0
LINE
  5
298
  8
0
  6
CONTINUOUS
 62
     3
 10
201.9704093214933
 20
128.2959122952896
 30
0.0
 11
251.9704275316813
 21
128.2959122952896
 31
0.0
  0
LINE
  5
299
  8
0
  6
CONTINUOUS
 62
     3
 10
156.6632215509108
 20
49.82156423964106
 30
0.0
 11
181.6632289150776
 21
6.520287234403781
 31
0.0
  0
LINE
  5
29A
  8
0
  6
CONTINUOUS
 62
     3
 10
272.2776331118199
 20
6.520284428046026
 30
0.0
 11
297.2776398015354
 21
49.82156026509922
 31
0.0
  0
LINE
  5
29B
  8
0
  6
CONTINUOUS
 62
     3
 10
201.9704093214933
 20
120.7959262901563
 30
0.0
 11
251.9704275316813
 21
120.7959262901563
 31
0.0
  0
LINE
  5
29C
  8
0
  6
CONTINUOUS
 62
     3
 10
163.1584132349886
 20
53.57155607574909
 30
0.0
 11
188.1584165524465
 21
10.27028607961633
 31
0.0
  0
LINE
  5
29D
  8
0
  6
CONTINUOUS
 62
     3
 10
265.7824361289782
 20
10.27028866887049
 30
0.0
 11
290.7824428186937
 21
53.57156450592369
 31
0.0
  0
LINE
  5
29E
  8
0
  6
CONTINUOUS
 62
     3
 10
216.4704131995891
 20
215.0459165949173
 30
0.0
 11
216.4704131995891
 21
195.8553862636572
 31
0.0
  0
LINE
  5
29F
  8
0
  6
CONTINUOUS
 62
     3
 10
237.4704128623635
 20
215.0459165949173
 30
0.0
 11
237.4704128623635
 21
195.8553862636572
 31
0.0
  0
LINE
  5
2A0
  8
0
  6
CONTINUOUS
 62
     3
 10
283.2082268779573
 20
16.95266724023873
 30
0.0
 11
297.6626649010751
 21
8.607394478608768
 31
0.0
  0
LINE
  5
2A1
  8
0
  6
CONTINUOUS
 62
     3
 10
293.7082393788315
 20
35.13918121625208
 30
0.0
 11
308.1626400200558
 21
26.79393003706593
 31
0.0
  0
LINE
  5
2A2
  8
0
  6
CONTINUOUS
 62
     3
 10
216.7204088999611
 20
142.5459159204659
 30
0.0
 11
237.2204279532135
 21
142.5459159204659
 31
0.0
  0
LINE
  5
2A3
  8
0
  6
CONTINUOUS
 62
     3
 10
291.8685008370617
 20
11.95265325411252
 30
0.0
 11
302.3685073157581
 21
30.1391954605963
 31
0.0
  0
LINE
  5
2A4
  8
0
  6
CONTINUOUS
 62
     3
 10
343.8300127272365
 20
-18.04731881664246
 30
0.0
 11
354.3300138103214
 21
0.1392140443686287
 31
0.0
  0
LINE
  5
2A5
  8
0
  6
CONTINUOUS
 62
     3
 10
151.5723667544181
 20
30.13919898982962
 30
0.0
 11
162.0723705353085
 21
11.9526614560822
 31
0.0
  0
LINE
  5
2A6
  8
0
  6
CONTINUOUS
 62
     3
 10
99.61083492124277
 20
0.1391967140298362
 30
0.0
 11
110.1108360043273
 21
-18.04733614698124
 31
0.0
  0
LINE
  5
2A7
  8
0
  6
CONTINUOUS
 62
     3
 10
125.9673063180449
 20
-8.89260138231181
 30
0.0
 11
146.2158910880244
 21
2.797923193753192
 31
0.0
  0
LINE
  5
2A8
  8
0
  6
CONTINUOUS
 62
     3
 10
115.4673071125063
 20
9.293932730396776
 30
0.0
 11
135.7159012279595
 21
20.98446270207275
 31
0.0
  0
LINE
  5
2A9
  8
0
  6
CONTINUOUS
 62
     3
 10
145.7782097609853
 20
26.79393860044203
 30
0.0
 11
160.2326197476828
 21
35.13919517523912
 31
0.0
  0
LINE
  5
2AA
  8
0
  6
CONTINUOUS
 62
     3
 10
156.2781996210502
 20
8.607399092122492
 30
0.0
 11
170.7326282986947
 21
16.95266645814148
 31
0.0
  0
LINE
  5
2AB
  8
0
  6
CONTINUOUS
 62
     3
 10
318.224985934975
 20
20.98443255625281
 30
0.0
 11
338.4735239775883
 21
9.293934958242588
 31
0.0
  0
LINE
  5
2AC
  8
0
  6
CONTINUOUS
 62
     3
 10
307.7249360522074
 20
2.797940162683304
 30
0.0
 11
327.9735488586076
 21
-8.892600600214564
 31
0.0
  0
LINE
  5
2AD
  8
0
  6
CONTINUOUS
 62
     3
 10
216.4704131995891
 20
202.545901082535
 30
0.0
 11
237.4704128623635
 21
202.545901082535
 31
0.0
  0
LINE
  5
2AE
  8
0
  6
CONTINUOUS
 62
     3
 10
216.4704131995891
 20
149.2364415305663
 30
0.0
 11
216.4704131995891
 21
132.5459165949173
 31
0.0
  0
LINE
  5
2AF
  8
0
  6
CONTINUOUS
 62
     3
 10
237.4704128623635
 20
149.2364415305663
 30
0.0
 11
237.4704128623635
 21
132.5459165949173
 31
0.0
  0
LINE
  5
2B0
  8
0
  6
CONTINUOUS
 62
     3
 10
237.4704128623635
 20
184.236433774375
 30
0.0
 11
237.4704128623635
 21
160.8553940198484
 31
0.0
  0
LINE
  5
2B1
  8
0
  6
CONTINUOUS
 62
     3
 10
216.4704131995891
 20
184.236433774375
 30
0.0
 11
216.4704131995891
 21
160.8553940198484
 31
0.0
  0
CIRCLE
  5
2B2
  8
0
  6
CONTINUOUS
 62
     3
 10
226.9704238221989
 20
61.54591490878882
 30
0.0
 40
157.4999974708072
  0
CIRCLE
  5
2B3
  8
0
  6
CONTINUOUS
 62
     3
 10
226.9704238221989
 20
-24.15408573194003
 30
0.0
 40
12.9999996627743
  0
CIRCLE
  5
2B4
  8
0
  6
CONTINUOUS
 62
     3
 10
152.7520425258154
 20
104.3959118568962
 30
0.0
 40
12.9999996627743
  0
CIRCLE
  5
2B5
  8
0
  6
CONTINUOUS
 62
     3
 10
301.188805118582
 20
104.3959118568962
 30
0.0
 40
12.9999996627743
  0
CIRCLE
  5
2B6
  8
0
  6
CONTINUOUS
 62
     3
 10
301.188805118582
 20
104.3959118568962
 30
0.0
 40
8.499999831387148
  0
CIRCLE
  5
2B7
  8
0
  6
CONTINUOUS
 62
     3
 10
152.7520425258154
 20
104.3959118568962
 30
0.0
 40
8.499999831387148
  0
ARC
  5
2B8
  8
0
  6
CONTINUOUS
 62
     3
 10
226.9704238221989
 20
61.54591490878882
 30
0.0
 40
155.499995447453
 50
339.2516970091786
 51
356.7214746205612
  0
ARC
  5
2B9
  8
0
  6
CONTINUOUS
 62
     3
 10
226.9704238221989
 20
61.54591490878882
 30
0.0
 40
75.0000003372257
 50
35.27827881785812
 51
70.52877925636179
  0
ARC
  5
2BA
  8
0
  6
CONTINUOUS
 62
     3
 10
226.9704238221989
 20
61.54591490878882
 30
0.0
 40
155.499995447453
 50
99.25171230131387
 51
116.7214852169414
  0
ARC
  5
2BB
  8
0
  6
CONTINUOUS
 62
     3
 10
226.9704238221989
 20
61.54591490878882
 30
0.0
 40
155.499995447453
 50
219.2516714717596
 51
236.721437557198
  0
ARC
  5
2BC
  8
0
  6
CONTINUOUS
 62
     3
 10
226.9704238221989
 20
61.54591490878882
 30
0.0
 40
155.499995447453
 50
183.2785131134065
 51
200.7482791988448
  0
ARC
  5
2BD
  8
0
  6
CONTINUOUS
 62
     3
 10
226.9704238221989
 20
61.54591490878882
 30
0.0
 40
155.499995447453
 50
303.2785403583728
 51
320.7483098589057
  0
ARC
  5
2BE
  8
0
  6
CONTINUOUS
 62
     3
 10
226.9704238221989
 20
61.54591490878882
 30
0.0
 40
155.499995447453
 50
63.27853345239326
 51
80.74830636802079
  0
ARC
  5
2BF
  8
0
  6
CONTINUOUS
 62
     3
 10
226.9704238221989
 20
61.54591490878882
 30
0.0
 40
75.0000003372257
 50
155.2782992326353
 51
190.528741614531
  0
ARC
  5
2C0
  8
0
  6
CONTINUOUS
 62
     3
 10
226.9704238221989
 20
61.54591490878882
 30
0.0
 40
75.0000003372257
 50
275.2782925540268
 51
310.5287793321522
  0
ARC
  5
2C1
  8
0
  6
CONTINUOUS
 62
     3
 10
226.9704238221989
 20
61.54591490878882
 30
0.0
 40
75.0000003372257
 50
229.4711917532294
 51
264.7217024370169
  0
ARC
  5
2C2
  8
0
  6
CONTINUOUS
 62
     3
 10
226.9704238221989
 20
61.54591490878882
 30
0.0
 40
75.0000003372257
 50
109.4712394129729
 51
144.7217227760037
  0
ARC
  5
2C3
  8
0
  6
CONTINUOUS
 62
     3
 10
226.9704238221989
 20
61.54591490878882
 30
0.0
 40
75.0000003372257
 50
349.4712309510268
 51
384.7217091914156
  0
CIRCLE
  5
2C4
  8
0
  6
CONTINUOUS
 62
     3
 10
226.9704238221989
 20
61.54591490878882
 30
0.0
 40
52.49999915693574
  0
CIRCLE
  5
2C5
  8
0
  6
CONTINUOUS
 62
     3
 10
210.0177585082566
 20
-1.722226906760199
 30
0.0
 40
5.0
  0
CIRCLE
  5
2C6
  8
0
  6
CONTINUOUS
 62
     3
 10
243.9230675536956
 20
-1.722226063695928
 30
0.0
 40
5.0
  0
CIRCLE
  5
2C7
  8
0
  6
CONTINUOUS
 62
     3
 10
290.238563108555
 20
78.49856403589693
 30
0.0
 40
5.0
  0
CIRCLE
  5
2C8
  8
0
  6
CONTINUOUS
 62
     3
 10
273.2859193770583
 20
107.8614158592595
 30
0.0
 40
5.0
  0
CIRCLE
  5
2C9
  8
0
  6
CONTINUOUS
 62
     3
 10
180.6549174761167
 20
107.8614050680369
 30
0.0
 40
5.0
  0
CIRCLE
  5
2CA
  8
0
  6
CONTINUOUS
 62
     3
 10
163.7022737446201
 20
78.49856403589693
 30
0.0
 40
5.0
  0
ARC
  5
2CB
  8
0
  6
CONTINUOUS
 62
     3
 10
151.1931964717101
 20
17.79593134854193
 30
0.0
 40
15.49999949416144
 50
347.3576639170859
 51
432.6422788421847
  0
ARC
  5
2CC
  8
0
  6
CONTINUOUS
 62
     3
 10
302.7476403814645
 20
17.79593134854193
 30
0.0
 40
15.49999949416144
 50
107.3577193365825
 51
192.6422890116781
  0
ARC
  5
2CD
  8
0
  6
CONTINUOUS
 62
     3
 10
226.9704238221989
 20
149.0459224963672
 30
0.0
 40
15.49999949416144
 50
227.3576853372174
 51
312.6423028236371
  0
CIRCLE
  5
2CE
  8
0
  6
CONTINUOUS
 62
     3
 10
226.9704238221989
 20
61.54591490878882
 30
0.0
 40
46.49999848248433
  0
LINE
  5
2CF
  8
0
  6
CONTINUOUS
 62
     3
 10
-93.90835746232996
 20
143.0459056350819
 30
0.0
 11
-77.90836285794116
 21
143.0459056350819
 31
0.0
  0
LINE
  5
2D0
  8
0
  6
CONTINUOUS
 62
     3
 10
-93.90835746232996
 20
167.045897541665
 30
0.0
 11
-77.90836285794116
 21
167.045897541665
 31
0.0
  0
LINE
  5
2D1
  8
0
  6
CONTINUOUS
 62
     3
 10
-93.90835746232996
 20
178.0459194613358
 30
0.0
 11
-77.90836285794116
 21
178.0459194613358
 31
0.0
  0
LINE
  5
2D2
  8
0
  6
CONTINUOUS
 62
     3
 10
-93.90835746232996
 20
202.0459005766964
 30
0.0
 11
-77.90836285794116
 21
202.0459005766964
 31
0.0
  0
LINE
  5
2D3
  8
0
  6
CONTINUOUS
 62
     3
 10
99.28395157490655
 20
-24.2955741595931
 30
0.0
 11
115.9034383538738
 21
-14.70030899396302
 31
0.0
  0
LINE
  5
2D4
  8
0
  6
CONTINUOUS
 62
     3
 10
88.78395174351959
 20
-6.109040972165914
 30
0.0
 11
105.4034385224864
 21
3.486224193464167
 31
0.0
  0
LINE
  5
2D5
  8
0
  6
CONTINUOUS
 62
     3
 10
365.1529935602922
 20
-6.111281528923186
 30
0.0
 11
348.5335067813251
 21
3.483983636706839
 31
0.0
  0
LINE
  5
2D6
  8
0
  6
CONTINUOUS
 62
     3
 10
354.6529937289052
 20
-24.29781471635039
 30
0.0
 11
338.0335069499379
 21
-14.70254955072032
 31
0.0
  0
LINE
  5
2D7
  8
0
  6
CONTINUOUS
 62
     3
 10
275.8204374701718
 20
177.9822550937058
 30
0.0
 11
270.1204330624087
 21
177.9822550937058
 31
0.0
  0
LINE
  5
2D8
  8
0
  6
CONTINUOUS
 62
     3
 10
270.1204280466619
 20
177.9822611481463
 30
0.0
 11
267.2704315648257
 21
173.0459225288125
 31
0.0
  0
CIRCLE
  5
2D9
  8
0
  6
CONTINUOUS
 62
     3
 10
272.9704238221989
 20
173.0459149087889
 30
0.0
 40
2.400000143051143
  0
CIRCLE
  5
2DA
  8
0
  6
CONTINUOUS
 62
     3
 10
272.9704238221989
 20
173.0459149087889
 30
0.0
 40
3.299999973177911
  0
LINE
  5
2DB
  8
0
  6
CONTINUOUS
 62
     3
 10
267.2704405328237
 20
173.045924613055
 30
0.0
 11
270.1204370146593
 21
168.1095859937211
 31
0.0
  0
LINE
  5
2DC
  8
0
  6
CONTINUOUS
 62
     3
 10
270.1204330624087
 20
168.1095632797806
 30
0.0
 11
275.8204374701718
 21
168.1095632797806
 31
0.0
  0
CIRCLE
  5
2DD
  8
0
  6
CONTINUOUS
 62
     3
 10
272.9704238221989
 20
173.0459149087889
 30
0.0
 40
0.7499999776482589
  0
LINE
  5
2DE
  8
0
  6
CONTINUOUS
 62
     3
 10
275.8203553667773
 20
168.1096018098593
 30
0.0
 11
278.6703547096363
 21
173.0459453846301
 31
0.0
  0
LINE
  5
2DF
  8
0
  6
CONTINUOUS
 62
     3
 10
278.6704403090135
 20
173.0459063568905
 30
0.0
 11
275.820432383086
 21
177.9822647979718
 31
0.0
  0
CIRCLE
  5
2E0
  8
0
  6
CONTINUOUS
 62
     3
 10
272.9704238221989
 20
173.0459149087889
 30
0.0
 40
0.7499999776482585
  0
LINE
  5
2E1
  8
0
  6
CONTINUOUS
 62
     3
 10
270.1204280466619
 20
177.9822611481463
 30
0.0
 11
267.2704315648257
 21
173.0459225288125
 31
0.0
  0
LINE
  5
2E2
  8
0
  6
CONTINUOUS
 62
     3
 10
267.2704405328237
 20
173.045924613055
 30
0.0
 11
270.1204370146593
 21
168.1095859937211
 31
0.0
  0
LINE
  5
2E3
  8
0
  6
CONTINUOUS
 62
     3
 10
275.8204374701718
 20
177.9822550937057
 30
0.0
 11
270.1204330624087
 21
177.9822550937057
 31
0.0
  0
LINE
  5
2E4
  8
0
  6
CONTINUOUS
 62
     3
 10
278.6704403090139
 20
173.0459063568905
 30
0.0
 11
275.8204323830865
 21
177.9822647979718
 31
0.0
  0
CIRCLE
  5
2E5
  8
0
  6
CONTINUOUS
 62
     3
 10
272.9704238221989
 20
173.0459149087889
 30
0.0
 40
2.400000143051142
  0
CIRCLE
  5
2E6
  8
0
  6
CONTINUOUS
 62
     3
 10
272.9704238221989
 20
173.0459149087889
 30
0.0
 40
3.29999997317791
  0
LINE
  5
2E7
  8
0
  6
CONTINUOUS
 62
     3
 10
270.1204330624087
 20
168.1095632797805
 30
0.0
 11
275.8204374701718
 21
168.1095632797805
 31
0.0
  0
CIRCLE
  5
2E8
  8
0
  6
CONTINUOUS
 62
     3
 10
272.9704238221989
 20
173.0459149087889
 30
0.0
 40
8.999999731779106
  0
CIRCLE
  5
2E9
  8
0
  6
CONTINUOUS
 62
     3
 10
272.9704238221989
 20
173.0459149087889
 30
0.0
 40
8.9999997317791
  0
LINE
  5
2EA
  8
0
  6
CONTINUOUS
 62
     3
 10
101.7070118569317
 20
45.63488532456036
 30
0.0
 11
104.5570140608132
 21
40.69853670575425
 31
0.0
  0
LINE
  5
2EB
  8
0
  6
CONTINUOUS
 62
     3
 10
104.5570113253874
 20
40.69852933476976
 30
0.0
 11
110.2570042123307
 21
40.69852929047032
 31
0.0
  0
CIRCLE
  5
2EC
  8
0
  6
CONTINUOUS
 62
     3
 10
107.407014682778
 20
45.63487119674191
 30
0.0
 40
2.400000143051143
  0
CIRCLE
  5
2ED
  8
0
  6
CONTINUOUS
 62
     3
 10
107.407014682778
 20
45.63487119674191
 30
0.0
 40
3.29999997317791
  0
LINE
  5
2EE
  8
0
  6
CONTINUOUS
 62
     3
 10
110.2569979233248
 20
40.69853601486311
 30
0.0
 11
113.1069943284322
 21
45.63487467849599
 31
0.0
  0
LINE
  5
2EF
  8
0
  6
CONTINUOUS
 62
     3
 10
113.1070159754071
 20
45.63488261271682
 30
0.0
 11
110.2570137715255
 21
50.57123123152293
 31
0.0
  0
CIRCLE
  5
2F0
  8
0
  6
CONTINUOUS
 62
     3
 10
107.407014682778
 20
45.63487119674191
 30
0.0
 40
0.7499999776482588
  0
LINE
  5
2F1
  8
0
  6
CONTINUOUS
 62
     3
 10
110.2570214551958
 20
50.57114086285817
 30
0.0
 11
104.5570228462067
 21
50.57114090715767
 31
0.0
  0
LINE
  5
2F2
  8
0
  6
CONTINUOUS
 62
     3
 10
104.5570138455321
 20
50.57123455226262
 30
0.0
 11
101.7070059963336
 21
45.6348760668818
 31
0.0
  0
CIRCLE
  5
2F3
  8
0
  6
CONTINUOUS
 62
     3
 10
107.407014682778
 20
45.63487119674191
 30
0.0
 40
0.7499999776482584
  0
LINE
  5
2F4
  8
0
  6
CONTINUOUS
 62
     3
 10
104.5570113253874
 20
40.69852933476976
 30
0.0
 11
110.2570042123307
 21
40.69852929047032
 31
0.0
  0
LINE
  5
2F5
  8
0
  6
CONTINUOUS
 62
     3
 10
110.2569979233248
 20
40.69853601486311
 30
0.0
 11
113.1069943284322
 21
45.63487467849599
 31
0.0
  0
LINE
  5
2F6
  8
0
  6
CONTINUOUS
 62
     3
 10
101.7070118569318
 20
45.63488532456042
 30
0.0
 11
104.5570140608134
 21
40.69853670575431
 31
0.0
  0
LINE
  5
2F7
  8
0
  6
CONTINUOUS
 62
     3
 10
104.5570138455319
 20
50.57123455226302
 30
0.0
 11
101.7070059963334
 21
45.6348760668822
 31
0.0
  0
CIRCLE
  5
2F8
  8
0
  6
CONTINUOUS
 62
     3
 10
107.407014682778
 20
45.63487119674191
 30
0.0
 40
2.400000143051142
  0
CIRCLE
  5
2F9
  8
0
  6
CONTINUOUS
 62
     3
 10
107.407014682778
 20
45.63487119674191
 30
0.0
 40
3.299999973177909
  0
LINE
  5
2FA
  8
0
  6
CONTINUOUS
 62
     3
 10
113.1070159754072
 20
45.63488261271688
 30
0.0
 11
110.2570137715256
 21
50.57123123152299
 31
0.0
  0
CIRCLE
  5
2FB
  8
0
  6
CONTINUOUS
 62
     3
 10
107.407014682778
 20
45.63487119674191
 30
0.0
 40
8.999999731779104
  0
CIRCLE
  5
2FC
  8
0
  6
CONTINUOUS
 62
     3
 10
107.407014682778
 20
45.63487119674191
 30
0.0
 40
8.999999731779099
  0
LINE
  5
2FD
  8
0
  6
CONTINUOUS
 62
     3
 10
303.3799090076843
 20
-38.97807951186513
 30
0.0
 11
306.2299112115658
 21
-34.04173089305901
 31
0.0
  0
LINE
  5
2FE
  8
0
  6
CONTINUOUS
 62
     3
 10
306.2299189627386
 20
-34.04172957651507
 30
0.0
 11
303.3799225576313
 21
-29.10539091288182
 31
0.0
  0
CIRCLE
  5
2FF
  8
0
  6
CONTINUOUS
 62
     3
 10
300.5299198298108
 20
-34.04172519912986
 30
0.0
 40
2.400000143051142
  0
CIRCLE
  5
300
  8
0
  6
CONTINUOUS
 62
     3
 10
300.5299198298108
 20
-34.04172519912986
 30
0.0
 40
3.29999997317791
  0
LINE
  5
301
  8
0
  6
CONTINUOUS
 62
     3
 10
303.3799198786393
 20
-29.10539972151709
 30
0.0
 11
297.6799269916962
 21
-29.10539976581616
 31
0.0
  0
LINE
  5
302
  8
0
  6
CONTINUOUS
 62
     3
 10
297.6799092969719
 20
-29.10538498609641
 30
0.0
 11
294.8299070930904
 21
-34.04173360490253
 31
0.0
  0
CIRCLE
  5
303
  8
0
  6
CONTINUOUS
 62
     3
 10
300.5299198298108
 20
-34.04172519912986
 30
0.0
 40
0.7499999776482587
  0
LINE
  5
304
  8
0
  6
CONTINUOUS
 62
     3
 10
294.8299815128147
 20
-34.04168176631656
 30
0.0
 11
297.6799807789447
 21
-38.9780253853868
 31
0.0
  0
LINE
  5
305
  8
0
  6
CONTINUOUS
 62
     3
 10
297.6799041802422
 20
-38.97808000275212
 30
0.0
 11
303.3799199553681
 21
-38.97807995845268
 31
0.0
  0
CIRCLE
  5
306
  8
0
  6
CONTINUOUS
 62
     3
 10
300.5299198298108
 20
-34.04172519912986
 30
0.0
 40
0.7499999776482583
  0
LINE
  5
307
  8
0
  6
CONTINUOUS
 62
     3
 10
306.2299189627386
 20
-34.04172957651507
 30
0.0
 11
303.3799225576313
 21
-29.10539091288182
 31
0.0
  0
LINE
  5
308
  8
0
  6
CONTINUOUS
 62
     3
 10
303.3799198786393
 20
-29.10539972151709
 30
0.0
 11
297.6799269916962
 21
-29.10539976581616
 31
0.0
  0
LINE
  5
309
  8
0
  6
CONTINUOUS
 62
     3
 10
303.3799090076842
 20
-38.97807951186505
 30
0.0
 11
306.2299112115657
 21
-34.04173089305893
 31
0.0
  0
LINE
  5
30A
  8
0
  6
CONTINUOUS
 62
     3
 10
297.6799041802419
 20
-38.97808000275252
 30
0.0
 11
303.3799199553679
 21
-38.97807995845307
 31
0.0
  0
CIRCLE
  5
30B
  8
0
  6
CONTINUOUS
 62
     3
 10
300.5299198298108
 20
-34.04172519912986
 30
0.0
 40
2.400000143051141
  0
CIRCLE
  5
30C
  8
0
  6
CONTINUOUS
 62
     3
 10
300.5299198298108
 20
-34.04172519912986
 30
0.0
 40
3.299999973177909
  0
LINE
  5
30D
  8
0
  6
CONTINUOUS
 62
     3
 10
297.6799092969719
 20
-29.10538498609641
 30
0.0
 11
294.8299070930904
 21
-34.04173360490252
 31
0.0
  0
CIRCLE
  5
30E
  8
0
  6
CONTINUOUS
 62
     3
 10
300.5299198298108
 20
-34.04172519912986
 30
0.0
 40
8.999999731779102
  0
CIRCLE
  5
30F
  8
0
  6
CONTINUOUS
 62
     3
 10
300.5299198298108
 20
-34.04172519912986
 30
0.0
 40
8.999999731779097
  0
ARC
  5
310
  8
0
  6
CONTINUOUS
 62
     3
 10
-159.4083525725572
 20
1.045922496367169
 30
0.0
 40
1.0
 50
270.0
 51
360.0
  0
LINE
  5
311
  8
0
  6
CONTINUOUS
 62
     3
 10
-159.4083525725572
 20
123.0459177752073
 30
0.0
 11
-158.4083525725572
 21
122.0459177752073
 31
0.0
  0
LINE
  5
312
  8
0
  6
CONTINUOUS
 62
     3
 10
154.8799407534758
 20
200.6815507023987
 30
0.0
 11
69.69362205576655
 21
53.13450199222815
 31
0.0
  0
LINE
  5
313
  8
0
  6
CONTINUOUS
 62
     3
 10
154.8799407534758
 20
200.6815507023987
 30
0.0
 11
155.6136418194796
 21
201.952358051984
 31
0.0
  0
LINE
  5
314
  8
0
  6
CONTINUOUS
 62
     3
 10
141.051501751875
 20
-70.45479733769068
 30
0.0
 11
312.8874285935793
 21
-70.45478895834434
 31
0.0
  0
LINE
  5
315
  8
0
  6
CENTER
 62
     7
 10
-275.4009170829914
 20
61.54591490878882
 30
0.0
 11
-96.39975938714692
 21
61.54591490878882
 31
0.0
  0
LINE
  5
316
  8
0
  6
CENTER
 62
     7
 10
-287.9006707396142
 20
-24.15407898742593
 30
0.0
 11
-97.30661056573389
 21
-24.15407898742593
 31
0.0
  0
LINE
  5
317
  8
0
  6
CENTER
 62
     7
 10
-125.7641057948332
 20
-3.954081223653887
 30
0.0
 11
-102.1317330714018
 21
-3.954081223653887
 31
0.0
  0
LINE
  5
318
  8
0
  6
CENTER
 62
     7
 10
-270.1998068010809
 20
147.2459142006148
 30
0.0
 11
-246.6099568901253
 21
147.2459142006148
 31
0.0
  0
LINE
  5
319
  8
0
  6
CENTER
 62
     7
 10
226.9704238221989
 20
228.1948457515529
 30
0.0
 11
226.9704238221989
 21
-113.1796417075289
 31
0.0
  0
LINE
  5
31A
  8
0
  6
CENTER
 62
     7
 10
85.58070966722355
 20
143.1773103004908
 30
0.0
 11
176.3079296705324
 21
90.79593119595008
 31
0.0
  0
LINE
  5
31B
  8
0
  6
CENTER
 62
     7
 10
72.27539608397052
 20
-27.76728137904829
 30
0.0
 11
226.9704229349732
 21
61.54592414817866
 31
0.0
  0
LINE
  5
31C
  8
0
  6
CENTER
 62
     7
 10
226.9704135507323
 20
61.54593572149783
 30
0.0
 11
379.7823228498738
 21
-26.68005150036446
 31
0.0
  0
LINE
  5
31D
  8
0
  6
CENTER
 62
     7
 10
277.6329068151732
 20
90.79591962263091
 30
0.0
 11
319.375323296531
 21
114.8959123521546
 31
0.0
  0
LINE
  5
31E
  8
0
  6
CENTER
 62
     7
 10
279.613364720482
 20
75.65155436407621
 30
0.0
 11
300.8637332518193
 21
81.34557284298505
 31
0.0
  0
LINE
  5
31F
  8
0
  6
CENTER
 62
     7
 10
153.0770888865482
 20
81.34556195304405
 30
0.0
 11
174.3274574178859
 21
75.65154347413521
 31
0.0
  0
LINE
  5
320
  8
0
  6
CENTER
 62
     7
 10
265.5077661480951
 20
100.083254570933
 30
0.0
 11
281.0641168561752
 21
115.6396039677106
 31
0.0
  0
LINE
  5
321
  8
0
  6
CENTER
 62
     7
 10
172.8767524643309
 20
115.6395860176518
 30
0.0
 11
188.4330993571371
 21
100.0832404361475
 31
0.0
  0
LINE
  5
322
  8
0
  6
CENTER
 62
     7
 10
241.0760381840815
 20
8.902958860273017
 30
0.0
 11
246.770058672536
 21
-12.34741227694467
 31
0.0
  0
LINE
  5
323
  8
0
  6
CENTER
 62
     7
 10
207.1707444776662
 20
-12.34741372064815
 30
0.0
 11
212.8647642678771
 21
8.902954810689423
 31
0.0
  0
LINE
  5
324
  8
0
  6
CENTER
 62
     7
 10
208.9704164032333
 20
155.0459177752073
 30
0.0
 11
244.9704204499417
 21
155.0459177752073
 31
0.0
  0
LINE
  5
325
  8
0
  6
CENTER
 62
     7
 10
136.997048949942
 20
30.38438495476966
 30
0.0
 11
154.9970504212579
 21
-0.7925278537155691
 31
0.0
  0
LINE
  5
326
  8
0
  6
CENTER
 62
     7
 10
298.9438170012514
 20
-0.79252131460062
 30
0.0
 11
316.9438211703733
 21
30.38439616662096
 31
0.0
  0
LINE
  5
327
  8
0
  6
CENTER
 62
     7
 10
329.2546934770094
 20
-18.29252886813981
 30
0.0
 11
347.2546976461313
 21
12.88438861308175
 31
0.0
  0
LINE
  5
328
  8
0
  6
CENTER
 62
     7
 10
208.9704164032333
 20
190.0459100190161
 30
0.0
 11
244.9704204499417
 21
190.0459100190161
 31
0.0
  0
LINE
  5
329
  8
0
  6
CENTER
 62
     7
 10
106.6861503625569
 20
12.88438332602163
 30
0.0
 11
124.6861518338729
 21
-18.29252948246359
 31
0.0
  0
ARC
  5
32A
  8
0
  6
CENTER
 62
     7
 10
226.9704238221989
 20
61.54591490878882
 30
0.0
 40
85.69999929182602
 50
15.92482339895839
 51
44.07517314805185
  0
ARC
  5
32B
  8
0
  6
CENTER
 62
     7
 10
226.9704238221989
 20
61.54591490878882
 30
0.0
 40
85.69999929182602
 50
135.9248489363774
 51
164.0751867326398
  0
ARC
  5
32C
  8
0
  6
CENTER
 62
     7
 10
226.9704238221989
 20
61.54591490878882
 30
0.0
 40
85.69999929182602
 50
255.9248081068231
 51
284.075166393653
  0
ARC
  5
32D
  8
0
  6
CENTER
 62
     7
 10
226.9704238221989
 20
61.54591490878882
 30
0.0
 40
65.50000151751567
 50
5.366466397387502
 51
54.63353911424602
  0
ARC
  5
32E
  8
0
  6
CENTER
 62
     7
 10
226.9704238221989
 20
61.54591490878882
 30
0.0
 40
65.50000151751567
 50
125.3664829701832
 51
174.633552698834
  0
ARC
  5
32F
  8
0
  6
CENTER
 62
     7
 10
226.9704238221989
 20
61.54591490878882
 30
0.0
 40
65.50000151751567
 50
245.3664353104398
 51
294.6335391900364
  0
LINE
  5
330
  8
0
  6
CENTER
 62
     7
 10
-133.1748915543311
 20
190.0459100190161
 30
0.0
 11
-71.84110049330788
 21
190.0459100190161
 31
0.0
  0
LINE
  5
331
  8
0
  6
CENTER
 62
     7
 10
-133.1748915543311
 20
155.0459069839848
 30
0.0
 11
-72.09143527412643
 21
155.0459069839848
 31
0.0
  0
LINE
  5
332
  8
0
  6
CENTER
 62
     7
 10
50.47995196587596
 20
61.54591490878882
 30
0.0
 11
403.4608902829105
 21
61.54591490878882
 31
0.0
  0
LINE
  5
333
  8
0
  6
CENTER
 62
     7
 10
-1.147388331319293
 20
-16.77959001864017
 30
0.0
 11
35.79731813703542
 21
4.550446205996135
 31
0.0
  0
LINE
  5
334
  8
0
  6
CONTINUOUS
 62
     4
 10
-228.7083546296341
 20
6.545918618271571
 30
0.0
 11
-206.9083584740071
 21
6.545918618271571
 31
0.0
  0
LINE
  5
335
  8
0
  6
CONTINUOUS
 62
     4
 10
-228.7083546296341
 20
116.5459219905286
 30
0.0
 11
-206.9083584740071
 21
116.5459219905286
 31
0.0
  0
LINE
  5
336
  8
0
  6
CONTINUOUS
 62
     4
 10
-106.9083652185212
 20
215.0459137284989
 30
0.0
 11
-106.9083652185212
 21
202.545901082535
 31
0.0
  0
LINE
  5
337
  8
0
  6
CONTINUOUS
 62
     4
 10
-107.9083662301984
 20
215.0459137284989
 30
0.0
 11
-107.9083662301984
 21
202.545901082535
 31
0.0
  0
LINE
  5
338
  8
0
  6
CONTINUOUS
 62
     4
 10
-129.7083623858251
 20
162.045903274502
 30
0.0
 11
-93.90835746232996
 21
162.045903274502
 31
0.0
  0
LINE
  5
339
  8
0
  6
CONTINUOUS
 62
     4
 10
-129.7083623858251
 20
148.04592148469
 30
0.0
 11
-93.90835746232996
 21
148.04592148469
 31
0.0
  0
LINE
  5
33A
  8
0
  6
CONTINUOUS
 62
     4
 10
-129.7083623858251
 20
197.0459171007558
 30
0.0
 11
-93.90835746232996
 21
197.0459171007558
 31
0.0
  0
LINE
  5
33B
  8
0
  6
CONTINUOUS
 62
     4
 10
-129.7083623858251
 20
183.0459029372763
 30
0.0
 11
-93.90835746232996
 21
183.0459029372763
 31
0.0
  0
LINE
  5
33C
  8
0
  6
CONTINUOUS
 62
     4
 10
-107.9083662301984
 20
142.5459051292434
 30
0.0
 11
-107.9083662301984
 21
132.5459273861399
 31
0.0
  0
LINE
  5
33D
  8
0
  6
CONTINUOUS
 62
     4
 10
-106.9083652185212
 20
142.5459051292434
 30
0.0
 11
-106.9083652185212
 21
132.5459273861399
 31
0.0
  0
LINE
  5
33E
  8
0
  6
CONTINUOUS
 62
     4
 10
-92.40836573737046
 20
151.4097127433637
 30
0.0
 11
-88.70836025097209
 21
153.5459116709276
 31
0.0
  0
LINE
  5
33F
  8
0
  6
CONTINUOUS
 62
     4
 10
-92.40835958242259
 20
153.0262961869326
 30
0.0
 11
-91.50835311735445
 21
153.5459151044035
 31
0.0
  0
LINE
  5
340
  8
0
  6
CONTINUOUS
 62
     4
 10
-92.40836442522495
 20
186.4097428489878
 30
0.0
 11
-88.70837938204944
 21
188.5459299736527
 31
0.0
  0
LINE
  5
341
  8
0
  6
CONTINUOUS
 62
     4
 10
-92.40836397241573
 20
188.0263105397954
 30
0.0
 11
-91.50835283461119
 21
188.5459321550717
 31
0.0
  0
LINE
  5
342
  8
0
  6
CONTINUOUS
 62
     4
 10
-92.40835545997005
 20
147.5992166967452
 30
0.0
 11
-87.1198922758348
 21
144.5459213911192
 31
0.0
  0
LINE
  5
343
  8
0
  6
CONTINUOUS
 62
     4
 10
-92.40835105729833
 20
145.9826342648534
 30
0.0
 11
-89.91988514221715
 21
144.5459179576433
 31
0.0
  0
LINE
  5
344
  8
0
  6
CONTINUOUS
 62
     4
 10
-92.40835179285104
 20
182.5992190063291
 30
0.0
 11
-87.1199072996625
 21
179.545934491925
 31
0.0
  0
LINE
  5
345
  8
0
  6
CONTINUOUS
 62
     4
 10
-92.40835278579029
 20
180.982627228964
 30
0.0
 11
-89.9199149071293
 21
179.5459271085868
 31
0.0
  0
LINE
  5
346
  8
0
  6
CONTINUOUS
 62
     4
 10
-121.4083690966167
 20
-1.954081213115586
 30
0.0
 11
-109.4083677477139
 21
-1.954081213115586
 31
0.0
  0
LINE
  5
347
  8
0
  6
CONTINUOUS
 62
     4
 10
-121.4083690966167
 20
-5.954081213115586
 30
0.0
 11
-109.4083677477139
 21
-5.954081213115586
 31
0.0
  0
LINE
  5
348
  8
0
  6
CONTINUOUS
 62
     4
 10
-117.4083650499082
 20
-1.454081213115586
 30
0.0
 11
-109.4083677477139
 21
-1.454081213115586
 31
0.0
  0
LINE
  5
349
  8
0
  6
CONTINUOUS
 62
     4
 10
-117.4083650499082
 20
-6.454081213115586
 30
0.0
 11
-109.4083677477139
 21
-6.454081213115586
 31
0.0
  0
LINE
  5
34A
  8
0
  6
CONTINUOUS
 62
     4
 10
-285.9083736491638
 20
-17.15407865020022
 30
0.0
 11
-241.9083723002608
 21
-17.15407865020022
 31
0.0
  0
LINE
  5
34B
  8
0
  6
CONTINUOUS
 62
     4
 10
-285.9083736491638
 20
-31.15408067355445
 30
0.0
 11
-241.9083723002608
 21
-31.15408067355445
 31
0.0
  0
LINE
  5
34C
  8
0
  6
CONTINUOUS
 62
     4
 10
-121.4083690966167
 20
-1.954081213115586
 30
0.0
 11
-121.4083690966167
 21
-5.954081213115586
 31
0.0
  0
LINE
  5
34D
  8
0
  6
CONTINUOUS
 62
     4
 10
-117.4083650499082
 20
-1.454081213115586
 30
0.0
 11
-117.4083650499082
 21
-6.454081213115586
 31
0.0
  0
LINE
  5
34E
  8
0
  6
CONTINUOUS
 62
     4
 10
-122.5630697725961
 20
-3.954080344689345
 30
0.0
 11
-121.4083683545326
 21
-1.954079095346927
 31
0.0
  0
LINE
  5
34F
  8
0
  6
CONTINUOUS
 62
     4
 10
-122.5630702325956
 20
-3.954081310012143
 30
0.0
 11
-121.4083715123383
 21
-5.954077886618208
 31
0.0
  0
LINE
  5
350
  8
0
  6
CONTINUOUS
 62
     4
 10
-219.9083716258095
 20
-75.95407311969866
 30
0.0
 11
-203.908377021421
 21
-75.95407311969866
 31
0.0
  0
LINE
  5
351
  8
0
  6
CONTINUOUS
 62
     4
 10
-219.9083716258095
 20
-75.95407851530995
 30
0.0
 11
-219.9083716258095
 21
-95.95407716640712
 31
0.0
  0
LINE
  5
352
  8
0
  6
CONTINUOUS
 62
     4
 10
-203.908377021421
 20
-75.95407851530995
 30
0.0
 11
-203.908377021421
 21
-95.95407716640712
 31
0.0
  0
LINE
  5
353
  8
0
  6
CONTINUOUS
 62
     4
 10
-85.90835283640389
 20
153.5459181869604
 30
0.0
 11
-79.40835183322737
 21
149.7931412726577
 31
0.0
  0
LINE
  5
354
  8
0
  6
CONTINUOUS
 62
     4
 10
-85.9083491692851
 20
188.5459204965443
 30
0.0
 11
-79.40834816610858
 21
184.7931435822416
 31
0.0
  0
LINE
  5
355
  8
0
  6
CONTINUOUS
 62
     4
 10
-83.10835062454807
 20
153.5459162248254
 30
0.0
 11
-79.40835623589909
 21
151.4097237045495
 31
0.0
  0
LINE
  5
356
  8
0
  6
CONTINUOUS
 62
     4
 10
-80.30836710363896
 20
153.5459250539122
 30
0.0
 11
-79.40836063857104
 21
153.0263061364413
 31
0.0
  0
LINE
  5
357
  8
0
  6
CONTINUOUS
 62
     4
 10
-83.10836564837599
 20
188.5459293256312
 30
0.0
 11
-79.40836191425377
 21
186.4097314097443
 31
0.0
  0
LINE
  5
358
  8
0
  6
CONTINUOUS
 62
     4
 10
-80.30836343651994
 20
188.5459273634961
 30
0.0
 11
-79.40835697145202
 21
188.0263084460252
 31
0.0
  0
LINE
  5
359
  8
0
  6
CONTINUOUS
 62
     4
 10
-84.69681932255971
 20
144.5459288805002
 30
0.0
 11
-79.40836081116107
 21
147.5992214883208
 31
0.0
  0
LINE
  5
35A
  8
0
  6
CONTINUOUS
 62
     4
 10
-81.89682645617712
 20
144.5459254470244
 30
0.0
 11
-79.40836988656942
 21
145.9826363586235
 31
0.0
  0
LINE
  5
35B
  8
0
  6
CONTINUOUS
 62
     4
 10
-84.69679728962696
 20
179.5459460280143
 30
0.0
 11
-79.40835980554324
 21
182.5992264957102
 31
0.0
  0
LINE
  5
35C
  8
0
  6
CONTINUOUS
 62
     4
 10
-81.89680748248692
 20
179.5459532889145
 30
0.0
 11
-79.40836960382593
 21
180.9826534092917
 31
0.0
  0
LINE
  5
35D
  8
0
  6
CONTINUOUS
 62
     4
 10
278.4402887668799
 20
4.694325686205886
 30
0.0
 11
284.1902898738654
 21
14.6536183810903
 31
0.0
  0
LINE
  5
35E
  8
0
  6
CONTINUOUS
 62
     4
 10
296.1902926532799
 20
35.43823003523802
 30
0.0
 11
301.9402937602659
 21
45.39752273012245
 31
0.0
  0
LINE
  5
35F
  8
0
  6
CONTINUOUS
 62
     4
 10
297.9223505776495
 20
34.4382382498242
 30
0.0
 11
303.6723516846355
 21
44.39753094470861
 31
0.0
  0
LINE
  5
360
  8
0
  6
CONTINUOUS
 62
     4
 10
299.6544031064073
 20
33.43823711893766
 30
0.0
 11
305.4044042133933
 21
43.39752981382209
 31
0.0
  0
LINE
  5
361
  8
0
  6
CONTINUOUS
 62
     4
 10
301.3864743261107
 20
32.4382251968273
 30
0.0
 11
307.1364754330962
 21
42.39751789171173
 31
0.0
  0
LINE
  5
362
  8
0
  6
CONTINUOUS
 62
     4
 10
303.118502768311
 20
31.43822551169193
 30
0.0
 11
308.8685038752965
 21
41.39751820657634
 31
0.0
  0
LINE
  5
363
  8
0
  6
CONTINUOUS
 62
     4
 10
304.8505552970688
 20
30.43822438080539
 30
0.0
 11
310.6005564040543
 21
40.39751707568981
 31
0.0
  0
LINE
  5
364
  8
0
  6
CONTINUOUS
 62
     4
 10
280.1723466912495
 20
3.69433390079206
 30
0.0
 11
285.9223477982351
 21
13.65362659567647
 31
0.0
  0
LINE
  5
365
  8
0
  6
CONTINUOUS
 62
     4
 10
281.9043992200073
 20
2.694332769905529
 30
0.0
 11
287.6544003269929
 21
12.65362546478995
 31
0.0
  0
LINE
  5
366
  8
0
  6
CONTINUOUS
 62
     4
 10
283.6364704397107
 20
1.694320847795169
 30
0.0
 11
289.3864715466962
 21
11.65361354267959
 31
0.0
  0
LINE
  5
367
  8
0
  6
CONTINUOUS
 62
     4
 10
285.368498881911
 20
0.6943211626597758
 30
0.0
 11
291.1184999888965
 21
10.6536138575442
 31
0.0
  0
LINE
  5
368
  8
0
  6
CONTINUOUS
 62
     4
 10
287.1005514106687
 20
-0.305679968226741
 30
0.0
 11
292.8505525176543
 21
9.65361272665767
 31
0.0
  0
CIRCLE
  5
369
  8
0
  6
CONTINUOUS
 62
     4
 10
170.2457473649707
 20
94.29592106315793
 30
0.0
 40
2.0
  0
CIRCLE
  5
36A
  8
0
  6
CONTINUOUS
 62
     4
 10
283.6950894882044
 20
94.29592106315793
 30
0.0
 40
2.0
  0
CIRCLE
  5
36B
  8
0
  6
CONTINUOUS
 62
     4
 10
226.9704238221989
 20
-3.954086619265155
 30
0.0
 40
2.0
  0
CIRCLE
  5
36C
  8
0
  6
CONTINUOUS
 62
     4
 10
226.9704238221989
 20
-3.954086619265155
 30
0.0
 40
2.5
  0
CIRCLE
  5
36D
  8
0
  6
CONTINUOUS
 62
     4
 10
283.6950894882044
 20
94.29592106315793
 30
0.0
 40
2.5
  0
CIRCLE
  5
36E
  8
0
  6
CONTINUOUS
 62
     4
 10
170.2457473649707
 20
94.29592106315793
 30
0.0
 40
2.5
  0
LINE
  5
36F
  8
0
  6
CONTINUOUS
 62
     4
 10
-92.40836576865412
 20
184.79314972272
 30
0.0
 11
-85.90835775637278
 21
188.5459306837309
 31
0.0
  0
LINE
  5
370
  8
0
  6
CONTINUOUS
 62
     4
 10
-92.40836079456894
 20
149.7931357070829
 30
0.0
 11
-85.90835570274784
 21
153.5459149819654
 31
0.0
  0
LINE
  5
371
  8
0
  6
CONTINUOUS
 62
     4
 10
-88.70834570278647
 20
153.5459147534846
 30
0.0
 11
-79.40835677602912
 21
148.1765642363769
 31
0.0
  0
LINE
  5
372
  8
0
  6
CONTINUOUS
 62
     4
 10
-91.50835331025327
 20
153.5459073701463
 30
0.0
 11
-79.40835776896837
 21
146.5599724590117
 31
0.0
  0
LINE
  5
373
  8
0
  6
CONTINUOUS
 62
     4
 10
-92.4083499770385
 20
152.4489532011987
 30
0.0
 11
-79.40835731615893
 21
144.9434047682042
 31
0.0
  0
LINE
  5
374
  8
0
  6
CONTINUOUS
 62
     4
 10
-92.40836426531349
 20
150.8323815605288
 30
0.0
 11
-81.51989719759639
 21
144.54592286246
 31
0.0
  0
LINE
  5
375
  8
0
  6
CONTINUOUS
 62
     4
 10
-92.4083505171683
 20
149.215793733026
 30
0.0
 11
-84.31989006397875
 21
144.5459194289841
 31
0.0
  0
LINE
  5
376
  8
0
  6
CONTINUOUS
 62
     4
 10
-92.4083670882991
 20
148.1765646440185
 30
0.0
 11
-83.10836589560803
 21
153.5459222428656
 31
0.0
  0
LINE
  5
377
  8
0
  6
CONTINUOUS
 62
     4
 10
-92.40835791807071
 20
146.559977587813
 30
0.0
 11
-80.30835595177281
 21
153.5459162084301
 31
0.0
  0
LINE
  5
378
  8
0
  6
CONTINUOUS
 62
     4
 10
-92.40836232074243
 20
144.9433951559212
 30
0.0
 11
-79.40836790758648
 21
152.4489446005927
 31
0.0
  0
LINE
  5
379
  8
0
  6
CONTINUOUS
 62
     4
 10
-90.29681704369422
 20
144.5459039047036
 30
0.0
 11
-79.40836457827903
 21
150.8323541721303
 31
0.0
  0
LINE
  5
37A
  8
0
  6
CONTINUOUS
 62
     4
 10
-87.49682314790961
 20
144.5459135261836
 30
0.0
 11
-79.4083697038251
 21
149.2157837835173
 31
0.0
  0
LINE
  5
37B
  8
0
  6
CONTINUOUS
 62
     4
 10
-92.40836243934668
 20
183.1765592942575
 30
0.0
 11
-83.10833613069589
 21
188.5459313938091
 31
0.0
  0
LINE
  5
37C
  8
0
  6
CONTINUOUS
 62
     4
 10
-92.40836289215589
 20
181.55999160345
 30
0.0
 11
-80.30835800539752
 21
188.5459319101955
 31
0.0
  0
LINE
  5
37D
  8
0
  6
CONTINUOUS
 62
     4
 10
-92.40836189921664
 20
179.9433998260849
 30
0.0
 11
-79.40835989286383
 21
187.4489536546903
 31
0.0
  0
LINE
  5
37E
  8
0
  6
CONTINUOUS
 62
     4
 10
-90.29679937697041
 20
179.5459434526469
 30
0.0
 11
-79.40836034567327
 21
185.8323859638828
 31
0.0
  0
LINE
  5
37F
  8
0
  6
CONTINUOUS
 62
     4
 10
-87.49678008766172
 20
179.5459428138224
 30
0.0
 11
-79.40835935273402
 21
184.2157941865176
 31
0.0
  0
LINE
  5
380
  8
0
  6
CONTINUOUS
 62
     4
 10
-88.70835138114093
 20
188.5459224586794
 30
0.0
 11
-79.40835310891011
 21
183.1765665459607
 31
0.0
  0
LINE
  5
381
  8
0
  6
CONTINUOUS
 62
     4
 10
-91.50835359299676
 20
188.5459244208145
 30
0.0
 11
-79.40834870623839
 21
181.559984114069
 31
0.0
  0
LINE
  5
382
  8
0
  6
CONTINUOUS
 62
     4
 10
-92.40835565539295
 20
187.4489609063936
 30
0.0
 11
-79.40835364904014
 21
179.9434070777881
 31
0.0
  0
LINE
  5
383
  8
0
  6
CONTINUOUS
 62
     4
 10
-92.40835125272123
 20
185.8323784745017
 30
0.0
 11
-81.51991222142409
 21
179.5459359632658
 31
0.0
  0
LINE
  5
384
  8
0
  6
CONTINUOUS
 62
     4
 10
-92.40834685004951
 20
184.21579604261
 30
0.0
 11
-84.31991443327992
 21
179.5459379254009
 31
0.0
  0
ARC
  5
385
  8
0
  6
CONTINUOUS
 62
     4
 10
226.9691194449293
 20
61.54635363546699
 30
0.0
 40
108.0
 50
103.5792013265573
 51
196.4210665035078
  0
ARC
  5
386
  8
0
  6
CONTINUOUS
 62
     4
 10
226.9691194449293
 20
61.54635363546699
 30
0.0
 40
102.0
 50
104.3947067932558
 51
195.6055778265639
  0
ARC
  5
387
  8
0
  6
CONTINUOUS
 62
     4
 10
226.9693771394955
 20
61.54679997555674
 30
0.0
 40
95.99999999999996
 50
105.3154319437755
 51
144.9894191374886
  0
ARC
  5
388
  8
0
  6
CONTINUOUS
 62
     4
 10
226.9708250196227
 20
61.54704028098287
 30
0.0
 40
90.0
 50
106.3645073784251
 51
141.9905536033114
  0
ARC
  5
389
  8
0
  6
CONTINUOUS
 62
     4
 10
226.9708250196227
 20
61.54704028098287
 30
0.0
 40
84.0
 50
107.5700699178782
 51
141.2889389998271
  0
ARC
  5
38A
  8
0
  6
CONTINUOUS
 62
     4
 10
226.9708250196227
 20
61.54704028098287
 30
0.0
 40
78.0
 50
108.9712012638363
 51
142.6554388498751
  0
ARC
  5
38B
  8
0
  6
CONTINUOUS
 62
     4
 10
226.9708250196227
 20
61.54704028098287
 30
0.0
 40
90.0
 50
158.0110241253645
 51
193.6358219887264
  0
ARC
  5
38C
  8
0
  6
CONTINUOUS
 62
     4
 10
226.9708250196227
 20
61.54704028098287
 30
0.0
 40
84.0
 50
158.7126387288488
 51
192.4302799398409
  0
ARC
  5
38D
  8
0
  6
CONTINUOUS
 62
     4
 10
226.9708250196227
 20
61.54704028098287
 30
0.0
 40
78.0
 50
157.3461388788008
 51
191.0291759146395
  0
ARC
  5
38E
  8
0
  6
CONTINUOUS
 62
     4
 10
226.9705583655514
 20
61.54884591906405
 30
0.0
 40
95.99999999999994
 50
155.0124918269822
 51
194.6845671656404
  0
ARC
  5
38F
  8
0
  6
CONTINUOUS
 62
     4
 10
226.9708250196227
 20
61.54704028098287
 30
0.0
 40
78.0
 50
348.9712013396266
 51
382.6537408309026
  0
ARC
  5
390
  8
0
  6
CONTINUOUS
 62
     4
 10
226.9708250196227
 20
61.54704028098287
 30
0.0
 40
84.0
 50
347.5700699936685
 51
381.287532049281
  0
ARC
  5
391
  8
0
  6
CONTINUOUS
 62
     4
 10
226.9708250196227
 20
61.54704028098287
 30
0.0
 40
90.0
 50
346.3645074542154
 51
381.9893708788611
  0
ARC
  5
392
  8
0
  6
CONTINUOUS
 62
     4
 10
226.9698959383309
 20
61.54679997556083
 30
0.0
 40
102.0
 50
344.3947067932558
 51
435.6055778265639
  0
ARC
  5
393
  8
0
  6
CONTINUOUS
 62
     4
 10
226.9704069318792
 20
61.54591490878882
 30
0.0
 40
95.99999999999999
 50
345.3154319437755
 51
384.9881646408996
  0
ARC
  5
394
  8
0
  6
CONTINUOUS
 62
     4
 10
226.9708250196227
 20
61.54704028098287
 30
0.0
 40
84.0
 50
38.71142666578919
 51
72.43027660053666
  0
ARC
  5
395
  8
0
  6
CONTINUOUS
 62
     4
 10
226.9708250196227
 20
61.54704028098287
 30
0.0
 40
90.0
 50
38.00958783620914
 51
73.63581864942225
  0
ARC
  5
396
  8
0
  6
CONTINUOUS
 62
     4
 10
226.9708250196227
 20
61.54704028098287
 30
0.0
 40
78.0
 50
37.34521788416765
 51
71.02917257533527
  0
ARC
  5
397
  8
0
  6
CONTINUOUS
 62
     4
 10
226.9698959383309
 20
61.54679997556083
 30
0.0
 40
96.0
 50
35.01113447335124
 51
74.68456894680858
  0
ARC
  5
398
  8
0
  6
CONTINUOUS
 62
     4
 10
226.9708250196227
 20
61.54704028098287
 30
0.0
 40
90.0
 50
278.0102112774677
 51
313.6358221403072
  0
ARC
  5
399
  8
0
  6
CONTINUOUS
 62
     4
 10
226.9708250196227
 20
61.54704028098287
 30
0.0
 40
84.0
 50
278.7113937885385
 51
312.4302800914216
  0
ARC
  5
39A
  8
0
  6
CONTINUOUS
 62
     4
 10
226.9708250196227
 20
61.54704028098287
 30
0.0
 40
78.0
 50
277.344332959284
 51
311.0291760662202
  0
ARC
  5
39B
  8
0
  6
CONTINUOUS
 62
     4
 10
226.9691194449293
 20
61.54635363546699
 30
0.0
 40
95.99999999999997
 50
275.0130332386978
 51
314.6845689468086
  0
ARC
  5
39C
  8
0
  6
CONTINUOUS
 62
     4
 10
226.9691194449293
 20
61.54635363546699
 30
0.0
 40
102.0
 50
224.3947067932558
 51
315.6055778265639
  0
ARC
  5
39D
  8
0
  6
CONTINUOUS
 62
     4
 10
226.9691194449293
 20
61.54635363546699
 30
0.0
 40
108.0
 50
223.5792013265572
 51
316.4210665035078
  0
ARC
  5
39E
  8
0
  6
CONTINUOUS
 62
     4
 10
226.9708250196227
 20
61.54704028098287
 30
0.0
 40
90.0
 50
226.3645075300058
 51
261.9892522787254
  0
ARC
  5
39F
  8
0
  6
CONTINUOUS
 62
     4
 10
226.9708250196227
 20
61.54704028098287
 30
0.0
 40
84.0
 50
227.5700632392697
 51
261.2880697676546
  0
ARC
  5
3A0
  8
0
  6
CONTINUOUS
 62
     4
 10
226.9708250196227
 20
61.54704028098287
 30
0.0
 40
78.0
 50
228.9711945852278
 51
262.6551305969092
  0
ARC
  5
3A1
  8
0
  6
CONTINUOUS
 62
     4
 10
226.9720423130662
 20
61.54635363546699
 30
0.0
 40
95.99999999999997
 50
225.3154310531915
 51
264.9867567536636
  0
LINE
  5
3A2
  8
0
  6
CONTINUOUS
 62
     4
 10
214.9688311236965
 20
134.547709913776
 30
0.0
 11
203.4688300927087
 21
134.547710596772
 31
0.0
  0
LINE
  5
3A3
  8
0
  6
CONTINUOUS
 62
     4
 10
214.9688204512555
 20
136.5477119698132
 30
0.0
 11
203.4688194202682
 21
136.5477126528092
 31
0.0
  0
LINE
  5
3A4
  8
0
  6
CONTINUOUS
 62
     4
 10
214.9688205700377
 20
138.5477140258498
 30
0.0
 11
203.46881953905
 21
138.5477147088458
 31
0.0
  0
LINE
  5
3A5
  8
0
  6
CONTINUOUS
 62
     4
 10
214.9688206888209
 20
140.5477376643318
 30
0.0
 11
203.4688196578332
 21
140.5477383473278
 31
0.0
  0
LINE
  5
3A6
  8
0
  6
CONTINUOUS
 62
     4
 10
214.9688315988242
 20
142.5477181379222
 30
0.0
 11
203.468830567837
 21
142.5477188209182
 31
0.0
  0
LINE
  5
3A7
  8
0
  6
CONTINUOUS
 62
     4
 10
214.9688317176065
 20
144.5477201939588
 30
0.0
 11
203.4688306866188
 21
144.5477208769548
 31
0.0
  0
LINE
  5
3A8
  8
0
  6
CONTINUOUS
 62
     4
 10
250.468835244677
 20
134.5477078053972
 30
0.0
 11
238.9688342136897
 21
134.5477084883931
 31
0.0
  0
LINE
  5
3A9
  8
0
  6
CONTINUOUS
 62
     4
 10
250.4688245722364
 20
136.5477098614343
 30
0.0
 11
238.9688235412487
 21
136.5477105444303
 31
0.0
  0
LINE
  5
3AA
  8
0
  6
CONTINUOUS
 62
     4
 10
250.4688246910183
 20
138.5477119174709
 30
0.0
 11
238.968823660031
 21
138.5477126004669
 31
0.0
  0
LINE
  5
3AB
  8
0
  6
CONTINUOUS
 62
     4
 10
250.4688248098015
 20
140.5477355559529
 30
0.0
 11
238.9688237788142
 21
140.5477362389489
 31
0.0
  0
LINE
  5
3AC
  8
0
  6
CONTINUOUS
 62
     4
 10
250.4688357198052
 20
142.5477160295434
 30
0.0
 11
238.9688346888175
 21
142.5477167125393
 31
0.0
  0
LINE
  5
3AD
  8
0
  6
CONTINUOUS
 62
     4
 10
250.468835838587
 20
144.54771808558
 30
0.0
 11
238.9688348075998
 21
144.5477187685759
 31
0.0
  0
LINE
  5
3AE
  8
0
  6
CONTINUOUS
 62
     4
 10
169.7482345578115
 20
14.653120957387
 30
0.0
 11
175.4982344818137
 21
4.693827579506561
 31
0.0
  0
LINE
  5
3AF
  8
0
  6
CONTINUOUS
 62
     4
 10
168.0161873058824
 20
13.65311068676364
 30
0.0
 11
173.7661872298846
 21
3.693817308883254
 31
0.0
  0
LINE
  5
3B0
  8
0
  6
CONTINUOUS
 62
     4
 10
166.2841346583428
 20
12.65310976161358
 30
0.0
 11
172.0341345823445
 21
2.693816383733193
 31
0.0
  0
LINE
  5
3B1
  8
0
  6
CONTINUOUS
 62
     4
 10
164.5520633198563
 20
11.65309804524192
 30
0.0
 11
170.3020632438584
 21
1.693804667361533
 31
0.0
  0
LINE
  5
3B2
  8
0
  6
CONTINUOUS
 62
     4
 10
162.8200239676526
 20
10.65311725678681
 30
0.0
 11
168.5700238916543
 21
0.6938238789064855
 31
0.0
  0
LINE
  5
3B3
  8
0
  6
CONTINUOUS
 62
     4
 10
161.0879713201126
 20
9.653116331636809
 30
0.0
 11
166.8379712441147
 21
-0.306177046243576
 31
0.0
  0
LINE
  5
3B4
  8
0
  6
CONTINUOUS
 62
     4
 10
151.998234323231
 20
45.3970274147979
 30
0.0
 11
157.7482342472327
 21
35.43773403691763
 31
0.0
  0
LINE
  5
3B5
  8
0
  6
CONTINUOUS
 62
     4
 10
150.2661870713019
 20
44.3970171441746
 30
0.0
 11
156.0161869953036
 21
34.43772376629427
 31
0.0
  0
LINE
  5
3B6
  8
0
  6
CONTINUOUS
 62
     4
 10
148.5341344237623
 20
43.39701621902459
 30
0.0
 11
154.284134347764
 21
33.43772284114421
 31
0.0
  0
LINE
  5
3B7
  8
0
  6
CONTINUOUS
 62
     4
 10
146.8020630852757
 20
42.39700450265299
 30
0.0
 11
152.5520630092775
 21
32.43771112477261
 31
0.0
  0
LINE
  5
3B8
  8
0
  6
CONTINUOUS
 62
     4
 10
145.0700237330717
 20
41.39702371419783
 30
0.0
 11
150.8200236570738
 21
31.43773033631744
 31
0.0
  0
LINE
  5
3B9
  8
0
  6
CONTINUOUS
 62
     4
 10
143.3379710855321
 20
40.39702278904782
 30
0.0
 11
149.0879710095338
 21
30.4377294111675
 31
0.0
  0
LINE
  5
3BA
  8
0
  6
CONTINUOUS
 62
     4
 10
205.23457075415
 20
213.5459165949173
 30
0.0
 11
215.6861651722402
 21
213.5459165949173
 31
0.0
  0
LINE
  5
3BB
  8
0
  6
CONTINUOUS
 62
     4
 10
202.4160564307818
 20
212.0459165949173
 30
0.0
 11
215.6861651722402
 21
212.0459165949173
 31
0.0
  0
LINE
  5
3BC
  8
0
  6
CONTINUOUS
 62
     4
 10
202.4160564307818
 20
210.5459165949173
 30
0.0
 11
215.6861651722402
 21
210.5459165949173
 31
0.0
  0
LINE
  5
3BD
  8
0
  6
CONTINUOUS
 62
     4
 10
202.4160564307818
 20
209.0459165949173
 30
0.0
 11
215.6861651722402
 21
209.0459165949173
 31
0.0
  0
LINE
  5
3BE
  8
0
  6
CONTINUOUS
 62
     4
 10
202.4160564307818
 20
207.5459165949173
 30
0.0
 11
215.6861651722402
 21
207.5459165949173
 31
0.0
  0
LINE
  5
3BF
  8
0
  6
CONTINUOUS
 62
     4
 10
248.7062768902475
 20
213.5459165949173
 30
0.0
 11
238.2546824721572
 21
213.5459165949173
 31
0.0
  0
LINE
  5
3C0
  8
0
  6
CONTINUOUS
 62
     4
 10
251.5247912136156
 20
212.0459165949173
 30
0.0
 11
238.2546824721572
 21
212.0459165949173
 31
0.0
  0
LINE
  5
3C1
  8
0
  6
CONTINUOUS
 62
     4
 10
251.5247912136156
 20
210.5459165949173
 30
0.0
 11
238.2546824721572
 21
210.5459165949173
 31
0.0
  0
LINE
  5
3C2
  8
0
  6
CONTINUOUS
 62
     4
 10
251.5247912136156
 20
209.0459165949173
 30
0.0
 11
238.2546824721572
 21
209.0459165949173
 31
0.0
  0
LINE
  5
3C3
  8
0
  6
CONTINUOUS
 62
     4
 10
251.5247912136156
 20
207.5459165949173
 30
0.0
 11
238.2546824721572
 21
207.5459165949173
 31
0.0
  0
LINE
  5
3C4
  8
0
  6
CONTINUOUS
 62
     4
 10
106.2009109033029
 20
-33.27609915026291
 30
0.0
 11
100.9751136942578
 21
-24.22475287414501
 31
0.0
  0
LINE
  5
3C5
  8
0
  6
CONTINUOUS
 62
     4
 10
108.9092061706634
 20
-34.96700415522996
 30
0.0
 11
102.2741517999344
 21
-23.47475287414501
 31
0.0
  0
LINE
  5
3C6
  8
0
  6
CONTINUOUS
 62
     4
 10
110.2082442763404
 20
-34.21700415522996
 30
0.0
 11
103.573189905611
 21
-22.72475287414501
 31
0.0
  0
LINE
  5
3C7
  8
0
  6
CONTINUOUS
 62
     4
 10
111.507282382017
 20
-33.46700415522996
 30
0.0
 11
104.8722280112875
 21
-21.97475287414501
 31
0.0
  0
LINE
  5
3C8
  8
0
  6
CONTINUOUS
 62
     4
 10
112.8063204876935
 20
-32.71700415522996
 30
0.0
 11
106.1712661169641
 21
-21.22475287414501
 31
0.0
  0
LINE
  5
3C9
  8
0
  6
CONTINUOUS
 62
     4
 10
369.4718766773352
 20
4.369243461746592
 30
0.0
 11
364.2460794682898
 21
-4.682102814371305
 31
0.0
  0
LINE
  5
3CA
  8
0
  6
CONTINUOUS
 62
     4
 10
369.5820957333427
 20
7.560148466713642
 30
0.0
 11
362.9470413626132
 21
-3.932102814371277
 31
0.0
  0
LINE
  5
3CB
  8
0
  6
CONTINUOUS
 62
     4
 10
368.2830576276659
 20
8.310148466713642
 30
0.0
 11
361.6480032569367
 21
-3.182102814371305
 31
0.0
  0
LINE
  5
3CC
  8
0
  6
CONTINUOUS
 62
     4
 10
366.9840195219891
 20
9.060148466713613
 30
0.0
 11
360.3489651512601
 21
-2.432102814371334
 31
0.0
  0
LINE
  5
3CD
  8
0
  6
CONTINUOUS
 62
     4
 10
365.6849814163125
 20
9.810148466713642
 30
0.0
 11
359.0499270455835
 21
-1.682102814371305
 31
0.0
  0
LINE
  5
3CE
  8
0
  6
CONTINUOUS
 62
     4
 10
84.46738043360534
 20
4.367484010035312
 30
0.0
 11
89.69317677661599
 21
-4.683862766087643
 31
0.0
  0
LINE
  5
3CF
  8
0
  6
CONTINUOUS
 62
     4
 10
84.35716168290406
 20
7.558389025548152
 30
0.0
 11
90.99221495405305
 21
-3.933862890379814
 31
0.0
  0
LINE
  5
3D0
  8
0
  6
CONTINUOUS
 62
     4
 10
85.65619986034068
 20
8.308388901255952
 30
0.0
 11
92.29125313148967
 21
-3.183863014672014
 31
0.0
  0
LINE
  5
3D1
  8
0
  6
CONTINUOUS
 62
     4
 10
86.95523803777775
 20
9.058388776963753
 30
0.0
 11
93.59029130892628
 21
-2.433863138964185
 31
0.0
  0
LINE
  5
3D2
  8
0
  6
CONTINUOUS
 62
     4
 10
88.25427621521436
 20
9.808388652671582
 30
0.0
 11
94.88932948636335
 21
-1.683863263256328
 31
0.0
  0
LINE
  5
3D3
  8
0
  6
CONTINUOUS
 62
     4
 10
347.7376221878827
 20
-33.27559373769138
 30
0.0
 11
352.9634185308933
 21
-24.22424696156843
 31
0.0
  0
LINE
  5
3D4
  8
0
  6
CONTINUOUS
 62
     4
 10
345.0293270823077
 20
-34.96649900178851
 30
0.0
 11
351.6643803534567
 21
-23.47424708586065
 31
0.0
  0
LINE
  5
3D5
  8
0
  6
CONTINUOUS
 62
     4
 10
343.7302889048711
 20
-34.21649912608073
 30
0.0
 11
350.3653421760199
 21
-22.72424721015283
 31
0.0
  0
LINE
  5
3D6
  8
0
  6
CONTINUOUS
 62
     4
 10
342.4312507274345
 20
-33.46649925037291
 30
0.0
 11
349.066303998583
 21
-21.974247334445
 31
0.0
  0
LINE
  5
3D7
  8
0
  6
CONTINUOUS
 62
     4
 10
341.1322125499974
 20
-32.71649937466508
 30
0.0
 11
347.7672658211464
 21
-21.22424745873717
 31
0.0
  0
LINE
  5
3D8
  8
0
  6
CONTINUOUS
 62
     4
 10
13.93805605285542
 20
-12.83366024862894
 30
0.0
 11
22.6856009924577
 21
-7.984817112916176
 31
0.0
  0
LINE
  5
3D9
  8
0
  6
CONTINUOUS
 62
     4
 10
9.812638115789362
 20
-5.688152219644266
 30
0.0
 11
18.38560259404128
 21
-0.5369955089559007
 31
0.0
  0
LINE
  5
3DA
  8
0
  6
CONTINUOUS
 62
     4
 10
106.2771655266758
 20
-241.0307920656635
 30
0.0
 11
-59.30783447332416
 21
-241.0307920656635
 31
0.0
  0
LINE
  5
3DB
  8
0
  6
CONTINUOUS
 62
     4
 10
106.2771655266758
 20
-229.9917920656635
 30
0.0
 11
-59.30783447332416
 21
-229.9917920656635
 31
0.0
  0
LINE
  5
3DC
  8
0
  6
CONTINUOUS
 62
     4
 10
106.2771655266758
 20
-218.9527920656635
 30
0.0
 11
-59.30783447332416
 21
-218.9527920656635
 31
0.0
  0
LINE
  5
3DD
  8
0
  6
CONTINUOUS
 62
     4
 10
106.2771655266758
 20
-207.9137920656635
 30
0.0
 11
-59.30783447332416
 21
-207.9137920656635
 31
0.0
  0
LINE
  5
3DE
  8
0
  6
CONTINUOUS
 62
     4
 10
106.2771655266758
 20
-196.8747920656635
 30
0.0
 11
-59.30783447332416
 21
-196.8747920656635
 31
0.0
  0
LINE
  5
3DF
  8
0
  6
CONTINUOUS
 62
     4
 10
106.2771655266758
 20
-185.8357920656635
 30
0.0
 11
-59.30783447332416
 21
-185.8357920656635
 31
0.0
  0
LINE
  5
3E0
  8
0
  6
CONTINUOUS
 62
     4
 10
106.2771655266758
 20
-174.7967920656635
 30
0.0
 11
-59.30783447332416
 21
-174.7967920656635
 31
0.0
  0
LINE
  5
3E1
  8
0
  6
CONTINUOUS
 62
     4
 10
106.2771655266758
 20
-163.7577920656635
 30
0.0
 11
-59.30783447332416
 21
-163.7577920656635
 31
0.0
  0
LINE
  5
3E2
  8
0
  6
CONTINUOUS
 62
     4
 10
106.2771655266758
 20
-152.7187920656635
 30
0.0
 11
-59.30783447332416
 21
-152.7187920656635
 31
0.0
  0
LINE
  5
3E3
  8
0
  6
CONTINUOUS
 62
     4
 10
106.2771655266758
 20
-141.6797920656635
 30
0.0
 11
-59.30783447332416
 21
-141.6797920656635
 31
0.0
  0
LINE
  5
3E4
  8
0
  6
CONTINUOUS
 62
     4
 10
106.2771655266758
 20
-130.6407920656635
 30
0.0
 11
-59.30783447332416
 21
-130.6407920656635
 31
0.0
  0
LINE
  5
3E5
  8
0
  6
CONTINUOUS
 62
     4
 10
106.2771655266758
 20
-119.6017920656635
 30
0.0
 11
-59.30783447332416
 21
-119.6017920656635
 31
0.0
  0
LINE
  5
3E6
  8
0
  6
CONTINUOUS
 62
     4
 10
-59.30783447332416
 20
-86.41009206566349
 30
0.0
 11
-59.30783447332416
 21
-241.0307920656635
 31
0.0
  0
LINE
  5
3E7
  8
0
  6
CONTINUOUS
 62
     4
 10
73.16016552667583
 20
-86.41009206566349
 30
0.0
 11
73.16016552667583
 21
-241.0307920656635
 31
0.0
  0
LINE
  5
3E8
  8
0
  6
CONTINUOUS
 62
     4
 10
106.2771655266758
 20
-86.41009206566349
 30
0.0
 11
106.2771655266758
 21
-241.0307920656635
 31
0.0
  0
LINE
  5
3E9
  8
0
  6
CONTINUOUS
 62
     4
 10
-26.19083447332417
 20
-86.41009206566349
 30
0.0
 11
-26.19083447332417
 21
-185.8357920656635
 31
0.0
  0
LINE
  5
3EA
  8
0
  6
CONTINUOUS
 62
     4
 10
-26.19083447332417
 20
-185.8357920656635
 30
0.0
 11
-26.19083447332417
 21
-241.0307920656635
 31
0.0
  0
LINE
  5
3EB
  8
0
  6
CONTINUOUS
 62
     4
 10
6.926165526675833
 20
-86.41009206566349
 30
0.0
 11
6.926165526675833
 21
-185.8357920656635
 31
0.0
  0
LINE
  5
3EC
  8
0
  6
CONTINUOUS
 62
     4
 10
6.926165526675833
 20
-185.8357920656635
 30
0.0
 11
6.926165526675833
 21
-241.0307920656635
 31
0.0
  0
LINE
  5
3ED
  8
0
  6
CONTINUOUS
 62
     4
 10
40.04316552667584
 20
-86.41009206566349
 30
0.0
 11
40.04316552667584
 21
-185.8357920656635
 31
0.0
  0
LINE
  5
3EE
  8
0
  6
CONTINUOUS
 62
     4
 10
40.04316552667584
 20
-185.8357920656635
 30
0.0
 11
40.04316552667584
 21
-241.0307920656635
 31
0.0
  0
LINE
  5
3EF
  8
0
  6
CONTINUOUS
 62
     4
 10
106.2771655266758
 20
-108.5378920656635
 30
0.0
 11
-59.30783447332416
 21
-108.5378920656635
 31
0.0
  0
LINE
  5
3F0
  8
0
  6
CONTINUOUS
 62
     4
 10
106.2771655266758
 20
-97.4739920656635
 30
0.0
 11
-59.30783447332416
 21
-97.4739920656635
 31
0.0
  0
LINE
  5
3F1
  8
0
  6
CONTINUOUS
 62
     4
 10
106.2771655266758
 20
-86.41009206566349
 30
0.0
 11
-59.30783447332416
 21
-86.41009206566349
 31
0.0
  0
LINE
  5
3F2
  8
0
  6
DASHED2
 62
     7
 10
-253.9083628579411
 20
159.3459141449726
 30
0.0
 11
-253.9083628579411
 21
135.1459142562571
 31
0.0
  0
LINE
  5
3F3
  8
0
  6
DASHED2
 62
     7
 10
-261.9083709513583
 20
135.1459142562571
 30
0.0
 11
-253.9083628579411
 21
135.1459142562571
 31
0.0
  0
LINE
  5
3F4
  8
0
  6
DASHED2
 62
     7
 10
-261.9083709513583
 20
159.3459141449726
 30
0.0
 11
-253.9083628579411
 21
159.3459141449726
 31
0.0
  0
LINE
  5
3F5
  8
0
  6
DASHED2
 62
     7
 10
191.970409995945
 20
215.1077859428002
 30
0.0
 11
191.970409995945
 21
178.8726566036784
 31
0.0
  0
LINE
  5
3F6
  8
0
  6
DASHED2
 62
     7
 10
261.9704160660077
 20
215.1077905986261
 30
0.0
 11
261.9704160660077
 21
178.8726566036784
 31
0.0
  0
LINE
  5
3F7
  8
0
  6
DASHED2
 62
     7
 10
212.2204088999611
 20
202.545901082535
 30
0.0
 11
216.4704131995891
 21
202.545901082535
 31
0.0
  0
LINE
  5
3F8
  8
0
  6
DASHED2
 62
     7
 10
242.4704179207488
 20
214.9577541451479
 30
0.0
 11
242.4704179207488
 21
149.0459224963672
 31
0.0
  0
LINE
  5
3F9
  8
0
  6
DASHED2
 62
     7
 10
211.4704189324262
 20
214.9577522423643
 30
0.0
 11
211.4704189324262
 21
149.0459224963672
 31
0.0
  0
LINE
  5
3FA
  8
0
  6
DASHED2
 62
     7
 10
241.7204279532135
 20
202.545901082535
 30
0.0
 11
241.7204279532135
 21
167.5459196299487
 31
0.0
  0
LINE
  5
3FB
  8
0
  6
DASHED2
 62
     7
 10
212.2204088999611
 20
202.545901082535
 30
0.0
 11
212.2204088999611
 21
167.5459196299487
 31
0.0
  0
LINE
  5
3FC
  8
0
  6
DASHED2
 62
     7
 10
241.7204279532135
 20
167.5459196299487
 30
0.0
 11
241.7204279532135
 21
147.0459159204659
 31
0.0
  0
LINE
  5
3FD
  8
0
  6
DASHED2
 62
     7
 10
212.2204088999611
 20
167.5459196299487
 30
0.0
 11
212.2204088999611
 21
147.0459159204659
 31
0.0
  0
LINE
  5
3FE
  8
0
  6
DASHED2
 62
     7
 10
237.4704128623635
 20
202.545901082535
 30
0.0
 11
241.7204279532135
 21
202.545901082535
 31
0.0
  0
ARC
  5
3FF
  8
0
  6
DASHED2
 62
     7
 10
226.9704238221989
 20
149.0459224963672
 30
0.0
 40
15.49999949416144
 50
179.9999776881997
 51
227.3576816947517
  0
ARC
  5
400
  8
0
  6
DASHED2
 62
     7
 10
226.9704238221989
 20
149.0459224963672
 30
0.0
 40
15.49999949416144
 50
312.6423028236371
 51
360.0
  0
LINE
  5
401
  8
0
  6
DASHED2
 62
     7
 10
201.9704093214933
 20
213.2826442309672
 30
0.0
 11
191.970409995945
 21
211.5193745428065
 31
0.0
  0
LINE
  5
402
  8
0
  6
DASHED2
 62
     7
 10
251.9704383229042
 20
213.2826442309672
 30
0.0
 11
261.9704376484525
 21
211.5193745428065
 31
0.0
  0
LINE
  5
403
  8
0
  6
DASHED2
 62
     7
 10
-108.9083652185212
 20
215.0459137284989
 30
0.0
 11
-108.9083652185212
 21
205.9593748491482
 31
0.0
  0
LINE
  5
404
  8
0
  6
DASHED2
 62
     7
 10
111.8905294974098
 20
137.2216332093914
 30
0.0
 11
94.74609129877703
 21
147.1199792184769
 31
0.0
  0
LINE
  5
405
  8
0
  6
DASHED2
 62
     7
 10
118.2828432696575
 20
132.3763274256763
 30
0.0
 11
94.20480249379855
 21
146.2777907491773
 31
0.0
  0
LINE
  5
406
  8
0
  6
DASHED2
 62
     7
 10
111.8905449613688
 20
137.2216492025315
 30
0.0
 11
103.8905476591744
 21
123.3652474147169
 31
0.0
  0
LINE
  5
407
  8
0
  6
DASHED2
 62
     7
 10
103.890542986438
 20
123.3652501125225
 30
0.0
 11
86.74610478780519
 21
133.263596121608
 31
0.0
  0
LINE
  5
408
  8
0
  6
DASHED2
 62
     7
 10
111.2828577703628
 20
120.2519968886525
 30
0.0
 11
87.20481699450383
 21
134.1534602121534
 31
0.0
  0
LINE
  5
409
  8
0
  6
DASHED2
 62
     7
 10
118.2828540608801
 20
132.376346116622
 30
0.0
 11
111.2828577703628
 21
120.2519968886525
 31
0.0
  0
LINE
  5
40A
  8
0
  6
DASHED2
 62
     7
 10
118.2828446604184
 20
132.3763313625133
 30
0.0
 11
118.2828442737321
 21
124.2934357006732
 31
0.0
  0
LINE
  5
40B
  8
0
  6
DASHED2
 62
     7
 10
118.2828447534805
 20
124.2934349674274
 30
0.0
 11
111.282861313004
 21
120.251992197239
 31
0.0
  0
LINE
  5
40C
  8
0
  6
DASHED2
 62
     7
 10
212.2204088999611
 20
147.0459159204659
 30
0.0
 11
216.4704131995891
 21
142.7959116208379
 31
0.0
  0
LINE
  5
40D
  8
0
  6
DASHED2
 62
     7
 10
241.7204279532135
 20
147.0459159204659
 30
0.0
 11
237.4704128623635
 21
142.795900829616
 31
0.0
  0
LINE
  5
40E
  8
0
  6
CENTER
 62
     7
 10
-211.9083716258095
 20
-60.54184827118588
 30
0.0
 11
-211.9083716258095
 21
-100.7902298275343
 31
0.0
  0
LINE
  5
40F
  8
0
  6
CENTER
 62
     7
 10
272.9704238221989
 20
186.1741506036217
 30
0.0
 11
272.9704238221989
 21
159.0928426538793
 31
0.0
  0
LINE
  5
410
  8
0
  6
CENTER
 62
     7
 10
260.4497177618687
 20
173.0459149087888
 30
0.0
 11
285.1888585375792
 21
173.0459149087888
 31
0.0
  0
LINE
  5
411
  8
0
  6
CENTER
 62
     7
 10
96.03762906418321
 20
39.0707533493255
 30
0.0
 11
119.4907297163696
 21
52.61140732419672
 31
0.0
  0
LINE
  5
412
  8
0
  6
CENTER
 62
     7
 10
113.6673677129433
 20
34.79162167517821
 30
0.0
 11
101.297797325088
 21
56.21634605474291
 31
0.0
  0
LINE
  5
413
  8
0
  6
CENTER
 62
     7
 10
311.8993054484056
 20
-40.60584304654625
 30
0.0
 11
288.4462047962192
 21
-27.06518907167501
 31
0.0
  0
LINE
  5
414
  8
0
  6
CENTER
 62
     7
 10
306.7902728599757
 20
-23.19847567756604
 30
0.0
 11
294.4207024721205
 21
-44.62320005713075
 31
0.0
  0
LINE
  5
415
  8
0
  6
CONTINUOUS
 62
     2
 10
207.9825946354086
 20
-0.5472254196252493
 30
0.0
 11
210.017759486434
 21
0.6277746771142461
 31
0.0
  0
LINE
  5
416
  8
0
  6
CONTINUOUS
 62
     2
 10
210.017749428379
 20
0.6277693351084821
 30
0.0
 11
212.0529114779811
 21
-0.5472357341580931
 31
0.0
  0
LINE
  5
417
  8
0
  6
CONTINUOUS
 62
     2
 10
212.0529075434711
 20
-0.5472298659157531
 30
0.0
 11
212.0529075434711
 21
-2.897229427522333
 31
0.0
  0
LINE
  5
418
  8
0
  6
CONTINUOUS
 62
     2
 10
212.0529476781572
 20
-2.897230913268729
 30
0.0
 11
210.0177828271313
 21
-4.072231080043807
 31
0.0
  0
LINE
  5
419
  8
0
  6
CONTINUOUS
 62
     2
 10
210.0177621175499
 20
-4.072231907986279
 30
0.0
 11
207.9825995076631
 21
-2.897227959289182
 31
0.0
  0
LINE
  5
41A
  8
0
  6
CONTINUOUS
 62
     2
 10
207.9825986818201
 20
-2.8972254651203
 30
0.0
 11
207.9825986818201
 21
-0.5472261564329983
 31
0.0
  0
LINE
  5
41B
  8
0
  6
CONTINUOUS
 62
     2
 10
241.8878942448833
 20
-0.5472167712068909
 30
0.0
 11
243.9230590959092
 21
0.6277833255326044
 31
0.0
  0
LINE
  5
41C
  8
0
  6
CONTINUOUS
 62
     2
 10
243.9230704299321
 20
0.6277786428564554
 30
0.0
 11
245.9582324795338
 21
-0.5472264264101199
 31
0.0
  0
LINE
  5
41D
  8
0
  6
CONTINUOUS
 62
     2
 10
245.9582273801321
 20
-0.5472288542386394
 30
0.0
 11
245.9582273801321
 21
-2.89722841584522
 31
0.0
  0
LINE
  5
41E
  8
0
  6
CONTINUOUS
 62
     2
 10
245.9582344975038
 20
-2.897241526450301
 30
0.0
 11
243.9230696464784
 21
-4.072241693225379
 31
0.0
  0
LINE
  5
41F
  8
0
  6
CONTINUOUS
 62
     2
 10
243.9230444604655
 20
-4.072226475004669
 30
0.0
 11
241.8878818505787
 21
-2.897222526307573
 31
0.0
  0
LINE
  5
420
  8
0
  6
CONTINUOUS
 62
     2
 10
241.8879077272591
 20
-2.897224453443187
 30
0.0
 11
241.8879077272591
 21
-0.5472251447558847
 31
0.0
  0
LINE
  5
421
  8
0
  6
CONTINUOUS
 62
     2
 10
288.2033945955205
 20
79.67355965222056
 30
0.0
 11
290.238540755589
 21
80.84854895775744
 31
0.0
  0
LINE
  5
422
  8
0
  6
CONTINUOUS
 62
     2
 10
290.2385534727019
 20
80.84855400472996
 30
0.0
 11
292.273715522304
 21
79.67354893546339
 31
0.0
  0
LINE
  5
423
  8
0
  6
CONTINUOUS
 62
     2
 10
292.2737229349914
 20
79.67356090812852
 30
0.0
 11
292.2737229349914
 21
77.32356176805406
 31
0.0
  0
LINE
  5
424
  8
0
  6
CONTINUOUS
 62
     2
 10
292.2737226766258
 20
77.32355597869851
 30
0.0
 11
290.2385765165573
 21
76.14856660312667
 31
0.0
  0
LINE
  5
425
  8
0
  6
CONTINUOUS
 62
     2
 10
290.2385315064271
 20
76.14856808021163
 30
0.0
 11
288.2033688965403
 21
77.32357202890871
 31
0.0
  0
LINE
  5
426
  8
0
  6
CONTINUOUS
 62
     2
 10
288.2034032821185
 20
77.32356716366537
 30
0.0
 11
288.2034032821185
 21
79.6735663037398
 31
0.0
  0
LINE
  5
427
  8
0
  6
CONTINUOUS
 62
     2
 10
271.250759450511
 20
109.0364137968959
 30
0.0
 11
273.2859056105795
 21
110.2114031024328
 31
0.0
  0
LINE
  5
428
  8
0
  6
CONTINUOUS
 62
     2
 10
273.2858993757496
 20
110.2113970833024
 30
0.0
 11
275.3210614253513
 21
109.0363920140358
 31
0.0
  0
LINE
  5
429
  8
0
  6
CONTINUOUS
 62
     2
 10
275.3210792034948
 20
109.0364181271023
 30
0.0
 11
275.3210792034948
 21
106.6864135914166
 31
0.0
  0
LINE
  5
42A
  8
0
  6
CONTINUOUS
 62
     2
 10
275.3210597368007
 20
106.6864133503876
 30
0.0
 11
273.2859135767322
 21
105.5114239748158
 31
0.0
  0
LINE
  5
42B
  8
0
  6
CONTINUOUS
 62
     2
 10
273.2858824618962
 20
105.5114144946073
 30
0.0
 11
271.2507198520098
 21
106.6864184433045
 31
0.0
  0
LINE
  5
42C
  8
0
  6
CONTINUOUS
 62
     2
 10
271.2507595506214
 20
106.6864135914166
 30
0.0
 11
271.2507595506214
 21
109.0364181271023
 31
0.0
  0
LINE
  5
42D
  8
0
  6
CONTINUOUS
 62
     2
 10
178.6197651117105
 20
109.0364067929294
 30
0.0
 11
180.6549299627364
 21
110.2114068896689
 31
0.0
  0
LINE
  5
42E
  8
0
  6
CONTINUOUS
 62
     2
 10
180.6549069958592
 20
110.21139913742
 30
0.0
 11
182.6900690454609
 21
109.0363940681534
 31
0.0
  0
LINE
  5
42F
  8
0
  6
CONTINUOUS
 62
     2
 10
182.6900773025537
 20
109.0364073358798
 30
0.0
 11
182.6900773025537
 21
106.6864028001941
 31
0.0
  0
LINE
  5
430
  8
0
  6
CONTINUOUS
 62
     2
 10
182.690083383101
 20
106.6864135786721
 30
0.0
 11
180.6549185320751
 21
105.511413411897
 31
0.0
  0
LINE
  5
431
  8
0
  6
CONTINUOUS
 62
     2
 10
180.6549131776006
 20
105.5113805493174
 30
0.0
 11
178.6197505677138
 21
106.6863844980145
 31
0.0
  0
LINE
  5
432
  8
0
  6
CONTINUOUS
 62
     2
 10
178.6197576496803
 20
106.6864028001941
 30
0.0
 11
178.6197576496803
 21
109.0364073358798
 31
0.0
  0
LINE
  5
433
  8
0
  6
CONTINUOUS
 62
     2
 10
161.667115291501
 20
79.67356180014726
 30
0.0
 11
163.7022801425265
 21
80.84856189688675
 31
0.0
  0
LINE
  5
434
  8
0
  6
CONTINUOUS
 62
     2
 10
163.7022602279727
 20
80.84856004640663
 30
0.0
 11
165.7374222775744
 21
79.67355497714006
 31
0.0
  0
LINE
  5
435
  8
0
  6
CONTINUOUS
 62
     2
 10
165.7374335710566
 20
79.67356090812852
 30
0.0
 11
165.7374335710566
 21
77.32356176805406
 31
0.0
  0
LINE
  5
436
  8
0
  6
CONTINUOUS
 62
     2
 10
165.7374552882657
 20
77.3235741213196
 30
0.0
 11
163.7022904372398
 21
76.14857395454449
 31
0.0
  0
LINE
  5
437
  8
0
  6
CONTINUOUS
 62
     2
 10
163.7022746773269
 20
76.14856285684861
 30
0.0
 11
161.6671167401742
 21
77.32356410773623
 31
0.0
  0
LINE
  5
438
  8
0
  6
CONTINUOUS
 62
     2
 10
161.6671139181831
 20
77.32356716366537
 30
0.0
 11
161.6671139181831
 21
79.6735663037398
 31
0.0
  0
LINE
  5
439
  8
0
  6
CONTINUOUS
 62
     2
 10
219.9123152104326
 20
-20.07906333506031
 30
0.0
 11
226.9704317680299
 21
-16.0040678211607
 31
0.0
  0
LINE
  5
43A
  8
0
  6
CONTINUOUS
 62
     2
 10
226.9704374516182
 20
-16.00408288994127
 30
0.0
 11
234.0285438078732
 21
-20.07909662052406
 31
0.0
  0
LINE
  5
43B
  8
0
  6
CONTINUOUS
 62
     2
 10
234.0285092637265
 20
-20.0790934797006
 30
0.0
 11
234.0285092637265
 21
-28.22909282211047
 31
0.0
  0
LINE
  5
43C
  8
0
  6
CONTINUOUS
 62
     2
 10
234.0284905476356
 20
-28.22906780068652
 30
0.0
 11
226.9703739900384
 21
-32.30406355747525
 31
0.0
  0
LINE
  5
43D
  8
0
  6
CONTINUOUS
 62
     2
 10
226.9704046046805
 20
-32.30408488336889
 30
0.0
 11
219.9123051650027
 21
-28.22908140618728
 31
0.0
  0
LINE
  5
43E
  8
0
  6
CONTINUOUS
 62
     2
 10
219.9123167982257
 20
-28.22907933308228
 30
0.0
 11
219.9123167982257
 21
-20.07908133957523
 31
0.0
  0
LINE
  5
43F
  8
0
  6
CONTINUOUS
 62
     2
 10
300.8856811050651
 20
18.87092797499022
 30
0.0
 11
307.9437976626628
 21
22.94592348888985
 31
0.0
  0
LINE
  5
440
  8
0
  6
CONTINUOUS
 62
     2
 10
307.9438299449867
 20
22.94592584509597
 30
0.0
 11
315.0019363012416
 21
18.87091211451319
 31
0.0
  0
LINE
  5
441
  8
0
  6
CONTINUOUS
 62
     2
 10
315.0019153074182
 20
18.87091651904156
 30
0.0
 11
315.0019153074182
 21
10.7209185255345
 31
0.0
  0
LINE
  5
442
  8
0
  6
CONTINUOUS
 62
     2
 10
315.0018900756173
 20
10.72093302097838
 30
0.0
 11
307.94377351802
 21
6.645937264189655
 31
0.0
  0
LINE
  5
443
  8
0
  6
CONTINUOUS
 62
     2
 10
307.9437864524471
 20
6.645921868572458
 30
0.0
 11
300.8856776673011
 21
10.72093074137305
 31
0.0
  0
LINE
  5
444
  8
0
  6
CONTINUOUS
 62
     2
 10
300.8857012594722
 20
10.72093201456269
 30
0.0
 11
300.8857012594722
 21
18.87093000806975
 31
0.0
  0
LINE
  5
445
  8
0
  6
CONTINUOUS
 62
     2
 10
331.1965524784674
 20
1.370929472291834
 30
0.0
 11
338.2546690360649
 21
5.445924986191443
 31
0.0
  0
LINE
  5
446
  8
0
  6
CONTINUOUS
 62
     2
 10
338.2546950696088
 20
5.445941346201039
 30
0.0
 11
345.3128014258635
 21
1.370927615618257
 31
0.0
  0
LINE
  5
447
  8
0
  6
CONTINUOUS
 62
     2
 10
345.312819197081
 20
1.370922420491382
 30
0.0
 11
345.312819197081
 21
-6.779075741628517
 31
0.0
  0
LINE
  5
448
  8
0
  6
CONTINUOUS
 62
     2
 10
345.3127569567521
 20
-6.779055614700368
 30
0.0
 11
338.2546403991547
 21
-10.85405137148908
 31
0.0
  0
LINE
  5
449
  8
0
  6
CONTINUOUS
 62
     2
 10
338.2546699075393
 20
-10.85407125087259
 30
0.0
 11
331.1965611223932
 21
-6.779062378071998
 31
0.0
  0
LINE
  5
44A
  8
0
  6
CONTINUOUS
 62
     2
 10
331.1965619842445
 20
-6.779062421213183
 30
0.0
 11
331.1965619842445
 21
1.370935572293874
 31
0.0
  0
LINE
  5
44B
  8
0
  6
CONTINUOUS
 62
     2
 10
219.9123102232507
 20
159.1209185871372
 30
0.0
 11
226.970426780848
 21
163.1959141010369
 31
0.0
  0
LINE
  5
44C
  8
0
  6
CONTINUOUS
 62
     2
 10
226.9704465247233
 20
163.195937192892
 30
0.0
 11
234.0285435355132
 21
159.1209288579346
 31
0.0
  0
LINE
  5
44D
  8
0
  6
CONTINUOUS
 62
     2
 10
234.0285092637265
 20
159.1209100274467
 30
0.0
 11
234.0285092637265
 21
150.9709147317453
 31
0.0
  0
LINE
  5
44E
  8
0
  6
CONTINUOUS
 62
     2
 10
234.0285064676601
 20
150.97089415096
 30
0.0
 11
226.9703899100628
 21
146.8958983941713
 31
0.0
  0
LINE
  5
44F
  8
0
  6
CONTINUOUS
 62
     2
 10
226.9703974672917
 20
146.8959121928432
 30
0.0
 11
219.9122980276139
 21
150.9709156700248
 31
0.0
  0
LINE
  5
450
  8
0
  6
CONTINUOUS
 62
     2
 10
219.9123167982257
 20
150.9709255229679
 30
0.0
 11
219.9123167982257
 21
159.1209208186693
 31
0.0
  0
LINE
  5
451
  8
0
  6
CONTINUOUS
 62
     2
 10
219.9123019211157
 20
194.1209027941995
 30
0.0
 11
226.9704184787129
 21
198.1958983080992
 31
0.0
  0
LINE
  5
452
  8
0
  6
CONTINUOUS
 62
     2
 10
226.9704414877697
 20
198.1959384268216
 30
0.0
 11
234.0285384985596
 21
194.1209300918642
 31
0.0
  0
LINE
  5
453
  8
0
  6
CONTINUOUS
 62
     2
 10
234.0285092637265
 20
194.120891480033
 30
0.0
 11
234.0285092637265
 21
185.9709069755541
 31
0.0
  0
LINE
  5
454
  8
0
  6
CONTINUOUS
 62
     2
 10
234.0285159531468
 20
185.9708896707647
 30
0.0
 11
226.9703993955496
 21
181.8958939139761
 31
0.0
  0
LINE
  5
455
  8
0
  6
CONTINUOUS
 62
     2
 10
226.9703971846407
 20
181.8958958424135
 30
0.0
 11
219.9122977449629
 21
185.9708993195952
 31
0.0
  0
LINE
  5
456
  8
0
  6
CONTINUOUS
 62
     2
 10
219.9123167982257
 20
185.9709069755541
 30
0.0
 11
219.9123167982257
 21
194.1209130624781
 31
0.0
  0
LINE
  5
457
  8
0
  6
CONTINUOUS
 62
     2
 10
138.9389391773971
 20
18.87093362121264
 30
0.0
 11
145.9970557349944
 21
22.94592913511225
 31
0.0
  0
LINE
  5
458
  8
0
  6
CONTINUOUS
 62
     2
 10
145.9970727414575
 20
22.94592951461273
 30
0.0
 11
153.0551697522474
 21
18.87092117965538
 31
0.0
  0
LINE
  5
459
  8
0
  6
CONTINUOUS
 62
     2
 10
153.0551571761476
 20
18.87091921684718
 30
0.0
 11
153.0551571761476
 21
10.72092122334014
 31
0.0
  0
LINE
  5
45A
  8
0
  6
CONTINUOUS
 62
     2
 10
153.0551390870815
 20
10.7209244190819
 30
0.0
 11
145.9970318749625
 21
6.645934057894806
 31
0.0
  0
LINE
  5
45B
  8
0
  6
CONTINUOUS
 62
     2
 10
145.9970375484427
 20
6.645928897944913
 30
0.0
 11
138.9389334360308
 21
10.72093507293602
 31
0.0
  0
LINE
  5
45C
  8
0
  6
CONTINUOUS
 62
     2
 10
138.9389431282016
 20
10.72093471236833
 30
0.0
 11
138.9389431282016
 21
18.87093270587538
 31
0.0
  0
LINE
  5
45D
  8
0
  6
CONTINUOUS
 62
     2
 10
108.628046720794
 20
1.370934066414463
 30
0.0
 11
115.6861632783912
 21
5.445929580314072
 31
0.0
  0
LINE
  5
45E
  8
0
  6
CONTINUOUS
 62
     2
 10
115.6861752719288
 20
5.445934362079797
 30
0.0
 11
122.744276955451
 21
1.370923329309733
 31
0.0
  0
LINE
  5
45F
  8
0
  6
CONTINUOUS
 62
     2
 10
122.7442640777081
 20
1.370919048234342
 30
0.0
 11
122.7442640777081
 21
-6.779078945272715
 31
0.0
  0
LINE
  5
460
  8
0
  6
CONTINUOUS
 62
     2
 10
122.7442479793795
 20
-6.779078515167285
 30
0.0
 11
115.686140767261
 21
-10.85406887635436
 31
0.0
  0
LINE
  5
461
  8
0
  6
CONTINUOUS
 62
     2
 10
115.6861369371046
 20
-10.85407025476367
 30
0.0
 11
108.6280374974268
 21
-6.779066777582059
 31
0.0
  0
LINE
  5
462
  8
0
  6
CONTINUOUS
 62
     2
 10
108.6280500297617
 20
-6.779065624857381
 30
0.0
 11
108.6280500297617
 21
1.370932537262533
 31
0.0
  0
CIRCLE
  5
463
  8
0
  6
CONTINUOUS
 62
     2
 10
210.0177585082566
 20
-1.722226906760199
 30
0.0
 40
4.249999915693574
  0
CIRCLE
  5
464
  8
0
  6
CONTINUOUS
 62
     2
 10
243.9230675536956
 20
-1.722226063695928
 30
0.0
 40
4.249999915693574
  0
CIRCLE
  5
465
  8
0
  6
CONTINUOUS
 62
     2
 10
290.238563108555
 20
78.49856403589693
 30
0.0
 40
4.249999915693574
  0
CIRCLE
  5
466
  8
0
  6
CONTINUOUS
 62
     2
 10
273.2859193770583
 20
107.8614158592595
 30
0.0
 40
4.249999915693574
  0
CIRCLE
  5
467
  8
0
  6
CONTINUOUS
 62
     2
 10
180.6549174761167
 20
107.8614050680369
 30
0.0
 40
4.249999915693574
  0
CIRCLE
  5
468
  8
0
  6
CONTINUOUS
 62
     2
 10
163.7022737446201
 20
78.49856403589693
 30
0.0
 40
4.249999915693574
  0
CIRCLE
  5
469
  8
0
  6
CONTINUOUS
 62
     2
 10
226.9704238221989
 20
-24.15408573194003
 30
0.0
 40
12.0
  0
CIRCLE
  5
46A
  8
0
  6
CONTINUOUS
 62
     2
 10
226.9704238221989
 20
-24.15408573194003
 30
0.0
 40
11.00000033722571
  0
CIRCLE
  5
46B
  8
0
  6
CONTINUOUS
 62
     2
 10
307.9438082834454
 20
14.79592696460776
 30
0.0
 40
12.0
  0
CIRCLE
  5
46C
  8
0
  6
CONTINUOUS
 62
     2
 10
307.9438082834454
 20
14.79592696460776
 30
0.0
 40
11.00000033722571
  0
CIRCLE
  5
46D
  8
0
  6
CONTINUOUS
 62
     2
 10
338.2547121731078
 20
-2.704067892700238
 30
0.0
 40
12.0
  0
CIRCLE
  5
46E
  8
0
  6
CONTINUOUS
 62
     2
 10
338.2547121731078
 20
-2.704067892700238
 30
0.0
 40
11.00000033722571
  0
CIRCLE
  5
46F
  8
0
  6
CONTINUOUS
 62
     2
 10
226.9704238221989
 20
155.0459177752073
 30
0.0
 40
12.0
  0
CIRCLE
  5
470
  8
0
  6
CONTINUOUS
 62
     2
 10
226.9704238221989
 20
155.0459177752073
 30
0.0
 40
11.00000033722571
  0
CIRCLE
  5
471
  8
0
  6
CONTINUOUS
 62
     2
 10
226.9704238221989
 20
190.0459100190161
 30
0.0
 40
12.0
  0
CIRCLE
  5
472
  8
0
  6
CONTINUOUS
 62
     2
 10
226.9704238221989
 20
190.0459100190161
 30
0.0
 40
11.00000033722571
  0
CIRCLE
  5
473
  8
0
  6
CONTINUOUS
 62
     2
 10
145.997039360952
 20
14.79592831351057
 30
0.0
 40
12.0
  0
CIRCLE
  5
474
  8
0
  6
CONTINUOUS
 62
     2
 10
145.997039360952
 20
14.79592831351057
 30
0.0
 40
11.00000033722571
  0
CIRCLE
  5
475
  8
0
  6
CONTINUOUS
 62
     2
 10
115.6861570537349
 20
-2.704071180650857
 30
0.0
 40
12.0
  0
CIRCLE
  5
476
  8
0
  6
CONTINUOUS
 62
     2
 10
115.6861570537349
 20
-2.704071180650857
 30
0.0
 40
11.00000033722571
  0
INSERT
  5
477
  8
LAYER0014
  6
CONTINUOUS
  2
DA_IMAGEDIMGROUP_1
 10
0.0
 20
0.0
 30
0.0
  0
LINE
  5
478
  8
0
  6
CONTINUOUS
 62
     5
 10
111.5771751677222
 20
78.13731700733537
 30
0.0
 11
111.0145683713454
 21
77.16285343383744
 31
0.0
  0
LINE
  5
479
  8
0
  6
CONTINUOUS
 62
     5
 10
112.3138460967508
 20
76.41268867378871
 30
0.0
 11
111.0145569272541
 21
77.16283361208913
 31
0.0
  0
LINE
  5
47A
  8
0
  6
CONTINUOUS
 62
     5
 10
112.313860844467
 20
76.41270658818839
 30
0.0
 11
111.7512540480903
 21
75.43824301469046
 31
0.0
  0
LINE
  5
47B
  8
0
  6
CONTINUOUS
 62
     5
 10
112.9303007158483
 20
89.48275993725351
 30
0.0
 11
113.2048709057513
 21
88.45805002970305
 31
0.0
  0
LINE
  5
47C
  8
0
  6
CONTINUOUS
 62
     5
 10
114.2296064973503
 20
88.7326731085583
 30
0.0
 11
113.2048800012477
 21
88.45809836197329
 31
0.0
  0
LINE
  5
47D
  8
0
  6
CONTINUOUS
 62
     5
 10
111.577180241754
 20
78.13728764884424
 30
0.0
 11
110.2778778577586
 21
78.88744021653896
 31
0.0
  0
LINE
  5
47E
  8
0
  6
CONTINUOUS
 62
     5
 10
110.0922654645879
 20
77.14643259819333
 30
0.0
 11
107.5286592967755
 21
78.62653128271076
 31
0.0
  0
ARC
  5
47F
  8
0
  6
CONTINUOUS
 62
     5
 10
110.9770174756114
 20
84.63853862738633
 30
0.0
 40
2.625509262084961
 50
195.0001079549973
 51
489.9999533779449
  0
LINE
  5
480
  8
0
  6
CONTINUOUS
 62
     5
 10
107.5286344421302
 20
78.62651338301556
 30
0.0
 11
107.8032090749562
 21
77.6017868942496
 31
0.0
  0
LINE
  5
481
  8
0
  6
CONTINUOUS
 62
     5
 10
108.5533629759148
 20
78.9011354132921
 30
0.0
 11
107.5286364798122
 21
78.62656066670708
 31
0.0
  0
LINE
  5
482
  8
0
  6
CONTINUOUS
 62
     5
 10
111.0280441510245
 20
80.18674348573838
 30
0.0
 11
110.2778992127242
 21
78.88745431624149
 31
0.0
  0
LINE
  5
483
  8
0
  6
CONTINUOUS
 62
     5
 10
109.4703153437773
 20
83.70238334319153
 30
0.0
 11
108.4409529292889
 21
83.95903211072699
 31
0.0
  0
LINE
  5
484
  8
0
  6
CONTINUOUS
 62
     5
 10
108.440928518659
 20
83.95898550990093
 30
0.0
 11
108.1842796647453
 21
82.9296231185573
 31
0.0
  0
LINE
  5
485
  8
0
  6
CONTINUOUS
 62
     5
 10
115.4553137447875
 20
92.35591246579351
 30
0.0
 11
115.7298873902979
 21
91.33118966174222
 31
0.0
  0
LINE
  5
486
  8
0
  6
CONTINUOUS
 62
     5
 10
113.2048943429327
 20
88.45805895481637
 30
0.0
 11
115.4553291578341
 21
92.35592646330714
 31
0.0
  0
LINE
  5
487
  8
0
  6
CONTINUOUS
 62
     5
 10
115.5755354003705
 20
77.56123061658242
 30
0.0
 11
102.5826437054016
 21
85.06267999958676
 31
0.0
  0
LINE
  5
488
  8
0
  6
CONTINUOUS
 62
     5
 10
119.3262700027468
 20
84.05767074202119
 30
0.0
 11
113.7001867801906
 21
74.31300857804378
 31
0.0
  0
LINE
  5
489
  8
0
  6
CONTINUOUS
 62
     5
 10
113.7001692399222
 20
74.31300108559073
 30
0.0
 11
111.7512354856768
 21
75.43821849304131
 31
0.0
  0
LINE
  5
48A
  8
0
  6
CONTINUOUS
 62
     5
 10
115.4553107086672
 20
92.35597576792942
 30
0.0
 11
114.4305915819937
 21
92.0814029959778
 31
0.0
  0
LINE
  5
48B
  8
0
  6
CONTINUOUS
 62
     5
 10
119.3262700027468
 20
84.05767074202119
 30
0.0
 11
106.3333683969036
 21
91.5591258470712
 31
0.0
  0
LINE
  5
48C
  8
0
  6
CONTINUOUS
 62
     5
 10
106.3333760262977
 20
91.55913906157015
 30
0.0
 11
102.5826513347957
 21
85.06269321408549
 31
0.0
  0
TEXT
  5
48D
  8
0
 62
     5
 10
325.0237157417695
 20
124.5081722968241
 30
0.0
 40
4.0
  1
MAC3-315A8
 50
120.0
 41
0.7727275669021225
  7
FDASTYLE1
 72
     5
 11
305.595141298906
 21
158.1594503504979
 31
0.0
  0
TEXT
  5
48E
  8
0
 62
     5
 10
330.8411199025988
 20
128.4442024242534
 30
0.0
 40
3.0
  1
0001
 50
120.0
 41
0.7647060767727441
  7
FDASTYLE1
 72
     5
 11
325.2696910672068
 21
138.0942002379066
 31
0.0
  0
TEXT
  5
48F
  8
0
 62
     5
 10
342.9701338319829
 20
94.22408266124867
 30
0.0
 40
4.999999999999999
  1
NIKKO
 50
120.0
 41
0.7674421159044377
  7
FDASTYLE1
 72
     5
 11
331.184418132787
 21
114.6375410558181
 31
0.0
  0
TEXT
  5
490
  8
0
 62
     5
 10
348.5823116584737
 20
98.50350552465457
 30
0.0
 40
4.0
  1
NOMURA
 50
120.0
 41
0.7142857142857141
  7
FDASTYLE1
 72
     5
 11
337.3323116584737
 21
117.9890771098044
 31
0.0
  0
TEXT
  5
491
  8
0
 62
     5
 10
132.7186843061913
 20
148.2962127997467
 30
0.0
 40
3.0
  1
N MAX 5500 AT ΣS MAX
 50
-120.0
 41
0.7873403193732396
  7
FDASTYLE1
 72
     5
 11
102.6957819366921
 21
96.2950205050941
 31
0.0
  0
TEXT
  5
492
  8
0
 62
     5
 10
137.0488116736846
 20
145.7962121960038
 30
0.0
 40
3.0
  1
ΣS MAX 132KN
 50
-120.0
 41
0.7875848900298668
  7
FDASTYLE1
 72
     5
 11
119.2091158624129
 21
114.8969526593076
 31
0.0
  0
TEXT
  5
493
  8
0
 62
     5
 10
141.3789371338293
 20
143.2962148958857
 30
0.0
 40
3.0
  1
F  MAX  48KN
 50
-120.0
 41
0.7829148041076994
  7
FDASTYLE1
 72
     5
 11
123.5392413225576
 21
112.3969553591895
 31
0.0
  0
TEXT
  5
494
  8
0
 62
     5
 10
116.3290298214515
 20
90.60824816751908
 30
0.0
 40
3.0
  1
F
 50
-120.0
 41
0.8791213035583499
  7
FDASTYLE1
 72
     5
 11
115.010347866114
 21
88.32422402185021
 31
0.0
  0
TEXT
  5
495
  8
0
 62
     5
 10
105.9021686893025
 20
87.589516964486
 30
0.0
 40
3.0
  1
N min
 50
-120.0
 41
0.7983873081712212
  7
FDASTYLE1
 72
     5
 11
98.47716837935829
 21
74.72903918144806
 31
0.0
  0
TEXT
  5
496
  8
0
 62
     5
 10
106.723690990972
 20
77.37683587785561
 30
0.0
 40
3.0
  1
ΣS
 50
-120.0
 41
0.9590411728078659
  7
FDASTYLE1
 72
     5
 11
103.5588551207061
 21
71.89517935293851
 31
0.0
  0
TEXT
  5
497
  8
0
 62
     5
 10
99.9883000536686
 20
73.07716493727102
 30
0.0
 40
1.5
  1
-1
 50
-120.0
 41
0.7826089394040336
  7
FDASTYLE1
 72
     5
 11
98.63829983611164
 21
70.73889597023334
 31
0.0
  0
LINE
  5
498
  8
0
  6
CONTINUOUS
 62
     3
 10
211.9704238221985
 20
215.0459165949173
 30
0.0
 11
241.9704238221989
 21
215.0459165949173
 31
0.0
  0
LINE
  5
499
  8
0
  6
CONTINUOUS
 62
     3
 10
211.9704238221985
 20
215.0459165949173
 30
0.0
 11
201.9704093214933
 21
213.2826442309672
 31
0.0
  0
LINE
  5
49A
  8
0
  6
CONTINUOUS
 62
     3
 10
241.9704238221989
 20
215.0459165949173
 30
0.0
 11
251.9704383229042
 21
213.2826442309672
 31
0.0
  0
LINE
  5
49B
  8
0
  6
CONTINUOUS
 62
     3
 10
101.5339462636017
 20
-28.19267927717336
 30
0.0
 11
108.0609921749261
 21
-35.97130969102169
 31
0.0
  0
LINE
  5
49C
  8
0
  6
CONTINUOUS
 62
     3
 10
101.5339462636017
 20
-28.19267927717336
 30
0.0
 11
86.53394626360165
 21
-2.211917163639996
 31
0.0
  0
LINE
  5
49D
  8
0
  6
CONTINUOUS
 62
     3
 10
86.53394626360165
 20
-2.211917163639996
 30
0.0
 11
83.06097767422085
 21
7.329985614158531
 31
0.0
  0
LINE
  5
49E
  8
0
  6
CONTINUOUS
 62
     3
 10
367.4029882489875
 20
-2.214176411342933
 30
0.0
 11
370.875956838368
 21
7.327726366455508
 31
0.0
  0
LINE
  5
49F
  8
0
  6
CONTINUOUS
 62
     3
 10
367.4029882489875
 20
-2.214176411342933
 30
0.0
 11
352.4029882489872
 21
-28.19493852487631
 31
0.0
  0
LINE
  5
4A0
  8
0
  6
CONTINUOUS
 62
     3
 10
352.4029882489872
 20
-28.19493852487631
 30
0.0
 11
345.8759423376628
 21
-35.97356893872465
 31
0.0
  0
LINE
  5
4A1
  8
0
  6
CONTINUOUS
 62
     3
 10
19.55133188664935
 20
24.92624002248319
 30
0.0
 11
43.63657825767039
 21
-16.79063040493917
 31
0.0
  0
LINE
  5
4A2
  8
0
  6
CONTINUOUS
 62
     3
 10
-143.4083682535526
 20
4.045921484690055
 30
0.0
 11
-143.4083682535526
 21
0.0459224963671687
 31
0.0
  0
LINE
  5
4A3
  8
0
  6
CONTINUOUS
 62
     3
 10
-143.4083682535526
 20
4.045921484690055
 30
0.0
 11
-123.9083716258097
 21
4.045921484690055
 31
0.0
  0
ARC
  5
4A4
  8
0
  6
CONTINUOUS
 62
     3
 10
226.9689849015765
 20
61.54342262519175
 30
0.0
 40
155.4999974708072
 50
119.2411331571153
 51
180.7588723249573
  0
LINE
  5
4A5
  8
0
  6
CONTINUOUS
 62
     3
 10
70.4361206262399
 20
54.42058655005162
 30
0.0
 11
115.7222865598538
 21
132.8585160687137
 31
0.0
  0
ARC
  5
4A6
  8
0
  6
CONTINUOUS
 62
     3
 10
226.9674082841208
 20
61.54521033906046
 30
0.0
 40
155.4999974708072
 50
239.2411332629449
 51
300.7588589676286
  0
ARC
  5
4A7
  8
0
  6
CONTINUOUS
 62
     3
 10
226.9666483872236
 20
61.54295109135752
 30
0.0
 40
155.4999974708072
 50
359.2411342266702
 51
420.7588589676286
  0
LINE
  5
4A8
  8
0
  6
CONTINUOUS
 62
     3
 10
298.3180354344716
 20
201.9587616163767
 30
0.0
 11
384.2453208949394
 21
53.12831702915808
 31
0.0
  0
LINE
  5
4A9
  8
0
  6
CONTINUOUS
 62
     3
 10
8.524371282977256
 20
-13.50498722676033
 30
0.0
 11
9.849826772489138
 21
-14.27023929669394
 31
0.0
  0
LINE
  5
4AA
  8
0
  6
CONTINUOUS
 62
     3
 10
6.524373551234042
 20
-10.04089679761153
 30
0.0
 11
6.524373563128684
 21
-8.510409803278858
 31
0.0
  0
LINE
  5
4AB
  8
0
  6
CONTINUOUS
 62
     3
 10
12.67203311265719
 20
-12.64084406576336
 30
0.0
 11
22.29433407006514
 21
-7.307115771798145
 31
0.0
  0
LINE
  5
4AC
  8
0
  6
CONTINUOUS
 62
     3
 10
9.346610343976479
 20
-6.880968347009231
 30
0.0
 11
18.77687571440356
 21
-1.214693294817261
 31
0.0
  0
LINE
  5
4AD
  8
0
  6
CONTINUOUS
 62
     3
 10
9.849812833761988
 20
-14.27023517324879
 30
0.0
 11
12.67202508882481
 21
-12.64083016807801
 31
0.0
  0
LINE
  5
4AE
  8
0
  6
CONTINUOUS
 62
     3
 10
6.524374433417073
 20
-8.510406906410818
 30
0.0
 11
9.849812833761988
 21
-14.27023517324879
 31
0.0
  0
LINE
  5
4AF
  8
0
  6
CONTINUOUS
 62
     3
 10
6.524412512502479
 20
-10.04086832352462
 30
0.0
 11
8.524413406572165
 21
-13.50497148723648
 31
0.0
  0
LINE
  5
4B0
  8
0
  6
CONTINUOUS
 62
     3
 10
9.346597129998393
 20
-6.880989265577169
 30
0.0
 11
6.524369665297229
 21
-8.510403052036732
 31
0.0
  0
LINE
  5
4B1
  8
0
  6
CONTINUOUS
 62
     3
 10
9.81262006615065
 20
-5.6881646684853
 30
0.0
 11
13.93806626278285
 21
-12.83364708494406
 31
0.0
  0
LINE
  5
4B2
  8
0
  6
CONTINUOUS
 62
     3
 10
20.76974645768335
 20
2.456063196551174
 30
0.0
 11
18.06558424868628
 21
0.8948144172542989
 31
0.0
  0
LINE
  5
4B3
  8
0
  6
CONTINUOUS
 62
     3
 10
29.09628531207163
 20
-2.488431864312855
 30
0.0
 11
26.3258804963978
 21
2.310050033967702
 31
0.0
  0
LINE
  5
4B4
  8
0
  6
CONTINUOUS
 62
     3
 10
26.22470650174641
 20
-6.114717570407006
 30
0.0
 11
21.77470955350421
 21
1.592903237474925
 31
0.0
  0
LINE
  5
4B5
  8
0
  6
CONTINUOUS
 62
     3
 10
24.80231213113182
 20
-5.138835962063535
 30
0.0
 11
22.62666380800448
 21
-6.394947107083066
 31
0.0
  0
LINE
  5
4B6
  8
0
  6
CONTINUOUS
 62
     3
 10
21.90865063210839
 20
-0.1268672258490184
 30
0.0
 11
19.73300230898104
 21
-1.382978370868553
 31
0.0
  0
ARC
  5
4B7
  8
0
  6
CONTINUOUS
 62
     3
 10
20.04265874593534
 20
0.5929032374749177
 30
0.0
 40
2.0
 50
210.0
 51
261.0931651994833
  0
ARC
  5
4B8
  8
0
  6
CONTINUOUS
 62
     3
 10
25.73175883519418
 20
-1.260907166466037
 30
0.0
 40
6.0
 50
210.0
 51
238.8342378076667
  0
ARC
  5
4B9
  8
0
  6
CONTINUOUS
 62
     3
 10
18.80355560491868
 20
-5.260907166466037
 30
0.0
 40
6.0
 50
1.165774031478924
 51
58.83420866567715
  0
ARC
  5
4BA
  8
0
  6
CONTINUOUS
 62
     3
 10
25.73175883519418
 20
-1.260907166466037
 30
0.0
 40
6.0
 50
181.1657621923334
 51
210.0
  0
ARC
  5
4BB
  8
0
  6
CONTINUOUS
 62
     3
 10
24.49265569417753
 20
-7.114717570407006
 30
0.0
 40
2.0
 50
158.9068348005168
 51
210.0
  0
ARC
  5
4BC
  8
0
  6
CONTINUOUS
 62
     3
 10
20.04265874593534
 20
0.5929032374749177
 30
0.0
 40
2.0
 50
338.906856884946
 51
428.68215299592
  0
ARC
  5
4BD
  8
0
  6
CONTINUOUS
 62
     3
 10
20.04265874593534
 20
0.5929032374749177
 30
0.0
 40
2.0
 50
171.3178110319014
 51
210.0
  0
ARC
  5
4BE
  8
0
  6
CONTINUOUS
 62
     3
 10
31.83506302615641
 20
-7.89853111047162
 30
0.0
 40
5.650000095367432
 50
115.9910930942638
 51
165.0592540539054
  0
ARC
  5
4BF
  8
0
  6
CONTINUOUS
 62
     3
 10
23.03505997439861
 20
7.34352128193407
 30
0.0
 40
5.650000095367432
 50
254.9407459460947
 51
304.0089069057363
  0
LINE
  5
4C0
  8
0
  6
CONTINUOUS
 62
     3
 10
26.46974340592555
 20
-7.416621120791856
 30
0.0
 11
23.76558119692847
 21
-8.977869900088731
 31
0.0
  0
LINE
  5
4C1
  8
0
  6
CONTINUOUS
 62
     3
 10
32.12791532446501
 20
-0.3393675496499604
 30
0.0
 11
29.7279137985861
 21
3.817557031415138
 31
0.0
  0
LINE
  5
4C2
  8
0
  6
CONTINUOUS
 62
     3
 10
30.23964683646153
 20
-2.468792115975564
 30
0.0
 11
26.93964378470372
 21
3.246980834801303
 31
0.0
  0
LINE
  5
4C3
  8
0
  6
CONTINUOUS
 62
     3
 10
26.93963685941322
 20
3.247022289934751
 30
0.0
 11
29.72790582275721
 21
3.817599612395096
 31
0.0
  0
LINE
  5
4C4
  8
0
  6
CONTINUOUS
 62
     3
 10
30.23961889479301
 20
-2.468771580852103
 30
0.0
 11
32.12789036347612
 21
-0.3393456330750588
 31
0.0
  0
ARC
  5
4C5
  8
0
  6
CONTINUOUS
 62
     3
 10
30.32169611815149
 20
1.389094359412869
 30
0.0
 40
1.5
 50
327.8181540504571
 51
452.1818423070773
  0
ARC
  5
4C6
  8
0
  6
CONTINUOUS
 62
     3
 10
24.49265569417753
 20
-7.114717570407006
 30
0.0
 40
2.0
 50
351.3178297012361
 51
441.0931121518317
  0
ARC
  5
4C7
  8
0
  6
CONTINUOUS
 62
     3
 10
24.49265569417753
 20
-7.114717570407006
 30
0.0
 40
2.0
 50
210.0
 51
248.6821889680986
  0
ARC
  5
4C8
  8
0
  6
CONTINUOUS
 62
     3
 10
28.58964531058262
 20
0.3890943594128693
 30
0.0
 40
3.299999952316284
 50
283.482822412014
 51
299.9999820139107
  0
ARC
  5
4C9
  8
0
  6
CONTINUOUS
 62
     3
 10
28.58964531058262
 20
0.3890943594128693
 30
0.0
 40
3.299999952316284
 50
120.0000179860894
 51
136.5171775879861
  0
LINE
  5
4CA
  8
0
  6
CONTINUOUS
 62
     3
 10
2.981900556961392
 20
-16.70494277294625
 30
0.0
 11
8.52435394132862
 21
-13.50500581951084
 31
0.0
  0
LINE
  5
4CB
  8
0
  6
CONTINUOUS
 62
     3
 10
0.9818996628916992
 20
-13.24083960923441
 30
0.0
 11
6.524353047258948
 21
-10.04090265579898
 31
0.0
  0
LINE
  5
4CC
  8
0
  6
CONTINUOUS
 62
     3
 10
18.40952953642621
 20
4.903899705271185
 30
0.0
 11
18.40952953642621
 21
1.093391321717451
 31
0.0
  0
LINE
  5
4CD
  8
0
  6
CONTINUOUS
 62
     3
 10
27.4095349902511
 20
-10.68455379465181
 30
0.0
 11
24.1095264846684
 21
-8.77929299562558
 31
0.0
  0
LINE
  5
4CE
  8
0
  6
CONTINUOUS
 62
     3
 10
18.4095295364262
 20
-0.5784304353181504
 30
0.0
 11
22.66168020462625
 21
-7.943378556098034
 31
0.0
  0
LINE
  5
4CF
  8
0
  6
CONTINUOUS
 62
     3
 10
18.40952524489189
 20
4.903907138426664
 30
0.0
 11
20.05952806717176
 21
2.046018417605886
 31
0.0
  0
LINE
  5
4D0
  8
0
  6
CONTINUOUS
 62
     3
 10
25.75952501541396
 20
-7.826665899737142
 30
0.0
 11
27.40952068513674
 21
-10.68454223196563
 31
0.0
  0
LINE
  5
4D1
  8
0
  6
CONTINUOUS
 62
     3
 10
27.4095349902511
 20
-10.68455379465181
 30
0.0
 11
36.93580870983415
 21
-5.184557098276457
 31
0.0
  0
LINE
  5
4D2
  8
0
  6
CONTINUOUS
 62
     3
 10
18.40952524489189
 20
4.903907138426664
 30
0.0
 11
27.93580468652074
 21
10.40390713842668
 31
0.0
  0
LINE
  5
4D3
  8
0
  6
CONTINUOUS
 62
     3
 10
70.41153166243359
 20
55.37795813070997
 30
0.0
 11
69.6485943035938
 21
54.05651171339254
 31
0.0
  0
ARC
  5
4D4
  8
0
  6
CONTINUOUS
 62
     3
 10
63.48332823710349
 20
59.37795779286552
 30
0.0
 40
8.0
 50
330.0000027939512
 51
360.7588723249573
  0
LINE
  5
4D5
  8
0
  6
CONTINUOUS
 62
     3
 10
154.0296938928154
 20
200.2088795504774
 30
0.0
 11
154.7955219836878
 21
201.5353328574516
 31
0.0
  0
ARC
  5
4D6
  8
0
  6
CONTINUOUS
 62
     3
 10
147.101490474874
 20
204.2088792254305
 30
0.0
 40
8.0
 50
299.2411331571153
 51
330.000002688116
  0
LINE
  5
4D7
  8
0
  6
CONTINUOUS
 62
     3
 10
299.13754574639
 20
201.5393280269896
 30
0.0
 11
299.9059589553316
 21
200.2083971253483
 31
0.0
  0
ARC
  5
4D8
  8
0
  6
CONTINUOUS
 62
     3
 10
306.8341624231709
 20
204.2083967138757
 30
0.0
 40
8.0
 50
209.9999965971493
 51
240.7588589676284
  0
LINE
  5
4D9
  8
0
  6
CONTINUOUS
 62
     3
 10
383.5241018314716
 20
55.37750536467526
 30
0.0
 11
384.291836016501
 21
54.04775056711111
 31
0.0
  0
ARC
  5
4DA
  8
0
  6
CONTINUOUS
 62
     3
 10
390.4523052993109
 20
59.37750495320269
 30
0.0
 40
8.0
 50
179.2411342266701
 51
209.9999965971493
  0
LINE
  5
4DB
  8
0
  6
CONTINUOUS
 62
     3
 10
310.5855514174754
 20
-70.95480856443932
 30
0.0
 11
312.1162250004404
 21
-70.95480865534742
 31
0.0
  0
ARC
  5
4DC
  8
0
  6
CONTINUOUS
 62
     3
 10
310.5855514174754
 20
-78.95480856443932
 30
0.0
 40
8.0
 50
89.99999659714928
 51
120.7588589676284
  0
LINE
  5
4DD
  8
0
  6
CONTINUOUS
 62
     3
 10
141.8246049731779
 20
-70.95479729999136
 30
0.0
 11
143.3492457085638
 21
-70.95479722564434
 31
0.0
  0
ARC
  5
4DE
  8
0
  6
CONTINUOUS
 62
     3
 10
143.349246098673
 20
-78.95479722564434
 30
0.0
 40
8.0
 50
59.24113326294491
 51
90.00000279395108
  0
LINE
  5
4DF
  8
0
  6
CONTINUOUS
 62
     3
 10
-109.4083677477139
 20
-11.15408606916573
 30
0.0
 11
-123.9083716258096
 21
-11.15408606916573
 31
0.0
  0
LINE
  5
4E0
  8
0
  6
CONTINUOUS
 62
     3
 10
216.4704131995891
 20
142.7959116208379
 30
0.0
 11
216.7204088999611
 21
142.5459159204659
 31
0.0
  0
LINE
  5
4E1
  8
0
  6
CONTINUOUS
 62
     3
 10
237.4704128623635
 20
142.795900829616
 30
0.0
 11
237.2204279532135
 21
142.5459159204659
 31
0.0
  0
INSERT
  5
4E2
  8
0
  6
CONTINUOUS
  2
DA_IMAGEDIMGROUP_2
 10
0.0
 20
0.0
 30
0.0
  0
INSERT
  5
4E3
  8
0
  6
CONTINUOUS
  2
DA_IMAGEDIMGROUP_3
 10
0.0
 20
0.0
 30
0.0
  0
INSERT
  5
4E4
  8
0
  6
CONTINUOUS
  2
DC_GROUP_1
 10
0.0
 20
0.0
 30
0.0
  0
INSERT
  5
4E5
  8
0
  6
CONTINUOUS
  2
DA_IMAGEDIMGROUP_4
 10
0.0
 20
0.0
 30
0.0
  0
INSERT
  5
4E6
  8
0
  6
CONTINUOUS
  2
DA_IMAGEDIMGROUP_5
 10
0.0
 20
0.0
 30
0.0
  0
INSERT
  5
4E7
  8
0
  6
CONTINUOUS
  2
DA_IMAGEDIMGROUP_6
 10
0.0
 20
0.0
 30
0.0
  0
INSERT
  5
4E8
  8
0
  6
CONTINUOUS
  2
DA_IMAGEDIMGROUP_7
 10
0.0
 20
0.0
 30
0.0
  0
INSERT
  5
4E9
  8
0
  6
CONTINUOUS
  2
DA_IMAGEDIMGROUP_8
 10
0.0
 20
0.0
 30
0.0
  0
INSERT
  5
4EA
  8
0
  6
CONTINUOUS
  2
DA_IMAGEDIMGROUP_9
 10
0.0
 20
0.0
 30
0.0
  0
INSERT
  5
4EB
  8
0
  6
CONTINUOUS
  2
DA_IMAGEDIMGROUP_10
 10
0.0
 20
0.0
 30
0.0
  0
INSERT
  5
4EC
  8
0
  6
CONTINUOUS
  2
DA_IMAGEDIMGROUP_11
 10
0.0
 20
0.0
 30
0.0
  0
INSERT
  5
4ED
  8
0
  6
CONTINUOUS
  2
DA_IMAGEDIMGROUP_12
 10
0.0
 20
0.0
 30
0.0
  0
INSERT
  5
4EE
  8
0
  6
CONTINUOUS
  2
DA_IMAGEDIMGROUP_13
 10
0.0
 20
0.0
 30
0.0
  0
INSERT
  5
4EF
  8
0
  6
CONTINUOUS
  2
DA_IMAGEDIMGROUP_14
 10
0.0
 20
0.0
 30
0.0
  0
INSERT
  5
4F0
  8
0
  6
CONTINUOUS
  2
DA_IMAGEDIMGROUP_15
 10
0.0
 20
0.0
 30
0.0
  0
INSERT
  5
4F1
  8
0
  6
CONTINUOUS
  2
DA_IMAGEDIMGROUP_16
 10
0.0
 20
0.0
 30
0.0
  0
INSERT
  5
4F2
  8
0
  6
CONTINUOUS
  2
DA_IMAGEDIMGROUP_17
 10
0.0
 20
0.0
 30
0.0
  0
INSERT
  5
4F3
  8
0
  6
CONTINUOUS
  2
DA_IMAGEDIMGROUP_18
 10
0.0
 20
0.0
 30
0.0
  0
INSERT
  5
4F4
  8
0
  6
CONTINUOUS
  2
DA_IMAGEDIMGROUP_19
 10
0.0
 20
0.0
 30
0.0
  0
INSERT
  5
4F5
  8
0
  6
CONTINUOUS
  2
DA_IMAGEDIMGROUP_20
 10
0.0
 20
0.0
 30
0.0
  0
INSERT
  5
4F6
  8
0
  6
CONTINUOUS
  2
DA_IMAGEDIMGROUP_21
 10
0.0
 20
0.0
 30
0.0
  0
INSERT
  5
4F7
  8
0
  6
CONTINUOUS
  2
DC_GROUP_2
 10
0.0
 20
0.0
 30
0.0
  0
INSERT
  5
4F8
  8
0
  6
CONTINUOUS
  2
DA_IMAGEDIMGROUP_22
 10
0.0
 20
0.0
 30
0.0
  0
INSERT
  5
4F9
  8
0
  6
CONTINUOUS
  2
DC_GROUP_3
 10
0.0
 20
0.0
 30
0.0
  0
INSERT
  5
4FA
  8
0
  6
CONTINUOUS
  2
DA_IMAGEDIMGROUP_23
 10
0.0
 20
0.0
 30
0.0
  0
INSERT
  5
4FB
  8
0
  6
CONTINUOUS
  2
DA_IMAGEDIMGROUP_24
 10
0.0
 20
0.0
 30
0.0
  0
INSERT
  5
4FC
  8
0
  6
CONTINUOUS
  2
DC_GROUP_4
 10
0.0
 20
0.0
 30
0.0
  0
INSERT
  5
4FD
  8
0
  6
CONTINUOUS
  2
DC_GROUP_5
 10
0.0
 20
0.0
 30
0.0
  0
INSERT
  5
4FE
  8
0
  6
CONTINUOUS
  2
DA_IMAGEDIMGROUP_25
 10
0.0
 20
0.0
 30
0.0
  0
INSERT
  5
4FF
  8
0
  6
CONTINUOUS
  2
DC_GROUP_6
 10
0.0
 20
0.0
 30
0.0
  0
INSERT
  5
500
  8
0
  6
CONTINUOUS
  2
DA_IMAGEDIMGROUP_26
 10
0.0
 20
0.0
 30
0.0
  0
INSERT
  5
501
  8
0
  6
CONTINUOUS
  2
DC_GROUP_7
 10
0.0
 20
0.0
 30
0.0
  0
INSERT
  5
502
  8
0
  6
CONTINUOUS
  2
DC_GROUP_8
 10
0.0
 20
0.0
 30
0.0
  0
INSERT
  5
503
  8
0
  6
CONTINUOUS
  2
DA_IMAGEDIMGROUP_27
 10
0.0
 20
0.0
 30
0.0
  0
INSERT
  5
504
  8
0
  6
CONTINUOUS
  2
DA_IMAGEDIMGROUP_28
 10
0.0
 20
0.0
 30
0.0
  0
INSERT
  5
505
  8
0
  6
CONTINUOUS
  2
DC_GROUP_9
 10
0.0
 20
0.0
 30
0.0
  0
TEXT
  5
506
  8
0
 62
     7
 10
-345.7441654633579
 20
-42.82377115304949
 30
0.0
 40
6.0
  1
7゜7′30″
 50
90.0
 41
0.7368421052631585
  7
FDASTYLE1
 72
     5
 11
-345.7441654633579
 21
-9.223771153049469
 31
0.0
  0
TEXT
  5
507
  8
0
 62
     7
 10
-292.0032868375749
 20
-122.685430487235
 30
0.0
 40
6.0
  1
MIN18
 41
0.8
  7
FDASTYLE1
 72
     5
 11
-268.0032868375749
 21
-122.685430487235
 31
0.0
  0
TEXT
  5
508
  8
0
 62
     7
 10
-7.808165522807384
 20
79.16167328666684
 30
0.0
 40
6.0
  1
MIN67.2
 50
90.0
 41
0.8000000000000002
  7
FDASTYLE1
 72
     5
 11
-7.808165522807384
 21
112.7616732866669
 31
0.0
  0
TEXT
  5
509
  8
0
 62
     7
 10
7.645061080273257
 20
144.5117387729824
 30
0.0
 40
6.0
  1
3.7
 41
0.8
  7
FDASTYLE1
 72
     5
 11
22.04506108027326
 21
144.5117387729824
 31
0.0
  0
TEXT
  5
50A
  8
0
 62
     7
 10
7.645061080273257
 20
113.7139811259094
 30
0.0
 40
6.0
  1
3.8
 41
0.8
  7
FDASTYLE1
 72
     5
 11
22.04506108027326
 21
113.7139811259094
 31
0.0
  0
TEXT
  5
50B
  8
0
 62
     7
 10
-67.63849479833388
 20
-248.4261490877268
 30
0.0
 40
6.6234
  1
0
 41
0.8000000000000004
  7
FDASTYLE1
 72
     5
 11
-62.33977479833388
 21
-248.4261490877268
 31
0.0
  0
TEXT
  5
50C
  8
0
 62
     7
 10
-72.86557578657542
 20
-232.9990003377084
 30
0.0
 40
6.6234
  1
10
 41
0.7999999999999999
  7
FDASTYLE1
 72
     5
 11
-62.26813578657542
 21
-232.9990003377084
 31
0.0
  0
TEXT
  5
50D
  8
0
 62
     7
 10
-72.86557578657542
 20
-221.9600003377084
 30
0.0
 40
6.6234
  1
20
 41
0.7999999999999999
  7
FDASTYLE1
 72
     5
 11
-62.26813578657542
 21
-221.9600003377084
 31
0.0
  0
TEXT
  5
50E
  8
0
 62
     7
 10
-72.86557578657542
 20
-210.9210003377084
 30
0.0
 40
6.6234
  1
30
 41
0.7999999999999999
  7
FDASTYLE1
 72
     5
 11
-62.26813578657542
 21
-210.9210003377084
 31
0.0
  0
TEXT
  5
50F
  8
0
 62
     7
 10
-72.86557578657542
 20
-199.8820003377084
 30
0.0
 40
6.6234
  1
40
 41
0.7999999999999999
  7
FDASTYLE1
 72
     5
 11
-62.26813578657542
 21
-199.8820003377084
 31
0.0
  0
TEXT
  5
510
  8
0
 62
     7
 10
-72.86557578657542
 20
-188.8430003377085
 30
0.0
 40
6.6234
  1
50
 41
0.7999999999999999
  7
FDASTYLE1
 72
     5
 11
-62.26813578657542
 21
-188.8430003377085
 31
0.0
  0
TEXT
  5
511
  8
0
 62
     7
 10
-72.86557578657542
 20
-177.8040003377084
 30
0.0
 40
6.6234
  1
60
 41
0.7999999999999999
  7
FDASTYLE1
 72
     5
 11
-62.26813578657542
 21
-177.8040003377084
 31
0.0
  0
TEXT
  5
512
  8
0
 62
     7
 10
-72.86557578657542
 20
-166.7650003377084
 30
0.0
 40
6.6234
  1
70
 41
0.7999999999999999
  7
FDASTYLE1
 72
     5
 11
-62.26813578657542
 21
-166.7650003377084
 31
0.0
  0
TEXT
  5
513
  8
0
 62
     7
 10
-72.86557578657542
 20
-155.7260003377084
 30
0.0
 40
6.6234
  1
80
 41
0.7999999999999999
  7
FDASTYLE1
 72
     5
 11
-62.26813578657542
 21
-155.7260003377084
 31
0.0
  0
TEXT
  5
514
  8
0
 62
     7
 10
-72.86557578657542
 20
-144.6870003377084
 30
0.0
 40
6.6234
  1
90
 41
0.7999999999999999
  7
FDASTYLE1
 72
     5
 11
-62.26813578657542
 21
-144.6870003377084
 31
0.0
  0
TEXT
  5
515
  8
0
 62
     7
 10
-78.09265677481696
 20
-133.6480003377084
 30
0.0
 40
6.6234
  1
100
 41
0.8
  7
FDASTYLE1
 72
     5
 11
-62.19649677481696
 21
-133.6480003377084
 31
0.0
  0
TEXT
  5
516
  8
0
 62
     7
 10
-78.09265677481696
 20
-122.6090003377084
 30
0.0
 40
6.6234
  1
110
 41
0.8
  7
FDASTYLE1
 72
     5
 11
-62.19649677481696
 21
-122.6090003377084
 31
0.0
  0
TEXT
  5
517
  8
0
 62
     7
 10
-82.33814086012094
 20
-197.2721383759048
 30
0.0
 40
8.279250000000001
  1
把握力 kN
 50
90.0
 41
0.7272727272727276
  7
FDASTYLE1
 72
     5
 11
-82.33814086012094
 21
-157.5317383759048
 31
0.0
  0
TEXT
  5
518
  8
0
 62
     7
 10
-37.52444908092544
 20
-251.596276909299
 30
0.0
 40
6.6234
  1
1000
 41
0.8
  7
FDASTYLE1
 72
     5
 11
-16.32956908092544
 21
-251.596276909299
 31
0.0
  0
TEXT
  5
519
  8
0
 62
     7
 10
-4.407449080925442
 20
-251.596276909299
 30
0.0
 40
6.6234
  1
2000
 41
0.8
  7
FDASTYLE1
 72
     5
 11
16.78743091907456
 21
-251.596276909299
 31
0.0
  0
TEXT
  5
51A
  8
0
 62
     7
 10
28.70955091907456
 20
-251.596276909299
 30
0.0
 40
6.6234
  1
3000
 41
0.8
  7
FDASTYLE1
 72
     5
 11
49.90443091907456
 21
-251.596276909299
 31
0.0
  0
TEXT
  5
51B
  8
0
 62
     7
 10
61.82655091907456
 20
-251.596276909299
 30
0.0
 40
6.6234
  1
4000
 41
0.7999999999999999
  7
FDASTYLE1
 72
     5
 11
83.02143091907456
 21
-251.596276909299
 31
0.0
  0
TEXT
  5
51C
  8
0
 62
     7
 10
94.94355091907454
 20
-251.596276909299
 30
0.0
 40
6.6234
  1
5000
 41
0.7999999999999999
  7
FDASTYLE1
 72
     5
 11
116.1384309190745
 21
-251.596276909299
 31
0.0
  0
TEXT
  5
51D
  8
0
 62
     7
 10
55.61851854380276
 20
-259.9898629964089
 30
0.0
 40
4.139625000000001
  1
-1
 41
0.8000000000000004
  7
FDASTYLE1
 72
     5
 11
62.24191854380277
 21
-259.9898629964089
 31
0.0
  0
TEXT
  5
51E
  8
0
 62
     7
 10
-57.31818816625821
 20
-82.65009589742144
 30
0.0
 40
8.279250000000001
  1
把握力特性表（爪の回転モーメント80.8N・ｃｍ）
 41
0.6896551724137932
  7
FDASTYLE1
 72
     5
 11
108.2668118337418
 21
-82.65009589742144
 31
0.0
  0
TEXT
  5
51F
  8
0
 62
     7
 10
-78.09265677481696
 20
-111.5451003377084
 30
0.0
 40
6.6234
  1
120
 41
0.8
  7
FDASTYLE1
 72
     5
 11
-62.19649677481696
 21
-111.5451003377084
 31
0.0
  0
TEXT
  5
520
  8
0
 62
     7
 10
-78.09265677481696
 20
-100.4812003377084
 30
0.0
 40
6.6234
  1
130
 41
0.8
  7
FDASTYLE1
 72
     5
 11
-62.19649677481696
 21
-100.4812003377084
 31
0.0
  0
TEXT
  5
521
  8
0
 62
     7
 10
-78.09265677481696
 20
-89.41730033770844
 30
0.0
 40
6.6234
  1
140
 41
0.8
  7
FDASTYLE1
 72
     5
 11
-62.19649677481696
 21
-89.41730033770844
 31
0.0
  0
TEXT
  5
522
  8
0
 62
     7
 10
3.690942914978436
 20
-266.1897147957603
 30
0.0
 40
8.279250000000001
  1
回転速度 min
 41
0.7272727272727274
  7
FDASTYLE1
 72
     5
 11
56.67814291497845
 21
-266.1897147957603
 31
0.0
  0
TEXT
  5
523
  8
0
 62
     6
 10
-371.8098901507186
 20
-156.6565551228412
 30
0.0
 40
6.749999798834329
  1
1.主軸端番号
 41
0.7121213873835888
  7
FDASTYLE1
 72
     5
 11
-326.4884595069643
 21
-156.6565551228412
 31
0.0
  0
TEXT
  5
524
  8
0
 62
     6
 10
-371.8098901507186
 20
-168.6565547652135
 30
0.0
 40
6.749999798834329
  1
2.爪ﾉｽﾄﾛｰｸ
 41
0.778061430925466
  7
FDASTYLE1
 72
     5
 11
-312.9884595516678
 21
-168.6565547652135
 31
0.0
  0
TEXT
  5
525
  8
0
 62
     6
 10
-371.8098901507186
 20
-180.6565429634941
 30
0.0
 40
6.749999798834329
  1
3.ピストンストローク
 41
0.6970261934681598
  7
FDASTYLE1
 72
     5
 11
-299.4884595963712
 21
-180.6565429634941
 31
0.0
  0
TEXT
  5
526
  8
0
 62
     6
 10
-371.8098901507186
 20
-192.6565426058662
 30
0.0
 40
6.749999798834329
  1
4．許容シリンダ力
 41
0.69161014537303
  7
FDASTYLE1
 72
     5
 11
-312.9884595516678
 21
-192.6565426058662
 31
0.0
  0
TEXT
  5
527
  8
0
 62
     6
 10
-371.8098901507186
 20
-204.6565422482384
 30
0.0
 40
6.749999798834329
  1
5.最大静的把握力
 41
0.7027651497434071
  7
FDASTYLE1
 72
     5
 11
-312.9884595516678
 21
-204.6565422482384
 31
0.0
  0
TEXT
  5
528
  8
0
 62
     6
 10
-371.8098901507186
 20
-216.6565418906106
 30
0.0
 40
6.749999798834329
  1
6.最高使用回転速度
 41
0.6995886492631841
  7
FDASTYLE1
 72
     5
 11
-306.2384595740195
 21
-216.6565418906106
 31
0.0
  0
TEXT
  5
529
  8
0
 62
     6
 10
-371.8098901507186
 20
-228.6565415329827
 30
0.0
 40
6.749999798834329
  1
7.質 量
 41
0.7534248463115231
  7
FDASTYLE1
 72
     5
 11
-339.9884594622608
 21
-228.6565415329827
 31
0.0
  0
TEXT
  5
52A
  8
0
 62
     6
 10
-371.8098901507186
 20
-240.6565411753548
 30
0.0
 40
6.749999798834329
  1
8.慣性モ－メント
 41
0.7027651497434071
  7
FDASTYLE1
 72
     5
 11
-312.9884595516678
 21
-240.6565411753548
 31
0.0
  0
TEXT
  5
52B
  8
0
 62
     6
 10
-371.8098899719046
 20
-144.6565554804691
 30
0.0
 40
6.749999798834329
  1
仕 様
 41
0.7364342385144501
  7
FDASTYLE1
 72
     5
 11
-353.488460311627
 21
-144.6565554804691
 31
0.0
  0
TEXT
  5
52C
  8
0
 62
     6
 10
-378.5284415862323
 20
-252.6885842738031
 30
0.0
 40
6.749999798834329
  1
　9.アンバランス量
 41
0.6995886492631841
  7
FDASTYLE1
 72
     5
 11
-312.9570110095332
 21
-252.6885842738031
 31
0.0
  0
TEXT
  5
52D
  8
0
 62
     6
 10
-370.2916613759793
 20
-265.7899257035683
 30
0.0
 40
6.0
  1
※最高使用回転速度は、ﾁｬｯｸ及びシリンダーの低い方で制限されます
 41
0.7064340243125223
  7
FDASTYLE1
 72
     5
 11
-155.9031293759794
 21
-265.7899257035683
 31
0.0
  0
TEXT
  5
52E
  8
0
 62
     6
 10
-178.1658262501305
 20
-156.6362304164157
 30
0.0
 40
6.749999798834329
  1
A2-8
 41
0.764706122329859
  7
FDASTYLE1
 72
     5
 11
-153.094395539321
 21
-156.6362304164157
 31
0.0
  0
TEXT
  5
52F
  8
0
 62
     6
 10
-232.8996083408605
 20
-168.5584331250713
 30
0.0
 40
6.749999798834329
  1
直径ﾆﾃ    15mm
 41
0.7677904659695432
  7
FDASTYLE1
 72
     5
 11
-153.828177808865
 21
-168.5584331250713
 31
0.0
  0
TEXT
  5
530
  8
0
 62
     6
 10
-178.9272932074175
 20
-180.4231979387101
 30
0.0
 40
6.749999798834329
  1
30mm
 41
0.764706122329859
  7
FDASTYLE1
 72
     5
 11
-153.855862496608
 21
-180.4231979387101
 31
0.0
  0
TEXT
  5
531
  8
0
 62
     6
 10
-205.8097272512293
 20
-192.5002620929457
 30
0.0
 40
6.749999798834329
  1
  48.3kN
 41
0.7714287984939358
  7
FDASTYLE1
 72
     5
 11
-153.7382966298267
 21
-192.5002620929457
 31
0.0
  0
TEXT
  5
532
  8
0
 62
     6
 10
-199.0591552478221
 20
-204.683824962269
 30
0.0
 40
6.749999798834329
  1
132.4ｋN
 41
0.7781458991831796
  7
FDASTYLE1
 72
     5
 11
-153.7377246040678
 21
-204.683824962269
 31
0.0
  0
TEXT
  5
533
  8
0
 62
     6
 10
-259.7587307703768
 20
-216.5773258895534
 30
0.0
 40
6.749999798834329
  1
         4500min
 41
0.774648108332433
  7
FDASTYLE1
 72
     5
 11
-153.6873003277881
 21
-216.5773258895534
 31
0.0
  0
TEXT
  5
534
  8
0
 62
     6
 10
-152.2408734279505
 20
-212.358575925875
 30
0.0
 40
3.374999899417165
  1
-1
 41
0.7500002694627039
  7
FDASTYLE1
 72
     5
 11
-146.455158050194
 21
-212.358575925875
 31
0.0
  0
TEXT
  5
535
  8
0
 62
     6
 10
-178.1658262501305
 20
-228.4708039286549
 30
0.0
 40
6.749999798834329
  1
70kg
 41
0.764706122329859
  7
FDASTYLE1
 72
     5
 11
-153.094395539321
 21
-228.4708039286549
 31
0.0
  0
TEXT
  5
536
  8
0
 62
     6
 10
-212.294132575557
 20
-240.3642819677563
 30
0.0
 40
6.749999798834329
  1
0.875kg・m
 41
0.7780614309254655
  7
FDASTYLE1
 72
     5
 11
-153.4727019765062
 21
-240.3642819677563
 31
0.0
  0
TEXT
  5
537
  8
0
 62
     6
 10
-152.0262750766686
 20
-236.5187342621086
 30
0.0
 40
3.374999899417165
  1
2
 41
0.7142860624525308
  7
FDASTYLE1
 72
     5
 11
-149.6155596877362
 21
-236.5187342621086
 31
0.0
  0
TEXT
  5
538
  8
0
 62
     6
 10
-232.8996083408605
 20
-252.6872109828286
 30
0.0
 40
6.749999798834329
  1
外周ﾆﾃ    3g以内
 41
0.7481753770425927
  7
FDASTYLE1
 72
     5
 11
-153.828177808865
 21
-252.6872109828286
 31
0.0
  0
TEXT
  5
539
  8
0
 62
     6
 10
-289.3866796020558
 20
-228.1654435609204
 30
0.0
 40
4.799999928474428
  1
（チャック単体）
 41
0.6650680951634846
  7
FDASTYLE1
 72
     5
 11
-252.357684923469
 21
-228.1654435609204
 31
0.0
  0
LINE
  5
53A
  8
0
  6
CONTINUOUS
 62
     6
 10
-378.1005065947514
 20
-254.9386986476626
 30
0.0
 11
-148.818008392502
 21
-254.9386986476626
 31
0.0
  0
LINE
  5
53B
  8
0
  6
CONTINUOUS
 62
     6
 10
-378.1005065947514
 20
-242.9386990052905
 30
0.0
 11
-148.818008392502
 21
-242.9386990052905
 31
0.0
  0
LINE
  5
53C
  8
0
  6
CONTINUOUS
 62
     6
 10
-378.1005065947514
 20
-230.9386993629183
 30
0.0
 11
-148.818008392502
 21
-230.9386993629183
 31
0.0
  0
LINE
  5
53D
  8
0
  6
CONTINUOUS
 62
     6
 10
-378.1005065947514
 20
-218.9386997205461
 30
0.0
 11
-148.818008392502
 21
-218.9386997205461
 31
0.0
  0
LINE
  5
53E
  8
0
  6
CONTINUOUS
 62
     6
 10
-378.1005065947514
 20
-206.938700078174
 30
0.0
 11
-148.818008392502
 21
-206.938700078174
 31
0.0
  0
LINE
  5
53F
  8
0
  6
CONTINUOUS
 62
     6
 10
-378.1005065947514
 20
-194.9387004358019
 30
0.0
 11
-148.818008392502
 21
-194.9387004358019
 31
0.0
  0
LINE
  5
540
  8
0
  6
CONTINUOUS
 62
     6
 10
-378.1005065947514
 20
-182.9387007934298
 30
0.0
 11
-148.818008392502
 21
-182.9387007934298
 31
0.0
  0
LINE
  5
541
  8
0
  6
CONTINUOUS
 62
     6
 10
-378.1005065947514
 20
-170.9387011510576
 30
0.0
 11
-148.818008392502
 21
-170.9387011510576
 31
0.0
  0
LINE
  5
542
  8
0
  6
CONTINUOUS
 62
     6
 10
-378.1005065947514
 20
-158.9387015086855
 30
0.0
 11
-148.818008392502
 21
-158.9387015086855
 31
0.0
  0
LINE
  5
543
  8
0
  6
CONTINUOUS
 62
     6
 10
-378.1005065947514
 20
-146.9387018663133
 30
0.0
 11
-346.2983148545424
 21
-146.9387018663133
 31
0.0
  0
VIEWPORT
  5
48
 67
     1
  8
0
 10
0.0
 20
0.0
 30
0.0
 40
2493.0
 41
1710.0
 68
     1
 69
     1
1001
ACAD
1000
MVIEW
1002
{
1070
    16
1010
0.0
1020
0.0
1030
0.0
1020
0.0
1030
0.0
1010
0.0
1020
0.0
1030
1.0
1020
0.0
1030
1.0
1040
0.0
1040
1710.0
1040
0.0
1040
0.0
1040
50.0
1040
0.0
1040
0.0
1070
     0
1070
   100
1070
     0
1070
     1
1070
     0
1070
     0
1070
     0
1070
     0
1040
0.0
1040
0.0
1040
0.0
1040
0.5
1040
0.5
1040
0.0
1040
0.0
1070
     0
1002
{
1002
}
1002
}
  0
ENDSEC
  0
EOF
