  0
SECTION
  2
HEADER
  9
$ACADVER
  1
AC1009
  9
$DWGCODEPAGE
  3
ansi_932
  9
$INSBASE
 10
0.0
 20
0.0
 30
0.0
  9
$EXTMIN
 10
-576.0
 20
-415.4999999999998
 30
0.0
  9
$EXTMAX
 10
576.0
 20
415.4999999999998
 30
0.0
  9
$LIMMIN
 10
-210.0
 20
-148.5
  9
$LIMMAX
 10
210.0
 20
148.5
  9
$ORTHOMODE
 70
     0
  9
$REGENMODE
 70
     1
  9
$FILLMODE
 70
     1
  9
$QTEXTMODE
 70
     0
  9
$MIRRTEXT
 70
     1
  9
$DRAGMODE
 70
     2
  9
$LTSCALE
 40
1.0
  9
$OSMODE
 70
    37
  9
$ATTMODE
 70
     1
  9
$TEXTSIZE
 40
0.2
  9
$TRACEWID
 40
0.05
  9
$TEXTSTYLE
  7
STANDARD
  9
$CLAYER
  8
0
  9
$CELTYPE
  6
BYLAYER
  9
$CECOLOR
 62
   256
  9
$DIMSCALE
 40
1.0
  9
$DIMASZ
 40
2.5
  9
$DIMEXO
 40
0.0625
  9
$DIMDLI
 40
0.38
  9
$DIMRND
 40
0.0
  9
$DIMDLE
 40
0.0
  9
$DIMEXE
 40
0.18
  9
$DIMTP
 40
0.0
  9
$DIMTM
 40
0.0
  9
$DIMTXT
 40
0.18
  9
$DIMCEN
 40
0.09
  9
$DIMTSZ
 40
0.0
  9
$DIMTOL
 70
     0
  9
$DIMLIM
 70
     0
  9
$DIMTIH
 70
     1
  9
$DIMTOH
 70
     1
  9
$DIMSE1
 70
     0
  9
$DIMSE2
 70
     0
  9
$DIMTAD
 70
     3
  9
$DIMZIN
 70
     0
  9
$DIMBLK
  1

  9
$DIMASO
 70
     1
  9
$DIMSHO
 70
     1
  9
$DIMPOST
  1

  9
$DIMAPOST
  1

  9
$DIMALT
 70
     0
  9
$DIMALTD
 70
     2
  9
$DIMALTF
 40
25.4
  9
$DIMLFAC
 40
1.0
  9
$DIMTOFL
 70
     0
  9
$DIMTVP
 40
0.0
  9
$DIMTIX
 70
     0
  9
$DIMSOXD
 70
     0
  9
$DIMSAH
 70
     0
  9
$DIMBLK1
  1

  9
$DIMBLK2
  1

  9
$DIMSTYLE
  2
STANDARD
  9
$DIMCLRD
 70
     0
  9
$DIMCLRE
 70
     0
  9
$DIMCLRT
 70
     0
  9
$DIMTFAC
 40
1.0
  9
$DIMGAP
 40
0.09
  9
$LUNITS
 70
     2
  9
$LUPREC
 70
     4
  9
$SKETCHINC
 40
0.1
  9
$FILLETRAD
 40
0.5
  9
$AUNITS
 70
     0
  9
$AUPREC
 70
     0
  9
$MENU
  1
.
  9
$ELEVATION
 40
0.0
  9
$PELEVATION
 40
0.0
  9
$THICKNESS
 40
0.0
  9
$LIMCHECK
 70
     0
  9
$CHAMFERA
 40
0.5
  9
$CHAMFERB
 40
0.5
  9
$SKPOLY
 70
     0
  9
$TDCREATE
 40
2456272.674223044
  9
$TDUPDATE
 40
2456272.674223056
  9
$TDINDWG
 40
0.0000000116
  9
$TDUSRTIMER
 40
0.0000000116
  9
$USRTIMER
 70
     1
  9
$ANGBASE
 50
0.0
  9
$ANGDIR
 70
     0
  9
$PDMODE
 70
     0
  9
$PDSIZE
 40
1.0
  9
$PLINEWID
 40
0.0
  9
$COORDS
 70
     1
  9
$SPLFRAME
 70
     0
  9
$SPLINETYPE
 70
     6
  9
$SPLINESEGS
 70
     8
  9
$ATTDIA
 70
     0
  9
$ATTREQ
 70
     1
  9
$HANDLING
 70
     1
  9
$HANDSEED
  5
3B6
  9
$SURFTAB1
 70
     6
  9
$SURFTAB2
 70
     6
  9
$SURFTYPE
 70
     6
  9
$SURFU
 70
     6
  9
$SURFV
 70
     6
  9
$UCSNAME
  2

  9
$UCSORG
 10
0.0
 20
0.0
 30
0.0
  9
$UCSXDIR
 10
1.0
 20
0.0
 30
0.0
  9
$UCSYDIR
 10
0.0
 20
1.0
 30
0.0
  9
$PUCSNAME
  2

  9
$PUCSORG
 10
0.0
 20
0.0
 30
0.0
  9
$PUCSXDIR
 10
1.0
 20
0.0
 30
0.0
  9
$PUCSYDIR
 10
0.0
 20
1.0
 30
0.0
  9
$USERI1
 70
     0
  9
$USERI2
 70
     0
  9
$USERI3
 70
     0
  9
$USERI4
 70
     0
  9
$USERI5
 70
     0
  9
$USERR1
 40
0.0
  9
$USERR2
 40
0.0
  9
$USERR3
 40
0.0
  9
$USERR4
 40
0.0
  9
$USERR5
 40
0.0
  9
$WORLDVIEW
 70
     1
  9
$SHADEDGE
 70
     3
  9
$SHADEDIF
 70
    70
  9
$TILEMODE
 70
     1
  9
$MAXACTVP
 70
    64
  9
$PLIMCHECK
 70
     0
  9
$PEXTMIN
 10
1.000000000000000E+20
 20
1.000000000000000E+20
 30
1.000000000000000E+20
  9
$PEXTMAX
 10
-1.000000000000000E+20
 20
-1.000000000000000E+20
 30
-1.000000000000000E+20
  9
$PLIMMIN
 10
0.0
 20
0.0
  9
$PLIMMAX
 10
12.0
 20
9.0
  9
$UNITMODE
 70
     0
  9
$VISRETAIN
 70
     0
  9
$PLINEGEN
 70
     1
  9
$PSLTSCALE
 70
     0
  0
ENDSEC
  0
SECTION
  2
TABLES
  0
TABLE
  2
VPORT
 70
     1
  0
VPORT
  2
*ACTIVE
 70
     0
 10
0.0
 20
0.0
 11
1.0
 21
1.0
 12
0.0
 22
0.0
 13
0.0
 23
0.0
 14
0.5
 24
0.5
 15
0.5
 25
0.5
 16
0.0
 26
0.0
 36
1.0
 17
-0.0000000000000036
 27
0.0
 37
0.0
 40
282.5399999999999
 41
1.386281588447654
 42
50.0
 43
0.0
 44
0.0
 50
0.0
 51
0.0
 71
     0
 72
  1000
 73
     1
 74
     1
 75
     0
 76
     0
 77
     0
 78
     0
  0
ENDTAB
  0
TABLE
  2
LTYPE
 70
    28
  0
LTYPE
  2
CONTINUOUS
 70
     0
  3
Solid line
 72
    65
 73
     0
 40
0.0
  0
LTYPE
  2
HIDDENX2
 70
     0
  3
CADPAC LINETYPE
 72
    65
 73
     2
 40
11.49110807113544
 49
8.618331053351582
 49
-2.872777017783861
  0
LTYPE
  2
HIDDEN
 70
     0
  3
CADPAC LINETYPE
 72
    65
 73
     2
 40
8.618331053351582
 49
5.745554035567722
 49
-2.872777017783861
  0
LTYPE
  2
HIDDEN2
 70
     0
  3
CADPAC LINETYPE
 72
    65
 73
     2
 40
7.181942544459652
 49
4.309165526675791
 49
-2.872777017783861
  0
LTYPE
  2
DASHED
 70
     0
  3
CADPAC LINETYPE
 72
    65
 73
     2
 40
8.04377564979481
 49
5.745554035567722
 49
-2.298221614227089
  0
LTYPE
  2
DASHED2
 70
     0
  3
CADPAC LINETYPE
 72
    65
 73
     2
 40
5.170998632010935
 49
3.447332421340633
 49
-1.723666210670302
  0
LTYPE
  2
DASHEDX2
 70
     0
  3
CADPAC LINETYPE
 72
    65
 73
     2
 40
13.7893296853625
 49
11.49110807113542
 49
-2.298221614227089
  0
LTYPE
  2
DOTX2
 70
     0
  3
CADPAC LINETYPE
 72
    65
 73
     2
 40
5.027359781121739
 49
0.0
 49
-5.027359781121739
  0
LTYPE
  2
DOT
 70
     0
  3
CADPAC LINETYPE
 72
    65
 73
     2
 40
4.021887824897391
 49
0.0
 49
-4.021887824897391
  0
LTYPE
  2
DOT2
 70
     0
  3
CADPAC LINETYPE
 72
    65
 73
     2
 40
3.016415868673043
 49
0.0
 49
-3.016415868673043
  0
LTYPE
  2
CENTERX2
 70
     0
  3
CADPAC LINETYPE
 72
    65
 73
     4
 40
17.23666210670316
 49
7.181942544459652
 49
-3.590971272229826
 49
2.872777017783861
 49
-3.590971272229826
  0
LTYPE
  2
CENTER
 70
     0
  3
CADPAC LINETYPE
 72
    65
 73
     4
 40
13.21477428180576
 49
5.745554035567722
 49
-2.872777017783861
 49
1.723666210670316
 49
-2.872777017783861
  0
LTYPE
  2
CENTER2
 70
     0
  3
CADPAC LINETYPE
 72
    65
 73
     4
 40
9.192886456908354
 49
4.309165526675791
 49
-2.154582763337896
 49
0.5745554035567722
 49
-2.154582763337896
  0
LTYPE
  2
DASHDOTX2
 70
     0
  3
CADPAC LINETYPE
 72
    65
 73
     4
 40
27.57865937072504
 49
13.7893296853625
 49
-4.596443228454177
 49
4.596443228454177
 49
-4.596443228454177
  0
LTYPE
  2
DASHDOT
 70
     0
  3
CADPAC LINETYPE
 72
    65
 73
     4
 40
13.78932968536253
 49
6.894664842681266
 49
-2.298221614227089
 49
2.298221614227089
 49
-2.298221614227089
  0
LTYPE
  2
DASHDOT2
 70
     0
  3
CADPAC LINETYPE
 72
    65
 73
     4
 40
8.848153214774291
 49
5.170998632010949
 49
-1.723666210670316
 49
0.2298221614227089
 49
-1.723666210670316
  0
LTYPE
  2
DIVIDEX2
 70
     0
  3
CADPAC LINETYPE
 72
    65
 73
     6
 40
36.77154582763339
 49
13.7893296853625
 49
-4.596443228454177
 49
4.596443228454177
 49
-4.596443228454177
 49
4.596443228454177
 49
-4.596443228454177
  0
LTYPE
  2
DIVIDE
 70
     0
  3
CADPAC LINETYPE
 72
    65
 73
     6
 40
18.38577291381671
 49
6.894664842681266
 49
-2.298221614227089
 49
2.298221614227089
 49
-2.298221614227089
 49
2.298221614227089
 49
-2.298221614227089
  0
LTYPE
  2
DIVIDE2
 70
     0
  3
CADPAC LINETYPE
 72
    65
 73
     6
 40
13.78932968536253
 49
5.170998632010949
 49
-1.723666210670316
 49
1.723666210670316
 49
-1.723666210670316
 49
1.723666210670316
 49
-1.723666210670316
  0
LTYPE
  2
BORDERX2
 70
     0
  3
CADPAC LINETYPE
 72
    65
 73
     6
 40
25.13679890560878
 49
7.181942544459652
 49
-3.590971272229826
 49
7.181942544459652
 49
-3.590971272229826
 49
0.0
 49
-3.590971272229826
  0
LTYPE
  2
BORDER
 70
     0
  3
CADPAC LINETYPE
 72
    65
 73
     6
 40
20.10943912448703
 49
5.745554035567722
 49
-2.872777017783861
 49
5.745554035567722
 49
-2.872777017783861
 49
0.0
 49
-2.872777017783861
  0
LTYPE
  2
BORDER2
 70
     0
  3
CADPAC LINETYPE
 72
    65
 73
     6
 40
14.93844049247603
 49
4.596443228454177
 49
-2.872777017783847
 49
1.723666210670302
 49
-2.872777017783847
 49
0.0
 49
-2.872777017783861
  0
LTYPE
  2
PHANTOMX2
 70
     0
  3
CADPAC LINETYPE
 72
    65
 73
     6
 40
21.54582763337896
 49
7.181942544459652
 49
-2.872777017783861
 49
2.872777017783861
 49
-2.872777017783861
 49
2.872777017783861
 49
-2.872777017783861
  0
LTYPE
  2
PHANTOM
 70
     0
  3
CADPAC LINETYPE
 72
    65
 73
     6
 40
17.81121751025994
 49
5.745554035567722
 49
-2.872777017783861
 49
1.723666210670316
 49
-2.872777017783861
 49
1.723666210670316
 49
-2.872777017783861
  0
LTYPE
  2
PHANTOM2
 70
     0
  3
CADPAC LINETYPE
 72
    65
 73
     6
 40
15.22571819425446
 49
4.309165526675791
 49
-2.872777017783861
 49
1.149110807113544
 49
-2.872777017783861
 49
1.149110807113544
 49
-2.872777017783861
  0
LTYPE
  2
ACAD_ISO06W100
 70
     0
  3
CADPAC LINETYPE
 72
    65
 73
     8
 40
30.4514363885088
 49
13.7893296853625
 49
-2.872777017783847
 49
1.723666210670302
 49
-2.872777017783847
 49
1.723666210670302
 49
-2.872777017783847
 49
1.723666210670302
 49
-2.872777017783847
  0
LTYPE
  2
ACAD_ISO13W100
 70
     0
  3
CADPAC LINETYPE
 72
    65
 73
     8
 40
22.98221614227089
 49
5.745554035567722
 49
-2.872777017783861
 49
5.745554035567722
 49
-2.872777017783861
 49
0.0
 49
-2.872777017783861
 49
0.0
 49
-2.872777017783861
  0
LTYPE
  2
ACAD_ISO14W100
 70
     0
  3
CADPAC LINETYPE
 72
    65
 73
     8
 40
17.23666210670316
 49
5.745554035567722
 49
-2.872777017783861
 49
0.0
 49
-2.872777017783861
 49
0.0
 49
-2.872777017783861
 49
0.0
 49
-2.872777017783861
  0
ENDTAB
  0
TABLE
  2
LAYER
 70
     3
  0
LAYER
  2
0
 70
     0
 62
     7
  6
CONTINUOUS
  0
LAYER
  2
LAYER0014
 70
     0
 62
     7
  6
CONTINUOUS
  0
LAYER
  2
ZUWAKU
 70
     0
 62
     7
  6
CONTINUOUS
  0
ENDTAB
  0
TABLE
  2
STYLE
 70
     5
  0
STYLE
  2
STANDARD
 70
     0
 40
0.0
 41
1.0
 50
0.0
 71
     0
 42
0.2
  3
txt
  4

  0
STYLE
  2
FDASTYLE1
 70
     0
 40
0.0
 41
0.7692307692307692
 50
0.0
 71
     0
 42
0.2
  3
txt.shx
  4
bigfont
  0
STYLE
  2
FDASTYLE0
 70
     4
 40
0.0
 41
0.8
 50
0.0
 71
     0
 42
0.2
  3
txt.shx
  4
bigfont
  0
STYLE
  2
FDASTYLE2
 70
     0
 40
0.0
 41
0.8123476848090983
 50
0.0
 71
     0
 42
0.2
  3
MSMINCHO.TTC
  4

  0
STYLE
  2
FDASTYLE3
 70
     0
 40
0.0
 41
0.77
 50
0.0
 71
     0
 42
0.2
  3
MSGOTHIC.TTC
  4

  0
ENDTAB
  0
TABLE
  2
VIEW
 70
     0
  0
ENDTAB
  0
TABLE
  2
UCS
 70
     0
  0
ENDTAB
  0
TABLE
  2
APPID
 70
     2
  0
APPID
  2
ACAD
 70
     0
  0
APPID
  2
DAFUSIONOUT
 70
     0
  0
ENDTAB
  0
TABLE
  2
DIMSTYLE
 70
     1
  0
DIMSTYLE
  2
STANDARD
 70
     0
  3

  4

  5

  6

  7

 40
1.0
 41
0.18
 42
0.0625
 43
0.38
 44
0.18
 45
0.0
 46
0.0
 47
0.0
 48
0.0
140
0.18
141
0.09
142
0.0
143
25.4
144
1.0
145
0.0
146
1.0
147
0.09
 71
     0
 72
     0
 73
     1
 74
     1
 75
     0
 76
     0
 77
     0
 78
     0
170
     0
171
     2
172
     0
173
     0
174
     0
175
     0
176
     0
177
     0
178
     0
  0
ENDTAB
  0
ENDSEC
  0
SECTION
  2
BLOCKS
  0
BLOCK
  8
0
  2
$MODEL_SPACE
 70
     0
 10
0.0
 20
0.0
 30
0.0
  3
$MODEL_SPACE
  1

  0
ENDBLK
  5
21
  8
0
  0
BLOCK
 67
     1
  8
0
  2
$PAPER_SPACE
 70
     0
 10
0.0
 20
0.0
 30
0.0
  3
$PAPER_SPACE
  1

  0
ENDBLK
  5
1D
 67
     1
  8
0
  0
BLOCK
  8
0
  2
DA_IMAGEDIMGROUP_1
 70
     0
 10
0.0
 20
0.0
 30
0.0
  3
DA_IMAGEDIMGROUP_1
  1

  0
LINE
  5
BB
  8
LAYER0014
  6
CONTINUOUS
 62
     7
 10
-104.6631761874812
 20
46.06606059342582
 30
0.0
 11
-132.1346202792781
 21
46.06606059342582
 31
0.0
  0
LINE
  5
BC
  8
LAYER0014
  6
CONTINUOUS
 62
     7
 10
-104.6631761874812
 20
20.76603846818168
 30
0.0
 11
-132.1346202792781
 21
20.76603846818168
 31
0.0
  0
LINE
  5
BD
  8
LAYER0014
  6
CONTINUOUS
 62
     7
 10
-131.1346202792781
 20
46.06604533463676
 30
0.0
 11
-131.1346202792781
 21
20.76604228287895
 31
0.0
  0
INSERT
  5
C4
  8
LAYER0014
 62
     7
  2
_OPEN30
 10
-131.1346202792781
 20
46.06604533463676
 30
0.0
 41
1.50000139391263
 42
1.499998500689492
 50
90.0
  0
INSERT
  5
C5
  8
LAYER0014
 62
     7
  2
_OPEN30
 10
-131.1346202792781
 20
20.76604228287895
 30
0.0
 41
1.50000139391263
 42
1.499998500689492
 50
270.0
  0
TEXT
  5
C7
  8
LAYER0014
 62
     7
 10
-132.7346202792781
 20
22.21604376107414
 30
0.0
 40
4.0
  1
φ25.3
 50
90.0
 41
0.7692307692307692
  7
FDASTYLE1
 72
     5
 11
-132.7346202792781
 21
38.21604376107414
 31
0.0
  0
TEXT
  5
C8
  8
LAYER0014
 62
     7
 10
-134.9346202792781
 20
39.21604376107414
 30
0.0
 40
2.2
  1
+0.3
 50
90.0
 41
0.8000000000000006
  7
FDASTYLE1
 72
     5
 11
-134.9346202792781
 21
46.25604376107415
 31
0.0
  0
TEXT
  5
C9
  8
LAYER0014
 62
     7
 10
-132.5346202792781
 20
39.21604376107414
 30
0.0
 40
2.2
  1
 0
 50
90.0
 41
0.8000000000000023
  7
FDASTYLE1
 72
     5
 11
-132.5346202792781
 21
42.73604376107415
 31
0.0
  0
ENDBLK
  5
4E
  8
0
  0
BLOCK
  8
0
  2
DA_IMAGEDIMGROUP_2
 70
     0
 10
0.0
 20
0.0
 30
0.0
  3
DA_IMAGEDIMGROUP_2
  1

  0
LINE
  5
CA
  8
LAYER0014
  6
CONTINUOUS
 62
     7
 10
-115.1631761874812
 20
56.41603617936332
 30
0.0
 11
-150.1346202792781
 21
56.41603617936332
 31
0.0
  0
LINE
  5
CB
  8
LAYER0014
  6
CONTINUOUS
 62
     7
 10
-111.8273302402156
 20
10.41604762345512
 30
0.0
 11
-150.1346202792781
 21
10.41604762345512
 31
0.0
  0
LINE
  5
CC
  8
LAYER0014
  6
CONTINUOUS
 62
     7
 10
-149.1346202792781
 20
56.41604380875786
 30
0.0
 11
-149.1346202792781
 21
10.41604380875786
 31
0.0
  0
INSERT
  5
CD
  8
LAYER0014
 62
     7
  2
_OPEN30
 10
-149.1346202792781
 20
56.41604380875786
 30
0.0
 41
1.50000139391263
 42
1.499998500689492
 50
90.0
  0
INSERT
  5
CE
  8
LAYER0014
 62
     7
  2
_OPEN30
 10
-149.1346202792781
 20
10.41604380875786
 30
0.0
 41
1.50000139391263
 42
1.499998500689492
 50
270.0
  0
TEXT
  5
CF
  8
LAYER0014
 62
     7
 10
-150.1346202792781
 20
25.41604380875786
 30
0.0
 40
4.0
  1
φ46H7
 50
90.0
 41
0.7692307692307692
  7
FDASTYLE1
 72
     5
 11
-150.1346202792781
 21
41.41604380875786
 31
0.0
  0
ENDBLK
  5
51
  8
0
  0
BLOCK
  8
0
  2
DA_IMAGEDIMGROUP_3
 70
     0
 10
0.0
 20
0.0
 30
0.0
  3
DA_IMAGEDIMGROUP_3
  1

  0
LINE
  5
D0
  8
LAYER0014
  6
CONTINUOUS
 62
     7
 10
-85.16317618748124
 20
51.41603617936332
 30
0.0
 11
-141.1346202792781
 21
51.41603617936332
 31
0.0
  0
LINE
  5
D1
  8
LAYER0014
  6
CONTINUOUS
 62
     7
 10
-85.16317618748124
 20
15.41604762345512
 30
0.0
 11
-141.1346202792781
 21
15.41604762345512
 31
0.0
  0
LINE
  5
D2
  8
LAYER0014
  6
CONTINUOUS
 62
     7
 10
-140.1346202792781
 20
51.41604380875786
 30
0.0
 11
-140.1346202792781
 21
15.41604380875786
 31
0.0
  0
INSERT
  5
D3
  8
LAYER0014
 62
     7
  2
_OPEN30
 10
-140.1346202792781
 20
51.41604380875786
 30
0.0
 41
1.50000139391263
 42
1.499998500689492
 50
90.0
  0
INSERT
  5
D4
  8
LAYER0014
 62
     7
  2
_OPEN30
 10
-140.1346202792781
 20
15.41604380875786
 30
0.0
 41
1.50000139391263
 42
1.499998500689492
 50
270.0
  0
TEXT
  5
D5
  8
LAYER0014
 62
     7
 10
-141.1346202792781
 20
25.41604380875786
 30
0.0
 40
4.0
  1
φ36H7
 50
90.0
 41
0.7692307692307692
  7
FDASTYLE1
 72
     5
 11
-141.1346202792781
 21
41.41604380875786
 31
0.0
  0
ENDBLK
  5
54
  8
0
  0
BLOCK
  8
0
  2
DA_IMAGEDIMGROUP_4
 70
     0
 10
0.0
 20
0.0
 30
0.0
  3
DA_IMAGEDIMGROUP_4
  1

  0
LINE
  5
D6
  8
LAYER0014
  6
CONTINUOUS
 62
     7
 10
-116.0273424472469
 20
88.41603617936332
 30
0.0
 11
-159.1346202792781
 21
88.41603617936332
 31
0.0
  0
LINE
  5
D7
  8
LAYER0014
  6
CONTINUOUS
 62
     7
 10
-116.0273424472469
 20
-21.58395046919625
 30
0.0
 11
-159.1346202792781
 21
-21.58395046919625
 31
0.0
  0
LINE
  5
D8
  8
LAYER0014
  6
CONTINUOUS
 62
     7
 10
-158.1346202792781
 20
88.41604380875785
 30
0.0
 11
-158.1346202792781
 21
-21.58395428389351
 31
0.0
  0
INSERT
  5
D9
  8
LAYER0014
 62
     7
  2
_OPEN30
 10
-158.1346202792781
 20
88.41604380875785
 30
0.0
 41
1.50000139391263
 42
1.499998500689492
 50
90.0
  0
INSERT
  5
DA
  8
LAYER0014
 62
     7
  2
_OPEN30
 10
-158.1346202792781
 20
-21.58395428389351
 30
0.0
 41
1.50000139391263
 42
1.499998500689492
 50
270.0
  0
TEXT
  5
DB
  8
LAYER0014
 62
     7
 10
-159.1346202792781
 20
23.81604476243217
 30
0.0
 40
4.0
  1
φ110H7
 50
90.0
 41
0.7741935483870963
  7
FDASTYLE1
 72
     5
 11
-159.1346202792781
 21
43.01604476243216
 31
0.0
  0
ENDBLK
  5
57
  8
0
  0
BLOCK
  8
0
  2
DA_IMAGEDIMGROUP_5
 70
     0
 10
0.0
 20
0.0
 30
0.0
  3
DA_IMAGEDIMGROUP_5
  1

  0
LINE
  5
DC
  8
LAYER0014
  6
CONTINUOUS
 62
     7
 10
-116.0273424472469
 20
98.41603617936332
 30
0.0
 11
-168.1346202792781
 21
98.41603617936332
 31
0.0
  0
LINE
  5
DD
  8
LAYER0014
  6
CONTINUOUS
 62
     7
 10
-115.1561679237068
 20
-31.58395046919625
 30
0.0
 11
-168.1346202792781
 21
-31.58395046919625
 31
0.0
  0
LINE
  5
DE
  8
LAYER0014
  6
CONTINUOUS
 62
     7
 10
-167.1346202792781
 20
98.41604380875785
 30
0.0
 11
-167.1346202792781
 21
-31.58395428389351
 31
0.0
  0
INSERT
  5
DF
  8
LAYER0014
 62
     7
  2
_OPEN30
 10
-167.1346202792781
 20
98.41604380875785
 30
0.0
 41
1.50000139391263
 42
1.499998500689492
 50
90.0
  0
INSERT
  5
E0
  8
LAYER0014
 62
     7
  2
_OPEN30
 10
-167.1346202792781
 20
-31.58395428389351
 30
0.0
 41
1.50000139391263
 42
1.499998500689492
 50
270.0
  0
TEXT
  5
E1
  8
LAYER0014
 62
     7
 10
-168.1346202792781
 20
27.01604476243216
 30
0.0
 40
4.0
  1
φ130
 50
90.0
 41
0.7619047619047625
  7
FDASTYLE1
 72
     5
 11
-168.1346202792781
 21
39.81604476243217
 31
0.0
  0
ENDBLK
  5
5A
  8
0
  0
BLOCK
  8
0
  2
DA_IMAGEDIMGROUP_6
 70
     0
 10
0.0
 20
0.0
 30
0.0
  3
DA_IMAGEDIMGROUP_6
  1

  0
LINE
  5
E2
  8
LAYER0014
  6
CONTINUOUS
 62
     7
 10
-51.48731192966874
 20
100.9560438087579
 30
0.0
 11
-51.48731192966874
 21
113.5323310402032
 31
0.0
  0
LINE
  5
E3
  8
LAYER0014
  6
CONTINUOUS
 62
     7
 10
-50.48731192966874
 20
99.45604380875787
 30
0.0
 11
-50.48731192966874
 21
113.5323310402032
 31
0.0
  0
LINE
  5
E4
  8
LAYER0014
  6
CONTINUOUS
 62
     7
 10
-51.48731192966874
 20
112.5323310402032
 30
0.0
 11
-50.48731192966874
 21
112.5323310402032
 31
0.0
  0
LINE
  5
E5
  8
LAYER0014
  6
CONTINUOUS
 62
     7
 10
-51.48731192966874
 20
112.5323310402032
 30
0.0
 11
-57.83731192966874
 21
112.5323310402032
 31
0.0
  0
INSERT
  5
E6
  8
LAYER0014
 62
     7
  2
_OPEN30
 10
-51.48731192966874
 20
112.5323310402032
 30
0.0
 41
1.50000139391263
 42
1.499998500689492
 50
360.0
  0
LINE
  5
E7
  8
LAYER0014
  6
CONTINUOUS
 62
     7
 10
-44.13731192966874
 20
112.5323310402032
 30
0.0
 11
-50.48731192966874
 21
112.5323310402032
 31
0.0
  0
INSERT
  5
E8
  8
LAYER0014
 62
     7
  2
_OPEN30
 10
-50.48731192966874
 20
112.5323310402032
 30
0.0
 41
1.50000139391263
 42
1.499998500689492
 50
180.0
  0
TEXT
  5
E9
  8
LAYER0014
 62
     7
 10
-58.80500525852617
 20
114.1323310402032
 30
0.0
 40
4.0
  1
1
 41
0.8000000000000007
  7
FDASTYLE1
 72
     5
 11
-55.60500525852616
 21
114.1323310402032
 31
0.0
  0
ENDBLK
  5
5D
  8
0
  0
BLOCK
  8
0
  2
DA_IMAGEDIMGROUP_7
 70
     0
 10
0.0
 20
0.0
 30
0.0
  3
DA_IMAGEDIMGROUP_7
  1

  0
LINE
  5
EA
  8
LAYER0014
  6
CONTINUOUS
 62
     7
 10
-109.2873302402156
 20
-44.75580826043839
 30
0.0
 11
-82.62317618748125
 21
-44.75580826043839
 31
0.0
  0
INSERT
  5
EB
  8
LAYER0014
 62
     7
  2
_OPEN30
 10
-109.2873302402156
 20
-44.75580826043839
 30
0.0
 41
1.50000139391263
 42
1.499998500689492
 50
180.0
  0
INSERT
  5
EC
  8
LAYER0014
 62
     7
  2
_OPEN30
 10
-82.62317618748125
 20
-44.75580826043839
 30
0.0
 41
1.50000139391263
 42
1.499998500689492
 50
360.0
  0
LINE
  5
ED
  8
LAYER0014
  6
CONTINUOUS
 62
     7
 10
-109.2873302402156
 20
-24.12395428389351
 30
0.0
 11
-109.2873302402156
 21
-45.75580826043839
 31
0.0
  0
LINE
  5
EE
  8
LAYER0014
  6
CONTINUOUS
 62
     7
 10
-82.62317618748125
 20
12.87604380875786
 30
0.0
 11
-82.62317618748125
 21
-45.75580826043839
 31
0.0
  0
TEXT
  5
EF
  8
LAYER0014
 62
     7
 10
-107.1552532138484
 20
-43.75580826043839
 30
0.0
 40
4.0
  1
MAX36.7
 41
0.8000000000000002
  7
FDASTYLE1
 72
     5
 11
-84.75525321384843
 21
-43.75580826043839
 31
0.0
  0
ENDBLK
  5
60
  8
0
  0
BLOCK
  8
0
  2
DA_IMAGEDIMGROUP_8
 70
     0
 10
0.0
 20
0.0
 30
0.0
  3
DA_IMAGEDIMGROUP_8
  1

  0
LINE
  5
F0
  8
LAYER0014
  6
CONTINUOUS
 62
     7
 10
-113.4873119296688
 20
-33.0268051517579
 30
0.0
 11
-113.4873119296688
 21
-60.68387837141793
 31
0.0
  0
LINE
  5
F1
  8
LAYER0014
  6
CONTINUOUS
 62
     7
 10
-109.2873302402156
 20
-24.12395428389351
 30
0.0
 11
-109.2873302402156
 21
-60.68387837141793
 31
0.0
  0
LINE
  5
F2
  8
LAYER0014
  6
CONTINUOUS
 62
     7
 10
-113.4873119296688
 20
-59.68387837141793
 30
0.0
 11
-109.2873302402156
 21
-59.68387837141793
 31
0.0
  0
LINE
  5
F3
  8
LAYER0014
  6
CONTINUOUS
 62
     7
 10
-128.898318796612
 20
-59.68387837141793
 30
0.0
 11
-113.4873119296688
 21
-59.68387837141793
 31
0.0
  0
INSERT
  5
F4
  8
LAYER0014
 62
     7
  2
_OPEN30
 10
-113.4873119296688
 20
-59.68387837141793
 30
0.0
 41
1.50000139391263
 42
1.499998500689492
 50
360.0
  0
LINE
  5
F5
  8
LAYER0014
  6
CONTINUOUS
 62
     7
 10
-104.2873302402156
 20
-59.68387837141793
 30
0.0
 11
-109.2873302402156
 21
-59.68387837141793
 31
0.0
  0
INSERT
  5
F6
  8
LAYER0014
 62
     7
  2
_OPEN30
 10
-109.2873302402156
 20
-59.68387837141793
 30
0.0
 41
1.50000139391263
 42
1.499998500689492
 50
180.0
  0
TEXT
  5
F7
  8
LAYER0014
 62
     7
 10
-127.898318796612
 20
-58.68387837141793
 30
0.0
 40
4.0
  1
4.2
 41
0.7999999999999995
  7
FDASTYLE1
 72
     5
 11
-118.298318796612
 21
-58.68387837141793
 31
0.0
  0
ENDBLK
  5
63
  8
0
  0
BLOCK
  8
0
  2
DA_IMAGEDIMGROUP_9
 70
     0
 10
0.0
 20
0.0
 30
0.0
  3
DA_IMAGEDIMGROUP_9
  1

  0
LINE
  5
F8
  8
LAYER0014
  6
CONTINUOUS
 62
     7
 10
-109.2873302402156
 20
-24.12395428389351
 30
0.0
 11
-109.2873302402156
 21
-60.68387837141793
 31
0.0
  0
LINE
  5
F9
  8
LAYER0014
  6
CONTINUOUS
 62
     7
 10
-50.48731192966874
 20
-32.62395428389351
 30
0.0
 11
-50.48731192966874
 21
-60.68387837141793
 31
0.0
  0
LINE
  5
FA
  8
LAYER0014
  6
CONTINUOUS
 62
     7
 10
-109.2873302402156
 20
-59.68387837141793
 30
0.0
 11
-50.48731192966874
 21
-59.68387837141793
 31
0.0
  0
INSERT
  5
FB
  8
LAYER0014
 62
     7
  2
_OPEN30
 10
-109.2873302402156
 20
-59.68387837141793
 30
0.0
 41
1.50000139391263
 42
1.499998500689492
 50
180.0
  0
INSERT
  5
FC
  8
LAYER0014
 62
     7
  2
_OPEN30
 10
-50.48731192966874
 20
-59.68387837141793
 30
0.0
 41
1.50000139391263
 42
1.499998500689492
 50
360.0
  0
TEXT
  5
FD
  8
LAYER0014
 62
     7
 10
-86.28732108494219
 20
-58.68387837141793
 30
0.0
 40
4.0
  1
58.8
 41
0.8000000000000007
  7
FDASTYLE1
 72
     5
 11
-73.48732108494218
 21
-58.68387837141793
 31
0.0
  0
ENDBLK
  5
66
  8
0
  0
BLOCK
  8
0
  2
DA_IMAGEDIMGROUP_10
 70
     0
 10
0.0
 20
0.0
 30
0.0
  3
DA_IMAGEDIMGROUP_10
  1

  0
LINE
  5
FE
  8
LAYER0014
  6
CONTINUOUS
 62
     7
 10
-50.48731192966874
 20
-32.62395428389351
 30
0.0
 11
-50.48731192966874
 21
-71.68387837141793
 31
0.0
  0
LINE
  5
FF
  8
LAYER0014
  6
CONTINUOUS
 62
     7
 10
-113.4873119296688
 20
-51.95451496809761
 30
0.0
 11
-113.4873119296688
 21
-71.68387837141793
 31
0.0
  0
LINE
  5
100
  8
LAYER0014
  6
CONTINUOUS
 62
     7
 10
-50.48731192966874
 20
-70.68387837141793
 30
0.0
 11
-113.4873119296688
 21
-70.68387837141793
 31
0.0
  0
INSERT
  5
101
  8
LAYER0014
 62
     7
  2
_OPEN30
 10
-50.48731192966874
 20
-70.68387837141793
 30
0.0
 41
1.50000139391263
 42
1.499998500689492
 50
360.0
  0
INSERT
  5
102
  8
LAYER0014
 62
     7
  2
_OPEN30
 10
-113.4873119296688
 20
-70.68387837141793
 30
0.0
 41
1.50000139391263
 42
1.499998500689492
 50
180.0
  0
TEXT
  5
103
  8
LAYER0014
 62
     7
 10
-85.18731192966875
 20
-69.68387837141793
 30
0.0
 40
4.0
  1
63
 41
0.8000000000000007
  7
FDASTYLE1
 72
     5
 11
-78.78731192966875
 21
-69.68387837141793
 31
0.0
  0
ENDBLK
  5
69
  8
0
  0
BLOCK
  8
0
  2
DC_GROUP_1
 70
     0
 10
0.0
 20
0.0
 30
0.0
  3
DC_GROUP_1
  1

  0
LINE
  5
104
  8
LAYER0014
  6
CONTINUOUS
 62
     7
 10
-58.13261603957298
 20
87.52498726826838
 30
0.0
 11
-71.2853926813369
 21
112.5099108894278
 31
0.0
  0
INSERT
  5
105
  8
LAYER0014
 62
     7
  2
_OPEN30
 10
-58.13261603957298
 20
87.52498726826838
 30
0.0
 41
1.50000139391263
 42
1.499998500689492
 50
297.7635987668411
  0
LINE
  5
106
  8
LAYER0014
  6
CONTINUOUS
 62
     7
 10
-71.28539237400469
 20
112.5099082496758
 30
0.0
 11
-80.51396140476641
 21
112.5099082496758
 31
0.0
  0
TEXT
  5
107
  8
LAYER0014
 62
     7
 10
-78.68539237400469
 20
114.1098929908868
 30
0.0
 40
4.0
  1
M8
 41
0.8000000000000007
  7
FDASTYLE1
 72
     5
 11
-72.28539237400469
 21
114.1098929908868
 31
0.0
  0
ENDBLK
  5
6C
  8
0
  0
BLOCK
  8
0
  2
DA_IMAGEDIMGROUP_11
 70
     0
 10
0.0
 20
0.0
 30
0.0
  3
DA_IMAGEDIMGROUP_11
  1

  0
LINE
  5
108
  8
LAYER0014
  6
CONTINUOUS
 62
     7
 10
-28.65666251560624
 20
69.41603617936332
 30
0.0
 11
-22.13462027927812
 21
69.41603617936332
 31
0.0
  0
LINE
  5
109
  8
LAYER0014
  6
CONTINUOUS
 62
     7
 10
-28.65666251560624
 20
86.41603617936332
 30
0.0
 11
-22.13462027927812
 21
86.41603617936332
 31
0.0
  0
LINE
  5
10A
  8
LAYER0014
  6
CONTINUOUS
 62
     7
 10
-23.13462027927812
 20
69.41603617936332
 30
0.0
 11
-23.13462027927812
 21
86.41603617936332
 31
0.0
  0
INSERT
  5
10B
  8
LAYER0014
 62
     7
  2
_OPEN30
 10
-23.13462027927812
 20
69.41603617936332
 30
0.0
 41
1.50000139391263
 42
1.499998500689492
 50
270.0
  0
INSERT
  5
10C
  8
LAYER0014
 62
     7
  2
_OPEN30
 10
-23.13462027927812
 20
86.41603617936332
 30
0.0
 41
1.50000139391263
 42
1.499998500689492
 50
90.0
  0
TEXT
  5
10D
  8
LAYER0014
 62
     7
 10
-24.73462027927812
 20
74.71603617936331
 30
0.0
 40
4.0
  1
17
 50
90.0
 41
0.8000000000000007
  7
FDASTYLE1
 72
     5
 11
-24.73462027927812
 21
81.11603617936332
 31
0.0
  0
ENDBLK
  5
6F
  8
0
  0
BLOCK
  8
0
  2
DA_IMAGEDIMGROUP_12
 70
     0
 10
0.0
 20
0.0
 30
0.0
  3
DA_IMAGEDIMGROUP_12
  1

  0
LINE
  5
10E
  8
LAYER0014
  6
CONTINUOUS
 62
     7
 10
-64.08317618748124
 20
13.41604762345512
 30
0.0
 11
-22.13462027927812
 21
13.41604762345512
 31
0.0
  0
LINE
  5
10F
  8
LAYER0014
  6
CONTINUOUS
 62
     7
 10
-23.13462027927812
 20
13.41604380875786
 30
0.0
 11
-23.13462027927812
 21
49.41603617936332
 31
0.0
  0
INSERT
  5
110
  8
LAYER0014
 62
     7
  2
_OPEN30
 10
-23.13462027927812
 20
13.41604380875786
 30
0.0
 41
1.50000139391263
 42
1.499998500689492
 50
270.0
  0
TEXT
  5
111
  8
LAYER0014
 62
     7
 10
-24.73462027927812
 20
19.25975337296684
 30
0.0
 40
4.0
  1
M40×P1.25
 50
90.0
 41
0.782608695652174
  7
FDASTYLE1
 72
     5
 11
-24.73462027927812
 21
48.05975337296684
 31
0.0
  0
ENDBLK
  5
72
  8
0
  0
BLOCK
  8
0
  2
DA_IMAGEDIMGROUP_13
 70
     0
 10
0.0
 20
0.0
 30
0.0
  3
DA_IMAGEDIMGROUP_13
  1

  0
LINE
  5
112
  8
LAYER0014
  6
CONTINUOUS
 62
     7
 10
-47.94734244724687
 20
8.416047623455121
 30
0.0
 11
-13.13462027927812
 21
8.416047623455121
 31
0.0
  0
LINE
  5
113
  8
LAYER0014
  6
CONTINUOUS
 62
     7
 10
-14.13462027927812
 20
8.416043808757856
 30
0.0
 11
-14.13462027927812
 21
49.41603617936332
 31
0.0
  0
INSERT
  5
114
  8
LAYER0014
 62
     7
  2
_OPEN30
 10
-14.13462027927812
 20
8.416043808757856
 30
0.0
 41
1.50000139391263
 42
1.499998500689492
 50
270.0
  0
TEXT
  5
115
  8
LAYER0014
 62
     7
 10
-15.73462027927812
 20
25.4586082008477
 30
0.0
 40
4.0
  1
φ50H7
 50
90.0
 41
0.7692307692307692
  7
FDASTYLE1
 72
     5
 11
-15.73462027927812
 21
41.4586082008477
 31
0.0
  0
ENDBLK
  5
75
  8
0
  0
BLOCK
  8
0
  2
DA_IMAGEDIMGROUP_14
 70
     0
 10
0.0
 20
0.0
 30
0.0
  3
DA_IMAGEDIMGROUP_14
  1

  0
LINE
  5
116
  8
LAYER0014
  6
CONTINUOUS
 62
     7
 10
-1.081990851930962
 20
60.91604380875786
 30
0.0
 11
-1.081990851930962
 21
98.41604380875785
 31
0.0
  0
INSERT
  5
117
  8
LAYER0014
 62
     7
  2
_OPEN30
 10
-1.081990851930962
 20
60.91604380875786
 30
0.0
 41
1.50000139391263
 42
1.499998500689492
 50
270.0
  0
INSERT
  5
118
  8
LAYER0014
 62
     7
  2
_OPEN30
 10
-1.081990851930962
 20
98.41604380875785
 30
0.0
 41
1.50000139391263
 42
1.499998500689492
 50
90.0
  0
LINE
  5
119
  8
LAYER0014
  6
CONTINUOUS
 62
     7
 10
-48.94734244724687
 20
60.91603617936332
 30
0.0
 11
-0.0819908519309751
 21
60.9160439681507
 31
0.0
  0
LINE
  5
11A
  8
LAYER0014
  6
CONTINUOUS
 62
     7
 10
-48.94734244724687
 20
98.41603617936332
 30
0.0
 11
-0.0819908519309751
 21
98.41604396815069
 31
0.0
  0
TEXT
  5
11B
  8
LAYER0014
 62
     7
 10
-2.681990851930962
 20
73.26604380875784
 30
0.0
 40
4.0
  1
37.5
 50
90.0
 41
0.8000000000000007
  7
FDASTYLE1
 72
     5
 11
-2.681990851930962
 21
86.06604380875785
 31
0.0
  0
ENDBLK
  5
78
  8
0
  0
BLOCK
  8
0
  2
DC_GROUP_2
 70
     0
 10
0.0
 20
0.0
 30
0.0
  3
DC_GROUP_2
  1

  0
LINE
  5
11C
  8
LAYER0014
  6
CONTINUOUS
 62
     7
 10
-51.39809250502866
 20
96.00966947920003
 30
0.0
 11
-37.49246949270195
 21
112.5099184759924
 31
0.0
  0
INSERT
  5
11D
  8
LAYER0014
 62
     7
  2
_OPEN30
 10
-51.39809250502866
 20
96.00966947920003
 30
0.0
 41
1.50000139391263
 42
1.499998500689492
 50
229.8774082158932
  0
LINE
  5
11E
  8
LAYER0014
  6
CONTINUOUS
 62
     7
 10
-37.49246749302323
 20
112.5099082496758
 30
0.0
 11
9.137201696429891
 21
112.5099082496758
 31
0.0
  0
TEXT
  5
11F
  8
LAYER0014
 62
     7
 10
-37.16061362644609
 20
114.1099082496758
 30
0.0
 40
4.0
  1
ｾﾚｰｼｮﾝP1.5山60ﾟ
 41
0.7887323943661972
  7
FDASTYLE1
 72
     5
 11
7.639386373553919
 21
114.1099082496758
 31
0.0
  0
ENDBLK
  5
7B
  8
0
  0
BLOCK
  8
0
  2
DA_IMAGEDIMGROUP_15
 70
     0
 10
0.0
 20
0.0
 30
0.0
  3
DA_IMAGEDIMGROUP_15
  1

  0
LINE
  5
120
  8
LAYER0014
  6
CONTINUOUS
 62
     7
 10
-48.94734244724687
 20
60.91603617936332
 30
0.0
 11
-22.13462027927812
 21
60.91603617936332
 31
0.0
  0
LINE
  5
121
  8
LAYER0014
  6
CONTINUOUS
 62
     7
 10
-28.65666251560624
 20
69.41603617936332
 30
0.0
 11
-22.13462027927812
 21
69.41603617936332
 31
0.0
  0
LINE
  5
122
  8
LAYER0014
  6
CONTINUOUS
 62
     7
 10
-23.13462027927812
 20
60.91604380875786
 30
0.0
 11
-23.13462027927812
 21
69.41604380875785
 31
0.0
  0
LINE
  5
123
  8
LAYER0014
  6
CONTINUOUS
 62
     7
 10
-23.13462027927812
 20
55.91604380875786
 30
0.0
 11
-23.13462027927812
 21
60.91604380875786
 31
0.0
  0
INSERT
  5
124
  8
LAYER0014
 62
     7
  2
_OPEN30
 10
-23.13462027927812
 20
60.91604380875786
 30
0.0
 41
1.50000139391263
 42
1.499998500689492
 50
90.0
  0
LINE
  5
125
  8
LAYER0014
  6
CONTINUOUS
 62
     7
 10
-23.13462027927812
 20
74.41604380875785
 30
0.0
 11
-23.13462027927812
 21
69.41604380875785
 31
0.0
  0
INSERT
  5
126
  8
LAYER0014
 62
     7
  2
_OPEN30
 10
-23.13462027927812
 20
69.41604380875785
 30
0.0
 41
1.50000139391263
 42
1.499998500689492
 50
270.0
  0
TEXT
  5
127
  8
LAYER0014
 62
     7
 10
-28.63462027927812
 20
60.96604380875785
 30
0.0
 40
3.5
  1
MIN
 50
90.0
 41
0.8000000000000005
  7
FDASTYLE1
 72
     5
 11
-28.63462027927812
 21
69.36604380875785
 31
0.0
  0
TEXT
  5
128
  8
LAYER0014
 62
     7
 10
-24.73462027927812
 20
63.44348825484473
 30
0.0
 40
4.0
  1
7
 50
90.0
 41
0.7999999999999989
  7
FDASTYLE1
 72
     5
 11
-24.73462027927812
 21
66.64348825484473
 31
0.0
  0
ENDBLK
  5
7E
  8
0
  0
BLOCK
  8
0
  2
DA_IMAGEDIMGROUP_16
 70
     0
 10
0.0
 20
0.0
 30
0.0
  3
DA_IMAGEDIMGROUP_16
  1

  0
LINE
  5
129
  8
LAYER0014
  6
CONTINUOUS
 62
     7
 10
-109.2873302402156
 20
90.95604380875787
 30
0.0
 11
-109.2873302402156
 21
113.5323310402032
 31
0.0
  0
LINE
  5
12A
  8
LAYER0014
  6
CONTINUOUS
 62
     7
 10
-102.6231761874813
 20
58.45604380875786
 30
0.0
 11
-102.6231761874813
 21
113.5323310402032
 31
0.0
  0
LINE
  5
12B
  8
LAYER0014
  6
CONTINUOUS
 62
     7
 10
-109.2873302402156
 20
112.5323310402032
 30
0.0
 11
-102.6231761874813
 21
112.5323310402032
 31
0.0
  0
LINE
  5
12C
  8
LAYER0014
  6
CONTINUOUS
 62
     7
 10
-137.4689133410079
 20
112.5323310402032
 30
0.0
 11
-109.2873302402156
 21
112.5323310402032
 31
0.0
  0
INSERT
  5
12D
  8
LAYER0014
 62
     7
  2
_OPEN30
 10
-109.2873302402156
 20
112.5323310402032
 30
0.0
 41
1.50000139391263
 42
1.499998500689492
 50
360.0
  0
LINE
  5
12E
  8
LAYER0014
  6
CONTINUOUS
 62
     7
 10
-97.62317618748125
 20
112.5323310402032
 30
0.0
 11
-102.6231761874813
 21
112.5323310402032
 31
0.0
  0
INSERT
  5
12F
  8
LAYER0014
 62
     7
  2
_OPEN30
 10
-102.6231761874813
 20
112.5323310402032
 30
0.0
 41
1.50000139391263
 42
1.499998500689492
 50
180.0
  0
TEXT
  5
130
  8
LAYER0014
 62
     7
 10
-136.4689133410079
 20
113.5323310402032
 30
0.0
 40
4.0
  1
ＭＡＸ16.7
 41
0.7368421052631581
  7
FDASTYLE1
 72
     5
 11
-114.0689133410079
 21
113.5323310402032
 31
0.0
  0
ENDBLK
  5
81
  8
0
  0
BLOCK
  8
0
  2
DA_IMAGEDIMGROUP_17
 70
     0
 10
0.0
 20
0.0
 30
0.0
  3
DA_IMAGEDIMGROUP_17
  1

  0
LINE
  5
131
  8
0
  6
CONTINUOUS
 62
     9
 10
-102.6231761874813
 20
24.87201365187713
 30
0.0
 11
-82.62317618748125
 21
24.87201365187713
 31
0.0
  0
INSERT
  5
132
  8
0
 62
     9
  2
_OPEN30
 10
-102.6231761874813
 20
24.87201365187713
 30
0.0
 41
1.50000139391263
 42
1.499998500689492
 50
180.0
  0
INSERT
  5
133
  8
0
 62
     9
  2
_OPEN30
 10
-82.62317618748125
 20
24.87201365187713
 30
0.0
 41
1.50000139391263
 42
1.499998500689492
 50
360.0
  0
LINE
  5
134
  8
0
  6
CONTINUOUS
 62
     9
 10
-82.62317618748125
 20
24.87201365187713
 30
0.0
 11
-74.62317618748125
 21
24.87201365187713
 31
0.0
  0
INSERT
  5
135
  8
0
 62
     9
  2
_OPEN30
 10
-82.62317618748125
 20
24.87201365187713
 30
0.0
 41
1.50000139391263
 42
1.499998500689492
 50
180.0
  0
INSERT
  5
136
  8
0
 62
     9
  2
_OPEN30
 10
-74.62317618748125
 20
24.87201365187713
 30
0.0
 41
1.50000139391263
 42
1.499998500689492
 50
360.0
  0
LINE
  5
137
  8
0
  6
CONTINUOUS
 62
     9
 10
-74.62317618748125
 20
24.87201365187713
 30
0.0
 11
-66.62317618748125
 21
24.87201365187713
 31
0.0
  0
INSERT
  5
138
  8
0
 62
     9
  2
_OPEN30
 10
-74.62317618748125
 20
24.87201365187713
 30
0.0
 41
1.50000139391263
 42
1.499998500689492
 50
180.0
  0
INSERT
  5
139
  8
0
 62
     9
  2
_OPEN30
 10
-66.62317618748125
 20
24.87201365187713
 30
0.0
 41
1.50000139391263
 42
1.499998500689492
 50
360.0
  0
TEXT
  5
13A
  8
0
 62
     7
 10
-95.82317618748125
 20
25.87201365187713
 30
0.0
 40
4.0
  1
20
 41
0.8000000000000007
  7
FDASTYLE1
 72
     5
 11
-89.42317618748125
 21
25.87201365187713
 31
0.0
  0
TEXT
  5
13B
  8
0
 62
     7
 10
-80.22317618748124
 20
25.87201365187713
 30
0.0
 40
4.0
  1
8
 41
0.7999999999999972
  7
FDASTYLE1
 72
     5
 11
-77.02317618748126
 21
25.87201365187713
 31
0.0
  0
TEXT
  5
13C
  8
0
 62
     7
 10
-72.22317618748124
 20
25.87201365187713
 30
0.0
 40
4.0
  1
8
 41
0.7999999999999972
  7
FDASTYLE1
 72
     5
 11
-69.02317618748126
 21
25.87201365187713
 31
0.0
  0
ENDBLK
  5
84
  8
0
  0
BLOCK
  8
0
  2
DA_IMAGEDIMGROUP_18
 70
     0
 10
0.0
 20
0.0
 30
0.0
  3
DA_IMAGEDIMGROUP_18
  1

  0
LINE
  5
13D
  8
0
  6
CONTINUOUS
 62
     9
 10
-52.98731192966874
 20
24.6717861205915
 30
0.0
 11
-50.48731192966874
 21
24.6717861205915
 31
0.0
  0
LINE
  5
13E
  8
0
  6
CONTINUOUS
 62
     9
 10
-36.95546192966874
 20
24.6717861205915
 30
0.0
 11
-50.48731192966874
 21
24.6717861205915
 31
0.0
  0
INSERT
  5
13F
  8
0
 62
     9
  2
_OPEN30
 10
-50.48731192966874
 20
24.6717861205915
 30
0.0
 41
1.50000139391263
 42
1.499998500689492
 50
180.0
  0
LINE
  5
140
  8
0
  6
CONTINUOUS
 62
     9
 10
-57.98731192966874
 20
24.6717861205915
 30
0.0
 11
-52.98731192966874
 21
24.6717861205915
 31
0.0
  0
INSERT
  5
141
  8
0
 62
     9
  2
_OPEN30
 10
-52.98731192966874
 20
24.6717861205915
 30
0.0
 41
1.50000139391263
 42
1.499998500689492
 50
360.0
  0
TEXT
  5
142
  8
0
 62
     7
 10
-47.55546192966875
 20
25.6717861205915
 30
0.0
 40
4.0
  1
2.5
 41
0.8000000000000002
  7
FDASTYLE1
 72
     5
 11
-37.95546192966874
 21
25.6717861205915
 31
0.0
  0
ENDBLK
  5
87
  8
0
  0
BLOCK
  8
0
  2
DC_GROUP_3
 70
     0
 10
0.0
 20
0.0
 30
0.0
  3
DC_GROUP_3
  1

  0
LINE
  5
143
  8
LAYER0014
  6
CONTINUOUS
 62
     7
 10
-47.94734244724687
 20
93.41603617936332
 30
0.0
 11
-13.13462027927812
 21
93.41603617936332
 31
0.0
  0
LINE
  5
144
  8
LAYER0014
  6
CONTINUOUS
 62
     7
 10
-47.94734244724687
 20
62.41603617936332
 30
0.0
 11
-32.6204019719378
 21
62.41603617936332
 31
0.0
  0
LINE
  5
145
  8
LAYER0014
  6
CONTINUOUS
 62
     7
 10
-24.14410314751611
 20
62.41603617936332
 30
0.0
 11
-13.13462027927812
 21
62.41603617936332
 31
0.0
  0
LINE
  5
146
  8
LAYER0014
  6
CONTINUOUS
 62
     7
 10
-14.13462027927812
 20
93.41603617936332
 30
0.0
 11
-14.13462027927812
 21
62.41603617936332
 31
0.0
  0
INSERT
  5
147
  8
LAYER0014
 62
     7
  2
_OPEN30
 10
-14.13462027927812
 20
93.41603617936332
 30
0.0
 41
1.50000139391263
 42
1.499998500689492
 50
90.0
  0
INSERT
  5
148
  8
LAYER0014
 62
     7
  2
_OPEN30
 10
-14.13462027927812
 20
62.41603617936332
 30
0.0
 41
1.50000139391263
 42
1.499998500689492
 50
270.0
  0
TEXT
  5
149
  8
LAYER0014
 62
     7
 10
-15.73462027927812
 20
74.7634681251641
 30
0.0
 40
4.0
  1
31
 50
90.0
 41
0.8000000000000007
  7
FDASTYLE1
 72
     5
 11
-15.73462027927812
 21
81.1634681251641
 31
0.0
  0
ENDBLK
  5
8A
  8
0
  0
BLOCK
  8
0
  2
DC_GROUP_4
 70
     0
 10
0.0
 20
0.0
 30
0.0
  3
DC_GROUP_4
  1

  0
LINE
  5
14A
  8
0
  6
CONTINUOUS
 62
     5
 10
118.0623123704067
 20
66.08359103823491
 30
0.0
 11
118.0623115612786
 21
61.58358531618902
 31
0.0
  0
LINE
  5
14B
  8
0
  6
CONTINUOUS
 62
     5
 10
118.8122992326284
 20
65.33362417963301
 30
0.0
 11
118.0623038396467
 21
66.08361965266244
 31
0.0
  0
LINE
  5
14C
  8
0
  6
CONTINUOUS
 62
     5
 10
117.3123389097506
 20
65.33355197453125
 30
0.0
 11
118.0623450459326
 21
66.08355828354749
 31
0.0
  0
LINE
  5
14D
  8
0
  6
CONTINUOUS
 62
     5
 10
118.0623651205735
 20
61.58352229665444
 30
0.0
 11
118.8123712567554
 21
62.33352860567067
 31
0.0
  0
LINE
  5
14E
  8
0
  6
CONTINUOUS
 62
     5
 10
118.0623164121441
 20
61.58361670889666
 30
0.0
 11
117.3123102295695
 21
62.33362297152016
 31
0.0
  0
LINE
  5
14F
  8
0
  6
CONTINUOUS
 62
     5
 10
110.5622903956655
 20
66.8336045461316
 30
0.0
 11
125.5622903956655
 21
66.83360184904126
 31
0.0
  0
LINE
  5
150
  8
0
  6
CONTINUOUS
 62
     5
 10
119.938073838834
 20
72.36065837578326
 30
0.0
 11
118.9636478654637
 21
72.20632460580904
 31
0.0
  0
LINE
  5
151
  8
0
  6
CONTINUOUS
 62
     5
 10
119.9380997662331
 20
72.36066464423197
 30
0.0
 11
119.7837682068472
 21
73.33507548787014
 31
0.0
  0
LINE
  5
152
  8
0
  6
CONTINUOUS
 62
     5
 10
125.5622980250603
 20
66.83360304113279
 30
0.0
 11
125.5622993736056
 21
74.33360399480711
 31
0.0
  0
LINE
  5
153
  8
0
  6
CONTINUOUS
 62
     5
 10
110.5622907905351
 20
74.33359715515582
 30
0.0
 11
125.5622907905351
 21
74.33359445806548
 31
0.0
  0
LINE
  5
154
  8
0
  6
CONTINUOUS
 62
     5
 10
110.5622875346418
 20
66.83360001617911
 30
0.0
 11
110.5622895574594
 21
78.08359906250479
 31
0.0
  0
LINE
  5
155
  8
0
  6
CONTINUOUS
 62
     5
 10
110.5622909879708
 20
78.08359858566737
 30
0.0
 11
112.8122909879708
 21
78.08359818110384
 31
0.0
  0
LINE
  5
156
  8
0
  6
CONTINUOUS
 62
     5
 10
112.8122988919191
 20
76.95858959803354
 30
0.0
 11
112.8122990941995
 21
78.08358196863901
 31
0.0
  0
LINE
  5
157
  8
0
  6
CONTINUOUS
 62
     5
 10
112.8122907856889
 20
76.95859770426668
 30
0.0
 11
114.3122907856889
 21
76.95859743455765
 31
0.0
  0
LINE
  5
158
  8
0
  6
CONTINUOUS
 62
     5
 10
114.3122820003385
 20
75.83359886507066
 30
0.0
 11
114.3122822026203
 21
76.95859886507066
 31
0.0
  0
LINE
  5
159
  8
0
  6
CONTINUOUS
 62
     5
 10
114.3123058421944
 20
75.83358742097457
 30
0.0
 11
115.8123058421944
 21
75.83358715126553
 31
0.0
  0
LINE
  5
15A
  8
0
  6
CONTINUOUS
 62
     5
 10
115.8122764854208
 20
74.33359883378114
 30
0.0
 11
115.8122767551298
 21
75.83359859536256
 31
0.0
  0
LINE
  5
15B
  8
0
  6
CONTINUOUS
 62
     5
 10
117.3123281610543
 20
76.68384152475167
 30
0.0
 11
118.0623342972362
 21
77.43384783376791
 31
0.0
  0
LINE
  5
15C
  8
0
  6
CONTINUOUS
 62
     5
 10
115.1026692032816
 20
77.43385755016379
 30
0.0
 11
118.062294464186
 21
77.43385701800537
 31
0.0
  0
LINE
  5
15D
  8
0
  6
CONTINUOUS
 62
     5
 10
118.0623054568834
 20
77.43388458912341
 30
0.0
 11
117.3123100639017
 21
78.18388006215284
 31
0.0
  0
ARC
  5
15E
  8
0
  6
CONTINUOUS
 62
     5
 10
118.0819171963078
 20
70.50449137955863
 30
0.0
 40
2.625001907348633
 50
45.00008748337766
 51
339.9999397365145
  0
TEXT
  5
15F
  8
0
 62
     5
 10
116.1824104484891
 20
62.87959197611367
 30
0.0
 40
2.5
  1
F
 50
89.99998969787377
 41
0.8791213035583467
  7
FDASTYLE1
 72
     5
 11
116.1824108436674
 21
65.0773952350095
 31
0.0
  0
TEXT
  5
160
  8
0
 62
     5
 10
123.7015184764043
 20
70.67357074574557
 30
0.0
 40
2.5
  1
N min
 50
89.99998969787377
 41
0.7983872809842205
  7
FDASTYLE1
 72
     5
 11
123.7015207015038
 21
83.04857074574537
 31
0.0
  0
TEXT
  5
161
  8
0
 62
     5
 10
121.9226745387591
 20
83.61107039504057
 30
0.0
 40
1.25
  1
-1
 50
89.99998969787377
 41
0.7826089106345534
  7
FDASTYLE1
 72
     5
 11
121.9226749433227
 21
85.86107066326143
 31
0.0
  0
TEXT
  5
162
  8
0
 62
     5
 10
117.8848597133383
 20
79.13786002632682
 30
0.0
 40
2.5
  1
ΣS
 50
89.99998969787377
 41
0.9590411728078668
  7
FDASTYLE1
 72
     5
 11
117.8848606617659
 21
84.41258647677
 31
0.0
  0
ENDBLK
  5
8D
  8
0
  0
BLOCK
  8
0
  2
DA_IMAGEDIMGROUP_19
 70
     0
 10
0.0
 20
0.0
 30
0.0
  3
DA_IMAGEDIMGROUP_19
  1

  0
LINE
  5
163
  8
LAYER0014
  6
CONTINUOUS
 62
     7
 10
154.8583829073766
 20
-4.022558279879882
 30
0.0
 11
158.3109947768364
 21
-6.015925932797494
 31
0.0
  0
LINE
  5
164
  8
LAYER0014
  6
CONTINUOUS
 62
     7
 10
164.3432739870785
 20
33.41602170572139
 30
0.0
 11
168.8767450564261
 21
33.41603544228621
 31
0.0
  0
ARC
  5
165
  8
LAYER0014
  6
CONTINUOUS
 62
     7
 10
90.01282539943281
 20
33.41603236466606
 30
0.0
 40
77.86392974853516
 50
330.0000025802685
 51
360.0000023135259
  0
INSERT
  5
166
  8
LAYER0014
 62
     7
  2
_OPEN30
 10
157.4449683534202
 20
-5.515929472850218
 30
0.0
 41
1.50000139391263
 42
1.499998500689492
 50
240.5518867345102
  0
INSERT
  5
167
  8
LAYER0014
 62
     7
  2
_OPEN30
 10
167.8767551479679
 20
33.41603550870597
 30
0.0
 41
1.50000139391263
 42
1.499998500689492
 50
89.44811815928379
  0
TEXT
  5
168
  8
LAYER0014
 62
     7
 10
162.4357975729876
 20
9.041036593420873
 30
0.0
 40
4.0
  1
30ﾟ
 50
75.0
 41
0.800000000000002
  7
FDASTYLE1
 72
     5
 11
164.9204604059718
 21
18.31392452579595
 31
0.0
  0
ENDBLK
  5
90
  8
0
  0
BLOCK
  8
0
  2
DA_IMAGEDIMGROUP_20
 70
     0
 10
0.0
 20
0.0
 30
0.0
  3
DA_IMAGEDIMGROUP_20
  1

  0
LINE
  5
169
  8
LAYER0014
  6
CONTINUOUS
 62
     7
 10
164.3432764492375
 20
33.416017105877
 30
0.0
 11
168.8767475185734
 21
33.416017105877
 31
0.0
  0
LINE
  5
16A
  8
LAYER0014
  6
CONTINUOUS
 62
     7
 10
137.0508886380697
 20
60.57355718693857
 30
0.0
 11
158.3109746868455
 21
72.84804656680549
 31
0.0
  0
ARC
  5
16B
  8
LAYER0014
  6
CONTINUOUS
 62
     7
 10
90.01268807033125
 20
33.41603236466606
 30
0.0
 40
77.86406707763672
 50
359.9999887719169
 51
389.9999871744477
  0
INSERT
  5
16C
  8
LAYER0014
 62
     7
  2
_OPEN30
 10
167.8767551479665
 20
33.41601710587696
 30
0.0
 41
1.50000139391263
 42
1.499998500689492
 50
270.5518719528001
  0
INSERT
  5
16D
  8
LAYER0014
 62
     7
  2
_OPEN30
 10
157.4449569164009
 20
72.34805080889905
 30
0.0
 41
1.50000139391263
 42
1.499998500689492
 50
119.448103993565
  0
TEXT
  5
16E
  8
LAYER0014
 62
     7
 10
165.5267602171126
 20
58.61927387577154
 30
0.0
 40
4.0
  1
30ﾟ
 50
-74.99999999999997
 41
0.800000000000002
  7
FDASTYLE1
 72
     5
 11
168.0114230500968
 21
49.34638594339646
 31
0.0
  0
ENDBLK
  5
93
  8
0
  0
BLOCK
  8
0
  2
DC_GROUP_5
 70
     0
 10
0.0
 20
0.0
 30
0.0
  3
DC_GROUP_5
  1

  0
LINE
  5
16F
  8
LAYER0014
  6
CONTINUOUS
 62
     7
 10
115.4124549260637
 20
16.29930914542783
 30
0.0
 11
130.1760032325449
 21
-48.77390599461844
 31
0.0
  0
INSERT
  5
170
  8
LAYER0014
 62
     7
  2
_OPEN30
 10
115.4124549260637
 20
16.29930914542783
 30
0.0
 41
1.50000139391263
 42
1.499998500689492
 50
102.7826478056442
  0
LINE
  5
171
  8
LAYER0014
  6
CONTINUOUS
 62
     7
 10
130.1760028896672
 20
-48.77390904158394
 30
0.0
 11
175.4550556240422
 21
-48.77390904158394
 31
0.0
  0
TEXT
  5
172
  8
LAYER0014
 62
     7
 10
132.0264820156438
 20
-47.17389759749214
 30
0.0
 40
4.0
  1
4-M5×11 PCD58
 41
0.7878787878787879
  7
FDASTYLE1
 72
     5
 11
173.6264820156438
 21
-47.17389759749214
 31
0.0
  0
ENDBLK
  5
96
  8
0
  0
BLOCK
  8
0
  2
DC_GROUP_6
 70
     0
 10
0.0
 20
0.0
 30
0.0
  3
DC_GROUP_6
  1

  0
LINE
  5
173
  8
LAYER0014
  6
CONTINUOUS
 62
     7
 10
50.61356347917798
 20
5.025457875173494
 30
0.0
 11
25.41879093915623
 21
-48.77390697669173
 31
0.0
  0
INSERT
  5
174
  8
LAYER0014
 62
     7
  2
_OPEN30
 10
50.61356347917798
 20
5.025457875173494
 30
0.0
 41
1.50000139391263
 42
1.499998500689492
 50
64.90584429209005
  0
LINE
  5
175
  8
LAYER0014
  6
CONTINUOUS
 62
     7
 10
25.41879311183516
 20
-48.77390904158394
 30
0.0
 11
-3.081029504741984
 21
-48.77390904158394
 31
0.0
  0
TEXT
  5
176
  8
LAYER0014
 62
     7
 10
-1.252459711040814
 20
-47.17390522688667
 30
0.0
 40
4.0
  1
PCD82.55
 41
0.8
  7
FDASTYLE1
 72
     5
 11
24.34754028895919
 21
-47.17390522688667
 31
0.0
  0
ENDBLK
  5
99
  8
0
  0
BLOCK
  8
0
  2
DA_IMAGEDIMGROUP_21
 70
     0
 10
0.0
 20
0.0
 30
0.0
  3
DA_IMAGEDIMGROUP_21
  1

  0
LINE
  5
177
  8
0
  6
CONTINUOUS
 62
     9
 10
84.51268807033125
 20
-32.58396763533394
 30
0.0
 11
84.51268807033125
 21
-41.43838004025903
 31
0.0
  0
LINE
  5
178
  8
0
  6
CONTINUOUS
 62
     9
 10
95.51268807033125
 20
-32.58396763533394
 30
0.0
 11
95.51268807033125
 21
-41.43838004025903
 31
0.0
  0
LINE
  5
179
  8
0
  6
CONTINUOUS
 62
     9
 10
84.51268807033125
 20
-40.43838004025903
 30
0.0
 11
95.51268807033125
 21
-40.43838004025903
 31
0.0
  0
LINE
  5
17A
  8
0
  6
CONTINUOUS
 62
     9
 10
119.2773028107048
 20
-40.43838004025903
 30
0.0
 11
95.51268807033125
 21
-40.43838004025903
 31
0.0
  0
INSERT
  5
17B
  8
0
 62
     9
  2
_OPEN30
 10
95.51268807033125
 20
-40.43838004025903
 30
0.0
 41
1.50000139391263
 42
1.499998500689492
 50
180.0
  0
LINE
  5
17C
  8
0
  6
CONTINUOUS
 62
     9
 10
79.51268807033125
 20
-40.43838004025903
 30
0.0
 11
84.51268807033125
 21
-40.43838004025903
 31
0.0
  0
INSERT
  5
17D
  8
0
 62
     9
  2
_OPEN30
 10
84.51268807033125
 20
-40.43838004025903
 30
0.0
 41
1.50000139391263
 42
1.499998500689492
 50
360.0
  0
TEXT
  5
17E
  8
0
 62
     7
 10
105.4773028107048
 20
-39.43838004025903
 30
0.0
 40
4.0
  1
11H8
 41
0.7999999999999998
  7
FDASTYLE1
 72
     5
 11
118.2773028107048
 21
-39.43838004025903
 31
0.0
  0
ENDBLK
  5
9C
  8
0
  0
BLOCK
  8
0
  2
DA_IMAGEDIMGROUP_22
 70
     0
 10
0.0
 20
0.0
 30
0.0
  3
DA_IMAGEDIMGROUP_22
  1

  0
LINE
  5
17F
  8
0
  6
CONTINUOUS
 62
     9
 10
76.51268807033125
 20
-32.58396763533394
 30
0.0
 11
76.51268807033125
 21
-50.56877311615355
 31
0.0
  0
LINE
  5
180
  8
0
  6
CONTINUOUS
 62
     9
 10
103.5126880703313
 20
-32.58396763533394
 30
0.0
 11
103.5126880703313
 21
-50.56877311615355
 31
0.0
  0
LINE
  5
181
  8
0
  6
CONTINUOUS
 62
     9
 10
76.51268807033125
 20
-49.56877311615355
 30
0.0
 11
103.5126880703313
 21
-49.56877311615355
 31
0.0
  0
INSERT
  5
182
  8
0
 62
     9
  2
_OPEN30
 10
76.51268807033125
 20
-49.56877311615355
 30
0.0
 41
1.50000139391263
 42
1.499998500689492
 50
180.0
  0
INSERT
  5
183
  8
0
 62
     9
  2
_OPEN30
 10
103.5126880703313
 20
-49.56877311615355
 30
0.0
 41
1.50000139391263
 42
1.499998500689492
 50
360.0
  0
TEXT
  5
184
  8
0
 62
     7
 10
86.81268807033125
 20
-48.56877311615355
 30
0.0
 40
4.0
  1
27
 41
0.8000000000000007
  7
FDASTYLE1
 72
     5
 11
93.21268807033125
 21
-48.56877311615355
 31
0.0
  0
ENDBLK
  5
9F
  8
0
  0
BLOCK
  8
0
  2
DA_IMAGEDIMGROUP_23
 70
     0
 10
0.0
 20
0.0
 30
0.0
  3
DA_IMAGEDIMGROUP_23
  1

  0
TEXT
  5
185
  8
LAYER0014
 62
     7
 10
-136.6672868245958
 20
107.5632259708221
 30
0.0
 40
4.0
  1
ＭＩＮ-3.3
 41
0.7368421052631576
  7
FDASTYLE1
 72
     5
 11
-114.2672868245958
 21
107.5632259708221
 31
0.0
  0
ENDBLK
  5
A2
  8
0
  0
BLOCK
  8
0
  2
DC_GROUP_7
 70
     0
 10
0.0
 20
0.0
 30
0.0
  3
DC_GROUP_7
  1

  0
LINE
  5
186
  8
LAYER0014
  6
CONTINUOUS
 62
     7
 10
-1.081990851930962
 20
33.41604380875786
 30
0.0
 11
-1.081990851930962
 21
60.91604380875786
 31
0.0
  0
INSERT
  5
187
  8
LAYER0014
 62
     7
  2
_OPEN30
 10
-1.081990851930962
 20
33.41604380875786
 30
0.0
 41
1.50000139391263
 42
1.499998500689492
 50
270.0
  0
INSERT
  5
188
  8
LAYER0014
 62
     7
  2
_OPEN30
 10
-1.081990851930962
 20
60.91604380875786
 30
0.0
 41
1.50000139391263
 42
1.499998500689492
 50
90.0
  0
LINE
  5
189
  8
LAYER0014
  6
CONTINUOUS
 62
     7
 10
-48.94734244724687
 20
60.91603617936332
 30
0.0
 11
-0.0819908519309751
 21
60.9160439681507
 31
0.0
  0
LINE
  5
18A
  8
LAYER0014
  6
CONTINUOUS
 62
     7
 10
-47.22866894193351
 20
33.41599170137716
 30
0.0
 11
-29.85765863595686
 21
33.41601131617685
 31
0.0
  0
LINE
  5
18B
  8
LAYER0014
  6
CONTINUOUS
 62
     7
 10
-13.37004679342509
 20
33.41602993347072
 30
0.0
 11
-0.0819908519315999
 21
33.41604493792647
 31
0.0
  0
ENDBLK
  5
A5
  8
0
  0
BLOCK
  8
0
  2
DC_GROUP_8
 70
     0
 10
0.0
 20
0.0
 30
0.0
  3
DC_GROUP_8
  1

  0
TEXT
  5
18C
  8
LAYER0014
 62
     7
 10
3.990825610631551
 20
35.34386977961454
 30
0.0
 40
4.0
  1
ＭＩＮ24.3
 50
90.0
 41
0.7368421052631581
  7
FDASTYLE1
 72
     5
 11
3.990825610631551
 21
57.74386977961454
 31
0.0
  0
ENDBLK
  5
A8
  8
0
  0
BLOCK
  8
0
  2
DC_GROUP_9
 70
     0
 10
0.0
 20
0.0
 30
0.0
  3
DC_GROUP_9
  1

  0
TEXT
  5
18D
  8
LAYER0014
 62
     7
 10
-2.099653689920041
 20
35.50328310171435
 30
0.0
 40
4.0
  1
MAX30.3
 50
90.0
 41
0.7999999999999999
  7
FDASTYLE1
 72
     5
 11
-2.099653689920041
 21
57.90328310171434
 31
0.0
  0
ENDBLK
  5
AB
  8
0
  0
BLOCK
  8
0
  2
DA_IMAGEDIMGROUP_24
 70
     0
 10
0.0
 20
0.0
 30
0.0
  3
DA_IMAGEDIMGROUP_24
  1

  0
TEXT
  5
18E
  8
LAYER0014
 62
     7
 10
-107.2658619301406
 20
-49.62787884613742
 30
0.0
 40
4.0
  1
ＭＩＮ16.7
 41
0.7368421052631581
  7
FDASTYLE1
 72
     5
 11
-84.86586193014061
 21
-49.62787884613742
 31
0.0
  0
ENDBLK
  5
AE
  8
0
  0
BLOCK
  8
0
  2
DA_IMAGEDIMGROUP_25
 70
     0
 10
0.0
 20
0.0
 30
0.0
  3
DA_IMAGEDIMGROUP_25
  1

  0
LINE
  5
18F
  8
0
  6
CONTINUOUS
 62
     9
 10
105.2627033291203
 20
37.44102244645317
 30
0.0
 11
105.2627033291203
 21
40.16077738515901
 31
0.0
  0
LINE
  5
190
  8
0
  6
CONTINUOUS
 62
     9
 10
74.76268807033125
 20
37.95085292130668
 30
0.0
 11
74.76268807033125
 21
40.16077738515901
 31
0.0
  0
LINE
  5
191
  8
0
  6
CONTINUOUS
 62
     9
 10
74.76268807033125
 20
39.16077738515901
 30
0.0
 11
105.2627033291203
 21
39.16077738515901
 31
0.0
  0
INSERT
  5
192
  8
0
 62
     9
  2
_OPEN30
 10
74.76268807033125
 20
39.16077738515901
 30
0.0
 41
1.50000139391263
 42
1.499998500689492
 50
180.0
  0
INSERT
  5
193
  8
0
 62
     9
  2
_OPEN30
 10
105.2627033291203
 20
39.16077738515901
 30
0.0
 41
1.50000139391263
 42
1.499998500689492
 50
360.0
  0
TEXT
  5
194
  8
0
 62
     7
 10
78.81269569972578
 20
40.16077738515901
 30
0.0
 40
4.0
  1
PCD30.5
 41
0.8000000000000002
  7
FDASTYLE1
 72
     5
 11
101.2126956997258
 21
40.16077738515901
 31
0.0
  0
ENDBLK
  5
B1
  8
0
  0
BLOCK
  8
0
  2
DC_GROUP_10
 70
     0
 10
0.0
 20
0.0
 30
0.0
  3
DC_GROUP_10
  1

  0
LINE
  5
195
  8
0
  6
CONTINUOUS
 62
     7
 10
73.8247834278968
 20
34.71230971075904
 30
0.0
 11
51.46289752650166
 21
97.20553592461724
 31
0.0
  0
INSERT
  5
196
  8
0
 62
     7
  2
_OPEN30
 10
73.8247834278968
 20
34.71230971075904
 30
0.0
 41
1.50000139391263
 42
1.499998500689492
 50
289.6886801575472
  0
LINE
  5
197
  8
0
  6
CONTINUOUS
 62
     7
 10
51.46289752650166
 20
97.20553592461724
 30
0.0
 11
32.26289752650165
 21
97.20553592461724
 31
0.0
  0
TEXT
  5
198
  8
0
 62
     7
 10
32.26289752650165
 20
97.20553592461724
 30
0.0
 40
4.0
  1
2-φ3.2
 41
0.7741935483870969
  7
FDASTYLE1
 72
     5
 11
51.46289752650166
 21
97.20553592461724
 31
0.0
  0
ENDBLK
  5
B4
  8
0
  0
BLOCK
  8
0
  2
DA_IMAGEDIMGROUP_26
 70
     0
 10
0.0
 20
0.0
 30
0.0
  3
DA_IMAGEDIMGROUP_26
  1

  0
LINE
  5
199
  8
LAYER0014
  6
CONTINUOUS
 62
     7
 10
-127.9913689649661
 20
-2.858959624469684
 30
0.0
 11
-136.1346202792781
 21
-2.858959624469684
 31
0.0
  0
LINE
  5
19A
  8
LAYER0014
  6
CONTINUOUS
 62
     7
 10
-127.9913689649661
 20
-12.85895962446968
 30
0.0
 11
-136.1346202792781
 21
-12.85895962446968
 31
0.0
  0
LINE
  5
19B
  8
LAYER0014
  6
CONTINUOUS
 62
     7
 10
-135.1346202792781
 20
-2.858955809772418
 30
0.0
 11
-135.1346202792781
 21
-12.85895580977242
 31
0.0
  0
INSERT
  5
19C
  8
LAYER0014
 62
     7
  2
_OPEN30
 10
-135.1346202792781
 20
-2.858955809772418
 30
0.0
 41
1.50000139391263
 42
1.499998500689492
 50
90.0
  0
INSERT
  5
19D
  8
LAYER0014
 62
     7
  2
_OPEN30
 10
-135.1346202792781
 20
-12.85895580977242
 30
0.0
 41
1.50000139391263
 42
1.499998500689492
 50
270.0
  0
TEXT
  5
19E
  8
LAYER0014
 62
     7
 10
-136.7346202792781
 20
-12.65895580977243
 30
0.0
 40
4.0
  1
M10
 50
90.0
 41
0.8000000000000019
  7
FDASTYLE1
 72
     5
 11
-136.7346202792781
 21
-3.058955809772407
 31
0.0
  0
ENDBLK
  5
B7
  8
0
  0
BLOCK
  8
0
  2
DA_IMAGEDIMGROUP_27
 70
     0
 10
0.0
 20
0.0
 30
0.0
  3
DA_IMAGEDIMGROUP_27
  1

  0
LINE
  5
19F
  8
0
  6
CONTINUOUS
 62
     7
 10
-109.2873302402156
 20
-22.58395428389351
 30
0.0
 11
-109.2873302402156
 21
-45.75994229079151
 31
0.0
  0
LINE
  5
1A0
  8
0
  6
CONTINUOUS
 62
     7
 10
-126.4873119296688
 20
-13.85895962446968
 30
0.0
 11
-126.4873119296688
 21
-45.75994229079151
 31
0.0
  0
LINE
  5
1A1
  8
0
  6
CONTINUOUS
 62
     7
 10
-126.4873119296688
 20
-44.75994229079151
 30
0.0
 11
-109.2873302402156
 21
-44.75994229079151
 31
0.0
  0
INSERT
  5
1A2
  8
0
 62
     7
  2
_OPEN30
 10
-126.4873119296688
 20
-44.75994229079151
 30
0.0
 41
1.50000139391263
 42
1.499998500689492
 50
180.0
  0
INSERT
  5
1A3
  8
0
 62
     7
  2
_OPEN30
 10
-109.2873302402156
 20
-44.75994229079151
 30
0.0
 41
1.50000139391263
 42
1.499998500689492
 50
360.0
  0
TEXT
  5
1A4
  8
0
 62
     7
 10
-121.0873210849422
 20
-44.25994229079151
 30
0.0
 40
4.0
  1
17
 41
0.8000000000000007
  7
FDASTYLE1
 72
     5
 11
-114.6873210849422
 21
-44.25994229079151
 31
0.0
  0
ENDBLK
  5
BA
  8
0
  0
BLOCK
  8
0
  2
_OPEN30
 70
     0
 10
0.0
 20
0.0
 30
0.0
  3
_OPEN30
  1

  0
LINE
  5
C1
  8
0
  6
BYBLOCK
 62
     0
 10
-1.0
 20
0.267949
 30
0.0
 11
0.0
 21
0.0
 31
0.0
  0
LINE
  5
C2
  8
0
  6
BYBLOCK
 62
     0
 10
0.0
 20
0.0
 30
0.0
 11
-1.0
 21
-0.267949
 31
0.0
  0
LINE
  5
C3
  8
0
  6
BYBLOCK
 62
     0
 10
0.0
 20
0.0
 30
0.0
 11
-1.0
 21
0.0
 31
0.0
  0
ENDBLK
  5
C0
  8
0
  0
ENDSEC
  0
SECTION
  2
ENTITIES
  0
LINE
  5
1A5
  8
ZUWAKU
  6
CONTINUOUS
 62
     3
 10
-192.0
 20
-138.4999999999999
 30
0.0
 11
-192.0
 21
138.4999999999999
 31
0.0
  0
LINE
  5
1A6
  8
ZUWAKU
  6
CONTINUOUS
 62
     3
 10
192.0
 20
-138.4999999999999
 30
0.0
 11
192.0
 21
138.4999999999999
 31
0.0
  0
LINE
  5
1A7
  8
ZUWAKU
  6
CONTINUOUS
 62
     3
 10
-192.0
 20
-138.4999999999999
 30
0.0
 11
192.0
 21
-138.4999999999999
 31
0.0
  0
LINE
  5
1A8
  8
ZUWAKU
  6
CONTINUOUS
 62
     3
 10
-192.0
 20
138.4999999999999
 30
0.0
 11
192.0
 21
138.4999999999999
 31
0.0
  0
LINE
  5
1A9
  8
ZUWAKU
  6
CONTINUOUS
 62
     3
 10
12.00000000000001
 20
-138.4999999999999
 30
0.0
 11
12.00000000000001
 21
-78.49999999999994
 31
0.0
  0
LINE
  5
1AA
  8
ZUWAKU
  6
CONTINUOUS
 62
     3
 10
12.00000000000001
 20
-124.4999999999999
 30
0.0
 11
192.0
 21
-124.4999999999999
 31
0.0
  0
LINE
  5
1AB
  8
ZUWAKU
  6
CONTINUOUS
 62
     3
 10
61.00000000000001
 20
-110.4999999999999
 30
0.0
 11
192.0
 21
-110.4999999999999
 31
0.0
  0
LINE
  5
1AC
  8
ZUWAKU
  6
CONTINUOUS
 62
     3
 10
61.00000000000001
 20
-96.49999999999994
 30
0.0
 11
192.0
 21
-96.49999999999994
 31
0.0
  0
LINE
  5
1AD
  8
ZUWAKU
  6
CONTINUOUS
 62
     3
 10
61.00000000000001
 20
-86.49999999999994
 30
0.0
 11
192.0
 21
-86.49999999999994
 31
0.0
  0
LINE
  5
1AE
  8
ZUWAKU
  6
CONTINUOUS
 62
     3
 10
61.00000000000001
 20
-124.4999999999999
 30
0.0
 11
61.00000000000001
 21
-78.49999999999994
 31
0.0
  0
LINE
  5
1AF
  8
ZUWAKU
  6
CONTINUOUS
 62
     3
 10
170.0
 20
-124.4999999999999
 30
0.0
 11
170.0
 21
-78.49999999999994
 31
0.0
  0
LINE
  5
1B0
  8
ZUWAKU
  6
CONTINUOUS
 62
     3
 10
86.00000000000001
 20
-138.4999999999999
 30
0.0
 11
86.00000000000001
 21
-124.4999999999999
 31
0.0
  0
LINE
  5
1B1
  8
ZUWAKU
  6
CONTINUOUS
 62
     3
 10
177.0
 20
-136.4999999999999
 30
0.0
 11
187.0
 21
-136.4999999999999
 31
0.0
  0
LINE
  5
1B2
  8
ZUWAKU
  6
CONTINUOUS
 62
     3
 10
182.0
 20
-126.4999999999999
 30
0.0
 11
177.0
 21
-136.4999999999999
 31
0.0
  0
LINE
  5
1B3
  8
ZUWAKU
  6
CONTINUOUS
 62
     3
 10
182.0
 20
-126.4999999999999
 30
0.0
 11
187.0
 21
-136.4999999999999
 31
0.0
  0
LINE
  5
1B4
  8
ZUWAKU
  6
CONTINUOUS
 62
     3
 10
12.00000000000001
 20
-78.49999999999994
 30
0.0
 11
192.0
 21
-78.49999999999994
 31
0.0
  0
LINE
  5
1B5
  8
ZUWAKU
  6
CONTINUOUS
 62
     3
 10
141.0
 20
-124.4999999999999
 30
0.0
 11
141.0
 21
-96.49999999999994
 31
0.0
  0
LINE
  5
1B6
  8
ZUWAKU
  6
CONTINUOUS
 62
     4
 10
20.00000000000001
 20
-120.4999999999999
 30
0.0
 11
20.00000000000001
 21
-78.49999999999994
 31
0.0
  0
LINE
  5
1B7
  8
ZUWAKU
  6
CONTINUOUS
 62
     4
 10
24.00000000000001
 20
-120.4999999999999
 30
0.0
 11
24.00000000000001
 21
-78.49999999999994
 31
0.0
  0
LINE
  5
1B8
  8
ZUWAKU
  6
CONTINUOUS
 62
     4
 10
36.50000000000001
 20
-124.4999999999999
 30
0.0
 11
36.50000000000001
 21
-78.49999999999994
 31
0.0
  0
LINE
  5
1B9
  8
ZUWAKU
  6
CONTINUOUS
 62
     4
 10
12.00000000000001
 20
-85.49999999999994
 30
0.0
 11
61.00000000000001
 21
-85.49999999999994
 31
0.0
  0
LINE
  5
1BA
  8
ZUWAKU
  6
CONTINUOUS
 62
     4
 10
12.00000000000001
 20
-92.49999999999994
 30
0.0
 11
61.00000000000001
 21
-92.49999999999994
 31
0.0
  0
LINE
  5
1BB
  8
ZUWAKU
  6
CONTINUOUS
 62
     4
 10
12.00000000000001
 20
-113.4999999999999
 30
0.0
 11
61.00000000000001
 21
-113.4999999999999
 31
0.0
  0
LINE
  5
1BC
  8
ZUWAKU
  6
CONTINUOUS
 62
     4
 10
12.00000000000001
 20
-120.4999999999999
 30
0.0
 11
61.00000000000001
 21
-120.4999999999999
 31
0.0
  0
LINE
  5
1BD
  8
ZUWAKU
  6
CONTINUOUS
 62
     4
 10
170.0
 20
-114.4999999999999
 30
0.0
 11
192.0
 21
-114.4999999999999
 31
0.0
  0
LINE
  5
1BE
  8
ZUWAKU
  6
CONTINUOUS
 62
     4
 10
68.00000000000001
 20
-87.99999999999994
 30
0.0
 11
68.00000000000001
 21
-78.49999999999994
 31
0.0
  0
LINE
  5
1BF
  8
ZUWAKU
  6
CONTINUOUS
 62
     4
 10
117.0
 20
-96.49999999999994
 30
0.0
 11
117.0
 21
-94.99999999999994
 31
0.0
  0
LINE
  5
1C0
  8
ZUWAKU
  6
CONTINUOUS
 62
     4
 10
141.0
 20
-96.49999999999994
 30
0.0
 11
141.0
 21
-94.99999999999994
 31
0.0
  0
LINE
  5
1C1
  8
ZUWAKU
  6
CONTINUOUS
 62
     4
 10
158.0
 20
-96.49999999999994
 30
0.0
 11
158.0
 21
-94.99999999999994
 31
0.0
  0
LINE
  5
1C2
  8
ZUWAKU
  6
CONTINUOUS
 62
     4
 10
117.0
 20
-87.99999999999994
 30
0.0
 11
117.0
 21
-78.49999999999994
 31
0.0
  0
LINE
  5
1C3
  8
ZUWAKU
  6
CONTINUOUS
 62
     4
 10
141.0
 20
-87.99999999999994
 30
0.0
 11
141.0
 21
-78.49999999999994
 31
0.0
  0
LINE
  5
1C4
  8
ZUWAKU
  6
CONTINUOUS
 62
     4
 10
158.0
 20
-87.99999999999994
 30
0.0
 11
158.0
 21
-78.49999999999994
 31
0.0
  0
LINE
  5
1C5
  8
ZUWAKU
  6
CONTINUOUS
 62
     4
 10
12.00000000000001
 20
-99.49999999999994
 30
0.0
 11
61.00000000000001
 21
-99.49999999999994
 31
0.0
  0
LINE
  5
1C6
  8
ZUWAKU
  6
CONTINUOUS
 62
     4
 10
12.00000000000001
 20
-106.4999999999999
 30
0.0
 11
61.00000000000001
 21
-106.4999999999999
 31
0.0
  0
LINE
  5
1C7
  8
ZUWAKU
  6
CONTINUOUS
 62
     4
 10
16.00000000000001
 20
-78.99999999999994
 30
0.0
 11
13.00000000000001
 21
-84.99999999999994
 31
0.0
  0
LINE
  5
1C8
  8
ZUWAKU
  6
CONTINUOUS
 62
     4
 10
16.00000000000001
 20
-78.99999999999994
 30
0.0
 11
19.00000000000001
 21
-84.99999999999994
 31
0.0
  0
LINE
  5
1C9
  8
ZUWAKU
  6
CONTINUOUS
 62
     4
 10
13.00000000000001
 20
-84.99999999999994
 30
0.0
 11
19.00000000000001
 21
-84.99999999999994
 31
0.0
  0
LINE
  5
1CA
  8
ZUWAKU
  6
CONTINUOUS
 62
     4
 10
16.00000000000001
 20
-106.9999999999999
 30
0.0
 11
13.00000000000001
 21
-112.9999999999999
 31
0.0
  0
LINE
  5
1CB
  8
ZUWAKU
  6
CONTINUOUS
 62
     4
 10
16.00000000000001
 20
-106.9999999999999
 30
0.0
 11
19.00000000000001
 21
-112.9999999999999
 31
0.0
  0
LINE
  5
1CC
  8
ZUWAKU
  6
CONTINUOUS
 62
     4
 10
13.00000000000001
 20
-112.9999999999999
 30
0.0
 11
19.00000000000001
 21
-112.9999999999999
 31
0.0
  0
LINE
  5
1CD
  8
ZUWAKU
  6
CONTINUOUS
 62
     4
 10
16.00000000000001
 20
-99.99999999999994
 30
0.0
 11
13.00000000000001
 21
-105.9999999999999
 31
0.0
  0
LINE
  5
1CE
  8
ZUWAKU
  6
CONTINUOUS
 62
     4
 10
16.00000000000001
 20
-99.99999999999994
 30
0.0
 11
19.00000000000001
 21
-105.9999999999999
 31
0.0
  0
LINE
  5
1CF
  8
ZUWAKU
  6
CONTINUOUS
 62
     4
 10
13.00000000000001
 20
-105.9999999999999
 30
0.0
 11
19.00000000000001
 21
-105.9999999999999
 31
0.0
  0
LINE
  5
1D0
  8
ZUWAKU
  6
CONTINUOUS
 62
     4
 10
16.00000000000001
 20
-92.99999999999994
 30
0.0
 11
13.00000000000001
 21
-98.99999999999994
 31
0.0
  0
LINE
  5
1D1
  8
ZUWAKU
  6
CONTINUOUS
 62
     4
 10
16.00000000000001
 20
-92.99999999999994
 30
0.0
 11
19.00000000000001
 21
-98.99999999999994
 31
0.0
  0
LINE
  5
1D2
  8
ZUWAKU
  6
CONTINUOUS
 62
     4
 10
13.00000000000001
 20
-98.99999999999994
 30
0.0
 11
19.00000000000001
 21
-98.99999999999994
 31
0.0
  0
LINE
  5
1D3
  8
ZUWAKU
  6
CONTINUOUS
 62
     4
 10
16.00000000000001
 20
-85.99999999999994
 30
0.0
 11
13.00000000000001
 21
-91.99999999999994
 31
0.0
  0
LINE
  5
1D4
  8
ZUWAKU
  6
CONTINUOUS
 62
     4
 10
16.00000000000001
 20
-85.99999999999994
 30
0.0
 11
19.00000000000001
 21
-91.99999999999994
 31
0.0
  0
LINE
  5
1D5
  8
ZUWAKU
  6
CONTINUOUS
 62
     4
 10
13.00000000000001
 20
-91.99999999999994
 30
0.0
 11
19.00000000000001
 21
-91.99999999999994
 31
0.0
  0
LINE
  5
1D6
  8
ZUWAKU
  6
CONTINUOUS
 62
     4
 10
87.66666666666664
 20
-124.4999999999999
 30
0.0
 11
87.66666666666664
 21
-110.4999999999999
 31
0.0
  0
LINE
  5
1D7
  8
ZUWAKU
  6
CONTINUOUS
 62
     4
 10
114.3333333333333
 20
-124.4999999999999
 30
0.0
 11
114.3333333333333
 21
-110.4509415757252
 31
0.0
  0
LINE
  5
1D8
  8
ZUWAKU
  6
CONTINUOUS
 62
     4
 10
127.6666666666666
 20
-115.9999999999999
 30
0.0
 11
127.6666666666666
 21
-110.4509415757252
 31
0.0
  0
LINE
  5
1D9
  8
ZUWAKU
  6
CONTINUOUS
 62
     4
 10
141.0
 20
-103.4999999999999
 30
0.0
 11
170.0
 21
-103.4999999999999
 31
0.0
  0
LINE
  5
1DA
  8
ZUWAKU
  6
CONTINUOUS
 62
     4
 10
60.99999999999999
 20
-114.4999999999999
 30
0.0
 11
141.0
 21
-114.4999999999999
 31
0.0
  0
TEXT
  5
1DC
  8
ZUWAKU
 62
     7
 10
63.31323014747473
 20
-79.32118872895592
 30
0.0
 40
2.6656
  1
符号
 41
0.8
  7
FDASTYLE0
  0
TEXT
  5
1DD
  8
ZUWAKU
 62
     7
 10
77.41413112190584
 20
-84.32455250199624
 30
0.0
 40
4.0
  1
品       名
 41
0.7659574468085105
  7
FDASTYLE1
 72
     5
 11
106.2141311219058
 21
-84.32455250199624
 31
0.0
  0
TEXT
  5
1DE
  8
ZUWAKU
 62
     7
 10
122.2331564413096
 20
-84.32455250199624
 30
0.0
 40
4.0
  1
材  料
 41
0.7272727272727271
  7
FDASTYLE1
 72
     5
 11
135.0331564413096
 21
-84.32455250199624
 31
0.0
  0
TEXT
  5
1DF
  8
ZUWAKU
 62
     7
 10
144.516061684855
 20
-84.32455250199624
 30
0.0
 40
4.0
  1
個 数
 41
0.7058823529411761
  7
FDASTYLE1
 72
     5
 11
154.116061684855
 21
-84.32455250199624
 31
0.0
  0
TEXT
  5
1E0
  8
ZUWAKU
 62
     7
 10
160.721810952888
 20
-82.06490800505719
 30
0.0
 40
2.5
  1
単重量
 41
0.6666666666666666
  7
FDASTYLE1
 72
     5
 11
166.721810952888
 21
-82.06490800505719
 31
0.0
  0
TEXT
  5
1E1
  8
ZUWAKU
 62
     7
 10
159.7089516236359
 20
-85.86313048975242
 30
0.0
 40
2.5
  1
(kg)
 41
0.8
  7
FDASTYLE1
 72
     5
 11
167.7089516236359
 21
-85.86313048975242
 31
0.0
  0
TEXT
  5
1E2
  8
ZUWAKU
 62
     7
 10
174.1421970654778
 20
-84.32455250199624
 30
0.0
 40
4.0
  1
記  事
 41
0.7272727272727279
  7
FDASTYLE1
 72
     5
 11
186.9421970654778
 21
-84.32455250199624
 31
0.0
  0
TEXT
  5
1E3
  8
ZUWAKU
 62
     7
 10
173.8450794551645
 20
-113.9873041997729
 30
0.0
 40
3.0
  1
コード番号
 41
0.6666666666666666
  7
FDASTYLE1
 72
     5
 11
185.8450794551645
 21
-113.9873041997729
 31
0.0
  0
TEXT
  5
1E4
  8
ZUWAKU
 62
     7
 10
16.91199201583167
 20
-123.6879010540338
 30
0.0
 40
2.5
  1
訂 正 来 歴
 41
0.717948717948718
  7
FDASTYLE1
 72
     5
 11
30.91199201583167
 21
-123.6879010540338
 31
0.0
  0
TEXT
  5
1E5
  8
ZUWAKU
 62
     7
 10
40.89033484676499
 20
-123.7166697391651
 30
0.0
 40
2.5
  1
工 事 番 号
 41
0.717948717948718
  7
FDASTYLE1
 72
     5
 11
54.89033484676499
 21
-123.7166697391651
 31
0.0
  0
TEXT
  5
1E6
  8
ZUWAKU
 62
     7
 10
14.96483784660289
 20
-114.4634530565915
 30
0.0
 40
2.0825
  1
記号
 41
0.8
  7
FDASTYLE0
  0
TEXT
  5
1E7
  8
ZUWAKU
 62
     7
 10
20.90422490676183
 20
-114.4634530565915
 30
0.0
 40
2.0825
  1
理由
 41
0.8
  7
FDASTYLE0
  0
TEXT
  5
1E8
  8
ZUWAKU
 62
     7
 10
26.61936679098429
 20
-118.3786046700178
 30
0.0
 40
3.0
  1
日 付
 41
0.7058823529411769
  7
FDASTYLE1
 72
     5
 11
33.8193667909843
 21
-118.3786046700178
 31
0.0
  0
TEXT
  5
1E9
  8
ZUWAKU
 62
     7
 10
68.44816898196524
 20
-114.2187911464244
 30
0.0
 40
3.0
  1
承   認
 41
0.7407407407407408
  7
FDASTYLE1
 72
     5
 11
80.44816898196524
 21
-114.2187911464244
 31
0.0
  0
TEXT
  5
1EA
  8
ZUWAKU
 62
     7
 10
94.86322803323402
 20
-113.9873041997729
 30
0.0
 40
3.0
  1
検   図
 41
0.7407407407407408
  7
FDASTYLE1
 72
     5
 11
106.863228033234
 21
-113.9873041997729
 31
0.0
  0
TEXT
  5
1EB
  8
ZUWAKU
 62
     7
 10
116.4771920983751
 20
-113.9873041997729
 30
0.0
 40
3.0
  1
担  当
 41
0.7272727272727269
  7
FDASTYLE1
 72
     5
 11
126.0771920983751
 21
-113.9873041997729
 31
0.0
  0
TEXT
  5
1EC
  8
ZUWAKU
 62
     7
 10
129.6770574841112
 20
-113.9873041997729
 30
0.0
 40
3.0
  1
製  図
 41
0.7272727272727269
  7
FDASTYLE1
 72
     5
 11
139.2770574841112
 21
-113.9873041997729
 31
0.0
  0
TEXT
  5
1ED
  8
ZUWAKU
 62
     7
 10
141.9462372304199
 20
-101.7184960272417
 30
0.0
 40
3.0
  1
作図
 41
0.6666666666666683
  7
FDASTYLE1
 72
     5
 11
146.7462372304199
 21
-101.7184960272417
 31
0.0
  0
TEXT
  5
1EE
  8
ZUWAKU
 62
     7
 10
143.1036719636776
 20
-108.7371566401815
 30
0.0
 40
4.0
  1
第 三 角 法
 41
0.7179487179487182
  7
FDASTYLE1
 72
     5
 11
165.5036719636776
 21
-108.7371566401815
 31
0.0
  0
TEXT
  5
1EF
  8
ZUWAKU
 62
     7
 10
142.409211123723
 20
-114.913251986379
 30
0.0
 40
3.0
  1
尺度
 41
0.6666666666666683
  7
FDASTYLE1
 72
     5
 11
147.209211123723
 21
-114.913251986379
 31
0.0
  0
TEXT
  5
1F1
  8
ZUWAKU
 62
     3
 10
20.37915437003404
 20
-134.4272077185016
 30
0.0
 40
7.0
  1
株式会社 野村製作所
 41
0.5763738641280831
  7
FDASTYLE2
 72
     5
 11
76.37915437003404
 21
-134.4272077185016
 31
0.0
  0
TEXT
  5
1F3
  8
ZUWAKU
 62
     3
 10
98.61182179341655
 20
-135.6216685584562
 30
0.0
 40
8.0
  1
３－
 41
0.8244023083264632
  7
FDASTYLE3
 72
     5
 11
114.6118217934166
 21
-135.6216685584562
 31
0.0
  0
TEXT
  5
1F4
  8
ZUWAKU
 62
     3
 10
115.5237794178233
 20
-135.6216685584562
 30
0.0
 40
8.0
  1
9305024
 41
1.55417406749556
  7
FDASTYLE3
 72
     5
 11
171.5237794178233
 21
-135.6216685584562
 31
0.0
  0
TEXT
  5
1F5
  8
ZUWAKU
 62
     6
 10
145.7056952989098
 20
-93.7216474852281
 30
0.0
 40
3.2
  1
一式
 41
0.7610475333317444
  7
FDASTYLE1
 72
     5
 11
152.2463546989098
 21
-93.7216474852281
 31
0.0
  0
TEXT
  5
1F6
  8
ZUWAKU
 62
     6
 10
81.89523347633649
 20
-93.85890002285609
 30
0.0
 40
5.0
  1
外　形　図
 41
0.5833333333333334
  7
FDASTYLE1
 72
     5
 11
99.39523347633649
 21
-93.85890002285609
 31
0.0
  0
TEXT
  5
1F7
  8
ZUWAKU
 62
     4
 10
151.8208864698005
 20
-120.3093119866973
 30
0.0
 40
4.0
  1
1/1
 41
0.7999999999999995
  7
FDASTYLE1
 72
     5
 11
161.4208864698005
 21
-120.3093119866973
 31
0.0
  0
TEXT
  5
1F8
  8
0
 62
     6
 10
64.86815394284068
 20
-102.7072071313602
 30
0.0
 40
5.0
  1
日鋼プﾚｼジｫﾝ
 41
0.8583403611075855
  7
FDASTYLE1
 72
     5
 11
109.8791379428407
 21
-102.7072071313602
 31
0.0
  0
TEXT
  5
1F9
  8
0
 62
     6
 10
64.66736284309491
 20
-109.5473278366374
 30
0.0
 40
5.0
  1
  MO2-5型チャック
 41
0.8628214532885973
  7
FDASTYLE1
 72
     5
 11
132.8871348430949
 21
-109.5473278366374
 31
0.0
  0
TEXT
  5
1FA
  8
0
 62
     6
 10
-162.4303233564094
 20
-76.12790961633142
 30
0.0
 40
3.0
  1
仕  様
 41
0.895779671758837
  7
FDASTYLE1
 72
     5
 11
-148.7160372674659
 21
-76.12790961633142
 31
0.0
  0
TEXT
  5
1FB
  8
0
 62
     6
 10
-162.4102660358146
 20
-81.82791419396814
 30
0.0
 40
3.0
  1
爪ノｽﾄﾛ-ｸ            
 41
0.8970044857140226
  7
FDASTYLE1
 72
     5
 11
-94.36236845852886
 21
-81.82791419396814
 31
0.0
  0
TEXT
  5
1FC
  8
0
 62
     6
 10
-93.45333261193787
 20
-81.45291419396814
 30
0.0
 40
2.25
  1
（直径ﾆﾃ）
 41
0.8461610033559789
  7
FDASTYLE1
 72
     5
 11
-77.86984405817543
 21
-81.45291419396814
 31
0.0
  0
TEXT
  5
1FD
  8
0
 62
     6
 10
-76.96080821158444
 20
-81.82791419396814
 30
0.0
 40
3.0
  1
   12 mm
 41
0.8969692310997
  7
FDASTYLE1
 72
     5
 11
-48.91052919032131
 21
-81.82791419396814
 31
0.0
  0
TEXT
  5
1FE
  8
0
 62
     6
 10
-162.4366573035911
 20
-87.52791114221033
 30
0.0
 40
3.0
  1
ピｽﾄﾝｽﾄﾛ-ｸ                 20 mm
 41
0.9164469705543989
  7
FDASTYLE1
 72
     5
 11
-48.48534786107098
 21
-87.52791114221033
 31
0.0
  0
TEXT
  5
1FF
  8
0
 62
     6
 10
-162.4366573035911
 20
-93.22790809045252
 30
0.0
 40
3.0
  1
推奨ｼﾘﾝダ　              FM5-17SB 型
 41
0.8990928031357958
  7
FDASTYLE1
 72
     5
 11
-48.48534786107098
 21
-93.22790809045252
 31
0.0
  0
TEXT
  5
200
  8
0
 62
     6
 10
-162.4154328048423
 20
-98.92791266808924
 30
0.0
 40
3.0
  1
許容ｼﾘﾝダ力    
 41
0.8733220705847341
  7
FDASTYLE1
 72
     5
 11
-123.3017100036338
 21
-98.92791266808924
 31
0.0
  0
TEXT
  5
201
  8
0
 62
     6
 10
-131.279626728167
 20
-98.74731367169636
 30
0.0
 40
2.25
  1
FM5-17SB型使用油圧力  1.3ＭＰａ 
 41
0.86103779044698
  7
FDASTYLE1
 72
     5
 11
-69.08880841838308
 21
-98.74731367169636
 31
0.0
  0
TEXT
  5
202
  8
0
 62
     6
 10
-66.58681469561611
 20
-98.92791266808924
 30
0.0
 40
3.0
  1
 4 kN
 41
0.8976593846095227
  7
FDASTYLE1
 72
     5
 11
-49.37677603365933
 21
-98.92791266808924
 31
0.0
  0
TEXT
  5
203
  8
0
 62
     6
 10
-162.4366573035911
 20
-104.6279096163314
 30
0.0
 40
3.0
  1
最大静的把握力                  9.2 kN
 41
0.8906598762442244
  7
FDASTYLE1
 72
     5
 11
-48.48534786107098
 21
-104.6279096163314
 31
0.0
  0
TEXT
  5
204
  8
0
 62
     6
 10
-162.3948774278358
 20
-110.3279141939681
 30
0.0
 40
3.0
  1
最高使用回転速度               4000 min
 41
0.8650729208782636
  7
FDASTYLE1
 72
     5
 11
-52.03663372399365
 21
-110.3279141939681
 31
0.0
  0
TEXT
  5
205
  8
0
 62
     6
 10
-51.26669328810726
 20
-108.1932987130683
 30
0.0
 40
1.5
  1
-1
 41
0.8766034862732288
  7
FDASTYLE1
 72
     5
 11
-48.18692784907375
 21
-108.1932987130683
 31
0.0
  0
TEXT
  5
206
  8
0
 62
     6
 10
-162.4154328048423
 20
-116.0279111422103
 30
0.0
 40
3.0
  1
慣性モーメント              0.015 kg・m
 41
0.8756566301356812
  7
FDASTYLE1
 72
     5
 11
-50.28942953946148
 21
-116.0279111422103
 31
0.0
  0
TEXT
  5
207
  8
0
 62
     6
 10
-49.50715594889675
 20
-113.8932956613105
 30
0.0
 40
1.5
  1
2
 41
0.8691941897074381
  7
FDASTYLE1
 72
     5
 11
-48.2033646643356
 21
-113.8932956613105
 31
0.0
  0
TEXT
  5
208
  8
0
 62
     6
 10
-162.4366573035911
 20
-127.4279126680893
 30
0.0
 40
3.0
  1
ｱﾝバﾗﾝｽ量              
 41
0.9112010023309265
  7
FDASTYLE1
 72
     5
 11
-85.5857738197044
 21
-127.4279126680893
 31
0.0
  0
TEXT
  5
209
  8
0
 62
     6
 10
-84.65826416911636
 20
-127.0529126680893
 30
0.0
 40
2.25
  1
外周ﾆﾃ
 41
0.8994869133739929
  7
FDASTYLE1
 72
     5
 11
-74.32314465345894
 21
-127.0529126680893
 31
0.0
  0
TEXT
  5
20A
  8
0
 62
     6
 10
-73.3956350028709
 20
-127.4279126680893
 30
0.0
 40
3.0
  1
  3g 以内
 41
0.9058268068682894
  7
FDASTYLE1
 72
     5
 11
-48.48534786107098
 21
-127.4279126680893
 31
0.0
  0
TEXT
  5
20B
  8
0
 62
     6
 10
-162.4366573035911
 20
-121.7279080904525
 30
0.0
 40
3.0
  1
質 量                       6  kg
 41
0.9120459238546519
  7
FDASTYLE1
 72
     5
 11
-48.48534786107098
 21
-121.7279080904525
 31
0.0
  0
TEXT
  5
20C
  8
0
 62
     7
 10
172.0250759677631
 20
-91.15603117981223
 30
0.0
 40
3.0
  1
標　準
 41
0.6666666666666656
  7
FDASTYLE1
 72
     5
 11
179.2250759677631
 21
-91.15603117981223
 31
0.0
  0
LINE
  5
20D
  8
0
  6
CONTINUOUS
 62
     3
 10
-113.4873119296688
 20
98.41604380875785
 30
0.0
 11
-113.4873119296688
 21
-2.358955809772418
 31
0.0
  0
LINE
  5
20E
  8
0
  6
CONTINUOUS
 62
     3
 10
-61.48734244724687
 20
-16.35895962446968
 30
0.0
 11
-50.48734244724687
 21
-16.35895962446968
 31
0.0
  0
LINE
  5
20F
  8
0
  6
CONTINUOUS
 62
     3
 10
-109.2873302402156
 20
-2.358959624469684
 30
0.0
 11
-61.48734244724687
 21
-2.358959624469684
 31
0.0
  0
LINE
  5
210
  8
0
  6
CONTINUOUS
 62
     3
 10
-109.2873302402156
 20
-13.35895962446968
 30
0.0
 11
-61.48734244724687
 21
-13.35895962446968
 31
0.0
  0
LINE
  5
211
  8
0
  6
CONTINUOUS
 62
     3
 10
-61.48731192966874
 20
0.6410441902275821
 30
0.0
 11
-61.48731192966874
 21
-16.35895580977242
 31
0.0
  0
LINE
  5
212
  8
0
  6
CONTINUOUS
 62
     3
 10
-61.48734244724687
 20
0.6410403755303165
 30
0.0
 11
-50.48734244724687
 21
0.6410403755303165
 31
0.0
  0
LINE
  5
213
  8
0
  6
CONTINUOUS
 62
     3
 10
-109.2873302402156
 20
56.41603617936332
 30
0.0
 11
-102.1231700964578
 21
56.41603617936332
 31
0.0
  0
LINE
  5
214
  8
0
  6
CONTINUOUS
 62
     3
 10
-126.4873119296688
 20
-12.85895962446968
 30
0.0
 11
-61.48734244724687
 21
-12.85895962446968
 31
0.0
  0
LINE
  5
215
  8
0
  6
CONTINUOUS
 62
     3
 10
-126.4873119296688
 20
-2.858959624469684
 30
0.0
 11
-61.48734244724687
 21
-2.858959624469684
 31
0.0
  0
LINE
  5
216
  8
0
  6
CONTINUOUS
 62
     3
 10
-51.48731192966874
 20
0.1410441902275821
 30
0.0
 11
-51.48731192966874
 21
-15.85895580977242
 31
0.0
  0
LINE
  5
217
  8
0
  6
CONTINUOUS
 62
     3
 10
-113.4873424472469
 20
-21.58395046919625
 30
0.0
 11
-109.2873302402156
 21
-21.58395046919625
 31
0.0
  0
LINE
  5
218
  8
0
  6
CONTINUOUS
 62
     3
 10
-113.4873424472469
 20
98.41603617936332
 30
0.0
 11
-97.48734244724687
 21
98.41603617936332
 31
0.0
  0
LINE
  5
219
  8
0
  6
CONTINUOUS
 62
     3
 10
-113.4873424472469
 20
-31.58395046919625
 30
0.0
 11
-51.98734244724687
 21
-31.58395046919625
 31
0.0
  0
LINE
  5
21A
  8
0
  6
CONTINUOUS
 62
     3
 10
-50.48731192966874
 20
96.91604380875785
 30
0.0
 11
-50.48731192966874
 21
93.41603617936332
 31
0.0
  0
LINE
  5
21B
  8
0
  6
CONTINUOUS
 62
     3
 10
-61.48734244724687
 20
-15.85895962446968
 30
0.0
 11
-51.48734244724687
 21
-15.85895962446968
 31
0.0
  0
LINE
  5
21C
  8
0
  6
CONTINUOUS
 62
     3
 10
-61.48734244724687
 20
0.1410403755303165
 30
0.0
 11
-51.48734244724687
 21
0.1410403755303165
 31
0.0
  0
LINE
  5
21D
  8
0
  6
CONTINUOUS
 62
     3
 10
-113.4873424472469
 20
88.41603617936332
 30
0.0
 11
-109.2873302402156
 21
88.41603617936332
 31
0.0
  0
LINE
  5
21E
  8
0
  6
CONTINUOUS
 62
     3
 10
-109.2873302402156
 20
88.41604380875785
 30
0.0
 11
-109.2873302402156
 21
-2.358955809772418
 31
0.0
  0
LINE
  5
21F
  8
0
  6
CONTINUOUS
 62
     3
 10
-102.6231761874813
 20
55.91604380875786
 30
0.0
 11
-102.6231761874813
 21
10.91604380875786
 31
0.0
  0
LINE
  5
220
  8
0
  6
CONTINUOUS
 62
     3
 10
-66.62317618748125
 20
55.91604380875786
 30
0.0
 11
-66.62317618748125
 21
10.91604380875786
 31
0.0
  0
LINE
  5
221
  8
0
  6
CONTINUOUS
 62
     3
 10
-51.48733080655256
 20
97.91606163842445
 30
0.0
 11
-50.48732974496306
 21
96.91606057683495
 31
0.0
  0
LINE
  5
222
  8
0
  6
CONTINUOUS
 62
     3
 10
-52.98731192966874
 20
54.45766978532036
 30
0.0
 11
-52.98731192966874
 21
8.416043808757856
 31
0.0
  0
LINE
  5
223
  8
0
  6
CONTINUOUS
 62
     3
 10
-52.98734244724687
 20
8.416047623455121
 30
0.0
 11
-50.48734244724687
 21
8.416047623455121
 31
0.0
  0
LINE
  5
224
  8
0
  6
CONTINUOUS
 62
     3
 10
-50.4873270475648
 20
-30.08392588812742
 30
0.0
 11
-51.98733942954208
 21
-31.5839382701047
 31
0.0
  0
LINE
  5
225
  8
0
  6
CONTINUOUS
 62
     3
 10
-65.48734244724687
 20
60.91603617936332
 30
0.0
 11
-51.48731192966874
 21
60.91603617936332
 31
0.0
  0
LINE
  5
226
  8
0
  6
CONTINUOUS
 62
     3
 10
-75.62317618748125
 20
13.16604762345512
 30
0.0
 11
-74.12317618748125
 21
13.16604762345512
 31
0.0
  0
LINE
  5
227
  8
0
  6
CONTINUOUS
 62
     3
 10
-58.48731192966874
 20
98.41604380875785
 30
0.0
 11
-58.48731192966874
 21
93.41603617936332
 31
0.0
  0
LINE
  5
228
  8
0
  6
CONTINUOUS
 62
     3
 10
-52.98734244724687
 20
54.45766215592582
 30
0.0
 11
-50.48734244724687
 21
54.45766215592582
 31
0.0
  0
LINE
  5
229
  8
0
  6
CONTINUOUS
 62
     3
 10
-65.48734244724687
 20
52.03728251725395
 30
0.0
 11
-52.98734244724687
 21
52.03728251725395
 31
0.0
  0
LINE
  5
22A
  8
0
  6
CONTINUOUS
 62
     3
 10
-82.62317618748125
 20
51.41604380875786
 30
0.0
 11
-82.62317618748125
 21
15.41604380875786
 31
0.0
  0
LINE
  5
22B
  8
0
  6
CONTINUOUS
 62
     3
 10
-75.62317618748125
 20
53.66604380875786
 30
0.0
 11
-75.62317618748125
 21
29.83793788224418
 31
0.0
  0
LINE
  5
22C
  8
0
  6
CONTINUOUS
 62
     3
 10
-97.48731192966875
 20
98.41604380875785
 30
0.0
 11
-97.48731192966875
 21
86.47029643326957
 31
0.0
  0
LINE
  5
22D
  8
0
  6
CONTINUOUS
 62
     3
 10
-74.12317618748125
 20
53.66604380875786
 30
0.0
 11
-74.12317618748125
 21
53.41604380875786
 31
0.0
  0
LINE
  5
22E
  8
0
  6
CONTINUOUS
 62
     3
 10
-97.48734244724687
 20
98.41603617936332
 30
0.0
 11
-51.48734244724687
 21
98.41603617936332
 31
0.0
  0
LINE
  5
22F
  8
0
  6
CONTINUOUS
 62
     3
 10
-102.1231761874813
 20
46.06606059342582
 30
0.0
 11
-83.12317618748125
 21
46.06606059342582
 31
0.0
  0
LINE
  5
230
  8
0
  6
CONTINUOUS
 62
     3
 10
-102.1231761874813
 20
20.76603846818168
 30
0.0
 11
-83.12317618748125
 21
20.76603846818168
 31
0.0
  0
LINE
  5
231
  8
0
  6
CONTINUOUS
 62
     3
 10
-102.6231814168456
 20
55.91601840036456
 30
0.0
 11
-102.1231700964578
 21
56.41602972075234
 31
0.0
  0
LINE
  5
232
  8
0
  6
CONTINUOUS
 62
     3
 10
-67.12317677354696
 20
56.41605062558885
 30
0.0
 11
-66.62318703234524
 21
55.91606088438713
 31
0.0
  0
LINE
  5
233
  8
0
  6
CONTINUOUS
 62
     3
 10
-66.62318500929655
 20
10.91603132029784
 30
0.0
 11
-67.12317475049827
 21
10.41604157909612
 31
0.0
  0
LINE
  5
234
  8
0
  6
CONTINUOUS
 62
     3
 10
-102.6231827655447
 20
10.9160340176961
 30
0.0
 11
-102.123193024343
 21
10.41604427649438
 31
0.0
  0
LINE
  5
235
  8
0
  6
CONTINUOUS
 62
     3
 10
-75.62317618748125
 20
53.66603617936332
 30
0.0
 11
-74.12317618748125
 21
53.66603617936332
 31
0.0
  0
LINE
  5
236
  8
0
  6
CONTINUOUS
 62
     3
 10
-74.62317618748125
 20
13.41604762345512
 30
0.0
 11
-66.62317618748125
 21
13.41604762345512
 31
0.0
  0
LINE
  5
237
  8
0
  6
CONTINUOUS
 62
     3
 10
-83.12317164496221
 20
20.76604010271374
 30
0.0
 11
-82.62316129397391
 21
20.26602781292647
 31
0.0
  0
LINE
  5
238
  8
0
  6
CONTINUOUS
 62
     3
 10
-102.1231302990708
 20
46.066084165094
 30
0.0
 11
-102.6231210096302
 21
46.56607297908406
 31
0.0
  0
LINE
  5
239
  8
0
  6
CONTINUOUS
 62
     3
 10
-74.62317618748125
 20
53.41603617936332
 30
0.0
 11
-66.62317618748125
 21
53.41603617936332
 31
0.0
  0
LINE
  5
23A
  8
0
  6
CONTINUOUS
 62
     3
 10
-102.1231205292627
 20
20.7659650207879
 30
0.0
 11
-102.6231307959554
 21
20.26595260455722
 31
0.0
  0
LINE
  5
23B
  8
0
  6
CONTINUOUS
 62
     3
 10
-82.62317618748125
 20
51.41603617936332
 30
0.0
 11
-75.62317618748125
 21
51.41603617936332
 31
0.0
  0
LINE
  5
23C
  8
0
  6
CONTINUOUS
 62
     3
 10
-82.62317618748125
 20
15.41604762345512
 30
0.0
 11
-75.62317618748125
 21
15.41604762345512
 31
0.0
  0
LINE
  5
23D
  8
0
  6
CONTINUOUS
 62
     3
 10
-83.12319443332854
 20
46.06606809568914
 30
0.0
 11
-82.62320469212682
 21
46.56605783689086
 31
0.0
  0
LINE
  5
23E
  8
0
  6
CONTINUOUS
 62
     3
 10
-109.2873302402156
 20
10.41604762345512
 30
0.0
 11
-94.53150138279375
 21
10.41604762345512
 31
0.0
  0
LINE
  5
23F
  8
0
  6
CONTINUOUS
 62
     3
 10
-109.2873302402156
 20
-13.35895580977242
 30
0.0
 11
-109.2873302402156
 21
-21.58395428389351
 31
0.0
  0
LINE
  5
240
  8
0
  6
CONTINUOUS
 62
     3
 10
-113.4873119296688
 20
-13.35895580977242
 30
0.0
 11
-113.4873119296688
 21
-31.58395428389351
 31
0.0
  0
LINE
  5
241
  8
0
  6
CONTINUOUS
 62
     3
 10
-64.48734244724687
 20
93.41603617936332
 30
0.0
 11
-50.48734244724687
 21
93.41603617936332
 31
0.0
  0
LINE
  5
242
  8
0
  6
CONTINUOUS
 62
     3
 10
-64.48734244724687
 20
62.41603617936332
 30
0.0
 11
-50.48734244724687
 21
62.41603617936332
 31
0.0
  0
LINE
  5
243
  8
0
  6
CONTINUOUS
 62
     3
 10
-58.48731192966874
 20
62.41603617936332
 30
0.0
 11
-58.48731192966874
 21
60.91604380875786
 31
0.0
  0
LINE
  5
244
  8
0
  6
CONTINUOUS
 62
     3
 10
-50.48731192966874
 20
61.5948386695977
 30
0.0
 11
-50.48731192966874
 21
-30.08395428389351
 31
0.0
  0
LINE
  5
245
  8
0
  6
CONTINUOUS
 62
     3
 10
-64.48731192966875
 20
93.41603617936332
 30
0.0
 11
-64.48731192966875
 21
62.41603617936332
 31
0.0
  0
LINE
  5
246
  8
0
  6
CONTINUOUS
 62
     3
 10
-50.48731192966874
 20
93.41603617936332
 30
0.0
 11
-50.48731192966874
 21
90.41604380875785
 31
0.0
  0
LINE
  5
247
  8
0
  6
CONTINUOUS
 62
     3
 10
-43.48731192966874
 20
92.91604380875785
 30
0.0
 11
-43.48731192966874
 21
79.91604380875785
 31
0.0
  0
LINE
  5
248
  8
0
  6
CONTINUOUS
 62
     3
 10
-43.48731192966874
 20
75.91604380875785
 30
0.0
 11
-43.48731192966874
 21
62.91604380875786
 31
0.0
  0
LINE
  5
249
  8
0
  6
CONTINUOUS
 62
     3
 10
-50.48731192966874
 20
82.41604380875785
 30
0.0
 11
-50.48731192966874
 21
73.41603617936332
 31
0.0
  0
LINE
  5
24A
  8
0
  6
CONTINUOUS
 62
     3
 10
-50.48731192966874
 20
65.41604380875785
 30
0.0
 11
-50.48731192966874
 21
62.41603617936332
 31
0.0
  0
LINE
  5
24B
  8
0
  6
CONTINUOUS
 62
     3
 10
-63.48731192966874
 20
73.41604380875785
 30
0.0
 11
-63.48731192966874
 21
65.41604380875785
 31
0.0
  0
LINE
  5
24C
  8
0
  6
CONTINUOUS
 62
     3
 10
-63.48731192966874
 20
90.41604380875785
 30
0.0
 11
-63.48731192966874
 21
82.41604380875785
 31
0.0
  0
LINE
  5
24D
  8
0
  6
CONTINUOUS
 62
     3
 10
-64.48734244724687
 20
90.41603617936332
 30
0.0
 11
-43.48734244724687
 21
90.41603617936332
 31
0.0
  0
LINE
  5
24E
  8
0
  6
CONTINUOUS
 62
     3
 10
-64.48734244724687
 20
82.41603617936332
 30
0.0
 11
-43.48734244724687
 21
82.41603617936332
 31
0.0
  0
LINE
  5
24F
  8
0
  6
CONTINUOUS
 62
     3
 10
-64.48734244724687
 20
73.41603617936332
 30
0.0
 11
-43.48734244724687
 21
73.41603617936332
 31
0.0
  0
LINE
  5
250
  8
0
  6
CONTINUOUS
 62
     3
 10
-64.48734244724687
 20
65.41603617936332
 30
0.0
 11
-43.48734244724687
 21
65.41603617936332
 31
0.0
  0
LINE
  5
251
  8
0
  6
CONTINUOUS
 62
     3
 10
-74.12317618748125
 20
13.41604380875786
 30
0.0
 11
-74.12317618748125
 21
13.16604380875786
 31
0.0
  0
LINE
  5
252
  8
0
  6
CONTINUOUS
 62
     3
 10
-74.62317618748125
 20
46.06606059342582
 30
0.0
 11
-66.62317618748125
 21
46.06606059342582
 31
0.0
  0
LINE
  5
253
  8
0
  6
CONTINUOUS
 62
     3
 10
-74.62317618748125
 20
20.76603846818168
 30
0.0
 11
-66.62317618748125
 21
20.76603846818168
 31
0.0
  0
LINE
  5
254
  8
0
  6
CONTINUOUS
 62
     3
 10
-74.62317618748125
 20
53.41604380875786
 30
0.0
 11
-74.62317618748125
 21
13.41604380875786
 31
0.0
  0
LINE
  5
255
  8
0
  6
CONTINUOUS
 62
     3
 10
-65.48734244724687
 20
98.41603617936332
 30
0.0
 11
-65.48734244724687
 21
54.91603617936332
 31
0.0
  0
LINE
  5
256
  8
0
  6
CONTINUOUS
 62
     3
 10
-66.2094188632625
 20
54.91603617936332
 30
0.0
 11
-65.48734244724687
 21
54.91603617936332
 31
0.0
  0
LINE
  5
257
  8
0
  6
CONTINUOUS
 62
     3
 10
-74.08731803318437
 20
10.41604380875786
 30
0.0
 11
-74.08731803318437
 21
2.416043808757856
 31
0.0
  0
LINE
  5
258
  8
0
  6
CONTINUOUS
 62
     3
 10
-79.08731803318437
 20
10.41604380875786
 30
0.0
 11
-79.08731803318437
 21
2.416043808757856
 31
0.0
  0
LINE
  5
259
  8
0
  6
CONTINUOUS
 62
     3
 10
-79.08731803318437
 20
2.416047623455121
 30
0.0
 11
-74.08731803318437
 21
2.416047623455121
 31
0.0
  0
LINE
  5
25A
  8
0
  6
CONTINUOUS
 62
     3
 10
-94.62317618748125
 20
10.41604762345512
 30
0.0
 11
-52.98734244724687
 21
10.41604762345512
 31
0.0
  0
LINE
  5
25B
  8
0
  6
CONTINUOUS
 62
     3
 10
-79.48731192966875
 20
71.41605143815238
 30
0.0
 11
-79.48731192966875
 21
65.08516459733207
 31
0.0
  0
LINE
  5
25C
  8
0
  6
CONTINUOUS
 62
     3
 10
-79.08731803318437
 20
64.41603617936332
 30
0.0
 11
-74.08731803318437
 21
64.41603617936332
 31
0.0
  0
LINE
  5
25D
  8
0
  6
CONTINUOUS
 62
     3
 10
-74.08731803318437
 20
60.41603617936332
 30
0.0
 11
-65.48734244724687
 21
60.41603617936332
 31
0.0
  0
LINE
  5
25E
  8
0
  6
CONTINUOUS
 62
     3
 10
-79.08731803318437
 20
64.41605143815238
 30
0.0
 11
-79.08731803318437
 21
56.41604380875786
 31
0.0
  0
LINE
  5
25F
  8
0
  6
CONTINUOUS
 62
     3
 10
-86.56735953709062
 20
56.41603617936332
 30
0.0
 11
-67.12317618748125
 21
56.41603617936332
 31
0.0
  0
LINE
  5
260
  8
0
  6
CONTINUOUS
 62
     3
 10
-74.08731803318437
 20
68.41605143815238
 30
0.0
 11
-74.08731803318437
 21
56.41604380875786
 31
0.0
  0
LINE
  5
261
  8
0
  6
CONTINUOUS
 62
     3
 10
-100.5873180331844
 20
10.41603236466606
 30
0.0
 11
-94.62317618748125
 21
10.41603236466606
 31
0.0
  0
LINE
  5
262
  8
0
  6
CONTINUOUS
 62
     3
 10
-79.48734244724687
 20
68.41603617936332
 30
0.0
 11
-74.08731803318437
 21
68.41603617936332
 31
0.0
  0
LINE
  5
263
  8
0
  6
CONTINUOUS
 62
     3
 10
-102.0315013827938
 20
10.41603236466606
 30
0.0
 11
-94.53150138279375
 21
10.41603236466606
 31
0.0
  0
LINE
  5
264
  8
0
  6
CONTINUOUS
 62
     3
 10
-75.62317618748125
 20
23.80348544388969
 30
0.0
 11
-75.62317618748125
 21
13.16604380875786
 31
0.0
  0
LINE
  5
265
  8
0
  6
CONTINUOUS
 62
     3
 10
-102.1231761874813
 20
56.41603617936332
 30
0.0
 11
-86.56735953709062
 21
56.41603617936332
 31
0.0
  0
LINE
  5
266
  8
0
  6
CONTINUOUS
 62
     3
 10
-74.62317618748125
 20
47.41603617936332
 30
0.0
 11
-66.62317618748125
 21
47.41603617936332
 31
0.0
  0
LINE
  5
267
  8
0
  6
CONTINUOUS
 62
     3
 10
-74.62317618748125
 20
51.41603617936332
 30
0.0
 11
-66.62317618748125
 21
51.41603617936332
 31
0.0
  0
LINE
  5
268
  8
0
  6
CONTINUOUS
 62
     3
 10
-70.62317618748125
 20
51.41603617936332
 30
0.0
 11
-70.62317618748125
 21
47.41603617936332
 31
0.0
  0
LINE
  5
269
  8
0
  6
CONTINUOUS
 62
     3
 10
-35.48731192966874
 20
92.91604380875785
 30
0.0
 11
-35.48731192966874
 21
79.91604380875785
 31
0.0
  0
LINE
  5
26A
  8
0
  6
CONTINUOUS
 62
     3
 10
-35.48731192966874
 20
75.91604380875785
 30
0.0
 11
-35.48731192966874
 21
62.91604380875786
 31
0.0
  0
LINE
  5
26B
  8
0
  6
CONTINUOUS
 62
     3
 10
-43.48734244724687
 20
62.91603617936332
 30
0.0
 11
-35.48731192966874
 21
62.91603617936332
 31
0.0
  0
LINE
  5
26C
  8
0
  6
CONTINUOUS
 62
     3
 10
-43.48734244724687
 20
75.91603617936332
 30
0.0
 11
-35.48731192966874
 21
75.91603617936332
 31
0.0
  0
LINE
  5
26D
  8
0
  6
CONTINUOUS
 62
     3
 10
-43.48734244724687
 20
79.91603617936332
 30
0.0
 11
-35.48731192966874
 21
79.91603617936332
 31
0.0
  0
LINE
  5
26E
  8
0
  6
CONTINUOUS
 62
     3
 10
-43.48734244724687
 20
92.91603617936332
 30
0.0
 11
-35.48731192966874
 21
92.91603617936332
 31
0.0
  0
LINE
  5
26F
  8
0
  6
CONTINUOUS
 62
     3
 10
108.0127033291203
 20
97.21027140885551
 30
0.0
 11
108.0127033291203
 21
95.87401347428519
 31
0.0
  0
LINE
  5
270
  8
0
  6
CONTINUOUS
 62
     3
 10
72.01268807033125
 20
97.21027140885551
 30
0.0
 11
72.01268807033125
 21
95.87401347428519
 31
0.0
  0
LINE
  5
271
  8
0
  6
CONTINUOUS
 62
     3
 10
76.51268807033125
 20
98.41603617936332
 30
0.0
 11
103.5126880703313
 21
98.41603617936332
 31
0.0
  0
LINE
  5
272
  8
0
  6
CONTINUOUS
 62
     3
 10
72.01269269055979
 20
97.21021156462595
 30
0.0
 11
76.51268718993401
 21
98.41598132794272
 31
0.0
  0
LINE
  5
273
  8
0
  6
CONTINUOUS
 62
     3
 10
103.5126860067219
 20
98.41602606383023
 30
0.0
 11
108.0126805060961
 21
97.21025630051346
 31
0.0
  0
LINE
  5
274
  8
0
  6
CONTINUOUS
 62
     3
 10
76.51268807033125
 20
98.41603617936332
 30
0.0
 11
76.51268807033125
 21
52.03725581437309
 31
0.0
  0
LINE
  5
275
  8
0
  6
CONTINUOUS
 62
     3
 10
103.5126880703313
 20
98.41603617936332
 30
0.0
 11
103.5126880703313
 21
52.03725581437309
 31
0.0
  0
LINE
  5
276
  8
0
  6
CONTINUOUS
 62
     3
 10
76.51268807033125
 20
60.91603617936332
 30
0.0
 11
84.51268807033125
 21
60.91603617936332
 31
0.0
  0
LINE
  5
277
  8
0
  6
CONTINUOUS
 62
     3
 10
84.51268807033125
 20
98.41603617936332
 30
0.0
 11
84.51268807033125
 21
89.88013224869926
 31
0.0
  0
LINE
  5
278
  8
0
  6
CONTINUOUS
 62
     3
 10
95.51268807033125
 20
98.41603617936332
 30
0.0
 11
95.51268807033125
 21
89.88013224869926
 31
0.0
  0
LINE
  5
279
  8
0
  6
CONTINUOUS
 62
     3
 10
83.01268807033125
 20
60.91603617936332
 30
0.0
 11
83.01268807033125
 21
59.49284129410942
 31
0.0
  0
LINE
  5
27A
  8
0
  6
CONTINUOUS
 62
     3
 10
97.01268807033125
 20
60.91603617936332
 30
0.0
 11
97.01268807033125
 21
59.49284129410942
 31
0.0
  0
LINE
  5
27B
  8
0
  6
CONTINUOUS
 62
     3
 10
95.51268807033125
 20
60.91603617936332
 30
0.0
 11
103.5126880703313
 21
60.91603617936332
 31
0.0
  0
LINE
  5
27C
  8
0
  6
CONTINUOUS
 62
     3
 10
84.51268807033125
 20
61.41603617936332
 30
0.0
 11
95.51268807033125
 21
61.41603617936332
 31
0.0
  0
LINE
  5
27D
  8
0
  6
CONTINUOUS
 62
     3
 10
84.51268807033125
 20
94.41603617936332
 30
0.0
 11
95.51268807033125
 21
94.41603617936332
 31
0.0
  0
LINE
  5
27E
  8
0
  6
CONTINUOUS
 62
     3
 10
84.51268807033125
 20
82.95194011002738
 30
0.0
 11
84.51268807033125
 21
72.88013224869926
 31
0.0
  0
LINE
  5
27F
  8
0
  6
CONTINUOUS
 62
     3
 10
95.51268807033125
 20
82.95194011002738
 30
0.0
 11
95.51268807033125
 21
72.88013224869926
 31
0.0
  0
LINE
  5
280
  8
0
  6
CONTINUOUS
 62
     3
 10
95.51268807033125
 20
65.95193248063285
 30
0.0
 11
95.51268807033125
 21
60.91603617936332
 31
0.0
  0
LINE
  5
281
  8
0
  6
CONTINUOUS
 62
     3
 10
84.51268807033125
 20
65.95193248063285
 30
0.0
 11
84.51268807033125
 21
60.91603617936332
 31
0.0
  0
LINE
  5
282
  8
0
  6
CONTINUOUS
 62
     3
 10
76.51268807033125
 20
-31.58396763533394
 30
0.0
 11
103.5126880703313
 21
-31.58396763533394
 31
0.0
  0
LINE
  5
283
  8
0
  6
CONTINUOUS
 62
     3
 10
76.51268807033125
 20
14.7948070076104
 30
0.0
 11
76.51268807033125
 21
-31.58396763533394
 31
0.0
  0
LINE
  5
284
  8
0
  6
CONTINUOUS
 62
     3
 10
84.51268807033125
 20
5.916032364666059
 30
0.0
 11
84.51268807033125
 21
0.8801341560478946
 31
0.0
  0
LINE
  5
285
  8
0
  6
CONTINUOUS
 62
     3
 10
95.51268807033125
 20
5.916032364666059
 30
0.0
 11
95.51268807033125
 21
0.8801341560478946
 31
0.0
  0
LINE
  5
286
  8
0
  6
CONTINUOUS
 62
     3
 10
103.5126880703313
 20
14.7948070076104
 30
0.0
 11
103.5126880703313
 21
-31.58396763533394
 31
0.0
  0
LINE
  5
287
  8
0
  6
CONTINUOUS
 62
     3
 10
76.51268807033125
 20
5.916032364666059
 30
0.0
 11
84.51268807033125
 21
5.916032364666059
 31
0.0
  0
LINE
  5
288
  8
0
  6
CONTINUOUS
 62
     3
 10
95.51268807033125
 20
5.916032364666059
 30
0.0
 11
103.5126880703313
 21
5.916032364666059
 31
0.0
  0
LINE
  5
289
  8
0
  6
CONTINUOUS
 62
     3
 10
84.51268807033125
 20
-6.048069426715777
 30
0.0
 11
84.51268807033125
 21
-16.11986775130074
 31
0.0
  0
LINE
  5
28A
  8
0
  6
CONTINUOUS
 62
     3
 10
95.51268807033125
 20
-6.048069426715777
 30
0.0
 11
95.51268807033125
 21
-16.11986775130074
 31
0.0
  0
LINE
  5
28B
  8
0
  6
CONTINUOUS
 62
     3
 10
95.51268807033125
 20
-23.04806751936714
 30
0.0
 11
95.51268807033125
 21
-31.58396763533394
 31
0.0
  0
LINE
  5
28C
  8
0
  6
CONTINUOUS
 62
     3
 10
84.51268807033125
 20
-23.04806751936714
 30
0.0
 11
84.51268807033125
 21
-31.58396763533394
 31
0.0
  0
LINE
  5
28D
  8
0
  6
CONTINUOUS
 62
     3
 10
84.51268807033125
 20
-27.58396763533394
 30
0.0
 11
95.51268807033125
 21
-27.58396763533394
 31
0.0
  0
LINE
  5
28E
  8
0
  6
CONTINUOUS
 62
     3
 10
84.51268807033125
 20
5.416032364666059
 30
0.0
 11
95.51268807033125
 21
5.416032364666059
 31
0.0
  0
LINE
  5
28F
  8
0
  6
CONTINUOUS
 62
     3
 10
97.01268807033125
 20
7.339223435222699
 30
0.0
 11
97.01268807033125
 21
5.916032364666059
 31
0.0
  0
LINE
  5
290
  8
0
  6
CONTINUOUS
 62
     3
 10
83.01268807033125
 20
7.339223435222699
 30
0.0
 11
83.01268807033125
 21
5.916032364666059
 31
0.0
  0
LINE
  5
291
  8
0
  6
CONTINUOUS
 62
     3
 10
72.01268807033125
 20
-29.04195255965035
 30
0.0
 11
72.01268807033125
 21
-30.3781952354316
 31
0.0
  0
LINE
  5
292
  8
0
  6
CONTINUOUS
 62
     3
 10
108.0126880703313
 20
-29.04195255965035
 30
0.0
 11
108.0126880703313
 21
-30.37819905012886
 31
0.0
  0
LINE
  5
293
  8
0
  6
CONTINUOUS
 62
     3
 10
103.5126949600012
 20
-31.58395822802938
 30
0.0
 11
108.0126747205172
 21
-30.37819241397735
 31
0.0
  0
LINE
  5
294
  8
0
  6
CONTINUOUS
 62
     3
 10
72.01267876525725
 20
-30.37819176238943
 30
0.0
 11
76.5126880034897
 21
-31.58396547497093
 31
0.0
  0
ARC
  5
295
  8
0
  6
CONTINUOUS
 62
     3
 10
90.01268807033125
 20
33.41603236466606
 30
0.0
 40
65.0
 50
0.0
 51
78.01284975637654
  0
ARC
  5
296
  8
0
  6
CONTINUOUS
 62
     3
 10
90.01268807033125
 20
33.41603236466606
 30
0.0
 40
63.5
 50
102.2746857260698
 51
257.7252764805186
  0
ARC
  5
297
  8
0
  6
CONTINUOUS
 62
     3
 10
90.01268807033125
 20
33.41603236466606
 30
0.0
 40
63.5
 50
282.2746738869243
 51
437.7253329432649
  0
ARC
  5
298
  8
0
  6
CONTINUOUS
 62
     3
 10
90.01268807033125
 20
33.41603236466606
 30
0.0
 40
25.0
 50
122.6836529660939
 51
237.3163433914404
  0
CIRCLE
  5
299
  8
0
  6
CONTINUOUS
 62
     3
 10
54.26749458888595
 20
54.05354457169731
 30
0.0
 40
5.5
  0
CIRCLE
  5
29A
  8
0
  6
CONTINUOUS
 62
     3
 10
125.7578815517766
 20
54.05354457169731
 30
0.0
 40
5.5
  0
ARC
  5
29B
  8
0
  6
CONTINUOUS
 62
     3
 10
90.01268807033125
 20
33.41603236466606
 30
0.0
 40
65.0
 50
101.9871689129581
 51
258.0128001238195
  0
ARC
  5
29C
  8
0
  6
CONTINUOUS
 62
     3
 10
90.01268807033125
 20
33.41603236466606
 30
0.0
 40
65.0
 50
281.9871502436234
 51
360.0
  0
CIRCLE
  5
29D
  8
0
  6
CONTINUOUS
 62
     3
 10
90.01268807033125
 20
33.41603236466606
 30
0.0
 40
23.0
  0
CIRCLE
  5
29E
  8
0
  6
CONTINUOUS
 62
     3
 10
90.01268807033125
 20
33.41603236466606
 30
0.0
 40
20.0
  0
CIRCLE
  5
29F
  8
0
  6
CONTINUOUS
 62
     3
 10
105.2627033291203
 20
33.41603236466606
 30
0.0
 40
1.600000023841858
  0
CIRCLE
  5
2A0
  8
0
  6
CONTINUOUS
 62
     3
 10
74.76268807033125
 20
33.41603236466606
 30
0.0
 40
1.600000023841858
  0
CIRCLE
  5
2A1
  8
0
  6
CONTINUOUS
 62
     3
 10
125.7578815517766
 20
54.05354457169731
 30
0.0
 40
8.5
  0
CIRCLE
  5
2A2
  8
0
  6
CONTINUOUS
 62
     3
 10
54.26749458888595
 20
54.05354457169731
 30
0.0
 40
8.5
  0
CIRCLE
  5
2A3
  8
0
  6
CONTINUOUS
 62
     3
 10
64.89798012355391
 20
47.91608958512504
 30
0.0
 40
2.0
  0
CIRCLE
  5
2A4
  8
0
  6
CONTINUOUS
 62
     3
 10
115.1274341640813
 20
47.91602854996879
 30
0.0
 40
2.0
  0
ARC
  5
2A5
  8
0
  6
CONTINUOUS
 62
     3
 10
90.01268807033125
 20
33.41603236466606
 30
0.0
 40
27.0
 50
60.00000166965211
 51
120.0000169996826
  0
ARC
  5
2A6
  8
0
  6
CONTINUOUS
 62
     3
 10
90.01268807033125
 20
33.41603236466606
 30
0.0
 40
25.0
 50
302.6836411269484
 51
417.3163520428624
  0
ARC
  5
2A7
  8
0
  6
CONTINUOUS
 62
     3
 10
90.01268807033125
 20
33.41603236466606
 30
0.0
 40
27.0
 50
239.9999830003174
 51
300.0000119907263
  0
CIRCLE
  5
2A8
  8
0
  6
CONTINUOUS
 62
     3
 10
64.89794960597578
 20
18.91603045731743
 30
0.0
 40
2.0
  0
CIRCLE
  5
2A9
  8
0
  6
CONTINUOUS
 62
     3
 10
115.1274646816594
 20
18.91609149247368
 30
0.0
 40
2.0
  0
CIRCLE
  5
2AA
  8
0
  6
CONTINUOUS
 62
     3
 10
54.26748695949141
 20
12.77852969437797
 30
0.0
 40
8.5
  0
CIRCLE
  5
2AB
  8
0
  6
CONTINUOUS
 62
     3
 10
125.7579273281438
 20
12.77859072953422
 30
0.0
 40
8.5
  0
CIRCLE
  5
2AC
  8
0
  6
CONTINUOUS
 62
     3
 10
125.7579273281438
 20
12.77859072953422
 30
0.0
 40
5.5
  0
CIRCLE
  5
2AD
  8
0
  6
CONTINUOUS
 62
     3
 10
90.01268807033125
 20
49.41603236466606
 30
0.0
 40
2.0
  0
CIRCLE
  5
2AE
  8
0
  6
CONTINUOUS
 62
     3
 10
76.15628090480391
 20
25.41603236466606
 30
0.0
 40
2.0
  0
CIRCLE
  5
2AF
  8
0
  6
CONTINUOUS
 62
     3
 10
103.8690952358586
 20
25.41603236466606
 30
0.0
 40
2.0
  0
ARC
  5
2B0
  8
0
  6
CONTINUOUS
 62
     3
 10
90.01268807033125
 20
33.41603236466606
 30
0.0
 40
12.64999961853027
 50
157.8281541567523
 51
383.1814496713322
  0
ARC
  5
2B1
  8
0
  6
CONTINUOUS
 62
     3
 10
90.01268807033125
 20
33.41603236466606
 30
0.0
 40
12.64999961853027
 50
56.6437506107466
 51
118.4850385506207
  0
LINE
  5
2B2
  8
0
  6
CONTINUOUS
 62
     3
 10
-126.4873119296688
 20
-2.858959624469684
 30
0.0
 11
-126.4873119296688
 21
-12.85895962446968
 31
0.0
  0
LINE
  5
2B3
  8
0
  6
CENTER
 62
     7
 10
-129.9369153849251
 20
-7.858959624469684
 30
0.0
 11
-43.84918937107499
 21
-7.858959624469684
 31
0.0
  0
LINE
  5
2B4
  8
0
  6
CENTER
 62
     7
 10
-67.4467235507625
 20
4.416049530803754
 30
0.0
 11
-44.89420279880937
 21
4.416049530803754
 31
0.0
  0
LINE
  5
2B5
  8
0
  6
CENTER
 62
     7
 10
-77.31824454685625
 20
49.41603617936332
 30
0.0
 11
-64.54422721287187
 21
49.41603617936332
 31
0.0
  0
LINE
  5
2B6
  8
0
  6
CENTER
 62
     7
 10
-117.6880984952124
 20
33.41603236466606
 30
0.0
 11
-47.22866894197942
 21
33.41603236466606
 31
0.0
  0
LINE
  5
2B7
  8
0
  6
CENTER
 62
     7
 10
-66.5009227695125
 20
86.41603617936332
 30
0.0
 11
-31.19666251560624
 21
86.41603617936332
 31
0.0
  0
LINE
  5
2B8
  8
0
  6
CENTER
 62
     7
 10
-66.6129833163875
 20
69.41603617936332
 30
0.0
 11
-31.19666251560624
 21
69.41603617936332
 31
0.0
  0
LINE
  5
2B9
  8
0
  6
CENTER
 62
     7
 10
18.55864754298751
 20
33.41603236466606
 30
0.0
 11
132.3222583828313
 21
33.41603236466606
 31
0.0
  0
LINE
  5
2BA
  8
0
  6
CENTER
 62
     7
 10
43.79960282864125
 20
6.734887691803216
 30
0.0
 11
68.66436543025668
 21
21.09056348713919
 31
0.0
  0
LINE
  5
2BB
  8
0
  6
CENTER
 62
     7
 10
44.05487227786376
 20
59.94986312212652
 30
0.0
 11
69.38428641914447
 21
45.32592066492405
 31
0.0
  0
LINE
  5
2BC
  8
0
  6
CENTER
 62
     7
 10
41.73393288234298
 20
80.41603617936332
 30
0.0
 11
65.97268715480391
 21
80.41603617936332
 31
0.0
  0
LINE
  5
2BD
  8
0
  6
CENTER
 62
     7
 10
74.76268807033125
 20
36.95085292130668
 30
0.0
 11
74.76268807033125
 21
29.41604380875786
 31
0.0
  0
LINE
  5
2BE
  8
0
  6
CENTER
 62
     7
 10
105.2627033291203
 20
36.44102244645317
 30
0.0
 11
105.2627033291203
 21
29.41604380875786
 31
0.0
  0
LINE
  5
2BF
  8
0
  6
CENTER
 62
     7
 10
80.50280037501875
 20
86.41603617936332
 30
0.0
 11
99.62136116603438
 21
86.41603617936332
 31
0.0
  0
LINE
  5
2C0
  8
0
  6
CENTER
 62
     7
 10
80.50280037501875
 20
69.41603617936332
 30
0.0
 11
99.62136116603438
 21
69.41603617936332
 31
0.0
  0
LINE
  5
2C1
  8
0
  6
CENTER
 62
     7
 10
86.31195870021406
 20
49.41603236466606
 30
0.0
 11
93.56052437404219
 21
49.41603236466606
 31
0.0
  0
LINE
  5
2C2
  8
0
  6
CENTER
 62
     7
 10
80.4605030117375
 20
-19.58396763533394
 30
0.0
 11
99.44371834376875
 21
-19.58396763533394
 31
0.0
  0
LINE
  5
2C3
  8
0
  6
CENTER
 62
     7
 10
80.4605030117375
 20
-2.583967635333941
 30
0.0
 11
99.65464058497969
 21
-2.583967635333941
 31
0.0
  0
LINE
  5
2C4
  8
0
  6
CENTER
 62
     7
 10
110.6735769065668
 20
45.34459036179894
 30
0.0
 11
134.8512086527222
 21
59.30355101659641
 31
0.0
  0
LINE
  5
2C5
  8
0
  6
CENTER
 62
     7
 10
110.7305859141941
 20
21.45462615880908
 30
0.0
 11
152.6586669700171
 21
-2.752560050917985
 31
0.0
  0
LINE
  5
2C6
  8
0
  6
CENTER
 62
     7
 10
148.1601337490422
 20
33.41603236466606
 30
0.0
 11
161.8032154140813
 21
33.41603236466606
 31
0.0
  0
LINE
  5
2C7
  8
0
  6
CENTER
 62
     7
 10
78.00664327781146
 20
22.21110835314025
 30
0.0
 11
74.38236282508319
 21
28.48854612547545
 31
0.0
  0
LINE
  5
2C8
  8
0
  6
CENTER
 62
     7
 10
105.7194607014678
 20
28.62095519395323
 30
0.0
 11
102.0951778645538
 21
22.34351329208719
 31
0.0
  0
LINE
  5
2C9
  8
0
  6
CENTER
 62
     7
 10
73.00204475602334
 20
23.5949235368423
 30
0.0
 11
78.61977962483763
 21
26.83832391725102
 31
0.0
  0
LINE
  5
2CA
  8
0
  6
CENTER
 62
     7
 10
107.0233322188726
 20
23.5949217446241
 30
0.0
 11
101.4056039573081
 21
26.83831831033579
 31
0.0
  0
ARC
  5
2CB
  8
0
  6
CENTER
 62
     7
 10
90.01268807033125
 20
33.41603236466606
 30
0.0
 40
41.27500152587891
 50
14.47177920021363
 51
43.48413638860313
  0
ARC
  5
2CC
  8
0
  6
CENTER
 62
     7
 10
90.01268807033125
 20
33.41603236466606
 30
0.0
 40
29.0
 50
139.0301398010103
 51
160.9467142059639
  0
ARC
  5
2CD
  8
0
  6
CENTER
 62
     7
 10
90.01268807033125
 20
33.41603236466606
 30
0.0
 40
41.27500152587891
 50
132.8520151306804
 51
166.9362846740665
  0
ARC
  5
2CE
  8
0
  6
CENTER
 62
     7
 10
90.01268807033125
 20
33.41603236466606
 30
0.0
 40
41.27500152587891
 50
193.5985601190806
 51
226.4932702562389
  0
ARC
  5
2CF
  8
0
  6
CENTER
 62
     7
 10
90.01268807033125
 20
33.41603236466606
 30
0.0
 40
29.0
 50
200.1140005117608
 51
219.4705653742801
  0
ARC
  5
2D0
  8
0
  6
CENTER
 62
     7
 10
90.01268807033125
 20
33.41603236466606
 30
0.0
 40
29.0
 50
19.52853536544196
 51
40.47854238019029
  0
ARC
  5
2D1
  8
0
  6
CENTER
 62
     7
 10
90.01268807033125
 20
33.41603236466606
 30
0.0
 40
29.0
 50
319.2117119560442
 51
340.4510628595072
  0
ARC
  5
2D2
  8
0
  6
CENTER
 62
     7
 10
90.01268807033125
 20
33.41603236466606
 30
0.0
 40
41.27500152587891
 50
313.2862223227347
 51
347.2108413169136
  0
LINE
  5
2D3
  8
0
  6
CENTER
 62
     7
 10
90.01268807033125
 20
104.920468857586
 30
0.0
 11
90.01268807033125
 21
44.86160188457008
 31
0.0
  0
LINE
  5
2D4
  8
0
  6
CENTER
 62
     7
 10
90.01268807033125
 20
39.16077738515901
 30
0.0
 11
90.01268807033125
 21
-34.38071540336748
 31
0.0
  0
LINE
  5
2D5
  8
0
  6
CONTINUOUS
 62
     4
 10
-51.48731192966874
 20
98.41604380875785
 30
0.0
 11
-51.48731192966874
 21
93.41603617936332
 31
0.0
  0
LINE
  5
2D6
  8
0
  6
CONTINUOUS
 62
     4
 10
-52.48731192966874
 20
98.41604380875785
 30
0.0
 11
-52.48731192966874
 21
93.41603617936332
 31
0.0
  0
LINE
  5
2D7
  8
0
  6
CONTINUOUS
 62
     4
 10
-102.1231761874813
 20
46.06604533463676
 30
0.0
 11
-102.1231761874813
 21
40.40590434342582
 31
0.0
  0
LINE
  5
2D8
  8
0
  6
CONTINUOUS
 62
     4
 10
-83.12317618748125
 20
46.06604533463676
 30
0.0
 11
-83.12317618748125
 21
40.52541117936332
 31
0.0
  0
LINE
  5
2D9
  8
0
  6
CONTINUOUS
 62
     4
 10
-102.1231761874813
 20
24.0046344307061
 30
0.0
 11
-102.1231761874813
 21
20.76604228287895
 31
0.0
  0
LINE
  5
2DA
  8
0
  6
CONTINUOUS
 62
     4
 10
-83.12317618748125
 20
23.80348544388969
 30
0.0
 11
-83.12317618748125
 21
20.76604228287895
 31
0.0
  0
LINE
  5
2DB
  8
0
  6
CONTINUOUS
 62
     4
 10
-74.62317618748125
 20
14.11604457169731
 30
0.0
 11
-66.62317618748125
 21
14.11604457169731
 31
0.0
  0
LINE
  5
2DC
  8
0
  6
CONTINUOUS
 62
     4
 10
-61.48731192966874
 20
6.916045716106488
 30
0.0
 11
-61.48731192966874
 21
1.916045716106488
 31
0.0
  0
LINE
  5
2DD
  8
0
  6
CONTINUOUS
 62
     4
 10
-63.48731192966874
 20
6.416045716106488
 30
0.0
 11
-63.48731192966874
 21
2.416045716106488
 31
0.0
  0
LINE
  5
2DE
  8
0
  6
CONTINUOUS
 62
     4
 10
-63.48734244724687
 20
2.416049530803754
 30
0.0
 11
-50.48734244724687
 21
2.416049530803754
 31
0.0
  0
LINE
  5
2DF
  8
0
  6
CONTINUOUS
 62
     4
 10
-63.48734244724687
 20
6.416049530803754
 30
0.0
 11
-50.48734244724687
 21
6.416049530803754
 31
0.0
  0
LINE
  5
2E0
  8
0
  6
CONTINUOUS
 62
     4
 10
-61.48734244724687
 20
6.916049530803754
 30
0.0
 11
-50.48734244724687
 21
6.916049530803754
 31
0.0
  0
LINE
  5
2E1
  8
0
  6
CONTINUOUS
 62
     4
 10
-61.48734244724687
 20
1.916049530803754
 30
0.0
 11
-50.48734244724687
 21
1.916049530803754
 31
0.0
  0
LINE
  5
2E2
  8
0
  6
CONTINUOUS
 62
     4
 10
-64.64202997008601
 20
4.416025928550404
 30
0.0
 11
-63.48733575208296
 21
6.416014707024182
 31
0.0
  0
LINE
  5
2E3
  8
0
  6
CONTINUOUS
 62
     4
 10
-64.64204590053282
 20
4.416049040396025
 30
0.0
 11
-63.48734452997154
 21
2.416047873329696
 31
0.0
  0
LINE
  5
2E4
  8
0
  6
CONTINUOUS
 62
     4
 10
-52.48731192966874
 20
62.41603617936332
 30
0.0
 11
-52.48731192966874
 21
60.91604380875786
 31
0.0
  0
LINE
  5
2E5
  8
0
  6
CONTINUOUS
 62
     4
 10
-51.48731192966874
 20
62.41603617936332
 30
0.0
 11
-51.48731192966874
 21
60.91604380875786
 31
0.0
  0
LINE
  5
2E6
  8
0
  6
CONTINUOUS
 62
     4
 10
-64.48734244724687
 20
66.41603617936332
 30
0.0
 11
-43.48734244724687
 21
66.41603617936332
 31
0.0
  0
LINE
  5
2E7
  8
0
  6
CONTINUOUS
 62
     4
 10
-64.48734244724687
 20
72.41603617936332
 30
0.0
 11
-43.48734244724687
 21
72.41603617936332
 31
0.0
  0
LINE
  5
2E8
  8
0
  6
CONTINUOUS
 62
     4
 10
-64.48734244724687
 20
89.41603617936332
 30
0.0
 11
-43.48734244724687
 21
89.41603617936332
 31
0.0
  0
LINE
  5
2E9
  8
0
  6
CONTINUOUS
 62
     4
 10
-64.48734244724687
 20
83.41603617936332
 30
0.0
 11
-43.48734244724687
 21
83.41603617936332
 31
0.0
  0
LINE
  5
2EA
  8
0
  6
CONTINUOUS
 62
     4
 10
-74.62317618748125
 20
52.7160544899102
 30
0.0
 11
-66.62317618748125
 21
52.7160544899102
 31
0.0
  0
LINE
  5
2EB
  8
0
  6
CONTINUOUS
 62
     4
 10
-74.62317618748125
 20
50.91603617936332
 30
0.0
 11
-66.62317618748125
 21
50.91603617936332
 31
0.0
  0
LINE
  5
2EC
  8
0
  6
CONTINUOUS
 62
     4
 10
-74.62317618748125
 20
47.91603617936332
 30
0.0
 11
-66.62317618748125
 21
47.91603617936332
 31
0.0
  0
LINE
  5
2ED
  8
0
  6
CONTINUOUS
 62
     4
 10
96.51268807033125
 20
62.41603617936332
 30
0.0
 11
102.5126880703313
 21
62.41603617936332
 31
0.0
  0
LINE
  5
2EE
  8
0
  6
CONTINUOUS
 62
     4
 10
77.51268807033125
 20
62.41603617936332
 30
0.0
 11
83.51268807033125
 21
62.41603617936332
 31
0.0
  0
LINE
  5
2EF
  8
0
  6
CONTINUOUS
 62
     4
 10
77.51268807033125
 20
96.91603617936332
 30
0.0
 11
83.51268807033125
 21
96.91603617936332
 31
0.0
  0
LINE
  5
2F0
  8
0
  6
CONTINUOUS
 62
     4
 10
96.51268807033125
 20
96.91603617936332
 30
0.0
 11
102.5126880703313
 21
96.91603617936332
 31
0.0
  0
LINE
  5
2F1
  8
0
  6
CONTINUOUS
 62
     4
 10
96.51268807033125
 20
63.91603617936332
 30
0.0
 11
102.5126880703313
 21
63.91603617936332
 31
0.0
  0
LINE
  5
2F2
  8
0
  6
CONTINUOUS
 62
     4
 10
96.51268807033125
 20
65.41603617936332
 30
0.0
 11
102.5126880703313
 21
65.41603617936332
 31
0.0
  0
LINE
  5
2F3
  8
0
  6
CONTINUOUS
 62
     4
 10
96.9182666836125
 20
66.91603617936332
 30
0.0
 11
102.5126880703313
 21
66.91603617936332
 31
0.0
  0
LINE
  5
2F4
  8
0
  6
CONTINUOUS
 62
     4
 10
97.3976368008
 20
68.41603617936332
 30
0.0
 11
102.5126880703313
 21
68.41603617936332
 31
0.0
  0
LINE
  5
2F5
  8
0
  6
CONTINUOUS
 62
     4
 10
96.51268807033125
 20
95.41603617936332
 30
0.0
 11
102.5126880703313
 21
95.41603617936332
 31
0.0
  0
LINE
  5
2F6
  8
0
  6
CONTINUOUS
 62
     4
 10
96.51268807033125
 20
93.91603617936332
 30
0.0
 11
102.5126880703313
 21
93.91603617936332
 31
0.0
  0
LINE
  5
2F7
  8
0
  6
CONTINUOUS
 62
     4
 10
96.51268807033125
 20
92.41603617936332
 30
0.0
 11
102.5126880703313
 21
92.41603617936332
 31
0.0
  0
LINE
  5
2F8
  8
0
  6
CONTINUOUS
 62
     4
 10
96.51268807033125
 20
90.91603617936332
 30
0.0
 11
102.5126880703313
 21
90.91603617936332
 31
0.0
  0
LINE
  5
2F9
  8
0
  6
CONTINUOUS
 62
     4
 10
77.51268807033125
 20
95.41603617936332
 30
0.0
 11
83.51268807033125
 21
95.41603617936332
 31
0.0
  0
LINE
  5
2FA
  8
0
  6
CONTINUOUS
 62
     4
 10
77.51268807033125
 20
93.91603617936332
 30
0.0
 11
83.51268807033125
 21
93.91603617936332
 31
0.0
  0
LINE
  5
2FB
  8
0
  6
CONTINUOUS
 62
     4
 10
77.51268807033125
 20
92.41603617936332
 30
0.0
 11
83.51268807033125
 21
92.41603617936332
 31
0.0
  0
LINE
  5
2FC
  8
0
  6
CONTINUOUS
 62
     4
 10
77.51268807033125
 20
90.91603617936332
 30
0.0
 11
83.51268807033125
 21
90.91603617936332
 31
0.0
  0
LINE
  5
2FD
  8
0
  6
CONTINUOUS
 62
     4
 10
77.51268807033125
 20
63.91603617936332
 30
0.0
 11
83.51268807033125
 21
63.91603617936332
 31
0.0
  0
LINE
  5
2FE
  8
0
  6
CONTINUOUS
 62
     4
 10
77.51268807033125
 20
65.41603617936332
 30
0.0
 11
83.51268807033125
 21
65.41603617936332
 31
0.0
  0
LINE
  5
2FF
  8
0
  6
CONTINUOUS
 62
     4
 10
77.51268807033125
 20
66.91603617936332
 30
0.0
 11
83.11228218654219
 21
66.91603617936332
 31
0.0
  0
LINE
  5
300
  8
0
  6
CONTINUOUS
 62
     4
 10
77.51268807033125
 20
68.41603617936332
 30
0.0
 11
82.82465401271406
 21
68.41603617936332
 31
0.0
  0
LINE
  5
301
  8
0
  6
CONTINUOUS
 62
     4
 10
96.51268807033125
 20
4.416032364666059
 30
0.0
 11
102.5126880703313
 21
4.416032364666059
 31
0.0
  0
LINE
  5
302
  8
0
  6
CONTINUOUS
 62
     4
 10
77.51268807033125
 20
4.416032364666059
 30
0.0
 11
83.51268807033125
 21
4.416032364666059
 31
0.0
  0
LINE
  5
303
  8
0
  6
CONTINUOUS
 62
     4
 10
96.51268807033125
 20
-30.08396763533394
 30
0.0
 11
102.5126880703313
 21
-30.08396763533394
 31
0.0
  0
LINE
  5
304
  8
0
  6
CONTINUOUS
 62
     4
 10
77.51268807033125
 20
-30.08396763533394
 30
0.0
 11
83.51268807033125
 21
-30.08396763533394
 31
0.0
  0
LINE
  5
305
  8
0
  6
CONTINUOUS
 62
     4
 10
77.51268807033125
 20
2.916032364666059
 30
0.0
 11
83.51268807033125
 21
2.916032364666059
 31
0.0
  0
LINE
  5
306
  8
0
  6
CONTINUOUS
 62
     4
 10
77.51268807033125
 20
1.416032364666059
 30
0.0
 11
83.51268807033125
 21
1.416032364666059
 31
0.0
  0
LINE
  5
307
  8
0
  6
CONTINUOUS
 62
     4
 10
77.51268807033125
 20
-0.0839676353339414
 30
0.0
 11
82.99160042384688
 21
-0.0839676353339414
 31
0.0
  0
LINE
  5
308
  8
0
  6
CONTINUOUS
 62
     4
 10
77.51268807033125
 20
-1.583967635333941
 30
0.0
 11
82.358818441425
 21
-1.583967635333941
 31
0.0
  0
LINE
  5
309
  8
0
  6
CONTINUOUS
 62
     4
 10
96.51268807033125
 20
2.916032364666059
 30
0.0
 11
102.5126880703313
 21
2.916032364666059
 31
0.0
  0
LINE
  5
30A
  8
0
  6
CONTINUOUS
 62
     4
 10
96.51268807033125
 20
1.416032364666059
 30
0.0
 11
102.5126880703313
 21
1.416032364666059
 31
0.0
  0
LINE
  5
30B
  8
0
  6
CONTINUOUS
 62
     4
 10
97.12354317287031
 20
-0.0839676353339414
 30
0.0
 11
102.5126880703313
 21
-0.0839676353339414
 31
0.0
  0
LINE
  5
30C
  8
0
  6
CONTINUOUS
 62
     4
 10
97.75632515529219
 20
-1.583967635333941
 30
0.0
 11
102.5126880703313
 21
-1.583967635333941
 31
0.0
  0
LINE
  5
30D
  8
0
  6
CONTINUOUS
 62
     4
 10
96.51268807033125
 20
-28.58396763533394
 30
0.0
 11
102.5126880703313
 21
-28.58396763533394
 31
0.0
  0
LINE
  5
30E
  8
0
  6
CONTINUOUS
 62
     4
 10
96.51268807033125
 20
-27.08396763533394
 30
0.0
 11
102.5126880703313
 21
-27.08396763533394
 31
0.0
  0
LINE
  5
30F
  8
0
  6
CONTINUOUS
 62
     4
 10
96.51268807033125
 20
-25.58396763533394
 30
0.0
 11
102.5126880703313
 21
-25.58396763533394
 31
0.0
  0
LINE
  5
310
  8
0
  6
CONTINUOUS
 62
     4
 10
96.51268807033125
 20
-24.08396763533394
 30
0.0
 11
102.5126880703313
 21
-24.08396763533394
 31
0.0
  0
LINE
  5
311
  8
0
  6
CONTINUOUS
 62
     4
 10
77.51268807033125
 20
-28.58396763533394
 30
0.0
 11
83.51268807033125
 21
-28.58396763533394
 31
0.0
  0
LINE
  5
312
  8
0
  6
CONTINUOUS
 62
     4
 10
77.51268807033125
 20
-27.08396763533394
 30
0.0
 11
83.51268807033125
 21
-27.08396763533394
 31
0.0
  0
LINE
  5
313
  8
0
  6
CONTINUOUS
 62
     4
 10
77.51268807033125
 20
-25.58396763533394
 30
0.0
 11
83.51268807033125
 21
-25.58396763533394
 31
0.0
  0
LINE
  5
314
  8
0
  6
CONTINUOUS
 62
     4
 10
77.51268807033125
 20
-24.08396763533394
 30
0.0
 11
83.51268807033125
 21
-24.08396763533394
 31
0.0
  0
ARC
  5
315
  8
0
  6
CONTINUOUS
 62
     4
 10
90.01268807033125
 20
33.41603236466606
 30
0.0
 40
30.0
 50
221.8946678126094
 51
243.2563030078777
  0
ARC
  5
316
  8
0
  6
CONTINUOUS
 62
     4
 10
90.01268807033125
 20
33.41603236466606
 30
0.0
 40
30.0
 50
116.7436969921223
 51
136.8862253828134
  0
ARC
  5
317
  8
0
  6
CONTINUOUS
 62
     4
 10
90.01268807033125
 20
33.41603236466606
 30
0.0
 40
30.0
 50
296.7436851529768
 51
316.5207881777885
  0
ARC
  5
318
  8
0
  6
CONTINUOUS
 62
     4
 10
90.01268807033125
 20
33.41603236466606
 30
0.0
 40
30.0
 50
340.7488915507183
 51
377.9659656682615
  0
ARC
  5
319
  8
0
  6
CONTINUOUS
 62
     4
 10
90.01268807033125
 20
33.41603236466606
 30
0.0
 40
36.0
 50
112.0243299737778
 51
137.3467440574123
  0
ARC
  5
31A
  8
0
  6
CONTINUOUS
 62
     4
 10
90.01268807033125
 20
33.41603236466606
 30
0.0
 40
36.0
 50
221.9093390589466
 51
247.9756700262222
  0
ARC
  5
31B
  8
0
  6
CONTINUOUS
 62
     4
 10
90.01268807033125
 20
33.41603236466606
 30
0.0
 40
36.0
 50
292.0243113044431
 51
318.1601735974695
  0
ARC
  5
31C
  8
0
  6
CONTINUOUS
 62
     4
 10
90.01268807033125
 20
33.41603236466606
 30
0.0
 40
36.0
 50
341.8473481862492
 51
377.3467629162229
  0
CIRCLE
  5
31D
  8
0
  6
CONTINUOUS
 62
     4
 10
90.01268807033125
 20
33.41603236466606
 30
0.0
 40
19.20000076293945
  0
ARC
  5
31E
  8
0
  6
CONTINUOUS
 62
     4
 10
90.01268807033125
 20
33.41603236466606
 30
0.0
 40
36.0
 50
162.6532506304699
 51
197.9816118104171
  0
ARC
  5
31F
  8
0
  6
CONTINUOUS
 62
     4
 10
90.01268807033125
 20
33.41603236466606
 30
0.0
 40
36.0
 50
42.65327802701693
 51
67.97568869555687
  0
CIRCLE
  5
320
  8
0
  6
CONTINUOUS
 62
     4
 10
115.1274341640813
 20
47.91602854996879
 30
0.0
 40
2.5
  0
CIRCLE
  5
321
  8
0
  6
CONTINUOUS
 62
     4
 10
64.89798012355391
 20
47.91608958512504
 30
0.0
 40
2.5
  0
ARC
  5
322
  8
0
  6
CONTINUOUS
 62
     4
 10
90.01268807033125
 20
33.41603236466606
 30
0.0
 40
30.0
 50
164.2916900689509
 51
198.7820006981159
  0
ARC
  5
323
  8
0
  6
CONTINUOUS
 62
     4
 10
90.01268807033125
 20
33.41603236466606
 30
0.0
 40
30.0
 50
41.60311936665455
 51
63.2563148470232
  0
CIRCLE
  5
324
  8
0
  6
CONTINUOUS
 62
     4
 10
115.1274646816594
 20
18.91609149247368
 30
0.0
 40
2.5
  0
CIRCLE
  5
325
  8
0
  6
CONTINUOUS
 62
     4
 10
64.89794960597578
 20
18.91603045731743
 30
0.0
 40
2.5
  0
CIRCLE
  5
326
  8
0
  6
CONTINUOUS
 62
     4
 10
90.01268807033125
 20
49.41603236466606
 30
0.0
 40
1.5
  0
CIRCLE
  5
327
  8
0
  6
CONTINUOUS
 62
     4
 10
76.15628090480391
 20
25.41603236466606
 30
0.0
 40
1.5
  0
CIRCLE
  5
328
  8
0
  6
CONTINUOUS
 62
     4
 10
103.8690952358586
 20
25.41603236466606
 30
0.0
 40
1.5
  0
LINE
  5
329
  8
0
  6
CONTINUOUS
 62
     4
 10
-126.4873119296688
 20
-3.658947417438434
 30
0.0
 11
-94.48731192966875
 21
-3.658947417438434
 31
0.0
  0
LINE
  5
32A
  8
0
  6
CONTINUOUS
 62
     4
 10
-94.48731192966875
 20
-2.858955809772418
 30
0.0
 11
-94.48731192966875
 21
-12.85895580977242
 31
0.0
  0
LINE
  5
32B
  8
0
  6
CONTINUOUS
 62
     4
 10
-126.4873119296688
 20
-12.05895657271187
 30
0.0
 11
-94.48731192966875
 21
-12.05895657271187
 31
0.0
  0
LINE
  5
32C
  8
0
  6
DIVIDE
 62
     9
 10
-112.6231718022536
 20
55.9160386308515
 30
0.0
 11
-112.1231820610519
 21
56.41602837205321
 31
0.0
  0
LINE
  5
32D
  8
0
  6
DIVIDE
 62
     9
 10
-112.1231761874813
 20
56.41603617936332
 30
0.0
 11
-111.1535106601375
 21
56.41603617936332
 31
0.0
  0
LINE
  5
32E
  8
0
  6
DIVIDE
 62
     9
 10
-112.6231761874813
 20
55.91604380875786
 30
0.0
 11
-112.6231761874813
 21
35.23413615494926
 31
0.0
  0
LINE
  5
32F
  8
0
  6
DIVIDE
 62
     9
 10
-92.62317618748125
 20
55.91604380875786
 30
0.0
 11
-92.62317618748125
 21
35.23413615494926
 31
0.0
  0
LINE
  5
330
  8
0
  6
DIVIDE
 62
     9
 10
-56.62317618748124
 20
55.91604380875786
 30
0.0
 11
-56.62317618748124
 21
35.23413615494926
 31
0.0
  0
LINE
  5
331
  8
0
  6
DIVIDE
 62
     9
 10
-92.62319372883576
 20
55.9160386308515
 30
0.0
 11
-92.12318240844797
 21
56.41604995123928
 31
0.0
  0
LINE
  5
332
  8
0
  6
DIVIDE
 62
     9
 10
-60.89783439060624
 20
56.41603617936332
 30
0.0
 11
-57.12317618748124
 21
56.41603617936332
 31
0.0
  0
LINE
  5
333
  8
0
  6
DIVIDE
 62
     9
 10
-57.12318773683801
 20
56.41602904640278
 30
0.0
 11
-56.6231979956363
 21
55.91603930520106
 31
0.0
  0
LINE
  5
334
  8
LAYER0014
  6
CONTINUOUS
 62
     7
 10
-51.48731192966874
 20
112.5323310402032
 30
0.0
 11
-58.34786567112382
 21
112.5323310402032
 31
0.0
  0
LINE
  5
335
  8
LAYER0014
  6
CONTINUOUS
 62
     7
 10
-113.4873119296688
 20
-59.68387837141793
 30
0.0
 11
-129.0294032992977
 21
-59.68387837141793
 31
0.0
  0
INSERT
  5
336
  8
LAYER0014
  6
CONTINUOUS
  2
DA_IMAGEDIMGROUP_1
 10
0.0
 20
0.0
 30
0.0
  0
INSERT
  5
337
  8
LAYER0014
  6
CONTINUOUS
  2
DA_IMAGEDIMGROUP_2
 10
0.0
 20
0.0
 30
0.0
  0
INSERT
  5
338
  8
LAYER0014
  6
CONTINUOUS
  2
DA_IMAGEDIMGROUP_3
 10
0.0
 20
0.0
 30
0.0
  0
INSERT
  5
339
  8
LAYER0014
  6
CONTINUOUS
  2
DA_IMAGEDIMGROUP_4
 10
0.0
 20
0.0
 30
0.0
  0
INSERT
  5
33A
  8
LAYER0014
  6
CONTINUOUS
  2
DA_IMAGEDIMGROUP_5
 10
0.0
 20
0.0
 30
0.0
  0
INSERT
  5
33B
  8
LAYER0014
  6
CONTINUOUS
  2
DA_IMAGEDIMGROUP_6
 10
0.0
 20
0.0
 30
0.0
  0
INSERT
  5
33C
  8
LAYER0014
  6
CONTINUOUS
  2
DA_IMAGEDIMGROUP_7
 10
0.0
 20
0.0
 30
0.0
  0
INSERT
  5
33D
  8
LAYER0014
  6
CONTINUOUS
  2
DA_IMAGEDIMGROUP_8
 10
0.0
 20
0.0
 30
0.0
  0
INSERT
  5
33E
  8
LAYER0014
  6
CONTINUOUS
  2
DA_IMAGEDIMGROUP_9
 10
0.0
 20
0.0
 30
0.0
  0
INSERT
  5
33F
  8
LAYER0014
  6
CONTINUOUS
  2
DA_IMAGEDIMGROUP_10
 10
0.0
 20
0.0
 30
0.0
  0
INSERT
  5
340
  8
LAYER0014
  6
CONTINUOUS
  2
DC_GROUP_1
 10
0.0
 20
0.0
 30
0.0
  0
INSERT
  5
341
  8
LAYER0014
  6
CONTINUOUS
  2
DA_IMAGEDIMGROUP_11
 10
0.0
 20
0.0
 30
0.0
  0
INSERT
  5
342
  8
LAYER0014
  6
CONTINUOUS
  2
DA_IMAGEDIMGROUP_12
 10
0.0
 20
0.0
 30
0.0
  0
INSERT
  5
343
  8
LAYER0014
  6
CONTINUOUS
  2
DA_IMAGEDIMGROUP_13
 10
0.0
 20
0.0
 30
0.0
  0
INSERT
  5
344
  8
LAYER0014
  6
CONTINUOUS
  2
DA_IMAGEDIMGROUP_14
 10
0.0
 20
0.0
 30
0.0
  0
INSERT
  5
345
  8
LAYER0014
  6
CONTINUOUS
  2
DC_GROUP_2
 10
0.0
 20
0.0
 30
0.0
  0
INSERT
  5
346
  8
LAYER0014
  6
CONTINUOUS
  2
DA_IMAGEDIMGROUP_15
 10
0.0
 20
0.0
 30
0.0
  0
INSERT
  5
347
  8
LAYER0014
  6
CONTINUOUS
  2
DA_IMAGEDIMGROUP_16
 10
0.0
 20
0.0
 30
0.0
  0
INSERT
  5
348
  8
LAYER0014
  6
CONTINUOUS
  2
DC_GROUP_3
 10
0.0
 20
0.0
 30
0.0
  0
INSERT
  5
349
  8
LAYER0014
  6
CONTINUOUS
  2
DA_IMAGEDIMGROUP_19
 10
0.0
 20
0.0
 30
0.0
  0
INSERT
  5
34A
  8
LAYER0014
  6
CONTINUOUS
  2
DA_IMAGEDIMGROUP_20
 10
0.0
 20
0.0
 30
0.0
  0
INSERT
  5
34B
  8
LAYER0014
  6
CONTINUOUS
  2
DC_GROUP_5
 10
0.0
 20
0.0
 30
0.0
  0
INSERT
  5
34C
  8
LAYER0014
  6
CONTINUOUS
  2
DC_GROUP_6
 10
0.0
 20
0.0
 30
0.0
  0
INSERT
  5
34D
  8
LAYER0014
  6
CONTINUOUS
  2
DA_IMAGEDIMGROUP_23
 10
0.0
 20
0.0
 30
0.0
  0
INSERT
  5
34E
  8
LAYER0014
  6
CONTINUOUS
  2
DC_GROUP_7
 10
0.0
 20
0.0
 30
0.0
  0
INSERT
  5
34F
  8
LAYER0014
  6
CONTINUOUS
  2
DC_GROUP_8
 10
0.0
 20
0.0
 30
0.0
  0
INSERT
  5
350
  8
LAYER0014
  6
CONTINUOUS
  2
DC_GROUP_9
 10
0.0
 20
0.0
 30
0.0
  0
INSERT
  5
351
  8
LAYER0014
  6
CONTINUOUS
  2
DA_IMAGEDIMGROUP_24
 10
0.0
 20
0.0
 30
0.0
  0
INSERT
  5
352
  8
LAYER0014
  6
CONTINUOUS
  2
DA_IMAGEDIMGROUP_26
 10
0.0
 20
0.0
 30
0.0
  0
INSERT
  5
353
  8
0
  6
CONTINUOUS
  2
DA_IMAGEDIMGROUP_17
 10
0.0
 20
0.0
 30
0.0
  0
INSERT
  5
354
  8
0
  6
CONTINUOUS
  2
DA_IMAGEDIMGROUP_18
 10
0.0
 20
0.0
 30
0.0
  0
INSERT
  5
355
  8
0
  6
CONTINUOUS
  2
DC_GROUP_4
 10
0.0
 20
0.0
 30
0.0
  0
INSERT
  5
356
  8
0
  6
CONTINUOUS
  2
DA_IMAGEDIMGROUP_21
 10
0.0
 20
0.0
 30
0.0
  0
INSERT
  5
357
  8
0
  6
CONTINUOUS
  2
DA_IMAGEDIMGROUP_22
 10
0.0
 20
0.0
 30
0.0
  0
INSERT
  5
358
  8
0
  6
CONTINUOUS
  2
DA_IMAGEDIMGROUP_25
 10
0.0
 20
0.0
 30
0.0
  0
INSERT
  5
359
  8
0
  6
CONTINUOUS
  2
DC_GROUP_10
 10
0.0
 20
0.0
 30
0.0
  0
INSERT
  5
35A
  8
0
  6
CONTINUOUS
  2
DA_IMAGEDIMGROUP_27
 10
0.0
 20
0.0
 30
0.0
  0
LINE
  5
35B
  8
0
  6
CONTINUOUS
 62
     6
 10
-164.1633840739921
 20
-100.2779111422103
 30
0.0
 11
-46.88164197804485
 21
-100.2779111422103
 31
0.0
  0
LINE
  5
35C
  8
0
  6
CONTINUOUS
 62
     6
 10
-164.1633840739921
 20
-94.57791419396814
 30
0.0
 11
-46.88164197804485
 21
-94.57791419396814
 31
0.0
  0
LINE
  5
35D
  8
0
  6
CONTINUOUS
 62
     6
 10
-164.1633840739921
 20
-88.87790961633142
 30
0.0
 11
-46.88164197804485
 21
-88.87790961633142
 31
0.0
  0
LINE
  5
35E
  8
0
  6
CONTINUOUS
 62
     6
 10
-164.1633840739921
 20
-83.17791266808924
 30
0.0
 11
-46.88164197804485
 21
-83.17791266808924
 31
0.0
  0
LINE
  5
35F
  8
0
  6
CONTINUOUS
 62
     6
 10
-164.1633840739921
 20
-77.47790809045252
 30
0.0
 11
-146.4746633708671
 21
-77.47790809045252
 31
0.0
  0
LINE
  5
360
  8
0
  6
CONTINUOUS
 62
     6
 10
-164.1633840739921
 20
-105.9779080904525
 30
0.0
 11
-46.88164197804485
 21
-105.9779080904525
 31
0.0
  0
LINE
  5
361
  8
0
  6
CONTINUOUS
 62
     6
 10
-164.1633840739921
 20
-111.6779126680892
 30
0.0
 11
-46.88164197804485
 21
-111.6779126680892
 31
0.0
  0
LINE
  5
362
  8
0
  6
CONTINUOUS
 62
     6
 10
-164.1633840739921
 20
-117.3779096163314
 30
0.0
 11
-46.88164197804485
 21
-117.3779096163314
 31
0.0
  0
LINE
  5
363
  8
0
  6
CONTINUOUS
 62
     6
 10
-164.1633840739921
 20
-128.7779111422103
 30
0.0
 11
-46.88164197804485
 21
-128.7779111422103
 31
0.0
  0
LINE
  5
364
  8
0
  6
CONTINUOUS
 62
     6
 10
-164.1633840739921
 20
-123.0779141939681
 30
0.0
 11
-46.88164197804485
 21
-123.0779141939681
 31
0.0
  0
LINE
  5
365
  8
0
  6
DASHED2
 62
     7
 10
57.01268807033126
 20
89.41603617936332
 30
0.0
 11
57.01268807033126
 21
71.41605143815238
 31
0.0
  0
LINE
  5
366
  8
0
  6
DASHED2
 62
     7
 10
57.01268807033126
 20
85.91603617936332
 30
0.0
 11
64.1882862148625
 21
85.91603617936332
 31
0.0
  0
LINE
  5
367
  8
0
  6
DASHED2
 62
     7
 10
57.01268807033126
 20
74.91603617936332
 30
0.0
 11
64.69811287501875
 21
74.91603617936332
 31
0.0
  0
LINE
  5
368
  8
0
  6
DASHED2
 62
     7
 10
37.27750435451095
 20
71.41603617936332
 30
0.0
 11
57.01268807033126
 21
71.41603617936332
 31
0.0
  0
LINE
  5
369
  8
0
  6
DASHED2
 62
     7
 10
47.51268807033126
 20
82.81604533463676
 30
0.0
 11
47.51268807033126
 21
78.01604228287894
 31
0.0
  0
LINE
  5
36A
  8
0
  6
DASHED2
 62
     7
 10
54.63578835109298
 20
76.46605448991019
 30
0.0
 11
56.32203713038985
 21
76.46605448991019
 31
0.0
  0
LINE
  5
36B
  8
0
  6
DASHED2
 62
     7
 10
54.63578835109298
 20
84.36604838639457
 30
0.0
 11
56.32203713038985
 21
84.36604838639457
 31
0.0
  0
LINE
  5
36C
  8
0
  6
DASHED2
 62
     7
 10
49.81269112208907
 20
83.71603923112113
 30
0.0
 11
49.81269112208907
 21
77.11604838639457
 31
0.0
  0
LINE
  5
36D
  8
0
  6
DASHED2
 62
     7
 10
54.01268807033126
 20
83.80862956315238
 30
0.0
 11
54.01268807033126
 21
77.02342753678519
 31
0.0
  0
LINE
  5
36E
  8
0
  6
DASHED2
 62
     7
 10
54.77661934474532
 20
82.41603617936332
 30
0.0
 11
56.2487567959172
 21
82.41603617936332
 31
0.0
  0
LINE
  5
36F
  8
0
  6
DASHED2
 62
     7
 10
54.77661934474532
 20
78.41603617936332
 30
0.0
 11
56.2487567959172
 21
78.41603617936332
 31
0.0
  0
LINE
  5
370
  8
0
  6
DASHED2
 62
     7
 10
49.81271003629946
 20
77.11611399642985
 30
0.0
 11
47.51270964088827
 21
78.01611394953866
 31
0.0
  0
LINE
  5
371
  8
0
  6
DASHED2
 62
     7
 10
47.51267137115384
 20
82.8160694864832
 30
0.0
 11
49.81267176656503
 21
83.71606943959202
 31
0.0
  0
LINE
  5
372
  8
0
  6
DASHED2
 62
     7
 10
50.81269112208907
 20
83.02911906510551
 30
0.0
 11
50.81269112208907
 21
77.73708110123832
 31
0.0
  0
LINE
  5
373
  8
0
  6
DASHED2
 62
     7
 10
57.01268807033126
 20
77.91603617936332
 30
0.0
 11
61.50365486720626
 21
77.91603617936332
 31
0.0
  0
LINE
  5
374
  8
0
  6
DASHED2
 62
     7
 10
57.01268807033126
 20
82.91603617936332
 30
0.0
 11
61.50365486720626
 21
82.91603617936332
 31
0.0
  0
LINE
  5
375
  8
0
  6
DASHED2
 62
     7
 10
57.01268807033126
 20
77.41603617936332
 30
0.0
 11
61.50365486720626
 21
77.41603617936332
 31
0.0
  0
LINE
  5
376
  8
0
  6
DASHED2
 62
     7
 10
57.01268807033126
 20
83.41603617936332
 30
0.0
 11
61.50365486720626
 21
83.41603617936332
 31
0.0
  0
ARC
  5
377
  8
0
  6
DASHED2
 62
     7
 10
54.01268807033126
 20
80.41603617936332
 30
0.0
 40
3.0
 50
0.0
 51
41.81031315512688
  0
ARC
  5
378
  8
0
  6
DASHED2
 62
     7
 10
57.01268807033126
 20
80.41603617936332
 30
0.0
 40
3.0
 50
138.1896986840186
 51
221.8102840131373
  0
ARC
  5
379
  8
0
  6
DASHED2
 62
     7
 10
54.01268807033126
 20
80.41603617936332
 30
0.0
 40
3.0
 50
318.1896868448731
 51
360.0
  0
ARC
  5
37A
  8
0
  6
DASHED2
 62
     7
 10
49.81269112208907
 20
80.41603617936332
 30
0.0
 40
3.299999952316284
 50
72.3602944823007
 51
89.99998201391065
  0
ARC
  5
37B
  8
0
  6
DASHED2
 62
     7
 10
49.81269112208907
 20
80.41603617936332
 30
0.0
 40
3.299999952316284
 50
270.0000179860894
 51
287.6397055176993
  0
ARC
  5
37C
  8
0
  6
DASHED2
 62
     7
 10
52.21721687892501
 20
86.21202616959769
 30
0.0
 40
3.0
 50
242.1068914535913
 51
306.7619948916872
  0
ARC
  5
37D
  8
0
  6
DASHED2
 62
     7
 10
52.21721687892501
 20
74.62004618912894
 30
0.0
 40
3.0
 50
53.23800510831277
 51
117.8898300556071
  0
ARC
  5
37E
  8
0
  6
DASHED2
 62
     7
 10
54.94803658107345
 20
83.41603617936332
 30
0.0
 40
1.0
 50
200.7154669700721
 51
270.0000179860894
  0
ARC
  5
37F
  8
0
  6
DASHED2
 62
     7
 10
54.94803658107345
 20
83.41603617936332
 30
0.0
 40
1.0
 50
108.1948751325834
 51
159.2845330299279
  0
ARC
  5
380
  8
0
  6
DASHED2
 62
     7
 10
54.94803658107345
 20
77.41603617936332
 30
0.0
 40
1.0
 50
89.99998201391065
 51
159.2845330299279
  0
ARC
  5
381
  8
0
  6
DASHED2
 62
     7
 10
54.94803658107345
 20
77.41603617936332
 30
0.0
 40
1.0
 50
200.7154669700721
 51
251.8051248674166
  0
ARC
  5
382
  8
0
  6
DASHED2
 62
     7
 10
56.00978890040938
 20
83.41603617936332
 30
0.0
 40
1.0
 50
0.0
 51
71.80513670656207
  0
ARC
  5
383
  8
0
  6
DASHED2
 62
     7
 10
56.00978890040938
 20
77.41603617936332
 30
0.0
 40
1.0
 50
0.0
 51
89.99998201391065
  0
ARC
  5
384
  8
0
  6
DASHED2
 62
     7
 10
56.00978890040938
 20
83.41603617936332
 30
0.0
 40
1.0
 50
270.0000179860894
 51
360.0
  0
ARC
  5
385
  8
0
  6
DASHED2
 62
     7
 10
56.00978890040938
 20
77.41603617936332
 30
0.0
 40
1.0
 50
288.194863293438
 51
360.0
  0
ARC
  5
386
  8
0
  6
DASHED2
 62
     7
 10
47.9905780849797
 20
80.41603617936332
 30
0.0
 40
1.200000047683716
 50
113.46797241713
 51
246.5320171102151
  0
LINE
  5
387
  8
0
  6
CONTINUOUS
 62
     2
 10
90.01268727540105
 20
89.91603371296921
 30
0.0
 11
86.98159758209317
 21
88.16603506897488
 31
0.0
  0
LINE
  5
388
  8
0
  6
CONTINUOUS
 62
     2
 10
93.04377677810408
 20
88.16602643303642
 30
0.0
 11
90.01268875372625
 21
89.91602789335022
 31
0.0
  0
LINE
  5
389
  8
0
  6
CONTINUOUS
 62
     2
 10
86.98160591701094
 20
88.16603617936332
 30
0.0
 11
86.98160591701094
 21
84.66603617936332
 31
0.0
  0
LINE
  5
38A
  8
0
  6
CONTINUOUS
 62
     2
 10
86.98158700322733
 20
84.66603079178864
 30
0.0
 11
90.01267565345393
 21
82.91603037455613
 31
0.0
  0
LINE
  5
38B
  8
0
  6
CONTINUOUS
 62
     2
 10
90.01268906718838
 20
82.91603342709911
 30
0.0
 11
93.04377813464748
 21
84.66603311417472
 31
0.0
  0
LINE
  5
38C
  8
0
  6
CONTINUOUS
 62
     2
 10
93.04377022365156
 20
84.66603617936332
 30
0.0
 11
93.04377022365156
 21
88.16603617936332
 31
0.0
  0
LINE
  5
38D
  8
0
  6
CONTINUOUS
 62
     2
 10
90.01266707548376
 20
72.91602503383714
 30
0.0
 11
86.98158398942707
 21
71.16603020453712
 31
0.0
  0
LINE
  5
38E
  8
0
  6
CONTINUOUS
 62
     2
 10
93.04377733208321
 20
71.16602670459835
 30
0.0
 11
90.01268930770539
 21
72.91602816491215
 31
0.0
  0
LINE
  5
38F
  8
0
  6
CONTINUOUS
 62
     2
 10
86.98160591701094
 20
71.16603617936332
 30
0.0
 11
86.98160591701094
 21
67.66603617936332
 31
0.0
  0
LINE
  5
390
  8
0
  6
CONTINUOUS
 62
     2
 10
86.98159727944972
 20
67.666037571224
 30
0.0
 11
90.01268592967631
 21
65.91603715399148
 31
0.0
  0
LINE
  5
391
  8
0
  6
CONTINUOUS
 62
     2
 10
90.01268941983008
 20
65.91602999901576
 30
0.0
 11
93.04377848728919
 21
67.66602968609138
 31
0.0
  0
LINE
  5
392
  8
0
  6
CONTINUOUS
 62
     2
 10
93.04377022365156
 20
67.66603617936332
 30
0.0
 11
93.04377022365156
 21
71.16603617936332
 31
0.0
  0
LINE
  5
393
  8
0
  6
CONTINUOUS
 62
     2
 10
54.26748460860043
 20
17.47852825875518
 30
0.0
 11
50.19715879824006
 21
15.12853031213943
 31
0.0
  0
LINE
  5
394
  8
0
  6
CONTINUOUS
 62
     2
 10
50.19716683009688
 20
15.12853198319633
 30
0.0
 11
50.19716683009688
 21
10.42853312760551
 31
0.0
  0
LINE
  5
395
  8
0
  6
CONTINUOUS
 62
     2
 10
50.19716163373892
 20
10.42852875958895
 30
0.0
 11
54.26747635457947
 21
8.078526923768074
 31
0.0
  0
LINE
  5
396
  8
0
  6
CONTINUOUS
 62
     2
 10
54.26749228191626
 20
8.078521864933897
 30
0.0
 11
58.33781148502317
 21
10.42851613693026
 31
0.0
  0
LINE
  5
397
  8
0
  6
CONTINUOUS
 62
     2
 10
58.33780708888595
 20
10.42852549821098
 30
0.0
 11
58.33780708888595
 21
15.1285243538018
 31
0.0
  0
LINE
  5
398
  8
0
  6
CONTINUOUS
 62
     2
 10
58.33780816025342
 20
15.12852182045251
 30
0.0
 11
54.26749455997948
 21
17.47852589740658
 31
0.0
  0
LINE
  5
399
  8
0
  6
CONTINUOUS
 62
     2
 10
90.01268470699426
 20
0.9160303586938667
 30
0.0
 11
86.98159501368639
 21
-0.8339682853004646
 31
0.0
  0
LINE
  5
39A
  8
0
  6
CONTINUOUS
 62
     2
 10
93.04378367126651
 20
-0.8339692684144424
 30
0.0
 11
90.01269564688869
 21
0.9160321918993546
 31
0.0
  0
LINE
  5
39B
  8
0
  6
CONTINUOUS
 62
     2
 10
86.98160591701094
 20
-0.8339676353339414
 30
0.0
 11
86.98160591701094
 21
-4.333967635333941
 31
0.0
  0
LINE
  5
39C
  8
0
  6
CONTINUOUS
 62
     2
 10
86.98159876925706
 20
-4.33397241129753
 30
0.0
 11
90.01268741948366
 21
-6.083972828530044
 31
0.0
  0
LINE
  5
39D
  8
0
  6
CONTINUOUS
 62
     2
 10
90.0126880680275
 20
-6.083964332852496
 30
0.0
 11
93.04377713548661
 21
-4.333964645776881
 31
0.0
  0
LINE
  5
39E
  8
0
  6
CONTINUOUS
 62
     2
 10
93.04377022365156
 20
-4.333967635333941
 30
0.0
 11
93.04377022365156
 21
-0.8339695426825742
 31
0.0
  0
LINE
  5
39F
  8
0
  6
CONTINUOUS
 62
     2
 10
90.01268528250409
 20
-16.08396852816806
 30
0.0
 11
86.98159558919622
 21
-17.8339671721624
 31
0.0
  0
LINE
  5
3A0
  8
0
  6
CONTINUOUS
 62
     2
 10
93.04377571064788
 20
-17.83396848577583
 30
0.0
 11
90.01268768627006
 21
-16.08396702546204
 31
0.0
  0
LINE
  5
3A1
  8
0
  6
CONTINUOUS
 62
     2
 10
86.98160591701094
 20
-17.83396763533394
 30
0.0
 11
86.98160591701094
 21
-21.33396763533394
 31
0.0
  0
LINE
  5
3A2
  8
0
  6
CONTINUOUS
 62
     2
 10
86.98160332343218
 20
-21.33397554273554
 30
0.0
 11
90.01269197365878
 21
-23.08397595996805
 31
0.0
  0
LINE
  5
3A3
  8
0
  6
CONTINUOUS
 62
     2
 10
90.01268794383213
 20
-23.08396693502962
 30
0.0
 11
93.04377701129124
 21
-21.333967247954
 31
0.0
  0
LINE
  5
3A4
  8
0
  6
CONTINUOUS
 62
     2
 10
93.04377022365156
 20
-21.33396763533394
 30
0.0
 11
93.04377022365156
 21
-17.83396763533394
 31
0.0
  0
CIRCLE
  5
3A5
  8
0
  6
CONTINUOUS
 62
     2
 10
90.01268807033125
 20
86.41603617936332
 30
0.0
 40
6.5
  0
CIRCLE
  5
3A6
  8
0
  6
CONTINUOUS
 62
     2
 10
90.01268807033125
 20
69.41603617936332
 30
0.0
 40
6.5
  0
CIRCLE
  5
3A7
  8
0
  6
CONTINUOUS
 62
     2
 10
54.26748695949141
 20
12.77852969437797
 30
0.0
 40
8.0
  0
CIRCLE
  5
3A8
  8
0
  6
CONTINUOUS
 62
     2
 10
90.01268807033125
 20
-2.583967635333941
 30
0.0
 40
6.5
  0
CIRCLE
  5
3A9
  8
0
  6
CONTINUOUS
 62
     2
 10
90.01268807033125
 20
-19.58396763533394
 30
0.0
 40
6.5
  0
TEXT
  5
3AA
  8
0
 62
     5
 10
38.51268807033126
 20
62.84460072785576
 30
0.0
 40
4.0
  1
NIKKO
 50
-90.0
 41
0.7674421177096609
  7
FDASTYLE1
 72
     5
 11
38.51268807033126
 21
43.98745541840751
 31
0.0
  0
TEXT
  5
3AB
  8
0
 62
     5
 10
39.01268807033126
 20
30.48747294217308
 30
0.0
 40
3.0
  1
   MO2-5
 50
-90.0
 41
0.7714288207463406
  7
FDASTYLE1
 72
     5
 11
39.01268807033126
 21
7.344613423645093
 31
0.0
  0
TEXT
  5
3AC
  8
0
 62
     5
 10
33.89455452540938
 20
28.83075188666542
 30
0.0
 40
2.5
  1
   0001
 50
-90.0
 41
0.7704919721900592
  7
FDASTYLE1
 72
     5
 11
33.89455452540938
 21
12.0450379756089
 31
0.0
  0
TEXT
  5
3AD
  8
0
 62
     5
 10
138.7626880703313
 20
7.98562931090553
 30
0.0
 40
2.5
  1
F MAX   4KN
 50
90.00000000000001
 41
0.7987440679136729
  7
FDASTYLE1
 72
     5
 11
138.7626880703313
 21
35.89593528777321
 31
0.0
  0
TEXT
  5
3AE
  8
0
 62
     5
 10
142.7626880703313
 20
7.985640754997327
 30
0.0
 40
2.5
  1
ΣS MAX  9KN
 50
90.00000000000001
 41
0.8043671516246868
  7
FDASTYLE1
 72
     5
 11
142.7626880703313
 21
35.895946731865
 31
0.0
  0
TEXT
  5
3AF
  8
0
 62
     5
 10
146.7626880703313
 20
7.985631218254163
 30
0.0
 40
2.5
  1
N MAX  4000 AT ΣS MAX
 50
90.00000000000001
 41
0.8036782166768081
  7
FDASTYLE1
 72
     5
 11
146.7626880703313
 21
61.94555532008369
 31
0.0
  0
VIEWPORT
  5
48
 67
     1
  8
0
 10
0.0
 20
0.0
 30
0.0
 40
1152.0
 41
830.9999999999997
 68
     1
 69
     1
1001
ACAD
1000
MVIEW
1002
{
1070
    16
1010
0.0
1020
0.0
1030
0.0
1020
0.0
1030
0.0
1010
0.0
1020
0.0
1030
1.0
1020
0.0
1030
1.0
1040
0.0
1040
830.9999999999997
1040
0.0
1040
0.0
1040
50.0
1040
0.0
1040
0.0
1070
     0
1070
   100
1070
     0
1070
     1
1070
     0
1070
     0
1070
     0
1070
     0
1040
0.0
1040
0.0
1040
0.0
1040
0.5
1040
0.5
1040
0.0
1040
0.0
1070
     0
1002
{
1002
}
1002
}
  0
ENDSEC
  0
EOF
