  0
SECTION
  2
HEADER
  9
$ACADVER
  1
AC1009
  9
$DWGCODEPAGE
  3
ansi_932
  9
$INSBASE
 10
0.0
 20
0.0
 30
0.0
  9
$EXTMIN
 10
-474.4276062545233
 20
-570.0
 30
0.0
  9
$EXTMAX
 10
1187.572393745477
 20
570.0
 30
0.0
  9
$LIMMIN
 10
-467.2222222222222
 20
-330.0
  9
$LIMMAX
 10
467.2222222222222
 20
330.0
  9
$ORTHOMODE
 70
     0
  9
$REGENMODE
 70
     1
  9
$FILLMODE
 70
     1
  9
$QTEXTMODE
 70
     0
  9
$MIRRTEXT
 70
     1
  9
$DRAGMODE
 70
     2
  9
$LTSCALE
 40
1.111111111111111
  9
$OSMODE
 70
    37
  9
$ATTMODE
 70
     1
  9
$TEXTSIZE
 40
0.2
  9
$TRACEWID
 40
0.05
  9
$TEXTSTYLE
  7
STANDARD
  9
$CLAYER
  8
0
  9
$CELTYPE
  6
BYLAYER
  9
$CECOLOR
 62
   256
  9
$DIMSCALE
 40
1.0
  9
$DIMASZ
 40
2.777777777777778
  9
$DIMEXO
 40
0.0625
  9
$DIMDLI
 40
0.38
  9
$DIMRND
 40
0.0
  9
$DIMDLE
 40
0.0
  9
$DIMEXE
 40
0.18
  9
$DIMTP
 40
0.0
  9
$DIMTM
 40
0.0
  9
$DIMTXT
 40
0.18
  9
$DIMCEN
 40
0.09
  9
$DIMTSZ
 40
0.0
  9
$DIMTOL
 70
     0
  9
$DIMLIM
 70
     0
  9
$DIMTIH
 70
     1
  9
$DIMTOH
 70
     1
  9
$DIMSE1
 70
     0
  9
$DIMSE2
 70
     0
  9
$DIMTAD
 70
     3
  9
$DIMZIN
 70
     0
  9
$DIMBLK
  1

  9
$DIMASO
 70
     1
  9
$DIMSHO
 70
     1
  9
$DIMPOST
  1

  9
$DIMAPOST
  1

  9
$DIMALT
 70
     0
  9
$DIMALTD
 70
     2
  9
$DIMALTF
 40
25.4
  9
$DIMLFAC
 40
1.0
  9
$DIMTOFL
 70
     0
  9
$DIMTVP
 40
0.0
  9
$DIMTIX
 70
     0
  9
$DIMSOXD
 70
     0
  9
$DIMSAH
 70
     0
  9
$DIMBLK1
  1

  9
$DIMBLK2
  1

  9
$DIMSTYLE
  2
STANDARD
  9
$DIMCLRD
 70
     0
  9
$DIMCLRE
 70
     0
  9
$DIMCLRT
 70
     0
  9
$DIMTFAC
 40
1.0
  9
$DIMGAP
 40
0.09
  9
$LUNITS
 70
     2
  9
$LUPREC
 70
     4
  9
$SKETCHINC
 40
0.1
  9
$FILLETRAD
 40
0.5
  9
$AUNITS
 70
     0
  9
$AUPREC
 70
     0
  9
$MENU
  1
.
  9
$ELEVATION
 40
0.0
  9
$PELEVATION
 40
0.0
  9
$THICKNESS
 40
0.0
  9
$LIMCHECK
 70
     0
  9
$CHAMFERA
 40
0.5
  9
$CHAMFERB
 40
0.5
  9
$SKPOLY
 70
     0
  9
$TDCREATE
 40
2455483.588056644
  9
$TDUPDATE
 40
2455483.588056655
  9
$TDINDWG
 40
0.0000000116
  9
$TDUSRTIMER
 40
0.0000000116
  9
$USRTIMER
 70
     1
  9
$ANGBASE
 50
0.0
  9
$ANGDIR
 70
     0
  9
$PDMODE
 70
     0
  9
$PDSIZE
 40
1.0
  9
$PLINEWID
 40
0.0
  9
$COORDS
 70
     1
  9
$SPLFRAME
 70
     0
  9
$SPLINETYPE
 70
     6
  9
$SPLINESEGS
 70
     8
  9
$ATTDIA
 70
     0
  9
$ATTREQ
 70
     1
  9
$HANDLING
 70
     1
  9
$HANDSEED
  5
601
  9
$SURFTAB1
 70
     6
  9
$SURFTAB2
 70
     6
  9
$SURFTYPE
 70
     6
  9
$SURFU
 70
     6
  9
$SURFV
 70
     6
  9
$UCSNAME
  2

  9
$UCSORG
 10
0.0
 20
0.0
 30
0.0
  9
$UCSXDIR
 10
1.0
 20
0.0
 30
0.0
  9
$UCSYDIR
 10
0.0
 20
1.0
 30
0.0
  9
$PUCSNAME
  2

  9
$PUCSORG
 10
0.0
 20
0.0
 30
0.0
  9
$PUCSXDIR
 10
1.0
 20
0.0
 30
0.0
  9
$PUCSYDIR
 10
0.0
 20
1.0
 30
0.0
  9
$USERI1
 70
     0
  9
$USERI2
 70
     0
  9
$USERI3
 70
     0
  9
$USERI4
 70
     0
  9
$USERI5
 70
     0
  9
$USERR1
 40
0.0
  9
$USERR2
 40
0.0
  9
$USERR3
 40
0.0
  9
$USERR4
 40
0.0
  9
$USERR5
 40
0.0
  9
$WORLDVIEW
 70
     1
  9
$SHADEDGE
 70
     3
  9
$SHADEDIF
 70
    70
  9
$TILEMODE
 70
     1
  9
$MAXACTVP
 70
    64
  9
$PLIMCHECK
 70
     0
  9
$PEXTMIN
 10
1.000000000000000E+20
 20
1.000000000000000E+20
 30
1.000000000000000E+20
  9
$PEXTMAX
 10
-1.000000000000000E+20
 20
-1.000000000000000E+20
 30
-1.000000000000000E+20
  9
$PLIMMIN
 10
0.0
 20
0.0
  9
$PLIMMAX
 10
12.0
 20
9.0
  9
$UNITMODE
 70
     0
  9
$VISRETAIN
 70
     0
  9
$PLINEGEN
 70
     1
  9
$PSLTSCALE
 70
     0
  0
ENDSEC
  0
SECTION
  2
TABLES
  0
TABLE
  2
VPORT
 70
     1
  0
VPORT
  2
*ACTIVE
 70
     0
 10
0.0
 20
0.0
 11
1.0
 21
1.0
 12
0.0
 22
0.0
 13
0.0
 23
0.0
 14
0.5
 24
0.5
 15
0.5
 25
0.5
 16
0.0
 26
0.0
 36
1.0
 17
356.5723937454767
 27
0.0
 37
0.0
 40
387.6
 41
1.457894736842105
 42
50.0
 43
0.0
 44
0.0
 50
0.0
 51
0.0
 71
     0
 72
  1000
 73
     1
 74
     1
 75
     0
 76
     0
 77
     0
 78
     0
  0
ENDTAB
  0
TABLE
  2
LTYPE
 70
    28
  0
LTYPE
  2
CONTINUOUS
 70
     0
  3
Solid line
 72
    65
 73
     0
 40
0.0
  0
LTYPE
  2
HIDDENX2
 70
     0
  3
CADPAC LINETYPE
 72
    65
 73
     2
 40
13.12707182320435
 49
9.84530386740326
 49
-3.281767955801087
  0
LTYPE
  2
HIDDEN
 70
     0
  3
CADPAC LINETYPE
 72
    65
 73
     2
 40
9.84530386740326
 49
6.563535911602173
 49
-3.281767955801087
  0
LTYPE
  2
HIDDEN2
 70
     0
  3
CADPAC LINETYPE
 72
    65
 73
     2
 40
8.204419889502717
 49
4.92265193370163
 49
-3.281767955801087
  0
LTYPE
  2
DASHED
 70
     0
  3
CADPAC LINETYPE
 72
    65
 73
     2
 40
9.188950276243043
 49
6.563535911602173
 49
-2.625414364640869
  0
LTYPE
  2
DASHED2
 70
     0
  3
CADPAC LINETYPE
 72
    65
 73
     2
 40
5.907182320442007
 49
3.938121546961304
 49
-1.969060773480703
  0
LTYPE
  2
DASHEDX2
 70
     0
  3
CADPAC LINETYPE
 72
    65
 73
     2
 40
15.75248618784522
 49
13.12707182320435
 49
-2.625414364640869
  0
LTYPE
  2
DOTX2
 70
     0
  3
CADPAC LINETYPE
 72
    65
 73
     2
 40
5.743093922651966
 49
0.0
 49
-5.743093922651966
  0
LTYPE
  2
DOT
 70
     0
  3
CADPAC LINETYPE
 72
    65
 73
     2
 40
4.594475138121573
 49
0.0
 49
-4.594475138121573
  0
LTYPE
  2
DOT2
 70
     0
  3
CADPAC LINETYPE
 72
    65
 73
     2
 40
3.44585635359118
 49
0.0
 49
-3.44585635359118
  0
LTYPE
  2
CENTERX2
 70
     0
  3
CADPAC LINETYPE
 72
    65
 73
     4
 40
19.69060773480652
 49
8.204419889502717
 49
-4.102209944751358
 49
3.281767955801087
 49
-4.102209944751358
  0
LTYPE
  2
CENTER
 70
     0
  3
CADPAC LINETYPE
 72
    65
 73
     4
 40
15.096132596685
 49
6.563535911602173
 49
-3.281767955801087
 49
1.969060773480652
 49
-3.281767955801087
  0
LTYPE
  2
CENTER2
 70
     0
  3
CADPAC LINETYPE
 72
    65
 73
     4
 40
10.50165745856348
 49
4.92265193370163
 49
-2.461325966850815
 49
0.6563535911602174
 49
-2.461325966850815
  0
LTYPE
  2
DASHDOTX2
 70
     0
  3
CADPAC LINETYPE
 72
    65
 73
     4
 40
31.50497237569054
 49
15.75248618784532
 49
-5.250828729281738
 49
5.250828729281738
 49
-5.250828729281738
  0
LTYPE
  2
DASHDOT
 70
     0
  3
CADPAC LINETYPE
 72
    65
 73
     4
 40
15.75248618784532
 49
7.87624309392271
 49
-2.625414364640869
 49
2.625414364640869
 49
-2.625414364640869
  0
LTYPE
  2
DASHDOT2
 70
     0
  3
CADPAC LINETYPE
 72
    65
 73
     4
 40
10.10784530386742
 49
5.907182320442033
 49
-1.969060773480652
 49
0.262541436464087
 49
-1.969060773480652
  0
LTYPE
  2
DIVIDEX2
 70
     0
  3
CADPAC LINETYPE
 72
    65
 73
     6
 40
42.00662983425401
 49
15.75248618784532
 49
-5.250828729281738
 49
5.250828729281738
 49
-5.250828729281738
 49
5.250828729281738
 49
-5.250828729281738
  0
LTYPE
  2
DIVIDE
 70
     0
  3
CADPAC LINETYPE
 72
    65
 73
     6
 40
21.00331491712706
 49
7.87624309392271
 49
-2.625414364640869
 49
2.625414364640869
 49
-2.625414364640869
 49
2.625414364640869
 49
-2.625414364640869
  0
LTYPE
  2
DIVIDE2
 70
     0
  3
CADPAC LINETYPE
 72
    65
 73
     6
 40
15.75248618784529
 49
5.907182320442033
 49
-1.969060773480652
 49
1.969060773480652
 49
-1.969060773480652
 49
1.969060773480652
 49
-1.969060773480652
  0
LTYPE
  2
BORDERX2
 70
     0
  3
CADPAC LINETYPE
 72
    65
 73
     6
 40
28.71546961325951
 49
8.204419889502717
 49
-4.102209944751358
 49
8.204419889502717
 49
-4.102209944751358
 49
0.0
 49
-4.102209944751358
  0
LTYPE
  2
BORDER
 70
     0
  3
CADPAC LINETYPE
 72
    65
 73
     6
 40
22.97237569060761
 49
6.563535911602173
 49
-3.281767955801087
 49
6.563535911602173
 49
-3.281767955801087
 49
0.0
 49
-3.281767955801087
  0
LTYPE
  2
BORDER2
 70
     0
  3
CADPAC LINETYPE
 72
    65
 73
     6
 40
17.0651933701656
 49
5.250828729281738
 49
-3.281767955801036
 49
1.969060773480703
 49
-3.281767955801036
 49
0.0
 49
-3.281767955801087
  0
LTYPE
  2
PHANTOMX2
 70
     0
  3
CADPAC LINETYPE
 72
    65
 73
     6
 40
24.61325966850815
 49
8.204419889502717
 49
-3.281767955801087
 49
3.281767955801087
 49
-3.281767955801087
 49
3.281767955801087
 49
-3.281767955801087
  0
LTYPE
  2
PHANTOM
 70
     0
  3
CADPAC LINETYPE
 72
    65
 73
     6
 40
20.34696132596674
 49
6.563535911602173
 49
-3.281767955801087
 49
1.969060773480652
 49
-3.281767955801087
 49
1.969060773480652
 49
-3.281767955801087
  0
LTYPE
  2
PHANTOM2
 70
     0
  3
CADPAC LINETYPE
 72
    65
 73
     6
 40
17.39337016574576
 49
4.92265193370163
 49
-3.281767955801087
 49
1.312707182320435
 49
-3.281767955801087
 49
1.312707182320435
 49
-3.281767955801087
  0
LTYPE
  2
ACAD_ISO06W100
 70
     0
  3
CADPAC LINETYPE
 72
    65
 73
     8
 40
34.78674033149157
 49
15.75248618784532
 49
-3.281767955801036
 49
1.969060773480703
 49
-3.281767955801036
 49
1.969060773480703
 49
-3.281767955801036
 49
1.969060773480703
 49
-3.281767955801036
  0
LTYPE
  2
ACAD_ISO13W100
 70
     0
  3
CADPAC LINETYPE
 72
    65
 73
     8
 40
26.25414364640869
 49
6.563535911602173
 49
-3.281767955801087
 49
6.563535911602173
 49
-3.281767955801087
 49
0.0
 49
-3.281767955801087
 49
0.0
 49
-3.281767955801087
  0
LTYPE
  2
ACAD_ISO14W100
 70
     0
  3
CADPAC LINETYPE
 72
    65
 73
     8
 40
19.69060773480652
 49
6.563535911602173
 49
-3.281767955801087
 49
0.0
 49
-3.281767955801087
 49
0.0
 49
-3.281767955801087
 49
0.0
 49
-3.281767955801087
  0
ENDTAB
  0
TABLE
  2
LAYER
 70
     3
  0
LAYER
  2
0
 70
     0
 62
     7
  6
CONTINUOUS
  0
LAYER
  2
LAYER0001
 70
     0
 62
     7
  6
CONTINUOUS
  0
LAYER
  2
LAYER0002
 70
     0
 62
     7
  6
CONTINUOUS
  0
ENDTAB
  0
TABLE
  2
STYLE
 70
     5
  0
STYLE
  2
STANDARD
 70
     0
 40
0.0
 41
1.0
 50
0.0
 71
     0
 42
0.2
  3
txt
  4

  0
STYLE
  2
FDASTYLE1
 70
     0
 40
0.0
 41
0.5442179498218598
 50
0.0
 71
     0
 42
0.2
  3
txt.shx
  4
bigfont
  0
STYLE
  2
FDASTYLE0
 70
     4
 40
0.0
 41
0.8
 50
0.0
 71
     0
 42
0.2
  3
txt.shx
  4
bigfont
  0
STYLE
  2
FDASTYLE2
 70
     0
 40
0.0
 41
0.8123476848090979
 50
0.0
 71
     0
 42
0.2
  3
MSMINCHO.TTC
  4

  0
STYLE
  2
FDASTYLE3
 70
     0
 40
0.0
 41
0.6684336356141793
 50
0.0
 71
     0
 42
0.2
  3
MSGOTHIC.TTC
  4

  0
ENDTAB
  0
TABLE
  2
VIEW
 70
     0
  0
ENDTAB
  0
TABLE
  2
UCS
 70
     0
  0
ENDTAB
  0
TABLE
  2
APPID
 70
     2
  0
APPID
  2
ACAD
 70
     0
  0
APPID
  2
DAFUSIONOUT
 70
     0
  0
ENDTAB
  0
TABLE
  2
DIMSTYLE
 70
     1
  0
DIMSTYLE
  2
STANDARD
 70
     0
  3

  4

  5

  6

  7

 40
1.0
 41
0.18
 42
0.0625
 43
0.38
 44
0.18
 45
0.0
 46
0.0
 47
0.0
 48
0.0
140
0.18
141
0.09
142
0.0
143
25.4
144
1.0
145
0.0
146
1.0
147
0.09
 71
     0
 72
     0
 73
     1
 74
     1
 75
     0
 76
     0
 77
     0
 78
     0
170
     0
171
     2
172
     0
173
     0
174
     0
175
     0
176
     0
177
     0
178
     0
  0
ENDTAB
  0
ENDSEC
  0
SECTION
  2
BLOCKS
  0
BLOCK
  8
0
  2
$MODEL_SPACE
 70
     0
 10
0.0
 20
0.0
 30
0.0
  3
$MODEL_SPACE
  1

  0
ENDBLK
  5
21
  8
0
  0
BLOCK
 67
     1
  8
0
  2
$PAPER_SPACE
 70
     0
 10
0.0
 20
0.0
 30
0.0
  3
$PAPER_SPACE
  1

  0
ENDBLK
  5
1D
 67
     1
  8
0
  0
BLOCK
  8
0
  2
DC_GROUP_1
 70
     0
 10
0.0
 20
0.0
 30
0.0
  3
DC_GROUP_1
  1

  0
CIRCLE
  5
1A2
  8
0
  6
CONTINUOUS
 62
     3
 10
483.3131344862174
 20
41.03871413115984
 30
0.0
 40
21.0
  0
ENDBLK
  5
4E
  8
0
  0
BLOCK
  8
0
  2
DC_GROUP_2
 70
     0
 10
0.0
 20
0.0
 30
0.0
  3
DC_GROUP_2
  1

  0
ARC
  5
1A3
  8
0
  6
CENTER
 62
     7
 10
483.3131344862174
 20
41.03871413115984
 30
0.0
 40
24.0
 50
80.04087635492591
 51
99.60576881731981
  0
ENDBLK
  5
51
  8
0
  0
BLOCK
  8
0
  2
DC_GROUP_3
 70
     0
 10
0.0
 20
0.0
 30
0.0
  3
DC_GROUP_3
  1

  0
ARC
  5
1A4
  8
0
  6
CENTER
 62
     7
 10
483.3131344862174
 20
41.03871413115984
 30
0.0
 40
24.0
 50
320.0408764307163
 51
339.6057688931102
  0
ENDBLK
  5
54
  8
0
  0
BLOCK
  8
0
  2
DC_GROUP_4
 70
     0
 10
0.0
 20
0.0
 30
0.0
  3
DC_GROUP_4
  1

  0
ARC
  5
1A5
  8
0
  6
CENTER
 62
     7
 10
483.3131344862174
 20
41.03871413115984
 30
0.0
 40
24.0
 50
200.0408765065066
 51
219.6057621387114
  0
ENDBLK
  5
57
  8
0
  0
BLOCK
  8
0
  2
DC_GROUP_5
 70
     0
 10
0.0
 20
0.0
 30
0.0
  3
DC_GROUP_5
  1

  0
LINE
  5
1A6
  8
0
  6
CONTINUOUS
 62
     5
 10
542.2935217979677
 20
53.11779853208007
 30
0.0
 11
542.2935207517173
 21
48.61779281003418
 31
0.0
  0
LINE
  5
1A7
  8
0
  6
CONTINUOUS
 62
     5
 10
543.0435086206709
 20
52.3678316339585
 30
0.0
 11
542.2935132672093
 21
53.11782714650804
 31
0.0
  0
LINE
  5
1A8
  8
0
  6
CONTINUOUS
 62
     5
 10
541.5435482977894
 20
52.36775950789534
 30
0.0
 11
542.2935544734919
 21
53.11776577739091
 31
0.0
  0
LINE
  5
1A9
  8
0
  6
CONTINUOUS
 62
     5
 10
542.2935743110089
 20
48.61772979049677
 30
0.0
 11
543.0435804867115
 21
49.36773605999233
 31
0.0
  0
LINE
  5
1AA
  8
0
  6
CONTINUOUS
 62
     5
 10
542.2935256025845
 20
48.61782420274156
 30
0.0
 11
541.5435194595304
 21
49.36783050488573
 31
0.0
  0
LINE
  5
1AB
  8
0
  6
CONTINUOUS
 62
     5
 10
534.7934998627476
 20
53.86781243518136
 30
0.0
 11
549.7934998627476
 21
53.86780894768414
 31
0.0
  0
LINE
  5
1AC
  8
0
  6
CONTINUOUS
 62
     5
 10
544.1692835971576
 20
59.39486577078748
 30
0.0
 11
543.1948576156548
 21
59.24053205215947
 31
0.0
  0
LINE
  5
1AD
  8
0
  6
CONTINUOUS
 62
     5
 10
544.169309524557
 20
59.39487203923482
 30
0.0
 11
544.0149780165165
 21
60.36928289100533
 31
0.0
  0
LINE
  5
1AE
  8
0
  6
CONTINUOUS
 62
     5
 10
549.7935074921425
 20
53.86781013977526
 30
0.0
 11
549.7935092358913
 21
61.36781109344958
 31
0.0
  0
LINE
  5
1AF
  8
0
  6
CONTINUOUS
 62
     5
 10
534.7935006528202
 20
61.36780504420563
 30
0.0
 11
549.7935006528202
 21
61.36780155670841
 31
0.0
  0
LINE
  5
1B0
  8
0
  6
CONTINUOUS
 62
     5
 10
534.7934970017236
 20
53.86780790522902
 30
0.0
 11
534.7934996173462
 21
65.11780695155471
 31
0.0
  0
LINE
  5
1B1
  8
0
  6
CONTINUOUS
 62
     5
 10
534.7935010478576
 20
65.11780647471721
 30
0.0
 11
537.0435010478576
 21
65.11780595159263
 31
0.0
  0
LINE
  5
1B2
  8
0
  6
CONTINUOUS
 62
     5
 10
537.0435088925251
 20
63.9927973685219
 30
0.0
 11
537.0435091540855
 21
65.11778973912738
 31
0.0
  0
LINE
  5
1B3
  8
0
  6
CONTINUOUS
 62
     5
 10
537.0435007862952
 20
63.99280547475547
 30
0.0
 11
538.5435007862952
 21
63.99280512600575
 31
0.0
  0
LINE
  5
1B4
  8
0
  6
CONTINUOUS
 62
     5
 10
538.5434919416643
 20
62.86780655651922
 30
0.0
 11
538.5434922032267
 21
63.99280655651922
 31
0.0
  0
LINE
  5
1B5
  8
0
  6
CONTINUOUS
 62
     5
 10
538.5435157835198
 20
62.86779511242188
 30
0.0
 11
540.0435157835198
 21
62.86779476367216
 31
0.0
  0
LINE
  5
1B6
  8
0
  6
CONTINUOUS
 62
     5
 10
540.043486347706
 20
61.3678064461893
 30
0.0
 11
540.0434866964557
 21
62.86780620777072
 31
0.0
  0
LINE
  5
1B7
  8
0
  6
CONTINUOUS
 62
     5
 10
541.5435381471827
 20
63.71804905811644
 30
0.0
 11
542.2935443228854
 21
64.46805532761201
 31
0.0
  0
LINE
  5
1B8
  8
0
  6
CONTINUOUS
 62
     5
 10
539.3338792289312
 20
64.46806519996389
 30
0.0
 11
542.2935044898356
 21
64.46806451185157
 31
0.0
  0
LINE
  5
1B9
  8
0
  6
CONTINUOUS
 62
     5
 10
542.2935154825345
 20
64.46809208296904
 30
0.0
 11
541.5435201290729
 21
65.21808759551857
 31
0.0
  0
ARC
  5
1BA
  8
0
  6
CONTINUOUS
 62
     5
 10
542.3131268568229
 20
57.53869887237077
 30
0.0
 40
2.625001907348633
 50
45.000084464246
 51
339.9999367173825
  0
TEXT
  5
1BC
  8
0
 62
     5
 10
540.4136197072193
 20
49.91379956901796
 30
0.0
 40
2.5
  1
F
 50
89.99998667874186
 41
0.5442179498218598
  7
FDASTYLE1
 72
     5
 11
540.4136200235457
 21
51.27434444357257
 31
0.0
  0
TEXT
  5
1BD
  8
0
 62
     5
 10
547.9327281458288
 20
57.70777794243961
 30
0.0
 40
2.5
  1
N min
 50
89.99998667874186
 41
0.6995393319099823
  7
FDASTYLE1
 72
     5
 11
547.9327301788634
 21
66.45201959131416
 31
0.0
  0
TEXT
  5
1BE
  8
0
 62
     5
 10
546.1538848899096
 20
70.64527768546877
 30
0.0
 40
1.25
  1
-1
 50
89.99998667874186
 41
0.61490700121285
  7
FDASTYLE1
 72
     5
 11
546.153885247324
 21
72.18254518850085
 31
0.0
  0
TEXT
  5
1BF
  8
0
 62
     5
 10
542.1160698287782
 20
66.17206752952275
 30
0.0
 40
2.5
  1
ΣS
 50
89.99998667874186
 41
0.7846700504791737
  7
FDASTYLE1
 72
     5
 11
542.1160708321743
 21
70.48775280715809
 31
0.0
  0
ENDBLK
  5
5A
  8
0
  0
BLOCK
  8
0
  2
DC_GROUP_6
 70
     0
 10
0.0
 20
0.0
 30
0.0
  3
DC_GROUP_6
  1

  0
LINE
  5
1C0
  8
0
  6
CONTINUOUS
 62
     9
 10
477.813142115612
 20
-39.96128586884016
 30
0.0
 11
477.813142115612
 21
-50.92811746657912
 31
0.0
  0
LINE
  5
1C1
  8
0
  6
CONTINUOUS
 62
     9
 10
488.8131497450065
 20
-39.9612706100511
 30
0.0
 11
488.8131497450065
 21
-50.92811746657912
 31
0.0
  0
LINE
  5
1C2
  8
0
  6
CONTINUOUS
 62
     9
 10
477.813142115612
 20
-49.92811746657912
 30
0.0
 11
488.8131497450065
 21
-49.92811746657912
 31
0.0
  0
LINE
  5
1C3
  8
0
  6
CONTINUOUS
 62
     9
 10
513.1125987762798
 20
-49.92811746657912
 30
0.0
 11
488.8131497450065
 21
-49.92811746657912
 31
0.0
  0
LINE
  5
1C4
  8
0
  6
CONTINUOUS
 62
     9
 10
472.813142115612
 20
-49.92811746657912
 30
0.0
 11
477.813142115612
 21
-49.92811746657912
 31
0.0
  0
INSERT
  5
1C5
  8
0
  6
CONTINUOUS
  2
DC_GROUP_7
 10
0.0
 20
0.0
 30
0.0
  0
INSERT
  5
1C6
  8
0
  6
CONTINUOUS
  2
DC_GROUP_8
 10
0.0
 20
0.0
 30
0.0
  0
TEXT
  5
1C7
  8
0
 62
     7
 10
499.3125987762798
 20
-48.92811746657912
 30
0.0
 40
4.0
  1
11H8
 41
0.6952380952380963
  7
FDASTYLE1
 72
     5
 11
510.4364083000893
 21
-48.92811746657912
 31
0.0
  0
ENDBLK
  5
5D
  8
0
  0
BLOCK
  8
0
  2
DC_GROUP_7
 70
     0
 10
0.0
 20
0.0
 30
0.0
  3
DC_GROUP_7
  1

  0
LINE
  5
1C8
  8
0
  6
CONTINUOUS
 62
     9
 10
490.8131481526372
 20
-50.46401700147673
 30
0.0
 11
488.8131497450065
 21
-49.92811746657912
 31
0.0
  0
LINE
  5
1C9
  8
0
  6
CONTINUOUS
 62
     9
 10
488.8131497450065
 20
-49.92811746657912
 30
0.0
 11
490.8131481526372
 21
-49.39221793168151
 31
0.0
  0
LINE
  5
1CA
  8
0
  6
CONTINUOUS
 62
     9
 10
488.8131497450065
 20
-49.92811746657912
 30
0.0
 11
490.8131481526372
 21
-49.92811746657912
 31
0.0
  0
ENDBLK
  5
60
  8
0
  0
BLOCK
  8
0
  2
DC_GROUP_8
 70
     0
 10
0.0
 20
0.0
 30
0.0
  3
DC_GROUP_8
  1

  0
LINE
  5
1CB
  8
0
  6
CONTINUOUS
 62
     9
 10
475.8131437079813
 20
-49.39221793168151
 30
0.0
 11
477.813142115612
 21
-49.92811746657912
 31
0.0
  0
LINE
  5
1CC
  8
0
  6
CONTINUOUS
 62
     9
 10
477.813142115612
 20
-49.92811746657912
 30
0.0
 11
475.8131437079813
 21
-50.46401700147673
 31
0.0
  0
LINE
  5
1CD
  8
0
  6
CONTINUOUS
 62
     9
 10
477.813142115612
 20
-49.92811746657912
 30
0.0
 11
475.8131437079813
 21
-49.92811746657912
 31
0.0
  0
ENDBLK
  5
63
  8
0
  0
BLOCK
  8
0
  2
DC_GROUP_9
 70
     0
 10
0.0
 20
0.0
 30
0.0
  3
DC_GROUP_9
  1

  0
LINE
  5
1CE
  8
0
  6
CONTINUOUS
 62
     9
 10
230.3130124925076
 20
20.03858883452431
 30
0.0
 11
199.9286735416131
 21
20.03858883452431
 31
0.0
  0
LINE
  5
1CF
  8
0
  6
CONTINUOUS
 62
     9
 10
230.3130124925076
 20
62.03857548308388
 30
0.0
 11
199.9286735416131
 21
62.03857548308388
 31
0.0
  0
LINE
  5
1D0
  8
0
  6
CONTINUOUS
 62
     9
 10
200.9286735416131
 20
20.03858883452431
 30
0.0
 11
200.9286735416131
 21
62.03857548308388
 31
0.0
  0
INSERT
  5
1D1
  8
0
  6
CONTINUOUS
  2
DC_GROUP_10
 10
0.0
 20
0.0
 30
0.0
  0
INSERT
  5
1D2
  8
0
  6
CONTINUOUS
  2
DC_GROUP_11
 10
0.0
 20
0.0
 30
0.0
  0
TEXT
  5
1D3
  8
0
 62
     7
 10
199.9286735416131
 20
31.57858215880408
 30
0.0
 40
4.0
  1
φ42
 50
90.0
 41
0.6093750000000011
  7
FDASTYLE1
 72
     5
 11
199.9286735416131
 21
39.37858215880409
 31
0.0
  0
TEXT
  5
1D4
  8
0
 62
     7
 10
197.3286735416131
 20
42.17858215880411
 30
0.0
 40
2.6
  1
+0.3
 50
90.0
 41
0.6571428571428556
  7
FDASTYLE1
 72
     5
 11
197.3286735416131
 21
49.01286787308981
 31
0.0
  0
TEXT
  5
1D5
  8
0
 62
     7
 10
200.1286735416131
 20
42.17858215880411
 30
0.0
 40
2.6
  1
 0
 50
90.0
 41
0.2666666666666646
  7
FDASTYLE1
 72
     5
 11
200.1286735416131
 21
43.56524882547077
 31
0.0
  0
ENDBLK
  5
66
  8
0
  0
BLOCK
  8
0
  2
DC_GROUP_10
 70
     0
 10
0.0
 20
0.0
 30
0.0
  3
DC_GROUP_10
  1

  0
LINE
  5
1D6
  8
0
  6
CONTINUOUS
 62
     9
 10
201.4645730765107
 20
22.03858724215497
 30
0.0
 11
200.9286735416131
 21
20.03858883452431
 31
0.0
  0
LINE
  5
1D7
  8
0
  6
CONTINUOUS
 62
     9
 10
200.9286735416131
 20
20.03858883452431
 30
0.0
 11
200.3927740067155
 21
22.03858724215497
 31
0.0
  0
LINE
  5
1D8
  8
0
  6
CONTINUOUS
 62
     9
 10
200.9286735416131
 20
20.03858883452431
 30
0.0
 11
200.9286735416131
 21
22.03858724215497
 31
0.0
  0
ENDBLK
  5
69
  8
0
  0
BLOCK
  8
0
  2
DC_GROUP_11
 70
     0
 10
0.0
 20
0.0
 30
0.0
  3
DC_GROUP_11
  1

  0
LINE
  5
1D9
  8
0
  6
CONTINUOUS
 62
     9
 10
200.3927740067155
 20
60.03857707545322
 30
0.0
 11
200.9286735416131
 21
62.03857548308388
 31
0.0
  0
LINE
  5
1DA
  8
0
  6
CONTINUOUS
 62
     9
 10
200.9286735416131
 20
62.03857548308388
 30
0.0
 11
201.4645730765107
 21
60.03857707545322
 31
0.0
  0
LINE
  5
1DB
  8
0
  6
CONTINUOUS
 62
     9
 10
200.9286735416131
 20
62.03857548308388
 30
0.0
 11
200.9286735416131
 21
60.03857707545322
 31
0.0
  0
ENDBLK
  5
6C
  8
0
  0
BLOCK
  8
0
  2
DC_GROUP_12
 70
     0
 10
0.0
 20
0.0
 30
0.0
  3
DC_GROUP_12
  1

  0
LINE
  5
1DC
  8
0
  6
CONTINUOUS
 62
     9
 10
305.2221540330349
 20
85.03857166838661
 30
0.0
 11
312.2711991081421
 21
85.03857166838661
 31
0.0
  0
LINE
  5
1DD
  8
0
  6
CONTINUOUS
 62
     9
 10
284.3130124925076
 20
76.03857166838661
 30
0.0
 11
302.9968747293858
 21
76.03857166838661
 31
0.0
  0
LINE
  5
1DE
  8
0
  6
CONTINUOUS
 62
     9
 10
306.3234051231208
 20
76.03857166838661
 30
0.0
 11
312.2711991081421
 21
76.03857166838661
 31
0.0
  0
LINE
  5
1DF
  8
0
  6
CONTINUOUS
 62
     9
 10
311.2711991081421
 20
76.03857166838661
 30
0.0
 11
311.2711991081421
 21
85.03857166838661
 31
0.0
  0
INSERT
  5
1E0
  8
0
  6
CONTINUOUS
  2
DC_GROUP_13
 10
0.0
 20
0.0
 30
0.0
  0
INSERT
  5
1E1
  8
0
  6
CONTINUOUS
  2
DC_GROUP_14
 10
0.0
 20
0.0
 30
0.0
  0
TEXT
  5
1E2
  8
0
 62
     7
 10
310.2711991081421
 20
78.93857166838662
 30
0.0
 40
4.0
  1
8
 50
90.0
 41
0.5333333333333314
  7
FDASTYLE1
 72
     5
 11
310.2711991081421
 21
81.07190500171994
 31
0.0
  0
ENDBLK
  5
6F
  8
0
  0
BLOCK
  8
0
  2
DC_GROUP_13
 70
     0
 10
0.0
 20
0.0
 30
0.0
  3
DC_GROUP_13
  1

  0
LINE
  5
1E3
  8
0
  6
CONTINUOUS
 62
     9
 10
311.8070986430397
 20
78.03857007601727
 30
0.0
 11
311.2711991081421
 21
76.03857166838661
 31
0.0
  0
LINE
  5
1E4
  8
0
  6
CONTINUOUS
 62
     9
 10
311.2711991081421
 20
76.03857166838661
 30
0.0
 11
310.7352995732445
 21
78.03857007601727
 31
0.0
  0
LINE
  5
1E5
  8
0
  6
CONTINUOUS
 62
     9
 10
311.2711991081421
 20
76.03857166838661
 30
0.0
 11
311.2711991081421
 21
78.03857007601727
 31
0.0
  0
ENDBLK
  5
72
  8
0
  0
BLOCK
  8
0
  2
DC_GROUP_14
 70
     0
 10
0.0
 20
0.0
 30
0.0
  3
DC_GROUP_14
  1

  0
LINE
  5
1E6
  8
0
  6
CONTINUOUS
 62
     9
 10
310.7352995732445
 20
83.03857326075594
 30
0.0
 11
311.2711991081421
 21
85.03857166838661
 31
0.0
  0
LINE
  5
1E7
  8
0
  6
CONTINUOUS
 62
     9
 10
311.2711991081421
 20
85.03857166838661
 30
0.0
 11
311.8070986430397
 21
83.03857326075594
 31
0.0
  0
LINE
  5
1E8
  8
0
  6
CONTINUOUS
 62
     9
 10
311.2711991081421
 20
85.03857166838661
 30
0.0
 11
311.2711991081421
 21
83.03857326075594
 31
0.0
  0
ENDBLK
  5
75
  8
0
  0
BLOCK
  8
0
  2
DC_GROUP_15
 70
     0
 10
0.0
 20
0.0
 30
0.0
  3
DC_GROUP_15
  1

  0
LINE
  5
1E9
  8
0
  6
CONTINUOUS
 62
     9
 10
253.3130124925076
 20
15.78858978819862
 30
0.0
 11
189.7577026939631
 21
15.78858978819862
 31
0.0
  0
LINE
  5
1EA
  8
0
  6
CONTINUOUS
 62
     9
 10
253.3130124925076
 20
66.28857548308388
 30
0.0
 11
189.7577026939631
 21
66.28857548308388
 31
0.0
  0
LINE
  5
1EB
  8
0
  6
CONTINUOUS
 62
     9
 10
190.7577026939631
 20
15.78858978819862
 30
0.0
 11
190.7577026939631
 21
66.28857548308388
 31
0.0
  0
INSERT
  5
1EC
  8
0
  6
PHANTOM
  2
DC_GROUP_16
 10
0.0
 20
0.0
 30
0.0
  0
INSERT
  5
1ED
  8
0
  6
PHANTOM
  2
DC_GROUP_17
 10
0.0
 20
0.0
 30
0.0
  0
TEXT
  5
1EE
  8
0
 62
     7
 10
189.7577026939631
 20
29.83858263564126
 30
0.0
 40
4.0
  1
φ50.5Ｈ7
 50
90.0
 41
0.6135865595325045
  7
FDASTYLE1
 72
     5
 11
189.7577026939631
 21
48.00074479780339
 31
0.0
  0
ENDBLK
  5
78
  8
0
  0
BLOCK
  8
0
  2
DC_GROUP_16
 70
     0
 10
0.0
 20
0.0
 30
0.0
  3
DC_GROUP_16
  1

  0
LINE
  5
1EF
  8
0
  6
CONTINUOUS
 62
     9
 10
191.2936022288607
 20
17.78858819582928
 30
0.0
 11
190.7577026939631
 21
15.78858978819862
 31
0.0
  0
LINE
  5
1F0
  8
0
  6
CONTINUOUS
 62
     9
 10
190.7577026939631
 20
15.78858978819862
 30
0.0
 11
190.2218031590655
 21
17.78858819582928
 31
0.0
  0
LINE
  5
1F1
  8
0
  6
CONTINUOUS
 62
     9
 10
190.7577026939631
 20
15.78858978819862
 30
0.0
 11
190.7577026939631
 21
17.78858819582928
 31
0.0
  0
ENDBLK
  5
7B
  8
0
  0
BLOCK
  8
0
  2
DC_GROUP_17
 70
     0
 10
0.0
 20
0.0
 30
0.0
  3
DC_GROUP_17
  1

  0
LINE
  5
1F2
  8
0
  6
CONTINUOUS
 62
     9
 10
190.2218031590655
 20
64.28857707545322
 30
0.0
 11
190.7577026939631
 21
66.28857548308388
 31
0.0
  0
LINE
  5
1F3
  8
0
  6
CONTINUOUS
 62
     9
 10
190.7577026939631
 20
66.28857548308388
 30
0.0
 11
191.2936022288607
 21
64.28857707545322
 31
0.0
  0
LINE
  5
1F4
  8
0
  6
CONTINUOUS
 62
     9
 10
190.7577026939631
 20
66.28857548308388
 30
0.0
 11
190.7577026939631
 21
64.28857707545322
 31
0.0
  0
ENDBLK
  5
7E
  8
0
  0
BLOCK
  8
0
  2
DC_GROUP_18
 70
     0
 10
0.0
 20
0.0
 30
0.0
  3
DC_GROUP_18
  1

  0
LINE
  5
1F5
  8
0
  6
CONTINUOUS
 62
     9
 10
203.3129972337185
 20
-59.99431452827433
 30
0.0
 11
219.0129941819607
 21
-59.99431452827433
 31
0.0
  0
LINE
  5
1F6
  8
0
  6
CONTINUOUS
 62
     9
 10
203.3129972337185
 20
-17.34641330170616
 30
0.0
 11
203.3129972337185
 21
-60.99431452827433
 31
0.0
  0
LINE
  5
1F7
  8
0
  6
CONTINUOUS
 62
     9
 10
219.0129941819607
 20
-29.96141307282433
 30
0.0
 11
219.0129941819607
 21
-60.99431452827433
 31
0.0
  0
LINE
  5
1F8
  8
0
  6
CONTINUOUS
 62
     9
 10
186.5811472337185
 20
-59.99431452827433
 30
0.0
 11
203.3129972337185
 21
-59.99431452827433
 31
0.0
  0
INSERT
  5
1F9
  8
0
  6
CONTINUOUS
  2
DC_GROUP_19
 10
0.0
 20
0.0
 30
0.0
  0
TEXT
  5
1FA
  8
0
 62
     7
 10
187.5811472337185
 20
-58.99431452827433
 30
0.0
 40
4.0
  1
15.7
 41
0.5809523809523807
  7
FDASTYLE1
 72
     5
 11
196.8763853289566
 21
-58.99431452827433
 31
0.0
  0
ENDBLK
  5
81
  8
0
  0
BLOCK
  8
0
  2
DC_GROUP_19
 70
     0
 10
0.0
 20
0.0
 30
0.0
  3
DC_GROUP_19
  1

  0
LINE
  5
1FB
  8
0
  6
CONTINUOUS
 62
     9
 10
201.3129988260878
 20
-59.45841499337672
 30
0.0
 11
203.3129972337185
 21
-59.99431452827433
 31
0.0
  0
LINE
  5
1FC
  8
0
  6
CONTINUOUS
 62
     9
 10
203.3129972337185
 20
-59.99431452827433
 30
0.0
 11
201.3129988260878
 21
-60.53021406317195
 31
0.0
  0
LINE
  5
1FD
  8
0
  6
CONTINUOUS
 62
     9
 10
203.3129972337185
 20
-59.99431452827433
 30
0.0
 11
201.3129988260878
 21
-59.99431452827433
 31
0.0
  0
ENDBLK
  5
84
  8
0
  0
BLOCK
  8
0
  2
DC_GROUP_20
 70
     0
 10
0.0
 20
0.0
 30
0.0
  3
DC_GROUP_20
  1

  0
LINE
  5
1FE
  8
0
  6
CONTINUOUS
 62
     9
 10
219.0129941819607
 20
-50.74189549776199
 30
0.0
 11
251.0129941819607
 21
-50.74189549776199
 31
0.0
  0
LINE
  5
1FF
  8
0
  6
CONTINUOUS
 62
     9
 10
219.0129941819607
 20
-33.025319780588
 30
0.0
 11
219.0129941819607
 21
-51.74189549776199
 31
0.0
  0
LINE
  5
200
  8
0
  6
CONTINUOUS
 62
     9
 10
251.0129941819607
 20
-42.97922038476233
 30
0.0
 11
251.0129941819607
 21
-51.74189549776199
 31
0.0
  0
INSERT
  5
201
  8
0
  6
CONTINUOUS
  2
DC_GROUP_21
 10
0.0
 20
0.0
 30
0.0
  0
INSERT
  5
202
  8
0
  6
CONTINUOUS
  2
DC_GROUP_22
 10
0.0
 20
0.0
 30
0.0
  0
TEXT
  5
203
  8
0
 62
     7
 10
231.8129941819607
 20
-49.74189549776199
 30
0.0
 40
4.0
  1
32
 41
0.6476190476190489
  7
FDASTYLE1
 72
     5
 11
236.9939465629131
 21
-49.74189549776199
 31
0.0
  0
ENDBLK
  5
87
  8
0
  0
BLOCK
  8
0
  2
DC_GROUP_21
 70
     0
 10
0.0
 20
0.0
 30
0.0
  3
DC_GROUP_21
  1

  0
LINE
  5
204
  8
0
  6
CONTINUOUS
 62
     9
 10
221.0129925895914
 20
-51.2777950326596
 30
0.0
 11
219.0129941819607
 21
-50.74189549776199
 31
0.0
  0
LINE
  5
205
  8
0
  6
CONTINUOUS
 62
     9
 10
219.0129941819607
 20
-50.74189549776199
 30
0.0
 11
221.0129925895914
 21
-50.20599596286438
 31
0.0
  0
LINE
  5
206
  8
0
  6
CONTINUOUS
 62
     9
 10
219.0129941819607
 20
-50.74189549776199
 30
0.0
 11
221.0129925895914
 21
-50.74189549776199
 31
0.0
  0
ENDBLK
  5
8A
  8
0
  0
BLOCK
  8
0
  2
DC_GROUP_22
 70
     0
 10
0.0
 20
0.0
 30
0.0
  3
DC_GROUP_22
  1

  0
LINE
  5
207
  8
0
  6
CONTINUOUS
 62
     9
 10
249.01299577433
 20
-50.20599596286438
 30
0.0
 11
251.0129941819607
 21
-50.74189549776199
 31
0.0
  0
LINE
  5
208
  8
0
  6
CONTINUOUS
 62
     9
 10
251.0129941819607
 20
-50.74189549776199
 30
0.0
 11
249.01299577433
 21
-51.2777950326596
 31
0.0
  0
LINE
  5
209
  8
0
  6
CONTINUOUS
 62
     9
 10
251.0129941819607
 20
-50.74189549776199
 30
0.0
 11
249.01299577433
 21
-50.74189549776199
 31
0.0
  0
ENDBLK
  5
8D
  8
0
  0
BLOCK
  8
0
  2
DC_GROUP_23
 70
     0
 10
0.0
 20
0.0
 30
0.0
  3
DC_GROUP_23
  1

  0
LINE
  5
20A
  8
0
  6
CONTINUOUS
 62
     7
 10
251.0129941819607
 20
-38.96142451691613
 30
0.0
 11
298.4570756986565
 21
-60.17855832872569
 31
0.0
  0
LINE
  5
20B
  8
0
  6
CONTINUOUS
 62
     7
 10
298.4570756986565
 20
-60.17855832872569
 30
0.0
 11
314.4570756986565
 21
-60.17855832872569
 31
0.0
  0
INSERT
  5
20C
  8
0
  6
CONTINUOUS
  2
DC_GROUP_24
 10
0.0
 20
0.0
 30
0.0
  0
TEXT
  5
20D
  8
0
 62
     7
 10
298.4570756986565
 20
-60.17855832872569
 30
0.0
 40
4.0
  1
M8×12
 41
0.6213017751479282
  7
FDASTYLE1
 72
     5
 11
311.3801526217334
 21
-60.17855832872569
 31
0.0
  0
ENDBLK
  5
90
  8
0
  0
BLOCK
  8
0
  2
DC_GROUP_24
 70
     0
 10
0.0
 20
0.0
 30
0.0
  3
DC_GROUP_24
  1

  0
LINE
  5
20E
  8
0
  6
CONTINUOUS
 62
     7
 10
252.6199660871989
 20
-40.26711331513869
 30
0.0
 11
251.0129941819607
 21
-38.96142451691613
 31
0.0
  0
LINE
  5
20F
  8
0
  6
CONTINUOUS
 62
     7
 10
251.0129941819607
 20
-38.96142451691613
 30
0.0
 11
253.0575175556232
 21
-39.28869522531535
 31
0.0
  0
LINE
  5
210
  8
0
  6
CONTINUOUS
 62
     7
 10
251.0129941819607
 20
-38.96142451691613
 30
0.0
 11
252.8387418214111
 21
-39.77790427022703
 31
0.0
  0
ENDBLK
  5
93
  8
0
  0
BLOCK
  8
0
  2
DC_GROUP_25
 70
     0
 10
0.0
 20
0.0
 30
0.0
  3
DC_GROUP_25
  1

  0
LINE
  5
211
  8
0
  6
CONTINUOUS
 62
     9
 10
506.3131344862174
 20
45.73934050445085
 30
0.0
 11
506.3131344862174
 21
51.48684727129959
 31
0.0
  0
LINE
  5
212
  8
0
  6
CONTINUOUS
 62
     9
 10
460.3131344862174
 20
45.90600462798601
 30
0.0
 11
460.3131344862174
 21
51.48684727129959
 31
0.0
  0
LINE
  5
213
  8
0
  6
CONTINUOUS
 62
     9
 10
460.3131344862174
 20
50.48684727129959
 30
0.0
 11
506.3131344862174
 21
50.48684727129959
 31
0.0
  0
INSERT
  5
214
  8
0
  6
CONTINUOUS
  2
DC_GROUP_26
 10
0.0
 20
0.0
 30
0.0
  0
INSERT
  5
215
  8
0
  6
CONTINUOUS
  2
DC_GROUP_27
 10
0.0
 20
0.0
 30
0.0
  0
TEXT
  5
216
  8
0
 62
     7
 10
475.3131344862174
 20
51.48684727129959
 30
0.0
 40
4.0
  1
PCD46
 41
0.7314285714285717
  7
FDASTYLE1
 72
     5
 11
489.9417059147888
 21
51.48684727129959
 31
0.0
  0
ENDBLK
  5
96
  8
0
  0
BLOCK
  8
0
  2
DC_GROUP_26
 70
     0
 10
0.0
 20
0.0
 30
0.0
  3
DC_GROUP_26
  1

  0
LINE
  5
217
  8
0
  6
CONTINUOUS
 62
     9
 10
462.3131328938481
 20
49.95094773640197
 30
0.0
 11
460.3131344862174
 21
50.48684727129959
 31
0.0
  0
LINE
  5
218
  8
0
  6
CONTINUOUS
 62
     9
 10
460.3131344862174
 20
50.48684727129959
 30
0.0
 11
462.3131328938481
 21
51.0227468061972
 31
0.0
  0
LINE
  5
219
  8
0
  6
CONTINUOUS
 62
     9
 10
460.3131344862174
 20
50.48684727129959
 30
0.0
 11
462.3131328938481
 21
50.48684727129959
 31
0.0
  0
ENDBLK
  5
99
  8
0
  0
BLOCK
  8
0
  2
DC_GROUP_27
 70
     0
 10
0.0
 20
0.0
 30
0.0
  3
DC_GROUP_27
  1

  0
LINE
  5
21A
  8
0
  6
CONTINUOUS
 62
     9
 10
504.3131360785867
 20
51.0227468061972
 30
0.0
 11
506.3131344862174
 21
50.48684727129959
 31
0.0
  0
LINE
  5
21B
  8
0
  6
CONTINUOUS
 62
     9
 10
506.3131344862174
 20
50.48684727129959
 30
0.0
 11
504.3131360785867
 21
49.95094773640197
 31
0.0
  0
LINE
  5
21C
  8
0
  6
CONTINUOUS
 62
     9
 10
506.3131344862174
 20
50.48684727129959
 30
0.0
 11
504.3131360785867
 21
50.48684727129959
 31
0.0
  0
ENDBLK
  5
9C
  8
0
  0
BLOCK
  8
0
  2
DC_GROUP_28
 70
     0
 10
0.0
 20
0.0
 30
0.0
  3
DC_GROUP_28
  1

  0
LINE
  5
21D
  8
0
  6
CONTINUOUS
 62
     7
 10
459.593359015277
 20
42.46767296462089
 30
0.0
 11
427.5892763524653
 21
124.166557605898
 31
0.0
  0
LINE
  5
21E
  8
0
  6
CONTINUOUS
 62
     7
 10
427.5892763524653
 20
124.166557605898
 30
0.0
 11
408.3892763524652
 21
124.166557605898
 31
0.0
  0
INSERT
  5
21F
  8
0
  6
CONTINUOUS
  2
DC_GROUP_29
 10
0.0
 20
0.0
 30
0.0
  0
TEXT
  5
220
  8
0
 62
     7
 10
408.3892763524652
 20
124.166557605898
 30
0.0
 40
4.0
  1
2-φ3.2
 41
0.6243496357960464
  7
FDASTYLE1
 72
     5
 11
423.8731473202072
 21
124.166557605898
 31
0.0
  0
ENDBLK
  5
9F
  8
0
  0
BLOCK
  8
0
  2
DC_GROUP_29
 70
     0
 10
0.0
 20
0.0
 30
0.0
  3
DC_GROUP_29
  1

  0
LINE
  5
221
  8
0
  6
CONTINUOUS
 62
     7
 10
459.3628501115272
 20
44.52535311161185
 30
0.0
 11
459.593359015277
 21
42.46767296462089
 31
0.0
  0
LINE
  5
222
  8
0
  6
CONTINUOUS
 62
     7
 10
459.593359015277
 20
42.46767296462089
 30
0.0
 11
458.3648899233982
 21
44.13441998571527
 31
0.0
  0
LINE
  5
223
  8
0
  6
CONTINUOUS
 62
     7
 10
459.593359015277
 20
42.46767296462089
 30
0.0
 11
458.8638700174627
 21
44.32988654866356
 31
0.0
  0
ENDBLK
  5
A2
  8
0
  0
BLOCK
  8
0
  2
DC_GROUP_30
 70
     0
 10
0.0
 20
0.0
 30
0.0
  3
DC_GROUP_30
  1

  0
LINE
  5
224
  8
LAYER0001
  6
CONTINUOUS
 62
     7
 10
469.3131268568229
 20
-40.41546740692051
 30
0.0
 11
469.3131268568229
 21
-66.09252671356673
 31
0.0
  0
LINE
  5
225
  8
LAYER0001
  6
CONTINUOUS
 62
     7
 10
497.313142115612
 20
-40.15365135023266
 30
0.0
 11
497.313142115612
 21
-66.09252671356673
 31
0.0
  0
LINE
  5
226
  8
LAYER0001
  6
CONTINUOUS
 62
     7
 10
469.3131268568229
 20
-65.09252671356673
 30
0.0
 11
497.3131268568229
 21
-65.09252671356673
 31
0.0
  0
INSERT
  5
227
  8
LAYER0001
  6
CENTER
  2
DC_GROUP_31
 10
0.0
 20
0.0
 30
0.0
  0
INSERT
  5
228
  8
LAYER0001
  6
CONTINUOUS
  2
DC_GROUP_32
 10
0.0
 20
0.0
 30
0.0
  0
TEXT
  5
229
  8
LAYER0001
 62
     7
 10
480.1131192274284
 20
-63.49252671356673
 30
0.0
 40
4.0
  1
28
 41
0.6476190476190453
  7
FDASTYLE1
 72
     5
 11
485.2940716083808
 21
-63.49252671356673
 31
0.0
  0
ENDBLK
  5
A5
  8
0
  0
BLOCK
  8
0
  2
DC_GROUP_31
 70
     0
 10
0.0
 20
0.0
 30
0.0
  3
DC_GROUP_31
  1

  0
LINE
  5
22A
  8
LAYER0001
  6
CONTINUOUS
 62
     7
 10
471.3131252644536
 20
-65.62842624846434
 30
0.0
 11
469.3131268568229
 21
-65.09252671356673
 31
0.0
  0
LINE
  5
22B
  8
LAYER0001
  6
CONTINUOUS
 62
     7
 10
469.3131268568229
 20
-65.09252671356673
 30
0.0
 11
471.3131252644536
 21
-64.55662717866912
 31
0.0
  0
LINE
  5
22C
  8
LAYER0001
  6
CONTINUOUS
 62
     7
 10
469.3131268568229
 20
-65.09252671356673
 30
0.0
 11
471.3131252644536
 21
-65.09252671356673
 31
0.0
  0
ENDBLK
  5
A8
  8
0
  0
BLOCK
  8
0
  2
DC_GROUP_32
 70
     0
 10
0.0
 20
0.0
 30
0.0
  3
DC_GROUP_32
  1

  0
LINE
  5
22D
  8
LAYER0001
  6
CONTINUOUS
 62
     7
 10
495.3131284491923
 20
-64.55662717866912
 30
0.0
 11
497.3131268568229
 21
-65.09252671356673
 31
0.0
  0
LINE
  5
22E
  8
LAYER0001
  6
CONTINUOUS
 62
     7
 10
497.3131268568229
 20
-65.09252671356673
 30
0.0
 11
495.3131284491923
 21
-65.62842624846434
 31
0.0
  0
LINE
  5
22F
  8
LAYER0001
  6
CONTINUOUS
 62
     7
 10
497.3131268568229
 20
-65.09252671356673
 30
0.0
 11
495.3131284491923
 21
-65.09252671356673
 31
0.0
  0
ENDBLK
  5
AB
  8
0
  0
BLOCK
  8
0
  2
DC_GROUP_33
 70
     0
 10
0.0
 20
0.0
 30
0.0
  3
DC_GROUP_33
  1

  0
LINE
  5
230
  8
LAYER0001
  6
CONTINUOUS
 62
     7
 10
574.7336657972526
 20
41.03871413115984
 30
0.0
 11
577.6721661634635
 21
41.03871413115984
 31
0.0
  0
LINE
  5
231
  8
LAYER0001
  6
CONTINUOUS
 62
     7
 10
522.5652349205684
 20
63.70090900492638
 30
0.0
 11
565.0304730159375
 21
88.21822294176899
 31
0.0
  0
ARC
  5
232
  8
LAYER0001
  6
CONTINUOUS
 62
     7
 10
483.313157374401
 20
41.03871413115984
 30
0.0
 40
93.35901641845703
 50
0.0
 51
29.99999741973147
  0
INSERT
  5
233
  8
LAYER0001
  6
CONTINUOUS
  2
DC_GROUP_34
 10
0.0
 20
0.0
 30
0.0
  0
INSERT
  5
234
  8
LAYER0001
  6
CONTINUOUS
  2
DC_GROUP_35
 10
0.0
 20
0.0
 30
0.0
  0
TEXT
  5
235
  8
LAYER0001
 62
     7
 10
573.7941942428621
 20
70.25235832170867
 30
0.0
 40
4.0
  1
30ﾟ
 50
-75.00000000000003
 41
0.4499999999999961
  7
FDASTYLE1
 72
     5
 11
575.1918170864157
 21
65.03635885974774
 31
0.0
  0
ENDBLK
  5
AE
  8
0
  0
BLOCK
  8
0
  2
DC_GROUP_34
 70
     0
 10
0.0
 20
0.0
 30
0.0
  3
DC_GROUP_34
  1

  0
LINE
  5
236
  8
LAYER0001
  6
CONTINUOUS
 62
     7
 10
577.1866203475452
 20
43.04433789557808
 30
0.0
 11
576.6721737928581
 21
41.03871413115984
 31
0.0
  0
LINE
  5
237
  8
LAYER0001
  6
CONTINUOUS
 62
     7
 10
576.6721737928581
 20
41.03871413115984
 30
0.0
 11
576.1148827623305
 21
43.03285771909982
 31
0.0
  0
LINE
  5
238
  8
LAYER0001
  6
CONTINUOUS
 62
     7
 10
576.6721737928581
 20
41.03871413115984
 30
0.0
 11
576.6507515549379
 21
43.03859780733895
 31
0.0
  0
ENDBLK
  5
B1
  8
0
  0
BLOCK
  8
0
  2
DC_GROUP_35
 70
     0
 10
0.0
 20
0.0
 30
0.0
  3
DC_GROUP_35
  1

  0
LINE
  5
239
  8
LAYER0001
  6
CONTINUOUS
 62
     7
 10
564.6788828811968
 20
85.7125941549359
 30
0.0
 11
564.1644393672866
 21
87.71821869931711
 31
0.0
  0
LINE
  5
23A
  8
LAYER0001
  6
CONTINUOUS
 62
     7
 10
564.1644393672866
 20
87.71821869931711
 30
0.0
 11
565.6127749681073
 21
86.23852078101611
 31
0.0
  0
LINE
  5
23B
  8
LAYER0001
  6
CONTINUOUS
 62
     7
 10
564.1644393672866
 20
87.71821869931711
 30
0.0
 11
565.1458289246521
 21
85.975557467976
 31
0.0
  0
ENDBLK
  5
B4
  8
0
  0
BLOCK
  8
0
  2
DC_GROUP_36
 70
     0
 10
0.0
 20
0.0
 30
0.0
  3
DC_GROUP_36
  1

  0
LINE
  5
23C
  8
LAYER0001
  6
CONTINUOUS
 62
     7
 10
517.9760398555511
 20
19.63044076759478
 30
0.0
 11
551.7785663326965
 21
-18.25948575178019
 31
0.0
  0
LINE
  5
23D
  8
LAYER0001
  6
CONTINUOUS
 62
     7
 10
551.7785656995964
 20
-18.25948456879134
 30
0.0
 11
595.6141908763693
 21
-18.25948456879134
 31
0.0
  0
INSERT
  5
23E
  8
LAYER0001
  6
CONTINUOUS
  2
DC_GROUP_37
 10
0.0
 20
0.0
 30
0.0
  0
TEXT
  5
23F
  8
LAYER0001
 62
     7
 10
552.1694958753776
 20
-16.6594883834886
 30
0.0
 40
4.0
  1
4-M6×13 PCD76
 41
0.6326905417814503
  7
FDASTYLE1
 72
     5
 11
585.5755564814382
 21
-16.6594883834886
 31
0.0
  0
ENDBLK
  5
B7
  8
0
  0
BLOCK
  8
0
  2
DC_GROUP_37
 70
     0
 10
0.0
 20
0.0
 30
0.0
  3
DC_GROUP_37
  1

  0
LINE
  5
240
  8
LAYER0001
  6
CONTINUOUS
 62
     7
 10
518.9075685153096
 20
17.78126898052976
 30
0.0
 11
517.9760398555511
 21
19.63044076759478
 31
0.0
  0
LINE
  5
241
  8
LAYER0001
  6
CONTINUOUS
 62
     7
 10
517.9760398555511
 20
19.63044076759478
 30
0.0
 11
519.7073549034528
 21
18.49477790083468
 31
0.0
  0
LINE
  5
242
  8
LAYER0001
  6
CONTINUOUS
 62
     7
 10
517.9760398555511
 20
19.63044076759478
 30
0.0
 11
519.3074617093812
 21
18.13802344068222
 31
0.0
  0
ENDBLK
  5
BA
  8
0
  0
BLOCK
  8
0
  2
DC_GROUP_38
 70
     0
 10
0.0
 20
0.0
 30
0.0
  3
DC_GROUP_38
  1

  0
LINE
  5
243
  8
LAYER0001
  6
CONTINUOUS
 62
     7
 10
505.313142115612
 20
-70.77502274628156
 30
0.0
 11
505.313142115612
 21
-58.9648106491136
 31
0.0
  0
LINE
  5
244
  8
LAYER0001
  6
CONTINUOUS
 62
     7
 10
521.313157374401
 20
-70.77501511688703
 30
0.0
 11
521.313157374401
 21
-58.9648106491136
 31
0.0
  0
LINE
  5
245
  8
LAYER0001
  6
CONTINUOUS
 62
     7
 10
505.313142115612
 20
-59.9648106491136
 30
0.0
 11
521.313157374401
 21
-59.9648106491136
 31
0.0
  0
INSERT
  5
246
  8
LAYER0001
  6
CONTINUOUS
  2
DC_GROUP_39
 10
0.0
 20
0.0
 30
0.0
  0
INSERT
  5
247
  8
LAYER0001
  6
CONTINUOUS
  2
DC_GROUP_40
 10
0.0
 20
0.0
 30
0.0
  0
TEXT
  5
248
  8
LAYER0001
 62
     7
 10
508.513157374401
 20
-58.3648106491136
 30
0.0
 40
4.0
  1
φ16
 41
0.6093750000000053
  7
FDASTYLE1
 72
     5
 11
516.313157374401
 21
-58.3648106491136
 31
0.0
  0
ENDBLK
  5
BD
  8
0
  0
BLOCK
  8
0
  2
DC_GROUP_39
 70
     0
 10
0.0
 20
0.0
 30
0.0
  3
DC_GROUP_39
  1

  0
LINE
  5
249
  8
LAYER0001
  6
CONTINUOUS
 62
     7
 10
507.3131405232426
 20
-60.50071018401121
 30
0.0
 11
505.313142115612
 21
-59.9648106491136
 31
0.0
  0
LINE
  5
24A
  8
LAYER0001
  6
CONTINUOUS
 62
     7
 10
505.313142115612
 20
-59.9648106491136
 30
0.0
 11
507.3131405232426
 21
-59.42891111421599
 31
0.0
  0
LINE
  5
24B
  8
LAYER0001
  6
CONTINUOUS
 62
     7
 10
505.313142115612
 20
-59.9648106491136
 30
0.0
 11
507.3131405232426
 21
-59.9648106491136
 31
0.0
  0
ENDBLK
  5
C0
  8
0
  0
BLOCK
  8
0
  2
DC_GROUP_40
 70
     0
 10
0.0
 20
0.0
 30
0.0
  3
DC_GROUP_40
  1

  0
LINE
  5
24C
  8
LAYER0001
  6
CONTINUOUS
 62
     7
 10
519.3131589667703
 20
-59.42891111421599
 30
0.0
 11
521.313157374401
 21
-59.9648106491136
 31
0.0
  0
LINE
  5
24D
  8
LAYER0001
  6
CONTINUOUS
 62
     7
 10
521.313157374401
 20
-59.9648106491136
 30
0.0
 11
519.3131589667703
 21
-60.50071018401121
 31
0.0
  0
LINE
  5
24E
  8
LAYER0001
  6
CONTINUOUS
 62
     7
 10
521.313157374401
 20
-59.9648106491136
 30
0.0
 11
519.3131589667703
 21
-59.9648106491136
 31
0.0
  0
ENDBLK
  5
C3
  8
0
  0
BLOCK
  8
0
  2
DC_GROUP_41
 70
     0
 10
0.0
 20
0.0
 30
0.0
  3
DC_GROUP_41
  1

  0
LINE
  5
24F
  8
LAYER0001
  6
CONTINUOUS
 62
     7
 10
453.3131344862175
 20
112.4730927932692
 30
0.0
 11
453.3131344862175
 21
137.4074809158278
 31
0.0
  0
LINE
  5
250
  8
LAYER0001
  6
CONTINUOUS
 62
     7
 10
483.3131344862174
 20
133.1952455032301
 30
0.0
 11
483.3131344862174
 21
137.4074809158278
 31
0.0
  0
LINE
  5
251
  8
LAYER0001
  6
CONTINUOUS
 62
     7
 10
453.3131344862175
 20
136.4074809158278
 30
0.0
 11
483.3131344862174
 21
136.4074809158278
 31
0.0
  0
INSERT
  5
252
  8
LAYER0001
  6
CENTER
  2
DC_GROUP_42
 10
0.0
 20
0.0
 30
0.0
  0
INSERT
  5
253
  8
LAYER0001
  6
CONTINUOUS
  2
DC_GROUP_43
 10
0.0
 20
0.0
 30
0.0
  0
TEXT
  5
254
  8
LAYER0001
 62
     7
 10
465.1131344862174
 20
138.0074809158278
 30
0.0
 40
4.0
  1
30
 41
0.6476190476190453
  7
FDASTYLE1
 72
     5
 11
470.2940868671698
 21
138.0074809158278
 31
0.0
  0
ENDBLK
  5
C6
  8
0
  0
BLOCK
  8
0
  2
DC_GROUP_42
 70
     0
 10
0.0
 20
0.0
 30
0.0
  3
DC_GROUP_42
  1

  0
LINE
  5
255
  8
LAYER0001
  6
CONTINUOUS
 62
     7
 10
455.3131328938481
 20
135.8715813809302
 30
0.0
 11
453.3131344862175
 21
136.4074809158278
 31
0.0
  0
LINE
  5
256
  8
LAYER0001
  6
CONTINUOUS
 62
     7
 10
453.3131344862175
 20
136.4074809158278
 30
0.0
 11
455.3131328938481
 21
136.9433804507254
 31
0.0
  0
LINE
  5
257
  8
LAYER0001
  6
CONTINUOUS
 62
     7
 10
453.3131344862175
 20
136.4074809158278
 30
0.0
 11
455.3131328938481
 21
136.4074809158278
 31
0.0
  0
ENDBLK
  5
C9
  8
0
  0
BLOCK
  8
0
  2
DC_GROUP_43
 70
     0
 10
0.0
 20
0.0
 30
0.0
  3
DC_GROUP_43
  1

  0
LINE
  5
258
  8
LAYER0001
  6
CONTINUOUS
 62
     7
 10
481.3131360785867
 20
136.9433804507254
 30
0.0
 11
483.3131344862174
 21
136.4074809158278
 31
0.0
  0
LINE
  5
259
  8
LAYER0001
  6
CONTINUOUS
 62
     7
 10
483.3131344862174
 20
136.4074809158278
 30
0.0
 11
481.3131360785867
 21
135.8715813809302
 31
0.0
  0
LINE
  5
25A
  8
LAYER0001
  6
CONTINUOUS
 62
     7
 10
483.3131344862174
 20
136.4074809158278
 30
0.0
 11
481.3131360785867
 21
136.4074809158278
 31
0.0
  0
ENDBLK
  5
CC
  8
0
  0
BLOCK
  8
0
  2
DC_GROUP_44
 70
     0
 10
0.0
 20
0.0
 30
0.0
  3
DC_GROUP_44
  1

  0
LINE
  5
25B
  8
LAYER0001
  6
CONTINUOUS
 62
     7
 10
436.2750076095319
 20
88.07683747745247
 30
0.0
 11
416.5912172689923
 21
107.7606278179921
 31
0.0
  0
LINE
  5
25C
  8
LAYER0001
  6
CONTINUOUS
 62
     7
 10
391.7008653032285
 20
41.03871409838855
 30
0.0
 11
388.9540954362851
 21
41.0387136803288
 31
0.0
  0
ARC
  5
25D
  8
LAYER0001
  6
CONTINUOUS
 62
     7
 10
483.3131344862174
 20
41.03871413115984
 30
0.0
 40
93.35903930664063
 50
135.0000003416227
 51
180.0000050089563
  0
INSERT
  5
25E
  8
LAYER0001
  6
CONTINUOUS
  2
DC_GROUP_45
 10
0.0
 20
0.0
 30
0.0
  0
INSERT
  5
25F
  8
LAYER0001
  6
CONTINUOUS
  2
DC_GROUP_46
 10
0.0
 20
0.0
 30
0.0
  0
TEXT
  5
260
  8
LAYER0001
 62
     7
 10
393.7455405027434
 20
72.94334509540543
 30
0.0
 40
4.0
  1
45ﾟ
 50
67.5
 41
0.4500000000000024
  7
FDASTYLE1
 72
     5
 11
395.8120310375149
 21
77.93229457096641
 31
0.0
  0
ENDBLK
  5
CF
  8
0
  0
BLOCK
  8
0
  2
DC_GROUP_45
 70
     0
 10
0.0
 20
0.0
 30
0.0
  3
DC_GROUP_45
  1

  0
LINE
  5
261
  8
LAYER0001
  6
CONTINUOUS
 62
     7
 10
415.5163655056327
 20
105.9991019934405
 30
0.0
 11
417.298324313821
 21
107.0535235163375
 31
0.0
  0
LINE
  5
262
  8
LAYER0001
  6
CONTINUOUS
 62
     7
 10
417.298324313821
 20
107.0535235163375
 30
0.0
 11
416.2823161329289
 21
105.2493867924752
 31
0.0
  0
LINE
  5
263
  8
LAYER0001
  6
CONTINUOUS
 62
     7
 10
417.298324313821
 20
107.0535235163375
 30
0.0
 11
415.8993408192808
 21
105.6242443929578
 31
0.0
  0
ENDBLK
  5
D2
  8
0
  0
BLOCK
  8
0
  2
DC_GROUP_46
 70
     0
 10
0.0
 20
0.0
 30
0.0
  3
DC_GROUP_46
  1

  0
LINE
  5
264
  8
LAYER0001
  6
CONTINUOUS
 62
     7
 10
390.5113860305345
 20
43.03284960757649
 30
0.0
 11
389.9540951795772
 21
41.03870596945312
 31
0.0
  0
LINE
  5
265
  8
LAYER0001
  6
CONTINUOUS
 62
     7
 10
389.9540951795772
 20
41.03870596945312
 30
0.0
 11
389.439648444286
 21
43.04432968754605
 31
0.0
  0
LINE
  5
266
  8
LAYER0001
  6
CONTINUOUS
 62
     7
 10
389.9540951795772
 20
41.03870596945312
 30
0.0
 11
389.9755172374103
 21
43.03858964756127
 31
0.0
  0
ENDBLK
  5
D5
  8
0
  0
BLOCK
  8
0
  2
DC_GROUP_47
 70
     0
 10
0.0
 20
0.0
 30
0.0
  3
DC_GROUP_47
  1

  0
LINE
  5
267
  8
LAYER0001
  6
CONTINUOUS
 62
     7
 10
443.430877242532
 20
-4.109185855593651
 30
0.0
 11
416.8525533879795
 21
-54.87009043103195
 31
0.0
  0
LINE
  5
268
  8
LAYER0001
  6
CONTINUOUS
 62
     7
 10
416.8525555677604
 20
-54.87009171600813
 30
0.0
 11
382.6309365027926
 21
-54.87009171600813
 31
0.0
  0
INSERT
  5
269
  8
LAYER0001
  6
DASHDOT2
  2
DC_GROUP_48
 10
0.0
 20
0.0
 30
0.0
  0
TEXT
  5
26A
  8
LAYER0001
 62
     7
 10
385.4175496168327
 20
-53.27009171600813
 30
0.0
 40
4.0
  1
PCD104.77
 41
0.7026455026455033
  7
FDASTYLE1
 72
     5
 11
410.7127877120708
 21
-53.27009171600813
 31
0.0
  0
ENDBLK
  5
D8
  8
0
  0
BLOCK
  8
0
  2
DC_GROUP_48
 70
     0
 10
0.0
 20
0.0
 30
0.0
  3
DC_GROUP_48
  1

  0
LINE
  5
26B
  8
LAYER0001
  6
CONTINUOUS
 62
     7
 10
442.0283997458849
 20
-5.632418869097247
 30
0.0
 11
443.430877242532
 21
-4.109185855593651
 31
0.0
  0
LINE
  5
26C
  8
LAYER0001
  6
CONTINUOUS
 62
     7
 10
443.430877242532
 20
-4.109185855593651
 30
0.0
 11
442.9779155811397
 21
-6.129583755844347
 31
0.0
  0
LINE
  5
26D
  8
LAYER0001
  6
CONTINUOUS
 62
     7
 10
443.430877242532
 20
-4.109185855593651
 30
0.0
 11
442.5031576635123
 21
-5.881001312470797
 31
0.0
  0
ENDBLK
  5
DB
  8
0
  0
BLOCK
  8
0
  2
DC_GROUP_49
 70
     0
 10
0.0
 20
0.0
 30
0.0
  3
DC_GROUP_49
  1

  0
LINE
  5
26E
  8
LAYER0001
  6
CONTINUOUS
 62
     7
 10
391.7008650465202
 20
41.03871413115984
 30
0.0
 11
380.6933854170036
 21
41.03871413115984
 31
0.0
  0
LINE
  5
26F
  8
LAYER0001
  6
CONTINUOUS
 62
     7
 10
423.6549246473502
 20
99.03871413115984
 30
0.0
 11
380.6933854170036
 21
99.03871413115984
 31
0.0
  0
LINE
  5
270
  8
LAYER0001
  6
CONTINUOUS
 62
     7
 10
381.6933854170036
 20
41.03871413115984
 30
0.0
 11
381.6933854170036
 21
99.03871413115984
 31
0.0
  0
INSERT
  5
271
  8
LAYER0001
  6
CONTINUOUS
  2
DC_GROUP_50
 10
0.0
 20
0.0
 30
0.0
  0
INSERT
  5
272
  8
LAYER0001
  6
CONTINUOUS
  2
DC_GROUP_51
 10
0.0
 20
0.0
 30
0.0
  0
TEXT
  5
273
  8
LAYER0001
 62
     7
 10
380.0933854170036
 20
66.83871413115983
 30
0.0
 40
4.0
  1
58
 50
90.0
 41
0.6476190476190453
  7
FDASTYLE1
 72
     5
 11
380.0933854170036
 21
72.0196665121122
 31
0.0
  0
ENDBLK
  5
DE
  8
0
  0
BLOCK
  8
0
  2
DC_GROUP_50
 70
     0
 10
0.0
 20
0.0
 30
0.0
  3
DC_GROUP_50
  1

  0
LINE
  5
274
  8
LAYER0001
  6
CONTINUOUS
 62
     7
 10
382.2292849519012
 20
43.03871253879051
 30
0.0
 11
381.6933854170036
 21
41.03871413115984
 31
0.0
  0
LINE
  5
275
  8
LAYER0001
  6
CONTINUOUS
 62
     7
 10
381.6933854170036
 20
41.03871413115984
 30
0.0
 11
381.157485882106
 21
43.03871253879051
 31
0.0
  0
LINE
  5
276
  8
LAYER0001
  6
CONTINUOUS
 62
     7
 10
381.6933854170036
 20
41.03871413115984
 30
0.0
 11
381.6933854170036
 21
43.03871253879051
 31
0.0
  0
ENDBLK
  5
E1
  8
0
  0
BLOCK
  8
0
  2
DC_GROUP_51
 70
     0
 10
0.0
 20
0.0
 30
0.0
  3
DC_GROUP_51
  1

  0
LINE
  5
277
  8
LAYER0001
  6
CONTINUOUS
 62
     7
 10
381.157485882106
 20
97.03871572352917
 30
0.0
 11
381.6933854170036
 21
99.03871413115984
 31
0.0
  0
LINE
  5
278
  8
LAYER0001
  6
CONTINUOUS
 62
     7
 10
381.6933854170036
 20
99.03871413115984
 30
0.0
 11
382.2292849519012
 21
97.03871572352917
 31
0.0
  0
LINE
  5
279
  8
LAYER0001
  6
CONTINUOUS
 62
     7
 10
381.6933854170036
 20
99.03871413115984
 30
0.0
 11
381.6933854170036
 21
97.03871572352917
 31
0.0
  0
ENDBLK
  5
E4
  8
0
  0
BLOCK
  8
0
  2
DC_GROUP_52
 70
     0
 10
0.0
 20
0.0
 30
0.0
  3
DC_GROUP_52
  1

  0
LINE
  5
27A
  8
LAYER0001
  6
CONTINUOUS
 62
     7
 10
216.4729941819607
 20
71.53857166838661
 30
0.0
 11
180.2460416673123
 21
71.53857166838661
 31
0.0
  0
LINE
  5
27B
  8
LAYER0001
  6
CONTINUOUS
 62
     7
 10
216.4729941819607
 20
10.53859026503578
 30
0.0
 11
180.2460416673123
 21
10.53859026503578
 31
0.0
  0
LINE
  5
27C
  8
LAYER0001
  6
CONTINUOUS
 62
     7
 10
181.2460416673123
 20
71.53858692717567
 30
0.0
 11
181.2460416673123
 21
10.53858645033851
 31
0.0
  0
INSERT
  5
27D
  8
LAYER0001
  6
CONTINUOUS
  2
DC_GROUP_53
 10
0.0
 20
0.0
 30
0.0
  0
INSERT
  5
27E
  8
LAYER0001
  6
CONTINUOUS
  2
DC_GROUP_54
 10
0.0
 20
0.0
 30
0.0
  0
TEXT
  5
27F
  8
LAYER0001
 62
     7
 10
179.6460416673123
 20
33.03858692717567
 30
0.0
 40
4.0
  1
φ61H7
 50
90.0
 41
0.6213017751479295
  7
FDASTYLE1
 72
     5
 11
179.6460416673123
 21
45.96166385025261
 31
0.0
  0
ENDBLK
  5
E7
  8
0
  0
BLOCK
  8
0
  2
DC_GROUP_53
 70
     0
 10
0.0
 20
0.0
 30
0.0
  3
DC_GROUP_53
  1

  0
LINE
  5
280
  8
LAYER0001
  6
CONTINUOUS
 62
     7
 10
180.7101421324147
 20
69.538588519545
 30
0.0
 11
181.2460416673123
 21
71.53858692717567
 31
0.0
  0
LINE
  5
281
  8
LAYER0001
  6
CONTINUOUS
 62
     7
 10
181.2460416673123
 20
71.53858692717567
 30
0.0
 11
181.7819412022099
 21
69.538588519545
 31
0.0
  0
LINE
  5
282
  8
LAYER0001
  6
CONTINUOUS
 62
     7
 10
181.2460416673123
 20
71.53858692717567
 30
0.0
 11
181.2460416673123
 21
69.538588519545
 31
0.0
  0
ENDBLK
  5
EA
  8
0
  0
BLOCK
  8
0
  2
DC_GROUP_54
 70
     0
 10
0.0
 20
0.0
 30
0.0
  3
DC_GROUP_54
  1

  0
LINE
  5
283
  8
LAYER0001
  6
CONTINUOUS
 62
     7
 10
181.7819412022099
 20
12.53858485796917
 30
0.0
 11
181.2460416673123
 21
10.53858645033851
 31
0.0
  0
LINE
  5
284
  8
LAYER0001
  6
CONTINUOUS
 62
     7
 10
181.2460416673123
 20
10.53858645033851
 30
0.0
 11
180.7101421324147
 21
12.53858485796917
 31
0.0
  0
LINE
  5
285
  8
LAYER0001
  6
CONTINUOUS
 62
     7
 10
181.2460416673123
 20
10.53858645033851
 30
0.0
 11
181.2460416673123
 21
12.53858485796917
 31
0.0
  0
ENDBLK
  5
ED
  8
0
  0
BLOCK
  8
0
  2
DC_GROUP_55
 70
     0
 10
0.0
 20
0.0
 30
0.0
  3
DC_GROUP_55
  1

  0
LINE
  5
286
  8
LAYER0001
  6
CONTINUOUS
 62
     7
 10
212.2729972337185
 20
111.0385716683866
 30
0.0
 11
170.2460416673123
 21
111.0385716683866
 31
0.0
  0
LINE
  5
287
  8
LAYER0001
  6
CONTINUOUS
 62
     7
 10
212.4302237962185
 20
-28.96140925812706
 30
0.0
 11
170.2460416673123
 21
-28.96140925812706
 31
0.0
  0
LINE
  5
288
  8
LAYER0001
  6
CONTINUOUS
 62
     7
 10
171.2460416673123
 20
111.0385792977811
 30
0.0
 11
171.2460416673123
 21
-28.96141307282433
 31
0.0
  0
INSERT
  5
289
  8
LAYER0001
  6
CONTINUOUS
  2
DC_GROUP_56
 10
0.0
 20
0.0
 30
0.0
  0
INSERT
  5
28A
  8
LAYER0001
  6
CONTINUOUS
  2
DC_GROUP_57
 10
0.0
 20
0.0
 30
0.0
  0
TEXT
  5
28B
  8
LAYER0001
 62
     7
 10
169.6460416673123
 20
31.43858311247841
 30
0.0
 40
4.0
  1
φ140H7
 50
90.0
 41
0.6243496357960454
  7
FDASTYLE1
 72
     5
 11
169.6460416673123
 21
46.92245408022033
 31
0.0
  0
ENDBLK
  5
F0
  8
0
  0
BLOCK
  8
0
  2
DC_GROUP_56
 70
     0
 10
0.0
 20
0.0
 30
0.0
  3
DC_GROUP_56
  1

  0
LINE
  5
28C
  8
LAYER0001
  6
CONTINUOUS
 62
     7
 10
170.7101421324147
 20
109.0385808901504
 30
0.0
 11
171.2460416673123
 21
111.0385792977811
 31
0.0
  0
LINE
  5
28D
  8
LAYER0001
  6
CONTINUOUS
 62
     7
 10
171.2460416673123
 20
111.0385792977811
 30
0.0
 11
171.7819412022099
 21
109.0385808901504
 31
0.0
  0
LINE
  5
28E
  8
LAYER0001
  6
CONTINUOUS
 62
     7
 10
171.2460416673123
 20
111.0385792977811
 30
0.0
 11
171.2460416673123
 21
109.0385808901504
 31
0.0
  0
ENDBLK
  5
F3
  8
0
  0
BLOCK
  8
0
  2
DC_GROUP_57
 70
     0
 10
0.0
 20
0.0
 30
0.0
  3
DC_GROUP_57
  1

  0
LINE
  5
28F
  8
LAYER0001
  6
CONTINUOUS
 62
     7
 10
171.7819412022099
 20
-26.96141466519367
 30
0.0
 11
171.2460416673123
 21
-28.96141307282433
 31
0.0
  0
LINE
  5
290
  8
LAYER0001
  6
CONTINUOUS
 62
     7
 10
171.2460416673123
 20
-28.96141307282433
 30
0.0
 11
170.7101421324147
 21
-26.96141466519367
 31
0.0
  0
LINE
  5
291
  8
LAYER0001
  6
CONTINUOUS
 62
     7
 10
171.2460416673123
 20
-28.96141307282433
 30
0.0
 11
171.2460416673123
 21
-26.96141466519367
 31
0.0
  0
ENDBLK
  5
F6
  8
0
  0
BLOCK
  8
0
  2
DC_GROUP_58
 70
     0
 10
0.0
 20
0.0
 30
0.0
  3
DC_GROUP_58
  1

  0
LINE
  5
292
  8
LAYER0001
  6
CONTINUOUS
 62
     7
 10
212.2729972337185
 20
121.0385716683866
 30
0.0
 11
160.2460416673123
 21
121.0385716683866
 31
0.0
  0
LINE
  5
293
  8
LAYER0001
  6
CONTINUOUS
 62
     7
 10
212.4302237962185
 20
-38.96142451691613
 30
0.0
 11
160.2460416673123
 21
-38.96142451691613
 31
0.0
  0
LINE
  5
294
  8
LAYER0001
  6
CONTINUOUS
 62
     7
 10
161.2460416673123
 20
121.0385792977811
 30
0.0
 11
161.2460416673123
 21
-38.96141688752159
 31
0.0
  0
INSERT
  5
295
  8
LAYER0001
  6
CONTINUOUS
  2
DC_GROUP_59
 10
0.0
 20
0.0
 30
0.0
  0
INSERT
  5
296
  8
LAYER0001
  6
CONTINUOUS
  2
DC_GROUP_60
 10
0.0
 20
0.0
 30
0.0
  0
TEXT
  5
297
  8
LAYER0001
 62
     7
 10
159.6460416673123
 20
34.6385831124784
 30
0.0
 40
4.0
  1
φ160
 50
90.0
 41
0.6167800453514751
  7
FDASTYLE1
 72
     5
 11
159.6460416673123
 21
45.00048787438318
 31
0.0
  0
ENDBLK
  5
F9
  8
0
  0
BLOCK
  8
0
  2
DC_GROUP_59
 70
     0
 10
0.0
 20
0.0
 30
0.0
  3
DC_GROUP_59
  1

  0
LINE
  5
298
  8
LAYER0001
  6
CONTINUOUS
 62
     7
 10
160.7101421324147
 20
119.0385808901504
 30
0.0
 11
161.2460416673123
 21
121.0385792977811
 31
0.0
  0
LINE
  5
299
  8
LAYER0001
  6
CONTINUOUS
 62
     7
 10
161.2460416673123
 20
121.0385792977811
 30
0.0
 11
161.7819412022099
 21
119.0385808901504
 31
0.0
  0
LINE
  5
29A
  8
LAYER0001
  6
CONTINUOUS
 62
     7
 10
161.2460416673123
 20
121.0385792977811
 30
0.0
 11
161.2460416673123
 21
119.0385808901504
 31
0.0
  0
ENDBLK
  5
FC
  8
0
  0
BLOCK
  8
0
  2
DC_GROUP_60
 70
     0
 10
0.0
 20
0.0
 30
0.0
  3
DC_GROUP_60
  1

  0
LINE
  5
29B
  8
LAYER0001
  6
CONTINUOUS
 62
     7
 10
161.7819412022099
 20
-36.96141847989092
 30
0.0
 11
161.2460416673123
 21
-38.96141688752159
 31
0.0
  0
LINE
  5
29C
  8
LAYER0001
  6
CONTINUOUS
 62
     7
 10
161.2460416673123
 20
-38.96141688752159
 30
0.0
 11
160.7101421324147
 21
-36.96141847989092
 31
0.0
  0
LINE
  5
29D
  8
LAYER0001
  6
CONTINUOUS
 62
     7
 10
161.2460416673123
 20
-38.96141688752159
 30
0.0
 11
161.2460416673123
 21
-36.96141847989092
 31
0.0
  0
ENDBLK
  5
FF
  8
0
  0
BLOCK
  8
0
  2
DC_GROUP_61
 70
     0
 10
0.0
 20
0.0
 30
0.0
  3
DC_GROUP_61
  1

  0
LINE
  5
29E
  8
LAYER0001
  6
CONTINUOUS
 62
     7
 10
286.4503635667263
 20
8.038589907407911
 30
0.0
 11
322.2460416673123
 21
8.038589907407911
 31
0.0
  0
LINE
  5
29F
  8
LAYER0001
  6
CONTINUOUS
 62
     7
 10
321.2460416673123
 20
8.038586092710645
 30
0.0
 11
321.2460416673123
 21
64.23858769011513
 31
0.0
  0
INSERT
  5
2A0
  8
LAYER0001
  6
CONTINUOUS
  2
DC_GROUP_62
 10
0.0
 20
0.0
 30
0.0
  0
TEXT
  5
2A1
  8
LAYER0001
 62
     7
 10
319.6460416673123
 20
33.00433094573036
 30
0.0
 40
4.0
  1
φ66H7
 50
90.0
 41
0.6213017751479282
  7
FDASTYLE1
 72
     5
 11
319.6460416673123
 21
45.92740786880727
 31
0.0
  0
ENDBLK
  5
102
  8
0
  0
BLOCK
  8
0
  2
DC_GROUP_62
 70
     0
 10
0.0
 20
0.0
 30
0.0
  3
DC_GROUP_62
  1

  0
LINE
  5
2A2
  8
LAYER0001
  6
CONTINUOUS
 62
     7
 10
321.7819412022099
 20
10.03858450034131
 30
0.0
 11
321.2460416673123
 21
8.038586092710645
 31
0.0
  0
LINE
  5
2A3
  8
LAYER0001
  6
CONTINUOUS
 62
     7
 10
321.2460416673123
 20
8.038586092710645
 30
0.0
 11
320.7101421324147
 21
10.03858450034131
 31
0.0
  0
LINE
  5
2A4
  8
LAYER0001
  6
CONTINUOUS
 62
     7
 10
321.2460416673123
 20
8.038586092710645
 30
0.0
 11
321.2460416673123
 21
10.03858450034131
 31
0.0
  0
ENDBLK
  5
105
  8
0
  0
BLOCK
  8
0
  2
DC_GROUP_63
 70
     0
 10
0.0
 20
0.0
 30
0.0
  3
DC_GROUP_63
  1

  0
LINE
  5
2A5
  8
LAYER0001
  6
CONTINUOUS
 62
     7
 10
214.8129972337185
 20
-76.29338739317163
 30
0.0
 11
219.0129941819607
 21
-76.29338739317163
 31
0.0
  0
LINE
  5
2A6
  8
LAYER0001
  6
CONTINUOUS
 62
     7
 10
214.8129972337185
 20
-43.00141688752159
 30
0.0
 11
214.8129972337185
 21
-77.29338739317163
 31
0.0
  0
LINE
  5
2A7
  8
LAYER0001
  6
CONTINUOUS
 62
     7
 10
219.0129941819607
 20
-32.025319780588
 30
0.0
 11
219.0129941819607
 21
-77.29338739317163
 31
0.0
  0
LINE
  5
2A8
  8
LAYER0001
  6
CONTINUOUS
 62
     7
 10
214.8129972337185
 20
-76.29338739317163
 30
0.0
 11
199.7497288918817
 21
-76.29338739317163
 31
0.0
  0
INSERT
  5
2A9
  8
LAYER0001
  6
CONTINUOUS
  2
DC_GROUP_64
 10
0.0
 20
0.0
 30
0.0
  0
TEXT
  5
2AA
  8
LAYER0001
 62
     7
 10
200.7678647874294
 20
-74.69338739317163
 30
0.0
 40
4.0
  1
4.2
 41
0.5587301587301591
  7
FDASTYLE1
 72
     5
 11
207.4726266921913
 21
-74.69338739317163
 31
0.0
  0
ENDBLK
  5
108
  8
0
  0
BLOCK
  8
0
  2
DC_GROUP_64
 70
     0
 10
0.0
 20
0.0
 30
0.0
  3
DC_GROUP_64
  1

  0
LINE
  5
2AB
  8
LAYER0001
  6
CONTINUOUS
 62
     7
 10
212.8129988260878
 20
-75.75748785827402
 30
0.0
 11
214.8129972337185
 21
-76.29338739317163
 31
0.0
  0
LINE
  5
2AC
  8
LAYER0001
  6
CONTINUOUS
 62
     7
 10
214.8129972337185
 20
-76.29338739317163
 30
0.0
 11
212.8129988260878
 21
-76.82928692806924
 31
0.0
  0
LINE
  5
2AD
  8
LAYER0001
  6
CONTINUOUS
 62
     7
 10
214.8129972337185
 20
-76.29338739317163
 30
0.0
 11
212.8129988260878
 21
-76.29338739317163
 31
0.0
  0
ENDBLK
  5
10B
  8
0
  0
BLOCK
  8
0
  2
DC_GROUP_65
 70
     0
 10
0.0
 20
0.0
 30
0.0
  3
DC_GROUP_65
  1

  0
LINE
  5
2AE
  8
LAYER0001
  6
CONTINUOUS
 62
     7
 10
219.0129941819607
 20
-76.27454721252231
 30
0.0
 11
284.3130124925076
 21
-76.27454721252231
 31
0.0
  0
LINE
  5
2AF
  8
LAYER0001
  6
CONTINUOUS
 62
     7
 10
219.0129941819607
 20
-33.00141307282433
 30
0.0
 11
219.0129941819607
 21
-77.27454721252231
 31
0.0
  0
LINE
  5
2B0
  8
LAYER0001
  6
CONTINUOUS
 62
     7
 10
284.3130124925076
 20
-41.00142070221886
 30
0.0
 11
284.3130124925076
 21
-77.27454721252231
 31
0.0
  0
INSERT
  5
2B1
  8
LAYER0001
  6
CONTINUOUS
  2
DC_GROUP_66
 10
0.0
 20
0.0
 30
0.0
  0
INSERT
  5
2B2
  8
LAYER0001
  6
CONTINUOUS
  2
DC_GROUP_67
 10
0.0
 20
0.0
 30
0.0
  0
TEXT
  5
2B3
  8
LAYER0001
 62
     7
 10
245.2630033372341
 20
-74.67454721252231
 30
0.0
 40
4.0
  1
65.3
 41
0.6000000000000014
  7
FDASTYLE1
 72
     5
 11
254.8630033372341
 21
-74.67454721252231
 31
0.0
  0
ENDBLK
  5
10E
  8
0
  0
BLOCK
  8
0
  2
DC_GROUP_66
 70
     0
 10
0.0
 20
0.0
 30
0.0
  3
DC_GROUP_66
  1

  0
LINE
  5
2B4
  8
LAYER0001
  6
CONTINUOUS
 62
     7
 10
221.0129925895914
 20
-76.81044674741992
 30
0.0
 11
219.0129941819607
 21
-76.27454721252231
 31
0.0
  0
LINE
  5
2B5
  8
LAYER0001
  6
CONTINUOUS
 62
     7
 10
219.0129941819607
 20
-76.27454721252231
 30
0.0
 11
221.0129925895914
 21
-75.7386476776247
 31
0.0
  0
LINE
  5
2B6
  8
LAYER0001
  6
CONTINUOUS
 62
     7
 10
219.0129941819607
 20
-76.27454721252231
 30
0.0
 11
221.0129925895914
 21
-76.27454721252231
 31
0.0
  0
ENDBLK
  5
111
  8
0
  0
BLOCK
  8
0
  2
DC_GROUP_67
 70
     0
 10
0.0
 20
0.0
 30
0.0
  3
DC_GROUP_67
  1

  0
LINE
  5
2B7
  8
LAYER0001
  6
CONTINUOUS
 62
     7
 10
282.3130140848769
 20
-75.7386476776247
 30
0.0
 11
284.3130124925076
 21
-76.27454721252231
 31
0.0
  0
LINE
  5
2B8
  8
LAYER0001
  6
CONTINUOUS
 62
     7
 10
284.3130124925076
 20
-76.27454721252231
 30
0.0
 11
282.3130140848769
 21
-76.81044674741992
 31
0.0
  0
LINE
  5
2B9
  8
LAYER0001
  6
CONTINUOUS
 62
     7
 10
284.3130124925076
 20
-76.27454721252231
 30
0.0
 11
282.3130140848769
 21
-76.27454721252231
 31
0.0
  0
ENDBLK
  5
114
  8
0
  0
BLOCK
  8
0
  2
DC_GROUP_68
 70
     0
 10
0.0
 20
0.0
 30
0.0
  3
DC_GROUP_68
  1

  0
LINE
  5
2BA
  8
LAYER0001
  6
CONTINUOUS
 62
     7
 10
219.0129941819607
 20
-59.90633032213285
 30
0.0
 11
254.3130124925076
 21
-59.90633032213285
 31
0.0
  0
LINE
  5
2BB
  8
LAYER0001
  6
CONTINUOUS
 62
     7
 10
219.0129941819607
 20
-31.50141307282433
 30
0.0
 11
219.0129941819607
 21
-60.90633032213285
 31
0.0
  0
LINE
  5
2BC
  8
LAYER0001
  6
CONTINUOUS
 62
     7
 10
254.3130124925076
 20
13.49858597350136
 30
0.0
 11
254.3130124925076
 21
-60.90633032213285
 31
0.0
  0
INSERT
  5
2BD
  8
LAYER0001
  6
CONTINUOUS
  2
DC_GROUP_69
 10
0.0
 20
0.0
 30
0.0
  0
INSERT
  5
2BE
  8
LAYER0001
  6
CONTINUOUS
  2
DC_GROUP_70
 10
0.0
 20
0.0
 30
0.0
  0
TEXT
  5
2BF
  8
LAYER0001
 62
     7
 10
225.4630033372341
 20
-58.90633032213285
 30
0.0
 40
4.0
  1
MAX44.3
 41
0.6802721088435371
  7
FDASTYLE1
 72
     5
 11
244.5106223848531
 21
-58.90633032213285
 31
0.0
  0
ENDBLK
  5
117
  8
0
  0
BLOCK
  8
0
  2
DC_GROUP_69
 70
     0
 10
0.0
 20
0.0
 30
0.0
  3
DC_GROUP_69
  1

  0
LINE
  5
2C0
  8
LAYER0001
  6
CONTINUOUS
 62
     7
 10
221.0129925895914
 20
-60.44222985703046
 30
0.0
 11
219.0129941819607
 21
-59.90633032213285
 31
0.0
  0
LINE
  5
2C1
  8
LAYER0001
  6
CONTINUOUS
 62
     7
 10
219.0129941819607
 20
-59.90633032213285
 30
0.0
 11
221.0129925895914
 21
-59.37043078723524
 31
0.0
  0
LINE
  5
2C2
  8
LAYER0001
  6
CONTINUOUS
 62
     7
 10
219.0129941819607
 20
-59.90633032213285
 30
0.0
 11
221.0129925895914
 21
-59.90633032213285
 31
0.0
  0
ENDBLK
  5
11A
  8
0
  0
BLOCK
  8
0
  2
DC_GROUP_70
 70
     0
 10
0.0
 20
0.0
 30
0.0
  3
DC_GROUP_70
  1

  0
LINE
  5
2C3
  8
LAYER0001
  6
CONTINUOUS
 62
     7
 10
252.3130140848769
 20
-59.37043078723524
 30
0.0
 11
254.3130124925076
 21
-59.90633032213285
 31
0.0
  0
LINE
  5
2C4
  8
LAYER0001
  6
CONTINUOUS
 62
     7
 10
254.3130124925076
 20
-59.90633032213285
 30
0.0
 11
252.3130140848769
 21
-60.44222985703046
 31
0.0
  0
LINE
  5
2C5
  8
LAYER0001
  6
CONTINUOUS
 62
     7
 10
254.3130124925076
 20
-59.90633032213285
 30
0.0
 11
252.3130140848769
 21
-59.90633032213285
 31
0.0
  0
ENDBLK
  5
11D
  8
0
  0
BLOCK
  8
0
  2
DC_GROUP_71
 70
     0
 10
0.0
 20
0.0
 30
0.0
  3
DC_GROUP_71
  1

  0
LINE
  5
2C6
  8
LAYER0001
  6
CONTINUOUS
 62
     7
 10
214.8129972337185
 20
-86.69066490009253
 30
0.0
 11
284.3130124925076
 21
-86.69066490009253
 31
0.0
  0
LINE
  5
2C7
  8
LAYER0001
  6
CONTINUOUS
 62
     7
 10
214.8129972337185
 20
-57.39181300568566
 30
0.0
 11
214.8129972337185
 21
-87.69066490009253
 31
0.0
  0
LINE
  5
2C8
  8
LAYER0001
  6
CONTINUOUS
 62
     7
 10
284.3130124925076
 20
-41.50142451691612
 30
0.0
 11
284.3130124925076
 21
-87.69066490009253
 31
0.0
  0
INSERT
  5
2C9
  8
LAYER0001
  6
CONTINUOUS
  2
DC_GROUP_72
 10
0.0
 20
0.0
 30
0.0
  0
INSERT
  5
2CA
  8
LAYER0001
  6
CONTINUOUS
  2
DC_GROUP_73
 10
0.0
 20
0.0
 30
0.0
  0
TEXT
  5
2CB
  8
LAYER0001
 62
     7
 10
243.163004863113
 20
-85.09066490009253
 30
0.0
 40
4.0
  1
69.5
 41
0.6000000000000014
  7
FDASTYLE1
 72
     5
 11
252.763004863113
 21
-85.09066490009253
 31
0.0
  0
ENDBLK
  5
120
  8
0
  0
BLOCK
  8
0
  2
DC_GROUP_72
 70
     0
 10
0.0
 20
0.0
 30
0.0
  3
DC_GROUP_72
  1

  0
LINE
  5
2CC
  8
LAYER0001
  6
CONTINUOUS
 62
     7
 10
216.8129956413491
 20
-87.22656443499014
 30
0.0
 11
214.8129972337185
 21
-86.69066490009253
 31
0.0
  0
LINE
  5
2CD
  8
LAYER0001
  6
CONTINUOUS
 62
     7
 10
214.8129972337185
 20
-86.69066490009253
 30
0.0
 11
216.8129956413491
 21
-86.15476536519492
 31
0.0
  0
LINE
  5
2CE
  8
LAYER0001
  6
CONTINUOUS
 62
     7
 10
214.8129972337185
 20
-86.69066490009253
 30
0.0
 11
216.8129956413491
 21
-86.69066490009253
 31
0.0
  0
ENDBLK
  5
123
  8
0
  0
BLOCK
  8
0
  2
DC_GROUP_73
 70
     0
 10
0.0
 20
0.0
 30
0.0
  3
DC_GROUP_73
  1

  0
LINE
  5
2CF
  8
LAYER0001
  6
CONTINUOUS
 62
     7
 10
282.3130140848769
 20
-86.15476536519492
 30
0.0
 11
284.3130124925076
 21
-86.69066490009253
 31
0.0
  0
LINE
  5
2D0
  8
LAYER0001
  6
CONTINUOUS
 62
     7
 10
284.3130124925076
 20
-86.69066490009253
 30
0.0
 11
282.3130140848769
 21
-87.22656443499014
 31
0.0
  0
LINE
  5
2D1
  8
LAYER0001
  6
CONTINUOUS
 62
     7
 10
284.3130124925076
 20
-86.69066490009253
 30
0.0
 11
282.3130140848769
 21
-86.69066490009253
 31
0.0
  0
ENDBLK
  5
126
  8
0
  0
BLOCK
  8
0
  2
DC_GROUP_74
 70
     0
 10
0.0
 20
0.0
 30
0.0
  3
DC_GROUP_74
  1

  0
LINE
  5
2D2
  8
LAYER0001
  6
CONTINUOUS
 62
     7
 10
231.3130124925076
 20
27.76658756804481
 30
0.0
 11
254.3130124925076
 21
27.76658756804481
 31
0.0
  0
INSERT
  5
2D3
  8
LAYER0001
  6
CONTINUOUS
  2
DC_GROUP_75
 10
0.0
 20
0.0
 30
0.0
  0
INSERT
  5
2D4
  8
LAYER0001
  6
CONTINUOUS
  2
DC_GROUP_76
 10
0.0
 20
0.0
 30
0.0
  0
TEXT
  5
2D5
  8
LAYER0001
 62
     7
 10
239.6130124925076
 20
29.36658756804481
 30
0.0
 40
4.0
  1
23
 41
0.6476190476190489
  7
FDASTYLE1
 72
     5
 11
244.79396487346
 21
29.36658756804481
 31
0.0
  0
ENDBLK
  5
129
  8
0
  0
BLOCK
  8
0
  2
DC_GROUP_75
 70
     0
 10
0.0
 20
0.0
 30
0.0
  3
DC_GROUP_75
  1

  0
LINE
  5
2D6
  8
LAYER0001
  6
CONTINUOUS
 62
     7
 10
233.3130109001382
 20
27.2306880331472
 30
0.0
 11
231.3130124925076
 21
27.76658756804481
 31
0.0
  0
LINE
  5
2D7
  8
LAYER0001
  6
CONTINUOUS
 62
     7
 10
231.3130124925076
 20
27.76658756804481
 30
0.0
 11
233.3130109001382
 21
28.30248710294242
 31
0.0
  0
LINE
  5
2D8
  8
LAYER0001
  6
CONTINUOUS
 62
     7
 10
231.3130124925076
 20
27.76658756804481
 30
0.0
 11
233.3130109001382
 21
27.76658756804481
 31
0.0
  0
ENDBLK
  5
12C
  8
0
  0
BLOCK
  8
0
  2
DC_GROUP_76
 70
     0
 10
0.0
 20
0.0
 30
0.0
  3
DC_GROUP_76
  1

  0
LINE
  5
2D9
  8
LAYER0001
  6
CONTINUOUS
 62
     7
 10
252.3130140848769
 20
28.30248710294242
 30
0.0
 11
254.3130124925076
 21
27.76658756804481
 31
0.0
  0
LINE
  5
2DA
  8
LAYER0001
  6
CONTINUOUS
 62
     7
 10
254.3130124925076
 20
27.76658756804481
 30
0.0
 11
252.3130140848769
 21
27.2306880331472
 31
0.0
  0
LINE
  5
2DB
  8
LAYER0001
  6
CONTINUOUS
 62
     7
 10
254.3130124925076
 20
27.76658756804481
 30
0.0
 11
252.3130140848769
 21
27.76658756804481
 31
0.0
  0
ENDBLK
  5
12F
  8
0
  0
BLOCK
  8
0
  2
DC_GROUP_77
 70
     0
 10
0.0
 20
0.0
 30
0.0
  3
DC_GROUP_77
  1

  0
LINE
  5
2DC
  8
LAYER0001
  6
CONTINUOUS
 62
     7
 10
254.3130124925076
 20
27.76658756804481
 30
0.0
 11
262.3130124925076
 21
27.76658756804481
 31
0.0
  0
LINE
  5
2DD
  8
LAYER0001
  6
CONTINUOUS
 62
     7
 10
254.3130124925076
 20
27.76658756804481
 30
0.0
 11
247.9630124925076
 21
27.76658756804481
 31
0.0
  0
LINE
  5
2DE
  8
LAYER0001
  6
CONTINUOUS
 62
     7
 10
268.6630124925076
 20
27.76658756804481
 30
0.0
 11
262.3130124925076
 21
27.76658756804481
 31
0.0
  0
INSERT
  5
2DF
  8
LAYER0001
  6
CONTINUOUS
  2
DC_GROUP_78
 10
0.0
 20
0.0
 30
0.0
  0
INSERT
  5
2E0
  8
LAYER0001
  6
CONTINUOUS
  2
DC_GROUP_79
 10
0.0
 20
0.0
 30
0.0
  0
TEXT
  5
2E1
  8
LAYER0001
 62
     7
 10
256.7130124925076
 20
29.36658756804481
 30
0.0
 40
4.0
  1
8
 41
0.5333333333333314
  7
FDASTYLE1
 72
     5
 11
258.8463458258409
 21
29.36658756804481
 31
0.0
  0
ENDBLK
  5
132
  8
0
  0
BLOCK
  8
0
  2
DC_GROUP_78
 70
     0
 10
0.0
 20
0.0
 30
0.0
  3
DC_GROUP_78
  1

  0
LINE
  5
2E2
  8
LAYER0001
  6
CONTINUOUS
 62
     7
 10
252.3130140848769
 20
28.30248710294242
 30
0.0
 11
254.3130124925076
 21
27.76658756804481
 31
0.0
  0
LINE
  5
2E3
  8
LAYER0001
  6
CONTINUOUS
 62
     7
 10
254.3130124925076
 20
27.76658756804481
 30
0.0
 11
252.3130140848769
 21
27.2306880331472
 31
0.0
  0
LINE
  5
2E4
  8
LAYER0001
  6
CONTINUOUS
 62
     7
 10
254.3130124925076
 20
27.76658756804481
 30
0.0
 11
252.3130140848769
 21
27.76658756804481
 31
0.0
  0
ENDBLK
  5
135
  8
0
  0
BLOCK
  8
0
  2
DC_GROUP_79
 70
     0
 10
0.0
 20
0.0
 30
0.0
  3
DC_GROUP_79
  1

  0
LINE
  5
2E5
  8
LAYER0001
  6
CONTINUOUS
 62
     7
 10
264.3130109001382
 20
27.2306880331472
 30
0.0
 11
262.3130124925076
 21
27.76658756804481
 31
0.0
  0
LINE
  5
2E6
  8
LAYER0001
  6
CONTINUOUS
 62
     7
 10
262.3130124925076
 20
27.76658756804481
 30
0.0
 11
264.3130109001382
 21
28.30248710294242
 31
0.0
  0
LINE
  5
2E7
  8
LAYER0001
  6
CONTINUOUS
 62
     7
 10
262.3130124925076
 20
27.76658756804481
 30
0.0
 11
264.3130109001382
 21
27.76658756804481
 31
0.0
  0
ENDBLK
  5
138
  8
0
  0
BLOCK
  8
0
  2
DC_GROUP_80
 70
     0
 10
0.0
 20
0.0
 30
0.0
  3
DC_GROUP_80
  1

  0
LINE
  5
2E8
  8
LAYER0001
  6
CONTINUOUS
 62
     7
 10
262.3130124925076
 20
27.76658756804481
 30
0.0
 11
271.3130124925076
 21
27.76658756804481
 31
0.0
  0
INSERT
  5
2E9
  8
LAYER0001
  6
CONTINUOUS
  2
DC_GROUP_81
 10
0.0
 20
0.0
 30
0.0
  0
INSERT
  5
2EA
  8
LAYER0001
  6
CONTINUOUS
  2
DC_GROUP_82
 10
0.0
 20
0.0
 30
0.0
  0
TEXT
  5
2EB
  8
LAYER0001
 62
     7
 10
265.2130124925076
 20
29.36658756804481
 30
0.0
 40
4.0
  1
9
 41
0.4952380952380935
  7
FDASTYLE1
 72
     5
 11
267.19396487346
 21
29.36658756804481
 31
0.0
  0
ENDBLK
  5
13B
  8
0
  0
BLOCK
  8
0
  2
DC_GROUP_81
 70
     0
 10
0.0
 20
0.0
 30
0.0
  3
DC_GROUP_81
  1

  0
LINE
  5
2EC
  8
LAYER0001
  6
CONTINUOUS
 62
     7
 10
264.3130109001382
 20
27.2306880331472
 30
0.0
 11
262.3130124925076
 21
27.76658756804481
 31
0.0
  0
LINE
  5
2ED
  8
LAYER0001
  6
CONTINUOUS
 62
     7
 10
262.3130124925076
 20
27.76658756804481
 30
0.0
 11
264.3130109001382
 21
28.30248710294242
 31
0.0
  0
LINE
  5
2EE
  8
LAYER0001
  6
CONTINUOUS
 62
     7
 10
262.3130124925076
 20
27.76658756804481
 30
0.0
 11
264.3130109001382
 21
27.76658756804481
 31
0.0
  0
ENDBLK
  5
13E
  8
0
  0
BLOCK
  8
0
  2
DC_GROUP_82
 70
     0
 10
0.0
 20
0.0
 30
0.0
  3
DC_GROUP_82
  1

  0
LINE
  5
2EF
  8
LAYER0001
  6
CONTINUOUS
 62
     7
 10
269.3130140848769
 20
28.30248710294242
 30
0.0
 11
271.3130124925076
 21
27.76658756804481
 31
0.0
  0
LINE
  5
2F0
  8
LAYER0001
  6
CONTINUOUS
 62
     7
 10
271.3130124925076
 20
27.76658756804481
 30
0.0
 11
269.3130140848769
 21
27.2306880331472
 31
0.0
  0
LINE
  5
2F1
  8
LAYER0001
  6
CONTINUOUS
 62
     7
 10
271.3130124925076
 20
27.76658756804481
 30
0.0
 11
269.3130140848769
 21
27.76658756804481
 31
0.0
  0
ENDBLK
  5
141
  8
0
  0
BLOCK
  8
0
  2
DC_GROUP_83
 70
     0
 10
0.0
 20
0.0
 30
0.0
  3
DC_GROUP_83
  1

  0
LINE
  5
2F2
  8
LAYER0001
  6
CONTINUOUS
 62
     7
 10
283.3130124925076
 20
123.5785792977812
 30
0.0
 11
283.3130124925076
 21
137.4073384530546
 31
0.0
  0
LINE
  5
2F3
  8
LAYER0001
  6
CONTINUOUS
 62
     7
 10
284.3130124925076
 20
121.5785792977812
 30
0.0
 11
284.3130124925076
 21
137.4073384530546
 31
0.0
  0
LINE
  5
2F4
  8
LAYER0001
  6
CONTINUOUS
 62
     7
 10
283.3130124925076
 20
136.4073384530546
 30
0.0
 11
284.3130124925076
 21
136.4073384530546
 31
0.0
  0
LINE
  5
2F5
  8
LAYER0001
  6
CONTINUOUS
 62
     7
 10
283.3130124925076
 20
136.4073384530546
 30
0.0
 11
276.9630124925076
 21
136.4073384530546
 31
0.0
  0
LINE
  5
2F6
  8
LAYER0001
  6
CONTINUOUS
 62
     7
 10
290.6630124925076
 20
136.4073384530546
 30
0.0
 11
284.3130124925076
 21
136.4073384530546
 31
0.0
  0
INSERT
  5
2F7
  8
LAYER0001
  6
CONTINUOUS
  2
DC_GROUP_84
 10
0.0
 20
0.0
 30
0.0
  0
INSERT
  5
2F8
  8
LAYER0001
  6
CONTINUOUS
  2
DC_GROUP_85
 10
0.0
 20
0.0
 30
0.0
  0
TEXT
  5
2F9
  8
LAYER0001
 62
     7
 10
275.3620984910427
 20
138.0073384530546
 30
0.0
 40
4.0
  1
1
 41
0.1904761904761898
  7
FDASTYLE1
 72
     5
 11
276.1240032529475
 21
138.0073384530546
 31
0.0
  0
ENDBLK
  5
144
  8
0
  0
BLOCK
  8
0
  2
DC_GROUP_84
 70
     0
 10
0.0
 20
0.0
 30
0.0
  3
DC_GROUP_84
  1

  0
LINE
  5
2FA
  8
LAYER0001
  6
CONTINUOUS
 62
     7
 10
281.3130140848769
 20
136.9432379879522
 30
0.0
 11
283.3130124925076
 21
136.4073384530546
 31
0.0
  0
LINE
  5
2FB
  8
LAYER0001
  6
CONTINUOUS
 62
     7
 10
283.3130124925076
 20
136.4073384530546
 30
0.0
 11
281.3130140848769
 21
135.871438918157
 31
0.0
  0
LINE
  5
2FC
  8
LAYER0001
  6
CONTINUOUS
 62
     7
 10
283.3130124925076
 20
136.4073384530546
 30
0.0
 11
281.3130140848769
 21
136.4073384530546
 31
0.0
  0
ENDBLK
  5
147
  8
0
  0
BLOCK
  8
0
  2
DC_GROUP_85
 70
     0
 10
0.0
 20
0.0
 30
0.0
  3
DC_GROUP_85
  1

  0
LINE
  5
2FD
  8
LAYER0001
  6
CONTINUOUS
 62
     7
 10
286.3130109001382
 20
135.871438918157
 30
0.0
 11
284.3130124925076
 21
136.4073384530546
 31
0.0
  0
LINE
  5
2FE
  8
LAYER0001
  6
CONTINUOUS
 62
     7
 10
284.3130124925076
 20
136.4073384530546
 30
0.0
 11
286.3130109001382
 21
136.9432379879522
 31
0.0
  0
LINE
  5
2FF
  8
LAYER0001
  6
CONTINUOUS
 62
     7
 10
284.3130124925076
 20
136.4073384530546
 30
0.0
 11
286.3130109001382
 21
136.4073384530546
 31
0.0
  0
ENDBLK
  5
14A
  8
0
  0
BLOCK
  8
0
  2
DC_GROUP_86
 70
     0
 10
0.0
 20
0.0
 30
0.0
  3
DC_GROUP_86
  1

  0
LINE
  5
300
  8
LAYER0001
  6
CONTINUOUS
 62
     7
 10
200.7729972337185
 20
-6.346404718637317
 30
0.0
 11
190.2460416673123
 21
-6.346404718637317
 31
0.0
  0
LINE
  5
301
  8
LAYER0001
  6
CONTINUOUS
 62
     7
 10
200.7729972337185
 20
-16.34640567231163
 30
0.0
 11
190.2460416673123
 21
-16.34640567231163
 31
0.0
  0
LINE
  5
302
  8
LAYER0001
  6
CONTINUOUS
 62
     7
 10
191.2460416673123
 20
-6.346412348031848
 30
0.0
 11
191.2460416673123
 21
-16.34641330170616
 31
0.0
  0
LINE
  5
303
  8
LAYER0001
  6
CONTINUOUS
 62
     7
 10
191.2460416673123
 20
-6.346412348031848
 30
0.0
 11
191.2460416673123
 21
0.0035876519681519
 31
0.0
  0
LINE
  5
304
  8
LAYER0001
  6
CONTINUOUS
 62
     7
 10
191.2460416673123
 20
-22.69641330170617
 30
0.0
 11
191.2460416673123
 21
-16.34641330170616
 31
0.0
  0
INSERT
  5
305
  8
LAYER0001
  6
CONTINUOUS
  2
DC_GROUP_87
 10
0.0
 20
0.0
 30
0.0
  0
INSERT
  5
306
  8
LAYER0001
  6
CONTINUOUS
  2
DC_GROUP_88
 10
0.0
 20
0.0
 30
0.0
  0
TEXT
  5
307
  8
LAYER0001
 62
     7
 10
189.6460416673123
 20
-16.14641330170618
 30
0.0
 40
4.0
  1
M10
 50
90.0
 41
0.723809523809526
  7
FDASTYLE1
 72
     5
 11
189.6460416673123
 21
-7.460699015991867
 31
0.0
  0
ENDBLK
  5
14D
  8
0
  0
BLOCK
  8
0
  2
DC_GROUP_87
 70
     0
 10
0.0
 20
0.0
 30
0.0
  3
DC_GROUP_87
  1

  0
LINE
  5
308
  8
LAYER0001
  6
CONTINUOUS
 62
     7
 10
191.7819412022099
 20
-4.346413940401186
 30
0.0
 11
191.2460416673123
 21
-6.346412348031848
 31
0.0
  0
LINE
  5
309
  8
LAYER0001
  6
CONTINUOUS
 62
     7
 10
191.2460416673123
 20
-6.346412348031848
 30
0.0
 11
190.7101421324147
 21
-4.346413940401186
 31
0.0
  0
LINE
  5
30A
  8
LAYER0001
  6
CONTINUOUS
 62
     7
 10
191.2460416673123
 20
-6.346412348031848
 30
0.0
 11
191.2460416673123
 21
-4.346413940401186
 31
0.0
  0
ENDBLK
  5
150
  8
0
  0
BLOCK
  8
0
  2
DC_GROUP_88
 70
     0
 10
0.0
 20
0.0
 30
0.0
  3
DC_GROUP_88
  1

  0
LINE
  5
30B
  8
LAYER0001
  6
CONTINUOUS
 62
     7
 10
190.7101421324147
 20
-18.34641170933682
 30
0.0
 11
191.2460416673123
 21
-16.34641330170616
 31
0.0
  0
LINE
  5
30C
  8
LAYER0001
  6
CONTINUOUS
 62
     7
 10
191.2460416673123
 20
-16.34641330170616
 30
0.0
 11
191.7819412022099
 21
-18.34641170933682
 31
0.0
  0
LINE
  5
30D
  8
LAYER0001
  6
CONTINUOUS
 62
     7
 10
191.2460416673123
 20
-16.34641330170616
 30
0.0
 11
191.2460416673123
 21
-18.34641170933682
 31
0.0
  0
ENDBLK
  5
153
  8
0
  0
BLOCK
  8
0
  2
DC_GROUP_89
 70
     0
 10
0.0
 20
0.0
 30
0.0
  3
DC_GROUP_89
  1

  0
LINE
  5
30E
  8
LAYER0001
  6
CONTINUOUS
 62
     7
 10
279.4745586635085
 20
110.7372867878626
 30
0.0
 11
261.2460424365821
 21
136.4073375137482
 31
0.0
  0
LINE
  5
30F
  8
LAYER0001
  6
CONTINUOUS
 62
     7
 10
261.2460416673123
 20
136.4073384530546
 30
0.0
 11
247.4036191819607
 21
136.4073384530546
 31
0.0
  0
INSERT
  5
310
  8
LAYER0001
  6
CONTINUOUS
  2
DC_GROUP_90
 10
0.0
 20
0.0
 30
0.0
  0
TEXT
  5
311
  8
LAYER0001
 62
     7
 10
249.2321882127224
 20
138.0073384530546
 30
0.0
 40
4.0
  1
M8
 41
0.7047619047619058
  7
FDASTYLE1
 72
     5
 11
254.8702834508177
 21
138.0073384530546
 31
0.0
  0
ENDBLK
  5
156
  8
0
  0
BLOCK
  8
0
  2
DC_GROUP_90
 70
     0
 10
0.0
 20
0.0
 30
0.0
  3
DC_GROUP_90
  1

  0
LINE
  5
312
  8
LAYER0001
  6
CONTINUOUS
 62
     7
 10
278.753539352331
 20
112.6782435351751
 30
0.0
 11
279.4745586635085
 21
110.7372867878626
 31
0.0
  0
LINE
  5
313
  8
LAYER0001
  6
CONTINUOUS
 62
     7
 10
279.4745586635085
 20
110.7372867878626
 30
0.0
 11
277.8796573073147
 21
112.05769263685
 31
0.0
  0
LINE
  5
314
  8
LAYER0001
  6
CONTINUOUS
 62
     7
 10
279.4745586635085
 20
110.7372867878626
 30
0.0
 11
278.3165983298229
 21
112.3679680860126
 31
0.0
  0
ENDBLK
  5
159
  8
0
  0
BLOCK
  8
0
  2
DC_GROUP_91
 70
     0
 10
0.0
 20
0.0
 30
0.0
  3
DC_GROUP_91
  1

  0
LINE
  5
315
  8
LAYER0001
  6
CONTINUOUS
 62
     7
 10
273.8530124925076
 20
14.03859026503578
 30
0.0
 11
312.2460416673123
 21
14.03859026503578
 31
0.0
  0
LINE
  5
316
  8
LAYER0001
  6
CONTINUOUS
 62
     7
 10
311.2460416673123
 20
14.03859026503578
 30
0.0
 11
311.2460416673123
 21
64.23858769011513
 31
0.0
  0
INSERT
  5
317
  8
LAYER0001
  6
CONTINUOUS
  2
DC_GROUP_92
 10
0.0
 20
0.0
 30
0.0
  0
TEXT
  5
318
  8
LAYER0001
 62
     7
 10
309.6460416673123
 20
26.60433094573036
 30
0.0
 40
4.0
  1
M54×Ｐ1.25
 50
90.0
 41
0.6192847442281572
  7
FDASTYLE1
 72
     5
 11
309.6460416673123
 21
49.88943732870907
 31
0.0
  0
ENDBLK
  5
15C
  8
0
  0
BLOCK
  8
0
  2
DC_GROUP_92
 70
     0
 10
0.0
 20
0.0
 30
0.0
  3
DC_GROUP_92
  1

  0
LINE
  5
319
  8
LAYER0001
  6
CONTINUOUS
 62
     7
 10
311.7819412022099
 20
16.03858867266644
 30
0.0
 11
311.2460416673123
 21
14.03859026503578
 31
0.0
  0
LINE
  5
31A
  8
LAYER0001
  6
CONTINUOUS
 62
     7
 10
311.2460416673123
 20
14.03859026503578
 30
0.0
 11
310.7101421324147
 21
16.03858867266644
 31
0.0
  0
LINE
  5
31B
  8
LAYER0001
  6
CONTINUOUS
 62
     7
 10
311.2460416673123
 20
14.03859026503578
 30
0.0
 11
311.2460416673123
 21
16.03858867266644
 31
0.0
  0
ENDBLK
  5
15F
  8
0
  0
BLOCK
  8
0
  2
DC_GROUP_93
 70
     0
 10
0.0
 20
0.0
 30
0.0
  3
DC_GROUP_93
  1

  0
LINE
  5
31C
  8
LAYER0001
  6
CONTINUOUS
 62
     7
 10
306.7621540330349
 20
85.03857166838661
 30
0.0
 11
312.2460416673123
 21
85.03857166838661
 31
0.0
  0
LINE
  5
31D
  8
LAYER0001
  6
CONTINUOUS
 62
     7
 10
306.5692295335232
 20
110.0385716683866
 30
0.0
 11
312.2460416673123
 21
110.0385716683866
 31
0.0
  0
LINE
  5
31E
  8
LAYER0001
  6
CONTINUOUS
 62
     7
 10
311.2460416673123
 20
85.03857166838661
 30
0.0
 11
311.2460416673123
 21
110.0385716683866
 31
0.0
  0
INSERT
  5
31F
  8
LAYER0001
  6
CONTINUOUS
  2
DC_GROUP_94
 10
0.0
 20
0.0
 30
0.0
  0
INSERT
  5
320
  8
LAYER0001
  6
CONTINUOUS
  2
DC_GROUP_95
 10
0.0
 20
0.0
 30
0.0
  0
TEXT
  5
321
  8
LAYER0001
 62
     7
 10
309.6460416673123
 20
94.33857166838661
 30
0.0
 40
4.0
  1
25
 50
90.0
 41
0.6476190476190453
  7
FDASTYLE1
 72
     5
 11
309.6460416673123
 21
99.51952404933897
 31
0.0
  0
ENDBLK
  5
162
  8
0
  0
BLOCK
  8
0
  2
DC_GROUP_94
 70
     0
 10
0.0
 20
0.0
 30
0.0
  3
DC_GROUP_94
  1

  0
LINE
  5
322
  8
LAYER0001
  6
CONTINUOUS
 62
     7
 10
311.7819412022099
 20
87.03857007601727
 30
0.0
 11
311.2460416673123
 21
85.03857166838661
 31
0.0
  0
LINE
  5
323
  8
LAYER0001
  6
CONTINUOUS
 62
     7
 10
311.2460416673123
 20
85.03857166838661
 30
0.0
 11
310.7101421324147
 21
87.03857007601727
 31
0.0
  0
LINE
  5
324
  8
LAYER0001
  6
CONTINUOUS
 62
     7
 10
311.2460416673123
 20
85.03857166838661
 30
0.0
 11
311.2460416673123
 21
87.03857007601727
 31
0.0
  0
ENDBLK
  5
165
  8
0
  0
BLOCK
  8
0
  2
DC_GROUP_95
 70
     0
 10
0.0
 20
0.0
 30
0.0
  3
DC_GROUP_95
  1

  0
LINE
  5
325
  8
LAYER0001
  6
CONTINUOUS
 62
     7
 10
310.7101421324147
 20
108.0385732607559
 30
0.0
 11
311.2460416673123
 21
110.0385716683866
 31
0.0
  0
LINE
  5
326
  8
LAYER0001
  6
CONTINUOUS
 62
     7
 10
311.2460416673123
 20
110.0385716683866
 30
0.0
 11
311.7819412022099
 21
108.0385732607559
 31
0.0
  0
LINE
  5
327
  8
LAYER0001
  6
CONTINUOUS
 62
     7
 10
311.2460416673123
 20
110.0385716683866
 30
0.0
 11
311.2460416673123
 21
108.0385732607559
 31
0.0
  0
ENDBLK
  5
168
  8
0
  0
BLOCK
  8
0
  2
DC_GROUP_96
 70
     0
 10
0.0
 20
0.0
 30
0.0
  3
DC_GROUP_96
  1

  0
LINE
  5
328
  8
LAYER0001
  6
CONTINUOUS
 62
     7
 10
281.8130124925076
 20
27.76658756804481
 30
0.0
 11
284.3130124925076
 21
27.76658756804481
 31
0.0
  0
LINE
  5
329
  8
LAYER0001
  6
CONTINUOUS
 62
     7
 10
281.8130124925076
 20
27.76658756804481
 30
0.0
 11
275.4630124925076
 21
27.76658756804481
 31
0.0
  0
LINE
  5
32A
  8
LAYER0001
  6
CONTINUOUS
 62
     7
 10
290.6630124925076
 20
27.76658756804481
 30
0.0
 11
284.3130124925076
 21
27.76658756804481
 31
0.0
  0
INSERT
  5
32B
  8
LAYER0001
  6
CONTINUOUS
  2
DC_GROUP_97
 10
0.0
 20
0.0
 30
0.0
  0
INSERT
  5
32C
  8
LAYER0001
  6
CONTINUOUS
  2
DC_GROUP_98
 10
0.0
 20
0.0
 30
0.0
  0
TEXT
  5
32D
  8
LAYER0001
 62
     7
 10
288.5206571458279
 20
29.36658756804481
 30
0.0
 40
4.0
  1
2.5
 41
0.5587301587301568
  7
FDASTYLE1
 72
     5
 11
295.2254190505898
 21
29.36658756804481
 31
0.0
  0
ENDBLK
  5
16B
  8
0
  0
BLOCK
  8
0
  2
DC_GROUP_97
 70
     0
 10
0.0
 20
0.0
 30
0.0
  3
DC_GROUP_97
  1

  0
LINE
  5
32E
  8
LAYER0001
  6
CONTINUOUS
 62
     7
 10
279.8130140848769
 20
28.30248710294242
 30
0.0
 11
281.8130124925076
 21
27.76658756804481
 31
0.0
  0
LINE
  5
32F
  8
LAYER0001
  6
CONTINUOUS
 62
     7
 10
281.8130124925076
 20
27.76658756804481
 30
0.0
 11
279.8130140848769
 21
27.2306880331472
 31
0.0
  0
LINE
  5
330
  8
LAYER0001
  6
CONTINUOUS
 62
     7
 10
281.8130124925076
 20
27.76658756804481
 30
0.0
 11
279.8130140848769
 21
27.76658756804481
 31
0.0
  0
ENDBLK
  5
16E
  8
0
  0
BLOCK
  8
0
  2
DC_GROUP_98
 70
     0
 10
0.0
 20
0.0
 30
0.0
  3
DC_GROUP_98
  1

  0
LINE
  5
331
  8
LAYER0001
  6
CONTINUOUS
 62
     7
 10
286.3130109001382
 20
27.2306880331472
 30
0.0
 11
284.3130124925076
 21
27.76658756804481
 31
0.0
  0
LINE
  5
332
  8
LAYER0001
  6
CONTINUOUS
 62
     7
 10
284.3130124925076
 20
27.76658756804481
 30
0.0
 11
286.3130109001382
 21
28.30248710294242
 31
0.0
  0
LINE
  5
333
  8
LAYER0001
  6
CONTINUOUS
 62
     7
 10
284.3130124925076
 20
27.76658756804481
 30
0.0
 11
286.3130109001382
 21
27.76658756804481
 31
0.0
  0
ENDBLK
  5
171
  8
0
  0
BLOCK
  8
0
  2
DC_GROUP_99
 70
     0
 10
0.0
 20
0.0
 30
0.0
  3
DC_GROUP_99
  1

  0
LINE
  5
334
  8
LAYER0001
  6
CONTINUOUS
 62
     7
 10
334.6325149012603
 20
76.03857929778114
 30
0.0
 11
334.6325149012603
 21
121.0385792977811
 31
0.0
  0
LINE
  5
335
  8
LAYER0001
  6
CONTINUOUS
 62
     7
 10
285.8530124925076
 20
121.0385716683866
 30
0.0
 11
335.6325149012603
 21
121.0385794541869
 31
0.0
  0
INSERT
  5
336
  8
LAYER0001
  6
CONTINUOUS
  2
DC_GROUP_100
 10
0.0
 20
0.0
 30
0.0
  0
INSERT
  5
337
  8
LAYER0001
  6
CONTINUOUS
  2
DC_GROUP_101
 10
0.0
 20
0.0
 30
0.0
  0
TEXT
  5
338
  8
LAYER0001
 62
     7
 10
333.0325149012603
 20
94.47796833586708
 30
0.0
 40
4.0
  1
45
 50
90.0
 41
0.6476190476190524
  7
FDASTYLE1
 72
     5
 11
333.0325149012603
 21
99.6589207168195
 31
0.0
  0
ENDBLK
  5
174
  8
0
  0
BLOCK
  8
0
  2
DC_GROUP_100
 70
     0
 10
0.0
 20
0.0
 30
0.0
  3
DC_GROUP_100
  1

  0
LINE
  5
339
  8
LAYER0001
  6
CONTINUOUS
 62
     7
 10
335.1684144361579
 20
78.0385777054118
 30
0.0
 11
334.6325149012603
 21
76.03857929778114
 31
0.0
  0
LINE
  5
33A
  8
LAYER0001
  6
CONTINUOUS
 62
     7
 10
334.6325149012603
 20
76.03857929778114
 30
0.0
 11
334.0966153663627
 21
78.0385777054118
 31
0.0
  0
LINE
  5
33B
  8
LAYER0001
  6
CONTINUOUS
 62
     7
 10
334.6325149012603
 20
76.03857929778114
 30
0.0
 11
334.6325149012603
 21
78.0385777054118
 31
0.0
  0
ENDBLK
  5
177
  8
0
  0
BLOCK
  8
0
  2
DC_GROUP_101
 70
     0
 10
0.0
 20
0.0
 30
0.0
  3
DC_GROUP_101
  1

  0
LINE
  5
33C
  8
LAYER0001
  6
CONTINUOUS
 62
     7
 10
334.0966153663627
 20
119.0385808901504
 30
0.0
 11
334.6325149012603
 21
121.0385792977811
 31
0.0
  0
LINE
  5
33D
  8
LAYER0001
  6
CONTINUOUS
 62
     7
 10
334.6325149012603
 20
121.0385792977811
 30
0.0
 11
335.1684144361579
 21
119.0385808901504
 31
0.0
  0
LINE
  5
33E
  8
LAYER0001
  6
CONTINUOUS
 62
     7
 10
334.6325149012603
 20
121.0385792977811
 30
0.0
 11
334.6325149012603
 21
119.0385808901504
 31
0.0
  0
ENDBLK
  5
17A
  8
0
  0
BLOCK
  8
0
  2
DC_GROUP_102
 70
     0
 10
0.0
 20
0.0
 30
0.0
  3
DC_GROUP_102
  1

  0
LINE
  5
33F
  8
LAYER0001
  6
CONTINUOUS
 62
     7
 10
286.8530124925076
 20
118.0385716683866
 30
0.0
 11
322.2460416673123
 21
118.0385716683866
 31
0.0
  0
LINE
  5
340
  8
LAYER0001
  6
CONTINUOUS
 62
     7
 10
286.8530124925076
 20
77.03856403899208
 30
0.0
 11
303.0304760613785
 21
77.03856403899208
 31
0.0
  0
LINE
  5
341
  8
LAYER0001
  6
CONTINUOUS
 62
     7
 10
306.2562025139343
 20
77.03856403899208
 30
0.0
 11
322.2460416673123
 21
77.03856403899208
 31
0.0
  0
LINE
  5
342
  8
LAYER0001
  6
CONTINUOUS
 62
     7
 10
321.2460416673123
 20
77.03856403899208
 30
0.0
 11
321.2460416673123
 21
118.0385716683866
 31
0.0
  0
INSERT
  5
343
  8
LAYER0001
  6
CONTINUOUS
  2
DC_GROUP_103
 10
0.0
 20
0.0
 30
0.0
  0
INSERT
  5
344
  8
LAYER0001
  6
CONTINUOUS
  2
DC_GROUP_104
 10
0.0
 20
0.0
 30
0.0
  0
TEXT
  5
345
  8
LAYER0001
 62
     7
 10
319.6460416673123
 20
94.57302296233192
 30
0.0
 40
4.0
  1
41
 50
90.0
 41
0.5333333333333314
  7
FDASTYLE1
 72
     5
 11
319.6460416673123
 21
98.83968962899857
 31
0.0
  0
ENDBLK
  5
17D
  8
0
  0
BLOCK
  8
0
  2
DC_GROUP_103
 70
     0
 10
0.0
 20
0.0
 30
0.0
  3
DC_GROUP_103
  1

  0
LINE
  5
346
  8
LAYER0001
  6
CONTINUOUS
 62
     7
 10
321.7819412022099
 20
79.03856244662273
 30
0.0
 11
321.2460416673123
 21
77.03856403899208
 31
0.0
  0
LINE
  5
347
  8
LAYER0001
  6
CONTINUOUS
 62
     7
 10
321.2460416673123
 20
77.03856403899208
 30
0.0
 11
320.7101421324147
 21
79.03856244662273
 31
0.0
  0
LINE
  5
348
  8
LAYER0001
  6
CONTINUOUS
 62
     7
 10
321.2460416673123
 20
77.03856403899208
 30
0.0
 11
321.2460416673123
 21
79.03856244662273
 31
0.0
  0
ENDBLK
  5
180
  8
0
  0
BLOCK
  8
0
  2
DC_GROUP_104
 70
     0
 10
0.0
 20
0.0
 30
0.0
  3
DC_GROUP_104
  1

  0
LINE
  5
349
  8
LAYER0001
  6
CONTINUOUS
 62
     7
 10
320.7101421324147
 20
116.0385732607559
 30
0.0
 11
321.2460416673123
 21
118.0385716683866
 31
0.0
  0
LINE
  5
34A
  8
LAYER0001
  6
CONTINUOUS
 62
     7
 10
321.2460416673123
 20
118.0385716683866
 30
0.0
 11
321.7819412022099
 21
116.0385732607559
 31
0.0
  0
LINE
  5
34B
  8
LAYER0001
  6
CONTINUOUS
 62
     7
 10
321.2460416673123
 20
118.0385716683866
 30
0.0
 11
321.2460416673123
 21
116.0385732607559
 31
0.0
  0
ENDBLK
  5
183
  8
0
  0
BLOCK
  8
0
  2
DC_GROUP_105
 70
     0
 10
0.0
 20
0.0
 30
0.0
  3
DC_GROUP_105
  1

  0
LINE
  5
34C
  8
LAYER0001
  6
CONTINUOUS
 62
     7
 10
334.6460124956005
 20
41.03858692717567
 30
0.0
 11
334.6460124956005
 21
76.03857929778114
 31
0.0
  0
LINE
  5
34D
  8
LAYER0001
  6
CONTINUOUS
 62
     7
 10
285.6435779832302
 20
76.03857166838661
 30
0.0
 11
302.9968747293858
 21
76.03857437019416
 31
0.0
  0
LINE
  5
34E
  8
LAYER0001
  6
CONTINUOUS
 62
     7
 10
306.3234051231208
 20
76.03857488811562
 30
0.0
 11
335.6460124956005
 21
76.03857945347534
 31
0.0
  0
LINE
  5
34F
  8
LAYER0001
  6
CONTINUOUS
 62
     7
 10
288.8379763167529
 20
41.03853471355895
 30
0.0
 11
304.0936129366602
 21
41.03855210247212
 31
0.0
  0
LINE
  5
350
  8
LAYER0001
  6
CONTINUOUS
 62
     7
 10
322.9126095245138
 20
41.03857355302876
 30
0.0
 11
335.6460124955999
 21
41.03858806701097
 31
0.0
  0
INSERT
  5
351
  8
LAYER0001
  6
CONTINUOUS
  2
DC_GROUP_106
 10
0.0
 20
0.0
 30
0.0
  0
INSERT
  5
352
  8
LAYER0001
  6
CONTINUOUS
  2
DC_GROUP_107
 10
0.0
 20
0.0
 30
0.0
  0
ENDBLK
  5
186
  8
0
  0
BLOCK
  8
0
  2
DC_GROUP_106
 70
     0
 10
0.0
 20
0.0
 30
0.0
  3
DC_GROUP_106
  1

  0
LINE
  5
353
  8
LAYER0001
  6
CONTINUOUS
 62
     7
 10
335.1819120304981
 20
43.03858533480634
 30
0.0
 11
334.6460124956005
 21
41.03858692717567
 31
0.0
  0
LINE
  5
354
  8
LAYER0001
  6
CONTINUOUS
 62
     7
 10
334.6460124956005
 20
41.03858692717567
 30
0.0
 11
334.1101129607029
 21
43.03858533480634
 31
0.0
  0
LINE
  5
355
  8
LAYER0001
  6
CONTINUOUS
 62
     7
 10
334.6460124956005
 20
41.03858692717567
 30
0.0
 11
334.6460124956005
 21
43.03858533480634
 31
0.0
  0
ENDBLK
  5
189
  8
0
  0
BLOCK
  8
0
  2
DC_GROUP_107
 70
     0
 10
0.0
 20
0.0
 30
0.0
  3
DC_GROUP_107
  1

  0
LINE
  5
356
  8
LAYER0001
  6
CONTINUOUS
 62
     7
 10
334.1101129607029
 20
74.03858089015047
 30
0.0
 11
334.6460124956005
 21
76.03857929778114
 31
0.0
  0
LINE
  5
357
  8
LAYER0001
  6
CONTINUOUS
 62
     7
 10
334.6460124956005
 20
76.03857929778114
 30
0.0
 11
335.1819120304981
 21
74.03858089015047
 31
0.0
  0
LINE
  5
358
  8
LAYER0001
  6
CONTINUOUS
 62
     7
 10
334.6460124956005
 20
76.03857929778114
 30
0.0
 11
334.6460124956005
 21
74.03858089015047
 31
0.0
  0
ENDBLK
  5
18C
  8
0
  0
BLOCK
  8
0
  2
DC_GROUP_108
 70
     0
 10
0.0
 20
0.0
 30
0.0
  3
DC_GROUP_108
  1

  0
LINE
  5
359
  8
LAYER0001
  6
CONTINUOUS
 62
     7
 10
282.3128689318803
 20
119.6398082533658
 30
0.0
 11
298.2815379457236
 21
136.3275319807706
 31
0.0
  0
LINE
  5
35A
  8
LAYER0001
  6
CONTINUOUS
 62
     7
 10
298.2815374253689
 20
136.3275349862577
 30
0.0
 11
348.1112092851101
 21
136.3275349862577
 31
0.0
  0
INSERT
  5
35B
  8
LAYER0001
  6
CONTINUOUS
  2
DC_GROUP_109
 10
0.0
 20
0.0
 30
0.0
  0
TEXT
  5
35C
  8
LAYER0001
 62
     7
 10
298.6275647996365
 20
137.9275349862577
 30
0.0
 40
4.0
  1
ｾﾚｰｼｮﾝP1.5 山60ﾟ
 41
0.6336565096952911
  7
FDASTYLE1
 72
     5
 11
337.1538805891102
 21
137.9275349862577
 31
0.0
  0
ENDBLK
  5
18F
  8
0
  0
BLOCK
  8
0
  2
DC_GROUP_109
 70
     0
 10
0.0
 20
0.0
 30
0.0
  3
DC_GROUP_109
  1

  0
LINE
  5
35D
  8
LAYER0001
  6
CONTINUOUS
 62
     7
 10
284.0827950601132
 20
120.7143050856678
 30
0.0
 11
282.3128689318803
 21
119.6398082533658
 31
0.0
  0
LINE
  5
35E
  8
LAYER0001
  6
CONTINUOUS
 62
     7
 10
282.3128689318803
 20
119.6398082533658
 30
0.0
 11
283.3084188348275
 21
121.455314335088
 31
0.0
  0
LINE
  5
35F
  8
LAYER0001
  6
CONTINUOUS
 62
     7
 10
282.3128689318803
 20
119.6398082533658
 30
0.0
 11
283.6956069474704
 21
121.0848097103779
 31
0.0
  0
ENDBLK
  5
192
  8
0
  0
BLOCK
  8
0
  2
DC_GROUP_110
 70
     0
 10
0.0
 20
0.0
 30
0.0
  3
DC_GROUP_110
  1

  0
TEXT
  5
360
  8
LAYER0001
 62
     7
 10
339.393248116776
 20
47.00451807978496
 30
0.0
 40
4.0
  1
ＭＩＮ31.7
 50
90.0
 41
0.6011080332409972
  7
FDASTYLE1
 72
     5
 11
339.393248116776
 21
65.27820229031127
 31
0.0
  0
ENDBLK
  5
195
  8
0
  0
BLOCK
  8
0
  2
DC_GROUP_111
 70
     0
 10
0.0
 20
0.0
 30
0.0
  3
DC_GROUP_111
  1

  0
TEXT
  5
361
  8
LAYER0001
 62
     7
 10
333.7024078388586
 20
47.22722810158059
 30
0.0
 40
4.0
  1
MAX37.7
 50
90.0
 41
0.6802721088435371
  7
FDASTYLE1
 72
     5
 11
333.7024078388586
 21
66.27484714919963
 31
0.0
  0
ENDBLK
  5
198
  8
0
  0
BLOCK
  8
0
  2
DC_GROUP_112
 70
     0
 10
0.0
 20
0.0
 30
0.0
  3
DC_GROUP_112
  1

  0
TEXT
  5
362
  8
LAYER0001
 62
     7
 10
225.1990507188097
 20
-64.4570793297197
 30
0.0
 40
4.0
  1
ＭＩＮ24.3
 41
0.6011080332409972
  7
FDASTYLE1
 72
     5
 11
243.472734929336
 21
-64.4570793297197
 31
0.0
  0
ENDBLK
  5
19B
  8
0
  0
BLOCK
  8
0
  2
DC_GROUP_113
 70
     0
 10
0.0
 20
0.0
 30
0.0
  3
DC_GROUP_113
  1

  0
LINE
  5
363
  8
LAYER0001
  6
CONTINUOUS
 62
     7
 10
229.3130140848769
 20
136.9432379879522
 30
0.0
 11
231.3130124925076
 21
136.4073384530546
 31
0.0
  0
LINE
  5
364
  8
LAYER0001
  6
CONTINUOUS
 62
     7
 10
231.3130124925076
 20
136.4073384530546
 30
0.0
 11
229.3130140848769
 21
135.871438918157
 31
0.0
  0
LINE
  5
365
  8
LAYER0001
  6
CONTINUOUS
 62
     7
 10
231.3130124925076
 20
136.4073384530546
 30
0.0
 11
229.3130140848769
 21
136.4073384530546
 31
0.0
  0
ENDBLK
  5
19E
  8
0
  0
BLOCK
  8
0
  2
DC_GROUP_114
 70
     0
 10
0.0
 20
0.0
 30
0.0
  3
DC_GROUP_114
  1

  0
LINE
  5
366
  8
LAYER0001
  6
CONTINUOUS
 62
     7
 10
221.0129925895914
 20
135.871438918157
 30
0.0
 11
219.0129941819607
 21
136.4073384530546
 31
0.0
  0
LINE
  5
367
  8
LAYER0001
  6
CONTINUOUS
 62
     7
 10
219.0129941819607
 20
136.4073384530546
 30
0.0
 11
221.0129925895914
 21
136.9432379879522
 31
0.0
  0
LINE
  5
368
  8
LAYER0001
  6
CONTINUOUS
 62
     7
 10
219.0129941819607
 20
136.4073384530546
 30
0.0
 11
221.0129925895914
 21
136.4073384530546
 31
0.0
  0
ENDBLK
  5
1A1
  8
0
  0
ENDSEC
  0
SECTION
  2
ENTITIES
  0
LINE
  5
369
  8
LAYER0002
  6
CONTINUOUS
 62
     3
 10
79.57239374547669
 20
-190.0
 30
0.0
 11
79.57239374547669
 21
190.0
 31
0.0
  0
LINE
  5
36A
  8
LAYER0002
  6
CONTINUOUS
 62
     3
 10
633.5723937454767
 20
-190.0
 30
0.0
 11
633.5723937454767
 21
190.0
 31
0.0
  0
LINE
  5
36B
  8
LAYER0002
  6
CONTINUOUS
 62
     3
 10
79.57239374547669
 20
-190.0
 30
0.0
 11
633.5723937454767
 21
-190.0
 31
0.0
  0
LINE
  5
36C
  8
LAYER0002
  6
CONTINUOUS
 62
     3
 10
79.57239374547669
 20
189.9999999999999
 30
0.0
 11
633.5723937454767
 21
189.9999999999999
 31
0.0
  0
LINE
  5
36D
  8
LAYER0002
  6
CONTINUOUS
 62
     3
 10
453.5723937454767
 20
-190.0
 30
0.0
 11
453.5723937454767
 21
-130.0
 31
0.0
  0
LINE
  5
36E
  8
LAYER0002
  6
CONTINUOUS
 62
     3
 10
453.5723937454767
 20
-176.0
 30
0.0
 11
633.5723937454767
 21
-176.0
 31
0.0
  0
LINE
  5
36F
  8
LAYER0002
  6
CONTINUOUS
 62
     3
 10
502.5723937454767
 20
-162.0
 30
0.0
 11
633.5723937454767
 21
-162.0
 31
0.0
  0
LINE
  5
370
  8
LAYER0002
  6
CONTINUOUS
 62
     3
 10
502.5723937454767
 20
-148.0
 30
0.0
 11
633.5723937454767
 21
-148.0
 31
0.0
  0
LINE
  5
371
  8
LAYER0002
  6
CONTINUOUS
 62
     3
 10
502.5723937454767
 20
-138.0
 30
0.0
 11
633.5723937454767
 21
-138.0
 31
0.0
  0
LINE
  5
372
  8
LAYER0002
  6
CONTINUOUS
 62
     3
 10
502.5723937454767
 20
-176.0
 30
0.0
 11
502.5723937454767
 21
-130.0
 31
0.0
  0
LINE
  5
373
  8
LAYER0002
  6
CONTINUOUS
 62
     3
 10
611.5723937454767
 20
-176.0
 30
0.0
 11
611.5723937454767
 21
-130.0
 31
0.0
  0
LINE
  5
374
  8
LAYER0002
  6
CONTINUOUS
 62
     3
 10
527.5723937454767
 20
-190.0
 30
0.0
 11
527.5723937454767
 21
-176.0
 31
0.0
  0
LINE
  5
375
  8
LAYER0002
  6
CONTINUOUS
 62
     3
 10
618.5723937454767
 20
-188.0
 30
0.0
 11
628.5723937454767
 21
-188.0
 31
0.0
  0
LINE
  5
376
  8
LAYER0002
  6
CONTINUOUS
 62
     3
 10
623.5723937454767
 20
-178.0
 30
0.0
 11
618.5723937454767
 21
-188.0
 31
0.0
  0
LINE
  5
377
  8
LAYER0002
  6
CONTINUOUS
 62
     3
 10
623.5723937454767
 20
-178.0
 30
0.0
 11
628.5723937454767
 21
-188.0
 31
0.0
  0
LINE
  5
378
  8
LAYER0002
  6
CONTINUOUS
 62
     3
 10
453.5723937454767
 20
-130.0
 30
0.0
 11
633.5723937454767
 21
-130.0
 31
0.0
  0
LINE
  5
379
  8
LAYER0002
  6
CONTINUOUS
 62
     3
 10
582.5723937454767
 20
-176.0
 30
0.0
 11
582.5723937454767
 21
-148.0
 31
0.0
  0
LINE
  5
37A
  8
LAYER0002
  6
CONTINUOUS
 62
     4
 10
461.5723937454767
 20
-172.0
 30
0.0
 11
461.5723937454767
 21
-130.0
 31
0.0
  0
LINE
  5
37B
  8
LAYER0002
  6
CONTINUOUS
 62
     4
 10
465.5723937454767
 20
-172.0
 30
0.0
 11
465.5723937454767
 21
-130.0
 31
0.0
  0
LINE
  5
37C
  8
LAYER0002
  6
CONTINUOUS
 62
     4
 10
478.0723937454767
 20
-176.0
 30
0.0
 11
478.0723937454767
 21
-130.0
 31
0.0
  0
LINE
  5
37D
  8
LAYER0002
  6
CONTINUOUS
 62
     4
 10
453.5723937454767
 20
-137.0
 30
0.0
 11
502.5723937454767
 21
-137.0
 31
0.0
  0
LINE
  5
37E
  8
LAYER0002
  6
CONTINUOUS
 62
     4
 10
453.5723937454767
 20
-144.0
 30
0.0
 11
502.5723937454767
 21
-144.0
 31
0.0
  0
LINE
  5
37F
  8
LAYER0002
  6
CONTINUOUS
 62
     4
 10
453.5723937454767
 20
-165.0
 30
0.0
 11
502.5723937454767
 21
-165.0
 31
0.0
  0
LINE
  5
380
  8
LAYER0002
  6
CONTINUOUS
 62
     4
 10
453.5723937454767
 20
-172.0
 30
0.0
 11
502.5723937454767
 21
-172.0
 31
0.0
  0
LINE
  5
381
  8
LAYER0002
  6
CONTINUOUS
 62
     4
 10
611.5723937454767
 20
-166.0
 30
0.0
 11
633.5723937454767
 21
-166.0
 31
0.0
  0
LINE
  5
382
  8
LAYER0002
  6
CONTINUOUS
 62
     4
 10
558.5723937454767
 20
-148.0
 30
0.0
 11
558.5723937454767
 21
-146.5
 31
0.0
  0
LINE
  5
383
  8
LAYER0002
  6
CONTINUOUS
 62
     4
 10
582.5723937454767
 20
-148.0
 30
0.0
 11
582.5723937454767
 21
-146.5
 31
0.0
  0
LINE
  5
384
  8
LAYER0002
  6
CONTINUOUS
 62
     4
 10
599.5723937454767
 20
-148.0
 30
0.0
 11
599.5723937454767
 21
-146.5
 31
0.0
  0
LINE
  5
385
  8
LAYER0002
  6
CONTINUOUS
 62
     4
 10
453.5723937454767
 20
-151.0
 30
0.0
 11
502.5723937454767
 21
-151.0
 31
0.0
  0
LINE
  5
386
  8
LAYER0002
  6
CONTINUOUS
 62
     4
 10
453.5723937454767
 20
-158.0
 30
0.0
 11
502.5723937454767
 21
-158.0
 31
0.0
  0
LINE
  5
387
  8
LAYER0002
  6
CONTINUOUS
 62
     4
 10
457.5723937454767
 20
-130.5
 30
0.0
 11
454.5723937454767
 21
-136.5
 31
0.0
  0
LINE
  5
388
  8
LAYER0002
  6
CONTINUOUS
 62
     4
 10
457.5723937454767
 20
-130.5
 30
0.0
 11
460.5723937454767
 21
-136.5
 31
0.0
  0
LINE
  5
389
  8
LAYER0002
  6
CONTINUOUS
 62
     4
 10
454.5723937454767
 20
-136.5
 30
0.0
 11
460.5723937454767
 21
-136.5
 31
0.0
  0
LINE
  5
38A
  8
LAYER0002
  6
CONTINUOUS
 62
     4
 10
457.5723937454767
 20
-158.5
 30
0.0
 11
454.5723937454767
 21
-164.5
 31
0.0
  0
LINE
  5
38B
  8
LAYER0002
  6
CONTINUOUS
 62
     4
 10
457.5723937454767
 20
-158.5
 30
0.0
 11
460.5723937454767
 21
-164.5
 31
0.0
  0
LINE
  5
38C
  8
LAYER0002
  6
CONTINUOUS
 62
     4
 10
454.5723937454767
 20
-164.5
 30
0.0
 11
460.5723937454767
 21
-164.5
 31
0.0
  0
LINE
  5
38D
  8
LAYER0002
  6
CONTINUOUS
 62
     4
 10
457.5723937454767
 20
-151.5
 30
0.0
 11
454.5723937454767
 21
-157.5
 31
0.0
  0
LINE
  5
38E
  8
LAYER0002
  6
CONTINUOUS
 62
     4
 10
457.5723937454767
 20
-151.5
 30
0.0
 11
460.5723937454767
 21
-157.5
 31
0.0
  0
LINE
  5
38F
  8
LAYER0002
  6
CONTINUOUS
 62
     4
 10
454.5723937454767
 20
-157.5
 30
0.0
 11
460.5723937454767
 21
-157.5
 31
0.0
  0
LINE
  5
390
  8
LAYER0002
  6
CONTINUOUS
 62
     4
 10
457.5723937454767
 20
-144.5
 30
0.0
 11
454.5723937454767
 21
-150.5
 31
0.0
  0
LINE
  5
391
  8
LAYER0002
  6
CONTINUOUS
 62
     4
 10
457.5723937454767
 20
-144.5
 30
0.0
 11
460.5723937454767
 21
-150.5
 31
0.0
  0
LINE
  5
392
  8
LAYER0002
  6
CONTINUOUS
 62
     4
 10
454.5723937454767
 20
-150.5
 30
0.0
 11
460.5723937454767
 21
-150.5
 31
0.0
  0
LINE
  5
393
  8
LAYER0002
  6
CONTINUOUS
 62
     4
 10
457.5723937454767
 20
-137.5
 30
0.0
 11
454.5723937454767
 21
-143.5
 31
0.0
  0
LINE
  5
394
  8
LAYER0002
  6
CONTINUOUS
 62
     4
 10
457.5723937454767
 20
-137.5
 30
0.0
 11
460.5723937454767
 21
-143.5
 31
0.0
  0
LINE
  5
395
  8
LAYER0002
  6
CONTINUOUS
 62
     4
 10
454.5723937454767
 20
-143.5
 30
0.0
 11
460.5723937454767
 21
-143.5
 31
0.0
  0
LINE
  5
396
  8
LAYER0002
  6
CONTINUOUS
 62
     4
 10
529.2390604121433
 20
-176.0
 30
0.0
 11
529.2390604121433
 21
-162.0
 31
0.0
  0
LINE
  5
397
  8
LAYER0002
  6
CONTINUOUS
 62
     4
 10
555.90572707881
 20
-176.0
 30
0.0
 11
555.90572707881
 21
-161.9509415757253
 31
0.0
  0
LINE
  5
398
  8
LAYER0002
  6
CONTINUOUS
 62
     4
 10
569.2390604121433
 20
-167.5
 30
0.0
 11
569.2390604121433
 21
-161.9509415757253
 31
0.0
  0
LINE
  5
399
  8
LAYER0002
  6
CONTINUOUS
 62
     4
 10
582.5723937454767
 20
-155.0
 30
0.0
 11
611.5723937454767
 21
-155.0
 31
0.0
  0
LINE
  5
39A
  8
LAYER0002
  6
CONTINUOUS
 62
     4
 10
502.5723937454767
 20
-166.0
 30
0.0
 11
582.5723937454767
 21
-166.0
 31
0.0
  0
LINE
  5
39B
  8
LAYER0002
  6
CONTINUOUS
 62
     6
 10
509.5723937454767
 20
-139.5
 30
0.0
 11
509.5723937454767
 21
-130.0
 31
0.0
  0
LINE
  5
39C
  8
LAYER0002
  6
CONTINUOUS
 62
     6
 10
558.5723937454767
 20
-139.5
 30
0.0
 11
558.5723937454767
 21
-130.0
 31
0.0
  0
LINE
  5
39D
  8
LAYER0002
  6
CONTINUOUS
 62
     6
 10
582.5723937454767
 20
-139.5
 30
0.0
 11
582.5723937454767
 21
-130.0
 31
0.0
  0
LINE
  5
39E
  8
LAYER0002
  6
CONTINUOUS
 62
     6
 10
599.5723937454767
 20
-139.5
 30
0.0
 11
599.5723937454767
 21
-130.0
 31
0.0
  0
TEXT
  5
3A0
  8
LAYER0002
 62
     7
 10
503.5661518929514
 20
-130.821188728956
 30
0.0
 40
2.44248928
  1
符号
 41
0.8
  7
FDASTYLE0
  0
TEXT
  5
3A1
  8
LAYER0002
 62
     7
 10
518.9865248673825
 20
-135.8245525019963
 30
0.0
 40
4.0
  1
品       名
 41
0.6192847442281572
  7
FDASTYLE1
 72
     5
 11
542.2716312503612
 21
-135.8245525019963
 31
0.0
  0
TEXT
  5
3A2
  8
LAYER0002
 62
     7
 10
563.8055501867863
 20
-135.8245525019963
 30
0.0
 40
4.0
  1
材  料
 41
0.5950413223140509
  7
FDASTYLE1
 72
     5
 11
574.2782774595136
 21
-135.8245525019963
 31
0.0
  0
TEXT
  5
3A3
  8
LAYER0002
 62
     7
 10
586.0884554303317
 20
-135.8245525019963
 30
0.0
 40
4.0
  1
個 数
 41
0.5813148788927315
  7
FDASTYLE1
 72
     5
 11
593.9943377832728
 21
-135.8245525019963
 31
0.0
  0
TEXT
  5
3A4
  8
LAYER0002
 62
     7
 10
602.2942046983646
 20
-133.5649080050572
 30
0.0
 40
2.5
  1
単重量
 41
0.6666666666666666
  7
FDASTYLE1
 72
     5
 11
608.2942046983646
 21
-133.5649080050572
 31
0.0
  0
TEXT
  5
3A5
  8
LAYER0002
 62
     7
 10
601.2813453691126
 20
-137.3631304897525
 30
0.0
 40
2.5
  1
(kg)
 41
0.5333333333333371
  7
FDASTYLE1
 72
     5
 11
606.614678702446
 21
-137.3631304897525
 31
0.0
  0
TEXT
  5
3A6
  8
LAYER0002
 62
     7
 10
615.7145908109544
 20
-135.8245525019963
 30
0.0
 40
4.0
  1
記  事
 41
0.5950413223140509
  7
FDASTYLE1
 72
     5
 11
626.1873180836817
 21
-135.8245525019963
 31
0.0
  0
TEXT
  5
3A7
  8
LAYER0002
 62
     7
 10
615.4174732006412
 20
-165.4873041997729
 30
0.0
 40
3.0
  1
コード番号
 41
0.6666666666666666
  7
FDASTYLE1
 72
     5
 11
627.4174732006412
 21
-165.4873041997729
 31
0.0
  0
TEXT
  5
3A8
  8
LAYER0002
 62
     7
 10
458.4843857613084
 20
-175.1879010540338
 30
0.0
 40
2.5
  1
訂 正 来 歴
 41
0.5890861275476669
  7
FDASTYLE1
 72
     5
 11
469.9715652484879
 21
-175.1879010540338
 31
0.0
  0
TEXT
  5
3A9
  8
LAYER0002
 62
     7
 10
482.4627285922417
 20
-175.2166697391651
 30
0.0
 40
2.5
  1
工 事 番 号
 41
0.5890861275476669
  7
FDASTYLE1
 72
     5
 11
493.9499080794212
 21
-175.2166697391651
 31
0.0
  0
TEXT
  5
3AA
  8
LAYER0002
 62
     7
 10
455.5063940920796
 20
-165.9634530565915
 30
0.0
 40
1.90819475
  1
記号
 41
0.8
  7
FDASTYLE0
  0
TEXT
  5
3AB
  8
LAYER0002
 62
     7
 10
461.4457811522385
 20
-165.9634530565915
 30
0.0
 40
1.90819475
  1
理由
 41
0.8
  7
FDASTYLE0
  0
TEXT
  5
3AC
  8
LAYER0002
 62
     7
 10
468.191760536461
 20
-169.8786046700178
 30
0.0
 40
3.0
  1
日 付
 41
0.5813148788927344
  7
FDASTYLE1
 72
     5
 11
474.1211723011669
 21
-169.8786046700178
 31
0.0
  0
TEXT
  5
3AD
  8
LAYER0002
 62
     7
 10
510.0205627274419
 20
-165.7187911464244
 30
0.0
 40
3.0
  1
承   認
 41
0.6035665294924586
  7
FDASTYLE1
 72
     5
 11
519.7983405052197
 21
-165.7187911464244
 31
0.0
  0
TEXT
  5
3AE
  8
LAYER0002
 62
     7
 10
536.4356217787107
 20
-165.4873041997729
 30
0.0
 40
3.0
  1
検   図
 41
0.6035665294924586
  7
FDASTYLE1
 72
     5
 11
546.2133995564885
 21
-165.4873041997729
 31
0.0
  0
TEXT
  5
3AF
  8
LAYER0002
 62
     7
 10
558.0495858438518
 20
-165.4873041997729
 30
0.0
 40
3.0
  1
担  当
 41
0.5950413223140511
  7
FDASTYLE1
 72
     5
 11
565.9041312983973
 21
-165.4873041997729
 31
0.0
  0
TEXT
  5
3B0
  8
LAYER0002
 62
     7
 10
571.2494512295879
 20
-165.4873041997729
 30
0.0
 40
3.0
  1
製  図
 41
0.5950413223140511
  7
FDASTYLE1
 72
     5
 11
579.1039966841333
 21
-165.4873041997729
 31
0.0
  0
TEXT
  5
3B1
  8
LAYER0002
 62
     7
 10
583.5186309758966
 20
-153.2184960272417
 30
0.0
 40
3.0
  1
作図
 41
0.6666666666666762
  7
FDASTYLE1
 72
     5
 11
588.3186309758967
 21
-153.2184960272417
 31
0.0
  0
TEXT
  5
3B2
  8
LAYER0002
 62
     7
 10
584.6760657091543
 20
-160.2371566401815
 30
0.0
 40
4.0
  1
第 三 角 法
 41
0.5890861275476675
  7
FDASTYLE1
 72
     5
 11
603.0555528886415
 21
-160.2371566401815
 31
0.0
  0
TEXT
  5
3B3
  8
LAYER0002
 62
     7
 10
583.9816048691997
 20
-166.413251986379
 30
0.0
 40
3.0
  1
尺度
 41
0.6666666666666762
  7
FDASTYLE1
 72
     5
 11
588.7816048691998
 21
-166.413251986379
 31
0.0
  0
TEXT
  5
3B5
  8
LAYER0002
 62
     3
 10
461.9515481155107
 20
-185.9272077185017
 30
0.0
 40
7.0
  1
株式会社 野村製作所
 41
0.5976394989045255
  7
FDASTYLE2
 72
     5
 11
517.8344271000773
 21
-185.9272077185017
 31
0.0
  0
TEXT
  5
3B7
  8
LAYER0002
 62
     3
 10
533.6311292844923
 20
-187.1216685584563
 30
0.0
 40
8.0
  1
２－
 41
0.7699296059137625
  7
FDASTYLE3
 72
     5
 11
547.5206593751766
 21
-187.1216685584563
 31
0.0
  0
TEXT
  5
3B8
  8
LAYER0002
 62
     3
 10
550.5430869088992
 20
-187.1216685584563
 30
0.0
 40
8.0
  1
9306074
 41
1.367451330599781
  7
FDASTYLE3
 72
     5
 11
605.7224830012616
 21
-187.1216685584563
 31
0.0
  0
TEXT
  5
3B9
  8
LAYER0002
 62
     4
 10
590.1032971299989
 20
-145.0216474852281
 30
0.0
 40
3.0
  1
1式
 41
0.520661157024785
  7
FDASTYLE1
 72
     5
 11
593.5396607663624
 21
-145.0216474852281
 31
0.0
  0
TEXT
  5
3BA
  8
LAYER0002
 62
     4
 10
595.8735726361166
 20
-172.297487439201
 30
0.0
 40
3.0
  1
1/1
 41
0.5222222222222273
  7
FDASTYLE1
 72
     5
 11
600.5735726361166
 21
-172.297487439201
 31
0.0
  0
TEXT
  5
3BB
  8
LAYER0002
 62
     6
 10
521.6085333514537
 20
-145.7243747487088
 30
0.0
 40
5.0
  1
外　形　図
 41
0.5833333333333334
  7
FDASTYLE1
 72
     5
 11
539.1085333514537
 21
-145.7243747487088
 31
0.0
  0
TEXT
  5
3BC
  8
LAYER0002
 62
     6
 10
508.9768756015056
 20
-154.3920863201719
 30
0.0
 40
5.0
  1
日鋼プレシジォン
 41
0.5833333333333322
  7
FDASTYLE1
 72
     5
 11
536.9768756015055
 21
-154.3920863201719
 31
0.0
  0
TEXT
  5
3BD
  8
LAYER0002
 62
     6
 10
517.4424132567851
 20
-160.8053724226564
 30
0.0
 40
5.0
  1
  ＭＯ2-6型 ﾁｬｯｸ
 41
0.5411980968858124
  7
FDASTYLE1
 72
     5
 11
554.2438838450204
 21
-160.8053724226564
 31
0.0
  0
CIRCLE
  5
3BE
  8
0
  6
CONTINUOUS
 62
     3
 10
483.3131344862174
 20
41.0386444374367
 30
0.0
 40
27.0
  0
CIRCLE
  5
3BF
  8
0
  6
CONTINUOUS
 62
     3
 10
483.3131344862174
 20
65.03871413115984
 30
0.0
 40
1.5
  0
CIRCLE
  5
3C0
  8
0
  6
CONTINUOUS
 62
     3
 10
460.3131344862174
 20
41.03871413115984
 30
0.0
 40
1.600000023841858
  0
CIRCLE
  5
3C1
  8
0
  6
CONTINUOUS
 62
     3
 10
506.3131344862174
 20
41.03871413115984
 30
0.0
 40
1.600000023841858
  0
CIRCLE
  5
3C2
  8
0
  6
CONTINUOUS
 62
     3
 10
504.0977745631634
 20
29.03876676161645
 30
0.0
 40
1.5
  0
CIRCLE
  5
3C3
  8
0
  6
CONTINUOUS
 62
     3
 10
462.5285160229164
 20
29.03872932554425
 30
0.0
 40
1.5
  0
LINE
  5
3C4
  8
0
  6
CONTINUOUS
 62
     3
 10
497.313142115612
 20
-38.96128586884016
 30
0.0
 11
497.313142115612
 21
13.94166918639665
 31
0.0
  0
LINE
  5
3C5
  8
0
  6
CONTINUOUS
 62
     3
 10
469.3131344862174
 20
-38.96130112762923
 30
0.0
 11
469.3131344862174
 21
13.94165488128191
 31
0.0
  0
LINE
  5
3C6
  8
0
  6
CONTINUOUS
 62
     3
 10
461.3131268568229
 20
-36.81768921967024
 30
0.0
 11
461.3131268568229
 21
-35.8768093978929
 31
0.0
  0
LINE
  5
3C7
  8
0
  6
CONTINUOUS
 62
     3
 10
505.313157374401
 20
-36.81769684906477
 30
0.0
 11
505.313157374401
 21
-35.87683228607649
 31
0.0
  0
LINE
  5
3C8
  8
0
  6
CONTINUOUS
 62
     3
 10
461.3131344862174
 20
118.8951289260817
 30
0.0
 11
461.3131344862174
 21
117.9542491043044
 31
0.0
  0
LINE
  5
3C9
  8
0
  6
CONTINUOUS
 62
     3
 10
505.313142115612
 20
118.8951289260817
 30
0.0
 11
505.313142115612
 21
117.9542491043044
 31
0.0
  0
LINE
  5
3CA
  8
0
  6
CONTINUOUS
 62
     3
 10
469.3131344862174
 20
121.0387141311598
 30
0.0
 11
497.3131268568229
 21
121.0387141311598
 31
0.0
  0
LINE
  5
3CB
  8
0
  6
CONTINUOUS
 62
     3
 10
469.313142115612
 20
-38.9612706100511
 30
0.0
 11
497.313142115612
 21
-38.9612706100511
 31
0.0
  0
LINE
  5
3CC
  8
0
  6
CONTINUOUS
 62
     3
 10
461.3131518256694
 20
118.8951116337891
 30
0.0
 11
469.3131461409064
 21
121.038703421148
 31
0.0
  0
LINE
  5
3CD
  8
0
  6
CONTINUOUS
 62
     3
 10
497.3131190974461
 20
121.0386696180453
 30
0.0
 11
505.3131207821123
 21
118.8950758560541
 31
0.0
  0
LINE
  5
3CE
  8
0
  6
CONTINUOUS
 62
     3
 10
461.3130924258855
 20
-36.81768197296448
 30
0.0
 11
469.3130941105516
 21
-38.96127573495575
 31
0.0
  0
LINE
  5
3CF
  8
0
  6
CONTINUOUS
 62
     3
 10
497.3131074148312
 20
-38.9612751132013
 30
0.0
 11
505.3131090994973
 21
-36.81768085755176
 31
0.0
  0
LINE
  5
3D0
  8
0
  6
CONTINUOUS
 62
     3
 10
469.3130887098503
 20
6.038754841132217
 30
0.0
 11
477.8130887098503
 21
6.038754841132217
 31
0.0
  0
LINE
  5
3D1
  8
0
  6
CONTINUOUS
 62
     3
 10
488.8131497450065
 20
-38.96127823944563
 30
0.0
 11
488.8131497450065
 21
-31.4253819381761
 31
0.0
  0
LINE
  5
3D2
  8
0
  6
CONTINUOUS
 62
     3
 10
477.813142115612
 20
-38.96128586884016
 30
0.0
 11
477.813142115612
 21
-31.42538956757063
 31
0.0
  0
LINE
  5
3D3
  8
0
  6
CONTINUOUS
 62
     3
 10
476.3131344862174
 20
6.038723310275131
 30
0.0
 11
476.3131344862174
 21
7.767109354777389
 31
0.0
  0
LINE
  5
3D4
  8
0
  6
CONTINUOUS
 62
     3
 10
490.313142115612
 20
6.038722654624039
 30
0.0
 11
490.313142115612
 21
7.767108639521652
 31
0.0
  0
LINE
  5
3D5
  8
0
  6
CONTINUOUS
 62
     3
 10
488.8130887098503
 20
6.038754841132217
 30
0.0
 11
497.3130810804557
 21
6.038754841132217
 31
0.0
  0
LINE
  5
3D6
  8
0
  6
CONTINUOUS
 62
     3
 10
488.8131497450065
 20
-24.49718026276106
 30
0.0
 11
488.8131497450065
 21
-6.425388613896317
 31
0.0
  0
LINE
  5
3D7
  8
0
  6
CONTINUOUS
 62
     3
 10
477.813142115612
 20
-24.49718789215559
 30
0.0
 11
477.813142115612
 21
-6.425387660222
 31
0.0
  0
LINE
  5
3D8
  8
0
  6
CONTINUOUS
 62
     3
 10
477.813142115612
 20
0.5028192604017789
 30
0.0
 11
477.813142115612
 21
6.038707991881424
 31
0.0
  0
LINE
  5
3D9
  8
0
  6
CONTINUOUS
 62
     3
 10
488.8131497450065
 20
0.5028111541700895
 30
0.0
 11
488.8131497450065
 21
6.038715084834152
 31
0.0
  0
LINE
  5
3DA
  8
0
  6
CONTINUOUS
 62
     3
 10
477.8131268568229
 20
-35.96127442474837
 30
0.0
 11
488.8131344862174
 21
-35.96127442474837
 31
0.0
  0
LINE
  5
3DB
  8
0
  6
CONTINUOUS
 62
     3
 10
477.8130887098503
 20
5.038762440724426
 30
0.0
 11
488.8130887098503
 21
5.038762440724426
 31
0.0
  0
LINE
  5
3DC
  8
0
  6
CONTINUOUS
 62
     3
 10
469.3131344862174
 20
121.0387141311598
 30
0.0
 11
469.3131344862174
 21
68.13576002959734
 31
0.0
  0
LINE
  5
3DD
  8
0
  6
CONTINUOUS
 62
     3
 10
497.3131268568229
 20
121.0387141311598
 30
0.0
 11
497.3131268568229
 21
68.13576002959734
 31
0.0
  0
LINE
  5
3DE
  8
0
  6
CONTINUOUS
 62
     3
 10
469.3131344862174
 20
76.03871413115984
 30
0.0
 11
477.8131344862174
 21
76.03871413115984
 31
0.0
  0
LINE
  5
3DF
  8
0
  6
CONTINUOUS
 62
     3
 10
488.8131344862174
 20
76.03871413115984
 30
0.0
 11
497.3131268568229
 21
76.03871413115984
 31
0.0
  0
LINE
  5
3E0
  8
0
  6
CONTINUOUS
 62
     3
 10
477.8131344862174
 20
121.0387141311598
 30
0.0
 11
477.8131344862174
 21
113.5028178298903
 31
0.0
  0
LINE
  5
3E1
  8
0
  6
CONTINUOUS
 62
     3
 10
488.8131344862174
 20
121.0387141311598
 30
0.0
 11
488.8131344862174
 21
113.5028178298903
 31
0.0
  0
LINE
  5
3E2
  8
0
  6
CONTINUOUS
 62
     3
 10
477.8131344862174
 20
77.03871413115984
 30
0.0
 11
488.8131344862174
 21
77.03871413115984
 31
0.0
  0
LINE
  5
3E3
  8
0
  6
CONTINUOUS
 62
     3
 10
477.8131344862174
 20
118.0387141311598
 30
0.0
 11
488.8131344862174
 21
118.0387141311598
 31
0.0
  0
LINE
  5
3E4
  8
0
  6
CONTINUOUS
 62
     3
 10
477.8131344862174
 20
106.5746104324294
 30
0.0
 11
477.8131344862174
 21
88.50281020049577
 31
0.0
  0
LINE
  5
3E5
  8
0
  6
CONTINUOUS
 62
     3
 10
488.8131344862174
 20
106.5746104324294
 30
0.0
 11
488.8131344862174
 21
88.50281020049577
 31
0.0
  0
LINE
  5
3E6
  8
0
  6
CONTINUOUS
 62
     3
 10
488.8131344862174
 20
81.5746180618239
 30
0.0
 11
488.8131344862174
 21
76.03871413115984
 31
0.0
  0
LINE
  5
3E7
  8
0
  6
CONTINUOUS
 62
     3
 10
477.8131344862174
 20
81.5746180618239
 30
0.0
 11
477.8131344862174
 21
76.03871413115984
 31
0.0
  0
LINE
  5
3E8
  8
0
  6
CONTINUOUS
 62
     3
 10
476.3131344862174
 20
76.03871413115984
 30
0.0
 11
476.3131344862174
 21
74.31032057647234
 31
0.0
  0
LINE
  5
3E9
  8
0
  6
CONTINUOUS
 62
     3
 10
490.3131344862174
 20
76.03871413115984
 30
0.0
 11
490.3131344862174
 21
74.31032057647234
 31
0.0
  0
LINE
  5
3EA
  8
0
  6
CONTINUOUS
 62
     3
 10
455.3131344862175
 20
95.57461043242937
 30
0.0
 11
451.3131344862175
 21
95.57461043242937
 31
0.0
  0
LINE
  5
3EB
  8
0
  6
CONTINUOUS
 62
     3
 10
449.3131325387899
 20
99.03871067568001
 30
0.0
 11
451.3131330156271
 21
102.5028119902247
 31
0.0
  0
LINE
  5
3EC
  8
0
  6
CONTINUOUS
 62
     3
 10
451.3131905418561
 20
95.57465697263727
 30
0.0
 11
449.3131914955304
 21
99.03875900243769
 31
0.0
  0
LINE
  5
3ED
  8
0
  6
CONTINUOUS
 62
     3
 10
457.313151368935
 20
99.03871927211752
 30
0.0
 11
455.3131489847492
 21
95.57461891124716
 31
0.0
  0
LINE
  5
3EE
  8
0
  6
CONTINUOUS
 62
     3
 10
455.3131644514031
 20
102.5028478264924
 30
0.0
 11
457.3131630208916
 21
99.03874531985478
 31
0.0
  0
LINE
  5
3EF
  8
0
  6
CONTINUOUS
 62
     3
 10
451.3131344862175
 20
102.5028178298903
 30
0.0
 11
455.3131344862175
 21
102.5028178298903
 31
0.0
  0
LINE
  5
3F0
  8
0
  6
CONTINUOUS
 62
     3
 10
497.3131268568229
 20
-73.31500748749251
 30
0.0
 11
511.0644848890495
 21
-73.31500748749251
 31
0.0
  0
LINE
  5
3F1
  8
0
  6
CONTINUOUS
 62
     3
 10
505.3131115980338
 20
-80.3150303756761
 30
0.0
 11
508.8739789076042
 21
-80.3150303756761
 31
0.0
  0
LINE
  5
3F2
  8
0
  6
CONTINUOUS
 62
     3
 10
521.313157374401
 20
-80.3150303756761
 30
0.0
 11
521.313157374401
 21
-73.31501511688704
 31
0.0
  0
LINE
  5
3F3
  8
0
  6
CONTINUOUS
 62
     3
 10
505.313142115612
 20
-80.31502274628157
 30
0.0
 11
505.313142115612
 21
-73.31502274628157
 31
0.0
  0
LINE
  5
3F4
  8
0
  6
CONTINUOUS
 62
     3
 10
505.3131301624778
 20
-80.31502325537601
 30
0.0
 11
509.0461071209363
 21
-82.47025854590335
 31
0.0
  0
LINE
  5
3F5
  8
0
  6
CONTINUOUS
 62
     3
 10
515.8631604261589
 20
-90.24969987030501
 30
0.0
 11
515.8631604261589
 21
-83.20176438446516
 31
0.0
  0
LINE
  5
3F6
  8
0
  6
CONTINUOUS
 62
     3
 10
510.7631390638542
 20
-90.31502274628157
 30
0.0
 11
510.7631390638542
 21
-83.2017720138597
 31
0.0
  0
LINE
  5
3F7
  8
0
  6
CONTINUOUS
 62
     3
 10
516.313157374401
 20
-90.27374009247298
 30
0.0
 11
516.313157374401
 21
-83.20177964325423
 31
0.0
  0
LINE
  5
3F8
  8
0
  6
CONTINUOUS
 62
     3
 10
510.313157374401
 20
-90.31502274628157
 30
0.0
 11
510.313157374401
 21
-83.2017720138597
 31
0.0
  0
LINE
  5
3F9
  8
0
  6
CONTINUOUS
 62
     3
 10
517.6488798522994
 20
-82.43059288006909
 30
0.0
 11
521.3131480246532
 21
-80.31502637421183
 31
0.0
  0
LINE
  5
3FA
  8
0
  6
CONTINUOUS
 62
     3
 10
517.7948620863151
 20
-80.3150303756761
 30
0.0
 11
521.3131115980339
 21
-80.3150303756761
 31
0.0
  0
LINE
  5
3FB
  8
0
  6
CONTINUOUS
 62
     3
 10
516.3131115980339
 20
-83.20176438446516
 30
0.0
 11
510.3131268568229
 21
-83.20176438446516
 31
0.0
  0
LINE
  5
3FC
  8
0
  6
CONTINUOUS
 62
     3
 10
515.7131207533073
 20
-73.70176438446516
 30
0.0
 11
510.9131177015495
 21
-73.70176438446516
 31
0.0
  0
LINE
  5
3FD
  8
0
  6
CONTINUOUS
 62
     3
 10
509.3631451673698
 20
-80.82486466522688
 30
0.0
 11
509.3631451673698
 21
-82.51110581512923
 31
0.0
  0
LINE
  5
3FE
  8
0
  6
CONTINUOUS
 62
     3
 10
517.2631238050651
 20
-80.82485703583235
 30
0.0
 11
517.2631238050651
 21
-82.51110581512923
 31
0.0
  0
LINE
  5
3FF
  8
0
  6
CONTINUOUS
 62
     3
 10
516.6131146497917
 20
-76.00176743622298
 30
0.0
 11
510.0131238050651
 21
-76.00176743622298
 31
0.0
  0
LINE
  5
400
  8
0
  6
CONTINUOUS
 62
     3
 10
516.7057049818229
 20
-80.20176438446516
 30
0.0
 11
509.9205029554557
 21
-80.20176438446516
 31
0.0
  0
LINE
  5
401
  8
0
  6
CONTINUOUS
 62
     3
 10
515.3131268568229
 20
-80.96569565887923
 30
0.0
 11
515.3131268568229
 21
-82.4378331100511
 31
0.0
  0
LINE
  5
402
  8
0
  6
CONTINUOUS
 62
     3
 10
511.3131268568229
 20
-80.96569565887923
 30
0.0
 11
511.3131268568229
 21
-82.43782548065657
 31
0.0
  0
LINE
  5
403
  8
0
  6
CONTINUOUS
 62
     3
 10
510.0131442534541
 20
-76.00176697966914
 30
0.0
 11
510.9131447543866
 21
-73.70176480805323
 31
0.0
  0
LINE
  5
404
  8
0
  6
CONTINUOUS
 62
     3
 10
515.7131660069601
 20
-73.70173752476104
 30
0.0
 11
516.6131661072816
 21
-76.0017377729596
 31
0.0
  0
LINE
  5
405
  8
0
  6
CONTINUOUS
 62
     3
 10
515.926194483776
 20
-77.00176743622298
 30
0.0
 11
510.6341565199088
 21
-77.00176743622298
 31
0.0
  0
LINE
  5
406
  8
0
  6
CONTINUOUS
 62
     3
 10
515.5618451185417
 20
-73.31500748749251
 30
0.0
 11
530.7116253919792
 21
-73.31500748749251
 31
0.0
  0
LINE
  5
407
  8
0
  6
CONTINUOUS
 62
     3
 10
511.3131141501042
 20
-20.42541928241009
 30
0.0
 11
509.3131155806156
 21
-16.96131677577252
 31
0.0
  0
LINE
  5
408
  8
0
  6
CONTINUOUS
 62
     3
 10
515.3130720604283
 20
-13.49723429830739
 30
0.0
 11
517.313071106754
 21
-16.96133632810781
 31
0.0
  0
LINE
  5
409
  8
0
  6
CONTINUOUS
 62
     3
 10
509.3131234944619
 20
-16.96128460252068
 30
0.0
 11
511.3131258786477
 21
-13.49718424165032
 31
0.0
  0
LINE
  5
40A
  8
0
  6
CONTINUOUS
 62
     3
 10
511.3131268568229
 20
-13.4971821701097
 30
0.0
 11
515.3131268568229
 21
-13.4971821701097
 31
0.0
  0
LINE
  5
40B
  8
0
  6
CONTINUOUS
 62
     3
 10
517.313130176525
 20
-16.9612794116015
 30
0.0
 11
515.3131296996878
 21
-20.42538072614617
 31
0.0
  0
ARC
  5
40C
  8
0
  6
CONTINUOUS
 62
     3
 10
483.3131344862174
 20
41.03871413115984
 30
0.0
 40
80.0
 50
0.0
 51
79.9213412142615
  0
CIRCLE
  5
40D
  8
0
  6
CONTINUOUS
 62
     3
 10
520.354905421276
 20
3.996940096659714
 30
0.0
 40
8.5
  0
ARC
  5
40E
  8
0
  6
CONTINUOUS
 62
     3
 10
483.3131344862174
 20
41.03871413115984
 30
0.0
 40
33.0
 50
115.1027440440267
 51
244.8972796342643
  0
ARC
  5
40F
  8
0
  6
CONTINUOUS
 62
     3
 10
483.3131344862174
 20
41.03871413115984
 30
0.0
 40
33.0
 50
295.8628981085578
 51
424.8972814554971
  0
ARC
  5
410
  8
0
  6
CONTINUOUS
 62
     3
 10
483.3131344862174
 20
41.03871413115984
 30
0.0
 40
80.0
 50
100.0786774550732
 51
220.6930972913551
  0
ARC
  5
411
  8
0
  6
CONTINUOUS
 62
     3
 10
483.3131344862174
 20
41.03871413115984
 30
0.0
 40
80.0
 50
220.078643455708
 51
259.9213430354943
  0
ARC
  5
412
  8
0
  6
CONTINUOUS
 62
     3
 10
483.3131344862174
 20
41.03871413115984
 30
0.0
 40
80.0
 50
319.1554790086075
 51
360.0
  0
CIRCLE
  5
413
  8
0
  6
CONTINUOUS
 62
     3
 10
483.3131344862174
 20
41.03871413115984
 30
0.0
 40
30.5
  0
ARC
  5
414
  8
0
  6
CONTINUOUS
 62
     3
 10
483.3131344862174
 20
41.03871413115984
 30
0.0
 40
78.5
 50
100.2733310162294
 51
221.9600564012574
  0
ARC
  5
415
  8
0
  6
CONTINUOUS
 62
     3
 10
483.3131344862174
 20
41.03871413115984
 30
0.0
 40
78.5
 50
220.2732901866751
 51
259.726682644149
  0
ARC
  5
416
  8
0
  6
CONTINUOUS
 62
     3
 10
483.3131344862174
 20
41.03871413115984
 30
0.0
 40
78.5
 50
317.9815299997278
 51
439.7266876531053
  0
ARC
  5
417
  8
0
  6
CONTINUOUS
 62
     3
 10
483.3131344862174
 20
41.03871413115984
 30
0.0
 40
34.0
 50
65.68426268185516
 51
114.3157559874795
  0
CIRCLE
  5
418
  8
0
  6
CONTINUOUS
 62
     3
 10
516.222092921276
 20
22.03872176055437
 30
0.0
 40
2.5
  0
ARC
  5
419
  8
0
  6
CONTINUOUS
 62
     3
 10
483.3131344862174
 20
41.03871413115984
 30
0.0
 40
34.0
 50
245.6842440125205
 51
294.3157236577665
  0
CIRCLE
  5
41A
  8
0
  6
CONTINUOUS
 62
     3
 10
516.222092921276
 20
60.03871031646257
 30
0.0
 40
2.5
  0
CIRCLE
  5
41B
  8
0
  6
CONTINUOUS
 62
     3
 10
450.4041913099479
 20
60.03874846343523
 30
0.0
 40
2.5
  0
ARC
  5
41C
  8
0
  6
CONTINUOUS
 62
     3
 10
483.3131344862174
 20
41.03871413115984
 30
0.0
 40
78.5
 50
280.2733191770839
 51
319.7266877288957
  0
ARC
  5
41D
  8
0
  6
CONTINUOUS
 62
     3
 10
483.3131344862174
 20
41.03871413115984
 30
0.0
 40
80.0
 50
280.0786656159277
 51
319.9213447051465
  0
CIRCLE
  5
41E
  8
0
  6
CONTINUOUS
 62
     3
 10
446.2713635511589
 20
3.996940096659714
 30
0.0
 40
8.5
  0
CIRCLE
  5
41F
  8
0
  6
CONTINUOUS
 62
     3
 10
450.4041836805534
 20
22.03872176055437
 30
0.0
 40
2.5
  0
CIRCLE
  5
420
  8
0
  6
CONTINUOUS
 62
     3
 10
450.4041836805534
 20
60.0387065017653
 30
0.0
 40
2.5
  0
CIRCLE
  5
421
  8
0
  6
CONTINUOUS
 62
     3
 10
446.2713635511589
 20
78.08048506621843
 30
0.0
 40
8.5
  0
CIRCLE
  5
422
  8
0
  6
CONTINUOUS
 62
     3
 10
520.354905421276
 20
78.08048506621843
 30
0.0
 40
8.5
  0
CIRCLE
  5
423
  8
0
  6
CONTINUOUS
 62
     3
 10
453.3131344862175
 20
99.03871413115984
 30
0.0
 40
8.0
  0
CIRCLE
  5
424
  8
0
  6
CONTINUOUS
 62
     3
 10
453.3131344862175
 20
99.03871413115984
 30
0.0
 40
2.400000095367432
  0
CIRCLE
  5
425
  8
0
  6
CONTINUOUS
 62
     3
 10
453.3131344862175
 20
99.03871413115984
 30
0.0
 40
0.75
  0
CIRCLE
  5
426
  8
0
  6
CONTINUOUS
 62
     3
 10
453.3131344862175
 20
99.03871413115984
 30
0.0
 40
3.299999952316284
  0
ARC
  5
427
  8
0
  6
CONTINUOUS
 62
     3
 10
513.3131268568229
 20
-80.20176438446516
 30
0.0
 40
3.0
 50
269.9999906653329
 51
311.8103038204597
  0
ARC
  5
428
  8
0
  6
CONTINUOUS
 62
     3
 10
513.3131268568229
 20
-83.20176438446516
 30
0.0
 40
3.0
 50
48.18968934935123
 51
131.8102746784701
  0
ARC
  5
429
  8
0
  6
CONTINUOUS
 62
     3
 10
513.3131268568229
 20
-80.20176438446516
 30
0.0
 40
3.0
 50
228.1896706800164
 51
269.9999701747653
  0
ARC
  5
42A
  8
0
  6
CONTINUOUS
 62
     3
 10
513.3131268568229
 20
-76.00176743622298
 30
0.0
 40
3.299999952316284
 50
342.3602834400861
 51
359.9999710095898
  0
ARC
  5
42B
  8
0
  6
CONTINUOUS
 62
     3
 10
513.3131268568229
 20
-76.00176743622298
 30
0.0
 40
3.299999952316284
 50
179.9999776881997
 51
197.6396788801879
  0
ARC
  5
42C
  8
0
  6
CONTINUOUS
 62
     3
 10
519.1091015882682
 20
-78.40629319305891
 30
0.0
 40
3.0
 50
152.1068511557016
 51
216.7619682541758
  0
ARC
  5
42D
  8
0
  6
CONTINUOUS
 62
     3
 10
507.5171368665885
 20
-78.40628556366438
 30
0.0
 40
3.0
 50
323.2379957736453
 51
387.8898190133925
  0
ARC
  5
42E
  8
0
  6
CONTINUOUS
 62
     3
 10
516.3131268568229
 20
-81.13711289520735
 30
0.0
 40
1.0
 50
110.7154403325615
 51
179.9999776881994
  0
ARC
  5
42F
  8
0
  6
CONTINUOUS
 62
     3
 10
516.3131268568229
 20
-81.13711289520735
 30
0.0
 40
1.0
 50
18.19486409036892
 51
69.28452369526075
  0
ARC
  5
430
  8
0
  6
CONTINUOUS
 62
     3
 10
510.3131268568229
 20
-81.13711289520735
 30
0.0
 40
1.0
 50
359.9999710095899
 51
429.2845236952608
  0
ARC
  5
431
  8
0
  6
CONTINUOUS
 62
     3
 10
510.3131268568229
 20
-81.13711289520735
 30
0.0
 40
1.0
 50
110.7154403325615
 51
161.8050913997164
  0
ARC
  5
432
  8
0
  6
CONTINUOUS
 62
     3
 10
516.3131268568229
 20
-82.19885758514876
 30
0.0
 40
1.0
 50
269.9999906653324
 51
341.8051256643479
  0
ARC
  5
433
  8
0
  6
CONTINUOUS
 62
     3
 10
510.3131268568229
 20
-82.19886521454329
 30
0.0
 40
1.0
 50
269.9999906653324
 51
359.9999710095899
  0
ARC
  5
434
  8
0
  6
CONTINUOUS
 62
     3
 10
516.3131268568229
 20
-82.19885758514876
 30
0.0
 40
1.0
 50
179.9999776881994
 51
269.9999733624879
  0
ARC
  5
435
  8
0
  6
CONTINUOUS
 62
     3
 10
510.3131268568229
 20
-82.19886521454329
 30
0.0
 40
1.0
 50
198.1948402983925
 51
269.9999701747648
  0
ARC
  5
436
  8
0
  6
CONTINUOUS
 62
     3
 10
513.3131268568229
 20
-74.17964676971907
 30
0.0
 40
1.200000047683716
 50
23.46796137491567
 51
156.5320077755479
  0
CIRCLE
  5
437
  8
0
  6
CONTINUOUS
 62
     3
 10
513.3131268568229
 20
-16.96128586884016
 30
0.0
 40
8.0
  0
CIRCLE
  5
438
  8
0
  6
CONTINUOUS
 62
     3
 10
513.3131268568229
 20
-16.96128586884016
 30
0.0
 40
2.400000095367432
  0
CIRCLE
  5
439
  8
0
  6
CONTINUOUS
 62
     3
 10
513.3131268568229
 20
-16.96128586884016
 30
0.0
 40
0.75
  0
CIRCLE
  5
43A
  8
0
  6
CONTINUOUS
 62
     3
 10
513.3131268568229
 20
-16.96128586884016
 30
0.0
 40
3.299999952316284
  0
LINE
  5
43B
  8
0
  6
CONTINUOUS
 62
     3
 10
511.3131268568229
 20
-20.42538956757063
 30
0.0
 11
515.3131268568229
 21
-20.42538956757063
 31
0.0
  0
LINE
  5
43C
  8
0
  6
CONTINUOUS
 62
     3
 10
214.8129972337185
 20
121.0385792977811
 30
0.0
 11
214.8129972337185
 21
-5.846412348031848
 31
0.0
  0
LINE
  5
43D
  8
0
  6
CONTINUOUS
 62
     3
 10
284.3130124925076
 20
119.0385792977811
 30
0.0
 11
284.3130124925076
 21
118.2886861093046
 31
0.0
  0
LINE
  5
43E
  8
0
  6
CONTINUOUS
 62
     3
 10
214.8129972337185
 20
121.0385716683866
 30
0.0
 11
232.8130124925076
 21
121.0385716683866
 31
0.0
  0
LINE
  5
43F
  8
0
  6
CONTINUOUS
 62
     3
 10
214.8129972337185
 20
-38.96142451691613
 30
0.0
 11
282.3130124925076
 21
-38.96142451691613
 31
0.0
  0
LINE
  5
440
  8
0
  6
CONTINUOUS
 62
     3
 10
283.3130107023928
 20
120.0385848676067
 30
0.0
 11
284.3130117639823
 21
119.0385838060172
 31
0.0
  0
LINE
  5
441
  8
0
  6
CONTINUOUS
 62
     3
 10
282.3130188239859
 20
-38.96143714764612
 30
0.0
 11
284.3130120120252
 21
-36.96144766851349
 31
0.0
  0
LINE
  5
442
  8
0
  6
CONTINUOUS
 62
     3
 10
219.0129941819607
 20
111.0385792977811
 30
0.0
 11
219.0129941819607
 21
-6.346412348031848
 31
0.0
  0
LINE
  5
443
  8
0
  6
CONTINUOUS
 62
     3
 10
281.8130124925076
 20
70.92158253264442
 30
0.0
 11
281.8130124925076
 21
8.038586092710645
 31
0.0
  0
LINE
  5
444
  8
0
  6
CONTINUOUS
 62
     3
 10
232.8130124925076
 20
121.0385792977811
 30
0.0
 11
232.8130124925076
 21
105.1866582162382
 31
0.0
  0
LINE
  5
445
  8
0
  6
CONTINUOUS
 62
     3
 10
214.8129972337185
 20
-28.96140925812706
 30
0.0
 11
219.0129941819607
 21
-28.96140925812706
 31
0.0
  0
LINE
  5
446
  8
0
  6
CONTINUOUS
 62
     3
 10
214.8129972337185
 20
111.0385716683866
 30
0.0
 11
219.0129941819607
 21
111.0385716683866
 31
0.0
  0
LINE
  5
447
  8
0
  6
CONTINUOUS
 62
     3
 10
257.213006388992
 20
79.03857166838661
 30
0.0
 11
263.213006388992
 21
79.03857166838661
 31
0.0
  0
LINE
  5
448
  8
0
  6
CONTINUOUS
 62
     3
 10
257.213006388992
 20
3.038589788198621
 30
0.0
 11
263.213006388992
 21
3.038589788198621
 31
0.0
  0
LINE
  5
449
  8
0
  6
CONTINUOUS
 62
     3
 10
263.213006388992
 20
79.03857166838661
 30
0.0
 11
263.213006388992
 21
71.53858692717567
 31
0.0
  0
LINE
  5
44A
  8
0
  6
CONTINUOUS
 62
     3
 10
257.213006388992
 20
79.03858692717567
 30
0.0
 11
257.213006388992
 21
71.53858692717567
 31
0.0
  0
LINE
  5
44B
  8
0
  6
CONTINUOUS
 62
     3
 10
281.8130124925076
 20
8.038589907407911
 30
0.0
 11
284.3130124925076
 21
8.038589907407911
 31
0.0
  0
LINE
  5
44C
  8
0
  6
CONTINUOUS
 62
     3
 10
219.0129941819607
 20
71.53857166838661
 30
0.0
 11
270.8130124925076
 21
71.53857166838661
 31
0.0
  0
LINE
  5
44D
  8
0
  6
CONTINUOUS
 62
     3
 10
219.0129941819607
 20
10.53859026503578
 30
0.0
 11
281.8130124925076
 21
10.53859026503578
 31
0.0
  0
LINE
  5
44E
  8
0
  6
CONTINUOUS
 62
     3
 10
257.213006388992
 20
10.53858645033851
 30
0.0
 11
257.213006388992
 21
3.038585973501355
 31
0.0
  0
LINE
  5
44F
  8
0
  6
CONTINUOUS
 62
     3
 10
263.213006388992
 20
10.53858645033851
 30
0.0
 11
263.213006388992
 21
3.038585973501355
 31
0.0
  0
LINE
  5
450
  8
0
  6
CONTINUOUS
 62
     3
 10
232.8130124925076
 20
121.0385716683866
 30
0.0
 11
283.3130124925076
 21
121.0385716683866
 31
0.0
  0
LINE
  5
451
  8
0
  6
CONTINUOUS
 62
     3
 10
273.3130124925076
 20
-2.846412348031848
 30
0.0
 11
273.3130124925076
 21
-19.84641330170616
 31
0.0
  0
LINE
  5
452
  8
0
  6
CONTINUOUS
 62
     3
 10
269.3130124925076
 20
5.588585270166547
 30
0.0
 11
269.3130124925076
 21
0.4885872132779667
 31
0.0
  0
LINE
  5
453
  8
0
  6
CONTINUOUS
 62
     3
 10
269.3130124925076
 20
5.588592899561078
 30
0.0
 11
284.3130124925076
 21
5.588592899561078
 31
0.0
  0
LINE
  5
454
  8
0
  6
CONTINUOUS
 62
     3
 10
269.3130124925076
 20
0.4885872132779667
 30
0.0
 11
284.3130124925076
 21
0.4885872132779667
 31
0.0
  0
LINE
  5
455
  8
0
  6
CONTINUOUS
 62
     3
 10
273.3130124925076
 20
-2.846404718637317
 30
0.0
 11
284.3130124925076
 21
-2.846404718637317
 31
0.0
  0
LINE
  5
456
  8
0
  6
CONTINUOUS
 62
     3
 10
273.3130124925076
 20
-19.84640567231163
 30
0.0
 11
284.3130124925076
 21
-19.84640567231163
 31
0.0
  0
LINE
  5
457
  8
0
  6
CONTINUOUS
 62
     3
 10
267.8407438544934
 20
3.038602171684303
 30
0.0
 11
269.3129882926939
 21
5.588603990056342
 31
0.0
  0
LINE
  5
458
  8
0
  6
CONTINUOUS
 62
     3
 10
267.8407458950339
 20
3.038583990111235
 30
0.0
 11
269.3129903332344
 21
0.4885821717391963
 31
0.0
  0
LINE
  5
459
  8
0
  6
CONTINUOUS
 62
     3
 10
231.3130124925076
 20
71.03858692717567
 30
0.0
 11
231.3130124925076
 21
11.03858645033851
 31
0.0
  0
LINE
  5
45A
  8
0
  6
CONTINUOUS
 62
     3
 10
271.3130124925076
 20
71.03858692717567
 30
0.0
 11
271.3130124925076
 21
11.03858645033851
 31
0.0
  0
LINE
  5
45B
  8
0
  6
CONTINUOUS
 62
     3
 10
262.3130124925076
 20
68.28859074187294
 30
0.0
 11
262.3130124925076
 21
13.78858645033851
 31
0.0
  0
LINE
  5
45C
  8
0
  6
CONTINUOUS
 62
     3
 10
261.3130124925076
 20
68.28859074187294
 30
0.0
 11
261.3130124925076
 21
30.76933415007606
 31
0.0
  0
LINE
  5
45D
  8
0
  6
CONTINUOUS
 62
     3
 10
254.3130124925076
 20
66.28857548308388
 30
0.0
 11
254.3130124925076
 21
15.78858978819862
 31
0.0
  0
LINE
  5
45E
  8
0
  6
CONTINUOUS
 62
     3
 10
231.3130124925076
 20
20.03858883452431
 30
0.0
 11
254.3130124925076
 21
20.03858883452431
 31
0.0
  0
LINE
  5
45F
  8
0
  6
CONTINUOUS
 62
     3
 10
231.3130124925076
 20
62.03857548308388
 30
0.0
 11
254.3130124925076
 21
62.03857548308388
 31
0.0
  0
LINE
  5
460
  8
0
  6
CONTINUOUS
 62
     3
 10
254.3130124925076
 20
66.28857548308388
 30
0.0
 11
261.3130124925076
 21
66.28857548308388
 31
0.0
  0
LINE
  5
461
  8
0
  6
CONTINUOUS
 62
     3
 10
254.3130124925076
 20
15.78858978819862
 30
0.0
 11
261.3130124925076
 21
15.78858978819862
 31
0.0
  0
LINE
  5
462
  8
0
  6
CONTINUOUS
 62
     3
 10
231.313041816483
 20
71.03857600809333
 30
0.0
 11
231.8130423472778
 21
71.53857653888808
 31
0.0
  0
LINE
  5
463
  8
0
  6
CONTINUOUS
 62
     3
 10
231.3130045514547
 20
11.03860578543554
 30
0.0
 11
231.8129866642332
 21
10.53860841581063
 31
0.0
  0
LINE
  5
464
  8
0
  6
CONTINUOUS
 62
     3
 10
271.3130276346997
 20
11.03861751125537
 30
0.0
 11
270.8130271039049
 21
10.53861698046062
 31
0.0
  0
LINE
  5
465
  8
0
  6
CONTINUOUS
 62
     3
 10
271.3130168451066
 20
71.03858410028811
 30
0.0
 11
270.8130163143119
 21
71.53858463108286
 31
0.0
  0
LINE
  5
466
  8
0
  6
CONTINUOUS
 62
     3
 10
262.3130124925076
 20
68.03857548308388
 30
0.0
 11
271.3130124925076
 21
68.03857548308388
 31
0.0
  0
LINE
  5
467
  8
0
  6
CONTINUOUS
 62
     3
 10
262.3130124925076
 20
14.03859026503578
 30
0.0
 11
271.3130124925076
 21
14.03859026503578
 31
0.0
  0
LINE
  5
468
  8
0
  6
CONTINUOUS
 62
     3
 10
261.3130124925076
 20
68.28857548308388
 30
0.0
 11
262.3130124925076
 21
68.28857548308388
 31
0.0
  0
LINE
  5
469
  8
0
  6
CONTINUOUS
 62
     3
 10
261.3130124925076
 20
13.78859026503578
 30
0.0
 11
262.3130124925076
 21
13.78859026503578
 31
0.0
  0
LINE
  5
46A
  8
0
  6
CONTINUOUS
 62
     3
 10
262.3130124925076
 20
20.03858883452431
 30
0.0
 11
271.3130124925076
 21
20.03858883452431
 31
0.0
  0
LINE
  5
46B
  8
0
  6
CONTINUOUS
 62
     3
 10
257.2129858690491
 20
75.00267921038953
 30
0.0
 11
259.21298229277
 21
71.53858426467563
 31
0.0
  0
LINE
  5
46C
  8
0
  6
CONTINUOUS
 62
     3
 10
257.2129809223968
 20
7.074487712429161
 30
0.0
 11
259.2129849755131
 21
10.53859587264178
 31
0.0
  0
LINE
  5
46D
  8
0
  6
CONTINUOUS
 62
     3
 10
276.3130124925076
 20
121.0385792977811
 30
0.0
 11
276.3130124925076
 21
118.0385792977811
 31
0.0
  0
LINE
  5
46E
  8
0
  6
CONTINUOUS
 62
     3
 10
269.3130124925076
 20
121.0385792977811
 30
0.0
 11
269.3130124925076
 21
71.53858692717567
 31
0.0
  0
LINE
  5
46F
  8
0
  6
CONTINUOUS
 62
     3
 10
270.5130094407498
 20
77.03857166838661
 30
0.0
 11
284.3130124925076
 21
77.03857166838661
 31
0.0
  0
LINE
  5
470
  8
0
  6
CONTINUOUS
 62
     3
 10
270.5130094407498
 20
76.03857929778114
 30
0.0
 11
270.5130094407498
 21
71.53858692717567
 31
0.0
  0
LINE
  5
471
  8
0
  6
CONTINUOUS
 62
     3
 10
263.213006388992
 20
73.68441517424598
 30
0.0
 11
269.3130124925076
 21
73.68441517424598
 31
0.0
  0
LINE
  5
472
  8
0
  6
CONTINUOUS
 62
     3
 10
270.3130124925076
 20
118.0385792977811
 30
0.0
 11
270.3130124925076
 21
77.03857166838661
 31
0.0
  0
LINE
  5
473
  8
0
  6
CONTINUOUS
 62
     3
 10
270.3130124925076
 20
118.0385716683866
 30
0.0
 11
284.3130124925076
 21
118.0385716683866
 31
0.0
  0
LINE
  5
474
  8
0
  6
CONTINUOUS
 62
     3
 10
284.3130124925076
 20
118.0385792977811
 30
0.0
 11
284.3130124925076
 21
114.0385792977811
 31
0.0
  0
LINE
  5
475
  8
0
  6
CONTINUOUS
 62
     3
 10
284.3130124925076
 20
106.0385716683866
 30
0.0
 11
284.3130124925076
 21
89.03857929778114
 31
0.0
  0
LINE
  5
476
  8
0
  6
CONTINUOUS
 62
     3
 10
284.3130124925076
 20
76.03857929778114
 30
0.0
 11
284.3130124925076
 21
-36.96142070221886
 31
0.0
  0
LINE
  5
477
  8
0
  6
CONTINUOUS
 62
     3
 10
284.3130124925076
 20
81.03857929778114
 30
0.0
 11
284.3130124925076
 21
77.03857929778114
 31
0.0
  0
LINE
  5
478
  8
0
  6
CONTINUOUS
 62
     3
 10
270.3130124925076
 20
81.03857166838661
 30
0.0
 11
291.3130124925076
 21
81.03857166838661
 31
0.0
  0
LINE
  5
479
  8
0
  6
CONTINUOUS
 62
     3
 10
270.3130124925076
 20
89.03857166838661
 30
0.0
 11
291.3130124925076
 21
89.03857166838661
 31
0.0
  0
LINE
  5
47A
  8
0
  6
CONTINUOUS
 62
     3
 10
270.3130124925076
 20
114.0385716683866
 30
0.0
 11
291.3130124925076
 21
114.0385716683866
 31
0.0
  0
LINE
  5
47B
  8
0
  6
CONTINUOUS
 62
     3
 10
270.3130124925076
 20
106.0385716683866
 30
0.0
 11
291.3130124925076
 21
106.0385716683866
 31
0.0
  0
LINE
  5
47C
  8
0
  6
CONTINUOUS
 62
     3
 10
291.3130124925076
 20
91.53857929778114
 30
0.0
 11
291.3130124925076
 21
78.53857929778114
 31
0.0
  0
LINE
  5
47D
  8
0
  6
CONTINUOUS
 62
     3
 10
291.3130124925076
 20
116.5385792977811
 30
0.0
 11
291.3130124925076
 21
103.5385792977811
 31
0.0
  0
LINE
  5
47E
  8
0
  6
CONTINUOUS
 62
     3
 10
299.3130124925076
 20
91.53857929778114
 30
0.0
 11
299.3130124925076
 21
78.53857929778114
 31
0.0
  0
LINE
  5
47F
  8
0
  6
CONTINUOUS
 62
     3
 10
299.3130124925076
 20
116.5385792977811
 30
0.0
 11
299.3130124925076
 21
103.5385792977811
 31
0.0
  0
LINE
  5
480
  8
0
  6
CONTINUOUS
 62
     3
 10
291.3130124925076
 20
103.5385716683866
 30
0.0
 11
299.3130124925076
 21
103.5385716683866
 31
0.0
  0
LINE
  5
481
  8
0
  6
CONTINUOUS
 62
     3
 10
291.3130124925076
 20
116.5385716683866
 30
0.0
 11
299.3130124925076
 21
116.5385716683866
 31
0.0
  0
LINE
  5
482
  8
0
  6
CONTINUOUS
 62
     3
 10
291.3130124925076
 20
78.53857166838661
 30
0.0
 11
299.3130124925076
 21
78.53857166838661
 31
0.0
  0
LINE
  5
483
  8
0
  6
CONTINUOUS
 62
     3
 10
291.3130124925076
 20
91.53857166838661
 30
0.0
 11
299.3130124925076
 21
91.53857166838661
 31
0.0
  0
LINE
  5
484
  8
0
  6
CONTINUOUS
 62
     3
 10
273.3130124925076
 20
89.03857929778114
 30
0.0
 11
273.3130124925076
 21
81.03857929778114
 31
0.0
  0
LINE
  5
485
  8
0
  6
CONTINUOUS
 62
     3
 10
273.3130124925076
 20
114.0385792977811
 30
0.0
 11
273.3130124925076
 21
106.0385792977811
 31
0.0
  0
LINE
  5
486
  8
0
  6
CONTINUOUS
 62
     3
 10
270.5130094407498
 20
76.03857166838661
 30
0.0
 11
283.3130124925076
 21
76.03857166838661
 31
0.0
  0
LINE
  5
487
  8
0
  6
CONTINUOUS
 62
     3
 10
276.3130124925076
 20
77.03857929778114
 30
0.0
 11
276.3130124925076
 21
76.03857929778114
 31
0.0
  0
LINE
  5
488
  8
0
  6
CONTINUOUS
 62
     3
 10
203.3129972337185
 20
-6.346412348031848
 30
0.0
 11
203.3129972337185
 21
-16.34641330170616
 31
0.0
  0
LINE
  5
489
  8
0
  6
CONTINUOUS
 62
     3
 10
283.3130124925076
 20
-3.346412348031848
 30
0.0
 11
283.3130124925076
 21
-19.34641330170616
 31
0.0
  0
LINE
  5
48A
  8
0
  6
CONTINUOUS
 62
     3
 10
203.3129972337185
 20
-6.346404718637317
 30
0.0
 11
273.3130124925076
 21
-6.346404718637317
 31
0.0
  0
LINE
  5
48B
  8
0
  6
CONTINUOUS
 62
     3
 10
203.3129972337185
 20
-16.34640567231163
 30
0.0
 11
273.3130124925076
 21
-16.34640567231163
 31
0.0
  0
LINE
  5
48C
  8
0
  6
CONTINUOUS
 62
     3
 10
273.3130124925076
 20
-19.34640567231163
 30
0.0
 11
283.3130124925076
 21
-19.34640567231163
 31
0.0
  0
LINE
  5
48D
  8
0
  6
CONTINUOUS
 62
     3
 10
273.3130124925076
 20
-3.346404718637317
 30
0.0
 11
283.3130124925076
 21
-3.346404718637317
 31
0.0
  0
LINE
  5
48E
  8
0
  6
CONTINUOUS
 62
     3
 10
214.8129972337185
 20
-16.84641330170616
 30
0.0
 11
214.8129972337185
 21
-38.96141688752159
 31
0.0
  0
LINE
  5
48F
  8
0
  6
CONTINUOUS
 62
     3
 10
219.0129941819607
 20
-16.34641330170616
 30
0.0
 11
219.0129941819607
 21
-28.96141307282433
 31
0.0
  0
LINE
  5
490
  8
0
  6
CONTINUOUS
 62
     3
 10
281.8130124925076
 20
70.92156727385536
 30
0.0
 11
284.3130124925076
 21
70.92156727385536
 31
0.0
  0
LINE
  5
491
  8
0
  6
CONTINUOUS
 62
     3
 10
273.067498576492
 20
68.42157108855263
 30
0.0
 11
281.8130124925076
 21
68.42157108855263
 31
0.0
  0
LINE
  5
492
  8
0
  6
CONTINUOUS
 62
     3
 10
261.3130124925076
 20
25.33578426909462
 30
0.0
 11
261.3130124925076
 21
13.78858645033851
 31
0.0
  0
LINE
  5
493
  8
0
  6
CONTINUOUS
 62
     3
 10
270.3130124925076
 20
77.03856403899208
 30
0.0
 11
284.3130124925076
 21
77.03856403899208
 31
0.0
  0
LINE
  5
494
  8
0
  6
CONTINUOUS
 62
     3
 10
262.3130124925076
 20
63.03857166838661
 30
0.0
 11
270.3130124925076
 21
63.03857166838661
 31
0.0
  0
LINE
  5
495
  8
0
  6
CONTINUOUS
 62
     3
 10
262.3130124925076
 20
67.03857166838661
 30
0.0
 11
270.3130124925076
 21
67.03857166838661
 31
0.0
  0
LINE
  5
496
  8
0
  6
CONTINUOUS
 62
     3
 10
266.3130124925076
 20
67.03857166838661
 30
0.0
 11
266.3130124925076
 21
63.03857166838661
 31
0.0
  0
LINE
  5
497
  8
0
  6
CONTINUOUS
 62
     3
 10
270.3130124925076
 20
67.03857166838661
 30
0.0
 11
270.3130124925076
 21
63.03857166838661
 31
0.0
  0
LINE
  5
498
  8
0
  6
CONTINUOUS
 62
     3
 10
270.3130124925076
 20
66.53857166838661
 30
0.0
 11
271.3130124925076
 21
66.53857166838661
 31
0.0
  0
LINE
  5
499
  8
0
  6
CONTINUOUS
 62
     3
 10
270.3130124925076
 20
63.53857166838661
 30
0.0
 11
271.3130124925076
 21
63.53857166838661
 31
0.0
  0
LINE
  5
49A
  8
0
  6
CONTINUOUS
 62
     3
 10
266.3130115371591
 20
66.28857313214671
 30
0.0
 11
267.0630123333513
 21
67.03857392833884
 31
0.0
  0
LINE
  5
49B
  8
0
  6
CONTINUOUS
 62
     3
 10
266.3130128858583
 20
63.78857182687209
 30
0.0
 11
267.0630136820504
 21
63.03857103067996
 31
0.0
  0
LINE
  5
49C
  8
0
  6
CONTINUOUS
 62
     3
 10
267.0630124925076
 20
67.03857166838661
 30
0.0
 11
267.0630124925076
 21
63.03857166838661
 31
0.0
  0
LINE
  5
49D
  8
0
  6
CONTINUOUS
 62
     3
 10
262.3130126855976
 20
66.03857286674933
 30
0.0
 11
263.313012398488
 21
67.03857257963971
 31
0.0
  0
LINE
  5
49E
  8
0
  6
CONTINUOUS
 62
     3
 10
262.3130140342968
 20
64.03857209226946
 30
0.0
 11
263.3130150958863
 21
63.03857103067996
 31
0.0
  0
LINE
  5
49F
  8
0
  6
CONTINUOUS
 62
     3
 10
263.3130124925076
 20
67.03857166838661
 30
0.0
 11
263.3130124925076
 21
63.03857166838661
 31
0.0
  0
LINE
  5
4A0
  8
0
  6
CONTINUOUS
 62
     3
 10
262.3130124925076
 20
62.03856213164345
 30
0.0
 11
271.3130124925076
 21
62.03856213164345
 31
0.0
  0
LINE
  5
4A1
  8
0
  6
CENTER
 62
     7
 10
394.2408612318229
 20
41.0386444374367
 30
0.0
 11
572.1936581678581
 21
41.0386444374367
 31
0.0
  0
LINE
  5
4A2
  8
0
  6
CENTER
 62
     7
 10
460.3131344862174
 20
44.90600462798601
 30
0.0
 11
460.3131344862174
 21
37.07267256621843
 31
0.0
  0
LINE
  5
4A3
  8
0
  6
CENTER
 62
     7
 10
506.3131344862174
 20
44.73934050445085
 30
0.0
 11
506.3131344862174
 21
36.90600462798601
 31
0.0
  0
LINE
  5
4A4
  8
0
  6
CENTER
 62
     7
 10
426.1949246473503
 20
99.03871413115984
 30
0.0
 11
464.6824963636588
 21
99.03871413115984
 31
0.0
  0
LINE
  5
4A5
  8
0
  6
CENTER
 62
     7
 10
445.7463163218804
 20
62.72799789038923
 30
0.0
 11
455.9989576494213
 21
56.80863331401166
 31
0.0
  0
LINE
  5
4A6
  8
0
  6
CENTER
 62
     7
 10
473.8790677137565
 20
-2.961267749028153
 30
0.0
 11
492.878342921276
 21
-2.961267749028153
 31
0.0
  0
LINE
  5
4A7
  8
0
  6
CENTER
 62
     7
 10
473.3531125135612
 20
-27.9612706100511
 30
0.0
 11
493.0462201185417
 21
-27.9612706100511
 31
0.0
  0
LINE
  5
4A8
  8
0
  6
CENTER
 62
     7
 10
473.8615887708854
 20
85.03871413115984
 30
0.0
 11
493.1949246473503
 21
85.03871413115984
 31
0.0
  0
LINE
  5
4A9
  8
0
  6
CENTER
 62
     7
 10
473.5282528944206
 20
110.0387141311598
 30
0.0
 11
493.5282528944206
 21
110.0387141311598
 31
0.0
  0
LINE
  5
4AA
  8
0
  6
CENTER
 62
     7
 10
512.1981106194987
 20
57.7154476602668
 30
0.0
 11
520.365530334199
 21
62.43090911016041
 31
0.0
  0
LINE
  5
4AB
  8
0
  6
CENTER
 62
     7
 10
512.4362916114717
 20
11.91555347551274
 30
0.0
 11
528.5552045173433
 21
-4.203359430358901
 31
0.0
  0
LINE
  5
4AC
  8
0
  6
CENTER
 62
     7
 10
454.1899710652679
 20
11.91555077811448
 30
0.0
 11
438.0710608567945
 21
-4.203359430358901
 31
0.0
  0
LINE
  5
4AD
  8
0
  6
CENTER
 62
     7
 10
465.471377247055
 20
30.73769824717577
 30
0.0
 11
459.3652416223615
 21
27.21231871701838
 31
0.0
  0
LINE
  5
4AE
  8
0
  6
CENTER
 62
     7
 10
454.8157463006432
 20
57.49161967460871
 30
0.0
 11
445.1350186062759
 21
63.08078979740081
 31
0.0
  0
LINE
  5
4AF
  8
0
  6
CENTER
 62
     7
 10
454.189972413967
 20
70.16187267301744
 30
0.0
 11
438.0710588337457
 21
86.28078625323865
 31
0.0
  0
LINE
  5
4B0
  8
0
  6
CENTER
 62
     7
 10
512.43629430887
 20
70.16187402171657
 30
0.0
 11
528.5552018199451
 21
86.28078153279169
 31
0.0
  0
LINE
  5
4B1
  8
0
  6
CENTER
 62
     7
 10
453.3131344862175
 20
109.9330927932692
 30
0.0
 11
453.3131344862175
 21
87.66025038604265
 31
0.0
  0
LINE
  5
4B2
  8
0
  6
CENTER
 62
     7
 10
513.313142115612
 20
-93.7975743209886
 30
0.0
 11
513.313142115612
 21
-66.30853013153548
 31
0.0
  0
LINE
  5
4B3
  8
0
  6
CENTER
 62
     7
 10
525.4987958021354
 20
-16.96128586884016
 30
0.0
 11
500.1336037944559
 21
-16.96128586884016
 31
0.0
  0
LINE
  5
4B4
  8
0
  6
CENTER
 62
     7
 10
513.3131268568229
 20
-27.85566071625227
 30
0.0
 11
513.3131268568229
 21
-5.582820216374344
 31
0.0
  0
LINE
  5
4B5
  8
0
  6
CENTER
 62
     7
 10
455.9185037977281
 20
25.22234343320018
 30
0.0
 11
445.1350830129159
 21
18.996531686387
 31
0.0
  0
LINE
  5
4B6
  8
0
  6
CENTER
 62
     7
 10
512.379997938508
 20
24.25702812228063
 30
0.0
 11
521.4912566821336
 21
18.99664101516986
 31
0.0
  0
ARC
  5
4B7
  8
0
  6
CENTER
 62
     7
 10
483.3131344862174
 20
41.03871413115984
 30
0.0
 40
52.3849983215332
 50
32.58454441675888
 51
44.25540817987016
  0
ARC
  5
4B8
  8
0
  6
CENTER
 62
     7
 10
483.3131344862174
 20
41.03871413115984
 30
0.0
 40
38.0
 50
140.2687672862355
 51
158.5120932763128
  0
ARC
  5
4B9
  8
0
  6
CENTER
 62
     7
 10
483.3131344862174
 20
41.03871413115984
 30
0.0
 40
38.0
 50
320.3795547758059
 51
339.4814953087091
  0
ARC
  5
4BA
  8
0
  6
CENTER
 62
     7
 10
483.3131344862174
 20
41.03871413115984
 30
0.0
 40
38.0
 50
21.93431582132261
 51
39.54982789836532
  0
ARC
  5
4BB
  8
0
  6
CENTER
 62
     7
 10
483.3131344862174
 20
41.03871413115984
 30
0.0
 40
52.3849983215332
 50
300.6221739222227
 51
329.1748508417339
  0
ARC
  5
4BC
  8
0
  6
CENTER
 62
     7
 10
483.3131344862174
 20
41.03871413115984
 30
0.0
 40
38.0
 50
200.3795582666909
 51
219.4814936769522
  0
ARC
  5
4BD
  8
0
  6
CENTER
 62
     7
 10
483.3131344862174
 20
41.03871413115984
 30
0.0
 40
38.0
 50
140.3795529545731
 51
159.4815020252127
  0
ARC
  5
4BE
  8
0
  6
CENTER
 62
     7
 10
483.3131344862174
 20
41.03871413115984
 30
0.0
 40
52.3849983215332
 50
210.6221782479337
 51
239.1748551674449
  0
ARC
  5
4BF
  8
0
  6
CENTER
 62
     7
 10
483.3131344862174
 20
41.03871413115984
 30
0.0
 40
52.3849983215332
 50
30.62217642670086
 51
57.16669576795824
  0
ARC
  5
4C0
  8
0
  6
CENTER
 62
     7
 10
483.3131344862174
 20
41.03871413115984
 30
0.0
 40
52.3849983215332
 50
120.622178931179
 51
147.1666982724364
  0
LINE
  5
4C1
  8
0
  6
CENTER
 62
     7
 10
501.1548917253799
 20
30.73769824717577
 30
0.0
 11
507.2610273500734
 21
27.21231871701838
 31
0.0
  0
LINE
  5
4C2
  8
0
  6
CENTER
 62
     7
 10
209.5172971604763
 20
41.03857548308388
 30
0.0
 11
287.1857389645207
 21
41.03857548308388
 31
0.0
  0
LINE
  5
4C3
  8
0
  6
CENTER
 62
     7
 10
198.0210508225857
 20
-11.34640567231163
 30
0.0
 11
289.1041578172146
 21
-11.34640567231163
 31
0.0
  0
LINE
  5
4C4
  8
0
  6
CENTER
 62
     7
 10
264.8680051682889
 20
3.038589788198621
 30
0.0
 11
288.5631727097928
 21
3.038589788198621
 31
0.0
  0
LINE
  5
4C5
  8
0
  6
CENTER
 62
     7
 10
267.7607358811795
 20
85.03857166838661
 30
0.0
 11
304.2221540330349
 21
85.03857166838661
 31
0.0
  0
LINE
  5
4C6
  8
0
  6
CENTER
 62
     7
 10
267.5678190110623
 20
110.0385716683866
 30
0.0
 11
304.0292295335232
 21
110.0385716683866
 31
0.0
  0
LINE
  5
4C7
  8
0
  6
CENTER
 62
     7
 10
260.1986326096951
 20
65.03857166838661
 30
0.0
 11
272.7876218675076
 21
65.03857166838661
 31
0.0
  0
LINE
  5
4C8
  8
0
  6
CENTER
 62
     7
 10
251.0129941819607
 20
-17.85325318606056
 30
0.0
 11
251.0129941819607
 21
-41.97922038476233
 31
0.0
  0
LINE
  5
4C9
  8
0
  6
CENTER
 62
     7
 10
483.3131344862174
 20
130.6551719948097
 30
0.0
 11
483.3131344862174
 21
56.93626488679495
 31
0.0
  0
LINE
  5
4CA
  8
0
  6
CENTER
 62
     7
 10
483.3131344862174
 20
49.02107054050519
 30
0.0
 11
483.3131344862174
 21
-49.21798550641096
 31
0.0
  0
LINE
  5
4CB
  8
0
  6
DASHED2
 62
     7
 10
443.3131344862175
 20
110.3207575881911
 30
0.0
 11
443.3131344862175
 21
88.03872176055437
 31
0.0
  0
LINE
  5
4CC
  8
0
  6
DASHED2
 62
     7
 10
418.5751965589714
 20
88.03871413115984
 30
0.0
 11
443.3131344862175
 21
88.03871413115984
 31
0.0
  0
LINE
  5
4CD
  8
0
  6
DASHED2
 62
     7
 10
443.3131344862175
 20
105.0387141311598
 30
0.0
 11
455.8615887708854
 21
105.0387141311598
 31
0.0
  0
LINE
  5
4CE
  8
0
  6
DASHED2
 62
     7
 10
443.3131344862175
 20
93.03871413115984
 30
0.0
 11
456.1949246473503
 21
93.03871413115984
 31
0.0
  0
LINE
  5
4CF
  8
0
  6
DASHED2
 62
     7
 10
433.8131344862175
 20
101.4387232864333
 30
0.0
 11
433.8131344862175
 21
96.63872023467546
 31
0.0
  0
LINE
  5
4D0
  8
0
  6
DASHED2
 62
     7
 10
440.9362347669792
 20
95.08873244170671
 30
0.0
 11
442.6224759168815
 21
95.08873244170671
 31
0.0
  0
LINE
  5
4D1
  8
0
  6
DASHED2
 62
     7
 10
440.9362347669792
 20
102.9887263381911
 30
0.0
 11
442.6224759168815
 21
102.9887263381911
 31
0.0
  0
LINE
  5
4D2
  8
0
  6
DASHED2
 62
     7
 10
436.1131375379753
 20
102.3387248123122
 30
0.0
 11
436.1131375379753
 21
95.73871870879655
 31
0.0
  0
LINE
  5
4D3
  8
0
  6
DASHED2
 62
     7
 10
440.3131344862175
 20
102.4313075149489
 30
0.0
 11
440.3131344862175
 21
95.64610548858171
 31
0.0
  0
LINE
  5
4D4
  8
0
  6
DASHED2
 62
     7
 10
441.0770657606315
 20
101.0387141311598
 30
0.0
 11
442.5492032118034
 21
101.0387141311598
 31
0.0
  0
LINE
  5
4D5
  8
0
  6
DASHED2
 62
     7
 10
441.0770657606315
 20
97.03871413115984
 30
0.0
 11
442.5492032118034
 21
97.03871413115984
 31
0.0
  0
LINE
  5
4D6
  8
0
  6
DASHED2
 62
     7
 10
436.113151964184
 20
95.7387566383271
 30
0.0
 11
433.8131515687728
 21
96.63875659143592
 31
0.0
  0
LINE
  5
4D7
  8
0
  6
DASHED2
 62
     7
 10
433.8131196652792
 20
101.4387126502952
 30
0.0
 11
436.1131200606903
 21
102.338712603404
 31
0.0
  0
LINE
  5
4D8
  8
0
  6
DASHED2
 62
     7
 10
437.1131375379753
 20
101.651797016902
 30
0.0
 11
437.1131375379753
 21
96.35976668242937
 31
0.0
  0
ARC
  5
4D9
  8
0
  6
DASHED2
 62
     7
 10
440.3131344862175
 20
99.03871413115984
 30
0.0
 40
3.0
 50
0.0
 51
41.81031315512681
  0
ARC
  5
4DA
  8
0
  6
DASHED2
 62
     7
 10
443.3131344862175
 20
99.03871413115984
 30
0.0
 40
3.0
 50
138.1896986840186
 51
221.8102840131373
  0
ARC
  5
4DB
  8
0
  6
DASHED2
 62
     7
 10
440.3131344862175
 20
99.03871413115984
 30
0.0
 40
3.0
 50
318.1896868448732
 51
360.0
  0
ARC
  5
4DC
  8
0
  6
DASHED2
 62
     7
 10
436.1131375379753
 20
99.03871413115984
 30
0.0
 40
3.299999952316284
 50
72.36029448230075
 51
89.99998201391055
  0
ARC
  5
4DD
  8
0
  6
DASHED2
 62
     7
 10
436.1131375379753
 20
99.03871413115984
 30
0.0
 40
3.299999952316284
 50
270.0000179860895
 51
287.6397055176993
  0
ARC
  5
4DE
  8
0
  6
DASHED2
 62
     7
 10
438.5176632948112
 20
104.8346736038161
 30
0.0
 40
3.0
 50
242.1068914535913
 51
306.7619948916871
  0
ARC
  5
4DF
  8
0
  6
DASHED2
 62
     7
 10
438.5176632948112
 20
93.24272414092546
 30
0.0
 40
3.0
 50
53.23800510831291
 51
117.8898300556072
  0
ARC
  5
4E0
  8
0
  6
DASHED2
 62
     7
 10
441.2484829969596
 20
102.0387141311598
 30
0.0
 40
1.0
 50
200.7154669700724
 51
270.0000179860891
  0
ARC
  5
4E1
  8
0
  6
DASHED2
 62
     7
 10
441.2484829969596
 20
102.0387141311598
 30
0.0
 40
1.0
 50
108.1948751325835
 51
159.2845330299276
  0
ARC
  5
4E2
  8
0
  6
DASHED2
 62
     7
 10
441.2484829969596
 20
96.03871413115984
 30
0.0
 40
1.0
 50
89.99998201391097
 51
159.2845330299276
  0
ARC
  5
4E3
  8
0
  6
DASHED2
 62
     7
 10
441.2484829969596
 20
96.03871413115984
 30
0.0
 40
1.0
 50
200.7154669700724
 51
251.8051248674166
  0
ARC
  5
4E4
  8
0
  6
DASHED2
 62
     7
 10
442.3102353162956
 20
102.0387141311598
 30
0.0
 40
1.0
 50
0.0
 51
71.80513670656242
  0
ARC
  5
4E5
  8
0
  6
DASHED2
 62
     7
 10
442.3102353162956
 20
96.03871413115984
 30
0.0
 40
1.0
 50
0.0
 51
89.99998201391097
  0
ARC
  5
4E6
  8
0
  6
DASHED2
 62
     7
 10
442.3102353162956
 20
102.0387141311598
 30
0.0
 40
1.0
 50
270.0000179860891
 51
360.0
  0
ARC
  5
4E7
  8
0
  6
DASHED2
 62
     7
 10
442.3102353162956
 20
96.03871413115984
 30
0.0
 40
1.0
 50
288.1948632934378
 51
360.0
  0
ARC
  5
4E8
  8
0
  6
DASHED2
 62
     7
 10
434.2910245008659
 20
99.03871413115984
 30
0.0
 40
1.200000047683716
 50
113.4679724171302
 51
246.532017110215
  0
LINE
  5
4E9
  8
0
  6
DASHED2
 62
     7
 10
415.3132041799709
 20
45.03864443746706
 30
0.0
 11
415.3132041799709
 21
37.03864443746706
 31
0.0
  0
LINE
  5
4EA
  8
0
  6
DASHED2
 62
     7
 10
420.3132041799709
 20
44.43864443746707
 30
0.0
 11
420.3132041799709
 21
37.63864443746706
 31
0.0
  0
LINE
  5
4EB
  8
0
  6
DASHED2
 62
     7
 10
415.3132041799709
 20
45.03864443746706
 30
0.0
 11
403.4131935754465
 21
45.03864443746706
 31
0.0
  0
LINE
  5
4EC
  8
0
  6
DASHED2
 62
     7
 10
420.3132041799709
 20
44.43864443746707
 30
0.0
 11
403.385414176476
 21
44.43864443746703
 31
0.0
  0
LINE
  5
4ED
  8
0
  6
DASHED2
 62
     7
 10
415.3132041799709
 20
37.03864443746706
 30
0.0
 11
403.4132005535439
 21
37.03864443746706
 31
0.0
  0
LINE
  5
4EE
  8
0
  6
DASHED2
 62
     7
 10
420.3132041799709
 20
37.7259151676836
 30
0.0
 11
403.3817553974791
 21
37.72591516768357
 31
0.0
  0
LINE
  5
4EF
  8
0
  6
DASHED2
 62
     7
 10
420.3132041799709
 20
37.63864443746706
 30
0.0
 11
422.2761950952156
 21
41.03864443746695
 31
0.0
  0
LINE
  5
4F0
  8
0
  6
DASHED2
 62
     7
 10
420.3132041799709
 20
44.43864443746707
 30
0.0
 11
422.2761950952156
 21
41.03864443746718
 31
0.0
  0
LINE
  5
4F1
  8
0
  6
DASHED2
 62
     7
 10
262.8903635981342
 20
65.03857180155301
 30
0.0
 11
262.3130129816791
 21
66.03857238508617
 31
0.0
  0
LINE
  5
4F2
  8
0
  6
DASHED2
 62
     7
 10
262.8903621812349
 20
65.03857358041455
 30
0.0
 11
262.3130119224077
 21
64.03857361631101
 31
0.0
  0
LINE
  5
4F3
  8
0
  6
DASHED2
 62
     7
 10
247.0129941819607
 20
-26.96142451691613
 30
0.0
 11
255.0129941819607
 21
-26.96142451691613
 31
0.0
  0
LINE
  5
4F4
  8
0
  6
DASHED2
 62
     7
 10
247.6129941819607
 20
-21.96142451691613
 30
0.0
 11
254.4129941819607
 21
-21.96142451691613
 31
0.0
  0
LINE
  5
4F5
  8
0
  6
DASHED2
 62
     7
 10
247.0129941819607
 20
-26.96142451691613
 30
0.0
 11
247.0129941819607
 21
-38.96142451691613
 31
0.0
  0
LINE
  5
4F6
  8
0
  6
DASHED2
 62
     7
 10
247.6129941819607
 20
-21.96142451691613
 30
0.0
 11
247.6129941819607
 21
-38.96142451691613
 31
0.0
  0
LINE
  5
4F7
  8
0
  6
DASHED2
 62
     7
 10
255.0129941819607
 20
-26.96142451691613
 30
0.0
 11
255.0129941819607
 21
-38.96142451691613
 31
0.0
  0
LINE
  5
4F8
  8
0
  6
DASHED2
 62
     7
 10
254.3257234517442
 20
-21.96142451691613
 30
0.0
 11
254.3257234517442
 21
-38.96142451691613
 31
0.0
  0
LINE
  5
4F9
  8
0
  6
DASHED2
 62
     7
 10
254.4129941819607
 20
-21.96142451691613
 30
0.0
 11
251.0129941819608
 21
-19.99843360167146
 31
0.0
  0
LINE
  5
4FA
  8
0
  6
DASHED2
 62
     7
 10
247.6129941819607
 20
-21.96142451691613
 30
0.0
 11
251.0129941819606
 21
-19.99843360167146
 31
0.0
  0
LINE
  5
4FB
  8
0
  6
CONTINUOUS
 62
     7
 10
214.8129972337185
 20
-38.96141688752159
 30
0.0
 11
214.8129972337185
 21
-51.72443644928917
 31
0.0
  0
CIRCLE
  5
4FC
  8
0
  6
CONTINUOUS
 62
     4
 10
483.3131344862174
 20
41.0386444374367
 30
0.0
 40
26.20000076293945
  0
CIRCLE
  5
4FD
  8
0
  6
CONTINUOUS
 62
     4
 10
483.3131344862174
 20
65.03871413115984
 30
0.0
 40
2.0
  0
CIRCLE
  5
4FE
  8
0
  6
CONTINUOUS
 62
     4
 10
504.0977745631634
 20
29.03876676161645
 30
0.0
 40
2.0
  0
CIRCLE
  5
4FF
  8
0
  6
CONTINUOUS
 62
     4
 10
462.5285160229164
 20
29.03872932554425
 30
0.0
 40
2.0
  0
LINE
  5
500
  8
0
  6
CONTINUOUS
 62
     4
 10
470.3131344862174
 20
77.53871413115984
 30
0.0
 11
476.8131344862174
 21
77.53871413115984
 31
0.0
  0
LINE
  5
501
  8
0
  6
CONTINUOUS
 62
     4
 10
489.8131344862174
 20
77.53871413115984
 30
0.0
 11
496.3131268568229
 21
77.53871413115984
 31
0.0
  0
LINE
  5
502
  8
0
  6
CONTINUOUS
 62
     4
 10
470.3131344862174
 20
119.5387141311598
 30
0.0
 11
476.8131344862174
 21
119.5387141311598
 31
0.0
  0
LINE
  5
503
  8
0
  6
CONTINUOUS
 62
     4
 10
489.8131344862174
 20
119.5387141311598
 30
0.0
 11
496.3131268568229
 21
119.5387141311598
 31
0.0
  0
LINE
  5
504
  8
0
  6
CONTINUOUS
 62
     4
 10
489.8131344862174
 20
79.03871413115984
 30
0.0
 11
496.3131268568229
 21
79.03871413115984
 31
0.0
  0
LINE
  5
505
  8
0
  6
CONTINUOUS
 62
     4
 10
489.8131344862174
 20
80.53871413115984
 30
0.0
 11
496.3131268568229
 21
80.53871413115984
 31
0.0
  0
LINE
  5
506
  8
0
  6
CONTINUOUS
 62
     4
 10
490.4198544569206
 20
82.03871413115984
 30
0.0
 11
496.3131268568229
 21
82.03871413115984
 31
0.0
  0
LINE
  5
507
  8
0
  6
CONTINUOUS
 62
     4
 10
490.9921200819206
 20
83.53871413115984
 30
0.0
 11
496.3131268568229
 21
83.53871413115984
 31
0.0
  0
LINE
  5
508
  8
0
  6
CONTINUOUS
 62
     4
 10
470.3131344862174
 20
79.03871413115984
 30
0.0
 11
476.8131344862174
 21
79.03871413115984
 31
0.0
  0
LINE
  5
509
  8
0
  6
CONTINUOUS
 62
     4
 10
470.3131344862174
 20
80.53871413115984
 30
0.0
 11
476.8131344862174
 21
80.53871413115984
 31
0.0
  0
LINE
  5
50A
  8
0
  6
CONTINUOUS
 62
     4
 10
470.3131344862174
 20
82.03871413115984
 30
0.0
 11
476.2561352796745
 21
82.03871413115984
 31
0.0
  0
LINE
  5
50B
  8
0
  6
CONTINUOUS
 62
     4
 10
470.3131344862174
 20
83.53871413115984
 30
0.0
 11
475.6838620252799
 21
83.53871413115984
 31
0.0
  0
LINE
  5
50C
  8
0
  6
CONTINUOUS
 62
     4
 10
470.3131344862174
 20
118.0387141311598
 30
0.0
 11
476.8131344862174
 21
118.0387141311598
 31
0.0
  0
LINE
  5
50D
  8
0
  6
CONTINUOUS
 62
     4
 10
470.3131344862174
 20
116.5387141311598
 30
0.0
 11
476.8131344862174
 21
116.5387141311598
 31
0.0
  0
LINE
  5
50E
  8
0
  6
CONTINUOUS
 62
     4
 10
470.3131344862174
 20
115.0387141311598
 30
0.0
 11
476.8131344862174
 21
115.0387141311598
 31
0.0
  0
LINE
  5
50F
  8
0
  6
CONTINUOUS
 62
     4
 10
470.3131344862174
 20
113.5387141311598
 30
0.0
 11
476.8131344862174
 21
113.5387141311598
 31
0.0
  0
LINE
  5
510
  8
0
  6
CONTINUOUS
 62
     4
 10
489.8131344862174
 20
118.0387141311598
 30
0.0
 11
496.3131268568229
 21
118.0387141311598
 31
0.0
  0
LINE
  5
511
  8
0
  6
CONTINUOUS
 62
     4
 10
489.8131344862174
 20
116.5387141311598
 30
0.0
 11
496.3131268568229
 21
116.5387141311598
 31
0.0
  0
LINE
  5
512
  8
0
  6
CONTINUOUS
 62
     4
 10
489.8131344862174
 20
115.0387141311598
 30
0.0
 11
496.3131268568229
 21
115.0387141311598
 31
0.0
  0
LINE
  5
513
  8
0
  6
CONTINUOUS
 62
     4
 10
489.8131344862174
 20
113.5387141311598
 30
0.0
 11
496.3131268568229
 21
113.5387141311598
 31
0.0
  0
CIRCLE
  5
514
  8
0
  6
CONTINUOUS
 62
     4
 10
516.222092921276
 20
22.03872176055437
 30
0.0
 40
3.0
  0
ARC
  5
515
  8
0
  6
CONTINUOUS
 62
     4
 10
483.3131344862174
 20
41.03871413115984
 30
0.0
 40
39.0
 50
112.6198814882679
 51
143.8582775818873
  0
ARC
  5
516
  8
0
  6
CONTINUOUS
 62
     4
 10
483.3131344862174
 20
41.03871413115984
 30
0.0
 40
45.0
 50
109.4712394129729
 51
127.5114355771341
  0
ARC
  5
517
  8
0
  6
CONTINUOUS
 62
     4
 10
483.3131344862174
 20
41.03871413115984
 30
0.0
 40
39.0
 50
216.9110885866013
 51
248.9627757952616
  0
ARC
  5
518
  8
0
  6
CONTINUOUS
 62
     4
 10
483.3131344862174
 20
41.03871413115984
 30
0.0
 40
45.0
 50
232.4380210230079
 51
251.8737955893319
  0
ARC
  5
519
  8
0
  6
CONTINUOUS
 62
     4
 10
483.3131344862174
 20
41.03871413115984
 30
0.0
 40
39.0
 50
335.0507413488381
 51
383.6517583503859
  0
ARC
  5
51A
  8
0
  6
CONTINUOUS
 62
     4
 10
483.3131344862174
 20
41.03871413115984
 30
0.0
 40
45.0
 50
321.497434761789
 51
397.3228105685368
  0
ARC
  5
51B
  8
0
  6
CONTINUOUS
 62
     4
 10
483.3131344862174
 20
41.03871413115984
 30
0.0
 40
39.0
 50
291.0372396863496
 51
323.7651736794491
  0
ARC
  5
51C
  8
0
  6
CONTINUOUS
 62
     4
 10
483.3131344862174
 20
41.03871413115984
 30
0.0
 40
45.0
 50
288.1262198922793
 51
307.1623976563064
  0
CIRCLE
  5
51D
  8
0
  6
CONTINUOUS
 62
     4
 10
450.4041913099479
 20
60.03874846343523
 30
0.0
 40
3.0
  0
CIRCLE
  5
51E
  8
0
  6
CONTINUOUS
 62
     4
 10
516.222092921276
 20
60.03871031646257
 30
0.0
 40
3.0
  0
ARC
  5
51F
  8
0
  6
CONTINUOUS
 62
     4
 10
483.3131344862174
 20
41.03871413115984
 30
0.0
 40
45.0
 50
142.9762406128502
 51
217.7622221373676
  0
ARC
  5
520
  8
0
  6
CONTINUOUS
 62
     4
 10
483.3131344862174
 20
41.03871413115984
 30
0.0
 40
39.0
 50
156.0618995153542
 51
203.8019301908868
  0
ARC
  5
521
  8
0
  6
CONTINUOUS
 62
     4
 10
483.3131344862174
 20
41.03871413115984
 30
0.0
 40
39.0
 50
35.3167737640203
 51
67.3801371810668
  0
ARC
  5
522
  8
0
  6
CONTINUOUS
 62
     4
 10
483.3131344862174
 20
41.03871413115984
 30
0.0
 40
45.0
 50
52.21702501608469
 51
70.52877925636177
  0
CIRCLE
  5
523
  8
0
  6
CONTINUOUS
 62
     4
 10
450.4041836805534
 20
22.03872176055437
 30
0.0
 40
3.0
  0
LINE
  5
524
  8
0
  6
CONTINUOUS
 62
     4
 10
271.3130124925076
 20
6.038586033106
 30
0.0
 11
271.3130124925076
 21
0.0385864503385136
 31
0.0
  0
LINE
  5
525
  8
0
  6
CONTINUOUS
 62
     4
 10
271.3130124925076
 20
6.038589847803266
 30
0.0
 11
284.3130124925076
 21
6.038589847803266
 31
0.0
  0
LINE
  5
526
  8
0
  6
CONTINUOUS
 62
     4
 10
271.3130124925076
 20
0.0385902650357792
 30
0.0
 11
284.3130124925076
 21
0.0385902650357792
 31
0.0
  0
LINE
  5
527
  8
0
  6
CONTINUOUS
 62
     4
 10
219.0129941819607
 20
-16.84640567231163
 30
0.0
 11
273.3130124925076
 21
-16.84640567231163
 31
0.0
  0
LINE
  5
528
  8
0
  6
CONTINUOUS
 62
     4
 10
219.0129941819607
 20
-5.846404718637317
 30
0.0
 11
273.3130124925076
 21
-5.846404718637317
 31
0.0
  0
LINE
  5
529
  8
0
  6
CONTINUOUS
 62
     4
 10
262.3130124925076
 20
14.63857758116737
 30
0.0
 11
271.3130124925076
 21
14.63857758116737
 31
0.0
  0
LINE
  5
52A
  8
0
  6
CONTINUOUS
 62
     4
 10
262.3130124925076
 20
67.43858769011513
 30
0.0
 11
271.3130124925076
 21
67.43858769011513
 31
0.0
  0
LINE
  5
52B
  8
0
  6
CONTINUOUS
 62
     4
 10
283.3130124925076
 20
121.0385792977811
 30
0.0
 11
283.3130124925076
 21
118.0385792977811
 31
0.0
  0
LINE
  5
52C
  8
0
  6
CONTINUOUS
 62
     4
 10
282.3130124925076
 20
121.0385792977811
 30
0.0
 11
282.3130124925076
 21
118.0385792977811
 31
0.0
  0
LINE
  5
52D
  8
0
  6
CONTINUOUS
 62
     4
 10
270.3130124925076
 20
113.1885960824491
 30
0.0
 11
291.3130124925076
 21
113.1885960824491
 31
0.0
  0
LINE
  5
52E
  8
0
  6
CONTINUOUS
 62
     4
 10
270.3130124925076
 20
106.8885777719022
 30
0.0
 11
291.3130124925076
 21
106.8885777719022
 31
0.0
  0
LINE
  5
52F
  8
0
  6
CONTINUOUS
 62
     4
 10
270.3130124925076
 20
81.88857777190223
 30
0.0
 11
291.3130124925076
 21
81.88857777190223
 31
0.0
  0
LINE
  5
530
  8
0
  6
CONTINUOUS
 62
     4
 10
270.3130124925076
 20
88.18859608244911
 30
0.0
 11
291.3130124925076
 21
88.18859608244911
 31
0.0
  0
LINE
  5
531
  8
0
  6
CONTINUOUS
 62
     4
 10
282.3130124925076
 20
77.03857929778114
 30
0.0
 11
282.3130124925076
 21
76.03857929778114
 31
0.0
  0
LINE
  5
532
  8
0
  6
CONTINUOUS
 62
     4
 10
283.3130124925076
 20
77.03857929778114
 30
0.0
 11
283.3130124925076
 21
76.03857929778114
 31
0.0
  0
LINE
  5
533
  8
0
  6
CONTINUOUS
 62
     4
 10
203.3129972337185
 20
-7.196410822152942
 30
0.0
 11
235.3130124925076
 21
-7.196410822152942
 31
0.0
  0
LINE
  5
534
  8
0
  6
CONTINUOUS
 62
     4
 10
203.3129972337185
 20
-15.49641482758507
 30
0.0
 11
235.3130124925076
 21
-15.49641482758507
 31
0.0
  0
LINE
  5
535
  8
0
  6
CONTINUOUS
 62
     4
 10
235.3130124925076
 20
-6.346412348031848
 30
0.0
 11
235.3130124925076
 21
-16.34641330170616
 31
0.0
  0
LINE
  5
536
  8
0
  6
CONTINUOUS
 62
     4
 10
292.3129947991149
 20
83.45794781772536
 30
0.0
 11
293.3187759691562
 21
84.038635782839
 31
0.0
  0
LINE
  5
537
  8
0
  6
CONTINUOUS
 62
     4
 10
297.8199190655096
 20
109.0385983960437
 30
0.0
 11
298.3130181192564
 21
108.753907556079
 31
0.0
  0
LINE
  5
538
  8
0
  6
CONTINUOUS
 62
     4
 10
295.8199272793843
 20
109.0386375795563
 30
0.0
 11
298.3130144233489
 21
107.5992532049011
 31
0.0
  0
LINE
  5
539
  8
0
  6
CONTINUOUS
 62
     4
 10
293.8199277269249
 20
109.0386327938009
 30
0.0
 11
298.313016175607
 21
106.4445472550611
 31
0.0
  0
LINE
  5
53A
  8
0
  6
CONTINUOUS
 62
     4
 10
292.3129988918646
 20
108.753949123244
 30
0.0
 11
298.3130028060169
 21
105.2898456309902
 31
0.0
  0
LINE
  5
53B
  8
0
  6
CONTINUOUS
 62
     4
 10
292.3129940368729
 20
107.599246988101
 30
0.0
 11
297.6141359235173
 21
104.5386316309771
 31
0.0
  0
LINE
  5
53C
  8
0
  6
CONTINUOUS
 62
     4
 10
292.3129976964794
 20
106.4445443418859
 30
0.0
 11
295.6141382784064
 21
104.5386301488466
 31
0.0
  0
LINE
  5
53D
  8
0
  6
CONTINUOUS
 62
     4
 10
292.3130060559873
 20
105.2898345773488
 30
0.0
 11
293.6141453331969
 21
104.5386215483941
 31
0.0
  0
LINE
  5
53E
  8
0
  6
CONTINUOUS
 62
     4
 10
292.3129768396
 20
107.5749353335627
 30
0.0
 11
294.848135956481
 21
109.0386099704229
 31
0.0
  0
LINE
  5
53F
  8
0
  6
CONTINUOUS
 62
     4
 10
292.3129769170485
 20
106.4202700836009
 30
0.0
 11
296.8481340092125
 21
109.038643962296
 31
0.0
  0
LINE
  5
540
  8
0
  6
CONTINUOUS
 62
     4
 10
292.3129899513274
 20
105.2655242176084
 30
0.0
 11
298.3129875163256
 21
108.7296240441767
 31
0.0
  0
LINE
  5
541
  8
0
  6
CONTINUOUS
 62
     4
 10
293.0539137104915
 20
104.5386402171388
 30
0.0
 11
298.3129846307928
 21
107.5749658932029
 31
0.0
  0
LINE
  5
542
  8
0
  6
CONTINUOUS
 62
     4
 10
295.0539087695262
 20
104.5386284322707
 30
0.0
 11
298.3129843729302
 21
106.4202564013194
 31
0.0
  0
LINE
  5
543
  8
0
  6
CONTINUOUS
 62
     4
 10
297.0539283992711
 20
104.5386308333072
 30
0.0
 11
298.3129993685231
 21
105.2655557160217
 31
0.0
  0
LINE
  5
544
  8
0
  6
CONTINUOUS
 62
     4
 10
292.3129944431332
 20
82.30324707885875
 30
0.0
 11
295.3187769178919
 21
84.03863620805699
 31
0.0
  0
LINE
  5
545
  8
0
  6
CONTINUOUS
 62
     4
 10
292.3129984129207
 20
81.14853121814399
 30
0.0
 11
297.3187747592408
 21
84.03861721989266
 31
0.0
  0
LINE
  5
546
  8
0
  6
CONTINUOUS
 62
     4
 10
292.3129947533141
 20
79.99382857192886
 30
0.0
 11
298.3129970156539
 21
83.4579311105084
 31
0.0
  0
LINE
  5
547
  8
0
  6
CONTINUOUS
 62
     4
 10
293.5245339005314
 20
79.5386192237538
 30
0.0
 11
298.3129870636316
 21
82.3032336410317
 31
0.0
  0
LINE
  5
548
  8
0
  6
CONTINUOUS
 62
     4
 10
295.5245386639642
 20
79.53861304172197
 30
0.0
 11
298.3129855669097
 21
81.14852343389249
 31
0.0
  0
LINE
  5
549
  8
0
  6
CONTINUOUS
 62
     4
 10
297.5245437422311
 20
79.53861585112561
 30
0.0
 11
298.3129934699902
 21
79.99382746339718
 31
0.0
  0
LINE
  5
54A
  8
0
  6
CONTINUOUS
 62
     4
 10
295.9537588278164
 20
84.03859592813187
 30
0.0
 11
298.3130029122642
 21
82.67648587138051
 31
0.0
  0
LINE
  5
54B
  8
0
  6
CONTINUOUS
 62
     4
 10
293.9537545754558
 20
84.03859826069838
 30
0.0
 11
298.312999964621
 21
81.52178703986242
 31
0.0
  0
LINE
  5
54C
  8
0
  6
CONTINUOUS
 62
     4
 10
292.313002502628
 20
83.83117746395423
 30
0.0
 11
298.3129932022807
 21
80.36708160109451
 31
0.0
  0
LINE
  5
54D
  8
0
  6
CONTINUOUS
 62
     4
 10
292.3130035066218
 20
82.67651599445439
 30
0.0
 11
297.7479884527832
 21
79.53862631942666
 31
0.0
  0
LINE
  5
54E
  8
0
  6
CONTINUOUS
 62
     4
 10
292.3130079144927
 20
81.52176886789907
 30
0.0
 11
295.7479849486869
 21
79.53858417165297
 31
0.0
  0
LINE
  5
54F
  8
0
  6
CONTINUOUS
 62
     4
 10
292.3129964522511
 20
80.36707054745311
 30
0.0
 11
293.7479787889776
 21
79.53858320059457
 31
0.0
  0
LINE
  5
550
  8
0
  6
CONTINUOUS
 62
     4
 10
281.6801339714797
 20
-12.3464113829361
 30
0.0
 11
282.3130160023278
 21
-12.71180595344204
 31
0.0
  0
LINE
  5
551
  8
0
  6
CONTINUOUS
 62
     4
 10
274.3129952922884
 20
-12.84452633022211
 30
0.0
 11
275.1757567587249
 21
-12.34641082036133
 31
0.0
  0
LINE
  5
552
  8
0
  6
CONTINUOUS
 62
     4
 10
278.6801317817678
 20
-12.34642351700661
 30
0.0
 11
282.3130091624423
 21
-14.44386601894242
 31
0.0
  0
LINE
  5
553
  8
0
  6
CONTINUOUS
 62
     4
 10
275.6801201922534
 20
-12.34642141443324
 30
0.0
 11
282.3129995300041
 21
-16.17591566249594
 31
0.0
  0
LINE
  5
554
  8
0
  6
CONTINUOUS
 62
     4
 10
274.3130083151425
 20
-13.28916548655236
 30
0.0
 11
282.3130135340123
 21
-17.90797014289076
 31
0.0
  0
LINE
  5
555
  8
0
  6
CONTINUOUS
 62
     4
 10
274.3130118972039
 20
-15.02122275949996
 30
0.0
 11
280.072445845566
 21
-18.34643313259103
 31
0.0
  0
LINE
  5
556
  8
0
  6
CONTINUOUS
 62
     4
 10
274.3130050573184
 20
-16.75328282500034
 30
0.0
 11
277.0724304413545
 21
-18.34643763726747
 31
0.0
  0
LINE
  5
557
  8
0
  6
CONTINUOUS
 62
     4
 10
274.3130035284503
 20
-14.57658118474906
 30
0.0
 11
278.1757735592128
 21
-12.34641011406434
 31
0.0
  0
LINE
  5
558
  8
0
  6
CONTINUOUS
 62
     4
 10
274.313004203688
 20
-16.30863820216059
 30
0.0
 11
281.1757827987765
 21
-12.34641157065194
 31
0.0
  0
LINE
  5
559
  8
0
  6
CONTINUOUS
 62
     4
 10
274.3130067178043
 20
-18.04068314581282
 30
0.0
 11
282.3130119366741
 21
-13.42187848947442
 31
0.0
  0
LINE
  5
55A
  8
0
  6
CONTINUOUS
 62
     4
 10
276.7834693378193
 20
-18.34639863021899
 30
0.0
 11
282.3130106360934
 21
-15.15391682587683
 31
0.0
  0
LINE
  5
55B
  8
0
  6
CONTINUOUS
 62
     4
 10
279.7834502410353
 20
-18.34641204196983
 30
0.0
 11
282.3129961894831
 21
-16.88597816905754
 31
0.0
  0
LINE
  5
55C
  8
0
  6
CONTINUOUS
 62
     4
 10
262.8130124925076
 20
66.53857166838661
 30
0.0
 11
266.3130124925076
 21
66.53857166838661
 31
0.0
  0
LINE
  5
55D
  8
0
  6
CONTINUOUS
 62
     4
 10
262.8130124925076
 20
63.53857166838661
 30
0.0
 11
266.3130124925076
 21
63.53857166838661
 31
0.0
  0
LINE
  5
55E
  8
0
  6
CONTINUOUS
 62
     4
 10
270.3130124925076
 20
67.03857166838661
 30
0.0
 11
271.3130124925076
 21
67.03857166838661
 31
0.0
  0
LINE
  5
55F
  8
0
  6
CONTINUOUS
 62
     4
 10
270.3130124925076
 20
63.03857166838661
 30
0.0
 11
271.3130124925076
 21
63.03857166838661
 31
0.0
  0
LINE
  5
560
  8
0
  6
CONTINUOUS
 62
     4
 10
266.5630124925076
 20
66.53857166838661
 30
0.0
 11
270.3130124925076
 21
66.53857166838661
 31
0.0
  0
LINE
  5
561
  8
0
  6
CONTINUOUS
 62
     4
 10
266.5630124925076
 20
63.53857166838661
 30
0.0
 11
270.3130124925076
 21
63.53857166838661
 31
0.0
  0
INSERT
  5
562
  8
0
  6
CONTINUOUS
  2
DC_GROUP_1
 10
0.0
 20
0.0
 30
0.0
  0
INSERT
  5
563
  8
0
  6
CONTINUOUS
  2
DC_GROUP_2
 10
0.0
 20
0.0
 30
0.0
  0
INSERT
  5
564
  8
0
  6
CONTINUOUS
  2
DC_GROUP_3
 10
0.0
 20
0.0
 30
0.0
  0
INSERT
  5
565
  8
0
  6
CONTINUOUS
  2
DC_GROUP_4
 10
0.0
 20
0.0
 30
0.0
  0
INSERT
  5
566
  8
0
  6
CONTINUOUS
  2
DC_GROUP_5
 10
0.0
 20
0.0
 30
0.0
  0
INSERT
  5
567
  8
0
  6
CONTINUOUS
  2
DC_GROUP_6
 10
0.0
 20
0.0
 30
0.0
  0
INSERT
  5
568
  8
0
  6
CONTINUOUS
  2
DC_GROUP_9
 10
0.0
 20
0.0
 30
0.0
  0
INSERT
  5
569
  8
0
  6
CONTINUOUS
  2
DC_GROUP_12
 10
0.0
 20
0.0
 30
0.0
  0
INSERT
  5
56A
  8
0
  6
CONTINUOUS
  2
DC_GROUP_15
 10
0.0
 20
0.0
 30
0.0
  0
INSERT
  5
56B
  8
0
  6
CONTINUOUS
  2
DC_GROUP_18
 10
0.0
 20
0.0
 30
0.0
  0
INSERT
  5
56C
  8
0
  6
CONTINUOUS
  2
DC_GROUP_20
 10
0.0
 20
0.0
 30
0.0
  0
INSERT
  5
56D
  8
0
  6
CONTINUOUS
  2
DC_GROUP_23
 10
0.0
 20
0.0
 30
0.0
  0
INSERT
  5
56E
  8
0
  6
CONTINUOUS
  2
DC_GROUP_25
 10
0.0
 20
0.0
 30
0.0
  0
INSERT
  5
56F
  8
0
  6
CONTINUOUS
  2
DC_GROUP_28
 10
0.0
 20
0.0
 30
0.0
  0
LINE
  5
570
  8
0
  6
CONTINUOUS
 62
     6
 10
274.4127579299391
 20
-169.4838092945246
 30
0.0
 11
420.3815003005446
 21
-169.4838092945246
 31
0.0
  0
LINE
  5
571
  8
0
  6
CONTINUOUS
 62
     6
 10
274.4127579299391
 20
-176.5038135669855
 30
0.0
 11
420.3815003005446
 21
-176.5038135669855
 31
0.0
  0
LINE
  5
572
  8
0
  6
CONTINUOUS
 62
     6
 10
274.4127579299391
 20
-162.4638202808527
 30
0.0
 11
420.3815003005446
 21
-162.4638202808527
 31
0.0
  0
LINE
  5
573
  8
0
  6
CONTINUOUS
 62
     6
 10
274.4127579299391
 20
-155.4438160083918
 30
0.0
 11
420.3815003005446
 21
-155.4438160083918
 31
0.0
  0
LINE
  5
574
  8
0
  6
CONTINUOUS
 62
     6
 10
274.4127579299391
 20
-148.4238117359308
 30
0.0
 11
420.3815003005446
 21
-148.4238117359308
 31
0.0
  0
LINE
  5
575
  8
0
  6
CONTINUOUS
 62
     6
 10
274.4127579299391
 20
-113.3238132618097
 30
0.0
 11
296.0496597854078
 21
-113.3238132618097
 31
0.0
  0
LINE
  5
576
  8
0
  6
CONTINUOUS
 62
     6
 10
274.4127579299391
 20
-120.3438175342707
 30
0.0
 11
420.3815003005446
 21
-120.3438175342707
 31
0.0
  0
LINE
  5
577
  8
0
  6
CONTINUOUS
 62
     6
 10
274.4127579299391
 20
-127.3638141773371
 30
0.0
 11
420.3815003005446
 21
-127.3638141773371
 31
0.0
  0
LINE
  5
578
  8
0
  6
CONTINUOUS
 62
     6
 10
274.4127579299391
 20
-134.383803191009
 30
0.0
 11
420.3815003005446
 21
-134.383803191009
 31
0.0
  0
LINE
  5
579
  8
0
  6
CONTINUOUS
 62
     6
 10
274.4127579299391
 20
-141.4038074634699
 30
0.0
 11
420.3815003005446
 21
-141.4038074634699
 31
0.0
  0
TEXT
  5
57A
  8
0
 62
     6
 10
276.7995502320707
 20
-153.7538061760096
 30
0.0
 40
3.639999866485596
  1
最高使用回転速度               4500 min
 41
0.7086221866192416
  7
FDASTYLE1
 72
     5
 11
360.887490300729
 21
-153.7538061760096
 31
0.0
  0
TEXT
  5
57B
  8
0
 62
     6
 10
413.6688564685763
 20
-151.1638060830263
 30
0.0
 40
1.819999933242798
  1
-1
 41
0.6976114058651127
  7
FDASTYLE1
 72
     5
 11
416.2081618927841
 21
-151.1638060830263
 31
0.0
  0
TEXT
  5
57C
  8
0
 62
     6
 10
276.7480928269804
 20
-146.7338171623377
 30
0.0
 40
3.639999866485596
  1
最大静的把握力                 ２４．５ ｋN
 41
0.7168609315841042
  7
FDASTYLE1
 72
     5
 11
363.9011742484934
 21
-146.7338171623377
 31
0.0
  0
TEXT
  5
57D
  8
0
 62
     6
 10
276.8119115201414
 20
-139.7138128898768
 30
0.0
 40
3.639999866485596
  1
許容ｼﾘﾝダ力 
 41
0.7005465023337183
  7
FDASTYLE1
 72
     5
 11
299.2518162598042
 21
-139.7138128898768
 31
0.0
  0
TEXT
  5
57E
  8
0
 62
     6
 10
313.8825325905129
 20
-139.4018805283717
 30
0.0
 40
2.729999899864197
  1
３６TＳ-ＴA1型引側使用圧 2.3ＭＰａ
 41
0.6812923504150398
  7
FDASTYLE1
 72
     5
 11
357.7768345330196
 21
-139.4018805283717
 31
0.0
  0
TEXT
  5
57F
  8
0
 62
     6
 10
382.1892833081664
 20
-139.7138128898768
 30
0.0
 40
3.639999866485596
  1
 1２．５ ｋN
 41
0.7005465023337183
  7
FDASTYLE1
 72
     5
 11
404.6291880478292
 21
-139.7138128898768
 31
0.0
  0
TEXT
  5
580
  8
0
 62
     6
 10
276.7480928269804
 20
-132.6938086174158
 30
0.0
 40
3.639999866485596
  1
推奨ｼﾘﾝダ　              ３６TＳ-ＴA1 型
 41
0.7237864502234213
  7
FDASTYLE1
 72
     5
 11
363.162401522397
 21
-132.6938086174158
 31
0.0
  0
TEXT
  5
581
  8
0
 62
     6
 10
276.7480928269804
 20
-125.6738119743494
 30
0.0
 40
3.639999866485596
  1
ピｽﾄﾝｽﾄﾛ-ｸ                 20 mm
 41
0.7426393756949073
  7
FDASTYLE1
 72
     5
 11
361.0881583523243
 21
-125.6738119743494
 31
0.0
  0
TEXT
  5
582
  8
0
 62
     6
 10
276.7210867968977
 20
-118.6538077018885
 30
0.0
 40
3.639999866485596
  1
爪ノｽﾄﾛ-ｸ           
 41
0.7503026754553924
  7
FDASTYLE1
 72
     5
 11
326.9733569449557
 21
-118.6538077018885
 31
0.0
  0
TEXT
  5
583
  8
0
 62
     6
 10
360.1657869634807
 20
-118.1988077185778
 30
0.0
 40
2.729999899864197
  1
（直径ﾆﾃ）
 41
0.727163724738221
  7
FDASTYLE1
 72
     5
 11
373.6648538543782
 21
-118.1988077185778
 31
0.0
  0
TEXT
  5
584
  8
0
 62
     6
 10
381.2343293396414
 20
-118.6538077018885
 30
0.0
 40
3.639999866485596
  1
   12 mm
 41
0.6163867609777205
  7
FDASTYLE1
 72
     5
 11
399.1835111609406
 21
-118.6538077018885
 31
0.0
  0
TEXT
  5
585
  8
0
 62
     6
 10
276.7800272075117
 20
-111.6338186882166
 30
0.0
 40
3.639999866485596
  1
仕  様
 41
0.7329106579468347
  7
FDASTYLE1
 72
     5
 11
288.51832387463
 21
-111.6338186882166
 31
0.0
  0
TEXT
  5
586
  8
0
 62
     6
 10
276.7742336360395
 20
-160.7738104484705
 30
0.0
 40
3.639999866485596
  1
慣性モーメント              0.035 kg・m
 41
0.7172609819811083
  7
FDASTYLE1
 72
     5
 11
361.8872876799175
 21
-160.7738104484705
 31
0.0
  0
TEXT
  5
587
  8
0
 62
     6
 10
415.8359504906119
 20
-158.1838103554873
 30
0.0
 40
1.819999933242798
  1
2
 41
0.5882030220735002
  7
FDASTYLE1
 72
     5
 11
416.9064799515189
 21
-158.1838103554873
 31
0.0
  0
TEXT
  5
588
  8
0
 62
     6
 10
276.7480928269804
 20
-174.8138189933924
 30
0.0
 40
3.639999866485596
  1
ｱﾝバﾗﾝｽ量              
 41
0.740745634253834
  7
FDASTYLE1
 72
     5
 11
334.4492126363525
 21
-174.8138189933924
 31
0.0
  0
TEXT
  5
589
  8
0
 62
     6
 10
372.5426390288056
 20
-174.3588190100817
 30
0.0
 40
2.729999899864197
  1
外周ﾆﾃ
 41
0.7454882900051855
  7
FDASTYLE1
 72
     5
 11
381.4974440398876
 21
-174.3588190100817
 31
0.0
  0
TEXT
  5
58A
  8
0
 62
     6
 10
386.4140807954253
 20
-174.8138189933924
 30
0.0
 40
3.639999866485596
  1
  3g 以内
 41
0.7433712069907698
  7
FDASTYLE1
 72
     5
 11
406.437526892473
 21
-174.8138189933924
 31
0.0
  0
TEXT
  5
58B
  8
0
 62
     6
 10
276.7480928269804
 20
-167.7938147209314
 30
0.0
 40
3.639999866485596
  1
質 量                       10 kg
 41
0.7402536640055279
  7
FDASTYLE1
 72
     5
 11
361.3561225047521
 21
-167.7938147209314
 31
0.0
  0
LINE
  5
58C
  8
0
  6
CONTINUOUS
 62
     2
 10
517.031476157659
 20
7.320365728166493
 30
0.0
 11
515.8150226800133
 21
2.780518476714846
 31
0.0
  0
LINE
  5
58D
  8
0
  6
CONTINUOUS
 62
     2
 10
515.8150526701104
 20
2.780479795605956
 30
0.0
 11
519.138452326891
 21
-0.5429198611746102
 31
0.0
  0
LINE
  5
58E
  8
0
  6
CONTINUOUS
 62
     2
 10
519.1385005694742
 20
-0.5429371508066794
 30
0.0
 11
523.6783500620591
 21
0.6735077825187403
 31
0.0
  0
LINE
  5
58F
  8
0
  6
CONTINUOUS
 62
     2
 10
523.6784187364408
 20
0.6735032699470906
 30
0.0
 11
524.8948722140865
 21
5.213350521398738
 31
0.0
  0
LINE
  5
590
  8
0
  6
CONTINUOUS
 62
     2
 10
524.8947703429556
 20
5.213387365296953
 30
0.0
 11
521.571370686175
 21
8.536787022077519
 31
0.0
  0
LINE
  5
591
  8
0
  6
CONTINUOUS
 62
     2
 10
521.5713726502301
 20
8.536738743852297
 30
0.0
 11
517.031522597362
 21
7.32029619173089
 31
0.0
  0
LINE
  5
592
  8
0
  6
CONTINUOUS
 62
     2
 10
480.282021815319
 20
-1.211278716282791
 30
0.0
 11
480.282021815319
 21
-4.71127919311995
 31
0.0
  0
LINE
  5
593
  8
0
  6
CONTINUOUS
 62
     2
 10
483.3131404258656
 20
0.5386927964352566
 30
0.0
 11
480.2820507325578
 21
-1.211305743250946
 31
0.0
  0
LINE
  5
594
  8
0
  6
CONTINUOUS
 62
     2
 10
480.2820289128979
 20
-4.711287250076808
 30
0.0
 11
483.3131177717407
 21
-6.461287250076808
 31
0.0
  0
LINE
  5
595
  8
0
  6
CONTINUOUS
 62
     2
 10
483.3131442625797
 20
-6.461288395021725
 30
0.0
 11
486.3442333300388
 21
-4.711288812254239
 31
0.0
  0
LINE
  5
596
  8
0
  6
CONTINUOUS
 62
     2
 10
486.3441861219596
 20
-4.711270610051102
 30
0.0
 11
486.3441861219596
 21
-1.21127108688826
 31
0.0
  0
LINE
  5
597
  8
0
  6
CONTINUOUS
 62
     2
 10
486.3442075544556
 20
-1.211285838340032
 30
0.0
 11
483.3131186956127
 21
0.5387141616599678
 31
0.0
  0
LINE
  5
598
  8
0
  6
CONTINUOUS
 62
     2
 10
480.282021815319
 20
-26.2112820541429
 30
0.0
 11
480.282021815319
 21
-29.7112820541429
 31
0.0
  0
LINE
  5
599
  8
0
  6
CONTINUOUS
 62
     2
 10
483.31312830516
 20
-24.46127577386507
 30
0.0
 11
480.2820452191033
 21
-26.21127049885719
 31
0.0
  0
LINE
  5
59A
  8
0
  6
CONTINUOUS
 62
     2
 10
480.2820288830956
 20
-29.71128662863727
 30
0.0
 11
483.3131177419384
 21
-31.46128662863727
 31
0.0
  0
LINE
  5
59B
  8
0
  6
CONTINUOUS
 62
     2
 10
483.3130926713327
 20
-31.46128021842698
 30
0.0
 11
486.3441817387918
 21
-29.71128063565949
 31
0.0
  0
LINE
  5
59C
  8
0
  6
CONTINUOUS
 62
     2
 10
486.3441861219596
 20
-29.7112706100511
 30
0.0
 11
486.3441861219596
 21
-26.2112706100511
 31
0.0
  0
LINE
  5
59D
  8
0
  6
CONTINUOUS
 62
     2
 10
486.3442075246532
 20
-26.21128521690049
 30
0.0
 11
483.3131186658104
 21
-24.46128521690049
 31
0.0
  0
LINE
  5
59E
  8
0
  6
CONTINUOUS
 62
     2
 10
483.3131143494904
 20
88.53870536354087
 30
0.0
 11
480.2820246561825
 21
86.78870671954654
 31
0.0
  0
LINE
  5
59F
  8
0
  6
CONTINUOUS
 62
     2
 10
486.3442176592427
 20
86.78869519149338
 30
0.0
 11
483.3131329384887
 21
88.53869474445695
 31
0.0
  0
LINE
  5
5A0
  8
0
  6
CONTINUOUS
 62
     2
 10
480.2820523328971
 20
86.78871413115984
 30
0.0
 11
480.2820523328971
 21
83.28871413115984
 31
0.0
  0
LINE
  5
5A1
  8
0
  6
CONTINUOUS
 62
     2
 10
480.2820301361646
 20
83.28871660064759
 30
0.0
 11
483.3131154827667
 21
81.53871809076416
 31
0.0
  0
LINE
  5
5A2
  8
0
  6
CONTINUOUS
 62
     2
 10
483.3131370353455
 20
81.5387145459931
 30
0.0
 11
486.3442261028046
 21
83.28871423306872
 31
0.0
  0
LINE
  5
5A3
  8
0
  6
CONTINUOUS
 62
     2
 10
486.3442166395378
 20
83.28871413115984
 30
0.0
 11
486.3442166395378
 21
86.78871413115984
 31
0.0
  0
LINE
  5
5A4
  8
0
  6
CONTINUOUS
 62
     2
 10
483.3131237806827
 20
113.5387083647631
 30
0.0
 11
480.2820340873749
 21
111.7887097207688
 31
0.0
  0
LINE
  5
5A5
  8
0
  6
CONTINUOUS
 62
     2
 10
486.3442241175319
 20
111.7887154674427
 30
0.0
 11
483.3131360931541
 21
113.5387169277565
 31
0.0
  0
LINE
  5
5A6
  8
0
  6
CONTINUOUS
 62
     2
 10
480.2820523328971
 20
111.7887141311598
 30
0.0
 11
480.2820523328971
 21
108.2887141311598
 31
0.0
  0
LINE
  5
5A7
  8
0
  6
CONTINUOUS
 62
     2
 10
480.2820406103044
 20
108.2887208787456
 30
0.0
 11
483.3131226532821
 21
106.5387242762113
 31
0.0
  0
LINE
  5
5A8
  8
0
  6
CONTINUOUS
 62
     2
 10
483.3131264718192
 20
106.5387064680517
 30
0.0
 11
486.3442155392783
 21
108.2887061551273
 31
0.0
  0
LINE
  5
5A9
  8
0
  6
CONTINUOUS
 62
     2
 10
486.3442166395378
 20
108.2887141311598
 30
0.0
 11
486.3442166395378
 21
111.7887141311598
 31
0.0
  0
LINE
  5
5AA
  8
0
  6
CONTINUOUS
 62
     2
 10
441.7314863754791
 20
5.213353420061125
 30
0.0
 11
442.9479313088045
 21
0.6735039274762897
 31
0.0
  0
LINE
  5
5AB
  8
0
  6
CONTINUOUS
 62
     2
 10
450.811157634481
 20
2.780480025189704
 30
0.0
 11
449.5947150823596
 21
7.320330078057836
 31
0.0
  0
LINE
  5
5AC
  8
0
  6
CONTINUOUS
 62
     2
 10
445.0549000827593
 20
8.536792416874036
 30
0.0
 11
441.7314977285805
 21
5.213390062695211
 31
0.0
  0
LINE
  5
5AD
  8
0
  6
CONTINUOUS
 62
     2
 10
442.9479224885856
 20
0.6734315841530218
 30
0.0
 11
447.4877697400373
 21
-0.5430218934926785
 31
0.0
  0
LINE
  5
5AE
  8
0
  6
CONTINUOUS
 62
     2
 10
447.4878049550521
 20
-0.5429279533693858
 30
0.0
 11
450.8112073092309
 21
2.780474400809439
 31
0.0
  0
LINE
  5
5AF
  8
0
  6
CONTINUOUS
 62
     2
 10
449.594784699975
 20
7.320373241756428
 30
0.0
 11
445.0549374485233
 21
8.536826719402129
 31
0.0
  0
LINE
  5
5B0
  8
0
  6
CONTINUOUS
 62
     2
 10
445.0548975671161
 20
73.54069270492526
 30
0.0
 11
449.5947476199842
 21
74.75713525704667
 31
0.0
  0
LINE
  5
5B1
  8
0
  6
CONTINUOUS
 62
     2
 10
450.8112127040274
 20
79.29694500422509
 30
0.0
 11
447.487809675499
 21
82.62034803275348
 31
0.0
  0
LINE
  5
5B2
  8
0
  6
CONTINUOUS
 62
     2
 10
449.5947922135649
 20
74.75706469944042
 30
0.0
 11
450.8112456912106
 21
79.29691195089207
 31
0.0
  0
LINE
  5
5B3
  8
0
  6
CONTINUOUS
 62
     2
 10
441.7314916594344
 20
76.86404080628192
 30
0.0
 11
445.0548946879628
 21
73.54063777775353
 31
0.0
  0
LINE
  5
5B4
  8
0
  6
CONTINUOUS
 62
     2
 10
442.9478533194967
 20
81.40392617033966
 30
0.0
 11
441.731399841851
 21
76.86407891888801
 31
0.0
  0
LINE
  5
5B5
  8
0
  6
CONTINUOUS
 62
     2
 10
447.487769576916
 20
82.62036563942978
 30
0.0
 11
442.9479200843311
 21
81.40392070610436
 31
0.0
  0
LINE
  5
5B6
  8
0
  6
CONTINUOUS
 62
     2
 10
524.894791140342
 20
76.86407704318843
 30
0.0
 11
523.6783462070166
 21
81.40392653577327
 31
0.0
  0
LINE
  5
5B7
  8
0
  6
CONTINUOUS
 62
     2
 10
515.8151120892096
 20
79.29695326594582
 30
0.0
 11
517.0315551349866
 21
74.75710137071972
 31
0.0
  0
LINE
  5
5B8
  8
0
  6
CONTINUOUS
 62
     2
 10
521.5713679887767
 20
73.54063508035527
 30
0.0
 11
524.8947676455573
 21
76.86403473713584
 31
0.0
  0
LINE
  5
5B9
  8
0
  6
CONTINUOUS
 62
     2
 10
523.6783414574345
 20
81.40399706723882
 30
0.0
 11
519.1385015754102
 21
82.62044857024419
 31
0.0
  0
LINE
  5
5BA
  8
0
  6
CONTINUOUS
 62
     2
 10
519.1384658138823
 20
82.62035814799695
 30
0.0
 11
515.8150553675087
 21
79.29694770162335
 31
0.0
  0
LINE
  5
5BB
  8
0
  6
CONTINUOUS
 62
     2
 10
517.0314883432827
 20
74.75705988324397
 30
0.0
 11
521.5713282253071
 21
73.5406083802386
 31
0.0
  0
CIRCLE
  5
5BC
  8
0
  6
CONTINUOUS
 62
     2
 10
520.354905421276
 20
3.996940096659714
 30
0.0
 40
8.0
  0
CIRCLE
  5
5BD
  8
0
  6
CONTINUOUS
 62
     2
 10
483.3131192274284
 20
-2.961278239445633
 30
0.0
 40
6.5
  0
CIRCLE
  5
5BE
  8
0
  6
CONTINUOUS
 62
     2
 10
483.3131192274284
 20
-27.96127823944563
 30
0.0
 40
6.5
  0
CIRCLE
  5
5BF
  8
0
  6
CONTINUOUS
 62
     2
 10
483.3131344862174
 20
85.03871413115984
 30
0.0
 40
6.5
  0
CIRCLE
  5
5C0
  8
0
  6
CONTINUOUS
 62
     2
 10
483.3131344862174
 20
110.0387141311598
 30
0.0
 40
6.5
  0
CIRCLE
  5
5C1
  8
0
  6
CONTINUOUS
 62
     2
 10
446.2713635511589
 20
3.996940096659714
 30
0.0
 40
8.0
  0
CIRCLE
  5
5C2
  8
0
  6
CONTINUOUS
 62
     2
 10
446.2713635511589
 20
78.08048506621843
 30
0.0
 40
8.0
  0
CIRCLE
  5
5C3
  8
0
  6
CONTINUOUS
 62
     2
 10
520.354905421276
 20
78.08048506621843
 30
0.0
 40
8.0
  0
TEXT
  5
5C4
  8
0
 62
     5
 10
415.8133595533561
 20
69.82404406909471
 30
0.0
 40
5.0
  1
NIKKO
 50
-90.00000000000001
 41
0.635880610320819
  7
FDASTYLE1
 72
     5
 11
415.8133595533561
 21
53.92702881107424
 31
0.0
  0
TEXT
  5
5C5
  8
0
 62
     5
 10
416.3133595533561
 20
38.46691628341203
 30
0.0
 40
4.0
  1
MO2-6
 50
-90.00000000000001
 41
0.7674421177096604
  7
FDASTYLE1
 72
     5
 11
416.3133595533561
 21
23.11807392921882
 31
0.0
  0
TEXT
  5
5C6
  8
0
 62
     5
 10
409.8133595533561
 20
38.109773119731
 30
0.0
 40
3.0
  1
0001
 50
-90.00000000000001
 41
0.6190477764350817
  7
FDASTYLE1
 72
     5
 11
409.8133595533561
 21
30.68119980251002
 31
0.0
  0
TEXT
  5
5C7
  8
0
 62
     5
 10
547.5631268568229
 20
18.10836066846376
 30
0.0
 40
2.5
  1
F MAX   12KN
 50
90.0
 41
0.7578772143703342
  7
FDASTYLE1
 72
     5
 11
547.5631268568229
 21
40.84467709957379
 31
0.0
  0
TEXT
  5
5C8
  8
0
 62
     5
 10
551.5631115980339
 20
18.10836352948671
 30
0.0
 40
2.5
  1
ΣS MAX  24KN
 50
90.0
 41
0.6460330630949721
  7
FDASTYLE1
 72
     5
 11
551.5631115980339
 21
37.81237195388336
 31
0.0
  0
TEXT
  5
5C9
  8
0
 62
     5
 10
555.5631268568229
 20
18.10835876111513
 30
0.0
 40
2.5
  1
N MAX 4500 AT ΣS MAX
 50
90.0
 41
0.6445640188692571
  7
FDASTYLE1
 72
     5
 11
555.5631268568229
 21
50.65884171401261
 31
0.0
  0
INSERT
  5
5CA
  8
LAYER0001
  6
CONTINUOUS
  2
DC_GROUP_30
 10
0.0
 20
0.0
 30
0.0
  0
INSERT
  5
5CB
  8
LAYER0001
  6
CONTINUOUS
  2
DC_GROUP_33
 10
0.0
 20
0.0
 30
0.0
  0
INSERT
  5
5CC
  8
LAYER0001
  6
CONTINUOUS
  2
DC_GROUP_36
 10
0.0
 20
0.0
 30
0.0
  0
INSERT
  5
5CD
  8
LAYER0001
  6
CONTINUOUS
  2
DC_GROUP_38
 10
0.0
 20
0.0
 30
0.0
  0
INSERT
  5
5CE
  8
LAYER0001
  6
CONTINUOUS
  2
DC_GROUP_41
 10
0.0
 20
0.0
 30
0.0
  0
INSERT
  5
5CF
  8
LAYER0001
  6
CONTINUOUS
  2
DC_GROUP_44
 10
0.0
 20
0.0
 30
0.0
  0
INSERT
  5
5D0
  8
LAYER0001
  6
CONTINUOUS
  2
DC_GROUP_47
 10
0.0
 20
0.0
 30
0.0
  0
INSERT
  5
5D1
  8
LAYER0001
  6
CONTINUOUS
  2
DC_GROUP_49
 10
0.0
 20
0.0
 30
0.0
  0
INSERT
  5
5D2
  8
LAYER0001
  6
CONTINUOUS
  2
DC_GROUP_52
 10
0.0
 20
0.0
 30
0.0
  0
INSERT
  5
5D3
  8
LAYER0001
  6
CONTINUOUS
  2
DC_GROUP_55
 10
0.0
 20
0.0
 30
0.0
  0
INSERT
  5
5D4
  8
LAYER0001
  6
CONTINUOUS
  2
DC_GROUP_58
 10
0.0
 20
0.0
 30
0.0
  0
INSERT
  5
5D5
  8
LAYER0001
  6
CONTINUOUS
  2
DC_GROUP_61
 10
0.0
 20
0.0
 30
0.0
  0
INSERT
  5
5D6
  8
LAYER0001
  6
CONTINUOUS
  2
DC_GROUP_63
 10
0.0
 20
0.0
 30
0.0
  0
INSERT
  5
5D7
  8
LAYER0001
  6
CONTINUOUS
  2
DC_GROUP_65
 10
0.0
 20
0.0
 30
0.0
  0
INSERT
  5
5D8
  8
LAYER0001
  6
CONTINUOUS
  2
DC_GROUP_68
 10
0.0
 20
0.0
 30
0.0
  0
INSERT
  5
5D9
  8
LAYER0001
  6
CONTINUOUS
  2
DC_GROUP_71
 10
0.0
 20
0.0
 30
0.0
  0
INSERT
  5
5DA
  8
LAYER0001
  6
CONTINUOUS
  2
DC_GROUP_74
 10
0.0
 20
0.0
 30
0.0
  0
INSERT
  5
5DB
  8
LAYER0001
  6
CONTINUOUS
  2
DC_GROUP_77
 10
0.0
 20
0.0
 30
0.0
  0
INSERT
  5
5DC
  8
LAYER0001
  6
CONTINUOUS
  2
DC_GROUP_80
 10
0.0
 20
0.0
 30
0.0
  0
INSERT
  5
5DD
  8
LAYER0001
  6
CONTINUOUS
  2
DC_GROUP_83
 10
0.0
 20
0.0
 30
0.0
  0
INSERT
  5
5DE
  8
LAYER0001
  6
CONTINUOUS
  2
DC_GROUP_86
 10
0.0
 20
0.0
 30
0.0
  0
INSERT
  5
5DF
  8
LAYER0001
  6
CONTINUOUS
  2
DC_GROUP_89
 10
0.0
 20
0.0
 30
0.0
  0
INSERT
  5
5E0
  8
LAYER0001
  6
CONTINUOUS
  2
DC_GROUP_91
 10
0.0
 20
0.0
 30
0.0
  0
INSERT
  5
5E1
  8
LAYER0001
  6
CONTINUOUS
  2
DC_GROUP_93
 10
0.0
 20
0.0
 30
0.0
  0
INSERT
  5
5E2
  8
LAYER0001
  6
CONTINUOUS
  2
DC_GROUP_96
 10
0.0
 20
0.0
 30
0.0
  0
INSERT
  5
5E3
  8
LAYER0001
  6
CONTINUOUS
  2
DC_GROUP_99
 10
0.0
 20
0.0
 30
0.0
  0
INSERT
  5
5E4
  8
LAYER0001
  6
CONTINUOUS
  2
DC_GROUP_102
 10
0.0
 20
0.0
 30
0.0
  0
INSERT
  5
5E5
  8
LAYER0001
  6
CONTINUOUS
  2
DC_GROUP_105
 10
0.0
 20
0.0
 30
0.0
  0
INSERT
  5
5E6
  8
LAYER0001
  6
CONTINUOUS
  2
DC_GROUP_108
 10
0.0
 20
0.0
 30
0.0
  0
INSERT
  5
5E7
  8
LAYER0001
  6
CONTINUOUS
  2
DC_GROUP_110
 10
0.0
 20
0.0
 30
0.0
  0
INSERT
  5
5E8
  8
LAYER0001
  6
CONTINUOUS
  2
DC_GROUP_111
 10
0.0
 20
0.0
 30
0.0
  0
INSERT
  5
5E9
  8
LAYER0001
  6
CONTINUOUS
  2
DC_GROUP_112
 10
0.0
 20
0.0
 30
0.0
  0
TEXT
  5
5EA
  8
0
 62
     7
 10
613.5985023235305
 20
-142.6341284175602
 30
0.0
 40
3.0
  1
標　準
 41
0.6666666666666604
  7
FDASTYLE1
 72
     5
 11
620.7985023235304
 21
-142.6341284175602
 31
0.0
  0
TEXT
  5
5EB
  8
0
 62
     7
 10
306.2937412634776
 20
76.16164924013549
 30
0.0
 40
3.2
  1
ＭＩＮ
 50
90.0
 41
0.6506850996024314
  7
FDASTYLE1
 72
     5
 11
306.2937412634776
 21
83.6575415875555
 31
0.0
  0
LINE
  5
5EC
  8
0
  6
DIVIDE
 62
     9
 10
220.3129972337185
 20
71.03858692717567
 30
0.0
 11
220.3129972337185
 21
46.02477390837684
 31
0.0
  0
LINE
  5
5ED
  8
0
  6
DIVIDE
 62
     9
 10
280.3130124925076
 20
71.03858692717567
 30
0.0
 11
280.3130124925076
 21
46.02477390837684
 31
0.0
  0
LINE
  5
5EE
  8
0
  6
DIVIDE
 62
     9
 10
220.3130301389985
 20
71.0385975872794
 30
0.0
 11
220.8130306697933
 21
71.53859811807415
 31
0.0
  0
LINE
  5
5EF
  8
0
  6
DIVIDE
 62
     9
 10
279.8130214853452
 20
71.53858024781069
 30
0.0
 11
280.3130220161399
 21
71.03857971701594
 31
0.0
  0
LINE
  5
5F0
  8
0
  6
DIVIDE
 62
     9
 10
275.7318815110623
 20
71.53857166838661
 30
0.0
 11
279.8130124925076
 21
71.53857166838661
 31
0.0
  0
LINE
  5
5F1
  8
LAYER0001
  6
CONTINUOUS
 62
     7
 10
219.0129941819607
 20
136.4073384530546
 30
0.0
 11
190.4573519414559
 21
136.4073384530546
 31
0.0
  0
LINE
  5
5F2
  8
LAYER0001
  6
CONTINUOUS
 62
     7
 10
231.3130124925076
 20
73.57858692717568
 30
0.0
 11
231.3130124925076
 21
137.4073384530546
 31
0.0
  0
LINE
  5
5F3
  8
LAYER0001
  6
CONTINUOUS
 62
     7
 10
219.0129941819607
 20
113.5785792977812
 30
0.0
 11
219.0129941819607
 21
137.4073384530546
 31
0.0
  0
LINE
  5
5F4
  8
LAYER0001
  6
CONTINUOUS
 62
     7
 10
283.3130124925076
 20
136.4073384530546
 30
0.0
 11
275.8192380784451
 21
136.4073384530546
 31
0.0
  0
LINE
  5
5F5
  8
LAYER0001
  6
CONTINUOUS
 62
     7
 10
284.3130124925076
 20
27.76658756804481
 30
0.0
 11
297.6636556504665
 21
27.76658756804481
 31
0.0
  0
LINE
  5
5F6
  8
LAYER0001
  6
CONTINUOUS
 62
     7
 10
231.3130124925076
 20
136.4073384530546
 30
0.0
 11
219.0129941819607
 21
136.4073384530546
 31
0.0
  0
INSERT
  5
5F7
  8
LAYER0001
  6
CONTINUOUS
  2
DC_GROUP_113
 10
0.0
 20
0.0
 30
0.0
  0
INSERT
  5
5F8
  8
LAYER0001
  6
CONTINUOUS
  2
DC_GROUP_114
 10
0.0
 20
0.0
 30
0.0
  0
TEXT
  5
5F9
  8
LAYER0001
 62
     7
 10
192.9928190110623
 20
137.1699912170876
 30
0.0
 40
4.0
  1
MAX21.3
 41
0.6802721088435371
  7
FDASTYLE1
 72
     5
 11
212.0404380586813
 21
137.1699912170876
 31
0.0
  0
TEXT
  5
5FA
  8
LAYER0001
 62
     7
 10
192.9928190110623
 20
131.2425215410123
 30
0.0
 40
4.0
  1
ＭＩＮ 1.3
 41
0.6011080332409972
  7
FDASTYLE1
 72
     5
 11
211.2665032215886
 21
131.2425215410123
 31
0.0
  0
VIEWPORT
  5
48
 67
     1
  8
0
 10
356.5723937454768
 20
0.0
 30
0.0
 40
1662.0
 41
1140.0
 68
     1
 69
     1
1001
ACAD
1000
MVIEW
1002
{
1070
    16
1010
0.0
1020
0.0
1030
0.0
1020
0.0
1030
0.0
1010
0.0
1020
0.0
1030
1.0
1020
0.0
1030
1.0
1040
0.0
1040
1140.0
1040
356.5723937454768
1040
0.0
1040
50.0
1040
0.0
1040
0.0
1070
     0
1070
   100
1070
     0
1070
     1
1070
     0
1070
     0
1070
     0
1070
     0
1040
0.0
1040
0.0
1040
0.0
1040
0.5
1040
0.5
1040
0.0
1040
0.0
1070
     0
1002
{
1002
}
1002
}
  0
ENDSEC
  0
EOF
