  0
SECTION
  2
HEADER
  9
$ACADVER
  1
AC1009
  9
$DWGCODEPAGE
  3
ansi_932
  9
$INSBASE
 10
0.0
 20
0.0
 30
0.0
  9
$EXTMIN
 10
-831.0
 20
-569.9999999999999
 30
0.0
  9
$EXTMAX
 10
831.0
 20
569.9999999999999
 30
0.0
  9
$LIMMIN
 10
-297.0
 20
-210.0
  9
$LIMMAX
 10
297.0
 20
210.0
  9
$ORTHOMODE
 70
     0
  9
$REGENMODE
 70
     1
  9
$FILLMODE
 70
     1
  9
$QTEXTMODE
 70
     0
  9
$MIRRTEXT
 70
     1
  9
$DRAGMODE
 70
     2
  9
$LTSCALE
 40
0.25
  9
$OSMODE
 70
    37
  9
$ATTMODE
 70
     1
  9
$TEXTSIZE
 40
0.2
  9
$TRACEWID
 40
0.05
  9
$TEXTSTYLE
  7
STANDARD
  9
$CLAYER
  8
0
  9
$CELTYPE
  6
BYLAYER
  9
$CECOLOR
 62
   256
  9
$DIMSCALE
 40
1.0
  9
$DIMASZ
 40
2.499996185302734
  9
$DIMEXO
 40
1.0
  9
$DIMDLI
 40
10.0
  9
$DIMRND
 40
0.0
  9
$DIMDLE
 40
0.0
  9
$DIMEXE
 40
1.0
  9
$DIMTP
 40
0.0
  9
$DIMTM
 40
0.0
  9
$DIMTXT
 40
4.0
  9
$DIMCEN
 40
0.0
  9
$DIMTSZ
 40
0.0
  9
$DIMTOL
 70
     0
  9
$DIMLIM
 70
     0
  9
$DIMTIH
 70
     0
  9
$DIMTOH
 70
     0
  9
$DIMSE1
 70
     0
  9
$DIMSE2
 70
     0
  9
$DIMTAD
 70
     1
  9
$DIMZIN
 70
     8
  9
$DIMBLK
  1

  9
$DIMASO
 70
     1
  9
$DIMSHO
 70
     1
  9
$DIMPOST
  1

  9
$DIMAPOST
  1

  9
$DIMALT
 70
     0
  9
$DIMALTD
 70
     2
  9
$DIMALTF
 40
0.0393700787401575
  9
$DIMLFAC
 40
1.0
  9
$DIMTOFL
 70
     0
  9
$DIMTVP
 40
0.0
  9
$DIMTIX
 70
     0
  9
$DIMSOXD
 70
     0
  9
$DIMSAH
 70
     0
  9
$DIMBLK1
  1

  9
$DIMBLK2
  1

  9
$DIMSTYLE
  2
STANDARD
  9
$DIMCLRD
 70
     0
  9
$DIMCLRE
 70
     0
  9
$DIMCLRT
 70
     0
  9
$DIMTFAC
 40
0.65
  9
$DIMGAP
 40
0.09
  9
$LUNITS
 70
     2
  9
$LUPREC
 70
     4
  9
$SKETCHINC
 40
0.1
  9
$FILLETRAD
 40
0.5
  9
$AUNITS
 70
     0
  9
$AUPREC
 70
     0
  9
$MENU
  1
.
  9
$ELEVATION
 40
0.0
  9
$PELEVATION
 40
0.0
  9
$THICKNESS
 40
0.0
  9
$LIMCHECK
 70
     0
  9
$CHAMFERA
 40
0.0
  9
$CHAMFERB
 40
0.0
  9
$SKPOLY
 70
     0
  9
$TDCREATE
 40
2459766.386334248
  9
$TDUPDATE
 40
2459766.386334606
  9
$TDINDWG
 40
0.0000000116
  9
$TDUSRTIMER
 40
0.0000000116
  9
$USRTIMER
 70
     1
  9
$ANGBASE
 50
0.0
  9
$ANGDIR
 70
     0
  9
$PDMODE
 70
     0
  9
$PDSIZE
 40
1.0
  9
$PLINEWID
 40
0.0
  9
$COORDS
 70
     1
  9
$SPLFRAME
 70
     0
  9
$SPLINETYPE
 70
     6
  9
$SPLINESEGS
 70
     8
  9
$ATTDIA
 70
     0
  9
$ATTREQ
 70
     1
  9
$HANDLING
 70
     1
  9
$HANDSEED
  5
48F
  9
$SURFTAB1
 70
     6
  9
$SURFTAB2
 70
     6
  9
$SURFTYPE
 70
     6
  9
$SURFU
 70
     6
  9
$SURFV
 70
     6
  9
$UCSNAME
  2

  9
$UCSORG
 10
0.0
 20
0.0
 30
0.0
  9
$UCSXDIR
 10
1.0
 20
0.0
 30
0.0
  9
$UCSYDIR
 10
0.0
 20
1.0
 30
0.0
  9
$PUCSNAME
  2

  9
$PUCSORG
 10
0.0
 20
0.0
 30
0.0
  9
$PUCSXDIR
 10
1.0
 20
0.0
 30
0.0
  9
$PUCSYDIR
 10
0.0
 20
1.0
 30
0.0
  9
$USERI1
 70
     0
  9
$USERI2
 70
     0
  9
$USERI3
 70
     0
  9
$USERI4
 70
     0
  9
$USERI5
 70
     0
  9
$USERR1
 40
0.0
  9
$USERR2
 40
0.0
  9
$USERR3
 40
0.0
  9
$USERR4
 40
0.0
  9
$USERR5
 40
0.0
  9
$WORLDVIEW
 70
     1
  9
$SHADEDGE
 70
     3
  9
$SHADEDIF
 70
    70
  9
$TILEMODE
 70
     1
  9
$MAXACTVP
 70
    64
  9
$PLIMCHECK
 70
     0
  9
$PEXTMIN
 10
1.000000000000000E+20
 20
1.000000000000000E+20
 30
1.000000000000000E+20
  9
$PEXTMAX
 10
-1.000000000000000E+20
 20
-1.000000000000000E+20
 30
-1.000000000000000E+20
  9
$PLIMMIN
 10
0.0
 20
0.0
  9
$PLIMMAX
 10
12.0
 20
9.0
  9
$UNITMODE
 70
     0
  9
$VISRETAIN
 70
     0
  9
$PLINEGEN
 70
     1
  9
$PSLTSCALE
 70
     0
  0
ENDSEC
  0
SECTION
  2
TABLES
  0
TABLE
  2
VPORT
 70
     1
  0
VPORT
  2
*ACTIVE
 70
     0
 10
0.0
 20
0.0
 11
1.0
 21
1.0
 12
0.0
 22
0.0
 13
0.0
 23
0.0
 14
0.5
 24
0.5
 15
0.5
 25
0.5
 16
0.0
 26
0.0
 36
1.0
 17
-0.0000000000000036
 27
0.0
 37
0.0
 40
387.6
 41
1.457894736842106
 42
50.0
 43
0.0
 44
0.0
 50
0.0
 51
0.0
 71
     0
 72
  1000
 73
     1
 74
     1
 75
     0
 76
     0
 77
     0
 78
     0
  0
ENDTAB
  0
TABLE
  2
LTYPE
 70
    67
  0
LTYPE
  2
CONTINUOUS
 70
     0
  3
Solid line
 72
    65
 73
     0
 40
0.0
  0
LTYPE
  2
HIDDENX2
 70
     0
  3
Hidden (2x) ____ ____ ____ ____ ____ ____ ____ 
 72
    65
 73
     2
 40
19.05
 49
12.7
 49
-6.35
  0
LTYPE
  2
HIDDEN
 70
     0
  3
Hidden __ __ __ __ __ __ __ __ __ __ __ __ __ __
 72
    65
 73
     2
 40
9.524999999999999
 49
6.35
 49
-3.175
  0
LTYPE
  2
HIDDEN2
 70
     0
  3
Hidden (.5x) _ _ _ _ _ _ _ _ _ _ _ _ _ _ _ _ _ 
 72
    65
 73
     2
 40
4.762499999999999
 49
3.175
 49
-1.5875
  0
LTYPE
  2
DASHED
 70
     0
  3
Dashed __ __ __ __ __ __ __ __ __ __ __ __ __ _
 72
    65
 73
     2
 40
19.05
 49
12.7
 49
-6.35
  0
LTYPE
  2
DASHED2
 70
     0
  3
Dashed (.5x) _ _ _ _ _ _ _ _ _ _ _ _ _ _ _ _ _ 
 72
    65
 73
     2
 40
9.524999999999999
 49
6.35
 49
-3.175
  0
LTYPE
  2
DASHEDX2
 70
     0
  3
Dashed (2x) ____  ____  ____  ____  ____  ___
 72
    65
 73
     2
 40
38.09999999999999
 49
25.4
 49
-12.7
  0
LTYPE
  2
DOTX2
 70
     0
  3
Dot (2x) .  .  .  .  .  .  .  .  .  .  .  .  .  .
 72
    65
 73
     2
 40
12.7
 49
0.0
 49
-12.7
  0
LTYPE
  2
DOT
 70
     0
  3
Dot . . . . . . . . . . . . . . . . . . . . . . . .
 72
    65
 73
     2
 40
6.35
 49
0.0
 49
-6.35
  0
LTYPE
  2
DOT2
 70
     0
  3
Dot (.5x) ........................................
 72
    65
 73
     2
 40
3.175
 49
0.0
 49
-3.175
  0
LTYPE
  2
CENTERX2
 70
     0
  3
Center (2x) ________  __  ________  __  _____
 72
    65
 73
     4
 40
101.6
 49
63.5
 49
-12.7
 49
12.7
 49
-12.7
  0
LTYPE
  2
CENTER
 70
     0
  3
Center ____ _ ____ _ ____ _ ____ _ ____ _ ____
 72
    65
 73
     4
 40
50.8
 49
31.75
 49
-6.35
 49
6.35
 49
-6.35
  0
LTYPE
  2
CENTER2
 70
     0
  3
Center (.5x) ___ _ ___ _ ___ _ ___ _ ___ _ ___
 72
    65
 73
     4
 40
28.575
 49
19.05
 49
-3.175
 49
3.175
 49
-3.175
  0
LTYPE
  2
DASHDOTX2
 70
     0
  3
Dash dot (2x) ____  .  ____  .  ____  .  ___
 72
    65
 73
     4
 40
50.8
 49
25.4
 49
-12.7
 49
0.0
 49
-12.7
  0
LTYPE
  2
DASHDOT
 70
     0
  3
Dash dot __ . __ . __ . __ . __ . __ . __ . __
 72
    65
 73
     4
 40
25.4
 49
12.7
 49
-6.35
 49
0.0
 49
-6.35
  0
LTYPE
  2
DASHDOT2
 70
     0
  3
Dash dot (.5x) _._._._._._._._._._._._._._._.
 72
    65
 73
     4
 40
12.7
 49
6.35
 49
-3.175
 49
0.0
 49
-3.175
  0
LTYPE
  2
DIVIDEX2
 70
     0
  3
Divide (2x) ________  .  .  ________  .  .  _
 72
    65
 73
     6
 40
63.5
 49
25.4
 49
-12.7
 49
0.0
 49
-12.7
 49
0.0
 49
-12.7
  0
LTYPE
  2
DIVIDE
 70
     0
  3
Divide ____ . . ____ . . ____ . . ____ . . ____
 72
    65
 73
     6
 40
31.75
 49
12.7
 49
-6.35
 49
0.0
 49
-6.35
 49
0.0
 49
-6.35
  0
LTYPE
  2
DIVIDE2
 70
     0
  3
Divide (.5x) __..__..__..__..__..__..__..__.._
 72
    65
 73
     6
 40
15.875
 49
6.35
 49
-3.175
 49
0.0
 49
-3.175
 49
0.0
 49
-3.175
  0
LTYPE
  2
BORDERX2
 70
     0
  3
Border (2x) ____  ____  .  ____  ____  .  ___
 72
    65
 73
     6
 40
88.89999999999999
 49
25.4
 49
-12.7
 49
25.4
 49
-12.7
 49
0.0
 49
-12.7
  0
LTYPE
  2
BORDER
 70
     0
  3
Border __ __ . __ __ . __ __ . __ __ . __ __ .
 72
    65
 73
     6
 40
44.45
 49
12.7
 49
-6.35
 49
12.7
 49
-6.35
 49
0.0
 49
-6.35
  0
LTYPE
  2
BORDER2
 70
     0
  3
Border (.5x) __.__.__.__.__.__.__.__.__.__.__.
 72
    65
 73
     6
 40
22.225
 49
6.35
 49
-3.175
 49
6.35
 49
-3.175
 49
0.0
 49
-3.175
  0
LTYPE
  2
PHANTOMX2
 70
     0
  3
Phantom (2x) ____________    ____    ____   _
 72
    65
 73
     6
 40
127.0
 49
63.5
 49
-12.7
 49
12.7
 49
-12.7
 49
12.7
 49
-12.7
  0
LTYPE
  2
PHANTOM
 70
     0
  3
Phantom ______  __  __  ______  __  __  ______ 
 72
    65
 73
     6
 40
63.5
 49
31.75
 49
-6.35
 49
6.35
 49
-6.35
 49
6.35
 49
-6.35
  0
LTYPE
  2
PHANTOM2
 70
     0
  3
Phantom (.5x) ___ _ _ ___ _ _ ___ _ _ ___ _ _
 72
    65
 73
     6
 40
31.75
 49
15.875
 49
-3.175
 49
3.175
 49
-3.175
 49
3.175
 49
-3.175
  0
LTYPE
  2
ACAD_ISO06W100
 70
     0
  3
ISO long-dash triple-dot ____ ... ____ ... ____
 72
    65
 73
     8
 40
36.0
 49
24.0
 49
-3.0
 49
0.0
 49
-3.0
 49
0.0
 49
-3.0
 49
0.0
 49
-3.0
  0
LTYPE
  2
ACAD_ISO13W100
 70
     0
  3
ISO double-dash double-dot __ __ . . __ __ . . _
 72
    65
 73
     8
 40
36.0
 49
12.0
 49
-3.0
 49
12.0
 49
-3.0
 49
0.0
 49
-3.0
 49
0.0
 49
-3.0
  0
LTYPE
  2
ACAD_ISO14W100
 70
     0
  3
ISO dash triple-dot __ . . . __ . . . __ . . . _
 72
    65
 73
     8
 40
24.0
 49
12.0
 49
-3.0
 49
0.0
 49
-3.0
 49
0.0
 49
-3.0
 49
0.0
 49
-3.0
  0
LTYPE
  2
ACAD_ISO02W100
 70
     0
  3
ISO dash __ __ __ __ __ __ __ __ __ __ __ __ __
 72
    65
 73
     2
 40
15.0
 49
12.0
 49
-3.0
  0
LTYPE
  2
ACAD_ISO03W100
 70
     0
  3
ISO dash space __    __    __    __    __    __
 72
    65
 73
     2
 40
30.0
 49
12.0
 49
-18.0
  0
LTYPE
  2
ACAD_ISO04W100
 70
     0
  3
ISO long-dash dot ____ . ____ . ____ . ____ . _
 72
    65
 73
     4
 40
30.0
 49
24.0
 49
-3.0
 49
0.0
 49
-3.0
  0
LTYPE
  2
ACAD_ISO05W100
 70
     0
  3
ISO long-dash double-dot ____ .. ____ .. ____ . 
 72
    65
 73
     6
 40
33.0
 49
24.0
 49
-3.0
 49
0.0
 49
-3.0
 49
0.0
 49
-3.0
  0
LTYPE
  2
ACAD_ISO07W100
 70
     0
  3
ISO dot . . . . . . . . . . . . . . . . . . . . 
 72
    65
 73
     2
 40
3.0
 49
0.0
 49
-3.0
  0
LTYPE
  2
ACAD_ISO08W100
 70
     0
  3
ISO long-dash short-dash ____ __ ____ __ ____ _
 72
    65
 73
     4
 40
36.0
 49
24.0
 49
-3.0
 49
6.0
 49
-3.0
  0
LTYPE
  2
ACAD_ISO09W100
 70
     0
  3
ISO long-dash double-short-dash ____ __ __ ____
 72
    65
 73
     6
 40
45.0
 49
24.0
 49
-3.0
 49
6.0
 49
-3.0
 49
6.0
 49
-3.0
  0
LTYPE
  2
ACAD_ISO10W100
 70
     0
  3
ISO dash dot __ . __ . __ . __ . __ . __ . __ . 
 72
    65
 73
     4
 40
18.0
 49
12.0
 49
-3.0
 49
0.0
 49
-3.0
  0
LTYPE
  2
ACAD_ISO11W100
 70
     0
  3
ISO double-dash dot __ __ . __ __ . __ __ . __ _
 72
    65
 73
     6
 40
33.0
 49
12.0
 49
-3.0
 49
12.0
 49
-3.0
 49
0.0
 49
-3.0
  0
LTYPE
  2
ACAD_ISO12W100
 70
     0
  3
ISO dash double-dot __ . . __ . . __ . . __ . . 
 72
    65
 73
     6
 40
21.0
 49
12.0
 49
-3.0
 49
0.0
 49
-3.0
 49
0.0
 49
-3.0
  0
LTYPE
  2
ACAD_ISO15W100
 70
     0
  3
ISO double-dash triple-dot __ __ . . . __ __ . .
 72
    65
 73
    10
 40
39.0
 49
12.0
 49
-3.0
 49
12.0
 49
-3.0
 49
0.0
 49
-3.0
 49
0.0
 49
-3.0
 49
0.0
 49
-3.0
  0
LTYPE
  2
JIS_02_0_7
 70
     0
  3
HIDDEN0.75 _ _ _ _ _ _ _ _ _ _ _ _ _ _ _ _ _ 
 72
    65
 73
     2
 40
1.35
 49
0.75
 49
-0.6
  0
LTYPE
  2
JIS_02_1_0
 70
     0
  3
HIDDEN01 _ _ _ _ _ _ _ _ _ _ _ _ _ _ _ _ _ 
 72
    65
 73
     2
 40
2.0
 49
1.0
 49
-1.0
  0
LTYPE
  2
JIS_02_1_2
 70
     0
  3
HIDDEN01.25  _ _ _ _ _ _ _ _ _ _ _ _ _ _ _ _ _ 
 72
    65
 73
     2
 40
2.5
 49
1.25
 49
-1.25
  0
LTYPE
  2
JIS_02_2_0
 70
     0
  3
HIDDEN02 __ __ __ __ __ __ __ __ __ __ __ 
 72
    65
 73
     2
 40
3.0
 49
2.0
 49
-1.0
  0
LTYPE
  2
JIS_02_4_0
 70
     0
  3
HIDDEN04 ____ ____ ____ ____ ____ ____ ____ 
 72
    65
 73
     2
 40
5.5
 49
4.0
 49
-1.5
  0
LTYPE
  2
JIS_08_11
 70
     0
  3
1SASEN11 ___ _ ___ _ ___ _ ___ _ ___ _ ___
 72
    65
 73
     4
 40
12.8
 49
11.0
 49
-0.6
 49
0.6
 49
-0.6
  0
LTYPE
  2
JIS_08_15
 70
     0
  3
1SASEN15 ____ _ ____ _ ____ _ ____ _ ____ 
 72
    65
 73
     4
 40
17.25
 49
15.0
 49
-0.75
 49
0.75
 49
-0.75
  0
LTYPE
  2
JIS_08_25
 70
     0
  3
1SASEN25 ________  __  ________  __  _____
 72
    65
 73
     4
 40
28.0
 49
25.0
 49
-1.125
 49
0.75
 49
-1.125
  0
LTYPE
  2
JIS_08_37
 70
     0
  3
1SASEN37 ________  __  ________  __  _____
 72
    65
 73
     4
 40
40.5
 49
37.5
 49
-1.125
 49
0.75
 49
-1.125
  0
LTYPE
  2
JIS_08_50
 70
     0
  3
1SASEN50 _______________  __  ____________
 72
    65
 73
     4
 40
53.0
 49
50.0
 49
-1.125
 49
0.75
 49
-1.125
  0
LTYPE
  2
JIS_09_08
 70
     0
  3
2SASEN8 __ _ _ __ _ _ __ _ _ __ _ _ __ _ _ 
 72
    65
 73
     6
 40
10.75
 49
8.0
 49
-0.55
 49
0.55
 49
-0.55
 49
0.55
 49
-0.55
  0
LTYPE
  2
JIS_09_15
 70
     0
  3
2SASEN15 ___ _ _ ___ _ _ ___ _ _ ___ _ _ ___ 
 72
    65
 73
     6
 40
18.9
 49
15.0
 49
-0.9
 49
0.6
 49
-0.9
 49
0.6
 49
-0.9
  0
LTYPE
  2
JIS_09_29
 70
     0
  3
2SASEN29 ______　__  __  ______　__  __  ___
 72
    65
 73
     6
 40
34.0
 49
29.0
 49
-1.2
 49
0.7
 49
-1.2
 49
0.7
 49
-1.2
  0
LTYPE
  2
JIS_09_50
 70
     0
  3
2SASEN50 ____________　__  __  _____________
 72
    65
 73
     6
 40
55.0
 49
50.0
 49
-1.2
 49
0.7
 49
-1.2
 49
0.7
 49
-1.2
  0
LTYPE
  2
SXF_破線
 70
     0
  3
02 dashed -- -- -- -- -- --
 72
    65
 73
     2
 40
7.5
 49
6.0
 49
-1.5
  0
LTYPE
  2
SXF_跳び破線
 70
     0
  3
03 dashed_spaced --  --  --  --
 72
    65
 73
     2
 40
12.0
 49
6.0
 49
-6.0
  0
LTYPE
  2
SXF_一点長鎖線
 70
     0
  3
04 long_dashed_dotted ---- . ---- . ----
 72
    65
 73
     4
 40
15.25
 49
12.0
 49
-1.5
 49
0.25
 49
-1.5
  0
LTYPE
  2
SXF_二点長鎖線
 70
     0
  3
05 long_dashed_double-dotted ---- . . ---- 
 72
    65
 73
     6
 40
17.0
 49
12.0
 49
-1.5
 49
0.25
 49
-1.5
 49
0.25
 49
-1.5
  0
LTYPE
  2
SXF_三点長鎖線
 70
     0
  3
06 long_dashed_triplicate-dotted ---- ... ---- 
 72
    65
 73
     8
 40
18.75
 49
12.0
 49
-1.5
 49
0.25
 49
-1.5
 49
0.25
 49
-1.5
 49
0.25
 49
-1.5
  0
LTYPE
  2
SXF_点線
 70
     0
  3
07 dotted . . . . . . . . . . . . 
 72
    65
 73
     2
 40
1.75
 49
0.25
 49
-1.5
  0
LTYPE
  2
SXF_一点鎖線
 70
     0
  3
08 chain ---- - --- - --- - ---
 72
    65
 73
     4
 40
18.5
 49
12.0
 49
-1.5
 49
3.5
 49
-1.5
  0
LTYPE
  2
SXF_二点鎖線
 70
     0
  3
09 chain_double_dash ---- - - ---- - - ----
 72
    65
 73
     6
 40
23.5
 49
12.0
 49
-1.5
 49
3.5
 49
-1.5
 49
3.5
 49
-1.5
  0
LTYPE
  2
SXF_一点短鎖線
 70
     0
  3
10 dashed_dotted -- . -- . -- . --
 72
    65
 73
     4
 40
9.25
 49
6.0
 49
-1.5
 49
0.25
 49
-1.5
  0
LTYPE
  2
SXF_一点二短鎖線
 70
     0
  3
11 double-dashed_dotted -- -- . -- --
 72
    65
 73
     6
 40
16.75
 49
6.0
 49
-1.5
 49
6.0
 49
-1.5
 49
0.25
 49
-1.5
  0
LTYPE
  2
SXF_二点短鎖線
 70
     0
  3
12 dashed_double_dotted -- . . -- . . --
 72
    65
 73
     6
 40
11.0
 49
6.0
 49
-1.5
 49
0.25
 49
-1.5
 49
0.25
 49
-1.5
  0
LTYPE
  2
SXF_二点二短鎖線
 70
     0
  3
13 double-dashed_double-dotted -- -- . . -- --
 72
    65
 73
     8
 40
18.5
 49
6.0
 49
-1.5
 49
6.0
 49
-1.5
 49
0.25
 49
-1.5
 49
0.25
 49
-1.5
  0
LTYPE
  2
SXF_三点短鎖線
 70
     0
  3
14 dashed triplicate-dotted -- . . . -- . . . --
 72
    65
 73
     8
 40
12.75
 49
6.0
 49
-1.5
 49
0.25
 49
-1.5
 49
0.25
 49
-1.5
 49
0.25
 49
-1.5
  0
LTYPE
  2
SXF_三点二短鎖線
 70
     0
  3
15 double-dashed triplicate-dotted -- -- . . . -- -- 
 72
    65
 73
    10
 40
20.25
 49
6.0
 49
-1.5
 49
6.0
 49
-1.5
 49
0.25
 49
-1.5
 49
0.25
 49
-1.5
 49
0.25
 49
-1.5
  0
ENDTAB
  0
TABLE
  2
LAYER
 70
     3
  0
LAYER
  2
0
 70
     0
 62
     7
  6
CONTINUOUS
  0
LAYER
  2
LAYER0014
 70
     0
 62
     7
  6
CONTINUOUS
  0
LAYER
  2
ZUWAKU
 70
     0
 62
     7
  6
CONTINUOUS
  0
ENDTAB
  0
TABLE
  2
STYLE
 70
     5
  0
STYLE
  2
STANDARD
 70
     0
 40
0.0
 41
1.0
 50
0.0
 71
     0
 42
0.2
  3
txt.shx
  4
bigfont.shx
  0
STYLE
  2
DCSTYLE1
 70
     0
 40
0.0
 41
0.8
 50
0.0
 71
     0
 42
0.2
  3
txt.shx
  4
bigfont
  0
STYLE
  2
DCSTYLE0
 70
     4
 40
0.0
 41
0.8
 50
0.0
 71
     0
 42
0.2
  3
txt.shx
  4
bigfont
  0
STYLE
  2
DCSTYLE2
 70
     0
 40
0.0
 41
0.8
 50
0.0
 71
     0
 42
0.2
  3
ＭＳ 明朝
  4

  0
STYLE
  2
DCSTYLE3
 70
     0
 40
0.0
 41
1.0
 50
0.0
 71
     0
 42
0.2
  3
ＭＳ ゴシック
  4

  0
ENDTAB
  0
TABLE
  2
VIEW
 70
     0
  0
ENDTAB
  0
TABLE
  2
UCS
 70
     0
  0
ENDTAB
  0
TABLE
  2
APPID
 70
     2
  0
APPID
  2
ACAD
 70
     0
  0
APPID
  2
DAFUSIONOUT
 70
     0
  0
ENDTAB
  0
TABLE
  2
DIMSTYLE
 70
     1
  0
DIMSTYLE
  2
STANDARD
 70
     0
  3

  4

  5

  6

  7

 40
1.0
 41
0.18
 42
0.0625
 43
0.38
 44
0.18
 45
0.0
 46
0.0
 47
0.0
 48
0.0
140
0.18
141
0.09
142
0.0
143
25.4
144
1.0
145
0.0
146
1.0
147
0.09
 71
     0
 72
     0
 73
     1
 74
     1
 75
     0
 76
     0
 77
     0
 78
     0
170
     0
171
     2
172
     0
173
     0
174
     0
175
     0
176
     0
177
     0
178
     0
  0
ENDTAB
  0
ENDSEC
  0
SECTION
  2
BLOCKS
  0
BLOCK
  8
0
  2
$MODEL_SPACE
 70
     0
 10
0.0
 20
0.0
 30
0.0
  3
$MODEL_SPACE
  1

  0
ENDBLK
  5
21
  8
0
  0
BLOCK
 67
     1
  8
0
  2
$PAPER_SPACE
 70
     0
 10
0.0
 20
0.0
 30
0.0
  3
$PAPER_SPACE
  1

  0
ENDBLK
  5
1D
 67
     1
  8
0
  0
BLOCK
  8
0
  2
DC_IMAGEDIMGROUP_1
 70
     0
 10
0.0
 20
0.0
 30
0.0
  3
DC_IMAGEDIMGROUP_1
  1

  0
LINE
  5
126
  8
LAYER0014
  6
CONTINUOUS
 62
     7
 10
-55.19850015586904
 20
90.3460459084523
 30
0.0
 11
-46.82324747032217
 21
90.3460459084523
 31
0.0
  0
LINE
  5
127
  8
LAYER0014
  6
CONTINUOUS
 62
     7
 10
-93.14607095665029
 20
151.3460459084523
 30
0.0
 11
-46.82324747032217
 21
151.3460459084523
 31
0.0
  0
LINE
  5
128
  8
LAYER0014
  6
CONTINUOUS
 62
     7
 10
-47.82324747032217
 20
90.3460459084523
 30
0.0
 11
-47.82324747032217
 21
151.3460459084523
 31
0.0
  0
INSERT
  5
12F
  8
LAYER0014
 62
     7
  2
_OPEN30
 10
-47.82324747032217
 20
90.3460459084523
 30
0.0
 41
2.499995396844351
 42
2.500007167085477
 50
270.0
  0
INSERT
  5
130
  8
LAYER0014
 62
     7
  2
_OPEN30
 10
-47.82324747032217
 20
151.3460459084523
 30
0.0
 41
2.499995396844351
 42
2.500007167085477
 50
90.0
  0
TEXT
  5
132
  8
LAYER0014
 62
     7
 10
-48.82324747032217
 20
116.5101479265356
 30
0.0
 40
4.0
  1
61
 50
90.0
 41
1.083870967741936
  7
DCSTYLE1
 72
     5
 11
-48.82324747032217
 21
122.9101479265356
 31
0.0
  0
ENDBLK
  5
B6
  8
0
  0
BLOCK
  8
0
  2
DC_IMAGEDIMGROUP_2
 70
     0
 10
0.0
 20
0.0
 30
0.0
  3
DC_IMAGEDIMGROUP_2
  1

  0
LINE
  5
133
  8
LAYER0014
  6
CONTINUOUS
 62
     7
 10
-65.3985886568456
 20
103.3460459084523
 30
0.0
 11
-57.32324747032217
 21
103.3460459084523
 31
0.0
  0
LINE
  5
134
  8
LAYER0014
  6
CONTINUOUS
 62
     7
 10
-65.3985886568456
 20
138.3460459084523
 30
0.0
 11
-57.32324747032217
 21
138.3460459084523
 31
0.0
  0
LINE
  5
135
  8
LAYER0014
  6
CONTINUOUS
 62
     7
 10
-58.32324747032217
 20
103.3460459084523
 30
0.0
 11
-58.32324747032217
 21
138.3460459084523
 31
0.0
  0
INSERT
  5
136
  8
LAYER0014
 62
     7
  2
_OPEN30
 10
-58.32324747032217
 20
103.3460459084523
 30
0.0
 41
2.499995396844351
 42
2.500007167085477
 50
270.0
  0
INSERT
  5
137
  8
LAYER0014
 62
     7
  2
_OPEN30
 10
-58.32324747032217
 20
138.3460459084523
 30
0.0
 41
2.499995396844351
 42
2.500007167085477
 50
90.0
  0
TEXT
  5
138
  8
LAYER0014
 62
     7
 10
-59.32324747032217
 20
117.3654988620023
 30
0.0
 40
4.0
  1
35
 50
90.0
 41
0.9081081081081089
  7
DCSTYLE1
 72
     5
 11
-59.32324747032217
 21
123.7654988620023
 31
0.0
  0
ENDBLK
  5
B9
  8
0
  0
BLOCK
  8
0
  2
DC_IMAGEDIMGROUP_3
 70
     0
 10
0.0
 20
0.0
 30
0.0
  3
DC_IMAGEDIMGROUP_3
  1

  0
LINE
  5
139
  8
LAYER0014
  6
CONTINUOUS
 62
     7
 10
-229.642198044148
 20
-27.65395218419907
 30
0.0
 11
-229.642198044148
 21
74.3460459084523
 31
0.0
  0
INSERT
  5
13A
  8
LAYER0014
 62
     7
  2
_OPEN30
 10
-229.642198044148
 20
-27.65395218419907
 30
0.0
 41
2.499995396844351
 42
2.500007167085477
 50
270.0
  0
INSERT
  5
13B
  8
LAYER0014
 62
     7
  2
_OPEN30
 10
-229.642198044148
 20
74.3460459084523
 30
0.0
 41
2.499995396844351
 42
2.500007167085477
 50
90.0
  0
LINE
  5
13C
  8
LAYER0014
  6
CONTINUOUS
 62
     7
 10
-192.821682380065
 20
-27.65395218419907
 30
0.0
 11
-230.642198044148
 21
-27.65395218419907
 31
0.0
  0
LINE
  5
13D
  8
LAYER0014
  6
CONTINUOUS
 62
     7
 10
-197.4260679048925
 20
74.3460459084523
 30
0.0
 11
-230.642198044148
 21
74.3460459084523
 31
0.0
  0
TEXT
  5
13E
  8
LAYER0014
 62
     7
 10
-230.642198044148
 20
13.74604686212662
 30
0.0
 40
4.0
  1
φ102H7
 50
90.0
 41
0.861538461538461
  7
DCSTYLE1
 72
     5
 11
-230.642198044148
 21
32.94604686212661
 31
0.0
  0
ENDBLK
  5
BC
  8
0
  0
BLOCK
  8
0
  2
DC_IMAGEDIMGROUP_4
 70
     0
 10
0.0
 20
0.0
 30
0.0
  3
DC_IMAGEDIMGROUP_4
  1

  0
LINE
  5
13F
  8
LAYER0014
  6
CONTINUOUS
 62
     7
 10
-177.2014212984472
 20
1.228689727307582
 30
0.0
 11
-145.2014212984472
 21
1.228689727307582
 31
0.0
  0
INSERT
  5
140
  8
LAYER0014
 62
     7
  2
_OPEN30
 10
-177.2014212984472
 20
1.228689727307582
 30
0.0
 41
2.499995396844351
 42
2.500007167085477
 50
180.0
  0
INSERT
  5
141
  8
LAYER0014
 62
     7
  2
_OPEN30
 10
-145.2014212984472
 20
1.228689727307582
 30
0.0
 41
2.499995396844351
 42
2.500007167085477
 50
360.0
  0
TEXT
  5
142
  8
LAYER0014
 62
     7
 10
-164.4014212984472
 20
2.228689727307582
 30
0.0
 40
4.0
  1
32
 41
0.9081081081081049
  7
DCSTYLE1
 72
     5
 11
-158.0014212984472
 21
2.228689727307582
 31
0.0
  0
ENDBLK
  5
BF
  8
0
  0
BLOCK
  8
0
  2
DC_IMAGEDIMGROUP_5
 70
     0
 10
0.0
 20
0.0
 30
0.0
  3
DC_IMAGEDIMGROUP_5
  1

  0
LINE
  5
143
  8
LAYER0014
  6
CONTINUOUS
 62
     7
 10
-145.2014212984472
 20
1.228689727307582
 30
0.0
 11
-127.2014212984472
 21
1.228689727307582
 31
0.0
  0
INSERT
  5
144
  8
LAYER0014
 62
     7
  2
_OPEN30
 10
-145.2014212984472
 20
1.228689727307582
 30
0.0
 41
2.499995396844351
 42
2.500007167085477
 50
180.0
  0
INSERT
  5
145
  8
LAYER0014
 62
     7
  2
_OPEN30
 10
-127.2014212984472
 20
1.228689727307582
 30
0.0
 41
2.499995396844351
 42
2.500007167085477
 50
360.0
  0
TEXT
  5
146
  8
LAYER0014
 62
     7
 10
-139.4014212984472
 20
2.228689727307582
 30
0.0
 40
4.0
  1
18
 41
0.9081081081081049
  7
DCSTYLE1
 72
     5
 11
-133.0014212984472
 21
2.228689727307582
 31
0.0
  0
ENDBLK
  5
C2
  8
0
  0
BLOCK
  8
0
  2
DC_IMAGEDIMGROUP_6
 70
     0
 10
0.0
 20
0.0
 30
0.0
  3
DC_IMAGEDIMGROUP_6
  1

  0
LINE
  5
147
  8
LAYER0014
  6
CONTINUOUS
 62
     7
 10
-127.2014212984472
 20
1.228689727307582
 30
0.0
 11
-117.2014212984472
 21
1.228689727307582
 31
0.0
  0
INSERT
  5
148
  8
LAYER0014
 62
     7
  2
_OPEN30
 10
-127.2014212984472
 20
1.228689727307582
 30
0.0
 41
2.499995396844351
 42
2.500007167085477
 50
180.0
  0
INSERT
  5
149
  8
LAYER0014
 62
     7
  2
_OPEN30
 10
-117.2014212984472
 20
1.228689727307582
 30
0.0
 41
2.499995396844351
 42
2.500007167085477
 50
360.0
  0
TEXT
  5
14A
  8
LAYER0014
 62
     7
 10
-125.4014212984472
 20
2.228689727307582
 30
0.0
 40
4.0
  1
10
 41
0.9081081081081089
  7
DCSTYLE1
 72
     5
 11
-119.0014212984472
 21
2.228689727307582
 31
0.0
  0
ENDBLK
  5
C5
  8
0
  0
BLOCK
  8
0
  2
DC_IMAGEDIMGROUP_7
 70
     0
 10
0.0
 20
0.0
 30
0.0
  3
DC_IMAGEDIMGROUP_7
  1

  0
LINE
  5
14B
  8
LAYER0014
  6
CONTINUOUS
 62
     7
 10
-114.6614212984472
 20
-21.65395218419907
 30
0.0
 11
-78.32324747032217
 21
-21.65395218419907
 31
0.0
  0
LINE
  5
14C
  8
LAYER0014
  6
CONTINUOUS
 62
     7
 10
-79.32324747032217
 20
-21.65395218419907
 30
0.0
 11
-79.32324747032217
 21
62.3460459084523
 31
0.0
  0
INSERT
  5
14D
  8
LAYER0014
 62
     7
  2
_OPEN30
 10
-79.32324747032217
 20
-21.65395218419907
 30
0.0
 41
2.499995396844351
 42
2.500007167085477
 50
270.0
  0
TEXT
  5
14E
  8
LAYER0014
 62
     7
 10
-80.32324747032217
 20
8.281276184530864
 30
0.0
 40
4.0
  1
M90×Ｐ1.25
 50
90.0
 41
0.9053892215568867
  7
DCSTYLE1
 72
     5
 11
-80.32324747032217
 21
37.08127618453088
 31
0.0
  0
ENDBLK
  5
C8
  8
0
  0
BLOCK
  8
0
  2
DC_IMAGEDIMGROUP_8
 70
     0
 10
0.0
 20
0.0
 30
0.0
  3
DC_IMAGEDIMGROUP_8
  1

  0
LINE
  5
14F
  8
LAYER0014
  6
CONTINUOUS
 62
     7
 10
-93.64607095665029
 20
-29.1539540915477
 30
0.0
 11
-67.82324747032217
 21
-29.1539540915477
 31
0.0
  0
LINE
  5
150
  8
LAYER0014
  6
CONTINUOUS
 62
     7
 10
-68.82324747032217
 20
-29.1539540915477
 30
0.0
 11
-68.82324747032217
 21
62.3460459084523
 31
0.0
  0
INSERT
  5
151
  8
LAYER0014
 62
     7
  2
_OPEN30
 10
-68.82324747032217
 20
-29.1539540915477
 30
0.0
 41
2.499995396844351
 42
2.500007167085477
 50
270.0
  0
TEXT
  5
152
  8
LAYER0014
 62
     7
 10
-69.82324747032217
 20
14.88553206403096
 30
0.0
 40
4.0
  1
φ105H7
 50
90.0
 41
0.8615384615384614
  7
DCSTYLE1
 72
     5
 11
-69.82324747032217
 21
34.08553206403096
 31
0.0
  0
ENDBLK
  5
CB
  8
0
  0
BLOCK
  8
0
  2
DC_IMAGEDIMGROUP_9
 70
     0
 10
0.0
 20
0.0
 30
0.0
  3
DC_IMAGEDIMGROUP_9
  1

  0
LINE
  5
153
  8
LAYER0014
  6
CONTINUOUS
 62
     7
 10
-66.42285684532217
 20
23.34604781580093
 30
0.0
 11
-57.32324747032217
 21
23.34604781580093
 31
0.0
  0
LINE
  5
154
  8
LAYER0014
  6
CONTINUOUS
 62
     7
 10
-94.64607095665029
 20
81.3460459084523
 30
0.0
 11
-57.32324747032217
 21
81.3460459084523
 31
0.0
  0
LINE
  5
155
  8
LAYER0014
  6
CONTINUOUS
 62
     7
 10
-58.32324747032217
 20
23.34604781580093
 30
0.0
 11
-58.32324747032217
 21
81.3460459084523
 31
0.0
  0
INSERT
  5
156
  8
LAYER0014
 62
     7
  2
_OPEN30
 10
-58.32324747032217
 20
23.34604781580093
 30
0.0
 41
2.499995396844351
 42
2.500007167085477
 50
270.0
  0
INSERT
  5
157
  8
LAYER0014
 62
     7
  2
_OPEN30
 10
-58.32324747032217
 20
81.3460459084523
 30
0.0
 41
2.499995396844351
 42
2.500007167085477
 50
90.0
  0
TEXT
  5
158
  8
LAYER0014
 62
     7
 10
-59.32324747032217
 20
42.22000863845722
 30
0.0
 40
4.0
  1
MAX 63
 50
90.0
 41
0.8400000000000001
  7
DCSTYLE1
 72
     5
 11
-59.32324747032217
 21
61.42000863845722
 31
0.0
  0
ENDBLK
  5
CE
  8
0
  0
BLOCK
  8
0
  2
DC_IMAGEDIMGROUP_10
 70
     0
 10
0.0
 20
0.0
 30
0.0
  3
DC_IMAGEDIMGROUP_10
  1

  0
LINE
  5
159
  8
LAYER0014
  6
CONTINUOUS
 62
     7
 10
-94.64607095665029
 20
81.3460459084523
 30
0.0
 11
-57.32324747032217
 21
81.3460459084523
 31
0.0
  0
LINE
  5
15A
  8
LAYER0014
  6
CONTINUOUS
 62
     7
 10
-65.3985886568456
 20
103.3460459084523
 30
0.0
 11
-57.32324747032217
 21
103.3460459084523
 31
0.0
  0
LINE
  5
15B
  8
LAYER0014
  6
CONTINUOUS
 62
     7
 10
-58.32324747032217
 20
81.3460459084523
 30
0.0
 11
-58.32324747032217
 21
103.3460459084523
 31
0.0
  0
INSERT
  5
15C
  8
LAYER0014
 62
     7
  2
_OPEN30
 10
-58.32324747032217
 20
81.3460459084523
 30
0.0
 41
2.499995396844351
 42
2.500007167085477
 50
270.0
  0
INSERT
  5
15D
  8
LAYER0014
 62
     7
  2
_OPEN30
 10
-58.32324747032217
 20
103.3460459084523
 30
0.0
 41
2.499995396844351
 42
2.500007167085477
 50
90.0
  0
TEXT
  5
15E
  8
LAYER0014
 62
     7
 10
-59.92324747032217
 20
84.3460459084523
 30
0.0
 40
4.0
  1
MIN13
 50
90.0
 41
0.9230769230769231
  7
DCSTYLE1
 72
     5
 11
-59.92324747032217
 21
100.3460459084523
 31
0.0
  0
ENDBLK
  5
D1
  8
0
  0
BLOCK
  8
0
  2
DC_IMAGEDIMGROUP_11
 70
     0
 10
0.0
 20
0.0
 30
0.0
  3
DC_IMAGEDIMGROUP_11
  1

  0
LINE
  5
15F
  8
LAYER0014
  6
CONTINUOUS
 62
     7
 10
-94.64607095665029
 20
163.3460459084523
 30
0.0
 11
-36.32324747032217
 21
163.3460459084523
 31
0.0
  0
LINE
  5
160
  8
LAYER0014
  6
CONTINUOUS
 62
     7
 10
-94.64607095665029
 20
81.3460459084523
 30
0.0
 11
-36.32324747032217
 21
81.3460459084523
 31
0.0
  0
LINE
  5
161
  8
LAYER0014
  6
CONTINUOUS
 62
     7
 10
-37.32324747032217
 20
163.3460459084523
 30
0.0
 11
-37.32324747032217
 21
81.3460459084523
 31
0.0
  0
INSERT
  5
162
  8
LAYER0014
 62
     7
  2
_OPEN30
 10
-37.32324747032217
 20
163.3460459084523
 30
0.0
 41
2.499995396844351
 42
2.500007167085477
 50
90.0
  0
INSERT
  5
163
  8
LAYER0014
 62
     7
  2
_OPEN30
 10
-37.32324747032217
 20
81.3460459084523
 30
0.0
 41
2.499995396844351
 42
2.500007167085477
 50
270.0
  0
TEXT
  5
164
  8
LAYER0014
 62
     7
 10
-38.32324747032217
 20
118.1139309305357
 30
0.0
 40
4.0
  1
82
 50
90.0
 41
0.9081081081081089
  7
DCSTYLE1
 72
     5
 11
-38.32324747032217
 21
124.5139309305357
 31
0.0
  0
ENDBLK
  5
D4
  8
0
  0
BLOCK
  8
0
  2
DC_IMAGEDIMGROUP_12
 70
     0
 10
0.0
 20
0.0
 30
0.0
  3
DC_IMAGEDIMGROUP_12
  1

  0
LINE
  5
165
  8
LAYER0014
  6
CONTINUOUS
 62
     7
 10
-97.1860709566503
 20
165.8860459084523
 30
0.0
 11
-97.1860709566503
 21
176.3936533303273
 31
0.0
  0
LINE
  5
166
  8
LAYER0014
  6
CONTINUOUS
 62
     7
 10
-96.1860709566503
 20
162.8860459084523
 30
0.0
 11
-96.1860709566503
 21
176.3936533303273
 31
0.0
  0
LINE
  5
167
  8
LAYER0014
  6
CONTINUOUS
 62
     7
 10
-97.1860709566503
 20
175.3936533303273
 30
0.0
 11
-96.1860709566503
 21
175.3936533303273
 31
0.0
  0
LINE
  5
168
  8
LAYER0014
  6
CONTINUOUS
 62
     7
 10
-89.05422095665031
 20
175.3936533303273
 30
0.0
 11
-96.1860709566503
 21
175.3936533303273
 31
0.0
  0
INSERT
  5
169
  8
LAYER0014
 62
     7
  2
_OPEN30
 10
-96.1860709566503
 20
175.3936533303273
 30
0.0
 41
2.499995396844351
 42
2.500007167085477
 50
180.0
  0
LINE
  5
16A
  8
LAYER0014
  6
CONTINUOUS
 62
     7
 10
-102.1860709566503
 20
175.3936533303273
 30
0.0
 11
-97.1860709566503
 21
175.3936533303273
 31
0.0
  0
INSERT
  5
16B
  8
LAYER0014
 62
     7
  2
_OPEN30
 10
-97.1860709566503
 20
175.3936533303273
 30
0.0
 41
2.499995396844351
 42
2.500007167085477
 50
360.0
  0
TEXT
  5
16C
  8
LAYER0014
 62
     7
 10
-93.2542209566503
 20
176.3936533303273
 30
0.0
 40
4.0
  1
1
 41
1.527272727272729
  7
DCSTYLE1
 72
     5
 11
-90.0542209566503
 21
176.3936533303273
 31
0.0
  0
ENDBLK
  5
D7
  8
0
  0
BLOCK
  8
0
  2
DC_IMAGEDIMGROUP_13
 70
     0
 10
0.0
 20
0.0
 30
0.0
  3
DC_IMAGEDIMGROUP_13
  1

  0
LINE
  5
16D
  8
LAYER0014
  6
CONTINUOUS
 62
     7
 10
-219.6580132296065
 20
-49.32895714330552
 30
0.0
 11
-219.6580132296065
 21
-37.32895714330552
 31
0.0
  0
LINE
  5
16E
  8
LAYER0014
  6
CONTINUOUS
 62
     7
 10
-211.7260709566503
 20
-49.32895714330552
 30
0.0
 11
-220.6580132296065
 21
-49.32895714330552
 31
0.0
  0
LINE
  5
16F
  8
LAYER0014
  6
CONTINUOUS
 62
     7
 10
-211.7260709566503
 20
-37.32895714330552
 30
0.0
 11
-220.6580132296065
 21
-37.32895714330552
 31
0.0
  0
LINE
  5
170
  8
LAYER0014
  6
CONTINUOUS
 62
     7
 10
-219.6580132296065
 20
-54.32895714330552
 30
0.0
 11
-219.6580132296065
 21
-49.32895714330552
 31
0.0
  0
INSERT
  5
171
  8
LAYER0014
 62
     7
  2
_OPEN30
 10
-219.6580132296065
 20
-49.32895714330552
 30
0.0
 41
2.499995396844351
 42
2.500007167085477
 50
90.0
  0
LINE
  5
172
  8
LAYER0014
  6
CONTINUOUS
 62
     7
 10
-219.6580132296065
 20
-32.32895714330552
 30
0.0
 11
-219.6580132296065
 21
-37.32895714330552
 31
0.0
  0
INSERT
  5
173
  8
LAYER0014
 62
     7
  2
_OPEN30
 10
-219.6580132296065
 20
-37.32895714330552
 30
0.0
 41
2.499995396844351
 42
2.500007167085477
 50
270.0
  0
TEXT
  5
174
  8
LAYER0014
 62
     7
 10
-220.6580132296065
 20
-48.12895714330553
 30
0.0
 40
4.0
  1
M12
 50
90.0
 41
0.8262295081967235
  7
DCSTYLE1
 72
     5
 11
-220.6580132296065
 21
-38.5289571433055
 31
0.0
  0
ENDBLK
  5
DA
  8
0
  0
BLOCK
  8
0
  2
DC_GROUP_1
 70
     0
 10
0.0
 20
0.0
 30
0.0
  3
DC_GROUP_1
  1

  0
LINE
  5
175
  8
LAYER0014
  6
CONTINUOUS
 62
     7
 10
-78.90403040271721
 20
145.1838285170437
 30
0.0
 11
-60.29797812742299
 21
167.5845359165325
 31
0.0
  0
INSERT
  5
176
  8
LAYER0014
 62
     7
  2
_OPEN30
 10
-78.90403040271721
 20
145.1838285170437
 30
0.0
 41
2.499995396844351
 42
2.500007167085477
 50
230.2869405057009
  0
LINE
  5
177
  8
LAYER0014
  6
CONTINUOUS
 62
     7
 10
-60.29797770079357
 20
167.5845241991466
 30
0.0
 11
-48.8683092742799
 21
167.5845241991466
 31
0.0
  0
TEXT
  5
178
  8
LAYER0014
 62
     7
 10
-59.56930185850842
 20
169.1845241991466
 30
0.0
 40
4.0
  1
M12
 41
0.8262295081967216
  7
DCSTYLE1
 72
     5
 11
-49.96930185850842
 21
169.1845241991466
 31
0.0
  0
ENDBLK
  5
DD
  8
0
  0
BLOCK
  8
0
  2
DC_IMAGEDIMGROUP_14
 70
     0
 10
0.0
 20
0.0
 30
0.0
  3
DC_IMAGEDIMGROUP_14
  1

  0
LINE
  5
179
  8
LAYER0014
  6
CONTINUOUS
 62
     7
 10
-197.1860709566503
 20
-153.2970204977977
 30
0.0
 11
-191.4860740084081
 21
-153.2970204977977
 31
0.0
  0
LINE
  5
17A
  8
LAYER0014
  6
CONTINUOUS
 62
     7
 10
-197.1860709566503
 20
-118.1761345830976
 30
0.0
 11
-197.1860709566503
 21
-154.2970204977977
 31
0.0
  0
LINE
  5
17B
  8
LAYER0014
  6
CONTINUOUS
 62
     7
 10
-191.4860740084081
 20
-106.6939540915477
 30
0.0
 11
-191.4860740084081
 21
-154.2970204977977
 31
0.0
  0
LINE
  5
17C
  8
LAYER0014
  6
CONTINUOUS
 62
     7
 10
-211.1399487814349
 20
-153.2970204977977
 30
0.0
 11
-197.1860709566503
 21
-153.2970204977977
 31
0.0
  0
INSERT
  5
17D
  8
LAYER0014
 62
     7
  2
_OPEN30
 10
-197.1860709566503
 20
-153.2970204977977
 30
0.0
 41
2.499995396844351
 42
2.500007167085477
 50
360.0
  0
LINE
  5
17E
  8
LAYER0014
  6
CONTINUOUS
 62
     7
 10
-186.4860740084081
 20
-153.2970204977977
 30
0.0
 11
-191.4860740084081
 21
-153.2970204977977
 31
0.0
  0
INSERT
  5
17F
  8
LAYER0014
 62
     7
  2
_OPEN30
 10
-191.4860740084081
 20
-153.2970204977977
 30
0.0
 41
2.499995396844351
 42
2.500007167085477
 50
180.0
  0
TEXT
  5
180
  8
LAYER0014
 62
     7
 10
-210.1399487814348
 20
-152.2970204977977
 30
0.0
 40
4.0
  1
5.7
 41
1.072340425531914
  7
DCSTYLE1
 72
     5
 11
-200.5399487814348
 21
-152.2970204977977
 31
0.0
  0
ENDBLK
  5
E0
  8
0
  0
BLOCK
  8
0
  2
DC_IMAGEDIMGROUP_15
 70
     0
 10
0.0
 20
0.0
 30
0.0
  3
DC_IMAGEDIMGROUP_15
  1

  0
LINE
  5
181
  8
LAYER0014
  6
CONTINUOUS
 62
     7
 10
-191.4860740084081
 20
-153.2970204977977
 30
0.0
 11
-96.1860709566503
 21
-153.2970204977977
 31
0.0
  0
INSERT
  5
182
  8
LAYER0014
 62
     7
  2
_OPEN30
 10
-191.4860740084081
 20
-153.2970204977977
 30
0.0
 41
2.499995396844351
 42
2.500007167085477
 50
180.0
  0
INSERT
  5
183
  8
LAYER0014
 62
     7
  2
_OPEN30
 10
-96.1860709566503
 20
-153.2970204977977
 30
0.0
 41
2.499995396844351
 42
2.500007167085477
 50
360.0
  0
LINE
  5
184
  8
LAYER0014
  6
CONTINUOUS
 62
     7
 10
-191.4860740084081
 20
-106.6939540915477
 30
0.0
 11
-191.4860740084081
 21
-154.2970204977977
 31
0.0
  0
LINE
  5
185
  8
LAYER0014
  6
CONTINUOUS
 62
     7
 10
-96.1860709566503
 20
-116.1939540915477
 30
0.0
 11
-96.1860709566503
 21
-154.2970204977977
 31
0.0
  0
TEXT
  5
186
  8
LAYER0014
 62
     7
 10
-150.2360724825292
 20
-152.2970204977977
 30
0.0
 40
4.0
  1
95.3
 41
1.002985074626866
  7
DCSTYLE1
 72
     5
 11
-137.4360724825292
 21
-152.2970204977977
 31
0.0
  0
ENDBLK
  5
E3
  8
0
  0
BLOCK
  8
0
  2
DC_IMAGEDIMGROUP_16
 70
     0
 10
0.0
 20
0.0
 30
0.0
  3
DC_IMAGEDIMGROUP_16
  1

  0
LINE
  5
187
  8
LAYER0014
  6
CONTINUOUS
 62
     7
 10
-197.1860709566503
 20
-163.7970204977977
 30
0.0
 11
-96.1860709566503
 21
-163.7970204977977
 31
0.0
  0
INSERT
  5
188
  8
LAYER0014
 62
     7
  2
_OPEN30
 10
-197.1860709566503
 20
-163.7970204977977
 30
0.0
 41
2.499995396844351
 42
2.500007167085477
 50
180.0
  0
INSERT
  5
189
  8
LAYER0014
 62
     7
  2
_OPEN30
 10
-96.1860709566503
 20
-163.7970204977977
 30
0.0
 41
2.499995396844351
 42
2.500007167085477
 50
360.0
  0
LINE
  5
18A
  8
LAYER0014
  6
CONTINUOUS
 62
     7
 10
-197.1860709566503
 20
-136.3078151755321
 30
0.0
 11
-197.1860709566503
 21
-164.7970204977977
 31
0.0
  0
LINE
  5
18B
  8
LAYER0014
  6
CONTINUOUS
 62
     7
 10
-96.1860709566503
 20
-119.4124218039501
 30
0.0
 11
-96.1860709566503
 21
-164.7970204977977
 31
0.0
  0
TEXT
  5
18C
  8
LAYER0014
 62
     7
 10
-151.4860709566503
 20
-162.7970204977977
 30
0.0
 40
4.0
  1
101
 41
0.9882352941176494
  7
DCSTYLE1
 72
     5
 11
-141.8860709566503
 21
-162.7970204977977
 31
0.0
  0
ENDBLK
  5
E6
  8
0
  0
BLOCK
  8
0
  2
DC_IMAGEDIMGROUP_17
 70
     0
 10
0.0
 20
0.0
 30
0.0
  3
DC_IMAGEDIMGROUP_17
  1

  0
LINE
  5
18D
  8
LAYER0014
  6
CONTINUOUS
 62
     7
 10
-239.1630698799896
 20
-104.1539540915477
 30
0.0
 11
-239.1630698799896
 21
150.8460459084523
 31
0.0
  0
INSERT
  5
18E
  8
LAYER0014
 62
     7
  2
_OPEN30
 10
-239.1630698799896
 20
-104.1539540915477
 30
0.0
 41
2.499995396844351
 42
2.500007167085477
 50
270.0
  0
INSERT
  5
18F
  8
LAYER0014
 62
     7
  2
_OPEN30
 10
-239.1630698799896
 20
150.8460459084523
 30
0.0
 41
2.499995396844351
 42
2.500007167085477
 50
90.0
  0
LINE
  5
190
  8
LAYER0014
  6
CONTINUOUS
 62
     7
 10
-198.4847885686918
 20
-104.1539540915477
 30
0.0
 11
-240.1630698799896
 21
-104.1539540915477
 31
0.0
  0
LINE
  5
191
  8
LAYER0014
  6
CONTINUOUS
 62
     7
 10
-199.7260709566503
 20
150.8460459084523
 30
0.0
 11
-240.1630698799896
 21
150.8460459084523
 31
0.0
  0
TEXT
  5
192
  8
LAYER0014
 62
     7
 10
-240.1630698799896
 20
13.7460459084523
 30
0.0
 40
4.0
  1
φ255H7
 50
90.0
 41
0.861538461538461
  7
DCSTYLE1
 72
     5
 11
-240.1630698799896
 21
32.94604590845229
 31
0.0
  0
ENDBLK
  5
E9
  8
0
  0
BLOCK
  8
0
  2
DC_IMAGEDIMGROUP_18
 70
     0
 10
0.0
 20
0.0
 30
0.0
  3
DC_IMAGEDIMGROUP_18
  1

  0
LINE
  5
193
  8
LAYER0014
  6
CONTINUOUS
 62
     7
 10
-248.5374667645105
 20
-116.6539540915477
 30
0.0
 11
-248.5374667645105
 21
163.3460459084523
 31
0.0
  0
INSERT
  5
194
  8
LAYER0014
 62
     7
  2
_OPEN30
 10
-248.5374667645105
 20
-116.6539540915477
 30
0.0
 41
2.499995396844351
 42
2.500007167085477
 50
270.0
  0
INSERT
  5
195
  8
LAYER0014
 62
     7
  2
_OPEN30
 10
-248.5374667645105
 20
163.3460459084523
 30
0.0
 41
2.499995396844351
 42
2.500007167085477
 50
90.0
  0
LINE
  5
196
  8
LAYER0014
  6
CONTINUOUS
 62
     7
 10
-198.5989641360664
 20
-116.6539540915477
 30
0.0
 11
-249.5374667645105
 21
-116.6539540915477
 31
0.0
  0
LINE
  5
197
  8
LAYER0014
  6
CONTINUOUS
 62
     7
 10
-199.7260709566503
 20
163.3460459084523
 30
0.0
 11
-249.5374667645105
 21
163.3460459084523
 31
0.0
  0
TEXT
  5
198
  8
LAYER0014
 62
     7
 10
-249.5374667645105
 20
16.94604590845229
 30
0.0
 40
4.0
  1
φ280
 50
90.0
 41
0.8960000000000009
  7
DCSTYLE1
 72
     5
 11
-249.5374667645105
 21
29.7460459084523
 31
0.0
  0
ENDBLK
  5
EC
  8
0
  0
BLOCK
  8
0
  2
DC_IMAGEDIMGROUP_19
 70
     0
 10
0.0
 20
0.0
 30
0.0
  3
DC_IMAGEDIMGROUP_19
  1

  0
LINE
  5
199
  8
LAYER0014
  6
CONTINUOUS
 62
     7
 10
-191.4860740084081
 20
-142.7970204977977
 30
0.0
 11
-145.2014212984472
 21
-142.7970204977977
 31
0.0
  0
INSERT
  5
19A
  8
LAYER0014
 62
     7
  2
_OPEN30
 10
-191.4860740084081
 20
-142.7970204977977
 30
0.0
 41
2.499995396844351
 42
2.500007167085477
 50
180.0
  0
INSERT
  5
19B
  8
LAYER0014
 62
     7
  2
_OPEN30
 10
-145.2014212984472
 20
-142.7970204977977
 30
0.0
 41
2.499995396844351
 42
2.500007167085477
 50
360.0
  0
LINE
  5
19C
  8
LAYER0014
  6
CONTINUOUS
 62
     7
 10
-191.4860740084081
 20
-106.6939540915477
 30
0.0
 11
-191.4860740084081
 21
-143.7970204977977
 31
0.0
  0
LINE
  5
19D
  8
LAYER0014
  6
CONTINUOUS
 62
     7
 10
-145.2014212984472
 20
-23.19395218419907
 30
0.0
 11
-145.2014212984472
 21
-143.7970204977977
 31
0.0
  0
TEXT
  5
19E
  8
LAYER0014
 62
     7
 10
-181.1437552828222
 20
-141.1970204977977
 30
0.0
 40
4.0
  1
MAX 63.6
 41
0.8960000000000008
  7
DCSTYLE1
 72
     5
 11
-155.5437552828222
 21
-141.1970204977977
 31
0.0
  0
ENDBLK
  5
EF
  8
0
  0
BLOCK
  8
0
  2
DC_GROUP_2
 70
     0
 10
0.0
 20
0.0
 30
0.0
  3
DC_GROUP_2
  1

  0
LINE
  5
19F
  8
LAYER0014
  6
CONTINUOUS
 62
     7
 10
-97.23800000692272
 20
155.611692718017
 30
0.0
 11
-78.75253548373549
 21
176.0056333140859
 31
0.0
  0
INSERT
  5
1A0
  8
LAYER0014
 62
     7
  2
_OPEN30
 10
-97.23800000692272
 20
155.611692718017
 30
0.0
 41
2.499995396844351
 42
2.500007167085477
 50
227.8102262587681
  0
LINE
  5
1A1
  8
LAYER0014
  6
CONTINUOUS
 62
     7
 10
-78.75254307021733
 20
176.005636611419
 30
0.0
 11
-28.92286930312748
 21
176.005636611419
 31
0.0
  0
TEXT
  5
1A2
  8
LAYER0014
 62
     7
 10
-78.02439365615483
 20
177.605636611419
 30
0.0
 40
4.0
  1
ｾﾚｰｼｮﾝP1.5 山60ﾟ
 41
0.9230769230769231
  7
DCSTYLE1
 72
     5
 11
-30.02439365615483
 21
177.605636611419
 31
0.0
  0
ENDBLK
  5
F2
  8
0
  0
BLOCK
  8
0
  2
DC_IMAGEDIMGROUP_20
 70
     0
 10
0.0
 20
0.0
 30
0.0
  3
DC_IMAGEDIMGROUP_20
  1

  0
LINE
  5
1A3
  8
0
  6
CONTINUOUS
 62
     9
 10
-219.3319170305039
 20
-20.40395218419906
 30
0.0
 11
-219.3319170305039
 21
67.09604781580092
 31
0.0
  0
INSERT
  5
1A4
  8
0
 62
     9
  2
_OPEN30
 10
-219.3319170305039
 20
-20.40395218419906
 30
0.0
 41
2.499995396844351
 42
2.500007167085477
 50
270.0
  0
INSERT
  5
1A5
  8
0
 62
     9
  2
_OPEN30
 10
-219.3319170305039
 20
67.09604781580092
 30
0.0
 41
2.499995396844351
 42
2.500007167085477
 50
90.0
  0
LINE
  5
1A6
  8
0
  6
CONTINUOUS
 62
     9
 10
-147.2014212984472
 20
-20.40395218419906
 30
0.0
 11
-220.3319170305039
 21
-20.40395218419906
 31
0.0
  0
LINE
  5
1A7
  8
0
  6
CONTINUOUS
 62
     9
 10
-147.2014212984472
 20
67.09604781580092
 30
0.0
 11
-220.3319170305039
 21
67.09604781580092
 31
0.0
  0
TEXT
  5
1A8
  8
0
 62
     7
 10
-220.3319170305039
 20
12.14604781580094
 30
0.0
 40
4.0
  1
φ87.5Ｈ7
 50
90.0
 41
0.9560975609756088
  7
DCSTYLE1
 72
     5
 11
-220.3319170305039
 21
34.54604781580092
 31
0.0
  0
ENDBLK
  5
F5
  8
0
  0
BLOCK
  8
0
  2
DC_IMAGEDIMGROUP_21
 70
     0
 10
0.0
 20
0.0
 30
0.0
  3
DC_IMAGEDIMGROUP_21
  1

  0
LINE
  5
1A9
  8
0
  6
CONTINUOUS
 62
     9
 10
-208.4624520820769
 20
-11.65395218419907
 30
0.0
 11
-208.4624520820769
 21
58.34604781580093
 31
0.0
  0
INSERT
  5
1AA
  8
0
 62
     9
  2
_OPEN30
 10
-208.4624520820769
 20
-11.65395218419907
 30
0.0
 41
2.499995396844351
 42
2.500007167085477
 50
270.0
  0
INSERT
  5
1AB
  8
0
 62
     9
  2
_OPEN30
 10
-208.4624520820769
 20
58.34604781580093
 30
0.0
 41
2.499995396844351
 42
2.500007167085477
 50
90.0
  0
LINE
  5
1AC
  8
0
  6
CONTINUOUS
 62
     9
 10
-177.2014212984472
 20
-11.65395218419907
 30
0.0
 11
-209.4624520820769
 21
-11.65395218419907
 31
0.0
  0
LINE
  5
1AD
  8
0
  6
CONTINUOUS
 62
     9
 10
-177.2014212984472
 20
58.34604781580093
 30
0.0
 11
-209.4624520820769
 21
58.34604781580093
 31
0.0
  0
TEXT
  5
1AE
  8
0
 62
     7
 10
-209.4624520820769
 20
14.52604781580093
 30
0.0
 40
4.0
  1
φ70
 50
90.0
 41
0.9163636363636387
  7
DCSTYLE1
 72
     5
 11
-209.4624520820769
 21
24.12604781580095
 31
0.0
  0
TEXT
  5
1AF
  8
0
 62
     7
 10
-211.6624520820769
 20
25.12604781580095
 30
0.0
 40
2.2
  1
+0.5
 50
90.0
 41
0.9205479452054783
  7
DCSTYLE1
 72
     5
 11
-211.6624520820769
 21
32.16604781580094
 31
0.0
  0
TEXT
  5
1B0
  8
0
 62
     7
 10
-209.2624520820769
 20
25.12604781580095
 30
0.0
 40
2.2
  1
　0
 50
90.0
 41
0.9600000000000027
  7
DCSTYLE1
 72
     5
 11
-209.2624520820769
 21
28.64604781580096
 31
0.0
  0
ENDBLK
  5
F8
  8
0
  0
BLOCK
  8
0
  2
DC_IMAGEDIMGROUP_22
 70
     0
 10
0.0
 20
0.0
 30
0.0
  3
DC_IMAGEDIMGROUP_22
  1

  0
LINE
  5
1B1
  8
0
  6
CONTINUOUS
 62
     9
 10
-98.6860709566503
 20
-7.540009797095607
 30
0.0
 11
-96.1860709566503
 21
-7.540009797095607
 31
0.0
  0
LINE
  5
1B2
  8
0
  6
CONTINUOUS
 62
     9
 10
-82.6542209566503
 20
-7.540009797095607
 30
0.0
 11
-96.1860709566503
 21
-7.540009797095607
 31
0.0
  0
INSERT
  5
1B3
  8
0
 62
     9
  2
_OPEN30
 10
-96.1860709566503
 20
-7.540009797095607
 30
0.0
 41
2.499995396844351
 42
2.500007167085477
 50
180.0
  0
LINE
  5
1B4
  8
0
  6
CONTINUOUS
 62
     9
 10
-103.6860709566503
 20
-7.540009797095607
 30
0.0
 11
-98.6860709566503
 21
-7.540009797095607
 31
0.0
  0
INSERT
  5
1B5
  8
0
 62
     9
  2
_OPEN30
 10
-98.6860709566503
 20
-7.540009797095607
 30
0.0
 41
2.499995396844351
 42
2.500007167085477
 50
360.0
  0
TEXT
  5
1B6
  8
0
 62
     7
 10
-93.2542209566503
 20
-6.540009797095607
 30
0.0
 40
4.0
  1
2.5
 41
1.072340425531914
  7
DCSTYLE1
 72
     5
 11
-83.6542209566503
 21
-6.540009797095607
 31
0.0
  0
ENDBLK
  5
FB
  8
0
  0
BLOCK
  8
0
  2
DC_IMAGEDIMGROUP_23
 70
     0
 10
0.0
 20
0.0
 30
0.0
  3
DC_IMAGEDIMGROUP_23
  1

  0
LINE
  5
1B7
  8
0
  6
CONTINUOUS
 62
     9
 10
-191.4860740084081
 20
-105.1539540915477
 30
0.0
 11
-191.4860740084081
 21
-143.7794224747216
 31
0.0
  0
LINE
  5
1B8
  8
0
  6
CONTINUOUS
 62
     9
 10
-209.1860709566503
 20
-50.32895714330552
 30
0.0
 11
-209.1860709566503
 21
-143.7794224747216
 31
0.0
  0
LINE
  5
1B9
  8
0
  6
CONTINUOUS
 62
     9
 10
-209.1860709566503
 20
-142.7794224747216
 30
0.0
 11
-191.4860740084081
 21
-142.7794224747216
 31
0.0
  0
LINE
  5
1BA
  8
0
  6
CONTINUOUS
 62
     9
 10
-225.9179209566503
 20
-142.7794224747216
 30
0.0
 11
-209.1860709566503
 21
-142.7794224747216
 31
0.0
  0
INSERT
  5
1BB
  8
0
 62
     9
  2
_OPEN30
 10
-209.1860709566503
 20
-142.7794224747216
 30
0.0
 41
2.499995396844351
 42
2.500007167085477
 50
360.0
  0
LINE
  5
1BC
  8
0
  6
CONTINUOUS
 62
     9
 10
-186.4860740084081
 20
-142.7794224747216
 30
0.0
 11
-191.4860740084081
 21
-142.7794224747216
 31
0.0
  0
INSERT
  5
1BD
  8
0
 62
     9
  2
_OPEN30
 10
-191.4860740084081
 20
-142.7794224747216
 30
0.0
 41
2.499995396844351
 42
2.500007167085477
 50
180.0
  0
TEXT
  5
1BE
  8
0
 62
     7
 10
-224.9179209566503
 20
-141.7794224747216
 30
0.0
 40
4.0
  1
17.7
 41
1.002985074626866
  7
DCSTYLE1
 72
     5
 11
-212.1179209566503
 21
-141.7794224747216
 31
0.0
  0
ENDBLK
  5
FE
  8
0
  0
BLOCK
  8
0
  2
DC_GROUP_3
 70
     0
 10
0.0
 20
0.0
 30
0.0
  3
DC_GROUP_3
  1

  0
LINE
  5
1BF
  8
0
  6
CONTINUOUS
 62
     7
 10
-144.4534369604578
 20
-116.6539540915477
 30
0.0
 11
-130.4812022069819
 21
-135.0414966215293
 31
0.0
  0
INSERT
  5
1C0
  8
0
 62
     7
  2
_OPEN30
 10
-144.4534369604578
 20
-116.6539540915477
 30
0.0
 41
2.499995396844351
 42
2.500007167085477
 50
127.2302956438795
  0
LINE
  5
1C1
  8
0
  6
CONTINUOUS
 62
     7
 10
-130.4812022069819
 20
-135.0414966215293
 30
0.0
 11
-111.2812022069819
 21
-135.0414966215293
 31
0.0
  0
TEXT
  5
1C2
  8
0
 62
     7
 10
-130.4812022069819
 20
-135.0414966215293
 30
0.0
 40
4.0
  1
M12×25
 41
0.847058823529412
  7
DCSTYLE1
 72
     5
 11
-111.2812022069819
 21
-135.0414966215293
 31
0.0
  0
ENDBLK
  5
101
  8
0
  0
BLOCK
  8
0
  2
DC_IMAGEDIMGROUP_24
 70
     0
 10
0.0
 20
0.0
 30
0.0
  3
DC_IMAGEDIMGROUP_24
  1

  0
LINE
  5
1C3
  8
0
  6
CONTINUOUS
 62
     9
 10
-144.4860709566503
 20
-121.5368026254103
 30
0.0
 11
-144.4860709566503
 21
-131.7287798093702
 31
0.0
  0
LINE
  5
1C4
  8
0
  6
CONTINUOUS
 62
     9
 10
-191.4860740084081
 20
-105.1539540915477
 30
0.0
 11
-191.4860740084081
 21
-131.7287798093702
 31
0.0
  0
LINE
  5
1C5
  8
0
  6
CONTINUOUS
 62
     9
 10
-191.4860740084081
 20
-130.7287798093702
 30
0.0
 11
-144.4860709566503
 21
-130.7287798093702
 31
0.0
  0
INSERT
  5
1C6
  8
0
 62
     9
  2
_OPEN30
 10
-191.4860740084081
 20
-130.7287798093702
 30
0.0
 41
2.499995396844351
 42
2.500007167085477
 50
180.0
  0
INSERT
  5
1C7
  8
0
 62
     9
  2
_OPEN30
 10
-144.4860709566503
 20
-130.7287798093702
 30
0.0
 41
2.499995396844351
 42
2.500007167085477
 50
360.0
  0
TEXT
  5
1C8
  8
0
 62
     7
 10
-171.1860724825292
 20
-129.7287798093702
 30
0.0
 40
4.0
  1
47
 41
0.9081081081081049
  7
DCSTYLE1
 72
     5
 11
-164.7860724825292
 21
-129.7287798093702
 31
0.0
  0
ENDBLK
  5
104
  8
0
  0
BLOCK
  8
0
  2
DC_IMAGEDIMGROUP_25
 70
     0
 10
0.0
 20
0.0
 30
0.0
  3
DC_IMAGEDIMGROUP_25
  1

  0
LINE
  5
1C9
  8
LAYER0014
  6
CONTINUOUS
 62
     7
 10
126.3255573968596
 20
-24.31684719898647
 30
0.0
 11
119.4087755373333
 21
1.496933909278933
 31
0.0
  0
ARC
  5
1CA
  8
LAYER0014
  6
CONTINUOUS
 62
     7
 10
113.5543312650294
 20
23.34604573714597
 30
0.0
 40
23.85581207275391
 50
270.0000179860893
 51
285.0000081582186
  0
ARC
  5
1CB
  8
LAYER0014
  6
CONTINUOUS
 62
     7
 10
113.5543312650294
 20
23.34604573714597
 30
0.0
 40
23.85581207275391
 50
270.0000179860893
 51
285.0000081582186
  0
TEXT
  5
1CC
  8
LAYER0014
 62
     7
 10
114.0677077184867
 20
0.5896992372168142
 30
0.0
 40
4.0
  1
15ﾟ
 50
13.39999999999999
 41
0.9163636363636368
  7
DCSTYLE1
 72
     5
 11
123.406356149297
 21
2.814479110760724
 31
0.0
  0
ENDBLK
  5
107
  8
0
  0
BLOCK
  8
0
  2
DC_GROUP_4
 70
     0
 10
0.0
 20
0.0
 30
0.0
  3
DC_GROUP_4
  1

  0
LINE
  5
1CD
  8
LAYER0014
  6
CONTINUOUS
 62
     7
 10
90.65737464577478
 20
-49.7313867017495
 30
0.0
 11
57.1767528409633
 21
-122.2970317731571
 31
0.0
  0
INSERT
  5
1CE
  8
LAYER0014
 62
     7
  2
_OPEN30
 10
90.65737464577478
 20
-49.7313867017495
 30
0.0
 41
2.499995396844351
 42
2.500007167085477
 50
65.23215947211796
  0
LINE
  5
1CF
  8
LAYER0014
  6
CONTINUOUS
 62
     7
 10
57.17675252967783
 20
-122.2970302058472
 30
0.0
 11
26.5470833402247
 21
-122.2970302058472
 31
0.0
  0
TEXT
  5
1D0
  8
LAYER0014
 62
     7
 10
27.64214864784189
 20
-120.6970302058472
 30
0.0
 40
4.0
  1
PCD133.35
 41
0.8894117647058822
  7
DCSTYLE1
 72
     5
 11
56.44214864784189
 21
-120.6970302058472
 31
0.0
  0
ENDBLK
  5
10A
  8
0
  0
BLOCK
  8
0
  2
DC_GROUP_5
 70
     0
 10
0.0
 20
0.0
 30
0.0
  3
DC_GROUP_5
  1

  0
LINE
  5
1D1
  8
LAYER0014
  6
CONTINUOUS
 62
     7
 10
115.8946698638973
 20
-39.85754277662153
 30
0.0
 11
162.1767466525394
 21
-122.2970247769578
 31
0.0
  0
INSERT
  5
1D2
  8
LAYER0014
 62
     7
  2
_OPEN30
 10
115.8946698638973
 20
-39.85754277662153
 30
0.0
 41
2.499995396844351
 42
2.500007167085477
 50
119.3101457003326
  0
LINE
  5
1D3
  8
LAYER0014
  6
CONTINUOUS
 62
     7
 10
162.1767525296778
 20
-122.2970302058472
 30
0.0
 11
210.7642616849513
 21
-122.2970302058472
 31
0.0
  0
TEXT
  5
1D4
  8
LAYER0014
 62
     7
 10
164.1356911283106
 20
-120.6970302058472
 30
0.0
 40
4.0
  1
3-M8×15 PCD120
 41
0.8138408304498271
  7
DCSTYLE1
 72
     5
 11
208.9356911283107
 21
-120.6970302058472
 31
0.0
  0
ENDBLK
  5
10D
  8
0
  0
BLOCK
  8
0
  2
DC_IMAGEDIMGROUP_26
 70
     0
 10
0.0
 20
0.0
 30
0.0
  3
DC_IMAGEDIMGROUP_26
  1

  0
LINE
  5
1D5
  8
LAYER0014
  6
CONTINUOUS
 62
     7
 10
-14.88893427966547
 20
-39.26370618994981
 30
0.0
 11
-32.48153766104375
 21
-49.42080188105678
 31
0.0
  0
LINE
  5
1D6
  8
LAYER0014
  6
CONTINUOUS
 62
     7
 10
-4.888928895215492
 20
-56.58421214029858
 30
0.0
 11
-22.48153965131817
 21
-66.74130645319889
 31
0.0
  0
LINE
  5
1D7
  8
LAYER0014
  6
CONTINUOUS
 62
     7
 10
-30.50180423139219
 20
-48.27780209575275
 30
0.0
 11
-20.50180494664815
 21
-65.59830655694435
 31
0.0
  0
INSERT
  5
1D8
  8
LAYER0014
 62
     7
  2
_OPEN30
 10
-30.50180423139219
 20
-48.27780209575275
 30
0.0
 41
2.499995396844351
 42
2.500007167085477
 50
120.0000034028506
  0
INSERT
  5
1D9
  8
LAYER0014
 62
     7
  2
_OPEN30
 10
-20.50180494664815
 20
-65.59830655694435
 30
0.0
 41
2.499995396844351
 42
2.500007167085477
 50
300.0000034028507
  0
TEXT
  5
1DA
  8
LAYER0014
 62
     7
 10
-27.31616517387645
 20
-50.59548935014242
 30
0.0
 40
4.0
  1
20H8
 50
300.0
 41
0.8506329113924049
  7
DCSTYLE1
 72
     5
 11
-20.91616517387645
 21
-61.68061451858323
 31
0.0
  0
ENDBLK
  5
110
  8
0
  0
BLOCK
  8
0
  2
DC_IMAGEDIMGROUP_27
 70
     0
 10
0.0
 20
0.0
 30
0.0
  3
DC_IMAGEDIMGROUP_27
  1

  0
LINE
  5
1DB
  8
LAYER0014
  6
CONTINUOUS
 62
     7
 10
-21.13893760830562
 20
-28.43838905993059
 30
0.0
 11
-46.95574793895784
 21
-43.34372980717927
 31
0.0
  0
LINE
  5
1DC
  8
LAYER0014
  6
CONTINUOUS
 62
     7
 10
1.361065307889044
 20
-67.40953395744017
 30
0.0
 11
-24.45574832638809
 21
-82.31487661203738
 31
0.0
  0
LINE
  5
1DD
  8
LAYER0014
  6
CONTINUOUS
 62
     7
 10
-46.08972344478664
 20
-42.84372818516914
 30
0.0
 11
-23.58972287854263
 21
-81.8148766418397
 31
0.0
  0
INSERT
  5
1DE
  8
LAYER0014
 62
     7
  2
_OPEN30
 10
-46.08972344478664
 20
-42.84372818516914
 30
0.0
 41
2.499995396844351
 42
2.500007167085477
 50
119.9999972589655
  0
INSERT
  5
1DF
  8
LAYER0014
 62
     7
  2
_OPEN30
 10
-23.58972287854263
 20
-81.8148766418397
 30
0.0
 41
2.499995396844351
 42
2.500007167085477
 50
299.9999972589655
  0
TEXT
  5
1E0
  8
LAYER0014
 62
     7
 10
-35.05408250175731
 20
-58.75802125260418
 30
0.0
 40
4.0
  1
45
 50
300.0
 41
0.9081081081081082
  7
DCSTYLE1
 72
     5
 11
-31.8540825017573
 21
-64.30058383682459
 31
0.0
  0
ENDBLK
  5
113
  8
0
  0
BLOCK
  8
0
  2
DC_IMAGEDIMGROUP_28
 70
     0
 10
0.0
 20
0.0
 30
0.0
  3
DC_IMAGEDIMGROUP_28
  1

  0
LINE
  5
1E1
  8
LAYER0014
  6
CONTINUOUS
 62
     7
 10
158.7341125065342
 20
49.43059661781721
 30
0.0
 11
132.2343427251231
 21
34.1309594047728
 31
0.0
  0
ARC
  5
1E2
  8
LAYER0014
  6
CONTINUOUS
 62
     7
 10
113.5543312650294
 20
23.34603810775144
 30
0.0
 40
23.85582160949707
 50
0.0
 51
29.99999741973147
  0
INSERT
  5
1E3
  8
LAYER0014
 62
     7
  2
_OPEN30
 10
137.4101528745265
 20
23.34603810775144
 30
0.0
 41
2.499995396844351
 42
2.500007167085477
 50
273.0021860609407
  0
INSERT
  5
1E4
  8
LAYER0014
 62
     7
  2
_OPEN30
 10
134.2140793441673
 20
35.27394798210514
 30
0.0
 41
2.499995396844351
 42
2.500007167085477
 50
116.9978113587906
  0
TEXT
  5
1E5
  8
LAYER0014
 62
     7
 10
137.432973618272
 20
33.40083219041993
 30
0.0
 40
4.0
  1
30ﾟ
 50
282.0999999999999
 41
0.916363636363638
  7
DCSTYLE1
 72
     5
 11
139.4453118221487
 21
24.01411311753729
 31
0.0
  0
ENDBLK
  5
116
  8
0
  0
BLOCK
  8
0
  2
DC_IMAGEDIMGROUP_29
 70
     0
 10
0.0
 20
0.0
 30
0.0
  3
DC_IMAGEDIMGROUP_29
  1

  0
ARC
  5
1E6
  8
LAYER0014
  6
CONTINUOUS
 62
     7
 10
113.5543312650294
 20
23.34603810775144
 30
0.0
 40
23.8558177947998
 50
284.9999944978402
 51
330.0000025802685
  0
INSERT
  5
1E7
  8
LAYER0014
 62
     7
  2
_OPEN30
 10
119.7286690339861
 20
0.3030869995812573
 30
0.0
 41
2.499995396844351
 42
2.500007167085477
 50
198.0021810388499
  0
INSERT
  5
1E8
  8
LAYER0014
 62
     7
  2
_OPEN30
 10
134.2140760405425
 20
11.41813014074621
 30
0.0
 41
2.499995396844351
 42
2.500007167085477
 50
56.99781603925919
  0
TEXT
  5
1E9
  8
LAYER0014
 62
     7
 10
124.1703108982662
 20
3.211934179548776
 30
0.0
 40
4.0
  1
45ﾟ
 50
39.89999999999999
 41
0.9163636363636365
  7
DCSTYLE1
 72
     5
 11
131.5350963556931
 21
9.36985064261269
 31
0.0
  0
ENDBLK
  5
119
  8
0
  0
BLOCK
  8
0
  2
DC_IMAGEDIMGROUP_30
 70
     0
 10
0.0
 20
0.0
 30
0.0
  3
DC_IMAGEDIMGROUP_30
  1

  0
ARC
  5
1EA
  8
LAYER0014
  6
CONTINUOUS
 62
     7
 10
113.5543312650294
 20
23.34603810775144
 30
0.0
 40
23.85581398010254
 50
330.0000025802685
 51
0.0
  0
INSERT
  5
1EB
  8
LAYER0014
 62
     7
  2
_OPEN30
 10
134.2140727369176
 20
11.4181320480947
 30
0.0
 41
2.499995396844351
 42
2.500007167085477
 50
243.0021896013465
  0
INSERT
  5
1EC
  8
LAYER0014
 62
     7
  2
_OPEN30
 10
137.4101452451319
 20
23.34603810775143
 30
0.0
 41
2.499995396844351
 42
2.500007167085477
 50
86.99781297892173
  0
TEXT
  5
1ED
  8
LAYER0014
 62
     7
 10
133.9542375156742
 20
13.23945478838545
 30
0.0
 40
4.0
  1
30ﾟ
 50
75.79999999999994
 41
0.9163636363636388
  7
DCSTYLE1
 72
     5
 11
136.3091884201107
 21
22.54613014737881
 31
0.0
  0
ENDBLK
  5
11C
  8
0
  0
BLOCK
  8
0
  2
DC_IMAGEDIMGROUP_31
 70
     0
 10
0.0
 20
0.0
 30
0.0
  3
DC_IMAGEDIMGROUP_31
  1

  0
LINE
  5
1EE
  8
0
  6
CONTINUOUS
 62
     9
 10
107.6419521401326
 20
1.280748533965118
 30
0.0
 11
100.438672990606
 21
-25.60225191234478
 31
0.0
  0
ARC
  5
1EF
  8
0
  6
CONTINUOUS
 62
     9
 10
113.5543312650294
 20
23.34604509598961
 30
0.0
 40
23.84367613337672
 50
229.2932546570306
 51
254.9999982305801
  0
INSERT
  5
1F0
  8
0
 62
     9
  2
_OPEN30
 10
107.3831330652002
 20
0.3148227156689529
 30
0.0
 41
2.499995396844351
 42
2.500007167085477
 50
341.9962829180712
  0
ARC
  5
1F1
  8
0
  6
CONTINUOUS
 62
     7
 10
113.5543312650294
 20
23.34604509598961
 30
0.0
 40
23.84367613337672
 50
254.9999982305801
 51
270.0
  0
INSERT
  5
1F7
  8
0
 62
     7
  2
_DOTBLANK
 10
112.3047607700479
 20
-0.4648655361435168
 30
0.0
 41
2.5
 42
2.5
 50
353.9922207143065
  0
TEXT
  5
1F8
  8
0
 62
     7
 10
98.15200600067732
 20
5.806321160371155
 30
0.0
 40
4.0
  1
15°
 50
330.578925114621
 41
1.119999999999999
  7
DCSTYLE1
 72
     5
 11
106.5139245762537
 21
1.090569074496649
 31
0.0
  0
ENDBLK
  5
11F
  8
0
  0
BLOCK
  8
0
  2
DC_IMAGEDIMGROUP_32
 70
     0
 10
0.0
 20
0.0
 30
0.0
  3
DC_IMAGEDIMGROUP_32
  1

  0
LINE
  5
1F9
  8
0
  6
CONTINUOUS
 62
     9
 10
74.05421835845766
 20
30.01202632896824
 30
0.0
 11
74.05421835845766
 21
47.80408323517863
 31
0.0
  0
LINE
  5
1FA
  8
0
  6
CONTINUOUS
 62
     9
 10
153.0542181158429
 20
30.01202632896824
 30
0.0
 11
153.0542181158429
 21
47.80408323517863
 31
0.0
  0
LINE
  5
1FB
  8
0
  6
CONTINUOUS
 62
     9
 10
74.05421835845766
 20
46.80408323517863
 30
0.0
 11
153.0542181158429
 21
46.80408323517863
 31
0.0
  0
INSERT
  5
1FC
  8
0
 62
     9
  2
_OPEN30
 10
74.05421835845766
 20
46.80408323517863
 30
0.0
 41
2.499995396844351
 42
2.500007167085477
 50
180.0
  0
INSERT
  5
1FD
  8
0
 62
     9
  2
_OPEN30
 10
153.0542181158429
 20
46.80408323517863
 30
0.0
 41
2.499995396844351
 42
2.500007167085477
 50
360.0
  0
TEXT
  5
1FE
  8
0
 62
     7
 10
105.5542182371503
 20
47.80408323517863
 30
0.0
 40
4.0
  1
PCD79
 41
0.8484848484848485
  7
DCSTYLE1
 72
     5
 11
121.5542182371503
 21
47.80408323517863
 31
0.0
  0
ENDBLK
  5
122
  8
0
  0
BLOCK
  8
0
  2
DC_GROUP_6
 70
     0
 10
0.0
 20
0.0
 30
0.0
  3
DC_GROUP_6
  1

  0
LINE
  5
1FF
  8
0
  6
CONTINUOUS
 62
     7
 10
154.6281211622926
 20
26.01674644020316
 30
0.0
 11
196.5056929721241
 21
150.8009422850411
 31
0.0
  0
INSERT
  5
200
  8
0
 62
     7
  2
_OPEN30
 10
154.6281211622926
 20
26.01674644020316
 30
0.0
 41
2.499995396844351
 42
2.500007167085477
 50
251.4482491563774
  0
LINE
  5
201
  8
0
  6
CONTINUOUS
 62
     7
 10
196.5056929721241
 20
150.8009422850411
 30
0.0
 11
215.7056929721242
 21
150.8009422850411
 31
0.0
  0
TEXT
  5
202
  8
0
 62
     7
 10
196.5056929721241
 20
150.8009422850411
 30
0.0
 40
4.0
  1
2-φ6.2
 41
0.9081081081081089
  7
DCSTYLE1
 72
     5
 11
215.7056929721242
 21
150.8009422850411
 31
0.0
  0
ENDBLK
  5
125
  8
0
  0
BLOCK
  8
0
  2
_OPEN30
 70
     0
 10
0.0
 20
0.0
 30
0.0
  3
_OPEN30
  1

  0
LINE
  5
12C
  8
0
  6
BYBLOCK
 62
     0
 10
-1.0
 20
0.267949
 30
0.0
 11
0.0
 21
0.0
 31
0.0
  0
LINE
  5
12D
  8
0
  6
BYBLOCK
 62
     0
 10
0.0
 20
0.0
 30
0.0
 11
-1.0
 21
-0.267949
 31
0.0
  0
LINE
  5
12E
  8
0
  6
BYBLOCK
 62
     0
 10
0.0
 20
0.0
 30
0.0
 11
-1.0
 21
0.0
 31
0.0
  0
ENDBLK
  5
12B
  8
0
  0
BLOCK
  8
0
  2
_DOTBLANK
 70
     0
 10
0.0
 20
0.0
 30
0.0
  3
_DOTBLANK
  1

  0
CIRCLE
  5
1F5
  8
0
  6
BYBLOCK
 62
     0
 10
0.0
 20
0.0
 30
0.0
 40
0.5
  0
LINE
  5
1F6
  8
0
  6
BYBLOCK
 62
     0
 10
-0.5
 20
0.0
 30
0.0
 11
-1.0
 21
0.0
 31
0.0
  0
ENDBLK
  5
1F4
  8
0
  0
ENDSEC
  0
SECTION
  2
ENTITIES
  0
LINE
  5
203
  8
ZUWAKU
  6
CONTINUOUS
 62
     3
 10
-277.0
 20
-190.0
 30
0.0
 11
-277.0
 21
190.0
 31
0.0
  0
LINE
  5
204
  8
ZUWAKU
  6
CONTINUOUS
 62
     3
 10
277.0
 20
-190.0
 30
0.0
 11
277.0
 21
190.0
 31
0.0
  0
LINE
  5
205
  8
ZUWAKU
  6
CONTINUOUS
 62
     3
 10
-277.0
 20
-190.0
 30
0.0
 11
277.0
 21
-190.0
 31
0.0
  0
LINE
  5
206
  8
ZUWAKU
  6
CONTINUOUS
 62
     3
 10
-277.0
 20
189.9999999999999
 30
0.0
 11
277.0
 21
189.9999999999999
 31
0.0
  0
LINE
  5
207
  8
ZUWAKU
  6
CONTINUOUS
 62
     3
 10
97.00000000000001
 20
-190.0
 30
0.0
 11
97.00000000000001
 21
-130.0
 31
0.0
  0
LINE
  5
208
  8
ZUWAKU
  6
CONTINUOUS
 62
     3
 10
97.00000000000001
 20
-176.0
 30
0.0
 11
277.0
 21
-176.0
 31
0.0
  0
LINE
  5
209
  8
ZUWAKU
  6
CONTINUOUS
 62
     3
 10
146.0
 20
-162.0
 30
0.0
 11
277.0
 21
-162.0
 31
0.0
  0
LINE
  5
20A
  8
ZUWAKU
  6
CONTINUOUS
 62
     3
 10
146.0
 20
-148.0
 30
0.0
 11
277.0
 21
-148.0
 31
0.0
  0
LINE
  5
20B
  8
ZUWAKU
  6
CONTINUOUS
 62
     3
 10
146.0
 20
-138.0
 30
0.0
 11
277.0
 21
-138.0
 31
0.0
  0
LINE
  5
20C
  8
ZUWAKU
  6
CONTINUOUS
 62
     3
 10
146.0
 20
-176.0
 30
0.0
 11
146.0
 21
-130.0
 31
0.0
  0
LINE
  5
20D
  8
ZUWAKU
  6
CONTINUOUS
 62
     3
 10
255.0
 20
-176.0
 30
0.0
 11
255.0
 21
-130.0
 31
0.0
  0
LINE
  5
20E
  8
ZUWAKU
  6
CONTINUOUS
 62
     3
 10
171.0
 20
-190.0
 30
0.0
 11
171.0
 21
-176.0
 31
0.0
  0
LINE
  5
20F
  8
ZUWAKU
  6
CONTINUOUS
 62
     3
 10
262.0
 20
-188.0
 30
0.0
 11
272.0
 21
-188.0
 31
0.0
  0
LINE
  5
210
  8
ZUWAKU
  6
CONTINUOUS
 62
     3
 10
267.0
 20
-178.0
 30
0.0
 11
262.0
 21
-188.0
 31
0.0
  0
LINE
  5
211
  8
ZUWAKU
  6
CONTINUOUS
 62
     3
 10
267.0
 20
-178.0
 30
0.0
 11
272.0
 21
-188.0
 31
0.0
  0
LINE
  5
212
  8
ZUWAKU
  6
CONTINUOUS
 62
     3
 10
97.00000000000001
 20
-130.0
 30
0.0
 11
277.0
 21
-130.0
 31
0.0
  0
LINE
  5
213
  8
ZUWAKU
  6
CONTINUOUS
 62
     3
 10
226.0
 20
-176.0
 30
0.0
 11
226.0
 21
-148.0
 31
0.0
  0
LINE
  5
214
  8
ZUWAKU
  6
CONTINUOUS
 62
     4
 10
105.0
 20
-172.0
 30
0.0
 11
105.0
 21
-130.0
 31
0.0
  0
LINE
  5
215
  8
ZUWAKU
  6
CONTINUOUS
 62
     4
 10
109.0
 20
-172.0
 30
0.0
 11
109.0
 21
-130.0
 31
0.0
  0
LINE
  5
216
  8
ZUWAKU
  6
CONTINUOUS
 62
     4
 10
121.5
 20
-176.0
 30
0.0
 11
121.5
 21
-130.0
 31
0.0
  0
LINE
  5
217
  8
ZUWAKU
  6
CONTINUOUS
 62
     4
 10
97.00000000000001
 20
-137.0
 30
0.0
 11
146.0
 21
-137.0
 31
0.0
  0
LINE
  5
218
  8
ZUWAKU
  6
CONTINUOUS
 62
     4
 10
97.00000000000001
 20
-144.0
 30
0.0
 11
146.0
 21
-144.0
 31
0.0
  0
LINE
  5
219
  8
ZUWAKU
  6
CONTINUOUS
 62
     4
 10
97.00000000000001
 20
-165.0
 30
0.0
 11
146.0
 21
-165.0
 31
0.0
  0
LINE
  5
21A
  8
ZUWAKU
  6
CONTINUOUS
 62
     4
 10
97.00000000000001
 20
-172.0
 30
0.0
 11
146.0
 21
-172.0
 31
0.0
  0
LINE
  5
21B
  8
ZUWAKU
  6
CONTINUOUS
 62
     4
 10
255.0
 20
-166.0
 30
0.0
 11
277.0
 21
-166.0
 31
0.0
  0
LINE
  5
21C
  8
ZUWAKU
  6
CONTINUOUS
 62
     4
 10
153.0
 20
-139.5
 30
0.0
 11
153.0
 21
-130.0
 31
0.0
  0
LINE
  5
21D
  8
ZUWAKU
  6
CONTINUOUS
 62
     4
 10
202.0
 20
-148.0
 30
0.0
 11
202.0
 21
-146.5
 31
0.0
  0
LINE
  5
21E
  8
ZUWAKU
  6
CONTINUOUS
 62
     4
 10
226.0
 20
-148.0
 30
0.0
 11
226.0
 21
-146.5
 31
0.0
  0
LINE
  5
21F
  8
ZUWAKU
  6
CONTINUOUS
 62
     4
 10
243.0
 20
-148.0
 30
0.0
 11
243.0
 21
-146.5
 31
0.0
  0
LINE
  5
220
  8
ZUWAKU
  6
CONTINUOUS
 62
     4
 10
202.0
 20
-139.5
 30
0.0
 11
202.0
 21
-130.0
 31
0.0
  0
LINE
  5
221
  8
ZUWAKU
  6
CONTINUOUS
 62
     4
 10
226.0
 20
-139.5
 30
0.0
 11
226.0
 21
-130.0
 31
0.0
  0
LINE
  5
222
  8
ZUWAKU
  6
CONTINUOUS
 62
     4
 10
243.0
 20
-139.5
 30
0.0
 11
243.0
 21
-130.0
 31
0.0
  0
LINE
  5
223
  8
ZUWAKU
  6
CONTINUOUS
 62
     4
 10
97.00000000000001
 20
-151.0
 30
0.0
 11
146.0
 21
-151.0
 31
0.0
  0
LINE
  5
224
  8
ZUWAKU
  6
CONTINUOUS
 62
     4
 10
97.00000000000001
 20
-158.0
 30
0.0
 11
146.0
 21
-158.0
 31
0.0
  0
LINE
  5
225
  8
ZUWAKU
  6
CONTINUOUS
 62
     4
 10
101.0
 20
-130.5
 30
0.0
 11
98.00000000000001
 21
-136.5
 31
0.0
  0
LINE
  5
226
  8
ZUWAKU
  6
CONTINUOUS
 62
     4
 10
101.0
 20
-130.5
 30
0.0
 11
104.0
 21
-136.5
 31
0.0
  0
LINE
  5
227
  8
ZUWAKU
  6
CONTINUOUS
 62
     4
 10
98.00000000000001
 20
-136.5
 30
0.0
 11
104.0
 21
-136.5
 31
0.0
  0
LINE
  5
228
  8
ZUWAKU
  6
CONTINUOUS
 62
     4
 10
101.0
 20
-158.5
 30
0.0
 11
98.00000000000001
 21
-164.5
 31
0.0
  0
LINE
  5
229
  8
ZUWAKU
  6
CONTINUOUS
 62
     4
 10
101.0
 20
-158.5
 30
0.0
 11
104.0
 21
-164.5
 31
0.0
  0
LINE
  5
22A
  8
ZUWAKU
  6
CONTINUOUS
 62
     4
 10
98.00000000000001
 20
-164.5
 30
0.0
 11
104.0
 21
-164.5
 31
0.0
  0
LINE
  5
22B
  8
ZUWAKU
  6
CONTINUOUS
 62
     4
 10
101.0
 20
-151.5
 30
0.0
 11
98.00000000000001
 21
-157.5
 31
0.0
  0
LINE
  5
22C
  8
ZUWAKU
  6
CONTINUOUS
 62
     4
 10
101.0
 20
-151.5
 30
0.0
 11
104.0
 21
-157.5
 31
0.0
  0
LINE
  5
22D
  8
ZUWAKU
  6
CONTINUOUS
 62
     4
 10
98.00000000000001
 20
-157.5
 30
0.0
 11
104.0
 21
-157.5
 31
0.0
  0
LINE
  5
22E
  8
ZUWAKU
  6
CONTINUOUS
 62
     4
 10
101.0
 20
-144.5
 30
0.0
 11
98.00000000000001
 21
-150.5
 31
0.0
  0
LINE
  5
22F
  8
ZUWAKU
  6
CONTINUOUS
 62
     4
 10
101.0
 20
-144.5
 30
0.0
 11
104.0
 21
-150.5
 31
0.0
  0
LINE
  5
230
  8
ZUWAKU
  6
CONTINUOUS
 62
     4
 10
98.00000000000001
 20
-150.5
 30
0.0
 11
104.0
 21
-150.5
 31
0.0
  0
LINE
  5
231
  8
ZUWAKU
  6
CONTINUOUS
 62
     4
 10
101.0
 20
-137.5
 30
0.0
 11
98.00000000000001
 21
-143.5
 31
0.0
  0
LINE
  5
232
  8
ZUWAKU
  6
CONTINUOUS
 62
     4
 10
101.0
 20
-137.5
 30
0.0
 11
104.0
 21
-143.5
 31
0.0
  0
LINE
  5
233
  8
ZUWAKU
  6
CONTINUOUS
 62
     4
 10
98.00000000000001
 20
-143.5
 30
0.0
 11
104.0
 21
-143.5
 31
0.0
  0
LINE
  5
234
  8
ZUWAKU
  6
CONTINUOUS
 62
     4
 10
172.6666666666666
 20
-176.0
 30
0.0
 11
172.6666666666666
 21
-162.0
 31
0.0
  0
LINE
  5
235
  8
ZUWAKU
  6
CONTINUOUS
 62
     4
 10
199.3333333333333
 20
-176.0
 30
0.0
 11
199.3333333333333
 21
-161.9509415757253
 31
0.0
  0
LINE
  5
236
  8
ZUWAKU
  6
CONTINUOUS
 62
     4
 10
212.6666666666666
 20
-167.5
 30
0.0
 11
212.6666666666666
 21
-161.9509415757253
 31
0.0
  0
LINE
  5
237
  8
ZUWAKU
  6
CONTINUOUS
 62
     4
 10
226.0
 20
-155.0
 30
0.0
 11
255.0
 21
-155.0
 31
0.0
  0
LINE
  5
238
  8
ZUWAKU
  6
CONTINUOUS
 62
     4
 10
146.0
 20
-166.0
 30
0.0
 11
226.0
 21
-166.0
 31
0.0
  0
TEXT
  5
23A
  8
ZUWAKU
 62
     7
 10
149.5932301474747
 20
-130.8211887289559
 30
0.0
 40
2.6656
  1
符号
 41
0.8
  7
DCSTYLE0
  0
TEXT
  5
23B
  8
ZUWAKU
 62
     7
 10
162.4141311219058
 20
-135.8245525019963
 30
0.0
 40
4.0
  1
品       名
 41
0.8400000000000003
  7
DCSTYLE1
 72
     5
 11
191.2141311219058
 21
-135.8245525019963
 31
0.0
  0
TEXT
  5
23C
  8
ZUWAKU
 62
     7
 10
207.2331564413096
 20
-135.8245525019963
 30
0.0
 40
4.0
  1
材  料
 41
0.8960000000000009
  7
DCSTYLE1
 72
     5
 11
220.0331564413096
 21
-135.8245525019963
 31
0.0
  0
TEXT
  5
23D
  8
ZUWAKU
 62
     7
 10
229.516061684855
 20
-135.8245525019963
 30
0.0
 40
4.0
  1
個 数
 41
0.9333333333333329
  7
DCSTYLE1
 72
     5
 11
239.116061684855
 21
-135.8245525019963
 31
0.0
  0
TEXT
  5
23E
  8
ZUWAKU
 62
     7
 10
245.721810952888
 20
-133.5649080050572
 30
0.0
 40
2.5
  1
単重量
 41
0.9882352941176471
  7
DCSTYLE1
 72
     5
 11
251.721810952888
 21
-133.5649080050572
 31
0.0
  0
TEXT
  5
23F
  8
ZUWAKU
 62
     7
 10
244.7089516236359
 20
-137.3631304897525
 30
0.0
 40
2.5
  1
(kg)
 41
1.12
  7
DCSTYLE1
 72
     5
 11
252.7089516236359
 21
-137.3631304897525
 31
0.0
  0
TEXT
  5
240
  8
ZUWAKU
 62
     7
 10
259.1421970654778
 20
-135.8245525019963
 30
0.0
 40
4.0
  1
記  事
 41
0.8960000000000009
  7
DCSTYLE1
 72
     5
 11
271.9421970654778
 21
-135.8245525019963
 31
0.0
  0
TEXT
  5
241
  8
ZUWAKU
 62
     7
 10
258.8450794551645
 20
-165.4873041997729
 30
0.0
 40
3.0
  1
コード番号
 41
0.9655172413793105
  7
DCSTYLE1
 72
     5
 11
270.8450794551645
 21
-165.4873041997729
 31
0.0
  0
TEXT
  5
242
  8
ZUWAKU
 62
     7
 10
101.9119920158317
 20
-175.1879010540338
 30
0.0
 40
2.5
  1
訂 正 来 歴
 41
0.8909090909090911
  7
DCSTYLE1
 72
     5
 11
115.9119920158317
 21
-175.1879010540338
 31
0.0
  0
TEXT
  5
243
  8
ZUWAKU
 62
     7
 10
125.890334846765
 20
-175.2166697391651
 30
0.0
 40
2.5
  1
工 事 番 号
 41
0.8909090909090911
  7
DCSTYLE1
 72
     5
 11
139.890334846765
 21
-175.2166697391651
 31
0.0
  0
TEXT
  5
244
  8
ZUWAKU
 62
     7
 10
100.9648378466029
 20
-165.9634530565915
 30
0.0
 40
2.0825
  1
記号
 41
0.8
  7
DCSTYLE0
  0
TEXT
  5
245
  8
ZUWAKU
 62
     7
 10
106.9042249067618
 20
-165.9634530565915
 30
0.0
 40
2.0825
  1
理由
 41
0.8
  7
DCSTYLE0
  0
TEXT
  5
246
  8
ZUWAKU
 62
     7
 10
111.6193667909843
 20
-169.8786046700178
 30
0.0
 40
3.0
  1
日 付
 41
0.9333333333333319
  7
DCSTYLE1
 72
     5
 11
118.8193667909843
 21
-169.8786046700178
 31
0.0
  0
TEXT
  5
247
  8
ZUWAKU
 62
     7
 10
256.5875288836489
 20
-142.4576943219288
 30
0.0
 40
3.0
  1
標　準
 41
0.8647058823529429
  7
DCSTYLE1
 72
     5
 11
262.8875288836489
 21
-142.4576943219288
 31
0.0
  0
TEXT
  5
248
  8
ZUWAKU
 62
     7
 10
153.4481689819652
 20
-165.7187911464244
 30
0.0
 40
3.0
  1
承   認
 41
0.875
  7
DCSTYLE1
 72
     5
 11
165.4481689819652
 21
-165.7187911464244
 31
0.0
  0
TEXT
  5
249
  8
ZUWAKU
 62
     7
 10
179.863228033234
 20
-165.4873041997729
 30
0.0
 40
3.0
  1
検   図
 41
0.875
  7
DCSTYLE1
 72
     5
 11
191.863228033234
 21
-165.4873041997729
 31
0.0
  0
TEXT
  5
24A
  8
ZUWAKU
 62
     7
 10
201.4771920983751
 20
-165.4873041997729
 30
0.0
 40
3.0
  1
担  当
 41
0.8959999999999996
  7
DCSTYLE1
 72
     5
 11
211.0771920983751
 21
-165.4873041997729
 31
0.0
  0
TEXT
  5
24B
  8
ZUWAKU
 62
     7
 10
214.6770574841112
 20
-165.4873041997729
 30
0.0
 40
3.0
  1
製  図
 41
0.8959999999999996
  7
DCSTYLE1
 72
     5
 11
224.2770574841112
 21
-165.4873041997729
 31
0.0
  0
TEXT
  5
24C
  8
ZUWAKU
 62
     7
 10
226.9462372304199
 20
-153.2184960272417
 30
0.0
 40
3.0
  1
作図
 41
1.018181818181821
  7
DCSTYLE1
 72
     5
 11
231.7462372304199
 21
-153.2184960272417
 31
0.0
  0
TEXT
  5
24D
  8
ZUWAKU
 62
     7
 10
228.1036719636776
 20
-160.2371566401815
 30
0.0
 40
4.0
  1
第 三 角 法
 41
0.8909090909090912
  7
DCSTYLE1
 72
     5
 11
250.5036719636776
 21
-160.2371566401815
 31
0.0
  0
TEXT
  5
24E
  8
ZUWAKU
 62
     7
 10
227.409211123723
 20
-166.413251986379
 30
0.0
 40
3.0
  1
尺度
 41
1.018181818181821
  7
DCSTYLE1
 72
     5
 11
232.209211123723
 21
-166.413251986379
 31
0.0
  0
TEXT
  5
250
  8
ZUWAKU
 62
     3
 10
105.379154370034
 20
-185.9272077185016
 30
0.0
 40
7.0
  1
株式会社 野村製作所
 41
0.5756623947008424
  7
DCSTYLE2
 72
     5
 11
161.379154370034
 21
-185.9272077185016
 31
0.0
  0
TEXT
  5
252
  8
ZUWAKU
 62
     3
 10
177.0693118865195
 20
-187.1216685584563
 30
0.0
 40
8.0
  1
２－
 41
0.7689423076923078
  7
DCSTYLE3
 72
     5
 11
193.0693118865195
 21
-187.1216685584563
 31
0.0
  0
TEXT
  5
253
  8
ZUWAKU
 62
     3
 10
193.9812695109263
 20
-187.1216685584563
 30
0.0
 40
8.0
  1
9312022
 41
1.537884615384616
  7
DCSTYLE3
 72
     5
 11
249.9812695109263
 21
-187.1216685584563
 31
0.0
  0
TEXT
  5
254
  8
ZUWAKU
 62
     6
 10
231.115212700787
 20
-146.1941968197806
 30
0.0
 40
4.0
  1
一式
 41
0.8909090909090901
  7
DCSTYLE1
 72
     5
 11
236.715212700787
 21
-146.1941968197806
 31
0.0
  0
TEXT
  5
255
  8
ZUWAKU
 62
     6
 10
162.8736825514787
 20
-145.3589000228561
 30
0.0
 40
5.0
  1
外　形　図
 41
0.8448275862068965
  7
DCSTYLE1
 72
     5
 11
180.3736825514787
 21
-145.3589000228561
 31
0.0
  0
TEXT
  5
256
  8
ZUWAKU
 62
     4
 10
239.3011788906399
 20
-172.297487439201
 30
0.0
 40
3.0
  1
1/1
 41
0.8320754716981147
  7
DCSTYLE1
 72
     5
 11
245.6011788906399
 21
-172.297487439201
 31
0.0
  0
TEXT
  5
257
  8
0
 62
     6
 10
148.9323428637154
 20
-154.3580193026319
 30
0.0
 40
5.0
  1
日鋼プレシジォン
 41
0.9531914893617022
  7
DCSTYLE1
 72
     5
 11
180.9323428637154
 21
-154.3580193026319
 31
0.0
  0
TEXT
  5
258
  8
0
 62
     6
 10
168.0800130140405
 20
-160.926795036144
 30
0.0
 40
5.0
  1
ＭＯ3-12型チャック
 41
0.8842105263157896
  7
DCSTYLE1
 72
     5
 11
212.0800130140405
 21
-160.926795036144
 31
0.0
  0
TEXT
  5
259
  8
0
 62
     6
 10
-68.4509996175766
 20
-170.9799315929413
 30
0.0
 40
3.599999904632568
  1
質　量　　　     　　　　　　　　　　　　　　　38 Kg
 41
1.396018128613883
  7
DCSTYLE1
 72
     5
 11
70.35308492183685
 21
-170.9799315929413
 31
0.0
  0
TEXT
  5
25A
  8
0
 62
     6
 10
-68.4509996175766
 20
-177.6327331066131
 30
0.0
 40
3.599999904632568
  1
ｱﾝバﾗﾝｽ量 　  　　    　　　　
 41
1.378965529232204
  7
DCSTYLE1
 72
     5
 11
25.16105782985687
 21
-177.6327331066131
 31
0.0
  0
TEXT
  5
25B
  8
0
 62
     6
 10
-68.42514598369598
 20
-164.3271300792694
 30
0.0
 40
3.599999904632568
  1
慣性モーメント    　    　　　　 0.525　Kg・m
 41
1.334540374790675
  7
DCSTYLE1
 72
     5
 11
68.15552532672882
 21
-164.3271300792694
 31
0.0
  0
TEXT
  5
25C
  8
0
 62
     6
 10
-68.4001077413559
 20
-157.6743285655975
 30
0.0
 40
3.599999904632568
  1
最高使用回転速度　　　　　　　    　　　　2500　min
 41
1.3590290615817
  7
DCSTYLE1
 72
     5
 11
66.0272775888443
 21
-157.6743285655975
 31
0.0
  0
TEXT
  5
25D
  8
0
 62
     6
 10
-68.4509996175766
 20
-151.0215423107147
 30
0.0
 40
3.599999904632568
  1
最大静的把握力　　　  　　　　　　　　　　　　73.1　ｋN
 41
1.440730453017887
  7
DCSTYLE1
 72
     5
 11
70.35308492183685
 21
-151.0215423107147
 31
0.0
  0
TEXT
  5
25E
  8
0
 62
     6
 10
-68.38788223266602
 20
-144.3687407970428
 30
0.0
 40
3.599999904632568
  1
許容ｼﾘﾝダ力　　
 41
1.388317275887423
  7
DCSTYLE1
 72
     5
 11
-30.54632091522217
 21
-144.3687407970428
 31
0.0
  0
TEXT
  5
25F
  8
0
 62
     6
 10
-68.4509996175766
 20
-137.7159392833709
 30
0.0
 40
3.599999904632568
  1
ピｽﾄﾝｽﾄﾛ-ｸ　　      　　　　　　　　 35 mm
 41
1.318714193153179
  7
DCSTYLE1
 72
     5
 11
70.35308492183685
 21
-137.7159392833709
 31
0.0
  0
TEXT
  5
260
  8
0
 62
     6
 10
-68.47770893573761
 20
-131.0631377696991
 30
0.0
 40
3.599999904632568
  1
爪ノｽﾄﾛ-ｸ　　　　　
 41
1.420464174380978
  7
DCSTYLE1
 72
     5
 11
-14.66241049766541
 21
-131.0631377696991
 31
0.0
  0
TEXT
  5
261
  8
0
 62
     6
 10
-68.41941630840302
 20
-124.4103362560272
 30
0.0
 40
3.599999904632568
  1
仕  様
 41
1.280000115235649
  7
DCSTYLE1
 72
     5
 11
-51.96227240562439
 21
-124.4103362560272
 31
0.0
  0
TEXT
  5
262
  8
0
 62
     6
 10
14.29730606332055
 20
-130.8835431595496
 30
0.0
 40
3.0
  1
（直径ﾆﾃ）
 41
1.421948866666667
  7
DCSTYLE1
 72
     5
 11
35.62653906332056
 21
-130.8835431595496
 31
0.0
  0
TEXT
  5
263
  8
0
 62
     6
 10
26.85575768351555
 20
-176.3519638478756
 30
0.0
 40
2.699999928474426
  1
外周ﾆﾃ
 41
1.419073464373678
  7
DCSTYLE1
 72
     5
 11
39.44496622681618
 21
-176.3519638478756
 31
0.0
  0
TEXT
  5
264
  8
0
 62
     6
 10
68.11249505113918
 20
-161.8669438514641
 30
0.0
 40
1.799999952316284
  1
2
 41
1.089905517597438
  7
DCSTYLE1
 72
     5
 11
69.70064304899532
 21
-161.8669438514641
 31
0.0
  0
TEXT
  5
265
  8
0
 62
     6
 10
65.78056925382323
 20
-155.0761378806771
 30
0.0
 40
1.799999952316284
  1
-1
 41
1.182893618461294
  7
DCSTYLE1
 72
     5
 11
69.53203177299208
 21
-155.0761378806771
 31
0.0
  0
TEXT
  5
266
  8
0
 62
     6
 10
48.9383657788244
 20
-131.0193544827416
 30
0.0
 40
3.6
  1
20　mm
 41
1.090158918128655
  7
DCSTYLE1
 72
     5
 11
70.2431857788244
 21
-131.0193544827416
 31
0.0
  0
TEXT
  5
267
  8
0
 62
     6
 10
40.04278750974932
 20
-144.4964420967598
 30
0.0
 40
3.6
  1
33.4 kN
 41
1.404779055555555
  7
DCSTYLE1
 72
     5
 11
70.38601510974932
 21
-144.4964420967598
 31
0.0
  0
TEXT
  5
268
  8
0
 62
     6
 10
49.13415113770619
 20
-177.3995138837875
 30
0.0
 40
3.6
  1
8g 以内
 41
1.336323835125448
  7
DCSTYLE1
 72
     5
 11
70.43897113770619
 21
-177.3995138837875
 31
0.0
  0
LINE
  5
269
  8
0
  6
CONTINUOUS
 62
     6
 10
-70.2549057006836
 20
-152.5479278564453
 30
0.0
 11
73.64451599121094
 21
-152.5479278564453
 31
0.0
  0
LINE
  5
26A
  8
0
  6
CONTINUOUS
 62
     6
 10
-70.2549057006836
 20
-179.1591339111328
 30
0.0
 11
73.64451599121094
 21
-179.1591339111328
 31
0.0
  0
LINE
  5
26B
  8
0
  6
CONTINUOUS
 62
     6
 10
-70.2549057006836
 20
-172.5063323974609
 30
0.0
 11
73.64451599121094
 21
-172.5063323974609
 31
0.0
  0
LINE
  5
26C
  8
0
  6
CONTINUOUS
 62
     6
 10
-70.2549057006836
 20
-165.853530883789
 30
0.0
 11
73.64451599121094
 21
-165.853530883789
 31
0.0
  0
LINE
  5
26D
  8
0
  6
CONTINUOUS
 62
     6
 10
-70.2549057006836
 20
-145.8951263427734
 30
0.0
 11
73.64451599121094
 21
-145.8951263427734
 31
0.0
  0
LINE
  5
26E
  8
0
  6
CONTINUOUS
 62
     6
 10
-70.2549057006836
 20
-159.2007293701172
 30
0.0
 11
73.64451599121094
 21
-159.2007293701172
 31
0.0
  0
LINE
  5
26F
  8
0
  6
CONTINUOUS
 62
     6
 10
-70.2549057006836
 20
-139.2423400878906
 30
0.0
 11
73.64451599121094
 21
-139.2423400878906
 31
0.0
  0
LINE
  5
270
  8
0
  6
CONTINUOUS
 62
     6
 10
-70.2549057006836
 20
-132.5895385742187
 30
0.0
 11
73.64451599121094
 21
-132.5895385742187
 31
0.0
  0
LINE
  5
271
  8
0
  6
CONTINUOUS
 62
     6
 10
-70.2549057006836
 20
-125.9367370605468
 30
0.0
 11
-49.41972351074219
 21
-125.9367370605468
 31
0.0
  0
LINE
  5
272
  8
0
  6
CENTER
 62
     7
 10
-202.3978570985091
 20
23.34604781580093
 30
0.0
 11
-91.39797339564426
 21
23.34604781580093
 31
0.0
  0
LINE
  5
273
  8
0
  6
CENTER
 62
     7
 10
-119.2612586397558
 20
138.3460459084523
 30
0.0
 11
-67.93858865684561
 21
138.3460459084523
 31
0.0
  0
LINE
  5
274
  8
0
  6
CENTER
 62
     7
 10
-119.271932162705
 20
103.3460459084523
 30
0.0
 11
-67.93858865684561
 21
103.3460459084523
 31
0.0
  0
LINE
  5
275
  8
0
  6
CENTER
 62
     7
 10
-119.8986805276747
 20
-36.6539540915477
 30
0.0
 11
-93.09064462432303
 21
-36.6539540915477
 31
0.0
  0
LINE
  5
276
  8
0
  6
CENTER
 62
     7
 10
-215.4052634615331
 20
-43.32895714330552
 30
0.0
 11
-145.1614585298925
 21
-43.32895714330552
 31
0.0
  0
LINE
  5
277
  8
0
  6
CENTER
 62
     7
 10
-34.2931877270559
 20
23.34604781580093
 30
0.0
 11
262.0613960843654
 21
23.34604781580093
 31
0.0
  0
LINE
  5
278
  8
0
  6
CENTER
 62
     7
 10
-144.4860709566503
 20
-75.60211400528505
 30
0.0
 11
-144.4860709566503
 21
-120.7008934189003
 31
0.0
  0
LINE
  5
279
  8
0
  6
CENTER
 62
     7
 10
55.81208745693206
 20
56.68354413882781
 30
0.0
 11
67.21054152938981
 21
50.10264433881929
 31
0.0
  0
LINE
  5
27A
  8
0
  6
CENTER
 62
     7
 10
165.4003883730553
 20
37.23814580843197
 30
0.0
 11
190.5144595038079
 21
43.96744016811596
 31
0.0
  0
LINE
  5
27B
  8
0
  6
CENTER
 62
     7
 10
33.69641145257421
 20
44.74390229794619
 30
0.0
 11
64.60603930201157
 21
36.46169336160011
 31
0.0
  0
LINE
  5
27C
  8
0
  6
CENTER
 62
     7
 10
55.09427212951013
 20
81.80609232739602
 30
0.0
 11
77.72169199627578
 21
59.17867436797911
 31
0.0
  0
LINE
  5
27D
  8
0
  6
CENTER
 62
     7
 10
151.5083036338529
 20
61.30000888904152
 30
0.0
 11
169.8930703901879
 21
79.68477409565668
 31
0.0
  0
LINE
  5
27E
  8
0
  6
CENTER
 62
     7
 10
92.41528128056328
 20
-55.54595372434113
 30
0.0
 11
100.1798539156735
 21
-26.56817773064094
 31
0.0
  0
LINE
  5
27F
  8
0
  6
CENTER
 62
     7
 10
126.9288033983617
 20
-26.56818124550813
 30
0.0
 11
134.6933756015211
 21
-55.5459556271457
 31
0.0
  0
LINE
  5
280
  8
0
  6
CENTER
 62
     7
 10
21.72807737403818
 20
123.3460362004028
 30
0.0
 11
59.51406332069345
 21
123.3460362004028
 31
0.0
  0
LINE
  5
281
  8
0
  6
CENTER
 62
     7
 10
5.772633897623862
 20
-19.97058387131123
 30
0.0
 11
22.25942747372035
 21
-48.52654408234575
 31
0.0
  0
LINE
  5
282
  8
0
  6
CENTER
 62
     7
 10
204.9881821443747
 20
-48.28587625040262
 30
0.0
 11
221.195875269109
 21
-20.21333213523866
 31
0.0
  0
LINE
  5
283
  8
0
  6
CENTER
 62
     7
 10
174.678933875966
 20
-30.78303304701484
 30
0.0
 11
191.0429342397925
 21
-2.439756889285206
 31
0.0
  0
LINE
  5
284
  8
0
  6
CENTER
 62
     7
 10
36.1817953130371
 20
-2.640791953283781
 30
0.0
 11
52.7936318193841
 21
-31.41333284293381
 31
0.0
  0
LINE
  5
285
  8
0
  6
CENTER
 62
     7
 10
97.25046773963876
 20
138.3460362004028
 30
0.0
 11
129.9946999173731
 21
138.3460362004028
 31
0.0
  0
LINE
  5
286
  8
0
  6
CENTER
 62
     7
 10
97.25046773963876
 20
103.3460362004028
 30
0.0
 11
129.9946999173731
 21
103.3460362004028
 31
0.0
  0
LINE
  5
287
  8
0
  6
CENTER
 62
     7
 10
160.1561532367039
 20
50.25160467538745
 30
0.0
 11
236.7766456106604
 21
94.4884616855593
 31
0.0
  0
ARC
  5
288
  8
0
  6
CENTER
 62
     7
 10
113.5543312650294
 20
23.34603810775144
 30
0.0
 40
66.67500305175781
 50
1.217525082175849
 51
28.78246838885251
  0
ARC
  5
289
  8
0
  6
CENTER
 62
     7
 10
113.5543312650294
 20
23.34603810775144
 30
0.0
 40
60.0
 50
143.490827064919
 51
156.5092222644766
  0
ARC
  5
28A
  8
0
  6
CENTER
 62
     7
 10
113.5543312650294
 20
23.34603810775144
 30
0.0
 40
66.67500305175781
 50
31.21752645061044
 51
58.78247263877315
  0
ARC
  5
28B
  8
0
  6
CENTER
 62
     7
 10
113.5543312650294
 20
23.34603810775144
 30
0.0
 40
66.67500305175781
 50
121.2175392003724
 51
148.782502464008
  0
ARC
  5
28C
  8
0
  6
CENTER
 62
     7
 10
113.5543312650294
 20
23.34603810775144
 30
0.0
 40
66.67500305175781
 50
151.2175468653876
 51
178.7824964686449
  0
ARC
  5
28D
  8
0
  6
CENTER
 62
     7
 10
113.5543312650294
 20
23.34603810775144
 30
0.0
 40
66.67500305175781
 50
242.0826989235511
 51
267.9172610817207
  0
ARC
  5
28E
  8
0
  6
CENTER
 62
     7
 10
113.5543312650294
 20
23.34603810775144
 30
0.0
 40
66.67500305175781
 50
272.0827270791338
 51
297.9172824071143
  0
ARC
  5
28F
  8
0
  6
CENTER
 62
     7
 10
113.5543312650294
 20
23.34603810775144
 30
0.0
 40
60.0
 50
263.5026571041421
 51
276.389045237611
  0
ARC
  5
290
  8
0
  6
CENTER
 62
     7
 10
113.5543312650294
 20
23.34603810775144
 30
0.0
 40
60.0
 50
23.49079811240535
 51
36.50919843460489
  0
LINE
  5
291
  8
0
  6
CENTER
 62
     7
 10
-14.38237515032156
 20
-50.51825053957424
 30
0.0
 11
113.5543415222372
 21
23.34603910989478
 31
0.0
  0
LINE
  5
292
  8
0
  6
CENTER
 62
     7
 10
113.5543434421778
 20
23.3460407853218
 30
0.0
 11
240.6954514318021
 21
-50.0589040276347
 31
0.0
  0
LINE
  5
293
  8
0
  6
CENTER
 62
     7
 10
109.41282278961
 20
62.84601070396823
 30
0.0
 11
118.0919599420084
 21
62.84601070396823
 31
0.0
  0
LINE
  5
294
  8
0
  6
CENTER
 62
     7
 10
74.05421835845766
 20
29.01202632896824
 30
0.0
 11
74.05421835845766
 21
17.34601070396824
 31
0.0
  0
LINE
  5
295
  8
0
  6
CENTER
 62
     7
 10
81.41698955065047
 20
0.0094125606694
 30
0.0
 11
77.07742097445127
 21
7.52576581757577
 31
0.0
  0
LINE
  5
296
  8
0
  6
CENTER
 62
     7
 10
149.8329964496211
 20
7.182608847267087
 30
0.0
 11
145.4934278734219
 21
-0.3337444096392552
 31
0.0
  0
LINE
  5
297
  8
0
  6
CENTER
 62
     7
 10
153.0542181158429
 20
29.01202632896824
 30
0.0
 11
153.0542181158429
 21
17.34601070396824
 31
0.0
  0
LINE
  5
298
  8
0
  6
CENTER
 62
     7
 10
113.5543312650294
 20
167.8449625344288
 30
0.0
 11
113.5543312650294
 21
54.05967805261091
 31
0.0
  0
LINE
  5
299
  8
0
  6
CENTER
 62
     7
 10
113.5543312650294
 20
45.04515115822535
 30
0.0
 11
113.5543312650294
 21
-119.3896312870422
 31
0.0
  0
LINE
  5
29A
  8
0
  6
CENTER
 62
     7
 10
-129.9172349354868
 20
62.84604781580092
 30
0.0
 11
-115.4194679442632
 21
62.84604781580092
 31
0.0
  0
LINE
  5
29B
  8
0
  6
CONTINUOUS
 62
     7
 10
-94.23800579856102
 20
90.3460459084523
 30
0.0
 11
-64.2715316194921
 21
90.3460459084523
 31
0.0
  0
LINE
  5
29C
  8
0
  6
DASHED
 62
     7
 10
201.9870475706988
 20
80.17619862408044
 30
0.0
 11
232.1865379349014
 21
97.611882828182
 31
0.0
  0
LINE
  5
29D
  8
0
  6
DASHED
 62
     7
 10
207.5492252883845
 20
84.54222401232126
 30
0.0
 11
231.6865379349014
 21
98.47790821642282
 31
0.0
  0
LINE
  5
29E
  8
0
  6
DASHED
 62
     7
 10
213.5492252883845
 20
74.14991935343149
 30
0.0
 11
237.6865379349014
 21
88.08560355753305
 31
0.0
  0
LINE
  5
29F
  8
0
  6
DASHED
 62
     7
 10
206.9870475706988
 20
71.5159447416723
 30
0.0
 11
237.1865379349014
 21
88.95162894577386
 31
0.0
  0
LINE
  5
2A0
  8
0
  6
DASHED
 62
     7
 10
213.5492252883845
 20
74.14991935343149
 30
0.0
 11
207.5492252883845
 21
84.54222401232126
 31
0.0
  0
LINE
  5
2A1
  8
0
  6
DASHED
 62
     7
 10
201.9870582412599
 20
80.17618987532417
 30
0.0
 11
201.9870582412599
 21
74.40269134016792
 31
0.0
  0
LINE
  5
2A2
  8
0
  6
DASHED
 62
     7
 10
206.9870550675799
 20
71.51593335142236
 30
0.0
 11
201.9870587571635
 21
74.40268261900049
 31
0.0
  0
LINE
  5
2A3
  8
0
  6
CONTINUOUS
 62
     3
 10
-96.1860709566503
 20
160.3460459084523
 30
0.0
 11
-96.1860709566503
 21
152.5822367043507
 31
0.0
  0
LINE
  5
2A4
  8
0
  6
CONTINUOUS
 62
     3
 10
-197.1860709566503
 20
163.3460459084523
 30
0.0
 11
-172.1860709566503
 21
163.3460459084523
 31
0.0
  0
LINE
  5
2A5
  8
0
  6
CONTINUOUS
 62
     3
 10
-97.18607131098648
 20
161.346053226477
 30
0.0
 11
-96.18607024939698
 21
160.3460521648875
 31
0.0
  0
LINE
  5
2A6
  8
0
  6
CONTINUOUS
 62
     3
 10
-98.6860709566503
 20
70.78021186304214
 30
0.0
 11
-98.6860709566503
 21
-29.1539540915477
 31
0.0
  0
LINE
  5
2A7
  8
0
  6
CONTINUOUS
 62
     3
 10
-98.6860709566503
 20
-29.1539540915477
 30
0.0
 11
-96.1860709566503
 21
-29.1539540915477
 31
0.0
  0
LINE
  5
2A8
  8
0
  6
CONTINUOUS
 62
     3
 10
-197.1860709566503
 20
150.8460459084523
 30
0.0
 11
-191.4860740084081
 21
150.8460459084523
 31
0.0
  0
LINE
  5
2A9
  8
0
  6
CONTINUOUS
 62
     3
 10
-98.6860709566503
 20
70.78021186304214
 30
0.0
 11
-96.1860709566503
 21
70.78021186304214
 31
0.0
  0
LINE
  5
2AA
  8
0
  6
CONTINUOUS
 62
     3
 10
-172.1860709566503
 20
163.3460459084523
 30
0.0
 11
-172.1860709566503
 21
138.3460459084523
 31
0.0
  0
LINE
  5
2AB
  8
0
  6
CONTINUOUS
 62
     3
 10
-172.1860709566503
 20
163.3460459084523
 30
0.0
 11
-97.1860709566503
 21
163.3460459084523
 31
0.0
  0
LINE
  5
2AC
  8
0
  6
CONTINUOUS
 62
     3
 10
-108.1860709566503
 20
163.3460459084523
 30
0.0
 11
-108.1860709566503
 21
151.3460459084523
 31
0.0
  0
LINE
  5
2AD
  8
0
  6
CONTINUOUS
 62
     3
 10
-112.9860740084081
 20
81.3460459084523
 30
0.0
 11
-97.1860709566503
 21
81.3460459084523
 31
0.0
  0
LINE
  5
2AE
  8
0
  6
CONTINUOUS
 62
     3
 10
-116.1860709566503
 20
90.3460459084523
 30
0.0
 11
-95.6860709566503
 21
90.3460459084523
 31
0.0
  0
LINE
  5
2AF
  8
0
  6
CONTINUOUS
 62
     3
 10
-116.1860709566503
 20
151.3460459084523
 30
0.0
 11
-95.6860709566503
 21
151.3460459084523
 31
0.0
  0
LINE
  5
2B0
  8
0
  6
CONTINUOUS
 62
     3
 10
-85.1860709566503
 20
147.3460459084523
 30
0.0
 11
-85.1860709566503
 21
129.3460459084523
 31
0.0
  0
LINE
  5
2B1
  8
0
  6
CONTINUOUS
 62
     3
 10
-116.1860709566503
 20
151.3460459084523
 30
0.0
 11
-116.1860709566503
 21
90.3460459084523
 31
0.0
  0
LINE
  5
2B2
  8
0
  6
CONTINUOUS
 62
     3
 10
-95.6860709566503
 20
151.3460459084523
 30
0.0
 11
-95.6860709566503
 21
144.3460459084523
 31
0.0
  0
LINE
  5
2B3
  8
0
  6
CONTINUOUS
 62
     3
 10
-108.1860709566503
 20
90.3460459084523
 30
0.0
 11
-108.1860709566503
 21
81.3460459084523
 31
0.0
  0
LINE
  5
2B4
  8
0
  6
CONTINUOUS
 62
     3
 10
-95.6860709566503
 20
97.3460459084523
 30
0.0
 11
-95.6860709566503
 21
90.3460459084523
 31
0.0
  0
LINE
  5
2B5
  8
0
  6
CONTINUOUS
 62
     3
 10
-95.6860709566503
 20
132.3460459084523
 30
0.0
 11
-95.6860709566503
 21
109.3460459084523
 31
0.0
  0
LINE
  5
2B6
  8
0
  6
CONTINUOUS
 62
     3
 10
-85.1860709566503
 20
112.3460459084523
 30
0.0
 11
-85.1860709566503
 21
94.3460459084523
 31
0.0
  0
LINE
  5
2B7
  8
0
  6
CONTINUOUS
 62
     3
 10
-73.1860709566503
 20
112.3460459084523
 30
0.0
 11
-73.1860709566503
 21
94.3460459084523
 31
0.0
  0
LINE
  5
2B8
  8
0
  6
CONTINUOUS
 62
     3
 10
-73.1860709566503
 20
147.3460459084523
 30
0.0
 11
-73.1860709566503
 21
129.3460459084523
 31
0.0
  0
LINE
  5
2B9
  8
0
  6
CONTINUOUS
 62
     3
 10
-110.1860709566503
 20
144.3460459084523
 30
0.0
 11
-110.1860709566503
 21
132.3460459084523
 31
0.0
  0
LINE
  5
2BA
  8
0
  6
CONTINUOUS
 62
     3
 10
-110.1860709566503
 20
109.3460459084523
 30
0.0
 11
-110.1860709566503
 21
97.3460459084523
 31
0.0
  0
LINE
  5
2BB
  8
0
  6
CONTINUOUS
 62
     3
 10
-116.1860709566503
 20
144.3460459084523
 30
0.0
 11
-85.1860709566503
 21
144.3460459084523
 31
0.0
  0
LINE
  5
2BC
  8
0
  6
CONTINUOUS
 62
     3
 10
-116.1860709566503
 20
132.3460459084523
 30
0.0
 11
-85.1860709566503
 21
132.3460459084523
 31
0.0
  0
LINE
  5
2BD
  8
0
  6
CONTINUOUS
 62
     3
 10
-116.1860709566503
 20
109.3460459084523
 30
0.0
 11
-85.1860709566503
 21
109.3460459084523
 31
0.0
  0
LINE
  5
2BE
  8
0
  6
CONTINUOUS
 62
     3
 10
-116.1860709566503
 20
97.3460459084523
 30
0.0
 11
-85.1860709566503
 21
97.3460459084523
 31
0.0
  0
LINE
  5
2BF
  8
0
  6
CONTINUOUS
 62
     3
 10
-85.1860709566503
 20
112.3460459084523
 30
0.0
 11
-73.1860709566503
 21
112.3460459084523
 31
0.0
  0
LINE
  5
2C0
  8
0
  6
CONTINUOUS
 62
     3
 10
-85.1860709566503
 20
94.3460459084523
 30
0.0
 11
-73.1860709566503
 21
94.3460459084523
 31
0.0
  0
LINE
  5
2C1
  8
0
  6
CONTINUOUS
 62
     3
 10
-85.1860709566503
 20
129.3460459084523
 30
0.0
 11
-73.1860709566503
 21
129.3460459084523
 31
0.0
  0
LINE
  5
2C2
  8
0
  6
CONTINUOUS
 62
     3
 10
-85.1860709566503
 20
147.3460459084523
 30
0.0
 11
-73.1860709566503
 21
147.3460459084523
 31
0.0
  0
LINE
  5
2C3
  8
0
  6
CONTINUOUS
 62
     3
 10
-177.2014212984472
 20
73.3460459084523
 30
0.0
 11
-177.2014212984472
 21
-26.65395218419907
 31
0.0
  0
LINE
  5
2C4
  8
0
  6
CONTINUOUS
 62
     3
 10
-117.2014212984472
 20
73.3460459084523
 30
0.0
 11
-117.2014212984472
 21
-26.65395218419907
 31
0.0
  0
LINE
  5
2C5
  8
0
  6
CONTINUOUS
 62
     3
 10
-176.2014197533021
 20
74.34603909273993
 30
0.0
 11
-177.2014208148916
 21
73.34603803115043
 31
0.0
  0
LINE
  5
2C6
  8
0
  6
CONTINUOUS
 62
     3
 10
-118.2014175238727
 20
74.34604448753645
 30
0.0
 11
-117.2014164622832
 21
73.34604342594695
 31
0.0
  0
LINE
  5
2C7
  8
0
  6
CONTINUOUS
 62
     3
 10
-117.201424554478
 20
-26.65395753447105
 30
0.0
 11
-118.201420221271
 21
-27.65395320126403
 31
0.0
  0
LINE
  5
2C8
  8
0
  6
CONTINUOUS
 62
     3
 10
-177.2014208148916
 20
-26.65396023186931
 30
0.0
 11
-176.2014251480986
 21
-27.65395589866229
 31
0.0
  0
LINE
  5
2C9
  8
0
  6
CONTINUOUS
 62
     3
 10
-129.2014212984472
 20
68.8460459084523
 30
0.0
 11
-129.2014212984472
 21
3.326584395886684
 31
0.0
  0
LINE
  5
2CA
  8
0
  6
CONTINUOUS
 62
     3
 10
-145.2014212984472
 20
67.3460459084523
 30
0.0
 11
-145.2014212984472
 21
-20.65395218419907
 31
0.0
  0
LINE
  5
2CB
  8
0
  6
CONTINUOUS
 62
     3
 10
-143.2014212984472
 20
67.3460459084523
 30
0.0
 11
-143.2014212984472
 21
3.466444072247768
 31
0.0
  0
LINE
  5
2CC
  8
0
  6
CONTINUOUS
 62
     3
 10
-127.2014212984472
 20
68.8460459084523
 30
0.0
 11
-127.2014212984472
 21
-22.15395218419907
 31
0.0
  0
LINE
  5
2CD
  8
0
  6
CONTINUOUS
 62
     3
 10
-145.2014212984472
 20
-20.65395218419907
 30
0.0
 11
-143.2014212984472
 21
-20.65395218419907
 31
0.0
  0
LINE
  5
2CE
  8
0
  6
CONTINUOUS
 62
     3
 10
-145.2014212984472
 20
67.3460459084523
 30
0.0
 11
-143.2014212984472
 21
67.3460459084523
 31
0.0
  0
LINE
  5
2CF
  8
0
  6
CONTINUOUS
 62
     3
 10
-129.2014212984472
 20
-22.15395218419907
 30
0.0
 11
-127.2014212984472
 21
-22.15395218419907
 31
0.0
  0
LINE
  5
2D0
  8
0
  6
CONTINUOUS
 62
     3
 10
-129.2014212984472
 20
68.8460459084523
 30
0.0
 11
-127.2014212984472
 21
68.8460459084523
 31
0.0
  0
LINE
  5
2D1
  8
0
  6
CONTINUOUS
 62
     3
 10
-127.2014212984472
 20
68.3460459084523
 30
0.0
 11
-117.2014212984472
 21
68.3460459084523
 31
0.0
  0
LINE
  5
2D2
  8
0
  6
CONTINUOUS
 62
     3
 10
-127.2014212984472
 20
-21.65395218419907
 30
0.0
 11
-117.2014212984472
 21
-21.65395218419907
 31
0.0
  0
LINE
  5
2D3
  8
0
  6
CONTINUOUS
 62
     3
 10
-127.2014212984472
 20
-9.90395218419907
 30
0.0
 11
-117.2014212984472
 21
-9.90395218419907
 31
0.0
  0
LINE
  5
2D4
  8
0
  6
CONTINUOUS
 62
     3
 10
-116.1860709566503
 20
-33.5039525656688
 30
0.0
 11
-116.1860709566503
 21
-39.80395561742661
 31
0.0
  0
LINE
  5
2D5
  8
0
  6
CONTINUOUS
 62
     3
 10
-116.1860709566503
 20
-39.80395561742661
 30
0.0
 11
-96.1860709566503
 21
-39.80395561742661
 31
0.0
  0
LINE
  5
2D6
  8
0
  6
CONTINUOUS
 62
     3
 10
-116.1860709566503
 20
-33.5039525656688
 30
0.0
 11
-96.1860709566503
 21
-33.5039525656688
 31
0.0
  0
LINE
  5
2D7
  8
0
  6
CONTINUOUS
 62
     3
 10
-118.0047213030279
 20
-36.65395234010829
 30
0.0
 11
-116.1860679795381
 21
-33.5039528145161
 31
0.0
  0
LINE
  5
2D8
  8
0
  6
CONTINUOUS
 62
     3
 10
-118.0047239583412
 20
-36.65395969176485
 30
0.0
 11
-116.1860734958747
 21
-39.80395426192003
 31
0.0
  0
LINE
  5
2D9
  8
0
  6
CONTINUOUS
 62
     3
 10
-191.4860740084081
 20
-27.6539540915477
 30
0.0
 11
-98.6860709566503
 21
-27.6539540915477
 31
0.0
  0
LINE
  5
2DA
  8
0
  6
CONTINUOUS
 62
     3
 10
-114.1860709566503
 20
71.87987464380386
 30
0.0
 11
-114.1860709566503
 21
62.64935248804214
 31
0.0
  0
LINE
  5
2DB
  8
0
  6
CONTINUOUS
 62
     3
 10
-172.1860709566503
 20
163.3460459084523
 30
0.0
 11
-172.1860709566503
 21
134.7664959205057
 31
0.0
  0
LINE
  5
2DC
  8
0
  6
CONTINUOUS
 62
     3
 10
-127.3860679048925
 20
91.8460459084523
 30
0.0
 11
-127.3860679048925
 21
74.3460459084523
 31
0.0
  0
LINE
  5
2DD
  8
0
  6
CONTINUOUS
 62
     3
 10
-137.3860679048925
 20
86.3460459084523
 30
0.0
 11
-137.3860679048925
 21
74.3460459084523
 31
0.0
  0
LINE
  5
2DE
  8
0
  6
CONTINUOUS
 62
     3
 10
-137.3860679048925
 20
-39.6539540915477
 30
0.0
 11
-127.3860679048925
 21
-39.6539540915477
 31
0.0
  0
LINE
  5
2DF
  8
0
  6
CONTINUOUS
 62
     3
 10
-114.1860709566503
 20
69.11448615503433
 30
0.0
 11
-98.6860709566503
 21
69.11448615503433
 31
0.0
  0
LINE
  5
2E0
  8
0
  6
CONTINUOUS
 62
     3
 10
-137.3860679048925
 20
-27.6539540915477
 30
0.0
 11
-137.3860679048925
 21
-39.6539540915477
 31
0.0
  0
LINE
  5
2E1
  8
0
  6
CONTINUOUS
 62
     3
 10
-127.3860679048925
 20
-27.6539540915477
 30
0.0
 11
-127.3860679048925
 21
-39.6539540915477
 31
0.0
  0
LINE
  5
2E2
  8
0
  6
CONTINUOUS
 62
     3
 10
-137.3860679048925
 20
86.3460459084523
 30
0.0
 11
-127.3860679048925
 21
86.3460459084523
 31
0.0
  0
LINE
  5
2E3
  8
0
  6
CONTINUOUS
 62
     3
 10
-192.6004691500097
 20
74.3460459084523
 30
0.0
 11
-118.2014212984472
 21
74.3460459084523
 31
0.0
  0
LINE
  5
2E4
  8
0
  6
CONTINUOUS
 62
     3
 10
-137.5860648531347
 20
91.8460459084523
 30
0.0
 11
-127.3860679048925
 21
91.8460459084523
 31
0.0
  0
LINE
  5
2E5
  8
0
  6
CONTINUOUS
 62
     3
 10
-137.5860648531347
 20
103.3460459084523
 30
0.0
 11
-137.5860648531347
 21
86.99767249536636
 31
0.0
  0
LINE
  5
2E6
  8
0
  6
CONTINUOUS
 62
     3
 10
-137.3860645759429
 20
-33.25203688569708
 30
0.0
 11
-135.8860623964489
 21
-27.65395323188604
 31
0.0
  0
LINE
  5
2E7
  8
0
  6
CONTINUOUS
 62
     3
 10
-137.3860661581613
 20
79.94410383157343
 30
0.0
 11
-135.8860699025658
 21
74.34604228604972
 31
0.0
  0
LINE
  5
2E8
  8
0
  6
CONTINUOUS
 62
     3
 10
-117.1860709566503
 20
163.3460459084523
 30
0.0
 11
-117.1860709566503
 21
78.20951026392105
 31
0.0
  0
LINE
  5
2E9
  8
0
  6
CONTINUOUS
 62
     3
 10
-127.3860679048925
 20
79.8460459084523
 30
0.0
 11
-117.1860709566503
 21
79.8460459084523
 31
0.0
  0
LINE
  5
2EA
  8
0
  6
CONTINUOUS
 62
     3
 10
-117.1860709566503
 20
78.20951026392105
 30
0.0
 11
-112.9860740084081
 21
78.20951026392105
 31
0.0
  0
LINE
  5
2EB
  8
0
  6
CONTINUOUS
 62
     3
 10
-112.9860740084081
 20
81.3460459084523
 30
0.0
 11
-112.9860740084081
 21
72.3460459084523
 31
0.0
  0
LINE
  5
2EC
  8
0
  6
CONTINUOUS
 62
     3
 10
-116.3648963350683
 20
72.3460459084523
 30
0.0
 11
-112.9860740084081
 21
72.3460459084523
 31
0.0
  0
LINE
  5
2ED
  8
0
  6
CONTINUOUS
 62
     3
 10
-143.2014212984472
 20
-1.148924174784398
 30
0.0
 11
-143.2014212984472
 21
-20.65395218419907
 31
0.0
  0
LINE
  5
2EE
  8
0
  6
CONTINUOUS
 62
     3
 10
-129.2014212984472
 20
-1.009064498423314
 30
0.0
 11
-129.2014212984472
 21
-22.15395218419907
 31
0.0
  0
LINE
  5
2EF
  8
0
  6
CONTINUOUS
 62
     3
 10
-197.1860709566503
 20
-116.6539540915477
 30
0.0
 11
-99.1860709566503
 21
-116.6539540915477
 31
0.0
  0
LINE
  5
2F0
  8
0
  6
CONTINUOUS
 62
     3
 10
-96.18608103899001
 20
-113.6539635760133
 30
0.0
 11
-99.18608422375851
 21
-116.6539667607818
 31
0.0
  0
LINE
  5
2F1
  8
0
  6
CONTINUOUS
 62
     3
 10
-197.1860709566503
 20
-104.1539540915477
 30
0.0
 11
-191.4860740084081
 21
-104.1539540915477
 31
0.0
  0
LINE
  5
2F2
  8
0
  6
CONTINUOUS
 62
     3
 10
-197.1860709566503
 20
163.3460459084523
 30
0.0
 11
-197.1860709566503
 21
-116.6539540915477
 31
0.0
  0
LINE
  5
2F3
  8
0
  6
CONTINUOUS
 62
     3
 10
-191.4860740084081
 20
150.8460459084523
 30
0.0
 11
-191.4860740084081
 21
-104.1539540915477
 31
0.0
  0
LINE
  5
2F4
  8
0
  6
CONTINUOUS
 62
     3
 10
-96.1860709566503
 20
89.44319861841323
 30
0.0
 11
-96.1860709566503
 21
-113.6539540915477
 31
0.0
  0
LINE
  5
2F5
  8
0
  6
CONTINUOUS
 62
     3
 10
-176.2014212984472
 20
58.34604781580093
 30
0.0
 11
-146.2014212984472
 21
58.34604781580093
 31
0.0
  0
LINE
  5
2F6
  8
0
  6
CONTINUOUS
 62
     3
 10
-176.2014212984472
 20
-11.65395218419907
 30
0.0
 11
-146.2014212984472
 21
-11.65395218419907
 31
0.0
  0
LINE
  5
2F7
  8
0
  6
CONTINUOUS
 62
     3
 10
-146.2014017924188
 20
58.34602513242827
 30
0.0
 11
-145.2013987920722
 21
59.34602433955442
 31
0.0
  0
LINE
  5
2F8
  8
0
  6
CONTINUOUS
 62
     3
 10
-176.2014218656444
 20
58.34605941074697
 30
0.0
 11
-177.2014209884768
 21
59.34606241109358
 31
0.0
  0
LINE
  5
2F9
  8
0
  6
CONTINUOUS
 62
     3
 10
-143.2014212984472
 20
67.09604781580092
 30
0.0
 11
-129.2014212984472
 21
67.09604781580092
 31
0.0
  0
LINE
  5
2FA
  8
0
  6
CONTINUOUS
 62
     3
 10
-176.2014059360849
 20
-11.65398082175979
 30
0.0
 11
-177.2014000012609
 21
-12.65396730057672
 31
0.0
  0
LINE
  5
2FB
  8
0
  6
CONTINUOUS
 62
     3
 10
-146.2014017924188
 20
-11.65392950082641
 30
0.0
 11
-145.2013987920722
 21
-12.65392870795256
 31
0.0
  0
LINE
  5
2FC
  8
0
  6
CONTINUOUS
 62
     3
 10
-143.2014212984472
 20
-20.40395218419906
 30
0.0
 11
-129.2014212984472
 21
-20.40395218419906
 31
0.0
  0
LINE
  5
2FD
  8
0
  6
CONTINUOUS
 62
     3
 10
3.560773197883321
 20
-66.1395321553257
 30
0.0
 11
85.16770688995061
 21
-19.02375222591326
 31
0.0
  0
LINE
  5
2FE
  8
0
  6
CONTINUOUS
 62
     3
 10
141.9409761671158
 20
-19.02375385411113
 30
0.0
 11
223.547898296496
 21
-66.13952710780376
 31
0.0
  0
LINE
  5
2FF
  8
0
  6
CONTINUOUS
 62
     3
 10
10.08781023357196
 20
-73.91814250583798
 30
0.0
 11
11.87292395253289
 21
-72.88750673352843
 31
0.0
  0
LINE
  5
300
  8
0
  6
CONTINUOUS
 62
     3
 10
215.2357371198995
 20
-72.88750447855926
 30
0.0
 11
217.0208574461103
 21
-73.91814406556585
 31
0.0
  0
LINE
  5
301
  8
0
  6
CONTINUOUS
 62
     3
 10
52.07486003134395
 20
13.83161243505771
 30
0.0
 11
58.32486268375087
 21
3.006291778422849
 31
0.0
  0
LINE
  5
302
  8
0
  6
CONTINUOUS
 62
     3
 10
152.5338037074599
 20
-25.13952218540015
 30
0.0
 11
158.783804452518
 21
-14.31420483238998
 31
0.0
  0
LINE
  5
303
  8
0
  6
CONTINUOUS
 62
     3
 10
3.5607722916603
 20
-66.13952415758553
 30
0.0
 11
10.08780424794131
 21
-73.91813697179799
 31
0.0
  0
LINE
  5
304
  8
0
  6
CONTINUOUS
 62
     3
 10
217.0208434521806
 20
-73.91814602508447
 30
0.0
 11
223.5478803125421
 21
-66.13952736641721
 31
0.0
  0
LINE
  5
305
  8
0
  6
CONTINUOUS
 62
     3
 10
68.32486387584376
 20
-14.31421598639344
 30
0.0
 11
74.57486462090182
 21
-25.13953333940361
 31
0.0
  0
LINE
  5
306
  8
0
  6
CONTINUOUS
 62
     3
 10
168.7838056446109
 20
3.006302932426308
 30
0.0
 11
175.0338063896689
 21
13.83162028543649
 31
0.0
  0
LINE
  5
307
  8
0
  6
CONTINUOUS
 62
     3
 10
50.53063418958354
 20
-1.493708758018954
 30
0.0
 11
60.53063347432757
 21
-18.81421321921056
 31
0.0
  0
LINE
  5
308
  8
0
  6
CONTINUOUS
 62
     3
 10
166.578036761383
 20
-18.81419876158242
 30
0.0
 11
176.5780379534759
 21
-1.493690996766134
 31
0.0
  0
LINE
  5
309
  8
0
  6
CONTINUOUS
 62
     3
 10
167.7452582258737
 20
7.358687070747976
 30
0.0
 11
170.4088124150838
 21
5.820883512505873
 31
0.0
  0
LINE
  5
30A
  8
0
  6
CONTINUOUS
 62
     3
 10
154.4952438937871
 20
-15.59098297138752
 30
0.0
 11
157.1588112974968
 21
-17.1287941590237
 31
0.0
  0
LINE
  5
30B
  8
0
  6
CONTINUOUS
 62
     3
 10
56.69986263845644
 20
5.820876115033286
 30
0.0
 11
59.36342673854128
 21
7.358685395320947
 31
0.0
  0
LINE
  5
30C
  8
0
  6
CONTINUOUS
 62
     3
 10
69.9498651523198
 20
-17.12879634552286
 30
0.0
 11
72.61342594877974
 21
-15.59098897258372
 31
0.0
  0
LINE
  5
30D
  8
0
  6
CONTINUOUS
 62
     3
 10
91.05433126502939
 20
81.3460362004028
 30
0.0
 11
103.5543312650294
 21
81.3460362004028
 31
0.0
  0
LINE
  5
30E
  8
0
  6
CONTINUOUS
 62
     3
 10
126.8043312650294
 20
81.3460362004028
 30
0.0
 11
126.8043312650294
 21
78.27042127120359
 31
0.0
  0
LINE
  5
30F
  8
0
  6
CONTINUOUS
 62
     3
 10
100.3043312650294
 20
81.3460362004028
 30
0.0
 11
100.3043312650294
 21
78.27042127120359
 31
0.0
  0
LINE
  5
310
  8
0
  6
CONTINUOUS
 62
     3
 10
123.5543312650294
 20
81.3460362004028
 30
0.0
 11
136.0543312650294
 21
81.3460362004028
 31
0.0
  0
LINE
  5
311
  8
0
  6
CONTINUOUS
 62
     3
 10
103.5543312650294
 20
90.3460362004028
 30
0.0
 11
123.5543312650294
 21
90.3460362004028
 31
0.0
  0
CIRCLE
  5
312
  8
0
  6
CONTINUOUS
 62
     3
 10
113.5543312650294
 20
-36.65396379959719
 30
0.0
 40
3.150000095367432
  0
CIRCLE
  5
313
  8
0
  6
CONTINUOUS
 62
     3
 10
130.8110909085841
 20
-41.05706667435305
 30
0.0
 40
7.0
  0
CIRCLE
  5
314
  8
0
  6
CONTINUOUS
 62
     3
 10
177.9574379544825
 20
40.60279584395749
 30
0.0
 40
7.0
  0
CIRCLE
  5
315
  8
0
  6
CONTINUOUS
 62
     3
 10
160.7006783109278
 20
70.49238324630124
 30
0.0
 40
7.0
  0
CIRCLE
  5
316
  8
0
  6
CONTINUOUS
 62
     3
 10
66.40798421913095
 20
70.49238324630124
 30
0.0
 40
7.0
  0
CIRCLE
  5
317
  8
0
  6
CONTINUOUS
 62
     3
 10
49.15122457557626
 20
40.60279584395749
 30
0.0
 40
7.0
  0
CIRCLE
  5
318
  8
0
  6
CONTINUOUS
 62
     3
 10
96.2975716214747
 20
-41.05706667435305
 30
0.0
 40
10.0
  0
CIRCLE
  5
319
  8
0
  6
CONTINUOUS
 62
     3
 10
130.8110909085841
 20
-41.05706667435305
 30
0.0
 40
10.0
  0
ARC
  5
31A
  8
0
  6
CONTINUOUS
 62
     3
 10
113.5543312650294
 20
23.34603810775144
 30
0.0
 40
52.5
 50
115.3769488184461
 51
184.6230322090578
  0
ARC
  5
31B
  8
0
  6
CONTINUOUS
 62
     3
 10
113.5543312650294
 20
23.34603810775144
 30
0.0
 40
140.0
 50
219.2483383394446
 51
320.7516464063153
  0
ARC
  5
31C
  8
0
  6
CONTINUOUS
 62
     3
 10
113.5543312650294
 20
23.34603810775144
 30
0.0
 40
52.5
 50
355.3769386489527
 51
64.6230698508886
  0
ARC
  5
31D
  8
0
  6
CONTINUOUS
 62
     3
 10
113.5543312650294
 20
23.34603810775144
 30
0.0
 40
52.5
 50
235.376914819081
 51
304.623069926679
  0
ARC
  5
31E
  8
0
  6
CONTINUOUS
 62
     3
 10
113.5543312650294
 20
23.34603810775144
 30
0.0
 40
137.0
 50
219.4526975994114
 51
320.5472905614431
  0
CIRCLE
  5
31F
  8
0
  6
CONTINUOUS
 62
     3
 10
113.5543312650294
 20
23.34603810775144
 30
0.0
 40
51.0
  0
ARC
  5
320
  8
0
  6
CONTINUOUS
 62
     3
 10
113.5543312650294
 20
23.34603810775144
 30
0.0
 40
56.5
 50
66.53242191260898
 51
113.4675967567257
  0
ARC
  5
321
  8
0
  6
CONTINUOUS
 62
     3
 10
113.5543312650294
 20
23.34603810775144
 30
0.0
 40
56.5
 50
306.5324185733048
 51
353.4675844527982
  0
CIRCLE
  5
322
  8
0
  6
CONTINUOUS
 62
     3
 10
113.5543312650294
 20
23.34603810775144
 30
0.0
 40
45.0
  0
ARC
  5
323
  8
0
  6
CONTINUOUS
 62
     3
 10
113.5543312650294
 20
23.34603810775144
 30
0.0
 40
56.5
 50
186.5324015736222
 51
233.4675764177389
  0
CIRCLE
  5
324
  8
0
  6
CONTINUOUS
 62
     3
 10
49.15122457557626
 20
40.60279584395749
 30
0.0
 40
10.0
  0
CIRCLE
  5
325
  8
0
  6
CONTINUOUS
 62
     3
 10
66.40798421913095
 20
70.49238324630124
 30
0.0
 40
10.0
  0
CIRCLE
  5
326
  8
0
  6
CONTINUOUS
 62
     3
 10
160.7006783109278
 20
70.49238324630124
 30
0.0
 40
10.0
  0
CIRCLE
  5
327
  8
0
  6
CONTINUOUS
 62
     3
 10
177.9574379544825
 20
40.60279584395749
 30
0.0
 40
10.0
  0
CIRCLE
  5
328
  8
0
  6
CONTINUOUS
 62
     3
 10
165.5158638578028
 20
53.34603620040281
 30
0.0
 40
3.150000095367432
  0
CIRCLE
  5
329
  8
0
  6
CONTINUOUS
 62
     3
 10
61.59280630165048
 20
53.34603620040281
 30
0.0
 40
3.150000095367432
  0
LINE
  5
32A
  8
0
  6
CONTINUOUS
 62
     3
 10
81.05433126502939
 20
161.5827763127075
 30
0.0
 11
81.05433126502939
 21
159.5214817570434
 31
0.0
  0
LINE
  5
32B
  8
0
  6
CONTINUOUS
 62
     3
 10
146.0543312650294
 20
161.5827763127075
 30
0.0
 11
146.0543312650294
 21
159.5214817570434
 31
0.0
  0
LINE
  5
32C
  8
0
  6
CONTINUOUS
 62
     3
 10
91.05433126502939
 20
163.3460362004028
 30
0.0
 11
136.0543312650294
 21
163.3460362004028
 31
0.0
  0
LINE
  5
32D
  8
0
  6
CONTINUOUS
 62
     3
 10
81.05432838285341
 20
161.5827597283508
 30
0.0
 11
91.05432838128908
 21
163.3460295861071
 31
0.0
  0
LINE
  5
32E
  8
0
  6
CONTINUOUS
 62
     3
 10
136.0543204573756
 20
163.3460281951901
 30
0.0
 11
146.0543204558113
 21
161.5827583374337
 31
0.0
  0
LINE
  5
32F
  8
0
  6
CONTINUOUS
 62
     3
 10
103.5543312650294
 20
151.3460362004028
 30
0.0
 11
123.5543312650294
 21
151.3460362004028
 31
0.0
  0
LINE
  5
330
  8
0
  6
CONTINUOUS
 62
     3
 10
247.7357370900971
 20
-16.59584706497952
 30
0.0
 11
249.5208574163078
 21
-17.62648665198611
 31
0.0
  0
LINE
  5
331
  8
0
  6
CONTINUOUS
 62
     3
 10
246.0478832868426
 20
-27.16838187495676
 30
0.0
 11
249.5208496395649
 21
-17.62648558400605
 31
0.0
  0
LINE
  5
332
  8
0
  6
CONTINUOUS
 62
     3
 10
-18.93922971831134
 20
-27.16838725781611
 30
0.0
 11
62.66770067013104
 21
19.94739076424781
 31
0.0
  0
LINE
  5
333
  8
0
  6
CONTINUOUS
 62
     3
 10
164.4409635188602
 20
19.9474022319535
 30
0.0
 11
246.04789886274
 21
-27.1683786511332
 31
0.0
  0
LINE
  5
334
  8
0
  6
CONTINUOUS
 62
     3
 10
-18.93922727091288
 20
-27.16838679894823
 30
0.0
 11
3.560777318644995
 21
-66.13953257340955
 31
0.0
  0
LINE
  5
335
  8
0
  6
CONTINUOUS
 62
     3
 10
223.5478874505555
 20
-66.13952376935634
 30
0.0
 11
246.0478920401134
 21
-27.16837799489502
 31
0.0
  0
LINE
  5
336
  8
0
  6
CONTINUOUS
 62
     3
 10
-12.68922913716611
 20
-37.9937070076968
 30
0.0
 11
58.32486254159889
 21
3.006293409535544
 31
0.0
  0
LINE
  5
337
  8
0
  6
CONTINUOUS
 62
     3
 10
-2.689226429587649
 20
-55.31421405725746
 30
0.0
 11
68.32486524917735
 21
-14.31421364002512
 31
0.0
  0
LINE
  5
338
  8
0
  6
CONTINUOUS
 62
     3
 10
168.7838125119414
 20
3.006300807008131
 30
0.0
 11
239.797899235269
 21
-37.99369674920143
 31
0.0
  0
LINE
  5
339
  8
0
  6
CONTINUOUS
 62
     3
 10
158.7838092932908
 20
-14.31421475715086
 30
0.0
 11
229.7978960166184
 21
-55.31421231336043
 31
0.0
  0
LINE
  5
33A
  8
0
  6
CONTINUOUS
 62
     3
 10
-2.29691995961619
 20
-31.99370674032735
 30
0.0
 11
7.703081232476706
 21
-49.31421450514364
 31
0.0
  0
LINE
  5
33B
  8
0
  6
CONTINUOUS
 62
     3
 10
219.4055854440727
 20
-49.31420239746575
 30
0.0
 11
229.4055866361656
 21
-31.99369463264946
 31
0.0
  0
LINE
  5
33C
  8
0
  6
CONTINUOUS
 62
     3
 10
136.0543312650294
 20
163.3460362004028
 30
0.0
 11
136.0543312650294
 21
69.11447644698484
 31
0.0
  0
LINE
  5
33D
  8
0
  6
CONTINUOUS
 62
     3
 10
91.05433126502939
 20
163.3460362004028
 30
0.0
 11
91.05433126502939
 21
69.11447644698484
 31
0.0
  0
LINE
  5
33E
  8
0
  6
CONTINUOUS
 62
     3
 10
123.5543312650294
 20
163.3460362004028
 30
0.0
 11
123.5543312650294
 21
81.3460362004028
 31
0.0
  0
LINE
  5
33F
  8
0
  6
CONTINUOUS
 62
     3
 10
103.5543312650294
 20
163.3460362004028
 30
0.0
 11
103.5543312650294
 21
81.3460362004028
 31
0.0
  0
ARC
  5
340
  8
0
  6
CONTINUOUS
 62
     3
 10
113.5543312650294
 20
23.34603810775144
 30
0.0
 40
140.0
 50
99.24837916899891
 51
200.7516086886941
  0
ARC
  5
341
  8
0
  6
CONTINUOUS
 62
     3
 10
113.5543312650294
 20
23.34603810775144
 30
0.0
 40
140.0
 50
339.2483638768637
 51
80.75163950033577
  0
ARC
  5
342
  8
0
  6
CONTINUOUS
 62
     3
 10
113.5543312650294
 20
23.34603810775144
 30
0.0
 40
137.0
 50
339.4527197217358
 51
80.54728707055814
  0
ARC
  5
343
  8
0
  6
CONTINUOUS
 62
     3
 10
113.5543312650294
 20
23.34603810775144
 30
0.0
 40
137.0
 50
99.45273159877654
 51
200.5472494287274
  0
CIRCLE
  5
344
  8
0
  6
CONTINUOUS
 62
     3
 10
74.05421835845766
 20
23.34601070396824
 30
0.0
 40
3.099999904632568
  0
CIRCLE
  5
345
  8
0
  6
CONTINUOUS
 62
     3
 10
153.0542183584577
 20
23.34601070396824
 30
0.0
 40
3.099999904632568
  0
LINE
  5
346
  8
0
  6
CONTINUOUS
 62
     3
 10
-122.2014289278417
 20
65.84604781580093
 30
0.0
 11
-122.2014289278417
 21
59.84604781580092
 31
0.0
  0
LINE
  5
347
  8
0
  6
CONTINUOUS
 62
     3
 10
-127.2014289278417
 20
65.84604781580093
 30
0.0
 11
-117.2014289278417
 21
65.84604781580093
 31
0.0
  0
LINE
  5
348
  8
0
  6
CONTINUOUS
 62
     3
 10
-127.2014289278417
 20
59.84604781580092
 30
0.0
 11
-117.2014289278417
 21
59.84604781580092
 31
0.0
  0
LINE
  5
349
  8
0
  6
CONTINUOUS
 62
     3
 10
-118.2014289278417
 20
65.84604781580093
 30
0.0
 11
-118.2014289278417
 21
59.84604781580092
 31
0.0
  0
LINE
  5
34A
  8
0
  6
DIVIDE
 62
     9
 10
-193.8860679048925
 20
74.3460459084523
 30
0.0
 11
-192.6004691500097
 21
74.3460459084523
 31
0.0
  0
LINE
  5
34B
  8
0
  6
DIVIDE
 62
     9
 10
-209.1860709566503
 20
-37.32895714330552
 30
0.0
 11
-209.1860709566503
 21
-49.32895714330552
 31
0.0
  0
LINE
  5
34C
  8
0
  6
DIVIDE
 62
     9
 10
-173.1860709566503
 20
-37.32895714330552
 30
0.0
 11
-173.1860709566503
 21
-49.32895714330552
 31
0.0
  0
LINE
  5
34D
  8
0
  6
DIVIDE
 62
     9
 10
-209.1860709566503
 20
-48.47895866918442
 30
0.0
 11
-173.1860709566503
 21
-48.47895866918442
 31
0.0
  0
LINE
  5
34E
  8
0
  6
DIVIDE
 62
     9
 10
-209.1860709566503
 20
-38.17895561742661
 30
0.0
 11
-173.1860709566503
 21
-38.17895561742661
 31
0.0
  0
LINE
  5
34F
  8
0
  6
DIVIDE
 62
     9
 10
-209.1860709566503
 20
-37.32895714330552
 30
0.0
 11
-147.1380515474706
 21
-37.32895714330552
 31
0.0
  0
LINE
  5
350
  8
0
  6
DIVIDE
 62
     9
 10
-209.1860709566503
 20
-49.32895714330552
 30
0.0
 11
-147.1380515474706
 21
-49.32895714330552
 31
0.0
  0
LINE
  5
351
  8
0
  6
DIVIDE
 62
     9
 10
-99.88607553428702
 20
73.3460459084523
 30
0.0
 11
-99.88607553428702
 21
26.39264434290054
 31
0.0
  0
LINE
  5
352
  8
0
  6
DIVIDE
 62
     9
 10
-100.8860736204287
 20
74.34604448753645
 30
0.0
 11
-99.88607255883917
 21
73.34604342594695
 31
0.0
  0
LINE
  5
353
  8
0
  6
DIVIDE
 62
     9
 10
-106.9415641207128
 20
74.3460459084523
 30
0.0
 11
-100.886075534287
 21
74.3460459084523
 31
0.0
  0
LINE
  5
354
  8
0
  6
DIVIDE
 62
     9
 10
-193.8860828135106
 20
74.34605451641765
 30
0.0
 11
-194.8860854766557
 21
73.34604418249647
 31
0.0
  0
LINE
  5
355
  8
0
  6
DIVIDE
 62
     9
 10
-194.8860679048925
 20
73.34603827905777
 30
0.0
 11
-194.8860679048925
 21
26.19617980432632
 31
0.0
  0
LINE
  5
356
  8
0
  6
CONTINUOUS
 62
     4
 10
-97.1860709566503
 20
163.3460459084523
 30
0.0
 11
-97.1860709566503
 21
151.3460459084523
 31
0.0
  0
LINE
  5
357
  8
0
  6
CONTINUOUS
 62
     4
 10
-98.1860709566503
 20
163.3460459084523
 30
0.0
 11
-98.1860709566503
 21
151.3460459084523
 31
0.0
  0
LINE
  5
358
  8
0
  6
CONTINUOUS
 62
     4
 10
-98.1860709566503
 20
90.3460459084523
 30
0.0
 11
-98.1860709566503
 21
81.3460459084523
 31
0.0
  0
LINE
  5
359
  8
0
  6
CONTINUOUS
 62
     4
 10
-97.1860709566503
 20
90.3460459084523
 30
0.0
 11
-97.1860709566503
 21
81.3460459084523
 31
0.0
  0
LINE
  5
35A
  8
0
  6
CONTINUOUS
 62
     4
 10
-116.1860709566503
 20
108.4960474343312
 30
0.0
 11
-85.1860709566503
 21
108.4960474343312
 31
0.0
  0
LINE
  5
35B
  8
0
  6
CONTINUOUS
 62
     4
 10
-116.1860709566503
 20
98.19604438257339
 30
0.0
 11
-85.1860709566503
 21
98.19604438257339
 31
0.0
  0
LINE
  5
35C
  8
0
  6
CONTINUOUS
 62
     4
 10
-116.1860709566503
 20
143.4960398049367
 30
0.0
 11
-85.1860709566503
 21
143.4960398049367
 31
0.0
  0
LINE
  5
35D
  8
0
  6
CONTINUOUS
 62
     4
 10
-116.1860709566503
 20
133.1960520119679
 30
0.0
 11
-85.1860709566503
 21
133.1960520119679
 31
0.0
  0
LINE
  5
35E
  8
0
  6
CONTINUOUS
 62
     4
 10
-127.2014212984472
 20
-20.95395142125962
 30
0.0
 11
-117.2014212984472
 21
-20.95395142125962
 31
0.0
  0
LINE
  5
35F
  8
0
  6
CONTINUOUS
 62
     4
 10
-127.2014212984472
 20
67.64604896021011
 30
0.0
 11
-117.2014212984472
 21
67.64604896021011
 31
0.0
  0
LINE
  5
360
  8
0
  6
CONTINUOUS
 62
     4
 10
-111.1860709566503
 20
-32.6539540915477
 30
0.0
 11
-111.1860709566503
 21
-40.6539540915477
 31
0.0
  0
LINE
  5
361
  8
0
  6
CONTINUOUS
 62
     4
 10
-111.1860709566503
 20
-32.6539540915477
 30
0.0
 11
-96.1860709566503
 21
-32.6539540915477
 31
0.0
  0
LINE
  5
362
  8
0
  6
CONTINUOUS
 62
     4
 10
-111.1860709566503
 20
-40.6539540915477
 30
0.0
 11
-96.1860709566503
 21
-40.6539540915477
 31
0.0
  0
LINE
  5
363
  8
0
  6
CONTINUOUS
 62
     4
 10
-146.2014212984472
 20
58.34604781580093
 30
0.0
 11
-146.2014212984472
 21
45.44868224573257
 31
0.0
  0
LINE
  5
364
  8
0
  6
CONTINUOUS
 62
     4
 10
-176.2014212984472
 20
58.34604781580093
 30
0.0
 11
-176.2014212984472
 21
45.72937148523452
 31
0.0
  0
LINE
  5
365
  8
0
  6
CONTINUOUS
 62
     4
 10
-176.2014212984472
 20
0.1261858315479998
 30
0.0
 11
-176.2014212984472
 21
-11.65395218419907
 31
0.0
  0
LINE
  5
366
  8
0
  6
CONTINUOUS
 62
     4
 10
-146.2014212984472
 20
0.687564310551906
 30
0.0
 11
-146.2014212984472
 21
-11.65395218419907
 31
0.0
  0
LINE
  5
367
  8
0
  6
CONTINUOUS
 62
     4
 10
170.5828437865767
 20
3.122328231260155
 30
0.0
 11
175.8328444124255
 21
12.2155948077887
 31
0.0
  0
LINE
  5
368
  8
0
  6
CONTINUOUS
 62
     4
 10
154.3328418494258
 20
-25.02349688656631
 30
0.0
 11
159.5828424752745
 21
-15.93023031003776
 31
0.0
  0
LINE
  5
369
  8
0
  6
CONTINUOUS
 62
     4
 10
155.631879931787
 20
-25.77349697597327
 30
0.0
 11
160.8818805576358
 21
-16.68023039944472
 31
0.0
  0
LINE
  5
36A
  8
0
  6
CONTINUOUS
 62
     4
 10
156.9309180141482
 20
-26.52349706538024
 30
0.0
 11
162.180918639997
 21
-17.43023048885169
 31
0.0
  0
LINE
  5
36B
  8
0
  6
CONTINUOUS
 62
     4
 10
158.2299560965094
 20
-27.27349715478721
 30
0.0
 11
163.4799567223582
 21
-18.18023057825866
 31
0.0
  0
LINE
  5
36C
  8
0
  6
CONTINUOUS
 62
     4
 10
159.5289941788706
 20
-28.02349724419417
 30
0.0
 11
164.7789948047194
 21
-18.93023066766563
 31
0.0
  0
LINE
  5
36D
  8
0
  6
CONTINUOUS
 62
     4
 10
160.8280322612319
 20
-28.77349733360114
 30
0.0
 11
166.0780328870806
 21
-19.68023075707259
 31
0.0
  0
LINE
  5
36E
  8
0
  6
CONTINUOUS
 62
     4
 10
171.8818818689379
 20
2.372328141853188
 30
0.0
 11
177.1318824947867
 21
11.46559471838174
 31
0.0
  0
LINE
  5
36F
  8
0
  6
CONTINUOUS
 62
     4
 10
173.1809199512992
 20
1.622328052446221
 30
0.0
 11
178.4309205771479
 21
10.71559462897477
 31
0.0
  0
LINE
  5
370
  8
0
  6
CONTINUOUS
 62
     4
 10
174.4799580336604
 20
0.872327963039254
 30
0.0
 11
179.7299586595092
 21
9.965594539567803
 31
0.0
  0
LINE
  5
371
  8
0
  6
CONTINUOUS
 62
     4
 10
175.7789961160216
 20
0.1223278736322868
 30
0.0
 11
181.0289967418704
 21
9.215594450160836
 31
0.0
  0
LINE
  5
372
  8
0
  6
CONTINUOUS
 62
     4
 10
177.0780341983828
 20
-0.6276722157746804
 30
0.0
 11
182.3280348242316
 21
8.465594360753869
 31
0.0
  0
LINE
  5
373
  8
0
  6
CONTINUOUS
 62
     4
 10
220.1507713557276
 20
-63.02350141651931
 30
0.0
 11
225.4007719815764
 21
-53.93023483999076
 31
0.0
  0
LINE
  5
374
  8
0
  6
CONTINUOUS
 62
     4
 10
218.8517332733664
 20
-62.27350132711234
 30
0.0
 11
224.1017338992152
 21
-53.18023475058379
 31
0.0
  0
LINE
  5
375
  8
0
  6
CONTINUOUS
 62
     4
 10
217.5526951910052
 20
-61.52350123770537
 30
0.0
 11
222.802695816854
 21
-52.43023466117683
 31
0.0
  0
LINE
  5
376
  8
0
  6
CONTINUOUS
 62
     4
 10
216.253657108644
 20
-60.77350114829841
 30
0.0
 11
221.5036577344927
 21
-51.68023457176986
 31
0.0
  0
LINE
  5
377
  8
0
  6
CONTINUOUS
 62
     4
 10
92.05433126502939
 20
82.8460362004028
 30
0.0
 11
102.5543312650294
 21
82.8460362004028
 31
0.0
  0
LINE
  5
378
  8
0
  6
CONTINUOUS
 62
     4
 10
124.5543312650294
 20
82.8460362004028
 30
0.0
 11
135.0543312650294
 21
82.8460362004028
 31
0.0
  0
LINE
  5
379
  8
0
  6
CONTINUOUS
 62
     4
 10
124.5543312650294
 20
84.3460362004028
 30
0.0
 11
135.0543312650294
 21
84.3460362004028
 31
0.0
  0
LINE
  5
37A
  8
0
  6
CONTINUOUS
 62
     4
 10
124.5543312650294
 20
85.8460362004028
 30
0.0
 11
135.0543312650294
 21
85.8460362004028
 31
0.0
  0
LINE
  5
37B
  8
0
  6
CONTINUOUS
 62
     4
 10
124.5543312650294
 20
87.3460362004028
 30
0.0
 11
135.0543312650294
 21
87.3460362004028
 31
0.0
  0
LINE
  5
37C
  8
0
  6
CONTINUOUS
 62
     4
 10
124.5543312650294
 20
88.8460362004028
 30
0.0
 11
135.0543312650294
 21
88.8460362004028
 31
0.0
  0
LINE
  5
37D
  8
0
  6
CONTINUOUS
 62
     4
 10
124.5543312650294
 20
90.3460362004028
 30
0.0
 11
135.0543312650294
 21
90.3460362004028
 31
0.0
  0
LINE
  5
37E
  8
0
  6
CONTINUOUS
 62
     4
 10
92.05433126502939
 20
84.3460362004028
 30
0.0
 11
102.5543312650294
 21
84.3460362004028
 31
0.0
  0
LINE
  5
37F
  8
0
  6
CONTINUOUS
 62
     4
 10
92.05433126502939
 20
85.8460362004028
 30
0.0
 11
102.5543312650294
 21
85.8460362004028
 31
0.0
  0
LINE
  5
380
  8
0
  6
CONTINUOUS
 62
     4
 10
92.05433126502939
 20
87.3460362004028
 30
0.0
 11
102.5543312650294
 21
87.3460362004028
 31
0.0
  0
LINE
  5
381
  8
0
  6
CONTINUOUS
 62
     4
 10
92.05433126502939
 20
88.8460362004028
 30
0.0
 11
102.5543312650294
 21
88.8460362004028
 31
0.0
  0
LINE
  5
382
  8
0
  6
CONTINUOUS
 62
     4
 10
92.05433126502939
 20
90.3460362004028
 30
0.0
 11
102.5543312650294
 21
90.3460362004028
 31
0.0
  0
CIRCLE
  5
383
  8
0
  6
CONTINUOUS
 62
     4
 10
113.5543312650294
 20
-36.65396379959719
 30
0.0
 40
4.0
  0
CIRCLE
  5
384
  8
0
  6
CONTINUOUS
 62
     4
 10
113.5543312650294
 20
23.34603810775144
 30
0.0
 40
44.0
  0
ARC
  5
385
  8
0
  6
CONTINUOUS
 62
     4
 10
113.5543312650294
 20
23.34603810775144
 30
0.0
 40
57.0
 50
114.9010758785929
 51
129.2199800772561
  0
ARC
  5
386
  8
0
  6
CONTINUOUS
 62
     4
 10
113.5543312650294
 20
23.34603810775144
 30
0.0
 40
57.0
 50
234.9010418792278
 51
249.2199460778909
  0
ARC
  5
387
  8
0
  6
CONTINUOUS
 62
     4
 10
113.5543312650294
 20
23.34603810775144
 30
0.0
 40
57.0
 50
354.9010682704205
 51
9.219959662478907
  0
ARC
  5
388
  8
0
  6
CONTINUOUS
 62
     4
 10
113.5543312650294
 20
23.34603810775144
 30
0.0
 40
63.0
 50
232.392668566919
 51
245.3552474605793
  0
ARC
  5
389
  8
0
  6
CONTINUOUS
 62
     4
 10
113.5543312650294
 20
23.34603810775144
 30
0.0
 40
69.0
 50
230.3543898544254
 51
245.4752607144856
  0
ARC
  5
38A
  8
0
  6
CONTINUOUS
 62
     4
 10
113.5543312650294
 20
23.34603810775144
 30
0.0
 40
75.0
 50
228.6629071668501
 51
248.5684143329634
  0
ARC
  5
38B
  8
0
  6
CONTINUOUS
 62
     4
 10
113.5543312650294
 20
23.34603810775144
 30
0.0
 40
81.0
 50
227.235261026534
 51
313.1346535948629
  0
ARC
  5
38C
  8
0
  6
CONTINUOUS
 62
     4
 10
113.5543312650294
 20
23.34603810775144
 30
0.0
 40
87.0
 50
226.0133675047755
 51
314.3289019259559
  0
ARC
  5
38D
  8
0
  6
CONTINUOUS
 62
     4
 10
113.5543312650294
 20
23.34603810775144
 30
0.0
 40
93.0
 50
224.9552345985571
 51
315.363361396511
  0
ARC
  5
38E
  8
0
  6
CONTINUOUS
 62
     4
 10
113.5543312650294
 20
23.34603810775144
 30
0.0
 40
99.0
 50
224.0296483433719
 51
316.2684195181457
  0
ARC
  5
38F
  8
0
  6
CONTINUOUS
 62
     4
 10
113.5543312650294
 20
23.34603810775144
 30
0.0
 40
105.0
 50
223.2129626243135
 51
317.0671213491194
  0
ARC
  5
390
  8
0
  6
CONTINUOUS
 62
     4
 10
113.5543312650294
 20
23.34603810775144
 30
0.0
 40
63.0
 50
112.3927025662841
 51
125.3552814599444
  0
ARC
  5
391
  8
0
  6
CONTINUOUS
 62
     4
 10
113.5543312650294
 20
23.34603810775144
 30
0.0
 40
69.0
 50
110.3544238537905
 51
125.4753015440399
  0
ARC
  5
392
  8
0
  6
CONTINUOUS
 62
     4
 10
113.5543312650294
 20
23.34603810775144
 30
0.0
 40
75.0
 50
108.6629411662152
 51
128.5684483323285
  0
ARC
  5
393
  8
0
  6
CONTINUOUS
 62
     4
 10
113.5543312650294
 20
23.34603810775144
 30
0.0
 40
63.0
 50
352.3926923967907
 51
5.35526616780915
  0
ARC
  5
394
  8
0
  6
CONTINUOUS
 62
     4
 10
113.5543312650294
 20
23.34603810775144
 30
0.0
 40
69.0
 50
350.3544119767499
 51
5.475275152847213
  0
ARC
  5
395
  8
0
  6
CONTINUOUS
 62
     4
 10
113.5543312650294
 20
23.34603810775144
 30
0.0
 40
75.0
 50
348.6629301429482
 51
8.568425356230453
  0
ARC
  5
396
  8
0
  6
CONTINUOUS
 62
     4
 10
113.5543312650294
 20
23.34603810775144
 30
0.0
 40
81.0
 50
347.2352908328213
 51
73.13465351907257
  0
ARC
  5
397
  8
0
  6
CONTINUOUS
 62
     4
 10
113.5543312650294
 20
23.34603810775144
 30
0.0
 40
87.0
 50
346.0133981648364
 51
74.32889160488179
  0
ARC
  5
398
  8
0
  6
CONTINUOUS
 62
     4
 10
113.5543312650294
 20
23.34603810775144
 30
0.0
 40
93.0
 50
344.9552533057869
 51
75.36335790562606
  0
ARC
  5
399
  8
0
  6
CONTINUOUS
 62
     4
 10
113.5543312650294
 20
23.34603810775144
 30
0.0
 40
99.0
 50
344.0296704656964
 51
76.26841261216612
  0
ARC
  5
39A
  8
0
  6
CONTINUOUS
 62
     4
 10
113.5543312650294
 20
23.34603810775144
 30
0.0
 40
105.0
 50
343.2129830390907
 51
77.06711444313989
  0
ARC
  5
39B
  8
0
  6
CONTINUOUS
 62
     4
 10
113.5543312650294
 20
23.34603810775144
 30
0.0
 40
57.0
 50
260.78002075757
 51
265.4824420765837
  0
ARC
  5
39C
  8
0
  6
CONTINUOUS
 62
     4
 10
113.5543312650294
 20
23.34603810775144
 30
0.0
 40
69.0
 50
264.5247061209753
 51
275.4752820398792
  0
ARC
  5
39D
  8
0
  6
CONTINUOUS
 62
     4
 10
113.5543312650294
 20
23.34603810775144
 30
0.0
 40
75.0
 50
261.4315525024975
 51
278.568435658357
  0
ARC
  5
39E
  8
0
  6
CONTINUOUS
 62
     4
 10
113.5543312650294
 20
23.34603810775144
 30
0.0
 40
75.0
 50
291.4315738278911
 51
311.3370775789098
  0
ARC
  5
39F
  8
0
  6
CONTINUOUS
 62
     4
 10
113.5543312650294
 20
23.34603810775144
 30
0.0
 40
69.0
 50
294.5247274463689
 51
309.6455983064291
  0
ARC
  5
3A0
  8
0
  6
CONTINUOUS
 62
     4
 10
113.5543312650294
 20
23.34603810775144
 30
0.0
 40
63.0
 50
294.6447475304644
 51
307.6073195939355
  0
ARC
  5
3A1
  8
0
  6
CONTINUOUS
 62
     4
 10
113.5543312650294
 20
23.34603810775144
 30
0.0
 40
57.0
 50
290.7800420829636
 51
305.014873483133
  0
ARC
  5
3A2
  8
0
  6
CONTINUOUS
 62
     4
 10
113.5543312650294
 20
23.34603810775144
 30
0.0
 40
57.0
 50
274.5175392540817
 51
279.2199674032845
  0
ARC
  5
3A3
  8
0
  6
CONTINUOUS
 62
     4
 10
113.5543312650294
 20
23.34603810775144
 30
0.0
 40
81.0
 50
106.8653651502621
 51
192.7646723412263
  0
ARC
  5
3A4
  8
0
  6
CONTINUOUS
 62
     4
 10
113.5543312650294
 20
23.34603810775144
 30
0.0
 40
75.0
 50
171.4315873366887
 51
191.3370398612886
  0
ARC
  5
3A5
  8
0
  6
CONTINUOUS
 62
     4
 10
113.5543312650294
 20
23.34603810775144
 30
0.0
 40
75.0
 50
141.4315933320518
 51
158.5684423369654
  0
ARC
  5
3A6
  8
0
  6
CONTINUOUS
 62
     4
 10
113.5543312650294
 20
23.34603810775144
 30
0.0
 40
69.0
 50
144.5247401203405
 51
155.4752955486768
  0
ARC
  5
3A7
  8
0
  6
CONTINUOUS
 62
     4
 10
113.5543312650294
 20
23.34603810775144
 30
0.0
 40
69.0
 50
174.5247477853557
 51
189.6455571737133
  0
ARC
  5
3A8
  8
0
  6
CONTINUOUS
 62
     4
 10
113.5543312650294
 20
23.34603810775144
 30
0.0
 40
63.0
 50
174.6447542090728
 51
187.6072784612197
  0
ARC
  5
3A9
  8
0
  6
CONTINUOUS
 62
     4
 10
113.5543312650294
 20
23.34603810775144
 30
0.0
 40
63.0
 50
144.6447602044359
 51
146.5611200402447
  0
ARC
  5
3AA
  8
0
  6
CONTINUOUS
 62
     4
 10
113.5543312650294
 20
23.34603810775144
 30
0.0
 40
57.0
 50
140.7800615871243
 51
145.8243748552322
  0
ARC
  5
3AB
  8
0
  6
CONTINUOUS
 62
     4
 10
113.5543312650294
 20
23.34603810775144
 30
0.0
 40
57.0
 50
170.7800555917612
 51
185.0989051489109
  0
CIRCLE
  5
3AC
  8
0
  6
CONTINUOUS
 62
     4
 10
61.59280630165048
 20
53.34603620040281
 30
0.0
 40
4.0
  0
CIRCLE
  5
3AD
  8
0
  6
CONTINUOUS
 62
     4
 10
165.5158638578028
 20
53.34603620040281
 30
0.0
 40
4.0
  0
ARC
  5
3AE
  8
0
  6
CONTINUOUS
 62
     4
 10
113.5543312650294
 20
23.34603810775144
 30
0.0
 40
63.0
 50
153.6455698323004
 51
155.3552891249597
  0
ARC
  5
3AF
  8
0
  6
CONTINUOUS
 62
     4
 10
113.5543312650294
 20
23.34603810775144
 30
0.0
 40
57.0
 50
154.1015669216688
 51
159.2199877422713
  0
ARC
  5
3B0
  8
0
  6
CONTINUOUS
 62
     4
 10
113.5543312650294
 20
23.34603810775144
 30
0.0
 40
57.0
 50
33.99168291409198
 51
39.21995708221038
  0
ARC
  5
3B1
  8
0
  6
CONTINUOUS
 62
     4
 10
113.5543312650294
 20
23.34603810775144
 30
0.0
 40
63.0
 50
33.55627542997659
 51
35.35526187999333
  0
ARC
  5
3B2
  8
0
  6
CONTINUOUS
 62
     4
 10
113.5543312650294
 20
23.34603810775144
 30
0.0
 40
75.0
 50
51.43157033700614
 51
71.33707750311945
  0
ARC
  5
3B3
  8
0
  6
CONTINUOUS
 62
     4
 10
113.5543312650294
 20
23.34603810775144
 30
0.0
 40
69.0
 50
54.52472054038937
 51
69.64559481554413
  0
ARC
  5
3B4
  8
0
  6
CONTINUOUS
 62
     4
 10
113.5543312650294
 20
23.34603810775144
 30
0.0
 40
63.0
 50
54.64473720939026
 51
67.60731610305058
  0
ARC
  5
3B5
  8
0
  6
CONTINUOUS
 62
     4
 10
113.5543312650294
 20
23.34603810775144
 30
0.0
 40
57.0
 50
50.78003176188945
 51
65.09893596055257
  0
ARC
  5
3B6
  8
0
  6
CONTINUOUS
 62
     4
 10
113.5543312650294
 20
23.34603810775144
 30
0.0
 40
57.0
 50
20.78003434215798
 51
26.2208349689432
  0
ARC
  5
3B7
  8
0
  6
CONTINUOUS
 62
     4
 10
113.5543312650294
 20
23.34603810775144
 30
0.0
 40
63.0
 50
24.64472783682773
 51
26.5149070561108
  0
ARC
  5
3B8
  8
0
  6
CONTINUOUS
 62
     4
 10
113.5543312650294
 20
23.34603810775144
 30
0.0
 40
69.0
 50
24.52471970556332
 51
35.47527513389962
  0
ARC
  5
3B9
  8
0
  6
CONTINUOUS
 62
     4
 10
113.5543312650294
 20
23.34603810775144
 30
0.0
 40
75.0
 50
21.43156779463279
 51
38.56842533728286
  0
ARC
  5
3BA
  8
0
  6
CONTINUOUS
 62
     4
 10
113.5543312650294
 20
23.34603810775144
 30
0.0
 40
105.0
 50
102.9329042261948
 51
196.7869844038252
  0
ARC
  5
3BB
  8
0
  6
CONTINUOUS
 62
     4
 10
113.5543312650294
 20
23.34603810775144
 30
0.0
 40
99.0
 50
103.7316060571686
 51
195.9702986847668
  0
ARC
  5
3BC
  8
0
  6
CONTINUOUS
 62
     4
 10
113.5543312650294
 20
23.34603810775144
 30
0.0
 40
93.0
 50
104.6366607637086
 51
195.0447124295816
  0
ARC
  5
3BD
  8
0
  6
CONTINUOUS
 62
     4
 10
113.5543312650294
 20
23.34603810775144
 30
0.0
 40
87.0
 50
105.6711270644529
 51
193.9865658629849
  0
LINE
  5
3BE
  8
0
  6
CONTINUOUS
 62
     4
 10
124.5543312650294
 20
161.8460362004028
 30
0.0
 11
135.0543312650294
 21
161.8460362004028
 31
0.0
  0
LINE
  5
3BF
  8
0
  6
CONTINUOUS
 62
     4
 10
92.05433126502939
 20
161.8460362004028
 30
0.0
 11
102.5543312650294
 21
161.8460362004028
 31
0.0
  0
LINE
  5
3C0
  8
0
  6
CONTINUOUS
 62
     4
 10
92.05433126502939
 20
160.3460362004028
 30
0.0
 11
102.5543312650294
 21
160.3460362004028
 31
0.0
  0
LINE
  5
3C1
  8
0
  6
CONTINUOUS
 62
     4
 10
92.05433126502939
 20
158.8460362004028
 30
0.0
 11
102.5543312650294
 21
158.8460362004028
 31
0.0
  0
LINE
  5
3C2
  8
0
  6
CONTINUOUS
 62
     4
 10
92.05433126502939
 20
157.3460362004028
 30
0.0
 11
102.5543312650294
 21
157.3460362004028
 31
0.0
  0
LINE
  5
3C3
  8
0
  6
CONTINUOUS
 62
     4
 10
92.05433126502939
 20
155.8460362004028
 30
0.0
 11
102.5543312650294
 21
155.8460362004028
 31
0.0
  0
LINE
  5
3C4
  8
0
  6
CONTINUOUS
 62
     4
 10
92.05433126502939
 20
154.3460362004028
 30
0.0
 11
102.5543312650294
 21
154.3460362004028
 31
0.0
  0
LINE
  5
3C5
  8
0
  6
CONTINUOUS
 62
     4
 10
124.5543312650294
 20
160.3460362004028
 30
0.0
 11
135.0543312650294
 21
160.3460362004028
 31
0.0
  0
LINE
  5
3C6
  8
0
  6
CONTINUOUS
 62
     4
 10
124.5543312650294
 20
158.8460362004028
 30
0.0
 11
135.0543312650294
 21
158.8460362004028
 31
0.0
  0
LINE
  5
3C7
  8
0
  6
CONTINUOUS
 62
     4
 10
124.5543312650294
 20
157.3460362004028
 30
0.0
 11
135.0543312650294
 21
157.3460362004028
 31
0.0
  0
LINE
  5
3C8
  8
0
  6
CONTINUOUS
 62
     4
 10
124.5543312650294
 20
155.8460362004028
 30
0.0
 11
135.0543312650294
 21
155.8460362004028
 31
0.0
  0
LINE
  5
3C9
  8
0
  6
CONTINUOUS
 62
     4
 10
124.5543312650294
 20
154.3460362004028
 30
0.0
 11
135.0543312650294
 21
154.3460362004028
 31
0.0
  0
LINE
  5
3CA
  8
0
  6
CONTINUOUS
 62
     4
 10
238.998849457601
 20
-36.37767647750678
 30
0.0
 11
244.2488500834498
 21
-27.28440990097823
 31
0.0
  0
LINE
  5
3CB
  8
0
  6
CONTINUOUS
 62
     4
 10
237.6998113752398
 20
-35.62767638809981
 30
0.0
 11
242.9498120010886
 21
-26.53440981157127
 31
0.0
  0
LINE
  5
3CC
  8
0
  6
CONTINUOUS
 62
     4
 10
236.4007732928786
 20
-34.87767629869285
 30
0.0
 11
241.6507739187274
 21
-25.7844097221643
 31
0.0
  0
LINE
  5
3CD
  8
0
  6
CONTINUOUS
 62
     4
 10
235.1017352105174
 20
-34.12767620928588
 30
0.0
 11
240.3517358363661
 21
-25.03440963275733
 31
0.0
  0
LINE
  5
3CE
  8
0
  6
CONTINUOUS
 62
     4
 10
233.8026971281562
 20
-33.37767611987891
 30
0.0
 11
239.0526977540049
 21
-24.28440954335036
 31
0.0
  0
LINE
  5
3CF
  8
0
  6
CONTINUOUS
 62
     4
 10
232.5036590457949
 20
-32.62767603047195
 30
0.0
 11
237.7536596716437
 21
-23.5344094539434
 31
0.0
  0
LINE
  5
3D0
  8
0
  6
CONTINUOUS
 62
     4
 10
222.7488475204501
 20
-64.52350159533324
 30
0.0
 11
227.9988481462989
 21
-55.43023501880469
 31
0.0
  0
LINE
  5
3D1
  8
0
  6
CONTINUOUS
 62
     4
 10
221.4498094380889
 20
-63.77350150592628
 30
0.0
 11
226.6998100639376
 21
-54.68023492939773
 31
0.0
  0
CIRCLE
  5
3D2
  8
0
  6
CONTINUOUS
 62
     4
 10
113.5542183584577
 20
62.84601070396823
 30
0.0
 40
2.5
  0
CIRCLE
  5
3D3
  8
0
  6
CONTINUOUS
 62
     4
 10
79.34629176622661
 20
3.59596633041178
 30
0.0
 40
2.499999999999999
  0
CIRCLE
  5
3D4
  8
0
  6
CONTINUOUS
 62
     4
 10
147.7622986651972
 20
3.596055077524678
 30
0.0
 40
2.5
  0
LINE
  5
3D5
  8
0
  6
CONTINUOUS
 62
     4
 10
-127.2014289278417
 20
65.34604781580093
 30
0.0
 11
-117.2014289278417
 21
65.34604781580093
 31
0.0
  0
LINE
  5
3D6
  8
0
  6
CONTINUOUS
 62
     4
 10
-127.2014289278417
 20
60.34604781580092
 30
0.0
 11
-117.2014289278417
 21
60.34604781580092
 31
0.0
  0
TEXT
  5
3D7
  8
0
 62
     7
 10
-53.49328139359248
 20
42.37149556263184
 30
0.0
 40
4.0
  1
MIN 53
 50
90.0
 41
0.9000000000000001
  7
DCSTYLE1
 72
     5
 11
-53.49328139359248
 21
61.57149556263184
 31
0.0
  0
TEXT
  5
3D8
  8
0
 62
     7
 10
-218.3707288465883
 20
170.6817979711409
 30
0.0
 40
4.0
  1
MIN-3.4
 41
0.9187500000000003
  7
DCSTYLE1
 72
     5
 11
-195.9707288465883
 21
170.6817979711409
 31
0.0
  0
TEXT
  5
3D9
  8
0
 62
     7
 10
-181.1381980318456
 20
-148.1484613374645
 30
0.0
 40
4.0
  1
MIN 28.6
 41
0.9464788732394365
  7
DCSTYLE1
 72
     5
 11
-155.5381980318456
 21
-148.1484613374645
 31
0.0
  0
LINE
  5
3DA
  8
LAYER0014
  6
CONTINUOUS
 62
     7
 10
-191.4860740084081
 20
175.3936533303273
 30
0.0
 11
-219.1664939302831
 21
175.3936533303273
 31
0.0
  0
LINE
  5
3DB
  8
LAYER0014
  6
CONTINUOUS
 62
     7
 10
-191.4860740084081
 20
151.631737436951
 30
0.0
 11
-191.4860740084081
 21
176.3936533303273
 31
0.0
  0
LINE
  5
3DC
  8
LAYER0014
  6
CONTINUOUS
 62
     7
 10
-177.2014212984472
 20
75.8860459084523
 30
0.0
 11
-177.2014212984472
 21
176.3936533303273
 31
0.0
  0
LINE
  5
3DD
  8
LAYER0014
  6
CONTINUOUS
 62
     7
 10
-191.4860740084081
 20
175.3936533303273
 30
0.0
 11
-177.2014212984472
 21
175.3936533303273
 31
0.0
  0
INSERT
  5
3DE
  8
LAYER0014
 62
     7
  2
_OPEN30
 10
-191.4860740084081
 20
175.3936533303273
 30
0.0
 41
2.499995396844351
 42
2.500007167085477
 50
180.0
  0
INSERT
  5
3DF
  8
LAYER0014
 62
     7
  2
_OPEN30
 10
-177.2014212984472
 20
175.3936533303273
 30
0.0
 41
2.499995396844351
 42
2.500007167085477
 50
360.0
  0
TEXT
  5
3E0
  8
LAYER0014
 62
     7
 10
-218.0887839693456
 20
175.9877738292295
 30
0.0
 40
4.0
  1
ＭＡＸ31.6
 41
0.9719008264462801
  7
DCSTYLE1
 72
     5
 11
-195.6887839693456
 21
175.9877738292295
 31
0.0
  0
INSERT
  5
3E1
  8
LAYER0014
  6
CONTINUOUS
  2
DC_IMAGEDIMGROUP_1
 10
0.0
 20
0.0
 30
0.0
  0
INSERT
  5
3E2
  8
LAYER0014
  6
CONTINUOUS
  2
DC_IMAGEDIMGROUP_2
 10
0.0
 20
0.0
 30
0.0
  0
INSERT
  5
3E3
  8
LAYER0014
  6
CONTINUOUS
  2
DC_IMAGEDIMGROUP_3
 10
0.0
 20
0.0
 30
0.0
  0
INSERT
  5
3E4
  8
LAYER0014
  6
CONTINUOUS
  2
DC_IMAGEDIMGROUP_4
 10
0.0
 20
0.0
 30
0.0
  0
INSERT
  5
3E5
  8
LAYER0014
  6
CONTINUOUS
  2
DC_IMAGEDIMGROUP_5
 10
0.0
 20
0.0
 30
0.0
  0
INSERT
  5
3E6
  8
LAYER0014
  6
CONTINUOUS
  2
DC_IMAGEDIMGROUP_6
 10
0.0
 20
0.0
 30
0.0
  0
INSERT
  5
3E7
  8
LAYER0014
  6
CONTINUOUS
  2
DC_IMAGEDIMGROUP_7
 10
0.0
 20
0.0
 30
0.0
  0
INSERT
  5
3E8
  8
LAYER0014
  6
CONTINUOUS
  2
DC_IMAGEDIMGROUP_8
 10
0.0
 20
0.0
 30
0.0
  0
INSERT
  5
3E9
  8
LAYER0014
  6
CONTINUOUS
  2
DC_IMAGEDIMGROUP_9
 10
0.0
 20
0.0
 30
0.0
  0
INSERT
  5
3EA
  8
LAYER0014
  6
CONTINUOUS
  2
DC_IMAGEDIMGROUP_10
 10
0.0
 20
0.0
 30
0.0
  0
INSERT
  5
3EB
  8
LAYER0014
  6
CONTINUOUS
  2
DC_IMAGEDIMGROUP_11
 10
0.0
 20
0.0
 30
0.0
  0
INSERT
  5
3EC
  8
LAYER0014
  6
CONTINUOUS
  2
DC_IMAGEDIMGROUP_12
 10
0.0
 20
0.0
 30
0.0
  0
INSERT
  5
3ED
  8
LAYER0014
  6
CONTINUOUS
  2
DC_IMAGEDIMGROUP_13
 10
0.0
 20
0.0
 30
0.0
  0
INSERT
  5
3EE
  8
LAYER0014
  6
CONTINUOUS
  2
DC_GROUP_1
 10
0.0
 20
0.0
 30
0.0
  0
INSERT
  5
3EF
  8
LAYER0014
  6
CONTINUOUS
  2
DC_IMAGEDIMGROUP_14
 10
0.0
 20
0.0
 30
0.0
  0
INSERT
  5
3F0
  8
LAYER0014
  6
CONTINUOUS
  2
DC_IMAGEDIMGROUP_15
 10
0.0
 20
0.0
 30
0.0
  0
INSERT
  5
3F1
  8
LAYER0014
  6
CONTINUOUS
  2
DC_IMAGEDIMGROUP_16
 10
0.0
 20
0.0
 30
0.0
  0
INSERT
  5
3F2
  8
LAYER0014
  6
CONTINUOUS
  2
DC_IMAGEDIMGROUP_17
 10
0.0
 20
0.0
 30
0.0
  0
INSERT
  5
3F3
  8
LAYER0014
  6
CONTINUOUS
  2
DC_IMAGEDIMGROUP_18
 10
0.0
 20
0.0
 30
0.0
  0
INSERT
  5
3F4
  8
LAYER0014
  6
CONTINUOUS
  2
DC_IMAGEDIMGROUP_19
 10
0.0
 20
0.0
 30
0.0
  0
INSERT
  5
3F5
  8
LAYER0014
  6
CONTINUOUS
  2
DC_GROUP_2
 10
0.0
 20
0.0
 30
0.0
  0
INSERT
  5
3F6
  8
LAYER0014
  6
CONTINUOUS
  2
DC_IMAGEDIMGROUP_25
 10
0.0
 20
0.0
 30
0.0
  0
INSERT
  5
3F7
  8
LAYER0014
  6
CONTINUOUS
  2
DC_GROUP_4
 10
0.0
 20
0.0
 30
0.0
  0
INSERT
  5
3F8
  8
LAYER0014
  6
CONTINUOUS
  2
DC_GROUP_5
 10
0.0
 20
0.0
 30
0.0
  0
INSERT
  5
3F9
  8
LAYER0014
  6
CONTINUOUS
  2
DC_IMAGEDIMGROUP_26
 10
0.0
 20
0.0
 30
0.0
  0
INSERT
  5
3FA
  8
LAYER0014
  6
CONTINUOUS
  2
DC_IMAGEDIMGROUP_27
 10
0.0
 20
0.0
 30
0.0
  0
INSERT
  5
3FB
  8
LAYER0014
  6
CONTINUOUS
  2
DC_IMAGEDIMGROUP_28
 10
0.0
 20
0.0
 30
0.0
  0
INSERT
  5
3FC
  8
LAYER0014
  6
CONTINUOUS
  2
DC_IMAGEDIMGROUP_29
 10
0.0
 20
0.0
 30
0.0
  0
INSERT
  5
3FD
  8
LAYER0014
  6
CONTINUOUS
  2
DC_IMAGEDIMGROUP_30
 10
0.0
 20
0.0
 30
0.0
  0
INSERT
  5
3FE
  8
0
  6
CONTINUOUS
  2
DC_IMAGEDIMGROUP_20
 10
0.0
 20
0.0
 30
0.0
  0
INSERT
  5
3FF
  8
0
  6
CONTINUOUS
  2
DC_IMAGEDIMGROUP_21
 10
0.0
 20
0.0
 30
0.0
  0
INSERT
  5
400
  8
0
  6
CONTINUOUS
  2
DC_IMAGEDIMGROUP_22
 10
0.0
 20
0.0
 30
0.0
  0
INSERT
  5
401
  8
0
  6
CONTINUOUS
  2
DC_IMAGEDIMGROUP_23
 10
0.0
 20
0.0
 30
0.0
  0
INSERT
  5
402
  8
0
  6
CONTINUOUS
  2
DC_GROUP_3
 10
0.0
 20
0.0
 30
0.0
  0
INSERT
  5
403
  8
0
  6
CONTINUOUS
  2
DC_IMAGEDIMGROUP_24
 10
0.0
 20
0.0
 30
0.0
  0
INSERT
  5
404
  8
0
  6
CONTINUOUS
  2
DC_IMAGEDIMGROUP_31
 10
0.0
 20
0.0
 30
0.0
  0
INSERT
  5
405
  8
0
  6
CONTINUOUS
  2
DC_IMAGEDIMGROUP_32
 10
0.0
 20
0.0
 30
0.0
  0
INSERT
  5
406
  8
0
  6
CONTINUOUS
  2
DC_GROUP_6
 10
0.0
 20
0.0
 30
0.0
  0
LINE
  5
407
  8
0
  6
DASHED2
 62
     7
 10
-149.4860659321095
 20
-81.6539526644709
 30
0.0
 11
-144.486069621693
 21
-78.76720339689278
 31
0.0
  0
LINE
  5
408
  8
0
  6
DASHED2
 62
     7
 10
-149.4860709566503
 20
-81.6539540915477
 30
0.0
 11
-139.4860709566503
 21
-81.6539540915477
 31
0.0
  0
LINE
  5
409
  8
0
  6
DASHED2
 62
     7
 10
-139.4860780826004
 20
-81.65395946912612
 30
0.0
 11
-144.4860810002662
 21
-78.76720638685073
 31
0.0
  0
LINE
  5
40A
  8
0
  6
DASHED2
 62
     7
 10
-150.4860709566503
 20
-88.6539540915477
 30
0.0
 11
-138.4860709566503
 21
-88.6539540915477
 31
0.0
  0
LINE
  5
40B
  8
0
  6
DASHED2
 62
     7
 10
-138.4860709566503
 20
-88.6539540915477
 30
0.0
 11
-138.4860709566503
 21
-116.5253224997508
 31
0.0
  0
LINE
  5
40C
  8
0
  6
DASHED2
 62
     7
 10
-150.4860709566503
 20
-88.6539540915477
 30
0.0
 11
-150.4860709566503
 21
-116.5253224997508
 31
0.0
  0
LINE
  5
40D
  8
0
  6
DASHED2
 62
     7
 10
-145.1860709566503
 20
-81.6539540915477
 30
0.0
 11
-145.1860709566503
 21
-116.5253224997508
 31
0.0
  0
LINE
  5
40E
  8
0
  6
DASHED2
 62
     7
 10
-149.4860709566503
 20
-81.6539540915477
 30
0.0
 11
-149.4860709566503
 21
-116.5253224997508
 31
0.0
  0
LINE
  5
40F
  8
0
  6
DASHED2
 62
     7
 10
-139.4860709566503
 20
-81.6539540915477
 30
0.0
 11
-139.4860709566503
 21
-116.5253224997508
 31
0.0
  0
LINE
  5
410
  8
0
  6
DASHED
 62
     2
 10
38.55433126502939
 20
113.3460362004028
 30
0.0
 11
54.11406942420908
 21
113.3460362004028
 31
0.0
  0
LINE
  5
411
  8
0
  6
DASHED
 62
     2
 10
38.55433126502939
 20
133.3460362004028
 30
0.0
 11
53.51406713539072
 21
133.3460362004028
 31
0.0
  0
LINE
  5
412
  8
0
  6
DASHED
 62
     2
 10
4.669069729384859
 20
111.3460362004028
 30
0.0
 11
38.55433126502939
 21
111.3460362004028
 31
0.0
  0
LINE
  5
413
  8
0
  6
DASHED
 62
     2
 10
26.55433126502939
 20
125.7460377262817
 30
0.0
 11
26.55433126502939
 21
120.9460346745239
 31
0.0
  0
LINE
  5
414
  8
0
  6
DASHED
 62
     2
 10
29.25433202796884
 20
126.6460392521606
 30
0.0
 11
29.25433202796884
 21
120.046033148645
 31
0.0
  0
LINE
  5
415
  8
0
  6
DASHED
 62
     2
 10
34.99308248573251
 20
117.6460392521606
 30
0.0
 11
38.11558004432626
 21
117.6460392521606
 31
0.0
  0
LINE
  5
416
  8
0
  6
DASHED
 62
     2
 10
34.99308248573251
 20
129.046033148645
 30
0.0
 11
38.11558004432626
 21
129.046033148645
 31
0.0
  0
LINE
  5
417
  8
0
  6
DASHED
 62
     2
 10
29.25433091572614
 20
120.0460344784162
 30
0.0
 11
26.55433049965637
 21
120.9460345040142
 31
0.0
  0
LINE
  5
418
  8
0
  6
DASHED
 62
     2
 10
29.25433315065183
 20
126.6460245750052
 30
0.0
 11
26.55433635352173
 21
125.7460257557203
 31
0.0
  0
LINE
  5
419
  8
0
  6
DASHED
 62
     2
 10
30.25433202796884
 20
126.0913670109497
 30
0.0
 11
30.25433202796884
 21
120.550557379602
 31
0.0
  0
LINE
  5
41A
  8
0
  6
DASHED
 62
     2
 10
34.55433126502939
 20
127.796033148645
 30
0.0
 11
34.55433126502939
 21
118.8960392521606
 31
0.0
  0
LINE
  5
41B
  8
0
  6
DASHED
 62
     2
 10
35.29822012000986
 20
126.2396976994262
 30
0.0
 11
37.81044241004892
 21
126.2396976994262
 31
0.0
  0
LINE
  5
41C
  8
0
  6
DASHED
 62
     2
 10
35.29822012000986
 20
120.4523747013794
 30
0.0
 11
37.81044241004892
 21
120.4523747013794
 31
0.0
  0
LINE
  5
41D
  8
0
  6
DASHED
 62
     2
 10
38.55433126502939
 20
127.546033148645
 30
0.0
 11
44.58527227455087
 21
127.546033148645
 31
0.0
  0
LINE
  5
41E
  8
0
  6
DASHED
 62
     2
 10
38.55433126502939
 20
119.1460392521606
 30
0.0
 11
44.58527227455087
 21
119.1460392521606
 31
0.0
  0
LINE
  5
41F
  8
0
  6
DASHED
 62
     2
 10
38.55433126502939
 20
119.9460346745239
 30
0.0
 11
44.43122716957041
 21
119.9460346745239
 31
0.0
  0
LINE
  5
420
  8
0
  6
DASHED
 62
     2
 10
38.55433126502939
 20
126.7460300968872
 30
0.0
 11
44.43122716957041
 21
126.7460300968872
 31
0.0
  0
ARC
  5
421
  8
0
  6
DASHED
 62
     2
 10
29.25433202796884
 20
123.3460362004028
 30
0.0
 40
3.299999952316284
 50
73.48282241201396
 51
89.99998201391067
  0
ARC
  5
422
  8
0
  6
DASHED
 62
     2
 10
29.25433202796884
 20
123.3460362004028
 30
0.0
 40
3.299999952316284
 50
270.0000179860893
 51
286.5171775879861
  0
ARC
  5
423
  8
0
  6
DASHED
 62
     2
 10
36.55433126502939
 20
127.796033148645
 30
0.0
 40
2.0
 50
0.0
 51
38.68218896809859
  0
ARC
  5
424
  8
0
  6
DASHED
 62
     2
 10
36.55433126502939
 20
118.8960392521606
 30
0.0
 40
2.0
 50
0.0
 51
51.09316519948327
  0
ARC
  5
425
  8
0
  6
DASHED
 62
     2
 10
32.55433126502939
 20
123.3460362004028
 30
0.0
 40
6.0
 50
0.0
 51
28.83423780766662
  0
ARC
  5
426
  8
0
  6
DASHED
 62
     2
 10
40.55433126502939
 20
123.3460362004028
 30
0.0
 40
6.0
 50
151.1657740314789
 51
208.8342086656771
  0
ARC
  5
427
  8
0
  6
DASHED
 62
     2
 10
32.55433126502939
 20
123.3460362004028
 30
0.0
 40
6.0
 50
331.1657621923334
 51
0.0
  0
ARC
  5
428
  8
0
  6
DASHED
 62
     2
 10
36.55433126502939
 20
127.796033148645
 30
0.0
 40
2.0
 50
308.9068348005167
 51
0.0
  0
ARC
  5
429
  8
0
  6
DASHED
 62
     2
 10
36.55433126502939
 20
127.796033148645
 30
0.0
 40
2.0
 50
141.3178297012361
 51
231.0931121518317
  0
ARC
  5
42A
  8
0
  6
DASHED
 62
     2
 10
36.55433126502939
 20
118.8960392521606
 30
0.0
 40
2.0
 50
128.906856884946
 51
218.6821529959199
  0
ARC
  5
42B
  8
0
  6
DASHED
 62
     2
 10
36.55433126502939
 20
118.8960392521606
 30
0.0
 40
2.0
 50
321.3178110319014
 51
0.0
  0
ARC
  5
42C
  8
0
  6
DASHED
 62
     2
 10
30.58752676063486
 20
132.1460392521606
 30
0.0
 40
5.650000095367432
 50
265.9910930942638
 51
315.0592540539054
  0
ARC
  5
42D
  8
0
  6
DASHED
 62
     2
 10
30.58752676063486
 20
114.546033148645
 30
0.0
 40
5.650000095367432
 50
44.94074594609464
 51
94.00890690573628
  0
ARC
  5
42E
  8
0
  6
DASHED
 62
     2
 10
27.25433202796884
 20
123.3460362004028
 30
0.0
 40
1.5
 50
117.818154050457
 51
242.1818423070773
  0
LINE
  5
42F
  8
0
  6
DASHED
 62
     2
 10
38.55433126502939
 20
141.5619480656372
 30
0.0
 11
38.55433126502939
 21
111.3460362004028
 31
0.0
  0
LINE
  5
430
  8
0
  6
CONTINUOUS
 62
     2
 10
39.2060519025375
 20
-13.72895820771629
 30
0.0
 11
44.27230719592021
 21
-10.80396133994412
 31
0.0
  0
LINE
  5
431
  8
0
  6
CONTINUOUS
 62
     2
 10
44.27231097588728
 20
-10.80396134046549
 30
0.0
 11
49.3385539914012
 21
-13.72896789995474
 31
0.0
  0
LINE
  5
432
  8
0
  6
CONTINUOUS
 62
     2
 10
49.33854909950205
 20
-13.72896646988528
 30
0.0
 11
49.33854909950205
 21
-19.57896494400637
 31
0.0
  0
LINE
  5
433
  8
0
  6
CONTINUOUS
 62
     2
 10
49.33854277319969
 20
-19.5789673612191
 30
0.0
 11
44.27229408707043
 21
-22.50396041430082
 31
0.0
  0
LINE
  5
434
  8
0
  6
CONTINUOUS
 62
     2
 10
44.27229555569133
 20
-22.50395914192967
 30
0.0
 11
39.20605079674201
 21
-19.57895572062415
 31
0.0
  0
LINE
  5
435
  8
0
  6
CONTINUOUS
 62
     2
 10
39.20604940467783
 20
-19.57895540726321
 30
0.0
 11
39.20604940467783
 21
-13.72895693314211
 31
0.0
  0
LINE
  5
436
  8
0
  6
CONTINUOUS
 62
     2
 10
8.895164438004798
 20
-31.22895947470874
 30
0.0
 11
13.96141973138751
 21
-28.30396260693658
 31
0.0
  0
LINE
  5
437
  8
0
  6
CONTINUOUS
 62
     2
 10
13.9614201017491
 20
-28.30396066158511
 30
0.0
 11
19.02766311726302
 21
-31.22896722107436
 31
0.0
  0
LINE
  5
438
  8
0
  6
CONTINUOUS
 62
     2
 10
19.02765890174814
 20
-31.22896837723391
 30
0.0
 11
19.02765890174814
 21
-37.07896685135501
 31
0.0
  0
LINE
  5
439
  8
0
  6
CONTINUOUS
 62
     2
 10
19.02765546608848
 20
-37.07896413249406
 30
0.0
 11
13.9614055410992
 21
-40.00395790083024
 31
0.0
  0
LINE
  5
43A
  8
0
  6
CONTINUOUS
 62
     2
 10
13.9614054069776
 20
-40.00395661058309
 30
0.0
 11
8.89516064802828
 21
-37.07895318927757
 31
0.0
  0
LINE
  5
43B
  8
0
  6
CONTINUOUS
 62
     2
 10
8.895161114272554
 20
-37.07895540726321
 30
0.0
 11
8.895161114272554
 21
-31.22895693314211
 31
0.0
  0
LINE
  5
43C
  8
0
  6
CONTINUOUS
 62
     2
 10
91.23132258137238
 20
-38.13206632549617
 30
0.0
 11
96.29757952656846
 21
-35.20706850405139
 31
0.0
  0
LINE
  5
43D
  8
0
  6
CONTINUOUS
 62
     2
 10
96.29758825283884
 20
-35.20707044291424
 30
0.0
 11
101.3638378755967
 21
-38.13208081711031
 31
0.0
  0
LINE
  5
43E
  8
0
  6
CONTINUOUS
 62
     2
 10
101.3638176541895
 20
-38.13207506668704
 30
0.0
 11
101.3638176541895
 21
-43.98207354080813
 31
0.0
  0
LINE
  5
43F
  8
0
  6
CONTINUOUS
 62
     2
 10
101.3638203148199
 20
-43.98207592160787
 30
0.0
 11
96.29756997687727
 21
-46.9070699283622
 31
0.0
  0
LINE
  5
440
  8
0
  6
CONTINUOUS
 62
     2
 10
96.29755948689419
 20
-46.90706132481336
 30
0.0
 11
91.23130812069869
 21
-43.98205408880511
 31
0.0
  0
LINE
  5
441
  8
0
  6
CONTINUOUS
 62
     2
 10
91.23132558875986
 20
-43.98206209671633
 30
0.0
 11
91.23132558875986
 21
-38.13206362259524
 31
0.0
  0
LINE
  5
442
  8
0
  6
CONTINUOUS
 62
     2
 10
177.7701406464558
 20
-13.72895549521371
 30
0.0
 11
182.8363975916519
 21
-10.80395767376893
 31
0.0
  0
LINE
  5
443
  8
0
  6
CONTINUOUS
 62
     2
 10
182.8363782121547
 20
-10.80395756500246
 30
0.0
 11
187.9026278349125
 21
-13.72896793919853
 31
0.0
  0
LINE
  5
444
  8
0
  6
CONTINUOUS
 62
     2
 10
187.90262838417
 20
-13.72896265518801
 30
0.0
 11
187.90262838417
 21
-19.57896112930911
 31
0.0
  0
LINE
  5
445
  8
0
  6
CONTINUOUS
 62
     2
 10
187.9026345652129
 20
-19.57895848407196
 30
0.0
 11
182.8363776200168
 21
-22.50395630551674
 31
0.0
  0
LINE
  5
446
  8
0
  6
CONTINUOUS
 62
     2
 10
182.8363695267795
 20
-22.50395543248459
 30
0.0
 11
177.770118160584
 21
-19.57894819647635
 31
0.0
  0
LINE
  5
447
  8
0
  6
CONTINUOUS
 62
     2
 10
177.7701210599513
 20
-19.57895159256594
 30
0.0
 11
177.7701210599513
 21
-13.72895311844485
 31
0.0
  0
LINE
  5
448
  8
0
  6
CONTINUOUS
 62
     2
 10
208.0810102829761
 20
-31.22895379450136
 30
0.0
 11
213.1472672281721
 21
-28.30395597305659
 31
0.0
  0
LINE
  5
449
  8
0
  6
CONTINUOUS
 62
     2
 10
213.1472646548733
 20
-28.30396173095295
 30
0.0
 11
218.2135142776311
 21
-31.22897210514901
 31
0.0
  0
LINE
  5
44A
  8
0
  6
CONTINUOUS
 62
     2
 10
218.2135109525294
 20
-31.22896074783938
 30
0.0
 11
218.2135109525294
 21
-37.07896303665774
 31
0.0
  0
LINE
  5
44B
  8
0
  6
CONTINUOUS
 62
     2
 10
218.2135042017331
 20
-37.07895678335962
 30
0.0
 11
213.147247256537
 21
-40.00395460480439
 31
0.0
  0
LINE
  5
44C
  8
0
  6
CONTINUOUS
 62
     2
 10
213.1472417416859
 20
-40.00395301529142
 30
0.0
 11
208.0809903754904
 21
-37.07894577928317
 31
0.0
  0
LINE
  5
44D
  8
0
  6
CONTINUOUS
 62
     2
 10
208.0810036283106
 20
-37.07895159256594
 30
0.0
 11
208.0810036283106
 21
-31.22895311844485
 31
0.0
  0
LINE
  5
44E
  8
0
  6
CONTINUOUS
 62
     2
 10
108.4880804841593
 20
106.2710438200832
 30
0.0
 11
113.5543374293554
 21
109.196041641528
 31
0.0
  0
LINE
  5
44F
  8
0
  6
CONTINUOUS
 62
     2
 10
113.5543550627341
 20
109.1960388699438
 30
0.0
 11
118.620598078248
 21
106.2710323104546
 31
0.0
  0
LINE
  5
450
  8
0
  6
CONTINUOUS
 62
     2
 10
118.6205772977442
 20
106.2710316227661
 30
0.0
 11
118.6205772977442
 21
100.421033148645
 31
0.0
  0
LINE
  5
451
  8
0
  6
CONTINUOUS
 62
     2
 10
118.6205791712794
 20
100.4210325721581
 30
0.0
 11
113.5543222260834
 21
97.49603475071336
 31
0.0
  0
LINE
  5
452
  8
0
  6
CONTINUOUS
 62
     2
 10
113.5543194624366
 20
97.49602356901715
 30
0.0
 11
108.4880747034873
 21
100.4210269903227
 31
0.0
  0
LINE
  5
453
  8
0
  6
CONTINUOUS
 62
     2
 10
108.4880852323145
 20
100.4210407780395
 30
0.0
 11
108.4880852323145
 21
106.2710392521606
 31
0.0
  0
LINE
  5
454
  8
0
  6
CONTINUOUS
 62
     2
 10
118.6205769813108
 20
135.4210382004006
 30
0.0
 11
113.5543200361147
 21
132.4960403789558
 31
0.0
  0
LINE
  5
455
  8
0
  6
CONTINUOUS
 62
     2
 10
113.5543223086421
 20
132.4960306349515
 30
0.0
 11
108.4880775496927
 21
135.421034056257
 31
0.0
  0
CIRCLE
  5
456
  8
0
  6
CONTINUOUS
 62
     2
 10
44.27229925208994
 20
-16.65395998489993
 30
0.0
 40
9.0
  0
CIRCLE
  5
457
  8
0
  6
CONTINUOUS
 62
     2
 10
13.96140905433603
 20
-34.15395998489993
 30
0.0
 40
9.0
  0
CIRCLE
  5
458
  8
0
  6
CONTINUOUS
 62
     2
 10
96.2975716214747
 20
-41.05706667435305
 30
0.0
 40
9.0
  0
CIRCLE
  5
459
  8
0
  6
CONTINUOUS
 62
     2
 10
182.8363747220606
 20
-16.65395617020266
 30
0.0
 40
9.0
  0
CIRCLE
  5
45A
  8
0
  6
CONTINUOUS
 62
     2
 10
213.14725729042
 20
-34.15395617020266
 30
0.0
 40
9.0
  0
CIRCLE
  5
45B
  8
0
  6
CONTINUOUS
 62
     2
 10
113.5543312650294
 20
103.3460362004028
 30
0.0
 40
9.0
  0
LINE
  5
45C
  8
0
  6
CONTINUOUS
 62
     2
 10
108.4880887845894
 20
141.2710312783786
 30
0.0
 11
113.5543457297855
 21
144.1960290998234
 31
0.0
  0
LINE
  5
45D
  8
0
  6
CONTINUOUS
 62
     2
 10
113.554355236855
 20
144.1960426125564
 30
0.0
 11
118.6205982523689
 21
141.2710360530671
 31
0.0
  0
LINE
  5
45E
  8
0
  6
CONTINUOUS
 62
     2
 10
118.6205772977442
 20
141.2710239933716
 30
0.0
 11
118.6205772977442
 21
135.421033148645
 31
0.0
  0
LINE
  5
45F
  8
0
  6
CONTINUOUS
 62
     2
 10
108.4880852323145
 20
135.421033148645
 30
0.0
 11
108.4880852323145
 21
141.2710392521606
 31
0.0
  0
CIRCLE
  5
460
  8
0
  6
CONTINUOUS
 62
     2
 10
113.5543312650294
 20
138.3460362004028
 30
0.0
 40
9.0
  0
LINE
  5
461
  8
0
  6
CONTINUOUS
 62
     5
 10
195.7204715440581
 20
95.99076803425527
 30
0.0
 11
208.7108523676703
 21
103.4907680342553
 31
0.0
  0
LINE
  5
462
  8
0
  6
CONTINUOUS
 62
     5
 10
208.5907497079603
 20
88.69894035339968
 30
0.0
 11
208.8652709351696
 21
89.72346792964964
 31
0.0
  0
LINE
  5
463
  8
0
  6
CONTINUOUS
 62
     5
 10
208.5906743911042
 20
88.698983514237
 30
0.0
 11
207.5661616169333
 21
88.97350088701234
 31
0.0
  0
LINE
  5
464
  8
0
  6
CONTINUOUS
 62
     5
 10
206.34067230934
 20
92.5960711661001
 30
0.0
 11
208.59067230934
 21
88.69895691901644
 31
0.0
  0
LINE
  5
465
  8
0
  6
CONTINUOUS
 62
     5
 10
207.3651675341067
 20
92.32154974197266
 30
0.0
 11
206.340669498794
 21
92.5960631654828
 31
0.0
  0
LINE
  5
466
  8
0
  6
CONTINUOUS
 62
     5
 10
206.0662202232243
 20
91.57154049940465
 30
0.0
 11
206.3407414504337
 21
92.59606807565461
 31
0.0
  0
LINE
  5
467
  8
0
  6
CONTINUOUS
 62
     5
 10
199.4704734514067
 20
89.49557431882448
 30
0.0
 11
212.4608542750189
 21
96.99557431882448
 31
0.0
  0
LINE
  5
468
  8
0
  6
CONTINUOUS
 62
     5
 10
212.460868443192
 20
96.99558029640667
 30
0.0
 11
208.710868443192
 21
103.4907707082128
 31
0.0
  0
LINE
  5
469
  8
0
  6
CONTINUOUS
 62
     5
 10
204.8266032880354
 20
98.9700684336413
 30
0.0
 11
204.0598925572566
 21
98.34919845631435
 31
0.0
  0
LINE
  5
46A
  8
0
  6
CONTINUOUS
 62
     5
 10
204.8266410740517
 20
98.97005534890633
 30
0.0
 11
204.2057805817841
 21
99.73675410377092
 31
0.0
  0
LINE
  5
46B
  8
0
  6
CONTINUOUS
 62
     5
 10
199.4704857122311
 20
89.49558360003135
 30
0.0
 11
193.8454857122311
 21
99.23836921774051
 31
0.0
  0
LINE
  5
46C
  8
0
  6
CONTINUOUS
 62
     5
 10
200.2671190004954
 20
98.61577401183746
 30
0.0
 11
199.5171190004954
 21
99.91481209419868
 31
0.0
  0
LINE
  5
46D
  8
0
  6
CONTINUOUS
 62
     5
 10
198.2180619815896
 20
99.16481437567819
 30
0.0
 11
197.6555619815896
 21
100.1390929374491
 31
0.0
  0
LINE
  5
46E
  8
0
  6
CONTINUOUS
 62
     5
 10
198.2180686573098
 20
99.16480281299181
 30
0.0
 11
199.517106739671
 21
99.91480281299181
 31
0.0
  0
LINE
  5
46F
  8
0
  6
CONTINUOUS
 62
     5
 10
196.3565277139256
 20
99.38908633019975
 30
0.0
 11
197.6555657962868
 21
100.1390863301997
 31
0.0
  0
LINE
  5
470
  8
0
  6
CONTINUOUS
 62
     5
 10
196.3565447431216
 20
99.38908735234492
 30
0.0
 11
195.7940485578189
 21
100.3633593068665
 31
0.0
  0
LINE
  5
471
  8
0
  6
CONTINUOUS
 62
     5
 10
193.8454782197783
 20
99.23835167747194
 30
0.0
 11
195.7940353433201
 21
100.3633516774719
 31
0.0
  0
LINE
  5
472
  8
0
  6
CONTINUOUS
 62
     5
 10
198.1024233716667
 20
100.9458557889475
 30
0.0
 11
200.6655339727709
 21
102.4256684110179
 31
0.0
  0
LINE
  5
473
  8
0
  6
CONTINUOUS
 62
     5
 10
200.3910430874231
 20
101.4011686399388
 30
0.0
 11
200.6655643146324
 21
102.4256962161888
 31
0.0
  0
LINE
  5
474
  8
0
  6
CONTINUOUS
 62
     5
 10
200.6655456740451
 20
102.4257091751309
 30
0.0
 11
199.6410181610159
 21
102.7002304971714
 31
0.0
  0
ARC
  5
475
  8
0
  6
CONTINUOUS
 62
     5
 10
204.147242031631
 20
96.43449140059812
 30
0.0
 40
2.625001907348633
 50
75.00010795499728
 51
9.999953377944937
  0
TEXT
  5
476
  8
0
 62
     5
 10
85.06862672382303
 20
-97.453966851355
 30
0.0
 40
5.0
  1
NIKKO
 41
1.08791221838731
  7
DCSTYLE1
 72
     5
 11
108.6400581222148
 21
-97.453966851355
 31
0.0
  0
TEXT
  5
477
  8
0
 62
     5
 10
120.4257621389002
 20
-96.953966851355
 30
0.0
 40
4.0
  1
MO3-12
 41
0.9302326676457428
  7
DCSTYLE1
 72
     5
 11
143.2829076867671
 21
-96.953966851355
 31
0.0
  0
TEXT
  5
478
  8
0
 62
     5
 10
120.7829053025813
 20
-103.453966851355
 30
0.0
 40
3.0
  1
0001
 41
1.098591601344901
  7
DCSTYLE1
 72
     5
 11
131.9257629733653
 21
-103.453966851355
 31
0.0
  0
TEXT
  5
479
  8
0
 62
     5
 10
209.2396457946372
 20
99.35333995303206
 30
0.0
 40
3.0
  1
N min
 50
120.0
 41
1.082812440892061
  7
DCSTYLE1
 72
     5
 11
201.8146461999488
 21
112.2138164972107
 31
0.0
  0
TEXT
  5
47A
  8
0
 62
     5
 10
199.6285153258309
 20
111.7310751621689
 30
0.0
 40
1.5
  1
-1
 50
120.0000000000002
 41
1.021621684770321
  7
DCSTYLE1
 72
     5
 11
198.2785152423844
 21
114.0693438969205
 31
0.0
  0
TEXT
  5
47B
  8
0
 62
     5
 10
199.9519260680747
 20
103.8068238381059
 30
0.0
 40
3.0
  1
ΣS
 50
120.0
 41
1.200000023841859
  7
DCSTYLE1
 72
     5
 11
196.95192600847
 21
109.0029763640508
 31
0.0
  0
TEXT
  5
47C
  8
0
 62
     5
 10
206.6410520231795
 20
88.81603889807619
 30
0.0
 40
3.0
  1
F
 50
120.0
 41
1.085973374983844
  7
DCSTYLE1
 72
     5
 11
205.322370067842
 21
91.10006304374505
 31
0.0
  0
TEXT
  5
47D
  8
0
 62
     5
 10
229.8881383097243
 20
59.44995559120293
 30
0.0
 40
3.0
  1
F MAX  33KN
 50
120.0
 41
1.135135153929393
  7
DCSTYLE1
 72
     5
 11
211.8881380117011
 21
90.6268706436341
 31
0.0
  0
TEXT
  5
47E
  8
0
 62
     5
 10
234.2182774698805
 20
61.94995559120292
 30
0.0
 40
3.0
  1
ΣS MAX 73KN
 50
120.0
 41
1.140271493212671
  7
DCSTYLE1
 72
     5
 11
216.2182774698805
 21
93.12687012744274
 31
0.0
  0
TEXT
  5
47F
  8
0
 62
     5
 10
238.5484013712477
 20
64.44995559120292
 30
0.0
 40
3.0
  1
N MAX 2500 AT ΣS MAX
 50
120.0
 41
1.159199983477593
  7
DCSTYLE1
 72
     5
 11
205.4284018433165
 21
121.815477520237
 31
0.0
  0
CIRCLE
  5
480
  8
0
  6
CONTINUOUS
 62
     3
 10
113.5542183584577
 20
62.84601070396823
 30
0.0
 40
3.0
  0
CIRCLE
  5
481
  8
0
  6
CONTINUOUS
 62
     3
 10
113.5542183584577
 20
62.84601070396823
 30
0.0
 40
3.0
  0
CIRCLE
  5
482
  8
0
  6
CONTINUOUS
 62
     3
 10
113.5542695966272
 20
23.34601070396824
 30
0.0
 40
35.0
  0
CIRCLE
  5
483
  8
0
  6
CONTINUOUS
 62
     3
 10
79.34629176622661
 20
3.59596633041178
 30
0.0
 40
2.999999999999999
  0
CIRCLE
  5
484
  8
0
  6
CONTINUOUS
 62
     3
 10
79.34629176622661
 20
3.59596633041178
 30
0.0
 40
2.999999999999999
  0
CIRCLE
  5
485
  8
0
  6
CONTINUOUS
 62
     3
 10
147.7622986651972
 20
3.596055077524678
 30
0.0
 40
3.0
  0
CIRCLE
  5
486
  8
0
  6
CONTINUOUS
 62
     3
 10
147.7622986651972
 20
3.596055077524678
 30
0.0
 40
3.0
  0
LINE
  5
487
  8
0
  6
CONTINUOUS
 62
     3
 10
-127.2014212984472
 20
58.34604781580093
 30
0.0
 11
-117.2014212984472
 21
58.34604781580093
 31
0.0
  0
VIEWPORT
  5
B3
 67
     1
  8
0
 10
0.0
 20
0.0
 30
0.0
 40
1662.0
 41
1140.0
 68
     1
 69
     1
1001
ACAD
1000
MVIEW
1002
{
1070
    16
1010
0.0
1020
0.0
1030
0.0
1010
0.0
1020
0.0
1030
1.0
1040
0.0
1040
1140.0
1040
0.0
1040
0.0
1040
50.0
1040
0.0
1040
0.0
1070
     0
1070
   100
1070
     0
1070
     3
1070
     0
1070
     0
1070
     0
1070
     0
1040
0.0
1040
0.0
1040
0.0
1040
0.5
1040
0.5
1040
0.0
1040
0.0
1070
     0
1002
{
1002
}
1002
}
  0
ENDSEC
  0
EOF
