  0
SECTION
  2
HEADER
  9
$ACADVER
  1
AC1009
  9
$DWGCODEPAGE
  3
ansi_932
  9
$INSBASE
 10
0.0
 20
0.0
 30
0.0
  9
$EXTMIN
 10
-474.4276062545233
 20
-570.0
 30
0.0
  9
$EXTMAX
 10
1187.572393745477
 20
570.0
 30
0.0
  9
$LIMMIN
 10
-660.5555555555555
 20
-467.2222222222222
  9
$LIMMAX
 10
660.5555555555555
 20
467.2222222222222
  9
$ORTHOMODE
 70
     0
  9
$REGENMODE
 70
     1
  9
$FILLMODE
 70
     1
  9
$QTEXTMODE
 70
     0
  9
$MIRRTEXT
 70
     1
  9
$DRAGMODE
 70
     2
  9
$LTSCALE
 40
1.111111111111111
  9
$OSMODE
 70
    37
  9
$ATTMODE
 70
     1
  9
$TEXTSIZE
 40
0.2
  9
$TRACEWID
 40
0.05
  9
$TEXTSTYLE
  7
STANDARD
  9
$CLAYER
  8
0
  9
$CELTYPE
  6
BYLAYER
  9
$CECOLOR
 62
   256
  9
$DIMSCALE
 40
1.0
  9
$DIMASZ
 40
2.777777777777778
  9
$DIMEXO
 40
0.0625
  9
$DIMDLI
 40
0.38
  9
$DIMRND
 40
0.0
  9
$DIMDLE
 40
0.0
  9
$DIMEXE
 40
0.18
  9
$DIMTP
 40
0.0
  9
$DIMTM
 40
0.0
  9
$DIMTXT
 40
0.18
  9
$DIMCEN
 40
0.09
  9
$DIMTSZ
 40
0.0
  9
$DIMTOL
 70
     0
  9
$DIMLIM
 70
     0
  9
$DIMTIH
 70
     1
  9
$DIMTOH
 70
     1
  9
$DIMSE1
 70
     0
  9
$DIMSE2
 70
     0
  9
$DIMTAD
 70
     3
  9
$DIMZIN
 70
     0
  9
$DIMBLK
  1

  9
$DIMASO
 70
     1
  9
$DIMSHO
 70
     1
  9
$DIMPOST
  1

  9
$DIMAPOST
  1

  9
$DIMALT
 70
     0
  9
$DIMALTD
 70
     2
  9
$DIMALTF
 40
25.4
  9
$DIMLFAC
 40
1.0
  9
$DIMTOFL
 70
     0
  9
$DIMTVP
 40
0.0
  9
$DIMTIX
 70
     0
  9
$DIMSOXD
 70
     0
  9
$DIMSAH
 70
     0
  9
$DIMBLK1
  1

  9
$DIMBLK2
  1

  9
$DIMSTYLE
  2
STANDARD
  9
$DIMCLRD
 70
     0
  9
$DIMCLRE
 70
     0
  9
$DIMCLRT
 70
     0
  9
$DIMTFAC
 40
1.0
  9
$DIMGAP
 40
0.09
  9
$LUNITS
 70
     2
  9
$LUPREC
 70
     4
  9
$SKETCHINC
 40
0.1
  9
$FILLETRAD
 40
0.5
  9
$AUNITS
 70
     0
  9
$AUPREC
 70
     0
  9
$MENU
  1
.
  9
$ELEVATION
 40
0.0
  9
$PELEVATION
 40
0.0
  9
$THICKNESS
 40
0.0
  9
$LIMCHECK
 70
     0
  9
$CHAMFERA
 40
0.5
  9
$CHAMFERB
 40
0.5
  9
$SKPOLY
 70
     0
  9
$TDCREATE
 40
2455483.59021184
  9
$TDUPDATE
 40
2455483.590211852
  9
$TDINDWG
 40
0.0000000116
  9
$TDUSRTIMER
 40
0.0000000116
  9
$USRTIMER
 70
     1
  9
$ANGBASE
 50
0.0
  9
$ANGDIR
 70
     0
  9
$PDMODE
 70
     0
  9
$PDSIZE
 40
1.0
  9
$PLINEWID
 40
0.0
  9
$COORDS
 70
     1
  9
$SPLFRAME
 70
     0
  9
$SPLINETYPE
 70
     6
  9
$SPLINESEGS
 70
     8
  9
$ATTDIA
 70
     0
  9
$ATTREQ
 70
     1
  9
$HANDLING
 70
     1
  9
$HANDSEED
  5
65D
  9
$SURFTAB1
 70
     6
  9
$SURFTAB2
 70
     6
  9
$SURFTYPE
 70
     6
  9
$SURFU
 70
     6
  9
$SURFV
 70
     6
  9
$UCSNAME
  2

  9
$UCSORG
 10
0.0
 20
0.0
 30
0.0
  9
$UCSXDIR
 10
1.0
 20
0.0
 30
0.0
  9
$UCSYDIR
 10
0.0
 20
1.0
 30
0.0
  9
$PUCSNAME
  2

  9
$PUCSORG
 10
0.0
 20
0.0
 30
0.0
  9
$PUCSXDIR
 10
1.0
 20
0.0
 30
0.0
  9
$PUCSYDIR
 10
0.0
 20
1.0
 30
0.0
  9
$USERI1
 70
     0
  9
$USERI2
 70
     0
  9
$USERI3
 70
     0
  9
$USERI4
 70
     0
  9
$USERI5
 70
     0
  9
$USERR1
 40
0.0
  9
$USERR2
 40
0.0
  9
$USERR3
 40
0.0
  9
$USERR4
 40
0.0
  9
$USERR5
 40
0.0
  9
$WORLDVIEW
 70
     1
  9
$SHADEDGE
 70
     3
  9
$SHADEDIF
 70
    70
  9
$TILEMODE
 70
     1
  9
$MAXACTVP
 70
    64
  9
$PLIMCHECK
 70
     0
  9
$PEXTMIN
 10
1.000000000000000E+20
 20
1.000000000000000E+20
 30
1.000000000000000E+20
  9
$PEXTMAX
 10
-1.000000000000000E+20
 20
-1.000000000000000E+20
 30
-1.000000000000000E+20
  9
$PLIMMIN
 10
0.0
 20
0.0
  9
$PLIMMAX
 10
12.0
 20
9.0
  9
$UNITMODE
 70
     0
  9
$VISRETAIN
 70
     0
  9
$PLINEGEN
 70
     1
  9
$PSLTSCALE
 70
     0
  0
ENDSEC
  0
SECTION
  2
TABLES
  0
TABLE
  2
VPORT
 70
     1
  0
VPORT
  2
*ACTIVE
 70
     0
 10
0.0
 20
0.0
 11
1.0
 21
1.0
 12
0.0
 22
0.0
 13
0.0
 23
0.0
 14
0.5
 24
0.5
 15
0.5
 25
0.5
 16
0.0
 26
0.0
 36
1.0
 17
356.5723937454767
 27
0.0
 37
0.0
 40
387.6
 41
1.457894736842105
 42
50.0
 43
0.0
 44
0.0
 50
0.0
 51
0.0
 71
     0
 72
  1000
 73
     1
 74
     1
 75
     0
 76
     0
 77
     0
 78
     0
  0
ENDTAB
  0
TABLE
  2
LTYPE
 70
    28
  0
LTYPE
  2
CONTINUOUS
 70
     0
  3
Solid line
 72
    65
 73
     0
 40
0.0
  0
LTYPE
  2
HIDDENX2
 70
     0
  3
CADPAC LINETYPE
 72
    65
 73
     2
 40
18.58563535911603
 49
13.93922651933703
 49
-4.646408839779008
  0
LTYPE
  2
HIDDEN
 70
     0
  3
CADPAC LINETYPE
 72
    65
 73
     2
 40
13.93922651933703
 49
9.292817679558016
 49
-4.646408839779008
  0
LTYPE
  2
HIDDEN2
 70
     0
  3
CADPAC LINETYPE
 72
    65
 73
     2
 40
11.61602209944752
 49
6.969613259668512
 49
-4.646408839779008
  0
LTYPE
  2
DASHED
 70
     0
  3
CADPAC LINETYPE
 72
    65
 73
     2
 40
13.00994475138128
 49
9.292817679558016
 49
-3.717127071823268
  0
LTYPE
  2
DASHED2
 70
     0
  3
CADPAC LINETYPE
 72
    65
 73
     2
 40
8.363535911602174
 49
5.575690607734851
 49
-2.787845303867323
  0
LTYPE
  2
DASHEDX2
 70
     0
  3
CADPAC LINETYPE
 72
    65
 73
     2
 40
22.3027624309393
 49
18.58563535911603
 49
-3.717127071823268
  0
LTYPE
  2
DOTX2
 70
     0
  3
CADPAC LINETYPE
 72
    65
 73
     2
 40
8.131215469613366
 49
0.0
 49
-8.131215469613366
  0
LTYPE
  2
DOT
 70
     0
  3
CADPAC LINETYPE
 72
    65
 73
     2
 40
6.504972375690693
 49
0.0
 49
-6.504972375690693
  0
LTYPE
  2
DOT2
 70
     0
  3
CADPAC LINETYPE
 72
    65
 73
     2
 40
4.87872928176802
 49
0.0
 49
-4.87872928176802
  0
LTYPE
  2
CENTERX2
 70
     0
  3
CADPAC LINETYPE
 72
    65
 73
     4
 40
27.87845303867405
 49
11.61602209944752
 49
-5.80801104972376
 49
4.646408839779008
 49
-5.80801104972376
  0
LTYPE
  2
CENTER
 70
     0
  3
CADPAC LINETYPE
 72
    65
 73
     4
 40
21.37348066298344
 49
9.292817679558016
 49
-4.646408839779008
 49
2.787845303867405
 49
-4.646408839779008
  0
LTYPE
  2
CENTER2
 70
     0
  3
CADPAC LINETYPE
 72
    65
 73
     4
 40
14.86850828729283
 49
6.969613259668512
 49
-3.484806629834256
 49
0.9292817679558016
 49
-3.484806629834256
  0
LTYPE
  2
DASHDOTX2
 70
     0
  3
CADPAC LINETYPE
 72
    65
 73
     4
 40
44.6055248618785
 49
22.3027624309392
 49
-7.434254143646434
 49
7.434254143646434
 49
-7.434254143646434
  0
LTYPE
  2
DASHDOT
 70
     0
  3
CADPAC LINETYPE
 72
    65
 73
     4
 40
22.3027624309394
 49
11.1513812154696
 49
-3.717127071823268
 49
3.717127071823268
 49
-3.717127071823268
  0
LTYPE
  2
DASHDOT2
 70
     0
  3
CADPAC LINETYPE
 72
    65
 73
     4
 40
14.31093922651943
 49
8.363535911602199
 49
-2.787845303867451
 49
0.3717127071823268
 49
-2.787845303867451
  0
LTYPE
  2
DIVIDEX2
 70
     0
  3
CADPAC LINETYPE
 72
    65
 73
     6
 40
59.47403314917137
 49
22.3027624309392
 49
-7.434254143646434
 49
7.434254143646434
 49
-7.434254143646434
 49
7.434254143646434
 49
-7.434254143646434
  0
LTYPE
  2
DIVIDE
 70
     0
  3
CADPAC LINETYPE
 72
    65
 73
     6
 40
29.73701657458594
 49
11.1513812154696
 49
-3.717127071823268
 49
3.717127071823268
 49
-3.717127071823268
 49
3.717127071823268
 49
-3.717127071823268
  0
LTYPE
  2
DIVIDE2
 70
     0
  3
CADPAC LINETYPE
 72
    65
 73
     6
 40
22.30276243093946
 49
8.363535911602199
 49
-2.787845303867451
 49
2.787845303867451
 49
-2.787845303867451
 49
2.787845303867451
 49
-2.787845303867451
  0
LTYPE
  2
BORDERX2
 70
     0
  3
CADPAC LINETYPE
 72
    65
 73
     6
 40
40.65607734806632
 49
11.61602209944752
 49
-5.80801104972376
 49
11.61602209944752
 49
-5.80801104972376
 49
0.0
 49
-5.80801104972376
  0
LTYPE
  2
BORDER
 70
     0
  3
CADPAC LINETYPE
 72
    65
 73
     6
 40
32.52486187845306
 49
9.292817679558016
 49
-4.646408839779008
 49
9.292817679558016
 49
-4.646408839779008
 49
0.0
 49
-4.646408839779008
  0
LTYPE
  2
BORDER2
 70
     0
  3
CADPAC LINETYPE
 72
    65
 73
     6
 40
24.16132596685078
 49
7.434254143646434
 49
-4.646408839779008
 49
2.787845303867323
 49
-4.646408839779008
 49
0.0
 49
-4.646408839779008
  0
LTYPE
  2
PHANTOMX2
 70
     0
  3
CADPAC LINETYPE
 72
    65
 73
     6
 40
34.84806629834256
 49
11.61602209944752
 49
-4.646408839779008
 49
4.646408839779008
 49
-4.646408839779008
 49
4.646408839779008
 49
-4.646408839779008
  0
LTYPE
  2
PHANTOM
 70
     0
  3
CADPAC LINETYPE
 72
    65
 73
     6
 40
28.80773480662985
 49
9.292817679558016
 49
-4.646408839779008
 49
2.787845303867405
 49
-4.646408839779008
 49
2.787845303867405
 49
-4.646408839779008
  0
LTYPE
  2
PHANTOM2
 70
     0
  3
CADPAC LINETYPE
 72
    65
 73
     6
 40
24.62596685082875
 49
6.969613259668512
 49
-4.646408839779008
 49
1.858563535911603
 49
-4.646408839779008
 49
1.858563535911603
 49
-4.646408839779008
  0
LTYPE
  2
ACAD_ISO06W100
 70
     0
  3
CADPAC LINETYPE
 72
    65
 73
     8
 40
49.25193370165719
 49
22.3027624309392
 49
-4.646408839779008
 49
2.787845303867323
 49
-4.646408839779008
 49
2.787845303867323
 49
-4.646408839779008
 49
2.787845303867323
 49
-4.646408839779008
  0
LTYPE
  2
ACAD_ISO13W100
 70
     0
  3
CADPAC LINETYPE
 72
    65
 73
     8
 40
37.17127071823207
 49
9.292817679558016
 49
-4.646408839779008
 49
9.292817679558016
 49
-4.646408839779008
 49
0.0
 49
-4.646408839779008
 49
0.0
 49
-4.646408839779008
  0
LTYPE
  2
ACAD_ISO14W100
 70
     0
  3
CADPAC LINETYPE
 72
    65
 73
     8
 40
27.87845303867405
 49
9.292817679558016
 49
-4.646408839779008
 49
0.0
 49
-4.646408839779008
 49
0.0
 49
-4.646408839779008
 49
0.0
 49
-4.646408839779008
  0
ENDTAB
  0
TABLE
  2
LAYER
 70
     3
  0
LAYER
  2
0
 70
     0
 62
     7
  6
CONTINUOUS
  0
LAYER
  2
LAYER0001
 70
     0
 62
     7
  6
CONTINUOUS
  0
LAYER
  2
LAYER0002
 70
     0
 62
     7
  6
CONTINUOUS
  0
ENDTAB
  0
TABLE
  2
STYLE
 70
     5
  0
STYLE
  2
STANDARD
 70
     0
 40
0.0
 41
1.0
 50
0.0
 71
     0
 42
0.2
  3
txt
  4

  0
STYLE
  2
FDASTYLE1
 70
     0
 40
0.0
 41
0.5442179498218123
 50
0.0
 71
     0
 42
0.2
  3
txt.shx
  4
bigfont
  0
STYLE
  2
FDASTYLE0
 70
     4
 40
0.0
 41
0.8
 50
0.0
 71
     0
 42
0.2
  3
txt.shx
  4
bigfont
  0
STYLE
  2
FDASTYLE2
 70
     0
 40
0.0
 41
0.8123476848090979
 50
0.0
 71
     0
 42
0.2
  3
MSMINCHO.TTC
  4

  0
STYLE
  2
FDASTYLE3
 70
     0
 40
0.0
 41
0.6684336356141793
 50
0.0
 71
     0
 42
0.2
  3
MSGOTHIC.TTC
  4

  0
ENDTAB
  0
TABLE
  2
VIEW
 70
     0
  0
ENDTAB
  0
TABLE
  2
UCS
 70
     0
  0
ENDTAB
  0
TABLE
  2
APPID
 70
     2
  0
APPID
  2
ACAD
 70
     0
  0
APPID
  2
DAFUSIONOUT
 70
     0
  0
ENDTAB
  0
TABLE
  2
DIMSTYLE
 70
     1
  0
DIMSTYLE
  2
STANDARD
 70
     0
  3

  4

  5

  6

  7

 40
1.0
 41
0.18
 42
0.0625
 43
0.38
 44
0.18
 45
0.0
 46
0.0
 47
0.0
 48
0.0
140
0.18
141
0.09
142
0.0
143
25.4
144
1.0
145
0.0
146
1.0
147
0.09
 71
     0
 72
     0
 73
     1
 74
     1
 75
     0
 76
     0
 77
     0
 78
     0
170
     0
171
     2
172
     0
173
     0
174
     0
175
     0
176
     0
177
     0
178
     0
  0
ENDTAB
  0
ENDSEC
  0
SECTION
  2
BLOCKS
  0
BLOCK
  8
0
  2
$MODEL_SPACE
 70
     0
 10
0.0
 20
0.0
 30
0.0
  3
$MODEL_SPACE
  1

  0
ENDBLK
  5
21
  8
0
  0
BLOCK
 67
     1
  8
0
  2
$PAPER_SPACE
 70
     0
 10
0.0
 20
0.0
 30
0.0
  3
$PAPER_SPACE
  1

  0
ENDBLK
  5
1D
 67
     1
  8
0
  0
BLOCK
  8
0
  2
DC_GROUP_1
 70
     0
 10
0.0
 20
0.0
 30
0.0
  3
DC_GROUP_1
  1

  0
LINE
  5
1A8
  8
0
  6
CONTINUOUS
 62
     5
 10
540.9163630842904
 20
85.89939398883981
 30
0.0
 11
543.1663650065391
 21
82.00227424987664
 31
0.0
  0
LINE
  5
1A9
  8
0
  6
CONTINUOUS
 62
     5
 10
541.9408541594287
 20
85.62489701840936
 30
0.0
 11
540.9163413892231
 21
85.89941450428177
 31
0.0
  0
LINE
  5
1AA
  8
0
  6
CONTINUOUS
 62
     5
 10
540.6418864970515
 20
84.87485440486448
 30
0.0
 11
540.9164077594683
 21
85.89938196020911
 31
0.0
  0
LINE
  5
1AB
  8
0
  6
CONTINUOUS
 62
     5
 10
543.1664429000136
 20
82.00224645300249
 30
0.0
 11
543.4409641624304
 21
83.02677400834712
 31
0.0
  0
LINE
  5
1AC
  8
0
  6
CONTINUOUS
 62
     5
 10
543.1663535111597
 20
82.00230386219187
 30
0.0
 11
542.141826002096
 21
82.2768252973311
 31
0.0
  0
LINE
  5
1AD
  8
0
  6
CONTINUOUS
 62
     5
 10
534.0461467077299
 20
82.79891415956008
 30
0.0
 11
547.0365293194814
 21
90.29891103031623
 31
0.0
  0
LINE
  5
1AE
  8
0
  6
CONTINUOUS
 62
     5
 10
539.4022868564846
 20
92.27337448579785
 30
0.0
 11
538.6355760728507
 21
91.65250458307595
 31
0.0
  0
LINE
  5
1AF
  8
0
  6
CONTINUOUS
 62
     5
 10
539.4023061760472
 20
92.27339287813194
 30
0.0
 11
538.7814457526162
 21
93.04009166432724
 31
0.0
  0
LINE
  5
1B0
  8
0
  6
CONTINUOUS
 62
     5
 10
547.0365353306855
 20
90.29891587739476
 30
0.0
 11
543.2865364184705
 21
96.79410800917682
 31
0.0
  0
LINE
  5
1B1
  8
0
  6
CONTINUOUS
 62
     5
 10
530.296151141932
 20
89.2940985878252
 30
0.0
 11
543.2865337536834
 21
96.79409545858135
 31
0.0
  0
LINE
  5
1B2
  8
0
  6
CONTINUOUS
 62
     5
 10
534.0461464949866
 20
82.79890880599436
 30
0.0
 11
528.4211493187564
 21
92.54169493890174
 31
0.0
  0
LINE
  5
1B3
  8
0
  6
CONTINUOUS
 62
     5
 10
528.4211507960345
 20
92.54169524120404
 30
0.0
 11
530.3697081877971
 21
93.66669477181746
 31
0.0
  0
LINE
  5
1B4
  8
0
  6
CONTINUOUS
 62
     5
 10
530.9322192648398
 20
92.69241269589369
 30
0.0
 11
530.3697233142289
 21
93.66668478452479
 31
0.0
  0
LINE
  5
1B5
  8
0
  6
CONTINUOUS
 62
     5
 10
530.9322081915223
 20
92.69241566298295
 30
0.0
 11
532.2312464526974
 21
93.44241535005857
 31
0.0
  0
LINE
  5
1B6
  8
0
  6
CONTINUOUS
 62
     5
 10
532.7937380695921
 20
92.46813360150399
 30
0.0
 11
532.2312383042854
 21
93.44241229738536
 31
0.0
  0
LINE
  5
1B7
  8
0
  6
CONTINUOUS
 62
     5
 10
532.7937644392927
 20
92.46813561155257
 30
0.0
 11
534.0928027004679
 21
93.21813529862818
 31
0.0
  0
LINE
  5
1B8
  8
0
  6
CONTINUOUS
 62
     5
 10
534.8427713561491
 20
91.91909261127775
 30
0.0
 11
534.0927717882827
 21
93.21813066597633
 31
0.0
  0
LINE
  5
1B9
  8
0
  6
CONTINUOUS
 62
     5
 10
534.9667330137236
 20
94.70448827752703
 30
0.0
 11
535.2412542761405
 21
95.72901583287165
 31
0.0
  0
LINE
  5
1BA
  8
0
  6
CONTINUOUS
 62
     5
 10
532.6781042191514
 20
94.24919185710549
 30
0.0
 11
535.2412151875883
 21
95.72900387013175
 31
0.0
  0
LINE
  5
1BB
  8
0
  6
CONTINUOUS
 62
     5
 10
535.2412109219861
 20
95.72903324376888
 30
0.0
 11
534.2166981517805
 21
96.00355072964129
 31
0.0
  0
ARC
  5
1BC
  8
0
  6
CONTINUOUS
 62
     5
 10
538.7228914250297
 20
89.73780846478225
 30
0.0
 40
2.625001907348633
 50
75.00008446424575
 51
369.9999367173826
  0
TEXT
  5
1BE
  8
0
 62
     5
 10
540.8903196226986
 20
82.18469849698613
 30
0.0
 40
2.5
  1
F
 50
119.9999866787419
 41
0.5442179498218123
  7
FDASTYLE1
 72
     5
 11
540.2100474593681
 21
83.36296507950225
 31
0.0
  0
TEXT
  5
1BF
  8
0
 62
     5
 10
543.5050693184659
 20
92.6940358335402
 30
0.0
 40
2.5
  1
N min
 50
119.9999866787419
 41
0.6995393319099847
  7
FDASTYLE1
 72
     5
 11
539.1329502546881
 21
100.2667722548128
 31
0.0
  0
TEXT
  5
1C0
  8
0
 62
     5
 10
535.4957961030867
 20
103.008817495972
 30
0.0
 40
1.25
  1
-1
 50
119.9999866787419
 41
0.6149070012128706
  7
FDASTYLE1
 72
     5
 11
534.7271626611006
 21
104.3401303847173
 31
0.0
  0
TEXT
  5
1C1
  8
0
 62
     5
 10
534.2355507930928
 20
97.11599641613026
 30
0.0
 40
2.5
  1
ΣS
 50
119.9999866787419
 41
0.7846700504791676
  7
FDASTYLE1
 72
     5
 11
532.0777090232416
 21
100.853490002999
 31
0.0
  0
ENDBLK
  5
4E
  8
0
  0
BLOCK
  8
0
  2
DC_GROUP_2
 70
     0
 10
0.0
 20
0.0
 30
0.0
  3
DC_GROUP_2
  1

  0
LINE
  5
1C2
  8
0
  6
CONTINUOUS
 62
     9
 10
179.6285404343494
 20
17.99957626122097
 30
0.0
 11
208.6285404343494
 21
17.99957626122097
 31
0.0
  0
LINE
  5
1C3
  8
0
  6
CONTINUOUS
 62
     9
 10
208.6285404343494
 20
17.99957626122097
 30
0.0
 11
220.6285404343494
 21
17.99957626122097
 31
0.0
  0
LINE
  5
1C4
  8
0
  6
CONTINUOUS
 62
     9
 10
220.6285404343494
 20
17.99957626122097
 30
0.0
 11
229.6285404343494
 21
17.99957626122097
 31
0.0
  0
INSERT
  5
1C5
  8
0
  6
CONTINUOUS
  2
DC_GROUP_3
 10
0.0
 20
0.0
 30
0.0
  0
INSERT
  5
1C6
  8
0
  6
CONTINUOUS
  2
DC_GROUP_4
 10
0.0
 20
0.0
 30
0.0
  0
INSERT
  5
1C7
  8
0
  6
CONTINUOUS
  2
DC_GROUP_5
 10
0.0
 20
0.0
 30
0.0
  0
INSERT
  5
1C8
  8
0
  6
CONTINUOUS
  2
DC_GROUP_6
 10
0.0
 20
0.0
 30
0.0
  0
INSERT
  5
1C9
  8
0
  6
CONTINUOUS
  2
DC_GROUP_7
 10
0.0
 20
0.0
 30
0.0
  0
INSERT
  5
1CA
  8
0
  6
CONTINUOUS
  2
DC_GROUP_8
 10
0.0
 20
0.0
 30
0.0
  0
TEXT
  5
1CB
  8
0
 62
     7
 10
190.9285404343494
 20
18.99957626122097
 30
0.0
 40
4.0
  1
29
 41
0.6285714285714263
  7
FDASTYLE1
 72
     5
 11
195.9571118629208
 21
18.99957626122097
 31
0.0
  0
TEXT
  5
1CC
  8
0
 62
     7
 10
211.4285404343494
 20
18.99957626122097
 30
0.0
 40
4.0
  1
12
 41
0.5904761904761884
  7
FDASTYLE1
 72
     5
 11
216.1523499581589
 21
18.99957626122097
 31
0.0
  0
TEXT
  5
1CD
  8
0
 62
     7
 10
223.5285404343494
 20
18.99957626122097
 30
0.0
 40
4.0
  1
9
 41
0.4952380952380935
  7
FDASTYLE1
 72
     5
 11
225.5094928153018
 21
18.99957626122097
 31
0.0
  0
ENDBLK
  5
51
  8
0
  0
BLOCK
  8
0
  2
DC_GROUP_3
 70
     0
 10
0.0
 20
0.0
 30
0.0
  3
DC_GROUP_3
  1

  0
LINE
  5
1CE
  8
0
  6
CONTINUOUS
 62
     9
 10
181.6285388419801
 20
17.46367672632336
 30
0.0
 11
179.6285404343494
 21
17.99957626122097
 31
0.0
  0
LINE
  5
1CF
  8
0
  6
CONTINUOUS
 62
     9
 10
179.6285404343494
 20
17.99957626122097
 30
0.0
 11
181.6285388419801
 21
18.53547579611858
 31
0.0
  0
LINE
  5
1D0
  8
0
  6
CONTINUOUS
 62
     9
 10
179.6285404343494
 20
17.99957626122097
 30
0.0
 11
181.6285388419801
 21
17.99957626122097
 31
0.0
  0
ENDBLK
  5
54
  8
0
  0
BLOCK
  8
0
  2
DC_GROUP_4
 70
     0
 10
0.0
 20
0.0
 30
0.0
  3
DC_GROUP_4
  1

  0
LINE
  5
1D1
  8
0
  6
CONTINUOUS
 62
     9
 10
206.6285420267188
 20
18.53547579611858
 30
0.0
 11
208.6285404343494
 21
17.99957626122097
 31
0.0
  0
LINE
  5
1D2
  8
0
  6
CONTINUOUS
 62
     9
 10
208.6285404343494
 20
17.99957626122097
 30
0.0
 11
206.6285420267188
 21
17.46367672632336
 31
0.0
  0
LINE
  5
1D3
  8
0
  6
CONTINUOUS
 62
     9
 10
208.6285404343494
 20
17.99957626122097
 30
0.0
 11
206.6285420267188
 21
17.99957626122097
 31
0.0
  0
ENDBLK
  5
57
  8
0
  0
BLOCK
  8
0
  2
DC_GROUP_5
 70
     0
 10
0.0
 20
0.0
 30
0.0
  3
DC_GROUP_5
  1

  0
LINE
  5
1D4
  8
0
  6
CONTINUOUS
 62
     9
 10
210.6285388419801
 20
17.46367672632336
 30
0.0
 11
208.6285404343494
 21
17.99957626122097
 31
0.0
  0
LINE
  5
1D5
  8
0
  6
CONTINUOUS
 62
     9
 10
208.6285404343494
 20
17.99957626122097
 30
0.0
 11
210.6285388419801
 21
18.53547579611858
 31
0.0
  0
LINE
  5
1D6
  8
0
  6
CONTINUOUS
 62
     9
 10
208.6285404343494
 20
17.99957626122097
 30
0.0
 11
210.6285388419801
 21
17.99957626122097
 31
0.0
  0
ENDBLK
  5
5A
  8
0
  0
BLOCK
  8
0
  2
DC_GROUP_6
 70
     0
 10
0.0
 20
0.0
 30
0.0
  3
DC_GROUP_6
  1

  0
LINE
  5
1D7
  8
0
  6
CONTINUOUS
 62
     9
 10
218.6285420267187
 20
18.53547579611858
 30
0.0
 11
220.6285404343494
 21
17.99957626122097
 31
0.0
  0
LINE
  5
1D8
  8
0
  6
CONTINUOUS
 62
     9
 10
220.6285404343494
 20
17.99957626122097
 30
0.0
 11
218.6285420267187
 21
17.46367672632336
 31
0.0
  0
LINE
  5
1D9
  8
0
  6
CONTINUOUS
 62
     9
 10
220.6285404343494
 20
17.99957626122097
 30
0.0
 11
218.6285420267187
 21
17.99957626122097
 31
0.0
  0
ENDBLK
  5
5D
  8
0
  0
BLOCK
  8
0
  2
DC_GROUP_7
 70
     0
 10
0.0
 20
0.0
 30
0.0
  3
DC_GROUP_7
  1

  0
LINE
  5
1DA
  8
0
  6
CONTINUOUS
 62
     9
 10
222.6285388419801
 20
17.46367672632336
 30
0.0
 11
220.6285404343494
 21
17.99957626122097
 31
0.0
  0
LINE
  5
1DB
  8
0
  6
CONTINUOUS
 62
     9
 10
220.6285404343494
 20
17.99957626122097
 30
0.0
 11
222.6285388419801
 21
18.53547579611858
 31
0.0
  0
LINE
  5
1DC
  8
0
  6
CONTINUOUS
 62
     9
 10
220.6285404343494
 20
17.99957626122097
 30
0.0
 11
222.6285388419801
 21
17.99957626122097
 31
0.0
  0
ENDBLK
  5
60
  8
0
  0
BLOCK
  8
0
  2
DC_GROUP_8
 70
     0
 10
0.0
 20
0.0
 30
0.0
  3
DC_GROUP_8
  1

  0
LINE
  5
1DD
  8
0
  6
CONTINUOUS
 62
     9
 10
227.6285420267187
 20
18.53547579611858
 30
0.0
 11
229.6285404343494
 21
17.99957626122097
 31
0.0
  0
LINE
  5
1DE
  8
0
  6
CONTINUOUS
 62
     9
 10
229.6285404343494
 20
17.99957626122097
 30
0.0
 11
227.6285420267187
 21
17.46367672632336
 31
0.0
  0
LINE
  5
1DF
  8
0
  6
CONTINUOUS
 62
     9
 10
229.6285404343494
 20
17.99957626122097
 30
0.0
 11
227.6285420267187
 21
17.99957626122097
 31
0.0
  0
ENDBLK
  5
63
  8
0
  0
BLOCK
  8
0
  2
DC_GROUP_9
 70
     0
 10
0.0
 20
0.0
 30
0.0
  3
DC_GROUP_9
  1

  0
LINE
  5
1E0
  8
0
  6
CONTINUOUS
 62
     9
 10
254.5116581101307
 20
17.99957626122097
 30
0.0
 11
257.0116581101307
 21
17.99957626122097
 31
0.0
  0
LINE
  5
1E1
  8
0
  6
CONTINUOUS
 62
     9
 10
240.9798081101307
 20
17.99957626122097
 30
0.0
 11
254.5116581101307
 21
17.99957626122097
 31
0.0
  0
LINE
  5
1E2
  8
0
  6
CONTINUOUS
 62
     9
 10
262.0116581101307
 20
17.99957626122097
 30
0.0
 11
257.0116581101307
 21
17.99957626122097
 31
0.0
  0
INSERT
  5
1E3
  8
0
  6
CONTINUOUS
  2
DC_GROUP_10
 10
0.0
 20
0.0
 30
0.0
  0
INSERT
  5
1E4
  8
0
  6
CONTINUOUS
  2
DC_GROUP_11
 10
0.0
 20
0.0
 30
0.0
  0
TEXT
  5
1E5
  8
0
 62
     7
 10
241.9798081101307
 20
18.99957626122097
 30
0.0
 40
4.0
  1
2.5
 41
0.5587301587301568
  7
FDASTYLE1
 72
     5
 11
248.6845700148926
 21
18.99957626122097
 31
0.0
  0
ENDBLK
  5
66
  8
0
  0
BLOCK
  8
0
  2
DC_GROUP_10
 70
     0
 10
0.0
 20
0.0
 30
0.0
  3
DC_GROUP_10
  1

  0
LINE
  5
1E6
  8
0
  6
CONTINUOUS
 62
     9
 10
252.5116597025
 20
18.53547579611858
 30
0.0
 11
254.5116581101307
 21
17.99957626122097
 31
0.0
  0
LINE
  5
1E7
  8
0
  6
CONTINUOUS
 62
     9
 10
254.5116581101307
 20
17.99957626122097
 30
0.0
 11
252.5116597025
 21
17.46367672632336
 31
0.0
  0
LINE
  5
1E8
  8
0
  6
CONTINUOUS
 62
     9
 10
254.5116581101307
 20
17.99957626122097
 30
0.0
 11
252.5116597025
 21
17.99957626122097
 31
0.0
  0
ENDBLK
  5
69
  8
0
  0
BLOCK
  8
0
  2
DC_GROUP_11
 70
     0
 10
0.0
 20
0.0
 30
0.0
  3
DC_GROUP_11
  1

  0
LINE
  5
1E9
  8
0
  6
CONTINUOUS
 62
     9
 10
259.0116565177614
 20
17.46367672632336
 30
0.0
 11
257.0116581101307
 21
17.99957626122097
 31
0.0
  0
LINE
  5
1EA
  8
0
  6
CONTINUOUS
 62
     9
 10
257.0116581101307
 20
17.99957626122097
 30
0.0
 11
259.0116565177614
 21
18.53547579611858
 31
0.0
  0
LINE
  5
1EB
  8
0
  6
CONTINUOUS
 62
     9
 10
257.0116581101307
 20
17.99957626122097
 30
0.0
 11
259.0116565177614
 21
17.99957626122097
 31
0.0
  0
ENDBLK
  5
6C
  8
0
  0
BLOCK
  8
0
  2
DC_GROUP_12
 70
     0
 10
0.0
 20
0.0
 30
0.0
  3
DC_GROUP_12
  1

  0
LINE
  5
1EC
  8
0
  6
CONTINUOUS
 62
     7
 10
213.7989257885894
 20
-76.35067199536421
 30
0.0
 11
228.742039099133
 21
-91.39330403016128
 31
0.0
  0
LINE
  5
1ED
  8
0
  6
CONTINUOUS
 62
     7
 10
228.742039099133
 20
-91.39330403016128
 30
0.0
 11
244.742039099133
 21
-91.39330403016128
 31
0.0
  0
INSERT
  5
1EE
  8
0
  6
CONTINUOUS
  2
DC_GROUP_13
 10
0.0
 20
0.0
 30
0.0
  0
TEXT
  5
1EF
  8
0
 62
     7
 10
228.742039099133
 20
-91.39330403016128
 30
0.0
 40
4.0
  1
M8×16
 41
0.6213017751479295
  7
FDASTYLE1
 72
     5
 11
241.6651160222099
 21
-91.39330403016128
 31
0.0
  0
ENDBLK
  5
6F
  8
0
  0
BLOCK
  8
0
  2
DC_GROUP_13
 70
     0
 10
0.0
 20
0.0
 30
0.0
  3
DC_GROUP_13
  1

  0
LINE
  5
1F0
  8
0
  6
CONTINUOUS
 62
     7
 10
214.8282431310711
 20
-78.14724867073741
 30
0.0
 11
213.7989257885894
 21
-76.35067199536421
 31
0.0
  0
LINE
  5
1F1
  8
0
  6
CONTINUOUS
 62
     7
 10
213.7989257885894
 20
-76.35067199536421
 30
0.0
 11
215.5886306251518
 21
-77.39189173202591
 31
0.0
  0
LINE
  5
1F2
  8
0
  6
CONTINUOUS
 62
     7
 10
213.7989257885894
 20
-76.35067199536421
 30
0.0
 11
215.2084368781115
 21
-77.76957020138167
 31
0.0
  0
ENDBLK
  5
72
  8
0
  0
BLOCK
  8
0
  2
DC_GROUP_14
 70
     0
 10
0.0
 20
0.0
 30
0.0
  3
DC_GROUP_14
  1

  0
LINE
  5
1F3
  8
0
  6
CONTINUOUS
 62
     9
 10
213.7116550583729
 20
-80.36846786321041
 30
0.0
 11
213.7116550583729
 21
-88.48452523311751
 31
0.0
  0
LINE
  5
1F4
  8
0
  6
CONTINUOUS
 62
     9
 10
170.7116550583729
 20
-64.85067199536421
 30
0.0
 11
170.7116550583729
 21
-88.48452523311751
 31
0.0
  0
LINE
  5
1F5
  8
0
  6
CONTINUOUS
 62
     9
 10
170.7116550583729
 20
-87.48452523311751
 30
0.0
 11
213.7116550583729
 21
-87.48452523311751
 31
0.0
  0
INSERT
  5
1F6
  8
0
  6
CONTINUOUS
  2
DC_GROUP_15
 10
0.0
 20
0.0
 30
0.0
  0
INSERT
  5
1F7
  8
0
  6
CONTINUOUS
  2
DC_GROUP_16
 10
0.0
 20
0.0
 30
0.0
  0
TEXT
  5
1F8
  8
0
 62
     7
 10
189.0116550583729
 20
-86.48452523311751
 30
0.0
 40
4.0
  1
43
 41
0.6476190476190453
  7
FDASTYLE1
 72
     5
 11
194.1926074393253
 21
-86.48452523311751
 31
0.0
  0
ENDBLK
  5
75
  8
0
  0
BLOCK
  8
0
  2
DC_GROUP_15
 70
     0
 10
0.0
 20
0.0
 30
0.0
  3
DC_GROUP_15
  1

  0
LINE
  5
1F9
  8
0
  6
CONTINUOUS
 62
     9
 10
172.7116534660036
 20
-88.02042476801512
 30
0.0
 11
170.7116550583729
 21
-87.48452523311751
 31
0.0
  0
LINE
  5
1FA
  8
0
  6
CONTINUOUS
 62
     9
 10
170.7116550583729
 20
-87.48452523311751
 30
0.0
 11
172.7116534660036
 21
-86.9486256982199
 31
0.0
  0
LINE
  5
1FB
  8
0
  6
CONTINUOUS
 62
     9
 10
170.7116550583729
 20
-87.48452523311751
 30
0.0
 11
172.7116534660036
 21
-87.48452523311751
 31
0.0
  0
ENDBLK
  5
78
  8
0
  0
BLOCK
  8
0
  2
DC_GROUP_16
 70
     0
 10
0.0
 20
0.0
 30
0.0
  3
DC_GROUP_16
  1

  0
LINE
  5
1FC
  8
0
  6
CONTINUOUS
 62
     9
 10
211.7116566507422
 20
-86.9486256982199
 30
0.0
 11
213.7116550583729
 21
-87.48452523311751
 31
0.0
  0
LINE
  5
1FD
  8
0
  6
CONTINUOUS
 62
     9
 10
213.7116550583729
 20
-87.48452523311751
 30
0.0
 11
211.7116566507422
 21
-88.02042476801512
 31
0.0
  0
LINE
  5
1FE
  8
0
  6
CONTINUOUS
 62
     9
 10
213.7116550583729
 20
-87.48452523311751
 30
0.0
 11
211.7116566507422
 21
-87.48452523311751
 31
0.0
  0
ENDBLK
  5
7B
  8
0
  0
BLOCK
  8
0
  2
DC_GROUP_17
 70
     0
 10
0.0
 20
0.0
 30
0.0
  3
DC_GROUP_17
  1

  0
LINE
  5
1FF
  8
0
  6
CONTINUOUS
 62
     3
 10
223.8906099240013
 20
-26.42100036254761
 30
0.0
 11
223.2453582541093
 21
-27.63069528724326
 31
0.0
  0
LINE
  5
200
  8
0
  6
CONTINUOUS
 62
     3
 10
223.2453582541093
 20
-27.63069528724326
 30
0.0
 11
222.6833842868138
 21
-28.83960506949768
 31
0.0
  0
LINE
  5
201
  8
0
  6
CONTINUOUS
 62
     3
 10
222.6833842868138
 20
-28.83960506949768
 30
0.0
 11
222.287965724711
 21
-30.04694456686963
 31
0.0
  0
LINE
  5
202
  8
0
  6
CONTINUOUS
 62
     3
 10
222.287965724711
 20
-30.04694456686963
 30
0.0
 11
222.1423802703972
 21
-31.25192863691788
 31
0.0
  0
LINE
  5
203
  8
0
  6
CONTINUOUS
 62
     3
 10
222.1423802703972
 20
-31.25192863691788
 30
0.0
 11
222.3188389260222
 21
-32.45387146819942
 31
0.0
  0
LINE
  5
204
  8
0
  6
CONTINUOUS
 62
     3
 10
222.3188389260222
 20
-32.45387146819942
 30
0.0
 11
222.7513897756207
 21
-33.65332735336878
 31
0.0
  0
LINE
  5
205
  8
0
  6
CONTINUOUS
 62
     3
 10
222.7513897756207
 20
-33.65332735336878
 30
0.0
 11
223.2802083120795
 21
-34.85169315403122
 31
0.0
  0
LINE
  5
206
  8
0
  6
CONTINUOUS
 62
     3
 10
223.2802083120795
 20
-34.85169315403122
 30
0.0
 11
223.743678294865
 21
-36.05038181379127
 31
0.0
  0
LINE
  5
207
  8
0
  6
CONTINUOUS
 62
     3
 10
223.743678294865
 20
-36.05038181379127
 30
0.0
 11
223.9856131372404
 21
-37.25075980023917
 31
0.0
  0
LINE
  5
208
  8
0
  6
CONTINUOUS
 62
     3
 10
223.9856131372404
 20
-37.25075980023917
 30
0.0
 11
223.9543681862414
 21
-38.45329873709626
 31
0.0
  0
LINE
  5
209
  8
0
  6
CONTINUOUS
 62
     3
 10
223.9543681862414
 20
-38.45329873709626
 30
0.0
 11
223.6926523558635
 21
-39.65766261321569
 31
0.0
  0
LINE
  5
20A
  8
0
  6
CONTINUOUS
 62
     3
 10
223.6926523558635
 20
-39.65766261321569
 30
0.0
 11
223.2465598219825
 21
-40.86348644074496
 31
0.0
  0
LINE
  5
20B
  8
0
  6
CONTINUOUS
 62
     3
 10
223.2465598219825
 20
-40.86348644074496
 30
0.0
 11
222.6621847604741
 21
-42.07040523183162
 31
0.0
  0
LINE
  5
20C
  8
0
  6
CONTINUOUS
 62
     3
 10
222.6621847604741
 20
-42.07040523183162
 30
0.0
 11
221.9856213472141
 21
-43.27805399862322
 31
0.0
  0
LINE
  5
20D
  8
0
  6
CONTINUOUS
 62
     3
 10
221.9856213472141
 20
-43.27805399862322
 30
0.0
 11
221.2629637580784
 21
-44.48606775326729
 31
0.0
  0
ENDBLK
  5
7E
  8
0
  0
BLOCK
  8
0
  2
DC_GROUP_18
 70
     0
 10
0.0
 20
0.0
 30
0.0
  3
DC_GROUP_18
  1

  0
LINE
  5
20E
  8
0
  6
CONTINUOUS
 62
     9
 10
500.2447114933891
 20
37.67599892498733
 30
0.0
 11
500.2447114933891
 21
44.19460803559748
 31
0.0
  0
LINE
  5
20F
  8
0
  6
CONTINUOUS
 62
     9
 10
446.2446886052055
 20
37.87323021771194
 30
0.0
 11
446.2446886052055
 21
44.19460803559748
 31
0.0
  0
LINE
  5
210
  8
0
  6
CONTINUOUS
 62
     9
 10
446.2446886052055
 20
43.19460803559748
 30
0.0
 11
500.2447114933891
 21
43.19460803559748
 31
0.0
  0
INSERT
  5
211
  8
0
  6
CONTINUOUS
  2
DC_GROUP_19
 10
0.0
 20
0.0
 30
0.0
  0
INSERT
  5
212
  8
0
  6
CONTINUOUS
  2
DC_GROUP_20
 10
0.0
 20
0.0
 30
0.0
  0
TEXT
  5
213
  8
0
 62
     7
 10
465.2447000492973
 20
44.19460803559748
 30
0.0
 40
4.0
  1
PCD54
 41
0.7390476190476193
  7
FDASTYLE1
 72
     5
 11
480.0256524302497
 21
44.19460803559748
 31
0.0
  0
ENDBLK
  5
81
  8
0
  0
BLOCK
  8
0
  2
DC_GROUP_19
 70
     0
 10
0.0
 20
0.0
 30
0.0
  3
DC_GROUP_19
  1

  0
LINE
  5
214
  8
0
  6
CONTINUOUS
 62
     9
 10
448.2446870128361
 20
42.65870850069987
 30
0.0
 11
446.2446886052055
 21
43.19460803559748
 31
0.0
  0
LINE
  5
215
  8
0
  6
CONTINUOUS
 62
     9
 10
446.2446886052055
 20
43.19460803559748
 30
0.0
 11
448.2446870128361
 21
43.73050757049509
 31
0.0
  0
LINE
  5
216
  8
0
  6
CONTINUOUS
 62
     9
 10
446.2446886052055
 20
43.19460803559748
 30
0.0
 11
448.2446870128361
 21
43.19460803559748
 31
0.0
  0
ENDBLK
  5
84
  8
0
  0
BLOCK
  8
0
  2
DC_GROUP_20
 70
     0
 10
0.0
 20
0.0
 30
0.0
  3
DC_GROUP_20
  1

  0
LINE
  5
217
  8
0
  6
CONTINUOUS
 62
     9
 10
498.2447130857584
 20
43.73050757049509
 30
0.0
 11
500.2447114933891
 21
43.19460803559748
 31
0.0
  0
LINE
  5
218
  8
0
  6
CONTINUOUS
 62
     9
 10
500.2447114933891
 20
43.19460803559748
 30
0.0
 11
498.2447130857584
 21
42.65870850069987
 31
0.0
  0
LINE
  5
219
  8
0
  6
CONTINUOUS
 62
     9
 10
500.2447114933891
 20
43.19460803559748
 30
0.0
 11
498.2447130857584
 21
43.19460803559748
 31
0.0
  0
ENDBLK
  5
87
  8
0
  0
BLOCK
  8
0
  2
DC_GROUP_21
 70
     0
 10
0.0
 20
0.0
 30
0.0
  3
DC_GROUP_21
  1

  0
LINE
  5
21A
  8
0
  6
CONTINUOUS
 62
     7
 10
501.7513917132236
 20
33.3293414967599
 30
0.0
 11
531.7388204784525
 21
136.3141822623567
 31
0.0
  0
LINE
  5
21B
  8
0
  6
CONTINUOUS
 62
     7
 10
531.7388204784525
 20
136.3141822623567
 30
0.0
 11
550.9388204784524
 21
136.3141822623567
 31
0.0
  0
INSERT
  5
21C
  8
0
  6
CONTINUOUS
  2
DC_GROUP_22
 10
0.0
 20
0.0
 30
0.0
  0
TEXT
  5
21D
  8
0
 62
     7
 10
531.7388204784525
 20
136.3141822623567
 30
0.0
 40
4.0
  1
2-φ5.3
 41
0.6243496357960464
  7
FDASTYLE1
 72
     5
 11
547.2226914461944
 21
136.3141822623567
 31
0.0
  0
ENDBLK
  5
8A
  8
0
  0
BLOCK
  8
0
  2
DC_GROUP_22
 70
     0
 10
0.0
 20
0.0
 30
0.0
  3
DC_GROUP_22
  1

  0
LINE
  5
21E
  8
0
  6
CONTINUOUS
 62
     7
 10
502.825065565803
 20
35.09976698243163
 30
0.0
 11
501.7513917132236
 21
33.3293414967599
 31
0.0
  0
LINE
  5
21F
  8
0
  6
CONTINUOUS
 62
     7
 10
501.7513917132236
 20
33.3293414967599
 30
0.0
 11
501.7960047568391
 21
35.39941193478081
 31
0.0
  0
LINE
  5
220
  8
0
  6
CONTINUOUS
 62
     7
 10
501.7513917132236
 20
33.3293414967599
 30
0.0
 11
502.310535161321
 21
35.24958945860622
 31
0.0
  0
ENDBLK
  5
8D
  8
0
  0
BLOCK
  8
0
  2
DC_GROUP_23
 70
     0
 10
0.0
 20
0.0
 30
0.0
  3
DC_GROUP_23
  1

  0
LINE
  5
221
  8
LAYER0001
  6
CONTINUOUS
 62
     7
 10
374.4472385178066
 20
-17.80847093389642
 30
0.0
 11
361.6905605763752
 21
-25.17354156363994
 31
0.0
  0
LINE
  5
222
  8
LAYER0001
  6
CONTINUOUS
 62
     7
 10
381.4472321045722
 20
-29.9327976203342
 30
0.0
 11
368.6905572211726
 21
-37.29786969329381
 31
0.0
  0
LINE
  5
223
  8
LAYER0001
  6
CONTINUOUS
 62
     7
 10
363.6703140693944
 20
-24.03053874747899
 30
0.0
 11
370.6703140693944
 21
-36.15489418285038
 31
0.0
  0
LINE
  5
224
  8
LAYER0001
  6
CONTINUOUS
 62
     7
 10
363.6703140693944
 20
-24.03053874747899
 30
0.0
 11
360.4953140266551
 21
-18.53127745812331
 31
0.0
  0
LINE
  5
225
  8
LAYER0001
  6
CONTINUOUS
 62
     7
 10
373.8453141121336
 20
-41.65415547220606
 30
0.0
 11
370.6703140693944
 21
-36.15489418285038
 31
0.0
  0
INSERT
  5
226
  8
LAYER0001
  6
CONTINUOUS
  2
DC_GROUP_24
 10
0.0
 20
0.0
 30
0.0
  0
INSERT
  5
227
  8
LAYER0001
  6
CONTINUOUS
  2
DC_GROUP_25
 10
0.0
 20
0.0
 30
0.0
  0
TEXT
  5
228
  8
LAYER0001
 62
     7
 10
365.3559502839754
 20
-23.75016483966921
 30
0.0
 40
4.0
  1
14H8
 50
-59.99999999999999
 41
0.6952380952380968
  7
FDASTYLE1
 72
     5
 11
370.9178550458802
 21
-33.38366647414756
 31
0.0
  0
ENDBLK
  5
90
  8
0
  0
BLOCK
  8
0
  2
DC_GROUP_24
 70
     0
 10
0.0
 20
0.0
 30
0.0
  3
DC_GROUP_24
  1

  0
LINE
  5
229
  8
LAYER0001
  6
CONTINUOUS
 62
     7
 10
363.134417461133
 20
-22.03053955565849
 30
0.0
 11
363.6703140693944
 21
-24.03053874747899
 31
0.0
  0
LINE
  5
22A
  8
LAYER0001
  6
CONTINUOUS
 62
     7
 10
363.6703140693944
 20
-24.03053874747899
 30
0.0
 11
362.2062122431027
 21
-22.56643909776994
 31
0.0
  0
LINE
  5
22B
  8
LAYER0001
  6
CONTINUOUS
 62
     7
 10
363.6703140693944
 20
-24.03053874747899
 30
0.0
 11
362.6703148521178
 21
-22.29848932671422
 31
0.0
  0
ENDBLK
  5
93
  8
0
  0
BLOCK
  8
0
  2
DC_GROUP_25
 70
     0
 10
0.0
 20
0.0
 30
0.0
  3
DC_GROUP_25
  1

  0
LINE
  5
22C
  8
LAYER0001
  6
CONTINUOUS
 62
     7
 10
371.2062106776557
 20
-38.15489337467087
 30
0.0
 11
370.6703140693944
 21
-36.15489418285038
 31
0.0
  0
LINE
  5
22D
  8
LAYER0001
  6
CONTINUOUS
 62
     7
 10
370.6703140693944
 20
-36.15489418285038
 30
0.0
 11
372.134415895686
 21
-37.61899383255942
 31
0.0
  0
LINE
  5
22E
  8
LAYER0001
  6
CONTINUOUS
 62
     7
 10
370.6703140693944
 20
-36.15489418285038
 30
0.0
 11
371.6703132866708
 21
-37.88694360361514
 31
0.0
  0
ENDBLK
  5
96
  8
0
  0
BLOCK
  8
0
  2
DC_GROUP_26
 70
     0
 10
0.0
 20
0.0
 30
0.0
  3
DC_GROUP_26
  1

  0
LINE
  5
22F
  8
LAYER0001
  6
CONTINUOUS
 62
     7
 10
369.1972429306131
 20
-8.715207971700767
 30
0.0
 11
347.2308388145057
 21
-21.39751590009756
 31
0.0
  0
LINE
  5
230
  8
LAYER0001
  6
CONTINUOUS
 62
     7
 10
386.6972527500122
 20
-39.02608008066689
 30
0.0
 11
364.7308542253813
 21
-51.70837937241201
 31
0.0
  0
LINE
  5
231
  8
LAYER0001
  6
CONTINUOUS
 62
     7
 10
349.2105996521013
 20
-20.2545069308495
 30
0.0
 11
366.7105964334502
 21
-50.56539925725302
 31
0.0
  0
INSERT
  5
232
  8
LAYER0001
  6
CONTINUOUS
  2
DC_GROUP_27
 10
0.0
 20
0.0
 30
0.0
  0
INSERT
  5
233
  8
LAYER0001
  6
CONTINUOUS
  2
DC_GROUP_28
 10
0.0
 20
0.0
 30
0.0
  0
TEXT
  5
234
  8
LAYER0001
 62
     7
 10
357.7462334871004
 20
-31.83867635638879
 30
0.0
 40
4.0
  1
35
 50
-59.99999999999999
 41
0.6476190476190464
  7
FDASTYLE1
 72
     5
 11
360.3367096775766
 21
-36.32551273409102
 31
0.0
  0
ENDBLK
  5
99
  8
0
  0
BLOCK
  8
0
  2
DC_GROUP_27
 70
     0
 10
0.0
 20
0.0
 30
0.0
  3
DC_GROUP_27
  1

  0
LINE
  5
235
  8
LAYER0001
  6
CONTINUOUS
 62
     7
 10
349.7464959942815
 20
-22.25450619396598
 30
0.0
 11
349.2105996521013
 21
-20.2545069308495
 31
0.0
  0
LINE
  5
236
  8
LAYER0001
  6
CONTINUOUS
 62
     7
 10
349.2105996521013
 20
-20.2545069308495
 30
0.0
 11
350.6747012836082
 21
-21.71860677534352
 31
0.0
  0
LINE
  5
237
  8
LAYER0001
  6
CONTINUOUS
 62
     7
 10
349.2105996521013
 20
-20.2545069308495
 30
0.0
 11
350.2105986389449
 21
-21.98655648465475
 31
0.0
  0
ENDBLK
  5
9C
  8
0
  0
BLOCK
  8
0
  2
DC_GROUP_28
 70
     0
 10
0.0
 20
0.0
 30
0.0
  3
DC_GROUP_28
  1

  0
LINE
  5
238
  8
LAYER0001
  6
CONTINUOUS
 62
     7
 10
366.17470009127
 20
-48.56539999413654
 30
0.0
 11
366.7105964334502
 21
-50.56539925725302
 31
0.0
  0
LINE
  5
239
  8
LAYER0001
  6
CONTINUOUS
 62
     7
 10
366.7105964334502
 20
-50.56539925725302
 30
0.0
 11
365.2464948019433
 21
-49.101299412759
 31
0.0
  0
LINE
  5
23A
  8
LAYER0001
  6
CONTINUOUS
 62
     7
 10
366.7105964334502
 20
-50.56539925725302
 30
0.0
 11
365.7105974466066
 21
-48.83334970344777
 31
0.0
  0
ENDBLK
  5
9F
  8
0
  0
BLOCK
  8
0
  2
DC_GROUP_29
 70
     0
 10
0.0
 20
0.0
 30
0.0
  3
DC_GROUP_29
  1

  0
LINE
  5
23B
  8
LAYER0001
  6
CONTINUOUS
 62
     7
 10
573.7382677191722
 20
-26.87061676285568
 30
0.0
 11
583.4775107403218
 21
-32.49356102618036
 31
0.0
  0
LINE
  5
23C
  8
LAYER0001
  6
CONTINUOUS
 62
     7
 10
589.284700409278
 20
31.14931515468619
 30
0.0
 11
600.5305738223754
 21
31.14934885123429
 31
0.0
  0
ARC
  5
23D
  8
LAYER0001
  6
CONTINUOUS
 62
     7
 10
473.2447496403617
 20
31.14933800579787
 30
0.0
 40
126.2858200073242
 50
330.0000059953631
 51
360.0000035358315
  0
INSERT
  5
23E
  8
LAYER0001
  6
CONTINUOUS
  2
DC_GROUP_30
 10
0.0
 20
0.0
 30
0.0
  0
INSERT
  5
23F
  8
LAYER0001
  6
CONTINUOUS
  2
DC_GROUP_31
 10
0.0
 20
0.0
 30
0.0
  0
TEXT
  5
240
  8
LAYER0001
 62
     7
 10
592.4396715819829
 20
-5.758172337590856
 30
0.0
 40
4.0
  1
30ﾟ
 50
75.0
 41
0.4499999999999962
  7
FDASTYLE1
 72
     5
 11
593.8372944255365
 21
-0.5421728756299205
 31
0.0
  0
ENDBLK
  5
A2
  8
0
  0
BLOCK
  8
0
  2
DC_GROUP_30
 70
     0
 10
0.0
 20
0.0
 30
0.0
  3
DC_GROUP_30
  1

  0
LINE
  5
241
  8
LAYER0001
  6
CONTINUOUS
 62
     7
 10
584.0639468582932
 20
-30.51791321332525
 30
0.0
 11
582.611484511653
 21
-31.99356055385785
 31
0.0
  0
LINE
  5
242
  8
LAYER0001
  6
CONTINUOUS
 62
     7
 10
582.611484511653
 20
-31.99356055385785
 30
0.0
 11
583.1315271832873
 21
-29.98938053157739
 31
0.0
  0
LINE
  5
243
  8
LAYER0001
  6
CONTINUOUS
 62
     7
 10
582.611484511653
 20
-31.99356055385785
 30
0.0
 11
583.5977370207902
 21
-30.25364687245132
 31
0.0
  0
ENDBLK
  5
A5
  8
0
  0
BLOCK
  8
0
  2
DC_GROUP_31
 70
     0
 10
0.0
 20
0.0
 30
0.0
  3
DC_GROUP_31
  1

  0
LINE
  5
244
  8
LAYER0001
  6
CONTINUOUS
 62
     7
 10
598.9788501332175
 20
29.15365355848767
 30
0.0
 11
599.5305696476858
 21
31.14934579913591
 31
0.0
  0
LINE
  5
245
  8
LAYER0001
  6
CONTINUOUS
 62
     7
 10
599.5305696476858
 20
31.14934579913591
 30
0.0
 11
600.0506156010468
 21
29.1451666283976
 31
0.0
  0
LINE
  5
246
  8
LAYER0001
  6
CONTINUOUS
 62
     7
 10
599.5305696476858
 20
31.14934579913591
 30
0.0
 11
599.5147328671321
 21
29.14941009344263
 31
0.0
  0
ENDBLK
  5
A8
  8
0
  0
BLOCK
  8
0
  2
DC_GROUP_32
 70
     0
 10
0.0
 20
0.0
 30
0.0
  3
DC_GROUP_32
  1

  0
LINE
  5
247
  8
LAYER0001
  6
CONTINUOUS
 62
     7
 10
589.2846962346
 20
31.14930748821975
 30
0.0
 11
600.5305696476859
 21
31.14930748821975
 31
0.0
  0
ARC
  5
248
  8
LAYER0001
  6
CONTINUOUS
 62
     7
 10
473.2446886052055
 20
31.14933800579787
 30
0.0
 40
126.2858734130859
 50
359.9999861542038
 51
389.9999803442585
  0
INSERT
  5
249
  8
LAYER0001
  6
BORDER
  2
DC_GROUP_33
 10
0.0
 20
0.0
 30
0.0
  0
INSERT
  5
24A
  8
LAYER0001
  6
CONTINUOUS
  2
DC_GROUP_34
 10
0.0
 20
0.0
 30
0.0
  0
TEXT
  5
24B
  8
LAYER0001
 62
     7
 10
596.3401776532156
 20
66.16289096295252
 30
0.0
 40
4.0
  1
30ﾟ
 50
-76.3
 41
0.4499999999999973
  7
FDASTYLE1
 72
     5
 11
597.6191036419699
 21
60.91652571496525
 31
0.0
  0
ENDBLK
  5
AB
  8
0
  0
BLOCK
  8
0
  2
DC_GROUP_33
 70
     0
 10
0.0
 20
0.0
 30
0.0
  3
DC_GROUP_33
  1

  0
LINE
  5
24C
  8
LAYER0001
  6
CONTINUOUS
 62
     7
 10
600.050608338998
 20
33.15348656363723
 30
0.0
 11
599.5305620182877
 21
31.14930748821897
 31
0.0
  0
LINE
  5
24D
  8
LAYER0001
  6
CONTINUOUS
 62
     7
 10
599.5305620182877
 20
31.14930748821897
 30
0.0
 11
598.978842869613
 21
33.14499982999271
 31
0.0
  0
LINE
  5
24E
  8
LAYER0001
  6
CONTINUOUS
 62
     7
 10
599.5305620182877
 20
31.14930748821897
 30
0.0
 11
599.5147256043055
 21
33.14924319681497
 31
0.0
  0
ENDBLK
  5
AE
  8
0
  0
BLOCK
  8
0
  2
DC_GROUP_34
 70
     0
 10
0.0
 20
0.0
 30
0.0
  3
DC_GROUP_34
  1

  0
LINE
  5
24F
  8
LAYER0001
  6
CONTINUOUS
 62
     7
 10
583.1315269822012
 20
92.28805704872842
 30
0.0
 11
582.6114847816893
 21
94.2922371932552
 31
0.0
  0
LINE
  5
250
  8
LAYER0001
  6
CONTINUOUS
 62
     7
 10
582.6114847816893
 20
94.2922371932552
 30
0.0
 11
584.0639467814492
 21
92.81658951129252
 31
0.0
  0
LINE
  5
251
  8
LAYER0001
  6
CONTINUOUS
 62
     7
 10
582.6114847816893
 20
94.2922371932552
 30
0.0
 11
583.5977368818252
 21
92.55232328001047
 31
0.0
  0
ENDBLK
  5
B1
  8
0
  0
BLOCK
  8
0
  2
DC_GROUP_35
 70
     0
 10
0.0
 20
0.0
 30
0.0
  3
DC_GROUP_35
  1

  0
LINE
  5
252
  8
LAYER0001
  6
CONTINUOUS
 62
     7
 10
473.2442308415353
 20
147.1893380057965
 30
0.0
 11
473.2442308415353
 21
150.81155419232
 31
0.0
  0
LINE
  5
253
  8
LAYER0001
  6
CONTINUOUS
 62
     7
 10
412.9885945841758
 20
91.40545969091326
 30
0.0
 11
388.6303786902446
 21
115.7629179495842
 31
0.0
  0
ARC
  5
254
  8
LAYER0001
  6
CONTINUOUS
 62
     7
 10
473.2447191227836
 20
31.14938378216506
 30
0.0
 40
118.6621780395508
 50
90.00023473090995
 51
135.0002735491895
  0
INSERT
  5
255
  8
LAYER0001
  6
CONTINUOUS
  2
DC_GROUP_36
 10
0.0
 20
0.0
 30
0.0
  0
INSERT
  5
256
  8
LAYER0001
  6
CONTINUOUS
  2
DC_GROUP_37
 10
0.0
 20
0.0
 30
0.0
  0
TEXT
  5
257
  8
LAYER0001
 62
     7
 10
420.9967314980981
 20
139.5792028658297
 30
0.0
 40
4.0
  1
45ﾟ
 50
23.4
 41
0.4499999999999992
  7
FDASTYLE1
 72
     5
 11
425.9526064767916
 21
141.7238014752575
 31
0.0
  0
ENDBLK
  5
B4
  8
0
  0
BLOCK
  8
0
  2
DC_GROUP_36
 70
     0
 10
0.0
 20
0.0
 30
0.0
  3
DC_GROUP_36
  1

  0
LINE
  5
258
  8
LAYER0001
  6
CONTINUOUS
 62
     7
 10
471.2397873467455
 20
150.3305797664151
 30
0.0
 11
473.2442329843409
 21
149.81156182072
 31
0.0
  0
LINE
  5
259
  8
LAYER0001
  6
CONTINUOUS
 62
     7
 10
473.2442329843409
 20
149.81156182072
 30
0.0
 11
471.2488239819639
 21
149.2588187924858
 31
0.0
  0
LINE
  5
25A
  8
LAYER0001
  6
CONTINUOUS
 62
     7
 10
473.2442329843409
 20
149.81156182072
 30
0.0
 11
471.2443056643547
 21
149.7946992794505
 31
0.0
  0
ENDBLK
  5
B7
  8
0
  0
BLOCK
  8
0
  2
DC_GROUP_37
 70
     0
 10
0.0
 20
0.0
 30
0.0
  3
DC_GROUP_37
  1

  0
LINE
  5
25B
  8
LAYER0001
  6
CONTINUOUS
 62
     7
 10
391.1392942930006
 20
116.0759488215636
 30
0.0
 11
389.3374877623713
 21
115.0558139441037
 31
0.0
  0
LINE
  5
25C
  8
LAYER0001
  6
CONTINUOUS
 62
     7
 10
389.3374877623713
 20
115.0558139441037
 30
0.0
 11
390.3878279269055
 21
116.8401814737329
 31
0.0
  0
LINE
  5
25D
  8
LAYER0001
  6
CONTINUOUS
 62
     7
 10
389.3374877623713
 20
115.0558139441037
 30
0.0
 11
390.7635611099531
 21
116.4580651476483
 31
0.0
  0
ENDBLK
  5
BA
  8
0
  0
BLOCK
  8
0
  2
DC_GROUP_38
 70
     0
 10
0.0
 20
0.0
 30
0.0
  3
DC_GROUP_38
  1

  0
LINE
  5
25E
  8
LAYER0001
  6
CONTINUOUS
 62
     7
 10
412.9886059681259
 20
91.40546606878871
 30
0.0
 11
388.6307508109248
 21
115.7632801617505
 31
0.0
  0
LINE
  5
25F
  8
LAYER0001
  6
CONTINUOUS
 62
     7
 10
390.9333092591375
 20
53.20460109997747
 30
0.0
 11
357.6598965455813
 21
62.12015737496633
 31
0.0
  0
ARC
  5
260
  8
LAYER0001
  6
CONTINUOUS
 62
     7
 10
473.2447801579398
 20
31.14930748821975
 30
0.0
 40
118.6622695922852
 50
135.000014002001
 51
165.0000080066379
  0
INSERT
  5
261
  8
LAYER0001
  6
CONTINUOUS
  2
DC_GROUP_39
 10
0.0
 20
0.0
 30
0.0
  0
INSERT
  5
262
  8
LAYER0001
  6
CONTINUOUS
  2
DC_GROUP_40
 10
0.0
 20
0.0
 30
0.0
  0
TEXT
  5
263
  8
LAYER0001
 62
     7
 10
366.6945997932568
 20
87.12351653149975
 30
0.0
 40
4.0
  1
30ﾟ
 50
59.99999999999999
 41
0.4500000000000042
  7
FDASTYLE1
 72
     5
 11
369.3945997932568
 21
91.80005371193575
 31
0.0
  0
ENDBLK
  5
BD
  8
0
  0
BLOCK
  8
0
  2
DC_GROUP_39
 70
     0
 10
0.0
 20
0.0
 30
0.0
  3
DC_GROUP_39
  1

  0
LINE
  5
264
  8
LAYER0001
  6
CONTINUOUS
 62
     7
 10
387.5535018879205
 20
114.0058333745045
 30
0.0
 11
389.3378641529986
 21
115.0561824826557
 31
0.0
  0
LINE
  5
265
  8
LAYER0001
  6
CONTINUOUS
 62
     7
 10
389.3378641529986
 20
115.0561824826557
 30
0.0
 11
388.3177383065897
 21
113.2543708389157
 31
0.0
  0
LINE
  5
266
  8
LAYER0001
  6
CONTINUOUS
 62
     7
 10
389.3378641529986
 20
115.0561824826557
 30
0.0
 11
387.9356200972551
 21
113.6301021067101
 31
0.0
  0
ENDBLK
  5
C0
  8
0
  0
BLOCK
  8
0
  2
DC_GROUP_40
 70
     0
 10
0.0
 20
0.0
 30
0.0
  3
DC_GROUP_40
  1

  0
LINE
  5
267
  8
LAYER0001
  6
CONTINUOUS
 62
     7
 10
359.6761761086013
 20
63.64570790007061
 30
0.0
 11
358.6258250609068
 21
61.86134677668902
 31
0.0
  0
LINE
  5
268
  8
LAYER0001
  6
CONTINUOUS
 62
     7
 10
358.6258250609068
 20
61.86134677668902
 30
0.0
 11
358.6432721435505
 21
63.93182438857858
 31
0.0
  0
LINE
  5
269
  8
LAYER0001
  6
CONTINUOUS
 62
     7
 10
358.6258250609068
 20
61.86134677668902
 30
0.0
 11
359.1597241260759
 21
63.78876614432459
 31
0.0
  0
ENDBLK
  5
C3
  8
0
  0
BLOCK
  8
0
  2
DC_GROUP_41
 70
     0
 10
0.0
 20
0.0
 30
0.0
  3
DC_GROUP_41
  1

  0
LINE
  5
26A
  8
LAYER0001
  6
CONTINUOUS
 62
     7
 10
475.1996632999232
 20
-17.64808724203691
 30
0.0
 11
512.1675971128904
 21
-98.09535239088733
 31
0.0
  0
LINE
  5
26B
  8
LAYER0001
  6
CONTINUOUS
 62
     7
 10
512.1675935734672
 20
-98.09534430621385
 30
0.0
 11
557.7582155217094
 21
-98.09534430621385
 31
0.0
  0
INSERT
  5
26C
  8
LAYER0001
  6
CONTINUOUS
  2
DC_GROUP_42
 10
0.0
 20
0.0
 30
0.0
  0
TEXT
  5
26D
  8
LAYER0001
 62
     7
 10
514.3296419133109
 20
-96.49535193560838
 30
0.0
 40
4.0
  1
3-M8×15 PCD90
 41
0.6326905417814503
  7
FDASTYLE1
 72
     5
 11
547.7357025193714
 21
-96.49535193560838
 31
0.0
  0
ENDBLK
  5
C6
  8
0
  0
BLOCK
  8
0
  2
DC_GROUP_42
 70
     0
 10
0.0
 20
0.0
 30
0.0
  3
DC_GROUP_42
  1

  0
LINE
  5
26E
  8
LAYER0001
  6
CONTINUOUS
 62
     7
 10
475.5478224025716
 20
-19.6891573489347
 30
0.0
 11
475.1996632999232
 21
-17.64808724203691
 31
0.0
  0
LINE
  5
26F
  8
LAYER0001
  6
CONTINUOUS
 62
     7
 10
475.1996632999232
 20
-17.64808724203691
 30
0.0
 11
476.5217153250636
 21
-19.24162430933434
 31
0.0
  0
LINE
  5
270
  8
LAYER0001
  6
CONTINUOUS
 62
     7
 10
475.1996632999232
 20
-17.64808724203691
 30
0.0
 11
476.0347688638176
 21
-19.46539082913452
 31
0.0
  0
ENDBLK
  5
C9
  8
0
  0
BLOCK
  8
0
  2
DC_GROUP_43
 70
     0
 10
0.0
 20
0.0
 30
0.0
  3
DC_GROUP_43
  1

  0
LINE
  5
271
  8
LAYER0001
  6
CONTINUOUS
 62
     7
 10
450.6243913262701
 20
-41.8032733283881
 30
0.0
 11
418.2019299277646
 21
-98.0128948367195
 31
0.0
  0
LINE
  5
272
  8
LAYER0001
  6
CONTINUOUS
 62
     7
 10
418.2019258488578
 20
-98.01289343951463
 30
0.0
 11
387.5722566594047
 21
-98.01289343951463
 31
0.0
  0
INSERT
  5
273
  8
LAYER0001
  6
CONTINUOUS
  2
DC_GROUP_44
 10
0.0
 20
0.0
 30
0.0
  0
TEXT
  5
274
  8
LAYER0001
 62
     7
 10
388.5371034611625
 20
-96.41289343951463
 30
0.0
 40
4.0
  1
PCD133.35
 41
0.7026455026455033
  7
FDASTYLE1
 72
     5
 11
413.8323415564006
 21
-96.41289343951463
 31
0.0
  0
ENDBLK
  5
CC
  8
0
  0
BLOCK
  8
0
  2
DC_GROUP_44
 70
     0
 10
0.0
 20
0.0
 30
0.0
  3
DC_GROUP_44
  1

  0
LINE
  5
275
  8
LAYER0001
  6
CONTINUOUS
 62
     7
 10
449.1608793188874
 20
-43.26796256036703
 30
0.0
 11
450.6243913262701
 21
-41.8032733283881
 31
0.0
  0
LINE
  5
276
  8
LAYER0001
  6
CONTINUOUS
 62
     7
 10
450.6243913262701
 20
-41.8032733283881
 30
0.0
 11
450.0893003076197
 21
-43.80348820279242
 31
0.0
  0
LINE
  5
277
  8
LAYER0001
  6
CONTINUOUS
 62
     7
 10
450.6243913262701
 20
-41.8032733283881
 30
0.0
 11
449.6250898132536
 21
-43.53572538157972
 31
0.0
  0
ENDBLK
  5
CF
  8
0
  0
BLOCK
  8
0
  2
DC_GROUP_45
 70
     0
 10
0.0
 20
0.0
 30
0.0
  3
DC_GROUP_45
  1

  0
LINE
  5
278
  8
LAYER0001
  6
CONTINUOUS
 62
     7
 10
433.2447191227836
 20
123.4245217216182
 30
0.0
 11
433.2447191227836
 21
159.2476046073604
 31
0.0
  0
LINE
  5
279
  8
LAYER0001
  6
CONTINUOUS
 62
     7
 10
473.2447191227836
 20
147.1893380057979
 30
0.0
 11
473.2447191227836
 21
159.2476046073604
 31
0.0
  0
LINE
  5
27A
  8
LAYER0001
  6
CONTINUOUS
 62
     7
 10
433.2447191227836
 20
158.2476046073604
 30
0.0
 11
473.2447191227836
 21
158.2476046073604
 31
0.0
  0
INSERT
  5
27B
  8
LAYER0001
  6
CONTINUOUS
  2
DC_GROUP_46
 10
0.0
 20
0.0
 30
0.0
  0
INSERT
  5
27C
  8
LAYER0001
  6
CONTINUOUS
  2
DC_GROUP_47
 10
0.0
 20
0.0
 30
0.0
  0
TEXT
  5
27D
  8
LAYER0001
 62
     7
 10
450.0447191227836
 20
159.8476046073604
 30
0.0
 40
4.0
  1
40
 41
0.6476190476190453
  7
FDASTYLE1
 72
     5
 11
455.225671503736
 21
159.8476046073604
 31
0.0
  0
ENDBLK
  5
D2
  8
0
  0
BLOCK
  8
0
  2
DC_GROUP_46
 70
     0
 10
0.0
 20
0.0
 30
0.0
  3
DC_GROUP_46
  1

  0
LINE
  5
27E
  8
LAYER0001
  6
CONTINUOUS
 62
     7
 10
435.2447175304142
 20
157.7117050724628
 30
0.0
 11
433.2447191227836
 21
158.2476046073604
 31
0.0
  0
LINE
  5
27F
  8
LAYER0001
  6
CONTINUOUS
 62
     7
 10
433.2447191227836
 20
158.2476046073604
 30
0.0
 11
435.2447175304142
 21
158.783504142258
 31
0.0
  0
LINE
  5
280
  8
LAYER0001
  6
CONTINUOUS
 62
     7
 10
433.2447191227836
 20
158.2476046073604
 30
0.0
 11
435.2447175304142
 21
158.2476046073604
 31
0.0
  0
ENDBLK
  5
D5
  8
0
  0
BLOCK
  8
0
  2
DC_GROUP_47
 70
     0
 10
0.0
 20
0.0
 30
0.0
  3
DC_GROUP_47
  1

  0
LINE
  5
281
  8
LAYER0001
  6
CONTINUOUS
 62
     7
 10
471.2447207151529
 20
158.783504142258
 30
0.0
 11
473.2447191227836
 21
158.2476046073604
 31
0.0
  0
LINE
  5
282
  8
LAYER0001
  6
CONTINUOUS
 62
     7
 10
473.2447191227836
 20
158.2476046073604
 30
0.0
 11
471.2447207151529
 21
157.7117050724628
 31
0.0
  0
LINE
  5
283
  8
LAYER0001
  6
CONTINUOUS
 62
     7
 10
473.2447191227836
 20
158.2476046073604
 30
0.0
 11
471.2447207151529
 21
158.2476046073604
 31
0.0
  0
ENDBLK
  5
D8
  8
0
  0
BLOCK
  8
0
  2
DC_GROUP_48
 70
     0
 10
0.0
 20
0.0
 30
0.0
  3
DC_GROUP_48
  1

  0
LINE
  5
284
  8
LAYER0001
  6
CONTINUOUS
 62
     7
 10
356.9254985417289
 20
31.14933800579787
 30
0.0
 11
347.7567907322807
 21
31.14933800579787
 31
0.0
  0
LINE
  5
285
  8
LAYER0001
  6
CONTINUOUS
 62
     7
 10
394.9254985417289
 20
105.6493380057979
 30
0.0
 11
347.7567907322807
 21
105.6493380057979
 31
0.0
  0
LINE
  5
286
  8
LAYER0001
  6
CONTINUOUS
 62
     7
 10
348.7567907322807
 20
31.14933800579787
 30
0.0
 11
348.7567907322807
 21
105.6493380057979
 31
0.0
  0
INSERT
  5
287
  8
LAYER0001
  6
CONTINUOUS
  2
DC_GROUP_49
 10
0.0
 20
0.0
 30
0.0
  0
INSERT
  5
288
  8
LAYER0001
  6
CONTINUOUS
  2
DC_GROUP_50
 10
0.0
 20
0.0
 30
0.0
  0
TEXT
  5
289
  8
LAYER0001
 62
     7
 10
347.1567907322806
 20
61.99933800579787
 30
0.0
 40
4.0
  1
74.5
 50
90.0
 41
0.6095238095238109
  7
FDASTYLE1
 72
     5
 11
347.1567907322806
 21
71.75171895817884
 31
0.0
  0
ENDBLK
  5
DB
  8
0
  0
BLOCK
  8
0
  2
DC_GROUP_49
 70
     0
 10
0.0
 20
0.0
 30
0.0
  3
DC_GROUP_49
  1

  0
LINE
  5
28A
  8
LAYER0001
  6
CONTINUOUS
 62
     7
 10
349.2926902671783
 20
33.14933641342853
 30
0.0
 11
348.7567907322807
 21
31.14933800579787
 31
0.0
  0
LINE
  5
28B
  8
LAYER0001
  6
CONTINUOUS
 62
     7
 10
348.7567907322807
 20
31.14933800579787
 30
0.0
 11
348.220891197383
 21
33.14933641342853
 31
0.0
  0
LINE
  5
28C
  8
LAYER0001
  6
CONTINUOUS
 62
     7
 10
348.7567907322807
 20
31.14933800579787
 30
0.0
 11
348.7567907322807
 21
33.14933641342853
 31
0.0
  0
ENDBLK
  5
DE
  8
0
  0
BLOCK
  8
0
  2
DC_GROUP_50
 70
     0
 10
0.0
 20
0.0
 30
0.0
  3
DC_GROUP_50
  1

  0
LINE
  5
28D
  8
LAYER0001
  6
CONTINUOUS
 62
     7
 10
348.220891197383
 20
103.6493395981672
 30
0.0
 11
348.7567907322807
 21
105.6493380057979
 31
0.0
  0
LINE
  5
28E
  8
LAYER0001
  6
CONTINUOUS
 62
     7
 10
348.7567907322807
 20
105.6493380057979
 30
0.0
 11
349.2926902671783
 21
103.6493395981672
 31
0.0
  0
LINE
  5
28F
  8
LAYER0001
  6
CONTINUOUS
 62
     7
 10
348.7567907322807
 20
105.6493380057979
 30
0.0
 11
348.7567907322807
 21
103.6493395981672
 31
0.0
  0
ENDBLK
  5
E1
  8
0
  0
BLOCK
  8
0
  2
DC_GROUP_51
 70
     0
 10
0.0
 20
0.0
 30
0.0
  3
DC_GROUP_51
  1

  0
LINE
  5
290
  8
LAYER0001
  6
CONTINUOUS
 62
     7
 10
371.9907690401655
 20
-63.10538145224034
 30
0.0
 11
383.5363462999458
 21
-56.43953919371653
 31
0.0
  0
LINE
  5
291
  8
LAYER0001
  6
CONTINUOUS
 62
     7
 10
380.9907649699319
 20
-78.69382757602664
 30
0.0
 11
392.5363405778999
 21
-72.02798627117714
 31
0.0
  0
LINE
  5
292
  8
LAYER0001
  6
CONTINUOUS
 62
     7
 10
382.6703204987518
 20
-56.93953943213511
 30
0.0
 11
391.6703147767059
 21
-72.52798650959572
 31
0.0
  0
INSERT
  5
293
  8
LAYER0001
  6
CONTINUOUS
  2
DC_GROUP_52
 10
0.0
 20
0.0
 30
0.0
  0
INSERT
  5
294
  8
LAYER0001
  6
BORDER
  2
DC_GROUP_53
 10
0.0
 20
0.0
 30
0.0
  0
TEXT
  5
295
  8
LAYER0001
 62
     7
 10
386.1559598207186
 20
-59.77684247302902
 30
0.0
 40
4.0
  1
φ18
 50
-59.99999999999999
 41
0.6093749999999994
  7
FDASTYLE1
 72
     5
 11
390.0559598207186
 21
-66.53184062254765
 31
0.0
  0
ENDBLK
  5
E4
  8
0
  0
BLOCK
  8
0
  2
DC_GROUP_52
 70
     0
 10
0.0
 20
0.0
 30
0.0
  3
DC_GROUP_52
  1

  0
LINE
  5
296
  8
LAYER0001
  6
CONTINUOUS
 62
     7
 10
383.2062171070132
 20
-58.93953862395562
 30
0.0
 11
382.6703204987518
 21
-56.93953943213511
 31
0.0
  0
LINE
  5
297
  8
LAYER0001
  6
CONTINUOUS
 62
     7
 10
382.6703204987518
 20
-56.93953943213511
 30
0.0
 11
384.1344223250435
 21
-58.40363908184418
 31
0.0
  0
LINE
  5
298
  8
LAYER0001
  6
CONTINUOUS
 62
     7
 10
382.6703204987518
 20
-56.93953943213511
 30
0.0
 11
383.6703197160283
 21
-58.6715888528999
 31
0.0
  0
ENDBLK
  5
E7
  8
0
  0
BLOCK
  8
0
  2
DC_GROUP_53
 70
     0
 10
0.0
 20
0.0
 30
0.0
  3
DC_GROUP_53
  1

  0
LINE
  5
299
  8
LAYER0001
  6
CONTINUOUS
 62
     7
 10
391.1344181684446
 20
-70.52798731777521
 30
0.0
 11
391.6703147767059
 21
-72.52798650959572
 31
0.0
  0
LINE
  5
29A
  8
LAYER0001
  6
CONTINUOUS
 62
     7
 10
391.6703147767059
 20
-72.52798650959572
 30
0.0
 11
390.2062129504143
 21
-71.06388685988665
 31
0.0
  0
LINE
  5
29B
  8
LAYER0001
  6
CONTINUOUS
 62
     7
 10
391.6703147767059
 20
-72.52798650959572
 30
0.0
 11
390.6703155594295
 21
-70.79593708883094
 31
0.0
  0
ENDBLK
  5
EA
  8
0
  0
BLOCK
  8
0
  2
DC_GROUP_54
 70
     0
 10
0.0
 20
0.0
 30
0.0
  3
DC_GROUP_54
  1

  0
LINE
  5
29C
  8
LAYER0001
  6
CONTINUOUS
 62
     7
 10
151.1571592087635
 20
-29.52565978833296
 30
0.0
 11
139.9688877243885
 21
-29.52565978833296
 31
0.0
  0
LINE
  5
29D
  8
LAYER0001
  6
CONTINUOUS
 62
     7
 10
151.1571592087635
 20
-41.52565978833296
 30
0.0
 11
139.9688877243885
 21
-41.52565978833296
 31
0.0
  0
LINE
  5
29E
  8
LAYER0001
  6
CONTINUOUS
 62
     7
 10
140.9688877243885
 20
-29.52566360303023
 30
0.0
 11
140.9688877243885
 21
-41.52566360303023
 31
0.0
  0
INSERT
  5
29F
  8
LAYER0001
  6
CONTINUOUS
  2
DC_GROUP_55
 10
0.0
 20
0.0
 30
0.0
  0
INSERT
  5
2A0
  8
LAYER0001
  6
CONTINUOUS
  2
DC_GROUP_56
 10
0.0
 20
0.0
 30
0.0
  0
TEXT
  5
2A1
  8
LAYER0001
 62
     7
 10
139.3688877243885
 20
-40.32565978833297
 30
0.0
 40
4.0
  1
M12
 50
90.0
 41
0.723809523809526
  7
FDASTYLE1
 72
     5
 11
139.3688877243885
 21
-31.63994550261866
 31
0.0
  0
ENDBLK
  5
ED
  8
0
  0
BLOCK
  8
0
  2
DC_GROUP_55
 70
     0
 10
0.0
 20
0.0
 30
0.0
  3
DC_GROUP_55
  1

  0
LINE
  5
2A2
  8
LAYER0001
  6
CONTINUOUS
 62
     7
 10
140.4329881894909
 20
-31.52566201066089
 30
0.0
 11
140.9688877243885
 21
-29.52566360303023
 31
0.0
  0
LINE
  5
2A3
  8
LAYER0001
  6
CONTINUOUS
 62
     7
 10
140.9688877243885
 20
-29.52566360303023
 30
0.0
 11
141.5047872592861
 21
-31.52566201066089
 31
0.0
  0
LINE
  5
2A4
  8
LAYER0001
  6
CONTINUOUS
 62
     7
 10
140.9688877243885
 20
-29.52566360303023
 30
0.0
 11
140.9688877243885
 21
-31.52566201066089
 31
0.0
  0
ENDBLK
  5
F0
  8
0
  0
BLOCK
  8
0
  2
DC_GROUP_56
 70
     0
 10
0.0
 20
0.0
 30
0.0
  3
DC_GROUP_56
  1

  0
LINE
  5
2A5
  8
LAYER0001
  6
CONTINUOUS
 62
     7
 10
141.5047872592861
 20
-39.52566519539957
 30
0.0
 11
140.9688877243885
 21
-41.52566360303023
 31
0.0
  0
LINE
  5
2A6
  8
LAYER0001
  6
CONTINUOUS
 62
     7
 10
140.9688877243885
 20
-41.52566360303023
 30
0.0
 11
140.4329881894909
 21
-39.52566519539957
 31
0.0
  0
LINE
  5
2A7
  8
LAYER0001
  6
CONTINUOUS
 62
     7
 10
140.9688877243885
 20
-41.52566360303023
 30
0.0
 11
140.9688877243885
 21
-39.52566519539957
 31
0.0
  0
ENDBLK
  5
F3
  8
0
  0
BLOCK
  8
0
  2
DC_GROUP_57
 70
     0
 10
0.0
 20
0.0
 30
0.0
  3
DC_GROUP_57
  1

  0
LINE
  5
2A8
  8
LAYER0001
  6
CONTINUOUS
 62
     7
 10
164.6510556931385
 20
68.14932800463579
 30
0.0
 11
129.9688877243885
 21
68.14932800463579
 31
0.0
  0
LINE
  5
2A9
  8
LAYER0001
  6
CONTINUOUS
 62
     7
 10
167.8571561570057
 20
-5.850656736575147
 30
0.0
 11
129.9688877243885
 21
-5.850656736575147
 31
0.0
  0
LINE
  5
2AA
  8
LAYER0001
  6
CONTINUOUS
 62
     7
 10
130.9688877243885
 20
68.14934326342485
 30
0.0
 11
130.9688877243885
 21
-5.850660551272412
 31
0.0
  0
INSERT
  5
2AB
  8
LAYER0001
  6
CONTINUOUS
  2
DC_GROUP_58
 10
0.0
 20
0.0
 30
0.0
  0
INSERT
  5
2AC
  8
LAYER0001
  6
CONTINUOUS
  2
DC_GROUP_59
 10
0.0
 20
0.0
 30
0.0
  0
TEXT
  5
2AD
  8
LAYER0001
 62
     7
 10
129.3688877243885
 20
23.14934135607622
 30
0.0
 40
4.0
  1
φ74H7
 50
90.0
 41
0.6213017751479295
  7
FDASTYLE1
 72
     5
 11
129.3688877243885
 21
36.07241827915316
 31
0.0
  0
ENDBLK
  5
F6
  8
0
  0
BLOCK
  8
0
  2
DC_GROUP_58
 70
     0
 10
0.0
 20
0.0
 30
0.0
  3
DC_GROUP_58
  1

  0
LINE
  5
2AE
  8
LAYER0001
  6
CONTINUOUS
 62
     7
 10
130.4329881894909
 20
66.14934485579418
 30
0.0
 11
130.9688877243885
 21
68.14934326342485
 31
0.0
  0
LINE
  5
2AF
  8
LAYER0001
  6
CONTINUOUS
 62
     7
 10
130.9688877243885
 20
68.14934326342485
 30
0.0
 11
131.5047872592861
 21
66.14934485579418
 31
0.0
  0
LINE
  5
2B0
  8
LAYER0001
  6
CONTINUOUS
 62
     7
 10
130.9688877243885
 20
68.14934326342485
 30
0.0
 11
130.9688877243885
 21
66.14934485579418
 31
0.0
  0
ENDBLK
  5
F9
  8
0
  0
BLOCK
  8
0
  2
DC_GROUP_59
 70
     0
 10
0.0
 20
0.0
 30
0.0
  3
DC_GROUP_59
  1

  0
LINE
  5
2B1
  8
LAYER0001
  6
CONTINUOUS
 62
     7
 10
131.5047872592861
 20
-3.850662143641751
 30
0.0
 11
130.9688877243885
 21
-5.850660551272412
 31
0.0
  0
LINE
  5
2B2
  8
LAYER0001
  6
CONTINUOUS
 62
     7
 10
130.9688877243885
 20
-5.850660551272412
 30
0.0
 11
130.4329881894909
 21
-3.85066214364175
 31
0.0
  0
LINE
  5
2B3
  8
LAYER0001
  6
CONTINUOUS
 62
     7
 10
130.9688877243885
 20
-5.850660551272412
 30
0.0
 11
130.9688877243885
 21
-3.850662143641751
 31
0.0
  0
ENDBLK
  5
FC
  8
0
  0
BLOCK
  8
0
  2
DC_GROUP_60
 70
     0
 10
0.0
 20
0.0
 30
0.0
  3
DC_GROUP_60
  1

  0
LINE
  5
2B4
  8
LAYER0001
  6
CONTINUOUS
 62
     7
 10
163.6571592087635
 20
126.1493280046358
 30
0.0
 11
119.9688877243885
 21
126.1493280046358
 31
0.0
  0
LINE
  5
2B5
  8
LAYER0001
  6
CONTINUOUS
 62
     7
 10
163.6571592087635
 20
-63.85067199536421
 30
0.0
 11
119.9688877243885
 21
-63.85067199536421
 31
0.0
  0
LINE
  5
2B6
  8
LAYER0001
  6
CONTINUOUS
 62
     7
 10
120.9688877243885
 20
126.1493280046358
 30
0.0
 11
120.9688877243885
 21
-63.85066436596968
 31
0.0
  0
INSERT
  5
2B7
  8
LAYER0001
  6
CONTINUOUS
  2
DC_GROUP_61
 10
0.0
 20
0.0
 30
0.0
  0
INSERT
  5
2B8
  8
LAYER0001
  6
CONTINUOUS
  2
DC_GROUP_62
 10
0.0
 20
0.0
 30
0.0
  0
TEXT
  5
2B9
  8
LAYER0001
 62
     7
 10
119.3688877243885
 20
21.54933181933306
 30
0.0
 40
4.0
  1
φ190H7
 50
90.0
 41
0.6243496357960454
  7
FDASTYLE1
 72
     5
 11
119.3688877243885
 21
37.03320278707498
 31
0.0
  0
ENDBLK
  5
FF
  8
0
  0
BLOCK
  8
0
  2
DC_GROUP_61
 70
     0
 10
0.0
 20
0.0
 30
0.0
  3
DC_GROUP_61
  1

  0
LINE
  5
2BA
  8
LAYER0001
  6
CONTINUOUS
 62
     7
 10
120.4329881894909
 20
124.1493295970051
 30
0.0
 11
120.9688877243885
 21
126.1493280046358
 31
0.0
  0
LINE
  5
2BB
  8
LAYER0001
  6
CONTINUOUS
 62
     7
 10
120.9688877243885
 20
126.1493280046358
 30
0.0
 11
121.5047872592861
 21
124.1493295970051
 31
0.0
  0
LINE
  5
2BC
  8
LAYER0001
  6
CONTINUOUS
 62
     7
 10
120.9688877243885
 20
126.1493280046358
 30
0.0
 11
120.9688877243885
 21
124.1493295970051
 31
0.0
  0
ENDBLK
  5
102
  8
0
  0
BLOCK
  8
0
  2
DC_GROUP_62
 70
     0
 10
0.0
 20
0.0
 30
0.0
  3
DC_GROUP_62
  1

  0
LINE
  5
2BD
  8
LAYER0001
  6
CONTINUOUS
 62
     7
 10
121.5047872592861
 20
-61.85066595833902
 30
0.0
 11
120.9688877243885
 21
-63.85066436596968
 31
0.0
  0
LINE
  5
2BE
  8
LAYER0001
  6
CONTINUOUS
 62
     7
 10
120.9688877243885
 20
-63.85066436596968
 30
0.0
 11
120.4329881894909
 21
-61.85066595833902
 31
0.0
  0
LINE
  5
2BF
  8
LAYER0001
  6
CONTINUOUS
 62
     7
 10
120.9688877243885
 20
-63.85066436596968
 30
0.0
 11
120.9688877243885
 21
-61.85066595833902
 31
0.0
  0
ENDBLK
  5
105
  8
0
  0
BLOCK
  8
0
  2
DC_GROUP_63
 70
     0
 10
0.0
 20
0.0
 30
0.0
  3
DC_GROUP_63
  1

  0
LINE
  5
2C0
  8
LAYER0001
  6
CONTINUOUS
 62
     7
 10
163.6571592087635
 20
138.6493280046358
 30
0.0
 11
109.9688877243885
 21
138.6493280046358
 31
0.0
  0
LINE
  5
2C1
  8
LAYER0001
  6
CONTINUOUS
 62
     7
 10
163.6571592087635
 20
-76.35067199536421
 30
0.0
 11
109.9688877243885
 21
-76.35067199536421
 31
0.0
  0
LINE
  5
2C2
  8
LAYER0001
  6
CONTINUOUS
 62
     7
 10
110.9688877243885
 20
138.6493280046358
 30
0.0
 11
110.9688877243885
 21
-76.35066436596968
 31
0.0
  0
INSERT
  5
2C3
  8
LAYER0001
  6
CONTINUOUS
  2
DC_GROUP_64
 10
0.0
 20
0.0
 30
0.0
  0
INSERT
  5
2C4
  8
LAYER0001
  6
CONTINUOUS
  2
DC_GROUP_65
 10
0.0
 20
0.0
 30
0.0
  0
TEXT
  5
2C5
  8
LAYER0001
 62
     7
 10
109.3688877243885
 20
24.74933181933305
 30
0.0
 40
4.0
  1
φ215
 50
90.0
 41
0.6167800453514742
  7
FDASTYLE1
 72
     5
 11
109.3688877243885
 21
35.11123658123782
 31
0.0
  0
ENDBLK
  5
108
  8
0
  0
BLOCK
  8
0
  2
DC_GROUP_64
 70
     0
 10
0.0
 20
0.0
 30
0.0
  3
DC_GROUP_64
  1

  0
LINE
  5
2C6
  8
LAYER0001
  6
CONTINUOUS
 62
     7
 10
110.4329881894909
 20
136.6493295970051
 30
0.0
 11
110.9688877243885
 21
138.6493280046358
 31
0.0
  0
LINE
  5
2C7
  8
LAYER0001
  6
CONTINUOUS
 62
     7
 10
110.9688877243885
 20
138.6493280046358
 30
0.0
 11
111.5047872592861
 21
136.6493295970051
 31
0.0
  0
LINE
  5
2C8
  8
LAYER0001
  6
CONTINUOUS
 62
     7
 10
110.9688877243885
 20
138.6493280046358
 30
0.0
 11
110.9688877243885
 21
136.6493295970051
 31
0.0
  0
ENDBLK
  5
10B
  8
0
  0
BLOCK
  8
0
  2
DC_GROUP_65
 70
     0
 10
0.0
 20
0.0
 30
0.0
  3
DC_GROUP_65
  1

  0
LINE
  5
2C9
  8
LAYER0001
  6
CONTINUOUS
 62
     7
 10
111.5047872592861
 20
-74.35066595833901
 30
0.0
 11
110.9688877243885
 21
-76.35066436596968
 31
0.0
  0
LINE
  5
2CA
  8
LAYER0001
  6
CONTINUOUS
 62
     7
 10
110.9688877243885
 20
-76.35066436596968
 30
0.0
 11
110.4329881894909
 21
-74.35066595833901
 31
0.0
  0
LINE
  5
2CB
  8
LAYER0001
  6
CONTINUOUS
 62
     7
 10
110.9688877243885
 20
-76.35066436596968
 30
0.0
 11
110.9688877243885
 21
-74.35066595833901
 31
0.0
  0
ENDBLK
  5
10E
  8
0
  0
BLOCK
  8
0
  2
DC_GROUP_66
 70
     0
 10
0.0
 20
0.0
 30
0.0
  3
DC_GROUP_66
  1

  0
LINE
  5
2CC
  8
LAYER0001
  6
CONTINUOUS
 62
     7
 10
255.6971592087635
 20
142.5935943620577
 30
0.0
 11
255.6971592087635
 21
159.2475946061983
 31
0.0
  0
LINE
  5
2CD
  8
LAYER0001
  6
CONTINUOUS
 62
     7
 10
256.6971592087635
 20
140.5935943620577
 30
0.0
 11
256.6971592087635
 21
159.2475946061983
 31
0.0
  0
LINE
  5
2CE
  8
LAYER0001
  6
CONTINUOUS
 62
     7
 10
255.6971592087635
 20
158.2475946061983
 30
0.0
 11
256.6971592087635
 21
158.2475946061983
 31
0.0
  0
LINE
  5
2CF
  8
LAYER0001
  6
CONTINUOUS
 62
     7
 10
255.6971592087635
 20
158.2475946061983
 30
0.0
 11
249.3471592087635
 21
158.2475946061983
 31
0.0
  0
LINE
  5
2D0
  8
LAYER0001
  6
CONTINUOUS
 62
     7
 10
263.0471592087635
 20
158.2475946061983
 30
0.0
 11
256.6971592087635
 21
158.2475946061983
 31
0.0
  0
INSERT
  5
2D1
  8
LAYER0001
  6
CONTINUOUS
  2
DC_GROUP_67
 10
0.0
 20
0.0
 30
0.0
  0
INSERT
  5
2D2
  8
LAYER0001
  6
CONTINUOUS
  2
DC_GROUP_68
 10
0.0
 20
0.0
 30
0.0
  0
TEXT
  5
2D3
  8
LAYER0001
 62
     7
 10
261.2383640427479
 20
159.8475946061983
 30
0.0
 40
4.0
  1
1
 41
0.1904761904761898
  7
FDASTYLE1
 72
     5
 11
262.0002688046527
 21
159.8475946061983
 31
0.0
  0
ENDBLK
  5
111
  8
0
  0
BLOCK
  8
0
  2
DC_GROUP_67
 70
     0
 10
0.0
 20
0.0
 30
0.0
  3
DC_GROUP_67
  1

  0
LINE
  5
2D4
  8
LAYER0001
  6
CONTINUOUS
 62
     7
 10
253.6971608011328
 20
158.7834941410959
 30
0.0
 11
255.6971592087635
 21
158.2475946061983
 31
0.0
  0
LINE
  5
2D5
  8
LAYER0001
  6
CONTINUOUS
 62
     7
 10
255.6971592087635
 20
158.2475946061983
 30
0.0
 11
253.6971608011328
 21
157.7116950713007
 31
0.0
  0
LINE
  5
2D6
  8
LAYER0001
  6
CONTINUOUS
 62
     7
 10
255.6971592087635
 20
158.2475946061983
 30
0.0
 11
253.6971608011328
 21
158.2475946061983
 31
0.0
  0
ENDBLK
  5
114
  8
0
  0
BLOCK
  8
0
  2
DC_GROUP_68
 70
     0
 10
0.0
 20
0.0
 30
0.0
  3
DC_GROUP_68
  1

  0
LINE
  5
2D7
  8
LAYER0001
  6
CONTINUOUS
 62
     7
 10
258.6971576163941
 20
157.7116950713007
 30
0.0
 11
256.6971592087635
 21
158.2475946061983
 31
0.0
  0
LINE
  5
2D8
  8
LAYER0001
  6
CONTINUOUS
 62
     7
 10
256.6971592087635
 20
158.2475946061983
 30
0.0
 11
258.6971576163941
 21
158.7834941410959
 31
0.0
  0
LINE
  5
2D9
  8
LAYER0001
  6
CONTINUOUS
 62
     7
 10
256.6971592087635
 20
158.2475946061983
 30
0.0
 11
258.6971576163941
 21
158.2475946061983
 31
0.0
  0
ENDBLK
  5
117
  8
0
  0
BLOCK
  8
0
  2
DC_GROUP_69
 70
     0
 10
0.0
 20
0.0
 30
0.0
  3
DC_GROUP_69
  1

  0
LINE
  5
2DA
  8
LAYER0001
  6
CONTINUOUS
 62
     7
 10
170.7116550583729
 20
128.6893280046358
 30
0.0
 11
170.7116550583729
 21
159.2475946061983
 31
0.0
  0
LINE
  5
2DB
  8
LAYER0001
  6
CONTINUOUS
 62
     7
 10
179.6285404343494
 20
70.18934326342486
 30
0.0
 11
179.6285404343494
 21
159.2475946061983
 31
0.0
  0
LINE
  5
2DC
  8
LAYER0001
  6
CONTINUOUS
 62
     7
 10
170.7116550583729
 20
158.2475946061983
 30
0.0
 11
179.6285404343494
 21
158.2475946061983
 31
0.0
  0
LINE
  5
2DD
  8
LAYER0001
  6
CONTINUOUS
 62
     7
 10
142.0134294326716
 20
158.2475946061983
 30
0.0
 11
170.7116550583729
 21
158.2475946061983
 31
0.0
  0
LINE
  5
2DE
  8
LAYER0001
  6
CONTINUOUS
 62
     7
 10
184.6285404343494
 20
158.2475946061983
 30
0.0
 11
179.6285404343494
 21
158.2475946061983
 31
0.0
  0
INSERT
  5
2DF
  8
LAYER0001
  6
CONTINUOUS
  2
DC_GROUP_70
 10
0.0
 20
0.0
 30
0.0
  0
INSERT
  5
2E0
  8
LAYER0001
  6
CONTINUOUS
  2
DC_GROUP_71
 10
0.0
 20
0.0
 30
0.0
  0
TEXT
  5
2E1
  8
LAYER0001
 62
     7
 10
143.0134294326715
 20
159.2475946061983
 30
0.0
 40
4.0
  1
MAX21.7
 41
0.6802721088435371
  7
FDASTYLE1
 72
     5
 11
162.0610484802905
 21
159.2475946061983
 31
0.0
  0
ENDBLK
  5
11A
  8
0
  0
BLOCK
  8
0
  2
DC_GROUP_70
 70
     0
 10
0.0
 20
0.0
 30
0.0
  3
DC_GROUP_70
  1

  0
LINE
  5
2E2
  8
LAYER0001
  6
CONTINUOUS
 62
     7
 10
168.7116566507422
 20
158.7834941410959
 30
0.0
 11
170.7116550583729
 21
158.2475946061983
 31
0.0
  0
LINE
  5
2E3
  8
LAYER0001
  6
CONTINUOUS
 62
     7
 10
170.7116550583729
 20
158.2475946061983
 30
0.0
 11
168.7116566507422
 21
157.7116950713007
 31
0.0
  0
LINE
  5
2E4
  8
LAYER0001
  6
CONTINUOUS
 62
     7
 10
170.7116550583729
 20
158.2475946061983
 30
0.0
 11
168.7116566507422
 21
158.2475946061983
 31
0.0
  0
ENDBLK
  5
11D
  8
0
  0
BLOCK
  8
0
  2
DC_GROUP_71
 70
     0
 10
0.0
 20
0.0
 30
0.0
  3
DC_GROUP_71
  1

  0
LINE
  5
2E5
  8
LAYER0001
  6
CONTINUOUS
 62
     7
 10
181.6285388419801
 20
157.7116950713007
 30
0.0
 11
179.6285404343494
 21
158.2475946061983
 31
0.0
  0
LINE
  5
2E6
  8
LAYER0001
  6
CONTINUOUS
 62
     7
 10
179.6285404343494
 20
158.2475946061983
 30
0.0
 11
181.6285388419801
 21
158.7834941410959
 31
0.0
  0
LINE
  5
2E7
  8
LAYER0001
  6
CONTINUOUS
 62
     7
 10
179.6285404343494
 20
158.2475946061983
 30
0.0
 11
181.6285388419801
 21
158.2475946061983
 31
0.0
  0
ENDBLK
  5
120
  8
0
  0
BLOCK
  8
0
  2
DC_GROUP_72
 70
     0
 10
0.0
 20
0.0
 30
0.0
  3
DC_GROUP_72
  1

  0
LINE
  5
2E8
  8
LAYER0001
  6
CONTINUOUS
 62
     7
 10
170.7116550583729
 20
-100.4651750529649
 30
0.0
 11
208.6285404343494
 21
-100.4651750529649
 31
0.0
  0
LINE
  5
2E9
  8
LAYER0001
  6
CONTINUOUS
 62
     7
 10
170.7116550583729
 20
-66.39066436596968
 30
0.0
 11
170.7116550583729
 21
-101.4651750529649
 31
0.0
  0
LINE
  5
2EA
  8
LAYER0001
  6
CONTINUOUS
 62
     7
 10
208.6285404343494
 20
-2.890660551272412
 30
0.0
 11
208.6285404343494
 21
-101.4651750529649
 31
0.0
  0
INSERT
  5
2EB
  8
LAYER0001
  6
CONTINUOUS
  2
DC_GROUP_73
 10
0.0
 20
0.0
 30
0.0
  0
INSERT
  5
2EC
  8
LAYER0001
  6
CONTINUOUS
  2
DC_GROUP_74
 10
0.0
 20
0.0
 30
0.0
  0
TEXT
  5
2ED
  8
LAYER0001
 62
     7
 10
176.8700977463611
 20
-99.46517505296494
 30
0.0
 40
4.0
  1
MAX 50.7
 41
0.6952380952380963
  7
FDASTYLE1
 72
     5
 11
199.1177167939802
 21
-99.46517505296494
 31
0.0
  0
ENDBLK
  5
123
  8
0
  0
BLOCK
  8
0
  2
DC_GROUP_73
 70
     0
 10
0.0
 20
0.0
 30
0.0
  3
DC_GROUP_73
  1

  0
LINE
  5
2EE
  8
LAYER0001
  6
CONTINUOUS
 62
     7
 10
172.7116534660036
 20
-101.0010745878625
 30
0.0
 11
170.7116550583729
 21
-100.4651750529649
 31
0.0
  0
LINE
  5
2EF
  8
LAYER0001
  6
CONTINUOUS
 62
     7
 10
170.7116550583729
 20
-100.4651750529649
 30
0.0
 11
172.7116534660036
 21
-99.92927551806729
 31
0.0
  0
LINE
  5
2F0
  8
LAYER0001
  6
CONTINUOUS
 62
     7
 10
170.7116550583729
 20
-100.4651750529649
 30
0.0
 11
172.7116534660036
 21
-100.4651750529649
 31
0.0
  0
ENDBLK
  5
126
  8
0
  0
BLOCK
  8
0
  2
DC_GROUP_74
 70
     0
 10
0.0
 20
0.0
 30
0.0
  3
DC_GROUP_74
  1

  0
LINE
  5
2F1
  8
LAYER0001
  6
CONTINUOUS
 62
     7
 10
206.6285420267188
 20
-99.92927551806729
 30
0.0
 11
208.6285404343494
 21
-100.4651750529649
 31
0.0
  0
LINE
  5
2F2
  8
LAYER0001
  6
CONTINUOUS
 62
     7
 10
208.6285404343494
 20
-100.4651750529649
 30
0.0
 11
206.6285420267188
 21
-101.0010745878625
 31
0.0
  0
LINE
  5
2F3
  8
LAYER0001
  6
CONTINUOUS
 62
     7
 10
208.6285404343494
 20
-100.4651750529649
 30
0.0
 11
206.6285420267188
 21
-100.4651750529649
 31
0.0
  0
ENDBLK
  5
129
  8
0
  0
BLOCK
  8
0
  2
DC_GROUP_75
 70
     0
 10
0.0
 20
0.0
 30
0.0
  3
DC_GROUP_75
  1

  0
LINE
  5
2F4
  8
LAYER0001
  6
CONTINUOUS
 62
     7
 10
154.0116581101307
 20
-100.4651750529649
 30
0.0
 11
170.7116550583729
 21
-100.4651750529649
 31
0.0
  0
LINE
  5
2F5
  8
LAYER0001
  6
CONTINUOUS
 62
     7
 10
154.0116581101307
 20
-44.06566360303022
 30
0.0
 11
154.0116581101307
 21
-101.4651750529649
 31
0.0
  0
LINE
  5
2F6
  8
LAYER0001
  6
CONTINUOUS
 62
     7
 10
170.7116550583729
 20
-66.39066436596968
 30
0.0
 11
170.7116550583729
 21
-101.4651750529649
 31
0.0
  0
LINE
  5
2F7
  8
LAYER0001
  6
CONTINUOUS
 62
     7
 10
137.2798081101307
 20
-100.4651750529649
 30
0.0
 11
154.0116581101307
 21
-100.4651750529649
 31
0.0
  0
INSERT
  5
2F8
  8
LAYER0001
  6
CONTINUOUS
  2
DC_GROUP_76
 10
0.0
 20
0.0
 30
0.0
  0
TEXT
  5
2F9
  8
LAYER0001
 62
     7
 10
138.2798081101307
 20
-99.46517505296494
 30
0.0
 40
4.0
  1
16.7
 41
0.5809523809523807
  7
FDASTYLE1
 72
     5
 11
147.5750462053688
 21
-99.46517505296494
 31
0.0
  0
ENDBLK
  5
12C
  8
0
  0
BLOCK
  8
0
  2
DC_GROUP_76
 70
     0
 10
0.0
 20
0.0
 30
0.0
  3
DC_GROUP_76
  1

  0
LINE
  5
2FA
  8
LAYER0001
  6
CONTINUOUS
 62
     7
 10
152.0116597025
 20
-99.92927551806729
 30
0.0
 11
154.0116581101307
 21
-100.4651750529649
 31
0.0
  0
LINE
  5
2FB
  8
LAYER0001
  6
CONTINUOUS
 62
     7
 10
154.0116581101307
 20
-100.4651750529649
 30
0.0
 11
152.0116597025
 21
-101.0010745878625
 31
0.0
  0
LINE
  5
2FC
  8
LAYER0001
  6
CONTINUOUS
 62
     7
 10
154.0116581101307
 20
-100.4651750529649
 30
0.0
 11
152.0116597025
 21
-100.4651750529649
 31
0.0
  0
ENDBLK
  5
12F
  8
0
  0
BLOCK
  8
0
  2
DC_GROUP_77
 70
     0
 10
0.0
 20
0.0
 30
0.0
  3
DC_GROUP_77
  1

  0
LINE
  5
2FD
  8
LAYER0001
  6
CONTINUOUS
 62
     7
 10
208.0885404343494
 20
62.39932800463579
 30
0.0
 11
139.9688877243885
 21
62.39932800463579
 31
0.0
  0
LINE
  5
2FE
  8
LAYER0001
  6
CONTINUOUS
 62
     7
 10
208.0885404343494
 20
-0.1006567365751465
 30
0.0
 11
139.9688877243885
 21
-0.1006567365751465
 31
0.0
  0
LINE
  5
2FF
  8
LAYER0001
  6
CONTINUOUS
 62
     7
 10
140.9688877243885
 20
62.39932800463579
 30
0.0
 11
140.9688877243885
 21
-0.1006567365751465
 31
0.0
  0
INSERT
  5
300
  8
LAYER0001
  6
CONTINUOUS
  2
DC_GROUP_78
 10
0.0
 20
0.0
 30
0.0
  0
INSERT
  5
301
  8
LAYER0001
  6
CONTINUOUS
  2
DC_GROUP_79
 10
0.0
 20
0.0
 30
0.0
  0
TEXT
  5
302
  8
LAYER0001
 62
     7
 10
139.3688877243885
 20
19.94933563403033
 30
0.0
 40
4.0
  1
φ62.5H7
 50
90.0
 41
0.6265432098765426
  7
FDASTYLE1
 72
     5
 11
139.3688877243885
 21
37.99378007847476
 31
0.0
  0
ENDBLK
  5
132
  8
0
  0
BLOCK
  8
0
  2
DC_GROUP_78
 70
     0
 10
0.0
 20
0.0
 30
0.0
  3
DC_GROUP_78
  1

  0
LINE
  5
303
  8
LAYER0001
  6
CONTINUOUS
 62
     7
 10
140.4329881894909
 20
60.39932959700513
 30
0.0
 11
140.9688877243885
 21
62.39932800463579
 31
0.0
  0
LINE
  5
304
  8
LAYER0001
  6
CONTINUOUS
 62
     7
 10
140.9688877243885
 20
62.39932800463579
 30
0.0
 11
141.5047872592861
 21
60.39932959700513
 31
0.0
  0
LINE
  5
305
  8
LAYER0001
  6
CONTINUOUS
 62
     7
 10
140.9688877243885
 20
62.39932800463579
 30
0.0
 11
140.9688877243885
 21
60.39932959700513
 31
0.0
  0
ENDBLK
  5
135
  8
0
  0
BLOCK
  8
0
  2
DC_GROUP_79
 70
     0
 10
0.0
 20
0.0
 30
0.0
  3
DC_GROUP_79
  1

  0
LINE
  5
306
  8
LAYER0001
  6
CONTINUOUS
 62
     7
 10
141.5047872592861
 20
1.899341671055516
 30
0.0
 11
140.9688877243885
 21
-0.1006567365751465
 31
0.0
  0
LINE
  5
307
  8
LAYER0001
  6
CONTINUOUS
 62
     7
 10
140.9688877243885
 20
-0.1006567365751465
 30
0.0
 11
140.4329881894909
 21
1.899341671055516
 31
0.0
  0
LINE
  5
308
  8
LAYER0001
  6
CONTINUOUS
 62
     7
 10
140.9688877243885
 20
-0.1006567365751465
 30
0.0
 11
140.9688877243885
 21
1.899341671055516
 31
0.0
  0
ENDBLK
  5
138
  8
0
  0
BLOCK
  8
0
  2
DC_GROUP_80
 70
     0
 10
0.0
 20
0.0
 30
0.0
  3
DC_GROUP_80
  1

  0
LINE
  5
309
  8
LAYER0001
  6
CONTINUOUS
 62
     7
 10
178.0885404343494
 20
56.14932800463579
 30
0.0
 11
149.9688877243885
 21
56.14932800463579
 31
0.0
  0
LINE
  5
30A
  8
LAYER0001
  6
CONTINUOUS
 62
     7
 10
178.0885404343494
 20
6.149328004635791
 30
0.0
 11
149.9688877243885
 21
6.149328004635791
 31
0.0
  0
LINE
  5
30B
  8
LAYER0001
  6
CONTINUOUS
 62
     7
 10
150.9688877243885
 20
56.14932800463579
 30
0.0
 11
150.9688877243885
 21
6.149328004635791
 31
0.0
  0
INSERT
  5
30C
  8
LAYER0001
  6
CONTINUOUS
  2
DC_GROUP_81
 10
0.0
 20
0.0
 30
0.0
  0
INSERT
  5
30D
  8
LAYER0001
  6
CONTINUOUS
  2
DC_GROUP_82
 10
0.0
 20
0.0
 30
0.0
  0
TEXT
  5
30E
  8
LAYER0001
 62
     7
 10
149.3688877243885
 20
23.14932801655671
 30
0.0
 40
4.0
  1
φ50
 50
90.0
 41
0.6093750000000009
  7
FDASTYLE1
 72
     5
 11
149.3688877243885
 21
30.94932801655672
 31
0.0
  0
TEXT
  5
30F
  8
LAYER0001
 62
     7
 10
147.1688877243885
 20
33.74932801655673
 30
0.0
 40
2.2
  1
+0.5
 50
90.0
 41
0.657142857142855
  7
FDASTYLE1
 72
     5
 11
147.1688877243885
 21
39.53218515941386
 31
0.0
  0
TEXT
  5
310
  8
LAYER0001
 62
     7
 10
149.5688877243885
 20
33.74932801655673
 30
0.0
 40
2.2
  1
 0
 50
90.0
 41
0.2666666666666696
  7
FDASTYLE1
 72
     5
 11
149.5688877243885
 21
34.92266134989008
 31
0.0
  0
ENDBLK
  5
13B
  8
0
  0
BLOCK
  8
0
  2
DC_GROUP_81
 70
     0
 10
0.0
 20
0.0
 30
0.0
  3
DC_GROUP_81
  1

  0
LINE
  5
311
  8
LAYER0001
  6
CONTINUOUS
 62
     7
 10
150.4329881894909
 20
54.14932959700513
 30
0.0
 11
150.9688877243885
 21
56.14932800463579
 31
0.0
  0
LINE
  5
312
  8
LAYER0001
  6
CONTINUOUS
 62
     7
 10
150.9688877243885
 20
56.14932800463579
 30
0.0
 11
151.5047872592861
 21
54.14932959700513
 31
0.0
  0
LINE
  5
313
  8
LAYER0001
  6
CONTINUOUS
 62
     7
 10
150.9688877243885
 20
56.14932800463579
 30
0.0
 11
150.9688877243885
 21
54.14932959700513
 31
0.0
  0
ENDBLK
  5
13E
  8
0
  0
BLOCK
  8
0
  2
DC_GROUP_82
 70
     0
 10
0.0
 20
0.0
 30
0.0
  3
DC_GROUP_82
  1

  0
LINE
  5
314
  8
LAYER0001
  6
CONTINUOUS
 62
     7
 10
151.5047872592861
 20
8.149326412266451
 30
0.0
 11
150.9688877243885
 21
6.149328004635791
 31
0.0
  0
LINE
  5
315
  8
LAYER0001
  6
CONTINUOUS
 62
     7
 10
150.9688877243885
 20
6.149328004635791
 30
0.0
 11
150.4329881894909
 21
8.149326412266451
 31
0.0
  0
LINE
  5
316
  8
LAYER0001
  6
CONTINUOUS
 62
     7
 10
150.9688877243885
 20
6.149328004635791
 30
0.0
 11
150.9688877243885
 21
8.149326412266451
 31
0.0
  0
ENDBLK
  5
141
  8
0
  0
BLOCK
  8
0
  2
DC_GROUP_83
 70
     0
 10
0.0
 20
0.0
 30
0.0
  3
DC_GROUP_83
  1

  0
LINE
  5
317
  8
LAYER0001
  6
CONTINUOUS
 62
     7
 10
166.5116581101307
 20
-125.0912974391052
 30
0.0
 11
257.0116581101307
 21
-125.0912974391052
 31
0.0
  0
LINE
  5
318
  8
LAYER0001
  6
CONTINUOUS
 62
     7
 10
166.5116581101307
 20
-77.85742372888291
 30
0.0
 11
166.5116581101307
 21
-126.0912974391052
 31
0.0
  0
LINE
  5
319
  8
LAYER0001
  6
CONTINUOUS
 62
     7
 10
257.0116581101307
 20
-76.89066436596968
 30
0.0
 11
257.0116581101307
 21
-126.0912974391052
 31
0.0
  0
INSERT
  5
31A
  8
LAYER0001
  6
CONTINUOUS
  2
DC_GROUP_84
 10
0.0
 20
0.0
 30
0.0
  0
INSERT
  5
31B
  8
LAYER0001
  6
CONTINUOUS
  2
DC_GROUP_85
 10
0.0
 20
0.0
 30
0.0
  0
TEXT
  5
31C
  8
LAYER0001
 62
     7
 10
205.3616581101307
 20
-123.4912974391052
 30
0.0
 40
4.0
  1
90.5
 41
0.6095238095238109
  7
FDASTYLE1
 72
     5
 11
215.1140390625117
 21
-123.4912974391052
 31
0.0
  0
ENDBLK
  5
144
  8
0
  0
BLOCK
  8
0
  2
DC_GROUP_84
 70
     0
 10
0.0
 20
0.0
 30
0.0
  3
DC_GROUP_84
  1

  0
LINE
  5
31D
  8
LAYER0001
  6
CONTINUOUS
 62
     7
 10
168.5116565177613
 20
-125.6271969740028
 30
0.0
 11
166.5116581101307
 21
-125.0912974391052
 31
0.0
  0
LINE
  5
31E
  8
LAYER0001
  6
CONTINUOUS
 62
     7
 10
166.5116581101307
 20
-125.0912974391052
 30
0.0
 11
168.5116565177613
 21
-124.5553979042076
 31
0.0
  0
LINE
  5
31F
  8
LAYER0001
  6
CONTINUOUS
 62
     7
 10
166.5116581101307
 20
-125.0912974391052
 30
0.0
 11
168.5116565177613
 21
-125.0912974391052
 31
0.0
  0
ENDBLK
  5
147
  8
0
  0
BLOCK
  8
0
  2
DC_GROUP_85
 70
     0
 10
0.0
 20
0.0
 30
0.0
  3
DC_GROUP_85
  1

  0
LINE
  5
320
  8
LAYER0001
  6
CONTINUOUS
 62
     7
 10
255.0116597025
 20
-124.5553979042076
 30
0.0
 11
257.0116581101307
 21
-125.0912974391052
 31
0.0
  0
LINE
  5
321
  8
LAYER0001
  6
CONTINUOUS
 62
     7
 10
257.0116581101307
 20
-125.0912974391052
 30
0.0
 11
255.0116597025
 21
-125.6271969740028
 31
0.0
  0
LINE
  5
322
  8
LAYER0001
  6
CONTINUOUS
 62
     7
 10
257.0116581101307
 20
-125.0912974391052
 30
0.0
 11
255.0116597025
 21
-125.0912974391052
 31
0.0
  0
ENDBLK
  5
14A
  8
0
  0
BLOCK
  8
0
  2
DC_GROUP_86
 70
     0
 10
0.0
 20
0.0
 30
0.0
  3
DC_GROUP_86
  1

  0
LINE
  5
323
  8
LAYER0001
  6
CONTINUOUS
 62
     7
 10
170.7116550583729
 20
-115.9358260790963
 30
0.0
 11
257.0116581101307
 21
-115.9358260790963
 31
0.0
  0
LINE
  5
324
  8
LAYER0001
  6
CONTINUOUS
 62
     7
 10
170.7116550583729
 20
-66.39066436596968
 30
0.0
 11
170.7116550583729
 21
-116.9358260790963
 31
0.0
  0
LINE
  5
325
  8
LAYER0001
  6
CONTINUOUS
 62
     7
 10
257.0116581101307
 20
-76.89066436596968
 30
0.0
 11
257.0116581101307
 21
-116.9358260790963
 31
0.0
  0
INSERT
  5
326
  8
LAYER0001
  6
CONTINUOUS
  2
DC_GROUP_87
 10
0.0
 20
0.0
 30
0.0
  0
INSERT
  5
327
  8
LAYER0001
  6
CONTINUOUS
  2
DC_GROUP_88
 10
0.0
 20
0.0
 30
0.0
  0
TEXT
  5
328
  8
LAYER0001
 62
     7
 10
207.4616489548572
 20
-114.3358260790963
 30
0.0
 40
4.0
  1
86.3
 41
0.6095238095238109
  7
FDASTYLE1
 72
     5
 11
217.2140299072382
 21
-114.3358260790963
 31
0.0
  0
ENDBLK
  5
14D
  8
0
  0
BLOCK
  8
0
  2
DC_GROUP_87
 70
     0
 10
0.0
 20
0.0
 30
0.0
  3
DC_GROUP_87
  1

  0
LINE
  5
329
  8
LAYER0001
  6
CONTINUOUS
 62
     7
 10
172.7116534660035
 20
-116.4717256139939
 30
0.0
 11
170.7116550583729
 21
-115.9358260790963
 31
0.0
  0
LINE
  5
32A
  8
LAYER0001
  6
CONTINUOUS
 62
     7
 10
170.7116550583729
 20
-115.9358260790963
 30
0.0
 11
172.7116534660036
 21
-115.3999265441987
 31
0.0
  0
LINE
  5
32B
  8
LAYER0001
  6
CONTINUOUS
 62
     7
 10
170.7116550583729
 20
-115.9358260790963
 30
0.0
 11
172.7116534660036
 21
-115.9358260790963
 31
0.0
  0
ENDBLK
  5
150
  8
0
  0
BLOCK
  8
0
  2
DC_GROUP_88
 70
     0
 10
0.0
 20
0.0
 30
0.0
  3
DC_GROUP_88
  1

  0
LINE
  5
32C
  8
LAYER0001
  6
CONTINUOUS
 62
     7
 10
255.0116597025
 20
-115.3999265441987
 30
0.0
 11
257.0116581101307
 21
-115.9358260790963
 31
0.0
  0
LINE
  5
32D
  8
LAYER0001
  6
CONTINUOUS
 62
     7
 10
257.0116581101307
 20
-115.9358260790963
 30
0.0
 11
255.0116597025
 21
-116.4717256139939
 31
0.0
  0
LINE
  5
32E
  8
LAYER0001
  6
CONTINUOUS
 62
     7
 10
257.0116581101307
 20
-115.9358260790963
 30
0.0
 11
255.0116597025
 21
-115.9358260790963
 31
0.0
  0
ENDBLK
  5
153
  8
0
  0
BLOCK
  8
0
  2
DC_GROUP_89
 70
     0
 10
0.0
 20
0.0
 30
0.0
  3
DC_GROUP_89
  1

  0
LINE
  5
32F
  8
LAYER0001
  6
CONTINUOUS
 62
     7
 10
166.5116581101307
 20
-115.9358260790963
 30
0.0
 11
170.7116550583729
 21
-115.9358260790963
 31
0.0
  0
LINE
  5
330
  8
LAYER0001
  6
CONTINUOUS
 62
     7
 10
170.7116550583729
 20
-66.39066436596968
 30
0.0
 11
170.7116550583729
 21
-116.9358260790963
 31
0.0
  0
LINE
  5
331
  8
LAYER0001
  6
CONTINUOUS
 62
     7
 10
152.3603877106622
 20
-115.9358260790963
 30
0.0
 11
166.5116581101307
 21
-115.9358260790963
 31
0.0
  0
LINE
  5
332
  8
LAYER0001
  6
CONTINUOUS
 62
     7
 10
175.7116550583729
 20
-115.9358260790963
 30
0.0
 11
170.7116550583729
 21
-115.9358260790963
 31
0.0
  0
INSERT
  5
333
  8
LAYER0001
  6
CONTINUOUS
  2
DC_GROUP_90
 10
0.0
 20
0.0
 30
0.0
  0
INSERT
  5
334
  8
LAYER0001
  6
CONTINUOUS
  2
DC_GROUP_91
 10
0.0
 20
0.0
 30
0.0
  0
TEXT
  5
335
  8
LAYER0001
 62
     7
 10
153.3603877106623
 20
-114.9358260790963
 30
0.0
 40
4.0
  1
4.2
 41
0.5587301587301591
  7
FDASTYLE1
 72
     5
 11
160.0651496154242
 21
-114.9358260790963
 31
0.0
  0
ENDBLK
  5
156
  8
0
  0
BLOCK
  8
0
  2
DC_GROUP_90
 70
     0
 10
0.0
 20
0.0
 30
0.0
  3
DC_GROUP_90
  1

  0
LINE
  5
336
  8
LAYER0001
  6
CONTINUOUS
 62
     7
 10
164.5116597025
 20
-115.3999265441987
 30
0.0
 11
166.5116581101307
 21
-115.9358260790963
 31
0.0
  0
LINE
  5
337
  8
LAYER0001
  6
CONTINUOUS
 62
     7
 10
166.5116581101307
 20
-115.9358260790963
 30
0.0
 11
164.5116597025
 21
-116.4717256139939
 31
0.0
  0
LINE
  5
338
  8
LAYER0001
  6
CONTINUOUS
 62
     7
 10
166.5116581101307
 20
-115.9358260790963
 30
0.0
 11
164.5116597025
 21
-115.9358260790963
 31
0.0
  0
ENDBLK
  5
159
  8
0
  0
BLOCK
  8
0
  2
DC_GROUP_91
 70
     0
 10
0.0
 20
0.0
 30
0.0
  3
DC_GROUP_91
  1

  0
LINE
  5
339
  8
LAYER0001
  6
CONTINUOUS
 62
     7
 10
172.7116534660035
 20
-116.4717256139939
 30
0.0
 11
170.7116550583729
 21
-115.9358260790963
 31
0.0
  0
LINE
  5
33A
  8
LAYER0001
  6
CONTINUOUS
 62
     7
 10
170.7116550583729
 20
-115.9358260790963
 30
0.0
 11
172.7116534660036
 21
-115.3999265441987
 31
0.0
  0
LINE
  5
33B
  8
LAYER0001
  6
CONTINUOUS
 62
     7
 10
170.7116550583729
 20
-115.9358260790963
 30
0.0
 11
172.7116534660036
 21
-115.9358260790963
 31
0.0
  0
ENDBLK
  5
15C
  8
0
  0
BLOCK
  8
0
  2
DC_GROUP_92
 70
     0
 10
0.0
 20
0.0
 30
0.0
  3
DC_GROUP_92
  1

  0
TEXT
  5
33C
  8
LAYER0001
 62
     7
 10
142.8143102682068
 20
153.1522521582022
 30
0.0
 40
4.0
  1
MIN-3.3
 41
0.6693877551020405
  7
FDASTYLE1
 72
     5
 11
161.5571674110639
 21
153.1522521582022
 31
0.0
  0
ENDBLK
  5
15F
  8
0
  0
BLOCK
  8
0
  2
DC_GROUP_93
 70
     0
 10
0.0
 20
0.0
 30
0.0
  3
DC_GROUP_93
  1

  0
TEXT
  5
33D
  8
LAYER0001
 62
     7
 10
176.5360250842732
 20
-105.2811705065531
 30
0.0
 40
4.0
  1
MIN 25.7
 41
0.6571428571428575
  7
FDASTYLE1
 72
     5
 11
197.5645965128446
 21
-105.2811705065531
 31
0.0
  0
ENDBLK
  5
162
  8
0
  0
BLOCK
  8
0
  2
DC_GROUP_94
 70
     0
 10
0.0
 20
0.0
 30
0.0
  3
DC_GROUP_94
  1

  0
LINE
  5
33E
  8
LAYER0001
  6
CONTINUOUS
 62
     7
 10
282.9266504807362
 20
88.64932800463579
 30
0.0
 11
291.9688877243885
 21
88.64932800463579
 31
0.0
  0
LINE
  5
33F
  8
LAYER0001
  6
CONTINUOUS
 62
     7
 10
283.1099848313221
 20
118.6493280046358
 30
0.0
 11
291.9688877243885
 21
118.6493280046358
 31
0.0
  0
LINE
  5
340
  8
LAYER0001
  6
CONTINUOUS
 62
     7
 10
290.9688877243885
 20
88.64932800463579
 30
0.0
 11
290.9688877243885
 21
118.6493280046358
 31
0.0
  0
INSERT
  5
341
  8
LAYER0001
  6
CONTINUOUS
  2
DC_GROUP_95
 10
0.0
 20
0.0
 30
0.0
  0
INSERT
  5
342
  8
LAYER0001
  6
CONTINUOUS
  2
DC_GROUP_96
 10
0.0
 20
0.0
 30
0.0
  0
TEXT
  5
343
  8
LAYER0001
 62
     7
 10
289.3688877243885
 20
100.4493280046358
 30
0.0
 40
4.0
  1
30
 50
90.0
 41
0.6476190476190453
  7
FDASTYLE1
 72
     5
 11
289.3688877243885
 21
105.6302803855882
 31
0.0
  0
ENDBLK
  5
165
  8
0
  0
BLOCK
  8
0
  2
DC_GROUP_95
 70
     0
 10
0.0
 20
0.0
 30
0.0
  3
DC_GROUP_95
  1

  0
LINE
  5
344
  8
LAYER0001
  6
CONTINUOUS
 62
     7
 10
291.5047872592861
 20
90.64932641226645
 30
0.0
 11
290.9688877243885
 21
88.64932800463579
 31
0.0
  0
LINE
  5
345
  8
LAYER0001
  6
CONTINUOUS
 62
     7
 10
290.9688877243885
 20
88.64932800463579
 30
0.0
 11
290.4329881894909
 21
90.64932641226645
 31
0.0
  0
LINE
  5
346
  8
LAYER0001
  6
CONTINUOUS
 62
     7
 10
290.9688877243885
 20
88.64932800463579
 30
0.0
 11
290.9688877243885
 21
90.64932641226645
 31
0.0
  0
ENDBLK
  5
168
  8
0
  0
BLOCK
  8
0
  2
DC_GROUP_96
 70
     0
 10
0.0
 20
0.0
 30
0.0
  3
DC_GROUP_96
  1

  0
LINE
  5
347
  8
LAYER0001
  6
CONTINUOUS
 62
     7
 10
290.4329881894909
 20
116.6493295970051
 30
0.0
 11
290.9688877243885
 21
118.6493280046358
 31
0.0
  0
LINE
  5
348
  8
LAYER0001
  6
CONTINUOUS
 62
     7
 10
290.9688877243885
 20
118.6493280046358
 30
0.0
 11
291.5047872592861
 21
116.6493295970051
 31
0.0
  0
LINE
  5
349
  8
LAYER0001
  6
CONTINUOUS
 62
     7
 10
290.9688877243885
 20
118.6493280046358
 30
0.0
 11
290.9688877243885
 21
116.6493295970051
 31
0.0
  0
ENDBLK
  5
16B
  8
0
  0
BLOCK
  8
0
  2
DC_GROUP_97
 70
     0
 10
0.0
 20
0.0
 30
0.0
  3
DC_GROUP_97
  1

  0
LINE
  5
34A
  8
LAYER0001
  6
CONTINUOUS
 62
     7
 10
231.8540415329822
 20
-1.350656736575147
 30
0.0
 11
281.9688877243885
 21
-1.350656736575147
 31
0.0
  0
LINE
  5
34B
  8
LAYER0001
  6
CONTINUOUS
 62
     7
 10
280.9688877243885
 20
-1.350660551272412
 30
0.0
 11
280.9688877243885
 21
45.64932800463579
 31
0.0
  0
INSERT
  5
34C
  8
LAYER0001
  6
CONTINUOUS
  2
DC_GROUP_98
 10
0.0
 20
0.0
 30
0.0
  0
TEXT
  5
34D
  8
LAYER0001
 62
     7
 10
279.3688877243885
 20
17.02535377673051
 30
0.0
 40
4.0
  1
M65×P1.25
 50
90.0
 41
0.6294896030245746
  7
FDASTYLE1
 72
     5
 11
279.3688877243885
 21
40.19057116803485
 31
0.0
  0
ENDBLK
  5
16E
  8
0
  0
BLOCK
  8
0
  2
DC_GROUP_98
 70
     0
 10
0.0
 20
0.0
 30
0.0
  3
DC_GROUP_98
  1

  0
LINE
  5
34E
  8
LAYER0001
  6
CONTINUOUS
 62
     7
 10
281.5047872592861
 20
0.6493378563582498
 30
0.0
 11
280.9688877243885
 21
-1.350660551272412
 31
0.0
  0
LINE
  5
34F
  8
LAYER0001
  6
CONTINUOUS
 62
     7
 10
280.9688877243885
 20
-1.350660551272412
 30
0.0
 11
280.4329881894909
 21
0.64933785635825
 31
0.0
  0
LINE
  5
350
  8
LAYER0001
  6
CONTINUOUS
 62
     7
 10
280.9688877243885
 20
-1.350660551272412
 30
0.0
 11
280.9688877243885
 21
0.6493378563582499
 31
0.0
  0
ENDBLK
  5
171
  8
0
  0
BLOCK
  8
0
  2
DC_GROUP_99
 70
     0
 10
0.0
 20
0.0
 30
0.0
  3
DC_GROUP_99
  1

  0
LINE
  5
351
  8
LAYER0001
  6
CONTINUOUS
 62
     7
 10
259.2371592087635
 20
-8.850656736575147
 30
0.0
 11
291.9688877243885
 21
-8.850656736575147
 31
0.0
  0
LINE
  5
352
  8
LAYER0001
  6
CONTINUOUS
 62
     7
 10
290.9688877243885
 20
-8.850660551272412
 30
0.0
 11
290.9688877243885
 21
45.64932800463579
 31
0.0
  0
INSERT
  5
353
  8
LAYER0001
  6
CONTINUOUS
  2
DC_GROUP_100
 10
0.0
 20
0.0
 30
0.0
  0
TEXT
  5
354
  8
LAYER0001
 62
     7
 10
289.3688877243885
 20
23.15833450487993
 30
0.0
 40
4.0
  1
φ80H7
 50
90.0
 41
0.6213017751479282
  7
FDASTYLE1
 72
     5
 11
289.3688877243885
 21
36.08141142795684
 31
0.0
  0
ENDBLK
  5
174
  8
0
  0
BLOCK
  8
0
  2
DC_GROUP_100
 70
     0
 10
0.0
 20
0.0
 30
0.0
  3
DC_GROUP_100
  1

  0
LINE
  5
355
  8
LAYER0001
  6
CONTINUOUS
 62
     7
 10
291.5047872592861
 20
-6.850662143641751
 30
0.0
 11
290.9688877243885
 21
-8.850660551272412
 31
0.0
  0
LINE
  5
356
  8
LAYER0001
  6
CONTINUOUS
 62
     7
 10
290.9688877243885
 20
-8.850660551272412
 30
0.0
 11
290.4329881894909
 21
-6.85066214364175
 31
0.0
  0
LINE
  5
357
  8
LAYER0001
  6
CONTINUOUS
 62
     7
 10
290.9688877243885
 20
-8.850660551272412
 30
0.0
 11
290.9688877243885
 21
-6.85066214364175
 31
0.0
  0
ENDBLK
  5
177
  8
0
  0
BLOCK
  8
0
  2
DC_GROUP_101
 70
     0
 10
0.0
 20
0.0
 30
0.0
  3
DC_GROUP_101
  1

  0
LINE
  5
358
  8
LAYER0001
  6
CONTINUOUS
 62
     7
 10
294.5659937424549
 20
31.14932800463579
 30
0.0
 11
301.9688877243885
 21
31.14932800463579
 31
0.0
  0
LINE
  5
359
  8
LAYER0001
  6
CONTINUOUS
 62
     7
 10
258.2371592087635
 20
75.64932800463579
 30
0.0
 11
301.9688877243885
 21
75.64932800463579
 31
0.0
  0
LINE
  5
35A
  8
LAYER0001
  6
CONTINUOUS
 62
     7
 10
300.9688877243885
 20
31.14933944872759
 30
0.0
 11
300.9688877243885
 21
75.64933563403032
 31
0.0
  0
INSERT
  5
35B
  8
LAYER0001
  6
CONTINUOUS
  2
DC_GROUP_102
 10
0.0
 20
0.0
 30
0.0
  0
INSERT
  5
35C
  8
LAYER0001
  6
CONTINUOUS
  2
DC_GROUP_103
 10
0.0
 20
0.0
 30
0.0
  0
TEXT
  5
35D
  8
LAYER0001
 62
     7
 10
299.3688877243885
 20
42.1993280046358
 30
0.0
 40
4.0
  1
MAX49.5
 50
90.0
 41
0.6802721088435371
  7
FDASTYLE1
 72
     5
 11
299.3688877243885
 21
61.24694705225484
 31
0.0
  0
ENDBLK
  5
17A
  8
0
  0
BLOCK
  8
0
  2
DC_GROUP_102
 70
     0
 10
0.0
 20
0.0
 30
0.0
  3
DC_GROUP_102
  1

  0
LINE
  5
35E
  8
LAYER0001
  6
CONTINUOUS
 62
     7
 10
301.5047872592861
 20
33.14933785635824
 30
0.0
 11
300.9688877243885
 21
31.14933944872759
 31
0.0
  0
LINE
  5
35F
  8
LAYER0001
  6
CONTINUOUS
 62
     7
 10
300.9688877243885
 20
31.14933944872759
 30
0.0
 11
300.4329881894909
 21
33.14933785635824
 31
0.0
  0
LINE
  5
360
  8
LAYER0001
  6
CONTINUOUS
 62
     7
 10
300.9688877243885
 20
31.14933944872759
 30
0.0
 11
300.9688877243885
 21
33.14933785635824
 31
0.0
  0
ENDBLK
  5
17D
  8
0
  0
BLOCK
  8
0
  2
DC_GROUP_103
 70
     0
 10
0.0
 20
0.0
 30
0.0
  3
DC_GROUP_103
  1

  0
LINE
  5
361
  8
LAYER0001
  6
CONTINUOUS
 62
     7
 10
300.4329881894909
 20
73.64933722639967
 30
0.0
 11
300.9688877243885
 21
75.64933563403032
 31
0.0
  0
LINE
  5
362
  8
LAYER0001
  6
CONTINUOUS
 62
     7
 10
300.9688877243885
 20
75.64933563403032
 30
0.0
 11
301.5047872592861
 21
73.64933722639967
 31
0.0
  0
LINE
  5
363
  8
LAYER0001
  6
CONTINUOUS
 62
     7
 10
300.9688877243885
 20
75.64933563403032
 30
0.0
 11
300.9688877243885
 21
73.64933722639967
 31
0.0
  0
ENDBLK
  5
180
  8
0
  0
BLOCK
  8
0
  2
DC_GROUP_104
 70
     0
 10
0.0
 20
0.0
 30
0.0
  3
DC_GROUP_104
  1

  0
LINE
  5
364
  8
LAYER0001
  6
CONTINUOUS
 62
     7
 10
258.2371592087635
 20
75.64932800463579
 30
0.0
 11
311.9688877243885
 21
75.64932800463579
 31
0.0
  0
LINE
  5
365
  8
LAYER0001
  6
CONTINUOUS
 62
     7
 10
258.2371592087635
 20
138.6493280046358
 30
0.0
 11
311.9688877243885
 21
138.6493280046358
 31
0.0
  0
LINE
  5
366
  8
LAYER0001
  6
CONTINUOUS
 62
     7
 10
310.9688877243885
 20
75.64933563403032
 30
0.0
 11
310.9688877243885
 21
138.6493280046358
 31
0.0
  0
INSERT
  5
367
  8
LAYER0001
  6
CONTINUOUS
  2
DC_GROUP_105
 10
0.0
 20
0.0
 30
0.0
  0
INSERT
  5
368
  8
LAYER0001
  6
CONTINUOUS
  2
DC_GROUP_106
 10
0.0
 20
0.0
 30
0.0
  0
TEXT
  5
369
  8
LAYER0001
 62
     7
 10
309.3688877243885
 20
103.9493280046358
 30
0.0
 40
4.0
  1
63
 50
90.0
 41
0.6285714285714263
  7
FDASTYLE1
 72
     5
 11
309.3688877243885
 21
108.9778994332072
 31
0.0
  0
ENDBLK
  5
183
  8
0
  0
BLOCK
  8
0
  2
DC_GROUP_105
 70
     0
 10
0.0
 20
0.0
 30
0.0
  3
DC_GROUP_105
  1

  0
LINE
  5
36A
  8
LAYER0001
  6
CONTINUOUS
 62
     7
 10
311.5047872592861
 20
77.64933404166098
 30
0.0
 11
310.9688877243885
 21
75.64933563403032
 31
0.0
  0
LINE
  5
36B
  8
LAYER0001
  6
CONTINUOUS
 62
     7
 10
310.9688877243885
 20
75.64933563403032
 30
0.0
 11
310.4329881894909
 21
77.64933404166098
 31
0.0
  0
LINE
  5
36C
  8
LAYER0001
  6
CONTINUOUS
 62
     7
 10
310.9688877243885
 20
75.64933563403032
 30
0.0
 11
310.9688877243885
 21
77.64933404166098
 31
0.0
  0
ENDBLK
  5
186
  8
0
  0
BLOCK
  8
0
  2
DC_GROUP_106
 70
     0
 10
0.0
 20
0.0
 30
0.0
  3
DC_GROUP_106
  1

  0
LINE
  5
36D
  8
LAYER0001
  6
CONTINUOUS
 62
     7
 10
310.4329881894909
 20
136.6493295970051
 30
0.0
 11
310.9688877243885
 21
138.6493280046358
 31
0.0
  0
LINE
  5
36E
  8
LAYER0001
  6
CONTINUOUS
 62
     7
 10
310.9688877243885
 20
138.6493280046358
 30
0.0
 11
311.5047872592861
 21
136.6493295970051
 31
0.0
  0
LINE
  5
36F
  8
LAYER0001
  6
CONTINUOUS
 62
     7
 10
310.9688877243885
 20
138.6493280046358
 30
0.0
 11
310.9688877243885
 21
136.6493295970051
 31
0.0
  0
ENDBLK
  5
189
  8
0
  0
BLOCK
  8
0
  2
DC_GROUP_107
 70
     0
 10
0.0
 20
0.0
 30
0.0
  3
DC_GROUP_107
  1

  0
LINE
  5
370
  8
LAYER0001
  6
CONTINUOUS
 62
     7
 10
282.612151579369
 20
88.64932800463579
 30
0.0
 11
291.9688877243885
 21
88.64932800463579
 31
0.0
  0
LINE
  5
371
  8
LAYER0001
  6
CONTINUOUS
 62
     7
 10
258.2371592087635
 20
75.64932800463579
 30
0.0
 11
291.9688877243885
 21
75.64932800463579
 31
0.0
  0
LINE
  5
372
  8
LAYER0001
  6
CONTINUOUS
 62
     7
 10
290.9688877243885
 20
88.64933563403032
 30
0.0
 11
290.9688877243885
 21
75.64933563403032
 31
0.0
  0
INSERT
  5
373
  8
LAYER0001
  6
CONTINUOUS
  2
DC_GROUP_108
 10
0.0
 20
0.0
 30
0.0
  0
INSERT
  5
374
  8
LAYER0001
  6
CONTINUOUS
  2
DC_GROUP_109
 10
0.0
 20
0.0
 30
0.0
  0
TEXT
  5
375
  8
LAYER0001
 62
     7
 10
283.9688875098118
 20
77.34933563403033
 30
0.0
 40
4.0
  1
MIN
 50
90.0
 41
0.5841269841269821
  7
FDASTYLE1
 72
     5
 11
283.9688875098118
 21
84.35885944355411
 31
0.0
  0
TEXT
  5
376
  8
LAYER0001
 62
     7
 10
289.3688877243885
 20
78.54933562806986
 30
0.0
 40
4.0
  1
10
 50
90.0
 41
0.5904761904761955
  7
FDASTYLE1
 72
     5
 11
289.3688877243885
 21
83.27314515187942
 31
0.0
  0
ENDBLK
  5
18C
  8
0
  0
BLOCK
  8
0
  2
DC_GROUP_108
 70
     0
 10
0.0
 20
0.0
 30
0.0
  3
DC_GROUP_108
  1

  0
LINE
  5
377
  8
LAYER0001
  6
CONTINUOUS
 62
     7
 10
290.4329881894909
 20
86.64933722639967
 30
0.0
 11
290.9688877243885
 21
88.64933563403032
 31
0.0
  0
LINE
  5
378
  8
LAYER0001
  6
CONTINUOUS
 62
     7
 10
290.9688877243885
 20
88.64933563403032
 30
0.0
 11
291.5047872592861
 21
86.64933722639967
 31
0.0
  0
LINE
  5
379
  8
LAYER0001
  6
CONTINUOUS
 62
     7
 10
290.9688877243885
 20
88.64933563403032
 30
0.0
 11
290.9688877243885
 21
86.64933722639967
 31
0.0
  0
ENDBLK
  5
18F
  8
0
  0
BLOCK
  8
0
  2
DC_GROUP_109
 70
     0
 10
0.0
 20
0.0
 30
0.0
  3
DC_GROUP_109
  1

  0
LINE
  5
37A
  8
LAYER0001
  6
CONTINUOUS
 62
     7
 10
291.5047872592861
 20
77.64933404166098
 30
0.0
 11
290.9688877243885
 21
75.64933563403032
 31
0.0
  0
LINE
  5
37B
  8
LAYER0001
  6
CONTINUOUS
 62
     7
 10
290.9688877243885
 20
75.64933563403032
 30
0.0
 11
290.4329881894909
 21
77.64933404166098
 31
0.0
  0
LINE
  5
37C
  8
LAYER0001
  6
CONTINUOUS
 62
     7
 10
290.9688877243885
 20
75.64933563403032
 30
0.0
 11
290.9688877243885
 21
77.64933404166098
 31
0.0
  0
ENDBLK
  5
192
  8
0
  0
BLOCK
  8
0
  2
DC_GROUP_110
 70
     0
 10
0.0
 20
0.0
 30
0.0
  3
DC_GROUP_110
  1

  0
LINE
  5
37D
  8
LAYER0001
  6
CONTINUOUS
 62
     7
 10
255.7536026609742
 20
133.0527663696286
 30
0.0
 11
278.6087316229342
 21
158.2475864812324
 31
0.0
  0
LINE
  5
37E
  8
LAYER0001
  6
CONTINUOUS
 62
     7
 10
278.6087345261463
 20
158.2475946061983
 30
0.0
 11
326.5656990189441
 21
158.2475946061983
 31
0.0
  0
INSERT
  5
37F
  8
LAYER0001
  6
CONTINUOUS
  2
DC_GROUP_111
 10
0.0
 20
0.0
 30
0.0
  0
TEXT
  5
380
  8
LAYER0001
 62
     7
 10
279.9371265549549
 20
159.8475946061983
 30
0.0
 40
4.0
  1
ｾﾚｰｼｮﾝP1.5山60ﾟ
 41
0.6332076968855386
  7
FDASTYLE1
 72
     5
 11
315.9033237380535
 21
159.8475946061983
 31
0.0
  0
ENDBLK
  5
195
  8
0
  0
BLOCK
  8
0
  2
DC_GROUP_111
 70
     0
 10
0.0
 20
0.0
 30
0.0
  3
DC_GROUP_111
  1

  0
LINE
  5
381
  8
LAYER0001
  6
CONTINUOUS
 62
     7
 10
257.4942804419777
 20
134.1740258421635
 30
0.0
 11
255.7536026609742
 21
133.0527663696286
 31
0.0
  0
LINE
  5
382
  8
LAYER0001
  6
CONTINUOUS
 62
     7
 10
255.7536026609742
 20
133.0527663696286
 30
0.0
 11
256.7004413940235
 21
134.8941458404673
 31
0.0
  0
LINE
  5
383
  8
LAYER0001
  6
CONTINUOUS
 62
     7
 10
255.7536026609742
 20
133.0527663696286
 30
0.0
 11
257.0973609180006
 21
134.5340858413154
 31
0.0
  0
ENDBLK
  5
198
  8
0
  0
BLOCK
  8
0
  2
DC_GROUP_112
 70
     0
 10
0.0
 20
0.0
 30
0.0
  3
DC_GROUP_112
  1

  0
LINE
  5
384
  8
LAYER0001
  6
CONTINUOUS
 62
     7
 10
267.401310559998
 20
123.7018187112104
 30
0.0
 11
288.2606151250416
 21
147.8337193186895
 31
0.0
  0
LINE
  5
385
  8
LAYER0001
  6
CONTINUOUS
 62
     7
 10
288.2606128830799
 20
147.833715211667
 30
0.0
 11
300.9891857285389
 21
147.833715211667
 31
0.0
  0
INSERT
  5
386
  8
LAYER0001
  6
CONTINUOUS
  2
DC_GROUP_113
 10
0.0
 20
0.0
 30
0.0
  0
TEXT
  5
387
  8
LAYER0001
 62
     7
 10
289.5606159348377
 20
149.4337152116671
 30
0.0
 40
4.0
  1
M10
 41
0.723809523809526
  7
FDASTYLE1
 72
     5
 11
298.246330220552
 21
149.4337152116671
 31
0.0
  0
ENDBLK
  5
19B
  8
0
  0
BLOCK
  8
0
  2
DC_GROUP_113
 70
     0
 10
0.0
 20
0.0
 30
0.0
  3
DC_GROUP_113
  1

  0
LINE
  5
388
  8
LAYER0001
  6
CONTINUOUS
 62
     7
 10
269.1146302988251
 20
124.8644525377327
 30
0.0
 11
267.401310559998
 21
123.7018187112104
 31
0.0
  0
LINE
  5
389
  8
LAYER0001
  6
CONTINUOUS
 62
     7
 10
267.401310559998
 20
123.7018187112104
 30
0.0
 11
268.3037693239431
 21
125.5653503372922
 31
0.0
  0
LINE
  5
38A
  8
LAYER0001
  6
CONTINUOUS
 62
     7
 10
267.401310559998
 20
123.7018187112104
 30
0.0
 11
268.7091998113841
 21
125.2149014375125
 31
0.0
  0
ENDBLK
  5
19E
  8
0
  0
BLOCK
  8
0
  2
DC_GROUP_114
 70
     0
 10
0.0
 20
0.0
 30
0.0
  3
DC_GROUP_114
  1

  0
LINE
  5
38B
  8
LAYER0001
  6
CONTINUOUS
 62
     7
 10
259.5516581101307
 20
128.6493280046358
 30
0.0
 11
301.9688877243885
 21
128.6493280046358
 31
0.0
  0
LINE
  5
38C
  8
LAYER0001
  6
CONTINUOUS
 62
     7
 10
294.8351969284901
 20
78.64932800463579
 30
0.0
 11
301.9688877243885
 21
78.64932800463579
 31
0.0
  0
LINE
  5
38D
  8
LAYER0001
  6
CONTINUOUS
 62
     7
 10
300.9688877243885
 20
128.6493280046358
 30
0.0
 11
300.9688877243885
 21
78.64932800463579
 31
0.0
  0
INSERT
  5
38E
  8
LAYER0001
  6
CONTINUOUS
  2
DC_GROUP_115
 10
0.0
 20
0.0
 30
0.0
  0
INSERT
  5
38F
  8
LAYER0001
  6
CONTINUOUS
  2
DC_GROUP_116
 10
0.0
 20
0.0
 30
0.0
  0
TEXT
  5
390
  8
LAYER0001
 62
     7
 10
299.3688877243885
 20
100.4493280046358
 30
0.0
 40
4.0
  1
50
 50
90.0
 41
0.6476190476190524
  7
FDASTYLE1
 72
     5
 11
299.3688877243885
 21
105.6302803855882
 31
0.0
  0
ENDBLK
  5
1A1
  8
0
  0
BLOCK
  8
0
  2
DC_GROUP_115
 70
     0
 10
0.0
 20
0.0
 30
0.0
  3
DC_GROUP_115
  1

  0
LINE
  5
391
  8
LAYER0001
  6
CONTINUOUS
 62
     7
 10
300.4329881894909
 20
126.6493295970052
 30
0.0
 11
300.9688877243885
 21
128.6493280046358
 31
0.0
  0
LINE
  5
392
  8
LAYER0001
  6
CONTINUOUS
 62
     7
 10
300.9688877243885
 20
128.6493280046358
 30
0.0
 11
301.5047872592861
 21
126.6493295970052
 31
0.0
  0
LINE
  5
393
  8
LAYER0001
  6
CONTINUOUS
 62
     7
 10
300.9688877243885
 20
128.6493280046358
 30
0.0
 11
300.9688877243885
 21
126.6493295970052
 31
0.0
  0
ENDBLK
  5
1A4
  8
0
  0
BLOCK
  8
0
  2
DC_GROUP_116
 70
     0
 10
0.0
 20
0.0
 30
0.0
  3
DC_GROUP_116
  1

  0
LINE
  5
394
  8
LAYER0001
  6
CONTINUOUS
 62
     7
 10
301.5047872592861
 20
80.64932641226645
 30
0.0
 11
300.9688877243885
 21
78.64932800463579
 31
0.0
  0
LINE
  5
395
  8
LAYER0001
  6
CONTINUOUS
 62
     7
 10
300.9688877243885
 20
78.64932800463579
 30
0.0
 11
300.4329881894909
 21
80.64932641226645
 31
0.0
  0
LINE
  5
396
  8
LAYER0001
  6
CONTINUOUS
 62
     7
 10
300.9688877243885
 20
78.64932800463579
 30
0.0
 11
300.9688877243885
 21
80.64932641226645
 31
0.0
  0
ENDBLK
  5
1A7
  8
0
  0
ENDSEC
  0
SECTION
  2
ENTITIES
  0
LINE
  5
397
  8
LAYER0002
  6
CONTINUOUS
 62
     3
 10
79.57239374547669
 20
-190.0
 30
0.0
 11
79.57239374547669
 21
190.0
 31
0.0
  0
LINE
  5
398
  8
LAYER0002
  6
CONTINUOUS
 62
     3
 10
633.5723937454767
 20
-190.0
 30
0.0
 11
633.5723937454767
 21
190.0
 31
0.0
  0
LINE
  5
399
  8
LAYER0002
  6
CONTINUOUS
 62
     3
 10
79.57239374547669
 20
-190.0
 30
0.0
 11
633.5723937454767
 21
-190.0
 31
0.0
  0
LINE
  5
39A
  8
LAYER0002
  6
CONTINUOUS
 62
     3
 10
79.57239374547669
 20
189.9999999999999
 30
0.0
 11
633.5723937454767
 21
189.9999999999999
 31
0.0
  0
LINE
  5
39B
  8
LAYER0002
  6
CONTINUOUS
 62
     3
 10
453.5723937454767
 20
-190.0
 30
0.0
 11
453.5723937454767
 21
-130.0
 31
0.0
  0
LINE
  5
39C
  8
LAYER0002
  6
CONTINUOUS
 62
     3
 10
453.5723937454767
 20
-176.0
 30
0.0
 11
633.5723937454767
 21
-176.0
 31
0.0
  0
LINE
  5
39D
  8
LAYER0002
  6
CONTINUOUS
 62
     3
 10
502.5723937454767
 20
-162.0
 30
0.0
 11
633.5723937454767
 21
-162.0
 31
0.0
  0
LINE
  5
39E
  8
LAYER0002
  6
CONTINUOUS
 62
     3
 10
502.5723937454767
 20
-148.0
 30
0.0
 11
633.5723937454767
 21
-148.0
 31
0.0
  0
LINE
  5
39F
  8
LAYER0002
  6
CONTINUOUS
 62
     3
 10
502.5723937454767
 20
-138.0
 30
0.0
 11
633.5723937454767
 21
-138.0
 31
0.0
  0
LINE
  5
3A0
  8
LAYER0002
  6
CONTINUOUS
 62
     3
 10
502.5723937454767
 20
-176.0
 30
0.0
 11
502.5723937454767
 21
-130.0
 31
0.0
  0
LINE
  5
3A1
  8
LAYER0002
  6
CONTINUOUS
 62
     3
 10
611.5723937454767
 20
-176.0
 30
0.0
 11
611.5723937454767
 21
-130.0
 31
0.0
  0
LINE
  5
3A2
  8
LAYER0002
  6
CONTINUOUS
 62
     3
 10
527.5723937454767
 20
-190.0
 30
0.0
 11
527.5723937454767
 21
-176.0
 31
0.0
  0
LINE
  5
3A3
  8
LAYER0002
  6
CONTINUOUS
 62
     3
 10
618.5723937454767
 20
-188.0
 30
0.0
 11
628.5723937454767
 21
-188.0
 31
0.0
  0
LINE
  5
3A4
  8
LAYER0002
  6
CONTINUOUS
 62
     3
 10
623.5723937454767
 20
-178.0
 30
0.0
 11
618.5723937454767
 21
-188.0
 31
0.0
  0
LINE
  5
3A5
  8
LAYER0002
  6
CONTINUOUS
 62
     3
 10
623.5723937454767
 20
-178.0
 30
0.0
 11
628.5723937454767
 21
-188.0
 31
0.0
  0
LINE
  5
3A6
  8
LAYER0002
  6
CONTINUOUS
 62
     3
 10
453.5723937454767
 20
-130.0
 30
0.0
 11
633.5723937454767
 21
-130.0
 31
0.0
  0
LINE
  5
3A7
  8
LAYER0002
  6
CONTINUOUS
 62
     3
 10
582.5723937454767
 20
-176.0
 30
0.0
 11
582.5723937454767
 21
-148.0
 31
0.0
  0
LINE
  5
3A8
  8
LAYER0002
  6
CONTINUOUS
 62
     4
 10
461.5723937454767
 20
-172.0
 30
0.0
 11
461.5723937454767
 21
-130.0
 31
0.0
  0
LINE
  5
3A9
  8
LAYER0002
  6
CONTINUOUS
 62
     4
 10
465.5723937454767
 20
-172.0
 30
0.0
 11
465.5723937454767
 21
-130.0
 31
0.0
  0
LINE
  5
3AA
  8
LAYER0002
  6
CONTINUOUS
 62
     4
 10
478.0723937454767
 20
-176.0
 30
0.0
 11
478.0723937454767
 21
-130.0
 31
0.0
  0
LINE
  5
3AB
  8
LAYER0002
  6
CONTINUOUS
 62
     4
 10
453.5723937454767
 20
-137.0
 30
0.0
 11
502.5723937454767
 21
-137.0
 31
0.0
  0
LINE
  5
3AC
  8
LAYER0002
  6
CONTINUOUS
 62
     4
 10
453.5723937454767
 20
-144.0
 30
0.0
 11
502.5723937454767
 21
-144.0
 31
0.0
  0
LINE
  5
3AD
  8
LAYER0002
  6
CONTINUOUS
 62
     4
 10
453.5723937454767
 20
-165.0
 30
0.0
 11
502.5723937454767
 21
-165.0
 31
0.0
  0
LINE
  5
3AE
  8
LAYER0002
  6
CONTINUOUS
 62
     4
 10
453.5723937454767
 20
-172.0
 30
0.0
 11
502.5723937454767
 21
-172.0
 31
0.0
  0
LINE
  5
3AF
  8
LAYER0002
  6
CONTINUOUS
 62
     4
 10
611.5723937454767
 20
-166.0
 30
0.0
 11
633.5723937454767
 21
-166.0
 31
0.0
  0
LINE
  5
3B0
  8
LAYER0002
  6
CONTINUOUS
 62
     4
 10
509.5723937454767
 20
-139.5
 30
0.0
 11
509.5723937454767
 21
-130.0
 31
0.0
  0
LINE
  5
3B1
  8
LAYER0002
  6
CONTINUOUS
 62
     4
 10
558.5723937454767
 20
-148.0
 30
0.0
 11
558.5723937454767
 21
-146.5
 31
0.0
  0
LINE
  5
3B2
  8
LAYER0002
  6
CONTINUOUS
 62
     4
 10
582.5723937454767
 20
-148.0
 30
0.0
 11
582.5723937454767
 21
-146.5
 31
0.0
  0
LINE
  5
3B3
  8
LAYER0002
  6
CONTINUOUS
 62
     4
 10
599.5723937454767
 20
-148.0
 30
0.0
 11
599.5723937454767
 21
-146.5
 31
0.0
  0
LINE
  5
3B4
  8
LAYER0002
  6
CONTINUOUS
 62
     4
 10
558.5723937454767
 20
-139.5
 30
0.0
 11
558.5723937454767
 21
-130.0
 31
0.0
  0
LINE
  5
3B5
  8
LAYER0002
  6
CONTINUOUS
 62
     4
 10
582.5723937454767
 20
-139.5
 30
0.0
 11
582.5723937454767
 21
-130.0
 31
0.0
  0
LINE
  5
3B6
  8
LAYER0002
  6
CONTINUOUS
 62
     4
 10
599.5723937454767
 20
-139.5
 30
0.0
 11
599.5723937454767
 21
-130.0
 31
0.0
  0
LINE
  5
3B7
  8
LAYER0002
  6
CONTINUOUS
 62
     4
 10
453.5723937454767
 20
-151.0
 30
0.0
 11
502.5723937454767
 21
-151.0
 31
0.0
  0
LINE
  5
3B8
  8
LAYER0002
  6
CONTINUOUS
 62
     4
 10
453.5723937454767
 20
-158.0
 30
0.0
 11
502.5723937454767
 21
-158.0
 31
0.0
  0
LINE
  5
3B9
  8
LAYER0002
  6
CONTINUOUS
 62
     4
 10
457.5723937454767
 20
-130.5
 30
0.0
 11
454.5723937454767
 21
-136.5
 31
0.0
  0
LINE
  5
3BA
  8
LAYER0002
  6
CONTINUOUS
 62
     4
 10
457.5723937454767
 20
-130.5
 30
0.0
 11
460.5723937454767
 21
-136.5
 31
0.0
  0
LINE
  5
3BB
  8
LAYER0002
  6
CONTINUOUS
 62
     4
 10
454.5723937454767
 20
-136.5
 30
0.0
 11
460.5723937454767
 21
-136.5
 31
0.0
  0
LINE
  5
3BC
  8
LAYER0002
  6
CONTINUOUS
 62
     4
 10
457.5723937454767
 20
-158.5
 30
0.0
 11
454.5723937454767
 21
-164.5
 31
0.0
  0
LINE
  5
3BD
  8
LAYER0002
  6
CONTINUOUS
 62
     4
 10
457.5723937454767
 20
-158.5
 30
0.0
 11
460.5723937454767
 21
-164.5
 31
0.0
  0
LINE
  5
3BE
  8
LAYER0002
  6
CONTINUOUS
 62
     4
 10
454.5723937454767
 20
-164.5
 30
0.0
 11
460.5723937454767
 21
-164.5
 31
0.0
  0
LINE
  5
3BF
  8
LAYER0002
  6
CONTINUOUS
 62
     4
 10
457.5723937454767
 20
-151.5
 30
0.0
 11
454.5723937454767
 21
-157.5
 31
0.0
  0
LINE
  5
3C0
  8
LAYER0002
  6
CONTINUOUS
 62
     4
 10
457.5723937454767
 20
-151.5
 30
0.0
 11
460.5723937454767
 21
-157.5
 31
0.0
  0
LINE
  5
3C1
  8
LAYER0002
  6
CONTINUOUS
 62
     4
 10
454.5723937454767
 20
-157.5
 30
0.0
 11
460.5723937454767
 21
-157.5
 31
0.0
  0
LINE
  5
3C2
  8
LAYER0002
  6
CONTINUOUS
 62
     4
 10
457.5723937454767
 20
-144.5
 30
0.0
 11
454.5723937454767
 21
-150.5
 31
0.0
  0
LINE
  5
3C3
  8
LAYER0002
  6
CONTINUOUS
 62
     4
 10
457.5723937454767
 20
-144.5
 30
0.0
 11
460.5723937454767
 21
-150.5
 31
0.0
  0
LINE
  5
3C4
  8
LAYER0002
  6
CONTINUOUS
 62
     4
 10
454.5723937454767
 20
-150.5
 30
0.0
 11
460.5723937454767
 21
-150.5
 31
0.0
  0
LINE
  5
3C5
  8
LAYER0002
  6
CONTINUOUS
 62
     4
 10
457.5723937454767
 20
-137.5
 30
0.0
 11
454.5723937454767
 21
-143.5
 31
0.0
  0
LINE
  5
3C6
  8
LAYER0002
  6
CONTINUOUS
 62
     4
 10
457.5723937454767
 20
-137.5
 30
0.0
 11
460.5723937454767
 21
-143.5
 31
0.0
  0
LINE
  5
3C7
  8
LAYER0002
  6
CONTINUOUS
 62
     4
 10
454.5723937454767
 20
-143.5
 30
0.0
 11
460.5723937454767
 21
-143.5
 31
0.0
  0
LINE
  5
3C8
  8
LAYER0002
  6
CONTINUOUS
 62
     4
 10
529.2390604121433
 20
-176.0
 30
0.0
 11
529.2390604121433
 21
-162.0
 31
0.0
  0
LINE
  5
3C9
  8
LAYER0002
  6
CONTINUOUS
 62
     4
 10
555.90572707881
 20
-176.0
 30
0.0
 11
555.90572707881
 21
-161.9509415757253
 31
0.0
  0
LINE
  5
3CA
  8
LAYER0002
  6
CONTINUOUS
 62
     4
 10
569.2390604121433
 20
-167.5
 30
0.0
 11
569.2390604121433
 21
-161.9509415757253
 31
0.0
  0
LINE
  5
3CB
  8
LAYER0002
  6
CONTINUOUS
 62
     4
 10
582.5723937454767
 20
-155.0
 30
0.0
 11
611.5723937454767
 21
-155.0
 31
0.0
  0
LINE
  5
3CC
  8
LAYER0002
  6
CONTINUOUS
 62
     4
 10
502.5723937454767
 20
-166.0
 30
0.0
 11
582.5723937454767
 21
-166.0
 31
0.0
  0
TEXT
  5
3CE
  8
LAYER0002
 62
     7
 10
503.5661518929514
 20
-130.821188728956
 30
0.0
 40
2.44248928
  1
符号
 41
0.8
  7
FDASTYLE0
  0
TEXT
  5
3CF
  8
LAYER0002
 62
     7
 10
518.9865248673825
 20
-135.8245525019963
 30
0.0
 40
4.0
  1
品       名
 41
0.6192847442281572
  7
FDASTYLE1
 72
     5
 11
542.2716312503612
 21
-135.8245525019963
 31
0.0
  0
TEXT
  5
3D0
  8
LAYER0002
 62
     7
 10
563.8055501867863
 20
-135.8245525019963
 30
0.0
 40
4.0
  1
材  料
 41
0.5950413223140509
  7
FDASTYLE1
 72
     5
 11
574.2782774595136
 21
-135.8245525019963
 31
0.0
  0
TEXT
  5
3D1
  8
LAYER0002
 62
     7
 10
586.0884554303317
 20
-135.8245525019963
 30
0.0
 40
4.0
  1
個 数
 41
0.5813148788927315
  7
FDASTYLE1
 72
     5
 11
593.9943377832728
 21
-135.8245525019963
 31
0.0
  0
TEXT
  5
3D2
  8
LAYER0002
 62
     7
 10
602.2942046983646
 20
-133.5649080050572
 30
0.0
 40
2.5
  1
単重量
 41
0.6666666666666666
  7
FDASTYLE1
 72
     5
 11
608.2942046983646
 21
-133.5649080050572
 31
0.0
  0
TEXT
  5
3D3
  8
LAYER0002
 62
     7
 10
601.2813453691126
 20
-137.3631304897525
 30
0.0
 40
2.5
  1
(kg)
 41
0.5333333333333371
  7
FDASTYLE1
 72
     5
 11
606.614678702446
 21
-137.3631304897525
 31
0.0
  0
TEXT
  5
3D4
  8
LAYER0002
 62
     7
 10
615.7145908109544
 20
-135.8245525019963
 30
0.0
 40
4.0
  1
記  事
 41
0.5950413223140509
  7
FDASTYLE1
 72
     5
 11
626.1873180836817
 21
-135.8245525019963
 31
0.0
  0
TEXT
  5
3D5
  8
LAYER0002
 62
     7
 10
615.4174732006412
 20
-165.4873041997729
 30
0.0
 40
3.0
  1
コード番号
 41
0.6666666666666666
  7
FDASTYLE1
 72
     5
 11
627.4174732006412
 21
-165.4873041997729
 31
0.0
  0
TEXT
  5
3D6
  8
LAYER0002
 62
     7
 10
458.4843857613084
 20
-175.1879010540338
 30
0.0
 40
2.5
  1
訂 正 来 歴
 41
0.5890861275476669
  7
FDASTYLE1
 72
     5
 11
469.9715652484879
 21
-175.1879010540338
 31
0.0
  0
TEXT
  5
3D7
  8
LAYER0002
 62
     7
 10
482.4627285922417
 20
-175.2166697391651
 30
0.0
 40
2.5
  1
工 事 番 号
 41
0.5890861275476669
  7
FDASTYLE1
 72
     5
 11
493.9499080794212
 21
-175.2166697391651
 31
0.0
  0
TEXT
  5
3D8
  8
LAYER0002
 62
     7
 10
455.5063940920796
 20
-165.9634530565915
 30
0.0
 40
1.90819475
  1
記号
 41
0.8
  7
FDASTYLE0
  0
TEXT
  5
3D9
  8
LAYER0002
 62
     7
 10
461.4457811522385
 20
-165.9634530565915
 30
0.0
 40
1.90819475
  1
理由
 41
0.8
  7
FDASTYLE0
  0
TEXT
  5
3DA
  8
LAYER0002
 62
     7
 10
468.191760536461
 20
-169.8786046700178
 30
0.0
 40
3.0
  1
日 付
 41
0.5813148788927344
  7
FDASTYLE1
 72
     5
 11
474.1211723011669
 21
-169.8786046700178
 31
0.0
  0
TEXT
  5
3DB
  8
LAYER0002
 62
     7
 10
510.0205627274419
 20
-165.7187911464244
 30
0.0
 40
3.0
  1
承   認
 41
0.6035665294924586
  7
FDASTYLE1
 72
     5
 11
519.7983405052197
 21
-165.7187911464244
 31
0.0
  0
TEXT
  5
3DC
  8
LAYER0002
 62
     7
 10
536.4356217787107
 20
-165.4873041997729
 30
0.0
 40
3.0
  1
検   図
 41
0.6035665294924586
  7
FDASTYLE1
 72
     5
 11
546.2133995564885
 21
-165.4873041997729
 31
0.0
  0
TEXT
  5
3DD
  8
LAYER0002
 62
     7
 10
558.0495858438518
 20
-165.4873041997729
 30
0.0
 40
3.0
  1
担  当
 41
0.5950413223140511
  7
FDASTYLE1
 72
     5
 11
565.9041312983973
 21
-165.4873041997729
 31
0.0
  0
TEXT
  5
3DE
  8
LAYER0002
 62
     7
 10
571.2494512295879
 20
-165.4873041997729
 30
0.0
 40
3.0
  1
製  図
 41
0.5950413223140511
  7
FDASTYLE1
 72
     5
 11
579.1039966841333
 21
-165.4873041997729
 31
0.0
  0
TEXT
  5
3DF
  8
LAYER0002
 62
     7
 10
583.5186309758966
 20
-153.2184960272417
 30
0.0
 40
3.0
  1
作図
 41
0.6666666666666762
  7
FDASTYLE1
 72
     5
 11
588.3186309758967
 21
-153.2184960272417
 31
0.0
  0
TEXT
  5
3E0
  8
LAYER0002
 62
     7
 10
584.6760657091543
 20
-160.2371566401815
 30
0.0
 40
4.0
  1
第 三 角 法
 41
0.5890861275476675
  7
FDASTYLE1
 72
     5
 11
603.0555528886415
 21
-160.2371566401815
 31
0.0
  0
TEXT
  5
3E1
  8
LAYER0002
 62
     7
 10
583.9816048691997
 20
-166.413251986379
 30
0.0
 40
3.0
  1
尺度
 41
0.6666666666666762
  7
FDASTYLE1
 72
     5
 11
588.7816048691998
 21
-166.413251986379
 31
0.0
  0
TEXT
  5
3E3
  8
LAYER0002
 62
     3
 10
461.9515481155107
 20
-185.9272077185017
 30
0.0
 40
7.0
  1
株式会社 野村製作所
 41
0.5976394989045255
  7
FDASTYLE2
 72
     5
 11
517.8344271000773
 21
-185.9272077185017
 31
0.0
  0
TEXT
  5
3E5
  8
LAYER0002
 62
     3
 10
533.6311292844923
 20
-187.1216685584563
 30
0.0
 40
8.0
  1
２－
 41
0.7699296059137625
  7
FDASTYLE3
 72
     5
 11
547.5206593751766
 21
-187.1216685584563
 31
0.0
  0
TEXT
  5
3E6
  8
LAYER0002
 62
     3
 10
550.5430869088992
 20
-187.1216685584563
 30
0.0
 40
8.0
  1
9308094
 41
1.367451330599781
  7
FDASTYLE3
 72
     5
 11
605.7224830012616
 21
-187.1216685584563
 31
0.0
  0
TEXT
  5
3E7
  8
LAYER0002
 62
     4
 10
590.1032971299989
 20
-145.0216474852281
 30
0.0
 40
3.0
  1
1式
 41
0.520661157024785
  7
FDASTYLE1
 72
     5
 11
593.5396607663624
 21
-145.0216474852281
 31
0.0
  0
TEXT
  5
3E8
  8
LAYER0002
 62
     4
 10
595.8735726361166
 20
-172.297487439201
 30
0.0
 40
3.0
  1
1/1
 41
0.5222222222222273
  7
FDASTYLE1
 72
     5
 11
600.5735726361166
 21
-172.297487439201
 31
0.0
  0
TEXT
  5
3E9
  8
LAYER0002
 62
     6
 10
521.6085333514537
 20
-145.7243747487088
 30
0.0
 40
5.0
  1
外　形　図
 41
0.5833333333333334
  7
FDASTYLE1
 72
     5
 11
539.1085333514537
 21
-145.7243747487088
 31
0.0
  0
TEXT
  5
3EA
  8
LAYER0002
 62
     6
 10
508.9768756015056
 20
-154.3920863201719
 30
0.0
 40
5.0
  1
日鋼プレシジォン
 41
0.5833333333333322
  7
FDASTYLE1
 72
     5
 11
536.9768756015055
 21
-154.3920863201719
 31
0.0
  0
TEXT
  5
3EB
  8
LAYER0002
 62
     6
 10
517.4424132567851
 20
-160.8053724226564
 30
0.0
 40
5.0
  1
  MO3-8型 ﾁｬｯｸ
 41
0.553604224058769
  7
FDASTYLE1
 72
     5
 11
553.9802920446639
 21
-160.8053724226564
 31
0.0
  0
LINE
  5
3EC
  8
0
  6
CONTINUOUS
 62
     3
 10
371.3969475169824
 20
-7.445208076934804
 30
0.0
 11
436.2623804198038
 21
30.00486293305438
 31
0.0
  0
LINE
  5
3ED
  8
0
  6
CONTINUOUS
 62
     3
 10
388.8969663641206
 20
-37.75610268481897
 30
0.0
 11
453.7624058741918
 21
-0.306027860132744
 31
0.0
  0
LINE
  5
3EE
  8
0
  6
CONTINUOUS
 62
     3
 10
492.7269932178669
 20
-0.3060043726003272
 30
0.0
 11
557.5924261206882
 21
-37.75607538258952
 31
0.0
  0
LINE
  5
3EF
  8
0
  6
CONTINUOUS
 62
     3
 10
510.2269886339686
 20
30.00494120427779
 30
0.0
 11
575.0924347512896
 21
-7.44513743510548
 31
0.0
  0
LINE
  5
3F0
  8
0
  6
CONTINUOUS
 62
     3
 10
445.7446886052055
 20
136.8860628593135
 30
0.0
 11
445.7446886052055
 21
135.0723726737666
 31
0.0
  0
LINE
  5
3F1
  8
0
  6
CONTINUOUS
 62
     3
 10
500.7447114933891
 20
136.8860781181026
 30
0.0
 11
500.7447114933891
 21
135.0723879325557
 31
0.0
  0
LINE
  5
3F2
  8
0
  6
CONTINUOUS
 62
     3
 10
367.9239916031362
 20
2.096675535381976
 30
0.0
 11
369.4946802438278
 21
3.003512944709158
 31
0.0
  0
LINE
  5
3F3
  8
0
  6
CONTINUOUS
 62
     3
 10
395.4239948852109
 20
-45.53471354640338
 30
0.0
 11
396.9946835259024
 21
-44.6278761370762
 31
0.0
  0
LINE
  5
3F4
  8
0
  6
CONTINUOUS
 62
     3
 10
576.9947140639686
 20
3.003577736724893
 30
0.0
 11
578.5654159191597
 21
2.096732698003635
 31
0.0
  0
LINE
  5
3F5
  8
0
  6
CONTINUOUS
 62
     3
 10
549.4946948592025
 20
-44.62782747988091
 30
0.0
 11
551.0653967143937
 21
-45.53467251860216
 31
0.0
  0
LINE
  5
3F6
  8
0
  6
CONTINUOUS
 62
     3
 10
455.7446962346
 20
138.6493380057979
 30
0.0
 11
490.7446962346
 21
138.6493380057979
 31
0.0
  0
LINE
  5
3F7
  8
0
  6
CONTINUOUS
 62
     3
 10
445.7446858699224
 20
136.8860127050399
 30
0.0
 11
455.7446858683581
 21
138.6492825627962
 31
0.0
  0
LINE
  5
3F8
  8
0
  6
CONTINUOUS
 62
     3
 10
490.7447150590612
 20
138.6493010872674
 30
0.0
 11
500.7447150574969
 21
136.8860312295111
 31
0.0
  0
LINE
  5
3F9
  8
0
  6
CONTINUOUS
 62
     3
 10
371.3969472713669
 20
-7.445237002487701
 30
0.0
 11
388.8969488806922
 21
-37.75612476501003
 31
0.0
  0
LINE
  5
3FA
  8
0
  6
CONTINUOUS
 62
     3
 10
557.5924885968555
 20
-37.75610057717118
 30
0.0
 11
575.0924868683203
 21
-7.445218595992046
 31
0.0
  0
LINE
  5
3FB
  8
0
  6
CONTINUOUS
 62
     3
 10
367.9240069793909
 20
2.096700363746678
 30
0.0
 11
371.3969739844649
 21
-7.445197719525467
 31
0.0
  0
LINE
  5
3FC
  8
0
  6
CONTINUOUS
 62
     3
 10
575.0923980020114
 20
-7.445224422922692
 30
0.0
 11
578.5653591359202
 21
2.096657529456607
 31
0.0
  0
LINE
  5
3FD
  8
0
  6
CONTINUOUS
 62
     3
 10
551.0652503659969
 20
-45.53464091448255
 30
0.0
 11
557.5922823222779
 21
-37.75602810027009
 31
0.0
  0
LINE
  5
3FE
  8
0
  6
CONTINUOUS
 62
     3
 10
388.896969850095
 20
-37.75609366261453
 30
0.0
 11
395.424001806376
 21
-45.534706476827
 31
0.0
  0
LINE
  5
3FF
  8
0
  6
CONTINUOUS
 62
     3
 10
425.956580932585
 20
24.05481623179277
 30
0.0
 11
431.2065853731315
 21
14.96154304801486
 31
0.0
  0
LINE
  5
400
  8
0
  6
CONTINUOUS
 62
     3
 10
503.0328738788932
 20
-6.256123251076005
 30
0.0
 11
508.282874504742
 21
2.837143325452544
 31
0.0
  0
LINE
  5
401
  8
0
  6
CONTINUOUS
 62
     3
 10
376.6469494262407
 20
-16.53846959150157
 30
0.0
 11
390.6133615198561
 21
-8.474958700511749
 31
0.0
  0
LINE
  5
402
  8
0
  6
CONTINUOUS
 62
     3
 10
383.6469542884516
 20
-28.6628426349986
 30
0.0
 11
397.6133597748172
 21
-20.59933555870582
 31
0.0
  0
LINE
  5
403
  8
0
  6
CONTINUOUS
 62
     3
 10
508.2828358079996
 20
2.837182312847418
 30
0.0
 11
516.1870623335407
 21
-1.726324495224489
 31
0.0
  0
LINE
  5
404
  8
0
  6
CONTINUOUS
 62
     3
 10
515.28283184995
 20
14.96159348497089
 30
0.0
 11
523.1870583754912
 21
10.39808667689898
 31
0.0
  0
LINE
  5
405
  8
0
  6
CONTINUOUS
 62
     3
 10
504.0174357891285
 20
1.835736718844274
 30
0.0
 11
506.7828473414977
 21
0.2391257910604878
 31
0.0
  0
LINE
  5
406
  8
0
  6
CONTINUOUS
 62
     3
 10
514.0174410520676
 20
19.15628634139661
 30
0.0
 11
516.7828526044368
 21
17.55967541361282
 31
0.0
  0
LINE
  5
407
  8
0
  6
CONTINUOUS
 62
     3
 10
439.7065670093492
 20
0.2390758745288082
 30
0.0
 11
442.4719785617183
 21
1.835686802312594
 31
0.0
  0
LINE
  5
408
  8
0
  6
CONTINUOUS
 62
     3
 10
429.7065665832513
 20
17.55960186063466
 30
0.0
 11
432.4719781356205
 21
19.15621278841844
 31
0.0
  0
LINE
  5
409
  8
0
  6
CONTINUOUS
 62
     3
 10
438.2065852539221
 20
2.837189264455802
 30
0.0
 11
443.4565820650732
 21
-6.256070704823387
 31
0.0
  0
LINE
  5
40A
  8
0
  6
CONTINUOUS
 62
     3
 10
515.2828829686025
 20
14.96151197532267
 30
0.0
 11
520.5328835944512
 21
24.05477855185121
 31
0.0
  0
LINE
  5
40B
  8
0
  6
CONTINUOUS
 62
     3
 10
510.8809374549657
 20
1.337150776034051
 30
0.0
 11
517.8809382894307
 21
13.46150621140545
 31
0.0
  0
LINE
  5
40C
  8
0
  6
CONTINUOUS
 62
     3
 10
554.1822089112986
 20
-23.6628181458053
 30
0.0
 11
561.1822097457637
 21
-11.53846271043391
 31
0.0
  0
LINE
  5
40D
  8
0
  6
CONTINUOUS
 62
     3
 10
428.6084930644154
 20
13.46155557262661
 30
0.0
 11
435.6084948525549
 21
1.337198485442869
 31
0.0
  0
LINE
  5
40E
  8
0
  6
CONTINUOUS
 62
     3
 10
385.3072173691335
 20
-11.53847085698656
 30
0.0
 11
392.3072182035986
 21
-23.66282629235796
 31
0.0
  0
LINE
  5
40F
  8
0
  6
CONTINUOUS
 62
     3
 10
404.3215584568421
 20
-16.72635567175557
 30
0.0
 11
423.5941215583685
 21
-5.599337406449749
 31
0.0
  0
LINE
  5
410
  8
0
  6
CONTINUOUS
 62
     3
 10
397.3215635055059
 20
-4.601976906212983
 30
0.0
 11
416.5941266070323
 21
6.525041359092839
 31
0.0
  0
LINE
  5
411
  8
0
  6
CONTINUOUS
 62
     3
 10
423.3023219854323
 20
10.39801933869457
 30
0.0
 11
431.2065551182233
 21
14.96152996146351
 31
0.0
  0
LINE
  5
412
  8
0
  6
CONTINUOUS
 62
     3
 10
430.3023235440183
 20
-1.726355612150982
 30
0.0
 11
438.2065500695595
 21
2.837151195920924
 31
0.0
  0
LINE
  5
413
  8
0
  6
CONTINUOUS
 62
     3
 10
529.8952669683908
 20
6.525101067903179
 30
0.0
 11
549.1678350253546
 21
-4.601920058425421
 31
0.0
  0
LINE
  5
414
  8
0
  6
CONTINUOUS
 62
     3
 10
522.8952709264403
 20
-5.599310104220294
 30
0.0
 11
542.1678257689046
 21
-16.72632360115482
 31
0.0
  0
LINE
  5
415
  8
0
  6
CONTINUOUS
 62
     3
 10
555.8760436182542
 20
-8.474905667421226
 30
0.0
 11
569.8424482787136
 21
-16.53841226687688
 31
0.0
  0
LINE
  5
416
  8
0
  6
CONTINUOUS
 62
     3
 10
548.8760343618042
 20
-20.59930921015062
 30
0.0
 11
562.8424125932642
 21
-28.66280055081812
 31
0.0
  0
LINE
  5
417
  8
0
  6
CONTINUOUS
 62
     3
 10
455.7447191227836
 20
138.6493380057979
 30
0.0
 11
455.7447191227836
 21
63.74918389202834
 31
0.0
  0
LINE
  5
418
  8
0
  6
CONTINUOUS
 62
     3
 10
490.7447114933891
 20
138.6493380057979
 30
0.0
 11
490.7447114933891
 21
63.74918389202834
 31
0.0
  0
LINE
  5
419
  8
0
  6
CONTINUOUS
 62
     3
 10
455.7446962346
 20
75.64933800579787
 30
0.0
 11
466.2447114933891
 21
75.64933800579787
 31
0.0
  0
LINE
  5
41A
  8
0
  6
CONTINUOUS
 62
     3
 10
480.2447191227836
 20
138.6493380057979
 30
0.0
 11
480.2447191227836
 21
122.5223238456416
 31
0.0
  0
LINE
  5
41B
  8
0
  6
CONTINUOUS
 62
     3
 10
466.2447191227836
 20
138.6493380057979
 30
0.0
 11
466.2447191227836
 21
122.5223238456416
 31
0.0
  0
LINE
  5
41C
  8
0
  6
CONTINUOUS
 62
     3
 10
483.2447191227836
 20
75.64933800579787
 30
0.0
 11
483.2447191227836
 21
72.45611595989944
 31
0.0
  0
LINE
  5
41D
  8
0
  6
CONTINUOUS
 62
     3
 10
463.2447191227836
 20
75.64933800579787
 30
0.0
 11
463.2447191227836
 21
72.45611595989944
 31
0.0
  0
LINE
  5
41E
  8
0
  6
CONTINUOUS
 62
     3
 10
466.2447114933891
 20
128.6493380057979
 30
0.0
 11
480.2447114933891
 21
128.6493380057979
 31
0.0
  0
LINE
  5
41F
  8
0
  6
CONTINUOUS
 62
     3
 10
466.2447114933891
 20
78.64933800579787
 30
0.0
 11
480.2447114933891
 21
78.64933800579787
 31
0.0
  0
LINE
  5
420
  8
0
  6
CONTINUOUS
 62
     3
 10
480.2447114933891
 20
75.64933800579787
 30
0.0
 11
490.7446962346
 21
75.64933800579787
 31
0.0
  0
LINE
  5
421
  8
0
  6
CONTINUOUS
 62
     3
 10
466.2447191227836
 20
84.77635216595412
 30
0.0
 11
466.2447191227836
 21
75.64933800579787
 31
0.0
  0
LINE
  5
422
  8
0
  6
CONTINUOUS
 62
     3
 10
480.2447191227836
 20
84.77635216595412
 30
0.0
 11
480.2447191227836
 21
75.64933800579787
 31
0.0
  0
LINE
  5
423
  8
0
  6
CONTINUOUS
 62
     3
 10
480.2447191227836
 20
114.7763521659541
 30
0.0
 11
480.2447191227836
 21
92.52232384564162
 31
0.0
  0
LINE
  5
424
  8
0
  6
CONTINUOUS
 62
     3
 10
466.2447191227836
 20
114.7763521659541
 30
0.0
 11
466.2447191227836
 21
92.52232384564162
 31
0.0
  0
LINE
  5
425
  8
0
  6
CONTINUOUS
 62
     3
 10
430.3947345022485
 20
110.5857116765958
 30
0.0
 11
427.5447235647926
 21
105.6493501245224
 31
0.0
  0
LINE
  5
426
  8
0
  6
CONTINUOUS
 62
     3
 10
436.0947175969047
 20
110.5856935966182
 30
0.0
 11
430.3947206486625
 21
110.5856935966182
 31
0.0
  0
LINE
  5
427
  8
0
  6
CONTINUOUS
 62
     3
 10
438.9447465048272
 20
105.6493481460142
 30
0.0
 11
436.0947441772685
 21
110.585701485949
 31
0.0
  0
LINE
  5
428
  8
0
  6
CONTINUOUS
 62
     3
 10
436.0947205126102
 20
100.7130047379068
 30
0.0
 11
438.9447185694924
 21
105.6493381622553
 31
0.0
  0
LINE
  5
429
  8
0
  6
CONTINUOUS
 62
     3
 10
430.3947206486625
 20
100.7129976737666
 30
0.0
 11
436.0947175969047
 21
100.7129976737666
 31
0.0
  0
LINE
  5
42A
  8
0
  6
CONTINUOUS
 62
     3
 10
427.5447333615586
 20
105.6493645212332
 30
0.0
 11
430.3947304766945
 21
100.7130217716678
 31
0.0
  0
LINE
  5
42B
  8
0
  6
CONTINUOUS
 62
     3
 10
365.5410625777678
 20
-57.01416565254827
 30
0.0
 11
382.5741647364454
 21
-86.51635995544108
 31
0.0
  0
LINE
  5
42C
  8
0
  6
CONTINUOUS
 62
     3
 10
358.5327344772927
 20
-70.87538146933603
 30
0.0
 11
369.7910645244232
 21
-64.37538146933603
 31
0.0
  0
LINE
  5
42D
  8
0
  6
CONTINUOUS
 62
     3
 10
367.5327287552468
 20
-86.46382854679665
 30
0.0
 11
378.7910604541897
 21
-79.96382759312233
 31
0.0
  0
LINE
  5
42E
  8
0
  6
CONTINUOUS
 62
     3
 10
358.5327330372767
 20
-70.87538222745557
 30
0.0
 11
367.5327302954626
 21
-86.46383260854087
 31
0.0
  0
LINE
  5
42F
  8
0
  6
CONTINUOUS
 62
     3
 10
374.6250303623787
 20
-74.74805569860779
 30
0.0
 11
372.2250288364998
 21
-70.59113119215213
 31
0.0
  0
LINE
  5
430
  8
0
  6
CONTINUOUS
 62
     3
 10
363.2668659525356
 20
-71.95264020015735
 30
0.0
 11
360.5627037920735
 21
-73.51388897945422
 31
0.0
  0
LINE
  5
431
  8
0
  6
CONTINUOUS
 62
     3
 10
368.9668590860806
 20
-81.82531773305378
 30
0.0
 11
366.2626969256184
 21
-83.38656651235066
 31
0.0
  0
LINE
  5
432
  8
0
  6
CONTINUOUS
 62
     3
 10
369.4367675755128
 20
-71.16171489612158
 30
0.0
 11
372.2250363672127
 21
-70.59113766307934
 31
0.0
  0
LINE
  5
433
  8
0
  6
CONTINUOUS
 62
     3
 10
372.7367688454044
 20
-76.87748978091064
 30
0.0
 11
374.6250351973583
 21
-74.74806951835932
 31
0.0
  0
LINE
  5
434
  8
0
  6
CONTINUOUS
 62
     3
 10
368.7218287823311
 20
-80.5234103874012
 30
0.0
 11
364.2718318340889
 21
-72.81578971785744
 31
0.0
  0
LINE
  5
435
  8
0
  6
CONTINUOUS
 62
     3
 10
367.2994344232793
 20
-79.54752880324882
 30
0.0
 11
365.1237861392009
 21
-80.80363994826836
 31
0.0
  0
LINE
  5
436
  8
0
  6
CONTINUOUS
 62
     3
 10
364.4057729242558
 20
-74.53556015699029
 30
0.0
 11
362.2301246401775
 21
-75.79167130200982
 31
0.0
  0
LINE
  5
437
  8
0
  6
CONTINUOUS
 62
     3
 10
352.3097516357775
 20
-80.09685874092257
 30
0.0
 11
360.882729335073
 21
-74.94569408927633
 31
0.0
  0
LINE
  5
438
  8
0
  6
CONTINUOUS
 62
     3
 10
356.4351993224122
 20
-87.24234418935815
 30
0.0
 11
365.1827277734514
 21
-82.39351020533296
 31
0.0
  0
LINE
  5
439
  8
0
  6
CONTINUOUS
 62
     3
 10
425.8758073796195
 20
-45.67805075762986
 30
0.0
 11
431.5758195866508
 21
-45.67805075762986
 31
0.0
  0
LINE
  5
43A
  8
0
  6
CONTINUOUS
 62
     3
 10
423.025819506349
 20
-40.74168640304048
 30
0.0
 11
425.8758179804701
 21
-45.67802847311337
 31
0.0
  0
LINE
  5
43B
  8
0
  6
CONTINUOUS
 62
     3
 10
425.8758060808923
 20
-35.80531610361361
 30
0.0
 11
423.025799727034
 21
-40.74166727179612
 31
0.0
  0
LINE
  5
43C
  8
0
  6
CONTINUOUS
 62
     3
 10
431.5758195866508
 20
-35.80542731402635
 30
0.0
 11
425.8758226384086
 21
-35.80542731402635
 31
0.0
  0
LINE
  5
43D
  8
0
  6
CONTINUOUS
 62
     3
 10
434.4258233000412
 20
-40.74168051168759
 30
0.0
 11
431.5758248259201
 21
-35.80533844161469
 31
0.0
  0
LINE
  5
43E
  8
0
  6
CONTINUOUS
 62
     3
 10
431.5757905085112
 20
-45.67802545458859
 30
0.0
 11
434.4257902820127
 21
-40.74168416724654
 31
0.0
  0
LINE
  5
43F
  8
0
  6
CONTINUOUS
 62
     3
 10
563.4636411837179
 20
28.54034817841252
 30
0.0
 11
560.6136350802024
 21
33.47670346298413
 31
0.0
  0
LINE
  5
440
  8
0
  6
CONTINUOUS
 62
     3
 10
560.6136114216067
 20
23.60400411557943
 30
0.0
 11
563.4636098957278
 21
28.54034618565233
 31
0.0
  0
LINE
  5
441
  8
0
  6
CONTINUOUS
 62
     3
 10
554.9136110295219
 20
23.60398125530959
 30
0.0
 11
560.6136079777641
 21
23.60398125530959
 31
0.0
  0
LINE
  5
442
  8
0
  6
CONTINUOUS
 62
     3
 10
552.0636958331249
 20
28.54039364853101
 30
0.0
 11
554.913694307246
 21
23.60405157845811
 31
0.0
  0
LINE
  5
443
  8
0
  6
CONTINUOUS
 62
     3
 10
554.9136045761567
 20
33.47669414707811
 30
0.0
 11
552.0636061020357
 21
28.54035207700521
 31
0.0
  0
LINE
  5
444
  8
0
  6
CONTINUOUS
 62
     3
 10
560.6136232365531
 20
33.47666954876662
 30
0.0
 11
554.9136262883109
 21
33.47666954876662
 31
0.0
  0
ARC
  5
445
  8
0
  6
CONTINUOUS
 62
     3
 10
473.2447191227836
 20
31.14933800579787
 30
0.0
 40
107.5
 50
0.0
 51
80.63108666148504
  0
CIRCLE
  5
446
  8
0
  6
CONTINUOUS
 62
     3
 10
490.5014558781547
 20
-33.25375342486619
 30
0.0
 40
7.0
  0
CIRCLE
  5
447
  8
0
  6
CONTINUOUS
 62
     3
 10
537.6477876652641
 20
48.40611290814162
 30
0.0
 40
7.0
  0
CIRCLE
  5
448
  8
0
  6
CONTINUOUS
 62
     3
 10
520.3910432804984
 20
78.29570031048537
 30
0.0
 40
7.0
  0
CIRCLE
  5
449
  8
0
  6
CONTINUOUS
 62
     3
 10
426.0983568180961
 20
78.29570031048537
 30
0.0
 40
7.0
  0
CIRCLE
  5
44A
  8
0
  6
CONTINUOUS
 62
     3
 10
408.8415819157523
 20
48.40611290814162
 30
0.0
 40
7.0
  0
CIRCLE
  5
44B
  8
0
  6
CONTINUOUS
 62
     3
 10
490.5014558781547
 20
-33.25375342486619
 30
0.0
 40
10.0
  0
CIRCLE
  5
44C
  8
0
  6
CONTINUOUS
 62
     3
 10
455.9879442204398
 20
-33.25375342486619
 30
0.0
 40
10.0
  0
CIRCLE
  5
44D
  8
0
  6
CONTINUOUS
 62
     3
 10
473.2447191227836
 20
-13.85064673541307
 30
0.0
 40
3.0
  0
ARC
  5
44E
  8
0
  6
CONTINUOUS
 62
     3
 10
473.2447191227836
 20
31.14933800579787
 30
0.0
 40
105.5
 50
99.54819032261662
 51
200.4517770445089
  0
ARC
  5
44F
  8
0
  6
CONTINUOUS
 62
     3
 10
473.2447191227836
 20
31.14933800579787
 30
0.0
 40
107.5
 50
219.3688911782953
 51
320.63109015237
  0
ARC
  5
450
  8
0
  6
CONTINUOUS
 62
     3
 10
473.2447191227836
 20
31.14933800579787
 30
0.0
 40
105.5
 50
219.5481563232515
 51
320.4518284225084
  0
ARC
  5
451
  8
0
  6
CONTINUOUS
 62
     3
 10
473.2447191227836
 20
31.14933800579787
 30
0.0
 40
107.5
 50
99.36893200784964
 51
200.631042189465
  0
ARC
  5
452
  8
0
  6
CONTINUOUS
 62
     3
 10
473.2447191227836
 20
31.14933800579787
 30
0.0
 40
107.5
 50
339.3689201308089
 51
360.0
  0
ARC
  5
453
  8
0
  6
CONTINUOUS
 62
     3
 10
473.2447191227836
 20
31.14933800579787
 30
0.0
 40
40.0
 50
115.9444965573391
 51
184.0554844701647
  0
ARC
  5
454
  8
0
  6
CONTINUOUS
 62
     3
 10
473.2447191227836
 20
31.14933800579787
 30
0.0
 40
40.0
 50
235.944462557974
 51
304.0555290179751
  0
ARC
  5
455
  8
0
  6
CONTINUOUS
 62
     3
 10
473.2447191227836
 20
31.14933800579787
 30
0.0
 40
40.0
 50
355.9444915104876
 51
424.0555221119956
  0
CIRCLE
  5
456
  8
0
  6
CONTINUOUS
 62
     3
 10
473.2447191227836
 20
31.14933800579787
 30
0.0
 40
37.0
  0
ARC
  5
457
  8
0
  6
CONTINUOUS
 62
     3
 10
473.2447191227836
 20
31.14933800579787
 30
0.0
 40
42.5
 50
65.68426268185513
 51
114.3157559874795
  0
ARC
  5
458
  8
0
  6
CONTINUOUS
 62
     3
 10
473.2447191227836
 20
31.14933800579787
 30
0.0
 40
42.5
 50
305.6842730029293
 51
354.3157505137412
  0
CIRCLE
  5
459
  8
0
  6
CONTINUOUS
 62
     3
 10
473.2447191227836
 20
31.14933800579787
 30
0.0
 40
32.5
  0
CIRCLE
  5
45A
  8
0
  6
CONTINUOUS
 62
     3
 10
500.2447114933891
 20
31.14933800579787
 30
0.0
 40
2.650000095367432
  0
CIRCLE
  5
45B
  8
0
  6
CONTINUOUS
 62
     3
 10
446.2446886052055
 20
31.14933800579787
 30
0.0
 40
2.650000095367432
  0
ARC
  5
45C
  8
0
  6
CONTINUOUS
 62
     3
 10
473.2447191227836
 20
31.14933800579787
 30
0.0
 40
42.5
 50
185.6842013617333
 51
234.3157219881144
  0
CIRCLE
  5
45D
  8
0
  6
CONTINUOUS
 62
     3
 10
426.0983568180961
 20
78.29570031048537
 30
0.0
 40
10.0
  0
CIRCLE
  5
45E
  8
0
  6
CONTINUOUS
 62
     3
 10
408.8415819157523
 20
48.40611290814162
 30
0.0
 40
10.0
  0
CIRCLE
  5
45F
  8
0
  6
CONTINUOUS
 62
     3
 10
520.3910432804984
 20
78.29570031048537
 30
0.0
 40
10.0
  0
CIRCLE
  5
460
  8
0
  6
CONTINUOUS
 62
     3
 10
537.6477876652641
 20
48.40611290814162
 30
0.0
 40
10.0
  0
CIRCLE
  5
461
  8
0
  6
CONTINUOUS
 62
     3
 10
512.2158418644829
 20
53.64935326458694
 30
0.0
 40
3.0
  0
CIRCLE
  5
462
  8
0
  6
CONTINUOUS
 62
     3
 10
434.2735734929008
 20
53.64935326458694
 30
0.0
 40
3.0
  0
ARC
  5
463
  8
0
  6
CONTINUOUS
 62
     3
 10
473.2447191227836
 20
31.14933800579787
 30
0.0
 40
105.5
 50
339.5481955210489
 51
440.4518283467181
  0
CIRCLE
  5
464
  8
0
  6
CONTINUOUS
 62
     3
 10
433.2447191227836
 20
105.6493380057979
 30
0.0
 40
9.0
  0
CIRCLE
  5
465
  8
0
  6
CONTINUOUS
 62
     3
 10
433.2447191227836
 20
105.6493380057979
 30
0.0
 40
0.75
  0
CIRCLE
  5
466
  8
0
  6
CONTINUOUS
 62
     3
 10
433.2447191227836
 20
105.6493380057979
 30
0.0
 40
3.299999952316284
  0
CIRCLE
  5
467
  8
0
  6
CONTINUOUS
 62
     3
 10
433.2447191227836
 20
105.6493380057979
 30
0.0
 40
2.400000095367432
  0
ARC
  5
468
  8
0
  6
CONTINUOUS
 62
     3
 10
371.0867706288261
 20
-74.01960730670213
 30
0.0
 40
3.299999952316284
 50
283.4828250680728
 51
299.9999846699694
  0
ARC
  5
469
  8
0
  6
CONTINUOUS
 62
     3
 10
371.0867706288261
 20
-74.01960730670213
 30
0.0
 40
3.299999952316284
 50
120.0000169996826
 51
136.5171766015794
  0
ARC
  5
46A
  8
0
  6
CONTINUOUS
 62
     3
 10
366.9897857655448
 20
-81.52342200396775
 30
0.0
 40
2.0
 50
210.0000026560591
 51
248.6821916241575
  0
ARC
  5
46B
  8
0
  6
CONTINUOUS
 62
     3
 10
362.5397811879081
 20
-73.81579566119432
 30
0.0
 40
2.0
 50
210.000002656059
 51
261.0931644404477
  0
ARC
  5
46C
  8
0
  6
CONTINUOUS
 62
     3
 10
368.2288833607597
 20
-75.66960883258103
 30
0.0
 40
6.0
 50
210.0000026560589
 51
238.8342336335363
  0
ARC
  5
46D
  8
0
  6
CONTINUOUS
 62
     3
 10
361.3006835926933
 20
-79.66960883258103
 30
0.0
 40
6.0
 50
1.16577401949511
 51
58.83421132173599
  0
ARC
  5
46E
  8
0
  6
CONTINUOUS
 62
     3
 10
368.2288833607597
 20
-75.66960883258103
 30
0.0
 40
6.0
 50
181.1657580182032
 51
210.0000026560589
  0
ARC
  5
46F
  8
0
  6
CONTINUOUS
 62
     3
 10
366.9897857655448
 20
-81.52342200396775
 30
0.0
 40
2.0
 50
158.9068372292046
 51
209.9999990135933
  0
ARC
  5
470
  8
0
  6
CONTINUOUS
 62
     3
 10
366.9897857655448
 20
-81.52342200396775
 30
0.0
 40
2.0
 50
351.3178297959738
 51
441.0931148078906
  0
ARC
  5
471
  8
0
  6
CONTINUOUS
 62
     3
 10
362.5397811879081
 20
-73.81579566119432
 30
0.0
 40
2.0
 50
338.9068561259102
 51
428.6821556519788
  0
ARC
  5
472
  8
0
  6
CONTINUOUS
 62
     3
 10
362.5397811879081
 20
-73.81579566119432
 30
0.0
 40
2.0
 50
171.3178100454947
 51
209.9999990135933
  0
ARC
  5
473
  8
0
  6
CONTINUOUS
 62
     3
 10
374.3321863163871
 20
-82.30722785113572
 30
0.0
 40
5.650000095367432
 50
115.9910921078569
 51
165.0592530674986
  0
ARC
  5
474
  8
0
  6
CONTINUOUS
 62
     3
 10
365.532182310955
 20
-67.06518530963182
 30
0.0
 40
5.650000095367432
 50
254.9407486021534
 51
304.0089061467006
  0
ARC
  5
475
  8
0
  6
CONTINUOUS
 62
     3
 10
372.818818663494
 20
-73.01960730670213
 30
0.0
 40
1.5
 50
327.8181532914213
 51
452.1818449631361
  0
CIRCLE
  5
476
  8
0
  6
CONTINUOUS
 62
     3
 10
428.7258287419242
 20
-40.74167990802049
 30
0.0
 40
9.0
  0
CIRCLE
  5
477
  8
0
  6
CONTINUOUS
 62
     3
 10
428.7258287419242
 20
-40.74167990802049
 30
0.0
 40
0.75
  0
CIRCLE
  5
478
  8
0
  6
CONTINUOUS
 62
     3
 10
428.7258287419242
 20
-40.74167990802049
 30
0.0
 40
3.299999952316284
  0
CIRCLE
  5
479
  8
0
  6
CONTINUOUS
 62
     3
 10
428.7258287419242
 20
-40.74167990802049
 30
0.0
 40
2.400000095367432
  0
CIRCLE
  5
47A
  8
0
  6
CONTINUOUS
 62
     3
 10
557.7636171330375
 20
28.5403540122676
 30
0.0
 40
9.0
  0
CIRCLE
  5
47B
  8
0
  6
CONTINUOUS
 62
     3
 10
557.7636171330375
 20
28.5403540122676
 30
0.0
 40
0.75
  0
CIRCLE
  5
47C
  8
0
  6
CONTINUOUS
 62
     3
 10
557.7636171330375
 20
28.5403540122676
 30
0.0
 40
3.299999952316284
  0
CIRCLE
  5
47D
  8
0
  6
CONTINUOUS
 62
     3
 10
557.7636171330375
 20
28.5403540122676
 30
0.0
 40
2.400000095367432
  0
CIRCLE
  5
47E
  8
0
  6
CONTINUOUS
 62
     3
 10
473.2447191227836
 20
31.14933800579787
 30
0.0
 40
24.0
  0
CIRCLE
  5
47F
  8
0
  6
CONTINUOUS
 62
     3
 10
473.2447191227836
 20
58.14934182049514
 30
0.0
 40
2.0
  0
CIRCLE
  5
480
  8
0
  6
CONTINUOUS
 62
     3
 10
449.8620286930961
 20
17.64933609844924
 30
0.0
 40
2.0
  0
CIRCLE
  5
481
  8
0
  6
CONTINUOUS
 62
     3
 10
496.6274019230766
 20
17.64933609844924
 30
0.0
 40
2.0
  0
LINE
  5
482
  8
0
  6
CONTINUOUS
 62
     3
 10
166.5116581101307
 20
138.6493280046358
 30
0.0
 11
166.5116581101307
 21
-28.52566360303023
 31
0.0
  0
LINE
  5
483
  8
0
  6
CONTINUOUS
 62
     3
 10
257.0116581101307
 20
77.34932495287798
 30
0.0
 11
257.0116581101307
 21
-74.35066436596968
 31
0.0
  0
LINE
  5
484
  8
0
  6
CONTINUOUS
 62
     3
 10
166.5116581101307
 20
138.6493280046358
 30
0.0
 11
189.0116581101307
 21
138.6493280046358
 31
0.0
  0
LINE
  5
485
  8
0
  6
CONTINUOUS
 62
     3
 10
166.5116581101307
 20
-76.35067199536421
 30
0.0
 11
255.0116733689197
 21
-76.35067199536421
 31
0.0
  0
LINE
  5
486
  8
0
  6
CONTINUOUS
 62
     3
 10
170.7116550583729
 20
126.1493280046358
 30
0.0
 11
170.7116550583729
 21
-29.52566360303023
 31
0.0
  0
LINE
  5
487
  8
0
  6
CONTINUOUS
 62
     3
 10
166.5116581101307
 20
-63.85067199536421
 30
0.0
 11
170.7116550583729
 21
-63.85067199536421
 31
0.0
  0
LINE
  5
488
  8
0
  6
CONTINUOUS
 62
     3
 10
166.5116581101307
 20
126.1493280046358
 30
0.0
 11
170.7116550583729
 21
126.1493280046358
 31
0.0
  0
LINE
  5
489
  8
0
  6
CONTINUOUS
 62
     3
 10
170.7116550583729
 20
-5.850656736575147
 30
0.0
 11
202.6285404343494
 21
-5.850656736575147
 31
0.0
  0
LINE
  5
48A
  8
0
  6
CONTINUOUS
 62
     3
 10
254.5116581101307
 20
-8.850656736575147
 30
0.0
 11
257.0116581101307
 21
-8.850656736575147
 31
0.0
  0
LINE
  5
48B
  8
0
  6
CONTINUOUS
 62
     3
 10
254.5116581101307
 20
67.11807800463579
 30
0.0
 11
254.5116581101307
 21
-8.850660551272412
 31
0.0
  0
LINE
  5
48C
  8
0
  6
CONTINUOUS
 62
     3
 10
255.0116782499859
 20
-76.35066813784702
 30
0.0
 11
257.0116641887753
 21
-74.35068219905757
 31
0.0
  0
LINE
  5
48D
  8
0
  6
CONTINUOUS
 62
     3
 10
257.0116331686954
 20
136.6493381427586
 30
0.0
 11
256.0116321071059
 21
137.6493392043481
 31
0.0
  0
LINE
  5
48E
  8
0
  6
CONTINUOUS
 62
     3
 10
189.0116581101307
 20
138.6493280046358
 30
0.0
 11
189.0116581101307
 21
108.832838774804
 31
0.0
  0
LINE
  5
48F
  8
0
  6
CONTINUOUS
 62
     3
 10
223.0116581101307
 20
86.14933563403032
 30
0.0
 11
223.0116581101307
 21
68.14934326342485
 31
0.0
  0
LINE
  5
490
  8
0
  6
CONTINUOUS
 62
     3
 10
215.5116581101307
 20
80.14934326342485
 30
0.0
 11
215.5116581101307
 21
68.14934326342485
 31
0.0
  0
LINE
  5
491
  8
0
  6
CONTINUOUS
 62
     3
 10
215.5116581101307
 20
-17.85065673657515
 30
0.0
 11
223.0116581101307
 21
-17.85065673657515
 31
0.0
  0
LINE
  5
492
  8
0
  6
CONTINUOUS
 62
     3
 10
215.5116581101307
 20
80.14932800463579
 30
0.0
 11
223.0116581101307
 21
80.14932800463579
 31
0.0
  0
LINE
  5
493
  8
0
  6
CONTINUOUS
 62
     3
 10
215.5116581101307
 20
-5.850660551272412
 30
0.0
 11
215.5116581101307
 21
-17.85066055127241
 31
0.0
  0
LINE
  5
494
  8
0
  6
CONTINUOUS
 62
     3
 10
223.0116581101307
 20
-5.850660551272412
 30
0.0
 11
223.0116581101307
 21
-17.85066055127241
 31
0.0
  0
LINE
  5
495
  8
0
  6
CONTINUOUS
 62
     3
 10
237.0116581101307
 20
-10.85066055127241
 30
0.0
 11
237.0116581101307
 21
-16.85066055127241
 31
0.0
  0
LINE
  5
496
  8
0
  6
CONTINUOUS
 62
     3
 10
237.0116581101307
 20
-10.85065673657515
 30
0.0
 11
257.0116581101307
 21
-10.85065673657515
 31
0.0
  0
LINE
  5
497
  8
0
  6
CONTINUOUS
 62
     3
 10
237.0116581101307
 20
-16.85065673657515
 30
0.0
 11
257.0116581101307
 21
-16.85065673657515
 31
0.0
  0
LINE
  5
498
  8
0
  6
CONTINUOUS
 62
     3
 10
235.2795915145367
 20
-13.85067141529031
 30
0.0
 11
237.0116473850763
 21
-10.85066305744145
 31
0.0
  0
LINE
  5
499
  8
0
  6
CONTINUOUS
 62
     3
 10
235.2795943312477
 20
-13.85065945454777
 30
0.0
 11
237.0116425723919
 21
-16.8506545978979
 31
0.0
  0
LINE
  5
49A
  8
0
  6
CONTINUOUS
 62
     3
 10
189.0116581101307
 20
138.6493280046358
 30
0.0
 11
256.0116581101307
 21
138.6493280046358
 31
0.0
  0
LINE
  5
49B
  8
0
  6
CONTINUOUS
 62
     3
 10
242.5116581101307
 20
63.74918152026079
 30
0.0
 11
242.5116581101307
 21
55.90312744311235
 31
0.0
  0
LINE
  5
49C
  8
0
  6
CONTINUOUS
 62
     3
 10
254.5116581101307
 20
67.11807800463579
 30
0.0
 11
257.0116581101307
 21
67.11807800463579
 31
0.0
  0
LINE
  5
49D
  8
0
  6
CONTINUOUS
 62
     3
 10
233.8282169480213
 20
55.90311218432329
 30
0.0
 11
242.5116581101307
 21
55.90311218432329
 31
0.0
  0
LINE
  5
49E
  8
0
  6
CONTINUOUS
 62
     3
 10
242.5116581101307
 20
63.74918152026079
 30
0.0
 11
254.5116581101307
 21
63.74918152026079
 31
0.0
  0
LINE
  5
49F
  8
0
  6
CONTINUOUS
 62
     3
 10
154.0116581101307
 20
-29.52566360303023
 30
0.0
 11
154.0116581101307
 21
-41.52566360303023
 31
0.0
  0
LINE
  5
4A0
  8
0
  6
CONTINUOUS
 62
     3
 10
170.7116550583729
 20
-42.52565978833296
 30
0.0
 11
222.4071366164123
 21
-42.52565978833296
 31
0.0
  0
LINE
  5
4A1
  8
0
  6
CONTINUOUS
 62
     3
 10
170.7116550583729
 20
-28.52565978833296
 30
0.0
 11
222.8293249333034
 21
-28.52565978833296
 31
0.0
  0
LINE
  5
4A2
  8
0
  6
CONTINUOUS
 62
     3
 10
154.0116581101307
 20
-41.52565978833296
 30
0.0
 11
222.925943726199
 21
-41.52565978833296
 31
0.0
  0
LINE
  5
4A3
  8
0
  6
CONTINUOUS
 62
     3
 10
154.0116581101307
 20
-29.52565978833296
 30
0.0
 11
222.4606479782947
 21
-29.52565978833296
 31
0.0
  0
LINE
  5
4A4
  8
0
  6
CONTINUOUS
 62
     3
 10
170.7116550583729
 20
-41.52566360303023
 30
0.0
 11
170.7116550583729
 21
-63.85066436596968
 31
0.0
  0
LINE
  5
4A5
  8
0
  6
CONTINUOUS
 62
     3
 10
166.5116581101307
 20
-42.52566360303023
 30
0.0
 11
166.5116581101307
 21
-76.35066436596968
 31
0.0
  0
LINE
  5
4A6
  8
0
  6
CONTINUOUS
 62
     3
 10
215.1116642136463
 20
91.4663027279494
 30
0.0
 11
215.1116642136463
 21
80.14934326342485
 31
0.0
  0
LINE
  5
4A7
  8
0
  6
CONTINUOUS
 62
     3
 10
215.1116642136463
 20
86.14932800463579
 30
0.0
 11
223.0116581101307
 21
86.14932800463579
 31
0.0
  0
LINE
  5
4A8
  8
0
  6
CONTINUOUS
 62
     3
 10
248.0116581101307
 20
138.6493280046358
 30
0.0
 11
248.0116581101307
 21
128.6493280046358
 31
0.0
  0
LINE
  5
4A9
  8
0
  6
CONTINUOUS
 62
     3
 10
241.0116581101307
 20
138.6493280046358
 30
0.0
 11
241.0116581101307
 21
72.45612121752642
 31
0.0
  0
LINE
  5
4AA
  8
0
  6
CONTINUOUS
 62
     3
 10
243.7116550583729
 20
75.64933563403032
 30
0.0
 11
243.7116550583729
 21
65.64933563403032
 31
0.0
  0
LINE
  5
4AB
  8
0
  6
CONTINUOUS
 62
     3
 10
243.7116550583729
 20
75.64932800463579
 30
0.0
 11
256.0116581101307
 21
75.64932800463579
 31
0.0
  0
LINE
  5
4AC
  8
0
  6
CONTINUOUS
 62
     3
 10
233.8991245407947
 20
65.64932800463579
 30
0.0
 11
243.7116550583729
 21
65.64932800463579
 31
0.0
  0
LINE
  5
4AD
  8
0
  6
CONTINUOUS
 62
     3
 10
223.0116581101307
 20
73.64932800463579
 30
0.0
 11
241.0116581101307
 21
73.64932800463579
 31
0.0
  0
LINE
  5
4AE
  8
0
  6
CONTINUOUS
 62
     3
 10
241.0116581101307
 20
72.45612121752642
 30
0.0
 11
243.7116550583729
 21
72.45612121752642
 31
0.0
  0
LINE
  5
4AF
  8
0
  6
CONTINUOUS
 62
     3
 10
242.0116581101307
 20
128.6493280046358
 30
0.0
 11
257.0116581101307
 21
128.6493280046358
 31
0.0
  0
LINE
  5
4B0
  8
0
  6
CONTINUOUS
 62
     3
 10
242.0116581101307
 20
78.64932800463579
 30
0.0
 11
257.0116581101307
 21
78.64932800463579
 31
0.0
  0
LINE
  5
4B1
  8
0
  6
CONTINUOUS
 62
     3
 10
242.0116581101307
 20
128.6493280046358
 30
0.0
 11
242.0116581101307
 21
78.64932800463579
 31
0.0
  0
LINE
  5
4B2
  8
0
  6
CONTINUOUS
 62
     3
 10
257.0116581101307
 20
136.6493280046358
 30
0.0
 11
257.0116581101307
 21
129.9659936540498
 31
0.0
  0
LINE
  5
4B3
  8
0
  6
CONTINUOUS
 62
     3
 10
257.0116581101307
 20
113.6493356340303
 30
0.0
 11
257.0116581101307
 21
93.64932800463579
 31
0.0
  0
LINE
  5
4B4
  8
0
  6
CONTINUOUS
 62
     3
 10
257.0116581101307
 20
83.64933563403032
 30
0.0
 11
257.0116581101307
 21
78.64933563403032
 31
0.0
  0
LINE
  5
4B5
  8
0
  6
CONTINUOUS
 62
     3
 10
248.0116581101307
 20
78.64933563403032
 30
0.0
 11
248.0116581101307
 21
75.64933563403032
 31
0.0
  0
LINE
  5
4B6
  8
0
  6
CONTINUOUS
 62
     3
 10
257.0116581101307
 20
128.6493280046358
 30
0.0
 11
257.0116581101307
 21
123.6493280046358
 31
0.0
  0
LINE
  5
4B7
  8
0
  6
CONTINUOUS
 62
     3
 10
265.0116581101307
 20
126.6493280046358
 30
0.0
 11
265.0116581101307
 21
110.6493356340303
 31
0.0
  0
LINE
  5
4B8
  8
0
  6
CONTINUOUS
 62
     3
 10
265.0116581101307
 20
96.64933563403032
 30
0.0
 11
265.0116581101307
 21
80.64933563403032
 31
0.0
  0
LINE
  5
4B9
  8
0
  6
CONTINUOUS
 62
     3
 10
245.0116581101307
 20
93.64933563403032
 30
0.0
 11
245.0116581101307
 21
83.64933563403032
 31
0.0
  0
LINE
  5
4BA
  8
0
  6
CONTINUOUS
 62
     3
 10
245.0116581101307
 20
123.6493280046358
 30
0.0
 11
245.0116581101307
 21
113.6493356340303
 31
0.0
  0
LINE
  5
4BB
  8
0
  6
CONTINUOUS
 62
     3
 10
242.0116581101307
 20
83.64932800463579
 30
0.0
 11
265.0116581101307
 21
83.64932800463579
 31
0.0
  0
LINE
  5
4BC
  8
0
  6
CONTINUOUS
 62
     3
 10
242.0116581101307
 20
93.64932800463579
 30
0.0
 11
265.0116581101307
 21
93.64932800463579
 31
0.0
  0
LINE
  5
4BD
  8
0
  6
CONTINUOUS
 62
     3
 10
242.0116581101307
 20
113.6493280046358
 30
0.0
 11
265.0116581101307
 21
113.6493280046358
 31
0.0
  0
LINE
  5
4BE
  8
0
  6
CONTINUOUS
 62
     3
 10
242.0116581101307
 20
123.6493280046358
 30
0.0
 11
265.0116581101307
 21
123.6493280046358
 31
0.0
  0
LINE
  5
4BF
  8
0
  6
CONTINUOUS
 62
     3
 10
180.1285404343494
 20
68.14932800463579
 30
0.0
 11
204.6285404343494
 21
68.14932800463579
 31
0.0
  0
LINE
  5
4C0
  8
0
  6
CONTINUOUS
 62
     3
 10
179.6285404343494
 20
67.64934326342485
 30
0.0
 11
179.6285404343494
 21
-5.350660551272412
 31
0.0
  0
LINE
  5
4C1
  8
0
  6
CONTINUOUS
 62
     3
 10
229.6285404343494
 20
67.64933563403032
 30
0.0
 11
229.6285404343494
 21
-5.350660551272412
 31
0.0
  0
LINE
  5
4C2
  8
0
  6
CONTINUOUS
 62
     3
 10
179.6285464988756
 20
67.64931209755254
 30
0.0
 11
180.1285470296703
 21
68.14931262834729
 31
0.0
  0
LINE
  5
4C3
  8
0
  6
CONTINUOUS
 62
     3
 10
229.1285290688493
 20
68.14934111373863
 30
0.0
 11
229.6285277030339
 21
67.64933864418676
 31
0.0
  0
LINE
  5
4C4
  8
0
  6
CONTINUOUS
 62
     3
 10
229.6285456303854
 20
-5.350679081736743
 30
0.0
 11
229.1285450995907
 21
-5.850679612531494
 31
0.0
  0
LINE
  5
4C5
  8
0
  6
CONTINUOUS
 62
     3
 10
179.6285720936017
 20
-5.350641469198635
 30
0.0
 11
180.1285910427419
 21
-5.850645160833992
 31
0.0
  0
LINE
  5
4C6
  8
0
  6
CONTINUOUS
 62
     3
 10
204.6285404343494
 20
68.14932800463579
 30
0.0
 11
229.1285404343494
 21
68.14932800463579
 31
0.0
  0
LINE
  5
4C7
  8
0
  6
CONTINUOUS
 62
     3
 10
180.6285404343494
 20
6.149328004635791
 30
0.0
 11
207.6285404343494
 21
6.149328004635791
 31
0.0
  0
LINE
  5
4C8
  8
0
  6
CONTINUOUS
 62
     3
 10
208.6285404343494
 20
-0.3506567365751465
 30
0.0
 11
210.6285404343494
 21
-0.3506567365751465
 31
0.0
  0
LINE
  5
4C9
  8
0
  6
CONTINUOUS
 62
     3
 10
208.6285404343494
 20
62.64932800463579
 30
0.0
 11
210.6285404343494
 21
62.64932800463579
 31
0.0
  0
LINE
  5
4CA
  8
0
  6
CONTINUOUS
 62
     3
 10
218.6285404343494
 20
64.14932800463579
 30
0.0
 11
220.6285404343494
 21
64.14932800463579
 31
0.0
  0
LINE
  5
4CB
  8
0
  6
CONTINUOUS
 62
     3
 10
218.6285404343494
 20
-1.850656736575147
 30
0.0
 11
220.6285404343494
 21
-1.850656736575147
 31
0.0
  0
LINE
  5
4CC
  8
0
  6
CONTINUOUS
 62
     3
 10
208.6285404343494
 20
62.64934326342485
 30
0.0
 11
208.6285404343494
 21
-0.3506605512724121
 31
0.0
  0
LINE
  5
4CD
  8
0
  6
CONTINUOUS
 62
     3
 10
218.6285404343494
 20
64.14934326342485
 30
0.0
 11
218.6285404343494
 21
26.6449048631563
 31
0.0
  0
LINE
  5
4CE
  8
0
  6
CONTINUOUS
 62
     3
 10
210.6285404343494
 20
62.64934326342485
 30
0.0
 11
210.6285404343494
 21
25.11958862475298
 31
0.0
  0
LINE
  5
4CF
  8
0
  6
CONTINUOUS
 62
     3
 10
220.6285404343494
 20
64.14934326342485
 30
0.0
 11
220.6285404343494
 21
-1.850660551272412
 31
0.0
  0
LINE
  5
4D0
  8
0
  6
CONTINUOUS
 62
     3
 10
180.6285404343494
 20
13.0990817659273
 30
0.0
 11
180.6285404343494
 21
6.149339448727588
 31
0.0
  0
LINE
  5
4D1
  8
0
  6
CONTINUOUS
 62
     3
 10
207.6285404343494
 20
12.91647697619341
 30
0.0
 11
207.6285404343494
 21
6.149339448727588
 31
0.0
  0
LINE
  5
4D2
  8
0
  6
CONTINUOUS
 62
     3
 10
207.6285610039486
 20
6.149328401622498
 30
0.0
 11
208.6285644257642
 21
5.14932970025906
 31
0.0
  0
LINE
  5
4D3
  8
0
  6
CONTINUOUS
 62
     3
 10
180.6285620326312
 20
6.149325014193565
 30
0.0
 11
179.6285652700249
 21
5.149319653620879
 31
0.0
  0
LINE
  5
4D4
  8
0
  6
CONTINUOUS
 62
     3
 10
220.6285404343494
 20
-1.350656736575147
 30
0.0
 11
229.6285404343494
 21
-1.350656736575147
 31
0.0
  0
LINE
  5
4D5
  8
0
  6
CONTINUOUS
 62
     3
 10
220.6285404343494
 20
63.64932800463579
 30
0.0
 11
229.6285404343494
 21
63.64932800463579
 31
0.0
  0
LINE
  5
4D6
  8
0
  6
CONTINUOUS
 62
     3
 10
202.6285404343494
 20
-5.850656736575147
 30
0.0
 11
254.5116581101307
 21
-5.850656736575147
 31
0.0
  0
LINE
  5
4D7
  8
0
  6
CONTINUOUS
 62
     3
 10
170.7116550583729
 20
68.14932800463579
 30
0.0
 11
180.1285470296703
 21
68.14932800463579
 31
0.0
  0
LINE
  5
4D8
  8
0
  6
CONTINUOUS
 62
     3
 10
218.6285404343494
 20
15.16647697619341
 30
0.0
 11
218.6285404343494
 21
-1.850660551272412
 31
0.0
  0
LINE
  5
4D9
  8
0
  6
CONTINUOUS
 62
     3
 10
210.6285404343494
 20
14.98387314013384
 30
0.0
 11
210.6285404343494
 21
-0.3506605512724121
 31
0.0
  0
LINE
  5
4DA
  8
0
  6
CONTINUOUS
 62
     3
 10
210.6285404343494
 20
62.39932800463579
 30
0.0
 11
218.6285404343494
 21
62.39932800463579
 31
0.0
  0
LINE
  5
4DB
  8
0
  6
CONTINUOUS
 62
     3
 10
210.6285404343494
 20
-0.1006567365751465
 30
0.0
 11
218.6285404343494
 21
-0.1006567365751465
 31
0.0
  0
LINE
  5
4DC
  8
0
  6
CONTINUOUS
 62
     3
 10
180.6285700023778
 20
56.14932418705543
 30
0.0
 11
179.6285732397715
 21
57.14932954762811
 31
0.0
  0
LINE
  5
4DD
  8
0
  6
CONTINUOUS
 62
     3
 10
207.6285583980071
 20
56.14932619371042
 30
0.0
 11
208.6285618198227
 21
57.14932489507386
 31
0.0
  0
LINE
  5
4DE
  8
0
  6
CONTINUOUS
 62
     3
 10
207.6285404343494
 20
49.38217712572954
 30
0.0
 11
207.6285404343494
 21
56.14931656054399
 31
0.0
  0
LINE
  5
4DF
  8
0
  6
CONTINUOUS
 62
     3
 10
180.6285404343494
 20
49.1995751970186
 30
0.0
 11
180.6285404343494
 21
56.14931656054399
 31
0.0
  0
LINE
  5
4E0
  8
0
  6
CONTINUOUS
 62
     3
 10
180.6285404343494
 20
56.14932800463579
 30
0.0
 11
207.6285404343494
 21
56.14932800463579
 31
0.0
  0
LINE
  5
4E1
  8
0
  6
CONTINUOUS
 62
     3
 10
220.6285404343494
 20
7.149328004635791
 30
0.0
 11
229.6285404343494
 21
7.149328004635791
 31
0.0
  0
LINE
  5
4E2
  8
0
  6
CONTINUOUS
 62
     3
 10
220.6285404343494
 20
55.14932800463579
 30
0.0
 11
229.6285404343494
 21
55.14932800463579
 31
0.0
  0
LINE
  5
4E3
  8
0
  6
CONTINUOUS
 62
     3
 10
220.6285404343494
 20
55.14933181933306
 30
0.0
 11
229.6285404343494
 21
55.14933181933306
 31
0.0
  0
LINE
  5
4E4
  8
0
  6
CONTINUOUS
 62
     3
 10
220.6285404343494
 20
56.14933181933306
 30
0.0
 11
228.6285404343494
 21
56.14933181933306
 31
0.0
  0
LINE
  5
4E5
  8
0
  6
CONTINUOUS
 62
     3
 10
220.6285404343494
 20
60.14933181933306
 30
0.0
 11
228.6285404343494
 21
60.14933181933306
 31
0.0
  0
LINE
  5
4E6
  8
0
  6
CONTINUOUS
 62
     3
 10
224.6285404343494
 20
60.14933181933306
 30
0.0
 11
224.6285404343494
 21
56.14933181933306
 31
0.0
  0
LINE
  5
4E7
  8
0
  6
CONTINUOUS
 62
     3
 10
228.6285404343494
 20
60.14933181933306
 30
0.0
 11
228.6285404343494
 21
56.14933181933306
 31
0.0
  0
LINE
  5
4E8
  8
0
  6
CONTINUOUS
 62
     3
 10
228.6285404343494
 20
59.64933181933306
 30
0.0
 11
229.6285404343494
 21
59.64933181933306
 31
0.0
  0
LINE
  5
4E9
  8
0
  6
CONTINUOUS
 62
     3
 10
228.6285404343494
 20
56.64933181933306
 30
0.0
 11
229.6285404343494
 21
56.64933181933306
 31
0.0
  0
LINE
  5
4EA
  8
0
  6
CONTINUOUS
 62
     3
 10
224.6285484146327
 20
59.39932761602348
 30
0.0
 11
225.3785492108248
 21
60.14932841221561
 31
0.0
  0
LINE
  5
4EB
  8
0
  6
CONTINUOUS
 62
     3
 10
224.6285430198362
 20
56.89933035684625
 30
0.0
 11
225.3785384212318
 21
56.14933495545064
 31
0.0
  0
LINE
  5
4EC
  8
0
  6
CONTINUOUS
 62
     3
 10
225.3785404343494
 20
60.14933181933306
 30
0.0
 11
225.3785404343494
 21
56.14933181933306
 31
0.0
  0
LINE
  5
4ED
  8
0
  6
CONTINUOUS
 62
     3
 10
220.6285441682747
 20
59.14933274542263
 30
0.0
 11
221.6285425324659
 21
60.14933110961387
 31
0.0
  0
LINE
  5
4EE
  8
0
  6
CONTINUOUS
 62
     3
 10
220.6285441682747
 20
57.14933062224363
 30
0.0
 11
221.6285452298642
 21
56.14932956065412
 31
0.0
  0
LINE
  5
4EF
  8
0
  6
CONTINUOUS
 62
     3
 10
221.6285404343494
 20
60.14933181933306
 30
0.0
 11
221.6285404343494
 21
56.14933181933306
 31
0.0
  0
LINE
  5
4F0
  8
0
  6
CONTINUOUS
 62
     3
 10
275.0116581101307
 20
126.6493280046358
 30
0.0
 11
275.0116581101307
 21
110.6493356340303
 31
0.0
  0
LINE
  5
4F1
  8
0
  6
CONTINUOUS
 62
     3
 10
275.0116581101307
 20
96.64933563403032
 30
0.0
 11
275.0116581101307
 21
80.64933563403032
 31
0.0
  0
LINE
  5
4F2
  8
0
  6
CONTINUOUS
 62
     3
 10
265.0116581101307
 20
110.6493280046358
 30
0.0
 11
275.0116581101307
 21
110.6493280046358
 31
0.0
  0
LINE
  5
4F3
  8
0
  6
CONTINUOUS
 62
     3
 10
265.0116581101307
 20
126.6493280046358
 30
0.0
 11
275.0116581101307
 21
126.6493280046358
 31
0.0
  0
LINE
  5
4F4
  8
0
  6
CONTINUOUS
 62
     3
 10
265.0116581101307
 20
80.64932800463579
 30
0.0
 11
275.0116581101307
 21
80.64932800463579
 31
0.0
  0
LINE
  5
4F5
  8
0
  6
CONTINUOUS
 62
     3
 10
265.0116581101307
 20
96.64932800463579
 30
0.0
 11
275.0116581101307
 21
96.64932800463579
 31
0.0
  0
LINE
  5
4F6
  8
0
  6
CENTER
 62
     7
 10
359.4654985417289
 20
31.14933800579787
 30
0.0
 11
586.7447114933891
 21
31.14933800579787
 31
0.0
  0
LINE
  5
4F7
  8
0
  6
CENTER
 62
     7
 10
374.9508037715224
 20
-25.60066318877827
 30
0.0
 11
473.2446827072987
 21
31.14932800463579
 31
0.0
  0
LINE
  5
4F8
  8
0
  6
CENTER
 62
     7
 10
428.2227695216424
 20
57.14281699988943
 30
0.0
 11
440.5874645035255
 21
50.00405781235556
 31
0.0
  0
LINE
  5
4F9
  8
0
  6
CENTER
 62
     7
 10
509.0773540646605
 20
66.98200642654469
 30
0.0
 11
531.704772582727
 21
89.60942303726246
 31
0.0
  0
LINE
  5
4FA
  8
0
  6
CENTER
 62
     7
 10
414.7846786588563
 20
89.60943812944187
 30
0.0
 11
437.4120978512723
 21
66.98202084437453
 31
0.0
  0
LINE
  5
4FB
  8
0
  6
CENTER
 62
     7
 10
452.1056452131596
 20
-47.74264204002621
 30
0.0
 11
459.8702167992462
 21
-18.76486996133524
 31
0.0
  0
LINE
  5
4FC
  8
0
  6
CENTER
 62
     7
 10
486.6191768540674
 20
-18.76483798190212
 30
0.0
 11
494.3837500445431
 21
-47.74261604825425
 31
0.0
  0
LINE
  5
4FD
  8
0
  6
CENTER
 62
     7
 10
522.192976098003
 20
44.26500642114513
 30
0.0
 11
553.1026021050831
 21
52.54721486383312
 31
0.0
  0
LINE
  5
4FE
  8
0
  6
CENTER
 62
     7
 10
393.3867723034235
 20
52.54719651096606
 30
0.0
 11
424.2964019952181
 21
44.26498708096189
 31
0.0
  0
LINE
  5
4FF
  8
0
  6
CENTER
 62
     7
 10
397.4654985417289
 20
105.6493380057979
 30
0.0
 11
448.1711565007133
 21
105.6493380057979
 31
0.0
  0
LINE
  5
500
  8
0
  6
CENTER
 62
     7
 10
391.2220865208929
 20
-1.783336517427401
 30
0.0
 11
403.4558268784992
 21
-22.97279347711388
 31
0.0
  0
LINE
  5
501
  8
0
  6
CENTER
 62
     7
 10
417.1344761133141
 20
13.33515016235732
 30
0.0
 11
429.6186504225884
 21
-8.288071066064376
 31
0.0
  0
LINE
  5
502
  8
0
  6
CENTER
 62
     7
 10
542.8689568789907
 20
-23.25791398993975
 30
0.0
 11
555.1943634691431
 21
-1.909686479921547
 31
0.0
  0
LINE
  5
503
  8
0
  6
CENTER
 62
     7
 10
516.9811500154107
 20
-8.096879298228814
 30
0.0
 11
529.4653281393828
 21
13.52634853744225
 31
0.0
  0
LINE
  5
504
  8
0
  6
CENTER
 62
     7
 10
446.2446886052055
 20
36.87323021771194
 30
0.0
 11
446.2446886052055
 21
25.14934944988967
 31
0.0
  0
LINE
  5
505
  8
0
  6
CENTER
 62
     7
 10
500.2447114933891
 20
36.67599892498733
 30
0.0
 11
500.2447114933891
 21
25.14934944988967
 31
0.0
  0
LINE
  5
506
  8
0
  6
CENTER
 62
     7
 10
461.1321702946586
 20
118.6493380057979
 30
0.0
 11
485.4655061711234
 21
118.6493380057979
 31
0.0
  0
LINE
  5
507
  8
0
  6
CENTER
 62
     7
 10
461.1321702946586
 20
88.64933800579787
 30
0.0
 11
485.4655061711234
 21
88.64933800579787
 31
0.0
  0
LINE
  5
508
  8
0
  6
CENTER
 62
     7
 10
473.2447712870471
 20
31.14935503298524
 30
0.0
 11
571.5385935450086
 21
-25.60060343748079
 31
0.0
  0
LINE
  5
509
  8
0
  6
CENTER
 62
     7
 10
506.5453671380006
 20
50.37548500075731
 30
0.0
 11
568.1711683839146
 21
85.95515400820148
 31
0.0
  0
LINE
  5
50A
  8
0
  6
CENTER
 62
     7
 10
433.2447191227836
 20
120.8845217216182
 30
0.0
 11
433.2447191227836
 21
91.99808525921584
 31
0.0
  0
LINE
  5
50B
  8
0
  6
CENTER
 62
     7
 10
350.9609227534219
 20
-85.63926927995395
 30
0.0
 11
381.2618430880411
 21
-68.14502670086596
 31
0.0
  0
LINE
  5
50C
  8
0
  6
CENTER
 62
     7
 10
435.2956980055616
 20
-52.12102806909284
 30
0.0
 11
421.262607414131
 21
-27.81500261376833
 31
0.0
  0
LINE
  5
50D
  8
0
  6
CENTER
 62
     7
 10
415.5317688144064
 20
-48.35927340792556
 30
0.0
 11
440.548156166652
 21
-33.91605517672439
 31
0.0
  0
LINE
  5
50E
  8
0
  6
CENTER
 62
     7
 10
564.326482861359
 20
39.90759689162282
 30
0.0
 11
550.3003827026676
 21
15.61367922075228
 31
0.0
  0
LINE
  5
50F
  8
0
  6
CENTER
 62
     7
 10
570.9576704985445
 20
20.92275345872135
 30
0.0
 11
545.9412765390495
 21
35.36597550461978
 31
0.0
  0
ARC
  5
510
  8
0
  6
CENTER
 62
     7
 10
473.2447191227836
 20
31.14933800579787
 30
0.0
 40
66.67500305175781
 50
1.217543118144124
 51
28.7824922945146
  0
ARC
  5
511
  8
0
  6
CENTER
 62
     7
 10
473.2447191227836
 20
31.14933800579787
 30
0.0
 40
45.0
 50
139.4828857203338
 51
159.8102663507221
  0
ARC
  5
512
  8
0
  6
CENTER
 62
     7
 10
473.2447191227836
 20
31.14933800579787
 30
0.0
 40
66.67500305175781
 50
121.2175528607507
 51
148.7824888036297
  0
ARC
  5
513
  8
0
  6
CENTER
 62
     7
 10
473.2447191227836
 20
31.14933800579787
 30
0.0
 40
66.67500305175781
 50
31.21754694117793
 51
58.7824862991515
  0
ARC
  5
514
  8
0
  6
CENTER
 62
     7
 10
473.2447191227836
 20
31.14933800579787
 30
0.0
 40
66.67500305175781
 50
151.2175332050092
 51
178.7824828082665
  0
ARC
  5
515
  8
0
  6
CENTER
 62
     7
 10
473.2447191227836
 20
31.14933800579787
 30
0.0
 40
66.67500305175781
 50
242.0826989235511
 51
267.9172542515315
  0
ARC
  5
516
  8
0
  6
CENTER
 62
     7
 10
473.2447191227836
 20
31.14933800579787
 30
0.0
 40
66.67500305175781
 50
272.0827270791338
 51
297.9172755769251
  0
ARC
  5
517
  8
0
  6
CENTER
 62
     7
 10
473.2447191227836
 20
31.14933800579787
 30
0.0
 40
45.0
 50
258.843122542927
 51
281.7887400784238
  0
ARC
  5
518
  8
0
  6
CENTER
 62
     7
 10
473.2447191227836
 20
31.14933800579787
 30
0.0
 40
45.0
 50
19.85369505861688
 51
40.20351798307053
  0
ARC
  5
519
  8
0
  6
CENTER
 62
     7
 10
473.2447191227836
 20
31.14933800579787
 30
0.0
 40
27.0
 50
76.14660301850812
 51
102.6533104325203
  0
ARC
  5
51A
  8
0
  6
CENTER
 62
     7
 10
473.2447191227836
 20
31.14933800579787
 30
0.0
 40
27.0
 50
196.1466031700888
 51
222.653310584101
  0
ARC
  5
51B
  8
0
  6
CENTER
 62
     7
 10
473.2447191227836
 20
31.14933800579787
 30
0.0
 40
27.0
 50
316.1465996792039
 51
342.6533088007635
  0
LINE
  5
51C
  8
0
  6
CENTER
 62
     7
 10
156.2697757859119
 20
31.14932800463579
 30
0.0
 11
261.968067556009
 21
31.14932800463579
 31
0.0
  0
LINE
  5
51D
  8
0
  6
CENTER
 62
     7
 10
230.7949985642322
 20
-13.85065673657515
 30
0.0
 11
263.0116581101307
 21
-13.85065673657515
 31
0.0
  0
LINE
  5
51E
  8
0
  6
CENTER
 62
     7
 10
147.1949924607166
 20
-35.52565978833296
 30
0.0
 11
229.0485386032947
 21
-35.52565978833296
 31
0.0
  0
LINE
  5
51F
  8
0
  6
CENTER
 62
     7
 10
218.9331058640369
 20
58.14932800463579
 30
0.0
 11
233.6615451950916
 21
58.14932800463579
 31
0.0
  0
LINE
  5
520
  8
0
  6
CENTER
 62
     7
 10
237.9324497361072
 20
118.6493280046358
 30
0.0
 11
280.5699848313221
 21
118.6493280046358
 31
0.0
  0
LINE
  5
521
  8
0
  6
CENTER
 62
     7
 10
237.1991275925525
 20
88.64932800463579
 30
0.0
 11
280.3866504807361
 21
88.64932800463579
 31
0.0
  0
LINE
  5
522
  8
0
  6
CENTER
 62
     7
 10
473.2447191227836
 20
144.6493380057979
 30
0.0
 11
473.2447191227836
 21
48.86227806133582
 31
0.0
  0
LINE
  5
523
  8
0
  6
CENTER
 62
     7
 10
473.2447191227836
 20
42.21742354840123
 30
0.0
 11
473.2447191227836
 21
-82.3506543648076
 31
0.0
  0
LINE
  5
524
  8
0
  6
CENTER
 62
     7
 10
213.7116550583729
 20
-52.45084082162202
 30
0.0
 11
213.7116550583729
 21
-79.36846786321041
 31
0.0
  0
LINE
  5
525
  8
0
  6
DASHED2
 62
     7
 10
415.2446886052055
 20
121.6603853690791
 30
0.0
 11
415.2446886052055
 21
94.6493456351924
 31
0.0
  0
LINE
  5
526
  8
0
  6
DASHED2
 62
     7
 10
386.5036989201469
 20
94.64933800579787
 30
0.0
 11
415.2446962346
 21
94.64933800579787
 31
0.0
  0
LINE
  5
527
  8
0
  6
DASHED2
 62
     7
 10
415.2307212334794
 20
109.999503163845
 30
0.0
 11
422.6829400450409
 21
109.8694242075842
 31
0.0
  0
LINE
  5
528
  8
0
  6
DASHED2
 62
     7
 10
415.2307341419044
 20
101.2992204107609
 30
0.0
 11
422.6680473868644
 21
101.4290391894028
 31
0.0
  0
LINE
  5
529
  8
0
  6
DASHED2
 62
     7
 10
403.2446886052055
 20
108.0493471610713
 30
0.0
 11
403.2446886052055
 21
103.2493441093135
 31
0.0
  0
LINE
  5
52A
  8
0
  6
DASHED2
 62
     7
 10
405.9447008122367
 20
108.9493486869502
 30
0.0
 11
405.9447008122367
 21
102.3493425834346
 31
0.0
  0
LINE
  5
52B
  8
0
  6
DASHED2
 62
     7
 10
411.6834474553031
 20
99.94935631634475
 30
0.0
 11
414.8059450138969
 21
99.94935631634475
 31
0.0
  0
LINE
  5
52C
  8
0
  6
DASHED2
 62
     7
 10
411.6834474553031
 20
111.3493502128291
 30
0.0
 11
414.8059450138969
 21
111.3493502128291
 31
0.0
  0
LINE
  5
52D
  8
0
  6
DASHED2
 62
     7
 10
405.9446476847465
 20
102.3492680261748
 30
0.0
 11
403.2446436497371
 21
103.2492692580859
 31
0.0
  0
LINE
  5
52E
  8
0
  6
DASHED2
 62
     7
 10
405.9447233554308
 20
108.9493143169663
 30
0.0
 11
403.2447193204213
 21
108.0493130850552
 31
0.0
  0
LINE
  5
52F
  8
0
  6
DASHED2
 62
     7
 10
406.9447008122367
 20
108.3946764457393
 30
0.0
 11
406.9447008122367
 21
102.8538668143916
 31
0.0
  0
LINE
  5
530
  8
0
  6
DASHED2
 62
     7
 10
411.2446886052055
 20
110.0993425834346
 30
0.0
 11
411.2446886052055
 21
101.1993486869502
 31
0.0
  0
LINE
  5
531
  8
0
  6
DASHED2
 62
     7
 10
411.9885850895805
 20
108.5430147636104
 30
0.0
 11
414.5008073796195
 21
108.5430147636104
 31
0.0
  0
LINE
  5
532
  8
0
  6
DASHED2
 62
     7
 10
411.9885850895805
 20
102.7556917655635
 30
0.0
 11
414.5008073796195
 21
102.7556917655635
 31
0.0
  0
LINE
  5
533
  8
0
  6
DASHED2
 62
     7
 10
415.2167666175364
 20
109.1996065548293
 30
0.0
 11
422.6689816149817
 21
109.0695276651441
 31
0.0
  0
LINE
  5
534
  8
0
  6
DASHED2
 62
     7
 10
415.2167871541941
 20
102.0991171529279
 30
0.0
 11
422.6541003991541
 21
102.2289359315698
 31
0.0
  0
LINE
  5
535
  8
0
  6
DASHED2
 62
     7
 10
415.2446962346
 20
113.6493380057979
 30
0.0
 11
427.4655061711234
 21
113.6493380057979
 31
0.0
  0
LINE
  5
536
  8
0
  6
DASHED2
 62
     7
 10
415.2446962346
 20
97.64933800579787
 30
0.0
 11
426.7988344181937
 21
97.64933800579787
 31
0.0
  0
ARC
  5
537
  8
0
  6
DASHED2
 62
     7
 10
405.9447008122367
 20
105.6493380057979
 30
0.0
 40
3.299999952316284
 50
73.48282241201397
 51
89.99998201391068
  0
ARC
  5
538
  8
0
  6
DASHED2
 62
     7
 10
405.9447008122367
 20
105.6493380057979
 30
0.0
 40
3.299999952316284
 50
270.0000179860894
 51
286.5171775879861
  0
ARC
  5
539
  8
0
  6
DASHED2
 62
     7
 10
413.2446886052055
 20
110.0993502128291
 30
0.0
 40
2.0
 50
0.0
 51
38.68218896809866
  0
ARC
  5
53A
  8
0
  6
DASHED2
 62
     7
 10
413.2446886052055
 20
101.1993563163448
 30
0.0
 40
2.0
 50
0.0
 51
51.09316519948326
  0
ARC
  5
53B
  8
0
  6
DASHED2
 62
     7
 10
409.2446886052055
 20
105.6493380057979
 30
0.0
 40
6.0
 50
0.0
 51
28.83423780766658
  0
ARC
  5
53C
  8
0
  6
DASHED2
 62
     7
 10
417.2446886052055
 20
105.6493380057979
 30
0.0
 40
6.0
 50
151.1657740314788
 51
208.8342086656771
  0
ARC
  5
53D
  8
0
  6
DASHED2
 62
     7
 10
409.2446886052055
 20
105.6493380057979
 30
0.0
 40
6.0
 50
331.1657621923334
 51
360.0
  0
ARC
  5
53E
  8
0
  6
DASHED2
 62
     7
 10
413.2446886052055
 20
110.0993502128291
 30
0.0
 40
2.0
 50
308.9068348005167
 51
360.0
  0
ARC
  5
53F
  8
0
  6
DASHED2
 62
     7
 10
413.2446886052055
 20
110.0993502128291
 30
0.0
 40
2.0
 50
141.3178297012362
 51
231.0931121518319
  0
ARC
  5
540
  8
0
  6
DASHED2
 62
     7
 10
413.2446886052055
 20
101.1993563163448
 30
0.0
 40
2.0
 50
128.9068568849459
 51
218.6821529959199
  0
ARC
  5
541
  8
0
  6
DASHED2
 62
     7
 10
413.2446886052055
 20
101.1993563163448
 30
0.0
 40
2.0
 50
321.3178110319012
 51
360.0
  0
ARC
  5
542
  8
0
  6
DASHED2
 62
     7
 10
407.2778917302055
 20
114.4493563163448
 30
0.0
 40
5.650000095367432
 50
265.9910930942637
 51
315.0592540539054
  0
ARC
  5
543
  8
0
  6
DASHED2
 62
     7
 10
407.2778917302055
 20
96.84935021282912
 30
0.0
 40
5.650000095367432
 50
44.94074594609459
 51
94.00890690573625
  0
ARC
  5
544
  8
0
  6
DASHED2
 62
     7
 10
403.9447008122367
 20
105.6493380057979
 30
0.0
 40
1.5
 50
117.818154050457
 51
242.1818423070773
  0
LINE
  5
545
  8
0
  6
DASHED2
 62
     7
 10
549.8559236309551
 20
71.45483936859286
 30
0.0
 11
546.4559236309553
 21
73.41783028383739
 31
0.0
  0
LINE
  5
546
  8
0
  6
DASHED2
 62
     7
 10
549.8559236309553
 20
71.45483936859272
 30
0.0
 11
546.4559236309553
 21
77.34381211432694
 31
0.0
  0
LINE
  5
547
  8
0
  6
DASHED2
 62
     7
 10
546.4559236309553
 20
77.34381211432671
 30
0.0
 11
546.4559236309553
 21
73.41783028383759
 31
0.0
  0
LINE
  5
548
  8
0
  6
DASHED2
 62
     7
 10
554.4860506498775
 20
73.43522412632207
 30
0.0
 11
550.4860506498775
 21
80.36342735659761
 31
0.0
  0
LINE
  5
549
  8
0
  6
DASHED2
 62
     7
 10
554.4860506498775
 20
73.43522412632207
 30
0.0
 11
568.3424571104285
 21
81.43522412632208
 31
0.0
  0
LINE
  5
54A
  8
0
  6
DASHED2
 62
     7
 10
549.8559236309553
 20
71.45483936859272
 30
0.0
 11
568.0424571104285
 21
81.9548393685927
 31
0.0
  0
LINE
  5
54B
  8
0
  6
DASHED2
 62
     7
 10
546.4559236309553
 20
77.34381211432694
 30
0.0
 11
564.6424571104285
 21
87.84381211432694
 31
0.0
  0
LINE
  5
54C
  8
0
  6
DASHED2
 62
     7
 10
550.4860506498775
 20
80.36342735659761
 30
0.0
 11
564.3424571104285
 21
88.36342735659761
 31
0.0
  0
LINE
  5
54D
  8
0
  6
DASHED2
 62
     7
 10
221.2058939013928
 20
58.14932621728998
 30
0.0
 11
220.6285432849377
 21
59.14932680082315
 31
0.0
  0
LINE
  5
54E
  8
0
  6
DASHED2
 62
     7
 10
221.2058959891343
 20
58.14933038401763
 30
0.0
 11
220.6285463263535
 21
57.14933145229681
 31
0.0
  0
LINE
  5
54F
  8
0
  6
DASHED2
 62
     7
 10
210.3116550583731
 20
-55.3506719953641
 30
0.0
 11
213.7116550583727
 21
-53.38768108011954
 31
0.0
  0
LINE
  5
550
  8
0
  6
DASHED2
 62
     7
 10
210.3116550583728
 20
-55.35067199536421
 30
0.0
 11
217.1116550583729
 21
-55.35067199536421
 31
0.0
  0
LINE
  5
551
  8
0
  6
DASHED2
 62
     7
 10
209.7116550583729
 20
-60.35067199536421
 30
0.0
 11
209.7116550583729
 21
-76.35067199536421
 31
0.0
  0
LINE
  5
552
  8
0
  6
DASHED2
 62
     7
 10
210.3116550583728
 20
-55.35067199536421
 30
0.0
 11
210.3116550583728
 21
-76.35067199536421
 31
0.0
  0
LINE
  5
553
  8
0
  6
DASHED2
 62
     7
 10
217.1116550583727
 20
-55.3506719953641
 30
0.0
 11
213.711655058373
 21
-53.38768108011954
 31
0.0
  0
LINE
  5
554
  8
0
  6
DASHED2
 62
     7
 10
209.7116550583729
 20
-60.35067199536421
 30
0.0
 11
217.7116550583729
 21
-60.35067199536421
 31
0.0
  0
LINE
  5
555
  8
0
  6
DASHED2
 62
     7
 10
217.1116550583729
 20
-55.35067199536421
 30
0.0
 11
217.1116550583729
 21
-76.35067199536421
 31
0.0
  0
LINE
  5
556
  8
0
  6
DASHED2
 62
     7
 10
217.7116550583729
 20
-60.35067199536421
 30
0.0
 11
217.7116550583729
 21
-76.35067199536421
 31
0.0
  0
LINE
  5
557
  8
0
  6
CONTINUOUS
 62
     7
 10
569.5778004300273
 20
86.76726530940005
 30
0.0
 11
584.588779748836
 21
95.43386537060593
 31
0.0
  0
LINE
  5
558
  8
0
  6
CONTINUOUS
 62
     7
 10
258.2668264817553
 20
78.64932800463579
 30
0.0
 11
278.0998918607746
 21
78.64932800463579
 31
0.0
  0
LINE
  5
559
  8
0
  6
CONTINUOUS
 62
     2
 10
423.4482493839481
 20
7.099359153546871
 30
0.0
 11
419.3779235735877
 21
4.749361206931113
 31
0.0
  0
LINE
  5
55A
  8
0
  6
CONTINUOUS
 62
     2
 10
419.3779283512992
 20
4.749351738708029
 30
0.0
 11
419.3779283512992
 21
0.0493528831172085
 31
0.0
  0
LINE
  5
55B
  8
0
  6
CONTINUOUS
 62
     2
 10
419.3779196977445
 20
0.0493684809668054
 30
0.0
 11
423.4482344185851
 21
-2.300633354854071
 31
0.0
  0
LINE
  5
55C
  8
0
  6
CONTINUOUS
 62
     2
 10
423.4482398203003
 20
-2.300685253600804
 30
0.0
 11
427.5185590234073
 21
0.0493090183955616
 31
0.0
  0
LINE
  5
55D
  8
0
  6
CONTINUOUS
 62
     2
 10
427.5185533512992
 20
0.0493452537226773
 30
0.0
 11
427.5185533512992
 21
4.749344109313498
 31
0.0
  0
LINE
  5
55E
  8
0
  6
CONTINUOUS
 62
     2
 10
427.5185451181857
 20
4.749325308328153
 30
0.0
 11
423.4482282142896
 21
7.099331292635398
 31
0.0
  0
LINE
  5
55F
  8
0
  6
CONTINUOUS
 62
     2
 10
397.4674841096672
 20
-7.900649981250794
 30
0.0
 11
393.3971582993068
 21
-10.25064792786655
 31
0.0
  0
LINE
  5
560
  8
0
  6
CONTINUOUS
 62
     2
 10
393.3971467961234
 20
-10.25064826129197
 30
0.0
 11
393.3971467961234
 21
-14.95064711688279
 31
0.0
  0
LINE
  5
561
  8
0
  6
CONTINUOUS
 62
     2
 10
393.397151728439
 20
-14.95062926373849
 30
0.0
 11
397.4674664492795
 21
-17.30063109955937
 31
0.0
  0
LINE
  5
562
  8
0
  6
CONTINUOUS
 62
     2
 10
397.4674683129212
 20
-17.30067685698951
 30
0.0
 11
401.5377858642148
 21
-14.95068353866576
 31
0.0
  0
LINE
  5
563
  8
0
  6
CONTINUOUS
 62
     2
 10
401.5377870549125
 20
-14.95065474627732
 30
0.0
 11
401.5377870549125
 21
-10.2506558906865
 31
0.0
  0
LINE
  5
564
  8
0
  6
CONTINUOUS
 62
     2
 10
401.5377832035067
 20
-10.25064096867105
 30
0.0
 11
397.4674696032327
 21
-7.900636891716985
 31
0.0
  0
LINE
  5
565
  8
0
  6
CONTINUOUS
 62
     2
 10
523.0411821592038
 20
7.09937698057287
 30
0.0
 11
518.9708497415899
 21
4.749375219266895
 31
0.0
  0
LINE
  5
566
  8
0
  6
CONTINUOUS
 62
     2
 10
518.9708467472954
 20
4.749355553405295
 30
0.0
 11
518.9708467472954
 21
0.0493566978144742
 31
0.0
  0
LINE
  5
567
  8
0
  6
CONTINUOUS
 62
     2
 10
518.9708243265829
 20
0.049358273335784
 30
0.0
 11
523.0411258329311
 21
-2.300635933079647
 31
0.0
  0
LINE
  5
568
  8
0
  6
CONTINUOUS
 62
     2
 10
523.0412391665852
 20
-2.300724184493774
 30
0.0
 11
527.1115715841991
 21
0.0492777168834806
 31
0.0
  0
LINE
  5
569
  8
0
  6
CONTINUOUS
 62
     2
 10
527.1114717472954
 20
0.0493490684199429
 30
0.0
 11
527.1114717472954
 21
4.749347924010763
 31
0.0
  0
LINE
  5
56A
  8
0
  6
CONTINUOUS
 62
     2
 10
527.1114777238543
 20
4.749305048189527
 30
0.0
 11
523.0411641235803
 21
7.099309125143591
 31
0.0
  0
LINE
  5
56B
  8
0
  6
CONTINUOUS
 62
     2
 10
549.0219243157898
 20
-7.900613367650621
 30
0.0
 11
544.951605112683
 21
-10.25060749957616
 31
0.0
  0
LINE
  5
56C
  8
0
  6
CONTINUOUS
 62
     2
 10
544.9516206730766
 20
-10.25064253924607
 30
0.0
 11
544.9516206730766
 21
-14.95064139483689
 31
0.0
  0
LINE
  5
56D
  8
0
  6
CONTINUOUS
 62
     2
 10
544.9515755011505
 20
-14.95062912594618
 30
0.0
 11
549.0219034364834
 21
-17.3006385911725
 31
0.0
  0
LINE
  5
56E
  8
0
  6
CONTINUOUS
 62
     2
 10
549.0219897268382
 20
-17.30072730018888
 30
0.0
 11
553.0922957154382
 21
-14.95074065757341
 31
0.0
  0
LINE
  5
56F
  8
0
  6
CONTINUOUS
 62
     2
 10
553.0922456730766
 20
-14.95064902423142
 30
0.0
 11
553.0922456730766
 21
-10.2506501686406
 31
0.0
  0
LINE
  5
570
  8
0
  6
CONTINUOUS
 62
     2
 10
553.0922464044904
 20
-10.25068446388683
 30
0.0
 11
549.0219195897278
 21
-7.900672757520042
 31
0.0
  0
LINE
  5
571
  8
0
  6
CONTINUOUS
 62
     2
 10
450.9216797143355
 20
-30.3287387658505
 30
0.0
 11
455.9879366595316
 21
-27.40374094440573
 31
0.0
  0
LINE
  5
572
  8
0
  6
CONTINUOUS
 62
     2
 10
455.9879433597351
 20
-27.40376356366731
 30
0.0
 11
461.0541929824929
 21
-30.32877393786337
 31
0.0
  0
LINE
  5
573
  8
0
  6
CONTINUOUS
 62
     2
 10
461.0541978825492
 20
-30.32876563189744
 30
0.0
 11
461.0541978825492
 21
-36.17876410601853
 31
0.0
  0
LINE
  5
574
  8
0
  6
CONTINUOUS
 62
     2
 10
461.054185077164
 20
-36.17876157646911
 30
0.0
 11
455.9879281319679
 21
-39.10375939791389
 31
0.0
  0
LINE
  5
575
  8
0
  6
CONTINUOUS
 62
     2
 10
455.9879109426467
 20
-39.10375348515696
 30
0.0
 11
450.9216661836974
 21
-36.17875006385144
 31
0.0
  0
LINE
  5
576
  8
0
  6
CONTINUOUS
 62
     2
 10
450.9216905583305
 20
-36.17875266192674
 30
0.0
 11
450.9216905583305
 21
-30.32875418780564
 31
0.0
  0
LINE
  5
577
  8
0
  6
CONTINUOUS
 62
     2
 10
473.2447050597214
 20
123.3493356899522
 30
0.0
 11
469.1743726421076
 21
120.9993339286463
 31
0.0
  0
LINE
  5
578
  8
0
  6
CONTINUOUS
 62
     2
 10
469.1743913639945
 20
120.999336479919
 30
0.0
 11
469.1743913639945
 21
116.2993395316768
 31
0.0
  0
LINE
  5
579
  8
0
  6
CONTINUOUS
 62
     2
 10
469.1743718173163
 20
116.2993338952362
 30
0.0
 11
473.2446865381568
 21
113.9493320594153
 31
0.0
  0
LINE
  5
57A
  8
0
  6
CONTINUOUS
 62
     2
 10
473.2446934749782
 20
113.9493472952241
 30
0.0
 11
477.315025892592
 21
116.2993491966014
 31
0.0
  0
LINE
  5
57B
  8
0
  6
CONTINUOUS
 62
     2
 10
477.3150316227836
 20
116.2993319022823
 30
0.0
 11
477.3150316227836
 21
120.9993288505244
 31
0.0
  0
LINE
  5
57C
  8
0
  6
CONTINUOUS
 62
     2
 10
477.3150201635851
 20
120.9993045499229
 30
0.0
 11
473.2447065633111
 21
123.3493086268769
 31
0.0
  0
LINE
  5
57D
  8
0
  6
CONTINUOUS
 62
     2
 10
473.2447093931674
 20
93.34933443649483
 30
0.0
 11
469.1743769755536
 21
90.99933267518885
 31
0.0
  0
LINE
  5
57E
  8
0
  6
CONTINUOUS
 62
     2
 10
469.1743913639945
 20
90.99933647991897
 30
0.0
 11
469.1743913639945
 21
86.29933953167678
 31
0.0
  0
LINE
  5
57F
  8
0
  6
CONTINUOUS
 62
     2
 10
469.1743660063327
 20
86.2993448874828
 30
0.0
 11
473.2446807271733
 21
83.94934305166193
 31
0.0
  0
LINE
  5
580
  8
0
  6
CONTINUOUS
 62
     2
 10
473.2447000132207
 20
83.94934311701276
 30
0.0
 11
477.3150324308346
 21
86.29934501839001
 31
0.0
  0
LINE
  5
581
  8
0
  6
CONTINUOUS
 62
     2
 10
477.3150316227836
 20
86.29933190228225
 30
0.0
 11
477.3150316227836
 21
90.99932885052444
 31
0.0
  0
LINE
  5
582
  8
0
  6
CONTINUOUS
 62
     2
 10
477.3150082986028
 20
90.99930886183905
 30
0.0
 11
473.2446946983288
 21
93.34931293879312
 31
0.0
  0
CIRCLE
  5
583
  8
0
  6
CONTINUOUS
 62
     2
 10
423.4482408512992
 20
2.399353264586935
 30
0.0
 40
8.0
  0
CIRCLE
  5
584
  8
0
  6
CONTINUOUS
 62
     2
 10
397.4674745549125
 20
-12.60064673541307
 30
0.0
 40
8.0
  0
CIRCLE
  5
585
  8
0
  6
CONTINUOUS
 62
     2
 10
523.0411592472954
 20
2.399353264586935
 30
0.0
 40
8.0
  0
CIRCLE
  5
586
  8
0
  6
CONTINUOUS
 62
     2
 10
549.0219331730766
 20
-12.60064673541307
 30
0.0
 40
8.0
  0
CIRCLE
  5
587
  8
0
  6
CONTINUOUS
 62
     2
 10
455.9879442204398
 20
-33.25375342486619
 30
0.0
 40
9.0
  0
CIRCLE
  5
588
  8
0
  6
CONTINUOUS
 62
     2
 10
473.2447191227836
 20
118.6493380057979
 30
0.0
 40
8.0
  0
CIRCLE
  5
589
  8
0
  6
CONTINUOUS
 62
     2
 10
473.2447191227836
 20
88.64933800579787
 30
0.0
 40
8.0
  0
LINE
  5
58A
  8
0
  6
CONTINUOUS
 62
     4
 10
517.0819002666742
 20
15.07753168905323
 30
0.0
 11
521.3319007733137
 21
22.43874748910015
 31
0.0
  0
LINE
  5
58B
  8
0
  6
CONTINUOUS
 62
     4
 10
504.8318988063604
 20
-6.140090322846717
 30
0.0
 11
509.0818993129999
 21
1.221125477200204
 31
0.0
  0
LINE
  5
58C
  8
0
  6
CONTINUOUS
 62
     4
 10
556.7934088863105
 20
-36.14008626972996
 30
0.0
 11
561.04340939295
 21
-28.77887046968304
 31
0.0
  0
LINE
  5
58D
  8
0
  6
CONTINUOUS
 62
     4
 10
569.0434103466243
 20
-14.92246425783002
 30
0.0
 11
573.2934108532638
 21
-7.561248457783094
 31
0.0
  0
LINE
  5
58E
  8
0
  6
CONTINUOUS
 62
     4
 10
518.3809383490354
 20
14.32753159964626
 30
0.0
 11
522.6309388556749
 21
21.68874739969319
 31
0.0
  0
LINE
  5
58F
  8
0
  6
CONTINUOUS
 62
     4
 10
519.6799423730037
 20
13.57753355453146
 30
0.0
 11
523.9299428796433
 21
20.93874935457838
 31
0.0
  0
LINE
  5
590
  8
0
  6
CONTINUOUS
 62
     4
 10
520.9790429870474
 20
12.82755022043433
 30
0.0
 11
525.229043493687
 21
20.18876602048125
 31
0.0
  0
LINE
  5
591
  8
0
  6
CONTINUOUS
 62
     4
 10
522.2780470110158
 20
12.07755217531953
 30
0.0
 11
526.5280475176553
 21
19.43876797536645
 31
0.0
  0
LINE
  5
592
  8
0
  6
CONTINUOUS
 62
     4
 10
506.1309407034193
 20
-6.890083805004323
 30
0.0
 11
510.3809373953611
 21
0.4711253877932364
 31
0.0
  0
LINE
  5
593
  8
0
  6
CONTINUOUS
 62
     4
 10
507.4299447273877
 20
-7.640081850119131
 30
0.0
 11
511.6799414193294
 21
-0.2788726573215712
 31
0.0
  0
LINE
  5
594
  8
0
  6
CONTINUOUS
 62
     4
 10
508.7290338973382
 20
-8.390085005964338
 30
0.0
 11
512.9790344039777
 21
-1.028869205917417
 31
0.0
  0
LINE
  5
595
  8
0
  6
CONTINUOUS
 62
     4
 10
510.028045550702
 20
-9.140069836580423
 30
0.0
 11
514.2780460573415
 21
-1.778854036533502
 31
0.0
  0
LINE
  5
596
  8
0
  6
CONTINUOUS
 62
     4
 10
555.4944010476444
 20
-35.39009483186452
 30
0.0
 11
559.7444015542839
 21
-28.0288790318176
 31
0.0
  0
LINE
  5
597
  8
0
  6
CONTINUOUS
 62
     4
 10
554.1953970236762
 20
-34.64009678674971
 30
0.0
 11
558.4453975303156
 21
-27.27888098670279
 31
0.0
  0
LINE
  5
598
  8
0
  6
CONTINUOUS
 62
     4
 10
552.896315483121
 20
-33.89008041640578
 30
0.0
 11
557.1463159897605
 21
-26.52886461635886
 31
0.0
  0
LINE
  5
599
  8
0
  6
CONTINUOUS
 62
     4
 10
551.5972318982737
 20
-33.14009810445474
 30
0.0
 11
555.8472324049133
 21
-25.77888230440782
 31
0.0
  0
LINE
  5
59A
  8
0
  6
CONTINUOUS
 62
     4
 10
567.7444101373537
 20
-14.17245960546585
 30
0.0
 11
571.9944106439932
 21
-6.811243805418926
 31
0.0
  0
LINE
  5
59B
  8
0
  6
CONTINUOUS
 62
     4
 10
566.44539848399
 20
-13.42247477484976
 30
0.0
 11
570.6953989906294
 21
-6.06125897480284
 31
0.0
  0
LINE
  5
59C
  8
0
  6
CONTINUOUS
 62
     4
 10
565.1463169434348
 20
-12.67245840450583
 30
0.0
 11
569.3963174500743
 21
-5.311242604458911
 31
0.0
  0
LINE
  5
59D
  8
0
  6
CONTINUOUS
 62
     4
 10
563.8472333585875
 20
-11.92247609255479
 30
0.0
 11
568.0972338652271
 21
-4.561260292507868
 31
0.0
  0
LINE
  5
59E
  8
0
  6
CONTINUOUS
 62
     4
 10
456.7447114933891
 20
77.14933800579787
 30
0.0
 11
465.2447114933891
 21
77.14933800579787
 31
0.0
  0
LINE
  5
59F
  8
0
  6
CONTINUOUS
 62
     4
 10
481.2447114933891
 20
77.14933800579787
 30
0.0
 11
489.7447114933891
 21
77.14933800579787
 31
0.0
  0
LINE
  5
5A0
  8
0
  6
CONTINUOUS
 62
     4
 10
481.2447114933891
 20
137.1493380057979
 30
0.0
 11
489.7447114933891
 21
137.1493380057979
 31
0.0
  0
LINE
  5
5A1
  8
0
  6
CONTINUOUS
 62
     4
 10
456.7447114933891
 20
137.1493380057979
 30
0.0
 11
465.2447114933891
 21
137.1493380057979
 31
0.0
  0
LINE
  5
5A2
  8
0
  6
CONTINUOUS
 62
     4
 10
456.7447114933891
 20
78.64933800579787
 30
0.0
 11
465.2447114933891
 21
78.64933800579787
 31
0.0
  0
LINE
  5
5A3
  8
0
  6
CONTINUOUS
 62
     4
 10
456.7447114933891
 20
80.14933800579787
 30
0.0
 11
465.2447114933891
 21
80.14933800579787
 31
0.0
  0
LINE
  5
5A4
  8
0
  6
CONTINUOUS
 62
     4
 10
456.7447114933891
 20
81.64933800579787
 30
0.0
 11
465.2447114933891
 21
81.64933800579787
 31
0.0
  0
LINE
  5
5A5
  8
0
  6
CONTINUOUS
 62
     4
 10
456.7447114933891
 20
83.14933800579787
 30
0.0
 11
465.2447114933891
 21
83.14933800579787
 31
0.0
  0
LINE
  5
5A6
  8
0
  6
CONTINUOUS
 62
     4
 10
456.7447114933891
 20
84.64933800579787
 30
0.0
 11
465.2447114933891
 21
84.64933800579787
 31
0.0
  0
LINE
  5
5A7
  8
0
  6
CONTINUOUS
 62
     4
 10
481.2447114933891
 20
78.64933800579787
 30
0.0
 11
489.7447114933891
 21
78.64933800579787
 31
0.0
  0
LINE
  5
5A8
  8
0
  6
CONTINUOUS
 62
     4
 10
481.2447114933891
 20
80.14933800579787
 30
0.0
 11
489.7447114933891
 21
80.14933800579787
 31
0.0
  0
LINE
  5
5A9
  8
0
  6
CONTINUOUS
 62
     4
 10
481.2447114933891
 20
81.64933800579787
 30
0.0
 11
489.7447114933891
 21
81.64933800579787
 31
0.0
  0
LINE
  5
5AA
  8
0
  6
CONTINUOUS
 62
     4
 10
481.2447114933891
 20
83.14933800579787
 30
0.0
 11
489.7447114933891
 21
83.14933800579787
 31
0.0
  0
LINE
  5
5AB
  8
0
  6
CONTINUOUS
 62
     4
 10
481.2447114933891
 20
84.64933800579787
 30
0.0
 11
489.7447114933891
 21
84.64933800579787
 31
0.0
  0
LINE
  5
5AC
  8
0
  6
CONTINUOUS
 62
     4
 10
481.2447114933891
 20
135.6493380057979
 30
0.0
 11
489.7447114933891
 21
135.6493380057979
 31
0.0
  0
LINE
  5
5AD
  8
0
  6
CONTINUOUS
 62
     4
 10
481.2447114933891
 20
134.1493380057979
 30
0.0
 11
489.7447114933891
 21
134.1493380057979
 31
0.0
  0
LINE
  5
5AE
  8
0
  6
CONTINUOUS
 62
     4
 10
481.2447114933891
 20
132.6493380057979
 30
0.0
 11
489.7447114933891
 21
132.6493380057979
 31
0.0
  0
LINE
  5
5AF
  8
0
  6
CONTINUOUS
 62
     4
 10
481.2447114933891
 20
131.1493380057979
 30
0.0
 11
489.7447114933891
 21
131.1493380057979
 31
0.0
  0
LINE
  5
5B0
  8
0
  6
CONTINUOUS
 62
     4
 10
481.2447114933891
 20
129.6493380057979
 30
0.0
 11
489.7447114933891
 21
129.6493380057979
 31
0.0
  0
LINE
  5
5B1
  8
0
  6
CONTINUOUS
 62
     4
 10
456.7447114933891
 20
135.6493380057979
 30
0.0
 11
465.2447114933891
 21
135.6493380057979
 31
0.0
  0
LINE
  5
5B2
  8
0
  6
CONTINUOUS
 62
     4
 10
456.7447114933891
 20
134.1493380057979
 30
0.0
 11
465.2447114933891
 21
134.1493380057979
 31
0.0
  0
LINE
  5
5B3
  8
0
  6
CONTINUOUS
 62
     4
 10
456.7447114933891
 20
132.6493380057979
 30
0.0
 11
465.2447114933891
 21
132.6493380057979
 31
0.0
  0
LINE
  5
5B4
  8
0
  6
CONTINUOUS
 62
     4
 10
456.7447114933891
 20
131.1493380057979
 30
0.0
 11
465.2447114933891
 21
131.1493380057979
 31
0.0
  0
LINE
  5
5B5
  8
0
  6
CONTINUOUS
 62
     4
 10
456.7447114933891
 20
129.6493380057979
 30
0.0
 11
465.2447114933891
 21
129.6493380057979
 31
0.0
  0
LINE
  5
5B6
  8
0
  6
CONTINUOUS
 62
     4
 10
372.7367673828526
 20
-76.87748590451916
 30
0.0
 11
369.4367643310948
 21
-71.1617130563303
 31
0.0
  0
LINE
  5
5B7
  8
0
  6
CONTINUOUS
 62
     4
 10
371.5934058740064
 20
-76.89712566147806
 30
0.0
 11
368.8229972436353
 21
-72.0986372420724
 31
0.0
  0
LINE
  5
5B8
  8
0
  6
CONTINUOUS
 62
     4
 10
352.7097532035459
 20
-80.78968141940287
 30
0.0
 11
361.2827309028414
 21
-75.63851676775663
 31
0.0
  0
LINE
  5
5B9
  8
0
  6
CONTINUOUS
 62
     4
 10
356.0351947428916
 20
-86.54952316773471
 30
0.0
 11
364.7827265303403
 21
-81.70068733430763
 31
0.0
  0
CIRCLE
  5
5BA
  8
0
  6
CONTINUOUS
 62
     4
 10
473.2447191227836
 20
-13.85064673541307
 30
0.0
 40
4.0
  0
CIRCLE
  5
5BB
  8
0
  6
CONTINUOUS
 62
     4
 10
473.2447191227836
 20
31.14933800579787
 30
0.0
 40
31.5
  0
ARC
  5
5BC
  8
0
  6
CONTINUOUS
 62
     4
 10
473.2447191227836
 20
31.14933800579787
 30
0.0
 40
42.0
 50
116.1342801936171
 51
143.9217983411684
  0
ARC
  5
5BD
  8
0
  6
CONTINUOUS
 62
     4
 10
473.2447191227836
 20
31.14933800579787
 30
0.0
 40
42.0
 50
236.134246194252
 51
264.726408437355
  0
ARC
  5
5BE
  8
0
  6
CONTINUOUS
 62
     4
 10
473.2447191227836
 20
31.14933800579787
 30
0.0
 40
42.0
 50
356.1342798425206
 51
383.9218189075263
  0
ARC
  5
5BF
  8
0
  6
CONTINUOUS
 62
     4
 10
473.2447191227836
 20
31.14933800579787
 30
0.0
 40
48.0
 50
352.669619855368
 51
384.3147084640584
  0
ARC
  5
5C0
  8
0
  6
CONTINUOUS
 62
     4
 10
473.2447191227836
 20
31.14933800579787
 30
0.0
 40
54.0
 50
350.0349179254915
 51
429.9650905743498
  0
ARC
  5
5C1
  8
0
  6
CONTINUOUS
 62
     4
 10
473.2447191227836
 20
31.14933800579787
 30
0.0
 40
60.0
 50
347.9588264319791
 51
366.5092001610998
  0
ARC
  5
5C2
  8
0
  6
CONTINUOUS
 62
     4
 10
473.2447191227836
 20
31.14933800579787
 30
0.0
 40
66.0
 50
346.2782993678325
 51
358.9656378596405
  0
ARC
  5
5C3
  8
0
  6
CONTINUOUS
 62
     4
 10
473.2447191227836
 20
31.14933800579787
 30
0.0
 40
72.0
 50
344.8888416689397
 51
366.5635078489642
  0
ARC
  5
5C4
  8
0
  6
CONTINUOUS
 62
     4
 10
473.2447191227836
 20
31.14933800579787
 30
0.0
 40
48.0
 50
232.669591756628
 51
265.0672212165603
  0
ARC
  5
5C5
  8
0
  6
CONTINUOUS
 62
     4
 10
473.2447191227836
 20
31.14933800579787
 30
0.0
 40
54.0
 50
230.0348872654306
 51
309.9651043105185
  0
ARC
  5
5C6
  8
0
  6
CONTINUOUS
 62
     4
 10
473.2447191227836
 20
31.14933800579787
 30
0.0
 40
60.0
 50
227.9587966256918
 51
247.073422527431
  0
ARC
  5
5C7
  8
0
  6
CONTINUOUS
 62
     4
 10
473.2447191227836
 20
31.14933800579787
 30
0.0
 40
66.0
 50
226.2782695615452
 51
241.543674054632
  0
ARC
  5
5C8
  8
0
  6
CONTINUOUS
 62
     4
 10
473.2447191227836
 20
31.14933800579787
 30
0.0
 40
72.0
 50
224.8888178390679
 51
247.0340874680009
  0
ARC
  5
5C9
  8
0
  6
CONTINUOUS
 62
     4
 10
473.2447191227836
 20
31.14933800579787
 30
0.0
 40
48.0
 50
112.6696257559931
 51
144.3146844826059
  0
ARC
  5
5CA
  8
0
  6
CONTINUOUS
 62
     4
 10
473.2447191227836
 20
31.14933800579787
 30
0.0
 40
54.0
 50
110.0349280949849
 51
189.9650461023298
  0
ARC
  5
5CB
  8
0
  6
CONTINUOUS
 62
     4
 10
473.2447191227836
 20
31.14933800579787
 30
0.0
 40
60.0
 50
107.9588374552461
 51
126.5092282598397
  0
ARC
  5
5CC
  8
0
  6
CONTINUOUS
 62
     4
 10
473.2447191227836
 20
31.14933800579787
 30
0.0
 40
66.0
 50
106.2783103910995
 51
120.2978815493868
  0
ARC
  5
5CD
  8
0
  6
CONTINUOUS
 62
     4
 10
473.2447191227836
 20
31.14933800579787
 30
0.0
 40
72.0
 50
104.888851838433
 51
126.5634872826063
  0
ARC
  5
5CE
  8
0
  6
CONTINUOUS
 62
     4
 10
473.2447191227836
 20
31.14933800579787
 30
0.0
 40
42.0
 50
275.2735728933104
 51
303.865745381697
  0
ARC
  5
5CF
  8
0
  6
CONTINUOUS
 62
     4
 10
473.2447191227836
 20
31.14933800579787
 30
0.0
 40
48.0
 50
274.9327601141051
 51
307.3303998193211
  0
ARC
  5
5D0
  8
0
  6
CONTINUOUS
 62
     4
 10
473.2447191227836
 20
31.14933800579787
 30
0.0
 40
60.0
 50
262.9265374778407
 51
277.0734438528246
  0
ARC
  5
5D1
  8
0
  6
CONTINUOUS
 62
     4
 10
473.2447191227836
 20
31.14933800579787
 30
0.0
 40
66.0
 50
267.9950432759888
 51
272.1360845169299
  0
ARC
  5
5D2
  8
0
  6
CONTINUOUS
 62
     4
 10
473.2447191227836
 20
31.14933800579787
 30
0.0
 40
72.0
 50
262.9658657070817
 51
277.0341156235837
  0
ARC
  5
5D3
  8
0
  6
CONTINUOUS
 62
     4
 10
473.2447191227836
 20
31.14933800579787
 30
0.0
 40
60.0
 50
292.9265588032343
 51
312.0411915351627
  0
ARC
  5
5D4
  8
0
  6
CONTINUOUS
 62
     4
 10
473.2447191227836
 20
31.14933800579787
 30
0.0
 40
66.0
 50
298.4758757680054
 51
313.7217185993093
  0
ARC
  5
5D5
  8
0
  6
CONTINUOUS
 62
     4
 10
473.2447191227836
 20
31.14933800579787
 30
0.0
 40
72.0
 50
292.9658938626644
 51
315.1111737368812
  0
CIRCLE
  5
5D6
  8
0
  6
CONTINUOUS
 62
     4
 10
434.2735734929008
 20
53.64935326458694
 30
0.0
 40
4.0
  0
CIRCLE
  5
5D7
  8
0
  6
CONTINUOUS
 62
     4
 10
512.2158418644829
 20
53.64935326458694
 30
0.0
 40
4.0
  0
ARC
  5
5D8
  8
0
  6
CONTINUOUS
 62
     4
 10
473.2447191227836
 20
31.14933800579787
 30
0.0
 40
66.0
 50
148.6120209423245
 51
151.0452485133849
  0
ARC
  5
5D9
  8
0
  6
CONTINUOUS
 62
     4
 10
473.2447191227836
 20
31.14933800579787
 30
0.0
 40
60.0
 50
143.4907997441623
 51
156.5092222644766
  0
ARC
  5
5DA
  8
0
  6
CONTINUOUS
 62
     4
 10
473.2447191227836
 20
31.14933800579787
 30
0.0
 40
48.0
 50
155.685296544898
 51
187.3303552715107
  0
ARC
  5
5DB
  8
0
  6
CONTINUOUS
 62
     4
 10
473.2447191227836
 20
31.14933800579787
 30
0.0
 40
42.0
 50
156.0781963467138
 51
183.8656871735084
  0
ARC
  5
5DC
  8
0
  6
CONTINUOUS
 62
     4
 10
473.2447191227836
 20
31.14933800579787
 30
0.0
 40
60.0
 50
173.4908074091775
 51
192.0411367420686
  0
ARC
  5
5DD
  8
0
  6
CONTINUOUS
 62
     4
 10
473.2447191227836
 20
31.14933800579787
 30
0.0
 40
66.0
 50
181.0357112164061
 51
193.7216811090592
  0
ARC
  5
5DE
  8
0
  6
CONTINUOUS
 62
     4
 10
473.2447191227836
 20
31.14933800579787
 30
0.0
 40
72.0
 50
173.4365347260326
 51
195.1111291890709
  0
ARC
  5
5DF
  8
0
  6
CONTINUOUS
 62
     4
 10
473.2447191227836
 20
31.14933800579787
 30
0.0
 40
60.0
 50
53.49081773025161
 51
72.04118121408854
  0
ARC
  5
5E0
  8
0
  6
CONTINUOUS
 62
     4
 10
473.2447191227836
 20
31.14933800579787
 30
0.0
 40
66.0
 50
59.63673122845584
 51
73.72170827823517
  0
ARC
  5
5E1
  8
0
  6
CONTINUOUS
 62
     4
 10
473.2447191227836
 20
31.14933800579787
 30
0.0
 40
66.0
 50
28.50981235982748
 51
30.86447397241248
  0
ARC
  5
5E2
  8
0
  6
CONTINUOUS
 62
     4
 10
473.2447191227836
 20
31.14933800579787
 30
0.0
 40
60.0
 50
23.49084250863494
 51
36.50921209498323
  0
ARC
  5
5E3
  8
0
  6
CONTINUOUS
 62
     4
 10
473.2447191227836
 20
31.14933800579787
 30
0.0
 40
48.0
 50
35.68532052635044
 51
67.33039291334157
  0
ARC
  5
5E4
  8
0
  6
CONTINUOUS
 62
     4
 10
473.2447191227836
 20
31.14933800579787
 30
0.0
 40
42.0
 50
36.07819642250416
 51
63.86573164552842
  0
ARC
  5
5E5
  8
0
  6
CONTINUOUS
 62
     4
 10
473.2447191227836
 20
31.14933800579787
 30
0.0
 40
72.0
 50
53.52938097830551
 51
75.1111668309017
  0
ARC
  5
5E6
  8
0
  6
CONTINUOUS
 62
     4
 10
473.2447191227836
 20
31.14933800579787
 30
0.0
 40
72.0
 50
23.10287581094718
 51
36.96153112748356
  0
ARC
  5
5E7
  8
0
  6
CONTINUOUS
 62
     4
 10
473.2447191227836
 20
31.14933800579787
 30
0.0
 40
72.0
 50
143.1246606235146
 51
156.5634812872432
  0
CIRCLE
  5
5E8
  8
0
  6
CONTINUOUS
 62
     4
 10
473.2447191227836
 20
58.14934182049514
 30
0.0
 40
2.5
  0
CIRCLE
  5
5E9
  8
0
  6
CONTINUOUS
 62
     4
 10
449.8620286930961
 20
17.64933609844924
 30
0.0
 40
2.5
  0
CIRCLE
  5
5EA
  8
0
  6
CONTINUOUS
 62
     4
 10
496.6274019230766
 20
17.64933609844924
 30
0.0
 40
2.5
  0
LINE
  5
5EB
  8
0
  6
CONTINUOUS
 62
     4
 10
242.0116581101307
 20
-9.850660551272412
 30
0.0
 11
242.0116581101307
 21
-17.85066055127241
 31
0.0
  0
LINE
  5
5EC
  8
0
  6
CONTINUOUS
 62
     4
 10
242.0116581101307
 20
-9.850656736575147
 30
0.0
 11
257.0116581101307
 21
-9.850656736575147
 31
0.0
  0
LINE
  5
5ED
  8
0
  6
CONTINUOUS
 62
     4
 10
242.0116581101307
 20
-17.85065673657515
 30
0.0
 11
257.0116581101307
 21
-17.85065673657515
 31
0.0
  0
LINE
  5
5EE
  8
0
  6
CONTINUOUS
 62
     4
 10
190.0116581101307
 20
-29.52566360303023
 30
0.0
 11
190.0116581101307
 21
-41.52566360303023
 31
0.0
  0
LINE
  5
5EF
  8
0
  6
CONTINUOUS
 62
     4
 10
154.0116581101307
 20
-30.52565978833296
 30
0.0
 11
190.0116581101307
 21
-30.52565978833296
 31
0.0
  0
LINE
  5
5F0
  8
0
  6
CONTINUOUS
 62
     4
 10
154.0116581101307
 20
-40.52565978833296
 30
0.0
 11
190.0116581101307
 21
-40.52565978833296
 31
0.0
  0
LINE
  5
5F1
  8
0
  6
CONTINUOUS
 62
     4
 10
256.0116581101307
 20
138.6493280046358
 30
0.0
 11
256.0116581101307
 21
128.6493280046358
 31
0.0
  0
LINE
  5
5F2
  8
0
  6
CONTINUOUS
 62
     4
 10
255.0116581101307
 20
138.6493280046358
 30
0.0
 11
255.0116581101307
 21
128.6493280046358
 31
0.0
  0
LINE
  5
5F3
  8
0
  6
CONTINUOUS
 62
     4
 10
256.0116581101307
 20
78.64933563403032
 30
0.0
 11
256.0116581101307
 21
75.64933563403032
 31
0.0
  0
LINE
  5
5F4
  8
0
  6
CONTINUOUS
 62
     4
 10
255.0116581101307
 20
78.64933563403032
 30
0.0
 11
255.0116581101307
 21
75.64933563403032
 31
0.0
  0
LINE
  5
5F5
  8
0
  6
CONTINUOUS
 62
     4
 10
242.0116581101307
 20
122.6493280046358
 30
0.0
 11
265.0116581101307
 21
122.6493280046358
 31
0.0
  0
LINE
  5
5F6
  8
0
  6
CONTINUOUS
 62
     4
 10
242.0116581101307
 20
114.6493280046358
 30
0.0
 11
265.0116581101307
 21
114.6493280046358
 31
0.0
  0
LINE
  5
5F7
  8
0
  6
CONTINUOUS
 62
     4
 10
242.0116581101307
 20
84.64932800463579
 30
0.0
 11
265.0116581101307
 21
84.64932800463579
 31
0.0
  0
LINE
  5
5F8
  8
0
  6
CONTINUOUS
 62
     4
 10
242.0116581101307
 20
92.64932800463579
 30
0.0
 11
265.0116581101307
 21
92.64932800463579
 31
0.0
  0
LINE
  5
5F9
  8
0
  6
CONTINUOUS
 62
     4
 10
220.6285404343494
 20
-0.3506567365751465
 30
0.0
 11
229.6285404343494
 21
-0.3506567365751465
 31
0.0
  0
LINE
  5
5FA
  8
0
  6
CONTINUOUS
 62
     4
 10
220.6285404343494
 20
62.64932800463579
 30
0.0
 11
229.6285404343494
 21
62.64932800463579
 31
0.0
  0
LINE
  5
5FB
  8
0
  6
CONTINUOUS
 62
     4
 10
221.1285404343494
 20
59.64933181933306
 30
0.0
 11
224.6285404343494
 21
59.64933181933306
 31
0.0
  0
LINE
  5
5FC
  8
0
  6
CONTINUOUS
 62
     4
 10
221.1285404343494
 20
56.64933181933306
 30
0.0
 11
224.6285404343494
 21
56.64933181933306
 31
0.0
  0
LINE
  5
5FD
  8
0
  6
CONTINUOUS
 62
     4
 10
228.6285404343494
 20
60.14933181933306
 30
0.0
 11
229.6285404343494
 21
60.14933181933306
 31
0.0
  0
LINE
  5
5FE
  8
0
  6
CONTINUOUS
 62
     4
 10
228.6285404343494
 20
56.14933181933306
 30
0.0
 11
229.6285404343494
 21
56.14933181933306
 31
0.0
  0
LINE
  5
5FF
  8
0
  6
CONTINUOUS
 62
     4
 10
224.8785404343494
 20
59.64933181933306
 30
0.0
 11
228.6285404343494
 21
59.64933181933306
 31
0.0
  0
LINE
  5
600
  8
0
  6
CONTINUOUS
 62
     4
 10
224.8785404343494
 20
56.64933181933306
 30
0.0
 11
228.6285404343494
 21
56.64933181933306
 31
0.0
  0
TEXT
  5
601
  8
0
 62
     5
 10
444.4590039004249
 20
-60.35066199420213
 30
0.0
 40
5.0
  1
NIKKO
 41
0.6358806103208212
  7
FDASTYLE1
 72
     5
 11
460.3560191584454
 21
-60.35066199420213
 31
0.0
  0
TEXT
  5
602
  8
0
 62
     5
 10
475.8161164273185
 20
-59.85066199420213
 30
0.0
 40
4.0
  1
 MO3-8
 41
0.6410258524193774
  7
FDASTYLE1
 72
     5
 11
491.2007368853836
 21
-59.85066199420213
 31
0.0
  0
TEXT
  5
603
  8
0
 62
     5
 10
476.1732595909995
 20
-66.35066199420213
 30
0.0
 40
3.0
  1
 0001
 41
0.4970100895327013
  7
FDASTYLE1
 72
     5
 11
483.62841093399
 21
-66.35066199420213
 31
0.0
  0
TEXT
  5
604
  8
0
 62
     5
 10
564.3121915741825
 20
52.41583359788821
 30
0.0
 40
3.0
  1
F MAX  26KN
 50
120.0
 41
0.75379312936272
  7
FDASTYLE1
 72
     5
 11
551.8746049396976
 21
73.95836557235562
 31
0.0
  0
TEXT
  5
605
  8
0
 62
     5
 10
568.209286300745
 20
54.66583359788822
 30
0.0
 40
3.0
  1
ΣS MAX 51KN
 50
120.0
 41
0.6463664845479935
  7
FDASTYLE1
 72
     5
 11
557.3503293603387
 21
73.47409873587459
 31
0.0
  0
TEXT
  5
606
  8
0
 62
     5
 10
572.1064115448857
 20
56.91583359788823
 30
0.0
 40
3.0
  1
N MAX 3200 AT ΣS MAX
 50
120.0
 41
0.6445640416448268
  7
FDASTYLE1
 72
     5
 11
552.5761210830474
 21
90.74328896436991
 31
0.0
  0
INSERT
  5
607
  8
0
  6
CONTINUOUS
  2
DC_GROUP_1
 10
0.0
 20
0.0
 30
0.0
  0
INSERT
  5
608
  8
0
  6
CONTINUOUS
  2
DC_GROUP_2
 10
0.0
 20
0.0
 30
0.0
  0
INSERT
  5
609
  8
0
  6
CONTINUOUS
  2
DC_GROUP_9
 10
0.0
 20
0.0
 30
0.0
  0
INSERT
  5
60A
  8
0
  6
CONTINUOUS
  2
DC_GROUP_12
 10
0.0
 20
0.0
 30
0.0
  0
INSERT
  5
60B
  8
0
  6
CONTINUOUS
  2
DC_GROUP_14
 10
0.0
 20
0.0
 30
0.0
  0
INSERT
  5
60C
  8
0
  6
CONTINUOUS
  2
DC_GROUP_17
 10
0.0
 20
0.0
 30
0.0
  0
INSERT
  5
60D
  8
0
  6
CONTINUOUS
  2
DC_GROUP_18
 10
0.0
 20
0.0
 30
0.0
  0
INSERT
  5
60E
  8
0
  6
CONTINUOUS
  2
DC_GROUP_21
 10
0.0
 20
0.0
 30
0.0
  0
INSERT
  5
60F
  8
LAYER0001
  6
CONTINUOUS
  2
DC_GROUP_23
 10
0.0
 20
0.0
 30
0.0
  0
INSERT
  5
610
  8
LAYER0001
  6
CONTINUOUS
  2
DC_GROUP_26
 10
0.0
 20
0.0
 30
0.0
  0
INSERT
  5
611
  8
LAYER0001
  6
CONTINUOUS
  2
DC_GROUP_29
 10
0.0
 20
0.0
 30
0.0
  0
INSERT
  5
612
  8
LAYER0001
  6
CONTINUOUS
  2
DC_GROUP_32
 10
0.0
 20
0.0
 30
0.0
  0
INSERT
  5
613
  8
LAYER0001
  6
CONTINUOUS
  2
DC_GROUP_35
 10
0.0
 20
0.0
 30
0.0
  0
INSERT
  5
614
  8
LAYER0001
  6
CONTINUOUS
  2
DC_GROUP_38
 10
0.0
 20
0.0
 30
0.0
  0
INSERT
  5
615
  8
LAYER0001
  6
CONTINUOUS
  2
DC_GROUP_41
 10
0.0
 20
0.0
 30
0.0
  0
INSERT
  5
616
  8
LAYER0001
  6
CONTINUOUS
  2
DC_GROUP_43
 10
0.0
 20
0.0
 30
0.0
  0
INSERT
  5
617
  8
LAYER0001
  6
CONTINUOUS
  2
DC_GROUP_45
 10
0.0
 20
0.0
 30
0.0
  0
INSERT
  5
618
  8
LAYER0001
  6
CONTINUOUS
  2
DC_GROUP_48
 10
0.0
 20
0.0
 30
0.0
  0
INSERT
  5
619
  8
LAYER0001
  6
CONTINUOUS
  2
DC_GROUP_51
 10
0.0
 20
0.0
 30
0.0
  0
INSERT
  5
61A
  8
LAYER0001
  6
CONTINUOUS
  2
DC_GROUP_54
 10
0.0
 20
0.0
 30
0.0
  0
INSERT
  5
61B
  8
LAYER0001
  6
CONTINUOUS
  2
DC_GROUP_57
 10
0.0
 20
0.0
 30
0.0
  0
INSERT
  5
61C
  8
LAYER0001
  6
CONTINUOUS
  2
DC_GROUP_60
 10
0.0
 20
0.0
 30
0.0
  0
INSERT
  5
61D
  8
LAYER0001
  6
CONTINUOUS
  2
DC_GROUP_63
 10
0.0
 20
0.0
 30
0.0
  0
INSERT
  5
61E
  8
LAYER0001
  6
CONTINUOUS
  2
DC_GROUP_66
 10
0.0
 20
0.0
 30
0.0
  0
INSERT
  5
61F
  8
LAYER0001
  6
CONTINUOUS
  2
DC_GROUP_69
 10
0.0
 20
0.0
 30
0.0
  0
INSERT
  5
620
  8
LAYER0001
  6
CONTINUOUS
  2
DC_GROUP_72
 10
0.0
 20
0.0
 30
0.0
  0
INSERT
  5
621
  8
LAYER0001
  6
CONTINUOUS
  2
DC_GROUP_75
 10
0.0
 20
0.0
 30
0.0
  0
INSERT
  5
622
  8
LAYER0001
  6
CONTINUOUS
  2
DC_GROUP_77
 10
0.0
 20
0.0
 30
0.0
  0
INSERT
  5
623
  8
LAYER0001
  6
CONTINUOUS
  2
DC_GROUP_80
 10
0.0
 20
0.0
 30
0.0
  0
INSERT
  5
624
  8
LAYER0001
  6
CONTINUOUS
  2
DC_GROUP_83
 10
0.0
 20
0.0
 30
0.0
  0
INSERT
  5
625
  8
LAYER0001
  6
CONTINUOUS
  2
DC_GROUP_86
 10
0.0
 20
0.0
 30
0.0
  0
INSERT
  5
626
  8
LAYER0001
  6
CONTINUOUS
  2
DC_GROUP_89
 10
0.0
 20
0.0
 30
0.0
  0
INSERT
  5
627
  8
LAYER0001
  6
CONTINUOUS
  2
DC_GROUP_92
 10
0.0
 20
0.0
 30
0.0
  0
INSERT
  5
628
  8
LAYER0001
  6
CONTINUOUS
  2
DC_GROUP_93
 10
0.0
 20
0.0
 30
0.0
  0
INSERT
  5
629
  8
LAYER0001
  6
CONTINUOUS
  2
DC_GROUP_94
 10
0.0
 20
0.0
 30
0.0
  0
INSERT
  5
62A
  8
LAYER0001
  6
CONTINUOUS
  2
DC_GROUP_97
 10
0.0
 20
0.0
 30
0.0
  0
INSERT
  5
62B
  8
LAYER0001
  6
CONTINUOUS
  2
DC_GROUP_99
 10
0.0
 20
0.0
 30
0.0
  0
INSERT
  5
62C
  8
LAYER0001
  6
CONTINUOUS
  2
DC_GROUP_101
 10
0.0
 20
0.0
 30
0.0
  0
INSERT
  5
62D
  8
LAYER0001
  6
CONTINUOUS
  2
DC_GROUP_104
 10
0.0
 20
0.0
 30
0.0
  0
INSERT
  5
62E
  8
LAYER0001
  6
CONTINUOUS
  2
DC_GROUP_107
 10
0.0
 20
0.0
 30
0.0
  0
INSERT
  5
62F
  8
LAYER0001
  6
CONTINUOUS
  2
DC_GROUP_110
 10
0.0
 20
0.0
 30
0.0
  0
INSERT
  5
630
  8
LAYER0001
  6
CONTINUOUS
  2
DC_GROUP_112
 10
0.0
 20
0.0
 30
0.0
  0
INSERT
  5
631
  8
LAYER0001
  6
CONTINUOUS
  2
DC_GROUP_114
 10
0.0
 20
0.0
 30
0.0
  0
LINE
  5
632
  8
0
  6
CONTINUOUS
 62
     6
 10
284.1957460392875
 20
-141.5408112356825
 30
0.0
 11
429.4927354802055
 21
-141.5408112356825
 31
0.0
  0
LINE
  5
633
  8
0
  6
CONTINUOUS
 62
     6
 10
284.1957460392875
 20
-135.4928070852918
 30
0.0
 11
429.4927354802055
 21
-135.4928070852918
 31
0.0
  0
LINE
  5
634
  8
0
  6
CONTINUOUS
 62
     6
 10
284.1957460392875
 20
-129.4448181936903
 30
0.0
 11
429.4927354802055
 21
-129.4448181936903
 31
0.0
  0
LINE
  5
635
  8
0
  6
CONTINUOUS
 62
     6
 10
284.1957460392875
 20
-123.3968140432997
 30
0.0
 11
429.4927354802055
 21
-123.3968140432997
 31
0.0
  0
LINE
  5
636
  8
0
  6
CONTINUOUS
 62
     6
 10
284.1957460392875
 20
-117.348809892909
 30
0.0
 11
304.6096712101859
 21
-117.348809892909
 31
0.0
  0
LINE
  5
637
  8
0
  6
CONTINUOUS
 62
     6
 10
284.1957460392875
 20
-147.5888153860731
 30
0.0
 11
429.4927354802055
 21
-147.5888153860731
 31
0.0
  0
LINE
  5
638
  8
0
  6
CONTINUOUS
 62
     6
 10
284.1957460392875
 20
-153.6368195364637
 30
0.0
 11
429.4927354802055
 21
-153.6368195364637
 31
0.0
  0
LINE
  5
639
  8
0
  6
CONTINUOUS
 62
     6
 10
284.1957460392875
 20
-159.6848236868543
 30
0.0
 11
429.4927354802055
 21
-159.6848236868543
 31
0.0
  0
LINE
  5
63A
  8
0
  6
CONTINUOUS
 62
     6
 10
284.1957460392875
 20
-171.7808167288465
 30
0.0
 11
429.4927354802055
 21
-171.7808167288465
 31
0.0
  0
LINE
  5
63B
  8
0
  6
CONTINUOUS
 62
     6
 10
284.1957460392875
 20
-165.7328125784559
 30
0.0
 11
429.4927354802055
 21
-165.7328125784559
 31
0.0
  0
TEXT
  5
63C
  8
0
 62
     6
 10
286.0312735785407
 20
-116.1248230288191
 30
0.0
 40
3.599999904632568
  1
仕  様
 41
0.732910693325656
  7
FDASTYLE1
 72
     5
 11
297.6405786532775
 21
-116.1248230288191
 31
0.0
  0
TEXT
  5
63D
  8
0
 62
     6
 10
285.9729809512061
 20
-122.1728119204206
 30
0.0
 40
3.599999904632568
  1
爪ノｽﾄﾛ-ｸ           
 41
0.7503026833554599
  7
FDASTYLE1
 72
     5
 11
335.6730293800701
 21
-122.1728119204206
 31
0.0
  0
TEXT
  5
63E
  8
0
 62
     6
 10
368.5007080633802
 20
-121.7228119323416
 30
0.0
 40
2.699999928474426
  1
（直径ﾆﾃ）
 41
0.7271637326158144
  7
FDASTYLE1
 72
     5
 11
381.8514338405331
 21
-121.7228119323416
 31
0.0
  0
TEXT
  5
63F
  8
0
 62
     6
 10
389.337728415863
 20
-122.1728119204206
 30
0.0
 40
3.599999904632568
  1
   20 mm
 41
0.6330458694411706
  7
FDASTYLE1
 72
     5
 11
407.569448972793
 21
-122.1728119204206
 31
0.0
  0
TEXT
  5
640
  8
0
 62
     6
 10
285.9996902693671
 20
-128.2208160708113
 30
0.0
 40
3.599999904632568
  1
ピｽﾄﾝｽﾄﾛ-ｸ                 25 mm
 41
0.7426393634081087
  7
FDASTYLE1
 72
     5
 11
369.4129413576693
 21
-128.2208160708113
 31
0.0
  0
TEXT
  5
641
  8
0
 62
     6
 10
285.9996902693671
 20
-134.2688202212019
 30
0.0
 40
3.599999904632568
  1
推奨ｼﾘﾝダ　              52TS-TA1 型
 41
0.7331452311631499
  7
FDASTYLE1
 72
     5
 11
370.4580186619803
 21
-134.2688202212019
 31
0.0
  0
TEXT
  5
642
  8
0
 62
     6
 10
286.062807773487
 20
-140.3168243715925
 30
0.0
 40
3.599999904632568
  1
許容ｼﾘﾝダ力  
 41
0.7026296381732192
  7
FDASTYLE1
 72
     5
 11
310.8515807515599
 21
-140.3168243715925
 31
0.0
  0
TEXT
  5
643
  8
0
 62
     6
 10
326.570314385577
 20
-139.9983550421943
 30
0.0
 40
2.699999928474426
  1
52TS-TA1型引側使用圧 3.5ＭＰａ
 41
0.6945472289919945
  7
FDASTYLE1
 72
     5
 11
369.3266406696683
 21
-139.9983550421943
 31
0.0
  0
TEXT
  5
644
  8
0
 62
     6
 10
394.624654387371
 20
-140.3168243715925
 30
0.0
 40
3.599999904632568
  1
  26 ｋN
 41
0.7311547721875422
  7
FDASTYLE1
 72
     5
 11
413.5761855804279
 21
-140.3168243715925
 31
0.0
  0
TEXT
  5
645
  8
0
 62
     6
 10
285.9996902693671
 20
-146.3648132631941
 30
0.0
 40
3.599999904632568
  1
最大静的把握力                 51.5 ｋN
 41
0.7261129864313092
  7
FDASTYLE1
 72
     5
 11
371.2163080994761
 21
-146.3648132631941
 31
0.0
  0
TEXT
  5
646
  8
0
 62
     6
 10
286.0505822647971
 20
-152.4128174135847
 30
0.0
 40
3.599999904632568
  1
最高使用回転速度               3200 min
 41
0.7086221563932407
  7
FDASTYLE1
 72
     5
 11
369.214476336017
 21
-152.4128174135847
 31
0.0
  0
TEXT
  5
647
  8
0
 62
     6
 10
421.4158247162265
 20
-149.8512788961096
 30
0.0
 40
1.799999952316284
  1
-1
 41
0.6976113722114764
  7
FDASTYLE1
 72
     5
 11
423.9272255896584
 21
-149.8512788961096
 31
0.0
  0
TEXT
  5
648
  8
0
 62
     6
 10
286.0255439032478
 20
-158.4608215639753
 30
0.0
 40
3.599999904632568
  1
慣性モーメント               0.14 ｋg・m
 41
0.7149498821900171
  7
FDASTYLE1
 72
     5
 11
370.4468237558447
 21
-158.4608215639753
 31
0.0
  0
TEXT
  5
649
  8
0
 62
     6
 10
423.5591025997562
 20
-155.8992830465002
 30
0.0
 40
1.799999952316284
  1
2
 41
0.5882029777510089
  7
FDASTYLE1
 72
     5
 11
424.6178679316603
 21
-155.8992830465002
 31
0.0
  0
TEXT
  5
64A
  8
0
 62
     6
 10
285.9996902693671
 20
-170.5568146059675
 30
0.0
 40
3.599999904632568
  1
ｱﾝバﾗﾝｽ量              
 41
0.7407456217343532
  7
FDASTYLE1
 72
     5
 11
343.0667314560213
 21
-170.5568146059675
 31
0.0
  0
TEXT
  5
64B
  8
0
 62
     6
 10
380.7415472318095
 20
-170.1068146178884
 30
0.0
 40
2.699999928474426
  1
外周ﾆﾃ
 41
0.7454882744087735
  7
FDASTYLE1
 72
     5
 11
389.5979476971713
 21
-170.1068146178884
 31
0.0
  0
TEXT
  5
64C
  8
0
 62
     6
 10
394.4605552901191
 20
-170.5568146059675
 30
0.0
 40
3.599999904632568
  1
  4g 以内
 41
0.7433711930538353
  7
FDASTYLE1
 72
     5
 11
414.2639633484621
 21
-170.5568146059675
 31
0.0
  0
TEXT
  5
64D
  8
0
 62
     6
 10
285.9996902693671
 20
-164.5088104555769
 30
0.0
 40
3.599999904632568
  1
質 量                       20 ｋg
 41
0.7378759525776722
  7
FDASTYLE1
 72
     5
 11
369.9404564109321
 21
-164.5088104555769
 31
0.0
  0
TEXT
  5
64E
  8
0
 62
     7
 10
614.0557307141687
 20
-142.6960330963079
 30
0.0
 40
3.0
  1
標　準
 41
0.6666666666666604
  7
FDASTYLE1
 72
     5
 11
621.2557307141686
 21
-142.6960330963079
 31
0.0
  0
TEXT
  5
64F
  8
0
 62
     7
 10
305.8477138657459
 20
42.13697067431352
 30
0.0
 40
4.0
  1
MIN39.5
 50
90.0
 41
0.6367346938775508
  7
FDASTYLE1
 72
     5
 11
305.8477138657459
 21
59.96554210288494
 31
0.0
  0
LINE
  5
650
  8
0
  6
DIVIDE
 62
     9
 10
167.9116672654041
 20
68.14932800463579
 30
0.0
 11
169.4361423630604
 21
68.14932800463579
 31
0.0
  0
LINE
  5
651
  8
0
  6
DIVIDE
 62
     9
 10
167.411652006615
 20
67.64932800463579
 30
0.0
 11
167.411652006615
 21
46.15359283617876
 31
0.0
  0
LINE
  5
652
  8
0
  6
DIVIDE
 62
     9
 10
242.411652006615
 20
67.64932800463579
 30
0.0
 11
242.411652006615
 21
64.66852737597368
 31
0.0
  0
LINE
  5
653
  8
0
  6
DIVIDE
 62
     9
 10
167.4116558877218
 20
67.64933681370953
 30
0.0
 11
167.9116694419832
 21
68.14933511063067
 31
0.0
  0
LINE
  5
654
  8
0
  6
DIVIDE
 62
     9
 10
241.911655711489
 20
68.14933420753336
 30
0.0
 11
242.4116562422838
 21
67.64933367673861
 31
0.0
  0
LINE
  5
655
  8
0
  6
DIVIDE
 62
     9
 10
236.5492481369861
 20
68.14932800463579
 30
0.0
 11
241.911652006615
 21
68.14932800463579
 31
0.0
  0
LINE
  5
656
  8
LAYER0001
  6
CONTINUOUS
 62
     7
 10
256.6971592087635
 20
158.2475946061983
 30
0.0
 11
263.9812244553455
 21
158.2475946061983
 31
0.0
  0
VIEWPORT
  5
48
 67
     1
  8
0
 10
356.5723937454768
 20
0.0
 30
0.0
 40
1662.0
 41
1140.0
 68
     1
 69
     1
1001
ACAD
1000
MVIEW
1002
{
1070
    16
1010
0.0
1020
0.0
1030
0.0
1020
0.0
1030
0.0
1010
0.0
1020
0.0
1030
1.0
1020
0.0
1030
1.0
1040
0.0
1040
1140.0
1040
356.5723937454768
1040
0.0
1040
50.0
1040
0.0
1040
0.0
1070
     0
1070
   100
1070
     0
1070
     1
1070
     0
1070
     0
1070
     0
1070
     0
1040
0.0
1040
0.0
1040
0.0
1040
0.5
1040
0.5
1040
0.0
1040
0.0
1070
     0
1002
{
1002
}
1002
}
  0
ENDSEC
  0
EOF
