  0
SECTION
  2
HEADER
  9
$ACADVER
  1
AC1009
  9
$DWGCODEPAGE
  3
ansi_932
  9
$INSBASE
 10
0.0
 20
0.0
 30
0.0
  9
$EXTMIN
 10
-891.0
 20
-630.0
 30
0.0
  9
$EXTMAX
 10
891.0
 20
630.0
 30
0.0
  9
$LIMMIN
 10
-297.0
 20
-210.0
  9
$LIMMAX
 10
297.0
 20
210.0
  9
$ORTHOMODE
 70
     0
  9
$REGENMODE
 70
     1
  9
$FILLMODE
 70
     1
  9
$QTEXTMODE
 70
     0
  9
$MIRRTEXT
 70
     1
  9
$DRAGMODE
 70
     2
  9
$LTSCALE
 40
0.25
  9
$OSMODE
 70
    37
  9
$ATTMODE
 70
     1
  9
$TEXTSIZE
 40
0.2
  9
$TRACEWID
 40
0.05
  9
$TEXTSTYLE
  7
STANDARD
  9
$CLAYER
  8
0
  9
$CELTYPE
  6
BYLAYER
  9
$CECOLOR
 62
   256
  9
$DIMSCALE
 40
1.0
  9
$DIMASZ
 40
2.499996185302734
  9
$DIMEXO
 40
1.0
  9
$DIMDLI
 40
10.0
  9
$DIMRND
 40
0.0
  9
$DIMDLE
 40
0.0
  9
$DIMEXE
 40
1.0
  9
$DIMTP
 40
0.0
  9
$DIMTM
 40
0.0
  9
$DIMTXT
 40
4.0
  9
$DIMCEN
 40
0.0
  9
$DIMTSZ
 40
0.0
  9
$DIMTOL
 70
     0
  9
$DIMLIM
 70
     0
  9
$DIMTIH
 70
     0
  9
$DIMTOH
 70
     0
  9
$DIMSE1
 70
     0
  9
$DIMSE2
 70
     0
  9
$DIMTAD
 70
     1
  9
$DIMZIN
 70
     8
  9
$DIMBLK
  1

  9
$DIMASO
 70
     1
  9
$DIMSHO
 70
     1
  9
$DIMPOST
  1

  9
$DIMAPOST
  1

  9
$DIMALT
 70
     0
  9
$DIMALTD
 70
     2
  9
$DIMALTF
 40
25.4
  9
$DIMLFAC
 40
1.0
  9
$DIMTOFL
 70
     0
  9
$DIMTVP
 40
0.0
  9
$DIMTIX
 70
     0
  9
$DIMSOXD
 70
     0
  9
$DIMSAH
 70
     0
  9
$DIMBLK1
  1

  9
$DIMBLK2
  1

  9
$DIMSTYLE
  2
STANDARD
  9
$DIMCLRD
 70
     0
  9
$DIMCLRE
 70
     0
  9
$DIMCLRT
 70
     0
  9
$DIMTFAC
 40
0.65
  9
$DIMGAP
 40
0.09
  9
$LUNITS
 70
     2
  9
$LUPREC
 70
     4
  9
$SKETCHINC
 40
0.1
  9
$FILLETRAD
 40
0.5
  9
$AUNITS
 70
     0
  9
$AUPREC
 70
     0
  9
$MENU
  1
.
  9
$ELEVATION
 40
0.0
  9
$PELEVATION
 40
0.0
  9
$THICKNESS
 40
0.0
  9
$LIMCHECK
 70
     0
  9
$CHAMFERA
 40
0.0
  9
$CHAMFERB
 40
0.0
  9
$SKPOLY
 70
     0
  9
$TDCREATE
 40
2457665.577656296
  9
$TDUPDATE
 40
2457665.57765684
  9
$TDINDWG
 40
0.0000000116
  9
$TDUSRTIMER
 40
0.0000000116
  9
$USRTIMER
 70
     1
  9
$ANGBASE
 50
0.0
  9
$ANGDIR
 70
     0
  9
$PDMODE
 70
     0
  9
$PDSIZE
 40
1.0
  9
$PLINEWID
 40
0.0
  9
$COORDS
 70
     1
  9
$SPLFRAME
 70
     0
  9
$SPLINETYPE
 70
     6
  9
$SPLINESEGS
 70
     8
  9
$ATTDIA
 70
     0
  9
$ATTREQ
 70
     1
  9
$HANDLING
 70
     1
  9
$HANDSEED
  5
665
  9
$SURFTAB1
 70
     6
  9
$SURFTAB2
 70
     6
  9
$SURFTYPE
 70
     6
  9
$SURFU
 70
     6
  9
$SURFV
 70
     6
  9
$UCSNAME
  2

  9
$UCSORG
 10
0.0
 20
0.0
 30
0.0
  9
$UCSXDIR
 10
1.0
 20
0.0
 30
0.0
  9
$UCSYDIR
 10
0.0
 20
1.0
 30
0.0
  9
$PUCSNAME
  2

  9
$PUCSORG
 10
0.0
 20
0.0
 30
0.0
  9
$PUCSXDIR
 10
1.0
 20
0.0
 30
0.0
  9
$PUCSYDIR
 10
0.0
 20
1.0
 30
0.0
  9
$USERI1
 70
     0
  9
$USERI2
 70
     0
  9
$USERI3
 70
     0
  9
$USERI4
 70
     0
  9
$USERI5
 70
     0
  9
$USERR1
 40
0.0
  9
$USERR2
 40
0.0
  9
$USERR3
 40
0.0
  9
$USERR4
 40
0.0
  9
$USERR5
 40
0.0
  9
$WORLDVIEW
 70
     1
  9
$SHADEDGE
 70
     3
  9
$SHADEDIF
 70
    70
  9
$TILEMODE
 70
     1
  9
$MAXACTVP
 70
    64
  9
$PLIMCHECK
 70
     0
  9
$PEXTMIN
 10
1.000000000000000E+20
 20
1.000000000000000E+20
 30
1.000000000000000E+20
  9
$PEXTMAX
 10
-1.000000000000000E+20
 20
-1.000000000000000E+20
 30
-1.000000000000000E+20
  9
$PLIMMIN
 10
0.0
 20
0.0
  9
$PLIMMAX
 10
12.0
 20
9.0
  9
$UNITMODE
 70
     0
  9
$VISRETAIN
 70
     0
  9
$PLINEGEN
 70
     1
  9
$PSLTSCALE
 70
     0
  0
ENDSEC
  0
SECTION
  2
TABLES
  0
TABLE
  2
VPORT
 70
     1
  0
VPORT
  2
*ACTIVE
 70
     0
 10
0.0
 20
0.0
 11
1.0
 21
1.0
 12
0.0
 22
0.0
 13
0.0
 23
0.0
 14
0.5
 24
0.5
 15
0.5
 25
0.5
 16
0.0
 26
0.0
 36
1.0
 17
-0.0000000000000036
 27
-0.0000000000006537
 37
0.0
 40
428.4000000000013
 41
1.41428571428571
 42
50.0
 43
0.0
 44
0.0
 50
0.0
 51
0.0
 71
     0
 72
  1000
 73
     1
 74
     1
 75
     0
 76
     0
 77
     0
 78
     0
  0
ENDTAB
  0
TABLE
  2
LTYPE
 70
    67
  0
LTYPE
  2
CONTINUOUS
 70
     0
  3
Solid line
 72
    65
 73
     0
 40
0.0
  0
LTYPE
  2
HIDDENX2
 70
     0
  3
Hidden (2x) ____ ____ ____ ____ ____ ____ ____ 
 72
    65
 73
     2
 40
19.05
 49
12.7
 49
-6.35
  0
LTYPE
  2
HIDDEN
 70
     0
  3
Hidden __ __ __ __ __ __ __ __ __ __ __ __ __ __
 72
    65
 73
     2
 40
9.524999999999999
 49
6.35
 49
-3.175
  0
LTYPE
  2
HIDDEN2
 70
     0
  3
Hidden (.5x) _ _ _ _ _ _ _ _ _ _ _ _ _ _ _ _ _ 
 72
    65
 73
     2
 40
4.762499999999999
 49
3.175
 49
-1.5875
  0
LTYPE
  2
DASHED
 70
     0
  3
Dashed __ __ __ __ __ __ __ __ __ __ __ __ __ _
 72
    65
 73
     2
 40
19.05
 49
12.7
 49
-6.35
  0
LTYPE
  2
DASHED2
 70
     0
  3
Dashed (.5x) _ _ _ _ _ _ _ _ _ _ _ _ _ _ _ _ _ 
 72
    65
 73
     2
 40
9.524999999999999
 49
6.35
 49
-3.175
  0
LTYPE
  2
DASHEDX2
 70
     0
  3
Dashed (2x) ____  ____  ____  ____  ____  ___
 72
    65
 73
     2
 40
38.09999999999999
 49
25.4
 49
-12.7
  0
LTYPE
  2
DOTX2
 70
     0
  3
Dot (2x) .  .  .  .  .  .  .  .  .  .  .  .  .  .
 72
    65
 73
     2
 40
12.7
 49
0.0
 49
-12.7
  0
LTYPE
  2
DOT
 70
     0
  3
Dot . . . . . . . . . . . . . . . . . . . . . . . .
 72
    65
 73
     2
 40
6.35
 49
0.0
 49
-6.35
  0
LTYPE
  2
DOT2
 70
     0
  3
Dot (.5x) ........................................
 72
    65
 73
     2
 40
3.175
 49
0.0
 49
-3.175
  0
LTYPE
  2
CENTERX2
 70
     0
  3
Center (2x) ________  __  ________  __  _____
 72
    65
 73
     4
 40
101.6
 49
63.5
 49
-12.7
 49
12.7
 49
-12.7
  0
LTYPE
  2
CENTER
 70
     0
  3
Center ____ _ ____ _ ____ _ ____ _ ____ _ ____
 72
    65
 73
     4
 40
50.8
 49
31.75
 49
-6.35
 49
6.35
 49
-6.35
  0
LTYPE
  2
CENTER2
 70
     0
  3
Center (.5x) ___ _ ___ _ ___ _ ___ _ ___ _ ___
 72
    65
 73
     4
 40
28.575
 49
19.05
 49
-3.175
 49
3.175
 49
-3.175
  0
LTYPE
  2
DASHDOTX2
 70
     0
  3
Dash dot (2x) ____  .  ____  .  ____  .  ___
 72
    65
 73
     4
 40
50.8
 49
25.4
 49
-12.7
 49
0.0
 49
-12.7
  0
LTYPE
  2
DASHDOT
 70
     0
  3
Dash dot __ . __ . __ . __ . __ . __ . __ . __
 72
    65
 73
     4
 40
25.4
 49
12.7
 49
-6.35
 49
0.0
 49
-6.35
  0
LTYPE
  2
DASHDOT2
 70
     0
  3
Dash dot (.5x) _._._._._._._._._._._._._._._.
 72
    65
 73
     4
 40
12.7
 49
6.35
 49
-3.175
 49
0.0
 49
-3.175
  0
LTYPE
  2
DIVIDEX2
 70
     0
  3
Divide (2x) ________  .  .  ________  .  .  _
 72
    65
 73
     6
 40
63.5
 49
25.4
 49
-12.7
 49
0.0
 49
-12.7
 49
0.0
 49
-12.7
  0
LTYPE
  2
DIVIDE
 70
     0
  3
Divide ____ . . ____ . . ____ . . ____ . . ____
 72
    65
 73
     6
 40
31.75
 49
12.7
 49
-6.35
 49
0.0
 49
-6.35
 49
0.0
 49
-6.35
  0
LTYPE
  2
DIVIDE2
 70
     0
  3
Divide (.5x) __..__..__..__..__..__..__..__.._
 72
    65
 73
     6
 40
15.875
 49
6.35
 49
-3.175
 49
0.0
 49
-3.175
 49
0.0
 49
-3.175
  0
LTYPE
  2
BORDERX2
 70
     0
  3
Border (2x) ____  ____  .  ____  ____  .  ___
 72
    65
 73
     6
 40
88.89999999999999
 49
25.4
 49
-12.7
 49
25.4
 49
-12.7
 49
0.0
 49
-12.7
  0
LTYPE
  2
BORDER
 70
     0
  3
Border __ __ . __ __ . __ __ . __ __ . __ __ .
 72
    65
 73
     6
 40
44.45
 49
12.7
 49
-6.35
 49
12.7
 49
-6.35
 49
0.0
 49
-6.35
  0
LTYPE
  2
BORDER2
 70
     0
  3
Border (.5x) __.__.__.__.__.__.__.__.__.__.__.
 72
    65
 73
     6
 40
22.225
 49
6.35
 49
-3.175
 49
6.35
 49
-3.175
 49
0.0
 49
-3.175
  0
LTYPE
  2
PHANTOMX2
 70
     0
  3
Phantom (2x) ____________    ____    ____   _
 72
    65
 73
     6
 40
127.0
 49
63.5
 49
-12.7
 49
12.7
 49
-12.7
 49
12.7
 49
-12.7
  0
LTYPE
  2
PHANTOM
 70
     0
  3
Phantom ______  __  __  ______  __  __  ______ 
 72
    65
 73
     6
 40
63.5
 49
31.75
 49
-6.35
 49
6.35
 49
-6.35
 49
6.35
 49
-6.35
  0
LTYPE
  2
PHANTOM2
 70
     0
  3
Phantom (.5x) ___ _ _ ___ _ _ ___ _ _ ___ _ _
 72
    65
 73
     6
 40
31.75
 49
15.875
 49
-3.175
 49
3.175
 49
-3.175
 49
3.175
 49
-3.175
  0
LTYPE
  2
ACAD_ISO06W100
 70
     0
  3
ISO long-dash triple-dot ____ ... ____ ... ____
 72
    65
 73
     8
 40
36.0
 49
24.0
 49
-3.0
 49
0.0
 49
-3.0
 49
0.0
 49
-3.0
 49
0.0
 49
-3.0
  0
LTYPE
  2
ACAD_ISO13W100
 70
     0
  3
ISO double-dash double-dot __ __ . . __ __ . . _
 72
    65
 73
     8
 40
36.0
 49
12.0
 49
-3.0
 49
12.0
 49
-3.0
 49
0.0
 49
-3.0
 49
0.0
 49
-3.0
  0
LTYPE
  2
ACAD_ISO14W100
 70
     0
  3
ISO dash triple-dot __ . . . __ . . . __ . . . _
 72
    65
 73
     8
 40
24.0
 49
12.0
 49
-3.0
 49
0.0
 49
-3.0
 49
0.0
 49
-3.0
 49
0.0
 49
-3.0
  0
LTYPE
  2
ACAD_ISO02W100
 70
     0
  3
ISO dash __ __ __ __ __ __ __ __ __ __ __ __ __
 72
    65
 73
     2
 40
15.0
 49
12.0
 49
-3.0
  0
LTYPE
  2
ACAD_ISO03W100
 70
     0
  3
ISO dash space __    __    __    __    __    __
 72
    65
 73
     2
 40
30.0
 49
12.0
 49
-18.0
  0
LTYPE
  2
ACAD_ISO04W100
 70
     0
  3
ISO long-dash dot ____ . ____ . ____ . ____ . _
 72
    65
 73
     4
 40
30.0
 49
24.0
 49
-3.0
 49
0.0
 49
-3.0
  0
LTYPE
  2
ACAD_ISO05W100
 70
     0
  3
ISO long-dash double-dot ____ .. ____ .. ____ . 
 72
    65
 73
     6
 40
33.0
 49
24.0
 49
-3.0
 49
0.0
 49
-3.0
 49
0.0
 49
-3.0
  0
LTYPE
  2
ACAD_ISO07W100
 70
     0
  3
ISO dot . . . . . . . . . . . . . . . . . . . . 
 72
    65
 73
     2
 40
3.0
 49
0.0
 49
-3.0
  0
LTYPE
  2
ACAD_ISO08W100
 70
     0
  3
ISO long-dash short-dash ____ __ ____ __ ____ _
 72
    65
 73
     4
 40
36.0
 49
24.0
 49
-3.0
 49
6.0
 49
-3.0
  0
LTYPE
  2
ACAD_ISO09W100
 70
     0
  3
ISO long-dash double-short-dash ____ __ __ ____
 72
    65
 73
     6
 40
45.0
 49
24.0
 49
-3.0
 49
6.0
 49
-3.0
 49
6.0
 49
-3.0
  0
LTYPE
  2
ACAD_ISO10W100
 70
     0
  3
ISO dash dot __ . __ . __ . __ . __ . __ . __ . 
 72
    65
 73
     4
 40
18.0
 49
12.0
 49
-3.0
 49
0.0
 49
-3.0
  0
LTYPE
  2
ACAD_ISO11W100
 70
     0
  3
ISO double-dash dot __ __ . __ __ . __ __ . __ _
 72
    65
 73
     6
 40
33.0
 49
12.0
 49
-3.0
 49
12.0
 49
-3.0
 49
0.0
 49
-3.0
  0
LTYPE
  2
ACAD_ISO12W100
 70
     0
  3
ISO dash double-dot __ . . __ . . __ . . __ . . 
 72
    65
 73
     6
 40
21.0
 49
12.0
 49
-3.0
 49
0.0
 49
-3.0
 49
0.0
 49
-3.0
  0
LTYPE
  2
ACAD_ISO15W100
 70
     0
  3
ISO double-dash triple-dot __ __ . . . __ __ . .
 72
    65
 73
    10
 40
39.0
 49
12.0
 49
-3.0
 49
12.0
 49
-3.0
 49
0.0
 49
-3.0
 49
0.0
 49
-3.0
 49
0.0
 49
-3.0
  0
LTYPE
  2
JIS_02_0_7
 70
     0
  3
HIDDEN0.75 _ _ _ _ _ _ _ _ _ _ _ _ _ _ _ _ _ 
 72
    65
 73
     2
 40
1.35
 49
0.75
 49
-0.6
  0
LTYPE
  2
JIS_02_1_0
 70
     0
  3
HIDDEN01 _ _ _ _ _ _ _ _ _ _ _ _ _ _ _ _ _ 
 72
    65
 73
     2
 40
2.0
 49
1.0
 49
-1.0
  0
LTYPE
  2
JIS_02_1_2
 70
     0
  3
HIDDEN01.25  _ _ _ _ _ _ _ _ _ _ _ _ _ _ _ _ _ 
 72
    65
 73
     2
 40
2.5
 49
1.25
 49
-1.25
  0
LTYPE
  2
JIS_02_2_0
 70
     0
  3
HIDDEN02 __ __ __ __ __ __ __ __ __ __ __ 
 72
    65
 73
     2
 40
3.0
 49
2.0
 49
-1.0
  0
LTYPE
  2
JIS_02_4_0
 70
     0
  3
HIDDEN04 ____ ____ ____ ____ ____ ____ ____ 
 72
    65
 73
     2
 40
5.5
 49
4.0
 49
-1.5
  0
LTYPE
  2
JIS_08_11
 70
     0
  3
1SASEN11 ___ _ ___ _ ___ _ ___ _ ___ _ ___
 72
    65
 73
     4
 40
12.8
 49
11.0
 49
-0.6
 49
0.6
 49
-0.6
  0
LTYPE
  2
JIS_08_15
 70
     0
  3
1SASEN15 ____ _ ____ _ ____ _ ____ _ ____ 
 72
    65
 73
     4
 40
17.25
 49
15.0
 49
-0.75
 49
0.75
 49
-0.75
  0
LTYPE
  2
JIS_08_25
 70
     0
  3
1SASEN25 ________  __  ________  __  _____
 72
    65
 73
     4
 40
28.0
 49
25.0
 49
-1.125
 49
0.75
 49
-1.125
  0
LTYPE
  2
JIS_08_37
 70
     0
  3
1SASEN37 ________  __  ________  __  _____
 72
    65
 73
     4
 40
40.5
 49
37.5
 49
-1.125
 49
0.75
 49
-1.125
  0
LTYPE
  2
JIS_08_50
 70
     0
  3
1SASEN50 _______________  __  ____________
 72
    65
 73
     4
 40
53.0
 49
50.0
 49
-1.125
 49
0.75
 49
-1.125
  0
LTYPE
  2
JIS_09_08
 70
     0
  3
2SASEN8 __ _ _ __ _ _ __ _ _ __ _ _ __ _ _ 
 72
    65
 73
     6
 40
10.75
 49
8.0
 49
-0.55
 49
0.55
 49
-0.55
 49
0.55
 49
-0.55
  0
LTYPE
  2
JIS_09_15
 70
     0
  3
2SASEN15 ___ _ _ ___ _ _ ___ _ _ ___ _ _ ___ 
 72
    65
 73
     6
 40
18.9
 49
15.0
 49
-0.9
 49
0.6
 49
-0.9
 49
0.6
 49
-0.9
  0
LTYPE
  2
JIS_09_29
 70
     0
  3
2SASEN29 ______　__  __  ______　__  __  ___
 72
    65
 73
     6
 40
34.0
 49
29.0
 49
-1.2
 49
0.7
 49
-1.2
 49
0.7
 49
-1.2
  0
LTYPE
  2
JIS_09_50
 70
     0
  3
2SASEN50 ____________　__  __  _____________
 72
    65
 73
     6
 40
55.0
 49
50.0
 49
-1.2
 49
0.7
 49
-1.2
 49
0.7
 49
-1.2
  0
LTYPE
  2
SXF_破線
 70
     0
  3
02 dashed -- -- -- -- -- --
 72
    65
 73
     2
 40
7.5
 49
6.0
 49
-1.5
  0
LTYPE
  2
SXF_跳び破線
 70
     0
  3
03 dashed_spaced --  --  --  --
 72
    65
 73
     2
 40
12.0
 49
6.0
 49
-6.0
  0
LTYPE
  2
SXF_一点長鎖線
 70
     0
  3
04 long_dashed_dotted ---- . ---- . ----
 72
    65
 73
     4
 40
15.25
 49
12.0
 49
-1.5
 49
0.25
 49
-1.5
  0
LTYPE
  2
SXF_二点長鎖線
 70
     0
  3
05 long_dashed_double-dotted ---- . . ---- 
 72
    65
 73
     6
 40
17.0
 49
12.0
 49
-1.5
 49
0.25
 49
-1.5
 49
0.25
 49
-1.5
  0
LTYPE
  2
SXF_三点長鎖線
 70
     0
  3
06 long_dashed_triplicate-dotted ---- ... ---- 
 72
    65
 73
     8
 40
18.75
 49
12.0
 49
-1.5
 49
0.25
 49
-1.5
 49
0.25
 49
-1.5
 49
0.25
 49
-1.5
  0
LTYPE
  2
SXF_点線
 70
     0
  3
07 dotted . . . . . . . . . . . . 
 72
    65
 73
     2
 40
1.75
 49
0.25
 49
-1.5
  0
LTYPE
  2
SXF_一点鎖線
 70
     0
  3
08 chain ---- - --- - --- - ---
 72
    65
 73
     4
 40
18.5
 49
12.0
 49
-1.5
 49
3.5
 49
-1.5
  0
LTYPE
  2
SXF_二点鎖線
 70
     0
  3
09 chain_double_dash ---- - - ---- - - ----
 72
    65
 73
     6
 40
23.5
 49
12.0
 49
-1.5
 49
3.5
 49
-1.5
 49
3.5
 49
-1.5
  0
LTYPE
  2
SXF_一点短鎖線
 70
     0
  3
10 dashed_dotted -- . -- . -- . --
 72
    65
 73
     4
 40
9.25
 49
6.0
 49
-1.5
 49
0.25
 49
-1.5
  0
LTYPE
  2
SXF_一点二短鎖線
 70
     0
  3
11 double-dashed_dotted -- -- . -- --
 72
    65
 73
     6
 40
16.75
 49
6.0
 49
-1.5
 49
6.0
 49
-1.5
 49
0.25
 49
-1.5
  0
LTYPE
  2
SXF_二点短鎖線
 70
     0
  3
12 dashed_double_dotted -- . . -- . . --
 72
    65
 73
     6
 40
11.0
 49
6.0
 49
-1.5
 49
0.25
 49
-1.5
 49
0.25
 49
-1.5
  0
LTYPE
  2
SXF_二点二短鎖線
 70
     0
  3
13 double-dashed_double-dotted -- -- . . -- --
 72
    65
 73
     8
 40
18.5
 49
6.0
 49
-1.5
 49
6.0
 49
-1.5
 49
0.25
 49
-1.5
 49
0.25
 49
-1.5
  0
LTYPE
  2
SXF_三点短鎖線
 70
     0
  3
14 dashed triplicate-dotted -- . . . -- . . . --
 72
    65
 73
     8
 40
12.75
 49
6.0
 49
-1.5
 49
0.25
 49
-1.5
 49
0.25
 49
-1.5
 49
0.25
 49
-1.5
  0
LTYPE
  2
SXF_三点二短鎖線
 70
     0
  3
15 double-dashed triplicate-dotted -- -- . . . -- -- 
 72
    65
 73
    10
 40
20.25
 49
6.0
 49
-1.5
 49
6.0
 49
-1.5
 49
0.25
 49
-1.5
 49
0.25
 49
-1.5
 49
0.25
 49
-1.5
  0
ENDTAB
  0
TABLE
  2
LAYER
 70
     2
  0
LAYER
  2
0
 70
     0
 62
     7
  6
CONTINUOUS
  0
LAYER
  2
LAYER0014
 70
     0
 62
     7
  6
CONTINUOUS
  0
ENDTAB
  0
TABLE
  2
STYLE
 70
     2
  0
STYLE
  2
STANDARD
 70
     0
 40
0.0
 41
1.0
 50
0.0
 71
     0
 42
0.2
  3
txt.shx
  4
bigfont.shx
  0
STYLE
  2
DCSTYLE0
 70
     0
 40
0.0
 41
0.7999999999999984
 50
0.0
 71
     0
 42
0.2
  3
txt.shx
  4
bigfont
  0
ENDTAB
  0
TABLE
  2
VIEW
 70
     0
  0
ENDTAB
  0
TABLE
  2
UCS
 70
     0
  0
ENDTAB
  0
TABLE
  2
APPID
 70
     2
  0
APPID
  2
ACAD
 70
     0
  0
APPID
  2
DAFUSIONOUT
 70
     0
  0
ENDTAB
  0
TABLE
  2
DIMSTYLE
 70
     1
  0
DIMSTYLE
  2
STANDARD
 70
     0
  3

  4

  5

  6

  7

 40
1.0
 41
0.18
 42
0.0625
 43
0.38
 44
0.18
 45
0.0
 46
0.0
 47
0.0
 48
0.0
140
0.18
141
0.09
142
0.0
143
25.4
144
1.0
145
0.0
146
1.0
147
0.09
 71
     0
 72
     0
 73
     1
 74
     1
 75
     0
 76
     0
 77
     0
 78
     0
170
     0
171
     2
172
     0
173
     0
174
     0
175
     0
176
     0
177
     0
178
     0
  0
ENDTAB
  0
ENDSEC
  0
SECTION
  2
BLOCKS
  0
BLOCK
  8
0
  2
$MODEL_SPACE
 70
     0
 10
0.0
 20
0.0
 30
0.0
  3
$MODEL_SPACE
  1

  0
ENDBLK
  5
21
  8
0
  0
BLOCK
 67
     1
  8
0
  2
$PAPER_SPACE
 70
     0
 10
0.0
 20
0.0
 30
0.0
  3
$PAPER_SPACE
  1

  0
ENDBLK
  5
1D
 67
     1
  8
0
  0
BLOCK
  8
0
  2
DA_IMAGEDIMGROUP_1
 70
     0
 10
0.0
 20
0.0
 30
0.0
  3
DA_IMAGEDIMGROUP_1
  1

  0
LINE
  5
11E
  8
LAYER0014
  6
CONTINUOUS
 62
     7
 10
-55.29333206176758
 20
30.0
 30
0.0
 11
-53.15137100219727
 21
30.0
 31
0.0
  0
ARC
  5
11F
  8
LAYER0014
  6
CONTINUOUS
 62
     7
 10
-153.3333282470703
 20
30.0
 30
0.0
 40
98.68196105957031
 50
0.0
 51
60.00000166965211
  0
INSERT
  5
126
  8
LAYER0014
 62
     7
  2
_OPEN30
 10
-54.6513671875
 20
30.0
 30
0.0
 41
2.499995396844351
 42
2.500007167085477
 50
271.5676482613872
  0
INSERT
  5
127
  8
LAYER0014
 62
     7
  2
_OPEN30
 10
-103.9923502077004
 20
115.4610866106965
 30
0.0
 41
2.499995396844351
 42
2.500007167085477
 50
148.4323534082647
  0
LINE
  5
128
  8
LAYER0014
  6
CONTINUOUS
 62
     3
 10
-104.3133274249172
 20
114.905127947364
 30
0.0
 11
-103.2423450048791
 21
116.7601238795892
 31
0.0
  0
TEXT
  5
12A
  8
LAYER0014
 62
     7
 10
-68.65810513393603
 20
83.90212884355465
 30
0.0
 40
4.0
  1
60ﾟ
 50
300.0
 41
0.9163636363636346
  7
DCSTYLE0
 72
     5
 11
-63.85810513393604
 21
75.58828496722406
 31
0.0
  0
ENDBLK
  5
B1
  8
0
  0
BLOCK
  8
0
  2
DA_IMAGEDIMGROUP_2
 70
     0
 10
0.0
 20
0.0
 30
0.0
  3
DA_IMAGEDIMGROUP_2
  1

  0
LINE
  5
12B
  8
LAYER0014
  6
CONTINUOUS
 62
     3
 10
-104.3133274249172
 20
114.905127947364
 30
0.0
 11
-103.2423450048791
 21
116.7601238795892
 31
0.0
  0
LINE
  5
12C
  8
LAYER0014
  6
CONTINUOUS
 62
     7
 10
-202.3533378810552
 20
114.9051313076379
 30
0.0
 11
-203.4243183937447
 21
116.7601239362384
 31
0.0
  0
ARC
  5
12D
  8
LAYER0014
  6
CONTINUOUS
 62
     7
 10
-153.3333282470703
 20
30.0
 30
0.0
 40
98.68196105957031
 50
60.00000166965211
 51
120.0000033393042
  0
INSERT
  5
12E
  8
LAYER0014
 62
     7
  2
_OPEN30
 10
-103.9923502077004
 20
115.4610866106965
 30
0.0
 41
2.499995396844351
 42
2.500007167085477
 50
330.7257636462013
  0
INSERT
  5
12F
  8
LAYER0014
 62
     7
  2
_OPEN30
 10
-202.6743137576858
 20
115.4610822971707
 30
0.0
 41
2.499995396844351
 42
2.500007167085477
 50
209.2742413627553
  0
TEXT
  5
130
  8
LAYER0014
 62
     7
 10
-157.6763282299042
 20
130.2819610595703
 30
0.0
 40
4.0
  1
60ﾟ
 41
0.9163636363636387
  7
DCSTYLE0
 72
     5
 11
-148.0763282299042
 21
130.2819610595703
 31
0.0
  0
ENDBLK
  5
B4
  8
0
  0
BLOCK
  8
0
  2
DA_IMAGEDIMGROUP_3
 70
     0
 10
0.0
 20
0.0
 30
0.0
  3
DA_IMAGEDIMGROUP_3
  1

  0
LINE
  5
131
  8
LAYER0014
  6
CONTINUOUS
 62
     7
 10
-202.3533378810552
 20
114.9051313076379
 30
0.0
 11
-203.4243183937447
 21
116.7601239362384
 31
0.0
  0
LINE
  5
132
  8
LAYER0014
  6
CONTINUOUS
 62
     7
 10
-251.3733282470703
 20
30.0
 30
0.0
 11
-253.5152893066406
 21
30.0
 31
0.0
  0
ARC
  5
133
  8
LAYER0014
  6
CONTINUOUS
 62
     7
 10
-153.3333282470703
 20
30.0
 30
0.0
 40
98.68196105957031
 50
120.0000033393042
 51
180.0000050089563
  0
INSERT
  5
134
  8
LAYER0014
 62
     7
  2
_OPEN30
 10
-202.6743137576858
 20
115.4610822971707
 30
0.0
 41
2.499995396844351
 42
2.500007167085477
 50
30.72576531585286
  0
INSERT
  5
135
  8
LAYER0014
 62
     7
  2
_OPEN30
 10
-252.0152893066403
 20
29.99999137294867
 30
0.0
 41
2.499995396844351
 42
2.500007167085477
 50
269.2742430324072
  0
TEXT
  5
136
  8
LAYER0014
 62
     7
 10
-242.351558972433
 20
76.37983221601564
 30
0.0
 40
4.0
  1
60ﾟ
 50
59.99999999999999
 41
0.9163636363636378
  7
DCSTYLE0
 72
     5
 11
-237.551558972433
 21
84.69367609234627
 31
0.0
  0
ENDBLK
  5
B7
  8
0
  0
BLOCK
  8
0
  2
DA_IMAGEDIMGROUP_4
 70
     0
 10
0.0
 20
0.0
 30
0.0
  3
DA_IMAGEDIMGROUP_4
  1

  0
LINE
  5
137
  8
LAYER0014
  6
CONTINUOUS
 62
     7
 10
-251.3733282470703
 20
30.0
 30
0.0
 11
-253.5152893066406
 21
30.0
 31
0.0
  0
LINE
  5
138
  8
LAYER0014
  6
CONTINUOUS
 62
     7
 10
-250.1480771213058
 20
4.058567619506059
 30
0.0
 11
-256.4930164198377
 21
2.358446244190418
 31
0.0
  0
ARC
  5
139
  8
LAYER0014
  6
CONTINUOUS
 62
     7
 10
-153.3333282470703
 20
30.0
 30
0.0
 40
98.68196105957031
 50
179.9999949910437
 51
195.0000056537405
  0
INSERT
  5
13A
  8
LAYER0014
 62
     7
  2
_OPEN30
 10
-252.0152893066403
 20
30.00000862705135
 30
0.0
 41
2.499995396844351
 42
2.500007167085477
 50
90.72575696759279
  0
INSERT
  5
13B
  8
LAYER0014
 62
     7
  2
_OPEN30
 10
-248.65278050309
 20
4.459219663938711
 30
0.0
 41
2.499995396844351
 42
2.500007167085477
 50
284.2742436771912
  0
TEXT
  5
13C
  8
LAYER0014
 62
     7
 10
-250.1516297565526
 20
21.63410602137967
 30
0.0
 40
4.0
  1
15ﾟ
 50
277.5000000000001
 41
0.9163636363636388
  7
DCSTYLE0
 72
     5
 11
-248.8985783112401
 21
12.11623535219106
 31
0.0
  0
ENDBLK
  5
BA
  8
0
  0
BLOCK
  8
0
  2
DA_IMAGEDIMGROUP_5
 70
     0
 10
0.0
 20
0.0
 30
0.0
  3
DA_IMAGEDIMGROUP_5
  1

  0
LINE
  5
13D
  8
LAYER0014
  6
CONTINUOUS
 62
     7
 10
-220.9714635448167
 20
-37.63812767623715
 30
0.0
 11
-227.8971151121859
 21
-44.5637792436064
 31
0.0
  0
ARC
  5
13E
  8
LAYER0014
  6
CONTINUOUS
 62
     7
 10
-153.3333282470703
 20
30.0
 30
0.0
 40
98.68196105957031
 50
195.0000056537405
 51
224.9999996583774
  0
INSERT
  5
13F
  8
LAYER0014
 62
     7
  2
_OPEN30
 10
-248.65278050309
 20
4.459219663938711
 30
0.0
 41
2.499995396844351
 42
2.500007167085477
 50
105.7257676302899
  0
INSERT
  5
140
  8
LAYER0014
 62
     7
  2
_OPEN30
 10
-223.1120125091306
 20
-39.77868342995774
 30
0.0
 41
2.499995396844351
 42
2.500007167085477
 50
314.2742376818282
  0
TEXT
  5
141
  8
LAYER0014
 62
     7
 10
-239.5802776803228
 20
-14.77983412336428
 30
0.0
 40
4.0
  1
30ﾟ
 50
300.0
 41
0.9163636363636384
  7
DCSTYLE0
 72
     5
 11
-234.7802776803228
 21
-23.0936779996949
 31
0.0
  0
ENDBLK
  5
BD
  8
0
  0
BLOCK
  8
0
  2
DC_GROUP_1
 70
     0
 10
0.0
 20
0.0
 30
0.0
  3
DC_GROUP_1
  1

  0
CIRCLE
  5
142
  8
LAYER0014
  6
CONTINUOUS
 62
     6
 10
-260.3442993164062
 20
1.60935378074646
 30
0.0
 40
4.0
  0
TEXT
  5
143
  8
LAYER0014
 62
     6
 10
-261.0300146341324
 20
0.3093538284301758
 30
0.0
 40
2.599999904632568
  1
引
 41
1.230769844450211
  7
DCSTYLE0
 72
     5
 11
-258.7442992925644
 21
0.3093538284301758
 31
0.0
  0
ENDBLK
  5
C0
  8
0
  0
BLOCK
  8
0
  2
DC_GROUP_2
 70
     0
 10
0.0
 20
0.0
 30
0.0
  3
DC_GROUP_2
  1

  0
CIRCLE
  5
144
  8
LAYER0014
  6
CONTINUOUS
 62
     6
 10
-231.0336303710938
 20
-47.28940582275391
 30
0.0
 40
4.0
  0
TEXT
  5
145
  8
LAYER0014
 62
     6
 10
-231.7193456888199
 20
-48.58940577507019
 30
0.0
 40
2.599999904632568
  1
押
 41
1.230769844450211
  7
DCSTYLE0
 72
     5
 11
-229.4336303472519
 21
-48.58940577507019
 31
0.0
  0
ENDBLK
  5
C3
  8
0
  0
BLOCK
  8
0
  2
DA_IMAGEDIMGROUP_6
 70
     0
 10
0.0
 20
0.0
 30
0.0
  3
DA_IMAGEDIMGROUP_6
  1

  0
LINE
  5
146
  8
LAYER0014
  6
CONTINUOUS
 62
     7
 10
209.5671691894531
 20
123.04
 30
0.0
 11
209.5671691894531
 21
149.2665557861328
 31
0.0
  0
LINE
  5
147
  8
LAYER0014
  6
CONTINUOUS
 62
     7
 10
88.06716918945312
 20
113.882170715332
 30
0.0
 11
88.06716918945312
 21
164.6233520507812
 31
0.0
  0
LINE
  5
148
  8
LAYER0014
  6
CONTINUOUS
 62
     7
 10
209.5671691894531
 20
148.2665557861328
 30
0.0
 11
88.06716918945312
 21
148.2665557861328
 31
0.0
  0
INSERT
  5
149
  8
LAYER0014
 62
     7
  2
_OPEN30
 10
209.5671691894531
 20
148.2665557861328
 30
0.0
 41
2.499995396844351
 42
2.500007167085477
 50
360.0
  0
INSERT
  5
14A
  8
LAYER0014
 62
     7
  2
_OPEN30
 10
88.06716918945312
 20
148.2665557861328
 30
0.0
 41
2.499995396844351
 42
2.500007167085477
 50
180.0
  0
TEXT
  5
14B
  8
LAYER0014
 62
     7
 10
141.2741692066193
 20
149.8665557861328
 30
0.0
 40
4.0
  1
121.5
 41
0.9655172413793105
  7
DCSTYLE0
 72
     5
 11
157.2741692066193
 21
149.8665557861328
 31
0.0
  0
ENDBLK
  5
C6
  8
0
  0
BLOCK
  8
0
  2
DA_IMAGEDIMGROUP_7
 70
     0
 10
0.0
 20
0.0
 30
0.0
  3
DA_IMAGEDIMGROUP_7
  1

  0
LINE
  5
14C
  8
LAYER0014
  6
CONTINUOUS
 62
     7
 10
70.06716918945312
 20
113.882170715332
 30
0.0
 11
70.06716918945312
 21
164.3717193603516
 31
0.0
  0
LINE
  5
14D
  8
LAYER0014
  6
CONTINUOUS
 62
     7
 10
88.06716918945312
 20
148.2665557861328
 30
0.0
 11
70.06716918945312
 21
148.2665557861328
 31
0.0
  0
INSERT
  5
14E
  8
LAYER0014
 62
     7
  2
_OPEN30
 10
88.06716918945312
 20
148.2665557861328
 30
0.0
 41
2.499995396844351
 42
2.500007167085477
 50
360.0
  0
INSERT
  5
14F
  8
LAYER0014
 62
     7
  2
_OPEN30
 10
70.06716918945312
 20
148.2665557861328
 30
0.0
 41
2.499995396844351
 42
2.500007167085477
 50
180.0
  0
TEXT
  5
150
  8
LAYER0014
 62
     7
 10
76.32416920661926
 20
149.8665557861328
 30
0.0
 40
4.0
  1
18
 41
0.9081081081081089
  7
DCSTYLE0
 72
     5
 11
82.72416920661927
 21
149.8665557861328
 31
0.0
  0
ENDBLK
  5
C9
  8
0
  0
BLOCK
  8
0
  2
DC_GROUP_3
 70
     0
 10
0.0
 20
0.0
 30
0.0
  3
DC_GROUP_3
  1

  0
CIRCLE
  5
151
  8
LAYER0014
  6
CONTINUOUS
 62
     6
 10
88.22740173339844
 20
168.1463623046875
 30
0.0
 40
4.0
  0
TEXT
  5
152
  8
LAYER0014
 62
     6
 10
87.5416864156723
 20
166.8463623523712
 30
0.0
 40
2.599999904632568
  1
引
 41
1.230769844450211
  7
DCSTYLE0
 72
     5
 11
89.8274017572403
 21
166.8463623523712
 31
0.0
  0
ENDBLK
  5
CC
  8
0
  0
BLOCK
  8
0
  2
DC_GROUP_4
 70
     0
 10
0.0
 20
0.0
 30
0.0
  3
DC_GROUP_4
  1

  0
CIRCLE
  5
153
  8
LAYER0014
  6
CONTINUOUS
 62
     6
 10
69.85745239257812
 20
168.1463623046875
 30
0.0
 40
4.0
  0
TEXT
  5
154
  8
LAYER0014
 62
     6
 10
69.17173707485199
 20
166.8463623523712
 30
0.0
 40
2.599999904632568
  1
押
 41
1.230769844450211
  7
DCSTYLE0
 72
     5
 11
71.45745241641998
 21
166.8463623523712
 31
0.0
  0
ENDBLK
  5
CF
  8
0
  0
BLOCK
  8
0
  2
DA_IMAGEDIMGROUP_8
 70
     0
 10
0.0
 20
0.0
 30
0.0
  3
DA_IMAGEDIMGROUP_8
  1

  0
LINE
  5
155
  8
LAYER0014
  6
CONTINUOUS
 62
     7
 10
212.1071691894531
 20
120.5
 30
0.0
 11
264.3422241210938
 21
120.5
 31
0.0
  0
LINE
  5
156
  8
LAYER0014
  6
CONTINUOUS
 62
     7
 10
263.3422241210938
 20
120.5
 30
0.0
 11
263.3422241210938
 21
-60.5
 31
0.0
  0
INSERT
  5
157
  8
LAYER0014
 62
     7
  2
_OPEN30
 10
263.3422241210938
 20
120.5
 30
0.0
 41
2.499995396844351
 42
2.500007167085477
 50
90.0
  0
INSERT
  5
158
  8
LAYER0014
 62
     7
  2
_OPEN30
 10
263.3422241210938
 20
-60.5
 30
0.0
 41
2.499995396844351
 42
2.500007167085477
 50
270.0
  0
LINE
  5
159
  8
LAYER0014
  6
CONTINUOUS
 62
     3
 10
212.1071691894531
 20
-60.5
 30
0.0
 11
264.3422241210938
 21
-60.5
 31
0.0
  0
TEXT
  5
15A
  8
LAYER0014
 62
     7
 10
262.8422241210938
 20
23.60000000000002
 30
0.0
 40
4.0
  1
φ181
 50
90.0
 41
0.9739130434782575
  7
DCSTYLE0
 72
     5
 11
262.8422241210938
 21
36.39999999999998
 31
0.0
  0
ENDBLK
  5
D2
  8
0
  0
BLOCK
  8
0
  2
DA_IMAGEDIMGROUP_9
 70
     0
 10
0.0
 20
0.0
 30
0.0
  3
DA_IMAGEDIMGROUP_9
  1

  0
LINE
  5
15B
  8
LAYER0014
  6
CONTINUOUS
 62
     7
 10
216.3237219238281
 20
111.5
 30
0.0
 11
254.7845153808594
 21
111.5
 31
0.0
  0
LINE
  5
15C
  8
LAYER0014
  6
CONTINUOUS
 62
     7
 10
253.7845153808594
 20
111.5
 30
0.0
 11
253.7845153808594
 21
-51.5
 31
0.0
  0
INSERT
  5
15D
  8
LAYER0014
 62
     7
  2
_OPEN30
 10
253.7845153808594
 20
111.5
 30
0.0
 41
2.499995396844351
 42
2.500007167085477
 50
90.0
  0
INSERT
  5
15E
  8
LAYER0014
 62
     7
  2
_OPEN30
 10
253.7845153808594
 20
-51.5
 30
0.0
 41
2.499995396844351
 42
2.500007167085477
 50
270.0
  0
LINE
  5
15F
  8
LAYER0014
  6
CONTINUOUS
 62
     3
 10
229.7753057861328
 20
-51.5
 30
0.0
 11
254.7845153808594
 21
-51.5
 31
0.0
  0
TEXT
  5
160
  8
LAYER0014
 62
     7
 10
253.2845153808594
 20
18.80000000000001
 30
0.0
 40
4.0
  1
PCD.163
 50
90.0
 41
0.9046153846153837
  7
DCSTYLE0
 72
     5
 11
253.2845153808594
 21
41.19999999999999
 31
0.0
  0
ENDBLK
  5
D5
  8
0
  0
BLOCK
  8
0
  2
DA_IMAGEDIMGROUP_10
 70
     0
 10
0.0
 20
0.0
 30
0.0
  3
DA_IMAGEDIMGROUP_10
  1

  0
LINE
  5
161
  8
LAYER0014
  6
CONTINUOUS
 62
     7
 10
233.2531280517578
 20
50.0
 30
0.0
 11
233.2531280517578
 21
10.0
 31
0.0
  0
INSERT
  5
162
  8
LAYER0014
 62
     7
  2
_OPEN30
 10
233.2531280517578
 20
50.0
 30
0.0
 41
2.499995396844351
 42
2.500007167085477
 50
90.0
  0
INSERT
  5
163
  8
LAYER0014
 62
     7
  2
_OPEN30
 10
233.2531280517578
 20
10.0
 30
0.0
 41
2.499995396844351
 42
2.500007167085477
 50
270.0
  0
TEXT
  5
164
  8
LAYER0014
 62
     7
 10
232.7531280517578
 20
25.19999999999999
 30
0.0
 40
4.0
  1
φ40
 50
90.0
 41
0.9163636363636387
  7
DCSTYLE0
 72
     5
 11
232.7531280517578
 21
34.80000000000001
 31
0.0
  0
ENDBLK
  5
D8
  8
0
  0
BLOCK
  8
0
  2
DA_IMAGEDIMGROUP_11
 70
     0
 10
0.0
 20
0.0
 30
0.0
  3
DA_IMAGEDIMGROUP_11
  1

  0
LINE
  5
165
  8
LAYER0014
  6
CONTINUOUS
 62
     7
 10
224.7573852539062
 20
47.0
 30
0.0
 11
224.7573852539062
 21
13.0
 31
0.0
  0
INSERT
  5
166
  8
LAYER0014
 62
     7
  2
_OPEN30
 10
224.7573852539062
 20
47.0
 30
0.0
 41
2.499995396844351
 42
2.500007167085477
 50
90.0
  0
INSERT
  5
167
  8
LAYER0014
 62
     7
  2
_OPEN30
 10
224.7573852539062
 20
13.0
 30
0.0
 41
2.499995396844351
 42
2.500007167085477
 50
270.0
  0
TEXT
  5
168
  8
LAYER0014
 62
     7
 10
224.2573852539062
 20
17.19999999999999
 30
0.0
 40
4.0
  1
M34×P1.5
 50
90.0
 41
0.8960000000000008
  7
DCSTYLE0
 72
     5
 11
224.2573852539062
 21
42.80000000000001
 31
0.0
  0
ENDBLK
  5
DB
  8
0
  0
BLOCK
  8
0
  2
DA_IMAGEDIMGROUP_12
 70
     0
 10
0.0
 20
0.0
 30
0.0
  3
DA_IMAGEDIMGROUP_12
  1

  0
LINE
  5
169
  8
LAYER0014
  6
CONTINUOUS
 62
     7
 10
35.19754119873047
 20
75.0
 30
0.0
 11
-37.30974578857422
 21
75.0
 31
0.0
  0
LINE
  5
16A
  8
LAYER0014
  6
CONTINUOUS
 62
     7
 10
34.56635375976563
 20
-15.0
 30
0.0
 11
-37.30974578857422
 21
-15.0
 31
0.0
  0
LINE
  5
16B
  8
LAYER0014
  6
CONTINUOUS
 62
     7
 10
-36.30974578857422
 20
75.0
 30
0.0
 11
-36.30974578857422
 21
-15.0
 31
0.0
  0
INSERT
  5
16C
  8
LAYER0014
 62
     7
  2
_OPEN30
 10
-36.30974578857422
 20
75.0
 30
0.0
 41
2.499995396844351
 42
2.500007167085477
 50
90.0
  0
INSERT
  5
16D
  8
LAYER0014
 62
     7
  2
_OPEN30
 10
-36.30974578857422
 20
-15.0
 30
0.0
 41
2.499995396844351
 42
2.500007167085477
 50
270.0
  0
TEXT
  5
16E
  8
LAYER0014
 62
     7
 10
-36.80974578857422
 20
21.29945512820034
 30
0.0
 40
4.0
  1
PCD.90
 50
90.0
 41
0.9163636363636365
  7
DCSTYLE0
 72
     5
 11
-36.80974578857422
 21
40.49945512820034
 31
0.0
  0
ENDBLK
  5
DE
  8
0
  0
BLOCK
  8
0
  2
DA_IMAGEDIMGROUP_13
 70
     0
 10
0.0
 20
0.0
 30
0.0
  3
DA_IMAGEDIMGROUP_13
  1

  0
LINE
  5
16F
  8
LAYER0014
  6
CONTINUOUS
 62
     7
 10
29.02716918945313
 20
56.0
 30
0.0
 11
-16.39921569824219
 21
56.0
 31
0.0
  0
LINE
  5
170
  8
LAYER0014
  6
CONTINUOUS
 62
     7
 10
29.02716918945313
 20
4.0
 30
0.0
 11
-16.39921569824219
 21
4.0
 31
0.0
  0
LINE
  5
171
  8
LAYER0014
  6
CONTINUOUS
 62
     7
 10
-15.3992166519165
 20
56.0
 30
0.0
 11
-15.3992166519165
 21
4.0
 31
0.0
  0
INSERT
  5
172
  8
LAYER0014
 62
     7
  2
_OPEN30
 10
-15.3992166519165
 20
56.0
 30
0.0
 41
2.499995396844351
 42
2.500007167085477
 50
90.0
  0
INSERT
  5
173
  8
LAYER0014
 62
     7
  2
_OPEN30
 10
-15.3992166519165
 20
4.0
 30
0.0
 41
2.499995396844351
 42
2.500007167085477
 50
270.0
  0
TEXT
  5
174
  8
LAYER0014
 62
     7
 10
-15.8992166519165
 20
18.09945512820034
 30
0.0
 40
4.0
  1
M52×Ｐ1.5
 50
90.0
 41
0.9142857142857145
  7
DCSTYLE0
 72
     5
 11
-15.8992166519165
 21
43.69945512820034
 31
0.0
  0
ENDBLK
  5
E1
  8
0
  0
BLOCK
  8
0
  2
DA_IMAGEDIMGROUP_14
 70
     0
 10
0.0
 20
0.0
 30
0.0
  3
DA_IMAGEDIMGROUP_14
  1

  0
LINE
  5
175
  8
LAYER0014
  6
CONTINUOUS
 62
     7
 10
22.67805000305176
 20
51.0
 30
0.0
 11
-7.413925170898438
 21
51.0
 31
0.0
  0
LINE
  5
176
  8
LAYER0014
  6
CONTINUOUS
 62
     7
 10
22.09546943664551
 20
9.0
 30
0.0
 11
-7.413925170898438
 21
9.0
 31
0.0
  0
LINE
  5
177
  8
LAYER0014
  6
CONTINUOUS
 62
     7
 10
-6.413925170898438
 20
51.0
 30
0.0
 11
-6.413925170898438
 21
9.0
 31
0.0
  0
INSERT
  5
178
  8
LAYER0014
 62
     7
  2
_OPEN30
 10
-6.413925170898438
 20
51.0
 30
0.0
 41
2.499995396844351
 42
2.500007167085477
 50
90.0
  0
INSERT
  5
179
  8
LAYER0014
 62
     7
  2
_OPEN30
 10
-6.413925170898438
 20
9.0
 30
0.0
 41
2.499995396844351
 42
2.500007167085477
 50
270.0
  0
TEXT
  5
17A
  8
LAYER0014
 62
     7
 10
-6.913925170898437
 20
22.06901207280336
 30
0.0
 40
4.0
  1
PCD.42
 50
90.0
 41
0.9163636363636365
  7
DCSTYLE0
 72
     5
 11
-6.913925170898437
 21
41.26901207280336
 31
0.0
  0
ENDBLK
  5
E4
  8
0
  0
BLOCK
  8
0
  2
DA_IMAGEDIMGROUP_15
 70
     0
 10
0.0
 20
0.0
 30
0.0
  3
DA_IMAGEDIMGROUP_15
  1

  0
LINE
  5
17B
  8
LAYER0014
  6
CONTINUOUS
 62
     7
 10
14.90002059936523
 20
46.5
 30
0.0
 11
14.90002059936523
 21
13.5
 31
0.0
  0
INSERT
  5
17C
  8
LAYER0014
 62
     7
  2
_OPEN30
 10
14.90002059936523
 20
46.5
 30
0.0
 41
2.499995396844351
 42
2.500007167085477
 50
90.0
  0
INSERT
  5
17D
  8
LAYER0014
 62
     7
  2
_OPEN30
 10
14.90002059936523
 20
13.5
 30
0.0
 41
2.499995396844351
 42
2.500007167085477
 50
270.0
  0
TEXT
  5
17E
  8
LAYER0014
 62
     7
 10
14.40002059936523
 20
17.2
 30
0.0
 40
4.0
  1
M33×Ｐ1.5
 50
90.0
 41
0.9142857142857143
  7
DCSTYLE0
 72
     5
 11
14.40002059936523
 21
42.8
 31
0.0
  0
ENDBLK
  5
E7
  8
0
  0
BLOCK
  8
0
  2
DA_IMAGEDIMGROUP_16
 70
     0
 10
0.0
 20
0.0
 30
0.0
  3
DA_IMAGEDIMGROUP_16
  1

  0
LINE
  5
17F
  8
LAYER0014
  6
CONTINUOUS
 62
     7
 10
25.3480339050293
 20
43.0
 30
0.0
 11
25.3480339050293
 21
17.0
 31
0.0
  0
INSERT
  5
180
  8
LAYER0014
 62
     7
  2
_OPEN30
 10
25.3480339050293
 20
43.0
 30
0.0
 41
2.499995396844351
 42
2.500007167085477
 50
90.0
  0
INSERT
  5
181
  8
LAYER0014
 62
     7
  2
_OPEN30
 10
25.3480339050293
 20
17.0
 30
0.0
 41
2.499995396844351
 42
2.500007167085477
 50
270.0
  0
TEXT
  5
182
  8
LAYER0014
 62
     7
 10
24.8480339050293
 20
22.0
 30
0.0
 40
4.0
  1
φ27H8
 50
90.0
 41
0.865979381443299
  7
DCSTYLE0
 72
     5
 11
24.8480339050293
 21
38.0
 31
0.0
  0
ENDBLK
  5
EA
  8
0
  0
BLOCK
  8
0
  2
DA_IMAGEDIMGROUP_17
 70
     0
 10
0.0
 20
0.0
 30
0.0
  3
DA_IMAGEDIMGROUP_17
  1

  0
LINE
  5
183
  8
LAYER0014
  6
CONTINUOUS
 62
     7
 10
236.5671691894531
 20
7.46
 30
0.0
 11
236.5671691894531
 21
-102.522590637207
 31
0.0
  0
LINE
  5
184
  8
LAYER0014
  6
CONTINUOUS
 62
     7
 10
214.5671691894531
 20
-35.04
 30
0.0
 11
214.5671691894531
 21
-102.522590637207
 31
0.0
  0
LINE
  5
185
  8
LAYER0014
  6
CONTINUOUS
 62
     7
 10
236.5671691894531
 20
-101.522590637207
 30
0.0
 11
214.5671691894531
 21
-101.522590637207
 31
0.0
  0
INSERT
  5
186
  8
LAYER0014
 62
     7
  2
_OPEN30
 10
236.5671691894531
 20
-101.522590637207
 30
0.0
 41
2.499995396844351
 42
2.500007167085477
 50
360.0
  0
INSERT
  5
187
  8
LAYER0014
 62
     7
  2
_OPEN30
 10
214.5671691894531
 20
-101.522590637207
 30
0.0
 41
2.499995396844351
 42
2.500007167085477
 50
180.0
  0
TEXT
  5
188
  8
LAYER0014
 62
     7
 10
217.5671691894531
 20
-101.022590637207
 30
0.0
 40
4.0
  1
MAX22
 41
0.8484848484848485
  7
DCSTYLE0
 72
     5
 11
233.5671691894531
 21
-101.022590637207
 31
0.0
  0
ENDBLK
  5
ED
  8
0
  0
BLOCK
  8
0
  2
DA_IMAGEDIMGROUP_18
 70
     0
 10
0.0
 20
0.0
 30
0.0
  3
DA_IMAGEDIMGROUP_18
  1

  0
LINE
  5
189
  8
LAYER0014
  6
CONTINUOUS
 62
     7
 10
31.56716918945312
 20
1.46
 30
0.0
 11
31.56716918945312
 21
-102.522590637207
 31
0.0
  0
LINE
  5
18A
  8
LAYER0014
  6
CONTINUOUS
 62
     7
 10
209.5671691894531
 20
-101.522590637207
 30
0.0
 11
31.56716918945312
 21
-101.522590637207
 31
0.0
  0
INSERT
  5
18B
  8
LAYER0014
 62
     7
  2
_OPEN30
 10
209.5671691894531
 20
-101.522590637207
 30
0.0
 41
2.499995396844351
 42
2.500007167085477
 50
360.0
  0
INSERT
  5
18C
  8
LAYER0014
 62
     7
  2
_OPEN30
 10
31.56716918945312
 20
-101.522590637207
 30
0.0
 41
2.499995396844351
 42
2.500007167085477
 50
180.0
  0
TEXT
  5
18D
  8
LAYER0014
 62
     7
 10
115.7671691894531
 20
-101.022590637207
 30
0.0
 40
4.0
  1
178
 41
0.8842105263157889
  7
DCSTYLE0
 72
     5
 11
125.3671691894531
 21
-101.022590637207
 31
0.0
  0
ENDBLK
  5
F0
  8
0
  0
BLOCK
  8
0
  2
DA_IMAGEDIMGROUP_19
 70
     0
 10
0.0
 20
0.0
 30
0.0
  3
DA_IMAGEDIMGROUP_19
  1

  0
LINE
  5
18E
  8
LAYER0014
  6
CONTINUOUS
 62
     7
 10
5.567168235778809
 20
10.96
 30
0.0
 11
5.567168235778809
 21
-102.522590637207
 31
0.0
  0
LINE
  5
18F
  8
LAYER0014
  6
CONTINUOUS
 62
     7
 10
31.56716918945312
 20
-101.522590637207
 30
0.0
 11
5.567168235778809
 21
-101.522590637207
 31
0.0
  0
INSERT
  5
190
  8
LAYER0014
 62
     7
  2
_OPEN30
 10
31.56716918945312
 20
-101.522590637207
 30
0.0
 41
2.499995396844351
 42
2.500007167085477
 50
360.0
  0
INSERT
  5
191
  8
LAYER0014
 62
     7
  2
_OPEN30
 10
5.567168235778809
 20
-101.522590637207
 30
0.0
 41
2.499995396844351
 42
2.500007167085477
 50
180.0
  0
TEXT
  5
192
  8
LAYER0014
 62
     7
 10
10.56716871261597
 20
-101.022590637207
 30
0.0
 40
4.0
  1
MIN26
 41
0.9230769230769231
  7
DCSTYLE0
 72
     5
 11
26.56716871261597
 21
-101.022590637207
 31
0.0
  0
ENDBLK
  5
F3
  8
0
  0
BLOCK
  8
0
  2
DA_IMAGEDIMGROUP_20
 70
     0
 10
0.0
 20
0.0
 30
0.0
  3
DA_IMAGEDIMGROUP_20
  1

  0
LINE
  5
193
  8
LAYER0014
  6
CONTINUOUS
 62
     3
 10
138.5671691894531
 20
-63.04
 30
0.0
 11
138.5671691894531
 21
-92.96487426757812
 31
0.0
  0
LINE
  5
194
  8
LAYER0014
  6
CONTINUOUS
 62
     7
 10
209.5671691894531
 20
-91.96487426757812
 30
0.0
 11
138.5671691894531
 21
-91.96487426757812
 31
0.0
  0
INSERT
  5
195
  8
LAYER0014
 62
     7
  2
_OPEN30
 10
209.5671691894531
 20
-91.96487426757812
 30
0.0
 41
2.499995396844351
 42
2.500007167085477
 50
360.0
  0
INSERT
  5
196
  8
LAYER0014
 62
     7
  2
_OPEN30
 10
138.5671691894531
 20
-91.96487426757812
 30
0.0
 41
2.499995396844351
 42
2.500007167085477
 50
180.0
  0
TEXT
  5
197
  8
LAYER0014
 62
     7
 10
170.8671691894531
 20
-91.46487426757812
 30
0.0
 40
4.0
  1
71
 41
1.083870967741932
  7
DCSTYLE0
 72
     5
 11
177.2671691894531
 21
-91.46487426757812
 31
0.0
  0
ENDBLK
  5
F6
  8
0
  0
BLOCK
  8
0
  2
DA_IMAGEDIMGROUP_21
 70
     0
 10
0.0
 20
0.0
 30
0.0
  3
DA_IMAGEDIMGROUP_21
  1

  0
LINE
  5
198
  8
LAYER0014
  6
CONTINUOUS
 62
     7
 10
116.5671691894531
 20
-32.54
 30
0.0
 11
116.5671691894531
 21
-92.96487426757812
 31
0.0
  0
LINE
  5
199
  8
LAYER0014
  6
CONTINUOUS
 62
     7
 10
138.5671691894531
 20
-91.96487426757812
 30
0.0
 11
116.5671691894531
 21
-91.96487426757812
 31
0.0
  0
INSERT
  5
19A
  8
LAYER0014
 62
     7
  2
_OPEN30
 10
138.5671691894531
 20
-91.96487426757812
 30
0.0
 41
2.499995396844351
 42
2.500007167085477
 50
360.0
  0
INSERT
  5
19B
  8
LAYER0014
 62
     7
  2
_OPEN30
 10
116.5671691894531
 20
-91.96487426757812
 30
0.0
 41
2.499995396844351
 42
2.500007167085477
 50
180.0
  0
TEXT
  5
19C
  8
LAYER0014
 62
     7
 10
124.3671691894531
 20
-91.46487426757812
 30
0.0
 40
4.0
  1
22
 41
0.9081081081081069
  7
DCSTYLE0
 72
     5
 11
130.7671691894531
 21
-91.46487426757812
 31
0.0
  0
ENDBLK
  5
F9
  8
0
  0
BLOCK
  8
0
  2
DA_IMAGEDIMGROUP_22
 70
     0
 10
0.0
 20
0.0
 30
0.0
  3
DA_IMAGEDIMGROUP_22
  1

  0
LINE
  5
19D
  8
LAYER0014
  6
CONTINUOUS
 62
     7
 10
115.5671691894531
 20
-22.54
 30
0.0
 11
115.5671691894531
 21
-92.96487426757812
 31
0.0
  0
LINE
  5
19E
  8
LAYER0014
  6
CONTINUOUS
 62
     7
 10
41.56716918945312
 20
-22.54
 30
0.0
 11
41.56716918945312
 21
-92.96487426757812
 31
0.0
  0
LINE
  5
19F
  8
LAYER0014
  6
CONTINUOUS
 62
     7
 10
115.5671691894531
 20
-91.96487426757812
 30
0.0
 11
41.56716918945312
 21
-91.96487426757812
 31
0.0
  0
INSERT
  5
1A0
  8
LAYER0014
 62
     7
  2
_OPEN30
 10
115.5671691894531
 20
-91.96487426757812
 30
0.0
 41
2.499995396844351
 42
2.500007167085477
 50
360.0
  0
INSERT
  5
1A1
  8
LAYER0014
 62
     7
  2
_OPEN30
 10
41.56716918945312
 20
-91.96487426757812
 30
0.0
 41
2.499995396844351
 42
2.500007167085477
 50
180.0
  0
TEXT
  5
1A2
  8
LAYER0014
 62
     7
 10
75.82416920661926
 20
-90.36487426757813
 30
0.0
 40
4.0
  1
74
 41
0.8842105263157903
  7
DCSTYLE0
 72
     5
 11
82.22416920661927
 21
-90.36487426757813
 31
0.0
  0
ENDBLK
  5
FC
  8
0
  0
BLOCK
  8
0
  2
DA_IMAGEDIMGROUP_23
 70
     0
 10
0.0
 20
0.0
 30
0.0
  3
DA_IMAGEDIMGROUP_23
  1

  0
LINE
  5
1A3
  8
LAYER0014
  6
CONTINUOUS
 62
     7
 10
32.56716918945312
 20
-8.54
 30
0.0
 11
32.56716918945312
 21
-92.96487426757812
 31
0.0
  0
LINE
  5
1A4
  8
LAYER0014
  6
CONTINUOUS
 62
     7
 10
41.56716918945312
 20
-91.96487426757812
 30
0.0
 11
32.56716918945312
 21
-91.96487426757812
 31
0.0
  0
INSERT
  5
1A5
  8
LAYER0014
 62
     7
  2
_OPEN30
 10
41.56716918945312
 20
-91.96487426757812
 30
0.0
 41
2.499995396844351
 42
2.500007167085477
 50
360.0
  0
INSERT
  5
1A6
  8
LAYER0014
 62
     7
  2
_OPEN30
 10
32.56716918945312
 20
-91.96487426757812
 30
0.0
 41
2.499995396844351
 42
2.500007167085477
 50
180.0
  0
TEXT
  5
1A7
  8
LAYER0014
 62
     7
 10
35.46716918945312
 20
-91.46487426757812
 30
0.0
 40
4.0
  1
9
 41
1.050000000000001
  7
DCSTYLE0
 72
     5
 11
38.66716918945313
 21
-91.46487426757812
 31
0.0
  0
ENDBLK
  5
FF
  8
0
  0
BLOCK
  8
0
  2
DA_IMAGEDIMGROUP_24
 70
     0
 10
0.0
 20
0.0
 30
0.0
  3
DA_IMAGEDIMGROUP_24
  1

  0
LINE
  5
1A8
  8
LAYER0014
  6
CONTINUOUS
 62
     7
 10
78.56716918945312
 20
-25.15232948303223
 30
0.0
 11
78.56716918945312
 21
-82.7962646484375
 31
0.0
  0
LINE
  5
1A9
  8
LAYER0014
  6
CONTINUOUS
 62
     7
 10
115.5671691894531
 20
-81.7962646484375
 30
0.0
 11
78.56716918945312
 21
-81.7962646484375
 31
0.0
  0
INSERT
  5
1AA
  8
LAYER0014
 62
     7
  2
_OPEN30
 10
115.5671691894531
 20
-81.7962646484375
 30
0.0
 41
2.499995396844351
 42
2.500007167085477
 50
360.0
  0
INSERT
  5
1AB
  8
LAYER0014
 62
     7
  2
_OPEN30
 10
78.56716918945312
 20
-81.7962646484375
 30
0.0
 41
2.499995396844351
 42
2.500007167085477
 50
180.0
  0
TEXT
  5
1AC
  8
LAYER0014
 62
     7
 10
93.86716918945312
 20
-81.2962646484375
 30
0.0
 40
4.0
  1
37
 41
0.9081081081081089
  7
DCSTYLE0
 72
     5
 11
100.2671691894531
 21
-81.2962646484375
 31
0.0
  0
ENDBLK
  5
102
  8
0
  0
BLOCK
  8
0
  2
DA_IMAGEDIMGROUP_25
 70
     0
 10
0.0
 20
0.0
 30
0.0
  3
DA_IMAGEDIMGROUP_25
  1

  0
LINE
  5
1AD
  8
LAYER0014
  6
CONTINUOUS
 62
     7
 10
78.56716918945312
 20
-81.7962646484375
 30
0.0
 11
41.56716918945312
 21
-81.7962646484375
 31
0.0
  0
INSERT
  5
1AE
  8
LAYER0014
 62
     7
  2
_OPEN30
 10
78.56716918945312
 20
-81.7962646484375
 30
0.0
 41
2.499995396844351
 42
2.500007167085477
 50
360.0
  0
INSERT
  5
1AF
  8
LAYER0014
 62
     7
  2
_OPEN30
 10
41.56716918945312
 20
-81.7962646484375
 30
0.0
 41
2.499995396844351
 42
2.500007167085477
 50
180.0
  0
TEXT
  5
1B0
  8
LAYER0014
 62
     7
 10
56.86716918945312
 20
-81.2962646484375
 30
0.0
 40
4.0
  1
37
 41
0.9081081081081089
  7
DCSTYLE0
 72
     5
 11
63.26716918945313
 21
-81.2962646484375
 31
0.0
  0
ENDBLK
  5
105
  8
0
  0
BLOCK
  8
0
  2
DC_GROUP_5
 70
     0
 10
0.0
 20
0.0
 30
0.0
  3
DC_GROUP_5
  1

  0
LINE
  5
1B1
  8
LAYER0014
  6
CONTINUOUS
 62
     7
 10
79.24290784962363
 20
-20.80591855903197
 30
0.0
 11
89.79155321044755
 21
-41.71141523382278
 31
0.0
  0
INSERT
  5
1B2
  8
LAYER0014
 62
     7
  2
_OPEN30
 10
79.24290784962363
 20
-20.80591855903197
 30
0.0
 41
2.499995396844351
 42
2.500007167085477
 50
116.7749254340979
  0
LINE
  5
1B3
  8
LAYER0014
  6
CONTINUOUS
 62
     7
 10
89.79155731201172
 20
-41.7114143371582
 30
0.0
 11
107.6648101806641
 21
-41.7114143371582
 31
0.0
  0
TEXT
  5
1B4
  8
LAYER0014
 62
     7
 10
90.75051879882812
 20
-40.1114143371582
 30
0.0
 40
4.0
  1
M12×8
 41
0.8484848484848485
  7
DCSTYLE0
 72
     5
 11
106.7505187988281
 21
-40.1114143371582
 31
0.0
  0
ENDBLK
  5
108
  8
0
  0
BLOCK
  8
0
  2
DA_IMAGEDIMGROUP_26
 70
     0
 10
0.0
 20
0.0
 30
0.0
  3
DA_IMAGEDIMGROUP_26
  1

  0
LINE
  5
1B5
  8
LAYER0014
  6
CONTINUOUS
 62
     3
 10
114.0271691894531
 20
90.0
 30
0.0
 11
106.2329254150391
 21
90.0
 31
0.0
  0
LINE
  5
1B6
  8
LAYER0014
  6
CONTINUOUS
 62
     7
 10
114.0271691894531
 20
-30.0
 30
0.0
 11
106.2329254150391
 21
-30.0
 31
0.0
  0
LINE
  5
1B7
  8
LAYER0014
  6
CONTINUOUS
 62
     7
 10
107.2329254150391
 20
90.0
 30
0.0
 11
107.2329254150391
 21
-30.0
 31
0.0
  0
INSERT
  5
1B8
  8
LAYER0014
 62
     7
  2
_OPEN30
 10
107.2329254150391
 20
90.0
 30
0.0
 41
2.499995396844351
 42
2.500007167085477
 50
90.0
  0
INSERT
  5
1B9
  8
LAYER0014
 62
     7
  2
_OPEN30
 10
107.2329254150391
 20
-30.0
 30
0.0
 41
2.499995396844351
 42
2.500007167085477
 50
270.0
  0
TEXT
  5
1BA
  8
LAYER0014
 62
     7
 10
106.7329254150391
 20
23.59999999999999
 30
0.0
 40
4.0
  1
φ120
 50
90.0
 41
0.8960000000000009
  7
DCSTYLE0
 72
     5
 11
106.7329254150391
 21
36.40000000000001
 31
0.0
  0
ENDBLK
  5
10B
  8
0
  0
BLOCK
  8
0
  2
DA_IMAGEDIMGROUP_27
 70
     0
 10
0.0
 20
0.0
 30
0.0
  3
DA_IMAGEDIMGROUP_27
  1

  0
LINE
  5
1BB
  8
LAYER0014
  6
CONTINUOUS
 62
     3
 10
211.5671691894531
 20
9.96
 30
0.0
 11
211.5671691894531
 21
-7.299459934234619
 31
0.0
  0
LINE
  5
1BC
  8
LAYER0014
  6
CONTINUOUS
 62
     7
 10
236.5671691894531
 20
-6.299459934234619
 30
0.0
 11
211.5671691894531
 21
-6.299459934234619
 31
0.0
  0
INSERT
  5
1BD
  8
LAYER0014
 62
     7
  2
_OPEN30
 10
236.5671691894531
 20
-6.299459934234619
 30
0.0
 41
2.499995396844351
 42
2.500007167085477
 50
360.0
  0
INSERT
  5
1BE
  8
LAYER0014
 62
     7
  2
_OPEN30
 10
211.5671691894531
 20
-6.299459934234619
 30
0.0
 41
2.499995396844351
 42
2.500007167085477
 50
180.0
  0
TEXT
  5
1BF
  8
LAYER0014
 62
     7
 10
220.8671691894531
 20
-5.799459934234619
 30
0.0
 40
4.0
  1
25
 41
0.9081081081081049
  7
DCSTYLE0
 72
     5
 11
227.2671691894531
 21
-5.799459934234619
 31
0.0
  0
ENDBLK
  5
10E
  8
0
  0
BLOCK
  8
0
  2
DC_GROUP_6
 70
     0
 10
0.0
 20
0.0
 30
0.0
  3
DC_GROUP_6
  1

  0
LINE
  5
1C0
  8
LAYER0014
  6
CONTINUOUS
 62
     7
 10
87.94050358874676
 20
106.9498888925978
 30
0.0
 11
98.23342531941319
 21
120.2653353858427
 31
0.0
  0
INSERT
  5
1C1
  8
LAYER0014
 62
     7
  2
_OPEN30
 10
87.94050358874676
 20
106.9498888925978
 30
0.0
 41
2.499995396844351
 42
2.500007167085477
 50
232.2957570438311
  0
LINE
  5
1C2
  8
LAYER0014
  6
CONTINUOUS
 62
     7
 10
98.23342895507812
 20
120.2653427124023
 30
0.0
 11
122.4630966186523
 21
120.2653427124023
 31
0.0
  0
TEXT
  5
1C3
  8
LAYER0014
 62
     7
 10
98.72357177734375
 20
121.8653427124023
 30
0.0
 40
4.0
  1
2-Rc3/8
 41
0.8166666666666669
  7
DCSTYLE0
 72
     5
 11
121.1235717773438
 21
121.8653427124023
 31
0.0
  0
ENDBLK
  5
111
  8
0
  0
BLOCK
  8
0
  2
DA_IMAGEDIMGROUP_28
 70
     0
 10
0.0
 20
0.0
 30
0.0
  3
DA_IMAGEDIMGROUP_28
  1

  0
LINE
  5
1C4
  8
LAYER0014
  6
CONTINUOUS
 62
     7
 10
55.56716918945312
 20
46.04
 30
0.0
 11
55.56716918945312
 21
99.48138427734375
 31
0.0
  0
LINE
  5
1C5
  8
LAYER0014
  6
CONTINUOUS
 62
     7
 10
5.567168235778809
 20
98.48138427734375
 30
0.0
 11
55.56716918945312
 21
98.48138427734375
 31
0.0
  0
INSERT
  5
1C6
  8
LAYER0014
 62
     7
  2
_OPEN30
 10
5.567168235778809
 20
98.48138427734375
 30
0.0
 41
2.499995396844351
 42
2.500007167085477
 50
180.0
  0
INSERT
  5
1C7
  8
LAYER0014
 62
     7
  2
_OPEN30
 10
55.56716918945312
 20
98.48138427734375
 30
0.0
 41
2.499995396844351
 42
2.500007167085477
 50
360.0
  0
TEXT
  5
1C8
  8
LAYER0014
 62
     7
 10
27.82416920661926
 20
100.0813842773437
 30
0.0
 40
4.0
  1
50
 41
0.9081081081081084
  7
DCSTYLE0
 72
     5
 11
34.22416920661927
 21
100.0813842773437
 31
0.0
  0
ENDBLK
  5
114
  8
0
  0
BLOCK
  8
0
  2
DA_IMAGEDIMGROUP_29
 70
     0
 10
0.0
 20
0.0
 30
0.0
  3
DA_IMAGEDIMGROUP_29
  1

  0
LINE
  5
1C9
  8
LAYER0014
  6
CONTINUOUS
 62
     7
 10
5.567168235778809
 20
49.04
 30
0.0
 11
5.567168235778809
 21
109.2853469848633
 31
0.0
  0
LINE
  5
1CA
  8
LAYER0014
  6
CONTINUOUS
 62
     7
 10
61.56716918945312
 20
49.04
 30
0.0
 11
61.56716918945312
 21
109.2853469848633
 31
0.0
  0
LINE
  5
1CB
  8
LAYER0014
  6
CONTINUOUS
 62
     7
 10
5.567168235778809
 20
108.2853469848633
 30
0.0
 11
61.56716918945312
 21
108.2853469848633
 31
0.0
  0
INSERT
  5
1CC
  8
LAYER0014
 62
     7
  2
_OPEN30
 10
5.567168235778809
 20
108.2853469848633
 30
0.0
 41
2.499995396844351
 42
2.500007167085477
 50
180.0
  0
INSERT
  5
1CD
  8
LAYER0014
 62
     7
  2
_OPEN30
 10
61.56716918945312
 20
108.2853469848633
 30
0.0
 41
2.499995396844351
 42
2.500007167085477
 50
360.0
  0
TEXT
  5
1CE
  8
LAYER0014
 62
     7
 10
30.82416920661926
 20
109.8853469848633
 30
0.0
 40
4.0
  1
56
 41
0.9081081081081084
  7
DCSTYLE0
 72
     5
 11
37.22416920661927
 21
109.8853469848633
 31
0.0
  0
ENDBLK
  5
117
  8
0
  0
BLOCK
  8
0
  2
DC_GROUP_7
 70
     0
 10
0.0
 20
0.0
 30
0.0
  3
DC_GROUP_7
  1

  0
LINE
  5
1CF
  8
LAYER0014
  6
CONTINUOUS
 62
     7
 10
31.47921234643445
 20
8.92208115710082
 30
0.0
 11
-14.18541399200603
 21
-47.36222251022355
 31
0.0
  0
INSERT
  5
1D0
  8
LAYER0014
 62
     7
  2
_OPEN30
 10
31.47921234643445
 20
8.92208115710082
 30
0.0
 41
2.499995396844351
 42
2.500007167085477
 50
50.94686145274625
  0
LINE
  5
1D1
  8
LAYER0014
  6
CONTINUOUS
 62
     7
 10
-14.18541145324707
 20
-47.36222076416016
 30
0.0
 11
-40.33161163330078
 21
-47.36222076416016
 31
0.0
  0
TEXT
  5
1D2
  8
LAYER0014
 62
     7
 10
-38.50304164886475
 20
-45.76222076416015
 30
0.0
 40
4.0
  1
6-M6×12
 41
0.811034482758621
  7
DCSTYLE0
 72
     5
 11
-16.10304164886475
 21
-45.76222076416015
 31
0.0
  0
ENDBLK
  5
11A
  8
0
  0
BLOCK
  8
0
  2
DC_GROUP_8
 70
     0
 10
0.0
 20
0.0
 30
0.0
  3
DC_GROUP_8
  1

  0
LINE
  5
1D3
  8
LAYER0014
  6
CONTINUOUS
 62
     7
 10
40.68293410963372
 20
-15.14919325386683
 30
0.0
 11
-10.29152681761366
 21
-78.15928958123732
 31
0.0
  0
INSERT
  5
1D4
  8
LAYER0014
 62
     7
  2
_OPEN30
 10
40.68293410963372
 20
-15.14919325386683
 30
0.0
 41
2.499995396844351
 42
2.500007167085477
 50
51.02752975854296
  0
LINE
  5
1D5
  8
LAYER0014
  6
CONTINUOUS
 62
     7
 10
-10.29152870178223
 20
-78.15929412841797
 30
0.0
 11
-36.43772888183594
 21
-78.15929412841797
 31
0.0
  0
TEXT
  5
1D6
  8
LAYER0014
 62
     7
 10
-34.60915889739991
 20
-76.55929412841797
 30
0.0
 40
4.0
  1
6-M6x12
 41
0.8166666666666669
  7
DCSTYLE0
 72
     5
 11
-12.2091588973999
 21
-76.55929412841797
 31
0.0
  0
ENDBLK
  5
11D
  8
0
  0
BLOCK
  8
0
  2
_OPEN30
 70
     0
 10
0.0
 20
0.0
 30
0.0
  3
_OPEN30
  1

  0
LINE
  5
123
  8
0
  6
BYBLOCK
 62
     0
 10
-1.0
 20
0.267949
 30
0.0
 11
0.0
 21
0.0
 31
0.0
  0
LINE
  5
124
  8
0
  6
BYBLOCK
 62
     0
 10
0.0
 20
0.0
 30
0.0
 11
-1.0
 21
-0.267949
 31
0.0
  0
LINE
  5
125
  8
0
  6
BYBLOCK
 62
     0
 10
0.0
 20
0.0
 30
0.0
 11
-1.0
 21
0.0
 31
0.0
  0
ENDBLK
  5
122
  8
0
  0
ENDSEC
  0
SECTION
  2
ENTITIES
  0
LINE
  5
1D7
  8
0
  6
CENTER
 62
     7
 10
1.759863615036011
 20
30.0
 30
0.0
 11
7.936023737286415
 21
30.0
 31
0.0
  0
LINE
  5
1D8
  8
0
  6
CENTER
 62
     7
 10
132.7320709228516
 20
111.5
 30
0.0
 11
213.7837219238281
 21
111.5
 31
0.0
  0
LINE
  5
1D9
  8
0
  6
CENTER
 62
     7
 10
134.5127716064453
 20
-51.5
 30
0.0
 11
227.2353057861328
 21
-51.5
 31
0.0
  0
LINE
  5
1DA
  8
0
  6
CENTER
 62
     7
 10
88.06716918945312
 20
111.342170715332
 30
0.0
 11
88.06716918945312
 21
68.49565887451172
 31
0.0
  0
LINE
  5
1DB
  8
0
  6
CENTER
 62
     7
 10
127.0671691894531
 20
68.54885864257812
 30
0.0
 11
127.0671691894531
 21
47.00257110595703
 31
0.0
  0
LINE
  5
1DC
  8
0
  6
CENTER
 62
     7
 10
116.028205871582
 20
2.5
 30
0.0
 11
138.1313171386719
 21
2.5
 31
0.0
  0
LINE
  5
1DD
  8
0
  6
CENTER
 62
     7
 10
115.2282028198242
 20
57.5
 30
0.0
 11
139.1262969970703
 21
57.5
 31
0.0
  0
LINE
  5
1DE
  8
0
  6
CENTER
 62
     7
 10
-153.3338317871094
 20
124.7391738891602
 30
0.0
 11
-153.3338317871094
 21
-65.26082611083984
 31
0.0
  0
LINE
  5
1DF
  8
0
  6
CENTER
 62
     7
 10
24.63546943664551
 20
9.0
 30
0.0
 11
36.6665153503418
 21
9.0
 31
0.0
  0
LINE
  5
1E0
  8
0
  6
CENTER
 62
     7
 10
25.21805000305176
 20
51.0
 30
0.0
 11
36.56716918945312
 21
51.0
 31
0.0
  0
LINE
  5
1E1
  8
0
  6
CENTER
 62
     7
 10
37.10635375976562
 20
-15.0
 30
0.0
 11
50.94862365722656
 21
-15.0
 31
0.0
  0
LINE
  5
1E2
  8
0
  6
CENTER
 62
     7
 10
37.73754119873047
 20
75.0
 30
0.0
 11
51.6566047668457
 21
75.0
 31
0.0
  0
LINE
  5
1E3
  8
0
  6
CENTER
 62
     7
 10
-248.8333282470703
 20
30.0
 30
0.0
 11
-57.83333206176758
 21
30.0
 31
0.0
  0
LINE
  5
1E4
  8
0
  6
CENTER
 62
     7
 10
-232.644383375803
 20
-15.7902608925956
 30
0.0
 11
-70.62790616863981
 21
77.74999751499718
 31
0.0
  0
LINE
  5
1E5
  8
0
  6
CENTER
 62
     7
 10
-201.0833293493615
 20
-52.70542902599846
 30
0.0
 11
-105.5833274420129
 21
112.7054234316217
 31
0.0
  0
LINE
  5
1E6
  8
0
  6
CENTER
 62
     7
 10
-70.62790616863981
 20
-17.74999923802739
 30
0.0
 11
-236.0387520190106
 21
77.74999885462398
 31
0.0
  0
LINE
  5
1E7
  8
0
  6
CENTER
 62
     7
 10
-105.5833345260994
 20
-52.70542814344304
 30
0.0
 11
-201.0833378639595
 21
112.7054267918957
 31
0.0
  0
LINE
  5
1E8
  8
0
  6
CENTER
 62
     7
 10
-210.6501059099924
 20
56.72724743381923
 30
0.0
 11
-190.7050831666443
 21
47.42673070891988
 31
0.0
  0
LINE
  5
1E9
  8
0
  6
CENTER
 62
     7
 10
-115.9053497424352
 20
12.54704264429301
 30
0.0
 11
-95.41348744778452
 21
2.991530452195093
 31
0.0
  0
LINE
  5
1EA
  8
0
  6
CENTER
 62
     7
 10
-115.1779688978122
 20
47.7921402615093
 30
0.0
 11
-95.96115513651421
 21
56.75308756581035
 31
0.0
  0
LINE
  5
1EB
  8
0
  6
CENTER
 62
     7
 10
-247.6946255239091
 20
4.715967999207351
 30
0.0
 11
-226.541445675186
 21
10.38394550452904
 31
0.0
  0
LINE
  5
1EC
  8
0
  6
CENTER
 62
     7
 10
-222.0506122827455
 20
-38.71727641416601
 30
0.0
 11
-207.1266629897937
 21
-23.79332712121413
 31
0.0
  0
LINE
  5
1ED
  8
0
  6
CENTER
 62
     7
 10
-205.695571020482
 20
15.96958083059326
 30
0.0
 11
-203.5090761414631
 21
16.55545037259162
 31
0.0
  0
LINE
  5
1EE
  8
0
  6
CENTER
 62
     7
 10
70.06716918945312
 20
111.342170715332
 30
0.0
 11
70.06716918945312
 21
68.49565887451172
 31
0.0
  0
LINE
  5
1EF
  8
0
  6
CENTER
 62
     7
 10
78.56716918945312
 20
-2.759566426277161
 30
0.0
 11
78.56716918945312
 21
-22.61232948303223
 31
0.0
  0
LINE
  5
1F0
  8
0
  6
CENTER
 62
     7
 10
110.0648422241211
 20
30.0
 30
0.0
 11
144.4018096923828
 21
30.0
 31
0.0
  0
LINE
  5
1F1
  8
0
  6
CENTER
 62
     7
 10
153.9595184326172
 20
30.0
 30
0.0
 11
219.8811492919922
 21
30.0
 31
0.0
  0
LINE
  5
1F2
  8
0
  6
CENTER
 62
     7
 10
127.0671691894531
 20
12.76387214660645
 30
0.0
 11
127.0671691894531
 21
-9.256868839263916
 31
0.0
  0
LINE
  5
1F3
  8
0
  6
CENTER
 62
     7
 10
234.1165008544922
 20
30.0
 30
0.0
 11
239.6524658203125
 21
30.0
 31
0.0
  0
LINE
  5
1F4
  8
0
  6
CENTER
 62
     7
 10
26.63583183288574
 20
30.0
 30
0.0
 11
98.7371826171875
 21
30.0
 31
0.0
  0
LINE
  5
1F5
  8
0
  6
CENTER
 62
     7
 10
-202.7325004403756
 20
16.76353320630369
 30
0.0
 11
-192.9128098413694
 21
19.39471139428406
 31
0.0
  0
LINE
  5
1F6
  8
0
  6
CENTER
 62
     7
 10
-191.8512211245688
 20
-8.517885255989313
 30
0.0
 11
-182.9661153412803
 21
0.367220527299196
 31
0.0
  0
CIRCLE
  5
1F7
  8
0
  6
CENTER
 62
     7
 10
-153.3333282470703
 20
30.0
 30
0.0
 40
21.0
  0
ARC
  5
1F8
  8
0
  6
CENTER
 62
     7
 10
-153.3333282470703
 20
30.0
 30
0.0
 40
30.5
 50
0.0
 51
5.920575739088541
  0
ARC
  5
1F9
  8
0
  6
CENTER
 62
     7
 10
-153.3333282470703
 20
30.0
 30
0.0
 40
30.5
 50
174.4398075528374
 51
186.3772296935922
  0
ARC
  5
1FA
  8
0
  6
CENTER
 62
     7
 10
-153.3333282470703
 20
30.0
 30
0.0
 40
30.5
 50
353.5712983140239
 51
0.0
  0
CIRCLE
  5
1FB
  8
0
  6
CENTER
 62
     7
 10
-153.3333282470703
 20
30.0
 30
0.0
 40
81.5
  0
CIRCLE
  5
1FC
  8
0
  6
CENTER
 62
     7
 10
-153.3333282470703
 20
30.0
 30
0.0
 40
45.0
  0
ARC
  5
1FD
  8
0
  6
CENTER
 62
     7
 10
-153.3333282470703
 20
30.0
 30
0.0
 40
52.5
 50
0.0
 51
165.8365149346677
  0
ARC
  5
1FE
  8
0
  6
CENTER
 62
     7
 10
-153.3333282470703
 20
30.0
 30
0.0
 40
52.5
 50
206.7459366109247
 51
211.4503796659328
  0
ARC
  5
1FF
  8
0
  6
CENTER
 62
     7
 10
-153.3333282470703
 20
30.0
 30
0.0
 40
52.5
 50
236.0705205292957
 51
0.0
  0
LINE
  5
200
  8
0
  6
DASHED2
 62
     7
 10
-148.183837890625
 20
-10.0
 30
0.0
 11
-148.183837890625
 21
-20.0
 31
0.0
  0
LINE
  5
201
  8
0
  6
DASHED2
 62
     7
 10
-158.4838256835938
 20
-10.0
 30
0.0
 11
-158.4838256835938
 21
-20.0
 31
0.0
  0
LINE
  5
202
  8
0
  6
DASHED2
 62
     7
 10
-158.4838256835938
 20
-10.0
 30
0.0
 11
-148.183837890625
 21
-10.0
 31
0.0
  0
LINE
  5
203
  8
0
  6
DASHED2
 62
     7
 10
-159.3338317871094
 20
-12.0
 30
0.0
 11
-147.3338317871094
 21
-12.0
 31
0.0
  0
LINE
  5
204
  8
0
  6
DASHED2
 62
     7
 10
-159.3338317871094
 20
-12.0
 30
0.0
 11
-159.3338317871094
 21
-20.0
 31
0.0
  0
LINE
  5
205
  8
0
  6
DASHED2
 62
     7
 10
-158.4838279972946
 20
-9.999999729621322
 30
0.0
 11
-153.3338339118854
 21
-7.026649204718979
 31
0.0
  0
LINE
  5
206
  8
0
  6
DASHED2
 62
     7
 10
-148.1838299758292
 20
-9.999998196688011
 30
0.0
 11
-153.3338240612384
 21
-7.026647671785668
 31
0.0
  0
LINE
  5
207
  8
0
  6
DASHED2
 62
     7
 10
83.71717071533203
 20
-10.0
 30
0.0
 11
83.71717071533203
 21
-20.0
 31
0.0
  0
LINE
  5
208
  8
0
  6
DASHED2
 62
     7
 10
73.41716766357422
 20
-10.0
 30
0.0
 11
83.71717071533203
 21
-10.0
 31
0.0
  0
LINE
  5
209
  8
0
  6
DASHED2
 62
     7
 10
72.56716918945312
 20
-12.0
 30
0.0
 11
84.56716918945312
 21
-12.0
 31
0.0
  0
LINE
  5
20A
  8
0
  6
DASHED2
 62
     7
 10
73.41716579730837
 20
-10.00000027154556
 30
0.0
 11
78.5671664899669
 21
-7.02664593194595
 31
0.0
  0
LINE
  5
20B
  8
0
  6
DASHED2
 62
     7
 10
83.71717042602313
 20
-10.00000146946104
 30
0.0
 11
78.56716973336461
 21
-7.026647129861431
 31
0.0
  0
LINE
  5
20C
  8
0
  6
DASHED2
 62
     7
 10
73.41716766357422
 20
-10.0
 30
0.0
 11
73.41716766357422
 21
-20.0
 31
0.0
  0
LINE
  5
20D
  8
0
  6
DASHED2
 62
     7
 10
72.56716918945312
 20
-12.0
 30
0.0
 11
72.56716918945312
 21
-20.0
 31
0.0
  0
CIRCLE
  5
20E
  8
0
  6
DASHED2
 62
     7
 10
127.0671691894531
 20
57.5
 30
0.0
 40
8.0
  0
CIRCLE
  5
20F
  8
0
  6
DASHED2
 62
     7
 10
127.0671691894531
 20
2.5
 30
0.0
 40
8.0
  0
LINE
  5
210
  8
0
  6
CONTINUOUS
 62
     7
 10
-147.3338317871094
 20
-12.0
 30
0.0
 11
-147.3338317871094
 21
-20.0
 31
0.0
  0
LINE
  5
211
  8
0
  6
CONTINUOUS
 62
     7
 10
143.0
 20
-142.0
 30
0.0
 11
274.0
 21
-142.0
 31
0.0
  0
LINE
  5
212
  8
0
  6
CONTINUOUS
 62
     7
 10
94.0
 20
-176.0
 30
0.0
 11
143.0
 21
-176.0
 31
0.0
  0
LINE
  5
213
  8
0
  6
CONTINUOUS
 62
     7
 10
143.0
 20
-141.0
 30
0.0
 11
94.0
 21
-141.0
 31
0.0
  0
LINE
  5
214
  8
0
  6
CONTINUOUS
 62
     7
 10
143.0
 20
-148.0
 30
0.0
 11
94.0
 21
-148.0
 31
0.0
  0
LINE
  5
215
  8
0
  6
CONTINUOUS
 62
     7
 10
143.0
 20
-155.0
 30
0.0
 11
94.0
 21
-155.0
 31
0.0
  0
LINE
  5
216
  8
0
  6
CONTINUOUS
 62
     7
 10
143.0
 20
-162.0
 30
0.0
 11
94.0
 21
-162.0
 31
0.0
  0
LINE
  5
217
  8
0
  6
CONTINUOUS
 62
     7
 10
143.0
 20
-169.0
 30
0.0
 11
94.0
 21
-169.0
 31
0.0
  0
LINE
  5
218
  8
0
  6
CONTINUOUS
 62
     7
 10
118.5
 20
-134.0
 30
0.0
 11
118.5
 21
-180.0
 31
0.0
  0
LINE
  5
219
  8
0
  6
CONTINUOUS
 62
     7
 10
106.0
 20
-134.0
 30
0.0
 11
106.0
 21
-176.0
 31
0.0
  0
LINE
  5
21A
  8
0
  6
CONTINUOUS
 62
     7
 10
102.0
 20
-134.0
 30
0.0
 11
102.0
 21
-176.0
 31
0.0
  0
LINE
  5
21B
  8
0
  6
CONTINUOUS
 62
     7
 10
211.3333435058594
 20
-171.4237518310547
 30
0.0
 11
211.3333435058594
 21
-166.0
 31
0.0
  0
LINE
  5
21C
  8
0
  6
CONTINUOUS
 62
     7
 10
197.6666717529297
 20
-180.0
 30
0.0
 11
197.6666717529297
 21
-166.0
 31
0.0
  0
LINE
  5
21D
  8
0
  6
CONTINUOUS
 62
     7
 10
170.3333435058594
 20
-180.0
 30
0.0
 11
170.3333435058594
 21
-166.0
 31
0.0
  0
LINE
  5
21E
  8
0
  6
CONTINUOUS
 62
     7
 10
143.0
 20
-170.0
 30
0.0
 11
225.0
 21
-170.0
 31
0.0
  0
LINE
  5
21F
  8
0
  6
CONTINUOUS
 62
     7
 10
225.0
 20
-159.0
 30
0.0
 11
252.0
 21
-159.0
 31
0.0
  0
LINE
  5
220
  8
0
  6
CONTINUOUS
 62
     7
 10
199.0
 20
-151.0
 30
0.0
 11
199.0
 21
-152.0
 31
0.0
  0
LINE
  5
221
  8
0
  6
CONTINUOUS
 62
     7
 10
223.0
 20
-151.0
 30
0.0
 11
223.0
 21
-152.0
 31
0.0
  0
LINE
  5
222
  8
0
  6
CONTINUOUS
 62
     7
 10
240.0
 20
-151.0
 30
0.0
 11
240.0
 21
-152.0
 31
0.0
  0
LINE
  5
223
  8
0
  6
CONTINUOUS
 62
     7
 10
252.0
 20
-170.0
 30
0.0
 11
274.0
 21
-170.0
 31
0.0
  0
LINE
  5
224
  8
0
  6
CONTINUOUS
 62
     7
 10
95.00000334939523
 20
-140.4999934978641
 30
0.0
 11
98.00000090516778
 21
-134.499998386319
 31
0.0
  0
LINE
  5
225
  8
0
  6
CONTINUOUS
 62
     7
 10
98.00000261115224
 20
-134.500009475218
 30
0.0
 11
100.9999967549559
 21
-140.4999977628253
 31
0.0
  0
LINE
  5
226
  8
0
  6
CONTINUOUS
 62
     7
 10
95.0
 20
-140.5
 30
0.0
 11
101.0
 21
-140.5
 31
0.0
  0
LINE
  5
227
  8
0
  6
CONTINUOUS
 62
     7
 10
94.99999652545739
 20
-147.5000025798654
 30
0.0
 11
98.00000090516778
 21
-141.4999938204446
 31
0.0
  0
LINE
  5
228
  8
0
  6
CONTINUOUS
 62
     7
 10
97.99999749319886
 20
-141.5000074683203
 30
0.0
 11
100.9999984609403
 21
-147.5000094038032
 31
0.0
  0
LINE
  5
229
  8
0
  6
CONTINUOUS
 62
     7
 10
95.0
 20
-147.5
 30
0.0
 11
101.0
 21
-147.5
 31
0.0
  0
LINE
  5
22A
  8
0
  6
CONTINUOUS
 62
     7
 10
94.99999652545739
 20
-154.499998013991
 30
0.0
 11
97.99999749319886
 21
-148.499996078508
 31
0.0
  0
LINE
  5
22B
  8
0
  6
CONTINUOUS
 62
     7
 10
98.00000261115224
 20
-148.5000003434692
 30
0.0
 11
101.0000035788937
 21
-154.5000022789521
 31
0.0
  0
LINE
  5
22C
  8
0
  6
CONTINUOUS
 62
     7
 10
95.0
 20
-154.5
 30
0.0
 11
101.0
 21
-154.5
 31
0.0
  0
LINE
  5
22D
  8
0
  6
CONTINUOUS
 62
     7
 10
94.99999311348847
 20
-161.5000002720544
 30
0.0
 11
97.99999408122994
 21
-155.4999983365715
 31
0.0
  0
LINE
  5
22E
  8
0
  6
CONTINUOUS
 62
     7
 10
97.99999919918332
 20
-155.4999974835793
 30
0.0
 11
101.0000001669248
 21
-161.4999994190622
 31
0.0
  0
LINE
  5
22F
  8
0
  6
CONTINUOUS
 62
     7
 10
95.0
 20
-161.5
 30
0.0
 11
101.0
 21
-161.5
 31
0.0
  0
LINE
  5
230
  8
0
  6
CONTINUOUS
 62
     7
 10
95.00000676136415
 20
-168.5000025301179
 30
0.0
 11
98.00000772910562
 21
-162.5000005946349
 31
0.0
  0
LINE
  5
231
  8
0
  6
CONTINUOUS
 62
     7
 10
97.99999749319886
 20
-162.5000108305417
 30
0.0
 11
100.9999984609403
 21
-168.5000127660246
 31
0.0
  0
LINE
  5
232
  8
0
  6
CONTINUOUS
 62
     7
 10
95.0
 20
-168.5
 30
0.0
 11
101.0
 21
-168.5
 31
0.0
  0
LINE
  5
233
  8
0
  6
CONTINUOUS
 62
     7
 10
150.0
 20
-134.0
 30
0.0
 11
150.0
 21
-142.0
 31
0.0
  0
LINE
  5
234
  8
0
  6
CONTINUOUS
 62
     7
 10
199.0
 20
-134.0
 30
0.0
 11
199.0
 21
-142.0
 31
0.0
  0
LINE
  5
235
  8
0
  6
CONTINUOUS
 62
     7
 10
223.0
 20
-134.0
 30
0.0
 11
223.0
 21
-142.0
 31
0.0
  0
LINE
  5
236
  8
0
  6
CONTINUOUS
 62
     7
 10
240.0
 20
-134.0
 30
0.0
 11
240.0
 21
-142.0
 31
0.0
  0
LINE
  5
237
  8
0
  6
CONTINUOUS
 62
     7
 10
84.56716918945312
 20
-12.0
 30
0.0
 11
84.56716918945312
 21
-20.0
 31
0.0
  0
CIRCLE
  5
238
  8
0
  6
CONTINUOUS
 62
     7
 10
-130.8333282470703
 20
68.97114562988281
 30
0.0
 40
3.0
  0
LINE
  5
239
  8
0
  6
CONTINUOUS
 62
     3
 10
138.5671691894531
 20
-60.5
 30
0.0
 11
209.5671691894531
 21
-60.5
 31
0.0
  0
LINE
  5
23A
  8
0
  6
CONTINUOUS
 62
     3
 10
138.5671691894531
 20
120.5
 30
0.0
 11
209.5671691894531
 21
120.5
 31
0.0
  0
LINE
  5
23B
  8
0
  6
CONTINUOUS
 62
     3
 10
236.5671691894531
 20
50.0
 30
0.0
 11
236.5671691894531
 21
10.0
 31
0.0
  0
LINE
  5
23C
  8
0
  6
CONTINUOUS
 62
     3
 10
214.5671691894531
 20
92.5
 30
0.0
 11
214.5671691894531
 21
50.0
 31
0.0
  0
LINE
  5
23D
  8
0
  6
CONTINUOUS
 62
     3
 10
209.5671691894531
 20
120.5
 30
0.0
 11
209.5671691894531
 21
75.47207641601562
 31
0.0
  0
LINE
  5
23E
  8
0
  6
CONTINUOUS
 62
     3
 10
31.56716918945312
 20
56.0
 30
0.0
 11
31.56716918945312
 21
46.5
 31
0.0
  0
LINE
  5
23F
  8
0
  6
CONTINUOUS
 62
     3
 10
5.567168235778809
 20
46.5
 30
0.0
 11
5.567168235778809
 21
13.5
 31
0.0
  0
LINE
  5
240
  8
0
  6
CONTINUOUS
 62
     3
 10
193.7380065917969
 20
50.0
 30
0.0
 11
236.5671691894531
 21
50.0
 31
0.0
  0
LINE
  5
241
  8
0
  6
CONTINUOUS
 62
     3
 10
193.7380065917969
 20
10.0
 30
0.0
 11
236.5671691894531
 21
10.0
 31
0.0
  0
LINE
  5
242
  8
0
  6
CONTINUOUS
 62
     3
 10
209.5671691894531
 20
-32.5
 30
0.0
 11
214.5671691894531
 21
-32.5
 31
0.0
  0
LINE
  5
243
  8
0
  6
CONTINUOUS
 62
     3
 10
209.5671691894531
 20
92.5
 30
0.0
 11
214.5671691894531
 21
92.5
 31
0.0
  0
LINE
  5
244
  8
0
  6
CONTINUOUS
 62
     3
 10
214.5671691894531
 20
10.0
 30
0.0
 11
214.5671691894531
 21
-32.5
 31
0.0
  0
LINE
  5
245
  8
0
  6
CONTINUOUS
 62
     3
 10
209.5671691894531
 20
-15.72539710998535
 30
0.0
 11
209.5671691894531
 21
-60.5
 31
0.0
  0
LINE
  5
246
  8
0
  6
CONTINUOUS
 62
     3
 10
31.56716918945312
 20
13.5
 30
0.0
 11
31.56716918945312
 21
4.0
 31
0.0
  0
LINE
  5
247
  8
0
  6
CONTINUOUS
 62
     3
 10
211.5671691894531
 20
47.5
 30
0.0
 11
211.5671691894531
 21
12.5
 31
0.0
  0
LINE
  5
248
  8
0
  6
CONTINUOUS
 62
     3
 10
211.5671691894531
 20
47.5
 30
0.0
 11
214.5671691894531
 21
47.5
 31
0.0
  0
LINE
  5
249
  8
0
  6
CONTINUOUS
 62
     3
 10
211.5671691894531
 20
12.5
 30
0.0
 11
214.5671691894531
 21
12.5
 31
0.0
  0
LINE
  5
24A
  8
0
  6
CONTINUOUS
 62
     3
 10
214.5671691894531
 20
47.5
 30
0.0
 11
214.5671691894531
 21
12.5
 31
0.0
  0
LINE
  5
24B
  8
0
  6
CONTINUOUS
 62
     3
 10
214.5671691894531
 20
46.29999923706055
 30
0.0
 11
236.5671691894531
 21
46.29999923706055
 31
0.0
  0
LINE
  5
24C
  8
0
  6
CONTINUOUS
 62
     3
 10
214.5671691894531
 20
13.69999980926514
 30
0.0
 11
236.5671691894531
 21
13.69999980926514
 31
0.0
  0
LINE
  5
24D
  8
0
  6
CONTINUOUS
 62
     3
 10
55.56716918945312
 20
43.5
 30
0.0
 11
211.5671691894531
 21
43.5
 31
0.0
  0
LINE
  5
24E
  8
0
  6
CONTINUOUS
 62
     3
 10
55.56716918945312
 20
16.5
 30
0.0
 11
211.5671691894531
 21
16.5
 31
0.0
  0
LINE
  5
24F
  8
0
  6
CONTINUOUS
 62
     3
 10
55.56716918945312
 20
43.5
 30
0.0
 11
55.56716918945312
 21
16.5
 31
0.0
  0
LINE
  5
250
  8
0
  6
CONTINUOUS
 62
     3
 10
5.567168235778809
 20
43.0
 30
0.0
 11
55.56716918945312
 21
43.0
 31
0.0
  0
LINE
  5
251
  8
0
  6
CONTINUOUS
 62
     3
 10
5.567168235778809
 20
17.0
 30
0.0
 11
55.56716918945312
 21
17.0
 31
0.0
  0
LINE
  5
252
  8
0
  6
CONTINUOUS
 62
     3
 10
67.56716918945312
 20
47.0
 30
0.0
 11
67.56716918945312
 21
46.5
 31
0.0
  0
LINE
  5
253
  8
0
  6
CONTINUOUS
 62
     3
 10
46.56716918945312
 20
47.0
 30
0.0
 11
77.16130828857422
 21
47.0
 31
0.0
  0
LINE
  5
254
  8
0
  6
CONTINUOUS
 62
     3
 10
46.56716918945312
 20
13.0
 30
0.0
 11
77.16130828857422
 21
13.0
 31
0.0
  0
LINE
  5
255
  8
0
  6
CONTINUOUS
 62
     3
 10
5.567168235778809
 20
46.5
 30
0.0
 11
67.56716918945312
 21
46.5
 31
0.0
  0
LINE
  5
256
  8
0
  6
CONTINUOUS
 62
     3
 10
5.567168235778809
 20
13.5
 30
0.0
 11
67.56716918945312
 21
13.5
 31
0.0
  0
LINE
  5
257
  8
0
  6
CONTINUOUS
 62
     3
 10
67.56716918945312
 20
13.5
 30
0.0
 11
67.56716918945312
 21
13.0
 31
0.0
  0
LINE
  5
258
  8
0
  6
CONTINUOUS
 62
     3
 10
61.56716918945312
 20
46.5
 30
0.0
 11
61.56716918945312
 21
45.79999923706055
 31
0.0
  0
LINE
  5
259
  8
0
  6
CONTINUOUS
 62
     3
 10
61.56716918945312
 20
14.20000076293945
 30
0.0
 11
61.56716918945312
 21
13.5
 31
0.0
  0
LINE
  5
25A
  8
0
  6
CONTINUOUS
 62
     3
 10
156.5671691894531
 20
121.1366958618164
 30
0.0
 11
156.5671691894531
 21
47.50691986083984
 31
0.0
  0
LINE
  5
25B
  8
0
  6
CONTINUOUS
 62
     3
 10
138.5671691894531
 20
14.18827056884766
 30
0.0
 11
138.5671691894531
 21
-60.5
 31
0.0
  0
LINE
  5
25C
  8
0
  6
CONTINUOUS
 62
     3
 10
138.5671691894531
 20
120.5
 30
0.0
 11
138.5671691894531
 21
45.73697280883789
 31
0.0
  0
LINE
  5
25D
  8
0
  6
CONTINUOUS
 62
     3
 10
209.5671691894531
 20
10.0
 30
0.0
 11
209.5671691894531
 21
7.25
 31
0.0
  0
LINE
  5
25E
  8
0
  6
CONTINUOUS
 62
     3
 10
209.5671691894531
 20
52.75
 30
0.0
 11
209.5671691894531
 21
50.0
 31
0.0
  0
LINE
  5
25F
  8
0
  6
CONTINUOUS
 62
     3
 10
205.1671752929688
 20
10.0
 30
0.0
 11
205.1671752929688
 21
7.25
 31
0.0
  0
LINE
  5
260
  8
0
  6
CONTINUOUS
 62
     3
 10
205.1671752929688
 20
52.75
 30
0.0
 11
205.1671752929688
 21
50.0
 31
0.0
  0
LINE
  5
261
  8
0
  6
CONTINUOUS
 62
     3
 10
206.1671752929688
 20
53.75
 30
0.0
 11
208.5671691894531
 21
53.75
 31
0.0
  0
LINE
  5
262
  8
0
  6
CONTINUOUS
 62
     3
 10
206.1671752929688
 20
6.25
 30
0.0
 11
208.5671691894531
 21
6.25
 31
0.0
  0
LINE
  5
263
  8
0
  6
CONTINUOUS
 62
     3
 10
206.1671752929688
 20
8.125
 30
0.0
 11
208.5671691894531
 21
8.125
 31
0.0
  0
LINE
  5
264
  8
0
  6
CONTINUOUS
 62
     3
 10
116.5671691894531
 20
-30.0
 30
0.0
 11
138.5671691894531
 21
-30.0
 31
0.0
  0
LINE
  5
265
  8
0
  6
CONTINUOUS
 62
     3
 10
116.5671691894531
 20
90.0
 30
0.0
 11
138.5671691894531
 21
90.0
 31
0.0
  0
LINE
  5
266
  8
0
  6
CONTINUOUS
 62
     3
 10
116.5671691894531
 20
90.0
 30
0.0
 11
116.5671691894531
 21
47.70828628540039
 31
0.0
  0
LINE
  5
267
  8
0
  6
CONTINUOUS
 62
     3
 10
116.5671691894531
 20
12.29171466827393
 30
0.0
 11
116.5671691894531
 21
-30.0
 31
0.0
  0
LINE
  5
268
  8
0
  6
CONTINUOUS
 62
     3
 10
44.56716918945312
 20
57.5
 30
0.0
 11
70.12040710449219
 21
57.5
 31
0.0
  0
LINE
  5
269
  8
0
  6
CONTINUOUS
 62
     3
 10
44.56716918945312
 20
2.5
 30
0.0
 11
70.12040710449219
 21
2.5
 31
0.0
  0
LINE
  5
26A
  8
0
  6
CONTINUOUS
 62
     3
 10
44.56716918945312
 20
66.0
 30
0.0
 11
44.56716918945312
 21
55.0
 31
0.0
  0
LINE
  5
26B
  8
0
  6
CONTINUOUS
 62
     3
 10
44.56716918945312
 20
5.0
 30
0.0
 11
44.56716918945312
 21
-6.5
 31
0.0
  0
LINE
  5
26C
  8
0
  6
CONTINUOUS
 62
     3
 10
31.56716918945312
 20
4.0
 30
0.0
 11
44.56716918945312
 21
4.0
 31
0.0
  0
LINE
  5
26D
  8
0
  6
CONTINUOUS
 62
     3
 10
31.56716918945312
 20
56.0
 30
0.0
 11
40.56716918945312
 21
56.0
 31
0.0
  0
LINE
  5
26E
  8
0
  6
CONTINUOUS
 62
     3
 10
31.56716918945312
 20
12.75
 30
0.0
 11
46.56716918945312
 21
12.75
 31
0.0
  0
LINE
  5
26F
  8
0
  6
CONTINUOUS
 62
     3
 10
46.56716918945312
 20
47.25
 30
0.0
 11
46.56716918945312
 21
46.5
 31
0.0
  0
LINE
  5
270
  8
0
  6
CONTINUOUS
 62
     3
 10
46.56716918945312
 20
13.5
 30
0.0
 11
46.56716918945312
 21
12.75
 31
0.0
  0
LINE
  5
271
  8
0
  6
CONTINUOUS
 62
     3
 10
41.56716918945312
 20
-6.0
 30
0.0
 11
41.56716918945312
 21
-20.0
 31
0.0
  0
LINE
  5
272
  8
0
  6
CONTINUOUS
 62
     3
 10
41.56716918945312
 20
80.0
 30
0.0
 11
41.56716918945312
 21
66.0
 31
0.0
  0
LINE
  5
273
  8
0
  6
CONTINUOUS
 62
     3
 10
41.56716918945312
 20
80.0
 30
0.0
 11
95.55127716064453
 21
80.0
 31
0.0
  0
LINE
  5
274
  8
0
  6
CONTINUOUS
 62
     3
 10
41.56716918945312
 20
-20.0
 30
0.0
 11
115.5671691894531
 21
-20.0
 31
0.0
  0
LINE
  5
275
  8
0
  6
CONTINUOUS
 62
     3
 10
115.5671691894531
 20
80.0
 30
0.0
 11
115.5671691894531
 21
47.84183120727539
 31
0.0
  0
LINE
  5
276
  8
0
  6
CONTINUOUS
 62
     3
 10
115.5671691894531
 20
12.15817070007324
 30
0.0
 11
115.5671691894531
 21
-20.0
 31
0.0
  0
LINE
  5
277
  8
0
  6
CONTINUOUS
 62
     3
 10
41.56716918945312
 20
66.0
 30
0.0
 11
53.56716918945312
 21
66.0
 31
0.0
  0
LINE
  5
278
  8
0
  6
CONTINUOUS
 62
     3
 10
41.56716918945312
 20
-6.0
 30
0.0
 11
53.56716918945312
 21
-6.0
 31
0.0
  0
LINE
  5
279
  8
0
  6
CONTINUOUS
 62
     3
 10
53.56716918945312
 20
63.5
 30
0.0
 11
54.56716918945312
 21
63.5
 31
0.0
  0
LINE
  5
27A
  8
0
  6
CONTINUOUS
 62
     3
 10
53.56716918945312
 20
-3.5
 30
0.0
 11
54.56716918945312
 21
-3.5
 31
0.0
  0
LINE
  5
27B
  8
0
  6
CONTINUOUS
 62
     3
 10
53.56716918945312
 20
66.0
 30
0.0
 11
53.56716918945312
 21
57.5
 31
0.0
  0
LINE
  5
27C
  8
0
  6
CONTINUOUS
 62
     3
 10
53.56716918945312
 20
2.5
 30
0.0
 11
53.56716918945312
 21
-6.0
 31
0.0
  0
LINE
  5
27D
  8
0
  6
CONTINUOUS
 62
     3
 10
54.56716918945312
 20
63.5
 30
0.0
 11
54.56716918945312
 21
57.5
 31
0.0
  0
LINE
  5
27E
  8
0
  6
CONTINUOUS
 62
     3
 10
54.56716918945312
 20
2.5
 30
0.0
 11
54.56716918945312
 21
-3.5
 31
0.0
  0
LINE
  5
27F
  8
0
  6
CONTINUOUS
 62
     3
 10
54.34709167480469
 20
63.5
 30
0.0
 11
54.56716918945312
 21
63.5
 31
0.0
  0
LINE
  5
280
  8
0
  6
CONTINUOUS
 62
     3
 10
32.56716918945312
 20
66.0
 30
0.0
 11
32.56716918945312
 21
55.0
 31
0.0
  0
LINE
  5
281
  8
0
  6
CONTINUOUS
 62
     3
 10
32.56716918945312
 20
5.0
 30
0.0
 11
32.56716918945312
 21
-6.0
 31
0.0
  0
LINE
  5
282
  8
0
  6
CONTINUOUS
 62
     3
 10
32.56716918945312
 20
66.0
 30
0.0
 11
34.06716918945312
 21
66.0
 31
0.0
  0
LINE
  5
283
  8
0
  6
CONTINUOUS
 62
     3
 10
32.56716918945312
 20
-6.0
 30
0.0
 11
34.06716918945312
 21
-6.0
 31
0.0
  0
LINE
  5
284
  8
0
  6
CONTINUOUS
 62
     3
 10
43.56716918945312
 20
0.0
 30
0.0
 11
43.56716918945312
 21
-6.0
 31
0.0
  0
LINE
  5
285
  8
0
  6
CONTINUOUS
 62
     3
 10
43.56716918945312
 20
66.0
 30
0.0
 11
43.56716918945312
 21
60.0
 31
0.0
  0
LINE
  5
286
  8
0
  6
CONTINUOUS
 62
     3
 10
43.56716918945312
 20
60.0
 30
0.0
 11
44.56716918945312
 21
60.0
 31
0.0
  0
LINE
  5
287
  8
0
  6
CONTINUOUS
 62
     3
 10
43.56716918945312
 20
0.0
 30
0.0
 11
44.56716918945312
 21
0.0
 31
0.0
  0
LINE
  5
288
  8
0
  6
CONTINUOUS
 62
     3
 10
42.56716918945312
 20
56.0
 30
0.0
 11
42.56716918945312
 21
55.0
 31
0.0
  0
LINE
  5
289
  8
0
  6
CONTINUOUS
 62
     3
 10
42.56716918945312
 20
5.0
 30
0.0
 11
42.56716918945312
 21
4.0
 31
0.0
  0
LINE
  5
28A
  8
0
  6
CONTINUOUS
 62
     3
 10
40.56716918945312
 20
56.0
 30
0.0
 11
44.56716918945312
 21
56.0
 31
0.0
  0
LINE
  5
28B
  8
0
  6
CONTINUOUS
 62
     3
 10
36.56716918945312
 20
66.0
 30
0.0
 11
36.56716918945312
 21
64.55662536621094
 31
0.0
  0
LINE
  5
28C
  8
0
  6
CONTINUOUS
 62
     3
 10
39.06716918945312
 20
66.0
 30
0.0
 11
39.06716918945312
 21
64.55662536621094
 31
0.0
  0
LINE
  5
28D
  8
0
  6
CONTINUOUS
 62
     3
 10
39.06716918945312
 20
66.0
 30
0.0
 11
41.56716918945312
 21
66.0
 31
0.0
  0
LINE
  5
28E
  8
0
  6
CONTINUOUS
 62
     3
 10
36.56716918945312
 20
-4.556624412536621
 30
0.0
 11
36.56716918945312
 21
-6.0
 31
0.0
  0
LINE
  5
28F
  8
0
  6
CONTINUOUS
 62
     3
 10
39.06716918945312
 20
-4.556624412536621
 30
0.0
 11
39.06716918945312
 21
-6.0
 31
0.0
  0
LINE
  5
290
  8
0
  6
CONTINUOUS
 62
     3
 10
34.06716775129757
 20
-6.000000468404892
 30
0.0
 11
36.56716755831815
 21
-4.556624880941513
 31
0.0
  0
LINE
  5
291
  8
0
  6
CONTINUOUS
 62
     3
 10
36.56716801951609
 20
-6.000000274689796
 30
0.0
 11
39.06716782653666
 21
-4.556624687226417
 31
0.0
  0
LINE
  5
292
  8
0
  6
CONTINUOUS
 62
     3
 10
39.06716918945312
 20
-6.0
 30
0.0
 11
41.57852172851562
 21
-6.0
 31
0.0
  0
LINE
  5
293
  8
0
  6
CONTINUOUS
 62
     3
 10
44.56716918945312
 20
66.5
 30
0.0
 11
44.56716918945312
 21
60.0
 31
0.0
  0
LINE
  5
294
  8
0
  6
CONTINUOUS
 62
     3
 10
41.56716918945312
 20
66.5
 30
0.0
 11
44.56716918945312
 21
66.5
 31
0.0
  0
LINE
  5
295
  8
0
  6
CONTINUOUS
 62
     3
 10
45.4331932626045
 20
65.99999770615977
 30
0.0
 11
44.56716787436369
 21
66.49999770615977
 31
0.0
  0
LINE
  5
296
  8
0
  6
CONTINUOUS
 62
     3
 10
41.56716918945312
 20
-6.5
 30
0.0
 11
44.56716918945312
 21
-6.5
 31
0.0
  0
LINE
  5
297
  8
0
  6
CONTINUOUS
 62
     3
 10
44.56716622255135
 20
-6.5000003828643
 30
0.0
 11
45.43319161079216
 21
-6.0000003828643
 31
0.0
  0
LINE
  5
298
  8
0
  6
CONTINUOUS
 62
     3
 10
-225.3444026022735
 20
-8.273167803111846
 30
0.0
 11
-226.7744029074493
 21
-10.75000094206052
 31
0.0
  0
LINE
  5
299
  8
0
  6
CONTINUOUS
 62
     3
 10
-226.7744005977693
 20
-10.75000258728141
 30
0.0
 11
-225.3444002925935
 21
-13.22683572623009
 31
0.0
  0
LINE
  5
29A
  8
0
  6
CONTINUOUS
 62
     3
 10
-222.4844055175781
 20
-13.22683238983154
 30
0.0
 11
-225.3444061279297
 21
-13.22683238983154
 31
0.0
  0
LINE
  5
29B
  8
0
  6
CONTINUOUS
 62
     3
 10
-221.0544080936879
 20
-10.74999733192044
 30
0.0
 11
-222.4844083988637
 21
-13.22683047086912
 31
0.0
  0
LINE
  5
29C
  8
0
  6
CONTINUOUS
 62
     3
 10
-222.4844060891837
 20
-8.273173058472821
 30
0.0
 11
-221.0544057840079
 21
-10.7500061974215
 31
0.0
  0
LINE
  5
29D
  8
0
  6
CONTINUOUS
 62
     3
 10
-225.3444061279297
 20
-8.273167133331299
 30
0.0
 11
-222.4844055175781
 21
-8.273167133331299
 31
0.0
  0
LINE
  5
29E
  8
0
  6
CONTINUOUS
 62
     3
 10
-234.8333288822314
 20
33.4299966914059
 30
0.0
 11
-237.8038028354367
 21
31.71499272412075
 31
0.0
  0
LINE
  5
29F
  8
0
  6
CONTINUOUS
 62
     3
 10
-237.8038024902344
 20
31.71500015258789
 30
0.0
 11
-237.8038024902344
 21
28.28499984741211
 31
0.0
  0
LINE
  5
2A0
  8
0
  6
CONTINUOUS
 62
     3
 10
-234.83333078958
 20
26.56999828193921
 30
0.0
 11
-237.8038047427854
 21
28.28500224922436
 31
0.0
  0
LINE
  5
2A1
  8
0
  6
CONTINUOUS
 62
     3
 10
-231.8628622684619
 20
28.28499768651363
 30
0.0
 11
-234.8333362216672
 21
26.56999371922848
 31
0.0
  0
LINE
  5
2A2
  8
0
  6
CONTINUOUS
 62
     3
 10
-231.8628692626953
 20
31.71500015258789
 30
0.0
 11
-231.8628692626953
 21
28.28499984741211
 31
0.0
  0
LINE
  5
2A3
  8
0
  6
CONTINUOUS
 62
     3
 10
-234.8333343143186
 20
33.43000786136599
 30
0.0
 11
-231.8628603611132
 21
31.71500389408084
 31
0.0
  0
LINE
  5
2A4
  8
0
  6
CONTINUOUS
 62
     3
 10
-197.0538028354367
 20
-38.86607641750561
 30
0.0
 11
-194.0833288822314
 21
-37.15107245022045
 31
0.0
  0
LINE
  5
2A5
  8
0
  6
CONTINUOUS
 62
     3
 10
-194.0833358116315
 20
-37.15106168259172
 30
0.0
 11
-191.1128618584262
 21
-38.86606564987687
 31
0.0
  0
LINE
  5
2A6
  8
0
  6
CONTINUOUS
 62
     3
 10
-191.1128692626953
 20
-38.86606979370117
 30
0.0
 11
-191.1128692626953
 21
-42.29607009887695
 31
0.0
  0
LINE
  5
2A7
  8
0
  6
CONTINUOUS
 62
     3
 10
-191.1128622684619
 20
-42.29607145511272
 30
0.0
 11
-194.0833362216672
 21
-44.01107542239788
 31
0.0
  0
LINE
  5
2A8
  8
0
  6
CONTINUOUS
 62
     3
 10
-197.053802425401
 20
-42.29606068748399
 30
0.0
 11
-194.0833284721957
 21
-44.01106465476914
 31
0.0
  0
LINE
  5
2A9
  8
0
  6
CONTINUOUS
 62
     3
 10
-197.0538024902344
 20
-38.86606979370117
 30
0.0
 11
-197.0538024902344
 21
-42.29607009887695
 31
0.0
  0
LINE
  5
2AA
  8
0
  6
CONTINUOUS
 62
     3
 10
-156.1933310538116
 20
-51.50000108996846
 30
0.0
 11
-154.7633307486358
 21
-53.97683422891714
 31
0.0
  0
LINE
  5
2AB
  8
0
  6
CONTINUOUS
 62
     3
 10
-156.1933337658229
 20
-51.50000094206052
 30
0.0
 11
-154.7633334606471
 21
-49.02316780311185
 31
0.0
  0
LINE
  5
2AC
  8
0
  6
CONTINUOUS
 62
     3
 10
-154.7633361816406
 20
-49.02316665649414
 30
0.0
 11
-151.9033355712891
 21
-49.02316665649414
 31
0.0
  0
LINE
  5
2AD
  8
0
  6
CONTINUOUS
 62
     3
 10
-151.903336545226
 20
-49.02317156115987
 30
0.0
 11
-150.4733362400502
 21
-51.50000470010855
 31
0.0
  0
LINE
  5
2AE
  8
0
  6
CONTINUOUS
 62
     3
 10
-150.4733323448122
 20
-51.50000114661771
 30
0.0
 11
-151.903332649988
 21
-53.97683428556638
 31
0.0
  0
LINE
  5
2AF
  8
0
  6
CONTINUOUS
 62
     3
 10
-154.7633361816406
 20
-53.97683334350586
 30
0.0
 11
-151.9033355712891
 21
-53.97683334350586
 31
0.0
  0
LINE
  5
2B0
  8
0
  6
CONTINUOUS
 62
     3
 10
-112.5833307016951
 20
-37.15106589962033
 30
0.0
 11
-109.6128633557391
 21
-38.86606605220823
 31
0.0
  0
LINE
  5
2B1
  8
0
  6
CONTINUOUS
 62
     3
 10
-115.5538024902344
 20
-42.29607009887695
 30
0.0
 11
-115.5538024902344
 21
-38.86606979370117
 31
0.0
  0
LINE
  5
2B2
  8
0
  6
CONTINUOUS
 62
     3
 10
-197.0538024902344
 20
98.86607360839844
 30
0.0
 11
-197.0538024902344
 21
102.2960739135742
 31
0.0
  0
LINE
  5
2B3
  8
0
  6
CONTINUOUS
 62
     3
 10
-115.5537986791746
 20
-38.86607054866465
 30
0.0
 11
-112.5833313332187
 21
-37.15107039607676
 31
0.0
  0
LINE
  5
2B4
  8
0
  6
CONTINUOUS
 62
     3
 10
-109.6128692626953
 20
-38.86606979370117
 30
0.0
 11
-109.6128692626953
 21
-42.29607009887695
 31
0.0
  0
LINE
  5
2B5
  8
0
  6
CONTINUOUS
 62
     3
 10
-115.5538011301619
 20
-42.29607151176197
 30
0.0
 11
-112.5833337842059
 21
-44.01107166434986
 31
0.0
  0
LINE
  5
2B6
  8
0
  6
CONTINUOUS
 62
     3
 10
-112.5833311117308
 20
-44.01107120536926
 30
0.0
 11
-109.6128637657748
 21
-42.29607105278137
 31
0.0
  0
LINE
  5
2B7
  8
0
  6
CONTINUOUS
 62
     3
 10
-85.61226231451656
 20
-10.74999913574879
 30
0.0
 11
-84.18226200934077
 21
-8.273165996800117
 31
0.0
  0
LINE
  5
2B8
  8
0
  6
CONTINUOUS
 62
     3
 10
-81.32226079635029
 20
-8.273167746462605
 30
0.0
 11
-79.89226049117451
 21
-10.75000088541128
 31
0.0
  0
LINE
  5
2B9
  8
0
  6
CONTINUOUS
 62
     3
 10
-81.32226119868164
 20
-13.22683247925465
 30
0.0
 11
-79.89226089350586
 21
-10.74999934030598
 31
0.0
  0
LINE
  5
2BA
  8
0
  6
CONTINUOUS
 62
     3
 10
-84.18226623535156
 20
-13.22683238983154
 30
0.0
 11
-81.322265625
 21
-13.22683238983154
 31
0.0
  0
LINE
  5
2BB
  8
0
  6
CONTINUOUS
 62
     3
 10
-84.18226160700942
 20
-13.22683422891714
 30
0.0
 11
-85.6122619121852
 21
-10.75000108996846
 31
0.0
  0
LINE
  5
2BC
  8
0
  6
CONTINUOUS
 62
     3
 10
-84.18226623535156
 20
-8.273167133331299
 30
0.0
 11
-81.322265625
 21
-8.273167133331299
 31
0.0
  0
LINE
  5
2BD
  8
0
  6
CONTINUOUS
 62
     3
 10
-71.83333235369446
 20
26.56999995499501
 30
0.0
 11
-74.80379969965043
 21
28.2850001075829
 31
0.0
  0
LINE
  5
2BE
  8
0
  6
CONTINUOUS
 62
     3
 10
-71.83333260904374
 20
26.56999833858845
 30
0.0
 11
-68.86286526308777
 21
28.28499849117634
 31
0.0
  0
LINE
  5
2BF
  8
0
  6
CONTINUOUS
 62
     3
 10
-68.86286926269531
 20
28.28499984741211
 30
0.0
 11
-68.86286926269531
 21
31.71500015258789
 31
0.0
  0
LINE
  5
2C0
  8
0
  6
CONTINUOUS
 62
     3
 10
-71.83333237062516
 20
33.43000035133443
 30
0.0
 11
-68.86286502466919
 21
31.71500019874654
 31
0.0
  0
LINE
  5
2C1
  8
0
  6
CONTINUOUS
 62
     3
 10
-74.80379922281327
 20
31.71499734348072
 30
0.0
 11
-71.8333318768573
 21
33.42999749606861
 31
0.0
  0
LINE
  5
2C2
  8
0
  6
CONTINUOUS
 62
     3
 10
-74.80380249023438
 20
28.28499984741211
 30
0.0
 11
-74.80380249023438
 21
31.71500015258789
 31
0.0
  0
LINE
  5
2C3
  8
0
  6
CONTINUOUS
 62
     3
 10
-81.322265625
 20
68.2731704711914
 30
0.0
 11
-84.18226623535156
 21
68.2731704711914
 31
0.0
  0
LINE
  5
2C4
  8
0
  6
CONTINUOUS
 62
     3
 10
-84.18226623535156
 20
73.2268295288086
 30
0.0
 11
-81.322265625
 21
73.2268295288086
 31
0.0
  0
LINE
  5
2C5
  8
0
  6
CONTINUOUS
 62
     3
 10
-85.6122619121852
 20
70.74999936693825
 30
0.0
 11
-84.18226160700942
 21
73.22683250588693
 31
0.0
  0
LINE
  5
2C6
  8
0
  6
CONTINUOUS
 62
     3
 10
-84.18226200934077
 20
68.27316427376991
 30
0.0
 11
-85.61226231451656
 21
70.74999741271859
 31
0.0
  0
LINE
  5
2C7
  8
0
  6
CONTINUOUS
 62
     3
 10
-81.32226079635029
 20
68.2731660234324
 30
0.0
 11
-79.89226049117451
 21
70.74999916238107
 31
0.0
  0
LINE
  5
2C8
  8
0
  6
CONTINUOUS
 62
     3
 10
-79.89226089350586
 20
70.74999761727577
 30
0.0
 11
-81.32226119868164
 21
73.22683075622444
 31
0.0
  0
LINE
  5
2C9
  8
0
  6
CONTINUOUS
 62
     3
 10
-109.6128692626953
 20
98.86607360839844
 30
0.0
 11
-109.6128692626953
 21
102.2960739135742
 31
0.0
  0
LINE
  5
2CA
  8
0
  6
CONTINUOUS
 62
     3
 10
-109.6128652630878
 20
98.8660676328027
 30
0.0
 11
-112.5833326090437
 21
97.1510674802148
 31
0.0
  0
LINE
  5
2CB
  8
0
  6
CONTINUOUS
 62
     3
 10
-112.5833303795443
 20
97.15107032485889
 30
0.0
 11
-115.5538043327497
 21
98.86607429214405
 31
0.0
  0
LINE
  5
2CC
  8
0
  6
CONTINUOUS
 62
     3
 10
-115.5538024902344
 20
98.86607360839844
 30
0.0
 11
-115.5538024902344
 21
102.2960739135742
 31
0.0
  0
LINE
  5
2CD
  8
0
  6
CONTINUOUS
 62
     3
 10
-115.5537992228133
 20
102.2960664851071
 30
0.0
 11
-112.5833318768573
 21
104.011066637695
 31
0.0
  0
LINE
  5
2CE
  8
0
  6
CONTINUOUS
 62
     3
 10
-109.6128637657748
 20
102.2960693297512
 30
0.0
 11
-112.5833377189801
 21
104.0110732970363
 31
0.0
  0
LINE
  5
2CF
  8
0
  6
CONTINUOUS
 62
     3
 10
-151.9033355712891
 20
113.9768295288086
 30
0.0
 11
-154.7633361816406
 21
113.9768295288086
 31
0.0
  0
LINE
  5
2D0
  8
0
  6
CONTINUOUS
 62
     3
 10
-150.4733304374636
 20
111.4999961199628
 30
0.0
 11
-151.9033307426394
 21
113.9768292589115
 31
0.0
  0
LINE
  5
2D1
  8
0
  6
CONTINUOUS
 62
     3
 10
-150.4733362400502
 20
111.5000029770783
 30
0.0
 11
-151.903336545226
 21
109.0231698381297
 31
0.0
  0
LINE
  5
2D2
  8
0
  6
CONTINUOUS
 62
     3
 10
-151.9033355712891
 20
109.0231704711914
 30
0.0
 11
-154.7633361816406
 21
109.0231704711914
 31
0.0
  0
LINE
  5
2D3
  8
0
  6
CONTINUOUS
 62
     3
 10
-154.7633315532985
 20
109.023162776457
 30
0.0
 11
-156.1933318584743
 21
111.4999959154056
 31
0.0
  0
LINE
  5
2D4
  8
0
  6
CONTINUOUS
 62
     3
 10
-156.1933310538116
 20
111.4999993669383
 30
0.0
 11
-154.7633307486358
 21
113.9768325058869
 31
0.0
  0
LINE
  5
2D5
  8
0
  6
CONTINUOUS
 62
     3
 10
-191.1128620300433
 20
102.2960701450356
 30
0.0
 11
-194.0833359832486
 21
104.0110741123208
 31
0.0
  0
LINE
  5
2D6
  8
0
  6
CONTINUOUS
 62
     3
 10
-191.1128692626953
 20
102.2960739135742
 30
0.0
 11
-191.1128692626953
 21
98.86607360839844
 31
0.0
  0
LINE
  5
2D7
  8
0
  6
CONTINUOUS
 62
     3
 10
-191.1128637657748
 20
98.86606723047134
 30
0.0
 11
-194.0833311117308
 21
97.15106707788345
 31
0.0
  0
LINE
  5
2D8
  8
0
  6
CONTINUOUS
 62
     3
 10
-194.0833293590686
 20
97.15106990128407
 30
0.0
 11
-197.0538033122739
 21
98.86607386856923
 31
0.0
  0
LINE
  5
2D9
  8
0
  6
CONTINUOUS
 62
     3
 10
-194.0833303795443
 20
104.0110662353636
 30
0.0
 11
-197.0537977255003
 21
102.2960660827757
 31
0.0
  0
LINE
  5
2DA
  8
0
  6
CONTINUOUS
 62
     3
 10
-225.3444002925935
 20
73.22683400319988
 30
0.0
 11
-226.7744005977693
 21
70.7500008642512
 31
0.0
  0
LINE
  5
2DB
  8
0
  6
CONTINUOUS
 62
     3
 10
-222.4844064915151
 20
73.22682544421423
 30
0.0
 11
-221.0544061863393
 21
70.74999230526555
 31
0.0
  0
LINE
  5
2DC
  8
0
  6
CONTINUOUS
 62
     3
 10
-222.4844055175781
 20
73.2268295288086
 30
0.0
 11
-225.3444061279297
 21
73.2268295288086
 31
0.0
  0
LINE
  5
2DD
  8
0
  6
CONTINUOUS
 62
     3
 10
-221.0544057840079
 20
70.75000447439129
 30
0.0
 11
-222.4844060891837
 21
68.27317133544261
 31
0.0
  0
LINE
  5
2DE
  8
0
  6
CONTINUOUS
 62
     3
 10
-222.4844055175781
 20
68.2731704711914
 30
0.0
 11
-225.3444061279297
 21
68.2731704711914
 31
0.0
  0
LINE
  5
2DF
  8
0
  6
CONTINUOUS
 62
     3
 10
-225.3444006949248
 20
68.27316277645696
 30
0.0
 11
-226.7744010001006
 21
70.74999591540563
 31
0.0
  0
LINE
  5
2E0
  8
0
  6
CONTINUOUS
 62
     3
 10
-113.3333358764648
 20
74.72135925292969
 30
0.0
 11
-113.3333358764648
 21
60.0
 31
0.0
  0
LINE
  5
2E1
  8
0
  6
CONTINUOUS
 62
     3
 10
-193.3333282470703
 20
74.72135925292969
 30
0.0
 11
-193.3333282470703
 21
60.0
 31
0.0
  0
LINE
  5
2E2
  8
0
  6
CONTINUOUS
 62
     3
 10
-113.3333358764648
 20
0.0
 30
0.0
 11
-113.3333358764648
 21
-14.72135925292969
 31
0.0
  0
LINE
  5
2E3
  8
0
  6
CONTINUOUS
 62
     3
 10
-125.1001358032227
 20
74.32133483886719
 30
0.0
 11
-125.1001358032227
 21
76.61133575439453
 31
0.0
  0
LINE
  5
2E4
  8
0
  6
CONTINUOUS
 62
     3
 10
-125.1001388039695
 20
76.61133719200723
 30
0.0
 11
-127.0833311286615
 21
77.75633383507363
 31
0.0
  0
LINE
  5
2E5
  8
0
  6
CONTINUOUS
 62
     3
 10
-129.066529060005
 20
76.61132447454293
 30
0.0
 11
-127.0833301280636
 21
77.7563249323066
 31
0.0
  0
LINE
  5
2E6
  8
0
  6
CONTINUOUS
 62
     3
 10
-129.0665283203125
 20
74.32133483886719
 30
0.0
 11
-129.0665283203125
 21
76.61133575439453
 31
0.0
  0
LINE
  5
2E7
  8
0
  6
CONTINUOUS
 62
     3
 10
-127.0833370294677
 20
73.17633716561608
 30
0.0
 11
-129.0665293541597
 21
74.32133380868248
 31
0.0
  0
LINE
  5
2E8
  8
0
  6
CONTINUOUS
 62
     3
 10
-125.100137684216
 20
74.32133492002777
 30
0.0
 11
-127.0833366161573
 21
73.1763344622641
 31
0.0
  0
LINE
  5
2E9
  8
0
  6
CONTINUOUS
 62
     3
 10
-151.0433295992884
 20
82.49999024820136
 30
0.0
 11
-152.1883338717494
 21
84.4831957873921
 31
0.0
  0
LINE
  5
2EA
  8
0
  6
CONTINUOUS
 62
     3
 10
-152.1883392333984
 20
84.48320007324219
 30
0.0
 11
-154.4783325195312
 21
84.48320007324219
 31
0.0
  0
LINE
  5
2EB
  8
0
  6
CONTINUOUS
 62
     3
 10
-155.6233287925452
 20
82.4999988635669
 30
0.0
 11
-154.4783286924094
 21
84.48319717607866
 31
0.0
  0
LINE
  5
2EC
  8
0
  6
CONTINUOUS
 62
     3
 10
-154.4783262188166
 20
80.51679398965643
 30
0.0
 11
-155.6233304912776
 21
82.49999952884718
 31
0.0
  0
LINE
  5
2ED
  8
0
  6
CONTINUOUS
 62
     3
 10
-152.1883392333984
 20
80.51679992675781
 30
0.0
 11
-154.4783325195312
 21
80.51679992675781
 31
0.0
  0
LINE
  5
2EE
  8
0
  6
CONTINUOUS
 62
     3
 10
-151.0433254656318
 20
82.49999710283647
 30
0.0
 11
-152.1883255657676
 21
80.51679879032471
 31
0.0
  0
LINE
  5
2EF
  8
0
  6
CONTINUOUS
 62
     3
 10
-177.6001295702472
 20
76.61133267695539
 30
0.0
 11
-179.5833351094379
 21
77.75633694941632
 31
0.0
  0
LINE
  5
2F0
  8
0
  6
CONTINUOUS
 62
     3
 10
-179.5833275015907
 20
77.75632563266117
 30
0.0
 11
-181.5665264335321
 21
76.6113251748975
 31
0.0
  0
LINE
  5
2F1
  8
0
  6
CONTINUOUS
 62
     3
 10
-181.5665283203125
 20
74.32133483886719
 30
0.0
 11
-181.5665283203125
 21
76.61133575439453
 31
0.0
  0
LINE
  5
2F2
  8
0
  6
CONTINUOUS
 62
     3
 10
-179.5833277361407
 20
73.17633275380251
 30
0.0
 11
-181.5665332753315
 21
74.32133702626345
 31
0.0
  0
LINE
  5
2F3
  8
0
  6
CONTINUOUS
 62
     3
 10
-177.600135057743
 20
74.32133562038234
 30
0.0
 11
-179.5833339896844
 21
73.17633516261867
 31
0.0
  0
LINE
  5
2F4
  8
0
  6
CONTINUOUS
 62
     3
 10
-177.6001281738281
 20
76.61133575439453
 30
0.0
 11
-177.6001281738281
 21
74.32133483886719
 31
0.0
  0
LINE
  5
2F5
  8
0
  6
CONTINUOUS
 62
     3
 10
-199.9466933940953
 20
54.2629077400502
 30
0.0
 11
-202.2279878159156
 21
54.06332034055868
 31
0.0
  0
LINE
  5
2F6
  8
0
  6
CONTINUOUS
 62
     3
 10
-202.227993490369
 20
54.06332022382958
 30
0.0
 11
-203.1957897154052
 21
51.98787449428255
 31
0.0
  0
LINE
  5
2F7
  8
0
  6
CONTINUOUS
 62
     3
 10
-201.882298360727
 20
50.11201407056888
 30
0.0
 11
-203.1957845811075
 21
51.98786678181204
 31
0.0
  0
LINE
  5
2F8
  8
0
  6
CONTINUOUS
 62
     3
 10
-199.6009988366077
 20
50.31160085565125
 30
0.0
 11
-201.882293258428
 21
50.11201345615973
 31
0.0
  0
LINE
  5
2F9
  8
0
  6
CONTINUOUS
 62
     3
 10
-198.633214034222
 20
52.38704705611053
 30
0.0
 11
-199.6010102592581
 21
50.3116013265635
 31
0.0
  0
LINE
  5
2FA
  8
0
  6
CONTINUOUS
 62
     3
 10
-199.946699741552
 20
54.26290049849194
 30
0.0
 11
-198.6332135211715
 21
52.38704778724878
 31
0.0
  0
LINE
  5
2FB
  8
0
  6
CONTINUOUS
 62
     3
 10
-202.2659690832634
 20
6.018140612776733
 30
0.0
 11
-202.2279865757891
 21
5.936686861567978
 31
0.0
  0
LINE
  5
2FC
  8
0
  6
CONTINUOUS
 62
     3
 10
-199.9466980612037
 20
5.737096472182998
 30
0.0
 11
-202.227992483024
 21
5.936683871674518
 31
0.0
  0
LINE
  5
2FD
  8
0
  6
CONTINUOUS
 62
     3
 10
-199.1688256275329
 20
6.848021235603028
 30
0.0
 11
-199.9467019295726
 21
5.73709875499253
 31
0.0
  0
LINE
  5
2FE
  8
0
  6
CONTINUOUS
 62
     3
 10
-181.5665283203125
 20
-14.32133388519287
 30
0.0
 11
-181.5665283203125
 21
-16.6113338470459
 31
0.0
  0
LINE
  5
2FF
  8
0
  6
CONTINUOUS
 62
     3
 10
-181.5665283408807
 20
-16.61133020155239
 30
0.0
 11
-179.5833360161887
 21
-17.7563268446188
 31
0.0
  0
LINE
  5
300
  8
0
  6
CONTINUOUS
 62
     3
 10
-177.6001286165729
 20
-16.61133605179793
 30
0.0
 11
-179.5833341557636
 21
-17.75634032425887
 31
0.0
  0
LINE
  5
301
  8
0
  6
CONTINUOUS
 62
     3
 10
-177.6001281738281
 20
-14.32133388519287
 30
0.0
 11
-177.6001281738281
 21
-16.6113338470459
 31
0.0
  0
LINE
  5
302
  8
0
  6
CONTINUOUS
 62
     3
 10
-179.5833320823358
 20
-13.1763335820242
 30
0.0
 11
-177.6001397576438
 21
-14.32133022509061
 31
0.0
  0
LINE
  5
303
  8
0
  6
CONTINUOUS
 62
     3
 10
-181.5665342290058
 20
-14.32133709748132
 30
0.0
 11
-179.5833286898151
 21
-13.17633282502038
 31
0.0
  0
LINE
  5
304
  8
0
  6
CONTINUOUS
 62
     3
 10
-155.6233299846381
 20
-22.49999852183169
 30
0.0
 11
-154.4783295268744
 21
-24.48319745377307
 31
0.0
  0
LINE
  5
305
  8
0
  6
CONTINUOUS
 62
     3
 10
-154.4783325195312
 20
-24.48319816589355
 30
0.0
 11
-152.1883392333984
 21
-24.48319816589355
 31
0.0
  0
LINE
  5
306
  8
0
  6
CONTINUOUS
 62
     3
 10
-151.0433315066371
 20
-22.49999527485625
 30
0.0
 11
-152.1883319644007
 21
-24.48319420679763
 31
0.0
  0
LINE
  5
307
  8
0
  6
CONTINUOUS
 62
     3
 10
-152.1883267578605
 20
-20.5167984485895
 30
0.0
 11
-151.0433263000969
 21
-22.49999738053089
 31
0.0
  0
LINE
  5
308
  8
0
  6
CONTINUOUS
 62
     3
 10
-154.4783325195312
 20
-20.51680183410645
 30
0.0
 11
-152.1883392333984
 21
-20.51680183410645
 31
0.0
  0
LINE
  5
309
  8
0
  6
CONTINUOUS
 62
     3
 10
-155.6233285839289
 20
-22.49999794825271
 30
0.0
 11
-154.4783281261653
 21
-20.51679901631132
 31
0.0
  0
LINE
  5
30A
  8
0
  6
CONTINUOUS
 62
     3
 10
-129.0665309673536
 20
-16.61132950119782
 30
0.0
 11
-127.0833320354122
 21
-17.75632995896149
 31
0.0
  0
LINE
  5
30B
  8
0
  6
CONTINUOUS
 62
     3
 10
-127.0833320823358
 20
-17.7563339062915
 30
0.0
 11
-125.1001331503944
 21
-16.61133344852783
 31
0.0
  0
LINE
  5
30C
  8
0
  6
CONTINUOUS
 62
     3
 10
-125.1001358032227
 20
-14.32133388519287
 30
0.0
 11
-125.1001358032227
 21
-16.6113338470459
 31
0.0
  0
LINE
  5
30D
  8
0
  6
CONTINUOUS
 62
     3
 10
-127.0833347088087
 20
-13.17633288166962
 30
0.0
 11
-125.1001357768673
 21
-14.32133333943329
 31
0.0
  0
LINE
  5
30E
  8
0
  6
CONTINUOUS
 62
     3
 10
-129.0665302482294
 20
-14.32133398313863
 30
0.0
 11
-127.083331316288
 21
-13.17633352537496
 31
0.0
  0
LINE
  5
30F
  8
0
  6
CONTINUOUS
 62
     3
 10
-129.0665283203125
 20
-16.6113338470459
 30
0.0
 11
-129.0665283203125
 21
-14.32133388519287
 31
0.0
  0
LINE
  5
310
  8
0
  6
CONTINUOUS
 62
     3
 10
-106.7199704970115
 20
5.737097141040408
 30
0.0
 11
-104.4386836755537
 21
5.936683875586368
 31
0.0
  0
LINE
  5
311
  8
0
  6
CONTINUOUS
 62
     3
 10
-104.4386895261878
 20
5.936682984926847
 30
0.0
 11
-103.4708933011516
 21
8.012128714473874
 31
0.0
  0
LINE
  5
312
  8
0
  6
CONTINUOUS
 62
     3
 10
-104.7843826965845
 20
9.887986210879717
 30
0.0
 11
-103.4708921001629
 21
8.012127250002322
 31
0.0
  0
LINE
  5
313
  8
0
  6
CONTINUOUS
 62
     3
 10
-107.0656647220264
 20
9.688400225258079
 30
0.0
 11
-104.7843779005686
 21
9.887986959804039
 31
0.0
  0
LINE
  5
314
  8
0
  6
CONTINUOUS
 62
     3
 10
-108.033462067755
 20
7.612952928324376
 30
0.0
 11
-107.0656658427188
 21
9.688398657871403
 31
0.0
  0
LINE
  5
315
  8
0
  6
CONTINUOUS
 62
     3
 10
-106.7199706900842
 20
5.737097909363456
 30
0.0
 11
-108.0334612865058
 21
7.612956870240851
 31
0.0
  0
LINE
  5
316
  8
0
  6
CONTINUOUS
 62
     3
 10
-104.7843826965845
 20
50.11201616742187
 30
0.0
 11
-103.4708921001629
 21
51.98787512829927
 31
0.0
  0
LINE
  5
317
  8
0
  6
CONTINUOUS
 62
     3
 10
-103.4708933011516
 20
51.98787514660216
 30
0.0
 11
-104.4386895261878
 21
54.06332087614919
 31
0.0
  0
LINE
  5
318
  8
0
  6
CONTINUOUS
 62
     3
 10
-106.7199754134745
 20
54.26290422105683
 30
0.0
 11
-104.4386885920167
 21
54.06331748651087
 31
0.0
  0
LINE
  5
319
  8
0
  6
CONTINUOUS
 62
     3
 10
-108.0334612865058
 20
52.38704550806074
 30
0.0
 11
-106.7199706900842
 21
54.26290446893813
 31
0.0
  0
LINE
  5
31A
  8
0
  6
CONTINUOUS
 62
     3
 10
-107.0656658427188
 20
50.31160520320464
 30
0.0
 11
-108.033462067755
 21
52.38705093275166
 31
0.0
  0
LINE
  5
31B
  8
0
  6
CONTINUOUS
 62
     3
 10
-104.7843828170315
 20
50.1120144022932
 30
0.0
 11
-107.0656696384893
 21
50.31160113683916
 31
0.0
  0
LINE
  5
31C
  8
0
  6
CONTINUOUS
 62
     3
 10
77.56716918945312
 20
107.0
 30
0.0
 11
98.56716918945312
 21
107.0
 31
0.0
  0
LINE
  5
31D
  8
0
  6
CONTINUOUS
 62
     3
 10
75.94216918945312
 20
106.0618057250977
 30
0.0
 11
75.94216918945312
 21
83.99592590332031
 31
0.0
  0
LINE
  5
31E
  8
0
  6
CONTINUOUS
 62
     3
 10
100.1921691894531
 20
106.0618057250977
 30
0.0
 11
100.1921691894531
 21
83.99592590332031
 31
0.0
  0
LINE
  5
31F
  8
0
  6
CONTINUOUS
 62
     3
 10
77.66716766357422
 20
83.0
 30
0.0
 11
77.66716766357422
 21
80.0
 31
0.0
  0
LINE
  5
320
  8
0
  6
CONTINUOUS
 62
     3
 10
98.46717071533203
 20
83.0
 30
0.0
 11
98.46717071533203
 21
80.0
 31
0.0
  0
LINE
  5
321
  8
0
  6
CONTINUOUS
 62
     3
 10
98.46716758349521
 20
82.9999994299103
 30
0.0
 11
100.1921618176593
 21
83.99592533323062
 31
0.0
  0
LINE
  5
322
  8
0
  6
CONTINUOUS
 62
     3
 10
77.66716678877356
 20
82.9999946005446
 30
0.0
 11
75.94216594736008
 21
83.99592431856217
 31
0.0
  0
LINE
  5
323
  8
0
  6
CONTINUOUS
 62
     3
 10
94.66716766357422
 20
80.0
 30
0.0
 11
115.5671691894531
 21
80.0
 31
0.0
  0
LINE
  5
324
  8
0
  6
CONTINUOUS
 62
     3
 10
100.1921705629961
 20
106.0618085886708
 30
0.0
 11
98.5671704406609
 21
107.0000028635732
 31
0.0
  0
LINE
  5
325
  8
0
  6
CONTINUOUS
 62
     3
 10
75.94216762396991
 20
106.0618068107872
 30
0.0
 11
77.56716774630513
 21
107.0000010856895
 31
0.0
  0
LINE
  5
326
  8
0
  6
CONTINUOUS
 62
     3
 10
36.56716722407346
 20
64.5566211484711
 30
0.0
 11
34.06716721057634
 21
65.99999685514376
 31
0.0
  0
LINE
  5
327
  8
0
  6
CONTINUOUS
 62
     3
 10
39.06716718257716
 20
64.55662113356993
 30
0.0
 11
36.56716727231831
 21
65.99999678063796
 31
0.0
  0
LINE
  5
328
  8
0
  6
CONTINUOUS
 62
     3
 10
-211.4928660237301
 20
-20.73490907975884
 30
0.0
 11
-204.0682395535418
 21
-28.15953554994712
 31
0.0
  0
LINE
  5
329
  8
0
  6
CONTINUOUS
 62
     3
 10
-214.3500149967267
 20
-16.16743697736365
 30
0.0
 11
-195.3249198123149
 21
2.857658207048189
 31
0.0
  0
LINE
  5
32A
  8
0
  6
CONTINUOUS
 62
     3
 10
-198.2346141033877
 20
-0.0520360840246212
 30
0.0
 11
-183.3853665578076
 21
-14.90128362960468
 31
0.0
  0
LINE
  5
32B
  8
0
  6
CONTINUOUS
 62
     3
 10
-206.9253939213349
 20
-23.59205805275542
 30
0.0
 11
-191.6651545926952
 21
-8.331818724115692
 31
0.0
  0
LINE
  5
32C
  8
0
  6
CONTINUOUS
 62
     3
 10
-199.5007674511467
 20
-31.01668452294371
 30
0.0
 11
-180.4756722667348
 21
-11.99158933853187
 31
0.0
  0
LINE
  5
32D
  8
0
  6
CONTINUOUS
 62
     3
 10
-229.0684180795797
 20
15.14204516071186
 30
0.0
 11
-226.3508181213983
 21
4.999824127138709
 31
0.0
  0
LINE
  5
32E
  8
0
  6
CONTINUOUS
 62
     3
 10
-229.2590456333674
 20
20.52616653810219
 30
0.0
 11
-203.2702822223146
 21
27.48983476474314
 31
0.0
  0
LINE
  5
32F
  8
0
  6
CONTINUOUS
 62
     3
 10
-207.2449985533603
 20
26.42481272477016
 30
0.0
 11
-201.8097986369976
 21
6.140370657623862
 31
0.0
  0
LINE
  5
330
  8
0
  6
CONTINUOUS
 62
     3
 10
-226.6628496503963
 20
10.35141540714085
 30
0.0
 11
-205.9655721643303
 21
15.89723424153726
 31
0.0
  0
LINE
  5
331
  8
0
  6
CONTINUOUS
 62
     3
 10
-223.8238457170046
 20
0.2417244709558872
 30
0.0
 11
-197.8350823059518
 21
7.205392697596835
 31
0.0
  0
LINE
  5
332
  8
0
  6
CONTINUOUS
 62
     3
 10
209.5671691894531
 20
-47.5
 30
0.0
 11
222.5671691894531
 21
-47.5
 31
0.0
  0
LINE
  5
333
  8
0
  6
CONTINUOUS
 62
     3
 10
209.5671691894531
 20
-55.5
 30
0.0
 11
222.5671691894531
 21
-55.5
 31
0.0
  0
LINE
  5
334
  8
0
  6
CONTINUOUS
 62
     3
 10
222.5671691894531
 20
-47.5
 30
0.0
 11
222.5671691894531
 21
-55.5
 31
0.0
  0
LINE
  5
335
  8
0
  6
CONTINUOUS
 62
     3
 10
-269.0
 20
-194.0
 30
0.0
 11
274.0
 21
-194.0
 31
0.0
  0
LINE
  5
336
  8
0
  6
CONTINUOUS
 62
     3
 10
274.0
 20
194.0
 30
0.0
 11
274.0
 21
-194.0
 31
0.0
  0
LINE
  5
337
  8
0
  6
CONTINUOUS
 62
     3
 10
-269.0
 20
194.0
 30
0.0
 11
-269.0
 21
-194.0
 31
0.0
  0
LINE
  5
338
  8
0
  6
CONTINUOUS
 62
     3
 10
-269.0
 20
194.0
 30
0.0
 11
274.0
 21
194.0
 31
0.0
  0
LINE
  5
339
  8
0
  6
CONTINUOUS
 62
     3
 10
156.5671691894531
 20
12.46538543701172
 30
0.0
 11
156.5671691894531
 21
-60.5
 31
0.0
  0
LINE
  5
33A
  8
0
  6
CONTINUOUS
 62
     3
 10
94.12716674804688
 20
106.0618057250977
 30
0.0
 11
94.12716674804688
 21
83.99592590332031
 31
0.0
  0
LINE
  5
33B
  8
0
  6
CONTINUOUS
 62
     3
 10
82.00717163085938
 20
106.0618057250977
 30
0.0
 11
82.00717163085938
 21
83.99592590332031
 31
0.0
  0
LINE
  5
33C
  8
0
  6
CONTINUOUS
 62
     3
 10
77.66716766357486
 20
82.99999999999942
 30
0.0
 11
98.46717071533267
 21
82.99999999999926
 31
0.0
  0
LINE
  5
33D
  8
0
  6
CONTINUOUS
 62
     3
 10
116.5671691894531
 20
74.72100067138672
 30
0.0
 11
138.5671691894531
 21
74.72100067138672
 31
0.0
  0
LINE
  5
33E
  8
0
  6
CONTINUOUS
 62
     3
 10
116.5671691894531
 20
-14.7209997177124
 30
0.0
 11
138.5671691894531
 21
-14.7209997177124
 31
0.0
  0
LINE
  5
33F
  8
0
  6
CONTINUOUS
 62
     3
 10
31.56716918945312
 20
47.25
 30
0.0
 11
46.56716918945312
 21
47.25
 31
0.0
  0
LINE
  5
340
  8
0
  6
CONTINUOUS
 62
     3
 10
50.54111099243164
 20
-0.0499999523162842
 30
0.0
 11
53.56716918945312
 21
-0.0499999523162842
 31
0.0
  0
LINE
  5
341
  8
0
  6
CONTINUOUS
 62
     3
 10
44.62586975097656
 20
-0.0499999523162842
 30
0.0
 11
47.59322738647461
 21
-0.0499999523162842
 31
0.0
  0
LINE
  5
342
  8
0
  6
CONTINUOUS
 62
     3
 10
44.56716918945312
 20
-3.450000047683716
 30
0.0
 11
47.59322738647461
 21
-3.450000047683716
 31
0.0
  0
LINE
  5
343
  8
0
  6
CONTINUOUS
 62
     3
 10
50.54111099243164
 20
-3.450000047683716
 30
0.0
 11
53.56716918945312
 21
-3.450000047683716
 31
0.0
  0
LINE
  5
344
  8
0
  6
CONTINUOUS
 62
     3
 10
44.56716918945312
 20
63.44999694824219
 30
0.0
 11
47.59322738647461
 21
63.44999694824219
 31
0.0
  0
LINE
  5
345
  8
0
  6
CONTINUOUS
 62
     3
 10
44.62586975097656
 20
60.04999923706055
 30
0.0
 11
47.59322738647461
 21
60.04999923706055
 31
0.0
  0
LINE
  5
346
  8
0
  6
CONTINUOUS
 62
     3
 10
50.54111099243164
 20
60.04999923706055
 30
0.0
 11
53.56716918945312
 21
60.04999923706055
 31
0.0
  0
LINE
  5
347
  8
0
  6
CONTINUOUS
 62
     3
 10
50.54111099243164
 20
63.44999694824219
 30
0.0
 11
53.56716918945312
 21
63.44999694824219
 31
0.0
  0
ARC
  5
348
  8
0
  6
CONTINUOUS
 62
     3
 10
206.1671752929688
 20
52.75
 30
0.0
 40
1.0
 50
90.00000250447816
 51
180.0000050089563
  0
ARC
  5
349
  8
0
  6
CONTINUOUS
 62
     3
 10
208.5671691894531
 20
52.75
 30
0.0
 40
1.0
 50
0.0
 51
90.00000250447816
  0
ARC
  5
34A
  8
0
  6
CONTINUOUS
 62
     3
 10
206.1671752929688
 20
7.25
 30
0.0
 40
1.0
 50
179.9999949910437
 51
269.9999974955218
  0
ARC
  5
34B
  8
0
  6
CONTINUOUS
 62
     3
 10
208.5671691894531
 20
7.25
 30
0.0
 40
1.0
 50
269.9999974955218
 51
0.0
  0
CIRCLE
  5
34C
  8
0
  6
CONTINUOUS
 62
     3
 10
-153.3333282470703
 20
30.0
 30
0.0
 40
13.5
  0
CIRCLE
  5
34D
  8
0
  6
CONTINUOUS
 62
     3
 10
-153.3333282470703
 20
30.0
 30
0.0
 40
16.5
  0
CIRCLE
  5
34E
  8
0
  6
CONTINUOUS
 62
     3
 10
-153.3333282470703
 20
30.0
 30
0.0
 40
26.0
  0
CIRCLE
  5
34F
  8
0
  6
CONTINUOUS
 62
     3
 10
-153.3333282470703
 20
30.0
 30
0.0
 40
36.0
  0
CIRCLE
  5
350
  8
0
  6
CONTINUOUS
 62
     3
 10
-153.3333282470703
 20
30.0
 30
0.0
 40
50.0
  0
CIRCLE
  5
351
  8
0
  6
CONTINUOUS
 62
     3
 10
-130.8333282470703
 20
68.97114562988281
 30
0.0
 40
2.200000047683716
  0
CIRCLE
  5
352
  8
0
  6
CONTINUOUS
 62
     3
 10
-175.8333282470703
 20
68.97114562988281
 30
0.0
 40
2.200000047683716
  0
CIRCLE
  5
353
  8
0
  6
CONTINUOUS
 62
     3
 10
-198.3333282470703
 20
30.0
 30
0.0
 40
2.200000047683716
  0
CIRCLE
  5
354
  8
0
  6
CONTINUOUS
 62
     3
 10
-175.8333282470703
 20
-8.971143245697021
 30
0.0
 40
2.200000047683716
  0
CIRCLE
  5
355
  8
0
  6
CONTINUOUS
 62
     3
 10
-130.8333282470703
 20
-8.971143245697021
 30
0.0
 40
2.200000047683716
  0
CIRCLE
  5
356
  8
0
  6
CONTINUOUS
 62
     3
 10
-108.3333358764648
 20
30.0
 30
0.0
 40
2.200000047683716
  0
CIRCLE
  5
357
  8
0
  6
CONTINUOUS
 62
     3
 10
-142.8333282470703
 20
48.1865348815918
 30
0.0
 40
2.200000047683716
  0
CIRCLE
  5
358
  8
0
  6
CONTINUOUS
 62
     3
 10
-163.8333282470703
 20
48.1865348815918
 30
0.0
 40
2.200000047683716
  0
CIRCLE
  5
359
  8
0
  6
CONTINUOUS
 62
     3
 10
-174.3333282470703
 20
30.0
 30
0.0
 40
2.200000047683716
  0
CIRCLE
  5
35A
  8
0
  6
CONTINUOUS
 62
     3
 10
-163.8333282470703
 20
11.81346607208252
 30
0.0
 40
2.200000047683716
  0
CIRCLE
  5
35B
  8
0
  6
CONTINUOUS
 62
     3
 10
-142.8333282470703
 20
11.81346607208252
 30
0.0
 40
2.200000047683716
  0
CIRCLE
  5
35C
  8
0
  6
CONTINUOUS
 62
     3
 10
-132.3333282470703
 20
30.0
 30
0.0
 40
2.200000047683716
  0
CIRCLE
  5
35D
  8
0
  6
CONTINUOUS
 62
     3
 10
-122.8333358764648
 20
30.0
 30
0.0
 40
1.700000047683716
  0
CIRCLE
  5
35E
  8
0
  6
CONTINUOUS
 62
     3
 10
-183.8333282470703
 20
30.0
 30
0.0
 40
1.700000047683716
  0
CIRCLE
  5
35F
  8
0
  6
CONTINUOUS
 62
     3
 10
-153.3333282470703
 20
30.0
 30
0.0
 40
90.5
  0
ARC
  5
360
  8
0
  6
CONTINUOUS
 62
     3
 10
-153.3333282470703
 20
30.0
 30
0.0
 40
60.0
 50
0.0
 51
184.9213475512472
  0
CIRCLE
  5
361
  8
0
  6
CONTINUOUS
 62
     3
 10
-223.9143981933594
 20
-10.75
 30
0.0
 40
5.5
  0
CIRCLE
  5
362
  8
0
  6
CONTINUOUS
 62
     3
 10
-223.9143981933594
 20
-10.75
 30
0.0
 40
5.0
  0
CIRCLE
  5
363
  8
0
  6
CONTINUOUS
 62
     3
 10
-234.8333282470703
 20
30.0
 30
0.0
 40
6.5
  0
CIRCLE
  5
364
  8
0
  6
CONTINUOUS
 62
     3
 10
-234.8333282470703
 20
30.0
 30
0.0
 40
7.0
  0
CIRCLE
  5
365
  8
0
  6
CONTINUOUS
 62
     3
 10
-194.0833282470703
 20
-40.58106994628906
 30
0.0
 40
7.0
  0
CIRCLE
  5
366
  8
0
  6
CONTINUOUS
 62
     3
 10
-194.0833282470703
 20
-40.58106994628906
 30
0.0
 40
6.5
  0
CIRCLE
  5
367
  8
0
  6
CONTINUOUS
 62
     3
 10
-153.3333282470703
 20
-51.5
 30
0.0
 40
5.0
  0
CIRCLE
  5
368
  8
0
  6
CONTINUOUS
 62
     3
 10
-153.3333282470703
 20
-51.5
 30
0.0
 40
5.5
  0
CIRCLE
  5
369
  8
0
  6
CONTINUOUS
 62
     3
 10
-112.5833358764648
 20
-40.58106994628906
 30
0.0
 40
7.0
  0
CIRCLE
  5
36A
  8
0
  6
CONTINUOUS
 62
     3
 10
-112.5833358764648
 20
-40.58106994628906
 30
0.0
 40
6.5
  0
CIRCLE
  5
36B
  8
0
  6
CONTINUOUS
 62
     3
 10
-82.75226593017578
 20
-10.75
 30
0.0
 40
5.5
  0
CIRCLE
  5
36C
  8
0
  6
CONTINUOUS
 62
     3
 10
-82.75226593017578
 20
-10.75
 30
0.0
 40
5.0
  0
CIRCLE
  5
36D
  8
0
  6
CONTINUOUS
 62
     3
 10
-71.83333587646484
 20
30.0
 30
0.0
 40
7.0
  0
CIRCLE
  5
36E
  8
0
  6
CONTINUOUS
 62
     3
 10
-71.83333587646484
 20
30.0
 30
0.0
 40
6.5
  0
CIRCLE
  5
36F
  8
0
  6
CONTINUOUS
 62
     3
 10
-82.75226593017578
 20
70.75
 30
0.0
 40
5.5
  0
CIRCLE
  5
370
  8
0
  6
CONTINUOUS
 62
     3
 10
-82.75226593017578
 20
70.75
 30
0.0
 40
5.0
  0
CIRCLE
  5
371
  8
0
  6
CONTINUOUS
 62
     3
 10
-112.5833358764648
 20
100.5810699462891
 30
0.0
 40
7.0
  0
CIRCLE
  5
372
  8
0
  6
CONTINUOUS
 62
     3
 10
-112.5833358764648
 20
100.5810699462891
 30
0.0
 40
6.5
  0
CIRCLE
  5
373
  8
0
  6
CONTINUOUS
 62
     3
 10
-153.3333282470703
 20
111.5
 30
0.0
 40
5.5
  0
CIRCLE
  5
374
  8
0
  6
CONTINUOUS
 62
     3
 10
-153.3333282470703
 20
111.5
 30
0.0
 40
5.0
  0
CIRCLE
  5
375
  8
0
  6
CONTINUOUS
 62
     3
 10
-194.0833282470703
 20
100.5810699462891
 30
0.0
 40
7.0
  0
CIRCLE
  5
376
  8
0
  6
CONTINUOUS
 62
     3
 10
-194.0833282470703
 20
100.5810699462891
 30
0.0
 40
6.5
  0
CIRCLE
  5
377
  8
0
  6
CONTINUOUS
 62
     3
 10
-223.9143981933594
 20
70.75
 30
0.0
 40
5.5
  0
CIRCLE
  5
378
  8
0
  6
CONTINUOUS
 62
     3
 10
-223.9143981933594
 20
70.75
 30
0.0
 40
5.0
  0
ARC
  5
379
  8
0
  6
CONTINUOUS
 62
     3
 10
-127.0833358764648
 20
75.4663314819336
 30
0.0
 40
4.25
 50
292.0694451944786
 51
187.9305513146365
  0
ARC
  5
37A
  8
0
  6
CONTINUOUS
 62
     3
 10
-127.0833358764648
 20
75.4663314819336
 30
0.0
 40
4.650000095367432
 50
295.3111622575934
 51
184.6888342515217
  0
ARC
  5
37B
  8
0
  6
CONTINUOUS
 62
     3
 10
-153.3333282470703
 20
82.5
 30
0.0
 40
4.650000095367432
 50
325.311166507514
 51
214.6888282561586
  0
ARC
  5
37C
  8
0
  6
CONTINUOUS
 62
     3
 10
-153.3333282470703
 20
82.5
 30
0.0
 40
4.25
 50
322.0694460293046
 51
217.9305589796517
  0
ARC
  5
37D
  8
0
  6
CONTINUOUS
 62
     3
 10
-179.5833282470703
 20
75.4663314819336
 30
0.0
 40
4.650000095367432
 50
355.311165207906
 51
244.6888222607955
  0
ARC
  5
37E
  8
0
  6
CONTINUOUS
 62
     3
 10
-179.5833282470703
 20
75.4663314819336
 30
0.0
 40
4.25
 50
352.0694477179043
 51
247.9305393239103
  0
ARC
  5
37F
  8
0
  6
CONTINUOUS
 62
     3
 10
-200.9144897460938
 20
52.18745803833008
 30
0.0
 40
4.650000095367432
 50
30.31116376284433
 51
279.6888425869619
  0
ARC
  5
380
  8
0
  6
CONTINUOUS
 62
     3
 10
-200.9144897460938
 20
52.18745803833008
 30
0.0
 40
4.25
 50
27.06944840727684
 51
282.9305596500766
  0
ARC
  5
381
  8
0
  6
CONTINUOUS
 62
     3
 10
-200.9144897460938
 20
7.812541007995605
 30
0.0
 40
4.650000095367432
 50
212.3087431993066
 51
329.6888362371557
  0
ARC
  5
382
  8
0
  6
CONTINUOUS
 62
     3
 10
-200.9144897460938
 20
7.812541007995605
 30
0.0
 40
4.25
 50
213.9972342640255
 51
332.9305515927231
  0
ARC
  5
383
  8
0
  6
CONTINUOUS
 62
     3
 10
-179.5833282470703
 20
-15.46633338928223
 30
0.0
 40
4.650000095367432
 50
183.3877551589917
 51
4.688834792094074
  0
ARC
  5
384
  8
0
  6
CONTINUOUS
 62
     3
 10
-179.5833282470703
 20
-15.46633338928223
 30
0.0
 40
4.25
 50
178.3988720637219
 51
7.930542663214474
  0
ARC
  5
385
  8
0
  6
CONTINUOUS
 62
     3
 10
-153.3333282470703
 20
-22.5
 30
0.0
 40
4.650000095367432
 50
145.3111681013758
 51
34.68884692549327
  0
ARC
  5
386
  8
0
  6
CONTINUOUS
 62
     3
 10
-153.3333282470703
 20
-22.5
 30
0.0
 40
4.25
 50
142.069451038261
 51
37.93056398860804
  0
ARC
  5
387
  8
0
  6
CONTINUOUS
 62
     3
 10
-127.0833358764648
 20
-15.46633338928223
 30
0.0
 40
4.650000095367432
 50
175.3111621060126
 51
64.68884093013016
  0
ARC
  5
388
  8
0
  6
CONTINUOUS
 62
     3
 10
-127.0833358764648
 20
-15.46633338928223
 30
0.0
 40
4.25
 50
172.0694450428979
 51
67.93055799324493
  0
ARC
  5
389
  8
0
  6
CONTINUOUS
 62
     3
 10
-105.7521743774414
 20
7.812541007995605
 30
0.0
 40
4.650000095367432
 50
210.311158753888
 51
99.68883757800553
  0
ARC
  5
38A
  8
0
  6
CONTINUOUS
 62
     3
 10
-105.7521743774414
 20
7.812541007995605
 30
0.0
 40
4.25
 50
207.0694416907732
 51
102.9305546411203
  0
ARC
  5
38B
  8
0
  6
CONTINUOUS
 62
     3
 10
-105.7521743774414
 20
52.18745803833008
 30
0.0
 40
4.650000095367432
 50
260.3111624219945
 51
149.688841246112
  0
ARC
  5
38C
  8
0
  6
CONTINUOUS
 62
     3
 10
-105.7521743774414
 20
52.18745803833008
 30
0.0
 40
4.25
 50
257.0694453588797
 51
152.9305583092268
  0
ARC
  5
38D
  8
0
  6
CONTINUOUS
 62
     3
 10
-153.3333282470703
 20
30.0
 30
0.0
 40
60.0
 50
205.0786601137679
 51
214.9213315379715
  0
ARC
  5
38E
  8
0
  6
CONTINUOUS
 62
     3
 10
-195.5829620361328
 20
-19.67425155639648
 30
0.0
 40
12.0
 50
199.0555260960839
 51
250.9444800508599
  0
ARC
  5
38F
  8
0
  6
CONTINUOUS
 62
     3
 10
-203.0075836181641
 20
-12.24962997436523
 30
0.0
 40
12.0
 50
19.05552085975648
 51
30.00000083482606
  0
ARC
  5
390
  8
0
  6
CONTINUOUS
 62
     3
 10
-203.0075836181641
 20
-12.24962997436523
 30
0.0
 40
12.0
 50
30.00000083482606
 51
70.9444782296271
  0
ARC
  5
391
  8
0
  6
CONTINUOUS
 62
     3
 10
-195.5829620361328
 20
-19.67425155639648
 30
0.0
 40
12.0
 50
30.00000083482606
 51
70.9444782296271
  0
ARC
  5
392
  8
0
  6
CONTINUOUS
 62
     3
 10
-203.0075836181641
 20
-12.24962997436523
 30
0.0
 40
12.0
 50
199.0555260960839
 51
250.9444800508599
  0
ARC
  5
393
  8
0
  6
CONTINUOUS
 62
     3
 10
-195.5829620361328
 20
-19.67425155639648
 30
0.0
 40
12.0
 50
19.05552085975648
 51
30.00000083482606
  0
ARC
  5
394
  8
0
  6
CONTINUOUS
 62
     3
 10
-217.4773101806641
 20
18.24787330627441
 30
0.0
 40
12.0
 50
349.0555200249304
 51
0.0
  0
ARC
  5
395
  8
0
  6
CONTINUOUS
 62
     3
 10
-217.4773101806641
 20
18.24787330627441
 30
0.0
 40
12.0
 50
169.055514788603
 51
220.9444755735682
  0
ARC
  5
396
  8
0
  6
CONTINUOUS
 62
     3
 10
-214.7597045898438
 20
8.10565185546875
 30
0.0
 40
12.0
 50
349.0555200249304
 51
0.0
  0
ARC
  5
397
  8
0
  6
CONTINUOUS
 62
     3
 10
-214.7597045898438
 20
8.10565185546875
 30
0.0
 40
12.0
 50
0.0
 51
40.94448080989564
  0
ARC
  5
398
  8
0
  6
CONTINUOUS
 62
     3
 10
-217.4773101806641
 20
18.24787330627441
 30
0.0
 40
12.0
 50
0.0
 51
40.94448080989564
  0
ARC
  5
399
  8
0
  6
CONTINUOUS
 62
     3
 10
-214.7597045898438
 20
8.10565185546875
 30
0.0
 40
12.0
 50
169.055514788603
 51
220.9444755735682
  0
ARC
  5
39A
  8
0
  6
CONTINUOUS
 62
     3
 10
88.06716918945312
 20
86.95947265625
 30
0.0
 40
20.04052543640137
 50
72.39895335300298
 51
107.6010448257642
  0
ARC
  5
39B
  8
0
  6
CONTINUOUS
 62
     3
 10
88.06716918945312
 20
101.934814453125
 30
0.0
 40
18.93481636047363
 50
251.3343335883059
 51
288.6656682329269
  0
ARC
  5
39C
  8
0
  6
CONTINUOUS
 62
     3
 10
97.35685729980469
 20
101.0
 30
0.0
 40
6.00439453125
 50
92.19228149218799
 51
122.5399321255785
  0
ARC
  5
39D
  8
0
  6
CONTINUOUS
 62
     3
 10
78.77748107910156
 20
101.0
 30
0.0
 40
6.00439453125
 50
57.4600728833778
 51
87.80772351676835
  0
ARC
  5
39E
  8
0
  6
CONTINUOUS
 62
     3
 10
78.68062591552734
 20
89.0
 30
0.0
 40
6.008879661560059
 50
273.1152126250188
 51
303.6146881183749
  0
ARC
  5
39F
  8
0
  6
CONTINUOUS
 62
     3
 10
97.4537124633789
 20
89.0
 30
0.0
 40
6.008879661560059
 50
236.3853102877633
 51
266.1336596328094
  0
ARC
  5
3A0
  8
0
  6
CONTINUOUS
 62
     3
 10
113.5671691894531
 20
63.5
 30
0.0
 40
3.0
 50
311.8103140657433
 51
0.0
  0
ARC
  5
3A1
  8
0
  6
CONTINUOUS
 62
     3
 10
113.5671691894531
 20
-3.5
 30
0.0
 40
3.0
 50
0.0
 51
48.1896859342567
  0
CIRCLE
  5
3A2
  8
0
  6
CONTINUOUS
 62
     3
 10
49.06716918945312
 20
-1.75
 30
0.0
 40
2.25
  0
CIRCLE
  5
3A3
  8
0
  6
CONTINUOUS
 62
     3
 10
49.06716918945312
 20
61.75
 30
0.0
 40
2.25
  0
ARC
  5
3A4
  8
0
  6
CONTINUOUS
 62
     3
 10
-153.3333282470703
 20
30.0
 30
0.0
 40
60.0
 50
235.0786541184048
 51
0.0
  0
LINE
  5
3A5
  8
0
  6
CONTINUOUS
 62
     4
 10
214.5671691894531
 20
47.0
 30
0.0
 11
236.5671691894531
 21
47.0
 31
0.0
  0
LINE
  5
3A6
  8
0
  6
CONTINUOUS
 62
     4
 10
214.5671691894531
 20
13.0
 30
0.0
 11
236.5671691894531
 21
13.0
 31
0.0
  0
LINE
  5
3A7
  8
0
  6
CONTINUOUS
 62
     4
 10
5.567168235778809
 20
45.79999923706055
 30
0.0
 11
61.56716918945312
 21
45.79999923706055
 31
0.0
  0
LINE
  5
3A8
  8
0
  6
CONTINUOUS
 62
     4
 10
5.567168235778809
 20
14.20000076293945
 30
0.0
 11
61.56716918945312
 21
14.20000076293945
 31
0.0
  0
LINE
  5
3A9
  8
0
  6
CONTINUOUS
 62
     4
 10
31.56716918945312
 20
55.0
 30
0.0
 11
44.56716918945312
 21
55.0
 31
0.0
  0
LINE
  5
3AA
  8
0
  6
CONTINUOUS
 62
     4
 10
31.56716918945312
 20
5.0
 30
0.0
 11
44.56716918945312
 21
5.0
 31
0.0
  0
LINE
  5
3AB
  8
0
  6
CONTINUOUS
 62
     4
 10
209.5671691894531
 20
-48.22999954223633
 30
0.0
 11
222.5671691894531
 21
-48.22999954223633
 31
0.0
  0
LINE
  5
3AC
  8
0
  6
CONTINUOUS
 62
     4
 10
209.5671691894531
 20
-54.77000045776367
 30
0.0
 11
222.5671691894531
 21
-54.77000045776367
 31
0.0
  0
CIRCLE
  5
3AD
  8
0
  6
CONTINUOUS
 62
     4
 10
-153.3333282470703
 20
30.0
 30
0.0
 40
15.69999980926514
  0
CIRCLE
  5
3AE
  8
0
  6
CONTINUOUS
 62
     4
 10
-153.3333282470703
 20
30.0
 30
0.0
 40
25.20000076293945
  0
CIRCLE
  5
3AF
  8
0
  6
CONTINUOUS
 62
     4
 10
-175.8333282470703
 20
68.97114562988281
 30
0.0
 40
3.0
  0
CIRCLE
  5
3B0
  8
0
  6
CONTINUOUS
 62
     4
 10
-198.3333282470703
 20
30.0
 30
0.0
 40
3.0
  0
CIRCLE
  5
3B1
  8
0
  6
CONTINUOUS
 62
     4
 10
-175.8333282470703
 20
-8.971143245697021
 30
0.0
 40
3.0
  0
CIRCLE
  5
3B2
  8
0
  6
CONTINUOUS
 62
     4
 10
-130.8333282470703
 20
-8.971143245697021
 30
0.0
 40
3.0
  0
CIRCLE
  5
3B3
  8
0
  6
CONTINUOUS
 62
     4
 10
-108.3333358764648
 20
30.0
 30
0.0
 40
3.0
  0
CIRCLE
  5
3B4
  8
0
  6
CONTINUOUS
 62
     4
 10
-142.8333282470703
 20
48.1865348815918
 30
0.0
 40
3.0
  0
CIRCLE
  5
3B5
  8
0
  6
CONTINUOUS
 62
     4
 10
-163.8333282470703
 20
48.1865348815918
 30
0.0
 40
3.0
  0
CIRCLE
  5
3B6
  8
0
  6
CONTINUOUS
 62
     4
 10
-174.3333282470703
 20
30.0
 30
0.0
 40
3.0
  0
CIRCLE
  5
3B7
  8
0
  6
CONTINUOUS
 62
     4
 10
-163.8333282470703
 20
11.81346607208252
 30
0.0
 40
3.0
  0
CIRCLE
  5
3B8
  8
0
  6
CONTINUOUS
 62
     4
 10
-142.8333282470703
 20
11.81346607208252
 30
0.0
 40
3.0
  0
CIRCLE
  5
3B9
  8
0
  6
CONTINUOUS
 62
     4
 10
-132.3333282470703
 20
30.0
 30
0.0
 40
3.0
  0
CIRCLE
  5
3BA
  8
0
  6
CONTINUOUS
 62
     4
 10
-153.3333282470703
 20
30.0
 30
0.0
 40
35.0
  0
LINE
  5
3BB
  8
0
  6
DIVIDE
 62
     3
 10
-297.0
 20
-210.0
 30
0.0
 11
297.0
 21
-210.0
 31
0.0
  0
LINE
  5
3BC
  8
0
  6
DIVIDE
 62
     3
 10
-297.0
 20
210.0
 30
0.0
 11
297.0
 21
210.0
 31
0.0
  0
LINE
  5
3BD
  8
0
  6
DIVIDE
 62
     3
 10
297.0
 20
210.0
 30
0.0
 11
297.0
 21
-210.0
 31
0.0
  0
LINE
  5
3BE
  8
0
  6
DIVIDE
 62
     3
 10
-297.0
 20
210.0
 30
0.0
 11
-297.0
 21
-210.0
 31
0.0
  0
LINE
  5
3BF
  8
0
  6
CONTINUOUS
 62
     3
 10
260.7115339820321
 20
-190.7499909417047
 30
0.0
 11
256.9615344783397
 21
-183.24999193432
 31
0.0
  0
LINE
  5
3C0
  8
0
  6
CONTINUOUS
 62
     3
 10
256.9615242424329
 20
-183.24999193432
 30
0.0
 11
253.2115247387405
 21
-190.7499909417047
 31
0.0
  0
LINE
  5
3C1
  8
0
  6
CONTINUOUS
 62
     3
 10
260.7115478515625
 20
-190.75
 30
0.0
 11
253.2115478515625
 21
-190.75
 31
0.0
  0
POLYLINE
  5
3C2
  8
0
  6
CONTINUOUS
 62
     3
 66
     1
 10
0.0
 20
0.0
 30
0.0
 70
     1
  0
VERTEX
  5
46F
  8
0
  6
CONTINUOUS
 62
     3
 10
1.0
 20
0.0
 30
0.0
  0
VERTEX
  5
470
  8
0
  6
CONTINUOUS
 62
     3
 10
0.9807852804032304
 20
0.1950903220161282
 30
0.0
  0
VERTEX
  5
471
  8
0
  6
CONTINUOUS
 62
     3
 10
0.9238795325112867
 20
0.3826834323650898
 30
0.0
  0
VERTEX
  5
472
  8
0
  6
CONTINUOUS
 62
     3
 10
0.8314696123025452
 20
0.5555702330196022
 30
0.0
  0
VERTEX
  5
473
  8
0
  6
CONTINUOUS
 62
     3
 10
0.7071067811865476
 20
0.7071067811865475
 30
0.0
  0
VERTEX
  5
474
  8
0
  6
CONTINUOUS
 62
     3
 10
0.5555702330196023
 20
0.8314696123025452
 30
0.0
  0
VERTEX
  5
475
  8
0
  6
CONTINUOUS
 62
     3
 10
0.3826834323650898
 20
0.9238795325112867
 30
0.0
  0
VERTEX
  5
476
  8
0
  6
CONTINUOUS
 62
     3
 10
0.1950903220161283
 20
0.9807852804032304
 30
0.0
  0
VERTEX
  5
477
  8
0
  6
CONTINUOUS
 62
     3
 10
0.0000000000000001
 20
1.0
 30
0.0
  0
VERTEX
  5
478
  8
0
  6
CONTINUOUS
 62
     3
 10
-0.1950903220161282
 20
0.9807852804032304
 30
0.0
  0
VERTEX
  5
479
  8
0
  6
CONTINUOUS
 62
     3
 10
-0.3826834323650897
 20
0.9238795325112867
 30
0.0
  0
VERTEX
  5
47A
  8
0
  6
CONTINUOUS
 62
     3
 10
-0.555570233019602
 20
0.8314696123025453
 30
0.0
  0
VERTEX
  5
47B
  8
0
  6
CONTINUOUS
 62
     3
 10
-0.7071067811865475
 20
0.7071067811865476
 30
0.0
  0
VERTEX
  5
47C
  8
0
  6
CONTINUOUS
 62
     3
 10
-0.8314696123025453
 20
0.5555702330196022
 30
0.0
  0
VERTEX
  5
47D
  8
0
  6
CONTINUOUS
 62
     3
 10
-0.9238795325112868
 20
0.3826834323650894
 30
0.0
  0
VERTEX
  5
47E
  8
0
  6
CONTINUOUS
 62
     3
 10
-0.9807852804032305
 20
0.1950903220161277
 30
0.0
  0
VERTEX
  5
47F
  8
0
  6
CONTINUOUS
 62
     3
 10
-1.0
 20
-0.0000000000000008
 30
0.0
  0
VERTEX
  5
480
  8
0
  6
CONTINUOUS
 62
     3
 10
-0.9807852804032302
 20
-0.1950903220161292
 30
0.0
  0
VERTEX
  5
481
  8
0
  6
CONTINUOUS
 62
     3
 10
-0.9238795325112863
 20
-0.3826834323650909
 30
0.0
  0
VERTEX
  5
482
  8
0
  6
CONTINUOUS
 62
     3
 10
-0.8314696123025445
 20
-0.5555702330196034
 30
0.0
  0
VERTEX
  5
483
  8
0
  6
CONTINUOUS
 62
     3
 10
-0.7071067811865464
 20
-0.7071067811865487
 30
0.0
  0
VERTEX
  5
484
  8
0
  6
CONTINUOUS
 62
     3
 10
-0.5555702330196007
 20
-0.8314696123025462
 30
0.0
  0
VERTEX
  5
485
  8
0
  6
CONTINUOUS
 62
     3
 10
-0.3826834323650879
 20
-0.9238795325112875
 30
0.0
  0
VERTEX
  5
486
  8
0
  6
CONTINUOUS
 62
     3
 10
-0.1950903220161261
 20
-0.9807852804032309
 30
0.0
  0
VERTEX
  5
487
  8
0
  6
CONTINUOUS
 62
     3
 10
0.0000000000000025
 20
-1.0
 30
0.0
  0
VERTEX
  5
488
  8
0
  6
CONTINUOUS
 62
     3
 10
0.1950903220161309
 20
-0.9807852804032299
 30
0.0
  0
VERTEX
  5
489
  8
0
  6
CONTINUOUS
 62
     3
 10
0.3826834323650924
 20
-0.9238795325112856
 30
0.0
  0
VERTEX
  5
48A
  8
0
  6
CONTINUOUS
 62
     3
 10
0.5555702330196048
 20
-0.8314696123025435
 30
0.0
  0
VERTEX
  5
48B
  8
0
  6
CONTINUOUS
 62
     3
 10
0.7071067811865499
 20
-0.7071067811865451
 30
0.0
  0
VERTEX
  5
48C
  8
0
  6
CONTINUOUS
 62
     3
 10
0.8314696123025472
 20
-0.5555702330195993
 30
0.0
  0
VERTEX
  5
48D
  8
0
  6
CONTINUOUS
 62
     3
 10
0.9238795325112882
 20
-0.3826834323650863
 30
0.0
  0
VERTEX
  5
48E
  8
0
  6
CONTINUOUS
 62
     3
 10
0.9807852804032312
 20
-0.1950903220161244
 30
0.0
  0
SEQEND
  5
65F
  8
0
  6
CONTINUOUS
 62
     3
  0
POLYLINE
  5
3C3
  8
0
  6
CONTINUOUS
 62
     3
 66
     1
 10
0.0
 20
0.0
 30
0.0
 70
   129
  0
VERTEX
  5
48F
  8
0
  6
CONTINUOUS
 62
     3
 10
209.5671691894531
 20
51.875
 30
0.0
  0
VERTEX
  5
490
  8
0
  6
CONTINUOUS
 62
     3
 10
209.5652394183475
 20
51.95351685074225
 30
0.0
  0
VERTEX
  5
491
  8
0
  6
CONTINUOUS
 62
     3
 10
209.559453490505
 20
52.03189595624809
 30
0.0
  0
VERTEX
  5
492
  8
0
  6
CONTINUOUS
 62
     3
 10
209.549821556409
 20
52.10999981293307
 30
0.0
  0
VERTEX
  5
493
  8
0
  6
CONTINUOUS
 62
     3
 10
209.5363605137449
 20
52.18769140009269
 30
0.0
  0
VERTEX
  5
494
  8
0
  6
CONTINUOUS
 62
     3
 10
209.5190939777557
 20
52.2648344202833
 30
0.0
  0
VERTEX
  5
495
  8
0
  6
CONTINUOUS
 62
     3
 10
209.4980522398127
 20
52.3412935384341
 30
0.0
  0
VERTEX
  5
496
  8
0
  6
CONTINUOUS
 62
     3
 10
209.4732722142742
 20
52.41693461927088
 30
0.0
  0
VERTEX
  5
497
  8
0
  6
CONTINUOUS
 62
     3
 10
209.4447973737254
 20
52.49162496263484
 30
0.0
  0
VERTEX
  5
498
  8
0
  6
CONTINUOUS
 62
     3
 10
209.4126776727124
 20
52.56523353628377
 30
0.0
  0
VERTEX
  5
499
  8
0
  6
CONTINUOUS
 62
     3
 10
209.3769694601052
 20
52.63763120576713
 30
0.0
  0
VERTEX
  5
49A
  8
0
  6
CONTINUOUS
 62
     3
 10
209.3377353802423
 20
52.70869096097174
 30
0.0
  0
VERTEX
  5
49B
  8
0
  6
CONTINUOUS
 62
     3
 10
209.2950442630317
 20
52.77828813894072
 30
0.0
  0
VERTEX
  5
49C
  8
0
  6
CONTINUOUS
 62
     3
 10
209.2489710031995
 20
52.84630064257462
 30
0.0
  0
VERTEX
  5
49D
  8
0
  6
CONTINUOUS
 62
     3
 10
209.1995964288992
 20
52.91260915483127
 30
0.0
  0
VERTEX
  5
49E
  8
0
  6
CONTINUOUS
 62
     3
 10
209.1470071599119
 20
52.97709734804839
 30
0.0
  0
VERTEX
  5
49F
  8
0
  6
CONTINUOUS
 62
     3
 10
209.0912954556852
 20
53.03965208802183
 30
0.0
  0
VERTEX
  5
4A0
  8
0
  6
CONTINUOUS
 62
     3
 10
209.0325590534792
 20
53.10016363248145
 30
0.0
  0
VERTEX
  5
4A1
  8
0
  6
CONTINUOUS
 62
     3
 10
208.9709009969023
 20
53.15852582361629
 30
0.0
  0
VERTEX
  5
4A2
  8
0
  6
CONTINUOUS
 62
     3
 10
208.9064294551373
 20
53.21463627431151
 30
0.0
  0
VERTEX
  5
4A3
  8
0
  6
CONTINUOUS
 62
     3
 10
208.8392575331759
 20
53.26839654777012
 30
0.0
  0
VERTEX
  5
4A4
  8
0
  6
CONTINUOUS
 62
     3
 10
208.7695030733944
 20
53.3197123302046
 30
0.0
  0
VERTEX
  5
4A5
  8
0
  6
CONTINUOUS
 62
     3
 10
208.6972884488181
 20
53.36849359629537
 30
0.0
  0
VERTEX
  5
4A6
  8
0
  6
CONTINUOUS
 62
     3
 10
208.6227403484371
 20
53.4146547671257
 30
0.0
  0
VERTEX
  5
4A7
  8
0
  6
CONTINUOUS
 62
     3
 10
208.5459895549511
 20
53.45811486031628
 30
0.0
  0
VERTEX
  5
4A8
  8
0
  6
CONTINUOUS
 62
     3
 10
208.467170715332
 20
53.49879763209582
 30
0.0
  0
VERTEX
  5
4A9
  8
0
  6
CONTINUOUS
 62
     3
 10
208.3864221046073
 20
53.53663171105853
 30
0.0
  0
VERTEX
  5
4AA
  8
0
  6
CONTINUOUS
 62
     3
 10
208.3038853832788
 20
53.57155072337379
 30
0.0
  0
VERTEX
  5
4AB
  8
0
  6
CONTINUOUS
 62
     3
 10
208.2197053488019
 20
53.60349340922844
 30
0.0
  0
VERTEX
  5
4AC
  8
0
  6
CONTINUOUS
 62
     3
 10
208.1340296815615
 20
53.6324037302973
 30
0.0
  0
VERTEX
  5
4AD
  8
0
  6
CONTINUOUS
 62
     3
 10
208.0470086857908
 20
53.65823096805341
 30
0.0
  0
VERTEX
  5
4AE
  8
0
  6
CONTINUOUS
 62
     3
 10
207.9587950258864
 20
53.68092981274561
 30
0.0
  0
VERTEX
  5
4AF
  8
0
  6
CONTINUOUS
 62
     3
 10
207.8695434585828
 20
53.70046044288718
 30
0.0
  0
VERTEX
  5
4B0
  8
0
  6
CONTINUOUS
 62
     3
 10
207.7794105614572
 20
53.71678859511629
 30
0.0
  0
VERTEX
  5
4B1
  8
0
  6
CONTINUOUS
 62
     3
 10
207.6885544582382
 20
53.7298856243056
 30
0.0
  0
VERTEX
  5
4B2
  8
0
  6
CONTINUOUS
 62
     3
 10
207.5971345414042
 20
53.73972855381551
 30
0.0
  0
VERTEX
  5
4B3
  8
0
  6
CONTINUOUS
 62
     3
 10
207.505311192554
 20
53.74630011580301
 30
0.0
  0
VERTEX
  5
4B4
  8
0
  6
CONTINUOUS
 62
     3
 10
207.4132455010431
 20
53.74958878151534
 30
0.0
  0
VERTEX
  5
4B5
  8
0
  6
CONTINUOUS
 62
     3
 10
207.3210989813788
 20
53.74958878151534
 30
0.0
  0
VERTEX
  5
4B6
  8
0
  6
CONTINUOUS
 62
     3
 10
207.2290332898679
 20
53.74630011580301
 30
0.0
  0
VERTEX
  5
4B7
  8
0
  6
CONTINUOUS
 62
     3
 10
207.1372099410177
 20
53.73972855381551
 30
0.0
  0
VERTEX
  5
4B8
  8
0
  6
CONTINUOUS
 62
     3
 10
207.0457900241836
 20
53.7298856243056
 30
0.0
  0
VERTEX
  5
4B9
  8
0
  6
CONTINUOUS
 62
     3
 10
206.9549339209647
 20
53.71678859511629
 30
0.0
  0
VERTEX
  5
4BA
  8
0
  6
CONTINUOUS
 62
     3
 10
206.864801023839
 20
53.70046044288718
 30
0.0
  0
VERTEX
  5
4BB
  8
0
  6
CONTINUOUS
 62
     3
 10
206.7755494565355
 20
53.68092981274561
 30
0.0
  0
VERTEX
  5
4BC
  8
0
  6
CONTINUOUS
 62
     3
 10
206.6873357966311
 20
53.65823096805341
 30
0.0
  0
VERTEX
  5
4BD
  8
0
  6
CONTINUOUS
 62
     3
 10
206.6003148008604
 20
53.6324037302973
 30
0.0
  0
VERTEX
  5
4BE
  8
0
  6
CONTINUOUS
 62
     3
 10
206.51463913362
 20
53.60349340922843
 30
0.0
  0
VERTEX
  5
4BF
  8
0
  6
CONTINUOUS
 62
     3
 10
206.4304590991431
 20
53.57155072337379
 30
0.0
  0
VERTEX
  5
4C0
  8
0
  6
CONTINUOUS
 62
     3
 10
206.3479223778145
 20
53.53663171105853
 30
0.0
  0
VERTEX
  5
4C1
  8
0
  6
CONTINUOUS
 62
     3
 10
206.2671737670898
 20
53.49879763209582
 30
0.0
  0
VERTEX
  5
4C2
  8
0
  6
CONTINUOUS
 62
     3
 10
206.1883549274708
 20
53.45811486031628
 30
0.0
  0
VERTEX
  5
4C3
  8
0
  6
CONTINUOUS
 62
     3
 10
206.1116041339848
 20
53.4146547671257
 30
0.0
  0
VERTEX
  5
4C4
  8
0
  6
CONTINUOUS
 62
     3
 10
206.0370560336038
 20
53.36849359629537
 30
0.0
  0
VERTEX
  5
4C5
  8
0
  6
CONTINUOUS
 62
     3
 10
205.9648414090275
 20
53.3197123302046
 30
0.0
  0
VERTEX
  5
4C6
  8
0
  6
CONTINUOUS
 62
     3
 10
205.895086949246
 20
53.26839654777011
 30
0.0
  0
VERTEX
  5
4C7
  8
0
  6
CONTINUOUS
 62
     3
 10
205.8279150272846
 20
53.2146362743115
 30
0.0
  0
VERTEX
  5
4C8
  8
0
  6
CONTINUOUS
 62
     3
 10
205.7634434855195
 20
53.15852582361629
 30
0.0
  0
VERTEX
  5
4C9
  8
0
  6
CONTINUOUS
 62
     3
 10
205.7017854289427
 20
53.10016363248145
 30
0.0
  0
VERTEX
  5
4CA
  8
0
  6
CONTINUOUS
 62
     3
 10
205.6430490267367
 20
53.03965208802183
 30
0.0
  0
VERTEX
  5
4CB
  8
0
  6
CONTINUOUS
 62
     3
 10
205.58733732251
 20
52.97709734804839
 30
0.0
  0
VERTEX
  5
4CC
  8
0
  6
CONTINUOUS
 62
     3
 10
205.5347480535226
 20
52.91260915483127
 30
0.0
  0
VERTEX
  5
4CD
  8
0
  6
CONTINUOUS
 62
     3
 10
205.4853734792224
 20
52.84630064257462
 30
0.0
  0
VERTEX
  5
4CE
  8
0
  6
CONTINUOUS
 62
     3
 10
205.4393002193902
 20
52.77828813894072
 30
0.0
  0
VERTEX
  5
4CF
  8
0
  6
CONTINUOUS
 62
     3
 10
205.3966091021796
 20
52.70869096097174
 30
0.0
  0
VERTEX
  5
4D0
  8
0
  6
CONTINUOUS
 62
     3
 10
205.3573750223167
 20
52.63763120576712
 30
0.0
  0
VERTEX
  5
4D1
  8
0
  6
CONTINUOUS
 62
     3
 10
205.3216668097094
 20
52.56523353628377
 30
0.0
  0
VERTEX
  5
4D2
  8
0
  6
CONTINUOUS
 62
     3
 10
205.2895471086964
 20
52.49162496263484
 30
0.0
  0
VERTEX
  5
4D3
  8
0
  6
CONTINUOUS
 62
     3
 10
205.2610722681476
 20
52.41693461927088
 30
0.0
  0
VERTEX
  5
4D4
  8
0
  6
CONTINUOUS
 62
     3
 10
205.2362922426092
 20
52.3412935384341
 30
0.0
  0
VERTEX
  5
4D5
  8
0
  6
CONTINUOUS
 62
     3
 10
205.2152505046662
 20
52.26483442028329
 30
0.0
  0
VERTEX
  5
4D6
  8
0
  6
CONTINUOUS
 62
     3
 10
205.1979839686769
 20
52.18769140009269
 30
0.0
  0
VERTEX
  5
4D7
  8
0
  6
CONTINUOUS
 62
     3
 10
205.1845229260129
 20
52.10999981293307
 30
0.0
  0
VERTEX
  5
4D8
  8
0
  6
CONTINUOUS
 62
     3
 10
205.1748909919169
 20
52.03189595624809
 30
0.0
  0
VERTEX
  5
4D9
  8
0
  6
CONTINUOUS
 62
     3
 10
205.1691050640744
 20
51.95351685074225
 30
0.0
  0
VERTEX
  5
4DA
  8
0
  6
CONTINUOUS
 62
     3
 10
205.1671752929688
 20
51.87499999999999
 30
0.0
  0
VERTEX
  5
4DB
  8
0
  6
CONTINUOUS
 62
     3
 10
205.1691050640744
 20
51.79648314925775
 30
0.0
  0
VERTEX
  5
4DC
  8
0
  6
CONTINUOUS
 62
     3
 10
205.1748909919169
 20
51.71810404375191
 30
0.0
  0
VERTEX
  5
4DD
  8
0
  6
CONTINUOUS
 62
     3
 10
205.1845229260129
 20
51.64000018706692
 30
0.0
  0
VERTEX
  5
4DE
  8
0
  6
CONTINUOUS
 62
     3
 10
205.1979839686769
 20
51.5623085999073
 30
0.0
  0
VERTEX
  5
4DF
  8
0
  6
CONTINUOUS
 62
     3
 10
205.2152505046662
 20
51.4851655797167
 30
0.0
  0
VERTEX
  5
4E0
  8
0
  6
CONTINUOUS
 62
     3
 10
205.2362922426092
 20
51.40870646156589
 30
0.0
  0
VERTEX
  5
4E1
  8
0
  6
CONTINUOUS
 62
     3
 10
205.2610722681476
 20
51.33306538072911
 30
0.0
  0
VERTEX
  5
4E2
  8
0
  6
CONTINUOUS
 62
     3
 10
205.2895471086964
 20
51.25837503736516
 30
0.0
  0
VERTEX
  5
4E3
  8
0
  6
CONTINUOUS
 62
     3
 10
205.3216668097094
 20
51.18476646371622
 30
0.0
  0
VERTEX
  5
4E4
  8
0
  6
CONTINUOUS
 62
     3
 10
205.3573750223167
 20
51.11236879423287
 30
0.0
  0
VERTEX
  5
4E5
  8
0
  6
CONTINUOUS
 62
     3
 10
205.3966091021796
 20
51.04130903902826
 30
0.0
  0
VERTEX
  5
4E6
  8
0
  6
CONTINUOUS
 62
     3
 10
205.4393002193902
 20
50.97171186105928
 30
0.0
  0
VERTEX
  5
4E7
  8
0
  6
CONTINUOUS
 62
     3
 10
205.4853734792224
 20
50.90369935742537
 30
0.0
  0
VERTEX
  5
4E8
  8
0
  6
CONTINUOUS
 62
     3
 10
205.5347480535226
 20
50.83739084516873
 30
0.0
  0
VERTEX
  5
4E9
  8
0
  6
CONTINUOUS
 62
     3
 10
205.58733732251
 20
50.77290265195161
 30
0.0
  0
VERTEX
  5
4EA
  8
0
  6
CONTINUOUS
 62
     3
 10
205.6430490267367
 20
50.71034791197816
 30
0.0
  0
VERTEX
  5
4EB
  8
0
  6
CONTINUOUS
 62
     3
 10
205.7017854289427
 20
50.64983636751855
 30
0.0
  0
VERTEX
  5
4EC
  8
0
  6
CONTINUOUS
 62
     3
 10
205.7634434855195
 20
50.59147417638371
 30
0.0
  0
VERTEX
  5
4ED
  8
0
  6
CONTINUOUS
 62
     3
 10
205.8279150272846
 20
50.53536372568849
 30
0.0
  0
VERTEX
  5
4EE
  8
0
  6
CONTINUOUS
 62
     3
 10
205.895086949246
 20
50.48160345222988
 30
0.0
  0
VERTEX
  5
4EF
  8
0
  6
CONTINUOUS
 62
     3
 10
205.9648414090275
 20
50.43028766979539
 30
0.0
  0
VERTEX
  5
4F0
  8
0
  6
CONTINUOUS
 62
     3
 10
206.0370560336038
 20
50.38150640370463
 30
0.0
  0
VERTEX
  5
4F1
  8
0
  6
CONTINUOUS
 62
     3
 10
206.1116041339848
 20
50.3353452328743
 30
0.0
  0
VERTEX
  5
4F2
  8
0
  6
CONTINUOUS
 62
     3
 10
206.1883549274708
 20
50.29188513968372
 30
0.0
  0
VERTEX
  5
4F3
  8
0
  6
CONTINUOUS
 62
     3
 10
206.2671737670898
 20
50.25120236790418
 30
0.0
  0
VERTEX
  5
4F4
  8
0
  6
CONTINUOUS
 62
     3
 10
206.3479223778145
 20
50.21336828894147
 30
0.0
  0
VERTEX
  5
4F5
  8
0
  6
CONTINUOUS
 62
     3
 10
206.4304590991431
 20
50.17844927662621
 30
0.0
  0
VERTEX
  5
4F6
  8
0
  6
CONTINUOUS
 62
     3
 10
206.51463913362
 20
50.14650659077156
 30
0.0
  0
VERTEX
  5
4F7
  8
0
  6
CONTINUOUS
 62
     3
 10
206.6003148008604
 20
50.1175962697027
 30
0.0
  0
VERTEX
  5
4F8
  8
0
  6
CONTINUOUS
 62
     3
 10
206.6873357966311
 20
50.09176903194658
 30
0.0
  0
VERTEX
  5
4F9
  8
0
  6
CONTINUOUS
 62
     3
 10
206.7755494565355
 20
50.06907018725439
 30
0.0
  0
VERTEX
  5
4FA
  8
0
  6
CONTINUOUS
 62
     3
 10
206.864801023839
 20
50.04953955711282
 30
0.0
  0
VERTEX
  5
4FB
  8
0
  6
CONTINUOUS
 62
     3
 10
206.9549339209647
 20
50.03321140488371
 30
0.0
  0
VERTEX
  5
4FC
  8
0
  6
CONTINUOUS
 62
     3
 10
207.0457900241837
 20
50.0201143756944
 30
0.0
  0
VERTEX
  5
4FD
  8
0
  6
CONTINUOUS
 62
     3
 10
207.1372099410177
 20
50.01027144618449
 30
0.0
  0
VERTEX
  5
4FE
  8
0
  6
CONTINUOUS
 62
     3
 10
207.2290332898679
 20
50.00369988419699
 30
0.0
  0
VERTEX
  5
4FF
  8
0
  6
CONTINUOUS
 62
     3
 10
207.3210989813788
 20
50.00041121848466
 30
0.0
  0
VERTEX
  5
500
  8
0
  6
CONTINUOUS
 62
     3
 10
207.4132455010431
 20
50.00041121848466
 30
0.0
  0
VERTEX
  5
501
  8
0
  6
CONTINUOUS
 62
     3
 10
207.505311192554
 20
50.00369988419699
 30
0.0
  0
VERTEX
  5
502
  8
0
  6
CONTINUOUS
 62
     3
 10
207.5971345414042
 20
50.01027144618449
 30
0.0
  0
VERTEX
  5
503
  8
0
  6
CONTINUOUS
 62
     3
 10
207.6885544582382
 20
50.0201143756944
 30
0.0
  0
VERTEX
  5
504
  8
0
  6
CONTINUOUS
 62
     3
 10
207.7794105614572
 20
50.03321140488371
 30
0.0
  0
VERTEX
  5
505
  8
0
  6
CONTINUOUS
 62
     3
 10
207.8695434585828
 20
50.04953955711282
 30
0.0
  0
VERTEX
  5
506
  8
0
  6
CONTINUOUS
 62
     3
 10
207.9587950258864
 20
50.06907018725439
 30
0.0
  0
VERTEX
  5
507
  8
0
  6
CONTINUOUS
 62
     3
 10
208.0470086857908
 20
50.09176903194659
 30
0.0
  0
VERTEX
  5
508
  8
0
  6
CONTINUOUS
 62
     3
 10
208.1340296815615
 20
50.11759626970271
 30
0.0
  0
VERTEX
  5
509
  8
0
  6
CONTINUOUS
 62
     3
 10
208.2197053488019
 20
50.14650659077157
 30
0.0
  0
VERTEX
  5
50A
  8
0
  6
CONTINUOUS
 62
     3
 10
208.3038853832788
 20
50.17844927662622
 30
0.0
  0
VERTEX
  5
50B
  8
0
  6
CONTINUOUS
 62
     3
 10
208.3864221046073
 20
50.21336828894147
 30
0.0
  0
VERTEX
  5
50C
  8
0
  6
CONTINUOUS
 62
     3
 10
208.467170715332
 20
50.25120236790418
 30
0.0
  0
VERTEX
  5
50D
  8
0
  6
CONTINUOUS
 62
     3
 10
208.5459895549511
 20
50.29188513968373
 30
0.0
  0
VERTEX
  5
50E
  8
0
  6
CONTINUOUS
 62
     3
 10
208.6227403484371
 20
50.33534523287431
 30
0.0
  0
VERTEX
  5
50F
  8
0
  6
CONTINUOUS
 62
     3
 10
208.6972884488181
 20
50.38150640370463
 30
0.0
  0
VERTEX
  5
510
  8
0
  6
CONTINUOUS
 62
     3
 10
208.7695030733944
 20
50.4302876697954
 30
0.0
  0
VERTEX
  5
511
  8
0
  6
CONTINUOUS
 62
     3
 10
208.8392575331759
 20
50.48160345222989
 30
0.0
  0
VERTEX
  5
512
  8
0
  6
CONTINUOUS
 62
     3
 10
208.9064294551373
 20
50.5353637256885
 30
0.0
  0
VERTEX
  5
513
  8
0
  6
CONTINUOUS
 62
     3
 10
208.9709009969023
 20
50.59147417638371
 30
0.0
  0
VERTEX
  5
514
  8
0
  6
CONTINUOUS
 62
     3
 10
209.0325590534792
 20
50.64983636751856
 30
0.0
  0
VERTEX
  5
515
  8
0
  6
CONTINUOUS
 62
     3
 10
209.0912954556852
 20
50.71034791197818
 30
0.0
  0
VERTEX
  5
516
  8
0
  6
CONTINUOUS
 62
     3
 10
209.1470071599119
 20
50.77290265195162
 30
0.0
  0
VERTEX
  5
517
  8
0
  6
CONTINUOUS
 62
     3
 10
209.1995964288993
 20
50.83739084516874
 30
0.0
  0
VERTEX
  5
518
  8
0
  6
CONTINUOUS
 62
     3
 10
209.2489710031995
 20
50.90369935742539
 30
0.0
  0
VERTEX
  5
519
  8
0
  6
CONTINUOUS
 62
     3
 10
209.2950442630317
 20
50.97171186105929
 30
0.0
  0
VERTEX
  5
51A
  8
0
  6
CONTINUOUS
 62
     3
 10
209.3377353802423
 20
51.04130903902827
 30
0.0
  0
VERTEX
  5
51B
  8
0
  6
CONTINUOUS
 62
     3
 10
209.3769694601052
 20
51.11236879423289
 30
0.0
  0
VERTEX
  5
51C
  8
0
  6
CONTINUOUS
 62
     3
 10
209.4126776727124
 20
51.18476646371624
 30
0.0
  0
VERTEX
  5
51D
  8
0
  6
CONTINUOUS
 62
     3
 10
209.4447973737254
 20
51.25837503736517
 30
0.0
  0
VERTEX
  5
51E
  8
0
  6
CONTINUOUS
 62
     3
 10
209.4732722142742
 20
51.33306538072912
 30
0.0
  0
VERTEX
  5
51F
  8
0
  6
CONTINUOUS
 62
     3
 10
209.4980522398127
 20
51.40870646156591
 30
0.0
  0
VERTEX
  5
520
  8
0
  6
CONTINUOUS
 62
     3
 10
209.5190939777557
 20
51.48516557971671
 30
0.0
  0
VERTEX
  5
521
  8
0
  6
CONTINUOUS
 62
     3
 10
209.5363605137449
 20
51.56230859990732
 30
0.0
  0
VERTEX
  5
522
  8
0
  6
CONTINUOUS
 62
     3
 10
209.549821556409
 20
51.64000018706694
 30
0.0
  0
VERTEX
  5
523
  8
0
  6
CONTINUOUS
 62
     3
 10
209.559453490505
 20
51.71810404375192
 30
0.0
  0
VERTEX
  5
524
  8
0
  6
CONTINUOUS
 62
     3
 10
209.5652394183475
 20
51.79648314925776
 30
0.0
  0
SEQEND
  5
660
  8
0
  6
CONTINUOUS
 62
     3
  0
POLYLINE
  5
3C4
  8
0
  6
CONTINUOUS
 62
     3
 66
     1
 10
0.0
 20
0.0
 30
0.0
 70
     1
  0
VERTEX
  5
525
  8
0
  6
CONTINUOUS
 62
     3
 10
1.0
 20
0.0
 30
0.0
  0
VERTEX
  5
526
  8
0
  6
CONTINUOUS
 62
     3
 10
0.9807852804032304
 20
0.1950903220161282
 30
0.0
  0
VERTEX
  5
527
  8
0
  6
CONTINUOUS
 62
     3
 10
0.9238795325112867
 20
0.3826834323650898
 30
0.0
  0
VERTEX
  5
528
  8
0
  6
CONTINUOUS
 62
     3
 10
0.8314696123025452
 20
0.5555702330196022
 30
0.0
  0
VERTEX
  5
529
  8
0
  6
CONTINUOUS
 62
     3
 10
0.7071067811865476
 20
0.7071067811865475
 30
0.0
  0
VERTEX
  5
52A
  8
0
  6
CONTINUOUS
 62
     3
 10
0.5555702330196023
 20
0.8314696123025452
 30
0.0
  0
VERTEX
  5
52B
  8
0
  6
CONTINUOUS
 62
     3
 10
0.3826834323650898
 20
0.9238795325112867
 30
0.0
  0
VERTEX
  5
52C
  8
0
  6
CONTINUOUS
 62
     3
 10
0.1950903220161283
 20
0.9807852804032304
 30
0.0
  0
VERTEX
  5
52D
  8
0
  6
CONTINUOUS
 62
     3
 10
0.0000000000000001
 20
1.0
 30
0.0
  0
VERTEX
  5
52E
  8
0
  6
CONTINUOUS
 62
     3
 10
-0.1950903220161282
 20
0.9807852804032304
 30
0.0
  0
VERTEX
  5
52F
  8
0
  6
CONTINUOUS
 62
     3
 10
-0.3826834323650897
 20
0.9238795325112867
 30
0.0
  0
VERTEX
  5
530
  8
0
  6
CONTINUOUS
 62
     3
 10
-0.555570233019602
 20
0.8314696123025453
 30
0.0
  0
VERTEX
  5
531
  8
0
  6
CONTINUOUS
 62
     3
 10
-0.7071067811865475
 20
0.7071067811865476
 30
0.0
  0
VERTEX
  5
532
  8
0
  6
CONTINUOUS
 62
     3
 10
-0.8314696123025453
 20
0.5555702330196022
 30
0.0
  0
VERTEX
  5
533
  8
0
  6
CONTINUOUS
 62
     3
 10
-0.9238795325112868
 20
0.3826834323650894
 30
0.0
  0
VERTEX
  5
534
  8
0
  6
CONTINUOUS
 62
     3
 10
-0.9807852804032305
 20
0.1950903220161277
 30
0.0
  0
VERTEX
  5
535
  8
0
  6
CONTINUOUS
 62
     3
 10
-1.0
 20
-0.0000000000000008
 30
0.0
  0
VERTEX
  5
536
  8
0
  6
CONTINUOUS
 62
     3
 10
-0.9807852804032302
 20
-0.1950903220161292
 30
0.0
  0
VERTEX
  5
537
  8
0
  6
CONTINUOUS
 62
     3
 10
-0.9238795325112863
 20
-0.3826834323650909
 30
0.0
  0
VERTEX
  5
538
  8
0
  6
CONTINUOUS
 62
     3
 10
-0.8314696123025445
 20
-0.5555702330196034
 30
0.0
  0
VERTEX
  5
539
  8
0
  6
CONTINUOUS
 62
     3
 10
-0.7071067811865464
 20
-0.7071067811865487
 30
0.0
  0
VERTEX
  5
53A
  8
0
  6
CONTINUOUS
 62
     3
 10
-0.5555702330196007
 20
-0.8314696123025462
 30
0.0
  0
VERTEX
  5
53B
  8
0
  6
CONTINUOUS
 62
     3
 10
-0.3826834323650879
 20
-0.9238795325112875
 30
0.0
  0
VERTEX
  5
53C
  8
0
  6
CONTINUOUS
 62
     3
 10
-0.1950903220161261
 20
-0.9807852804032309
 30
0.0
  0
VERTEX
  5
53D
  8
0
  6
CONTINUOUS
 62
     3
 10
0.0000000000000025
 20
-1.0
 30
0.0
  0
VERTEX
  5
53E
  8
0
  6
CONTINUOUS
 62
     3
 10
0.1950903220161309
 20
-0.9807852804032299
 30
0.0
  0
VERTEX
  5
53F
  8
0
  6
CONTINUOUS
 62
     3
 10
0.3826834323650924
 20
-0.9238795325112856
 30
0.0
  0
VERTEX
  5
540
  8
0
  6
CONTINUOUS
 62
     3
 10
0.5555702330196048
 20
-0.8314696123025435
 30
0.0
  0
VERTEX
  5
541
  8
0
  6
CONTINUOUS
 62
     3
 10
0.7071067811865499
 20
-0.7071067811865451
 30
0.0
  0
VERTEX
  5
542
  8
0
  6
CONTINUOUS
 62
     3
 10
0.8314696123025472
 20
-0.5555702330195993
 30
0.0
  0
VERTEX
  5
543
  8
0
  6
CONTINUOUS
 62
     3
 10
0.9238795325112882
 20
-0.3826834323650863
 30
0.0
  0
VERTEX
  5
544
  8
0
  6
CONTINUOUS
 62
     3
 10
0.9807852804032312
 20
-0.1950903220161244
 30
0.0
  0
SEQEND
  5
661
  8
0
  6
CONTINUOUS
 62
     3
  0
POLYLINE
  5
3C5
  8
0
  6
CONTINUOUS
 62
     3
 66
     1
 10
0.0
 20
0.0
 30
0.0
 70
   129
  0
VERTEX
  5
545
  8
0
  6
CONTINUOUS
 62
     3
 10
209.5671691894531
 20
8.125
 30
0.0
  0
VERTEX
  5
546
  8
0
  6
CONTINUOUS
 62
     3
 10
209.5652394183475
 20
8.203516850742249
 30
0.0
  0
VERTEX
  5
547
  8
0
  6
CONTINUOUS
 62
     3
 10
209.559453490505
 20
8.281895956248091
 30
0.0
  0
VERTEX
  5
548
  8
0
  6
CONTINUOUS
 62
     3
 10
209.549821556409
 20
8.35999981293307
 30
0.0
  0
VERTEX
  5
549
  8
0
  6
CONTINUOUS
 62
     3
 10
209.5363605137449
 20
8.437691400092692
 30
0.0
  0
VERTEX
  5
54A
  8
0
  6
CONTINUOUS
 62
     3
 10
209.5190939777557
 20
8.514834420283298
 30
0.0
  0
VERTEX
  5
54B
  8
0
  6
CONTINUOUS
 62
     3
 10
209.4980522398127
 20
8.591293538434103
 30
0.0
  0
VERTEX
  5
54C
  8
0
  6
CONTINUOUS
 62
     3
 10
209.4732722142742
 20
8.666934619270885
 30
0.0
  0
VERTEX
  5
54D
  8
0
  6
CONTINUOUS
 62
     3
 10
209.4447973737254
 20
8.741624962634843
 30
0.0
  0
VERTEX
  5
54E
  8
0
  6
CONTINUOUS
 62
     3
 10
209.4126776727124
 20
8.81523353628377
 30
0.0
  0
VERTEX
  5
54F
  8
0
  6
CONTINUOUS
 62
     3
 10
209.3769694601052
 20
8.887631205767125
 30
0.0
  0
VERTEX
  5
550
  8
0
  6
CONTINUOUS
 62
     3
 10
209.3377353802423
 20
8.958690960971738
 30
0.0
  0
VERTEX
  5
551
  8
0
  6
CONTINUOUS
 62
     3
 10
209.2950442630317
 20
9.028288138940717
 30
0.0
  0
VERTEX
  5
552
  8
0
  6
CONTINUOUS
 62
     3
 10
209.2489710031995
 20
9.096300642574619
 30
0.0
  0
VERTEX
  5
553
  8
0
  6
CONTINUOUS
 62
     3
 10
209.1995964288992
 20
9.16260915483127
 30
0.0
  0
VERTEX
  5
554
  8
0
  6
CONTINUOUS
 62
     3
 10
209.1470071599119
 20
9.227097348048387
 30
0.0
  0
VERTEX
  5
555
  8
0
  6
CONTINUOUS
 62
     3
 10
209.0912954556852
 20
9.289652088021832
 30
0.0
  0
VERTEX
  5
556
  8
0
  6
CONTINUOUS
 62
     3
 10
209.0325590534792
 20
9.350163632481447
 30
0.0
  0
VERTEX
  5
557
  8
0
  6
CONTINUOUS
 62
     3
 10
208.9709009969023
 20
9.40852582361629
 30
0.0
  0
VERTEX
  5
558
  8
0
  6
CONTINUOUS
 62
     3
 10
208.9064294551373
 20
9.464636274311506
 30
0.0
  0
VERTEX
  5
559
  8
0
  6
CONTINUOUS
 62
     3
 10
208.8392575331759
 20
9.518396547770113
 30
0.0
  0
VERTEX
  5
55A
  8
0
  6
CONTINUOUS
 62
     3
 10
208.7695030733944
 20
9.569712330204604
 30
0.0
  0
VERTEX
  5
55B
  8
0
  6
CONTINUOUS
 62
     3
 10
208.6972884488181
 20
9.618493596295368
 30
0.0
  0
VERTEX
  5
55C
  8
0
  6
CONTINUOUS
 62
     3
 10
208.6227403484371
 20
9.664654767125695
 30
0.0
  0
VERTEX
  5
55D
  8
0
  6
CONTINUOUS
 62
     3
 10
208.5459895549511
 20
9.708114860316277
 30
0.0
  0
VERTEX
  5
55E
  8
0
  6
CONTINUOUS
 62
     3
 10
208.467170715332
 20
9.748797632095823
 30
0.0
  0
VERTEX
  5
55F
  8
0
  6
CONTINUOUS
 62
     3
 10
208.3864221046073
 20
9.786631711058527
 30
0.0
  0
VERTEX
  5
560
  8
0
  6
CONTINUOUS
 62
     3
 10
208.3038853832788
 20
9.821550723373786
 30
0.0
  0
VERTEX
  5
561
  8
0
  6
CONTINUOUS
 62
     3
 10
208.2197053488019
 20
9.853493409228438
 30
0.0
  0
VERTEX
  5
562
  8
0
  6
CONTINUOUS
 62
     3
 10
208.1340296815615
 20
9.882403730297296
 30
0.0
  0
VERTEX
  5
563
  8
0
  6
CONTINUOUS
 62
     3
 10
208.0470086857908
 20
9.908230968053413
 30
0.0
  0
VERTEX
  5
564
  8
0
  6
CONTINUOUS
 62
     3
 10
207.9587950258864
 20
9.930929812745608
 30
0.0
  0
VERTEX
  5
565
  8
0
  6
CONTINUOUS
 62
     3
 10
207.8695434585828
 20
9.950460442887175
 30
0.0
  0
VERTEX
  5
566
  8
0
  6
CONTINUOUS
 62
     3
 10
207.7794105614572
 20
9.966788595116292
 30
0.0
  0
VERTEX
  5
567
  8
0
  6
CONTINUOUS
 62
     3
 10
207.6885544582382
 20
9.979885624305602
 30
0.0
  0
VERTEX
  5
568
  8
0
  6
CONTINUOUS
 62
     3
 10
207.5971345414042
 20
9.989728553815512
 30
0.0
  0
VERTEX
  5
569
  8
0
  6
CONTINUOUS
 62
     3
 10
207.505311192554
 20
9.99630011580301
 30
0.0
  0
VERTEX
  5
56A
  8
0
  6
CONTINUOUS
 62
     3
 10
207.4132455010431
 20
9.999588781515335
 30
0.0
  0
VERTEX
  5
56B
  8
0
  6
CONTINUOUS
 62
     3
 10
207.3210989813788
 20
9.999588781515335
 30
0.0
  0
VERTEX
  5
56C
  8
0
  6
CONTINUOUS
 62
     3
 10
207.2290332898679
 20
9.99630011580301
 30
0.0
  0
VERTEX
  5
56D
  8
0
  6
CONTINUOUS
 62
     3
 10
207.1372099410177
 20
9.989728553815512
 30
0.0
  0
VERTEX
  5
56E
  8
0
  6
CONTINUOUS
 62
     3
 10
207.0457900241836
 20
9.979885624305602
 30
0.0
  0
VERTEX
  5
56F
  8
0
  6
CONTINUOUS
 62
     3
 10
206.9549339209647
 20
9.966788595116292
 30
0.0
  0
VERTEX
  5
570
  8
0
  6
CONTINUOUS
 62
     3
 10
206.864801023839
 20
9.950460442887175
 30
0.0
  0
VERTEX
  5
571
  8
0
  6
CONTINUOUS
 62
     3
 10
206.7755494565355
 20
9.930929812745608
 30
0.0
  0
VERTEX
  5
572
  8
0
  6
CONTINUOUS
 62
     3
 10
206.6873357966311
 20
9.908230968053413
 30
0.0
  0
VERTEX
  5
573
  8
0
  6
CONTINUOUS
 62
     3
 10
206.6003148008604
 20
9.882403730297296
 30
0.0
  0
VERTEX
  5
574
  8
0
  6
CONTINUOUS
 62
     3
 10
206.51463913362
 20
9.853493409228438
 30
0.0
  0
VERTEX
  5
575
  8
0
  6
CONTINUOUS
 62
     3
 10
206.4304590991431
 20
9.821550723373786
 30
0.0
  0
VERTEX
  5
576
  8
0
  6
CONTINUOUS
 62
     3
 10
206.3479223778145
 20
9.786631711058527
 30
0.0
  0
VERTEX
  5
577
  8
0
  6
CONTINUOUS
 62
     3
 10
206.2671737670898
 20
9.748797632095823
 30
0.0
  0
VERTEX
  5
578
  8
0
  6
CONTINUOUS
 62
     3
 10
206.1883549274708
 20
9.708114860316277
 30
0.0
  0
VERTEX
  5
579
  8
0
  6
CONTINUOUS
 62
     3
 10
206.1116041339848
 20
9.664654767125693
 30
0.0
  0
VERTEX
  5
57A
  8
0
  6
CONTINUOUS
 62
     3
 10
206.0370560336038
 20
9.618493596295368
 30
0.0
  0
VERTEX
  5
57B
  8
0
  6
CONTINUOUS
 62
     3
 10
205.9648414090275
 20
9.569712330204604
 30
0.0
  0
VERTEX
  5
57C
  8
0
  6
CONTINUOUS
 62
     3
 10
205.895086949246
 20
9.518396547770113
 30
0.0
  0
VERTEX
  5
57D
  8
0
  6
CONTINUOUS
 62
     3
 10
205.8279150272846
 20
9.464636274311506
 30
0.0
  0
VERTEX
  5
57E
  8
0
  6
CONTINUOUS
 62
     3
 10
205.7634434855195
 20
9.408525823616289
 30
0.0
  0
VERTEX
  5
57F
  8
0
  6
CONTINUOUS
 62
     3
 10
205.7017854289427
 20
9.350163632481447
 30
0.0
  0
VERTEX
  5
580
  8
0
  6
CONTINUOUS
 62
     3
 10
205.6430490267367
 20
9.28965208802183
 30
0.0
  0
VERTEX
  5
581
  8
0
  6
CONTINUOUS
 62
     3
 10
205.58733732251
 20
9.227097348048385
 30
0.0
  0
VERTEX
  5
582
  8
0
  6
CONTINUOUS
 62
     3
 10
205.5347480535226
 20
9.162609154831268
 30
0.0
  0
VERTEX
  5
583
  8
0
  6
CONTINUOUS
 62
     3
 10
205.4853734792224
 20
9.096300642574617
 30
0.0
  0
VERTEX
  5
584
  8
0
  6
CONTINUOUS
 62
     3
 10
205.4393002193902
 20
9.028288138940713
 30
0.0
  0
VERTEX
  5
585
  8
0
  6
CONTINUOUS
 62
     3
 10
205.3966091021796
 20
8.958690960971737
 30
0.0
  0
VERTEX
  5
586
  8
0
  6
CONTINUOUS
 62
     3
 10
205.3573750223167
 20
8.887631205767123
 30
0.0
  0
VERTEX
  5
587
  8
0
  6
CONTINUOUS
 62
     3
 10
205.3216668097094
 20
8.815233536283769
 30
0.0
  0
VERTEX
  5
588
  8
0
  6
CONTINUOUS
 62
     3
 10
205.2895471086964
 20
8.741624962634841
 30
0.0
  0
VERTEX
  5
589
  8
0
  6
CONTINUOUS
 62
     3
 10
205.2610722681476
 20
8.666934619270881
 30
0.0
  0
VERTEX
  5
58A
  8
0
  6
CONTINUOUS
 62
     3
 10
205.2362922426092
 20
8.5912935384341
 30
0.0
  0
VERTEX
  5
58B
  8
0
  6
CONTINUOUS
 62
     3
 10
205.2152505046662
 20
8.514834420283295
 30
0.0
  0
VERTEX
  5
58C
  8
0
  6
CONTINUOUS
 62
     3
 10
205.1979839686769
 20
8.437691400092689
 30
0.0
  0
VERTEX
  5
58D
  8
0
  6
CONTINUOUS
 62
     3
 10
205.1845229260129
 20
8.359999812933067
 30
0.0
  0
VERTEX
  5
58E
  8
0
  6
CONTINUOUS
 62
     3
 10
205.1748909919169
 20
8.281895956248087
 30
0.0
  0
VERTEX
  5
58F
  8
0
  6
CONTINUOUS
 62
     3
 10
205.1691050640744
 20
8.203516850742245
 30
0.0
  0
VERTEX
  5
590
  8
0
  6
CONTINUOUS
 62
     3
 10
205.1671752929688
 20
8.124999999999996
 30
0.0
  0
VERTEX
  5
591
  8
0
  6
CONTINUOUS
 62
     3
 10
205.1691050640744
 20
8.046483149257746
 30
0.0
  0
VERTEX
  5
592
  8
0
  6
CONTINUOUS
 62
     3
 10
205.1748909919169
 20
7.968104043751905
 30
0.0
  0
VERTEX
  5
593
  8
0
  6
CONTINUOUS
 62
     3
 10
205.1845229260129
 20
7.890000187066925
 30
0.0
  0
VERTEX
  5
594
  8
0
  6
CONTINUOUS
 62
     3
 10
205.1979839686769
 20
7.812308599907304
 30
0.0
  0
VERTEX
  5
595
  8
0
  6
CONTINUOUS
 62
     3
 10
205.2152505046662
 20
7.735165579716697
 30
0.0
  0
VERTEX
  5
596
  8
0
  6
CONTINUOUS
 62
     3
 10
205.2362922426092
 20
7.658706461565893
 30
0.0
  0
VERTEX
  5
597
  8
0
  6
CONTINUOUS
 62
     3
 10
205.2610722681476
 20
7.583065380729112
 30
0.0
  0
VERTEX
  5
598
  8
0
  6
CONTINUOUS
 62
     3
 10
205.2895471086964
 20
7.508375037365152
 30
0.0
  0
VERTEX
  5
599
  8
0
  6
CONTINUOUS
 62
     3
 10
205.3216668097094
 20
7.434766463716224
 30
0.0
  0
VERTEX
  5
59A
  8
0
  6
CONTINUOUS
 62
     3
 10
205.3573750223167
 20
7.36236879423287
 30
0.0
  0
VERTEX
  5
59B
  8
0
  6
CONTINUOUS
 62
     3
 10
205.3966091021796
 20
7.291309039028256
 30
0.0
  0
VERTEX
  5
59C
  8
0
  6
CONTINUOUS
 62
     3
 10
205.4393002193902
 20
7.221711861059279
 30
0.0
  0
VERTEX
  5
59D
  8
0
  6
CONTINUOUS
 62
     3
 10
205.4853734792224
 20
7.153699357425376
 30
0.0
  0
VERTEX
  5
59E
  8
0
  6
CONTINUOUS
 62
     3
 10
205.5347480535226
 20
7.087390845168725
 30
0.0
  0
VERTEX
  5
59F
  8
0
  6
CONTINUOUS
 62
     3
 10
205.58733732251
 20
7.022902651951608
 30
0.0
  0
VERTEX
  5
5A0
  8
0
  6
CONTINUOUS
 62
     3
 10
205.6430490267367
 20
6.960347911978164
 30
0.0
  0
VERTEX
  5
5A1
  8
0
  6
CONTINUOUS
 62
     3
 10
205.7017854289427
 20
6.899836367518548
 30
0.0
  0
VERTEX
  5
5A2
  8
0
  6
CONTINUOUS
 62
     3
 10
205.7634434855195
 20
6.841474176383704
 30
0.0
  0
VERTEX
  5
5A3
  8
0
  6
CONTINUOUS
 62
     3
 10
205.8279150272846
 20
6.785363725688489
 30
0.0
  0
VERTEX
  5
5A4
  8
0
  6
CONTINUOUS
 62
     3
 10
205.895086949246
 20
6.731603452229882
 30
0.0
  0
VERTEX
  5
5A5
  8
0
  6
CONTINUOUS
 62
     3
 10
205.9648414090275
 20
6.680287669795392
 30
0.0
  0
VERTEX
  5
5A6
  8
0
  6
CONTINUOUS
 62
     3
 10
206.0370560336038
 20
6.631506403704629
 30
0.0
  0
VERTEX
  5
5A7
  8
0
  6
CONTINUOUS
 62
     3
 10
206.1116041339848
 20
6.585345232874301
 30
0.0
  0
VERTEX
  5
5A8
  8
0
  6
CONTINUOUS
 62
     3
 10
206.1883549274708
 20
6.541885139683719
 30
0.0
  0
VERTEX
  5
5A9
  8
0
  6
CONTINUOUS
 62
     3
 10
206.2671737670898
 20
6.501202367904175
 30
0.0
  0
VERTEX
  5
5AA
  8
0
  6
CONTINUOUS
 62
     3
 10
206.3479223778145
 20
6.46336828894147
 30
0.0
  0
VERTEX
  5
5AB
  8
0
  6
CONTINUOUS
 62
     3
 10
206.4304590991431
 20
6.42844927662621
 30
0.0
  0
VERTEX
  5
5AC
  8
0
  6
CONTINUOUS
 62
     3
 10
206.51463913362
 20
6.396506590771559
 30
0.0
  0
VERTEX
  5
5AD
  8
0
  6
CONTINUOUS
 62
     3
 10
206.6003148008604
 20
6.367596269702702
 30
0.0
  0
VERTEX
  5
5AE
  8
0
  6
CONTINUOUS
 62
     3
 10
206.6873357966311
 20
6.341769031946585
 30
0.0
  0
VERTEX
  5
5AF
  8
0
  6
CONTINUOUS
 62
     3
 10
206.7755494565355
 20
6.31907018725439
 30
0.0
  0
VERTEX
  5
5B0
  8
0
  6
CONTINUOUS
 62
     3
 10
206.864801023839
 20
6.299539557112823
 30
0.0
  0
VERTEX
  5
5B1
  8
0
  6
CONTINUOUS
 62
     3
 10
206.9549339209647
 20
6.283211404883708
 30
0.0
  0
VERTEX
  5
5B2
  8
0
  6
CONTINUOUS
 62
     3
 10
207.0457900241837
 20
6.270114375694396
 30
0.0
  0
VERTEX
  5
5B3
  8
0
  6
CONTINUOUS
 62
     3
 10
207.1372099410177
 20
6.260271446184487
 30
0.0
  0
VERTEX
  5
5B4
  8
0
  6
CONTINUOUS
 62
     3
 10
207.2290332898679
 20
6.25369988419699
 30
0.0
  0
VERTEX
  5
5B5
  8
0
  6
CONTINUOUS
 62
     3
 10
207.3210989813788
 20
6.250411218484665
 30
0.0
  0
VERTEX
  5
5B6
  8
0
  6
CONTINUOUS
 62
     3
 10
207.4132455010431
 20
6.250411218484665
 30
0.0
  0
VERTEX
  5
5B7
  8
0
  6
CONTINUOUS
 62
     3
 10
207.505311192554
 20
6.253699884196991
 30
0.0
  0
VERTEX
  5
5B8
  8
0
  6
CONTINUOUS
 62
     3
 10
207.5971345414042
 20
6.260271446184488
 30
0.0
  0
VERTEX
  5
5B9
  8
0
  6
CONTINUOUS
 62
     3
 10
207.6885544582382
 20
6.270114375694398
 30
0.0
  0
VERTEX
  5
5BA
  8
0
  6
CONTINUOUS
 62
     3
 10
207.7794105614572
 20
6.28321140488371
 30
0.0
  0
VERTEX
  5
5BB
  8
0
  6
CONTINUOUS
 62
     3
 10
207.8695434585828
 20
6.299539557112826
 30
0.0
  0
VERTEX
  5
5BC
  8
0
  6
CONTINUOUS
 62
     3
 10
207.9587950258864
 20
6.319070187254393
 30
0.0
  0
VERTEX
  5
5BD
  8
0
  6
CONTINUOUS
 62
     3
 10
208.0470086857908
 20
6.34176903194659
 30
0.0
  0
VERTEX
  5
5BE
  8
0
  6
CONTINUOUS
 62
     3
 10
208.1340296815615
 20
6.367596269702706
 30
0.0
  0
VERTEX
  5
5BF
  8
0
  6
CONTINUOUS
 62
     3
 10
208.2197053488019
 20
6.396506590771565
 30
0.0
  0
VERTEX
  5
5C0
  8
0
  6
CONTINUOUS
 62
     3
 10
208.3038853832788
 20
6.428449276626217
 30
0.0
  0
VERTEX
  5
5C1
  8
0
  6
CONTINUOUS
 62
     3
 10
208.3864221046073
 20
6.463368288941476
 30
0.0
  0
VERTEX
  5
5C2
  8
0
  6
CONTINUOUS
 62
     3
 10
208.467170715332
 20
6.501202367904182
 30
0.0
  0
VERTEX
  5
5C3
  8
0
  6
CONTINUOUS
 62
     3
 10
208.5459895549511
 20
6.541885139683727
 30
0.0
  0
VERTEX
  5
5C4
  8
0
  6
CONTINUOUS
 62
     3
 10
208.6227403484371
 20
6.58534523287431
 30
0.0
  0
VERTEX
  5
5C5
  8
0
  6
CONTINUOUS
 62
     3
 10
208.6972884488181
 20
6.631506403704638
 30
0.0
  0
VERTEX
  5
5C6
  8
0
  6
CONTINUOUS
 62
     3
 10
208.7695030733944
 20
6.680287669795401
 30
0.0
  0
VERTEX
  5
5C7
  8
0
  6
CONTINUOUS
 62
     3
 10
208.8392575331759
 20
6.731603452229892
 30
0.0
  0
VERTEX
  5
5C8
  8
0
  6
CONTINUOUS
 62
     3
 10
208.9064294551373
 20
6.7853637256885
 30
0.0
  0
VERTEX
  5
5C9
  8
0
  6
CONTINUOUS
 62
     3
 10
208.9709009969023
 20
6.841474176383715
 30
0.0
  0
VERTEX
  5
5CA
  8
0
  6
CONTINUOUS
 62
     3
 10
209.0325590534792
 20
6.899836367518559
 30
0.0
  0
VERTEX
  5
5CB
  8
0
  6
CONTINUOUS
 62
     3
 10
209.0912954556852
 20
6.960347911978175
 30
0.0
  0
VERTEX
  5
5CC
  8
0
  6
CONTINUOUS
 62
     3
 10
209.1470071599119
 20
7.022902651951621
 30
0.0
  0
VERTEX
  5
5CD
  8
0
  6
CONTINUOUS
 62
     3
 10
209.1995964288993
 20
7.087390845168738
 30
0.0
  0
VERTEX
  5
5CE
  8
0
  6
CONTINUOUS
 62
     3
 10
209.2489710031995
 20
7.153699357425389
 30
0.0
  0
VERTEX
  5
5CF
  8
0
  6
CONTINUOUS
 62
     3
 10
209.2950442630317
 20
7.221711861059292
 30
0.0
  0
VERTEX
  5
5D0
  8
0
  6
CONTINUOUS
 62
     3
 10
209.3377353802423
 20
7.29130903902827
 30
0.0
  0
VERTEX
  5
5D1
  8
0
  6
CONTINUOUS
 62
     3
 10
209.3769694601052
 20
7.362368794232884
 30
0.0
  0
VERTEX
  5
5D2
  8
0
  6
CONTINUOUS
 62
     3
 10
209.4126776727124
 20
7.434766463716239
 30
0.0
  0
VERTEX
  5
5D3
  8
0
  6
CONTINUOUS
 62
     3
 10
209.4447973737254
 20
7.508375037365166
 30
0.0
  0
VERTEX
  5
5D4
  8
0
  6
CONTINUOUS
 62
     3
 10
209.4732722142742
 20
7.583065380729126
 30
0.0
  0
VERTEX
  5
5D5
  8
0
  6
CONTINUOUS
 62
     3
 10
209.4980522398127
 20
7.658706461565908
 30
0.0
  0
VERTEX
  5
5D6
  8
0
  6
CONTINUOUS
 62
     3
 10
209.5190939777557
 20
7.735165579716711
 30
0.0
  0
VERTEX
  5
5D7
  8
0
  6
CONTINUOUS
 62
     3
 10
209.5363605137449
 20
7.812308599907319
 30
0.0
  0
VERTEX
  5
5D8
  8
0
  6
CONTINUOUS
 62
     3
 10
209.549821556409
 20
7.89000018706694
 30
0.0
  0
VERTEX
  5
5D9
  8
0
  6
CONTINUOUS
 62
     3
 10
209.559453490505
 20
7.96810404375192
 30
0.0
  0
VERTEX
  5
5DA
  8
0
  6
CONTINUOUS
 62
     3
 10
209.5652394183475
 20
8.046483149257762
 30
0.0
  0
SEQEND
  5
662
  8
0
  6
CONTINUOUS
 62
     3
  0
LINE
  5
3C6
  8
0
  6
CONTINUOUS
 62
     4
 10
94.0
 20
-180.0
 30
0.0
 11
274.0
 21
-180.0
 31
0.0
  0
LINE
  5
3C7
  8
0
  6
CONTINUOUS
 62
     4
 10
143.0
 20
-166.0
 30
0.0
 11
274.0
 21
-166.0
 31
0.0
  0
LINE
  5
3C8
  8
0
  6
CONTINUOUS
 62
     4
 10
143.0
 20
-152.0
 30
0.0
 11
252.0
 21
-152.0
 31
0.0
  0
LINE
  5
3C9
  8
0
  6
CONTINUOUS
 62
     4
 10
94.0
 20
-134.0
 30
0.0
 11
274.0
 21
-134.0
 31
0.0
  0
LINE
  5
3CA
  8
0
  6
CONTINUOUS
 62
     4
 10
225.0
 20
-152.0
 30
0.0
 11
225.0
 21
-180.0
 31
0.0
  0
LINE
  5
3CB
  8
0
  6
CONTINUOUS
 62
     4
 10
252.0
 20
-134.0
 30
0.0
 11
252.0
 21
-180.0
 31
0.0
  0
LINE
  5
3CC
  8
0
  6
CONTINUOUS
 62
     4
 10
168.0
 20
-180.0
 30
0.0
 11
168.0
 21
-194.0
 31
0.0
  0
LINE
  5
3CD
  8
0
  6
CONTINUOUS
 62
     4
 10
94.0
 20
-134.0
 30
0.0
 11
94.0
 21
-194.0
 31
0.0
  0
LINE
  5
3CE
  8
0
  6
CONTINUOUS
 62
     4
 10
143.0
 20
-134.0
 30
0.0
 11
143.0
 21
-180.0
 31
0.0
  0
LINE
  5
3CF
  8
0
  6
CONTINUOUS
 62
     6
 10
-229.3076934814453
 20
-91.0
 30
0.0
 11
-212.0769195556641
 21
-91.0
 31
0.0
  0
LINE
  5
3D0
  8
0
  6
CONTINUOUS
 62
     6
 10
-229.3076934814453
 20
-99.0
 30
0.0
 11
-82.84615325927734
 21
-99.0
 31
0.0
  0
LINE
  5
3D1
  8
0
  6
CONTINUOUS
 62
     6
 10
-229.3076934814453
 20
-107.0
 30
0.0
 11
-82.84615325927734
 21
-107.0
 31
0.0
  0
LINE
  5
3D2
  8
0
  6
CONTINUOUS
 62
     6
 10
-229.3076934814453
 20
-115.0
 30
0.0
 11
-82.84615325927734
 21
-115.0
 31
0.0
  0
LINE
  5
3D3
  8
0
  6
CONTINUOUS
 62
     6
 10
-229.6415405273438
 20
-123.0
 30
0.0
 11
-82.84615325927734
 21
-123.0
 31
0.0
  0
LINE
  5
3D4
  8
0
  6
CONTINUOUS
 62
     6
 10
-229.3076934814453
 20
-131.0
 30
0.0
 11
-82.84615325927734
 21
-131.0
 31
0.0
  0
LINE
  5
3D5
  8
0
  6
CONTINUOUS
 62
     6
 10
-229.3076934814453
 20
-139.0
 30
0.0
 11
-82.84615325927734
 21
-139.0
 31
0.0
  0
LINE
  5
3D6
  8
0
  6
CONTINUOUS
 62
     6
 10
-229.3076934814453
 20
-147.0
 30
0.0
 11
-82.84615325927734
 21
-147.0
 31
0.0
  0
LINE
  5
3D7
  8
0
  6
CONTINUOUS
 62
     6
 10
-229.3076934814453
 20
-163.0
 30
0.0
 11
-82.84615325927734
 21
-163.0
 31
0.0
  0
LINE
  5
3D8
  8
0
  6
CONTINUOUS
 62
     6
 10
-229.3076934814453
 20
-171.0
 30
0.0
 11
-82.84615325927734
 21
-171.0
 31
0.0
  0
LINE
  5
3D9
  8
0
  6
CONTINUOUS
 62
     6
 10
-229.3076934814453
 20
-179.0
 30
0.0
 11
-82.84615325927734
 21
-179.0
 31
0.0
  0
LINE
  5
3DA
  8
0
  6
CONTINUOUS
 62
     6
 10
-229.3076934814453
 20
-155.0
 30
0.0
 11
-82.84615325927734
 21
-155.0
 31
0.0
  0
LINE
  5
3DB
  8
0
  6
CONTINUOUS
 62
     6
 10
-229.3076934814453
 20
-187.0
 30
0.0
 11
-82.84615325927734
 21
-187.0
 31
0.0
  0
POLYLINE
  5
3DC
  8
0
  6
CONTINUOUS
 62
     6
 66
     1
 10
0.0
 20
0.0
 30
0.0
  0
VERTEX
  5
5DB
  8
0
  6
CONTINUOUS
 62
     6
 10
64.75421142578125
 20
83.55186462402344
 30
0.0
 40
0.25
 41
0.25
  0
VERTEX
  5
5DC
  8
0
  6
CONTINUOUS
 62
     6
 10
66.89495715339999
 20
81.16967964763543
 30
0.0
 40
0.25
 41
0.25
  0
VERTEX
  5
5DD
  8
0
  6
CONTINUOUS
 62
     6
 10
68.8464611871502
 20
78.53469764682481
 30
0.0
 40
0.25
 41
0.25
  0
VERTEX
  5
5DE
  8
0
  6
CONTINUOUS
 62
     6
 10
70.4354199234004
 20
75.70597537132608
 30
0.0
 40
0.25
 41
0.25
  0
VERTEX
  5
5DF
  8
0
  6
CONTINUOUS
 62
     6
 10
71.48852975851919
 20
72.74256957087368
 30
0.0
 40
0.25
 41
0.25
  0
VERTEX
  5
5E0
  8
0
  6
CONTINUOUS
 62
     6
 10
71.83271982308848
 20
69.70351743573045
 30
0.0
 40
0.25
 41
0.25
  0
VERTEX
  5
5E1
  8
0
  6
CONTINUOUS
 62
     6
 10
71.44739231510036
 20
66.63504199963272
 30
0.0
 40
0.25
 41
0.25
  0
VERTEX
  5
5E2
  8
0
  6
CONTINUOUS
 62
     6
 10
70.72735800950137
 20
63.54845448783846
 30
0.0
 40
0.25
 41
0.25
  0
VERTEX
  5
5E3
  8
0
  6
CONTINUOUS
 62
     6
 10
70.13751320239523
 20
60.44917599134378
 30
0.0
 40
0.25
 41
0.25
  0
VERTEX
  5
5E4
  8
0
  6
CONTINUOUS
 62
     6
 10
70.14141503329505
 20
57.34295009580874
 30
0.0
 40
0.25
 41
0.25
  0
VERTEX
  5
5E5
  8
0
  6
CONTINUOUS
 62
     6
 10
71.00805875847253
 20
54.28237463051461
 30
0.0
 40
0.25
 41
0.25
  0
VERTEX
  5
5E6
  8
0
  6
CONTINUOUS
 62
     6
 10
72.60967663086585
 20
51.41559558714898
 30
0.0
 40
0.25
 41
0.25
  0
VERTEX
  5
5E7
  8
0
  6
CONTINUOUS
 62
     6
 10
74.77016271826588
 20
48.90239972210312
 30
0.0
 40
0.25
 41
0.25
  0
VERTEX
  5
5E8
  8
0
  6
CONTINUOUS
 62
     6
 10
77.31341108846348
 20
46.90257379176826
 30
0.0
 40
0.25
 41
0.25
  0
VERTEX
  5
5E9
  8
0
  6
CONTINUOUS
 62
     6
 10
80.0710893896453
 20
45.56191133126721
 30
0.0
 40
0.25
 41
0.25
  0
VERTEX
  5
5EA
  8
0
  6
CONTINUOUS
 62
     6
 10
82.96404700908823
 20
44.86566983638855
 30
0.0
 40
0.25
 41
0.25
  0
VERTEX
  5
5EB
  8
0
  6
CONTINUOUS
 62
     6
 10
85.97011168041674
 20
44.69654008753995
 30
0.0
 40
0.25
 41
0.25
  0
VERTEX
  5
5EC
  8
0
  6
CONTINUOUS
 62
     6
 10
89.06803600723978
 20
44.93554800676539
 30
0.0
 40
0.25
 41
0.25
  0
VERTEX
  5
5ED
  8
0
  6
CONTINUOUS
 62
     6
 10
92.23657259316634
 20
45.46371951610878
 30
0.0
 40
0.25
 41
0.25
  0
VERTEX
  5
5EE
  8
0
  6
CONTINUOUS
 62
     6
 10
95.4544740418054
 20
46.16208053761408
 30
0.0
 40
0.25
 41
0.25
  0
VERTEX
  5
5EF
  8
0
  6
CONTINUOUS
 62
     6
 10
98.70049295676591
 20
46.91165699332523
 30
0.0
 40
0.25
 41
0.25
  0
VERTEX
  5
5F0
  8
0
  6
CONTINUOUS
 62
     6
 10
101.9533819416569
 20
47.59347480528617
 30
0.0
 40
0.25
 41
0.25
  0
VERTEX
  5
5F1
  8
0
  6
CONTINUOUS
 62
     6
 10
105.1918936000872
 20
48.08855989554086
 30
0.0
 40
0.25
 41
0.25
  0
VERTEX
  5
5F2
  8
0
  6
CONTINUOUS
 62
     6
 10
108.3970440806758
 20
48.29412087048835
 30
0.0
 40
0.25
 41
0.25
  0
VERTEX
  5
5F3
  8
0
  6
CONTINUOUS
 62
     6
 10
111.5662643934449
 20
48.22472053963904
 30
0.0
 40
0.25
 41
0.25
  0
VERTEX
  5
5F4
  8
0
  6
CONTINUOUS
 62
     6
 10
114.7042215827608
 20
47.94665404354308
 30
0.0
 40
0.25
 41
0.25
  0
VERTEX
  5
5F5
  8
0
  6
CONTINUOUS
 62
     6
 10
117.8156143077951
 20
47.5264425453888
 30
0.0
 40
0.25
 41
0.25
  0
VERTEX
  5
5F6
  8
0
  6
CONTINUOUS
 62
     6
 10
120.9051412277192
 20
47.03060720836458
 30
0.0
 40
0.25
 41
0.25
  0
VERTEX
  5
5F7
  8
0
  6
CONTINUOUS
 62
     6
 10
123.9775010017047
 20
46.52566919565879
 30
0.0
 40
0.25
 41
0.25
  0
VERTEX
  5
5F8
  8
0
  6
CONTINUOUS
 62
     6
 10
127.037392288923
 20
46.07814967045977
 30
0.0
 40
0.25
 41
0.25
  0
VERTEX
  5
5F9
  8
0
  6
CONTINUOUS
 62
     6
 10
130.0895137485458
 20
45.75456979595591
 30
0.0
 40
0.25
 41
0.25
  0
VERTEX
  5
5FA
  8
0
  6
CONTINUOUS
 62
     6
 10
133.1385531259472
 20
45.61740357792171
 30
0.0
 40
0.25
 41
0.25
  0
VERTEX
  5
5FB
  8
0
  6
CONTINUOUS
 62
     6
 10
136.1890359280879
 20
45.66896224083727
 30
0.0
 40
0.25
 41
0.25
  0
VERTEX
  5
5FC
  8
0
  6
CONTINUOUS
 62
     6
 10
139.245363312598
 20
45.86544461559678
 30
0.0
 40
0.25
 41
0.25
  0
VERTEX
  5
5FD
  8
0
  6
CONTINUOUS
 62
     6
 10
142.3119332695681
 20
46.16187491623432
 30
0.0
 40
0.25
 41
0.25
  0
VERTEX
  5
5FE
  8
0
  6
CONTINUOUS
 62
     6
 10
145.3931437890891
 20
46.51327735678402
 30
0.0
 40
0.25
 41
0.25
  0
VERTEX
  5
5FF
  8
0
  6
CONTINUOUS
 62
     6
 10
148.4933928612515
 20
46.87467615128
 30
0.0
 40
0.25
 41
0.25
  0
VERTEX
  5
600
  8
0
  6
CONTINUOUS
 62
     6
 10
151.6170784761462
 20
47.20109551375634
 30
0.0
 40
0.25
 41
0.25
  0
VERTEX
  5
601
  8
0
  6
CONTINUOUS
 62
     6
 10
154.7685986238638
 20
47.44755965824718
 30
0.0
 40
0.25
 41
0.25
  0
VERTEX
  5
602
  8
0
  6
CONTINUOUS
 62
     6
 10
157.952351294495
 20
47.56909279878663
 30
0.0
 40
0.25
 41
0.25
  0
VERTEX
  5
603
  8
0
  6
CONTINUOUS
 62
     6
 10
161.1727344781306
 20
47.5207191494088
 30
0.0
 40
0.25
 41
0.25
  0
VERTEX
  5
604
  8
0
  6
CONTINUOUS
 62
     6
 10
164.4330466224284
 20
47.26264626171906
 30
0.0
 40
0.25
 41
0.25
  0
VERTEX
  5
605
  8
0
  6
CONTINUOUS
 62
     6
 10
167.7204665644203
 20
46.83107091783111
 30
0.0
 40
0.25
 41
0.25
  0
VERTEX
  5
606
  8
0
  6
CONTINUOUS
 62
     6
 10
171.0099322713865
 20
46.31989441238011
 30
0.0
 40
0.25
 41
0.25
  0
VERTEX
  5
607
  8
0
  6
CONTINUOUS
 62
     6
 10
174.2760763878074
 20
45.82445735793299
 30
0.0
 40
0.25
 41
0.25
  0
VERTEX
  5
608
  8
0
  6
CONTINUOUS
 62
     6
 10
177.4935315581629
 20
45.44010036705672
 30
0.0
 40
0.25
 41
0.25
  0
VERTEX
  5
609
  8
0
  6
CONTINUOUS
 62
     6
 10
180.6369304269335
 20
45.26216405231825
 30
0.0
 40
0.25
 41
0.25
  0
VERTEX
  5
60A
  8
0
  6
CONTINUOUS
 62
     6
 10
183.6809056385992
 20
45.38598902628451
 30
0.0
 40
0.25
 41
0.25
  0
VERTEX
  5
60B
  8
0
  6
CONTINUOUS
 62
     6
 10
186.6000898376403
 20
45.90691590152246
 30
0.0
 40
0.25
 41
0.25
  0
VERTEX
  5
60C
  8
0
  6
CONTINUOUS
 62
     6
 10
189.3691156685369
 20
46.92028529059903
 30
0.0
 40
0.25
 41
0.25
  0
VERTEX
  5
60D
  8
0
  6
CONTINUOUS
 62
     6
 10
191.9589920580697
 20
48.49826365941401
 30
0.0
 40
0.25
 41
0.25
  0
VERTEX
  5
60E
  8
0
  6
CONTINUOUS
 62
     6
 10
194.3193443938192
 20
50.57626695554565
 30
0.0
 40
0.25
 41
0.25
  0
VERTEX
  5
60F
  8
0
  6
CONTINUOUS
 62
     6
 10
196.3919818414081
 20
53.03972536911461
 30
0.0
 40
0.25
 41
0.25
  0
VERTEX
  5
610
  8
0
  6
CONTINUOUS
 62
     6
 10
198.1187019847625
 20
55.77399502378023
 30
0.0
 40
0.25
 41
0.25
  0
VERTEX
  5
611
  8
0
  6
CONTINUOUS
 62
     6
 10
199.4739197056554
 20
58.66882801818396
 30
0.0
 40
0.25
 41
0.25
  0
VERTEX
  5
612
  8
0
  6
CONTINUOUS
 62
     6
 10
200.5877338157712
 20
61.63495865078702
 30
0.0
 40
0.25
 41
0.25
  0
VERTEX
  5
613
  8
0
  6
CONTINUOUS
 62
     6
 10
201.6366404795217
 20
64.58937439291567
 30
0.0
 40
0.25
 41
0.25
  0
VERTEX
  5
614
  8
0
  6
CONTINUOUS
 62
     6
 10
202.7971438055636
 20
67.44906378657652
 30
0.0
 40
0.25
 41
0.25
  0
VERTEX
  5
615
  8
0
  6
CONTINUOUS
 62
     6
 10
204.2457478280021
 20
70.13101539934632
 30
0.0
 40
0.25
 41
0.25
  0
VERTEX
  5
616
  8
0
  6
CONTINUOUS
 62
     6
 10
206.1140093641557
 20
72.56763399750754
 30
0.0
 40
0.25
 41
0.25
  0
VERTEX
  5
617
  8
0
  6
CONTINUOUS
 62
     6
 10
208.3600416673869
 20
74.75081280151916
 30
0.0
 40
0.25
 41
0.25
  0
VERTEX
  5
618
  8
0
  6
CONTINUOUS
 62
     6
 10
210.9001278243013
 20
76.68679213069782
 30
0.0
 40
0.25
 41
0.25
  0
VERTEX
  5
619
  8
0
  6
CONTINUOUS
 62
     6
 10
213.650550921505
 20
78.38181230436017
 30
0.0
 40
0.25
 41
0.25
  0
VERTEX
  5
61A
  8
0
  6
CONTINUOUS
 62
     6
 10
216.5275940456036
 20
79.8421136418228
 30
0.0
 40
0.25
 41
0.25
  0
VERTEX
  5
61B
  8
0
  6
CONTINUOUS
 62
     6
 10
219.4475402832031
 20
81.07393646240234
 30
0.0
 40
0.25
 41
0.25
  0
SEQEND
  5
663
  8
0
  6
CONTINUOUS
 62
     6
  0
POLYLINE
  5
3DD
  8
0
  6
CONTINUOUS
 62
     6
 66
     1
 10
0.0
 20
0.0
 30
0.0
  0
VERTEX
  5
61C
  8
0
  6
CONTINUOUS
 62
     6
 10
64.75421142578125
 20
-23.5518627166748
 30
0.0
 40
0.25
 41
0.25
  0
VERTEX
  5
61D
  8
0
  6
CONTINUOUS
 62
     6
 10
66.8949572499036
 20
-21.16967775378799
 30
0.0
 40
0.25
 41
0.25
  0
VERTEX
  5
61E
  8
0
  6
CONTINUOUS
 62
     6
 10
68.8464614586491
 20
-18.53469581492134
 30
0.0
 40
0.25
 41
0.25
  0
VERTEX
  5
61F
  8
0
  6
CONTINUOUS
 62
     6
 10
70.43542031974135
 20
-15.70597363768286
 30
0.0
 40
0.25
 41
0.25
  0
VERTEX
  5
620
  8
0
  6
CONTINUOUS
 62
     6
 10
71.48853010090397
 20
-12.74256795968058
 30
0.0
 40
0.25
 41
0.25
  0
VERTEX
  5
621
  8
0
  6
CONTINUOUS
 62
     6
 10
71.83271981010743
 20
-9.703515958543218
 30
0.0
 40
0.25
 41
0.25
  0
VERTEX
  5
622
  8
0
  6
CONTINUOUS
 62
     6
 10
71.44739198113645
 20
-6.635040616448522
 30
0.0
 40
0.25
 41
0.25
  0
VERTEX
  5
623
  8
0
  6
CONTINUOUS
 62
     6
 10
70.72735763641727
 20
-3.548453113430234
 30
0.0
 40
0.25
 41
0.25
  0
VERTEX
  5
624
  8
0
  6
CONTINUOUS
 62
     6
 10
70.13751306364492
 20
-0.4491745165822265
 30
0.0
 40
0.25
 41
0.25
  0
VERTEX
  5
625
  8
0
  6
CONTINUOUS
 62
     6
 10
70.14141537704351
 20
2.65705160807189
 30
0.0
 40
0.25
 41
0.25
  0
VERTEX
  5
626
  8
0
  6
CONTINUOUS
 62
     6
 10
71.00805942569443
 20
5.717627329753325
 30
0.0
 40
0.25
 41
0.25
  0
VERTEX
  5
627
  8
0
  6
CONTINUOUS
 62
     6
 10
72.60967736102157
 20
8.58440656941488
 30
0.0
 40
0.25
 41
0.25
  0
VERTEX
  5
628
  8
0
  6
CONTINUOUS
 62
     6
 10
74.77016334360957
 20
11.09760252285305
 30
0.0
 40
0.25
 41
0.25
  0
VERTEX
  5
629
  8
0
  6
CONTINUOUS
 62
     6
 10
77.31341153404304
 20
13.09742838586434
 30
0.0
 40
0.25
 41
0.25
  0
VERTEX
  5
62A
  8
0
  6
CONTINUOUS
 62
     6
 10
80.0710896730318
 20
14.43809058893478
 30
0.0
 40
0.25
 41
0.25
  0
VERTEX
  5
62B
  8
0
  6
CONTINUOUS
 62
     6
 10
82.96404719181669
 20
15.13433167403506
 30
0.0
 40
0.25
 41
0.25
  0
VERTEX
  5
62C
  8
0
  6
CONTINUOUS
 62
     6
 10
85.97011181547457
 20
15.30346090593524
 30
0.0
 40
0.25
 41
0.25
  0
VERTEX
  5
62D
  8
0
  6
CONTINUOUS
 62
     6
 10
89.06803613726386
 20
15.06445240617826
 30
0.0
 40
0.25
 41
0.25
  0
VERTEX
  5
62E
  8
0
  6
CONTINUOUS
 62
     6
 10
92.23657275044295
 20
14.53628029630709
 30
0.0
 40
0.25
 41
0.25
  0
VERTEX
  5
62F
  8
0
  6
CONTINUOUS
 62
     6
 10
95.45447424827027
 20
13.83791869786466
 30
0.0
 40
0.25
 41
0.25
  0
VERTEX
  5
630
  8
0
  6
CONTINUOUS
 62
     6
 10
98.7004932240042
 20
13.08834173239392
 30
0.0
 40
0.25
 41
0.25
  0
VERTEX
  5
631
  8
0
  6
CONTINUOUS
 62
     6
 10
101.9533822709032
 20
12.40652352143783
 30
0.0
 40
0.25
 41
0.25
  0
VERTEX
  5
632
  8
0
  6
CONTINUOUS
 62
     6
 10
105.1918939822256
 20
11.91143818653932
 30
0.0
 40
0.25
 41
0.25
  0
VERTEX
  5
633
  8
0
  6
CONTINUOUS
 62
     6
 10
108.3970444983981
 20
11.70587715065002
 30
0.0
 40
0.25
 41
0.25
  0
VERTEX
  5
634
  8
0
  6
CONTINUOUS
 62
     6
 10
111.5662648305321
 20
11.77527757592848
 30
0.0
 40
0.25
 41
0.25
  0
VERTEX
  5
635
  8
0
  6
CONTINUOUS
 62
     6
 10
114.7042220257054
 20
12.05334428571351
 30
0.0
 40
0.25
 41
0.25
  0
VERTEX
  5
636
  8
0
  6
CONTINUOUS
 62
     6
 10
117.8156147457579
 20
12.47355608103297
 30
0.0
 40
0.25
 41
0.25
  0
VERTEX
  5
637
  8
0
  6
CONTINUOUS
 62
     6
 10
120.9051416525292
 20
12.96939176291474
 30
0.0
 40
0.25
 41
0.25
  0
VERTEX
  5
638
  8
0
  6
CONTINUOUS
 62
     6
 10
123.9775014078593
 20
13.47433013238672
 30
0.0
 40
0.25
 41
0.25
  0
VERTEX
  5
639
  8
0
  6
CONTINUOUS
 62
     6
 10
127.0373926735878
 20
13.92184999047677
 30
0.0
 40
0.25
 41
0.25
  0
VERTEX
  5
63A
  8
0
  6
CONTINUOUS
 62
     6
 10
130.0895141115546
 20
14.24543013821277
 30
0.0
 40
0.25
 41
0.25
  0
VERTEX
  5
63B
  8
0
  6
CONTINUOUS
 62
     6
 10
133.1385534697554
 20
14.38259653832808
 30
0.0
 40
0.25
 41
0.25
  0
VERTEX
  5
63C
  8
0
  6
CONTINUOUS
 62
     6
 10
136.1890362571527
 20
14.33103797097676
 30
0.0
 40
0.25
 41
0.25
  0
VERTEX
  5
63D
  8
0
  6
CONTINUOUS
 62
     6
 10
139.2453636329418
 20
14.13455562345973
 30
0.0
 40
0.25
 41
0.25
  0
VERTEX
  5
63E
  8
0
  6
CONTINUOUS
 62
     6
 10
142.3119335887695
 20
13.83812529947197
 30
0.0
 40
0.25
 41
0.25
  0
VERTEX
  5
63F
  8
0
  6
CONTINUOUS
 62
     6
 10
145.3931441162825
 20
13.48672280270841
 30
0.0
 40
0.25
 41
0.25
  0
VERTEX
  5
640
  8
0
  6
CONTINUOUS
 62
     6
 10
148.4933932071278
 20
13.12532393686402
 30
0.0
 40
0.25
 41
0.25
  0
VERTEX
  5
641
  8
0
  6
CONTINUOUS
 62
     6
 10
151.6170788529521
 20
12.79890450563375
 30
0.0
 40
0.25
 41
0.25
  0
VERTEX
  5
642
  8
0
  6
CONTINUOUS
 62
     6
 10
154.7685990454024
 20
12.55244031271254
 30
0.0
 40
0.25
 41
0.25
  0
VERTEX
  5
643
  8
0
  6
CONTINUOUS
 62
     6
 10
157.9523517761253
 20
12.43090716179536
 30
0.0
 40
0.25
 41
0.25
  0
VERTEX
  5
644
  8
0
  6
CONTINUOUS
 62
     6
 10
161.172735036768
 20
12.47928085657715
 30
0.0
 40
0.25
 41
0.25
  0
VERTEX
  5
645
  8
0
  6
CONTINUOUS
 62
     6
 10
164.4330472750592
 20
12.73735385701995
 30
0.0
 40
0.25
 41
0.25
  0
VERTEX
  5
646
  8
0
  6
CONTINUOUS
 62
     6
 10
167.7204673178915
 20
13.16892935673145
 30
0.0
 40
0.25
 41
0.25
  0
VERTEX
  5
647
  8
0
  6
CONTINUOUS
 62
     6
 10
171.0099331205321
 20
13.68010603729773
 30
0.0
 40
0.25
 41
0.25
  0
VERTEX
  5
648
  8
0
  6
CONTINUOUS
 62
     6
 10
174.2760773157353
 20
14.17554326395849
 30
0.0
 40
0.25
 41
0.25
  0
VERTEX
  5
649
  8
0
  6
CONTINUOUS
 62
     6
 10
177.493532536255
 20
14.5599004019534
 30
0.0
 40
0.25
 41
0.25
  0
VERTEX
  5
64A
  8
0
  6
CONTINUOUS
 62
     6
 10
180.6369314148454
 20
14.73783681652216
 30
0.0
 40
0.25
 41
0.25
  0
VERTEX
  5
64B
  8
0
  6
CONTINUOUS
 62
     6
 10
183.6809065842609
 20
14.61401187290444
 30
0.0
 40
0.25
 41
0.25
  0
VERTEX
  5
64C
  8
0
  6
CONTINUOUS
 62
     6
 10
186.6000906772553
 20
14.09308493633995
 30
0.0
 40
0.25
 41
0.25
  0
VERTEX
  5
64D
  8
0
  6
CONTINUOUS
 62
     6
 10
189.369116326583
 20
13.07971537206835
 30
0.0
 40
0.25
 41
0.25
  0
VERTEX
  5
64E
  8
0
  6
CONTINUOUS
 62
     6
 10
191.9589924522136
 20
11.50173671829873
 30
0.0
 40
0.25
 41
0.25
  0
VERTEX
  5
64F
  8
0
  6
CONTINUOUS
 62
     6
 10
194.3193444794991
 20
9.423733087149607
 30
0.0
 40
0.25
 41
0.25
  0
VERTEX
  5
650
  8
0
  6
CONTINUOUS
 62
     6
 10
196.3919816334672
 20
6.960274334383181
 30
0.0
 40
0.25
 41
0.25
  0
VERTEX
  5
651
  8
0
  6
CONTINUOUS
 62
     6
 10
198.1187015575372
 20
4.226004381838379
 30
0.0
 40
0.25
 41
0.25
  0
VERTEX
  5
652
  8
0
  6
CONTINUOUS
 62
     6
 10
199.4739191525703
 20
1.331171172636722
 30
0.0
 40
0.25
 41
0.25
  0
VERTEX
  5
653
  8
0
  6
CONTINUOUS
 62
     6
 10
200.5877331922626
 20
-1.634959586048502
 30
0.0
 40
0.25
 41
0.25
  0
VERTEX
  5
654
  8
0
  6
CONTINUOUS
 62
     6
 10
201.6366398258496
 20
-4.589375376043096
 30
0.0
 40
0.25
 41
0.25
  0
VERTEX
  5
655
  8
0
  6
CONTINUOUS
 62
     6
 10
202.7971431469265
 20
-7.449064749870969
 30
0.0
 40
0.25
 41
0.25
  0
VERTEX
  5
656
  8
0
  6
CONTINUOUS
 62
     6
 10
204.2457471745441
 20
-10.13101628562359
 30
0.0
 40
0.25
 41
0.25
  0
VERTEX
  5
657
  8
0
  6
CONTINUOUS
 62
     6
 10
206.1140087609139
 20
-12.56763474591173
 30
0.0
 40
0.25
 41
0.25
  0
VERTEX
  5
658
  8
0
  6
CONTINUOUS
 62
     6
 10
208.3600411805339
 20
-14.75081336360435
 30
0.0
 40
0.25
 41
0.25
  0
VERTEX
  5
659
  8
0
  6
CONTINUOUS
 62
     6
 10
210.9001274879884
 20
-16.68679249140059
 30
0.0
 40
0.25
 41
0.25
  0
VERTEX
  5
65A
  8
0
  6
CONTINUOUS
 62
     6
 10
213.6505507378619
 20
-18.38181248199956
 30
0.0
 40
0.25
 41
0.25
  0
VERTEX
  5
65B
  8
0
  6
CONTINUOUS
 62
     6
 10
216.5275939847386
 20
-19.84211368810041
 30
0.0
 40
0.25
 41
0.25
  0
VERTEX
  5
65C
  8
0
  6
CONTINUOUS
 62
     6
 10
219.4475402832029
 20
-21.07393646240227
 30
0.0
 40
0.25
 41
0.25
  0
SEQEND
  5
664
  8
0
  6
CONTINUOUS
 62
     6
  0
TEXT
  5
3DE
  8
0
 62
     3
 10
145.6071424484253
 20
-137.25
 30
0.0
 40
2.5
  1
符
 41
1.000000457763672
  7
DCSTYLE0
 72
     5
 11
147.3928575515747
 21
-137.25
 31
0.0
  0
TEXT
  5
3DF
  8
0
 62
     3
 10
145.6071424484253
 20
-141.0000001192093
 30
0.0
 40
2.5
  1
号
 41
1.000000457763672
  7
DCSTYLE0
 72
     5
 11
147.3928575515747
 21
-141.0000001192093
 31
0.0
  0
TEXT
  5
3E0
  8
0
 62
     3
 10
242.1071424484253
 20
-137.25
 30
0.0
 40
2.5
  1
単重量
 41
1.117647193459903
  7
DCSTYLE0
 72
     5
 11
248.8928575515747
 21
-137.25
 31
0.0
  0
TEXT
  5
3E1
  8
0
 62
     3
 10
242.1071424484253
 20
-141.0000001192093
 30
0.0
 40
2.5
  1
(kg)
 41
1.300000114440918
  7
DCSTYLE0
 72
     5
 11
251.3928575515747
 21
-141.0000001192093
 31
0.0
  0
TEXT
  5
3E2
  8
0
 62
     3
 10
227.4821424484253
 20
-169.25
 30
0.0
 40
2.5
  1
尺度
 41
1.090909298983487
  7
DCSTYLE0
 72
     5
 11
231.7678575515747
 21
-169.25
 31
0.0
  0
TEXT
  5
3E3
  8
0
 62
     3
 10
148.9404859542847
 20
-169.25
 30
0.0
 40
2.5
  1
承　　　　認
 41
1.142857208251953
  7
DCSTYLE0
 72
     5
 11
163.2262010574341
 21
-169.25
 31
0.0
  0
TEXT
  5
3E4
  8
0
 62
     3
 10
176.273814201355
 20
-169.25
 30
0.0
 40
2.5
  1
検　　　　図
 41
1.142857208251953
  7
DCSTYLE0
 72
     5
 11
190.5595293045044
 21
-169.25
 31
0.0
  0
TEXT
  5
3E5
  8
0
 62
     3
 10
200.1904859542847
 20
-169.25
 30
0.0
 40
2.5
  1
担　　当
 41
1.130434882122537
  7
DCSTYLE0
 72
     5
 11
209.4762010574341
 21
-169.25
 31
0.0
  0
TEXT
  5
3E6
  8
0
 62
     3
 10
213.8571424484253
 20
-169.25
 30
0.0
 40
2.5
  1
製　　図
 41
1.130434882122537
  7
DCSTYLE0
 72
     5
 11
223.1428575515747
 21
-169.25
 31
0.0
  0
TEXT
  5
3E7
  8
0
 62
     3
 10
97.1071424484253
 20
-172.0
 30
0.0
 40
2.5
  1
記
 41
1.000000457763672
  7
DCSTYLE0
 72
     5
 11
98.8928575515747
 21
-172.0
 31
0.0
  0
TEXT
  5
3E8
  8
0
 62
     3
 10
97.1071424484253
 20
-175.7500001192093
 30
0.0
 40
2.5
  1
号
 41
1.000000457763672
  7
DCSTYLE0
 72
     5
 11
98.8928575515747
 21
-175.7500001192093
 31
0.0
  0
TEXT
  5
3E9
  8
0
 62
     3
 10
103.1071424484253
 20
-172.0
 30
0.0
 40
2.5
  1
理
 41
1.000000457763672
  7
DCSTYLE0
 72
     5
 11
104.8928575515747
 21
-172.0
 31
0.0
  0
TEXT
  5
3EA
  8
0
 62
     3
 10
103.1071424484253
 20
-175.7500001192093
 30
0.0
 40
2.5
  1
由
 41
1.000000457763672
  7
DCSTYLE0
 72
     5
 11
104.8928575515747
 21
-175.7500001192093
 31
0.0
  0
TEXT
  5
3EB
  8
0
 62
     3
 10
108.2321424484253
 20
-173.75
 30
0.0
 40
2.5
  1
日　付
 41
1.117647193459903
  7
DCSTYLE0
 72
     5
 11
115.0178575515747
 21
-173.75
 31
0.0
  0
TEXT
  5
3EC
  8
0
 62
     3
 10
96.72101879119873
 20
-179.0588989257812
 30
0.0
 40
2.5
  1
訂　正　来　歴
 41
1.146341519239472
  7
DCSTYLE0
 72
     5
 11
113.5067338943481
 21
-179.0588989257812
 31
0.0
  0
TEXT
  5
3ED
  8
0
 62
     3
 10
122.1325483322144
 20
-179.24853515625
 30
0.0
 40
2.5
  1
工　事　番　号
 41
1.146341519239472
  7
DCSTYLE0
 72
     5
 11
138.9182634353638
 21
-179.24853515625
 31
0.0
  0
TEXT
  5
3EE
  8
0
 62
     3
 10
161.107142329216
 20
-139.6000000238419
 30
0.0
 40
3.200000047683716
  1
品　　　　　　　名
 41
1.150943418718734
  7
DCSTYLE0
 72
     5
 11
188.9928575754166
 21
-139.6000000238419
 31
0.0
  0
TEXT
  5
3EF
  8
0
 62
     3
 10
203.857142329216
 20
-139.6000000238419
 30
0.0
 40
3.200000047683716
  1
材　　　料
 41
1.13793109357357
  7
DCSTYLE0
 72
     5
 11
218.9428576231003
 21
-139.6000000238419
 31
0.0
  0
TEXT
  5
3F0
  8
0
 62
     3
 10
226.107142329216
 20
-139.6000000238419
 30
0.0
 40
3.200000047683716
  1
個　　数
 41
1.13043486278342
  7
DCSTYLE0
 72
     5
 11
237.9928576350212
 21
-139.6000000238419
 31
0.0
  0
TEXT
  5
3F1
  8
0
 62
     3
 10
256.357142329216
 20
-139.6000000238419
 30
0.0
 40
3.200000047683716
  1
記　　　事
 41
1.13793109357357
  7
DCSTYLE0
 72
     5
 11
271.4428576231003
 21
-139.6000000238419
 31
0.0
  0
TEXT
  5
3F2
  8
0
 62
     3
 10
106.9535655939059
 20
-185.9677757654472
 30
0.0
 40
3.5
  1
株式
 41
1.090909307653254
  7
DCSTYLE0
 72
     5
 11
112.9535667859988
 21
-185.9677757654472
 31
0.0
  0
TEXT
  5
3F3
  8
0
 62
     3
 10
106.9535655939059
 20
-191.2177758846564
 30
0.0
 40
3.5
  1
会社
 41
1.090909307653254
  7
DCSTYLE0
 72
     5
 11
112.9535667859988
 21
-191.2177758846564
 31
0.0
  0
TEXT
  5
3F4
  8
0
 62
     3
 10
112.3749988079071
 20
-190.5
 30
0.0
 40
7.0
  1
　野村製作所
 41
1.142857210976737
  7
DCSTYLE0
 72
     5
 11
152.3750011920929
 21
-190.5
 31
0.0
  0
TEXT
  5
3F5
  8
0
 62
     3
 10
227.232142329216
 20
-164.1000000238419
 30
0.0
 40
3.200000047683716
  1
第　三　角　法
 41
1.146341517931077
  7
DCSTYLE0
 72
     5
 11
248.7178579568863
 21
-164.1000000238419
 31
0.0
  0
TEXT
  5
3F6
  8
0
 62
     3
 10
173.3571419715881
 20
-190.0
 30
0.0
 40
6.0
  1
2-
 41
0.8571429948012034
  7
DCSTYLE0
 72
     5
 11
183.6428579092026
 21
-190.0
 31
0.0
  0
TEXT
  5
3F7
  8
0
 62
     3
 10
254.1071424484253
 20
-169.25
 30
0.0
 40
2.5
  1
　ｺｰﾄﾞ番号
 41
1.146341519239472
  7
DCSTYLE0
 72
     5
 11
270.8928575515747
 21
-169.25
 31
0.0
  0
TEXT
  5
3F8
  8
0
 62
     3
 10
160.8736239075661
 20
-149.5
 30
0.0
 40
5.0
  1
外　形　図
 41
1.400530650697905
  7
DCSTYLE0
 72
     5
 11
189.884615957737
 21
-149.5
 31
0.0
  0
TEXT
  5
3F9
  8
0
 62
     3
 10
228.6868116855621
 20
-148.6000000238419
 30
0.0
 40
3.200000047683716
  1
1式
 41
1.265934396297717
  7
DCSTYLE0
 72
     5
 11
235.4384618997574
 21
-148.6000000238419
 31
0.0
  0
TEXT
  5
3FA
  8
0
 62
     3
 10
165.4881722927094
 20
-157.6797790527344
 30
0.0
 40
3.5
  1
日鋼プﾚｼジｫﾝ
 41
1.414075415185157
  7
DCSTYLE0
 72
     5
 11
198.7189445495605
 21
-157.6797790527344
 31
0.0
  0
TEXT
  5
3FB
  8
0
 62
     3
 10
234.3153832256794
 20
-174.3999999761581
 30
0.0
 40
2.799999952316284
  1
1/1
 41
1.323657738762037
  7
DCSTYLE0
 72
     5
 11
243.6692310869694
 21
-174.3999999761581
 31
0.0
  0
TEXT
  5
3FC
  8
0
 62
     3
 10
187.862636089325
 20
-190.0
 30
0.0
 40
6.0
  1
9905011
 41
1.324721192585603
  7
DCSTYLE0
 72
     5
 11
237.4450578689575
 21
-190.0
 31
0.0
  0
TEXT
  5
3FD
  8
0
 62
     3
 10
147.9357961416245
 20
-164.7503356933594
 30
0.0
 40
3.5
  1
AXS27-1型 ｴｱｼﾘﾝダ-
 41
1.29761621365532
  7
DCSTYLE0
 72
     5
 11
215.6281086206436
 21
-164.7503356933594
 31
0.0
  0
TEXT
  5
3FE
  8
0
 62
     6
 10
-226.5384622812271
 20
-88.75
 30
0.0
 40
3.5
  1
仕　様
 41
1.375565809362075
  7
DCSTYLE0
 72
     5
 11
-214.8461529016495
 21
-88.75
 31
0.0
  0
TEXT
  5
3FF
  8
0
 62
     6
 10
-226.5384622812271
 20
-96.75
 30
0.0
 40
3.5
  1
1.最大貫通穴径　 　　     　　　　　　　　　　　　27mm
 41
1.342124587013608
  7
DCSTYLE0
 72
     5
 11
-85.61538064479828
 21
-96.75
 31
0.0
  0
TEXT
  5
400
  8
0
 62
     6
 10
-226.5384622812271
 20
-104.75
 30
0.0
 40
3.5
  1
2.ﾋﾟｽﾄﾝｽﾄﾛ-ｸ　      　　　　　　　　　　20mm
 41
1.325295438587105
  7
DCSTYLE0
 72
     5
 11
-85.61538064479828
 21
-104.75
 31
0.0
  0
TEXT
  5
401
  8
0
 62
     6
 10
-226.5384622812271
 20
-112.75
 30
0.0
 40
3.5
  1
3.ﾋﾟｽﾄﾝ表面積  　　     　　　　押側　162.9cm
 41
1.370402738765921
  7
DCSTYLE0
 72
     5
 11
-85.61538064479828
 21
-112.75
 31
0.0
  0
TEXT
  5
402
  8
0
 62
     6
 10
-85.39258623637313
 20
-109.8500586398372
 30
0.0
 40
1.75
  1
2
 41
1.085973374983844
  7
DCSTYLE0
 72
     5
 11
-83.85412395514602
 21
-109.8500586398372
 31
0.0
  0
TEXT
  5
403
  8
0
 62
     6
 10
-226.5384622812271
 20
-120.75
 30
0.0
 40
3.5
  1
 　　　　　　　　     　　　　　　　　　引側　159.4cm
 41
1.363771757771892
  7
DCSTYLE0
 72
     5
 11
-85.61538064479828
 21
-120.75
 31
0.0
  0
TEXT
  5
404
  8
0
 62
     6
 10
-84.99995687828788
 20
-118.105679550134
 30
0.0
 40
1.75
  1
2
 41
1.085973374983844
  7
DCSTYLE0
 72
     5
 11
-83.46149459706076
 21
-118.105679550134
 31
0.0
  0
TEXT
  5
405
  8
0
 62
     6
 10
-226.5384622812271
 20
-128.75
 30
0.0
 40
3.5
  1
4.ﾋﾟｽﾄﾝ推力  (0.5MPa時)  　押側   7.2kN
 41
1.40454898640959
  7
DCSTYLE0
 72
     5
 11
-85.61538064479828
 21
-128.75
 31
0.0
  0
TEXT
  5
406
  8
0
 62
     6
 10
-226.5384622812271
 20
-136.75
 30
0.0
 40
3.5
  1
                       引側  　7.0kN
 41
1.273401340088212
  7
DCSTYLE0
 72
     5
 11
-85.61538064479828
 21
-136.75
 31
0.0
  0
TEXT
  5
407
  8
0
 62
     6
 10
-226.5384622812271
 20
-144.75
 30
0.0
 40
3.5
  1
5.使用圧力　 　 　    　　　     最高　　0.8MPa
 41
1.357204638553087
  7
DCSTYLE0
 72
     5
 11
-85.61538064479828
 21
-144.75
 31
0.0
  0
TEXT
  5
408
  8
0
 62
     6
 10
-226.5384622812271
 20
-160.75
 30
0.0
 40
3.5
  1
6.最高使用回転速度  　　　　　　    　　　　7000min
 41
1.379345007860642
  7
DCSTYLE0
 72
     5
 11
-85.61538064479828
 21
-160.75
 31
0.0
  0
TEXT
  5
409
  8
0
 62
     6
 10
-85.25956473207738
 20
-158.0576040216544
 30
0.0
 40
1.75
  1
-1
 41
1.19750545475934
  7
DCSTYLE0
 72
     5
 11
-81.56725624656941
 21
-158.0576040216544
 31
0.0
  0
TEXT
  5
40A
  8
0
 62
     6
 10
-226.5384622812271
 20
-168.75
 30
0.0
 40
3.5
  1
7.慣性ﾓ-ﾒﾝﾄ       　　　　　　　　0.022Kg･m
 41
1.344258330395188
  7
DCSTYLE0
 72
     5
 11
-85.61538064479828
 21
-168.75
 31
0.0
  0
TEXT
  5
40B
  8
0
 62
     6
 10
-85.28682007371809
 20
-165.6945925216662
 30
0.0
 40
1.75
  1
2
 41
1.085973374983844
  7
DCSTYLE0
 72
     5
 11
-83.74835779249098
 21
-165.6945925216662
 31
0.0
  0
TEXT
  5
40C
  8
0
 62
     6
 10
-226.5384622812271
 20
-176.75
 30
0.0
 40
3.5
  1
8.質　量　 　　   　　　　　　　　　　　　　　　10.0Kg
 41
1.413943962907313
  7
DCSTYLE0
 72
     5
 11
-85.61538064479828
 21
-176.75
 31
0.0
  0
TEXT
  5
40D
  8
0
 62
     6
 10
-129.5922037363052
 20
-152.9895935058594
 30
0.0
 40
3.5
  1
最低　　0.2MPa
 41
1.379543647661314
  7
DCSTYLE0
 72
     5
 11
-87.74604642391205
 21
-152.9895935058594
 31
0.0
  0
TEXT
  5
40E
  8
0
 62
     6
 10
-226.9471625089645
 20
-185.0556243658066
 30
0.0
 40
3.299999952316284
  1
※注　意　供給ｴｱ-ﾊ5μﾌｨﾙﾀ-ｦ通ｼﾀ､ドライエアーｦ使用ﾉ事※
 41
1.39105540511989
  7
DCSTYLE0
 72
     5
 11
-85.95376312732697
 21
-185.0556243658066
 31
0.0
  0
TEXT
  5
40F
  8
0
 62
     7
 10
217.5977386474609
 20
-105.3338088989258
 30
0.0
 40
4.0
  1
MIN 2
 41
0.9130434782608696
  7
DCSTYLE0
 72
     5
 11
233.5977386474609
 21
-105.3338088989258
 31
0.0
  0
TEXT
  5
410
  8
0
 62
     7
 10
10.58527317047119
 20
-105.4292755126953
 30
0.0
 40
4.0
  1
MAX46
 41
0.8484848484848484
  7
DCSTYLE0
 72
     5
 11
26.58527317047119
 21
-105.4292755126953
 31
0.0
  0
INSERT
  5
411
  8
LAYER0014
  6
CONTINUOUS
  2
DA_IMAGEDIMGROUP_1
 10
0.0
 20
0.0
 30
0.0
  0
INSERT
  5
412
  8
LAYER0014
  6
CONTINUOUS
  2
DA_IMAGEDIMGROUP_2
 10
0.0
 20
0.0
 30
0.0
  0
INSERT
  5
413
  8
LAYER0014
  6
CONTINUOUS
  2
DA_IMAGEDIMGROUP_3
 10
0.0
 20
0.0
 30
0.0
  0
INSERT
  5
414
  8
LAYER0014
  6
CONTINUOUS
  2
DA_IMAGEDIMGROUP_4
 10
0.0
 20
0.0
 30
0.0
  0
INSERT
  5
415
  8
LAYER0014
  6
CONTINUOUS
  2
DA_IMAGEDIMGROUP_5
 10
0.0
 20
0.0
 30
0.0
  0
INSERT
  5
416
  8
LAYER0014
  6
CONTINUOUS
  2
DC_GROUP_1
 10
0.0
 20
0.0
 30
0.0
  0
INSERT
  5
417
  8
LAYER0014
  6
CONTINUOUS
  2
DC_GROUP_2
 10
0.0
 20
0.0
 30
0.0
  0
INSERT
  5
418
  8
LAYER0014
  6
CONTINUOUS
  2
DA_IMAGEDIMGROUP_6
 10
0.0
 20
0.0
 30
0.0
  0
INSERT
  5
419
  8
LAYER0014
  6
CONTINUOUS
  2
DA_IMAGEDIMGROUP_7
 10
0.0
 20
0.0
 30
0.0
  0
INSERT
  5
41A
  8
LAYER0014
  6
CONTINUOUS
  2
DC_GROUP_3
 10
0.0
 20
0.0
 30
0.0
  0
INSERT
  5
41B
  8
LAYER0014
  6
CONTINUOUS
  2
DC_GROUP_4
 10
0.0
 20
0.0
 30
0.0
  0
INSERT
  5
41C
  8
LAYER0014
  6
CONTINUOUS
  2
DA_IMAGEDIMGROUP_8
 10
0.0
 20
0.0
 30
0.0
  0
INSERT
  5
41D
  8
LAYER0014
  6
CONTINUOUS
  2
DA_IMAGEDIMGROUP_9
 10
0.0
 20
0.0
 30
0.0
  0
INSERT
  5
41E
  8
LAYER0014
  6
CONTINUOUS
  2
DA_IMAGEDIMGROUP_10
 10
0.0
 20
0.0
 30
0.0
  0
INSERT
  5
41F
  8
LAYER0014
  6
CONTINUOUS
  2
DA_IMAGEDIMGROUP_11
 10
0.0
 20
0.0
 30
0.0
  0
INSERT
  5
420
  8
LAYER0014
  6
CONTINUOUS
  2
DA_IMAGEDIMGROUP_12
 10
0.0
 20
0.0
 30
0.0
  0
INSERT
  5
421
  8
LAYER0014
  6
CONTINUOUS
  2
DA_IMAGEDIMGROUP_13
 10
0.0
 20
0.0
 30
0.0
  0
INSERT
  5
422
  8
LAYER0014
  6
CONTINUOUS
  2
DA_IMAGEDIMGROUP_14
 10
0.0
 20
0.0
 30
0.0
  0
INSERT
  5
423
  8
LAYER0014
  6
CONTINUOUS
  2
DA_IMAGEDIMGROUP_15
 10
0.0
 20
0.0
 30
0.0
  0
INSERT
  5
424
  8
LAYER0014
  6
CONTINUOUS
  2
DA_IMAGEDIMGROUP_16
 10
0.0
 20
0.0
 30
0.0
  0
INSERT
  5
425
  8
LAYER0014
  6
CONTINUOUS
  2
DA_IMAGEDIMGROUP_17
 10
0.0
 20
0.0
 30
0.0
  0
INSERT
  5
426
  8
LAYER0014
  6
CONTINUOUS
  2
DA_IMAGEDIMGROUP_18
 10
0.0
 20
0.0
 30
0.0
  0
INSERT
  5
427
  8
LAYER0014
  6
CONTINUOUS
  2
DA_IMAGEDIMGROUP_19
 10
0.0
 20
0.0
 30
0.0
  0
INSERT
  5
428
  8
LAYER0014
  6
CONTINUOUS
  2
DA_IMAGEDIMGROUP_20
 10
0.0
 20
0.0
 30
0.0
  0
INSERT
  5
429
  8
LAYER0014
  6
CONTINUOUS
  2
DA_IMAGEDIMGROUP_21
 10
0.0
 20
0.0
 30
0.0
  0
INSERT
  5
42A
  8
LAYER0014
  6
CONTINUOUS
  2
DA_IMAGEDIMGROUP_22
 10
0.0
 20
0.0
 30
0.0
  0
INSERT
  5
42B
  8
LAYER0014
  6
CONTINUOUS
  2
DA_IMAGEDIMGROUP_23
 10
0.0
 20
0.0
 30
0.0
  0
INSERT
  5
42C
  8
LAYER0014
  6
CONTINUOUS
  2
DA_IMAGEDIMGROUP_24
 10
0.0
 20
0.0
 30
0.0
  0
INSERT
  5
42D
  8
LAYER0014
  6
CONTINUOUS
  2
DA_IMAGEDIMGROUP_25
 10
0.0
 20
0.0
 30
0.0
  0
INSERT
  5
42E
  8
LAYER0014
  6
CONTINUOUS
  2
DC_GROUP_5
 10
0.0
 20
0.0
 30
0.0
  0
INSERT
  5
42F
  8
LAYER0014
  6
CONTINUOUS
  2
DA_IMAGEDIMGROUP_26
 10
0.0
 20
0.0
 30
0.0
  0
INSERT
  5
430
  8
LAYER0014
  6
CONTINUOUS
  2
DA_IMAGEDIMGROUP_27
 10
0.0
 20
0.0
 30
0.0
  0
INSERT
  5
431
  8
LAYER0014
  6
CONTINUOUS
  2
DC_GROUP_6
 10
0.0
 20
0.0
 30
0.0
  0
INSERT
  5
432
  8
LAYER0014
  6
CONTINUOUS
  2
DA_IMAGEDIMGROUP_28
 10
0.0
 20
0.0
 30
0.0
  0
INSERT
  5
433
  8
LAYER0014
  6
CONTINUOUS
  2
DA_IMAGEDIMGROUP_29
 10
0.0
 20
0.0
 30
0.0
  0
INSERT
  5
434
  8
LAYER0014
  6
CONTINUOUS
  2
DC_GROUP_7
 10
0.0
 20
0.0
 30
0.0
  0
INSERT
  5
435
  8
LAYER0014
  6
CONTINUOUS
  2
DC_GROUP_8
 10
0.0
 20
0.0
 30
0.0
  0
LINE
  5
436
  8
LAYER0014
  6
CONTINUOUS
 62
     7
 10
214.5671691894531
 20
-101.522590637207
 30
0.0
 11
209.5671691894531
 21
-101.522590637207
 31
0.0
  0
LINE
  5
437
  8
LAYER0014
  6
CONTINUOUS
 62
     7
 10
209.5671691894531
 20
-63.04
 30
0.0
 11
209.5671691894531
 21
-102.522590637207
 31
0.0
  0
LINE
  5
438
  8
LAYER0014
  6
CONTINUOUS
 62
     7
 10
222.5671691894531
 20
-91.96487426757812
 30
0.0
 11
231.2172698974609
 21
-91.96487426757812
 31
0.0
  0
LINE
  5
439
  8
LAYER0014
  6
CONTINUOUS
 62
     7
 10
222.5671691894531
 20
-58.04
 30
0.0
 11
222.5671691894531
 21
-92.96487426757812
 31
0.0
  0
LINE
  5
43A
  8
LAYER0014
  6
CONTINUOUS
 62
     7
 10
116.5671691894531
 20
-91.96487426757812
 30
0.0
 11
115.5671691894531
 21
-91.96487426757812
 31
0.0
  0
LINE
  5
43B
  8
LAYER0014
  6
CONTINUOUS
 62
     7
 10
115.5671691894531
 20
-22.54
 30
0.0
 11
115.5671691894531
 21
-92.96487426757812
 31
0.0
  0
LINE
  5
43C
  8
LAYER0014
  6
CONTINUOUS
 62
     7
 10
32.56716918945312
 20
-91.96487426757812
 30
0.0
 11
31.56716918945312
 21
-91.96487426757812
 31
0.0
  0
LINE
  5
43D
  8
LAYER0014
  6
CONTINUOUS
 62
     7
 10
39.02716918945313
 20
80.0
 30
0.0
 11
-47.57543563842773
 21
80.0
 31
0.0
  0
LINE
  5
43E
  8
LAYER0014
  6
CONTINUOUS
 62
     7
 10
39.02716918945313
 20
-20.0
 30
0.0
 11
-47.57543563842773
 21
-20.0
 31
0.0
  0
LINE
  5
43F
  8
LAYER0014
  6
CONTINUOUS
 62
     7
 10
30.02716918945313
 20
66.0
 30
0.0
 11
-27.39804458618164
 21
66.0
 31
0.0
  0
LINE
  5
440
  8
LAYER0014
  6
CONTINUOUS
 62
     7
 10
30.02716918945313
 20
-6.0
 30
0.0
 11
-27.39804458618164
 21
-6.0
 31
0.0
  0
LINE
  5
441
  8
LAYER0014
  6
CONTINUOUS
 62
     7
 10
217.1071691894531
 20
92.5
 30
0.0
 11
246.2887725830078
 21
92.5
 31
0.0
  0
LINE
  5
442
  8
LAYER0014
  6
CONTINUOUS
 62
     7
 10
254.0980987548828
 20
-120.3952026367188
 30
0.0
 11
200.3302013934042
 21
-120.3952026367188
 31
0.0
  0
LINE
  5
443
  8
LAYER0014
  6
CONTINUOUS
 62
     7
 10
222.5671691894531
 20
-91.96487426757812
 30
0.0
 11
209.5671691894531
 21
-91.96487426757812
 31
0.0
  0
INSERT
  5
444
  8
LAYER0014
 62
     7
  2
_OPEN30
 10
222.5671691894531
 20
-91.96487426757812
 30
0.0
 41
2.499995396844351
 42
2.500007167085477
 50
360.0
  0
INSERT
  5
445
  8
LAYER0014
 62
     7
  2
_OPEN30
 10
209.5671691894531
 20
-91.96487426757812
 30
0.0
 41
2.499995396844351
 42
2.500007167085477
 50
180.0
  0
LINE
  5
446
  8
LAYER0014
  6
CONTINUOUS
 62
     7
 10
-46.57543563842773
 20
80.0
 30
0.0
 11
-46.57543563842773
 21
-20.0
 31
0.0
  0
INSERT
  5
447
  8
LAYER0014
 62
     7
  2
_OPEN30
 10
-46.57543563842773
 20
80.0
 30
0.0
 41
2.499995396844351
 42
2.500007167085477
 50
90.0
  0
INSERT
  5
448
  8
LAYER0014
 62
     7
  2
_OPEN30
 10
-46.57543563842773
 20
-20.0
 30
0.0
 41
2.499995396844351
 42
2.500007167085477
 50
270.0
  0
LINE
  5
449
  8
LAYER0014
  6
CONTINUOUS
 62
     7
 10
-26.39804458618164
 20
66.0
 30
0.0
 11
-26.39804458618164
 21
-6.0
 31
0.0
  0
INSERT
  5
44A
  8
LAYER0014
 62
     7
  2
_OPEN30
 10
-26.39804458618164
 20
66.0
 30
0.0
 41
2.499995396844351
 42
2.500007167085477
 50
90.0
  0
INSERT
  5
44B
  8
LAYER0014
 62
     7
  2
_OPEN30
 10
-26.39804458618164
 20
-6.0
 30
0.0
 41
2.499995396844351
 42
2.500007167085477
 50
270.0
  0
LINE
  5
44C
  8
LAYER0014
  6
CONTINUOUS
 62
     7
 10
245.2887725830078
 20
92.5
 30
0.0
 11
245.2887725830078
 21
-32.5
 31
0.0
  0
INSERT
  5
44D
  8
LAYER0014
 62
     7
  2
_OPEN30
 10
245.2887725830078
 20
92.5
 30
0.0
 41
2.499995396844351
 42
2.500007167085477
 50
90.0
  0
INSERT
  5
44E
  8
LAYER0014
 62
     7
  2
_OPEN30
 10
245.2887725830078
 20
-32.5
 30
0.0
 41
2.499995396844351
 42
2.500007167085477
 50
270.0
  0
LINE
  5
44F
  8
LAYER0014
  6
CONTINUOUS
 62
     7
 10
149.7116546630859
 20
43.5
 30
0.0
 11
149.7116546630859
 21
16.5
 31
0.0
  0
INSERT
  5
450
  8
LAYER0014
 62
     7
  2
_OPEN30
 10
149.7116546630859
 20
43.5
 30
0.0
 41
2.499995396844351
 42
2.500007167085477
 50
90.0
  0
INSERT
  5
451
  8
LAYER0014
 62
     7
  2
_OPEN30
 10
149.7116546630859
 20
16.5
 30
0.0
 41
2.499995396844351
 42
2.500007167085477
 50
270.0
  0
LINE
  5
452
  8
LAYER0014
  6
CONTINUOUS
 62
     7
 10
31.56716918945312
 20
-91.96487426757812
 30
0.0
 11
24.98260688781738
 21
-91.96487426757812
 31
0.0
  0
INSERT
  5
453
  8
LAYER0014
 62
     7
  2
_OPEN30
 10
31.56716918945312
 20
-91.96487426757812
 30
0.0
 41
2.499995396844351
 42
2.500007167085477
 50
360.0
  0
LINE
  5
454
  8
LAYER0014
  6
CONTINUOUS
 62
     7
 10
219.7647679255269
 20
-52.72853444694192
 30
0.0
 11
254.0980990036205
 21
-120.3951973274634
 31
0.0
  0
INSERT
  5
455
  8
LAYER0014
 62
     7
  2
_OPEN30
 10
219.7647679255269
 20
-52.72853444694192
 30
0.0
 41
2.499995396844351
 42
2.500007167085477
 50
116.9027431882497
  0
TEXT
  5
456
  8
LAYER0014
 62
     7
 10
210.4707536336479
 20
-100.9805603074734
 30
0.0
 40
4.0
  1
5
 41
0.9882352941176435
  7
DCSTYLE0
 72
     5
 11
213.6707536336479
 21
-100.9805603074734
 31
0.0
  0
TEXT
  5
457
  8
LAYER0014
 62
     7
 10
223.8420421447597
 20
-91.19613615135883
 30
0.0
 40
4.0
  1
13
 41
0.9081081081081049
  7
DCSTYLE0
 72
     5
 11
230.2420421447596
 21
-91.19613615135883
 31
0.0
  0
TEXT
  5
458
  8
LAYER0014
 62
     7
 10
115.3811691999435
 20
-95.164874458313
 30
0.0
 40
2.599999904632568
  1
1
 41
1.678531539903144
  7
DCSTYLE0
 72
     5
 11
117.667169213295
 21
-95.164874458313
 31
0.0
  0
TEXT
  5
459
  8
LAYER0014
 62
     7
 10
24.94280052293375
 20
-91.47944313831144
 30
0.0
 40
4.0
  1
1
 41
1.527272727272729
  7
DCSTYLE0
 72
     5
 11
28.14280052293375
 21
-91.47944313831144
 31
0.0
  0
TEXT
  5
45A
  8
LAYER0014
 62
     7
 10
-47.07543563842773
 20
21.13264349556215
 30
0.0
 40
4.0
  1
φ100
 50
90.0
 41
0.8960000000000001
  7
DCSTYLE0
 72
     5
 11
-47.07543563842773
 21
33.93264349556215
 31
0.0
  0
TEXT
  5
45B
  8
LAYER0014
 62
     7
 10
-49.43421776481001
 20
33.9740938456918
 30
0.0
 40
2.0
  1
-0.03
 50
90.0
 41
0.9032258064516129
  7
DCSTYLE0
 72
     5
 11
-49.43421776481001
 21
41.9740938456918
 31
0.0
  0
TEXT
  5
45C
  8
LAYER0014
 62
     7
 10
-47.03421766944258
 20
33.9740938456918
 30
0.0
 40
2.0
  1
-0.05
 50
90.0
 41
0.9032258064516129
  7
DCSTYLE0
 72
     5
 11
-47.03421766944258
 21
41.9740938456918
 31
0.0
  0
TEXT
  5
45D
  8
LAYER0014
 62
     7
 10
-26.89804458618164
 20
22.10300599543239
 30
0.0
 40
4.0
  1
φ72
 50
90.0
 41
0.9163636363636366
  7
DCSTYLE0
 72
     5
 11
-26.89804458618164
 21
31.70300599543239
 31
0.0
  0
TEXT
  5
45E
  8
LAYER0014
 62
     7
 10
-29.2174743688058
 20
32.11158054038098
 30
0.0
 40
2.0
  1
-0.1
 50
90.0
 41
1.002985074626866
  7
DCSTYLE0
 72
     5
 11
-29.2174743688058
 21
38.51158054038099
 31
0.0
  0
TEXT
  5
45F
  8
LAYER0014
 62
     7
 10
-26.81747427343837
 20
32.11158054038098
 30
0.0
 40
2.0
  1
-0.3
 50
90.0
 41
0.9205479452054802
  7
DCSTYLE0
 72
     5
 11
-26.81747427343837
 21
38.51158054038099
 31
0.0
  0
TEXT
  5
460
  8
LAYER0014
 62
     7
 10
244.7887725830078
 20
15.77018537909418
 30
0.0
 40
4.0
  1
φ125h6
 50
90.0
 41
0.8842105263157892
  7
DCSTYLE0
 72
     5
 11
244.7887725830078
 21
34.97018537909418
 31
0.0
  0
TEXT
  5
461
  8
LAYER0014
 62
     7
 10
242.1697884085156
 20
34.66460222358903
 30
0.0
 40
2.0
  1
 0
 50
90.0
 41
0.8842105263157863
  7
DCSTYLE0
 72
     5
 11
242.1697884085156
 21
37.86460222358902
 31
0.0
  0
TEXT
  5
462
  8
LAYER0014
 62
     7
 10
244.569788503883
 20
34.66460227127273
 30
0.0
 40
2.0
  1
-0.025
 50
90.0
 41
0.8920353982300906
  7
DCSTYLE0
 72
     5
 11
244.569788503883
 21
44.26460227127275
 31
0.0
  0
TEXT
  5
463
  8
LAYER0014
 62
     7
 10
202.3328195177734
 20
-119.9274630768288
 30
0.0
 40
4.0
  1
取付ｹﾎﾞﾙﾄ 6-M8×75
 41
0.863013698630137
  7
DCSTYLE0
 72
     5
 11
250.3328195177734
 21
-119.9274630768288
 31
0.0
  0
TEXT
  5
464
  8
LAYER0014
 62
     7
 10
149.2116546630859
 20
20.86582397650865
 30
0.0
 40
4.0
  1
φ27
 50
90.0
 41
0.9163636363636387
  7
DCSTYLE0
 72
     5
 11
149.2116546630859
 21
30.46582397650867
 31
0.0
  0
TEXT
  5
465
  8
LAYER0014
 62
     7
 10
146.92176025225
 20
31.27420238722864
 30
0.0
 40
2.0
  1
+0.3
 50
90.0
 41
0.9205479452054761
  7
DCSTYLE0
 72
     5
 11
146.92176025225
 21
37.67420238722862
 31
0.0
  0
TEXT
  5
466
  8
LAYER0014
 62
     7
 10
149.3217603476174
 20
31.27420238722864
 30
0.0
 40
2.0
  1
+0.1
 50
90.0
 41
1.002985074626862
  7
DCSTYLE0
 72
     5
 11
149.3217603476174
 21
37.67420238722862
 31
0.0
  0
LINE
  5
467
  8
LAYER0014
  6
CONTINUOUS
 62
     3
 10
217.1071691894531
 20
-32.5
 30
0.0
 11
246.2887725830078
 21
-32.5
 31
0.0
  0
VIEWPORT
  5
AE
 67
     1
  8
0
 10
0.0
 20
0.0
 30
0.0
 40
1782.0
 41
1260.0
 68
     1
 69
     1
1001
ACAD
1000
MVIEW
1002
{
1070
    16
1010
0.0
1020
0.0
1030
0.0
1010
0.0
1020
0.0
1030
1.0
1040
0.0
1040
1260.0
1040
0.0
1040
0.0
1040
50.0
1040
0.0
1040
0.0
1070
     0
1070
   100
1070
     0
1070
     3
1070
     0
1070
     0
1070
     0
1070
     0
1040
0.0
1040
0.0
1040
0.0
1040
0.5
1040
0.5
1040
0.0
1040
0.0
1070
     0
1002
{
1002
}
1002
}
  0
ENDSEC
  0
EOF
