  0
SECTION
  2
HEADER
  9
$ACADVER
  1
AC1009
  9
$DWGCODEPAGE
  3
ansi_932
  9
$INSBASE
 10
0.0
 20
0.0
 30
0.0
  9
$EXTMIN
 10
-1259.87398385787
 20
-890.8200224947933
 30
0.0
  9
$EXTMAX
 10
1259.874027454411
 20
890.8200224947933
 30
0.0
  9
$LIMMIN
 10
-419.9580236836505
 20
-296.9400074982644
  9
$LIMMAX
 10
419.9580236836505
 20
296.9400074982644
  9
$ORTHOMODE
 70
     0
  9
$REGENMODE
 70
     1
  9
$FILLMODE
 70
     1
  9
$QTEXTMODE
 70
     0
  9
$MIRRTEXT
 70
     1
  9
$DRAGMODE
 70
     2
  9
$LTSCALE
 40
0.3571428632249639
  9
$OSMODE
 70
    37
  9
$ATTMODE
 70
     1
  9
$TEXTSIZE
 40
0.2
  9
$TRACEWID
 40
0.05
  9
$TEXTSTYLE
  7
STANDARD
  9
$CLAYER
  8
0
  9
$CELTYPE
  6
BYLAYER
  9
$CECOLOR
 62
   256
  9
$DIMSCALE
 40
1.0
  9
$DIMASZ
 40
3.571423182682024
  9
$DIMEXO
 40
1.0
  9
$DIMDLI
 40
10.0
  9
$DIMRND
 40
0.0
  9
$DIMDLE
 40
0.0
  9
$DIMEXE
 40
1.0
  9
$DIMTP
 40
0.0
  9
$DIMTM
 40
0.0
  9
$DIMTXT
 40
5.714285811599422
  9
$DIMCEN
 40
0.0
  9
$DIMTSZ
 40
0.0
  9
$DIMTOL
 70
     0
  9
$DIMLIM
 70
     0
  9
$DIMTIH
 70
     0
  9
$DIMTOH
 70
     0
  9
$DIMSE1
 70
     0
  9
$DIMSE2
 70
     0
  9
$DIMTAD
 70
     1
  9
$DIMZIN
 70
     8
  9
$DIMBLK
  1

  9
$DIMASO
 70
     1
  9
$DIMSHO
 70
     1
  9
$DIMPOST
  1

  9
$DIMAPOST
  1

  9
$DIMALT
 70
     0
  9
$DIMALTD
 70
     2
  9
$DIMALTF
 40
0.0393700787401575
  9
$DIMLFAC
 40
1.0
  9
$DIMTOFL
 70
     0
  9
$DIMTVP
 40
0.0
  9
$DIMTIX
 70
     0
  9
$DIMSOXD
 70
     0
  9
$DIMSAH
 70
     0
  9
$DIMBLK1
  1

  9
$DIMBLK2
  1

  9
$DIMSTYLE
  2
STANDARD
  9
$DIMCLRD
 70
     0
  9
$DIMCLRE
 70
     0
  9
$DIMCLRT
 70
     0
  9
$DIMTFAC
 40
0.65
  9
$DIMGAP
 40
0.09
  9
$LUNITS
 70
     2
  9
$LUPREC
 70
     4
  9
$SKETCHINC
 40
0.1
  9
$FILLETRAD
 40
0.5
  9
$AUNITS
 70
     0
  9
$AUPREC
 70
     0
  9
$MENU
  1
.
  9
$ELEVATION
 40
0.0
  9
$PELEVATION
 40
0.0
  9
$THICKNESS
 40
0.0
  9
$LIMCHECK
 70
     0
  9
$CHAMFERA
 40
0.0
  9
$CHAMFERB
 40
0.0
  9
$SKPOLY
 70
     0
  9
$TDCREATE
 40
2459248.568872616
  9
$TDUPDATE
 40
2459248.568872801
  9
$TDINDWG
 40
0.0000000116
  9
$TDUSRTIMER
 40
0.0000000116
  9
$USRTIMER
 70
     1
  9
$ANGBASE
 50
0.0
  9
$ANGDIR
 70
     0
  9
$PDMODE
 70
     0
  9
$PDSIZE
 40
1.0
  9
$PLINEWID
 40
0.0
  9
$COORDS
 70
     1
  9
$SPLFRAME
 70
     0
  9
$SPLINETYPE
 70
     6
  9
$SPLINESEGS
 70
     8
  9
$ATTDIA
 70
     0
  9
$ATTREQ
 70
     1
  9
$HANDLING
 70
     1
  9
$HANDSEED
  5
91E
  9
$SURFTAB1
 70
     6
  9
$SURFTAB2
 70
     6
  9
$SURFTYPE
 70
     6
  9
$SURFU
 70
     6
  9
$SURFV
 70
     6
  9
$UCSNAME
  2

  9
$UCSORG
 10
0.0
 20
0.0
 30
0.0
  9
$UCSXDIR
 10
1.0
 20
0.0
 30
0.0
  9
$UCSYDIR
 10
0.0
 20
1.0
 30
0.0
  9
$PUCSNAME
  2

  9
$PUCSORG
 10
0.0
 20
0.0
 30
0.0
  9
$PUCSXDIR
 10
1.0
 20
0.0
 30
0.0
  9
$PUCSYDIR
 10
0.0
 20
1.0
 30
0.0
  9
$USERI1
 70
     0
  9
$USERI2
 70
     0
  9
$USERI3
 70
     0
  9
$USERI4
 70
     0
  9
$USERI5
 70
     0
  9
$USERR1
 40
0.0
  9
$USERR2
 40
0.0
  9
$USERR3
 40
0.0
  9
$USERR4
 40
0.0
  9
$USERR5
 40
0.0
  9
$WORLDVIEW
 70
     1
  9
$SHADEDGE
 70
     3
  9
$SHADEDIF
 70
    70
  9
$TILEMODE
 70
     1
  9
$MAXACTVP
 70
    64
  9
$PLIMCHECK
 70
     0
  9
$PEXTMIN
 10
1.000000000000000E+20
 20
1.000000000000000E+20
 30
1.000000000000000E+20
  9
$PEXTMAX
 10
-1.000000000000000E+20
 20
-1.000000000000000E+20
 30
-1.000000000000000E+20
  9
$PLIMMIN
 10
0.0
 20
0.0
  9
$PLIMMAX
 10
12.0
 20
9.0
  9
$UNITMODE
 70
     0
  9
$VISRETAIN
 70
     0
  9
$PLINEGEN
 70
     1
  9
$PSLTSCALE
 70
     0
  0
ENDSEC
  0
SECTION
  2
TABLES
  0
TABLE
  2
VPORT
 70
     1
  0
VPORT
  2
*ACTIVE
 70
     0
 10
0.0
 20
0.0
 11
1.0
 21
1.0
 12
0.0000217982704349
 22
0.0
 13
0.0
 23
0.0
 14
0.5
 24
0.5
 15
0.5
 25
0.5
 16
0.0
 26
0.0
 36
1.0
 17
0.0
 27
0.0
 37
0.0
 40
605.7576152964594
 41
1.414285684921843
 42
50.0
 43
0.0
 44
0.0
 50
0.0
 51
0.0
 71
     0
 72
  1000
 73
     1
 74
     1
 75
     0
 76
     0
 77
     0
 78
     0
  0
ENDTAB
  0
TABLE
  2
LTYPE
 70
    67
  0
LTYPE
  2
CONTINUOUS
 70
     0
  3
Solid line
 72
    65
 73
     0
 40
0.0
  0
LTYPE
  2
HIDDENX2
 70
     0
  3
Hidden (2x) ____ ____ ____ ____ ____ ____ ____ 
 72
    65
 73
     2
 40
19.05
 49
12.7
 49
-6.35
  0
LTYPE
  2
HIDDEN
 70
     0
  3
Hidden __ __ __ __ __ __ __ __ __ __ __ __ __ __
 72
    65
 73
     2
 40
9.524999999999999
 49
6.35
 49
-3.175
  0
LTYPE
  2
HIDDEN2
 70
     0
  3
Hidden (.5x) _ _ _ _ _ _ _ _ _ _ _ _ _ _ _ _ _ 
 72
    65
 73
     2
 40
4.762499999999999
 49
3.175
 49
-1.5875
  0
LTYPE
  2
DASHED
 70
     0
  3
Dashed __ __ __ __ __ __ __ __ __ __ __ __ __ _
 72
    65
 73
     2
 40
19.05
 49
12.7
 49
-6.35
  0
LTYPE
  2
DASHED2
 70
     0
  3
Dashed (.5x) _ _ _ _ _ _ _ _ _ _ _ _ _ _ _ _ _ 
 72
    65
 73
     2
 40
9.524999999999999
 49
6.35
 49
-3.175
  0
LTYPE
  2
DASHEDX2
 70
     0
  3
Dashed (2x) ____  ____  ____  ____  ____  ___
 72
    65
 73
     2
 40
38.09999999999999
 49
25.4
 49
-12.7
  0
LTYPE
  2
DOTX2
 70
     0
  3
Dot (2x) .  .  .  .  .  .  .  .  .  .  .  .  .  .
 72
    65
 73
     2
 40
12.7
 49
0.0
 49
-12.7
  0
LTYPE
  2
DOT
 70
     0
  3
Dot . . . . . . . . . . . . . . . . . . . . . . . .
 72
    65
 73
     2
 40
6.35
 49
0.0
 49
-6.35
  0
LTYPE
  2
DOT2
 70
     0
  3
Dot (.5x) ........................................
 72
    65
 73
     2
 40
3.175
 49
0.0
 49
-3.175
  0
LTYPE
  2
CENTERX2
 70
     0
  3
Center (2x) ________  __  ________  __  _____
 72
    65
 73
     4
 40
101.6
 49
63.5
 49
-12.7
 49
12.7
 49
-12.7
  0
LTYPE
  2
CENTER
 70
     0
  3
Center ____ _ ____ _ ____ _ ____ _ ____ _ ____
 72
    65
 73
     4
 40
50.8
 49
31.75
 49
-6.35
 49
6.35
 49
-6.35
  0
LTYPE
  2
CENTER2
 70
     0
  3
Center (.5x) ___ _ ___ _ ___ _ ___ _ ___ _ ___
 72
    65
 73
     4
 40
28.575
 49
19.05
 49
-3.175
 49
3.175
 49
-3.175
  0
LTYPE
  2
DASHDOTX2
 70
     0
  3
Dash dot (2x) ____  .  ____  .  ____  .  ___
 72
    65
 73
     4
 40
50.8
 49
25.4
 49
-12.7
 49
0.0
 49
-12.7
  0
LTYPE
  2
DASHDOT
 70
     0
  3
Dash dot __ . __ . __ . __ . __ . __ . __ . __
 72
    65
 73
     4
 40
25.4
 49
12.7
 49
-6.35
 49
0.0
 49
-6.35
  0
LTYPE
  2
DASHDOT2
 70
     0
  3
Dash dot (.5x) _._._._._._._._._._._._._._._.
 72
    65
 73
     4
 40
12.7
 49
6.35
 49
-3.175
 49
0.0
 49
-3.175
  0
LTYPE
  2
DIVIDEX2
 70
     0
  3
Divide (2x) ________  .  .  ________  .  .  _
 72
    65
 73
     6
 40
63.5
 49
25.4
 49
-12.7
 49
0.0
 49
-12.7
 49
0.0
 49
-12.7
  0
LTYPE
  2
DIVIDE
 70
     0
  3
Divide ____ . . ____ . . ____ . . ____ . . ____
 72
    65
 73
     6
 40
31.75
 49
12.7
 49
-6.35
 49
0.0
 49
-6.35
 49
0.0
 49
-6.35
  0
LTYPE
  2
DIVIDE2
 70
     0
  3
Divide (.5x) __..__..__..__..__..__..__..__.._
 72
    65
 73
     6
 40
15.875
 49
6.35
 49
-3.175
 49
0.0
 49
-3.175
 49
0.0
 49
-3.175
  0
LTYPE
  2
BORDERX2
 70
     0
  3
Border (2x) ____  ____  .  ____  ____  .  ___
 72
    65
 73
     6
 40
88.89999999999999
 49
25.4
 49
-12.7
 49
25.4
 49
-12.7
 49
0.0
 49
-12.7
  0
LTYPE
  2
BORDER
 70
     0
  3
Border __ __ . __ __ . __ __ . __ __ . __ __ .
 72
    65
 73
     6
 40
44.45
 49
12.7
 49
-6.35
 49
12.7
 49
-6.35
 49
0.0
 49
-6.35
  0
LTYPE
  2
BORDER2
 70
     0
  3
Border (.5x) __.__.__.__.__.__.__.__.__.__.__.
 72
    65
 73
     6
 40
22.225
 49
6.35
 49
-3.175
 49
6.35
 49
-3.175
 49
0.0
 49
-3.175
  0
LTYPE
  2
PHANTOMX2
 70
     0
  3
Phantom (2x) ____________    ____    ____   _
 72
    65
 73
     6
 40
127.0
 49
63.5
 49
-12.7
 49
12.7
 49
-12.7
 49
12.7
 49
-12.7
  0
LTYPE
  2
PHANTOM
 70
     0
  3
Phantom ______  __  __  ______  __  __  ______ 
 72
    65
 73
     6
 40
63.5
 49
31.75
 49
-6.35
 49
6.35
 49
-6.35
 49
6.35
 49
-6.35
  0
LTYPE
  2
PHANTOM2
 70
     0
  3
Phantom (.5x) ___ _ _ ___ _ _ ___ _ _ ___ _ _
 72
    65
 73
     6
 40
31.75
 49
15.875
 49
-3.175
 49
3.175
 49
-3.175
 49
3.175
 49
-3.175
  0
LTYPE
  2
ACAD_ISO06W100
 70
     0
  3
ISO long-dash triple-dot ____ ... ____ ... ____
 72
    65
 73
     8
 40
36.0
 49
24.0
 49
-3.0
 49
0.0
 49
-3.0
 49
0.0
 49
-3.0
 49
0.0
 49
-3.0
  0
LTYPE
  2
ACAD_ISO13W100
 70
     0
  3
ISO double-dash double-dot __ __ . . __ __ . . _
 72
    65
 73
     8
 40
36.0
 49
12.0
 49
-3.0
 49
12.0
 49
-3.0
 49
0.0
 49
-3.0
 49
0.0
 49
-3.0
  0
LTYPE
  2
ACAD_ISO14W100
 70
     0
  3
ISO dash triple-dot __ . . . __ . . . __ . . . _
 72
    65
 73
     8
 40
24.0
 49
12.0
 49
-3.0
 49
0.0
 49
-3.0
 49
0.0
 49
-3.0
 49
0.0
 49
-3.0
  0
LTYPE
  2
ACAD_ISO02W100
 70
     0
  3
ISO dash __ __ __ __ __ __ __ __ __ __ __ __ __
 72
    65
 73
     2
 40
15.0
 49
12.0
 49
-3.0
  0
LTYPE
  2
ACAD_ISO03W100
 70
     0
  3
ISO dash space __    __    __    __    __    __
 72
    65
 73
     2
 40
30.0
 49
12.0
 49
-18.0
  0
LTYPE
  2
ACAD_ISO04W100
 70
     0
  3
ISO long-dash dot ____ . ____ . ____ . ____ . _
 72
    65
 73
     4
 40
30.0
 49
24.0
 49
-3.0
 49
0.0
 49
-3.0
  0
LTYPE
  2
ACAD_ISO05W100
 70
     0
  3
ISO long-dash double-dot ____ .. ____ .. ____ . 
 72
    65
 73
     6
 40
33.0
 49
24.0
 49
-3.0
 49
0.0
 49
-3.0
 49
0.0
 49
-3.0
  0
LTYPE
  2
ACAD_ISO07W100
 70
     0
  3
ISO dot . . . . . . . . . . . . . . . . . . . . 
 72
    65
 73
     2
 40
3.0
 49
0.0
 49
-3.0
  0
LTYPE
  2
ACAD_ISO08W100
 70
     0
  3
ISO long-dash short-dash ____ __ ____ __ ____ _
 72
    65
 73
     4
 40
36.0
 49
24.0
 49
-3.0
 49
6.0
 49
-3.0
  0
LTYPE
  2
ACAD_ISO09W100
 70
     0
  3
ISO long-dash double-short-dash ____ __ __ ____
 72
    65
 73
     6
 40
45.0
 49
24.0
 49
-3.0
 49
6.0
 49
-3.0
 49
6.0
 49
-3.0
  0
LTYPE
  2
ACAD_ISO10W100
 70
     0
  3
ISO dash dot __ . __ . __ . __ . __ . __ . __ . 
 72
    65
 73
     4
 40
18.0
 49
12.0
 49
-3.0
 49
0.0
 49
-3.0
  0
LTYPE
  2
ACAD_ISO11W100
 70
     0
  3
ISO double-dash dot __ __ . __ __ . __ __ . __ _
 72
    65
 73
     6
 40
33.0
 49
12.0
 49
-3.0
 49
12.0
 49
-3.0
 49
0.0
 49
-3.0
  0
LTYPE
  2
ACAD_ISO12W100
 70
     0
  3
ISO dash double-dot __ . . __ . . __ . . __ . . 
 72
    65
 73
     6
 40
21.0
 49
12.0
 49
-3.0
 49
0.0
 49
-3.0
 49
0.0
 49
-3.0
  0
LTYPE
  2
ACAD_ISO15W100
 70
     0
  3
ISO double-dash triple-dot __ __ . . . __ __ . .
 72
    65
 73
    10
 40
39.0
 49
12.0
 49
-3.0
 49
12.0
 49
-3.0
 49
0.0
 49
-3.0
 49
0.0
 49
-3.0
 49
0.0
 49
-3.0
  0
LTYPE
  2
JIS_02_0_7
 70
     0
  3
HIDDEN0.75 _ _ _ _ _ _ _ _ _ _ _ _ _ _ _ _ _ 
 72
    65
 73
     2
 40
1.35
 49
0.75
 49
-0.6
  0
LTYPE
  2
JIS_02_1_0
 70
     0
  3
HIDDEN01 _ _ _ _ _ _ _ _ _ _ _ _ _ _ _ _ _ 
 72
    65
 73
     2
 40
2.0
 49
1.0
 49
-1.0
  0
LTYPE
  2
JIS_02_1_2
 70
     0
  3
HIDDEN01.25  _ _ _ _ _ _ _ _ _ _ _ _ _ _ _ _ _ 
 72
    65
 73
     2
 40
2.5
 49
1.25
 49
-1.25
  0
LTYPE
  2
JIS_02_2_0
 70
     0
  3
HIDDEN02 __ __ __ __ __ __ __ __ __ __ __ 
 72
    65
 73
     2
 40
3.0
 49
2.0
 49
-1.0
  0
LTYPE
  2
JIS_02_4_0
 70
     0
  3
HIDDEN04 ____ ____ ____ ____ ____ ____ ____ 
 72
    65
 73
     2
 40
5.5
 49
4.0
 49
-1.5
  0
LTYPE
  2
JIS_08_11
 70
     0
  3
1SASEN11 ___ _ ___ _ ___ _ ___ _ ___ _ ___
 72
    65
 73
     4
 40
12.8
 49
11.0
 49
-0.6
 49
0.6
 49
-0.6
  0
LTYPE
  2
JIS_08_15
 70
     0
  3
1SASEN15 ____ _ ____ _ ____ _ ____ _ ____ 
 72
    65
 73
     4
 40
17.25
 49
15.0
 49
-0.75
 49
0.75
 49
-0.75
  0
LTYPE
  2
JIS_08_25
 70
     0
  3
1SASEN25 ________  __  ________  __  _____
 72
    65
 73
     4
 40
28.0
 49
25.0
 49
-1.125
 49
0.75
 49
-1.125
  0
LTYPE
  2
JIS_08_37
 70
     0
  3
1SASEN37 ________  __  ________  __  _____
 72
    65
 73
     4
 40
40.5
 49
37.5
 49
-1.125
 49
0.75
 49
-1.125
  0
LTYPE
  2
JIS_08_50
 70
     0
  3
1SASEN50 _______________  __  ____________
 72
    65
 73
     4
 40
53.0
 49
50.0
 49
-1.125
 49
0.75
 49
-1.125
  0
LTYPE
  2
JIS_09_08
 70
     0
  3
2SASEN8 __ _ _ __ _ _ __ _ _ __ _ _ __ _ _ 
 72
    65
 73
     6
 40
10.75
 49
8.0
 49
-0.55
 49
0.55
 49
-0.55
 49
0.55
 49
-0.55
  0
LTYPE
  2
JIS_09_15
 70
     0
  3
2SASEN15 ___ _ _ ___ _ _ ___ _ _ ___ _ _ ___ 
 72
    65
 73
     6
 40
18.9
 49
15.0
 49
-0.9
 49
0.6
 49
-0.9
 49
0.6
 49
-0.9
  0
LTYPE
  2
JIS_09_29
 70
     0
  3
2SASEN29 ______　__  __  ______　__  __  ___
 72
    65
 73
     6
 40
34.0
 49
29.0
 49
-1.2
 49
0.7
 49
-1.2
 49
0.7
 49
-1.2
  0
LTYPE
  2
JIS_09_50
 70
     0
  3
2SASEN50 ____________　__  __  _____________
 72
    65
 73
     6
 40
55.0
 49
50.0
 49
-1.2
 49
0.7
 49
-1.2
 49
0.7
 49
-1.2
  0
LTYPE
  2
SXF_破線
 70
     0
  3
02 dashed -- -- -- -- -- --
 72
    65
 73
     2
 40
7.5
 49
6.0
 49
-1.5
  0
LTYPE
  2
SXF_跳び破線
 70
     0
  3
03 dashed_spaced --  --  --  --
 72
    65
 73
     2
 40
12.0
 49
6.0
 49
-6.0
  0
LTYPE
  2
SXF_一点長鎖線
 70
     0
  3
04 long_dashed_dotted ---- . ---- . ----
 72
    65
 73
     4
 40
15.25
 49
12.0
 49
-1.5
 49
0.25
 49
-1.5
  0
LTYPE
  2
SXF_二点長鎖線
 70
     0
  3
05 long_dashed_double-dotted ---- . . ---- 
 72
    65
 73
     6
 40
17.0
 49
12.0
 49
-1.5
 49
0.25
 49
-1.5
 49
0.25
 49
-1.5
  0
LTYPE
  2
SXF_三点長鎖線
 70
     0
  3
06 long_dashed_triplicate-dotted ---- ... ---- 
 72
    65
 73
     8
 40
18.75
 49
12.0
 49
-1.5
 49
0.25
 49
-1.5
 49
0.25
 49
-1.5
 49
0.25
 49
-1.5
  0
LTYPE
  2
SXF_点線
 70
     0
  3
07 dotted . . . . . . . . . . . . 
 72
    65
 73
     2
 40
1.75
 49
0.25
 49
-1.5
  0
LTYPE
  2
SXF_一点鎖線
 70
     0
  3
08 chain ---- - --- - --- - ---
 72
    65
 73
     4
 40
18.5
 49
12.0
 49
-1.5
 49
3.5
 49
-1.5
  0
LTYPE
  2
SXF_二点鎖線
 70
     0
  3
09 chain_double_dash ---- - - ---- - - ----
 72
    65
 73
     6
 40
23.5
 49
12.0
 49
-1.5
 49
3.5
 49
-1.5
 49
3.5
 49
-1.5
  0
LTYPE
  2
SXF_一点短鎖線
 70
     0
  3
10 dashed_dotted -- . -- . -- . --
 72
    65
 73
     4
 40
9.25
 49
6.0
 49
-1.5
 49
0.25
 49
-1.5
  0
LTYPE
  2
SXF_一点二短鎖線
 70
     0
  3
11 double-dashed_dotted -- -- . -- --
 72
    65
 73
     6
 40
16.75
 49
6.0
 49
-1.5
 49
6.0
 49
-1.5
 49
0.25
 49
-1.5
  0
LTYPE
  2
SXF_二点短鎖線
 70
     0
  3
12 dashed_double_dotted -- . . -- . . --
 72
    65
 73
     6
 40
11.0
 49
6.0
 49
-1.5
 49
0.25
 49
-1.5
 49
0.25
 49
-1.5
  0
LTYPE
  2
SXF_二点二短鎖線
 70
     0
  3
13 double-dashed_double-dotted -- -- . . -- --
 72
    65
 73
     8
 40
18.5
 49
6.0
 49
-1.5
 49
6.0
 49
-1.5
 49
0.25
 49
-1.5
 49
0.25
 49
-1.5
  0
LTYPE
  2
SXF_三点短鎖線
 70
     0
  3
14 dashed triplicate-dotted -- . . . -- . . . --
 72
    65
 73
     8
 40
12.75
 49
6.0
 49
-1.5
 49
0.25
 49
-1.5
 49
0.25
 49
-1.5
 49
0.25
 49
-1.5
  0
LTYPE
  2
SXF_三点二短鎖線
 70
     0
  3
15 double-dashed triplicate-dotted -- -- . . . -- -- 
 72
    65
 73
    10
 40
20.25
 49
6.0
 49
-1.5
 49
6.0
 49
-1.5
 49
0.25
 49
-1.5
 49
0.25
 49
-1.5
 49
0.25
 49
-1.5
  0
ENDTAB
  0
TABLE
  2
LAYER
 70
     2
  0
LAYER
  2
0
 70
     0
 62
     7
  6
CONTINUOUS
  0
LAYER
  2
LAYER0014
 70
     0
 62
     7
  6
CONTINUOUS
  0
ENDTAB
  0
TABLE
  2
STYLE
 70
     2
  0
STYLE
  2
STANDARD
 70
     0
 40
0.0
 41
1.0
 50
0.0
 71
     0
 42
0.2
  3
txt.shx
  4
bigfont.shx
  0
STYLE
  2
DCSTYLE0
 70
     0
 40
0.0
 41
0.7142860377471202
 50
0.0
 71
     0
 42
0.2
  3
txt.shx
  4
bigfont
  0
ENDTAB
  0
TABLE
  2
VIEW
 70
     0
  0
ENDTAB
  0
TABLE
  2
UCS
 70
     0
  0
ENDTAB
  0
TABLE
  2
APPID
 70
     2
  0
APPID
  2
ACAD
 70
     0
  0
APPID
  2
DAFUSIONOUT
 70
     0
  0
ENDTAB
  0
TABLE
  2
DIMSTYLE
 70
     1
  0
DIMSTYLE
  2
STANDARD
 70
     0
  3

  4

  5

  6

  7

 40
1.0
 41
0.18
 42
0.0625
 43
0.38
 44
0.18
 45
0.0
 46
0.0
 47
0.0
 48
0.0
140
0.18
141
0.09
142
0.0
143
25.4
144
1.0
145
0.0
146
1.0
147
0.09
 71
     0
 72
     0
 73
     1
 74
     1
 75
     0
 76
     0
 77
     0
 78
     0
170
     0
171
     2
172
     0
173
     0
174
     0
175
     0
176
     0
177
     0
178
     0
  0
ENDTAB
  0
ENDSEC
  0
SECTION
  2
BLOCKS
  0
BLOCK
  8
0
  2
$MODEL_SPACE
 70
     0
 10
0.0
 20
0.0
 30
0.0
  3
$MODEL_SPACE
  1

  0
ENDBLK
  5
21
  8
0
  0
BLOCK
 67
     1
  8
0
  2
$PAPER_SPACE
 70
     0
 10
0.0
 20
0.0
 30
0.0
  3
$PAPER_SPACE
  1

  0
ENDBLK
  5
1D
 67
     1
  8
0
  0
BLOCK
  8
0
  2
DC_FILL_GROUP_1
 70
     0
 10
0.0
 20
0.0
 30
0.0
  3
DC_FILL_GROUP_1
  1

  0
CIRCLE
  5
140
  8
0
  6
CONTINUOUS
 62
     2
 10
-310.4450387689903
 20
-232.8421496125996
 30
0.0
 40
0.3860219953063896
  0
ENDBLK
  5
B5
  8
0
  0
BLOCK
  8
0
  2
DC_FILL_GROUP_2
 70
     0
 10
0.0
 20
0.0
 30
0.0
  3
DC_FILL_GROUP_2
  1

  0
CIRCLE
  5
141
  8
0
  6
CONTINUOUS
 62
     2
 10
-305.8127319099687
 20
-232.8421496125996
 30
0.0
 40
0.3860219953063896
  0
ENDBLK
  5
B8
  8
0
  0
BLOCK
  8
0
  2
DC_IMAGEDIMGROUP_1
 70
     0
 10
0.0
 20
0.0
 30
0.0
  3
DC_IMAGEDIMGROUP_1
  1

  0
LINE
  5
142
  8
LAYER0014
  6
CONTINUOUS
 62
     7
 10
-210.9999774353841
 20
-102.6285884351149
 30
0.0
 11
-210.9999774353841
 21
-120.1671389744476
 31
0.0
  0
LINE
  5
143
  8
LAYER0014
  6
CONTINUOUS
 62
     7
 10
-184.9999595539904
 20
-102.6285884351149
 30
0.0
 11
-184.9999595539904
 21
-120.1671389744476
 31
0.0
  0
LINE
  5
144
  8
LAYER0014
  6
CONTINUOUS
 62
     7
 10
-210.9999774353841
 20
-116.8957103473069
 30
0.0
 11
-184.9999595539904
 21
-116.8957103473069
 31
0.0
  0
INSERT
  5
14B
  8
LAYER0014
 62
     7
  2
_OPEN30
 10
-210.9999774353841
 20
-116.8957103473069
 30
0.0
 41
3.571422056312886
 42
3.571438870943352
 50
180.0
  0
INSERT
  5
14C
  8
LAYER0014
 62
     7
  2
_OPEN30
 10
-184.9999595539904
 20
-116.8957103473069
 30
0.0
 41
3.571422056312886
 42
3.571438870943352
 50
360.0
  0
TEXT
  5
14E
  8
LAYER0014
 62
     7
 10
-204.8571114686065
 20
-116.181424620857
 30
0.0
 40
5.714285811599422
  1
φ26
 41
0.9163636363636369
  7
DCSTYLE0
 72
     5
 11
-191.1428255207679
 21
-116.181424620857
 31
0.0
  0
ENDBLK
  5
BB
  8
0
  0
BLOCK
  8
0
  2
DC_IMAGEDIMGROUP_2
 70
     0
 10
0.0
 20
0.0
 30
0.0
  3
DC_IMAGEDIMGROUP_2
  1

  0
LINE
  5
14F
  8
LAYER0014
  6
CONTINUOUS
 62
     7
 10
-214.4999513370642
 20
-97.6286101482359
 30
0.0
 11
-214.4999513370642
 21
-130.1671391447466
 31
0.0
  0
LINE
  5
150
  8
LAYER0014
  6
CONTINUOUS
 62
     7
 10
-181.4999856523103
 20
-97.6286101482359
 30
0.0
 11
-181.4999856523103
 21
-130.1671391447466
 31
0.0
  0
LINE
  5
151
  8
LAYER0014
  6
CONTINUOUS
 62
     7
 10
-214.4999513370642
 20
-126.8957105176059
 30
0.0
 11
-181.4999856523103
 21
-126.8957105176059
 31
0.0
  0
INSERT
  5
152
  8
LAYER0014
 62
     7
  2
_OPEN30
 10
-214.4999513370642
 20
-126.8957105176059
 30
0.0
 41
3.571422056312886
 42
3.571438870943352
 50
180.0
  0
INSERT
  5
153
  8
LAYER0014
 62
     7
  2
_OPEN30
 10
-181.4999856523103
 20
-126.8957105176059
 30
0.0
 41
3.571422056312886
 42
3.571438870943352
 50
360.0
  0
TEXT
  5
154
  8
LAYER0014
 62
     7
 10
-204.8571114686065
 20
-126.181424791156
 30
0.0
 40
5.714285811599422
  1
φ33
 41
0.9163636363636369
  7
DCSTYLE0
 72
     5
 11
-191.1428255207679
 21
-126.181424791156
 31
0.0
  0
ENDBLK
  5
BE
  8
0
  0
BLOCK
  8
0
  2
DC_IMAGEDIMGROUP_3
 70
     0
 10
0.0
 20
0.0
 30
0.0
  3
DC_IMAGEDIMGROUP_3
  1

  0
LINE
  5
155
  8
LAYER0014
  6
CONTINUOUS
 62
     7
 10
-217.24993394528
 20
-69.62859005295532
 30
0.0
 11
-217.24993394528
 21
-140.1671393150455
 31
0.0
  0
LINE
  5
156
  8
LAYER0014
  6
CONTINUOUS
 62
     7
 10
-178.7499594475535
 20
-69.62859005295532
 30
0.0
 11
-178.7499594475535
 21
-140.1671393150455
 31
0.0
  0
LINE
  5
157
  8
LAYER0014
  6
CONTINUOUS
 62
     7
 10
-217.24993394528
 20
-136.8957106879049
 30
0.0
 11
-178.7499594475535
 21
-136.8957106879049
 31
0.0
  0
INSERT
  5
158
  8
LAYER0014
 62
     7
  2
_OPEN30
 10
-217.24993394528
 20
-136.8957106879049
 30
0.0
 41
3.571422056312886
 42
3.571438870943352
 50
180.0
  0
INSERT
  5
159
  8
LAYER0014
 62
     7
  2
_OPEN30
 10
-178.7499594475535
 20
-136.8957106879049
 30
0.0
 41
3.571422056312886
 42
3.571438870943352
 50
360.0
  0
TEXT
  5
15A
  8
LAYER0014
 62
     7
 10
-209.4285183196156
 20
-136.181424961455
 30
0.0
 40
5.714285811599422
  1
φ38.5
 41
0.9882352941176477
  7
DCSTYLE0
 72
     5
 11
-186.5713750732179
 21
-136.181424961455
 31
0.0
  0
ENDBLK
  5
C1
  8
0
  0
BLOCK
  8
0
  2
DC_IMAGEDIMGROUP_4
 70
     0
 10
0.0
 20
0.0
 30
0.0
  3
DC_IMAGEDIMGROUP_4
  1

  0
LINE
  5
15B
  8
LAYER0014
  6
CONTINUOUS
 62
     7
 10
-222.9999689204347
 20
-56.6285647635556
 30
0.0
 11
-222.9999689204347
 21
-150.1671394853445
 31
0.0
  0
LINE
  5
15C
  8
LAYER0014
  6
CONTINUOUS
 62
     7
 10
-172.9999680689398
 20
-56.6285647635556
 30
0.0
 11
-172.9999680689398
 21
-150.1671394853445
 31
0.0
  0
LINE
  5
15D
  8
LAYER0014
  6
CONTINUOUS
 62
     7
 10
-222.9999689204347
 20
-146.8957108582039
 30
0.0
 11
-172.9999680689398
 21
-146.8957108582039
 31
0.0
  0
INSERT
  5
15E
  8
LAYER0014
 62
     7
  2
_OPEN30
 10
-222.9999689204347
 20
-146.8957108582039
 30
0.0
 41
3.571422056312886
 42
3.571438870943352
 50
180.0
  0
INSERT
  5
15F
  8
LAYER0014
 62
     7
  2
_OPEN30
 10
-172.9999680689398
 20
-146.8957108582039
 30
0.0
 41
3.571422056312886
 42
3.571438870943352
 50
360.0
  0
TEXT
  5
160
  8
LAYER0014
 62
     7
 10
-202.5713971439667
 20
-146.1814251317539
 30
0.0
 40
5.714285811599422
  1
50
 41
0.9081081081081086
  7
DCSTYLE0
 72
     5
 11
-193.4285398454077
 21
-146.1814251317539
 31
0.0
  0
ENDBLK
  5
C4
  8
0
  0
BLOCK
  8
0
  2
DC_IMAGEDIMGROUP_5
 70
     0
 10
0.0
 20
0.0
 30
0.0
  3
DC_IMAGEDIMGROUP_5
  1

  0
LINE
  5
161
  8
LAYER0014
  6
CONTINUOUS
 62
     7
 10
-297.9999701976771
 20
63.37143183046463
 30
0.0
 11
-297.9999701976771
 21
-160.1671396556435
 31
0.0
  0
LINE
  5
162
  8
LAYER0014
  6
CONTINUOUS
 62
     7
 10
-197.9999684946872
 20
-152.3473806985341
 30
0.0
 11
-197.9999684946872
 21
-160.1671396556435
 31
0.0
  0
LINE
  5
163
  8
LAYER0014
  6
CONTINUOUS
 62
     7
 10
-297.9999701976771
 20
-156.8957110285029
 30
0.0
 11
-197.9999684946872
 21
-156.8957110285029
 31
0.0
  0
INSERT
  5
164
  8
LAYER0014
 62
     7
  2
_OPEN30
 10
-297.9999701976771
 20
-156.8957110285029
 30
0.0
 41
3.571422056312886
 42
3.571438870943352
 50
180.0
  0
INSERT
  5
165
  8
LAYER0014
 62
     7
  2
_OPEN30
 10
-197.9999684946872
 20
-156.8957110285029
 30
0.0
 41
3.571422056312886
 42
3.571438870943352
 50
360.0
  0
TEXT
  5
166
  8
LAYER0014
 62
     7
 10
-254.8571123201015
 20
-156.1814253020529
 30
0.0
 40
5.714285811599422
  1
100
 41
0.88421052631579
  7
DCSTYLE0
 72
     5
 11
-241.1428263722629
 21
-156.1814253020529
 31
0.0
  0
ENDBLK
  5
C7
  8
0
  0
BLOCK
  8
0
  2
DC_IMAGEDIMGROUP_6
 70
     0
 10
0.0
 20
0.0
 30
0.0
  3
DC_IMAGEDIMGROUP_6
  1

  0
LINE
  5
167
  8
LAYER0014
  6
CONTINUOUS
 62
     7
 10
-97.99992319515643
 20
63.37143183046463
 30
0.0
 11
-97.99992319515643
 21
-160.1671396556435
 31
0.0
  0
LINE
  5
168
  8
LAYER0014
  6
CONTINUOUS
 62
     7
 10
-197.9999684946872
 20
-156.8957110285029
 30
0.0
 11
-97.99992319515643
 21
-156.8957110285029
 31
0.0
  0
INSERT
  5
169
  8
LAYER0014
 62
     7
  2
_OPEN30
 10
-197.9999684946872
 20
-156.8957110285029
 30
0.0
 41
3.571422056312886
 42
3.571438870943352
 50
180.0
  0
INSERT
  5
16A
  8
LAYER0014
 62
     7
  2
_OPEN30
 10
-97.99992319515643
 20
-156.8957110285029
 30
0.0
 41
3.571422056312886
 42
3.571438870943352
 50
360.0
  0
TEXT
  5
16B
  8
LAYER0014
 62
     7
 10
-154.8570888188411
 20
-156.1814253020529
 30
0.0
 40
5.714285811599422
  1
100
 41
0.88421052631579
  7
DCSTYLE0
 72
     5
 11
-141.1428028710025
 21
-156.1814253020529
 31
0.0
  0
ENDBLK
  5
CA
  8
0
  0
BLOCK
  8
0
  2
DC_IMAGEDIMGROUP_7
 70
     0
 10
0.0
 20
0.0
 30
0.0
  3
DC_IMAGEDIMGROUP_7
  1

  0
LINE
  5
16C
  8
LAYER0014
  6
CONTINUOUS
 62
     7
 10
-306.3871041295716
 20
129.4999934860637
 30
0.0
 11
-338.9263973734447
 21
129.4999934860637
 31
0.0
  0
LINE
  5
16D
  8
LAYER0014
  6
CONTINUOUS
 62
     7
 10
-319.1768469534064
 20
107.0000040020262
 30
0.0
 11
-325.246531766594
 21
107.0000040020262
 31
0.0
  0
LINE
  5
16E
  8
LAYER0014
  6
CONTINUOUS
 62
     7
 10
-321.9751031394533
 20
129.4999934860637
 30
0.0
 11
-321.9751031394533
 21
107.0000040020262
 31
0.0
  0
INSERT
  5
16F
  8
LAYER0014
 62
     7
  2
_OPEN30
 10
-321.9751031394533
 20
129.4999934860637
 30
0.0
 41
3.571422056312886
 42
3.571438870943352
 50
90.0
  0
INSERT
  5
170
  8
LAYER0014
 62
     7
  2
_OPEN30
 10
-321.9751031394533
 20
107.0000040020262
 30
0.0
 41
3.571422056312886
 42
3.571438870943352
 50
270.0
  0
TEXT
  5
171
  8
LAYER0014
 62
     7
 10
-322.6893888659033
 20
109.1071414454859
 30
0.0
 40
5.714285811599422
  1
22.5
 50
90.0
 41
1.002985074626866
  7
DCSTYLE0
 72
     5
 11
-322.6893888659033
 21
127.3928560426041
 31
0.0
  0
ENDBLK
  5
CD
  8
0
  0
BLOCK
  8
0
  2
DC_IMAGEDIMGROUP_8
 70
     0
 10
0.0
 20
0.0
 30
0.0
  3
DC_IMAGEDIMGROUP_8
  1

  0
LINE
  5
172
  8
LAYER0014
  6
CONTINUOUS
 62
     7
 10
-319.1768469534064
 20
107.0000040020262
 30
0.0
 11
-325.246531766594
 21
107.0000040020262
 31
0.0
  0
LINE
  5
173
  8
LAYER0014
  6
CONTINUOUS
 62
     7
 10
-306.3871041295716
 20
84.50000906842111
 30
0.0
 11
-338.9263973734447
 21
84.50000906842111
 31
0.0
  0
LINE
  5
174
  8
LAYER0014
  6
CONTINUOUS
 62
     7
 10
-321.9751031394533
 20
107.0000040020262
 30
0.0
 11
-321.9751031394533
 21
84.50000906842111
 31
0.0
  0
INSERT
  5
175
  8
LAYER0014
 62
     7
  2
_OPEN30
 10
-321.9751031394533
 20
107.0000040020262
 30
0.0
 41
3.571422056312886
 42
3.571438870943352
 50
90.0
  0
INSERT
  5
176
  8
LAYER0014
 62
     7
  2
_OPEN30
 10
-321.9751031394533
 20
84.50000906842111
 30
0.0
 41
3.571422056312886
 42
3.571438870943352
 50
270.0
  0
TEXT
  5
177
  8
LAYER0014
 62
     7
 10
-322.6893888659033
 20
86.60714923666458
 30
0.0
 40
5.714285811599422
  1
22.5
 50
90.0
 41
1.002985074626866
  7
DCSTYLE0
 72
     5
 11
-322.6893888659033
 21
104.8928638337827
 31
0.0
  0
ENDBLK
  5
D0
  8
0
  0
BLOCK
  8
0
  2
DC_IMAGEDIMGROUP_9
 70
     0
 10
0.0
 20
0.0
 30
0.0
  3
DC_IMAGEDIMGROUP_9
  1

  0
LINE
  5
178
  8
LAYER0014
  6
CONTINUOUS
 62
     7
 10
-89.61287645634373
 20
129.4999934860637
 30
0.0
 11
-67.41250289188969
 21
129.4999934860637
 31
0.0
  0
LINE
  5
179
  8
LAYER0014
  6
CONTINUOUS
 62
     7
 10
-73.59158363327953
 20
107.0000040020262
 30
0.0
 11
-69.66414564786886
 21
107.0000040020262
 31
0.0
  0
LINE
  5
17A
  8
LAYER0014
  6
CONTINUOUS
 62
     7
 10
-72.93557427500953
 20
129.4999934860637
 30
0.0
 11
-72.93557427500953
 21
107.0000040020262
 31
0.0
  0
INSERT
  5
17B
  8
LAYER0014
 62
     7
  2
_OPEN30
 10
-72.93557427500953
 20
129.4999934860637
 30
0.0
 41
3.571422056312886
 42
3.571438870943352
 50
90.0
  0
INSERT
  5
17C
  8
LAYER0014
 62
     7
  2
_OPEN30
 10
-72.93557427500953
 20
107.0000040020262
 30
0.0
 41
3.571422056312886
 42
3.571438870943352
 50
270.0
  0
TEXT
  5
17D
  8
LAYER0014
 62
     7
 10
-73.64986000145946
 20
109.1071414454859
 30
0.0
 40
5.714285811599422
  1
22.5
 50
90.0
 41
1.002985074626866
  7
DCSTYLE0
 72
     5
 11
-73.64986000145946
 21
127.3928560426041
 31
0.0
  0
ENDBLK
  5
D3
  8
0
  0
BLOCK
  8
0
  2
DC_IMAGEDIMGROUP_10
 70
     0
 10
0.0
 20
0.0
 30
0.0
  3
DC_IMAGEDIMGROUP_10
  1

  0
LINE
  5
17E
  8
LAYER0014
  6
CONTINUOUS
 62
     7
 10
-73.59158363327953
 20
107.0000040020262
 30
0.0
 11
-69.66414564786886
 21
107.0000040020262
 31
0.0
  0
LINE
  5
17F
  8
LAYER0014
  6
CONTINUOUS
 62
     7
 10
-89.61287645634373
 20
84.50000906842111
 30
0.0
 11
-67.41250289188969
 21
84.50000906842111
 31
0.0
  0
LINE
  5
180
  8
LAYER0014
  6
CONTINUOUS
 62
     7
 10
-72.93557427500953
 20
107.0000040020262
 30
0.0
 11
-72.93557427500953
 21
84.50000906842111
 31
0.0
  0
INSERT
  5
181
  8
LAYER0014
 62
     7
  2
_OPEN30
 10
-72.93557427500953
 20
107.0000040020262
 30
0.0
 41
3.571422056312886
 42
3.571438870943352
 50
90.0
  0
INSERT
  5
182
  8
LAYER0014
 62
     7
  2
_OPEN30
 10
-72.93557427500953
 20
84.50000906842111
 30
0.0
 41
3.571422056312886
 42
3.571438870943352
 50
270.0
  0
TEXT
  5
183
  8
LAYER0014
 62
     7
 10
-73.64986000145946
 20
86.60714923666458
 30
0.0
 40
5.714285811599422
  1
22.5
 50
90.0
 41
1.002985074626866
  7
DCSTYLE0
 72
     5
 11
-73.64986000145946
 21
104.8928638337827
 31
0.0
  0
ENDBLK
  5
D6
  8
0
  0
BLOCK
  8
0
  2
DC_IMAGEDIMGROUP_11
 70
     0
 10
0.0
 20
0.0
 30
0.0
  3
DC_IMAGEDIMGROUP_11
  1

  0
LINE
  5
184
  8
LAYER0014
  6
CONTINUOUS
 62
     7
 10
-319.1768469534064
 20
107.0000040020262
 30
0.0
 11
-336.4934802003159
 21
107.0000040020262
 31
0.0
  0
LINE
  5
185
  8
LAYER0014
  6
CONTINUOUS
 62
     7
 10
-226.6285404108003
 20
-52.99999327318997
 30
0.0
 11
-336.4934802003159
 21
-52.99999327318997
 31
0.0
  0
LINE
  5
186
  8
LAYER0014
  6
CONTINUOUS
 62
     7
 10
-333.2220515731752
 20
107.0000040020262
 30
0.0
 11
-333.2220515731752
 21
-52.99999327318997
 31
0.0
  0
INSERT
  5
187
  8
LAYER0014
 62
     7
  2
_OPEN30
 10
-333.2220515731752
 20
107.0000040020262
 30
0.0
 41
3.571422056312886
 42
3.571438870943352
 50
90.0
  0
INSERT
  5
188
  8
LAYER0014
 62
     7
  2
_OPEN30
 10
-333.2220515731752
 20
-52.99999327318997
 30
0.0
 41
3.571422056312886
 42
3.571438870943352
 50
270.0
  0
TEXT
  5
189
  8
LAYER0014
 62
     7
 10
-333.9363372996252
 20
20.14286239049885
 30
0.0
 40
5.714285811599422
  1
160
 50
90.0
 41
0.8842105263157863
  7
DCSTYLE0
 72
     5
 11
-333.9363372996252
 21
33.85714833833741
 31
0.0
  0
ENDBLK
  5
D9
  8
0
  0
BLOCK
  8
0
  2
DC_IMAGEDIMGROUP_12
 70
     0
 10
0.0
 20
0.0
 30
0.0
  3
DC_IMAGEDIMGROUP_12
  1

  0
LINE
  5
18A
  8
LAYER0014
  6
CONTINUOUS
 62
     7
 10
-226.6285404108003
 20
-52.99999327318997
 30
0.0
 11
-336.4934802003159
 21
-52.99999327318997
 31
0.0
  0
LINE
  5
18B
  8
LAYER0014
  6
CONTINUOUS
 62
     7
 10
-219.6285054143583
 20
-73.99998927116376
 30
0.0
 11
-336.4934802003159
 21
-73.99998927116376
 31
0.0
  0
LINE
  5
18C
  8
LAYER0014
  6
CONTINUOUS
 62
     7
 10
-333.2220515731752
 20
-52.99999327318997
 30
0.0
 11
-333.2220515731752
 21
-73.99998927116376
 31
0.0
  0
INSERT
  5
18D
  8
LAYER0014
 62
     7
  2
_OPEN30
 10
-333.2220515731752
 20
-52.99999327318997
 30
0.0
 41
3.571422056312886
 42
3.571438870943352
 50
90.0
  0
INSERT
  5
18E
  8
LAYER0014
 62
     7
  2
_OPEN30
 10
-333.2220515731752
 20
-73.99998927116376
 30
0.0
 41
3.571422056312886
 42
3.571438870943352
 50
270.0
  0
TEXT
  5
18F
  8
LAYER0014
 62
     7
 10
-333.9363372996252
 20
-68.0714199214564
 30
0.0
 40
5.714285811599422
  1
21
 50
90.0
 41
1.083870967741935
  7
DCSTYLE0
 72
     5
 11
-333.9363372996252
 21
-58.92856262289732
 31
0.0
  0
ENDBLK
  5
DC
  8
0
  0
BLOCK
  8
0
  2
DC_IMAGEDIMGROUP_13
 70
     0
 10
0.0
 20
0.0
 30
0.0
  3
DC_IMAGEDIMGROUP_13
  1

  0
LINE
  5
190
  8
LAYER0014
  6
CONTINUOUS
 62
     7
 10
-219.6285054143583
 20
-73.99998927116376
 30
0.0
 11
-336.4934802003159
 21
-73.99998927116376
 31
0.0
  0
LINE
  5
191
  8
LAYER0014
  6
CONTINUOUS
 62
     7
 10
-215.5687083307114
 20
-99.0000169447493
 30
0.0
 11
-336.4934802003159
 21
-99.0000169447493
 31
0.0
  0
LINE
  5
192
  8
LAYER0014
  6
CONTINUOUS
 62
     7
 10
-333.2220515731752
 20
-73.99998927116376
 30
0.0
 11
-333.2220515731752
 21
-99.0000169447493
 31
0.0
  0
INSERT
  5
193
  8
LAYER0014
 62
     7
  2
_OPEN30
 10
-333.2220515731752
 20
-73.99998927116376
 30
0.0
 41
3.571422056312886
 42
3.571438870943352
 50
90.0
  0
INSERT
  5
194
  8
LAYER0014
 62
     7
  2
_OPEN30
 10
-333.2220515731752
 20
-99.0000169447493
 30
0.0
 41
3.571422056312886
 42
3.571438870943352
 50
270.0
  0
TEXT
  5
195
  8
LAYER0014
 62
     7
 10
-333.9363372996252
 20
-91.07143175723607
 30
0.0
 40
5.714285811599422
  1
25
 50
90.0
 41
0.9081081081081086
  7
DCSTYLE0
 72
     5
 11
-333.9363372996252
 21
-81.92857445867699
 31
0.0
  0
ENDBLK
  5
DF
  8
0
  0
BLOCK
  8
0
  2
DC_IMAGEDIMGROUP_14
 70
     0
 10
0.0
 20
0.0
 30
0.0
  3
DC_IMAGEDIMGROUP_14
  1

  0
LINE
  5
196
  8
LAYER0014
  6
CONTINUOUS
 62
     7
 10
-197.9999684946872
 20
229.5244842380197
 30
0.0
 11
-197.999974002337
 21
236.2717682884721
 31
0.0
  0
LINE
  5
197
  8
LAYER0014
  6
CONTINUOUS
 62
     7
 10
-298.1780273615984
 20
164.8378375706853
 30
0.0
 11
-309.9525977763723
 21
171.635890618116
 31
0.0
  0
ARC
  5
198
  8
LAYER0014
  6
CONTINUOUS
 62
     7
 10
-197.9999684946872
 20
107.0000040020262
 30
0.0
 40
126.0003356593053
 50
90.00000250447816
 51
149.9999973439411
  0
INSERT
  5
199
  8
LAYER0014
 62
     7
  2
_OPEN30
 10
-197.999974002337
 20
233.0003396613314
 30
0.0
 41
3.571422056312886
 42
3.571438870943352
 50
0.8120141318762545
  0
INSERT
  5
19A
  8
LAYER0014
 62
     7
  2
_OPEN30
 10
-307.1194571405147
 20
170.0001768901281
 30
0.0
 41
3.571422056312886
 42
3.571438870943352
 50
239.1879857165429
  0
TEXT
  5
19B
  8
LAYER0014
 62
     7
 10
-268.0814698481586
 20
214.6703908231705
 30
0.0
 40
5.714285811599422
  1
60ﾟ
 50
30.0
 41
0.916363636363633
  7
DCSTYLE0
 72
     5
 11
-256.2045498225665
 21
221.5275337970897
 31
0.0
  0
ENDBLK
  5
E2
  8
0
  0
BLOCK
  8
0
  2
DC_GROUP_3
 70
     0
 10
0.0
 20
0.0
 30
0.0
  3
DC_GROUP_3
  1

  0
CIRCLE
  5
19C
  8
LAYER0014
  6
CONTINUOUS
 62
     2
 10
-343.9263538620532
 20
129.4999934860637
 30
0.0
 40
5.000000085149494
  0
TEXT
  5
19D
  8
LAYER0014
 62
     3
 10
-345.5592110422545
 20
127.2142791273642
 30
0.0
 40
4.571428717399133
  1
押
 41
1.000124990938218
  7
DCSTYLE0
 72
     5
 11
-342.293496681852
 21
127.2142791273642
 31
0.0
  0
ENDBLK
  5
E5
  8
0
  0
BLOCK
  8
0
  2
DC_GROUP_4
 70
     0
 10
0.0
 20
0.0
 30
0.0
  3
DC_GROUP_4
  1

  0
CIRCLE
  5
19E
  8
LAYER0014
  6
CONTINUOUS
 62
     2
 10
-343.9263538620532
 20
84.50000906842111
 30
0.0
 40
5.000000085149494
  0
TEXT
  5
19F
  8
LAYER0014
 62
     3
 10
-345.5592110422545
 20
82.21429470972154
 30
0.0
 40
4.571428717399133
  1
引
 41
1.000124990938218
  7
DCSTYLE0
 72
     5
 11
-342.293496681852
 21
82.21429470972154
 31
0.0
  0
ENDBLK
  5
E8
  8
0
  0
BLOCK
  8
0
  2
DC_GROUP_5
 70
     0
 10
0.0
 20
0.0
 30
0.0
  3
DC_GROUP_5
  1

  0
CIRCLE
  5
1A0
  8
LAYER0014
  6
CONTINUOUS
 62
     2
 10
-62.41250280674019
 20
129.4999934860637
 30
0.0
 40
5.000000085149494
  0
TEXT
  5
1A1
  8
LAYER0014
 62
     3
 10
-64.04535998694148
 20
127.2142791273642
 30
0.0
 40
4.571428717399133
  1
押
 41
1.000124990938233
  7
DCSTYLE0
 72
     5
 11
-60.77964562653892
 21
127.2142791273642
 31
0.0
  0
ENDBLK
  5
EB
  8
0
  0
BLOCK
  8
0
  2
DC_GROUP_6
 70
     0
 10
0.0
 20
0.0
 30
0.0
  3
DC_GROUP_6
  1

  0
CIRCLE
  5
1A2
  8
LAYER0014
  6
CONTINUOUS
 62
     2
 10
-62.41250280674019
 20
84.50000906842111
 30
0.0
 40
5.000000085149494
  0
TEXT
  5
1A3
  8
LAYER0014
 62
     3
 10
-64.04535998694148
 20
82.21429470972154
 30
0.0
 40
4.571428717399133
  1
引
 41
1.000124990938233
  7
DCSTYLE0
 72
     5
 11
-60.77964562653892
 21
82.21429470972154
 31
0.0
  0
ENDBLK
  5
EE
  8
0
  0
BLOCK
  8
0
  2
DC_IMAGEDIMGROUP_15
 70
     0
 10
0.0
 20
0.0
 30
0.0
  3
DC_IMAGEDIMGROUP_15
  1

  0
LINE
  5
1A4
  8
LAYER0014
  6
CONTINUOUS
 62
     7
 10
-135.6836450676843
 20
169.3163293960323
 30
0.0
 11
-106.5910292990406
 21
198.4089579913046
 31
0.0
  0
LINE
  5
1A5
  8
LAYER0014
  6
CONTINUOUS
 62
     7
 10
-197.999958364912
 20
217.1147262236617
 30
0.0
 11
-197.999974002337
 21
236.2717791876073
 31
0.0
  0
ARC
  5
1A6
  8
LAYER0014
  6
CONTINUOUS
 62
     7
 10
-197.9999684946872
 20
107.0000149011614
 30
0.0
 40
126.0003356593053
 50
45.00000125223908
 51
90.00000250447816
  0
INSERT
  5
1A7
  8
LAYER0014
 62
     7
  2
_OPEN30
 10
-108.9042786654596
 20
196.0957086248856
 30
0.0
 41
3.571422056312886
 42
3.571438870943352
 50
315.812012879637
  0
INSERT
  5
1A8
  8
LAYER0014
 62
     7
  2
_OPEN30
 10
-197.999974002337
 20
233.0003505604666
 30
0.0
 41
3.571422056312886
 42
3.571438870943352
 50
179.1879908770799
  0
TEXT
  5
1A9
  8
LAYER0014
 62
     7
 10
-155.2421837160417
 20
228.144983946429
 30
0.0
 40
5.714285811599422
  1
45ﾟ
 50
337.4999999999999
 41
0.9163636363636383
  7
DCSTYLE0
 72
     5
 11
-142.5718356258265
 21
222.8967539274738
 31
0.0
  0
ENDBLK
  5
F1
  8
0
  0
BLOCK
  8
0
  2
DC_IMAGEDIMGROUP_16
 70
     0
 10
0.0
 20
0.0
 30
0.0
  3
DC_IMAGEDIMGROUP_16
  1

  0
LINE
  5
1AA
  8
LAYER0014
  6
CONTINUOUS
 62
     7
 10
127.1602543279146
 20
145.8281828510452
 30
0.0
 11
127.1602543279146
 21
244.9307074705312
 31
0.0
  0
LINE
  5
1AB
  8
LAYER0014
  6
CONTINUOUS
 62
     7
 10
142.1602545833631
 20
100.9525521168122
 30
0.0
 11
142.1602545833631
 21
244.9307074705312
 31
0.0
  0
LINE
  5
1AC
  8
LAYER0014
  6
CONTINUOUS
 62
     7
 10
127.1602543279146
 20
236.9999953167778
 30
0.0
 11
142.1602545833631
 21
236.9999953167778
 31
0.0
  0
INSERT
  5
1AD
  8
LAYER0014
 62
     7
  2
_OPEN30
 10
127.1602543279146
 20
236.9999953167778
 30
0.0
 41
3.571422056312886
 42
3.571438870943352
 50
180.0
  0
INSERT
  5
1AE
  8
LAYER0014
 62
     7
  2
_OPEN30
 10
142.1602545833631
 20
236.9999953167778
 30
0.0
 41
3.571422056312886
 42
3.571438870943352
 50
360.0
  0
TEXT
  5
1AF
  8
LAYER0014
 62
     7
 10
130.0888258063593
 20
237.7142810432278
 30
0.0
 40
5.714285811599422
  1
15
 41
0.9081081081081086
  7
DCSTYLE0
 72
     5
 11
139.2316831049184
 21
237.7142810432278
 31
0.0
  0
ENDBLK
  5
F4
  8
0
  0
BLOCK
  8
0
  2
DC_IMAGEDIMGROUP_17
 70
     0
 10
0.0
 20
0.0
 30
0.0
  3
DC_IMAGEDIMGROUP_17
  1

  0
LINE
  5
1B0
  8
LAYER0014
  6
CONTINUOUS
 62
     7
 10
142.1602545833631
 20
100.9525521168122
 30
0.0
 11
142.1602545833631
 21
240.2714239439185
 31
0.0
  0
LINE
  5
1B1
  8
LAYER0014
  6
CONTINUOUS
 62
     7
 10
247.6602215027847
 20
216.1285533109487
 30
0.0
 11
247.6602215027847
 21
240.2714239439185
 31
0.0
  0
LINE
  5
1B2
  8
LAYER0014
  6
CONTINUOUS
 62
     7
 10
142.1602545833631
 20
236.9999953167778
 30
0.0
 11
247.6602215027847
 21
236.9999953167778
 31
0.0
  0
INSERT
  5
1B3
  8
LAYER0014
 62
     7
  2
_OPEN30
 10
142.1602545833631
 20
236.9999953167778
 30
0.0
 41
3.571422056312886
 42
3.571438870943352
 50
180.0
  0
INSERT
  5
1B4
  8
LAYER0014
 62
     7
  2
_OPEN30
 10
247.6602215027847
 20
236.9999953167778
 30
0.0
 41
3.571422056312886
 42
3.571438870943352
 50
360.0
  0
TEXT
  5
1B5
  8
LAYER0014
 62
     7
 10
183.481666419875
 20
237.7142810432278
 30
0.0
 40
5.714285811599422
  1
105.5
 41
0.9655172413793108
  7
DCSTYLE0
 72
     5
 11
206.3388096662727
 21
237.7142810432278
 31
0.0
  0
ENDBLK
  5
F7
  8
0
  0
BLOCK
  8
0
  2
DC_IMAGEDIMGROUP_18
 70
     0
 10
0.0
 20
0.0
 30
0.0
  3
DC_IMAGEDIMGROUP_18
  1

  0
LINE
  5
1B6
  8
LAYER0014
  6
CONTINUOUS
 62
     7
 10
247.6602215027847
 20
216.1285533109487
 30
0.0
 11
247.6602215027847
 21
240.2714239439185
 31
0.0
  0
LINE
  5
1B7
  8
LAYER0014
  6
CONTINUOUS
 62
     7
 10
265.1601346077261
 20
213.1285445405508
 30
0.0
 11
265.1601346077261
 21
240.2714239439185
 31
0.0
  0
LINE
  5
1B8
  8
LAYER0014
  6
CONTINUOUS
 62
     7
 10
247.6602215027847
 20
236.9999953167778
 30
0.0
 11
265.1601346077261
 21
236.9999953167778
 31
0.0
  0
LINE
  5
1B9
  8
LAYER0014
  6
CONTINUOUS
 62
     7
 10
269.4458489664257
 20
236.9999953167778
 30
0.0
 11
265.1601346077261
 21
236.9999953167778
 31
0.0
  0
INSERT
  5
1BA
  8
LAYER0014
 62
     7
  2
_OPEN30
 10
265.1601346077261
 20
236.9999953167778
 30
0.0
 41
3.571422056312886
 42
3.571438870943352
 50
180.0
  0
LINE
  5
1BB
  8
LAYER0014
  6
CONTINUOUS
 62
     7
 10
243.3745071440851
 20
236.9999953167778
 30
0.0
 11
247.6602215027847
 21
236.9999953167778
 31
0.0
  0
INSERT
  5
1BC
  8
LAYER0014
 62
     7
  2
_OPEN30
 10
247.6602215027847
 20
236.9999953167778
 30
0.0
 41
3.571422056312886
 42
3.571438870943352
 50
360.0
  0
TEXT
  5
1BD
  8
LAYER0014
 62
     7
 10
247.2673207566963
 20
237.7142810432278
 30
0.0
 40
5.714285811599422
  1
17.5
 41
1.002985074626866
  7
DCSTYLE0
 72
     5
 11
265.5530353538145
 21
237.7142810432278
 31
0.0
  0
ENDBLK
  5
FA
  8
0
  0
BLOCK
  8
0
  2
DC_IMAGEDIMGROUP_19
 70
     0
 10
0.0
 20
0.0
 30
0.0
  3
DC_IMAGEDIMGROUP_19
  1

  0
LINE
  5
1BE
  8
LAYER0014
  6
CONTINUOUS
 62
     7
 10
25.03166372148759
 20
140.0000023841858
 30
0.0
 11
6.581171638304363
 21
140.0000023841858
 31
0.0
  0
LINE
  5
1BF
  8
LAYER0014
  6
CONTINUOUS
 62
     7
 10
25.03166372148759
 20
74.0000056198666
 30
0.0
 11
6.581171638304363
 21
74.0000056198666
 31
0.0
  0
LINE
  5
1C0
  8
LAYER0014
  6
CONTINUOUS
 62
     7
 10
9.852600265445032
 20
140.0000023841858
 30
0.0
 11
9.852600265445032
 21
74.0000056198666
 31
0.0
  0
INSERT
  5
1C1
  8
LAYER0014
 62
     7
  2
_OPEN30
 10
9.852600265445032
 20
140.0000023841858
 30
0.0
 41
3.571422056312886
 42
3.571438870943352
 50
90.0
  0
INSERT
  5
1C2
  8
LAYER0014
 62
     7
  2
_OPEN30
 10
9.852600265445032
 20
74.0000056198666
 30
0.0
 41
3.571422056312886
 42
3.571438870943352
 50
270.0
  0
TEXT
  5
1C3
  8
LAYER0014
 62
     7
 10
9.138314538995104
 20
95.57143237882735
 30
0.0
 40
5.714285811599422
  1
φ66H8
 50
90.0
 41
0.8659793814432994
  7
DCSTYLE0
 72
     5
 11
9.138314538995104
 21
118.4285756252251
 31
0.0
  0
ENDBLK
  5
FD
  8
0
  0
BLOCK
  8
0
  2
DC_IMAGEDIMGROUP_20
 70
     0
 10
0.0
 20
0.0
 30
0.0
  3
DC_IMAGEDIMGROUP_20
  1

  0
LINE
  5
1C4
  8
LAYER0014
  6
CONTINUOUS
 62
     7
 10
80.03166465813202
 20
58.0000042574747
 30
0.0
 11
-13.41882870229361
 21
58.0000042574747
 31
0.0
  0
LINE
  5
1C5
  8
LAYER0014
  6
CONTINUOUS
 62
     7
 10
-10.14740007515294
 20
58.0000042574747
 30
0.0
 11
-10.14740007515294
 21
148.7500025331975
 31
0.0
  0
INSERT
  5
1C6
  8
LAYER0014
 62
     7
  2
_OPEN30
 10
-10.14740007515294
 20
58.0000042574747
 30
0.0
 41
3.571422056312886
 42
3.571438870943352
 50
270.0
  0
TEXT
  5
1C7
  8
LAYER0014
 62
     7
 10
-10.86168580160287
 20
73.66071717501909
 30
0.0
 40
5.714285811599422
  1
6-M6x8 PCD.98
 50
90.0
 41
0.8465116279069769
  7
DCSTYLE0
 72
     5
 11
-10.86168580160287
 21
133.0892896156531
 31
0.0
  0
ENDBLK
  5
100
  8
0
  0
BLOCK
  8
0
  2
DC_IMAGEDIMGROUP_21
 70
     0
 10
0.0
 20
0.0
 30
0.0
  3
DC_IMAGEDIMGROUP_21
  1

  0
LINE
  5
1C8
  8
LAYER0014
  6
CONTINUOUS
 62
     7
 10
80.03166465813202
 20
161.0000092812948
 30
0.0
 11
-23.4188288725926
 21
161.0000092812948
 31
0.0
  0
LINE
  5
1C9
  8
LAYER0014
  6
CONTINUOUS
 62
     7
 10
80.03166465813202
 20
52.99999872275759
 30
0.0
 11
-23.4188288725926
 21
52.99999872275759
 31
0.0
  0
LINE
  5
1CA
  8
LAYER0014
  6
CONTINUOUS
 62
     7
 10
-20.14740024545193
 20
161.0000092812948
 30
0.0
 11
-20.14740024545193
 21
52.99999872275759
 31
0.0
  0
INSERT
  5
1CB
  8
LAYER0014
 62
     7
  2
_OPEN30
 10
-20.14740024545193
 20
161.0000092812948
 30
0.0
 41
3.571422056312886
 42
3.571438870943352
 50
90.0
  0
INSERT
  5
1CC
  8
LAYER0014
 62
     7
  2
_OPEN30
 10
-20.14740024545193
 20
52.99999872275759
 30
0.0
 41
3.571422056312886
 42
3.571438870943352
 50
270.0
  0
TEXT
  5
1CD
  8
LAYER0014
 62
     7
 10
-20.86168597190186
 20
93.28571805418761
 30
0.0
 40
5.714285811599422
  1
φ108H7
 50
90.0
 41
0.8615384615384616
  7
DCSTYLE0
 72
     5
 11
-20.86168597190186
 21
120.7142899498648
 31
0.0
  0
ENDBLK
  5
103
  8
0
  0
BLOCK
  8
0
  2
DC_IMAGEDIMGROUP_22
 70
     0
 10
0.0
 20
0.0
 30
0.0
  3
DC_IMAGEDIMGROUP_22
  1

  0
LINE
  5
1CE
  8
LAYER0014
  6
CONTINUOUS
 62
     7
 10
80.03166465813202
 20
167.5000028525081
 30
0.0
 11
-33.41882904289159
 21
167.5000028525081
 31
0.0
  0
LINE
  5
1CF
  8
LAYER0014
  6
CONTINUOUS
 62
     7
 10
80.03166465813202
 20
46.50000515154439
 30
0.0
 11
-33.41882904289159
 21
46.50000515154439
 31
0.0
  0
LINE
  5
1D0
  8
LAYER0014
  6
CONTINUOUS
 62
     7
 10
-30.14740041575092
 20
167.5000028525081
 30
0.0
 11
-30.14740041575092
 21
46.50000515154439
 31
0.0
  0
INSERT
  5
1D1
  8
LAYER0014
 62
     7
  2
_OPEN30
 10
-30.14740041575092
 20
167.5000028525081
 30
0.0
 41
3.571422056312886
 42
3.571438870943352
 50
90.0
  0
INSERT
  5
1D2
  8
LAYER0014
 62
     7
  2
_OPEN30
 10
-30.14740041575092
 20
46.50000515154439
 30
0.0
 41
3.571422056312886
 42
3.571438870943352
 50
270.0
  0
TEXT
  5
1D3
  8
LAYER0014
 62
     7
 10
-30.86168614220085
 20
97.85714670346715
 30
0.0
 40
5.714285811599422
  1
φ121
 50
90.0
 41
0.9739130434782615
  7
DCSTYLE0
 72
     5
 11
-30.86168614220085
 21
116.1428613005853
 31
0.0
  0
ENDBLK
  5
106
  8
0
  0
BLOCK
  8
0
  2
DC_IMAGEDIMGROUP_23
 70
     0
 10
0.0
 20
0.0
 30
0.0
  3
DC_IMAGEDIMGROUP_23
  1

  0
LINE
  5
1D4
  8
LAYER0014
  6
CONTINUOUS
 62
     7
 10
87.03169965457406
 20
188.9999857800345
 30
0.0
 11
-43.41882921319058
 21
188.9999857800345
 31
0.0
  0
LINE
  5
1D5
  8
LAYER0014
  6
CONTINUOUS
 62
     7
 10
87.03169965457406
 20
25.00000860009889
 30
0.0
 11
-43.41882921319058
 21
25.00000860009889
 31
0.0
  0
LINE
  5
1D6
  8
LAYER0014
  6
CONTINUOUS
 62
     7
 10
-40.1474005860499
 20
188.9999857800345
 30
0.0
 11
-40.1474005860499
 21
25.00000860009889
 31
0.0
  0
INSERT
  5
1D7
  8
LAYER0014
 62
     7
  2
_OPEN30
 10
-40.1474005860499
 20
188.9999857800345
 30
0.0
 41
3.571422056312886
 42
3.571438870943352
 50
90.0
  0
INSERT
  5
1D8
  8
LAYER0014
 62
     7
  2
_OPEN30
 10
-40.1474005860499
 20
25.00000860009889
 30
0.0
 41
3.571422056312886
 42
3.571438870943352
 50
270.0
  0
TEXT
  5
1D9
  8
LAYER0014
 62
     7
 10
-40.86168631249983
 20
91.55713978421926
 30
0.0
 40
5.714285811599422
  1
φ164
 50
90.0
 41
0.8842105263157893
  7
DCSTYLE0
 72
     5
 11
-40.86168631249983
 21
109.8428543813374
 31
0.0
  0
TEXT
  5
1DA
  8
LAYER0014
 62
     7
 10
-44.43311494474948
 20
110.5571401077873
 30
0.0
 40
3.714285777539624
  1
 0
 50
90.0
 41
0.8842105263157903
  7
DCSTYLE0
 72
     5
 11
-44.43311494474948
 21
116.4999973518507
 31
0.0
  0
TEXT
  5
1DB
  8
LAYER0014
 62
     7
 10
-40.57597202191987
 20
110.5571401077873
 30
0.0
 40
3.714285777539624
  1
-0.1
 50
90.0
 41
1.002985074626866
  7
DCSTYLE0
 72
     5
 11
-40.57597202191987
 21
122.4428545959141
 31
0.0
  0
ENDBLK
  5
109
  8
0
  0
BLOCK
  8
0
  2
DC_IMAGEDIMGROUP_24
 70
     0
 10
0.0
 20
0.0
 30
0.0
  3
DC_IMAGEDIMGROUP_24
  1

  0
LINE
  5
1DC
  8
LAYER0014
  6
CONTINUOUS
 62
     7
 10
90.031664828431
 20
191.5000076208797
 30
0.0
 11
-53.41882938348957
 21
191.5000076208797
 31
0.0
  0
LINE
  5
1DD
  8
LAYER0014
  6
CONTINUOUS
 62
     7
 10
-50.14740075634889
 20
191.5000076208797
 30
0.0
 11
-50.14740075634889
 21
25.00000860009889
 31
0.0
  0
INSERT
  5
1DE
  8
LAYER0014
 62
     7
  2
_OPEN30
 10
-50.14740075634889
 20
191.5000076208797
 30
0.0
 41
3.571422056312886
 42
3.571438870943352
 50
90.0
  0
TEXT
  5
1DF
  8
LAYER0014
 62
     7
 10
-50.86168648279882
 20
99.10715081193021
 30
0.0
 40
5.714285811599422
  1
φ169
 50
90.0
 41
0.9081081081081086
  7
DCSTYLE0
 72
     5
 11
-50.86168648279882
 21
117.3928654090484
 31
0.0
  0
ENDBLK
  5
10C
  8
0
  0
BLOCK
  8
0
  2
DC_IMAGEDIMGROUP_25
 70
     0
 10
0.0
 20
0.0
 30
0.0
  3
DC_IMAGEDIMGROUP_25
  1

  0
LINE
  5
1E0
  8
LAYER0014
  6
CONTINUOUS
 62
     7
 10
220.6333306965373
 20
140.0000023841858
 30
0.0
 11
220.6333306965373
 21
74.0000056198666
 31
0.0
  0
INSERT
  5
1E1
  8
LAYER0014
 62
     7
  2
_OPEN30
 10
220.6333306965373
 20
140.0000023841858
 30
0.0
 41
3.571422056312886
 42
3.571438870943352
 50
90.0
  0
INSERT
  5
1E2
  8
LAYER0014
 62
     7
  2
_OPEN30
 10
220.6333306965373
 20
74.0000056198666
 30
0.0
 41
3.571422056312886
 42
3.571438870943352
 50
270.0
  0
TEXT
  5
1E3
  8
LAYER0014
 62
     7
 10
219.9190449700874
 20
95.54071810059406
 30
0.0
 40
5.714285811599422
  1
φ66
 50
90.0
 41
0.9163636363636369
  7
DCSTYLE0
 72
     5
 11
219.9190449700874
 21
109.2550040484327
 31
0.0
  0
TEXT
  5
1E4
  8
LAYER0014
 62
     7
 10
216.3476163378378
 20
109.9692897748826
 30
0.0
 40
3.714285777539624
  1
+0.5
 50
90.0
 41
0.9205479452054803
  7
DCSTYLE0
 72
     5
 11
216.3476163378378
 21
121.8550042630094
 31
0.0
  0
TEXT
  5
1E5
  8
LAYER0014
 62
     7
 10
220.2047592606674
 20
109.9692897748826
 30
0.0
 40
3.714285777539624
  1
+0.1
 50
90.0
 41
1.002985074626867
  7
DCSTYLE0
 72
     5
 11
220.2047592606674
 21
121.8550042630094
 31
0.0
  0
ENDBLK
  5
10F
  8
0
  0
BLOCK
  8
0
  2
DC_IMAGEDIMGROUP_26
 70
     0
 10
0.0
 20
0.0
 30
0.0
  3
DC_IMAGEDIMGROUP_26
  1

  0
LINE
  5
1E6
  8
LAYER0014
  6
CONTINUOUS
 62
     7
 10
273.288741051959
 20
143.0000002554485
 30
0.0
 11
295.2714248805629
 21
143.0000002554485
 31
0.0
  0
LINE
  5
1E7
  8
LAYER0014
  6
CONTINUOUS
 62
     7
 10
273.288741051959
 20
71.00000229903634
 30
0.0
 11
295.2714248805629
 21
71.00000229903634
 31
0.0
  0
LINE
  5
1E8
  8
LAYER0014
  6
CONTINUOUS
 62
     7
 10
291.9999962534222
 20
143.0000002554485
 30
0.0
 11
291.9999962534222
 21
71.00000229903634
 31
0.0
  0
INSERT
  5
1E9
  8
LAYER0014
 62
     7
  2
_OPEN30
 10
291.9999962534222
 20
143.0000002554485
 30
0.0
 41
3.571422056312886
 42
3.571438870943352
 50
90.0
  0
INSERT
  5
1EA
  8
LAYER0014
 62
     7
  2
_OPEN30
 10
291.9999962534222
 20
71.00000229903634
 30
0.0
 41
3.571422056312886
 42
3.571438870943352
 50
270.0
  0
TEXT
  5
1EB
  8
LAYER0014
 62
     7
 10
291.2857105269723
 20
88.71428668012425
 30
0.0
 40
5.714285811599422
  1
M72×P1.5
 50
90.0
 41
0.8960000000000005
  7
DCSTYLE0
 72
     5
 11
291.2857105269723
 21
125.2857158743606
 31
0.0
  0
ENDBLK
  5
112
  8
0
  0
BLOCK
  8
0
  2
DC_IMAGEDIMGROUP_27
 70
     0
 10
0.0
 20
0.0
 30
0.0
  3
DC_IMAGEDIMGROUP_27
  1

  0
LINE
  5
1EC
  8
LAYER0014
  6
CONTINUOUS
 62
     7
 10
271.2887061406665
 20
154.5000048109464
 30
0.0
 11
305.2714250508619
 21
154.5000048109464
 31
0.0
  0
LINE
  5
1ED
  8
LAYER0014
  6
CONTINUOUS
 62
     7
 10
271.2887061406665
 20
59.49999774353841
 30
0.0
 11
305.2714250508619
 21
59.49999774353841
 31
0.0
  0
LINE
  5
1EE
  8
LAYER0014
  6
CONTINUOUS
 62
     7
 10
301.9999964237213
 20
154.5000048109464
 30
0.0
 11
301.9999964237213
 21
59.49999774353841
 31
0.0
  0
INSERT
  5
1EF
  8
LAYER0014
 62
     7
  2
_OPEN30
 10
301.9999964237213
 20
154.5000048109464
 30
0.0
 41
3.571422056312886
 42
3.571438870943352
 50
90.0
  0
INSERT
  5
1F0
  8
LAYER0014
 62
     7
  2
_OPEN30
 10
301.9999964237213
 20
59.49999774353841
 30
0.0
 41
3.571422056312886
 42
3.571438870943352
 50
270.0
  0
TEXT
  5
1F1
  8
LAYER0014
 62
     7
 10
301.2857106972713
 20
100.1428583033231
 30
0.0
 40
5.714285811599422
  1
φ95
 50
90.0
 41
0.916363636363633
  7
DCSTYLE0
 72
     5
 11
301.2857106972713
 21
113.8571442511617
 31
0.0
  0
ENDBLK
  5
115
  8
0
  0
BLOCK
  8
0
  2
DC_IMAGEDIMGROUP_28
 70
     0
 10
0.0
 20
0.0
 30
0.0
  3
DC_IMAGEDIMGROUP_28
  1

  0
LINE
  5
1F2
  8
LAYER0014
  6
CONTINUOUS
 62
     7
 10
259.2887582521568
 20
159.5000048960959
 30
0.0
 11
315.2714252211609
 21
159.5000048960959
 31
0.0
  0
LINE
  5
1F3
  8
LAYER0014
  6
CONTINUOUS
 62
     7
 10
259.2887582521568
 20
54.50000310795653
 30
0.0
 11
315.2714252211609
 21
54.50000310795653
 31
0.0
  0
LINE
  5
1F4
  8
LAYER0014
  6
CONTINUOUS
 62
     7
 10
311.9999965940202
 20
159.5000048960959
 30
0.0
 11
311.9999965940202
 21
54.50000310795653
 31
0.0
  0
INSERT
  5
1F5
  8
LAYER0014
 62
     7
  2
_OPEN30
 10
311.9999965940202
 20
159.5000048960959
 30
0.0
 41
3.571422056312886
 42
3.571438870943352
 50
90.0
  0
INSERT
  5
1F6
  8
LAYER0014
 62
     7
  2
_OPEN30
 10
311.9999965940202
 20
54.50000310795653
 30
0.0
 41
3.571422056312886
 42
3.571438870943352
 50
270.0
  0
TEXT
  5
1F7
  8
LAYER0014
 62
     7
 10
311.2857108675703
 20
97.85714670346714
 30
0.0
 40
5.714285811599422
  1
φ105
 50
90.0
 41
0.8960000000000005
  7
DCSTYLE0
 72
     5
 11
311.2857108675703
 21
116.1428613005853
 31
0.0
  0
ENDBLK
  5
118
  8
0
  0
BLOCK
  8
0
  2
DC_IMAGEDIMGROUP_29
 70
     0
 10
0.0
 20
0.0
 30
0.0
  3
DC_IMAGEDIMGROUP_29
  1

  0
LINE
  5
1F8
  8
LAYER0014
  6
CONTINUOUS
 62
     7
 10
258.588772191129
 20
186.9999944652829
 30
0.0
 11
325.2714253914599
 21
186.9999944652829
 31
0.0
  0
LINE
  5
1F9
  8
LAYER0014
  6
CONTINUOUS
 62
     7
 10
258.588772191129
 20
26.99999991485051
 30
0.0
 11
325.2714253914599
 21
26.99999991485051
 31
0.0
  0
LINE
  5
1FA
  8
LAYER0014
  6
CONTINUOUS
 62
     7
 10
321.9999967643192
 20
186.9999944652829
 30
0.0
 11
321.9999967643192
 21
26.99999991485051
 31
0.0
  0
INSERT
  5
1FB
  8
LAYER0014
 62
     7
  2
_OPEN30
 10
321.9999967643192
 20
186.9999944652829
 30
0.0
 41
3.571422056312886
 42
3.571438870943352
 50
90.0
  0
INSERT
  5
1FC
  8
LAYER0014
 62
     7
  2
_OPEN30
 10
321.9999967643192
 20
26.99999991485051
 30
0.0
 41
3.571422056312886
 42
3.571438870943352
 50
270.0
  0
TEXT
  5
1FD
  8
LAYER0014
 62
     7
 10
321.2857110378693
 20
93.28571124222807
 30
0.0
 40
5.714285811599422
  1
φ160ｈ7
 50
90.0
 41
0.892035398230089
  7
DCSTYLE0
 72
     5
 11
321.2857110378693
 21
120.7142831379053
 31
0.0
  0
ENDBLK
  5
11B
  8
0
  0
BLOCK
  8
0
  2
DC_IMAGEDIMGROUP_30
 70
     0
 10
0.0
 20
0.0
 30
0.0
  3
DC_IMAGEDIMGROUP_30
  1

  0
LINE
  5
1FE
  8
LAYER0014
  6
CONTINUOUS
 62
     7
 10
273.4650454634436
 20
204.4999947633061
 30
0.0
 11
335.2714255617589
 21
204.4999947633061
 31
0.0
  0
LINE
  5
1FF
  8
LAYER0014
  6
CONTINUOUS
 62
     7
 10
331.9999969346182
 20
204.4999947633061
 30
0.0
 11
331.9999969346182
 21
26.99999991485051
 31
0.0
  0
INSERT
  5
200
  8
LAYER0014
 62
     7
  2
_OPEN30
 10
331.9999969346182
 20
204.4999947633061
 30
0.0
 41
3.571422056312886
 42
3.571438870943352
 50
90.0
  0
TEXT
  5
201
  8
LAYER0014
 62
     7
 10
331.2857112081683
 20
86.03571111876133
 30
0.0
 40
5.714285811599422
  1
6-M10 PCD.195
 50
90.0
 41
0.8367816091954019
  7
DCSTYLE0
 72
     5
 11
331.2857112081683
 21
145.4642835593953
 31
0.0
  0
ENDBLK
  5
11E
  8
0
  0
BLOCK
  8
0
  2
DC_IMAGEDIMGROUP_31
 70
     0
 10
0.0
 20
0.0
 30
0.0
  3
DC_IMAGEDIMGROUP_31
  1

  0
LINE
  5
202
  8
LAYER0014
  6
CONTINUOUS
 62
     7
 10
250.2888627305859
 20
213.4999774779589
 30
0.0
 11
345.2714257320579
 21
213.4999774779589
 31
0.0
  0
LINE
  5
203
  8
LAYER0014
  6
CONTINUOUS
 62
     7
 10
250.2887755375041
 20
0.5000105159625073
 30
0.0
 11
345.2714257320579
 21
0.5000105159625073
 31
0.0
  0
LINE
  5
204
  8
LAYER0014
  6
CONTINUOUS
 62
     7
 10
341.9999971049172
 20
213.4999774779589
 30
0.0
 11
341.9999971049172
 21
0.5000105159625073
 31
0.0
  0
INSERT
  5
205
  8
LAYER0014
 62
     7
  2
_OPEN30
 10
341.9999971049172
 20
213.4999774779589
 30
0.0
 41
3.571422056312886
 42
3.571438870943352
 50
90.0
  0
INSERT
  5
206
  8
LAYER0014
 62
     7
  2
_OPEN30
 10
341.9999971049172
 20
0.5000105159625073
 30
0.0
 41
3.571422056312886
 42
3.571438870943352
 50
270.0
  0
TEXT
  5
207
  8
LAYER0014
 62
     7
 10
341.2857113784673
 20
97.8571366984016
 30
0.0
 40
5.714285811599422
  1
φ213
 50
90.0
 41
0.8960000000000005
  7
DCSTYLE0
 72
     5
 11
341.2857113784673
 21
116.1428512955198
 31
0.0
  0
ENDBLK
  5
121
  8
0
  0
BLOCK
  8
0
  2
DC_IMAGEDIMGROUP_32
 70
     0
 10
0.0
 20
0.0
 30
0.0
  3
DC_IMAGEDIMGROUP_32
  1

  0
LINE
  5
208
  8
LAYER0014
  6
CONTINUOUS
 62
     7
 10
244.6602563289277
 20
87.00000366142824
 30
0.0
 11
269.6601695615934
 21
87.00000366142824
 31
0.0
  0
INSERT
  5
209
  8
LAYER0014
 62
     7
  2
_OPEN30
 10
244.6602563289277
 20
87.00000366142824
 30
0.0
 41
3.571422056312886
 42
3.571438870943352
 50
180.0
  0
INSERT
  5
20A
  8
LAYER0014
 62
     7
  2
_OPEN30
 10
269.6601695615934
 20
87.00000366142824
 30
0.0
 41
3.571422056312886
 42
3.571438870943352
 50
360.0
  0
TEXT
  5
20B
  8
LAYER0014
 62
     7
 10
252.588784295981
 20
87.71428938787817
 30
0.0
 40
5.714285811599422
  1
25
 41
0.9081081081081086
  7
DCSTYLE0
 72
     5
 11
261.7316415945401
 21
87.71428938787817
 31
0.0
  0
ENDBLK
  5
124
  8
0
  0
BLOCK
  8
0
  2
DC_IMAGEDIMGROUP_33
 70
     0
 10
0.0
 20
0.0
 30
0.0
  3
DC_IMAGEDIMGROUP_33
  1

  0
LINE
  5
20C
  8
LAYER0014
  6
CONTINUOUS
 62
     7
 10
90.66027114493968
 20
21.37143710973326
 30
0.0
 11
90.66027114493968
 21
-143.2714310113265
 31
0.0
  0
LINE
  5
20D
  8
LAYER0014
  6
CONTINUOUS
 62
     7
 10
247.6602215027847
 20
-2.128558590217294
 30
0.0
 11
247.6602215027847
 21
-143.2714310113265
 31
0.0
  0
LINE
  5
20E
  8
LAYER0014
  6
CONTINUOUS
 62
     7
 10
90.66027114493968
 20
-140.0000023841858
 30
0.0
 11
247.6602215027847
 21
-140.0000023841858
 31
0.0
  0
INSERT
  5
20F
  8
LAYER0014
 62
     7
  2
_OPEN30
 10
90.66027114493968
 20
-140.0000023841858
 30
0.0
 41
3.571422056312886
 42
3.571438870943352
 50
180.0
  0
INSERT
  5
210
  8
LAYER0014
 62
     7
  2
_OPEN30
 10
247.6602215027847
 20
-140.0000023841858
 30
0.0
 41
3.571422056312886
 42
3.571438870943352
 50
360.0
  0
TEXT
  5
211
  8
LAYER0014
 62
     7
 10
162.3031033499429
 20
-139.2857166577359
 30
0.0
 40
5.714285811599422
  1
157
 41
0.88421052631579
  7
DCSTYLE0
 72
     5
 11
176.0173892977815
 21
-139.2857166577359
 31
0.0
  0
ENDBLK
  5
127
  8
0
  0
BLOCK
  8
0
  2
DC_IMAGEDIMGROUP_34
 70
     0
 10
0.0
 20
0.0
 30
0.0
  3
DC_IMAGEDIMGROUP_34
  1

  0
LINE
  5
212
  8
LAYER0014
  6
CONTINUOUS
 62
     7
 10
132.6602195443463
 20
-111.3134226545849
 30
0.0
 11
132.6602195443463
 21
-123.2714306707285
 31
0.0
  0
LINE
  5
213
  8
LAYER0014
  6
CONTINUOUS
 62
     7
 10
247.6602215027847
 20
-2.128558590217294
 30
0.0
 11
247.6602215027847
 21
-123.2714306707285
 31
0.0
  0
LINE
  5
214
  8
LAYER0014
  6
CONTINUOUS
 62
     7
 10
132.6602195443463
 20
-120.0000020435879
 30
0.0
 11
247.6602215027847
 21
-120.0000020435879
 31
0.0
  0
INSERT
  5
215
  8
LAYER0014
 62
     7
  2
_OPEN30
 10
132.6602195443463
 20
-120.0000020435879
 30
0.0
 41
3.571422056312886
 42
3.571438870943352
 50
180.0
  0
INSERT
  5
216
  8
LAYER0014
 62
     7
  2
_OPEN30
 10
247.6602215027847
 20
-120.0000020435879
 30
0.0
 41
3.571422056312886
 42
3.571438870943352
 50
360.0
  0
TEXT
  5
217
  8
LAYER0014
 62
     7
 10
183.3030775496462
 20
-119.2857163171379
 30
0.0
 40
5.714285811599422
  1
115
 41
0.88421052631579
  7
DCSTYLE0
 72
     5
 11
197.0173634974848
 21
-119.2857163171379
 31
0.0
  0
ENDBLK
  5
12A
  8
0
  0
BLOCK
  8
0
  2
DC_GROUP_7
 70
     0
 10
0.0
 20
0.0
 30
0.0
  3
DC_GROUP_7
  1

  0
CIRCLE
  5
218
  8
LAYER0014
  6
CONTINUOUS
 62
     2
 10
127.1602543279146
 20
248.9307118983049
 30
0.0
 40
4.0
  0
TEXT
  5
219
  8
LAYER0014
 62
     3
 10
125.5273971477133
 20
246.9307118983049
 30
0.0
 40
4.0
  1
押
 41
1.143000026140894
  7
DCSTYLE0
 72
     5
 11
128.7931115081159
 21
246.9307118983049
 31
0.0
  0
ENDBLK
  5
12D
  8
0
  0
BLOCK
  8
0
  2
DC_GROUP_8
 70
     0
 10
0.0
 20
0.0
 30
0.0
  3
DC_GROUP_8
  1

  0
CIRCLE
  5
21A
  8
LAYER0014
  6
CONTINUOUS
 62
     2
 10
142.1602545833631
 20
248.9307118983049
 30
0.0
 40
4.0
  0
TEXT
  5
21B
  8
LAYER0014
 62
     3
 10
140.5273974031618
 20
246.9307118983049
 30
0.0
 40
4.0
  1
引
 41
1.143000026140899
  7
DCSTYLE0
 72
     5
 11
143.7931117635644
 21
246.9307118983049
 31
0.0
  0
ENDBLK
  5
130
  8
0
  0
BLOCK
  8
0
  2
DC_IMAGEDIMGROUP_35
 70
     0
 10
0.0
 20
0.0
 30
0.0
  3
DC_IMAGEDIMGROUP_35
  1

  0
LINE
  5
21C
  8
LAYER0014
  6
CONTINUOUS
 62
     7
 10
53.66023563760069
 20
70.62857481119589
 30
0.0
 11
53.66023563760069
 21
96.39731304300363
 31
0.0
  0
LINE
  5
21D
  8
LAYER0014
  6
CONTINUOUS
 62
     7
 10
115.6602715706871
 20
77.62858255979985
 30
0.0
 11
115.6602715706871
 21
96.39731304300363
 31
0.0
  0
LINE
  5
21E
  8
LAYER0014
  6
CONTINUOUS
 62
     7
 10
53.66023563760069
 20
93.12588441586297
 30
0.0
 11
115.6602715706871
 21
93.12588441586297
 31
0.0
  0
INSERT
  5
21F
  8
LAYER0014
 62
     7
  2
_OPEN30
 10
53.66023563760069
 20
93.12588441586297
 30
0.0
 41
3.571422056312886
 42
3.571438870943352
 50
180.0
  0
INSERT
  5
220
  8
LAYER0014
 62
     7
  2
_OPEN30
 10
115.6602715706871
 20
93.12588441586297
 30
0.0
 41
3.571422056312886
 42
3.571438870943352
 50
360.0
  0
TEXT
  5
221
  8
LAYER0014
 62
     7
 10
80.08882495486438
 20
93.8401701423129
 30
0.0
 40
5.714285811599422
  1
62
 41
0.9081081081081086
  7
DCSTYLE0
 72
     5
 11
89.23168225342346
 21
93.8401701423129
 31
0.0
  0
ENDBLK
  5
133
  8
0
  0
BLOCK
  8
0
  2
DC_IMAGEDIMGROUP_36
 70
     0
 10
0.0
 20
0.0
 30
0.0
  3
DC_IMAGEDIMGROUP_36
  1

  0
LINE
  5
222
  8
LAYER0014
  6
CONTINUOUS
 62
     7
 10
25.03166372148759
 20
148.4999981692859
 30
0.0
 11
-3.418828531994624
 21
148.4999981692859
 31
0.0
  0
LINE
  5
223
  8
LAYER0014
  6
CONTINUOUS
 62
     7
 10
25.03166372148759
 20
65.50000438519893
 30
0.0
 11
-3.418828531994624
 21
65.50000438519893
 31
0.0
  0
LINE
  5
224
  8
LAYER0014
  6
CONTINUOUS
 62
     7
 10
-0.1473999048539554
 20
148.4999981692859
 30
0.0
 11
-0.1473999048539554
 21
65.50000438519893
 31
0.0
  0
INSERT
  5
225
  8
LAYER0014
 62
     7
  2
_OPEN30
 10
-0.1473999048539554
 20
148.4999981692859
 30
0.0
 41
3.571422056312886
 42
3.571438870943352
 50
90.0
  0
INSERT
  5
226
  8
LAYER0014
 62
     7
  2
_OPEN30
 10
-0.1473999048539554
 20
65.50000438519893
 30
0.0
 41
3.571422056312886
 42
3.571438870943352
 50
270.0
  0
TEXT
  5
227
  8
LAYER0014
 62
     7
 10
-0.8616856313038821
 20
88.71428668012425
 30
0.0
 40
5.714285811599422
  1
M82×P2.0
 50
90.0
 41
0.8960000000000005
  7
DCSTYLE0
 72
     5
 11
-0.8616856313038821
 21
125.2857158743606
 31
0.0
  0
ENDBLK
  5
136
  8
0
  0
BLOCK
  8
0
  2
DC_IMAGEDIMGROUP_37
 70
     0
 10
0.0
 20
0.0
 30
0.0
  3
DC_IMAGEDIMGROUP_37
  1

  0
LINE
  5
228
  8
LAYER0014
  6
CONTINUOUS
 62
     7
 10
90.66027114493968
 20
21.37143710973326
 30
0.0
 11
90.66027114493968
 21
-133.2714308410275
 31
0.0
  0
LINE
  5
229
  8
LAYER0014
  6
CONTINUOUS
 62
     7
 10
165.160220097818
 20
-7.392516316558911
 30
0.0
 11
165.160220097818
 21
-133.2714308410275
 31
0.0
  0
LINE
  5
22A
  8
LAYER0014
  6
CONTINUOUS
 62
     7
 10
90.66027114493968
 20
-130.0000022138868
 30
0.0
 11
165.160220097818
 21
-130.0000022138868
 31
0.0
  0
INSERT
  5
22B
  8
LAYER0014
 62
     7
  2
_OPEN30
 10
90.66027114493968
 20
-130.0000022138868
 30
0.0
 41
3.571422056312886
 42
3.571438870943352
 50
180.0
  0
INSERT
  5
22C
  8
LAYER0014
 62
     7
  2
_OPEN30
 10
165.160220097818
 20
-130.0000022138868
 30
0.0
 41
3.571422056312886
 42
3.571438870943352
 50
360.0
  0
TEXT
  5
22D
  8
LAYER0014
 62
     7
 10
118.7673883228198
 20
-129.2857164874369
 30
0.0
 40
5.714285811599422
  1
74.5
 41
1.002985074626866
  7
DCSTYLE0
 72
     5
 11
137.0531029199379
 21
-129.2857164874369
 31
0.0
  0
ENDBLK
  5
139
  8
0
  0
BLOCK
  8
0
  2
DC_IMAGEDIMGROUP_38
 70
     0
 10
0.0
 20
0.0
 30
0.0
  3
DC_IMAGEDIMGROUP_38
  1

  0
LINE
  5
22E
  8
LAYER0014
  6
CONTINUOUS
 62
     7
 10
167.6602201403928
 20
-5.628562805117246
 30
0.0
 11
167.6602201403928
 21
-133.2714308410275
 31
0.0
  0
LINE
  5
22F
  8
LAYER0014
  6
CONTINUOUS
 62
     7
 10
247.6602215027847
 20
-2.128558590217294
 30
0.0
 11
247.6602215027847
 21
-133.2714308410275
 31
0.0
  0
LINE
  5
230
  8
LAYER0014
  6
CONTINUOUS
 62
     7
 10
167.6602201403928
 20
-130.0000022138868
 30
0.0
 11
247.6602215027847
 21
-130.0000022138868
 31
0.0
  0
INSERT
  5
231
  8
LAYER0014
 62
     7
  2
_OPEN30
 10
167.6602201403928
 20
-130.0000022138868
 30
0.0
 41
3.571422056312886
 42
3.571438870943352
 50
180.0
  0
INSERT
  5
232
  8
LAYER0014
 62
     7
  2
_OPEN30
 10
247.6602215027847
 20
-130.0000022138868
 30
0.0
 41
3.571422056312886
 42
3.571438870943352
 50
360.0
  0
TEXT
  5
233
  8
LAYER0014
 62
     7
 10
203.0887921723092
 20
-129.2857164874369
 30
0.0
 40
5.714285811599422
  1
80
 41
0.9081081081081086
  7
DCSTYLE0
 72
     5
 11
212.2316494708683
 21
-129.2857164874369
 31
0.0
  0
ENDBLK
  5
13C
  8
0
  0
BLOCK
  8
0
  2
DC_IMAGEDIMGROUP_39
 70
     0
 10
0.0
 20
0.0
 30
0.0
  3
DC_IMAGEDIMGROUP_39
  1

  0
LINE
  5
234
  8
LAYER0014
  6
CONTINUOUS
 62
     7
 10
53.66023563760069
 20
69.12857587556456
 30
0.0
 11
53.66023563760069
 21
85.610498850865
 31
0.0
  0
LINE
  5
235
  8
LAYER0014
  6
CONTINUOUS
 62
     7
 10
109.6602540298914
 20
71.12857808945141
 30
0.0
 11
109.6602540298914
 21
85.610498850865
 31
0.0
  0
LINE
  5
236
  8
LAYER0014
  6
CONTINUOUS
 62
     7
 10
53.66023563760069
 20
82.33907022372433
 30
0.0
 11
109.6602540298914
 21
82.33907022372433
 31
0.0
  0
INSERT
  5
237
  8
LAYER0014
 62
     7
  2
_OPEN30
 10
53.66023563760069
 20
82.33907022372433
 30
0.0
 41
3.571422056312886
 42
3.571438870943352
 50
180.0
  0
INSERT
  5
238
  8
LAYER0014
 62
     7
  2
_OPEN30
 10
109.6602540298914
 20
82.33907022372433
 30
0.0
 41
3.571422056312886
 42
3.571438870943352
 50
360.0
  0
TEXT
  5
239
  8
LAYER0014
 62
     7
 10
77.0888161844665
 20
83.05335595017426
 30
0.0
 40
5.714285811599422
  1
56
 41
0.9081081081081086
  7
DCSTYLE0
 72
     5
 11
86.23167348302557
 21
83.05335595017426
 31
0.0
  0
ENDBLK
  5
13F
  8
0
  0
BLOCK
  8
0
  2
_OPEN30
 70
     0
 10
0.0
 20
0.0
 30
0.0
  3
_OPEN30
  1

  0
LINE
  5
148
  8
0
  6
BYBLOCK
 62
     0
 10
-1.0
 20
0.267949
 30
0.0
 11
0.0
 21
0.0
 31
0.0
  0
LINE
  5
149
  8
0
  6
BYBLOCK
 62
     0
 10
0.0
 20
0.0
 30
0.0
 11
-1.0
 21
-0.267949
 31
0.0
  0
LINE
  5
14A
  8
0
  6
BYBLOCK
 62
     0
 10
0.0
 20
0.0
 30
0.0
 11
-1.0
 21
0.0
 31
0.0
  0
ENDBLK
  5
147
  8
0
  0
BLOCK
  8
0
  2
*U49
 70
     1
 10
0.0
 20
0.0
 30
0.0
  3
*U49
  1

  0
SOLID
  5
8F5
  8
0
  6
CONTINUOUS
 62
     5
 10
-310.8226252575298
 20
-232.9224080983366
 30
0.0
 11
-310.8226252575298
 21
-232.7618911268626
 31
0.0
 12
-310.7573371233958
 22
-233.0690476485012
 32
0.0
 13
-310.7573371233958
 23
-233.0690476485012
 33
0.0
  0
SOLID
  5
8F6
  8
0
  6
CONTINUOUS
 62
     5
 10
-310.7573371233958
 20
-233.0690476485012
 30
0.0
 11
-310.8226252575298
 21
-232.7618911268626
 31
0.0
 12
-310.7573371233958
 22
-232.615251576698
 32
0.0
 13
-310.7573371233958
 23
-232.615251576698
 33
0.0
  0
SOLID
  5
8F7
  8
0
  6
CONTINUOUS
 62
     5
 10
-310.7573371233958
 20
-233.0690476485012
 30
0.0
 11
-310.7573371233958
 21
-232.615251576698
 31
0.0
 12
-310.6380497666435
 22
-233.1764544669545
 32
0.0
 13
-310.6380497666435
 23
-233.1764544669545
 33
0.0
  0
SOLID
  5
8F8
  8
0
  6
CONTINUOUS
 62
     5
 10
-310.6380497666435
 20
-233.1764544669545
 30
0.0
 11
-310.7573371233958
 21
-232.615251576698
 31
0.0
 12
-310.6380497666435
 22
-232.5078447582447
 32
0.0
 13
-310.6380497666435
 23
-232.5078447582447
 33
0.0
  0
SOLID
  5
8F9
  8
0
  6
CONTINUOUS
 62
     5
 10
-310.6380497666435
 20
-233.1764544669545
 30
0.0
 11
-310.6380497666435
 21
-232.5078447582447
 31
0.0
 12
-310.4853890549472
 22
-233.2260569390255
 32
0.0
 13
-310.4853890549472
 23
-233.2260569390255
 33
0.0
  0
SOLID
  5
8FA
  8
0
  6
CONTINUOUS
 62
     5
 10
-310.4853890549472
 20
-233.2260569390255
 30
0.0
 11
-310.6380497666435
 21
-232.5078447582447
 31
0.0
 12
-310.4853890549472
 22
-232.4582422861737
 32
0.0
 13
-310.4853890549472
 23
-232.4582422861737
 33
0.0
  0
SOLID
  5
8FB
  8
0
  6
CONTINUOUS
 62
     5
 10
-310.4853890549472
 20
-233.2260569390255
 30
0.0
 11
-310.4853890549472
 21
-232.4582422861737
 31
0.0
 12
-310.3257514122382
 22
-233.209278346669
 32
0.0
 13
-310.3257514122382
 23
-233.209278346669
 33
0.0
  0
SOLID
  5
8FC
  8
0
  6
CONTINUOUS
 62
     5
 10
-310.3257514122382
 20
-233.209278346669
 30
0.0
 11
-310.4853890549472
 21
-232.4582422861737
 31
0.0
 12
-310.3257514122382
 22
-232.4750208785302
 32
0.0
 13
-310.3257514122382
 23
-232.4750208785302
 33
0.0
  0
SOLID
  5
8FD
  8
0
  6
CONTINUOUS
 62
     5
 10
-310.3257514122382
 20
-233.209278346669
 30
0.0
 11
-310.3257514122382
 21
-232.4750208785302
 31
0.0
 12
-310.1867396372031
 22
-233.129019860932
 32
0.0
 13
-310.1867396372031
 23
-233.129019860932
 33
0.0
  0
SOLID
  5
8FE
  8
0
  6
CONTINUOUS
 62
     5
 10
-310.1867396372031
 20
-233.129019860932
 30
0.0
 11
-310.3257514122382
 21
-232.4750208785302
 31
0.0
 12
-310.1867396372031
 22
-232.5552793642672
 32
0.0
 13
-310.1867396372031
 23
-232.5552793642672
 33
0.0
  0
SOLID
  5
8FF
  8
0
  6
CONTINUOUS
 62
     5
 10
-310.1867396372031
 20
-233.129019860932
 30
0.0
 11
-310.1867396372031
 21
-232.5552793642672
 31
0.0
 12
-310.092390128628
 22
-232.9991589031239
 32
0.0
 13
-310.092390128628
 23
-232.9991589031239
 33
0.0
  0
SOLID
  5
900
  8
0
  6
CONTINUOUS
 62
     5
 10
-310.092390128628
 20
-232.9991589031239
 30
0.0
 11
-310.1867396372031
 21
-232.5552793642672
 31
0.0
 12
-310.092390128628
 22
-232.6851403220753
 32
0.0
 13
-310.092390128628
 23
-232.6851403220753
 33
0.0
  0
SOLID
  5
901
  8
0
  6
CONTINUOUS
 62
     5
 10
-310.092390128628
 20
-232.9991589031239
 30
0.0
 11
-310.092390128628
 21
-232.6851403220753
 31
0.0
 12
-310.0590167736839
 22
-232.8421496125996
 32
0.0
 13
-310.0590167736839
 23
-232.8421496125996
 33
0.0
  0
ENDBLK
  5
911
  8
0
  0
BLOCK
  8
0
  2
*U50
 70
     1
 10
0.0
 20
0.0
 30
0.0
  3
*U50
  1

  0
SOLID
  5
903
  8
0
  6
CONTINUOUS
 62
     5
 10
-306.1903183985081
 20
-232.9224080983366
 30
0.0
 11
-306.1903183985081
 21
-232.7618911268626
 31
0.0
 12
-306.1250302643741
 22
-233.0690476485012
 32
0.0
 13
-306.1250302643741
 23
-233.0690476485012
 33
0.0
  0
SOLID
  5
904
  8
0
  6
CONTINUOUS
 62
     5
 10
-306.1250302643741
 20
-233.0690476485012
 30
0.0
 11
-306.1903183985081
 21
-232.7618911268626
 31
0.0
 12
-306.1250302643741
 22
-232.615251576698
 32
0.0
 13
-306.1250302643741
 23
-232.615251576698
 33
0.0
  0
SOLID
  5
905
  8
0
  6
CONTINUOUS
 62
     5
 10
-306.1250302643741
 20
-233.0690476485012
 30
0.0
 11
-306.1250302643741
 21
-232.615251576698
 31
0.0
 12
-306.0057429076219
 22
-233.1764544669545
 32
0.0
 13
-306.0057429076219
 23
-233.1764544669545
 33
0.0
  0
SOLID
  5
906
  8
0
  6
CONTINUOUS
 62
     5
 10
-306.0057429076219
 20
-233.1764544669545
 30
0.0
 11
-306.1250302643741
 21
-232.615251576698
 31
0.0
 12
-306.0057429076219
 22
-232.5078447582447
 32
0.0
 13
-306.0057429076219
 23
-232.5078447582447
 33
0.0
  0
SOLID
  5
907
  8
0
  6
CONTINUOUS
 62
     5
 10
-306.0057429076219
 20
-233.1764544669545
 30
0.0
 11
-306.0057429076219
 21
-232.5078447582447
 31
0.0
 12
-305.8530821959256
 22
-233.2260569390255
 32
0.0
 13
-305.8530821959256
 23
-233.2260569390255
 33
0.0
  0
SOLID
  5
908
  8
0
  6
CONTINUOUS
 62
     5
 10
-305.8530821959256
 20
-233.2260569390255
 30
0.0
 11
-306.0057429076219
 21
-232.5078447582447
 31
0.0
 12
-305.8530821959256
 22
-232.4582422861737
 32
0.0
 13
-305.8530821959256
 23
-232.4582422861737
 33
0.0
  0
SOLID
  5
909
  8
0
  6
CONTINUOUS
 62
     5
 10
-305.8530821959256
 20
-233.2260569390255
 30
0.0
 11
-305.8530821959256
 21
-232.4582422861737
 31
0.0
 12
-305.6934445532165
 22
-233.209278346669
 32
0.0
 13
-305.6934445532165
 23
-233.209278346669
 33
0.0
  0
SOLID
  5
90A
  8
0
  6
CONTINUOUS
 62
     5
 10
-305.6934445532165
 20
-233.209278346669
 30
0.0
 11
-305.8530821959256
 21
-232.4582422861737
 31
0.0
 12
-305.6934445532165
 22
-232.4750208785302
 32
0.0
 13
-305.6934445532165
 23
-232.4750208785302
 33
0.0
  0
SOLID
  5
90B
  8
0
  6
CONTINUOUS
 62
     5
 10
-305.6934445532165
 20
-233.209278346669
 30
0.0
 11
-305.6934445532165
 21
-232.4750208785302
 31
0.0
 12
-305.5544327781815
 22
-233.129019860932
 32
0.0
 13
-305.5544327781815
 23
-233.129019860932
 33
0.0
  0
SOLID
  5
90C
  8
0
  6
CONTINUOUS
 62
     5
 10
-305.5544327781815
 20
-233.129019860932
 30
0.0
 11
-305.6934445532165
 21
-232.4750208785302
 31
0.0
 12
-305.5544327781815
 22
-232.5552793642672
 32
0.0
 13
-305.5544327781815
 23
-232.5552793642672
 33
0.0
  0
SOLID
  5
90D
  8
0
  6
CONTINUOUS
 62
     5
 10
-305.5544327781815
 20
-233.129019860932
 30
0.0
 11
-305.5544327781815
 21
-232.5552793642672
 31
0.0
 12
-305.4600832696064
 22
-232.9991589031239
 32
0.0
 13
-305.4600832696064
 23
-232.9991589031239
 33
0.0
  0
SOLID
  5
90E
  8
0
  6
CONTINUOUS
 62
     5
 10
-305.4600832696064
 20
-232.9991589031239
 30
0.0
 11
-305.5544327781815
 21
-232.5552793642672
 31
0.0
 12
-305.4600832696064
 22
-232.6851403220753
 32
0.0
 13
-305.4600832696064
 23
-232.6851403220753
 33
0.0
  0
SOLID
  5
90F
  8
0
  6
CONTINUOUS
 62
     5
 10
-305.4600832696064
 20
-232.9991589031239
 30
0.0
 11
-305.4600832696064
 21
-232.6851403220753
 31
0.0
 12
-305.4267099146623
 22
-232.8421496125996
 32
0.0
 13
-305.4267099146623
 23
-232.8421496125996
 33
0.0
  0
ENDBLK
  5
913
  8
0
  0
ENDSEC
  0
SECTION
  2
ENTITIES
  0
LINE
  5
23A
  8
0
  6
DIVIDE
 62
     3
 10
-419.9579800871097
 20
-296.9400074982644
 30
0.0
 11
419.9580236836505
 21
-296.9400074982644
 31
0.0
  0
LINE
  5
23B
  8
0
  6
DIVIDE
 62
     3
 10
419.9580236836505
 20
296.9400074982644
 30
0.0
 11
419.9580236836505
 21
-296.9400074982644
 31
0.0
  0
LINE
  5
23C
  8
0
  6
CENTER
 62
     3
 10
84.57000876443742
 20
155.0000026396343
 30
0.0
 11
99.47339908520493
 21
155.0000026396343
 31
0.0
  0
LINE
  5
23D
  8
0
  6
CONTINUOUS
 62
     3
 10
92.16025373186817
 20
152.8000012942723
 30
0.0
 11
98.50389920820336
 21
152.8000012942723
 31
0.0
  0
LINE
  5
23E
  8
0
  6
CONTINUOUS
 62
     3
 10
92.16025373186817
 20
157.2000039849963
 30
0.0
 11
95.22169002842375
 21
157.2000039849963
 31
0.0
  0
LINE
  5
23F
  8
0
  6
CONTINUOUS
 62
     3
 10
53.81020773836898
 20
147.1499985822609
 30
0.0
 11
105.6602714003882
 21
147.1499985822609
 31
0.0
  0
LINE
  5
240
  8
0
  6
CONTINUOUS
 62
     3
 10
53.81020773836898
 20
66.85000942179151
 30
0.0
 11
105.6602714003882
 21
66.85000942179151
 31
0.0
  0
LINE
  5
241
  8
0
  6
CONTINUOUS
 62
     3
 10
-390.2639836969373
 20
-277.1439953726359
 30
0.0
 11
402.9899883779456
 21
-277.1439953726359
 31
0.0
  0
LINE
  5
242
  8
0
  6
CONTINUOUS
 62
     3
 10
148.4700691439436
 20
-257.3480050452778
 30
0.0
 11
402.9899883779456
 21
-257.3480050452778
 31
0.0
  0
LINE
  5
243
  8
0
  6
CONTINUOUS
 62
     3
 10
217.7560461888321
 20
-237.5520147179197
 30
0.0
 11
402.5262955687097
 21
-237.5520147179197
 31
0.0
  0
LINE
  5
244
  8
0
  6
CONTINUOUS
 62
     3
 10
217.7560461888321
 20
-217.7560025922912
 30
0.0
 11
371.8820253760819
 21
-217.7560025922912
 31
0.0
  0
LINE
  5
245
  8
0
  6
CONTINUOUS
 62
     3
 10
217.7560461888321
 20
-203.6160095013211
 30
0.0
 11
402.9899883779456
 21
-203.6160095013211
 31
0.0
  0
LINE
  5
246
  8
0
  6
CONTINUOUS
 62
     3
 10
148.4700691439436
 20
-192.3039932302746
 30
0.0
 11
402.9899883779456
 21
-192.3039932302746
 31
0.0
  0
LINE
  5
247
  8
0
  6
CONTINUOUS
 62
     3
 10
217.7560461888321
 20
-192.3039932302746
 30
0.0
 11
217.7560461888321
 21
-257.3480050452778
 31
0.0
  0
LINE
  5
248
  8
0
  6
CONTINUOUS
 62
     3
 10
333.7040113330571
 20
-217.7560025922912
 30
0.0
 11
333.7040113330571
 21
-257.3480050452778
 31
0.0
  0
LINE
  5
249
  8
0
  6
CONTINUOUS
 62
     3
 10
371.8820253760819
 20
-192.3039932302746
 30
0.0
 11
371.8820253760819
 21
-257.3480050452778
 31
0.0
  0
LINE
  5
24A
  8
0
  6
CONTINUOUS
 62
     3
 10
253.1060398153925
 20
-257.3480050452778
 30
0.0
 11
253.1060398153925
 21
-277.1439953726359
 31
0.0
  0
LINE
  5
24B
  8
0
  6
CONTINUOUS
 62
     3
 10
148.4700691439436
 20
-192.3039932302746
 30
0.0
 11
148.4700691439436
 21
-277.1439953726359
 31
0.0
  0
LINE
  5
24C
  8
0
  6
CONTINUOUS
 62
     3
 10
402.9899883779456
 20
281.3860041990621
 30
0.0
 11
402.9899883779456
 21
-277.1439953726359
 31
0.0
  0
LINE
  5
24D
  8
0
  6
CONTINUOUS
 62
     3
 10
-390.2639836969373
 20
281.3860041990621
 30
0.0
 11
-390.2639836969373
 21
-277.1439953726359
 31
0.0
  0
LINE
  5
24E
  8
0
  6
CONTINUOUS
 62
     3
 10
-390.2639836969373
 20
281.3860041990621
 30
0.0
 11
402.9899883779456
 21
281.3860041990621
 31
0.0
  0
LINE
  5
24F
  8
0
  6
CONTINUOUS
 62
     3
 10
-222.9999689204347
 20
-52.99999327318997
 30
0.0
 11
-172.9999680689398
 21
-52.99999327318997
 31
0.0
  0
LINE
  5
250
  8
0
  6
CONTINUOUS
 62
     3
 10
-215.9999339239927
 20
-66.00001856258969
 30
0.0
 11
-215.9999339239927
 21
-73.99998927116376
 31
0.0
  0
LINE
  5
251
  8
0
  6
CONTINUOUS
 62
     3
 10
-181.4999067757636
 20
-78.99999177598855
 30
0.0
 11
-182.3815438392369
 21
-84.00000259390849
 31
0.0
  0
LINE
  5
252
  8
0
  6
CONTINUOUS
 62
     3
 10
-181.4999682947126
 20
-83.99999729150102
 30
0.0
 11
-182.3816015729549
 21
-88.99998664231573
 31
0.0
  0
LINE
  5
253
  8
0
  6
CONTINUOUS
 62
     3
 10
-179.9999594688409
 20
-66.00001856258969
 30
0.0
 11
-179.9999594688409
 21
-73.99998927116376
 31
0.0
  0
LINE
  5
254
  8
0
  6
CONTINUOUS
 62
     3
 10
-178.7499594475535
 20
-54.00001617840385
 30
0.0
 11
-178.7499594475535
 21
-66.00001856258969
 31
0.0
  0
LINE
  5
255
  8
0
  6
CONTINUOUS
 62
     3
 10
-181.4999856523103
 20
-74.00001106943422
 30
0.0
 11
-181.4999856523103
 21
-79.00003295285417
 31
0.0
  0
LINE
  5
256
  8
0
  6
CONTINUOUS
 62
     3
 10
-178.4999768819124
 20
-52.99998782362236
 30
0.0
 11
-178.4999768819124
 21
-54.00000527926863
 31
0.0
  0
LINE
  5
257
  8
0
  6
CONTINUOUS
 62
     3
 10
-181.4999082400757
 20
-93.99997420305773
 30
0.0
 11
-182.0901355147053
 21
-97.34731845665857
 31
0.0
  0
LINE
  5
258
  8
0
  6
CONTINUOUS
 62
     3
 10
-181.4999439452405
 20
-89.00001794793724
 30
0.0
 11
-182.3815810087139
 21
-94.0000287658572
 31
0.0
  0
LINE
  5
259
  8
0
  6
CONTINUOUS
 62
     3
 10
-217.24993394528
 20
-54.00001617840385
 30
0.0
 11
-217.24993394528
 21
-66.00001856258969
 31
0.0
  0
LINE
  5
25A
  8
0
  6
CONTINUOUS
 62
     3
 10
-217.500003704003
 20
-54.00000527926863
 30
0.0
 11
-178.4999768819124
 21
-54.00000527926863
 31
0.0
  0
LINE
  5
25B
  8
0
  6
CONTINUOUS
 62
     3
 10
-214.4999513370642
 20
-79.00001115458372
 30
0.0
 11
-181.4999856523103
 21
-79.00001115458372
 31
0.0
  0
LINE
  5
25C
  8
0
  6
CONTINUOUS
 62
     3
 10
-215.9999339239927
 20
-73.99998927116376
 30
0.0
 11
-179.9999594688409
 21
-73.99998927116376
 31
0.0
  0
LINE
  5
25D
  8
0
  6
CONTINUOUS
 62
     3
 10
-214.4999513370642
 20
-83.99998944146274
 30
0.0
 11
-181.4999856523103
 21
-83.99998944146274
 31
0.0
  0
LINE
  5
25E
  8
0
  6
CONTINUOUS
 62
     3
 10
-214.4999513370642
 20
-89.00001677445032
 30
0.0
 11
-181.4999420557693
 21
-89.00001677445032
 31
0.0
  0
LINE
  5
25F
  8
0
  6
CONTINUOUS
 62
     3
 10
-214.4999513370642
 20
-94.00003865787026
 30
0.0
 11
-181.4999420557693
 21
-94.00003865787026
 31
0.0
  0
LINE
  5
260
  8
0
  6
CONTINUOUS
 62
     3
 10
-211.9401368403458
 20
-99.0000169447493
 30
0.0
 11
-184.0598001490286
 21
-99.0000169447493
 31
0.0
  0
LINE
  5
261
  8
0
  6
CONTINUOUS
 62
     3
 10
-214.4999513370642
 20
-74.00001106943422
 30
0.0
 11
-214.4999513370642
 21
-79.00003295285417
 31
0.0
  0
LINE
  5
262
  8
0
  6
CONTINUOUS
 62
     3
 10
-214.4999638562984
 20
-78.99999092662897
 30
0.0
 11
-213.618326792825
 21
-84.00000174454891
 31
0.0
  0
LINE
  5
263
  8
0
  6
CONTINUOUS
 62
     3
 10
-214.4999061225803
 20
-83.9999749750362
 30
0.0
 11
-213.618269059107
 21
-88.99998579295615
 31
0.0
  0
LINE
  5
264
  8
0
  6
CONTINUOUS
 62
     3
 10
-214.4999266868214
 20
-89.00001709857767
 30
0.0
 11
-213.6182896233481
 21
-94.00002791649761
 31
0.0
  0
LINE
  5
265
  8
0
  6
CONTINUOUS
 62
     3
 10
-214.4999623919862
 20
-93.99997335369815
 30
0.0
 11
-213.9097389025876
 21
-97.34729614019375
 31
0.0
  0
LINE
  5
266
  8
0
  6
CONTINUOUS
 62
     3
 10
-217.500003704003
 20
-52.99998782362236
 30
0.0
 11
-217.500003704003
 21
-54.00000527926863
 31
0.0
  0
LINE
  5
267
  8
0
  6
CONTINUOUS
 62
     3
 10
-217.24993394528
 20
-66.00001856258969
 30
0.0
 11
-215.9999339239927
 21
-66.00001856258969
 31
0.0
  0
LINE
  5
268
  8
0
  6
CONTINUOUS
 62
     3
 10
-178.7499594475535
 20
-66.00001856258969
 30
0.0
 11
-179.9999594688409
 21
-66.00001856258969
 31
0.0
  0
LINE
  5
269
  8
0
  6
CONTINUOUS
 62
     3
 10
-276.92247668145
 20
-16.89354820444698
 30
0.0
 11
-280.6856135535729
 21
65.3947858475635
 31
0.0
  0
LINE
  5
26A
  8
0
  6
CONTINUOUS
 62
     3
 10
-262.8047609987731
 20
-35.1017062144405
 30
0.0
 11
-226.5346001074981
 21
-46.21954552929547
 31
0.0
  0
LINE
  5
26B
  8
0
  6
CONTINUOUS
 62
     3
 10
-222.9999689204347
 20
-50.99999650887074
 30
0.0
 11
-222.9999689204347
 21
-52.99999327318997
 31
0.0
  0
LINE
  5
26C
  8
0
  6
CONTINUOUS
 62
     3
 10
-172.9999680689398
 20
-50.99999650887074
 30
0.0
 11
-172.9999680689398
 21
-52.99999327318997
 31
0.0
  0
LINE
  5
26D
  8
0
  6
CONTINUOUS
 62
     3
 10
-133.195168538515
 20
-35.10171625811683
 30
0.0
 11
-169.4652877475199
 21
-46.21954279616654
 31
0.0
  0
LINE
  5
26E
  8
0
  6
CONTINUOUS
 62
     3
 10
-119.0774245955127
 20
-16.89355068281359
 30
0.0
 11
-115.314287847867
 21
65.39478064725785
 31
0.0
  0
LINE
  5
26F
  8
0
  6
CONTINUOUS
 62
     3
 10
-297.9999701976771
 20
147.0000046832222
 30
0.0
 11
-297.9999701976771
 21
67.00000332083026
 31
0.0
  0
LINE
  5
270
  8
0
  6
CONTINUOUS
 62
     3
 10
-297.9999354148192
 20
147.0000145825474
 30
0.0
 11
-273.5525115158273
 21
149.266539897205
 31
0.0
  0
LINE
  5
271
  8
0
  6
CONTINUOUS
 62
     3
 10
-273.5524975857749
 20
64.7334714440544
 30
0.0
 11
-297.9999648951471
 21
67.00000078329664
 31
0.0
  0
LINE
  5
272
  8
0
  6
CONTINUOUS
 62
     3
 10
-97.99992319515643
 20
147.0000046832222
 30
0.0
 11
-97.99992319515643
 21
67.00000332083026
 31
0.0
  0
LINE
  5
273
  8
0
  6
CONTINUOUS
 62
     3
 10
-97.99997966526603
 20
146.9999888034956
 30
0.0
 11
-122.4474035642579
 21
149.2665141181532
 31
0.0
  0
LINE
  5
274
  8
0
  6
CONTINUOUS
 62
     3
 10
-122.4474149789449
 20
64.73347009161854
 30
0.0
 11
-97.99999650625062
 21
66.99999490320309
 31
0.0
  0
LINE
  5
275
  8
0
  6
CONTINUOUS
 62
     3
 10
-199.2499685159746
 20
175.2216913908157
 30
0.0
 11
-199.2499685159746
 21
173.7783189122731
 31
0.0
  0
LINE
  5
276
  8
0
  6
CONTINUOUS
 62
     3
 10
-196.7499684733999
 20
175.2216913908157
 30
0.0
 11
-196.7499684733999
 21
173.7783189122731
 31
0.0
  0
LINE
  5
277
  8
0
  6
CONTINUOUS
 62
     3
 10
-199.2499536905189
 20
175.2216866254002
 30
0.0
 11
-197.9999752712382
 21
175.943361922521
 31
0.0
  0
LINE
  5
278
  8
0
  6
CONTINUOUS
 62
     3
 10
-197.9999537437373
 20
173.0566229689157
 30
0.0
 11
-196.7499753244566
 21
173.7782982660366
 31
0.0
  0
LINE
  5
279
  8
0
  6
CONTINUOUS
 62
     3
 10
-197.9999769346491
 20
175.943384201604
 30
0.0
 11
-196.7499607596546
 21
175.221687106214
 31
0.0
  0
LINE
  5
27A
  8
0
  6
CONTINUOUS
 62
     3
 10
-199.2499768814307
 20
173.7783205451195
 30
0.0
 11
-197.9999607064361
 21
173.0566234497295
 31
0.0
  0
LINE
  5
27B
  8
0
  6
CONTINUOUS
 62
     3
 10
-255.2066955431307
 20
72.52831718799587
 30
0.0
 11
-255.2066955431307
 21
73.97168966653841
 31
0.0
  0
LINE
  5
27C
  8
0
  6
CONTINUOUS
 62
     3
 10
-257.7066955857055
 20
72.52831718799587
 30
0.0
 11
-257.7066955857055
 21
73.97168966653841
 31
0.0
  0
LINE
  5
27D
  8
0
  6
CONTINUOUS
 62
     3
 10
-255.20665032069
 20
73.97168602022987
 30
0.0
 11
-256.4566664096516
 21
74.69338324466936
 31
0.0
  0
LINE
  5
27E
  8
0
  6
CONTINUOUS
 62
     3
 10
-256.456650490989
 20
71.80662251275702
 30
0.0
 11
-257.7066665799505
 21
72.52831973719651
 31
0.0
  0
LINE
  5
27F
  8
0
  6
CONTINUOUS
 62
     3
 10
-257.706647219009
 20
73.97169371951712
 30
0.0
 11
-256.4566688857587
 21
74.69336905965315
 31
0.0
  0
LINE
  5
280
  8
0
  6
CONTINUOUS
 62
     3
 10
-256.4566471977216
 20
71.80663021204427
 30
0.0
 11
-255.2066688644713
 21
72.5283055521803
 31
0.0
  0
LINE
  5
281
  8
0
  6
CONTINUOUS
 62
     3
 10
-138.293241403669
 20
73.97168966653841
 30
0.0
 11
-138.293241403669
 21
72.52831718799587
 31
0.0
  0
LINE
  5
282
  8
0
  6
CONTINUOUS
 62
     3
 10
-138.2932421576433
 20
73.97169087014018
 30
0.0
 11
-139.5432204908936
 21
74.69336621027622
 31
0.0
  0
LINE
  5
283
  8
0
  6
CONTINUOUS
 62
     3
 10
-139.5432420086317
 20
71.80662765763383
 30
0.0
 11
-140.793220341882
 21
72.52830299776987
 31
0.0
  0
LINE
  5
284
  8
0
  6
CONTINUOUS
 62
     3
 10
-140.7932414462437
 20
73.97168966653841
 30
0.0
 11
-140.7932414462437
 21
72.52831718799587
 31
0.0
  0
LINE
  5
285
  8
0
  6
CONTINUOUS
 62
     3
 10
-138.293248165451
 20
72.52830064782813
 30
0.0
 11
-139.5432264987013
 21
71.8066253076921
 31
0.0
  0
LINE
  5
286
  8
0
  6
CONTINUOUS
 62
     3
 10
-139.5432481867384
 20
74.69336415530098
 30
0.0
 11
-140.7932265199887
 21
73.97168881516495
 31
0.0
  0
LINE
  5
287
  8
0
  6
CONTINUOUS
 62
     3
 10
86.1602361910724
 20
167.5000028525081
 30
0.0
 11
86.1602361910724
 21
166.345304869674
 31
0.0
  0
LINE
  5
288
  8
0
  6
CONTINUOUS
 62
     3
 10
247.6602215027847
 20
199.4999946781566
 30
0.0
 11
265.1601346077261
 21
199.4999946781566
 31
0.0
  0
LINE
  5
289
  8
0
  6
CONTINUOUS
 62
     3
 10
247.6602215027847
 20
209.4999730501852
 30
0.0
 11
265.1601346077261
 21
209.4999730501852
 31
0.0
  0
LINE
  5
28A
  8
0
  6
CONTINUOUS
 62
     3
 10
191.1602379792118
 20
151.8641470477265
 30
0.0
 11
191.1602379792118
 21
149.5000047257969
 31
0.0
  0
LINE
  5
28B
  8
0
  6
CONTINUOUS
 62
     3
 10
83.66023614849765
 20
167.5000028525081
 30
0.0
 11
83.66023614849765
 21
148.6565751460037
 31
0.0
  0
LINE
  5
28C
  8
0
  6
CONTINUOUS
 62
     3
 10
88.66023623364714
 20
167.5000028525081
 30
0.0
 11
92.46019793340476
 21
167.5000028525081
 31
0.0
  0
LINE
  5
28D
  8
0
  6
CONTINUOUS
 62
     3
 10
88.66023623364714
 20
167.5000028525081
 30
0.0
 11
88.66023623364714
 21
166.345304869674
 31
0.0
  0
LINE
  5
28E
  8
0
  6
CONTINUOUS
 62
     3
 10
86.1602361910724
 20
167.5000028525081
 30
0.0
 11
86.66028851543645
 21
167.5000028525081
 31
0.0
  0
LINE
  5
28F
  8
0
  6
CONTINUOUS
 62
     3
 10
86.16026157037372
 20
166.3453064281309
 30
0.0
 11
84.16026603260426
 21
167.5000044109649
 31
0.0
  0
LINE
  5
290
  8
0
  6
CONTINUOUS
 62
     3
 10
91.66028860058594
 20
160.2500070886954
 30
0.0
 11
92.16025373186817
 21
160.2500070886954
 31
0.0
  0
LINE
  5
291
  8
0
  6
CONTINUOUS
 62
     3
 10
93.66023631879663
 20
191.5000076208797
 30
0.0
 11
93.66023631879663
 21
168.4153449265505
 31
0.0
  0
LINE
  5
292
  8
0
  6
CONTINUOUS
 62
     3
 10
87.66021877800088
 20
161.0000092812948
 30
0.0
 11
87.66021877800088
 21
148.6565751460037
 31
0.0
  0
LINE
  5
293
  8
0
  6
CONTINUOUS
 62
     3
 10
88.66026228293684
 20
47.65472855472992
 30
0.0
 11
86.66026674516739
 21
46.50003057189589
 31
0.0
  0
LINE
  5
294
  8
0
  6
CONTINUOUS
 62
     3
 10
88.66024795874844
 20
166.345314272528
 30
0.0
 11
86.66025242097899
 21
167.5000122553621
 31
0.0
  0
LINE
  5
295
  8
0
  6
CONTINUOUS
 62
     3
 10
115.6602715706871
 20
74.00001106943422
 30
0.0
 11
115.6602715706871
 21
140.0000132833211
 31
0.0
  0
LINE
  5
296
  8
0
  6
CONTINUOUS
 62
     3
 10
91.66028860058594
 20
149.7500090897085
 30
0.0
 11
92.16025373186817
 21
149.7500090897085
 31
0.0
  0
LINE
  5
297
  8
0
  6
CONTINUOUS
 62
     3
 10
246.6602953267585
 20
213.5000589515539
 30
0.0
 11
247.6602748261915
 21
212.5000793678289
 31
0.0
  0
LINE
  5
298
  8
0
  6
CONTINUOUS
 62
     3
 10
167.6602201403928
 20
213.4999774779589
 30
0.0
 11
246.6602912402203
 21
213.4999774779589
 31
0.0
  0
LINE
  5
299
  8
0
  6
CONTINUOUS
 62
     3
 10
169.6602550516853
 20
213.4999774779589
 30
0.0
 11
169.6602550516853
 21
151.8184360745709
 31
0.0
  0
LINE
  5
29A
  8
0
  6
CONTINUOUS
 62
     3
 10
93.66023631879663
 20
191.5000076208797
 30
0.0
 11
133.5891746382913
 21
191.5000076208797
 31
0.0
  0
LINE
  5
29B
  8
0
  6
CONTINUOUS
 62
     3
 10
141.1884876862337
 20
194.9999815225598
 30
0.0
 11
165.160220097818
 21
194.9999815225598
 31
0.0
  0
LINE
  5
29C
  8
0
  6
CONTINUOUS
 62
     3
 10
90.66027114493968
 20
188.9999857800345
 30
0.0
 11
93.66023631879663
 21
188.9999857800345
 31
0.0
  0
LINE
  5
29D
  8
0
  6
CONTINUOUS
 62
     3
 10
88.16027110236493
 20
157.5000026822091
 30
0.0
 11
88.16027110236493
 21
152.5000025970596
 31
0.0
  0
LINE
  5
29E
  8
0
  6
CONTINUOUS
 62
     3
 10
92.16025373186817
 20
152.0000047683717
 30
0.0
 11
100.0816580241349
 21
152.0000047683717
 31
0.0
  0
LINE
  5
29F
  8
0
  6
CONTINUOUS
 62
     3
 10
83.66023614849765
 20
167.5000028525081
 30
0.0
 11
84.16028847286171
 21
167.5000028525081
 31
0.0
  0
LINE
  5
2A0
  8
0
  6
CONTINUOUS
 62
     3
 10
216.1601512118774
 20
149.5000047257969
 30
0.0
 11
216.1601512118774
 21
152.0182172233414
 31
0.0
  0
LINE
  5
2A1
  8
0
  6
CONTINUOUS
 62
     3
 10
229.1602037491152
 20
154.5000048109464
 30
0.0
 11
229.1602037491152
 21
157.3036220636303
 31
0.0
  0
LINE
  5
2A2
  8
0
  6
CONTINUOUS
 62
     3
 10
254.9602456571132
 20
186.9999889927077
 30
0.0
 11
255.6602436376799
 21
186.2999910121409
 31
0.0
  0
LINE
  5
2A3
  8
0
  6
CONTINUOUS
 62
     3
 10
243.6602388732815
 20
159.5000048960959
 30
0.0
 11
255.6601867617912
 21
159.5000048960959
 31
0.0
  0
LINE
  5
2A4
  8
0
  6
CONTINUOUS
 62
     3
 10
243.6602388732815
 20
54.50000310795653
 30
0.0
 11
255.6601867617912
 21
54.50000310795653
 31
0.0
  0
LINE
  5
2A5
  8
0
  6
CONTINUOUS
 62
     3
 10
247.6602215027847
 20
212.499981820583
 30
0.0
 11
247.6602215027847
 21
170.985677088766
 31
0.0
  0
LINE
  5
2A6
  8
0
  6
CONTINUOUS
 62
     3
 10
92.16025373186817
 20
149.5000047257969
 30
0.0
 11
216.1601512118774
 21
149.5000047257969
 31
0.0
  0
LINE
  5
2A7
  8
0
  6
CONTINUOUS
 62
     3
 10
247.6602215027847
 20
186.9999944652829
 30
0.0
 11
254.9602007007633
 21
186.9999944652829
 31
0.0
  0
LINE
  5
2A8
  8
0
  6
CONTINUOUS
 62
     3
 10
255.6601867617912
 20
186.2999866059846
 30
0.0
 11
255.6601867617912
 21
154.5000048109464
 31
0.0
  0
LINE
  5
2A9
  8
0
  6
CONTINUOUS
 62
     3
 10
229.1602037491152
 20
154.5000048109464
 30
0.0
 11
267.6601346503008
 21
154.5000048109464
 31
0.0
  0
LINE
  5
2AA
  8
0
  6
CONTINUOUS
 62
     3
 10
244.6602563289277
 20
143.0000002554485
 30
0.0
 11
244.6602563289277
 21
71.00590963033113
 31
0.0
  0
LINE
  5
2AB
  8
0
  6
CONTINUOUS
 62
     3
 10
150.9102547323747
 20
-53.99999438013339
 30
0.0
 11
150.9102547323747
 21
-74.00000017029899
 31
0.0
  0
LINE
  5
2AC
  8
0
  6
CONTINUOUS
 62
     3
 10
184.660168114052
 20
213.4999774779589
 30
0.0
 11
184.660168114052
 21
151.7337279955613
 31
0.0
  0
LINE
  5
2AD
  8
0
  6
CONTINUOUS
 62
     3
 10
243.6602388732815
 20
54.50000310795653
 30
0.0
 11
243.6602388732815
 21
59.49999774353841
 31
0.0
  0
LINE
  5
2AE
  8
0
  6
CONTINUOUS
 62
     3
 10
255.6601867617912
 20
27.7000077741488
 30
0.0
 11
255.6601867617912
 21
59.50000319310602
 31
0.0
  0
LINE
  5
2AF
  8
0
  6
CONTINUOUS
 62
     3
 10
86.1602361910724
 20
46.50000515154439
 30
0.0
 11
86.66028851543645
 21
46.50000515154439
 31
0.0
  0
LINE
  5
2B0
  8
0
  6
CONTINUOUS
 62
     3
 10
167.6602201403928
 20
0.5000105159625073
 30
0.0
 11
246.6602040471384
 21
0.5000105159625073
 31
0.0
  0
LINE
  5
2B1
  8
0
  6
CONTINUOUS
 62
     3
 10
169.6602550516853
 20
0.5000105159625073
 30
0.0
 11
169.6602550516853
 21
62.18157192948157
 31
0.0
  0
LINE
  5
2B2
  8
0
  6
CONTINUOUS
 62
     3
 10
83.66023614849765
 20
46.50000515154439
 30
0.0
 11
83.66023614849765
 21
65.34343285804873
 31
0.0
  0
LINE
  5
2B3
  8
0
  6
CONTINUOUS
 62
     3
 10
90.66027114493968
 20
25.00000860009889
 30
0.0
 11
93.66023631879663
 21
25.00000860009889
 31
0.0
  0
LINE
  5
2B4
  8
0
  6
CONTINUOUS
 62
     3
 10
88.66023623364714
 20
46.50000515154439
 30
0.0
 11
88.66023623364714
 21
47.65470313437842
 31
0.0
  0
LINE
  5
2B5
  8
0
  6
CONTINUOUS
 62
     3
 10
83.66023614849765
 20
52.99999872275759
 30
0.0
 11
87.66021877800088
 21
52.99999872275759
 31
0.0
  0
LINE
  5
2B6
  8
0
  6
CONTINUOUS
 62
     3
 10
86.1602361910724
 20
46.50000515154439
 30
0.0
 11
86.1602361910724
 21
47.65470313437842
 31
0.0
  0
LINE
  5
2B7
  8
0
  6
CONTINUOUS
 62
     3
 10
90.66027114493968
 20
25.00000860009889
 30
0.0
 11
90.66027114493968
 21
46.0666228373838
 31
0.0
  0
LINE
  5
2B8
  8
0
  6
CONTINUOUS
 62
     3
 10
216.1601512118774
 20
64.49999782868791
 30
0.0
 11
216.1601512118774
 21
61.9817853311434
 31
0.0
  0
LINE
  5
2B9
  8
0
  6
CONTINUOUS
 62
     3
 10
229.1602037491152
 20
59.49999774353841
 30
0.0
 11
229.1602037491152
 21
56.69638594042209
 31
0.0
  0
LINE
  5
2BA
  8
0
  6
CONTINUOUS
 62
     3
 10
184.660168114052
 20
62.26628000849111
 30
0.0
 11
184.660168114052
 21
0.5000105159625073
 31
0.0
  0
LINE
  5
2BB
  8
0
  6
CONTINUOUS
 62
     3
 10
87.66021877800088
 20
64.49999782868791
 30
0.0
 11
216.1601512118774
 21
64.49999782868791
 31
0.0
  0
LINE
  5
2BC
  8
0
  6
CONTINUOUS
 62
     3
 10
267.6602482302814
 20
59.5000067372468
 30
0.0
 11
269.6602437680508
 21
60.65470472008084
 31
0.0
  0
LINE
  5
2BD
  8
0
  6
CONTINUOUS
 62
     3
 10
229.1602037491152
 20
59.49999774353841
 30
0.0
 11
267.6601346503008
 21
59.49999774353841
 31
0.0
  0
LINE
  5
2BE
  8
0
  6
CONTINUOUS
 62
     3
 10
267.6602242968661
 20
154.5000412446123
 30
0.0
 11
269.6602198346356
 21
153.3453432617782
 31
0.0
  0
LINE
  5
2BF
  8
0
  6
CONTINUOUS
 62
     3
 10
151.1602372980158
 20
-52.99999327318997
 30
0.0
 11
151.1602372980158
 21
-53.99999438013339
 31
0.0
  0
LINE
  5
2C0
  8
0
  6
CONTINUOUS
 62
     3
 10
112.4102366381072
 20
-74.00000017029899
 30
0.0
 11
150.9102547323747
 21
-74.00000017029899
 31
0.0
  0
LINE
  5
2C1
  8
0
  6
CONTINUOUS
 62
     3
 10
115.7504533430884
 20
-97.3473034041309
 30
0.0
 11
115.1602337908652
 21
-94.00000208474054
 31
0.0
  0
LINE
  5
2C2
  8
0
  6
CONTINUOUS
 62
     3
 10
123.3832244086815
 20
-65.99999676431923
 30
0.0
 11
141.9372146800112
 21
-65.99999676431923
 31
0.0
  0
LINE
  5
2C3
  8
0
  6
CONTINUOUS
 62
     3
 10
115.1602192463231
 20
-94.00000596046458
 30
0.0
 11
148.160184931077
 21
-94.00000596046458
 31
0.0
  0
LINE
  5
2C4
  8
0
  6
CONTINUOUS
 62
     3
 10
115.1602192463231
 20
-89.00000587531508
 30
0.0
 11
148.160184931077
 21
-89.00000587531508
 31
0.0
  0
LINE
  5
2C5
  8
0
  6
CONTINUOUS
 62
     3
 10
115.1602192463231
 20
-84.00000034059798
 30
0.0
 11
148.160184931077
 21
-84.00000034059798
 31
0.0
  0
LINE
  5
2C6
  8
0
  6
CONTINUOUS
 62
     3
 10
115.1602192463231
 20
-74.00000017029899
 30
0.0
 11
115.1602192463231
 21
-79.00000025544848
 31
0.0
  0
LINE
  5
2C7
  8
0
  6
CONTINUOUS
 62
     3
 10
116.0418093285459
 20
-94.00000742595876
 30
0.0
 11
115.1601762772686
 21
-89.00001807514404
 31
0.0
  0
LINE
  5
2C8
  8
0
  6
CONTINUOUS
 62
     3
 10
148.160184931077
 20
-74.00000017029899
 30
0.0
 11
148.160184931077
 21
-79.00000025544848
 31
0.0
  0
LINE
  5
2C9
  8
0
  6
CONTINUOUS
 62
     3
 10
147.278567438047
 20
-83.99999349363135
 30
0.0
 11
148.1602023819393
 21
-78.99999340926402
 31
0.0
  0
LINE
  5
2CA
  8
0
  6
CONTINUOUS
 62
     3
 10
116.0418376833703
 20
-89.00000827544241
 30
0.0
 11
115.1602046320929
 21
-84.00001892462771
 31
0.0
  0
LINE
  5
2CB
  8
0
  6
CONTINUOUS
 62
     3
 10
116.0418660381946
 20
-84.00000912492607
 30
0.0
 11
115.1602292016874
 21
-78.99999830700612
 31
0.0
  0
LINE
  5
2CC
  8
0
  6
CONTINUOUS
 62
     3
 10
147.2785948465639
 20
-88.999998010924
 30
0.0
 11
148.1602297904562
 21
-83.99999792655669
 31
0.0
  0
LINE
  5
2CD
  8
0
  6
CONTINUOUS
 62
     3
 10
147.5699810794608
 20
-97.34728240605988
 30
0.0
 11
148.1601996853765
 21
-93.99998645344583
 31
0.0
  0
LINE
  5
2CE
  8
0
  6
CONTINUOUS
 62
     3
 10
147.2785363866598
 20
-93.99998738729681
 30
0.0
 11
148.1601713305521
 21
-88.99998730292948
 31
0.0
  0
LINE
  5
2CF
  8
0
  6
CONTINUOUS
 62
     3
 10
117.7200337430415
 20
-99.00000604561407
 30
0.0
 11
145.6003704343586
 21
-99.00000604561407
 31
0.0
  0
LINE
  5
2D0
  8
0
  6
CONTINUOUS
 62
     3
 10
112.4102366381072
 20
-53.99999438013339
 30
0.0
 11
112.4102366381072
 21
-74.00000017029899
 31
0.0
  0
LINE
  5
2D1
  8
0
  6
CONTINUOUS
 62
     3
 10
112.1602540724661
 20
-52.99999327318997
 30
0.0
 11
112.1602540724661
 21
-53.99999438013339
 31
0.0
  0
LINE
  5
2D2
  8
0
  6
CONTINUOUS
 62
     3
 10
112.1602540724661
 20
-53.99999438013339
 30
0.0
 11
151.1602372980158
 21
-53.99999438013339
 31
0.0
  0
LINE
  5
2D3
  8
0
  6
CONTINUOUS
 62
     3
 10
98.66023640394613
 20
-52.99999327318997
 30
0.0
 11
159.1602897501041
 21
-52.99999327318997
 31
0.0
  0
LINE
  5
2D4
  8
0
  6
CONTINUOUS
 62
     3
 10
265.1601346077261
 20
209.4999730501852
 30
0.0
 11
265.1601346077261
 21
199.4999946781566
 31
0.0
  0
LINE
  5
2D5
  8
0
  6
CONTINUOUS
 62
     3
 10
269.6601695615934
 20
153.3452850298419
 30
0.0
 11
269.6601695615934
 21
60.65471207507529
 31
0.0
  0
LINE
  5
2D6
  8
0
  6
CONTINUOUS
 62
     3
 10
53.6602356376007
 20
140.0000023841858
 30
0.0
 11
244.6602563289277
 21
140.0000023841858
 31
0.0
  0
LINE
  5
2D7
  8
0
  6
CONTINUOUS
 62
     3
 10
53.66023563760069
 20
74.0000056198666
 30
0.0
 11
244.6602563289277
 21
74.0000056198666
 31
0.0
  0
LINE
  5
2D8
  8
0
  6
CONTINUOUS
 62
     3
 10
245.16022146021
 20
70.50000447034843
 30
0.0
 11
248.1601866340669
 21
70.50000447034843
 31
0.0
  0
LINE
  5
2D9
  8
0
  6
CONTINUOUS
 62
     3
 10
248.660238958431
 20
143.0000002554485
 30
0.0
 11
248.660238958431
 21
71.00000229903634
 31
0.0
  0
LINE
  5
2DA
  8
0
  6
CONTINUOUS
 62
     3
 10
245.16022146021
 20
143.5000089832716
 30
0.0
 11
248.1601866340669
 21
143.5000089832716
 31
0.0
  0
LINE
  5
2DB
  8
0
  6
CONTINUOUS
 62
     3
 10
248.660238958431
 20
72.3000021031925
 30
0.0
 11
269.6601695615934
 21
72.3000021031925
 31
0.0
  0
LINE
  5
2DC
  8
0
  6
CONTINUOUS
 62
     3
 10
248.6602389584308
 20
141.7000059008602
 30
0.0
 11
269.6601695615932
 21
141.7000059008602
 31
0.0
  0
LINE
  5
2DD
  8
0
  6
CONTINUOUS
 62
     3
 10
93.66023631879663
 20
-47.99999318804048
 30
0.0
 11
93.66023631879663
 21
45.58465490315054
 31
0.0
  0
LINE
  5
2DE
  8
0
  6
CONTINUOUS
 62
     3
 10
90.66027114493968
 20
188.9999857800345
 30
0.0
 11
90.66027114493968
 21
167.9333851666686
 31
0.0
  0
LINE
  5
2DF
  8
0
  6
CONTINUOUS
 62
     3
 10
92.16025373186817
 20
160.7500049173833
 30
0.0
 11
92.16025373186817
 21
149.5000047257969
 31
0.0
  0
LINE
  5
2E0
  8
0
  6
CONTINUOUS
 62
     3
 10
83.66023614849765
 20
161.0000092812948
 30
0.0
 11
87.66021877800088
 21
161.0000092812948
 31
0.0
  0
LINE
  5
2E1
  8
0
  6
CONTINUOUS
 62
     3
 10
87.66021877800088
 20
160.7500049173833
 30
0.0
 11
92.16025373186817
 21
160.7500049173833
 31
0.0
  0
LINE
  5
2E2
  8
0
  6
CONTINUOUS
 62
     3
 10
53.66023563760069
 20
65.50000438519893
 30
0.0
 11
53.66023563760069
 21
148.4999981692859
 31
0.0
  0
LINE
  5
2E3
  8
0
  6
CONTINUOUS
 62
     3
 10
83.66023614849765
 20
46.50000515154439
 30
0.0
 11
84.16028847286171
 21
46.50000515154439
 31
0.0
  0
LINE
  5
2E4
  8
0
  6
CONTINUOUS
 62
     3
 10
88.66023623364714
 20
46.50000515154439
 30
0.0
 11
92.46019793340476
 21
46.50000515154439
 31
0.0
  0
LINE
  5
2E5
  8
0
  6
CONTINUOUS
 62
     3
 10
246.6602843806175
 20
0.5000001667428636
 30
0.0
 11
247.6602638800505
 21
1.499979750467816
 31
0.0
  0
LINE
  5
2E6
  8
0
  6
CONTINUOUS
 62
     3
 10
247.6602215027847
 20
1.500012900148339
 30
0.0
 11
247.6602215027847
 21
43.01432546571877
 31
0.0
  0
LINE
  5
2E7
  8
0
  6
CONTINUOUS
 62
     3
 10
254.9601840022948
 20
27.000001378056
 30
0.0
 11
255.6602128102707
 21
27.70003018603196
 31
0.0
  0
LINE
  5
2E8
  8
0
  6
CONTINUOUS
 62
     3
 10
247.6602215027847
 20
26.99999991485051
 30
0.0
 11
254.9602007007633
 21
26.99999991485051
 31
0.0
  0
LINE
  5
2E9
  8
0
  6
CONTINUOUS
 62
     3
 10
86.16023813885083
 20
47.65471460085659
 30
0.0
 11
84.16024260108138
 21
46.50001661802256
 31
0.0
  0
LINE
  5
2EA
  8
0
  6
CONTINUOUS
 62
     3
 10
87.66021877800088
 20
52.99999872275759
 30
0.0
 11
87.66021877800088
 21
65.34343285804873
 31
0.0
  0
LINE
  5
2EB
  8
0
  6
CONTINUOUS
 62
     3
 10
87.66021877800088
 20
60.2000056028367
 30
0.0
 11
97.22599740072654
 21
60.2000056028367
 31
0.0
  0
LINE
  5
2EC
  8
0
  6
CONTINUOUS
 62
     3
 10
87.66021877800088
 20
55.8000029121127
 30
0.0
 11
95.01146750810261
 21
55.8000029121127
 31
0.0
  0
LINE
  5
2ED
  8
0
  6
CONTINUOUS
 62
     3
 10
243.6602388732815
 20
159.5000048960959
 30
0.0
 11
243.6602388732815
 21
154.5000048109464
 31
0.0
  0
LINE
  5
2EE
  8
0
  6
CONTINUOUS
 62
     3
 10
164.1602898352536
 20
-47.99999318804048
 30
0.0
 11
164.1602898352536
 21
62.11012809804726
 31
0.0
  0
LINE
  5
2EF
  8
0
  6
CONTINUOUS
 62
     3
 10
92.16025373186817
 20
158.000000510897
 30
0.0
 11
95.04242105215654
 21
158.000000510897
 31
0.0
  0
LINE
  5
2F0
  8
0
  6
CONTINUOUS
 62
     3
 10
120.6602716558366
 20
152.8087968964031
 30
0.0
 11
120.6602716558366
 21
149.4999938266617
 31
0.0
  0
LINE
  5
2F1
  8
0
  6
CONTINUOUS
 62
     3
 10
141.9372146800112
 20
-74.00000017029899
 30
0.0
 11
141.9372146800112
 21
-65.99999676431923
 31
0.0
  0
LINE
  5
2F2
  8
0
  6
CONTINUOUS
 62
     3
 10
123.3832244086815
 20
-74.00000017029899
 30
0.0
 11
123.3832244086815
 21
-65.99999676431923
 31
0.0
  0
LINE
  5
2F3
  8
0
  6
CONTINUOUS
 62
     3
 10
115.1602334577243
 20
-78.99999588785084
 30
0.0
 11
148.1601991424783
 21
-78.99998995145015
 31
0.0
  0
LINE
  5
2F4
  8
0
  6
CONTINUOUS
 62
     3
 10
191.1602379792118
 20
62.13586095632589
 30
0.0
 11
191.1602379792118
 21
64.50000327825552
 31
0.0
  0
LINE
  5
2F5
  8
0
  6
CONTINUOUS
 62
     3
 10
100.5190185226546
 20
-247.0026330778025
 30
0.0
 11
100.5190185226546
 21
-252.0930305905518
 31
0.0
  0
LINE
  5
2F6
  8
0
  6
CONTINUOUS
 62
     3
 10
85.35378737711544
 20
-255.4866289323846
 30
0.0
 11
85.35378737711544
 21
-257.6076442447329
 31
0.0
  0
LINE
  5
2F7
  8
0
  6
CONTINUOUS
 62
     3
 10
84.18731832823273
 20
-247.0026330778025
 30
0.0
 11
84.18731832823273
 21
-252.0930305905518
 31
0.0
  0
LINE
  5
2F8
  8
0
  6
CONTINUOUS
 62
     3
 10
99.56451585572985
 20
-255.4866289323846
 30
0.0
 11
85.14173380207562
 21
-255.4866289323846
 31
0.0
  0
LINE
  5
2F9
  8
0
  6
CONTINUOUS
 62
     3
 10
99.35237508760818
 20
-263.9706465852371
 30
0.0
 11
85.35378737711544
 21
-263.9706465852371
 31
0.0
  0
LINE
  5
2FA
  8
0
  6
CONTINUOUS
 62
     3
 10
56.29608250168532
 20
-185.069430641948
 30
0.0
 11
56.29608250168532
 21
-214.7634270321203
 31
0.0
  0
LINE
  5
2FB
  8
0
  6
CONTINUOUS
 62
     3
 10
85.14173380207562
 20
-252.0930305905518
 30
0.0
 11
85.14173380207562
 21
-255.4866289323846
 31
0.0
  0
LINE
  5
2FC
  8
0
  6
CONTINUOUS
 62
     3
 10
85.72781123682238
 20
-259.7286320693708
 30
0.0
 11
85.35382294615586
 21
-257.6076391370473
 31
0.0
  0
LINE
  5
2FD
  8
0
  6
CONTINUOUS
 62
     3
 10
100.5190185226546
 20
-252.0930305905518
 30
0.0
 11
99.56451585572985
 21
-252.0930305905518
 31
0.0
  0
LINE
  5
2FE
  8
0
  6
CONTINUOUS
 62
     3
 10
85.72781890245963
 20
-261.8496512077087
 30
0.0
 11
85.3538306117931
 21
-259.7286582753853
 31
0.0
  0
LINE
  5
2FF
  8
0
  6
CONTINUOUS
 62
     3
 10
85.72781899763694
 20
-263.9706274118362
 30
0.0
 11
85.35383070697043
 21
-261.8496344795128
 31
0.0
  0
LINE
  5
300
  8
0
  6
CONTINUOUS
 62
     3
 10
99.35237508760818
 20
-259.7286377588108
 30
0.0
 11
85.35378737711544
 21
-259.7286377588108
 31
0.0
  0
LINE
  5
301
  8
0
  6
CONTINUOUS
 62
     3
 10
118.0318239804199
 20
-235.9865203620608
 30
0.0
 11
118.7327174833043
 21
-222.913625078977
 31
0.0
  0
LINE
  5
302
  8
0
  6
CONTINUOUS
 62
     3
 10
113.7330566371607
 20
-241.3789261827498
 30
0.0
 11
104.4964304483319
 21
-244.017962114006
 31
0.0
  0
LINE
  5
303
  8
0
  6
CONTINUOUS
 62
     3
 10
66.6744154931756
 20
-235.9865340114644
 30
0.0
 11
65.97352199029115
 21
-222.9136387283807
 31
0.0
  0
LINE
  5
304
  8
0
  6
CONTINUOUS
 62
     3
 10
80.20981762711422
 20
-244.017934394737
 30
0.0
 11
70.97319143828543
 21
-241.3788984634808
 31
0.0
  0
LINE
  5
305
  8
0
  6
CONTINUOUS
 62
     3
 10
128.4101091231991
 20
-214.7634313172348
 30
0.0
 11
123.7919666773825
 21
-215.2902033042105
 31
0.0
  0
LINE
  5
306
  8
0
  6
CONTINUOUS
 62
     3
 10
128.4100382444883
 20
-185.0694411938044
 30
0.0
 11
123.8751601167827
 21
-184.7141334195516
 31
0.0
  0
LINE
  5
307
  8
0
  6
CONTINUOUS
 62
     3
 10
56.29609319163319
 20
-214.7634258446263
 30
0.0
 11
60.91423563744985
 21
-215.2901978316019
 31
0.0
  0
LINE
  5
308
  8
0
  6
CONTINUOUS
 62
     3
 10
56.29608450779745
 20
-185.0694526412824
 30
0.0
 11
60.83096263550305
 21
-184.7141448670296
 31
0.0
  0
LINE
  5
309
  8
0
  6
CONTINUOUS
 62
     3
 10
102.9581577941036
 20
-246.5784387346411
 30
0.0
 11
81.74809186370189
 21
-246.5784387346411
 31
0.0
  0
LINE
  5
30A
  8
0
  6
CONTINUOUS
 62
     3
 10
102.9581577941036
 20
-246.0573074827417
 30
0.0
 11
102.9581577941036
 21
-246.5784387346411
 31
0.0
  0
LINE
  5
30B
  8
0
  6
CONTINUOUS
 62
     3
 10
81.74809186370189
 20
-246.0573074827417
 30
0.0
 11
81.74809186370189
 21
-246.5784387346411
 31
0.0
  0
LINE
  5
30C
  8
0
  6
CONTINUOUS
 62
     3
 10
98.26655963942936
 20
-266.091640099315
 30
0.0
 11
86.43969001837611
 21
-266.091640099315
 31
0.0
  0
LINE
  5
30D
  8
0
  6
CONTINUOUS
 62
     3
 10
99.35237508760818
 20
-255.4866289323846
 30
0.0
 11
99.35237508760818
 21
-257.6076442447329
 31
0.0
  0
LINE
  5
30E
  8
0
  6
CONTINUOUS
 62
     3
 10
98.9784229397563
 20
-261.8496452859812
 30
0.0
 11
99.3524150156528
 21
-259.7286308865525
 31
0.0
  0
LINE
  5
30F
  8
0
  6
CONTINUOUS
 62
     3
 10
98.97841905934902
 20
-263.9706429572139
 30
0.0
 11
99.3524111352455
 21
-261.8496285577852
 31
0.0
  0
LINE
  5
310
  8
0
  6
CONTINUOUS
 62
     3
 10
99.10203321902785
 20
-265.3905679053861
 30
0.0
 11
99.35240346960826
 21
-263.9706476961231
 31
0.0
  0
LINE
  5
311
  8
0
  6
CONTINUOUS
 62
     3
 10
99.35237508760818
 20
-257.6076442447329
 30
0.0
 11
85.35378737711544
 21
-257.6076442447329
 31
0.0
  0
LINE
  5
312
  8
0
  6
CONTINUOUS
 62
     3
 10
99.56451585572985
 20
-252.0930305905518
 30
0.0
 11
99.56451585572985
 21
-255.4866289323846
 31
0.0
  0
LINE
  5
313
  8
0
  6
CONTINUOUS
 62
     3
 10
128.4101671561201
 20
-185.069430641948
 30
0.0
 11
128.4101671561201
 21
-214.7634270321203
 31
0.0
  0
LINE
  5
314
  8
0
  6
CONTINUOUS
 62
     3
 10
100.6250453101745
 20
-247.0026330778025
 30
0.0
 11
84.08120434763099
 21
-247.0026330778025
 31
0.0
  0
LINE
  5
315
  8
0
  6
CONTINUOUS
 62
     3
 10
84.08120434763099
 20
-246.5784387346411
 30
0.0
 11
84.08120434763099
 21
-247.0026330778025
 31
0.0
  0
LINE
  5
316
  8
0
  6
CONTINUOUS
 62
     3
 10
100.6250453101745
 20
-246.5784387346411
 30
0.0
 11
100.6250453101745
 21
-247.0026330778025
 31
0.0
  0
LINE
  5
317
  8
0
  6
CONTINUOUS
 62
     3
 10
85.60420862318809
 20
-265.3905738271138
 30
0.0
 11
85.35383837260767
 21
-263.9706536178507
 31
0.0
  0
LINE
  5
318
  8
0
  6
CONTINUOUS
 62
     3
 10
99.35237508760818
 20
-261.8496312728887
 30
0.0
 11
85.35378737711544
 21
-261.8496312728887
 31
0.0
  0
LINE
  5
319
  8
0
  6
CONTINUOUS
 62
     3
 10
98.97843060539356
 20
-259.7286261476432
 30
0.0
 11
99.35241889606007
 21
-257.6076332153197
 31
0.0
  0
LINE
  5
31A
  8
0
  6
CONTINUOUS
 62
     3
 10
85.14173380207562
 20
-252.0930305905518
 30
0.0
 11
84.18731832823273
 21
-252.0930305905518
 31
0.0
  0
LINE
  5
31B
  8
0
  6
CONTINUOUS
 62
     3
 10
-318.1654630076113
 20
-195.7840217144833
 30
0.0
 11
-298.0922640748069
 21
-195.7840217144833
 31
0.0
  0
LINE
  5
31C
  8
0
  6
CONTINUOUS
 62
     3
 10
-318.1654630076113
 20
-209.6808550984665
 30
0.0
 11
-298.0922640748069
 21
-209.6808550984665
 31
0.0
  0
LINE
  5
31D
  8
0
  6
CONTINUOUS
 62
     3
 10
-313.9192471149861
 20
-213.5410672177769
 30
0.0
 11
-310.4450387689903
 21
-213.5410672177769
 31
0.0
  0
LINE
  5
31E
  8
0
  6
CONTINUOUS
 62
     3
 10
-308.1289289360205
 20
-209.6808115019255
 30
0.0
 11
-308.1289289360205
 21
-205.0485482394448
 31
0.0
  0
LINE
  5
31F
  8
0
  6
CONTINUOUS
 62
     3
 10
-308.1289289360205
 20
-195.7840217144833
 30
0.0
 11
-308.1289289360205
 21
-200.4162849769641
 31
0.0
  0
LINE
  5
320
  8
0
  6
CONTINUOUS
 62
     3
 10
-310.4450387689903
 20
-248.7354865880606
 30
0.0
 11
-310.4450387689903
 21
-213.5410454195064
 31
0.0
  0
LINE
  5
321
  8
0
  6
CONTINUOUS
 62
     3
 10
-305.8127319099687
 20
-248.7354865880606
 30
0.0
 11
-305.8127319099687
 21
-224.9892572843902
 31
0.0
  0
LINE
  5
322
  8
0
  6
CONTINUOUS
 62
     3
 10
-313.9192471149861
 20
-209.6808115019255
 30
0.0
 11
-313.9192471149861
 21
-213.5410454195064
 31
0.0
  0
LINE
  5
323
  8
0
  6
CONTINUOUS
 62
     3
 10
-302.3386107570548
 20
-209.6808115019255
 30
0.0
 11
-302.3386107570548
 21
-213.5410454195064
 31
0.0
  0
LINE
  5
324
  8
0
  6
CONTINUOUS
 62
     3
 10
-305.8127319099687
 20
-213.5410672177769
 30
0.0
 11
-302.338523563973
 21
-213.5410672177769
 31
0.0
  0
LINE
  5
325
  8
0
  6
CONTINUOUS
 62
     3
 10
-327.4300331291136
 20
-218.9453598251574
 30
0.0
 11
-301.180468647488
 21
-218.9453598251574
 31
0.0
  0
LINE
  5
326
  8
0
  6
CONTINUOUS
 62
     3
 10
-301.180468647488
 20
-226.6658058620488
 30
0.0
 11
-301.180468647488
 21
-218.945338026887
 31
0.0
  0
LINE
  5
327
  8
0
  6
CONTINUOUS
 62
     3
 10
-315.0773020314711
 20
-226.6658058620488
 30
0.0
 11
-315.0773020314711
 21
-218.945338026887
 31
0.0
  0
LINE
  5
328
  8
0
  6
CONTINUOUS
 62
     3
 10
-318.1655066041522
 20
-226.6658058620488
 30
0.0
 11
-318.1655066041522
 21
-218.945338026887
 31
0.0
  0
LINE
  5
329
  8
0
  6
CONTINUOUS
 62
     3
 10
-327.4299459360318
 20
-226.6658058620488
 30
0.0
 11
-327.4299459360318
 21
-218.945338026887
 31
0.0
  0
LINE
  5
32A
  8
0
  6
CONTINUOUS
 62
     3
 10
-327.4300331291136
 20
-226.6658058620488
 30
0.0
 11
-301.180468647488
 21
-226.6658058620488
 31
0.0
  0
LINE
  5
32B
  8
0
  6
CONTINUOUS
 62
     3
 10
-322.797726270092
 20
-226.6658058620488
 30
0.0
 11
-322.797726270092
 21
-224.9892572843902
 31
0.0
  0
LINE
  5
32C
  8
0
  6
CONTINUOUS
 62
     3
 10
-327.4300331291136
 20
-248.7355083863311
 30
0.0
 11
-318.1654630076113
 21
-248.7355083863311
 31
0.0
  0
LINE
  5
32D
  8
0
  6
CONTINUOUS
 62
     3
 10
-318.1655066041522
 20
-248.7354865880606
 30
0.0
 11
-318.1655066041522
 21
-246.4193549568203
 31
0.0
  0
LINE
  5
32E
  8
0
  6
CONTINUOUS
 62
     3
 10
-327.4299459360318
 20
-248.7354865880606
 30
0.0
 11
-327.4299459360318
 21
-246.4193549568203
 31
0.0
  0
LINE
  5
32F
  8
0
  6
CONTINUOUS
 62
     3
 10
-305.812684410226
 20
-224.9893880348865
 30
0.0
 11
-303.3560479644821
 21
-222.5327517962215
 31
0.0
  0
LINE
  5
330
  8
0
  6
CONTINUOUS
 62
     3
 10
-322.797662769671
 20
-224.9893256642022
 30
0.0
 11
-320.3410571513389
 21
-222.5327202529464
 31
0.0
  0
LINE
  5
331
  8
0
  6
CONTINUOUS
 62
     3
 10
-325.2542841036639
 20
-222.532589472276
 30
0.0
 11
-322.7976784853318
 21
-224.9891948835318
 31
0.0
  0
LINE
  5
332
  8
0
  6
CONTINUOUS
 62
     3
 10
-308.2693673990398
 20
-222.5325271015944
 30
0.0
 11
-305.8127309532959
 21
-224.9891633402593
 31
0.0
  0
LINE
  5
333
  8
0
  6
CONTINUOUS
 62
     3
 10
-322.797726270092
 20
-221.2614696581273
 30
0.0
 11
-322.797726270092
 21
-218.945338026887
 31
0.0
  0
LINE
  5
334
  8
0
  6
CONTINUOUS
 62
     3
 10
-305.8127319099687
 20
-221.2614696581273
 30
0.0
 11
-305.8127319099687
 21
-213.5410454195064
 31
0.0
  0
LINE
  5
335
  8
0
  6
CONTINUOUS
 62
     3
 10
-309.2354675772947
 20
-234.2229046100962
 30
0.0
 11
-307.5639843683064
 21
-235.1879357841329
 31
0.0
  0
LINE
  5
336
  8
0
  6
CONTINUOUS
 62
     3
 10
-309.2355007281244
 20
-244.9722134922832
 30
0.0
 11
-307.5639797634223
 21
-245.9372664645892
 31
0.0
  0
LINE
  5
337
  8
0
  6
CONTINUOUS
 62
     3
 10
-309.2354614205842
 20
-246.9025445932442
 30
0.0
 11
-307.563978211596
 21
-245.9375134192074
 31
0.0
  0
LINE
  5
338
  8
0
  6
CONTINUOUS
 62
     3
 10
-309.2354357999452
 20
-236.153075926965
 30
0.0
 11
-307.5639525909569
 21
-235.1880447529282
 31
0.0
  0
LINE
  5
339
  8
0
  6
CONTINUOUS
 62
     3
 10
-325.1138361030619
 20
-200.4162849769641
 30
0.0
 11
-292.6880804587786
 21
-200.4162849769641
 31
0.0
  0
LINE
  5
33A
  8
0
  6
CONTINUOUS
 62
     3
 10
-325.1138361030619
 20
-205.0485918359857
 30
0.0
 11
-292.6880804587786
 21
-205.0485918359857
 31
0.0
  0
LINE
  5
33B
  8
0
  6
CONTINUOUS
 62
     3
 10
-318.1655066041522
 20
-195.7840217144833
 30
0.0
 11
-318.1655066041522
 21
-200.4162849769641
 31
0.0
  0
LINE
  5
33C
  8
0
  6
CONTINUOUS
 62
     3
 10
-318.1655066041522
 20
-205.0485482394448
 30
0.0
 11
-318.1655066041522
 21
-209.6808115019255
 31
0.0
  0
LINE
  5
33D
  8
0
  6
CONTINUOUS
 62
     3
 10
-298.0922640748069
 20
-195.7840217144833
 30
0.0
 11
-298.0922640748069
 21
-200.4162849769641
 31
0.0
  0
LINE
  5
33E
  8
0
  6
CONTINUOUS
 62
     3
 10
-298.0922640748069
 20
-205.0485482394448
 30
0.0
 11
-298.0922640748069
 21
-209.6808115019255
 31
0.0
  0
LINE
  5
33F
  8
0
  6
CONTINUOUS
 62
     3
 10
53.66023563760069
 20
148.4999981692859
 30
0.0
 11
105.6602714003882
 21
148.4999981692859
 31
0.0
  0
LINE
  5
340
  8
0
  6
CONTINUOUS
 62
     3
 10
53.66023563760069
 20
65.50000438519893
 30
0.0
 11
105.6602714003882
 21
65.50000438519893
 31
0.0
  0
LINE
  5
341
  8
0
  6
CONTINUOUS
 62
     3
 10
167.6602201403928
 20
213.4999774779589
 30
0.0
 11
167.6602201403928
 21
151.8443651172836
 31
0.0
  0
LINE
  5
342
  8
0
  6
CONTINUOUS
 62
     3
 10
165.160220097818
 20
194.9999815225598
 30
0.0
 11
165.160220097818
 21
151.8770298255687
 31
0.0
  0
LINE
  5
343
  8
0
  6
CONTINUOUS
 62
     3
 10
165.160220097818
 20
194.0000076634545
 30
0.0
 11
167.6602201403928
 21
194.0000076634545
 31
0.0
  0
LINE
  5
344
  8
0
  6
CONTINUOUS
 62
     3
 10
165.160220097818
 20
-3.763944826193279
 30
0.0
 11
165.160220097818
 21
62.12298362805134
 31
0.0
  0
LINE
  5
345
  8
0
  6
CONTINUOUS
 62
     3
 10
167.6602201403928
 20
0.5000105159625073
 30
0.0
 11
167.6602201403928
 21
62.1556428867688
 31
0.0
  0
LINE
  5
346
  8
0
  6
CONTINUOUS
 62
     3
 10
165.160220097818
 20
20.00000442777369
 30
0.0
 11
167.6602201403928
 21
20.00000442777369
 31
0.0
  0
LINE
  5
347
  8
0
  6
CONTINUOUS
 62
     3
 10
-216.43066109556
 20
203.8847697967275
 30
0.0
 11
-214.9306644422329
 21
204.7507932838531
 31
0.0
  0
LINE
  5
348
  8
0
  6
CONTINUOUS
 62
     3
 10
-214.9306676094963
 20
201.2867049144735
 30
0.0
 11
-213.4306709561692
 21
202.152728401599
 31
0.0
  0
LINE
  5
349
  8
0
  6
CONTINUOUS
 62
     3
 10
-214.9306384440256
 20
204.7508302497971
 30
0.0
 11
-213.4306417906985
 21
203.8848067626716
 31
0.0
  0
LINE
  5
34A
  8
0
  6
CONTINUOUS
 62
     3
 10
-216.4306428292246
 20
202.1527464896874
 30
0.0
 11
-214.9306461758975
 21
201.2867230025619
 31
0.0
  0
LINE
  5
34B
  8
0
  6
CONTINUOUS
 62
     3
 10
-216.4306677482923
 20
203.8847821760992
 30
0.0
 11
-216.4306677482923
 21
202.1527352018481
 31
0.0
  0
LINE
  5
34C
  8
0
  6
CONTINUOUS
 62
     3
 10
-213.4306589778944
 20
203.8847821760992
 30
0.0
 11
-213.4306589778944
 21
202.1527352018481
 31
0.0
  0
LINE
  5
34D
  8
0
  6
CONTINUOUS
 62
     3
 10
-180.4768514986397
 20
204.6463682106578
 30
0.0
 11
-179.3635131197867
 21
203.3195432598768
 31
0.0
  0
LINE
  5
34E
  8
0
  6
CONTINUOUS
 62
     3
 10
-181.6616668919827
 20
201.3911609959265
 30
0.0
 11
-179.9559336435003
 21
201.6919277982157
 31
0.0
  0
LINE
  5
34F
  8
0
  6
CONTINUOUS
 62
     3
 10
-182.7749915308101
 20
202.7179996671754
 30
0.0
 11
-181.661653151957
 21
201.3911747163943
 31
0.0
  0
LINE
  5
350
  8
0
  6
CONTINUOUS
 62
     3
 10
-182.1825811186065
 20
204.3455661474779
 30
0.0
 11
-182.7749760914739
 21
202.7179743944076
 31
0.0
  0
LINE
  5
351
  8
0
  6
CONTINUOUS
 62
     3
 10
-182.1826129506786
 20
204.3455928222453
 30
0.0
 11
-180.4768797021962
 21
204.6463596245345
 31
0.0
  0
LINE
  5
352
  8
0
  6
CONTINUOUS
 62
     3
 10
-179.3634950277402
 20
203.3195026858271
 30
0.0
 11
-179.9558900006076
 21
201.6919109327568
 31
0.0
  0
LINE
  5
353
  8
0
  6
CONTINUOUS
 62
     3
 10
109.6602540298914
 20
148.6339812386714
 30
0.0
 11
109.6602540298914
 21
146.499995955399
 31
0.0
  0
LINE
  5
354
  8
0
  6
CONTINUOUS
 62
     3
 10
105.6602714003882
 20
148.4999981692859
 30
0.0
 11
105.6602714003882
 21
146.499995955399
 31
0.0
  0
LINE
  5
355
  8
0
  6
CONTINUOUS
 62
     3
 10
109.6602540298914
 20
65.36602676538104
 30
0.0
 11
109.6602540298914
 21
67.50000659908578
 31
0.0
  0
LINE
  5
356
  8
0
  6
CONTINUOUS
 62
     3
 10
105.6602714003882
 20
146.499995955399
 30
0.0
 11
109.6602540298914
 21
146.499995955399
 31
0.0
  0
LINE
  5
357
  8
0
  6
CONTINUOUS
 62
     3
 10
105.6602714003882
 20
65.50000438519893
 30
0.0
 11
105.6602714003882
 21
67.50000659908578
 31
0.0
  0
LINE
  5
358
  8
0
  6
CONTINUOUS
 62
     3
 10
111.1602107758863
 20
149.4999755220057
 30
0.0
 11
109.6602518782705
 21
148.6339738331506
 31
0.0
  0
LINE
  5
359
  8
0
  6
CONTINUOUS
 62
     3
 10
105.6602714003882
 20
67.50000659908578
 30
0.0
 11
109.6602540298914
 21
67.50000659908578
 31
0.0
  0
LINE
  5
35A
  8
0
  6
CONTINUOUS
 62
     3
 10
111.1602445449834
 20
64.49997621910576
 30
0.0
 11
109.6602101359451
 21
65.36602150450175
 31
0.0
  0
LINE
  5
35B
  8
0
  6
CONTINUOUS
 62
     3
 10
-178.9795917777653
 20
151.4442209702289
 30
0.0
 11
-181.9249781695649
 21
146.342662183274
 31
0.0
  0
LINE
  5
35C
  8
0
  6
CONTINUOUS
 62
     3
 10
-169.0202958678191
 20
145.6942186924799
 30
0.0
 11
-171.9656863467943
 21
140.5926528263292
 31
0.0
  0
LINE
  5
35D
  8
0
  6
CONTINUOUS
 62
     3
 10
-226.9796069624533
 20
145.6942448442099
 30
0.0
 11
-224.0342137586942
 21
140.5926742585953
 31
0.0
  0
LINE
  5
35E
  8
0
  6
CONTINUOUS
 62
     3
 10
-217.0203110525071
 20
151.4442471219588
 30
0.0
 11
-214.074917848748
 21
146.3426765363442
 31
0.0
  0
LINE
  5
35F
  8
0
  6
CONTINUOUS
 62
     3
 10
-245.9999780314305
 20
112.7500280780456
 30
0.0
 11
-240.1091916239124
 21
112.7500280780456
 31
0.0
  0
LINE
  5
360
  8
0
  6
CONTINUOUS
 62
     3
 10
-245.9999780314305
 20
101.2500235225477
 30
0.0
 11
-240.1092134221828
 21
101.2500235225477
 31
0.0
  0
LINE
  5
361
  8
0
  6
CONTINUOUS
 62
     3
 10
-226.9796390702199
 20
68.30578897925747
 30
0.0
 11
-224.0342485912446
 21
73.40735484540818
 31
0.0
  0
LINE
  5
362
  8
0
  6
CONTINUOUS
 62
     3
 10
-217.0203431602737
 20
62.5557867015085
 30
0.0
 11
-214.0749554060822
 21
67.6573478481953
 31
0.0
  0
LINE
  5
363
  8
0
  6
CONTINUOUS
 62
     3
 10
-178.9796297318536
 20
62.55575981776975
 30
0.0
 11
-181.9250229356127
 21
67.65733040338436
 31
0.0
  0
LINE
  5
364
  8
0
  6
CONTINUOUS
 62
     3
 10
-169.0203338219074
 20
68.30576209551872
 30
0.0
 11
-171.9657215760989
 21
73.4073232422055
 31
0.0
  0
LINE
  5
365
  8
0
  6
CONTINUOUS
 62
     3
 10
-149.9999589579439
 20
112.7499844815047
 30
0.0
 11
-155.8907344663268
 21
112.7499844815047
 31
0.0
  0
LINE
  5
366
  8
0
  6
CONTINUOUS
 62
     3
 10
-149.9999589579439
 20
101.2499799260068
 30
0.0
 11
-155.8907344663268
 21
101.2499799260068
 31
0.0
  0
ARC
  5
367
  8
0
  6
CONTINUOUS
 62
     3
 10
-184.0598001490286
 20
-97.00000383172723
 30
0.0
 40
2.0
 50
269.9999838351435
 51
349.9999798003396
  0
ARC
  5
368
  8
0
  6
CONTINUOUS
 62
     3
 10
-211.9401368403458
 20
-97.00000383172723
 30
0.0
 40
2.0
 50
190.000020313346
 51
270.0000179860893
  0
CIRCLE
  5
369
  8
0
  6
CONTINUOUS
 62
     3
 10
-197.9999684946872
 20
107.0000040020262
 30
0.0
 40
84.50000906842111
  0
CIRCLE
  5
36A
  8
0
  6
CONTINUOUS
 62
     3
 10
-197.9999684946872
 20
107.0000040020262
 30
0.0
 40
81.99999812671113
  0
ARC
  5
36B
  8
0
  6
CONTINUOUS
 62
     3
 10
-227.9999690055842
 20
-50.99999650887074
 30
0.0
 40
5.000000085149494
 50
0.0
 51
90.00000250447816
  0
ARC
  5
36C
  8
0
  6
CONTINUOUS
 62
     3
 10
-256.9434073472603
 20
-15.97988428354066
 30
0.0
 40
20.00000034059797
 50
182.6183753301247
 51
252.9582042332873
  0
ARC
  5
36D
  8
0
  6
CONTINUOUS
 62
     3
 10
-139.0565296421141
 20
-15.97988428354066
 30
0.0
 40
20.00000034059797
 50
287.0417975879456
 51
357.3816247835608
  0
ARC
  5
36E
  8
0
  6
CONTINUOUS
 62
     3
 10
-167.9999679837903
 20
-50.99999650887074
 30
0.0
 40
5.000000085149494
 50
90.00000250447816
 51
180.0000050089563
  0
ARC
  5
36F
  8
0
  6
CONTINUOUS
 62
     3
 10
-274.0140689102934
 20
154.2451830292631
 30
0.0
 40
5.000000085149494
 50
275.2967613855425
 51
328.1377378426862
  0
ARC
  5
370
  8
0
  6
CONTINUOUS
 62
     3
 10
-274.0140689102934
 20
59.75482497478936
 30
0.0
 40
5.000000085149494
 50
31.86226215731379
 51
84.70323861445748
  0
ARC
  5
371
  8
0
  6
CONTINUOUS
 62
     3
 10
-121.9858680790811
 20
154.2451830292631
 30
0.0
 40
5.000000085149494
 50
211.8622673936412
 51
264.7032404356903
  0
ARC
  5
372
  8
0
  6
CONTINUOUS
 62
     3
 10
-121.9858680790811
 20
59.75482497478936
 30
0.0
 40
5.000000085149494
 50
95.2967595643097
 51
148.1377326063588
  0
ARC
  5
373
  8
0
  6
CONTINUOUS
 62
     3
 10
-197.9999684946872
 20
107.0000040020262
 30
0.0
 40
87.99998841966882
 50
28.58681249743561
 51
151.4131908039734
  0
CIRCLE
  5
374
  8
0
  6
CONTINUOUS
 62
     3
 10
-197.9999684946872
 20
107.0000040020262
 30
0.0
 40
60.49999885048183
  0
CIRCLE
  5
375
  8
0
  6
CONTINUOUS
 62
     3
 10
-197.9999684946872
 20
107.0000040020262
 30
0.0
 40
54.00000527926863
  0
CIRCLE
  5
376
  8
0
  6
CONTINUOUS
 62
     3
 10
-197.9999684946872
 20
107.0000040020262
 30
0.0
 40
32.99999838215962
  0
CIRCLE
  5
377
  8
0
  6
CONTINUOUS
 62
     3
 10
-252.8007768358635
 20
161.8007796457968
 30
0.0
 40
2.199999982970101
  0
ARC
  5
378
  8
0
  6
CONTINUOUS
 62
     3
 10
-173.9999419280451
 20
148.5692185771332
 30
0.0
 40
5.750002277748965
 50
329.999999165174
 51
149.9999973439411
  0
CIRCLE
  5
379
  8
0
  6
CONTINUOUS
 62
     3
 10
-197.9999684946872
 20
155.9999982970101
 30
0.0
 40
2.199999982970101
  0
CIRCLE
  5
37A
  8
0
  6
CONTINUOUS
 62
     3
 10
-197.9999684946872
 20
58.0000042574747
 30
0.0
 40
2.199999982970101
  0
CIRCLE
  5
37B
  8
0
  6
CONTINUOUS
 62
     3
 10
-240.4352283551902
 20
131.5000065990858
 30
0.0
 40
2.199999982970101
  0
CIRCLE
  5
37C
  8
0
  6
CONTINUOUS
 62
     3
 10
-155.5647086341842
 20
82.50000685453426
 30
0.0
 40
2.199999982970101
  0
CIRCLE
  5
37D
  8
0
  6
CONTINUOUS
 62
     3
 10
-155.5647086341842
 20
131.5000065990858
 30
0.0
 40
2.199999982970101
  0
CIRCLE
  5
37E
  8
0
  6
CONTINUOUS
 62
     3
 10
-240.4352283551902
 20
82.50000685453426
 30
0.0
 40
2.199999982970101
  0
ARC
  5
37F
  8
0
  6
CONTINUOUS
 62
     3
 10
133.5891746382913
 20
196.5000077060292
 30
0.0
 40
5.000000085149494
 50
269.9999974955218
 51
319.4581998228117
  0
ARC
  5
380
  8
0
  6
CONTINUOUS
 62
     3
 10
248.1601866340669
 20
143.0000002554485
 30
0.0
 40
0.5
 50
359.9999949910439
 51
90.00000250447816
  0
ARC
  5
381
  8
0
  6
CONTINUOUS
 62
     3
 10
245.16022146021
 20
71.00000229903634
 30
0.0
 40
0.5
 50
179.999991348578
 51
270.0000006832453
  0
ARC
  5
382
  8
0
  6
CONTINUOUS
 62
     3
 10
248.1601866340669
 20
71.00000229903634
 30
0.0
 40
0.5
 50
269.9999974955218
 51
0.0000086514222091
  0
ARC
  5
383
  8
0
  6
CONTINUOUS
 62
     3
 10
117.7200337430415
 20
-97.00000383172723
 30
0.0
 40
2.0
 50
190.0000066529676
 51
269.9999974955218
  0
ARC
  5
384
  8
0
  6
CONTINUOUS
 62
     3
 10
145.6003704343586
 20
-97.00000383172723
 30
0.0
 40
2.0
 50
269.9999974955218
 51
350.0000071210962
  0
ARC
  5
385
  8
0
  6
CONTINUOUS
 62
     3
 10
245.16022146021
 20
143.0000002554485
 30
0.0
 40
0.5
 50
90.00000250447816
 51
180.0000050089563
  0
ARC
  5
386
  8
0
  6
CONTINUOUS
 62
     3
 10
92.03766025879827
 20
153.8325962651218
 30
0.0
 40
4.099999906335556
 50
198.9669658633055
 51
264.7185878707553
  0
ARC
  5
387
  8
0
  6
CONTINUOUS
 62
     3
 10
141.1884876862337
 20
189.9999814374103
 30
0.0
 40
5.000000085149494
 50
89.999995674289
 51
139.4582014166734
  0
ARC
  5
388
  8
0
  6
CONTINUOUS
 62
     3
 10
92.03766025879827
 20
156.1674090141468
 30
0.0
 40
4.099999906335556
 50
95.28141212924467
 51
161.0330341366945
  0
ARC
  5
389
  8
0
  6
CONTINUOUS
 62
     3
 10
98.66023640394613
 20
-47.99999318804048
 30
0.0
 40
5.000000085149494
 50
179.999991348578
 51
270.0000006832453
  0
ARC
  5
38A
  8
0
  6
CONTINUOUS
 62
     3
 10
167.1602550091106
 20
-5.999997786113156
 30
0.0
 40
2.999999914850506
 50
131.8107391313336
 51
180.0000050089563
  0
ARC
  5
38B
  8
0
  6
CONTINUOUS
 62
     3
 10
159.1602897501041
 20
-47.99999318804048
 30
0.0
 40
5.000000085149494
 50
269.9999974955218
 51
0.0
  0
ARC
  5
38C
  8
0
  6
CONTINUOUS
 62
     3
 10
98.26655963942936
 20
-265.243251412992
 30
0.0
 40
0.8484000112056734
 50
270.000004325711
 51
349.9999934607179
  0
ARC
  5
38D
  8
0
  6
CONTINUOUS
 62
     3
 10
86.43969001837611
 20
-265.243251412992
 30
0.0
 40
0.8484000112056734
 50
189.9999929925893
 51
270.000004325711
  0
ARC
  5
38E
  8
0
  6
CONTINUOUS
 62
     3
 10
105.079129509911
 20
-246.0573074827417
 30
0.0
 40
2.120999985439437
 50
105.9453933105748
 51
180.0000050089563
  0
ARC
  5
38F
  8
0
  6
CONTINUOUS
 62
     3
 10
112.1015731283864
 20
-235.6685787553205
 30
0.0
 40
5.938799822991232
 50
285.9453951318076
 51
356.9310643113283
  0
ARC
  5
390
  8
0
  6
CONTINUOUS
 62
     3
 10
72.60467652941902
 20
-235.6685787553205
 30
0.0
 40
5.938799822991232
 50
183.0689355889138
 51
254.0546066894252
  0
ARC
  5
391
  8
0
  6
CONTINUOUS
 62
     3
 10
79.62712014789446
 20
-246.0573074827417
 30
0.0
 40
2.120999985439437
 50
359.9999949910439
 51
74.05460486819241
  0
CIRCLE
  5
392
  8
0
  6
CONTINUOUS
 62
     3
 10
92.35312482890274
 20
-199.9164288370342
 30
0.0
 40
11.66549974961791
  0
CIRCLE
  5
393
  8
0
  6
CONTINUOUS
 62
     3
 10
92.35312482890274
 20
-199.9164288370342
 30
0.0
 40
27.57300015131065
  0
ARC
  5
394
  8
0
  6
CONTINUOUS
 62
     3
 10
92.35312482890274
 20
-199.9164288370342
 30
0.0
 40
34.99649924885374
 50
88.13092806829334
 51
81.57664757752676
  0
CIRCLE
  5
395
  8
0
  6
CONTINUOUS
 62
     3
 10
92.35312482890274
 20
-199.9164288370342
 30
0.0
 40
21.21000053559032
  0
CIRCLE
  5
396
  8
0
  6
CONTINUOUS
 62
     3
 10
-308.1289289360205
 20
-240.562595649491
 30
0.0
 40
5.40430827488743
  0
CIRCLE
  5
397
  8
0
  6
CONTINUOUS
 62
     3
 10
-308.1289289360205
 20
-240.562595649491
 30
0.0
 40
2.316131971838338
  0
CIRCLE
  5
398
  8
0
  6
CONTINUOUS
 62
     3
 10
-322.797726270092
 20
-222.8055719444679
 30
0.0
 40
1.544087981225558
  0
CIRCLE
  5
399
  8
0
  6
CONTINUOUS
 62
     3
 10
-305.8127319099687
 20
-222.8055719444679
 30
0.0
 40
1.544087981225558
  0
CIRCLE
  5
39A
  8
0
  6
CONTINUOUS
 62
     3
 10
-252.8007768358635
 20
52.1992283582556
 30
0.0
 40
2.199999982970101
  0
CIRCLE
  5
39B
  8
0
  6
CONTINUOUS
 62
     3
 10
-143.1992037500518
 20
52.1992283582556
 30
0.0
 40
2.199999982970101
  0
CIRCLE
  5
39C
  8
0
  6
CONTINUOUS
 62
     3
 10
-143.1992037500518
 20
161.8007796457968
 30
0.0
 40
2.199999982970101
  0
CIRCLE
  5
39D
  8
0
  6
CONTINUOUS
 62
     3
 10
-214.9306415648229
 20
203.0187586889737
 30
0.0
 40
5.000000085149494
  0
CIRCLE
  5
39E
  8
0
  6
CONTINUOUS
 62
     3
 10
-181.0692518280106
 20
203.0187586889737
 30
0.0
 40
5.000000085149494
  0
ARC
  5
39F
  8
0
  6
CONTINUOUS
 62
     3
 10
-197.9999684946872
 20
107.0000040020262
 30
0.0
 40
106.4999952742031
 50
319.8885939480763
 51
337.8668488342018
  0
ARC
  5
3A0
  8
0
  6
CONTINUOUS
 62
     3
 10
-197.9999684946872
 20
107.0000040020262
 30
0.0
 40
106.4999952742031
 50
159.8788141292324
 51
200.1211822283019
  0
ARC
  5
3A1
  8
0
  6
CONTINUOUS
 62
     3
 10
-197.9999684946872
 20
107.0000040020262
 30
0.0
 40
106.4999952742031
 50
202.1331546945783
 51
220.1114283637241
  0
ARC
  5
3A2
  8
0
  6
CONTINUOUS
 62
     3
 10
-197.9999684946872
 20
107.0000040020262
 30
0.0
 40
106.4999952742031
 50
339.8788876674515
 51
20.12111233254851
  0
ARC
  5
3A3
  8
0
  6
CONTINUOUS
 62
     3
 10
-197.9999684946872
 20
107.0000040020262
 30
0.0
 40
106.4999952742031
 50
22.13313579787252
 51
157.8668453054217
  0
CIRCLE
  5
3A4
  8
0
  6
CONTINUOUS
 62
     3
 10
-197.9999684946872
 20
107.0000040020262
 30
0.0
 40
42.5000007237707
  0
CIRCLE
  5
3A5
  8
0
  6
CONTINUOUS
 62
     3
 10
-197.9999684946872
 20
107.0000040020262
 30
0.0
 40
41.49999416725966
  0
CIRCLE
  5
3A6
  8
0
  6
CONTINUOUS
 62
     3
 10
-173.9999419280451
 20
148.5692185771332
 30
0.0
 40
5.250002405473206
  0
ARC
  5
3A7
  8
0
  6
CONTINUOUS
 62
     3
 10
-221.9999514647884
 20
148.5692403754037
 30
0.0
 40
5.750002277748965
 50
30.00000083482606
 51
209.9999990135932
  0
CIRCLE
  5
3A8
  8
0
  6
CONTINUOUS
 62
     3
 10
-221.9999514647884
 20
148.5692403754037
 30
0.0
 40
5.250002405473206
  0
ARC
  5
3A9
  8
0
  6
CONTINUOUS
 62
     3
 10
-245.9999780314305
 20
107.0000258002967
 30
0.0
 40
5.750002277748965
 50
90.00000250447816
 51
270.0000006832453
  0
ARC
  5
3AA
  8
0
  6
CONTINUOUS
 62
     3
 10
-221.9999950613293
 20
65.43078942691922
 30
0.0
 40
5.750002277748965
 50
149.9999973439411
 51
329.9999886925191
  0
CIRCLE
  5
3AB
  8
0
  6
CONTINUOUS
 62
     3
 10
-245.9999780314305
 20
107.0000258002967
 30
0.0
 40
5.250002405473206
  0
ARC
  5
3AC
  8
0
  6
CONTINUOUS
 62
     3
 10
-173.999985524586
 20
65.43076217908114
 30
0.0
 40
5.750002277748965
 50
210.0000026560589
 51
30.00000083482606
  0
CIRCLE
  5
3AD
  8
0
  6
CONTINUOUS
 62
     3
 10
-221.9999950613293
 20
65.43078942691922
 30
0.0
 40
5.250002405473206
  0
CIRCLE
  5
3AE
  8
0
  6
CONTINUOUS
 62
     3
 10
-173.999985524586
 20
65.43076217908114
 30
0.0
 40
5.250002405473206
  0
ARC
  5
3AF
  8
0
  6
CONTINUOUS
 62
     3
 10
-149.9999589579439
 20
106.9999822037558
 30
0.0
 40
5.750002277748965
 50
269.9999974955218
 51
90.00000250447816
  0
CIRCLE
  5
3B0
  8
0
  6
CONTINUOUS
 62
     3
 10
-149.9999589579439
 20
107.0000258002967
 30
0.0
 40
5.250002405473206
  0
POLYLINE
  5
3B1
  8
0
  6
CONTINUOUS
 62
     3
 66
     1
 10
0.0
 20
0.0
 30
0.0
  0
VERTEX
  5
598
  8
0
  6
CONTINUOUS
 62
     3
 10
88.37825380697001
 20
170.2338547405831
 30
0.0
 40
0.18
 41
0.18
  0
VERTEX
  5
599
  8
0
  6
CONTINUOUS
 62
     3
 10
91.45562252968143
 20
169.6381535605658
 30
0.0
 40
0.18
 41
0.18
  0
VERTEX
  5
59A
  8
0
  6
CONTINUOUS
 62
     3
 10
94.05557154020393
 20
168.0425866321073
 30
0.0
 40
0.18
 41
0.18
  0
VERTEX
  5
59B
  8
0
  6
CONTINUOUS
 62
     3
 10
95.33715762873078
 20
165.3792529795899
 30
0.0
 40
0.18
 41
0.18
  0
VERTEX
  5
59C
  8
0
  6
CONTINUOUS
 62
     3
 10
95.34698017235672
 20
162.2876587214223
 30
0.0
 40
0.18
 41
0.18
  0
VERTEX
  5
59D
  8
0
  6
CONTINUOUS
 62
     3
 10
94.94218496072149
 20
159.3271407674144
 30
0.0
 40
0.18
 41
0.18
  0
VERTEX
  5
59E
  8
0
  6
CONTINUOUS
 62
     3
 10
95.51151820844868
 20
156.3543746707188
 30
0.0
 40
0.18
 41
0.18
  0
VERTEX
  5
59F
  8
0
  6
CONTINUOUS
 62
     3
 10
97.20525763325016
 20
153.8201207371339
 30
0.0
 40
0.18
 41
0.18
  0
VERTEX
  5
5A0
  8
0
  6
CONTINUOUS
 62
     3
 10
99.75648339628927
 20
152.1358746452902
 30
0.0
 40
0.18
 41
0.18
  0
VERTEX
  5
5A1
  8
0
  6
CONTINUOUS
 62
     3
 10
102.7722408985486
 20
151.3072905556099
 30
0.0
 40
0.18
 41
0.18
  0
VERTEX
  5
5A2
  8
0
  6
CONTINUOUS
 62
     3
 10
105.8520232484018
 20
151.2916495962792
 30
0.0
 40
0.18
 41
0.18
  0
VERTEX
  5
5A3
  8
0
  6
CONTINUOUS
 62
     3
 10
108.807347327146
 20
151.8579351464729
 30
0.0
 40
0.18
 41
0.18
  0
VERTEX
  5
5A4
  8
0
  6
CONTINUOUS
 62
     3
 10
111.7164596957713
 20
152.5382486660026
 30
0.0
 40
0.18
 41
0.18
  0
VERTEX
  5
5A5
  8
0
  6
CONTINUOUS
 62
     3
 10
114.6613111443501
 20
152.9205434293324
 30
0.0
 40
0.18
 41
0.18
  0
VERTEX
  5
5A6
  8
0
  6
CONTINUOUS
 62
     3
 10
117.650770874612
 20
152.9833088104259
 30
0.0
 40
0.18
 41
0.18
  0
VERTEX
  5
5A7
  8
0
  6
CONTINUOUS
 62
     3
 10
120.6686899797636
 20
152.8387268785079
 30
0.0
 40
0.18
 41
0.18
  0
VERTEX
  5
5A8
  8
0
  6
CONTINUOUS
 62
     3
 10
123.6988975465211
 20
152.5990973019023
 30
0.0
 40
0.18
 41
0.18
  0
VERTEX
  5
5A9
  8
0
  6
CONTINUOUS
 62
     3
 10
126.7256994477438
 20
152.3734663416785
 30
0.0
 40
0.18
 41
0.18
  0
VERTEX
  5
5AA
  8
0
  6
CONTINUOUS
 62
     3
 10
129.742448313372
 20
152.2091486303001
 30
0.0
 40
0.18
 41
0.18
  0
VERTEX
  5
5AB
  8
0
  6
CONTINUOUS
 62
     3
 10
132.7505905149027
 20
152.0982301870007
 30
0.0
 40
0.18
 41
0.18
  0
VERTEX
  5
5AC
  8
0
  6
CONTINUOUS
 62
     3
 10
135.7518578661965
 20
152.0308492809159
 30
0.0
 40
0.18
 41
0.18
  0
VERTEX
  5
5AD
  8
0
  6
CONTINUOUS
 62
     3
 10
138.7479821811142
 20
151.9971441811816
 30
0.0
 40
0.18
 41
0.18
  0
VERTEX
  5
5AE
  8
0
  6
CONTINUOUS
 62
     3
 10
141.7406952735166
 20
151.9872531569335
 30
0.0
 40
0.18
 41
0.18
  0
VERTEX
  5
5AF
  8
0
  6
CONTINUOUS
 62
     3
 10
144.7317289572644
 20
151.9913144773074
 30
0.0
 40
0.18
 41
0.18
  0
VERTEX
  5
5B0
  8
0
  6
CONTINUOUS
 62
     3
 10
147.7228150462182
 20
151.999466411439
 30
0.0
 40
0.18
 41
0.18
  0
VERTEX
  5
5B1
  8
0
  6
CONTINUOUS
 62
     3
 10
150.7156824466074
 20
152.001863166233
 30
0.0
 40
0.18
 41
0.18
  0
VERTEX
  5
5B2
  8
0
  6
CONTINUOUS
 62
     3
 10
153.7114287605901
 20
151.9921193522434
 30
0.0
 40
0.18
 41
0.18
  0
VERTEX
  5
5B3
  8
0
  6
CONTINUOUS
 62
     3
 10
156.709735685942
 20
151.9716106589002
 30
0.0
 40
0.18
 41
0.18
  0
VERTEX
  5
5B4
  8
0
  6
CONTINUOUS
 62
     3
 10
159.7100921900354
 20
151.9427691999815
 30
0.0
 40
0.18
 41
0.18
  0
VERTEX
  5
5B5
  8
0
  6
CONTINUOUS
 62
     3
 10
162.7119872402423
 20
151.9080270892656
 30
0.0
 40
0.18
 41
0.18
  0
VERTEX
  5
5B6
  8
0
  6
CONTINUOUS
 62
     3
 10
165.714909803935
 20
151.8698164405307
 30
0.0
 40
0.18
 41
0.18
  0
VERTEX
  5
5B7
  8
0
  6
CONTINUOUS
 62
     3
 10
168.7183488484856
 20
151.8305693675547
 30
0.0
 40
0.18
 41
0.18
  0
VERTEX
  5
5B8
  8
0
  6
CONTINUOUS
 62
     3
 10
171.7217933412664
 20
151.792717984116
 30
0.0
 40
0.18
 41
0.18
  0
VERTEX
  5
5B9
  8
0
  6
CONTINUOUS
 62
     3
 10
174.7247322502247
 20
151.7586944078077
 30
0.0
 40
0.18
 41
0.18
  0
VERTEX
  5
5BA
  8
0
  6
CONTINUOUS
 62
     3
 10
177.726782123218
 20
151.7317767199288
 30
0.0
 40
0.18
 41
0.18
  0
VERTEX
  5
5BB
  8
0
  6
CONTINUOUS
 62
     3
 10
180.7280447548294
 20
151.7184606017864
 30
0.0
 40
0.18
 41
0.18
  0
VERTEX
  5
5BC
  8
0
  6
CONTINUOUS
 62
     3
 10
183.7287372881704
 20
151.7260065938918
 30
0.0
 40
0.18
 41
0.18
  0
VERTEX
  5
5BD
  8
0
  6
CONTINUOUS
 62
     3
 10
186.7290768660589
 20
151.7616747106319
 30
0.0
 40
0.18
 41
0.18
  0
VERTEX
  5
5BE
  8
0
  6
CONTINUOUS
 62
     3
 10
189.7292775478173
 20
151.827196424349
 30
0.0
 40
0.18
 41
0.18
  0
VERTEX
  5
5BF
  8
0
  6
CONTINUOUS
 62
     3
 10
192.7295427038241
 20
151.9051385046726
 30
0.0
 40
0.18
 41
0.18
  0
VERTEX
  5
5C0
  8
0
  6
CONTINUOUS
 62
     3
 10
195.730073389883
 20
151.9739178133168
 30
0.0
 40
0.18
 41
0.18
  0
VERTEX
  5
5C1
  8
0
  6
CONTINUOUS
 62
     3
 10
198.731070661798
 20
152.0119512119959
 30
0.0
 40
0.18
 41
0.18
  0
VERTEX
  5
5C2
  8
0
  6
CONTINUOUS
 62
     3
 10
201.7327353988667
 20
151.9976707481243
 30
0.0
 40
0.18
 41
0.18
  0
VERTEX
  5
5C3
  8
0
  6
CONTINUOUS
 62
     3
 10
204.7350697766636
 20
151.9266039232808
 30
0.0
 40
0.18
 41
0.18
  0
VERTEX
  5
5C4
  8
0
  6
CONTINUOUS
 62
     3
 10
207.7374961746037
 20
151.8441609413575
 30
0.0
 40
0.18
 41
0.18
  0
VERTEX
  5
5C5
  8
0
  6
CONTINUOUS
 62
     3
 10
210.7393317921632
 20
151.8048011513537
 30
0.0
 40
0.18
 41
0.18
  0
VERTEX
  5
5C6
  8
0
  6
CONTINUOUS
 62
     3
 10
213.7398938288182
 20
151.8629839022689
 30
0.0
 40
0.18
 41
0.18
  0
VERTEX
  5
5C7
  8
0
  6
CONTINUOUS
 62
     3
 10
216.7384994840447
 20
152.0731685431027
 30
0.0
 40
0.18
 41
0.18
  0
VERTEX
  5
5C8
  8
0
  6
CONTINUOUS
 62
     3
 10
219.731852964753
 20
152.4919957224086
 30
0.0
 40
0.18
 41
0.18
  0
VERTEX
  5
5C9
  8
0
  6
CONTINUOUS
 62
     3
 10
222.6610187261916
 20
153.2225535861675
 30
0.0
 40
0.18
 41
0.18
  0
VERTEX
  5
5CA
  8
0
  6
CONTINUOUS
 62
     3
 10
225.4138176918491
 20
154.4122734877301
 30
0.0
 40
0.18
 41
0.18
  0
VERTEX
  5
5CB
  8
0
  6
CONTINUOUS
 62
     3
 10
227.8919251483366
 20
156.1336282412699
 30
0.0
 40
0.18
 41
0.18
  0
VERTEX
  5
5CC
  8
0
  6
CONTINUOUS
 62
     3
 10
230.0401466202611
 20
158.2521271312101
 30
0.0
 40
0.18
 41
0.18
  0
VERTEX
  5
5CD
  8
0
  6
CONTINUOUS
 62
     3
 10
231.8405551453731
 20
160.6239075022965
 30
0.0
 40
0.18
 41
0.18
  0
VERTEX
  5
5CE
  8
0
  6
CONTINUOUS
 62
     3
 10
233.4215508012532
 20
163.2272499948226
 30
0.0
 40
0.18
 41
0.18
  0
VERTEX
  5
5CF
  8
0
  6
CONTINUOUS
 62
     3
 10
234.9750587957269
 20
165.9596167159664
 30
0.0
 40
0.18
 41
0.18
  0
VERTEX
  5
5D0
  8
0
  6
CONTINUOUS
 62
     3
 10
236.7415197343134
 20
168.4189511076702
 30
0.0
 40
0.18
 41
0.18
  0
VERTEX
  5
5D1
  8
0
  6
CONTINUOUS
 62
     3
 10
238.9672313098624
 20
170.15904249557
 30
0.0
 40
0.18
 41
0.18
  0
VERTEX
  5
5D2
  8
0
  6
CONTINUOUS
 62
     3
 10
241.7366775647905
 20
170.9837319700975
 30
0.0
 40
0.18
 41
0.18
  0
VERTEX
  5
5D3
  8
0
  6
CONTINUOUS
 62
     3
 10
244.8425861506705
 20
171.1477138113001
 30
0.0
 40
0.18
 41
0.18
  0
VERTEX
  5
5D4
  8
0
  6
CONTINUOUS
 62
     3
 10
248.0471053546364
 20
170.9529368047862
 30
0.0
 40
0.18
 41
0.18
  0
VERTEX
  5
5D5
  8
0
  6
CONTINUOUS
 62
     3
 10
251.1491825953926
 20
170.6513520138578
 30
0.0
 40
0.18
 41
0.18
  0
VERTEX
  5
5D6
  8
0
  6
CONTINUOUS
 62
     3
 10
254.1299275133351
 20
170.2474129173264
 30
0.0
 40
0.18
 41
0.18
  0
VERTEX
  5
5D7
  8
0
  6
CONTINUOUS
 62
     3
 10
257.0267137848562
 20
169.6691289713439
 30
0.0
 40
0.18
 41
0.18
  0
VERTEX
  5
5D8
  8
0
  6
CONTINUOUS
 62
     3
 10
259.8769313927536
 20
168.8444874771065
 30
0.0
 40
0.18
 41
0.18
  0
SEQEND
  5
914
  8
0
  6
CONTINUOUS
 62
     3
  0
POLYLINE
  5
3B2
  8
0
  6
CONTINUOUS
 62
     3
 66
     1
 10
0.0
 20
0.0
 30
0.0
  0
VERTEX
  5
5D9
  8
0
  6
CONTINUOUS
 62
     3
 10
88.37825380697001
 20
43.7661505386855
 30
0.0
 40
0.18
 41
0.18
  0
VERTEX
  5
5DA
  8
0
  6
CONTINUOUS
 62
     3
 10
91.45562309810425
 20
44.36185106949122
 30
0.0
 40
0.18
 41
0.18
  0
VERTEX
  5
5DB
  8
0
  6
CONTINUOUS
 62
     3
 10
94.0555724830688
 20
45.95741716405882
 30
0.0
 40
0.18
 41
0.18
  0
VERTEX
  5
5DC
  8
0
  6
CONTINUOUS
 62
     3
 10
95.33715782183279
 20
48.62075105843906
 30
0.0
 40
0.18
 41
0.18
  0
VERTEX
  5
5DD
  8
0
  6
CONTINUOUS
 62
     3
 10
95.34698009260671
 20
51.71234570418177
 30
0.0
 40
0.18
 41
0.18
  0
VERTEX
  5
5DE
  8
0
  6
CONTINUOUS
 62
     3
 10
94.9421850284832
 20
54.67286386885783
 30
0.0
 40
0.18
 41
0.18
  0
VERTEX
  5
5DF
  8
0
  6
CONTINUOUS
 62
     3
 10
95.51151538583011
 20
57.6456310392443
 30
0.0
 40
0.18
 41
0.18
  0
VERTEX
  5
5E0
  8
0
  6
CONTINUOUS
 62
     3
 10
97.20525167140154
 20
60.17988664551354
 30
0.0
 40
0.18
 41
0.18
  0
VERTEX
  5
5E1
  8
0
  6
CONTINUOUS
 62
     3
 10
99.75647642751757
 20
61.86413333757
 30
0.0
 40
0.18
 41
0.18
  0
VERTEX
  5
5E2
  8
0
  6
CONTINUOUS
 62
     3
 10
102.7722344792255
 20
62.69271741618161
 30
0.0
 40
0.18
 41
0.18
  0
VERTEX
  5
5E3
  8
0
  6
CONTINUOUS
 62
     3
 10
105.8520178559032
 20
62.70835875359099
 30
0.0
 40
0.18
 41
0.18
  0
VERTEX
  5
5E4
  8
0
  6
CONTINUOUS
 62
     3
 10
108.8073423369859
 20
62.14207373899529
 30
0.0
 40
0.18
 41
0.18
  0
VERTEX
  5
5E5
  8
0
  6
CONTINUOUS
 62
     3
 10
111.71645466853
 20
61.46176029946193
 30
0.0
 40
0.18
 41
0.18
  0
VERTEX
  5
5E6
  8
0
  6
CONTINUOUS
 62
     3
 10
114.6613060604714
 20
61.07946511590561
 30
0.0
 40
0.18
 41
0.18
  0
VERTEX
  5
5E7
  8
0
  6
CONTINUOUS
 62
     3
 10
117.650765882757
 20
61.01669934557712
 30
0.0
 40
0.18
 41
0.18
  0
VERTEX
  5
5E8
  8
0
  6
CONTINUOUS
 62
     3
 10
120.6686851847181
 20
61.16128097456159
 30
0.0
 40
0.18
 41
0.18
  0
VERTEX
  5
5E9
  8
0
  6
CONTINUOUS
 62
     3
 10
123.6988930080328
 20
61.40091038421025
 30
0.0
 40
0.18
 41
0.18
  0
VERTEX
  5
5EA
  8
0
  6
CONTINUOUS
 62
     3
 10
126.7256951779923
 20
61.62654133536972
 30
0.0
 40
0.18
 41
0.18
  0
VERTEX
  5
5EB
  8
0
  6
CONTINUOUS
 62
     3
 10
129.7424442861852
 20
61.79085908127748
 30
0.0
 40
0.18
 41
0.18
  0
VERTEX
  5
5EC
  8
0
  6
CONTINUOUS
 62
     3
 10
132.7505867048319
 20
61.90177757690083
 30
0.0
 40
0.18
 41
0.18
  0
VERTEX
  5
5ED
  8
0
  6
CONTINUOUS
 62
     3
 10
135.7518542520318
 20
61.96915854500917
 30
0.0
 40
0.18
 41
0.18
  0
VERTEX
  5
5EE
  8
0
  6
CONTINUOUS
 62
     3
 10
138.747978745884
 20
62.00286370837199
 30
0.0
 40
0.18
 41
0.18
  0
VERTEX
  5
5EF
  8
0
  6
CONTINUOUS
 62
     3
 10
141.740692004488
 20
62.0127547897587
 30
0.0
 40
0.18
 41
0.18
  0
VERTEX
  5
5F0
  8
0
  6
CONTINUOUS
 62
     3
 10
144.731725845943
 20
62.00869351193874
 30
0.0
 40
0.18
 41
0.18
  0
VERTEX
  5
5F1
  8
0
  6
CONTINUOUS
 62
     3
 10
147.7228120883484
 20
62.00054159768155
 30
0.0
 40
0.18
 41
0.18
  0
VERTEX
  5
5F2
  8
0
  6
CONTINUOUS
 62
     3
 10
150.715679642209
 20
61.99814483224139
 30
0.0
 40
0.18
 41
0.18
  0
VERTEX
  5
5F3
  8
0
  6
CONTINUOUS
 62
     3
 10
153.7114261142786
 20
62.0078886100886
 30
0.0
 40
0.18
 41
0.18
  0
VERTEX
  5
5F4
  8
0
  6
CONTINUOUS
 62
     3
 10
156.7097332038855
 20
62.02839725505386
 30
0.0
 40
0.18
 41
0.18
  0
VERTEX
  5
5F5
  8
0
  6
CONTINUOUS
 62
     3
 10
159.7100898789547
 20
62.0572386645324
 30
0.0
 40
0.18
 41
0.18
  0
VERTEX
  5
5F6
  8
0
  6
CONTINUOUS
 62
     3
 10
162.7119851074113
 20
62.09198073591945
 30
0.0
 40
0.18
 41
0.18
  0
VERTEX
  5
5F7
  8
0
  6
CONTINUOUS
 62
     3
 10
165.7149078571803
 20
62.13019136661021
 30
0.0
 40
0.18
 41
0.18
  0
VERTEX
  5
5F8
  8
0
  6
CONTINUOUS
 62
     3
 10
168.7183470961868
 20
62.16943845399989
 30
0.0
 40
0.18
 41
0.18
  0
VERTEX
  5
5F9
  8
0
  6
CONTINUOUS
 62
     3
 10
171.7217917923557
 20
62.20728989548378
 30
0.0
 40
0.18
 41
0.18
  0
VERTEX
  5
5FA
  8
0
  6
CONTINUOUS
 62
     3
 10
174.7247309141874
 20
62.24131358464225
 30
0.0
 40
0.18
 41
0.18
  0
VERTEX
  5
5FB
  8
0
  6
CONTINUOUS
 62
     3
 10
177.7267810062924
 20
62.26823143238062
 30
0.0
 40
0.18
 41
0.18
  0
VERTEX
  5
5FC
  8
0
  6
CONTINUOUS
 62
     3
 10
180.7280438462043
 20
62.28154767314411
 30
0.0
 40
0.18
 41
0.18
  0
VERTEX
  5
5FD
  8
0
  6
CONTINUOUS
 62
     3
 10
183.7287365568581
 20
62.27400166297566
 30
0.0
 40
0.18
 41
0.18
  0
VERTEX
  5
5FE
  8
0
  6
CONTINUOUS
 62
     3
 10
186.7290762608969
 20
62.23833328404366
 30
0.0
 40
0.18
 41
0.18
  0
VERTEX
  5
5FF
  8
0
  6
CONTINUOUS
 62
     3
 10
189.7292770135981
 20
62.1728110366313
 30
0.0
 40
0.18
 41
0.18
  0
VERTEX
  5
600
  8
0
  6
CONTINUOUS
 62
     3
 10
192.7295422372019
 20
62.09486839903654
 30
0.0
 40
0.18
 41
0.18
  0
VERTEX
  5
601
  8
0
  6
CONTINUOUS
 62
     3
 10
195.7300730514786
 20
62.02608881962605
 30
0.0
 40
0.18
 41
0.18
  0
VERTEX
  5
602
  8
0
  6
CONTINUOUS
 62
     3
 10
198.7310705761986
 20
61.98805574676651
 30
0.0
 40
0.18
 41
0.18
  0
VERTEX
  5
603
  8
0
  6
CONTINUOUS
 62
     3
 10
201.7327357545738
 20
62.00233744286607
 30
0.0
 40
0.18
 41
0.18
  0
VERTEX
  5
604
  8
0
  6
CONTINUOUS
 62
     3
 10
204.7350707676398
 20
62.07340646891603
 30
0.0
 40
0.18
 41
0.18
  0
VERTEX
  5
605
  8
0
  6
CONTINUOUS
 62
     3
 10
207.7374978298826
 20
62.15585197659422
 30
0.0
 40
0.18
 41
0.18
  0
VERTEX
  5
606
  8
0
  6
CONTINUOUS
 62
     3
 10
210.7393339449708
 20
62.19521384696267
 30
0.0
 40
0.18
 41
0.18
  0
VERTEX
  5
607
  8
0
  6
CONTINUOUS
 62
     3
 10
213.7398961165728
 20
62.13703196108339
 30
0.0
 40
0.18
 41
0.18
  0
VERTEX
  5
608
  8
0
  6
CONTINUOUS
 62
     3
 10
216.7385013483573
 20
61.92684620001842
 30
0.0
 40
0.18
 41
0.18
  0
VERTEX
  5
609
  8
0
  6
CONTINUOUS
 62
     3
 10
219.7318536781259
 20
61.50801523731988
 30
0.0
 40
0.18
 41
0.18
  0
VERTEX
  5
60A
  8
0
  6
CONTINUOUS
 62
     3
 10
222.6610180788835
 20
60.77745230784836
 30
0.0
 40
0.18
 41
0.18
  0
VERTEX
  5
60B
  8
0
  6
CONTINUOUS
 62
     3
 10
225.4138167130927
 20
59.58772946056001
 30
0.0
 40
0.18
 41
0.18
  0
VERTEX
  5
60C
  8
0
  6
CONTINUOUS
 62
     3
 10
227.8919254075645
 20
57.86637561899554
 30
0.0
 40
0.18
 41
0.18
  0
VERTEX
  5
60D
  8
0
  6
CONTINUOUS
 62
     3
 10
230.0401482998337
 20
55.74787875000557
 30
0.0
 40
0.18
 41
0.18
  0
VERTEX
  5
60E
  8
0
  6
CONTINUOUS
 62
     3
 10
231.8405571285419
 20
53.37609865820477
 30
0.0
 40
0.18
 41
0.18
  0
VERTEX
  5
60F
  8
0
  6
CONTINUOUS
 62
     3
 10
233.4215522277252
 20
50.77275513204913
 30
0.0
 40
0.18
 41
0.18
  0
VERTEX
  5
610
  8
0
  6
CONTINUOUS
 62
     3
 10
234.9750593735506
 20
48.0403874482048
 30
0.0
 40
0.18
 41
0.18
  0
VERTEX
  5
611
  8
0
  6
CONTINUOUS
 62
     3
 10
236.7415194925537
 20
45.58105233959747
 30
0.0
 40
0.18
 41
0.18
  0
VERTEX
  5
612
  8
0
  6
CONTINUOUS
 62
     3
 10
238.9672305397424
 20
43.8409603287319
 30
0.0
 40
0.18
 41
0.18
  0
VERTEX
  5
613
  8
0
  6
CONTINUOUS
 62
     3
 10
241.736676743466
 20
43.01627040164522
 30
0.0
 40
0.18
 41
0.18
  0
VERTEX
  5
614
  8
0
  6
CONTINUOUS
 62
     3
 10
244.8425855780039
 20
42.85228841753214
 30
0.0
 40
0.18
 41
0.18
  0
VERTEX
  5
615
  8
0
  6
CONTINUOUS
 62
     3
 10
248.0471050853661
 20
43.0470656906169
 30
0.0
 40
0.18
 41
0.18
  0
VERTEX
  5
616
  8
0
  6
CONTINUOUS
 62
     3
 10
251.1491824770102
 20
43.34865118976767
 30
0.0
 40
0.18
 41
0.18
  0
VERTEX
  5
617
  8
0
  6
CONTINUOUS
 62
     3
 10
254.1299274175049
 20
43.75259119307501
 30
0.0
 40
0.18
 41
0.18
  0
VERTEX
  5
618
  8
0
  6
CONTINUOUS
 62
     3
 10
257.0267136921566
 20
44.33087593428799
 30
0.0
 40
0.18
 41
0.18
  0
VERTEX
  5
619
  8
0
  6
CONTINUOUS
 62
     3
 10
259.8769313927535
 20
45.15551780216208
 30
0.0
 40
0.18
 41
0.18
  0
SEQEND
  5
915
  8
0
  6
CONTINUOUS
 62
     3
  0
LINE
  5
3B3
  8
0
  6
CONTINUOUS
 62
     4
 10
227.6540304533759
 20
-192.3039932302746
 30
0.0
 11
227.6540304533759
 21
-203.6160095013211
 31
0.0
  0
LINE
  5
3B4
  8
0
  6
CONTINUOUS
 62
     4
 10
296.9400074982644
 20
-192.3039932302746
 30
0.0
 11
296.9400074982644
 21
-205.0299979112829
 31
0.0
  0
LINE
  5
3B5
  8
0
  6
CONTINUOUS
 62
     4
 10
330.8760781096744
 20
-192.3039932302746
 30
0.0
 11
330.8760781096744
 21
-205.0299979112829
 31
0.0
  0
LINE
  5
3B6
  8
0
  6
CONTINUOUS
 62
     4
 10
354.9140772634588
 20
-192.3039932302746
 30
0.0
 11
354.9140772634588
 21
-205.0299979112829
 31
0.0
  0
LINE
  5
3B7
  8
0
  6
CONTINUOUS
 62
     4
 10
148.4700691439436
 20
-251.6920078088898
 30
0.0
 11
217.7560461888321
 21
-251.6920078088898
 31
0.0
  0
LINE
  5
3B8
  8
0
  6
CONTINUOUS
 62
     4
 10
217.7560461888321
 20
-202.2019992930889
 30
0.0
 11
148.4700691439436
 21
-202.2019992930889
 31
0.0
  0
LINE
  5
3B9
  8
0
  6
CONTINUOUS
 62
     4
 10
217.7560461888321
 20
-212.1000053559032
 30
0.0
 11
148.4700691439436
 21
-212.1000053559032
 31
0.0
  0
LINE
  5
3BA
  8
0
  6
CONTINUOUS
 62
     4
 10
217.7560461888321
 20
-221.9980114187175
 30
0.0
 11
148.4700691439436
 21
-221.9980114187175
 31
0.0
  0
LINE
  5
3BB
  8
0
  6
CONTINUOUS
 62
     4
 10
217.7560461888321
 20
-231.8959956832612
 30
0.0
 11
148.4700691439436
 21
-231.8959956832612
 31
0.0
  0
LINE
  5
3BC
  8
0
  6
CONTINUOUS
 62
     4
 10
217.7560461888321
 20
-241.7940017460755
 30
0.0
 11
148.4700691439436
 21
-241.7940017460755
 31
0.0
  0
LINE
  5
3BD
  8
0
  6
CONTINUOUS
 62
     4
 10
183.1130140698469
 20
-192.3039932302746
 30
0.0
 11
183.1130140698469
 21
-257.3480050452778
 31
0.0
  0
LINE
  5
3BE
  8
0
  6
CONTINUOUS
 62
     4
 10
165.4380172565668
 20
-192.3039932302746
 30
0.0
 11
165.4380172565668
 21
-251.6920078088898
 31
0.0
  0
LINE
  5
3BF
  8
0
  6
CONTINUOUS
 62
     4
 10
159.7820636167197
 20
-192.3039932302746
 30
0.0
 11
159.7820636167197
 21
-251.6920078088898
 31
0.0
  0
LINE
  5
3C0
  8
0
  6
CONTINUOUS
 62
     4
 10
314.3794086044074
 20
-245.221191222688
 30
0.0
 11
314.3794086044074
 21
-237.5520147179197
 31
0.0
  0
LINE
  5
3C1
  8
0
  6
CONTINUOUS
 62
     4
 10
295.054718682676
 20
-257.3480050452778
 30
0.0
 11
295.054718682676
 21
-237.5520147179197
 31
0.0
  0
LINE
  5
3C2
  8
0
  6
CONTINUOUS
 62
     4
 10
256.405426032295
 20
-257.3480050452778
 30
0.0
 11
256.405426032295
 21
-237.5520147179197
 31
0.0
  0
LINE
  5
3C3
  8
0
  6
CONTINUOUS
 62
     4
 10
217.7560461888321
 20
-243.2080119543078
 30
0.0
 11
333.7040113330571
 21
-243.2080119543078
 31
0.0
  0
LINE
  5
3C4
  8
0
  6
CONTINUOUS
 62
     4
 10
333.7040113330571
 20
-227.6540086551055
 30
0.0
 11
371.8820253760819
 21
-227.6540086551055
 31
0.0
  0
LINE
  5
3C5
  8
0
  6
CONTINUOUS
 62
     4
 10
296.9400074982644
 20
-216.3420141823294
 30
0.0
 11
296.9400074982644
 21
-217.7560025922912
 31
0.0
  0
LINE
  5
3C6
  8
0
  6
CONTINUOUS
 62
     4
 10
330.8760781096744
 20
-216.3420141823294
 30
0.0
 11
330.8760781096744
 21
-217.7560025922912
 31
0.0
  0
LINE
  5
3C7
  8
0
  6
CONTINUOUS
 62
     4
 10
354.9140772634588
 20
-216.3420141823294
 30
0.0
 11
354.9140772634588
 21
-217.7560025922912
 31
0.0
  0
LINE
  5
3C8
  8
0
  6
CONTINUOUS
 62
     4
 10
371.8820253760819
 20
-243.2080119543078
 30
0.0
 11
402.9899883779456
 21
-243.2080119543078
 31
0.0
  0
LINE
  5
3C9
  8
0
  6
CONTINUOUS
 62
     4
 10
149.883980631201
 20
-201.4949782612049
 30
0.0
 11
154.1259841755509
 21
-193.0109711725051
 31
0.0
  0
LINE
  5
3CA
  8
0
  6
CONTINUOUS
 62
     4
 10
154.1260621634133
 20
-193.0109833581086
 30
0.0
 11
158.3680559592803
 21
-201.4949709498428
 31
0.0
  0
LINE
  5
3CB
  8
0
  6
CONTINUOUS
 62
     4
 10
149.8840793521758
 20
-201.4949941889728
 30
0.0
 11
158.3680534084874
 21
-201.4949941889728
 31
0.0
  0
LINE
  5
3CC
  8
0
  6
CONTINUOUS
 62
     4
 10
149.8839903796838
 20
-211.3929832818603
 30
0.0
 11
154.1259939240337
 21
-202.9089761931606
 31
0.0
  0
LINE
  5
3CD
  8
0
  6
CONTINUOUS
 62
     4
 10
154.1260621634133
 20
-202.9090078757297
 30
0.0
 11
158.3680559592803
 21
-211.3929954674638
 31
0.0
  0
LINE
  5
3CE
  8
0
  6
CONTINUOUS
 62
     4
 10
149.8840793521758
 20
-211.393000251787
 30
0.0
 11
158.3680534084874
 21
-211.393000251787
 31
0.0
  0
LINE
  5
3CF
  8
0
  6
CONTINUOUS
 62
     4
 10
149.8840001281666
 20
-221.2909883025158
 30
0.0
 11
154.1260036725165
 21
-212.806981213816
 31
0.0
  0
LINE
  5
3D0
  8
0
  6
CONTINUOUS
 62
     4
 10
154.1260426664477
 20
-212.8069933994195
 30
0.0
 11
158.3680559592803
 21
-221.2910199850849
 31
0.0
  0
LINE
  5
3D1
  8
0
  6
CONTINUOUS
 62
     4
 10
149.8840793521758
 20
-221.2910063146013
 30
0.0
 11
158.3680534084874
 21
-221.2910063146013
 31
0.0
  0
LINE
  5
3D2
  8
0
  6
CONTINUOUS
 62
     4
 10
149.8840001281666
 20
-231.1890128201368
 30
0.0
 11
154.1260036725165
 21
-222.7050057314371
 31
0.0
  0
LINE
  5
3D3
  8
0
  6
CONTINUOUS
 62
     4
 10
154.1260426664477
 20
-222.7050179170405
 30
0.0
 11
158.3680364623148
 21
-231.1890055087748
 31
0.0
  0
LINE
  5
3D4
  8
0
  6
CONTINUOUS
 62
     4
 10
149.8840793521758
 20
-231.1890123774156
 30
0.0
 11
158.3680534084874
 21
-231.1890123774156
 31
0.0
  0
LINE
  5
3D5
  8
0
  6
CONTINUOUS
 62
     4
 10
149.8840196251322
 20
-241.0869983438267
 30
0.0
 11
154.1260231694821
 21
-232.6029912551269
 31
0.0
  0
LINE
  5
3D6
  8
0
  6
CONTINUOUS
 62
     4
 10
154.1260231694821
 20
-232.6030034407304
 30
0.0
 11
158.3680364623148
 21
-241.0870300263958
 31
0.0
  0
LINE
  5
3D7
  8
0
  6
CONTINUOUS
 62
     4
 10
149.8840793521758
 20
-241.0869966419594
 30
0.0
 11
158.3680534084874
 21
-241.0869966419594
 31
0.0
  0
LINE
  5
3D8
  8
0
  6
CONTINUOUS
 62
     4
 10
-123.1081738320108
 20
-174.4398746224791
 30
0.0
 11
-101.1440185332983
 21
-174.4398746224791
 31
0.0
  0
LINE
  5
3D9
  8
0
  6
CONTINUOUS
 62
     4
 10
-123.1081738320108
 20
-191.4398879909496
 30
0.0
 11
29.63034544042767
 21
-191.4398879909496
 31
0.0
  0
LINE
  5
3DA
  8
0
  6
CONTINUOUS
 62
     4
 10
-123.1081738320108
 20
-199.9398837760497
 30
0.0
 11
29.63034544042767
 21
-199.9398837760497
 31
0.0
  0
LINE
  5
3DB
  8
0
  6
CONTINUOUS
 62
     4
 10
-123.1081738320108
 20
-208.4398795611497
 30
0.0
 11
29.63034544042767
 21
-208.4398795611497
 31
0.0
  0
LINE
  5
3DC
  8
0
  6
CONTINUOUS
 62
     4
 10
-123.1081738320108
 20
-225.4398711313498
 30
0.0
 11
29.63034544042767
 21
-225.4398711313498
 31
0.0
  0
LINE
  5
3DD
  8
0
  6
CONTINUOUS
 62
     4
 10
-123.1081738320108
 20
-216.9398753462498
 30
0.0
 11
29.63034544042767
 21
-216.9398753462498
 31
0.0
  0
LINE
  5
3DE
  8
0
  6
CONTINUOUS
 62
     4
 10
-123.1081738320108
 20
-182.9398704075791
 30
0.0
 11
29.63034544042767
 21
-182.9398704075791
 31
0.0
  0
LINE
  5
3DF
  8
0
  6
CONTINUOUS
 62
     4
 10
-123.1081738320108
 20
-242.4398844998204
 30
0.0
 11
29.63034544042767
 21
-242.4398844998204
 31
0.0
  0
LINE
  5
3E0
  8
0
  6
CONTINUOUS
 62
     4
 10
-123.1081738320108
 20
-250.9398802849204
 30
0.0
 11
29.63034544042767
 21
-250.9398802849204
 31
0.0
  0
LINE
  5
3E1
  8
0
  6
CONTINUOUS
 62
     4
 10
-123.1081738320108
 20
-259.4398760700205
 30
0.0
 11
29.63034544042767
 21
-259.4398760700205
 31
0.0
  0
LINE
  5
3E2
  8
0
  6
CONTINUOUS
 62
     4
 10
-123.1081738320108
 20
-267.9398718551205
 30
0.0
 11
29.63034544042767
 21
-267.9398718551205
 31
0.0
  0
LINE
  5
3E3
  8
0
  6
CONTINUOUS
 62
     4
 10
-123.1081738320108
 20
-233.9398887147203
 30
0.0
 11
29.63034544042767
 21
-233.9398887147203
 31
0.0
  0
LINE
  5
3E4
  8
0
  6
CONTINUOUS
 62
     4
 10
-220.8249603976082
 20
150.6043706706475
 30
0.0
 11
-219.6499573258402
 21
148.5692056878235
 31
0.0
  0
LINE
  5
3E5
  8
0
  6
CONTINUOUS
 62
     4
 10
-223.1749654356917
 20
150.604010830675
 30
0.0
 11
-220.8249810904261
 21
150.604010830675
 31
0.0
  0
LINE
  5
3E6
  8
0
  6
CONTINUOUS
 62
     4
 10
-224.3499412260256
 20
148.5692199793154
 30
0.0
 11
-223.1749469523431
 21
150.6043648236539
 31
0.0
  0
LINE
  5
3E7
  8
0
  6
CONTINUOUS
 62
     4
 10
-220.8249810904261
 20
146.533837770289
 30
0.0
 11
-223.1749654356917
 21
146.533837770289
 31
0.0
  0
LINE
  5
3E8
  8
0
  6
CONTINUOUS
 62
     4
 10
-223.1749437978021
 20
146.534053762819
 30
0.0
 11
-224.3499468695701
 21
148.5692187456431
 31
0.0
  0
LINE
  5
3E9
  8
0
  6
CONTINUOUS
 62
     4
 10
-219.6499486527128
 20
148.5692183611236
 30
0.0
 11
-220.8249647247048
 21
146.5340356210245
 31
0.0
  0
LINE
  5
3EA
  8
0
  6
CONTINUOUS
 62
     4
 10
-248.349621279518
 20
106.9998145707271
 30
0.0
 11
-247.1746291068852
 21
109.0349606756955
 31
0.0
  0
LINE
  5
3EB
  8
0
  6
CONTINUOUS
 62
     4
 10
-247.1749920023338
 20
109.0351668261659
 30
0.0
 11
-244.8249640605273
 21
109.0351668261659
 31
0.0
  0
LINE
  5
3EC
  8
0
  6
CONTINUOUS
 62
     4
 10
-243.6497559020571
 20
106.9998741455025
 30
0.0
 11
-244.8247480746898
 21
104.9647280405341
 31
0.0
  0
LINE
  5
3ED
  8
0
  6
CONTINUOUS
 62
     4
 10
-244.8249640605273
 20
104.9648411778866
 30
0.0
 11
-247.1749920023338
 21
104.9648411778866
 31
0.0
  0
LINE
  5
3EE
  8
0
  6
CONTINUOUS
 62
     4
 10
-244.8249657520693
 20
109.0351604941519
 30
0.0
 11
-243.6499756804862
 21
107.0000131285536
 31
0.0
  0
LINE
  5
3EF
  8
0
  6
CONTINUOUS
 62
     4
 10
-247.1749564834611
 20
104.9648453306469
 30
0.0
 11
-248.3499573841242
 21
107.0000115741125
 31
0.0
  0
LINE
  5
3F0
  8
0
  6
CONTINUOUS
 62
     4
 10
-223.17464613953
 20
63.3958088362813
 30
0.0
 11
-224.349649211298
 21
65.43097381910536
 31
0.0
  0
LINE
  5
3F1
  8
0
  6
CONTINUOUS
 62
     4
 10
-224.349919618986
 20
65.43078709988245
 30
0.0
 11
-223.1749274463533
 21
67.46593320485087
 31
0.0
  0
LINE
  5
3F2
  8
0
  6
CONTINUOUS
 62
     4
 10
-219.6499409743913
 20
65.43078127984646
 30
0.0
 11
-220.8249331470241
 21
63.39563517487804
 31
0.0
  0
LINE
  5
3F3
  8
0
  6
CONTINUOUS
 62
     4
 10
-220.8247760064699
 20
67.46606034929839
 30
0.0
 11
-219.6497729347019
 21
65.43089536647433
 31
0.0
  0
LINE
  5
3F4
  8
0
  6
CONTINUOUS
 62
     4
 10
-223.1749654356917
 20
67.46571791965141
 30
0.0
 11
-220.8249810904261
 21
67.46571791965141
 31
0.0
  0
LINE
  5
3F5
  8
0
  6
CONTINUOUS
 62
     4
 10
-220.8249810904261
 20
63.39539227137212
 30
0.0
 11
-223.1749654356917
 21
63.39539227137212
 31
0.0
  0
LINE
  5
3F6
  8
0
  6
CONTINUOUS
 62
     4
 10
-171.6497372027281
 20
65.43064322169263
 30
0.0
 11
-172.8247293753609
 21
63.39549711672421
 31
0.0
  0
LINE
  5
3F7
  8
0
  6
CONTINUOUS
 62
     4
 10
-176.3497441641063
 20
65.43066539043147
 30
0.0
 11
-175.1747519914735
 21
67.46581149539989
 31
0.0
  0
LINE
  5
3F8
  8
0
  6
CONTINUOUS
 62
     4
 10
-175.1749558989483
 20
67.46616478419584
 30
0.0
 11
-172.8249715536828
 21
67.46616478419584
 31
0.0
  0
LINE
  5
3F9
  8
0
  6
CONTINUOUS
 62
     4
 10
-172.8249672095677
 20
67.46594519818913
 30
0.0
 11
-171.6499641377997
 21
65.43078021536508
 31
0.0
  0
LINE
  5
3FA
  8
0
  6
CONTINUOUS
 62
     4
 10
-175.1749506097617
 20
63.39562829036066
 30
0.0
 11
-176.3499536815297
 21
65.43079327318472
 31
0.0
  0
LINE
  5
3FB
  8
0
  6
CONTINUOUS
 62
     4
 10
-172.8249715536828
 20
63.3959971733774
 30
0.0
 11
-175.1749558989483
 21
63.3959971733774
 31
0.0
  0
LINE
  5
3FC
  8
0
  6
CONTINUOUS
 62
     4
 10
-147.6502610143143
 20
107.0001752921
 30
0.0
 11
-148.8252531869471
 21
104.9650291871316
 31
0.0
  0
LINE
  5
3FD
  8
0
  6
CONTINUOUS
 62
     4
 10
-148.8249885835816
 20
104.9648411778866
 30
0.0
 11
-151.1749729288471
 21
104.9648411778866
 31
0.0
  0
LINE
  5
3FE
  8
0
  6
CONTINUOUS
 62
     4
 10
-151.1749729288471
 20
109.0351668261659
 30
0.0
 11
-148.8249449870407
 21
109.0351668261659
 31
0.0
  0
LINE
  5
3FF
  8
0
  6
CONTINUOUS
 62
     4
 10
-152.3501169528474
 20
107.000110267757
 30
0.0
 11
-151.1751247802146
 21
109.0352563727254
 31
0.0
  0
LINE
  5
400
  8
0
  6
CONTINUOUS
 62
     4
 10
-151.1747690241183
 20
104.9649580165769
 30
0.0
 11
-152.3497720958864
 21
107.000122999401
 31
0.0
  0
LINE
  5
401
  8
0
  6
CONTINUOUS
 62
     4
 10
-148.8247856239244
 20
109.0352749244054
 30
0.0
 11
-147.6497825521564
 21
107.0001099415813
 31
0.0
  0
LINE
  5
402
  8
0
  6
CONTINUOUS
 62
     4
 10
-175.1749558989483
 20
150.6046102831127
 30
0.0
 11
-172.8249715536828
 21
150.6046102831127
 31
0.0
  0
LINE
  5
403
  8
0
  6
CONTINUOUS
 62
     4
 10
-172.8249715536828
 20
146.5342955339686
 30
0.0
 11
-175.1749558989483
 21
146.5342955339686
 31
0.0
  0
LINE
  5
404
  8
0
  6
CONTINUOUS
 62
     4
 10
-175.1751350008999
 20
146.5339386117098
 30
0.0
 11
-176.3501380726679
 21
148.5691035945338
 31
0.0
  0
LINE
  5
405
  8
0
  6
CONTINUOUS
 62
     4
 10
-176.3499318805132
 20
148.569203133413
 30
0.0
 11
-175.1749397078804
 21
150.6043492383814
 31
0.0
  0
LINE
  5
406
  8
0
  6
CONTINUOUS
 62
     4
 10
-171.6499532359184
 20
148.569197313377
 30
0.0
 11
-172.8249454085512
 21
146.5340512084086
 31
0.0
  0
LINE
  5
407
  8
0
  6
CONTINUOUS
 62
     4
 10
-172.8252648678398
 20
150.6041901247269
 30
0.0
 11
-171.6502617960718
 21
148.5690251419028
 31
0.0
  0
LINE
  5
408
  8
0
  6
CONTINUOUS
 62
     4
 10
233.1601863786184
 20
55.29999963385718
 30
0.0
 11
233.1601863786184
 21
59.50000319310602
 31
0.0
  0
LINE
  5
409
  8
0
  6
CONTINUOUS
 62
     4
 10
113.1602715281124
 20
152.8087968964031
 30
0.0
 11
113.1602715281124
 21
149.4999938266617
 31
0.0
  0
LINE
  5
40A
  8
0
  6
CONTINUOUS
 62
     4
 10
248.660238958431
 20
143.0000002554485
 30
0.0
 11
269.6601695615934
 21
143.0000002554485
 31
0.0
  0
LINE
  5
40B
  8
0
  6
CONTINUOUS
 62
     4
 10
240.6601865063427
 20
158.7000083701953
 30
0.0
 11
240.6601865063427
 21
154.5000048109464
 31
0.0
  0
LINE
  5
40C
  8
0
  6
CONTINUOUS
 62
     4
 10
233.1601863786184
 20
158.7000083701953
 30
0.0
 11
233.1601863786184
 21
154.5000048109464
 31
0.0
  0
LINE
  5
40D
  8
0
  6
CONTINUOUS
 62
     4
 10
233.9601829045191
 20
159.5000048960959
 30
0.0
 11
239.860189980442
 21
159.5000048960959
 31
0.0
  0
LINE
  5
40E
  8
0
  6
CONTINUOUS
 62
     4
 10
103.6602364890956
 20
-47.99999863760809
 30
0.0
 11
154.1602896649546
 21
-47.99999863760809
 31
0.0
  0
LINE
  5
40F
  8
0
  6
CONTINUOUS
 62
     4
 10
240.6601865063427
 20
55.29999963385718
 30
0.0
 11
240.6601865063427
 21
59.50000319310602
 31
0.0
  0
LINE
  5
410
  8
0
  6
CONTINUOUS
 62
     4
 10
233.9601829045191
 20
54.50000310795653
 30
0.0
 11
239.860189980442
 21
54.50000310795653
 31
0.0
  0
LINE
  5
411
  8
0
  6
CONTINUOUS
 62
     4
 10
248.660238958431
 20
71.00000229903634
 30
0.0
 11
269.6601695615934
 21
71.00000229903634
 31
0.0
  0
LINE
  5
412
  8
0
  6
CONTINUOUS
 62
     4
 10
113.1602715281124
 20
61.22653520493056
 30
0.0
 11
113.1602715281124
 21
64.50001417739075
 31
0.0
  0
LINE
  5
413
  8
0
  6
CONTINUOUS
 62
     4
 10
120.6602716558366
 20
61.1606935290046
 30
0.0
 11
120.6602716558366
 21
64.50001417739075
 31
0.0
  0
LINE
  5
414
  8
0
  6
CONTINUOUS
 62
     4
 10
87.66021877800088
 20
61.00000757830497
 30
0.0
 11
98.20282149660284
 21
61.00000757830497
 31
0.0
  0
LINE
  5
415
  8
0
  6
CONTINUOUS
 62
     4
 10
87.66021877800088
 20
55.00000638621205
 30
0.0
 11
94.94363129042951
 21
55.00000638621205
 31
0.0
  0
LINE
  5
416
  8
0
  6
CONTINUOUS
 62
     4
 10
247.6602215027847
 20
208.2999782613342
 30
0.0
 11
265.1601346077261
 21
208.2999782613342
 31
0.0
  0
LINE
  5
417
  8
0
  6
CONTINUOUS
 62
     4
 10
247.6602215027847
 20
200.6999894670076
 30
0.0
 11
265.1601346077261
 21
200.6999894670076
 31
0.0
  0
LINE
  5
418
  8
0
  6
CONTINUOUS
 62
     4
 10
123.3832545778055
 20
-66.00001394135445
 30
0.0
 11
141.9372036307723
 21
-73.99999556457195
 31
0.0
  0
LINE
  5
419
  8
0
  6
CONTINUOUS
 62
     4
 10
141.9372685880706
 20
-65.99997921640862
 30
0.0
 11
123.3832394676584
 21
-73.99999536263195
 31
0.0
  0
LINE
  5
41A
  8
0
  6
CONTINUOUS
 62
     4
 10
133.5891746382913
 20
189.4532372177198
 30
0.0
 11
133.5891746382913
 21
153.5564666740633
 31
0.0
  0
LINE
  5
41B
  8
0
  6
CONTINUOUS
 62
     4
 10
137.3888747588034
 20
191.1901888028245
 30
0.0
 11
137.3888747588034
 21
153.5564666740633
 31
0.0
  0
LINE
  5
41C
  8
0
  6
CONTINUOUS
 62
     4
 10
141.065196668509
 20
193.3613619355025
 30
0.0
 11
141.065196668509
 21
153.7012071899211
 31
0.0
  0
LINE
  5
41D
  8
0
  6
CONTINUOUS
 62
     4
 10
-330.5181941052538
 20
-222.8055719444679
 30
0.0
 11
-327.4300331291136
 21
-222.8055719444679
 31
0.0
  0
LINE
  5
41E
  8
0
  6
CONTINUOUS
 62
     4
 10
-301.180468647488
 20
-222.8055719444679
 30
0.0
 11
-298.0922640748069
 21
-222.8055719444679
 31
0.0
  0
LINE
  5
41F
  8
0
  6
CONTINUOUS
 62
     4
 10
371.6957621298924
 20
-274.485778063498
 30
0.0
 11
378.058752823693
 21
-261.7597966758967
 31
0.0
  0
LINE
  5
420
  8
0
  6
CONTINUOUS
 62
     4
 10
378.0587382009688
 20
-261.7597771789311
 30
0.0
 11
384.4217678887006
 21
-274.4858365543947
 31
0.0
  0
LINE
  5
421
  8
0
  6
CONTINUOUS
 62
     4
 10
371.6957809532673
 20
-274.4857834830588
 30
0.0
 11
384.4217856342756
 21
-274.4857834830588
 31
0.0
  0
CIRCLE
  5
422
  8
0
  6
CONTINUOUS
 62
     4
 10
-252.8007768358635
 20
161.8007796457968
 30
0.0
 40
2.999999914850506
  0
CIRCLE
  5
423
  8
0
  6
CONTINUOUS
 62
     4
 10
-197.9999684946872
 20
174.5000051515444
 30
0.0
 40
2.749999978712626
  0
CIRCLE
  5
424
  8
0
  6
CONTINUOUS
 62
     4
 10
-197.9999684946872
 20
174.5000051515444
 30
0.0
 40
3.249999850988385
  0
CIRCLE
  5
425
  8
0
  6
CONTINUOUS
 62
     4
 10
-256.4566955644181
 20
73.25000342726713
 30
0.0
 40
3.249999850988385
  0
CIRCLE
  5
426
  8
0
  6
CONTINUOUS
 62
     4
 10
-256.4566955644181
 20
73.25000342726713
 30
0.0
 40
2.749999978712626
  0
CIRCLE
  5
427
  8
0
  6
CONTINUOUS
 62
     4
 10
-139.5432414249563
 20
73.25000342726713
 30
0.0
 40
3.249999850988385
  0
CIRCLE
  5
428
  8
0
  6
CONTINUOUS
 62
     4
 10
-139.5432414249563
 20
73.25000342726713
 30
0.0
 40
2.749999978712626
  0
CIRCLE
  5
429
  8
0
  6
CONTINUOUS
 62
     4
 10
-197.9999684946872
 20
155.9999982970101
 30
0.0
 40
2.999999914850506
  0
CIRCLE
  5
42A
  8
0
  6
CONTINUOUS
 62
     4
 10
-197.9999684946872
 20
58.0000042574747
 30
0.0
 40
2.999999914850506
  0
CIRCLE
  5
42B
  8
0
  6
CONTINUOUS
 62
     4
 10
-155.5647086341842
 20
82.50000685453426
 30
0.0
 40
2.999999914850506
  0
CIRCLE
  5
42C
  8
0
  6
CONTINUOUS
 62
     4
 10
-240.4352283551902
 20
131.5000065990858
 30
0.0
 40
2.999999914850506
  0
CIRCLE
  5
42D
  8
0
  6
CONTINUOUS
 62
     4
 10
-240.4352283551902
 20
82.50000685453426
 30
0.0
 40
2.999999914850506
  0
CIRCLE
  5
42E
  8
0
  6
CONTINUOUS
 62
     4
 10
-155.5647086341842
 20
131.5000065990858
 30
0.0
 40
2.999999914850506
  0
ARC
  5
42F
  8
0
  6
CONTINUOUS
 62
     4
 10
239.860189980442
 20
158.7000083701953
 30
0.0
 40
0.8000000170298988
 50
359.9999949910439
 51
90.00000250447816
  0
ARC
  5
430
  8
0
  6
CONTINUOUS
 62
     4
 10
233.9601829045191
 20
158.7000083701953
 30
0.0
 40
0.8000000170298988
 50
90.00000250447816
 51
180.0000050089563
  0
ARC
  5
431
  8
0
  6
CONTINUOUS
 62
     4
 10
233.9601829045191
 20
55.29999963385718
 30
0.0
 40
0.8000000170298988
 50
179.999991348578
 51
270.0000006832453
  0
ARC
  5
432
  8
0
  6
CONTINUOUS
 62
     4
 10
239.860189980442
 20
55.29999963385718
 30
0.0
 40
0.8000000170298988
 50
269.9999974955218
 51
0.0000050089565381
  0
CIRCLE
  5
433
  8
0
  6
CONTINUOUS
 62
     4
 10
65.35160720947141
 20
-184.3270905414154
 30
0.0
 40
2.120999985439437
  0
CIRCLE
  5
434
  8
0
  6
CONTINUOUS
 62
     4
 10
65.35160720947141
 20
-184.3270905414154
 30
0.0
 40
1.696800022411347
  0
CIRCLE
  5
435
  8
0
  6
CONTINUOUS
 62
     4
 10
65.35160720947141
 20
-215.5057889309234
 30
0.0
 40
1.696800022411347
  0
CIRCLE
  5
436
  8
0
  6
CONTINUOUS
 62
     4
 10
65.35160720947141
 20
-215.5057889309234
 30
0.0
 40
2.120999985439437
  0
CIRCLE
  5
437
  8
0
  6
CONTINUOUS
 62
     4
 10
92.35312482890274
 20
-231.0951490248127
 30
0.0
 40
2.120999985439437
  0
CIRCLE
  5
438
  8
0
  6
CONTINUOUS
 62
     4
 10
92.35312482890274
 20
-231.0951490248127
 30
0.0
 40
1.696800022411347
  0
CIRCLE
  5
439
  8
0
  6
CONTINUOUS
 62
     4
 10
119.354642448334
 20
-215.5057889309234
 30
0.0
 40
1.696800022411347
  0
CIRCLE
  5
43A
  8
0
  6
CONTINUOUS
 62
     4
 10
119.354642448334
 20
-215.5057889309234
 30
0.0
 40
2.120999985439437
  0
CIRCLE
  5
43B
  8
0
  6
CONTINUOUS
 62
     4
 10
119.354642448334
 20
-184.3270905414154
 30
0.0
 40
2.120999985439437
  0
CIRCLE
  5
43C
  8
0
  6
CONTINUOUS
 62
     4
 10
119.354642448334
 20
-184.3270905414154
 30
0.0
 40
1.696800022411347
  0
CIRCLE
  5
43D
  8
0
  6
CONTINUOUS
 62
     4
 10
92.35312482890274
 20
-168.7377413466614
 30
0.0
 40
2.120999985439437
  0
CIRCLE
  5
43E
  8
0
  6
CONTINUOUS
 62
     4
 10
92.35312482890274
 20
-168.7377413466614
 30
0.0
 40
1.696800022411347
  0
CIRCLE
  5
43F
  8
0
  6
CONTINUOUS
 62
     4
 10
92.35312482890274
 20
-199.9164288370342
 30
0.0
 40
9.120299630851399
  0
CIRCLE
  5
440
  8
0
  6
CONTINUOUS
 62
     4
 10
92.35312482890274
 20
-199.9164288370342
 30
0.0
 40
7.847700252664094
  0
CIRCLE
  5
441
  8
0
  6
CONTINUOUS
 62
     4
 10
92.35312482890274
 20
-199.9164288370342
 30
0.0
 40
9.544500104776452
  0
CIRCLE
  5
442
  8
0
  6
CONTINUOUS
 62
     4
 10
-252.8007768358635
 20
52.1992283582556
 30
0.0
 40
2.999999914850506
  0
CIRCLE
  5
443
  8
0
  6
CONTINUOUS
 62
     4
 10
-143.1992037500518
 20
52.1992283582556
 30
0.0
 40
2.999999914850506
  0
CIRCLE
  5
444
  8
0
  6
CONTINUOUS
 62
     4
 10
-143.1992037500518
 20
161.8007796457968
 30
0.0
 40
2.999999914850506
  0
CIRCLE
  5
445
  8
0
  6
CONTINUOUS
 62
     4
 10
-197.9999684946872
 20
107.0000040020262
 30
0.0
 40
40.1499945802347
  0
POLYLINE
  5
446
  8
0
  6
CONTINUOUS
 62
     4
 66
     1
 10
0.0
 20
0.0
 30
0.0
 70
     1
  0
VERTEX
  5
61A
  8
0
  6
CONTINUOUS
 62
     4
 10
1.0
 20
0.0
 30
0.0
  0
VERTEX
  5
61B
  8
0
  6
CONTINUOUS
 62
     4
 10
0.9807852804032304
 20
0.1950903220161282
 30
0.0
  0
VERTEX
  5
61C
  8
0
  6
CONTINUOUS
 62
     4
 10
0.9238795325112867
 20
0.3826834323650898
 30
0.0
  0
VERTEX
  5
61D
  8
0
  6
CONTINUOUS
 62
     4
 10
0.8314696123025452
 20
0.5555702330196022
 30
0.0
  0
VERTEX
  5
61E
  8
0
  6
CONTINUOUS
 62
     4
 10
0.7071067811865476
 20
0.7071067811865476
 30
0.0
  0
VERTEX
  5
61F
  8
0
  6
CONTINUOUS
 62
     4
 10
0.5555702330196023
 20
0.8314696123025452
 30
0.0
  0
VERTEX
  5
620
  8
0
  6
CONTINUOUS
 62
     4
 10
0.3826834323650898
 20
0.9238795325112867
 30
0.0
  0
VERTEX
  5
621
  8
0
  6
CONTINUOUS
 62
     4
 10
0.1950903220161283
 20
0.9807852804032304
 30
0.0
  0
VERTEX
  5
622
  8
0
  6
CONTINUOUS
 62
     4
 10
0.0000000000000001
 20
1.0
 30
0.0
  0
VERTEX
  5
623
  8
0
  6
CONTINUOUS
 62
     4
 10
-0.1950903220161282
 20
0.9807852804032304
 30
0.0
  0
VERTEX
  5
624
  8
0
  6
CONTINUOUS
 62
     4
 10
-0.3826834323650897
 20
0.9238795325112867
 30
0.0
  0
VERTEX
  5
625
  8
0
  6
CONTINUOUS
 62
     4
 10
-0.555570233019602
 20
0.8314696123025453
 30
0.0
  0
VERTEX
  5
626
  8
0
  6
CONTINUOUS
 62
     4
 10
-0.7071067811865475
 20
0.7071067811865476
 30
0.0
  0
VERTEX
  5
627
  8
0
  6
CONTINUOUS
 62
     4
 10
-0.8314696123025453
 20
0.5555702330196022
 30
0.0
  0
VERTEX
  5
628
  8
0
  6
CONTINUOUS
 62
     4
 10
-0.9238795325112868
 20
0.3826834323650894
 30
0.0
  0
VERTEX
  5
629
  8
0
  6
CONTINUOUS
 62
     4
 10
-0.9807852804032305
 20
0.1950903220161277
 30
0.0
  0
VERTEX
  5
62A
  8
0
  6
CONTINUOUS
 62
     4
 10
-1.0
 20
-0.0000000000000008
 30
0.0
  0
VERTEX
  5
62B
  8
0
  6
CONTINUOUS
 62
     4
 10
-0.9807852804032302
 20
-0.1950903220161292
 30
0.0
  0
VERTEX
  5
62C
  8
0
  6
CONTINUOUS
 62
     4
 10
-0.9238795325112863
 20
-0.3826834323650909
 30
0.0
  0
VERTEX
  5
62D
  8
0
  6
CONTINUOUS
 62
     4
 10
-0.8314696123025445
 20
-0.5555702330196034
 30
0.0
  0
VERTEX
  5
62E
  8
0
  6
CONTINUOUS
 62
     4
 10
-0.7071067811865464
 20
-0.7071067811865487
 30
0.0
  0
VERTEX
  5
62F
  8
0
  6
CONTINUOUS
 62
     4
 10
-0.5555702330196007
 20
-0.8314696123025462
 30
0.0
  0
VERTEX
  5
630
  8
0
  6
CONTINUOUS
 62
     4
 10
-0.3826834323650879
 20
-0.9238795325112875
 30
0.0
  0
VERTEX
  5
631
  8
0
  6
CONTINUOUS
 62
     4
 10
-0.1950903220161261
 20
-0.9807852804032309
 30
0.0
  0
VERTEX
  5
632
  8
0
  6
CONTINUOUS
 62
     4
 10
0.0000000000000025
 20
-1.0
 30
0.0
  0
VERTEX
  5
633
  8
0
  6
CONTINUOUS
 62
     4
 10
0.1950903220161309
 20
-0.9807852804032299
 30
0.0
  0
VERTEX
  5
634
  8
0
  6
CONTINUOUS
 62
     4
 10
0.3826834323650924
 20
-0.9238795325112856
 30
0.0
  0
VERTEX
  5
635
  8
0
  6
CONTINUOUS
 62
     4
 10
0.5555702330196048
 20
-0.8314696123025435
 30
0.0
  0
VERTEX
  5
636
  8
0
  6
CONTINUOUS
 62
     4
 10
0.7071067811865499
 20
-0.7071067811865451
 30
0.0
  0
VERTEX
  5
637
  8
0
  6
CONTINUOUS
 62
     4
 10
0.8314696123025472
 20
-0.5555702330195993
 30
0.0
  0
VERTEX
  5
638
  8
0
  6
CONTINUOUS
 62
     4
 10
0.9238795325112882
 20
-0.3826834323650863
 30
0.0
  0
VERTEX
  5
639
  8
0
  6
CONTINUOUS
 62
     4
 10
0.9807852804032312
 20
-0.1950903220161244
 30
0.0
  0
SEQEND
  5
916
  8
0
  6
CONTINUOUS
 62
     4
  0
POLYLINE
  5
447
  8
0
  6
CONTINUOUS
 62
     4
 66
     1
 10
0.0
 20
0.0
 30
0.0
 70
   128
  0
VERTEX
  5
63A
  8
0
  6
CONTINUOUS
 62
     4
 10
113.6072478978866
 20
152.8268886690318
 30
0.0
  0
VERTEX
  5
63B
  8
0
  6
CONTINUOUS
 62
     4
 10
113.5787373383659
 20
152.7663144310425
 30
0.0
  0
VERTEX
  5
63C
  8
0
  6
CONTINUOUS
 62
     4
 10
113.5524036893256
 20
152.7052394528639
 30
0.0
  0
VERTEX
  5
63D
  8
0
  6
CONTINUOUS
 62
     4
 10
113.5282641580769
 20
152.6437036429856
 30
0.0
  0
VERTEX
  5
63E
  8
0
  6
CONTINUOUS
 62
     4
 10
113.5063345182191
 20
152.5817472110203
 30
0.0
  0
VERTEX
  5
63F
  8
0
  6
CONTINUOUS
 62
     4
 10
113.4866290993325
 20
152.5194106414297
 30
0.0
  0
VERTEX
  5
640
  8
0
  6
CONTINUOUS
 62
     4
 10
113.4691607776149
 20
152.4567346670708
 30
0.0
  0
VERTEX
  5
641
  8
0
  6
CONTINUOUS
 62
     4
 10
113.453940967468
 20
152.3937602425788
 30
0.0
  0
VERTEX
  5
642
  8
0
  6
CONTINUOUS
 62
     4
 10
113.4409796140389
 20
152.330528517607
 30
0.0
  0
VERTEX
  5
643
  8
0
  6
CONTINUOUS
 62
     4
 10
113.4302851867212
 20
152.2670808099372
 30
0.0
  0
VERTEX
  5
644
  8
0
  6
CONTINUOUS
 62
     4
 10
113.4218646736213
 20
152.203458578482
 30
0.0
  0
VERTEX
  5
645
  8
0
  6
CONTINUOUS
 62
     4
 10
113.4157235769918
 20
152.1397033961939
 30
0.0
  0
VERTEX
  5
646
  8
0
  6
CONTINUOUS
 62
     4
 10
113.4118659096362
 20
152.0758569228998
 30
0.0
  0
VERTEX
  5
647
  8
0
  6
CONTINUOUS
 62
     4
 10
113.410294192287
 20
152.0119608780794
 30
0.0
  0
VERTEX
  5
648
  8
0
  6
CONTINUOUS
 62
     4
 10
113.4110094519584
 20
151.9480570136043
 30
0.0
  0
VERTEX
  5
649
  8
0
  6
CONTINUOUS
 62
     4
 10
113.414011221275
 20
151.8841870864553
 30
0.0
  0
VERTEX
  5
64A
  8
0
  6
CONTINUOUS
 62
     4
 10
113.4192975387776
 20
151.8203928314379
 30
0.0
  0
VERTEX
  5
64B
  8
0
  6
CONTINUOUS
 62
     4
 10
113.4268649502048
 20
151.7567159339105
 30
0.0
  0
VERTEX
  5
64C
  8
0
  6
CONTINUOUS
 62
     4
 10
113.4367085107498
 20
151.6931980025461
 30
0.0
  0
VERTEX
  5
64D
  8
0
  6
CONTINUOUS
 62
     4
 10
113.4488217882919
 20
151.629880542144
 30
0.0
  0
VERTEX
  5
64E
  8
0
  6
CONTINUOUS
 62
     4
 10
113.4631968675993
 20
151.5668049265085
 30
0.0
  0
VERTEX
  5
64F
  8
0
  6
CONTINUOUS
 62
     4
 10
113.4798243555013
 20
151.5040123714145
 30
0.0
  0
VERTEX
  5
650
  8
0
  6
CONTINUOUS
 62
     4
 10
113.4986933870257
 20
151.4415439076754
 30
0.0
  0
VERTEX
  5
651
  8
0
  6
CONTINUOUS
 62
     4
 10
113.5197916324989
 20
151.379440354332
 30
0.0
  0
VERTEX
  5
652
  8
0
  6
CONTINUOUS
 62
     4
 10
113.5431053056025
 20
151.3177422919804
 30
0.0
  0
VERTEX
  5
653
  8
0
  6
CONTINUOUS
 62
     4
 10
113.5686191723811
 20
151.2564900362545
 30
0.0
  0
VERTEX
  5
654
  8
0
  6
CONTINUOUS
 62
     4
 10
113.5963165611975
 20
151.1957236114832
 30
0.0
  0
VERTEX
  5
655
  8
0
  6
CONTINUOUS
 62
     4
 10
113.626179373626
 20
151.1354827245367
 30
0.0
  0
VERTEX
  5
656
  8
0
  6
CONTINUOUS
 62
     4
 10
113.6581880962787
 20
151.0758067388807
 30
0.0
  0
VERTEX
  5
657
  8
0
  6
CONTINUOUS
 62
     4
 10
113.6923218135563
 20
151.0167346488549
 30
0.0
  0
VERTEX
  5
658
  8
0
  6
CONTINUOUS
 62
     4
 10
113.7285582213149
 20
150.9583050541929
 30
0.0
  0
VERTEX
  5
659
  8
0
  6
CONTINUOUS
 62
     4
 10
113.7668736414405
 20
150.9005561347998
 30
0.0
  0
VERTEX
  5
65A
  8
0
  6
CONTINUOUS
 62
     4
 10
113.8072430373208
 20
150.843525625804
 30
0.0
  0
VERTEX
  5
65B
  8
0
  6
CONTINUOUS
 62
     4
 10
113.8496400302054
 20
150.7872507929
 30
0.0
  0
VERTEX
  5
65C
  8
0
  6
CONTINUOUS
 62
     4
 10
113.8940369164421
 20
150.7317684079973
 30
0.0
  0
VERTEX
  5
65D
  8
0
  6
CONTINUOUS
 62
     4
 10
113.9404046855797
 20
150.677114725193
 30
0.0
  0
VERTEX
  5
65E
  8
0
  6
CONTINUOUS
 62
     4
 10
113.9887130393245
 20
150.6233254570815
 30
0.0
  0
VERTEX
  5
65F
  8
0
  6
CONTINUOUS
 62
     4
 10
114.0389304113382
 20
150.5704357514191
 30
0.0
  0
VERTEX
  5
660
  8
0
  6
CONTINUOUS
 62
     4
 10
114.091023987864
 20
150.5184801681569
 30
0.0
  0
VERTEX
  5
661
  8
0
  6
CONTINUOUS
 62
     4
 10
114.1449597291689
 20
150.4674926568585
 30
0.0
  0
VERTEX
  5
662
  8
0
  6
CONTINUOUS
 62
     4
 10
114.2007023917862
 20
150.417506534516
 30
0.0
  0
VERTEX
  5
663
  8
0
  6
CONTINUOUS
 62
     4
 10
114.2582155515444
 20
150.3685544637793
 30
0.0
  0
VERTEX
  5
664
  8
0
  6
CONTINUOUS
 62
     4
 10
114.3174616273685
 20
150.3206684316138
 30
0.0
  0
VERTEX
  5
665
  8
0
  6
CONTINUOUS
 62
     4
 10
114.3784019058367
 20
150.2738797283985
 30
0.0
  0
VERTEX
  5
666
  8
0
  6
CONTINUOUS
 62
     4
 10
114.4409965664769
 20
150.2282189274799
 30
0.0
  0
VERTEX
  5
667
  8
0
  6
CONTINUOUS
 62
     4
 10
114.5052047077867
 20
150.1837158651944
 30
0.0
  0
VERTEX
  5
668
  8
0
  6
CONTINUOUS
 62
     4
 10
114.5709843739601
 20
150.1403996213722
 30
0.0
  0
VERTEX
  5
669
  8
0
  6
CONTINUOUS
 62
     4
 10
114.6382925823027
 20
150.0982985003357
 30
0.0
  0
VERTEX
  5
66A
  8
0
  6
CONTINUOUS
 62
     4
 10
114.7070853513182
 20
150.0574400124041
 30
0.0
  0
VERTEX
  5
66B
  8
0
  6
CONTINUOUS
 62
     4
 10
114.7773177294474
 20
150.0178508559174
 30
0.0
  0
VERTEX
  5
66C
  8
0
  6
CONTINUOUS
 62
     4
 10
114.8489438244408
 20
149.9795568997911
 30
0.0
  0
VERTEX
  5
66D
  8
0
  6
CONTINUOUS
 62
     4
 10
114.9219168333465
 20
149.9425831666119
 30
0.0
  0
VERTEX
  5
66E
  8
0
  6
CONTINUOUS
 62
     4
 10
114.9961890730929
 20
149.9069538162877
 30
0.0
  0
VERTEX
  5
66F
  8
0
  6
CONTINUOUS
 62
     4
 10
115.0717120116462
 20
149.8726921302604
 30
0.0
  0
VERTEX
  5
670
  8
0
  6
CONTINUOUS
 62
     4
 10
115.148436299723
 20
149.8398204962932
 30
0.0
  0
VERTEX
  5
671
  8
0
  6
CONTINUOUS
 62
     4
 10
115.2263118030369
 20
149.808360393841
 30
0.0
  0
VERTEX
  5
672
  8
0
  6
CONTINUOUS
 62
     4
 10
115.3052876350578
 20
149.7783323800162
 30
0.0
  0
VERTEX
  5
673
  8
0
  6
CONTINUOUS
 62
     4
 10
115.3853121902633
 20
149.7497560761547
 30
0.0
  0
VERTEX
  5
674
  8
0
  6
CONTINUOUS
 62
     4
 10
115.4663331778588
 20
149.7226501549955
 30
0.0
  0
VERTEX
  5
675
  8
0
  6
CONTINUOUS
 62
     4
 10
115.5482976559469
 20
149.6970323284791
 30
0.0
  0
VERTEX
  5
676
  8
0
  6
CONTINUOUS
 62
     4
 10
115.6311520661209
 20
149.6729193361735
 30
0.0
  0
VERTEX
  5
677
  8
0
  6
CONTINUOUS
 62
     4
 10
115.714842268462
 20
149.6503269343367
 30
0.0
  0
VERTEX
  5
678
  8
0
  6
CONTINUOUS
 62
     4
 10
115.7993135769158
 20
149.6292698856203
 30
0.0
  0
VERTEX
  5
679
  8
0
  6
CONTINUOUS
 62
     4
 10
115.8845107950268
 20
149.6097619494235
 30
0.0
  0
VERTEX
  5
67A
  8
0
  6
CONTINUOUS
 62
     4
 10
115.9703782520048
 20
149.5918158729024
 30
0.0
  0
VERTEX
  5
67B
  8
0
  6
CONTINUOUS
 62
     4
 10
116.0568598391027
 20
149.5754433826399
 30
0.0
  0
VERTEX
  5
67C
  8
0
  6
CONTINUOUS
 62
     4
 10
116.1438990462795
 20
149.5606551769839
 30
0.0
  0
VERTEX
  5
67D
  8
0
  6
CONTINUOUS
 62
     4
 10
116.2314389991262
 20
149.547460919056
 30
0.0
  0
VERTEX
  5
67E
  8
0
  6
CONTINUOUS
 62
     4
 10
116.3194224960293
 20
149.535869230438
 30
0.0
  0
VERTEX
  5
67F
  8
0
  6
CONTINUOUS
 62
     4
 10
116.4077920455485
 20
149.5258876855374
 30
0.0
  0
VERTEX
  5
680
  8
0
  6
CONTINUOUS
 62
     4
 10
116.4964899039833
 20
149.5175228066386
 30
0.0
  0
VERTEX
  5
681
  8
0
  6
CONTINUOUS
 62
     4
 10
116.5854581131049
 20
149.5107800596411
 30
0.0
  0
VERTEX
  5
682
  8
0
  6
CONTINUOUS
 62
     4
 10
116.6746385380283
 20
149.5056638504875
 30
0.0
  0
VERTEX
  5
683
  8
0
  6
CONTINUOUS
 62
     4
 10
116.763972905199
 20
149.5021775222845
 30
0.0
  0
VERTEX
  5
684
  8
0
  6
CONTINUOUS
 62
     4
 10
116.8534028404717
 20
149.5003233531189
 30
0.0
  0
VERTEX
  5
685
  8
0
  6
CONTINUOUS
 62
     4
 10
116.9428699072534
 20
149.5001025545684
 30
0.0
  0
VERTEX
  5
686
  8
0
  6
CONTINUOUS
 62
     4
 10
117.0323156446882
 20
149.5015152709106
 30
0.0
  0
VERTEX
  5
687
  8
0
  6
CONTINUOUS
 62
     4
 10
117.1216816058575
 20
149.5045605790279
 30
0.0
  0
VERTEX
  5
688
  8
0
  6
CONTINUOUS
 62
     4
 10
117.2109093959712
 20
149.5092364890114
 30
0.0
  0
VERTEX
  5
689
  8
0
  6
CONTINUOUS
 62
     4
 10
117.2999407105251
 20
149.5155399454607
 30
0.0
  0
VERTEX
  5
68A
  8
0
  6
CONTINUOUS
 62
     4
 10
117.3887173733986
 20
149.523466829481
 30
0.0
  0
VERTEX
  5
68B
  8
0
  6
CONTINUOUS
 62
     4
 10
117.4771813748695
 20
149.5330119613737
 30
0.0
  0
VERTEX
  5
68C
  8
0
  6
CONTINUOUS
 62
     4
 10
117.5652749095192
 20
149.5441691040216
 30
0.0
  0
VERTEX
  5
68D
  8
0
  6
CONTINUOUS
 62
     4
 10
117.6529404140049
 20
149.5569309669644
 30
0.0
  0
VERTEX
  5
68E
  8
0
  6
CONTINUOUS
 62
     4
 10
117.7401206046733
 20
149.5712892111621
 30
0.0
  0
VERTEX
  5
68F
  8
0
  6
CONTINUOUS
 62
     4
 10
117.826758514992
 20
149.5872344544448
 30
0.0
  0
VERTEX
  5
690
  8
0
  6
CONTINUOUS
 62
     4
 10
117.912797532773
 20
149.6047562776423
 30
0.0
  0
VERTEX
  5
691
  8
0
  6
CONTINUOUS
 62
     4
 10
117.9981814371656
 20
149.6238432313934
 30
0.0
  0
VERTEX
  5
692
  8
0
  6
CONTINUOUS
 62
     4
 10
118.0828544353923
 20
149.6444828436266
 30
0.0
  0
VERTEX
  5
693
  8
0
  6
CONTINUOUS
 62
     4
 10
118.1667611992065
 20
149.6666616277098
 30
0.0
  0
VERTEX
  5
694
  8
0
  6
CONTINUOUS
 62
     4
 10
118.2498469010451
 20
149.6903650912635
 30
0.0
  0
VERTEX
  5
695
  8
0
  6
CONTINUOUS
 62
     4
 10
118.3320572498554
 20
149.7155777456301
 30
0.0
  0
VERTEX
  5
696
  8
0
  6
CONTINUOUS
 62
     4
 10
118.4133385265704
 20
149.7422831159946
 30
0.0
  0
VERTEX
  5
697
  8
0
  6
CONTINUOUS
 62
     4
 10
118.4936376192107
 20
149.7704637521505
 30
0.0
  0
VERTEX
  5
698
  8
0
  6
CONTINUOUS
 62
     4
 10
118.5729020575898
 20
149.8001012399016
 30
0.0
  0
VERTEX
  5
699
  8
0
  6
CONTINUOUS
 62
     4
 10
118.6510800475996
 20
149.8311762130949
 30
0.0
  0
VERTEX
  5
69A
  8
0
  6
CONTINUOUS
 62
     4
 10
118.728120505055
 20
149.8636683662751
 30
0.0
  0
VERTEX
  5
69B
  8
0
  6
CONTINUOUS
 62
     4
 10
118.8039730890736
 20
149.8975564679528
 30
0.0
  0
VERTEX
  5
69C
  8
0
  6
CONTINUOUS
 62
     4
 10
118.8785882349704
 20
149.9328183744777
 30
0.0
  0
VERTEX
  5
69D
  8
0
  6
CONTINUOUS
 62
     4
 10
118.9519171866449
 20
149.9694310445084
 30
0.0
  0
VERTEX
  5
69E
  8
0
  6
CONTINUOUS
 62
     4
 10
119.0239120284402
 20
150.007370554068
 30
0.0
  0
VERTEX
  5
69F
  8
0
  6
CONTINUOUS
 62
     4
 10
119.0945257164526
 20
150.0466121121774
 30
0.0
  0
VERTEX
  5
6A0
  8
0
  6
CONTINUOUS
 62
     4
 10
119.1637121092718
 20
150.0871300770538
 30
0.0
  0
VERTEX
  5
6A1
  8
0
  6
CONTINUOUS
 62
     4
 10
119.2314259981311
 20
150.1288979728667
 30
0.0
  0
VERTEX
  5
6A2
  8
0
  6
CONTINUOUS
 62
     4
 10
119.2976231364485
 20
150.1718885070376
 30
0.0
  0
VERTEX
  5
6A3
  8
0
  6
CONTINUOUS
 62
     4
 10
119.3622602687392
 20
150.216073588074
 30
0.0
  0
VERTEX
  5
6A4
  8
0
  6
CONTINUOUS
 62
     4
 10
119.4252951588796
 20
150.2614243439258
 30
0.0
  0
VERTEX
  5
6A5
  8
0
  6
CONTINUOUS
 62
     4
 10
119.4866866177063
 20
150.3079111408505
 30
0.0
  0
VERTEX
  5
6A6
  8
0
  6
CONTINUOUS
 62
     4
 10
119.5463945299305
 20
150.3555036027776
 30
0.0
  0
VERTEX
  5
6A7
  8
0
  6
CONTINUOUS
 62
     4
 10
119.6043798803504
 20
150.4041706311568
 30
0.0
  0
VERTEX
  5
6A8
  8
0
  6
CONTINUOUS
 62
     4
 10
119.6606047793455
 20
150.4538804252795
 30
0.0
  0
VERTEX
  5
6A9
  8
0
  6
CONTINUOUS
 62
     4
 10
119.7150324876346
 20
150.504600503058
 30
0.0
  0
VERTEX
  5
6AA
  8
0
  6
CONTINUOUS
 62
     4
 10
119.7676274402827
 20
150.5562977222503
 30
0.0
  0
VERTEX
  5
6AB
  8
0
  6
CONTINUOUS
 62
     4
 10
119.8183552699405
 20
150.6089383021171
 30
0.0
  0
VERTEX
  5
6AC
  8
0
  6
CONTINUOUS
 62
     4
 10
119.8671828293007
 20
150.6624878454943
 30
0.0
  0
VERTEX
  5
6AD
  8
0
  6
CONTINUOUS
 62
     4
 10
119.9140782127581
 20
150.7169113612702
 30
0.0
  0
VERTEX
  5
6AE
  8
0
  6
CONTINUOUS
 62
     4
 10
119.9590107772576
 20
150.7721732872493
 30
0.0
  0
VERTEX
  5
6AF
  8
0
  6
CONTINUOUS
 62
     4
 10
120.0019511623176
 20
150.8282375133902
 30
0.0
  0
VERTEX
  5
6B0
  8
0
  6
CONTINUOUS
 62
     4
 10
120.0428713092147
 20
150.8850674054008
 30
0.0
  0
VERTEX
  5
6B1
  8
0
  6
CONTINUOUS
 62
     4
 10
120.0817444793188
 20
150.9426258286768
 30
0.0
  0
VERTEX
  5
6B2
  8
0
  6
CONTINUOUS
 62
     4
 10
120.1185452715648
 20
151.0008751725664
 30
0.0
  0
VERTEX
  5
6B3
  8
0
  6
CONTINUOUS
 62
     4
 10
120.1532496390502
 20
151.0597773749467
 30
0.0
  0
VERTEX
  5
6B4
  8
0
  6
CONTINUOUS
 62
     4
 10
120.1858349047488
 20
151.1192939470944
 30
0.0
  0
VERTEX
  5
6B5
  8
0
  6
CONTINUOUS
 62
     4
 10
120.2162797763282
 20
151.1793859988361
 30
0.0
  0
VERTEX
  5
6B6
  8
0
  6
CONTINUOUS
 62
     4
 10
120.2445643600631
 20
151.2400142639601
 30
0.0
  0
VERTEX
  5
6B7
  8
0
  6
CONTINUOUS
 62
     4
 10
120.2706701738345
 20
151.3011391258745
 30
0.0
  0
VERTEX
  5
6B8
  8
0
  6
CONTINUOUS
 62
     4
 10
120.2945801592066
 20
151.362720643494
 30
0.0
  0
VERTEX
  5
6B9
  8
0
  6
CONTINUOUS
 62
     4
 10
120.3162786925732
 20
151.4247185773388
 30
0.0
  0
VERTEX
  5
6BA
  8
0
  6
CONTINUOUS
 62
     4
 10
120.335751595367
 20
151.4870924158284
 30
0.0
  0
VERTEX
  5
6BB
  8
0
  6
CONTINUOUS
 62
     4
 10
120.3529861433241
 20
151.5498014017533
 30
0.0
  0
VERTEX
  5
6BC
  8
0
  6
CONTINUOUS
 62
     4
 10
120.3679710747987
 20
151.612804558907
 30
0.0
  0
VERTEX
  5
6BD
  8
0
  6
CONTINUOUS
 62
     4
 10
120.3806965981216
 20
151.6760607188618
 30
0.0
  0
VERTEX
  5
6BE
  8
0
  6
CONTINUOUS
 62
     4
 10
120.3911543979985
 20
151.7395285478687
 30
0.0
  0
VERTEX
  5
6BF
  8
0
  6
CONTINUOUS
 62
     4
 10
120.3993376409436
 20
151.8031665738675
 30
0.0
  0
VERTEX
  5
6C0
  8
0
  6
CONTINUOUS
 62
     4
 10
120.4052409797447
 20
151.8669332135848
 30
0.0
  0
VERTEX
  5
6C1
  8
0
  6
CONTINUOUS
 62
     4
 10
120.4088605569575
 20
151.9307867997072
 30
0.0
  0
VERTEX
  5
6C2
  8
0
  6
CONTINUOUS
 62
     4
 10
120.4101940074258
 20
151.9946856081071
 30
0.0
  0
VERTEX
  5
6C3
  8
0
  6
CONTINUOUS
 62
     4
 10
120.4092404598271
 20
152.0585878851072
 30
0.0
  0
VERTEX
  5
6C4
  8
0
  6
CONTINUOUS
 62
     4
 10
120.4060005372424
 20
152.1224518747637
 30
0.0
  0
VERTEX
  5
6C5
  8
0
  6
CONTINUOUS
 62
     4
 10
120.4004763567483
 20
152.1862358461513
 30
0.0
  0
VERTEX
  5
6C6
  8
0
  6
CONTINUOUS
 62
     4
 10
120.3926715280342
 20
152.249898120631
 30
0.0
  0
VERTEX
  5
6C7
  8
0
  6
CONTINUOUS
 62
     4
 10
120.3825911510434
 20
152.313397099085
 30
0.0
  0
VERTEX
  5
6C8
  8
0
  6
CONTINUOUS
 62
     4
 10
120.3702418126407
 20
152.3766912890987
 30
0.0
  0
VERTEX
  5
6C9
  8
0
  6
CONTINUOUS
 62
     4
 10
120.3556315823081
 20
152.4397393320732
 30
0.0
  0
VERTEX
  5
6CA
  8
0
  6
CONTINUOUS
 62
     4
 10
120.3387700068722
 20
152.5025000302506
 30
0.0
  0
VERTEX
  5
6CB
  8
0
  6
CONTINUOUS
 62
     4
 10
120.3196681042658
 20
152.5649323736341
 30
0.0
  0
VERTEX
  5
6CC
  8
0
  6
CONTINUOUS
 62
     4
 10
120.2983383563286
 20
152.626995566785
 30
0.0
  0
VERTEX
  5
6CD
  8
0
  6
CONTINUOUS
 62
     4
 10
120.2747947006507
 20
152.6886490554801
 30
0.0
  0
VERTEX
  5
6CE
  8
0
  6
CONTINUOUS
 62
     4
 10
120.249052521466
 20
152.7498525532111
 30
0.0
  0
VERTEX
  5
6CF
  8
0
  6
CONTINUOUS
 62
     4
 10
120.2211286395989
 20
152.8105660675095
 30
0.0
  0
VERTEX
  5
6D0
  8
0
  6
CONTINUOUS
 62
     4
 10
120.1910413014733
 20
152.8707499260787
 30
0.0
  0
SEQEND
  5
917
  8
0
  6
CONTINUOUS
 62
     4
  0
POLYLINE
  5
448
  8
0
  6
CONTINUOUS
 62
     4
 66
     1
 10
0.0
 20
0.0
 30
0.0
 70
     1
  0
VERTEX
  5
6D1
  8
0
  6
CONTINUOUS
 62
     4
 10
1.0
 20
0.0
 30
0.0
  0
VERTEX
  5
6D2
  8
0
  6
CONTINUOUS
 62
     4
 10
0.9807852804032304
 20
0.1950903220161282
 30
0.0
  0
VERTEX
  5
6D3
  8
0
  6
CONTINUOUS
 62
     4
 10
0.9238795325112867
 20
0.3826834323650898
 30
0.0
  0
VERTEX
  5
6D4
  8
0
  6
CONTINUOUS
 62
     4
 10
0.8314696123025452
 20
0.5555702330196022
 30
0.0
  0
VERTEX
  5
6D5
  8
0
  6
CONTINUOUS
 62
     4
 10
0.7071067811865476
 20
0.7071067811865476
 30
0.0
  0
VERTEX
  5
6D6
  8
0
  6
CONTINUOUS
 62
     4
 10
0.5555702330196023
 20
0.8314696123025452
 30
0.0
  0
VERTEX
  5
6D7
  8
0
  6
CONTINUOUS
 62
     4
 10
0.3826834323650898
 20
0.9238795325112867
 30
0.0
  0
VERTEX
  5
6D8
  8
0
  6
CONTINUOUS
 62
     4
 10
0.1950903220161283
 20
0.9807852804032304
 30
0.0
  0
VERTEX
  5
6D9
  8
0
  6
CONTINUOUS
 62
     4
 10
0.0000000000000001
 20
1.0
 30
0.0
  0
VERTEX
  5
6DA
  8
0
  6
CONTINUOUS
 62
     4
 10
-0.1950903220161282
 20
0.9807852804032304
 30
0.0
  0
VERTEX
  5
6DB
  8
0
  6
CONTINUOUS
 62
     4
 10
-0.3826834323650897
 20
0.9238795325112867
 30
0.0
  0
VERTEX
  5
6DC
  8
0
  6
CONTINUOUS
 62
     4
 10
-0.555570233019602
 20
0.8314696123025453
 30
0.0
  0
VERTEX
  5
6DD
  8
0
  6
CONTINUOUS
 62
     4
 10
-0.7071067811865475
 20
0.7071067811865476
 30
0.0
  0
VERTEX
  5
6DE
  8
0
  6
CONTINUOUS
 62
     4
 10
-0.8314696123025453
 20
0.5555702330196022
 30
0.0
  0
VERTEX
  5
6DF
  8
0
  6
CONTINUOUS
 62
     4
 10
-0.9238795325112868
 20
0.3826834323650894
 30
0.0
  0
VERTEX
  5
6E0
  8
0
  6
CONTINUOUS
 62
     4
 10
-0.9807852804032305
 20
0.1950903220161277
 30
0.0
  0
VERTEX
  5
6E1
  8
0
  6
CONTINUOUS
 62
     4
 10
-1.0
 20
-0.0000000000000008
 30
0.0
  0
VERTEX
  5
6E2
  8
0
  6
CONTINUOUS
 62
     4
 10
-0.9807852804032302
 20
-0.1950903220161292
 30
0.0
  0
VERTEX
  5
6E3
  8
0
  6
CONTINUOUS
 62
     4
 10
-0.9238795325112863
 20
-0.3826834323650909
 30
0.0
  0
VERTEX
  5
6E4
  8
0
  6
CONTINUOUS
 62
     4
 10
-0.8314696123025445
 20
-0.5555702330196034
 30
0.0
  0
VERTEX
  5
6E5
  8
0
  6
CONTINUOUS
 62
     4
 10
-0.7071067811865464
 20
-0.7071067811865487
 30
0.0
  0
VERTEX
  5
6E6
  8
0
  6
CONTINUOUS
 62
     4
 10
-0.5555702330196007
 20
-0.8314696123025462
 30
0.0
  0
VERTEX
  5
6E7
  8
0
  6
CONTINUOUS
 62
     4
 10
-0.3826834323650879
 20
-0.9238795325112875
 30
0.0
  0
VERTEX
  5
6E8
  8
0
  6
CONTINUOUS
 62
     4
 10
-0.1950903220161261
 20
-0.9807852804032309
 30
0.0
  0
VERTEX
  5
6E9
  8
0
  6
CONTINUOUS
 62
     4
 10
0.0000000000000025
 20
-1.0
 30
0.0
  0
VERTEX
  5
6EA
  8
0
  6
CONTINUOUS
 62
     4
 10
0.1950903220161309
 20
-0.9807852804032299
 30
0.0
  0
VERTEX
  5
6EB
  8
0
  6
CONTINUOUS
 62
     4
 10
0.3826834323650924
 20
-0.9238795325112856
 30
0.0
  0
VERTEX
  5
6EC
  8
0
  6
CONTINUOUS
 62
     4
 10
0.5555702330196048
 20
-0.8314696123025435
 30
0.0
  0
VERTEX
  5
6ED
  8
0
  6
CONTINUOUS
 62
     4
 10
0.7071067811865499
 20
-0.7071067811865451
 30
0.0
  0
VERTEX
  5
6EE
  8
0
  6
CONTINUOUS
 62
     4
 10
0.8314696123025472
 20
-0.5555702330195993
 30
0.0
  0
VERTEX
  5
6EF
  8
0
  6
CONTINUOUS
 62
     4
 10
0.9238795325112882
 20
-0.3826834323650863
 30
0.0
  0
VERTEX
  5
6F0
  8
0
  6
CONTINUOUS
 62
     4
 10
0.9807852804032312
 20
-0.1950903220161244
 30
0.0
  0
SEQEND
  5
918
  8
0
  6
CONTINUOUS
 62
     4
  0
POLYLINE
  5
449
  8
0
  6
CONTINUOUS
 62
     4
 66
     1
 10
0.0
 20
0.0
 30
0.0
 70
   129
  0
VERTEX
  5
6F1
  8
0
  6
CONTINUOUS
 62
     4
 10
240.4102039407016
 20
157.0000048535211
 30
0.0
  0
VERTEX
  5
6F2
  8
0
  6
CONTINUOUS
 62
     4
 10
240.4071338306987
 20
157.104693989627
 30
0.0
  0
VERTEX
  5
6F3
  8
0
  6
CONTINUOUS
 62
     4
 10
240.3979288867061
 20
157.2091994654145
 30
0.0
  0
VERTEX
  5
6F4
  8
0
  6
CONTINUOUS
 62
     4
 10
240.3826052573235
 20
157.3133379427679
 30
0.0
  0
VERTEX
  5
6F5
  8
0
  6
CONTINUOUS
 62
     4
 10
240.3611898254039
 20
157.4169267274115
 30
0.0
  0
VERTEX
  5
6F6
  8
0
  6
CONTINUOUS
 62
     4
 10
240.3337201608918
 20
157.5197840894173
 30
0.0
  0
VERTEX
  5
6F7
  8
0
  6
CONTINUOUS
 62
     4
 10
240.300244454913
 20
157.6217295820212
 30
0.0
  0
VERTEX
  5
6F8
  8
0
  6
CONTINUOUS
 62
     4
 10
240.2608214352309
 20
157.7225843581878
 30
0.0
  0
VERTEX
  5
6F9
  8
0
  6
CONTINUOUS
 62
     4
 10
240.2155202632182
 20
157.822171484369
 30
0.0
  0
VERTEX
  5
6FA
  8
0
  6
CONTINUOUS
 62
     4
 10
240.1644204125239
 20
157.9203162509056
 30
0.0
  0
VERTEX
  5
6FB
  8
0
  6
CONTINUOUS
 62
     4
 10
240.10761152965
 20
158.0168464785274
 30
0.0
  0
VERTEX
  5
6FC
  8
0
  6
CONTINUOUS
 62
     4
 10
240.0451932766808
 20
158.1115928204137
 30
0.0
  0
VERTEX
  5
6FD
  8
0
  6
CONTINUOUS
 62
     4
 10
239.977275156442
 20
158.204389059286
 30
0.0
  0
VERTEX
  5
6FE
  8
0
  6
CONTINUOUS
 62
     4
 10
239.9039763203952
 20
158.2950723990088
 30
0.0
  0
VERTEX
  5
6FF
  8
0
  6
CONTINUOUS
 62
     4
 10
239.8254253596058
 20
158.38348375019
 30
0.0
  0
VERTEX
  5
700
  8
0
  6
CONTINUOUS
 62
     4
 10
239.741760079151
 20
158.4694680092771
 30
0.0
  0
VERTEX
  5
701
  8
0
  6
CONTINUOUS
 62
     4
 10
239.6531272563623
 20
158.5528743306621
 30
0.0
  0
VERTEX
  5
702
  8
0
  6
CONTINUOUS
 62
     4
 10
239.5596823833285
 20
158.6335563913156
 30
0.0
  0
VERTEX
  5
703
  8
0
  6
CONTINUOUS
 62
     4
 10
239.4615893941096
 20
158.7113726474873
 30
0.0
  0
VERTEX
  5
704
  8
0
  6
CONTINUOUS
 62
     4
 10
239.3590203771411
 20
158.7861865830216
 30
0.0
  0
VERTEX
  5
705
  8
0
  6
CONTINUOUS
 62
     4
 10
239.2521552733318
 20
158.8578669488538
 30
0.0
  0
VERTEX
  5
706
  8
0
  6
CONTINUOUS
 62
     4
 10
239.1411815603868
 20
158.926287993265
 30
0.0
  0
VERTEX
  5
707
  8
0
  6
CONTINUOUS
 62
     4
 10
239.0262939239078
 20
158.9913296824937
 30
0.0
  0
VERTEX
  5
708
  8
0
  6
CONTINUOUS
 62
     4
 10
238.9076939158482
 20
159.0528779113156
 30
0.0
  0
VERTEX
  5
709
  8
0
  6
CONTINUOUS
 62
     4
 10
238.7855896009227
 20
159.1108247032232
 30
0.0
  0
VERTEX
  5
70A
  8
0
  6
CONTINUOUS
 62
     4
 10
238.6601951915911
 20
159.1650683998531
 30
0.0
  0
VERTEX
  5
70B
  8
0
  6
CONTINUOUS
 62
     4
 10
238.5317306722565
 20
159.2155138393291
 30
0.0
  0
VERTEX
  5
70C
  8
0
  6
CONTINUOUS
 62
     4
 10
238.4004214133384
 20
159.262072523209
 30
0.0
  0
VERTEX
  5
70D
  8
0
  6
CONTINUOUS
 62
     4
 10
238.2664977758963
 20
159.3046627717405
 30
0.0
  0
VERTEX
  5
70E
  8
0
  6
CONTINUOUS
 62
     4
 10
238.1301947074976
 20
159.3432098671554
 30
0.0
  0
VERTEX
  5
70F
  8
0
  6
CONTINUOUS
 62
     4
 10
237.9917513300405
 20
159.37764618475
 30
0.0
  0
VERTEX
  5
710
  8
0
  6
CONTINUOUS
 62
     4
 10
237.8514105202524
 20
159.4079113115217
 30
0.0
  0
VERTEX
  5
711
  8
0
  6
CONTINUOUS
 62
     4
 10
237.7094184836018
 20
159.4339521521539
 30
0.0
  0
VERTEX
  5
712
  8
0
  6
CONTINUOUS
 62
     4
 10
237.5660243223703
 20
159.4557230221635
 30
0.0
  0
VERTEX
  5
713
  8
0
  6
CONTINUOUS
 62
     4
 10
237.4214795986421
 20
159.4731857280466
 30
0.0
  0
VERTEX
  5
714
  8
0
  6
CONTINUOUS
 62
     4
 10
237.2760378929795
 20
159.4863096342833
 30
0.0
  0
VERTEX
  5
715
  8
0
  6
CONTINUOUS
 62
     4
 10
237.1299543595555
 20
159.4950717170826
 30
0.0
  0
VERTEX
  5
716
  8
0
  6
CONTINUOUS
 62
     4
 10
236.9834852785274
 20
159.4994566047737
 30
0.0
  0
VERTEX
  5
717
  8
0
  6
CONTINUOUS
 62
     4
 10
236.8368876064337
 20
159.4994566047737
 30
0.0
  0
VERTEX
  5
718
  8
0
  6
CONTINUOUS
 62
     4
 10
236.6904185254056
 20
159.4950717170826
 30
0.0
  0
VERTEX
  5
719
  8
0
  6
CONTINUOUS
 62
     4
 10
236.5443349919816
 20
159.4863096342833
 30
0.0
  0
VERTEX
  5
71A
  8
0
  6
CONTINUOUS
 62
     4
 10
236.398893286319
 20
159.4731857280466
 30
0.0
  0
VERTEX
  5
71B
  8
0
  6
CONTINUOUS
 62
     4
 10
236.2543485625908
 20
159.4557230221635
 30
0.0
  0
VERTEX
  5
71C
  8
0
  6
CONTINUOUS
 62
     4
 10
236.1109544013593
 20
159.4339521521539
 30
0.0
  0
VERTEX
  5
71D
  8
0
  6
CONTINUOUS
 62
     4
 10
235.9689623647087
 20
159.4079113115217
 30
0.0
  0
VERTEX
  5
71E
  8
0
  6
CONTINUOUS
 62
     4
 10
235.8286215549206
 20
159.37764618475
 30
0.0
  0
VERTEX
  5
71F
  8
0
  6
CONTINUOUS
 62
     4
 10
235.6901781774635
 20
159.3432098671554
 30
0.0
  0
VERTEX
  5
720
  8
0
  6
CONTINUOUS
 62
     4
 10
235.5538751090648
 20
159.3046627717405
 30
0.0
  0
VERTEX
  5
721
  8
0
  6
CONTINUOUS
 62
     4
 10
235.4199514716227
 20
159.262072523209
 30
0.0
  0
VERTEX
  5
722
  8
0
  6
CONTINUOUS
 62
     4
 10
235.2886422127046
 20
159.2155138393291
 30
0.0
  0
VERTEX
  5
723
  8
0
  6
CONTINUOUS
 62
     4
 10
235.16017769337
 20
159.1650683998531
 30
0.0
  0
VERTEX
  5
724
  8
0
  6
CONTINUOUS
 62
     4
 10
235.0347832840384
 20
159.1108247032232
 30
0.0
  0
VERTEX
  5
725
  8
0
  6
CONTINUOUS
 62
     4
 10
234.9126789691129
 20
159.0528779113156
 30
0.0
  0
VERTEX
  5
726
  8
0
  6
CONTINUOUS
 62
     4
 10
234.7940789610533
 20
158.9913296824937
 30
0.0
  0
VERTEX
  5
727
  8
0
  6
CONTINUOUS
 62
     4
 10
234.6791913245743
 20
158.926287993265
 30
0.0
  0
VERTEX
  5
728
  8
0
  6
CONTINUOUS
 62
     4
 10
234.5682176116293
 20
158.8578669488538
 30
0.0
  0
VERTEX
  5
729
  8
0
  6
CONTINUOUS
 62
     4
 10
234.46135250782
 20
158.7861865830216
 30
0.0
  0
VERTEX
  5
72A
  8
0
  6
CONTINUOUS
 62
     4
 10
234.3587834908515
 20
158.7113726474873
 30
0.0
  0
VERTEX
  5
72B
  8
0
  6
CONTINUOUS
 62
     4
 10
234.2606905016326
 20
158.6335563913156
 30
0.0
  0
VERTEX
  5
72C
  8
0
  6
CONTINUOUS
 62
     4
 10
234.1672456285988
 20
158.5528743306621
 30
0.0
  0
VERTEX
  5
72D
  8
0
  6
CONTINUOUS
 62
     4
 10
234.0786128058101
 20
158.4694680092771
 30
0.0
  0
VERTEX
  5
72E
  8
0
  6
CONTINUOUS
 62
     4
 10
233.9949475253553
 20
158.38348375019
 30
0.0
  0
VERTEX
  5
72F
  8
0
  6
CONTINUOUS
 62
     4
 10
233.9163965645659
 20
158.2950723990088
 30
0.0
  0
VERTEX
  5
730
  8
0
  6
CONTINUOUS
 62
     4
 10
233.8430977285191
 20
158.204389059286
 30
0.0
  0
VERTEX
  5
731
  8
0
  6
CONTINUOUS
 62
     4
 10
233.7751796082803
 20
158.1115928204137
 30
0.0
  0
VERTEX
  5
732
  8
0
  6
CONTINUOUS
 62
     4
 10
233.7127613553111
 20
158.0168464785274
 30
0.0
  0
VERTEX
  5
733
  8
0
  6
CONTINUOUS
 62
     4
 10
233.6559524724372
 20
157.9203162509056
 30
0.0
  0
VERTEX
  5
734
  8
0
  6
CONTINUOUS
 62
     4
 10
233.6048526217429
 20
157.822171484369
 30
0.0
  0
VERTEX
  5
735
  8
0
  6
CONTINUOUS
 62
     4
 10
233.5595514497302
 20
157.7225843581878
 30
0.0
  0
VERTEX
  5
736
  8
0
  6
CONTINUOUS
 62
     4
 10
233.5201284300481
 20
157.6217295820212
 30
0.0
  0
VERTEX
  5
737
  8
0
  6
CONTINUOUS
 62
     4
 10
233.4866527240693
 20
157.5197840894173
 30
0.0
  0
VERTEX
  5
738
  8
0
  6
CONTINUOUS
 62
     4
 10
233.4591830595572
 20
157.4169267274115
 30
0.0
  0
VERTEX
  5
739
  8
0
  6
CONTINUOUS
 62
     4
 10
233.4377676276376
 20
157.3133379427679
 30
0.0
  0
VERTEX
  5
73A
  8
0
  6
CONTINUOUS
 62
     4
 10
233.422443998255
 20
157.2091994654145
 30
0.0
  0
VERTEX
  5
73B
  8
0
  6
CONTINUOUS
 62
     4
 10
233.4132390542624
 20
157.104693989627
 30
0.0
  0
VERTEX
  5
73C
  8
0
  6
CONTINUOUS
 62
     4
 10
233.4101689442595
 20
157.0000048535211
 30
0.0
  0
VERTEX
  5
73D
  8
0
  6
CONTINUOUS
 62
     4
 10
233.4132390542624
 20
156.8953157174153
 30
0.0
  0
VERTEX
  5
73E
  8
0
  6
CONTINUOUS
 62
     4
 10
233.422443998255
 20
156.7908102416278
 30
0.0
  0
VERTEX
  5
73F
  8
0
  6
CONTINUOUS
 62
     4
 10
233.4377676276376
 20
156.6866717642743
 30
0.0
  0
VERTEX
  5
740
  8
0
  6
CONTINUOUS
 62
     4
 10
233.4591830595572
 20
156.5830829796307
 30
0.0
  0
VERTEX
  5
741
  8
0
  6
CONTINUOUS
 62
     4
 10
233.4866527240693
 20
156.480225617625
 30
0.0
  0
VERTEX
  5
742
  8
0
  6
CONTINUOUS
 62
     4
 10
233.5201284300481
 20
156.3782801250211
 30
0.0
  0
VERTEX
  5
743
  8
0
  6
CONTINUOUS
 62
     4
 10
233.5595514497302
 20
156.2774253488545
 30
0.0
  0
VERTEX
  5
744
  8
0
  6
CONTINUOUS
 62
     4
 10
233.6048526217429
 20
156.1778382226733
 30
0.0
  0
VERTEX
  5
745
  8
0
  6
CONTINUOUS
 62
     4
 10
233.6559524724372
 20
156.0796934561366
 30
0.0
  0
VERTEX
  5
746
  8
0
  6
CONTINUOUS
 62
     4
 10
233.7127613553111
 20
155.9831632285149
 30
0.0
  0
VERTEX
  5
747
  8
0
  6
CONTINUOUS
 62
     4
 10
233.7751796082803
 20
155.8884168866286
 30
0.0
  0
VERTEX
  5
748
  8
0
  6
CONTINUOUS
 62
     4
 10
233.8430977285191
 20
155.7956206477563
 30
0.0
  0
VERTEX
  5
749
  8
0
  6
CONTINUOUS
 62
     4
 10
233.9163965645659
 20
155.7049373080334
 30
0.0
  0
VERTEX
  5
74A
  8
0
  6
CONTINUOUS
 62
     4
 10
233.9949475253553
 20
155.6165259568523
 30
0.0
  0
VERTEX
  5
74B
  8
0
  6
CONTINUOUS
 62
     4
 10
234.0786128058101
 20
155.5305416977652
 30
0.0
  0
VERTEX
  5
74C
  8
0
  6
CONTINUOUS
 62
     4
 10
234.1672456285988
 20
155.4471353763801
 30
0.0
  0
VERTEX
  5
74D
  8
0
  6
CONTINUOUS
 62
     4
 10
234.2606905016326
 20
155.3664533157267
 30
0.0
  0
VERTEX
  5
74E
  8
0
  6
CONTINUOUS
 62
     4
 10
234.3587834908515
 20
155.288637059555
 30
0.0
  0
VERTEX
  5
74F
  8
0
  6
CONTINUOUS
 62
     4
 10
234.46135250782
 20
155.2138231240206
 30
0.0
  0
VERTEX
  5
750
  8
0
  6
CONTINUOUS
 62
     4
 10
234.5682176116293
 20
155.1421427581884
 30
0.0
  0
VERTEX
  5
751
  8
0
  6
CONTINUOUS
 62
     4
 10
234.6791913245743
 20
155.0737217137773
 30
0.0
  0
VERTEX
  5
752
  8
0
  6
CONTINUOUS
 62
     4
 10
234.7940789610533
 20
155.0086800245486
 30
0.0
  0
VERTEX
  5
753
  8
0
  6
CONTINUOUS
 62
     4
 10
234.9126789691129
 20
154.9471317957267
 30
0.0
  0
VERTEX
  5
754
  8
0
  6
CONTINUOUS
 62
     4
 10
235.0347832840384
 20
154.8891850038191
 30
0.0
  0
VERTEX
  5
755
  8
0
  6
CONTINUOUS
 62
     4
 10
235.1601776933701
 20
154.8349413071892
 30
0.0
  0
VERTEX
  5
756
  8
0
  6
CONTINUOUS
 62
     4
 10
235.2886422127046
 20
154.7844958677132
 30
0.0
  0
VERTEX
  5
757
  8
0
  6
CONTINUOUS
 62
     4
 10
235.4199514716227
 20
154.7379371838333
 30
0.0
  0
VERTEX
  5
758
  8
0
  6
CONTINUOUS
 62
     4
 10
235.5538751090648
 20
154.6953469353018
 30
0.0
  0
VERTEX
  5
759
  8
0
  6
CONTINUOUS
 62
     4
 10
235.6901781774635
 20
154.6567998398869
 30
0.0
  0
VERTEX
  5
75A
  8
0
  6
CONTINUOUS
 62
     4
 10
235.8286215549206
 20
154.6223635222923
 30
0.0
  0
VERTEX
  5
75B
  8
0
  6
CONTINUOUS
 62
     4
 10
235.9689623647087
 20
154.5920983955206
 30
0.0
  0
VERTEX
  5
75C
  8
0
  6
CONTINUOUS
 62
     4
 10
236.1109544013593
 20
154.5660575548884
 30
0.0
  0
VERTEX
  5
75D
  8
0
  6
CONTINUOUS
 62
     4
 10
236.2543485625909
 20
154.5442866848788
 30
0.0
  0
VERTEX
  5
75E
  8
0
  6
CONTINUOUS
 62
     4
 10
236.398893286319
 20
154.5268239789957
 30
0.0
  0
VERTEX
  5
75F
  8
0
  6
CONTINUOUS
 62
     4
 10
236.5443349919816
 20
154.513700072759
 30
0.0
  0
VERTEX
  5
760
  8
0
  6
CONTINUOUS
 62
     4
 10
236.6904185254056
 20
154.5049379899597
 30
0.0
  0
VERTEX
  5
761
  8
0
  6
CONTINUOUS
 62
     4
 10
236.8368876064337
 20
154.5005531022686
 30
0.0
  0
VERTEX
  5
762
  8
0
  6
CONTINUOUS
 62
     4
 10
236.9834852785274
 20
154.5005531022686
 30
0.0
  0
VERTEX
  5
763
  8
0
  6
CONTINUOUS
 62
     4
 10
237.1299543595555
 20
154.5049379899597
 30
0.0
  0
VERTEX
  5
764
  8
0
  6
CONTINUOUS
 62
     4
 10
237.2760378929795
 20
154.513700072759
 30
0.0
  0
VERTEX
  5
765
  8
0
  6
CONTINUOUS
 62
     4
 10
237.4214795986421
 20
154.5268239789957
 30
0.0
  0
VERTEX
  5
766
  8
0
  6
CONTINUOUS
 62
     4
 10
237.5660243223703
 20
154.5442866848788
 30
0.0
  0
VERTEX
  5
767
  8
0
  6
CONTINUOUS
 62
     4
 10
237.7094184836019
 20
154.5660575548884
 30
0.0
  0
VERTEX
  5
768
  8
0
  6
CONTINUOUS
 62
     4
 10
237.8514105202524
 20
154.5920983955206
 30
0.0
  0
VERTEX
  5
769
  8
0
  6
CONTINUOUS
 62
     4
 10
237.9917513300406
 20
154.6223635222923
 30
0.0
  0
VERTEX
  5
76A
  8
0
  6
CONTINUOUS
 62
     4
 10
238.1301947074977
 20
154.6567998398869
 30
0.0
  0
VERTEX
  5
76B
  8
0
  6
CONTINUOUS
 62
     4
 10
238.2664977758963
 20
154.6953469353018
 30
0.0
  0
VERTEX
  5
76C
  8
0
  6
CONTINUOUS
 62
     4
 10
238.4004214133385
 20
154.7379371838333
 30
0.0
  0
VERTEX
  5
76D
  8
0
  6
CONTINUOUS
 62
     4
 10
238.5317306722565
 20
154.7844958677132
 30
0.0
  0
VERTEX
  5
76E
  8
0
  6
CONTINUOUS
 62
     4
 10
238.6601951915911
 20
154.8349413071892
 30
0.0
  0
VERTEX
  5
76F
  8
0
  6
CONTINUOUS
 62
     4
 10
238.7855896009227
 20
154.8891850038191
 30
0.0
  0
VERTEX
  5
770
  8
0
  6
CONTINUOUS
 62
     4
 10
238.9076939158482
 20
154.9471317957267
 30
0.0
  0
VERTEX
  5
771
  8
0
  6
CONTINUOUS
 62
     4
 10
239.0262939239078
 20
155.0086800245486
 30
0.0
  0
VERTEX
  5
772
  8
0
  6
CONTINUOUS
 62
     4
 10
239.1411815603868
 20
155.0737217137773
 30
0.0
  0
VERTEX
  5
773
  8
0
  6
CONTINUOUS
 62
     4
 10
239.2521552733318
 20
155.1421427581885
 30
0.0
  0
VERTEX
  5
774
  8
0
  6
CONTINUOUS
 62
     4
 10
239.3590203771411
 20
155.2138231240206
 30
0.0
  0
VERTEX
  5
775
  8
0
  6
CONTINUOUS
 62
     4
 10
239.4615893941097
 20
155.288637059555
 30
0.0
  0
VERTEX
  5
776
  8
0
  6
CONTINUOUS
 62
     4
 10
239.5596823833285
 20
155.3664533157267
 30
0.0
  0
VERTEX
  5
777
  8
0
  6
CONTINUOUS
 62
     4
 10
239.6531272563623
 20
155.4471353763802
 30
0.0
  0
VERTEX
  5
778
  8
0
  6
CONTINUOUS
 62
     4
 10
239.741760079151
 20
155.5305416977652
 30
0.0
  0
VERTEX
  5
779
  8
0
  6
CONTINUOUS
 62
     4
 10
239.8254253596059
 20
155.6165259568523
 30
0.0
  0
VERTEX
  5
77A
  8
0
  6
CONTINUOUS
 62
     4
 10
239.9039763203952
 20
155.7049373080335
 30
0.0
  0
VERTEX
  5
77B
  8
0
  6
CONTINUOUS
 62
     4
 10
239.977275156442
 20
155.7956206477563
 30
0.0
  0
VERTEX
  5
77C
  8
0
  6
CONTINUOUS
 62
     4
 10
240.0451932766809
 20
155.8884168866286
 30
0.0
  0
VERTEX
  5
77D
  8
0
  6
CONTINUOUS
 62
     4
 10
240.10761152965
 20
155.9831632285149
 30
0.0
  0
VERTEX
  5
77E
  8
0
  6
CONTINUOUS
 62
     4
 10
240.1644204125239
 20
156.0796934561367
 30
0.0
  0
VERTEX
  5
77F
  8
0
  6
CONTINUOUS
 62
     4
 10
240.2155202632182
 20
156.1778382226733
 30
0.0
  0
VERTEX
  5
780
  8
0
  6
CONTINUOUS
 62
     4
 10
240.260821435231
 20
156.2774253488545
 30
0.0
  0
VERTEX
  5
781
  8
0
  6
CONTINUOUS
 62
     4
 10
240.300244454913
 20
156.3782801250211
 30
0.0
  0
VERTEX
  5
782
  8
0
  6
CONTINUOUS
 62
     4
 10
240.3337201608918
 20
156.480225617625
 30
0.0
  0
VERTEX
  5
783
  8
0
  6
CONTINUOUS
 62
     4
 10
240.3611898254039
 20
156.5830829796308
 30
0.0
  0
VERTEX
  5
784
  8
0
  6
CONTINUOUS
 62
     4
 10
240.3826052573235
 20
156.6866717642744
 30
0.0
  0
VERTEX
  5
785
  8
0
  6
CONTINUOUS
 62
     4
 10
240.3979288867061
 20
156.7908102416278
 30
0.0
  0
VERTEX
  5
786
  8
0
  6
CONTINUOUS
 62
     4
 10
240.4071338306987
 20
156.8953157174153
 30
0.0
  0
SEQEND
  5
919
  8
0
  6
CONTINUOUS
 62
     4
  0
POLYLINE
  5
44A
  8
0
  6
CONTINUOUS
 62
     4
 66
     1
 10
0.0
 20
0.0
 30
0.0
 70
     1
  0
VERTEX
  5
787
  8
0
  6
CONTINUOUS
 62
     4
 10
1.0
 20
0.0
 30
0.0
  0
VERTEX
  5
788
  8
0
  6
CONTINUOUS
 62
     4
 10
0.9807852804032304
 20
0.1950903220161282
 30
0.0
  0
VERTEX
  5
789
  8
0
  6
CONTINUOUS
 62
     4
 10
0.9238795325112867
 20
0.3826834323650898
 30
0.0
  0
VERTEX
  5
78A
  8
0
  6
CONTINUOUS
 62
     4
 10
0.8314696123025452
 20
0.5555702330196022
 30
0.0
  0
VERTEX
  5
78B
  8
0
  6
CONTINUOUS
 62
     4
 10
0.7071067811865476
 20
0.7071067811865476
 30
0.0
  0
VERTEX
  5
78C
  8
0
  6
CONTINUOUS
 62
     4
 10
0.5555702330196023
 20
0.8314696123025452
 30
0.0
  0
VERTEX
  5
78D
  8
0
  6
CONTINUOUS
 62
     4
 10
0.3826834323650898
 20
0.9238795325112867
 30
0.0
  0
VERTEX
  5
78E
  8
0
  6
CONTINUOUS
 62
     4
 10
0.1950903220161283
 20
0.9807852804032304
 30
0.0
  0
VERTEX
  5
78F
  8
0
  6
CONTINUOUS
 62
     4
 10
0.0000000000000001
 20
1.0
 30
0.0
  0
VERTEX
  5
790
  8
0
  6
CONTINUOUS
 62
     4
 10
-0.1950903220161282
 20
0.9807852804032304
 30
0.0
  0
VERTEX
  5
791
  8
0
  6
CONTINUOUS
 62
     4
 10
-0.3826834323650897
 20
0.9238795325112867
 30
0.0
  0
VERTEX
  5
792
  8
0
  6
CONTINUOUS
 62
     4
 10
-0.555570233019602
 20
0.8314696123025453
 30
0.0
  0
VERTEX
  5
793
  8
0
  6
CONTINUOUS
 62
     4
 10
-0.7071067811865475
 20
0.7071067811865476
 30
0.0
  0
VERTEX
  5
794
  8
0
  6
CONTINUOUS
 62
     4
 10
-0.8314696123025453
 20
0.5555702330196022
 30
0.0
  0
VERTEX
  5
795
  8
0
  6
CONTINUOUS
 62
     4
 10
-0.9238795325112868
 20
0.3826834323650894
 30
0.0
  0
VERTEX
  5
796
  8
0
  6
CONTINUOUS
 62
     4
 10
-0.9807852804032305
 20
0.1950903220161277
 30
0.0
  0
VERTEX
  5
797
  8
0
  6
CONTINUOUS
 62
     4
 10
-1.0
 20
-0.0000000000000008
 30
0.0
  0
VERTEX
  5
798
  8
0
  6
CONTINUOUS
 62
     4
 10
-0.9807852804032302
 20
-0.1950903220161292
 30
0.0
  0
VERTEX
  5
799
  8
0
  6
CONTINUOUS
 62
     4
 10
-0.9238795325112863
 20
-0.3826834323650909
 30
0.0
  0
VERTEX
  5
79A
  8
0
  6
CONTINUOUS
 62
     4
 10
-0.8314696123025445
 20
-0.5555702330196034
 30
0.0
  0
VERTEX
  5
79B
  8
0
  6
CONTINUOUS
 62
     4
 10
-0.7071067811865464
 20
-0.7071067811865487
 30
0.0
  0
VERTEX
  5
79C
  8
0
  6
CONTINUOUS
 62
     4
 10
-0.5555702330196007
 20
-0.8314696123025462
 30
0.0
  0
VERTEX
  5
79D
  8
0
  6
CONTINUOUS
 62
     4
 10
-0.3826834323650879
 20
-0.9238795325112875
 30
0.0
  0
VERTEX
  5
79E
  8
0
  6
CONTINUOUS
 62
     4
 10
-0.1950903220161261
 20
-0.9807852804032309
 30
0.0
  0
VERTEX
  5
79F
  8
0
  6
CONTINUOUS
 62
     4
 10
0.0000000000000025
 20
-1.0
 30
0.0
  0
VERTEX
  5
7A0
  8
0
  6
CONTINUOUS
 62
     4
 10
0.1950903220161309
 20
-0.9807852804032299
 30
0.0
  0
VERTEX
  5
7A1
  8
0
  6
CONTINUOUS
 62
     4
 10
0.3826834323650924
 20
-0.9238795325112856
 30
0.0
  0
VERTEX
  5
7A2
  8
0
  6
CONTINUOUS
 62
     4
 10
0.5555702330196048
 20
-0.8314696123025435
 30
0.0
  0
VERTEX
  5
7A3
  8
0
  6
CONTINUOUS
 62
     4
 10
0.7071067811865499
 20
-0.7071067811865451
 30
0.0
  0
VERTEX
  5
7A4
  8
0
  6
CONTINUOUS
 62
     4
 10
0.8314696123025472
 20
-0.5555702330195993
 30
0.0
  0
VERTEX
  5
7A5
  8
0
  6
CONTINUOUS
 62
     4
 10
0.9238795325112882
 20
-0.3826834323650863
 30
0.0
  0
VERTEX
  5
7A6
  8
0
  6
CONTINUOUS
 62
     4
 10
0.9807852804032312
 20
-0.1950903220161244
 30
0.0
  0
SEQEND
  5
91A
  8
0
  6
CONTINUOUS
 62
     4
  0
POLYLINE
  5
44B
  8
0
  6
CONTINUOUS
 62
     4
 66
     1
 10
0.0
 20
0.0
 30
0.0
 70
   129
  0
VERTEX
  5
7A7
  8
0
  6
CONTINUOUS
 62
     4
 10
240.4102039407016
 20
57.00000315053128
 30
0.0
  0
VERTEX
  5
7A8
  8
0
  6
CONTINUOUS
 62
     4
 10
240.4071338306987
 20
57.10469228663712
 30
0.0
  0
VERTEX
  5
7A9
  8
0
  6
CONTINUOUS
 62
     4
 10
240.3979288867061
 20
57.20919776242463
 30
0.0
  0
VERTEX
  5
7AA
  8
0
  6
CONTINUOUS
 62
     4
 10
240.3826052573235
 20
57.31333623977807
 30
0.0
  0
VERTEX
  5
7AB
  8
0
  6
CONTINUOUS
 62
     4
 10
240.3611898254039
 20
57.41692502442167
 30
0.0
  0
VERTEX
  5
7AC
  8
0
  6
CONTINUOUS
 62
     4
 10
240.3337201608918
 20
57.51978238642747
 30
0.0
  0
VERTEX
  5
7AD
  8
0
  6
CONTINUOUS
 62
     4
 10
240.300244454913
 20
57.62172787903133
 30
0.0
  0
VERTEX
  5
7AE
  8
0
  6
CONTINUOUS
 62
     4
 10
240.2608214352309
 20
57.72258265519791
 30
0.0
  0
VERTEX
  5
7AF
  8
0
  6
CONTINUOUS
 62
     4
 10
240.2155202632182
 20
57.82216978137915
 30
0.0
  0
VERTEX
  5
7B0
  8
0
  6
CONTINUOUS
 62
     4
 10
240.1644204125239
 20
57.92031454791578
 30
0.0
  0
VERTEX
  5
7B1
  8
0
  6
CONTINUOUS
 62
     4
 10
240.10761152965
 20
58.01684477553749
 30
0.0
  0
VERTEX
  5
7B2
  8
0
  6
CONTINUOUS
 62
     4
 10
240.0451932766808
 20
58.11159111742383
 30
0.0
  0
VERTEX
  5
7B3
  8
0
  6
CONTINUOUS
 62
     4
 10
239.977275156442
 20
58.20438735629611
 30
0.0
  0
VERTEX
  5
7B4
  8
0
  6
CONTINUOUS
 62
     4
 10
239.9039763203952
 20
58.29507069601897
 30
0.0
  0
VERTEX
  5
7B5
  8
0
  6
CONTINUOUS
 62
     4
 10
239.8254253596058
 20
58.38348204720014
 30
0.0
  0
VERTEX
  5
7B6
  8
0
  6
CONTINUOUS
 62
     4
 10
239.741760079151
 20
58.46946630628727
 30
0.0
  0
VERTEX
  5
7B7
  8
0
  6
CONTINUOUS
 62
     4
 10
239.6531272563623
 20
58.55287262767227
 30
0.0
  0
VERTEX
  5
7B8
  8
0
  6
CONTINUOUS
 62
     4
 10
239.5596823833285
 20
58.63355468832576
 30
0.0
  0
VERTEX
  5
7B9
  8
0
  6
CONTINUOUS
 62
     4
 10
239.4615893941096
 20
58.71137094449742
 30
0.0
  0
VERTEX
  5
7BA
  8
0
  6
CONTINUOUS
 62
     4
 10
239.3590203771411
 20
58.78618488003178
 30
0.0
  0
VERTEX
  5
7BB
  8
0
  6
CONTINUOUS
 62
     4
 10
239.2521552733318
 20
58.85786524586396
 30
0.0
  0
VERTEX
  5
7BC
  8
0
  6
CONTINUOUS
 62
     4
 10
239.1411815603868
 20
58.92628629027516
 30
0.0
  0
VERTEX
  5
7BD
  8
0
  6
CONTINUOUS
 62
     4
 10
239.0262939239078
 20
58.99132797950383
 30
0.0
  0
VERTEX
  5
7BE
  8
0
  6
CONTINUOUS
 62
     4
 10
238.9076939158482
 20
59.05287620832576
 30
0.0
  0
VERTEX
  5
7BF
  8
0
  6
CONTINUOUS
 62
     4
 10
238.7855896009227
 20
59.11082300023336
 30
0.0
  0
VERTEX
  5
7C0
  8
0
  6
CONTINUOUS
 62
     4
 10
238.6601951915911
 20
59.16506669686319
 30
0.0
  0
VERTEX
  5
7C1
  8
0
  6
CONTINUOUS
 62
     4
 10
238.5317306722565
 20
59.21551213633921
 30
0.0
  0
VERTEX
  5
7C2
  8
0
  6
CONTINUOUS
 62
     4
 10
238.4004214133384
 20
59.26207082021911
 30
0.0
  0
VERTEX
  5
7C3
  8
0
  6
CONTINUOUS
 62
     4
 10
238.2664977758963
 20
59.30466106875062
 30
0.0
  0
VERTEX
  5
7C4
  8
0
  6
CONTINUOUS
 62
     4
 10
238.1301947074976
 20
59.34320816416555
 30
0.0
  0
VERTEX
  5
7C5
  8
0
  6
CONTINUOUS
 62
     4
 10
237.9917513300405
 20
59.37764448176015
 30
0.0
  0
VERTEX
  5
7C6
  8
0
  6
CONTINUOUS
 62
     4
 10
237.8514105202524
 20
59.40790960853182
 30
0.0
  0
VERTEX
  5
7C7
  8
0
  6
CONTINUOUS
 62
     4
 10
237.7094184836018
 20
59.43395044916405
 30
0.0
  0
VERTEX
  5
7C8
  8
0
  6
CONTINUOUS
 62
     4
 10
237.5660243223703
 20
59.45572131917363
 30
0.0
  0
VERTEX
  5
7C9
  8
0
  6
CONTINUOUS
 62
     4
 10
237.4214795986421
 20
59.47318402505677
 30
0.0
  0
VERTEX
  5
7CA
  8
0
  6
CONTINUOUS
 62
     4
 10
237.2760378929795
 20
59.48630793129348
 30
0.0
  0
VERTEX
  5
7CB
  8
0
  6
CONTINUOUS
 62
     4
 10
237.1299543595555
 20
59.49507001409269
 30
0.0
  0
VERTEX
  5
7CC
  8
0
  6
CONTINUOUS
 62
     4
 10
236.9834852785274
 20
59.4994549017838
 30
0.0
  0
VERTEX
  5
7CD
  8
0
  6
CONTINUOUS
 62
     4
 10
236.8368876064337
 20
59.4994549017838
 30
0.0
  0
VERTEX
  5
7CE
  8
0
  6
CONTINUOUS
 62
     4
 10
236.6904185254056
 20
59.49507001409269
 30
0.0
  0
VERTEX
  5
7CF
  8
0
  6
CONTINUOUS
 62
     4
 10
236.5443349919816
 20
59.48630793129348
 30
0.0
  0
VERTEX
  5
7D0
  8
0
  6
CONTINUOUS
 62
     4
 10
236.398893286319
 20
59.47318402505677
 30
0.0
  0
VERTEX
  5
7D1
  8
0
  6
CONTINUOUS
 62
     4
 10
236.2543485625908
 20
59.45572131917363
 30
0.0
  0
VERTEX
  5
7D2
  8
0
  6
CONTINUOUS
 62
     4
 10
236.1109544013593
 20
59.43395044916405
 30
0.0
  0
VERTEX
  5
7D3
  8
0
  6
CONTINUOUS
 62
     4
 10
235.9689623647087
 20
59.40790960853182
 30
0.0
  0
VERTEX
  5
7D4
  8
0
  6
CONTINUOUS
 62
     4
 10
235.8286215549206
 20
59.37764448176015
 30
0.0
  0
VERTEX
  5
7D5
  8
0
  6
CONTINUOUS
 62
     4
 10
235.6901781774635
 20
59.34320816416555
 30
0.0
  0
VERTEX
  5
7D6
  8
0
  6
CONTINUOUS
 62
     4
 10
235.5538751090648
 20
59.30466106875062
 30
0.0
  0
VERTEX
  5
7D7
  8
0
  6
CONTINUOUS
 62
     4
 10
235.4199514716227
 20
59.26207082021911
 30
0.0
  0
VERTEX
  5
7D8
  8
0
  6
CONTINUOUS
 62
     4
 10
235.2886422127046
 20
59.21551213633921
 30
0.0
  0
VERTEX
  5
7D9
  8
0
  6
CONTINUOUS
 62
     4
 10
235.16017769337
 20
59.16506669686319
 30
0.0
  0
VERTEX
  5
7DA
  8
0
  6
CONTINUOUS
 62
     4
 10
235.0347832840384
 20
59.11082300023336
 30
0.0
  0
VERTEX
  5
7DB
  8
0
  6
CONTINUOUS
 62
     4
 10
234.9126789691129
 20
59.05287620832576
 30
0.0
  0
VERTEX
  5
7DC
  8
0
  6
CONTINUOUS
 62
     4
 10
234.7940789610533
 20
58.99132797950383
 30
0.0
  0
VERTEX
  5
7DD
  8
0
  6
CONTINUOUS
 62
     4
 10
234.6791913245743
 20
58.92628629027516
 30
0.0
  0
VERTEX
  5
7DE
  8
0
  6
CONTINUOUS
 62
     4
 10
234.5682176116293
 20
58.85786524586396
 30
0.0
  0
VERTEX
  5
7DF
  8
0
  6
CONTINUOUS
 62
     4
 10
234.46135250782
 20
58.78618488003178
 30
0.0
  0
VERTEX
  5
7E0
  8
0
  6
CONTINUOUS
 62
     4
 10
234.3587834908515
 20
58.71137094449742
 30
0.0
  0
VERTEX
  5
7E1
  8
0
  6
CONTINUOUS
 62
     4
 10
234.2606905016326
 20
58.63355468832575
 30
0.0
  0
VERTEX
  5
7E2
  8
0
  6
CONTINUOUS
 62
     4
 10
234.1672456285988
 20
58.55287262767226
 30
0.0
  0
VERTEX
  5
7E3
  8
0
  6
CONTINUOUS
 62
     4
 10
234.0786128058101
 20
58.46946630628727
 30
0.0
  0
VERTEX
  5
7E4
  8
0
  6
CONTINUOUS
 62
     4
 10
233.9949475253553
 20
58.38348204720014
 30
0.0
  0
VERTEX
  5
7E5
  8
0
  6
CONTINUOUS
 62
     4
 10
233.9163965645659
 20
58.29507069601897
 30
0.0
  0
VERTEX
  5
7E6
  8
0
  6
CONTINUOUS
 62
     4
 10
233.8430977285191
 20
58.2043873562961
 30
0.0
  0
VERTEX
  5
7E7
  8
0
  6
CONTINUOUS
 62
     4
 10
233.7751796082803
 20
58.11159111742382
 30
0.0
  0
VERTEX
  5
7E8
  8
0
  6
CONTINUOUS
 62
     4
 10
233.7127613553111
 20
58.01684477553749
 30
0.0
  0
VERTEX
  5
7E9
  8
0
  6
CONTINUOUS
 62
     4
 10
233.6559524724372
 20
57.92031454791578
 30
0.0
  0
VERTEX
  5
7EA
  8
0
  6
CONTINUOUS
 62
     4
 10
233.6048526217429
 20
57.82216978137915
 30
0.0
  0
VERTEX
  5
7EB
  8
0
  6
CONTINUOUS
 62
     4
 10
233.5595514497302
 20
57.72258265519791
 30
0.0
  0
VERTEX
  5
7EC
  8
0
  6
CONTINUOUS
 62
     4
 10
233.5201284300481
 20
57.62172787903132
 30
0.0
  0
VERTEX
  5
7ED
  8
0
  6
CONTINUOUS
 62
     4
 10
233.4866527240693
 20
57.51978238642746
 30
0.0
  0
VERTEX
  5
7EE
  8
0
  6
CONTINUOUS
 62
     4
 10
233.4591830595572
 20
57.41692502442167
 30
0.0
  0
VERTEX
  5
7EF
  8
0
  6
CONTINUOUS
 62
     4
 10
233.4377676276376
 20
57.31333623977807
 30
0.0
  0
VERTEX
  5
7F0
  8
0
  6
CONTINUOUS
 62
     4
 10
233.422443998255
 20
57.20919776242462
 30
0.0
  0
VERTEX
  5
7F1
  8
0
  6
CONTINUOUS
 62
     4
 10
233.4132390542624
 20
57.10469228663712
 30
0.0
  0
VERTEX
  5
7F2
  8
0
  6
CONTINUOUS
 62
     4
 10
233.4101689442595
 20
57.00000315053127
 30
0.0
  0
VERTEX
  5
7F3
  8
0
  6
CONTINUOUS
 62
     4
 10
233.4132390542624
 20
56.89531401442543
 30
0.0
  0
VERTEX
  5
7F4
  8
0
  6
CONTINUOUS
 62
     4
 10
233.422443998255
 20
56.79080853863792
 30
0.0
  0
VERTEX
  5
7F5
  8
0
  6
CONTINUOUS
 62
     4
 10
233.4377676276376
 20
56.68667006128448
 30
0.0
  0
VERTEX
  5
7F6
  8
0
  6
CONTINUOUS
 62
     4
 10
233.4591830595572
 20
56.58308127664088
 30
0.0
  0
VERTEX
  5
7F7
  8
0
  6
CONTINUOUS
 62
     4
 10
233.4866527240693
 20
56.48022391463508
 30
0.0
  0
VERTEX
  5
7F8
  8
0
  6
CONTINUOUS
 62
     4
 10
233.5201284300481
 20
56.37827842203123
 30
0.0
  0
VERTEX
  5
7F9
  8
0
  6
CONTINUOUS
 62
     4
 10
233.5595514497302
 20
56.27742364586464
 30
0.0
  0
VERTEX
  5
7FA
  8
0
  6
CONTINUOUS
 62
     4
 10
233.6048526217429
 20
56.1778365196834
 30
0.0
  0
VERTEX
  5
7FB
  8
0
  6
CONTINUOUS
 62
     4
 10
233.6559524724372
 20
56.07969175314677
 30
0.0
  0
VERTEX
  5
7FC
  8
0
  6
CONTINUOUS
 62
     4
 10
233.7127613553111
 20
55.98316152552506
 30
0.0
  0
VERTEX
  5
7FD
  8
0
  6
CONTINUOUS
 62
     4
 10
233.7751796082803
 20
55.88841518363872
 30
0.0
  0
VERTEX
  5
7FE
  8
0
  6
CONTINUOUS
 62
     4
 10
233.8430977285191
 20
55.79561894476645
 30
0.0
  0
VERTEX
  5
7FF
  8
0
  6
CONTINUOUS
 62
     4
 10
233.9163965645659
 20
55.70493560504358
 30
0.0
  0
VERTEX
  5
800
  8
0
  6
CONTINUOUS
 62
     4
 10
233.9949475253553
 20
55.61652425386241
 30
0.0
  0
VERTEX
  5
801
  8
0
  6
CONTINUOUS
 62
     4
 10
234.0786128058101
 20
55.53053999477528
 30
0.0
  0
VERTEX
  5
802
  8
0
  6
CONTINUOUS
 62
     4
 10
234.1672456285988
 20
55.44713367339029
 30
0.0
  0
VERTEX
  5
803
  8
0
  6
CONTINUOUS
 62
     4
 10
234.2606905016326
 20
55.36645161273679
 30
0.0
  0
VERTEX
  5
804
  8
0
  6
CONTINUOUS
 62
     4
 10
234.3587834908515
 20
55.28863535656513
 30
0.0
  0
VERTEX
  5
805
  8
0
  6
CONTINUOUS
 62
     4
 10
234.46135250782
 20
55.21382142103077
 30
0.0
  0
VERTEX
  5
806
  8
0
  6
CONTINUOUS
 62
     4
 10
234.5682176116293
 20
55.14214105519859
 30
0.0
  0
VERTEX
  5
807
  8
0
  6
CONTINUOUS
 62
     4
 10
234.6791913245743
 20
55.0737200107874
 30
0.0
  0
VERTEX
  5
808
  8
0
  6
CONTINUOUS
 62
     4
 10
234.7940789610533
 20
55.00867832155873
 30
0.0
  0
VERTEX
  5
809
  8
0
  6
CONTINUOUS
 62
     4
 10
234.9126789691129
 20
54.94713009273679
 30
0.0
  0
VERTEX
  5
80A
  8
0
  6
CONTINUOUS
 62
     4
 10
235.0347832840384
 20
54.88918330082919
 30
0.0
  0
VERTEX
  5
80B
  8
0
  6
CONTINUOUS
 62
     4
 10
235.1601776933701
 20
54.83493960419936
 30
0.0
  0
VERTEX
  5
80C
  8
0
  6
CONTINUOUS
 62
     4
 10
235.2886422127046
 20
54.78449416472334
 30
0.0
  0
VERTEX
  5
80D
  8
0
  6
CONTINUOUS
 62
     4
 10
235.4199514716227
 20
54.73793548084345
 30
0.0
  0
VERTEX
  5
80E
  8
0
  6
CONTINUOUS
 62
     4
 10
235.5538751090648
 20
54.69534523231194
 30
0.0
  0
VERTEX
  5
80F
  8
0
  6
CONTINUOUS
 62
     4
 10
235.6901781774635
 20
54.656798136897
 30
0.0
  0
VERTEX
  5
810
  8
0
  6
CONTINUOUS
 62
     4
 10
235.8286215549206
 20
54.6223618193024
 30
0.0
  0
VERTEX
  5
811
  8
0
  6
CONTINUOUS
 62
     4
 10
235.9689623647087
 20
54.59209669253073
 30
0.0
  0
VERTEX
  5
812
  8
0
  6
CONTINUOUS
 62
     4
 10
236.1109544013593
 20
54.5660558518985
 30
0.0
  0
VERTEX
  5
813
  8
0
  6
CONTINUOUS
 62
     4
 10
236.2543485625909
 20
54.54428498188892
 30
0.0
  0
VERTEX
  5
814
  8
0
  6
CONTINUOUS
 62
     4
 10
236.398893286319
 20
54.52682227600579
 30
0.0
  0
VERTEX
  5
815
  8
0
  6
CONTINUOUS
 62
     4
 10
236.5443349919816
 20
54.51369836976907
 30
0.0
  0
VERTEX
  5
816
  8
0
  6
CONTINUOUS
 62
     4
 10
236.6904185254056
 20
54.50493628696987
 30
0.0
  0
VERTEX
  5
817
  8
0
  6
CONTINUOUS
 62
     4
 10
236.8368876064337
 20
54.50055139927876
 30
0.0
  0
VERTEX
  5
818
  8
0
  6
CONTINUOUS
 62
     4
 10
236.9834852785274
 20
54.50055139927876
 30
0.0
  0
VERTEX
  5
819
  8
0
  6
CONTINUOUS
 62
     4
 10
237.1299543595555
 20
54.50493628696987
 30
0.0
  0
VERTEX
  5
81A
  8
0
  6
CONTINUOUS
 62
     4
 10
237.2760378929795
 20
54.51369836976908
 30
0.0
  0
VERTEX
  5
81B
  8
0
  6
CONTINUOUS
 62
     4
 10
237.4214795986421
 20
54.52682227600579
 30
0.0
  0
VERTEX
  5
81C
  8
0
  6
CONTINUOUS
 62
     4
 10
237.5660243223703
 20
54.54428498188893
 30
0.0
  0
VERTEX
  5
81D
  8
0
  6
CONTINUOUS
 62
     4
 10
237.7094184836019
 20
54.5660558518985
 30
0.0
  0
VERTEX
  5
81E
  8
0
  6
CONTINUOUS
 62
     4
 10
237.8514105202524
 20
54.59209669253073
 30
0.0
  0
VERTEX
  5
81F
  8
0
  6
CONTINUOUS
 62
     4
 10
237.9917513300406
 20
54.62236181930241
 30
0.0
  0
VERTEX
  5
820
  8
0
  6
CONTINUOUS
 62
     4
 10
238.1301947074977
 20
54.65679813689701
 30
0.0
  0
VERTEX
  5
821
  8
0
  6
CONTINUOUS
 62
     4
 10
238.2664977758963
 20
54.69534523231194
 30
0.0
  0
VERTEX
  5
822
  8
0
  6
CONTINUOUS
 62
     4
 10
238.4004214133385
 20
54.73793548084345
 30
0.0
  0
VERTEX
  5
823
  8
0
  6
CONTINUOUS
 62
     4
 10
238.5317306722565
 20
54.78449416472336
 30
0.0
  0
VERTEX
  5
824
  8
0
  6
CONTINUOUS
 62
     4
 10
238.6601951915911
 20
54.83493960419938
 30
0.0
  0
VERTEX
  5
825
  8
0
  6
CONTINUOUS
 62
     4
 10
238.7855896009227
 20
54.8891833008292
 30
0.0
  0
VERTEX
  5
826
  8
0
  6
CONTINUOUS
 62
     4
 10
238.9076939158482
 20
54.94713009273681
 30
0.0
  0
VERTEX
  5
827
  8
0
  6
CONTINUOUS
 62
     4
 10
239.0262939239078
 20
55.00867832155873
 30
0.0
  0
VERTEX
  5
828
  8
0
  6
CONTINUOUS
 62
     4
 10
239.1411815603868
 20
55.0737200107874
 30
0.0
  0
VERTEX
  5
829
  8
0
  6
CONTINUOUS
 62
     4
 10
239.2521552733318
 20
55.1421410551986
 30
0.0
  0
VERTEX
  5
82A
  8
0
  6
CONTINUOUS
 62
     4
 10
239.3590203771411
 20
55.21382142103079
 30
0.0
  0
VERTEX
  5
82B
  8
0
  6
CONTINUOUS
 62
     4
 10
239.4615893941097
 20
55.28863535656514
 30
0.0
  0
VERTEX
  5
82C
  8
0
  6
CONTINUOUS
 62
     4
 10
239.5596823833285
 20
55.36645161273681
 30
0.0
  0
VERTEX
  5
82D
  8
0
  6
CONTINUOUS
 62
     4
 10
239.6531272563623
 20
55.4471336733903
 30
0.0
  0
VERTEX
  5
82E
  8
0
  6
CONTINUOUS
 62
     4
 10
239.741760079151
 20
55.5305399947753
 30
0.0
  0
VERTEX
  5
82F
  8
0
  6
CONTINUOUS
 62
     4
 10
239.8254253596059
 20
55.61652425386242
 30
0.0
  0
VERTEX
  5
830
  8
0
  6
CONTINUOUS
 62
     4
 10
239.9039763203952
 20
55.70493560504359
 30
0.0
  0
VERTEX
  5
831
  8
0
  6
CONTINUOUS
 62
     4
 10
239.977275156442
 20
55.79561894476646
 30
0.0
  0
VERTEX
  5
832
  8
0
  6
CONTINUOUS
 62
     4
 10
240.0451932766809
 20
55.88841518363874
 30
0.0
  0
VERTEX
  5
833
  8
0
  6
CONTINUOUS
 62
     4
 10
240.10761152965
 20
55.98316152552508
 30
0.0
  0
VERTEX
  5
834
  8
0
  6
CONTINUOUS
 62
     4
 10
240.1644204125239
 20
56.07969175314678
 30
0.0
  0
VERTEX
  5
835
  8
0
  6
CONTINUOUS
 62
     4
 10
240.2155202632182
 20
56.17783651968342
 30
0.0
  0
VERTEX
  5
836
  8
0
  6
CONTINUOUS
 62
     4
 10
240.260821435231
 20
56.27742364586466
 30
0.0
  0
VERTEX
  5
837
  8
0
  6
CONTINUOUS
 62
     4
 10
240.300244454913
 20
56.37827842203124
 30
0.0
  0
VERTEX
  5
838
  8
0
  6
CONTINUOUS
 62
     4
 10
240.3337201608918
 20
56.4802239146351
 30
0.0
  0
VERTEX
  5
839
  8
0
  6
CONTINUOUS
 62
     4
 10
240.3611898254039
 20
56.5830812766409
 30
0.0
  0
VERTEX
  5
83A
  8
0
  6
CONTINUOUS
 62
     4
 10
240.3826052573235
 20
56.6866700612845
 30
0.0
  0
VERTEX
  5
83B
  8
0
  6
CONTINUOUS
 62
     4
 10
240.3979288867061
 20
56.79080853863794
 30
0.0
  0
VERTEX
  5
83C
  8
0
  6
CONTINUOUS
 62
     4
 10
240.4071338306987
 20
56.89531401442544
 30
0.0
  0
SEQEND
  5
91B
  8
0
  6
CONTINUOUS
 62
     4
  0
POLYLINE
  5
44C
  8
0
  6
CONTINUOUS
 62
     4
 66
     1
 10
0.0
 20
0.0
 30
0.0
 70
     1
  0
VERTEX
  5
83D
  8
0
  6
CONTINUOUS
 62
     4
 10
1.0
 20
0.0
 30
0.0
  0
VERTEX
  5
83E
  8
0
  6
CONTINUOUS
 62
     4
 10
0.9807852804032304
 20
0.1950903220161282
 30
0.0
  0
VERTEX
  5
83F
  8
0
  6
CONTINUOUS
 62
     4
 10
0.9238795325112867
 20
0.3826834323650898
 30
0.0
  0
VERTEX
  5
840
  8
0
  6
CONTINUOUS
 62
     4
 10
0.8314696123025452
 20
0.5555702330196022
 30
0.0
  0
VERTEX
  5
841
  8
0
  6
CONTINUOUS
 62
     4
 10
0.7071067811865476
 20
0.7071067811865476
 30
0.0
  0
VERTEX
  5
842
  8
0
  6
CONTINUOUS
 62
     4
 10
0.5555702330196023
 20
0.8314696123025452
 30
0.0
  0
VERTEX
  5
843
  8
0
  6
CONTINUOUS
 62
     4
 10
0.3826834323650898
 20
0.9238795325112867
 30
0.0
  0
VERTEX
  5
844
  8
0
  6
CONTINUOUS
 62
     4
 10
0.1950903220161283
 20
0.9807852804032304
 30
0.0
  0
VERTEX
  5
845
  8
0
  6
CONTINUOUS
 62
     4
 10
0.0000000000000001
 20
1.0
 30
0.0
  0
VERTEX
  5
846
  8
0
  6
CONTINUOUS
 62
     4
 10
-0.1950903220161282
 20
0.9807852804032304
 30
0.0
  0
VERTEX
  5
847
  8
0
  6
CONTINUOUS
 62
     4
 10
-0.3826834323650897
 20
0.9238795325112867
 30
0.0
  0
VERTEX
  5
848
  8
0
  6
CONTINUOUS
 62
     4
 10
-0.555570233019602
 20
0.8314696123025453
 30
0.0
  0
VERTEX
  5
849
  8
0
  6
CONTINUOUS
 62
     4
 10
-0.7071067811865475
 20
0.7071067811865476
 30
0.0
  0
VERTEX
  5
84A
  8
0
  6
CONTINUOUS
 62
     4
 10
-0.8314696123025453
 20
0.5555702330196022
 30
0.0
  0
VERTEX
  5
84B
  8
0
  6
CONTINUOUS
 62
     4
 10
-0.9238795325112868
 20
0.3826834323650894
 30
0.0
  0
VERTEX
  5
84C
  8
0
  6
CONTINUOUS
 62
     4
 10
-0.9807852804032305
 20
0.1950903220161277
 30
0.0
  0
VERTEX
  5
84D
  8
0
  6
CONTINUOUS
 62
     4
 10
-1.0
 20
-0.0000000000000008
 30
0.0
  0
VERTEX
  5
84E
  8
0
  6
CONTINUOUS
 62
     4
 10
-0.9807852804032302
 20
-0.1950903220161292
 30
0.0
  0
VERTEX
  5
84F
  8
0
  6
CONTINUOUS
 62
     4
 10
-0.9238795325112863
 20
-0.3826834323650909
 30
0.0
  0
VERTEX
  5
850
  8
0
  6
CONTINUOUS
 62
     4
 10
-0.8314696123025445
 20
-0.5555702330196034
 30
0.0
  0
VERTEX
  5
851
  8
0
  6
CONTINUOUS
 62
     4
 10
-0.7071067811865464
 20
-0.7071067811865487
 30
0.0
  0
VERTEX
  5
852
  8
0
  6
CONTINUOUS
 62
     4
 10
-0.5555702330196007
 20
-0.8314696123025462
 30
0.0
  0
VERTEX
  5
853
  8
0
  6
CONTINUOUS
 62
     4
 10
-0.3826834323650879
 20
-0.9238795325112875
 30
0.0
  0
VERTEX
  5
854
  8
0
  6
CONTINUOUS
 62
     4
 10
-0.1950903220161261
 20
-0.9807852804032309
 30
0.0
  0
VERTEX
  5
855
  8
0
  6
CONTINUOUS
 62
     4
 10
0.0000000000000025
 20
-1.0
 30
0.0
  0
VERTEX
  5
856
  8
0
  6
CONTINUOUS
 62
     4
 10
0.1950903220161309
 20
-0.9807852804032299
 30
0.0
  0
VERTEX
  5
857
  8
0
  6
CONTINUOUS
 62
     4
 10
0.3826834323650924
 20
-0.9238795325112856
 30
0.0
  0
VERTEX
  5
858
  8
0
  6
CONTINUOUS
 62
     4
 10
0.5555702330196048
 20
-0.8314696123025435
 30
0.0
  0
VERTEX
  5
859
  8
0
  6
CONTINUOUS
 62
     4
 10
0.7071067811865499
 20
-0.7071067811865451
 30
0.0
  0
VERTEX
  5
85A
  8
0
  6
CONTINUOUS
 62
     4
 10
0.8314696123025472
 20
-0.5555702330195993
 30
0.0
  0
VERTEX
  5
85B
  8
0
  6
CONTINUOUS
 62
     4
 10
0.9238795325112882
 20
-0.3826834323650863
 30
0.0
  0
VERTEX
  5
85C
  8
0
  6
CONTINUOUS
 62
     4
 10
0.9807852804032312
 20
-0.1950903220161244
 30
0.0
  0
SEQEND
  5
91C
  8
0
  6
CONTINUOUS
 62
     4
  0
POLYLINE
  5
44D
  8
0
  6
CONTINUOUS
 62
     4
 66
     1
 10
0.0
 20
0.0
 30
0.0
 70
   128
  0
VERTEX
  5
85D
  8
0
  6
CONTINUOUS
 62
     4
 10
120.1910413014733
 20
61.12925807797367
 30
0.0
  0
VERTEX
  5
85E
  8
0
  6
CONTINUOUS
 62
     4
 10
120.2211286395989
 20
61.18944193654283
 30
0.0
  0
VERTEX
  5
85F
  8
0
  6
CONTINUOUS
 62
     4
 10
120.249052521466
 20
61.25015545084126
 30
0.0
  0
VERTEX
  5
860
  8
0
  6
CONTINUOUS
 62
     4
 10
120.2747947006507
 20
61.31135894857234
 30
0.0
  0
VERTEX
  5
861
  8
0
  6
CONTINUOUS
 62
     4
 10
120.2983383563286
 20
61.37301243726741
 30
0.0
  0
VERTEX
  5
862
  8
0
  6
CONTINUOUS
 62
     4
 10
120.3196681042658
 20
61.43507563041826
 30
0.0
  0
VERTEX
  5
863
  8
0
  6
CONTINUOUS
 62
     4
 10
120.3387700068722
 20
61.49750797380173
 30
0.0
  0
VERTEX
  5
864
  8
0
  6
CONTINUOUS
 62
     4
 10
120.3556315823081
 20
61.56026867197919
 30
0.0
  0
VERTEX
  5
865
  8
0
  6
CONTINUOUS
 62
     4
 10
120.3702418126407
 20
61.62331671495371
 30
0.0
  0
VERTEX
  5
866
  8
0
  6
CONTINUOUS
 62
     4
 10
120.3825911510434
 20
61.68661090496739
 30
0.0
  0
VERTEX
  5
867
  8
0
  6
CONTINUOUS
 62
     4
 10
120.3926715280342
 20
61.7501098834214
 30
0.0
  0
VERTEX
  5
868
  8
0
  6
CONTINUOUS
 62
     4
 10
120.4004763567483
 20
61.81377215790111
 30
0.0
  0
VERTEX
  5
869
  8
0
  6
CONTINUOUS
 62
     4
 10
120.4060005372424
 20
61.87755612928866
 30
0.0
  0
VERTEX
  5
86A
  8
0
  6
CONTINUOUS
 62
     4
 10
120.4092404598271
 20
61.94142011894522
 30
0.0
  0
VERTEX
  5
86B
  8
0
  6
CONTINUOUS
 62
     4
 10
120.4101940074258
 20
62.00532239594532
 30
0.0
  0
VERTEX
  5
86C
  8
0
  6
CONTINUOUS
 62
     4
 10
120.4088605569575
 20
62.06922120434518
 30
0.0
  0
VERTEX
  5
86D
  8
0
  6
CONTINUOUS
 62
     4
 10
120.4052409797447
 20
62.13307479046753
 30
0.0
  0
VERTEX
  5
86E
  8
0
  6
CONTINUOUS
 62
     4
 10
120.3993376409436
 20
62.19684143018492
 30
0.0
  0
VERTEX
  5
86F
  8
0
  6
CONTINUOUS
 62
     4
 10
120.3911543979985
 20
62.26047945618364
 30
0.0
  0
VERTEX
  5
870
  8
0
  6
CONTINUOUS
 62
     4
 10
120.3806965981216
 20
62.32394728519061
 30
0.0
  0
VERTEX
  5
871
  8
0
  6
CONTINUOUS
 62
     4
 10
120.3679710747987
 20
62.38720344514532
 30
0.0
  0
VERTEX
  5
872
  8
0
  6
CONTINUOUS
 62
     4
 10
120.3529861433242
 20
62.4502066022991
 30
0.0
  0
VERTEX
  5
873
  8
0
  6
CONTINUOUS
 62
     4
 10
120.335751595367
 20
62.51291558822396
 30
0.0
  0
VERTEX
  5
874
  8
0
  6
CONTINUOUS
 62
     4
 10
120.3162786925732
 20
62.57528942671356
 30
0.0
  0
VERTEX
  5
875
  8
0
  6
CONTINUOUS
 62
     4
 10
120.2945801592066
 20
62.63728736055838
 30
0.0
  0
VERTEX
  5
876
  8
0
  6
CONTINUOUS
 62
     4
 10
120.2706701738345
 20
62.69886887817791
 30
0.0
  0
VERTEX
  5
877
  8
0
  6
CONTINUOUS
 62
     4
 10
120.2445643600631
 20
62.75999374009232
 30
0.0
  0
VERTEX
  5
878
  8
0
  6
CONTINUOUS
 62
     4
 10
120.2162797763282
 20
62.82062200521631
 30
0.0
  0
VERTEX
  5
879
  8
0
  6
CONTINUOUS
 62
     4
 10
120.1858349047488
 20
62.88071405695799
 30
0.0
  0
VERTEX
  5
87A
  8
0
  6
CONTINUOUS
 62
     4
 10
120.1532496390502
 20
62.94023062910571
 30
0.0
  0
VERTEX
  5
87B
  8
0
  6
CONTINUOUS
 62
     4
 10
120.1185452715648
 20
62.99913283148598
 30
0.0
  0
VERTEX
  5
87C
  8
0
  6
CONTINUOUS
 62
     4
 10
120.0817444793189
 20
63.05738217537561
 30
0.0
  0
VERTEX
  5
87D
  8
0
  6
CONTINUOUS
 62
     4
 10
120.0428713092147
 20
63.11494059865159
 30
0.0
  0
VERTEX
  5
87E
  8
0
  6
CONTINUOUS
 62
     4
 10
120.0019511623176
 20
63.1717704906622
 30
0.0
  0
VERTEX
  5
87F
  8
0
  6
CONTINUOUS
 62
     4
 10
119.9590107772576
 20
63.22783471680305
 30
0.0
  0
VERTEX
  5
880
  8
0
  6
CONTINUOUS
 62
     4
 10
119.9140782127581
 20
63.28309664278218
 30
0.0
  0
VERTEX
  5
881
  8
0
  6
CONTINUOUS
 62
     4
 10
119.8671828293007
 20
63.33752015855808
 30
0.0
  0
VERTEX
  5
882
  8
0
  6
CONTINUOUS
 62
     4
 10
119.8183552699405
 20
63.39106970193532
 30
0.0
  0
VERTEX
  5
883
  8
0
  6
CONTINUOUS
 62
     4
 10
119.7676274402828
 20
63.44371028180205
 30
0.0
  0
VERTEX
  5
884
  8
0
  6
CONTINUOUS
 62
     4
 10
119.7150324876346
 20
63.49540750099442
 30
0.0
  0
VERTEX
  5
885
  8
0
  6
CONTINUOUS
 62
     4
 10
119.6606047793455
 20
63.54612757877286
 30
0.0
  0
VERTEX
  5
886
  8
0
  6
CONTINUOUS
 62
     4
 10
119.6043798803504
 20
63.59583737289558
 30
0.0
  0
VERTEX
  5
887
  8
0
  6
CONTINUOUS
 62
     4
 10
119.5463945299305
 20
63.64450440127484
 30
0.0
  0
VERTEX
  5
888
  8
0
  6
CONTINUOUS
 62
     4
 10
119.4866866177063
 20
63.69209686320188
 30
0.0
  0
VERTEX
  5
889
  8
0
  6
CONTINUOUS
 62
     4
 10
119.4252951588796
 20
63.73858366012658
 30
0.0
  0
VERTEX
  5
88A
  8
0
  6
CONTINUOUS
 62
     4
 10
119.3622602687392
 20
63.78393441597834
 30
0.0
  0
VERTEX
  5
88B
  8
0
  6
CONTINUOUS
 62
     4
 10
119.2976231364486
 20
63.82811949701483
 30
0.0
  0
VERTEX
  5
88C
  8
0
  6
CONTINUOUS
 62
     4
 10
119.2314259981311
 20
63.8711100311857
 30
0.0
  0
VERTEX
  5
88D
  8
0
  6
CONTINUOUS
 62
     4
 10
119.1637121092718
 20
63.91287792699858
 30
0.0
  0
VERTEX
  5
88E
  8
0
  6
CONTINUOUS
 62
     4
 10
119.0945257164527
 20
63.953395891875
 30
0.0
  0
VERTEX
  5
88F
  8
0
  6
CONTINUOUS
 62
     4
 10
119.0239120284402
 20
63.99263744998434
 30
0.0
  0
VERTEX
  5
890
  8
0
  6
CONTINUOUS
 62
     4
 10
118.9519171866449
 20
64.030576959544
 30
0.0
  0
VERTEX
  5
891
  8
0
  6
CONTINUOUS
 62
     4
 10
118.8785882349704
 20
64.06718962957468
 30
0.0
  0
VERTEX
  5
892
  8
0
  6
CONTINUOUS
 62
     4
 10
118.8039730890736
 20
64.1024515360996
 30
0.0
  0
VERTEX
  5
893
  8
0
  6
CONTINUOUS
 62
     4
 10
118.728120505055
 20
64.13633963777727
 30
0.0
  0
VERTEX
  5
894
  8
0
  6
CONTINUOUS
 62
     4
 10
118.6510800475996
 20
64.16883179095751
 30
0.0
  0
VERTEX
  5
895
  8
0
  6
CONTINUOUS
 62
     4
 10
118.5729020575898
 20
64.19990676415085
 30
0.0
  0
VERTEX
  5
896
  8
0
  6
CONTINUOUS
 62
     4
 10
118.4936376192108
 20
64.22954425190193
 30
0.0
  0
VERTEX
  5
897
  8
0
  6
CONTINUOUS
 62
     4
 10
118.4133385265705
 20
64.2577248880578
 30
0.0
  0
VERTEX
  5
898
  8
0
  6
CONTINUOUS
 62
     4
 10
118.3320572498555
 20
64.28443025842233
 30
0.0
  0
VERTEX
  5
899
  8
0
  6
CONTINUOUS
 62
     4
 10
118.2498469010451
 20
64.30964291278886
 30
0.0
  0
VERTEX
  5
89A
  8
0
  6
CONTINUOUS
 62
     4
 10
118.1667611992065
 20
64.33334637634258
 30
0.0
  0
VERTEX
  5
89B
  8
0
  6
CONTINUOUS
 62
     4
 10
118.0828544353924
 20
64.35552516042584
 30
0.0
  0
VERTEX
  5
89C
  8
0
  6
CONTINUOUS
 62
     4
 10
117.9981814371657
 20
64.37616477265898
 30
0.0
  0
VERTEX
  5
89D
  8
0
  6
CONTINUOUS
 62
     4
 10
117.9127975327731
 20
64.39525172641007
 30
0.0
  0
VERTEX
  5
89E
  8
0
  6
CONTINUOUS
 62
     4
 10
117.826758514992
 20
64.41277354960764
 30
0.0
  0
VERTEX
  5
89F
  8
0
  6
CONTINUOUS
 62
     4
 10
117.7401206046734
 20
64.42871879289027
 30
0.0
  0
VERTEX
  5
8A0
  8
0
  6
CONTINUOUS
 62
     4
 10
117.6529404140049
 20
64.44307703708803
 30
0.0
  0
VERTEX
  5
8A1
  8
0
  6
CONTINUOUS
 62
     4
 10
117.5652749095193
 20
64.45583890003078
 30
0.0
  0
VERTEX
  5
8A2
  8
0
  6
CONTINUOUS
 62
     4
 10
117.4771813748696
 20
64.46699604267872
 30
0.0
  0
VERTEX
  5
8A3
  8
0
  6
CONTINUOUS
 62
     4
 10
117.3887173733987
 20
64.47654117457141
 30
0.0
  0
VERTEX
  5
8A4
  8
0
  6
CONTINUOUS
 62
     4
 10
117.2999407105251
 20
64.48446805859166
 30
0.0
  0
VERTEX
  5
8A5
  8
0
  6
CONTINUOUS
 62
     4
 10
117.2109093959713
 20
64.49077151504106
 30
0.0
  0
VERTEX
  5
8A6
  8
0
  6
CONTINUOUS
 62
     4
 10
117.1216816058575
 20
64.49544742502454
 30
0.0
  0
VERTEX
  5
8A7
  8
0
  6
CONTINUOUS
 62
     4
 10
117.0323156446883
 20
64.49849273314184
 30
0.0
  0
VERTEX
  5
8A8
  8
0
  6
CONTINUOUS
 62
     4
 10
116.9428699072535
 20
64.49990544948398
 30
0.0
  0
VERTEX
  5
8A9
  8
0
  6
CONTINUOUS
 62
     4
 10
116.8534028404718
 20
64.49968465093356
 30
0.0
  0
VERTEX
  5
8AA
  8
0
  6
CONTINUOUS
 62
     4
 10
116.7639729051991
 20
64.49783048176793
 30
0.0
  0
VERTEX
  5
8AB
  8
0
  6
CONTINUOUS
 62
     4
 10
116.6746385380284
 20
64.49434415356495
 30
0.0
  0
VERTEX
  5
8AC
  8
0
  6
CONTINUOUS
 62
     4
 10
116.585458113105
 20
64.48922794441128
 30
0.0
  0
VERTEX
  5
8AD
  8
0
  6
CONTINUOUS
 62
     4
 10
116.4964899039833
 20
64.48248519741378
 30
0.0
  0
VERTEX
  5
8AE
  8
0
  6
CONTINUOUS
 62
     4
 10
116.4077920455485
 20
64.47412031851506
 30
0.0
  0
VERTEX
  5
8AF
  8
0
  6
CONTINUOUS
 62
     4
 10
116.3194224960293
 20
64.46413877361445
 30
0.0
  0
VERTEX
  5
8B0
  8
0
  6
CONTINUOUS
 62
     4
 10
116.2314389991262
 20
64.4525470849964
 30
0.0
  0
VERTEX
  5
8B1
  8
0
  6
CONTINUOUS
 62
     4
 10
116.1438990462795
 20
64.43935282706857
 30
0.0
  0
VERTEX
  5
8B2
  8
0
  6
CONTINUOUS
 62
     4
 10
116.0568598391027
 20
64.42456462141254
 30
0.0
  0
VERTEX
  5
8B3
  8
0
  6
CONTINUOUS
 62
     4
 10
115.9703782520049
 20
64.40819213115006
 30
0.0
  0
VERTEX
  5
8B4
  8
0
  6
CONTINUOUS
 62
     4
 10
115.8845107950269
 20
64.39024605462889
 30
0.0
  0
VERTEX
  5
8B5
  8
0
  6
CONTINUOUS
 62
     4
 10
115.7993135769159
 20
64.37073811843216
 30
0.0
  0
VERTEX
  5
8B6
  8
0
  6
CONTINUOUS
 62
     4
 10
115.714842268462
 20
64.34968106971574
 30
0.0
  0
VERTEX
  5
8B7
  8
0
  6
CONTINUOUS
 62
     4
 10
115.631152066121
 20
64.32708866787888
 30
0.0
  0
VERTEX
  5
8B8
  8
0
  6
CONTINUOUS
 62
     4
 10
115.548297655947
 20
64.30297567557334
 30
0.0
  0
VERTEX
  5
8B9
  8
0
  6
CONTINUOUS
 62
     4
 10
115.4663331778589
 20
64.2773578490569
 30
0.0
  0
VERTEX
  5
8BA
  8
0
  6
CONTINUOUS
 62
     4
 10
115.3853121902633
 20
64.25025192789775
 30
0.0
  0
VERTEX
  5
8BB
  8
0
  6
CONTINUOUS
 62
     4
 10
115.3052876350579
 20
64.22167562403627
 30
0.0
  0
VERTEX
  5
8BC
  8
0
  6
CONTINUOUS
 62
     4
 10
115.2263118030369
 20
64.1916476102114
 30
0.0
  0
VERTEX
  5
8BD
  8
0
  6
CONTINUOUS
 62
     4
 10
115.148436299723
 20
64.16018750775929
 30
0.0
  0
VERTEX
  5
8BE
  8
0
  6
CONTINUOUS
 62
     4
 10
115.0717120116462
 20
64.12731587379199
 30
0.0
  0
VERTEX
  5
8BF
  8
0
  6
CONTINUOUS
 62
     4
 10
114.9961890730929
 20
64.09305418776472
 30
0.0
  0
VERTEX
  5
8C0
  8
0
  6
CONTINUOUS
 62
     4
 10
114.9219168333465
 20
64.05742483744056
 30
0.0
  0
VERTEX
  5
8C1
  8
0
  6
CONTINUOUS
 62
     4
 10
114.8489438244408
 20
64.02045110426137
 30
0.0
  0
VERTEX
  5
8C2
  8
0
  6
CONTINUOUS
 62
     4
 10
114.7773177294474
 20
63.98215714813501
 30
0.0
  0
VERTEX
  5
8C3
  8
0
  6
CONTINUOUS
 62
     4
 10
114.7070853513183
 20
63.94256799164835
 30
0.0
  0
VERTEX
  5
8C4
  8
0
  6
CONTINUOUS
 62
     4
 10
114.6382925823027
 20
63.90170950371672
 30
0.0
  0
VERTEX
  5
8C5
  8
0
  6
CONTINUOUS
 62
     4
 10
114.5709843739601
 20
63.8596083826802
 30
0.0
  0
VERTEX
  5
8C6
  8
0
  6
CONTINUOUS
 62
     4
 10
114.5052047077867
 20
63.81629213885807
 30
0.0
  0
VERTEX
  5
8C7
  8
0
  6
CONTINUOUS
 62
     4
 10
114.4409965664769
 20
63.77178907657257
 30
0.0
  0
VERTEX
  5
8C8
  8
0
  6
CONTINUOUS
 62
     4
 10
114.3784019058368
 20
63.72612827565395
 30
0.0
  0
VERTEX
  5
8C9
  8
0
  6
CONTINUOUS
 62
     4
 10
114.3174616273686
 20
63.67933957243861
 30
0.0
  0
VERTEX
  5
8CA
  8
0
  6
CONTINUOUS
 62
     4
 10
114.2582155515444
 20
63.63145354027314
 30
0.0
  0
VERTEX
  5
8CB
  8
0
  6
CONTINUOUS
 62
     4
 10
114.2007023917862
 20
63.5825014695365
 30
0.0
  0
VERTEX
  5
8CC
  8
0
  6
CONTINUOUS
 62
     4
 10
114.144959729169
 20
63.53251534719394
 30
0.0
  0
VERTEX
  5
8CD
  8
0
  6
CONTINUOUS
 62
     4
 10
114.091023987864
 20
63.48152783589556
 30
0.0
  0
VERTEX
  5
8CE
  8
0
  6
CONTINUOUS
 62
     4
 10
114.0389304113382
 20
63.42957225263338
 30
0.0
  0
VERTEX
  5
8CF
  8
0
  6
CONTINUOUS
 62
     4
 10
113.9887130393246
 20
63.37668254697094
 30
0.0
  0
VERTEX
  5
8D0
  8
0
  6
CONTINUOUS
 62
     4
 10
113.9404046855798
 20
63.32289327885946
 30
0.0
  0
VERTEX
  5
8D1
  8
0
  6
CONTINUOUS
 62
     4
 10
113.8940369164421
 20
63.26823959605515
 30
0.0
  0
VERTEX
  5
8D2
  8
0
  6
CONTINUOUS
 62
     4
 10
113.8496400302054
 20
63.21275721115252
 30
0.0
  0
VERTEX
  5
8D3
  8
0
  6
CONTINUOUS
 62
     4
 10
113.8072430373209
 20
63.15648237824848
 30
0.0
  0
VERTEX
  5
8D4
  8
0
  6
CONTINUOUS
 62
     4
 10
113.7668736414405
 20
63.0994518692527
 30
0.0
  0
VERTEX
  5
8D5
  8
0
  6
CONTINUOUS
 62
     4
 10
113.7285582213149
 20
63.0417029498596
 30
0.0
  0
VERTEX
  5
8D6
  8
0
  6
CONTINUOUS
 62
     4
 10
113.6923218135563
 20
62.98327335519761
 30
0.0
  0
VERTEX
  5
8D7
  8
0
  6
CONTINUOUS
 62
     4
 10
113.6581880962787
 20
62.9242012651718
 30
0.0
  0
VERTEX
  5
8D8
  8
0
  6
CONTINUOUS
 62
     4
 10
113.626179373626
 20
62.86452527951577
 30
0.0
  0
VERTEX
  5
8D9
  8
0
  6
CONTINUOUS
 62
     4
 10
113.5963165611975
 20
62.80428439256928
 30
0.0
  0
VERTEX
  5
8DA
  8
0
  6
CONTINUOUS
 62
     4
 10
113.5686191723811
 20
62.74351796779802
 30
0.0
  0
VERTEX
  5
8DB
  8
0
  6
CONTINUOUS
 62
     4
 10
113.5431053056025
 20
62.68226571207213
 30
0.0
  0
VERTEX
  5
8DC
  8
0
  6
CONTINUOUS
 62
     4
 10
113.519791632499
 20
62.62056764972042
 30
0.0
  0
VERTEX
  5
8DD
  8
0
  6
CONTINUOUS
 62
     4
 10
113.4986933870257
 20
62.55846409637705
 30
0.0
  0
VERTEX
  5
8DE
  8
0
  6
CONTINUOUS
 62
     4
 10
113.4798243555013
 20
62.49599563263794
 30
0.0
  0
VERTEX
  5
8DF
  8
0
  6
CONTINUOUS
 62
     4
 10
113.4631968675994
 20
62.43320307754397
 30
0.0
  0
VERTEX
  5
8E0
  8
0
  6
CONTINUOUS
 62
     4
 10
113.4488217882919
 20
62.37012746190851
 30
0.0
  0
VERTEX
  5
8E1
  8
0
  6
CONTINUOUS
 62
     4
 10
113.4367085107498
 20
62.30681000150635
 30
0.0
  0
VERTEX
  5
8E2
  8
0
  6
CONTINUOUS
 62
     4
 10
113.4268649502048
 20
62.243292070142
 30
0.0
  0
VERTEX
  5
8E3
  8
0
  6
CONTINUOUS
 62
     4
 10
113.4192975387776
 20
62.1796151726146
 30
0.0
  0
VERTEX
  5
8E4
  8
0
  6
CONTINUOUS
 62
     4
 10
113.414011221275
 20
62.11582091759718
 30
0.0
  0
VERTEX
  5
8E5
  8
0
  6
CONTINUOUS
 62
     4
 10
113.4110094519584
 20
62.05195099044825
 30
0.0
  0
VERTEX
  5
8E6
  8
0
  6
CONTINUOUS
 62
     4
 10
113.410294192287
 20
61.98804712597307
 30
0.0
  0
VERTEX
  5
8E7
  8
0
  6
CONTINUOUS
 62
     4
 10
113.4118659096362
 20
61.9241510811527
 30
0.0
  0
VERTEX
  5
8E8
  8
0
  6
CONTINUOUS
 62
     4
 10
113.4157235769918
 20
61.8603046078586
 30
0.0
  0
VERTEX
  5
8E9
  8
0
  6
CONTINUOUS
 62
     4
 10
113.4218646736213
 20
61.79654942557046
 30
0.0
  0
VERTEX
  5
8EA
  8
0
  6
CONTINUOUS
 62
     4
 10
113.4302851867212
 20
61.73292719411531
 30
0.0
  0
VERTEX
  5
8EB
  8
0
  6
CONTINUOUS
 62
     4
 10
113.4409796140389
 20
61.66947948644552
 30
0.0
  0
VERTEX
  5
8EC
  8
0
  6
CONTINUOUS
 62
     4
 10
113.453940967468
 20
61.60624776147365
 30
0.0
  0
VERTEX
  5
8ED
  8
0
  6
CONTINUOUS
 62
     4
 10
113.4691607776149
 20
61.54327333698171
 30
0.0
  0
VERTEX
  5
8EE
  8
0
  6
CONTINUOUS
 62
     4
 10
113.4866290993324
 20
61.48059736262275
 30
0.0
  0
VERTEX
  5
8EF
  8
0
  6
CONTINUOUS
 62
     4
 10
113.5063345182191
 20
61.41826079303225
 30
0.0
  0
VERTEX
  5
8F0
  8
0
  6
CONTINUOUS
 62
     4
 10
113.5282641580769
 20
61.35630436106694
 30
0.0
  0
VERTEX
  5
8F1
  8
0
  6
CONTINUOUS
 62
     4
 10
113.5524036893255
 20
61.29476855118858
 30
0.0
  0
VERTEX
  5
8F2
  8
0
  6
CONTINUOUS
 62
     4
 10
113.5787373383658
 20
61.23369357300998
 30
0.0
  0
VERTEX
  5
8F3
  8
0
  6
CONTINUOUS
 62
     4
 10
113.6072478978865
 20
61.1731193350207
 30
0.0
  0
SEQEND
  5
91D
  8
0
  6
CONTINUOUS
 62
     4
  0
LINE
  5
44E
  8
0
  6
CENTER
 62
     7
 10
-256.5856670479774
 20
165.5856829550244
 30
0.0
 11
-248.8436869167162
 21
157.8437028237632
 31
0.0
  0
LINE
  5
44F
  8
0
  6
CENTER
 62
     7
 10
-315.5482754630408
 20
107.0000040020262
 30
0.0
 11
-77.22015512364516
 21
107.0000040020262
 31
0.0
  0
LINE
  5
450
  8
0
  6
CENTER
 62
     7
 10
-302.758532639206
 20
129.4999934860637
 30
0.0
 11
-281.3121298604715
 21
129.4999934860637
 31
0.0
  0
LINE
  5
451
  8
0
  6
CENTER
 62
     7
 10
-302.758532639206
 20
84.50000906842111
 30
0.0
 11
-281.7436920190486
 21
84.50000906842111
 31
0.0
  0
LINE
  5
452
  8
0
  6
CENTER
 62
     7
 10
-93.24144794670936
 20
129.4999934860637
 30
0.0
 11
-114.8811141913468
 21
129.4999934860637
 31
0.0
  0
LINE
  5
453
  8
0
  6
CENTER
 62
     7
 10
-93.24144794670936
 20
84.50000906842111
 30
0.0
 11
-114.8811141913468
 21
84.50000906842111
 31
0.0
  0
LINE
  5
454
  8
0
  6
CENTER
 62
     7
 10
-295.0355690571284
 20
163.0235418318826
 30
0.0
 11
-271.1790943067479
 21
149.2499994656241
 31
0.0
  0
LINE
  5
455
  8
0
  6
CENTER
 62
     7
 10
-226.9006321332173
 20
186.4040264742456
 30
0.0
 11
-235.6221491909058
 21
210.3661967955873
 31
0.0
  0
LINE
  5
456
  8
0
  6
CENTER
 62
     7
 10
-295.0355759696495
 20
50.97645058535497
 30
0.0
 11
-278.366995776488
 21
60.60006001961237
 31
0.0
  0
LINE
  5
457
  8
0
  6
CENTER
 62
     7
 10
-100.9643201492249
 20
163.023544386293
 30
0.0
 11
-124.8207948996055
 21
149.2500020200345
 31
0.0
  0
LINE
  5
458
  8
0
  6
CENTER
 62
     7
 10
-100.9643132367039
 20
50.97644803094454
 30
0.0
 11
-117.6328934298653
 21
60.60005746520194
 31
0.0
  0
LINE
  5
459
  8
0
  6
CENTER
 62
     7
 10
-205.2267055039185
 20
174.5000051515444
 30
0.0
 11
-191.2911583915976
 21
174.5000051515444
 31
0.0
  0
LINE
  5
45A
  8
0
  6
CENTER
 62
     7
 10
-252.8432597601336
 20
66.99145393299449
 30
0.0
 11
-259.8110442154293
 21
79.06001040914605
 31
0.0
  0
LINE
  5
45B
  8
0
  6
CENTER
 62
     7
 10
-262.109575279134
 20
69.98628628855484
 30
0.0
 11
-251.2241223326332
 21
76.27100559026768
 31
0.0
  0
LINE
  5
45C
  8
0
  6
CENTER
 62
     7
 10
-135.9298816655774
 20
79.50854548348245
 30
0.0
 11
-142.8976550940136
 21
67.4400081064114
 31
0.0
  0
LINE
  5
45D
  8
0
  6
CENTER
 62
     7
 10
-134.4822857243327
 20
70.3280588166947
 30
0.0
 11
-144.9407310152176
 21
76.36624512906681
 31
0.0
  0
LINE
  5
45E
  8
0
  6
CENTER
 62
     7
 10
-226.0613488250781
 20
155.6038011685192
 30
0.0
 11
-217.6606223636552
 21
141.0533163780019
 31
0.0
  0
LINE
  5
45F
  8
0
  6
CENTER
 62
     7
 10
-226.0613433727644
 20
58.39616692129505
 30
0.0
 11
-217.6606060122063
 21
72.94667058966797
 31
0.0
  0
LINE
  5
460
  8
0
  6
CENTER
 62
     7
 10
-169.9385135274453
 20
58.39620071290376
 30
0.0
 11
-178.3392508880034
 21
72.94670438127669
 31
0.0
  0
LINE
  5
461
  8
0
  6
CENTER
 62
     7
 10
-169.938502625564
 20
155.6037768158383
 30
0.0
 11
-178.3392290869869
 21
141.053292025321
 31
0.0
  0
LINE
  5
462
  8
0
  6
CENTER
 62
     7
 10
-245.8902056262262
 20
134.6494525163644
 30
0.0
 11
-234.3730146797095
 21
127.9999991037388
 31
0.0
  0
LINE
  5
463
  8
0
  6
CENTER
 62
     7
 10
-245.5865150361622
 20
79.52587973888981
 30
0.0
 11
-235.5487816360379
 21
85.32116792352049
 31
0.0
  0
LINE
  5
464
  8
0
  6
CENTER
 62
     7
 10
-160.1487315176252
 20
85.14658847055945
 30
0.0
 11
-149.975719403995
 21
79.27319708286879
 31
0.0
  0
LINE
  5
465
  8
0
  6
CENTER
 62
     7
 10
-160.3249820903876
 20
128.7516496201684
 30
0.0
 11
-150.1520077324688
 21
134.6250192095886
 31
0.0
  0
LINE
  5
466
  8
0
  6
CENTER
 62
     7
 10
20.63280413206652
 20
107.0000040020262
 30
0.0
 11
211.5815552912705
 21
107.0000040020262
 31
0.0
  0
LINE
  5
467
  8
0
  6
CENTER
 62
     7
 10
163.4370232213739
 20
204.4999947633061
 30
0.0
 11
269.8364739730779
 21
204.4999947633061
 31
0.0
  0
LINE
  5
468
  8
0
  6
CENTER
 62
     7
 10
113.9008895652786
 20
129.4999934860637
 30
0.0
 11
140.6231277435699
 21
129.4999934860637
 31
0.0
  0
LINE
  5
469
  8
0
  6
CENTER
 62
     7
 10
128.8602578445887
 20
84.50000906842111
 30
0.0
 11
155.4602513221375
 21
84.50000906842111
 31
0.0
  0
LINE
  5
46A
  8
0
  6
CENTER
 62
     7
 10
132.6602195443463
 20
-107.6848511642192
 30
0.0
 11
132.6602195443463
 21
-34.77264735992717
 31
0.0
  0
LINE
  5
46B
  8
0
  6
CENTER
 62
     7
 10
142.1602545833631
 20
97.32398062644653
 30
0.0
 11
142.1602545833631
 21
71.47171687180173
 31
0.0
  0
LINE
  5
46C
  8
0
  6
CENTER
 62
     7
 10
127.1602543279146
 20
142.1996113606795
 30
0.0
 11
127.1602543279146
 21
116.1034522074197
 31
0.0
  0
LINE
  5
46D
  8
0
  6
CENTER
 62
     7
 10
85.11644780834143
 20
58.0000042574747
 30
0.0
 11
99.0551338716087
 21
58.0000042574747
 31
0.0
  0
LINE
  5
46E
  8
0
  6
CENTER
 62
     7
 10
226.6944705877044
 20
107.0000040020262
 30
0.0
 11
283.2601105019043
 21
107.0000040020262
 31
0.0
  0
LINE
  5
46F
  8
0
  6
CENTER
 62
     7
 10
114.7855760653082
 20
-186.9650592373824
 30
0.0
 11
124.2406633290046
 21
-181.5061619624983
 31
0.0
  0
LINE
  5
470
  8
0
  6
CENTER
 62
     7
 10
114.785601173645
 20
-212.867853174682
 30
0.0
 11
124.2406884373415
 21
-218.3267504495661
 31
0.0
  0
LINE
  5
471
  8
0
  6
CENTER
 62
     7
 10
69.92065313331098
 20
-212.8678350342518
 30
0.0
 11
60.46556586961452
 21
-218.3267323091359
 31
0.0
  0
LINE
  5
472
  8
0
  6
CENTER
 62
     7
 10
69.92063104700874
 20
-186.9650501299745
 30
0.0
 11
60.46554378331228
 21
-181.5061528550904
 31
0.0
  0
LINE
  5
473
  8
0
  6
CENTER
 62
     7
 10
92.35312482890274
 20
-162.7989333493187
 30
0.0
 11
92.35312482890274
 21
-268.2126336133929
 31
0.0
  0
LINE
  5
474
  8
0
  6
CENTER
 62
     7
 10
130.5311388719276
 20
-199.9164288370342
 30
0.0
 11
54.17511078587789
 21
-199.9164288370342
 31
0.0
  0
LINE
  5
475
  8
0
  6
CENTER
 62
     7
 10
-337.4665236041635
 20
-186.7768019740377
 30
0.0
 11
-286.5117149099574
 21
-186.7768019740377
 31
0.0
  0
LINE
  5
476
  8
0
  6
CENTER
 62
     7
 10
-337.4665236041635
 20
-256.0034659250032
 30
0.0
 11
-286.5117149099574
 21
-256.0034659250032
 31
0.0
  0
LINE
  5
477
  8
0
  6
CENTER
 62
     7
 10
-286.5116713134165
 20
-186.7768019740377
 30
0.0
 11
-286.5116713134165
 21
-256.0034877232737
 31
0.0
  0
LINE
  5
478
  8
0
  6
CENTER
 62
     7
 10
-337.4665672007044
 20
-186.7768019740377
 30
0.0
 11
-337.4665672007044
 21
-256.0034877232737
 31
0.0
  0
LINE
  5
479
  8
0
  6
CENTER
 62
     7
 10
-256.5856516342728
 20
48.41432282944387
 30
0.0
 11
-248.8436869167162
 21
56.15628754700043
 31
0.0
  0
LINE
  5
47A
  8
0
  6
CENTER
 62
     7
 10
-139.4143069223969
 20
48.41432282944387
 30
0.0
 11
-147.1562716399534
 21
56.15628754700043
 31
0.0
  0
LINE
  5
47B
  8
0
  6
CENTER
 62
     7
 10
-139.4142770583442
 20
165.5856974053725
 30
0.0
 11
-147.15627260331
 21
157.8437018604067
 31
0.0
  0
LINE
  5
47C
  8
0
  6
CENTER
 62
     7
 10
-252.3155263208781
 20
171.7307665208789
 30
0.0
 11
-268.706616905503
 21
191.2649066989955
 31
0.0
  0
LINE
  5
47D
  8
0
  6
CENTER
 62
     7
 10
-169.0992316143722
 20
186.4040143443496
 30
0.0
 11
-160.3777145566837
 21
210.3661846656914
 31
0.0
  0
LINE
  5
47E
  8
0
  6
CENTER
 62
     7
 10
-143.6844160190144
 20
171.7307464745217
 30
0.0
 11
-127.2933254343896
 21
191.2648866526383
 31
0.0
  0
LINE
  5
47F
  8
0
  6
CENTER
 62
     7
 10
-197.9999684946872
 20
193.7045757039032
 30
0.0
 11
-197.9999684946872
 21
-106.2409119306447
 31
0.0
  0
LINE
  5
480
  8
0
  6
CENTER
 62
     7
 10
-213.2809733584111
 20
193.6630847027758
 30
0.0
 11
-216.5540541357512
 21
212.225647673103
 31
0.0
  0
LINE
  5
481
  8
0
  6
CENTER
 62
     7
 10
-182.7189039868754
 20
193.6630736791756
 30
0.0
 11
-179.5568175076994
 21
211.5961567224312
 31
0.0
  0
ARC
  5
482
  8
0
  6
CENTER
 62
     7
 10
-197.9999684946872
 20
107.0000040020262
 30
0.0
 40
97.50000166041514
 50
21.34467754310647
 51
158.49277750134
  0
ARC
  5
483
  8
0
  6
CENTER
 62
     7
 10
-197.9999684946872
 20
107.0000040020262
 30
0.0
 40
97.50000166041514
 50
202.042190235212
 51
215.9330328182122
  0
ARC
  5
484
  8
0
  6
CENTER
 62
     7
 10
-197.9999684946872
 20
107.0000040020262
 30
0.0
 40
97.50000166041514
 50
324.8060262070674
 51
336.8915166037442
  0
ARC
  5
485
  8
0
  6
CENTER
 62
     7
 10
-197.9999684946872
 20
107.0000040020262
 30
0.0
 40
48.99999974455152
 50
81.49745517656613
 51
98.56794206350389
  0
ARC
  5
486
  8
0
  6
CENTER
 62
     7
 10
-197.9999684946872
 20
107.0000040020262
 30
0.0
 40
47.99999863760809
 50
109.1168823686435
 51
131.4885317874274
  0
ARC
  5
487
  8
0
  6
CENTER
 62
     7
 10
-197.9999684946872
 20
107.0000040020262
 30
0.0
 40
47.99999863760809
 50
169.1168772081064
 51
191.4885197967012
  0
ARC
  5
488
  8
0
  6
CENTER
 62
     7
 10
-197.9999684946872
 20
107.0000040020262
 30
0.0
 40
47.99999863760809
 50
229.1168825202242
 51
251.488525108819
  0
ARC
  5
489
  8
0
  6
CENTER
 62
     7
 10
-197.9999684946872
 20
107.0000040020262
 30
0.0
 40
47.99999863760809
 50
289.1168841898763
 51
311.4885267784711
  0
ARC
  5
48A
  8
0
  6
CENTER
 62
     7
 10
-197.9999684946872
 20
107.0000040020262
 30
0.0
 40
47.99999863760809
 50
349.1168824444338
 51
11.48852588680225
  0
ARC
  5
48B
  8
0
  6
CENTER
 62
     7
 10
-197.9999684946872
 20
107.0000040020262
 30
0.0
 40
47.99999863760809
 50
49.11688411408594
 51
71.48852328758613
  0
ARC
  5
48C
  8
0
  6
CENTER
 62
     7
 10
-197.9999684946872
 20
107.0000040020262
 30
0.0
 40
48.99999974455152
 50
261.4320579364961
 51
278.5025448234339
  0
ARC
  5
48D
  8
0
  6
CENTER
 62
     7
 10
-197.9999684946872
 20
107.0000040020262
 30
0.0
 40
48.99999974455152
 50
141.4974500160291
 51
158.5679505633452
  0
ARC
  5
48E
  8
0
  6
CENTER
 62
     7
 10
-197.9999684946872
 20
107.0000040020262
 30
0.0
 40
48.99999974455152
 50
321.4320561910536
 51
338.502546493086
  0
ARC
  5
48F
  8
0
  6
CENTER
 62
     7
 10
-197.9999684946872
 20
107.0000040020262
 30
0.0
 40
48.99999974455152
 50
21.43205444561115
 51
38.5025447476435
  0
ARC
  5
490
  8
0
  6
CENTER
 62
     7
 10
-197.9999684946872
 20
107.0000040020262
 30
0.0
 40
48.99999974455152
 50
201.4974553281469
 51
218.5679422150846
  0
CIRCLE
  5
491
  8
0
  6
CENTER
 62
     7
 10
92.35312482890274
 20
-199.9164288370342
 30
0.0
 40
31.17869838950801
  0
ARC
  5
492
  8
0
  6
CENTER
 62
     7
 10
-197.9999684946872
 20
107.0000040020262
 30
0.0
 40
77.50000131981716
 50
131.0210463198751
 51
139.0354946693196
  0
ARC
  5
493
  8
0
  6
CENTER
 62
     7
 10
-197.9999684946872
 20
107.0000040020262
 30
0.0
 40
77.50000131981716
 50
221.0210456366297
 51
229.0354939860743
  0
ARC
  5
494
  8
0
  6
CENTER
 62
     7
 10
-197.9999684946872
 20
107.0000040020262
 30
0.0
 40
77.50000131981716
 50
311.0210515562025
 51
319.0354896603633
  0
ARC
  5
495
  8
0
  6
CENTER
 62
     7
 10
-197.9999684946872
 20
107.0000040020262
 30
0.0
 40
77.50000131981716
 50
41.02105064558607
 51
49.03548874974689
  0
LINE
  5
496
  8
0
  6
DASHED2
 62
     7
 10
-210.9999774353841
 20
-46.8957146047816
 30
0.0
 11
-210.9999774353841
 21
-99.0000169447493
 31
0.0
  0
LINE
  5
497
  8
0
  6
DASHED2
 62
     7
 10
-184.9999595539904
 20
-46.8957146047816
 30
0.0
 11
-184.9999595539904
 21
-99.0000169447493
 31
0.0
  0
LINE
  5
498
  8
0
  6
DASHED2
 62
     7
 10
158.1602722944579
 20
107.0000040020262
 30
0.0
 11
158.1602722944579
 21
72.00000340597975
 31
0.0
  0
LINE
  5
499
  8
0
  6
DASHED2
 62
     7
 10
116.1602367019694
 20
67.00000332083026
 30
0.0
 11
153.1602722093083
 21
67.00000332083026
 31
0.0
  0
LINE
  5
49A
  8
0
  6
DASHED2
 62
     7
 10
116.1602367019694
 20
146.9999937840869
 30
0.0
 11
154.6602547962368
 21
146.9999937840869
 31
0.0
  0
LINE
  5
49B
  8
0
  6
DASHED2
 62
     7
 10
111.1602366168199
 20
141.9999936989375
 30
0.0
 11
111.1602366168199
 21
72.00000340597975
 31
0.0
  0
LINE
  5
49C
  8
0
  6
DASHED2
 62
     7
 10
158.1602722944579
 20
141.9999936989375
 30
0.0
 11
158.1602722944579
 21
107.0000040020262
 31
0.0
  0
LINE
  5
49D
  8
0
  6
DASHED2
 62
     7
 10
118.6602367445441
 20
-43.99999693461822
 30
0.0
 11
118.6602367445441
 21
-99.00000604561407
 31
0.0
  0
LINE
  5
49E
  8
0
  6
DASHED2
 62
     7
 10
144.6602546259379
 20
-43.99999693461822
 30
0.0
 11
144.6602546259379
 21
-99.00000604561407
 31
0.0
  0
LINE
  5
49F
  8
0
  6
DASHED2
 62
     7
 10
-322.797726270092
 20
-248.7354865880606
 30
0.0
 11
-322.797726270092
 21
-240.5625738512205
 31
0.0
  0
LINE
  5
4A0
  8
0
  6
DASHED2
 62
     7
 10
-330.5181941052538
 20
-232.8421496125996
 30
0.0
 11
-310.4450387689903
 21
-232.8421496125996
 31
0.0
  0
LINE
  5
4A1
  8
0
  6
DASHED2
 62
     7
 10
-322.7977698666329
 20
-240.562595649491
 30
0.0
 11
-313.5332433416714
 21
-240.562595649491
 31
0.0
  0
LINE
  5
4A2
  8
0
  6
DASHED2
 62
     7
 10
-330.518106912172
 20
-232.8421278143291
 30
0.0
 11
-330.518106912172
 21
-222.8055501461974
 31
0.0
  0
LINE
  5
4A3
  8
0
  6
DASHED2
 62
     7
 10
-298.0922640748069
 20
-232.8421278143291
 30
0.0
 11
-298.0922640748069
 21
-222.8055501461974
 31
0.0
  0
LINE
  5
4A4
  8
0
  6
DASHED2
 62
     7
 10
-305.8127319099687
 20
-232.8421496125996
 30
0.0
 11
-298.0922640748069
 21
-232.8421496125996
 31
0.0
  0
CIRCLE
  5
4A5
  8
0
  6
DASHED2
 62
     7
 10
127.1602543279146
 20
129.4999934860637
 30
0.0
 40
8.300000059604645
  0
CIRCLE
  5
4A6
  8
0
  6
DASHED2
 62
     7
 10
127.1602543279146
 20
129.4999934860637
 30
0.0
 40
7.300000315053127
  0
CIRCLE
  5
4A7
  8
0
  6
DASHED2
 62
     7
 10
142.1602545833631
 20
84.50000906842111
 30
0.0
 40
8.300000059604645
  0
ARC
  5
4A8
  8
0
  6
DASHED2
 62
     7
 10
153.1602722093083
 20
141.9999936989375
 30
0.0
 40
5.000000085149494
 50
359.9999949910439
 51
90.00000250447816
  0
CIRCLE
  5
4A9
  8
0
  6
DASHED2
 62
     7
 10
142.1602545833631
 20
84.50000906842111
 30
0.0
 40
7.300000315053127
  0
ARC
  5
4AA
  8
0
  6
DASHED2
 62
     7
 10
116.1602367019694
 20
72.00000340597975
 30
0.0
 40
5.000000085149494
 50
179.999991348578
 51
270.0000006832453
  0
ARC
  5
4AB
  8
0
  6
DASHED2
 62
     7
 10
153.1602722093083
 20
72.00000340597975
 30
0.0
 40
5.000000085149494
 50
269.9999974955218
 51
0.0000050089565381
  0
ARC
  5
4AC
  8
0
  6
DASHED2
 62
     7
 10
116.1602367019694
 20
141.9999936989375
 30
0.0
 40
5.000000085149494
 50
90.00000250447816
 51
180.0000050089563
  0
LINE
  5
4AD
  8
0
  6
DIVIDE
 62
     7
 10
28.66023521185322
 20
65.50000438519893
 30
0.0
 11
28.66023521185322
 21
148.4999981692859
 31
0.0
  0
LINE
  5
4AE
  8
0
  6
DASHED
 62
     7
 10
-297.9999356924066
 20
136.749995415918
 30
0.0
 11
-283.9999562499495
 21
136.3833930580793
 31
0.0
  0
LINE
  5
4AF
  8
0
  6
DASHED
 62
     7
 10
-297.9999360178776
 20
122.2499947635518
 30
0.0
 11
-283.9999565754206
 21
122.6165971213905
 31
0.0
  0
LINE
  5
4B0
  8
0
  6
DASHED
 62
     7
 10
-297.9999147321495
 20
137.8499964713365
 30
0.0
 11
-283.9999352896925
 21
137.4833941134978
 31
0.0
  0
LINE
  5
4B1
  8
0
  6
DASHED
 62
     7
 10
-297.9999586392223
 20
121.1499925669089
 30
0.0
 11
-283.9999356151635
 21
121.516596065972
 31
0.0
  0
LINE
  5
4B2
  8
0
  6
DASHED
 62
     7
 10
-297.9999424090052
 20
92.84999797475676
 30
0.0
 11
-283.9999193849463
 21
92.48339447569367
 31
0.0
  0
LINE
  5
4B3
  8
0
  6
DASHED
 62
     7
 10
-297.9999312476727
 20
76.15000496572964
 30
0.0
 11
-283.9999518052157
 21
76.51660732356834
 31
0.0
  0
LINE
  5
4B4
  8
0
  6
DASHED
 62
     7
 10
-297.9999197876605
 20
91.74999577811391
 30
0.0
 11
-283.9999403452035
 21
91.3833934202752
 31
0.0
  0
LINE
  5
4B5
  8
0
  6
DASHED
 62
     7
 10
-297.9999522079298
 20
77.2500060211481
 30
0.0
 11
-283.999929183871
 21
77.6166095202112
 31
0.0
  0
LINE
  5
4B6
  8
0
  6
DASHED
 62
     7
 10
-97.9999647339118
 20
121.14999241939
 30
0.0
 11
-111.9999441763688
 21
121.5165947772287
 31
0.0
  0
LINE
  5
4B7
  8
0
  6
DASHED
 62
     7
 10
-97.99992147778097
 20
137.8499989013042
 30
0.0
 11
-111.9999880834417
 21
137.4833942610167
 31
0.0
  0
LINE
  5
4B8
  8
0
  6
DASHED
 62
     7
 10
-97.99994377365468
 20
122.2499934748085
 30
0.0
 11
-111.9999232161117
 21
122.6165958326472
 31
0.0
  0
LINE
  5
4B9
  8
0
  6
DASHED
 62
     7
 10
-97.9999876807275
 20
136.7499955634369
 30
0.0
 11
-111.9999671231845
 21
136.3833932055982
 31
0.0
  0
LINE
  5
4BA
  8
0
  6
DASHED
 62
     7
 10
-97.9999376678332
 20
92.85001015890052
 30
0.0
 11
-111.9999171102902
 21
92.48340780106182
 31
0.0
  0
LINE
  5
4BB
  8
0
  6
DASHED
 62
     7
 10
-97.99994854385957
 20
76.15000367698633
 30
0.0
 11
-111.9999279863166
 21
76.51660603482505
 31
0.0
  0
LINE
  5
4BC
  8
0
  6
DASHED
 62
     7
 10
-97.99991670757608
 20
91.75000910348204
 30
0.0
 11
-111.9999833132368
 21
91.38340446319457
 31
0.0
  0
LINE
  5
4BD
  8
0
  6
DASHED
 62
     7
 10
-97.99992758360247
 20
77.2500047324048
 30
0.0
 11
-111.9999070260595
 21
77.6166070902435
 31
0.0
  0
CIRCLE
  5
4BE
  8
0
  6
DASHED
 62
     7
 10
-197.9999684946872
 20
204.4999947633061
 30
0.0
 40
8.499999872275758
  0
ARC
  5
4BF
  8
0
  6
DASHED
 62
     7
 10
-282.4374437747247
 20
155.7500048322338
 30
0.0
 40
8.499999872275758
 50
325.1773767620518
 51
234.4357794108792
  0
CIRCLE
  5
4C0
  8
0
  6
DASHED
 62
     7
 10
-231.3469190486315
 20
198.6200202979364
 30
0.0
 40
7.000000255448482
  0
ARC
  5
4C1
  8
0
  6
DASHED
 62
     7
 10
-282.4374437747247
 20
58.25000317181865
 30
0.0
 40
8.499999872275758
 50
125.5642169466551
 51
278.9427946842997
  0
ARC
  5
4C2
  8
0
  6
DASHED
 62
     7
 10
-113.5624932146497
 20
155.7500048322338
 30
0.0
 40
8.499999872275758
 50
305.564218767888
 51
214.8226180016208
  0
ARC
  5
4C3
  8
0
  6
DASHED
 62
     7
 10
-113.5624932146497
 20
58.25000317181865
 30
0.0
 40
8.499999872275758
 50
261.0572034944674
 51
54.43578123211205
  0
CIRCLE
  5
4C4
  8
0
  6
DASHED
 62
     7
 10
-260.6717835268256
 20
181.6893254295302
 30
0.0
 40
7.000000255448482
  0
CIRCLE
  5
4C5
  8
0
  6
DASHED
 62
     7
 10
-164.6530179407429
 20
198.6200202979364
 30
0.0
 40
7.000000255448482
  0
LINE
  5
4C6
  8
0
  6
CENTER
 62
     7
 10
-197.9999684946872
 20
215.999999318804
 30
0.0
 11
-197.9999684946872
 21
195.0000033208303
 31
0.0
  0
LINE
  5
4C7
  8
0
  6
DIVIDE
 62
     9
 10
242.6602333236889
 20
59.49999798813629
 30
0.0
 11
244.6602288614584
 21
60.65469597097033
 31
0.0
  0
LINE
  5
4C8
  8
0
  6
DIVIDE
 62
     9
 10
244.6601691358459
 20
68.15911000386494
 30
0.0
 11
244.6601691358459
 21
60.65471207507529
 31
0.0
  0
LINE
  5
4C9
  8
0
  6
DIVIDE
 62
     9
 10
28.66023521185322
 20
148.4999981692859
 30
0.0
 11
47.10322868999803
 21
148.4999981692859
 31
0.0
  0
LINE
  5
4CA
  8
0
  6
DIVIDE
 62
     9
 10
47.10322868999803
 20
140.0000023841858
 30
0.0
 11
28.66023521185322
 21
140.0000023841858
 31
0.0
  0
LINE
  5
4CB
  8
0
  6
DIVIDE
 62
     9
 10
47.10322868999803
 20
74.0000056198666
 30
0.0
 11
28.66023521185322
 21
74.0000056198666
 31
0.0
  0
LINE
  5
4CC
  8
0
  6
DIVIDE
 62
     9
 10
47.10322868999803
 20
65.50000438519893
 30
0.0
 11
28.66023521185322
 21
65.50000438519893
 31
0.0
  0
LINE
  5
4CD
  8
0
  6
DIVIDE
 62
     9
 10
47.10322868999803
 20
147.1499985822609
 30
0.0
 11
28.66023521185322
 21
147.1499985822609
 31
0.0
  0
LINE
  5
4CE
  8
0
  6
DIVIDE
 62
     9
 10
47.10322868999803
 20
66.85000942179151
 30
0.0
 11
28.66023521185322
 21
66.85000942179151
 31
0.0
  0
LINE
  5
4CF
  8
0
  6
CONTINUOUS
 62
     3
 10
-327.4300331291136
 20
-200.4162849769641
 30
0.0
 11
-325.1138361030619
 21
-200.4162849769641
 31
0.0
  0
LINE
  5
4D0
  8
0
  6
CONTINUOUS
 62
     3
 10
-327.4300331291136
 20
-205.0485918359857
 30
0.0
 11
-325.1138361030619
 21
-205.0485918359857
 31
0.0
  0
CIRCLE
  5
4D1
  8
0
  6
DASHED
 62
     2
 10
-135.3281970590897
 20
181.6893363286655
 30
0.0
 40
7.000000255448482
  0
TEXT
  5
4D2
  8
0
 62
     3
 10
221.442537758053
 20
-196.8995136346053
 30
0.0
 40
3.534999975732394
  1
符
 41
1.000000452845972
  7
DCSTYLE0
 72
     5
 11
223.9675388841551
 21
-196.8995136346053
 31
0.0
  0
TEXT
  5
4D3
  8
0
 62
     3
 10
221.442537758053
 20
-202.2020137685029
 30
0.0
 40
3.534999975732394
  1
号
 41
1.000000452845972
  7
DCSTYLE0
 72
     5
 11
223.9675388841551
 21
-202.2020137685029
 31
0.0
  0
TEXT
  5
4D4
  8
0
 62
     3
 10
357.8935201320226
 20
-196.8995136346053
 30
0.0
 40
3.534999975732394
  1
単重量
 41
1.11764719201352
  7
DCSTYLE0
 72
     5
 11
367.4885212095894
 21
-196.8995136346053
 31
0.0
  0
TEXT
  5
4D5
  8
0
 62
     3
 10
357.8935201320226
 20
-202.2020137685029
 30
0.0
 40
3.534999975732394
  1
(kg)
 41
1.30000011321149
  7
DCSTYLE0
 72
     5
 11
371.0235211853218
 21
-202.2020137685029
 31
0.0
  0
TEXT
  5
4D6
  8
0
 62
     3
 10
337.2137625253841
 20
-224.4724947124293
 30
0.0
 40
3.534999975732394
  1
作図
 41
1.090909296748171
  7
DCSTYLE0
 72
     5
 11
343.2737636272186
 21
-224.4724947124293
 31
0.0
  0
TEXT
  5
4D7
  8
0
 62
     3
 10
337.2137625253841
 20
-242.1475133239799
 30
0.0
 40
3.534999975732394
  1
尺度
 41
1.090909296748171
  7
DCSTYLE0
 72
     5
 11
343.2737636272186
 21
-242.1475133239799
 31
0.0
  0
TEXT
  5
4D8
  8
0
 62
     3
 10
226.1558469901059
 20
-242.1475133239799
 30
0.0
 40
3.534999975732394
  1
承    認
 41
1.025641083698201
  7
DCSTYLE0
 72
     5
 11
246.3558479948699
 21
-242.1475133239799
 31
0.0
  0
TEXT
  5
4D9
  8
0
 62
     3
 10
264.8052268335687
 20
-242.1475133239799
 30
0.0
 40
3.534999975732394
  1
検    図
 41
1.025641083698201
  7
DCSTYLE0
 72
     5
 11
285.0052278383328
 21
-242.1475133239799
 31
0.0
  0
TEXT
  5
4DA
  8
0
 62
     3
 10
298.6234123983283
 20
-242.1475133239799
 30
0.0
 40
3.534999975732394
  1
担  当
 41
1.040000090569192
  7
DCSTYLE0
 72
     5
 11
311.7534134516275
 21
-242.1475133239799
 31
0.0
  0
TEXT
  5
4DB
  8
0
 62
     3
 10
317.9480151269779
 20
-242.1475133239799
 30
0.0
 40
3.534999975732394
  1
製  図
 41
1.040000090569192
  7
DCSTYLE0
 72
     5
 11
331.0780161802771
 21
-242.1475133239799
 31
0.0
  0
TEXT
  5
4DC
  8
0
 62
     3
 10
152.8635222207397
 20
-246.0359978000777
 30
0.0
 40
3.534999975732394
  1
記
 41
1.000000452845972
  7
DCSTYLE0
 72
     5
 11
155.3885233468418
 21
-246.0359978000777
 31
0.0
  0
TEXT
  5
4DD
  8
0
 62
     3
 10
152.8635222207397
 20
-251.3384979339752
 30
0.0
 40
3.534999975732394
  1
号
 41
1.000000452845972
  7
DCSTYLE0
 72
     5
 11
155.3885233468418
 21
-251.3384979339752
 31
0.0
  0
TEXT
  5
4DE
  8
0
 62
     3
 10
161.3475834701331
 20
-246.0359978000777
 30
0.0
 40
3.534999975732394
  1
理
 41
1.000000452845972
  7
DCSTYLE0
 72
     5
 11
163.8725845962352
 21
-246.0359978000777
 31
0.0
  0
TEXT
  5
4DF
  8
0
 62
     3
 10
161.3475834701331
 20
-251.3384979339752
 30
0.0
 40
3.534999975732394
  1
由
 41
1.000000452845972
  7
DCSTYLE0
 72
     5
 11
163.8725845962352
 21
-251.3384979339752
 31
0.0
  0
TEXT
  5
4E0
  8
0
 62
     3
 10
168.5942876951062
 20
-248.5104938662136
 30
0.0
 40
3.534999975732394
  1
日 付
 41
1.055555681346102
  7
DCSTYLE0
 72
     5
 11
178.1892887726731
 21
-248.5104938662136
 31
0.0
  0
TEXT
  5
4E1
  8
0
 62
     3
 10
152.3175191422449
 20
-256.0172950543216
 30
0.0
 40
3.534999975732394
  1
訂 正 来 歴
 41
1.068181869641587
  7
DCSTYLE0
 72
     5
 11
176.0525201227413
 21
-256.0172950543216
 31
0.0
  0
TEXT
  5
4E2
  8
0
 62
     3
 10
188.249439397019
 20
-256.2854355792563
 30
0.0
 40
3.534999975732394
  1
工 事 番 号
 41
1.068181869641588
  7
DCSTYLE0
 72
     5
 11
211.9844403775154
 21
-256.2854355792563
 31
0.0
  0
TEXT
  5
4E3
  8
0
 62
     3
 10
243.3595456967957
 20
-200.2224123515812
 30
0.0
 40
4.52480017329625
  1
品       名
 41
1.016666705558024
  7
DCSTYLE0
 72
     5
 11
282.7899487153113
 21
-200.2224123515812
 31
0.0
  0
TEXT
  5
4E4
  8
0
 62
     3
 10
303.8080679315851
 20
-200.2224123515812
 30
0.0
 40
4.52480017329625
  1
材   料
 41
1.031250072921294
  7
DCSTYLE0
 72
     5
 11
325.1392702569156
 21
-200.2224123515812
 31
0.0
  0
TEXT
  5
4E5
  8
0
 62
     3
 10
335.2695116872364
 20
-200.2224123515812
 30
0.0
 40
4.52480017329625
  1
個  数
 41
1.040000093339258
  7
DCSTYLE0
 72
     5
 11
352.0759138392706
 21
-200.2224123515812
 31
0.0
  0
TEXT
  5
4E6
  8
0
 62
     3
 10
378.0430371087455
 20
-200.2224123515812
 30
0.0
 40
4.52480017329625
  1
記   事
 41
1.031250072921294
  7
DCSTYLE0
 72
     5
 11
399.374239434076
 21
-200.2224123515812
 31
0.0
  0
TEXT
  5
4E7
  8
0
 62
     3
 10
163.8472964311889
 20
-266.0087610314362
 30
0.0
 40
4.948999966025352
  1
株式
 41
1.09090932083572
  7
DCSTYLE0
 72
     5
 11
172.331298161086
 21
-266.0087610314362
 31
0.0
  0
TEXT
  5
4E8
  8
0
 62
     3
 10
163.8472964311889
 20
-273.4322611507733
 30
0.0
 40
4.948999966025352
  1
会社
 41
1.09090932083572
  7
DCSTYLE0
 72
     5
 11
172.331298161086
 21
-273.4322611507733
 31
0.0
  0
TEXT
  5
4E9
  8
0
 62
     3
 10
174.4522957197648
 20
-272.1950110741174
 30
0.0
 40
9.897999932050704
  1
 野村製作所
 41
1.111111194748443
  7
DCSTYLE0
 72
     5
 11
231.0122995889578
 21
-272.1950110741174
 31
0.0
  0
TEXT
  5
4EA
  8
0
 62
     3
 10
336.8602622723624
 20
-234.8654008740255
 30
0.0
 40
4.52480017329625
  1
第 三 角 法
 41
1.068181889178505
  7
DCSTYLE0
 72
     5
 11
367.2410654551824
 21
-234.8654008740255
 31
0.0
  0
TEXT
  5
4EB
  8
0
 62
     3
 10
260.6810716336296
 20
-271.4880110789709
 30
0.0
 40
8.483999941757746
  1
2-
 41
0.8571429747130498
  7
DCSTYLE0
 72
     5
 11
275.2250735287168
 21
-271.4880110789709
 31
0.0
  0
TEXT
  5
4EC
  8
0
 62
     3
 10
374.8615554377275
 20
-242.1475133239799
 30
0.0
 40
3.534999975732394
  1
 ｺｰﾄﾞ番号
 41
1.119047672957852
  7
DCSTYLE0
 72
     5
 11
398.5965564182239
 21
-242.1475133239799
 31
0.0
  0
TEXT
  5
4ED
  8
0
 62
     3
 10
241.6216634277218
 20
-215.0721603644262
 30
0.0
 40
7.000000255448482
  1
外 形 図
 41
1.064516202802323
  7
DCSTYLE0
 72
     5
 11
274.6216669188511
 21
-215.0721603644262
 31
0.0
  0
TEXT
  5
4EE
  8
0
 62
     3
 10
338.1353721982304
 20
-214.3721603388813
 30
0.0
 40
5.600000204358786
  1
一式
 41
1.090909248490943
  7
DCSTYLE0
 72
     5
 11
347.7353739352801
 21
-214.3721603388813
 31
0.0
  0
TEXT
  5
4EF
  8
0
 62
     3
 10
242.7136695847115
 20
-226.4378875738874
 30
0.0
 40
7.000000255448482
  1
日鋼プレシジォン
 41
1.148936218869618
  7
DCSTYLE0
 72
     5
 11
296.7136738421862
 21
-226.4378875738874
 31
0.0
  0
TEXT
  5
4F0
  8
0
 62
     3
 10
232.9079669997685
 20
-235.898576734723
 30
0.0
 40
7.000000255448482
  1
66TS型 油圧シリンダー
 41
1.121848768321916
  7
DCSTYLE0
 72
     5
 11
321.9079725344856
 21
-235.898576734723
 31
0.0
  0
TEXT
  5
4F1
  8
0
 62
     3
 10
345.720082278253
 20
-250.6065510103796
 30
0.0
 40
4.480000299726218
  1
縮 尺
 41
1.05555560201609
  7
DCSTYLE0
 72
     5
 11
357.880083627021
 21
-250.6065510103796
 31
0.0
  0
TEXT
  5
4F2
  8
0
 62
     3
 10
282.5900476760532
 20
-272.243994512626
 30
0.0
 40
9.800000357627876
  1
C110109
 41
1.029197074964578
  7
DCSTYLE0
 72
     5
 11
348.390049736671
 21
-272.243994512626
 31
0.0
  0
TEXT
  5
4F3
  8
0
 62
     3
 10
-119.6110119072201
 20
-231.8998798625789
 30
0.0
 40
4.419999879087719
  1
5.使用圧力        最高   3.5  MPa
 41
1.325262134049264
  7
DCSTYLE0
 72
     5
 11
25.71470542830582
 21
-231.8998798625789
 31
0.0
  0
TEXT
  5
4F4
  8
0
 62
     3
 10
-119.6110119072201
 20
-257.3998890161495
 30
0.0
 40
4.419999879087719
  1
7.慣性ﾓ-ﾒﾝﾄ         0.07 
 41
1.32224538901055
  7
DCSTYLE0
 72
     5
 11
3.954705237570934
 21
-257.3998890161495
 31
0.0
  0
TEXT
  5
4F5
  8
0
 62
     3
 10
5.120418201521774
 20
-256.2948890463776
 30
0.0
 40
2.209999939543859
  1
 
 41
0.8791213126800472
  7
DCSTYLE0
 72
     5
 11
7.063276249396397
 21
-256.2948890463776
 31
0.0
  0
TEXT
  5
4F6
  8
0
 62
     3
 10
8.22898921334725
 20
-257.3998890161495
 30
0.0
 40
4.419999879087719
  1
kg
 41
1.384615698313331
  7
DCSTYLE0
 72
     5
 11
17.55470535678021
 21
-257.3998890161495
 31
0.0
  0
TEXT
  5
4F7
  8
0
 62
     3
 10
18.72041832073107
 20
-256.2948890463776
 30
0.0
 40
2.209999939543859
  1
･
 41
1.230769837752066
  7
DCSTYLE0
 72
     5
 11
20.66327636860569
 21
-256.2948890463776
 31
0.0
  0
TEXT
  5
4F8
  8
0
 62
     3
 10
21.82898933255656
 20
-257.3998890161495
 30
0.0
 40
4.419999879087719
  1
m
 41
0.7100595217800382
  7
DCSTYLE0
 72
     5
 11
25.71470542830581
 21
-257.3998890161495
 31
0.0
  0
TEXT
  5
4F9
  8
0
 62
     3
 10
26.88041839225666
 20
-254.2548888794846
 30
0.0
 40
2.209999939543859
  1
2
 41
1.085973386251823
  7
DCSTYLE0
 72
     5
 11
28.82327644013128
 21
-254.2548888794846
 31
0.0
  0
TEXT
  5
4FA
  8
0
 62
     3
 10
-119.6110119072201
 20
-248.899871432779
 30
0.0
 40
4.419999879087719
  1
6.最高使用回転速度        5000  min
 41
1.335515612842682
  7
DCSTYLE0
 72
     5
 11
25.71470542830582
 21
-248.899871432779
 31
0.0
  0
TEXT
  5
4FB
  8
0
 62
     3
 10
26.88041839225664
 20
-245.7548712961141
 30
0.0
 40
2.209999939543859
  1
-1
 41
1.19750546881153
  7
DCSTYLE0
 72
     5
 11
31.54327646397312
 21
-245.7548712961141
 31
0.0
  0
TEXT
  5
4FC
  8
0
 62
     3
 10
-119.6110119072201
 20
-240.399875647679
 30
0.0
 40
4.419999879087719
  1
              最低   0.8  MPa
 41
1.266901966678288
  7
DCSTYLE0
 72
     5
 11
25.71470542830582
 21
-240.399875647679
 31
0.0
  0
TEXT
  5
4FD
  8
0
 62
     3
 10
-119.6110119072201
 20
-214.8998882923788
 30
0.0
 40
4.419999879087719
  1
4.最大ピｽﾄﾝ推力    押側  54.5   kN
 41
1.369963436189815
  7
DCSTYLE0
 72
     5
 11
25.71470542830582
 21
-214.8998882923788
 31
0.0
  0
TEXT
  5
4FE
  8
0
 62
     3
 10
-119.6110119072201
 20
-223.3998840774789
 30
0.0
 40
4.419999879087719
  1
              引側  50     kN
 41
1.250836180868961
  7
DCSTYLE0
 72
     5
 11
25.71470542830582
 21
-223.3998840774789
 31
0.0
  0
TEXT
  5
4FF
  8
0
 62
     3
 10
-119.6110119072201
 20
-265.8998848012496
 30
0.0
 40
4.419999879087719
  1
8.質 量               21   kg
 41
1.285775738993792
  7
DCSTYLE0
 72
     5
 11
25.71470542830582
 21
-265.8998848012496
 31
0.0
  0
TEXT
  5
500
  8
0
 62
     3
 10
-119.6110119072201
 20
-197.8998749239083
 30
0.0
 40
4.419999879087719
  1
3.ピｽﾄﾝ表面積     押側 173.1   cm
 41
1.340702081242071
  7
DCSTYLE0
 72
     5
 11
25.71470542830582
 21
-197.8998749239083
 31
0.0
  0
TEXT
  5
501
  8
0
 62
     3
 10
26.88041839225664
 20
-194.7548747872434
 30
0.0
 40
2.209999939543859
  1
2
 41
1.085973386251823
  7
DCSTYLE0
 72
     5
 11
28.82327644013126
 21
-194.7548747872434
 31
0.0
  0
TEXT
  5
502
  8
0
 62
     3
 10
-119.6110119072201
 20
-189.3998791388082
 30
0.0
 40
4.419999879087719
  1
2.ピｽﾄﾝｽﾄﾛ-ｸ         ２5   mm
 41
1.264581633405983
  7
DCSTYLE0
 72
     5
 11
25.71470542830582
 21
-189.3998791388082
 31
0.0
  0
TEXT
  5
503
  8
0
 62
     3
 10
-119.6110119072201
 20
-180.8998833537082
 30
0.0
 40
4.419999879087719
  1
1.最大貫通穴径            ６６   mm
 41
1.266901966678287
  7
DCSTYLE0
 72
     5
 11
25.71470542830582
 21
-180.8998833537082
 31
0.0
  0
TEXT
  5
504
  8
0
 62
     3
 10
-119.6110119072201
 20
-172.3998766694729
 30
0.0
 40
4.419999879087719
  1
仕 様
 41
1.299145502329115
  7
DCSTYLE0
 72
     5
 11
-104.8452957161034
 21
-172.3998766694729
 31
0.0
  0
TEXT
  5
505
  8
0
 62
     3
 10
-119.6110119072201
 20
-206.3998707090083
 30
0.0
 40
4.419999879087719
  1
              引側 159     cm
 41
1.232967092570833
  7
DCSTYLE0
 72
     5
 11
25.71470542830582
 21
-206.3998707090083
 31
0.0
  0
TEXT
  5
506
  8
0
 62
     3
 10
26.88041839225664
 20
-203.2548705723434
 30
0.0
 40
2.209999939543859
  1
2
 41
1.085973386251823
  7
DCSTYLE0
 72
     5
 11
28.82327644013126
 21
-203.2548705723434
 31
0.0
  0
TEXT
  5
507
  8
0
 62
     3
 10
-337.281276026475
 20
-260.7206683622202
 30
0.0
 40
2.42857153804935
  1
SCHEMATIC ARRANGEMENT
 41
1.060975533817901
  7
DCSTYLE0
 72
     5
 11
-286.9751549103457
 21
-260.7206683622202
 31
0.0
  0
INSERT
  5
508
  8
0
  6
CONTINUOUS
  2
DC_FILL_GROUP_1
 10
0.0
 20
0.0
 30
0.0
  0
INSERT
  5
509
  8
0
  6
CONTINUOUS
  2
DC_FILL_GROUP_2
 10
0.0
 20
0.0
 30
0.0
  0
INSERT
  5
50A
  8
0
 62
     5
  2
*U49
 10
0.0
 20
0.0
 30
0.0
1001
ACAD
1002
{
1000
R14_HATCH_DATA
1000
50A
1011
1.0
1021
0.0
1031
0.0
1021
0.0
1031
0.0
1011
0.0
1021
1.0
1031
0.0
1021
1.0
1031
0.0
1011
0.0
1021
0.0
1031
1.0
1021
0.0
1031
1.0
1040
0.0
1010
0.0
1020
0.0
1030
1.0
1000
SOLID
1070
     1
1070
     1
1071
        1
1071
        0
1071
        1
1070
     2
1040
-310.4450387689903
1040
-232.8421496125996
1040
0.3860219953063896
1040
0.0
1040
6.283185307179586
1070
     1
1071
        0
1070
     0
1070
     1
1071
        0
1002
}
  0
INSERT
  5
50B
  8
0
 62
     5
  2
*U50
 10
0.0
 20
0.0
 30
0.0
1001
ACAD
1002
{
1000
R14_HATCH_DATA
1000
50B
1011
1.0
1021
0.0
1031
0.0
1021
0.0
1031
0.0
1011
0.0
1021
1.0
1031
0.0
1021
1.0
1031
0.0
1011
0.0
1021
0.0
1031
1.0
1021
0.0
1031
1.0
1040
0.0
1010
0.0
1020
0.0
1030
1.0
1000
SOLID
1070
     1
1070
     1
1071
        1
1071
        0
1071
        1
1070
     2
1040
-305.8127319099687
1040
-232.8421496125996
1040
0.3860219953063896
1040
0.0
1040
6.283185307179586
1070
     1
1071
        0
1070
     0
1070
     1
1071
        0
1002
}
  0
INSERT
  5
50C
  8
LAYER0014
  6
CONTINUOUS
  2
DC_IMAGEDIMGROUP_1
 10
0.0
 20
0.0
 30
0.0
  0
INSERT
  5
50D
  8
LAYER0014
  6
CONTINUOUS
  2
DC_IMAGEDIMGROUP_2
 10
0.0
 20
0.0
 30
0.0
  0
INSERT
  5
50E
  8
LAYER0014
  6
CONTINUOUS
  2
DC_IMAGEDIMGROUP_3
 10
0.0
 20
0.0
 30
0.0
  0
INSERT
  5
50F
  8
LAYER0014
  6
CONTINUOUS
  2
DC_IMAGEDIMGROUP_4
 10
0.0
 20
0.0
 30
0.0
  0
INSERT
  5
510
  8
LAYER0014
  6
CONTINUOUS
  2
DC_IMAGEDIMGROUP_5
 10
0.0
 20
0.0
 30
0.0
  0
INSERT
  5
511
  8
LAYER0014
  6
CONTINUOUS
  2
DC_IMAGEDIMGROUP_6
 10
0.0
 20
0.0
 30
0.0
  0
INSERT
  5
512
  8
LAYER0014
  6
CONTINUOUS
  2
DC_IMAGEDIMGROUP_7
 10
0.0
 20
0.0
 30
0.0
  0
INSERT
  5
513
  8
LAYER0014
  6
CONTINUOUS
  2
DC_IMAGEDIMGROUP_8
 10
0.0
 20
0.0
 30
0.0
  0
INSERT
  5
514
  8
LAYER0014
  6
CONTINUOUS
  2
DC_IMAGEDIMGROUP_9
 10
0.0
 20
0.0
 30
0.0
  0
INSERT
  5
515
  8
LAYER0014
  6
CONTINUOUS
  2
DC_IMAGEDIMGROUP_10
 10
0.0
 20
0.0
 30
0.0
  0
INSERT
  5
516
  8
LAYER0014
  6
CONTINUOUS
  2
DC_IMAGEDIMGROUP_11
 10
0.0
 20
0.0
 30
0.0
  0
INSERT
  5
517
  8
LAYER0014
  6
CONTINUOUS
  2
DC_IMAGEDIMGROUP_12
 10
0.0
 20
0.0
 30
0.0
  0
INSERT
  5
518
  8
LAYER0014
  6
CONTINUOUS
  2
DC_IMAGEDIMGROUP_13
 10
0.0
 20
0.0
 30
0.0
  0
INSERT
  5
519
  8
LAYER0014
  6
CONTINUOUS
  2
DC_IMAGEDIMGROUP_14
 10
0.0
 20
0.0
 30
0.0
  0
INSERT
  5
51A
  8
LAYER0014
  6
CONTINUOUS
  2
DC_GROUP_3
 10
0.0
 20
0.0
 30
0.0
  0
INSERT
  5
51B
  8
LAYER0014
  6
CONTINUOUS
  2
DC_GROUP_4
 10
0.0
 20
0.0
 30
0.0
  0
INSERT
  5
51C
  8
LAYER0014
  6
CONTINUOUS
  2
DC_GROUP_5
 10
0.0
 20
0.0
 30
0.0
  0
INSERT
  5
51D
  8
LAYER0014
  6
CONTINUOUS
  2
DC_GROUP_6
 10
0.0
 20
0.0
 30
0.0
  0
INSERT
  5
51E
  8
LAYER0014
  6
CONTINUOUS
  2
DC_IMAGEDIMGROUP_15
 10
0.0
 20
0.0
 30
0.0
  0
INSERT
  5
51F
  8
LAYER0014
  6
CONTINUOUS
  2
DC_IMAGEDIMGROUP_16
 10
0.0
 20
0.0
 30
0.0
  0
INSERT
  5
520
  8
LAYER0014
  6
CONTINUOUS
  2
DC_IMAGEDIMGROUP_17
 10
0.0
 20
0.0
 30
0.0
  0
INSERT
  5
521
  8
LAYER0014
  6
CONTINUOUS
  2
DC_IMAGEDIMGROUP_18
 10
0.0
 20
0.0
 30
0.0
  0
INSERT
  5
522
  8
LAYER0014
  6
CONTINUOUS
  2
DC_IMAGEDIMGROUP_19
 10
0.0
 20
0.0
 30
0.0
  0
INSERT
  5
523
  8
LAYER0014
  6
CONTINUOUS
  2
DC_IMAGEDIMGROUP_20
 10
0.0
 20
0.0
 30
0.0
  0
INSERT
  5
524
  8
LAYER0014
  6
CONTINUOUS
  2
DC_IMAGEDIMGROUP_21
 10
0.0
 20
0.0
 30
0.0
  0
INSERT
  5
525
  8
LAYER0014
  6
CONTINUOUS
  2
DC_IMAGEDIMGROUP_22
 10
0.0
 20
0.0
 30
0.0
  0
INSERT
  5
526
  8
LAYER0014
  6
CONTINUOUS
  2
DC_IMAGEDIMGROUP_23
 10
0.0
 20
0.0
 30
0.0
  0
INSERT
  5
527
  8
LAYER0014
  6
CONTINUOUS
  2
DC_IMAGEDIMGROUP_24
 10
0.0
 20
0.0
 30
0.0
  0
INSERT
  5
528
  8
LAYER0014
  6
CONTINUOUS
  2
DC_IMAGEDIMGROUP_25
 10
0.0
 20
0.0
 30
0.0
  0
INSERT
  5
529
  8
LAYER0014
  6
CONTINUOUS
  2
DC_IMAGEDIMGROUP_26
 10
0.0
 20
0.0
 30
0.0
  0
INSERT
  5
52A
  8
LAYER0014
  6
CONTINUOUS
  2
DC_IMAGEDIMGROUP_27
 10
0.0
 20
0.0
 30
0.0
  0
INSERT
  5
52B
  8
LAYER0014
  6
CONTINUOUS
  2
DC_IMAGEDIMGROUP_28
 10
0.0
 20
0.0
 30
0.0
  0
INSERT
  5
52C
  8
LAYER0014
  6
CONTINUOUS
  2
DC_IMAGEDIMGROUP_29
 10
0.0
 20
0.0
 30
0.0
  0
INSERT
  5
52D
  8
LAYER0014
  6
CONTINUOUS
  2
DC_IMAGEDIMGROUP_30
 10
0.0
 20
0.0
 30
0.0
  0
INSERT
  5
52E
  8
LAYER0014
  6
CONTINUOUS
  2
DC_IMAGEDIMGROUP_31
 10
0.0
 20
0.0
 30
0.0
  0
INSERT
  5
52F
  8
LAYER0014
  6
CONTINUOUS
  2
DC_IMAGEDIMGROUP_32
 10
0.0
 20
0.0
 30
0.0
  0
INSERT
  5
530
  8
LAYER0014
  6
CONTINUOUS
  2
DC_IMAGEDIMGROUP_33
 10
0.0
 20
0.0
 30
0.0
  0
INSERT
  5
531
  8
LAYER0014
  6
CONTINUOUS
  2
DC_IMAGEDIMGROUP_34
 10
0.0
 20
0.0
 30
0.0
  0
INSERT
  5
532
  8
LAYER0014
  6
CONTINUOUS
  2
DC_GROUP_7
 10
0.0
 20
0.0
 30
0.0
  0
INSERT
  5
533
  8
LAYER0014
  6
CONTINUOUS
  2
DC_GROUP_8
 10
0.0
 20
0.0
 30
0.0
  0
INSERT
  5
534
  8
LAYER0014
  6
CONTINUOUS
  2
DC_IMAGEDIMGROUP_35
 10
0.0
 20
0.0
 30
0.0
  0
INSERT
  5
535
  8
LAYER0014
  6
CONTINUOUS
  2
DC_IMAGEDIMGROUP_36
 10
0.0
 20
0.0
 30
0.0
  0
INSERT
  5
536
  8
LAYER0014
  6
CONTINUOUS
  2
DC_IMAGEDIMGROUP_37
 10
0.0
 20
0.0
 30
0.0
  0
INSERT
  5
537
  8
LAYER0014
  6
CONTINUOUS
  2
DC_IMAGEDIMGROUP_38
 10
0.0
 20
0.0
 30
0.0
  0
INSERT
  5
538
  8
LAYER0014
  6
CONTINUOUS
  2
DC_IMAGEDIMGROUP_39
 10
0.0
 20
0.0
 30
0.0
  0
LINE
  5
539
  8
LAYER0014
  6
CONTINUOUS
 62
     7
 10
93.61551192979373
 20
-166.9137694734928
 30
0.0
 11
100.1841139341036
 21
-159.501493665611
 31
0.0
  0
INSERT
  5
53A
  8
LAYER0014
 62
     7
  2
_OPEN30
 10
93.61551192979373
 20
-166.9137694734928
 30
0.0
 41
3.571422056312886
 42
3.571438870943352
 50
228.4533168323643
  0
LINE
  5
53B
  8
LAYER0014
  6
CONTINUOUS
 62
     7
 10
90.66027114493968
 20
-130.0000022138868
 30
0.0
 11
99.73169987085376
 21
-130.0000022138868
 31
0.0
  0
INSERT
  5
53C
  8
LAYER0014
 62
     7
  2
_OPEN30
 10
90.66027114493968
 20
-130.0000022138868
 30
0.0
 41
3.571422056312886
 42
3.571438870943352
 50
180.0
  0
LINE
  5
53D
  8
LAYER0014
  6
CONTINUOUS
 62
     7
 10
93.66023631879663
 20
-120.0000020435879
 30
0.0
 11
103.6857317377363
 21
-120.0000020435879
 31
0.0
  0
INSERT
  5
53E
  8
LAYER0014
 62
     7
  2
_OPEN30
 10
93.66023631879663
 20
-120.0000020435879
 30
0.0
 41
3.571422056312886
 42
3.571438870943352
 50
180.0
  0
LINE
  5
53F
  8
LAYER0014
  6
CONTINUOUS
 62
     7
 10
255.6601867617912
 20
-130.0000022138868
 30
0.0
 11
264.7316154877053
 21
-130.0000022138868
 31
0.0
  0
INSERT
  5
540
  8
LAYER0014
 62
     7
  2
_OPEN30
 10
255.6601867617912
 20
-130.0000022138868
 30
0.0
 41
3.571422056312886
 42
3.571438870943352
 50
180.0
  0
LINE
  5
541
  8
LAYER0014
  6
CONTINUOUS
 62
     7
 10
167.6602201403928
 20
-110.0000018732889
 30
0.0
 11
158.5887914144787
 21
-110.0000018732889
 31
0.0
  0
INSERT
  5
542
  8
LAYER0014
 62
     7
  2
_OPEN30
 10
167.6602201403928
 20
-110.0000018732889
 30
0.0
 41
3.571422056312886
 42
3.571438870943352
 50
360.0
  0
LINE
  5
543
  8
LAYER0014
  6
CONTINUOUS
 62
     7
 10
165.160220097818
 20
-130.0000022138868
 30
0.0
 11
156.088791371904
 21
-130.0000022138868
 31
0.0
  0
INSERT
  5
544
  8
LAYER0014
 62
     7
  2
_OPEN30
 10
165.160220097818
 20
-130.0000022138868
 30
0.0
 41
3.571422056312886
 42
3.571438870943352
 50
360.0
  0
LINE
  5
545
  8
LAYER0014
  6
CONTINUOUS
 62
     7
 10
243.6602388732815
 20
165.3439577195297
 30
0.0
 11
234.5888101473674
 21
165.3439577195297
 31
0.0
  0
INSERT
  5
546
  8
LAYER0014
 62
     7
  2
_OPEN30
 10
243.6602388732815
 20
165.3439577195297
 30
0.0
 41
3.571422056312886
 42
3.571438870943352
 50
360.0
  0
LINE
  5
547
  8
LAYER0014
  6
CONTINUOUS
 62
     7
 10
83.66023614849765
 20
128.0759669725549
 30
0.0
 11
72.91932149306913
 21
128.0759669725549
 31
0.0
  0
INSERT
  5
548
  8
LAYER0014
 62
     7
  2
_OPEN30
 10
83.66023614849765
 20
128.0759669725549
 30
0.0
 41
3.571422056312886
 42
3.571438870943352
 50
360.0
  0
LINE
  5
549
  8
LAYER0014
  6
CONTINUOUS
 62
     7
 10
-297.9446523397554
 20
129.6320912822248
 30
0.0
 11
-316.8004559944698
 21
157.4195905621888
 31
0.0
  0
INSERT
  5
54A
  8
LAYER0014
 62
     7
  2
_OPEN30
 10
-297.9446523397554
 20
129.6320912822248
 30
0.0
 41
3.571422056312886
 42
3.571438870943352
 50
304.1596953530717
  0
LINE
  5
54B
  8
LAYER0014
  6
CONTINUOUS
 62
     7
 10
-177.788474695226
 20
207.0755217608904
 30
0.0
 11
-161.6025640398222
 21
248.1267448569417
 31
0.0
  0
INSERT
  5
54C
  8
LAYER0014
 62
     7
  2
_OPEN30
 10
-177.788474695226
 20
207.0755217608904
 30
0.0
 41
3.571422056312886
 42
3.571438870943352
 50
248.4813908823084
  0
LINE
  5
54D
  8
LAYER0014
  6
CONTINUOUS
 62
     7
 10
-142.5065846772139
 20
164.7239574484915
 30
0.0
 11
-120.3759254799821
 21
226.4006564053562
 31
0.0
  0
INSERT
  5
54E
  8
LAYER0014
 62
     7
  2
_OPEN30
 10
-142.5065846772139
 20
164.7239574484915
 30
0.0
 41
3.571422056312886
 42
3.571438870943352
 50
250.2611414572874
  0
LINE
  5
54F
  8
LAYER0014
  6
CONTINUOUS
 62
     7
 10
100.1841098952993
 20
-159.5014871784872
 30
0.0
 11
151.8528982625324
 21
-159.5014871784872
 31
0.0
  0
LINE
  5
550
  8
LAYER0014
  6
CONTINUOUS
 62
     7
 10
28.66023521185322
 20
61.8714328948333
 30
0.0
 11
28.66023521185322
 21
-143.2714310113265
 31
0.0
  0
LINE
  5
551
  8
LAYER0014
  6
CONTINUOUS
 62
     7
 10
90.66027114493968
 20
21.37143710973326
 30
0.0
 11
90.66027114493968
 21
-143.2714310113265
 31
0.0
  0
LINE
  5
552
  8
LAYER0014
  6
CONTINUOUS
 62
     7
 10
247.6602215027847
 20
-2.128558590217294
 30
0.0
 11
247.6602215027847
 21
-143.2714310113265
 31
0.0
  0
LINE
  5
553
  8
LAYER0014
  6
CONTINUOUS
 62
     7
 10
269.6601695615934
 20
57.02614058470966
 30
0.0
 11
269.6601695615934
 21
-143.2714310113265
 31
0.0
  0
LINE
  5
554
  8
LAYER0014
  6
CONTINUOUS
 62
     7
 10
269.6601695615934
 20
-140.0000023841858
 30
0.0
 11
295.6925360763505
 21
-140.0000023841858
 31
0.0
  0
LINE
  5
555
  8
LAYER0014
  6
CONTINUOUS
 62
     7
 10
90.66027114493968
 20
21.37143710973326
 30
0.0
 11
90.66027114493968
 21
-133.2714308410275
 31
0.0
  0
LINE
  5
556
  8
LAYER0014
  6
CONTINUOUS
 62
     7
 10
83.66023614849765
 20
42.87143366117876
 30
0.0
 11
83.66023614849765
 21
-133.2714308410275
 31
0.0
  0
LINE
  5
557
  8
LAYER0014
  6
CONTINUOUS
 62
     7
 10
90.66027114493968
 20
-130.0000022138868
 30
0.0
 11
83.66023614849765
 21
-130.0000022138868
 31
0.0
  0
LINE
  5
558
  8
LAYER0014
  6
CONTINUOUS
 62
     7
 10
93.66023631879663
 20
-51.62856467840611
 30
0.0
 11
93.66023631879663
 21
-123.2714306707285
 31
0.0
  0
LINE
  5
559
  8
LAYER0014
  6
CONTINUOUS
 62
     7
 10
90.66027114493968
 20
21.37143710973326
 30
0.0
 11
90.66027114493968
 21
-123.2714306707285
 31
0.0
  0
LINE
  5
55A
  8
LAYER0014
  6
CONTINUOUS
 62
     7
 10
93.66023631879663
 20
-120.0000020435879
 30
0.0
 11
90.66027114493968
 21
-120.0000020435879
 31
0.0
  0
LINE
  5
55B
  8
LAYER0014
  6
CONTINUOUS
 62
     7
 10
255.6601867617912
 20
24.07143628378317
 30
0.0
 11
255.6601867617912
 21
-133.2714308410275
 31
0.0
  0
LINE
  5
55C
  8
LAYER0014
  6
CONTINUOUS
 62
     7
 10
247.6602215027847
 20
-2.128558590217294
 30
0.0
 11
247.6602215027847
 21
-133.2714308410275
 31
0.0
  0
LINE
  5
55D
  8
LAYER0014
  6
CONTINUOUS
 62
     7
 10
255.6601867617912
 20
-130.0000022138868
 30
0.0
 11
247.6602215027847
 21
-130.0000022138868
 31
0.0
  0
LINE
  5
55E
  8
LAYER0014
  6
CONTINUOUS
 62
     7
 10
167.6602201403928
 20
-5.628562805117246
 30
0.0
 11
167.6602201403928
 21
-113.2714305004295
 31
0.0
  0
LINE
  5
55F
  8
LAYER0014
  6
CONTINUOUS
 62
     7
 10
169.6602550516853
 20
-3.128560974403126
 30
0.0
 11
169.6602550516853
 21
-113.2714305004295
 31
0.0
  0
LINE
  5
560
  8
LAYER0014
  6
CONTINUOUS
 62
     7
 10
167.6602201403928
 20
-110.0000018732889
 30
0.0
 11
169.6602550516853
 21
-110.0000018732889
 31
0.0
  0
LINE
  5
561
  8
LAYER0014
  6
CONTINUOUS
 62
     7
 10
165.160220097818
 20
-7.392516316558911
 30
0.0
 11
165.160220097818
 21
-133.2714308410275
 31
0.0
  0
LINE
  5
562
  8
LAYER0014
  6
CONTINUOUS
 62
     7
 10
167.6602201403928
 20
-3.128560974403126
 30
0.0
 11
167.6602201403928
 21
-133.2714308410275
 31
0.0
  0
LINE
  5
563
  8
LAYER0014
  6
CONTINUOUS
 62
     7
 10
165.160220097818
 20
-130.0000022138868
 30
0.0
 11
167.6602201403928
 21
-130.0000022138868
 31
0.0
  0
LINE
  5
564
  8
LAYER0014
  6
CONTINUOUS
 62
     7
 10
154.8632592140494
 20
-109.999981351478
 30
0.0
 11
166.4102662902277
 21
-129.9999839238117
 31
0.0
  0
LINE
  5
565
  8
LAYER0014
  6
CONTINUOUS
 62
     7
 10
140.8659604765
 20
-110.0000018732889
 30
0.0
 11
154.8632402907651
 21
-110.0000018732889
 31
0.0
  0
LINE
  5
566
  8
LAYER0014
  6
CONTINUOUS
 62
     7
 10
243.6602388732815
 20
163.1285763864615
 30
0.0
 11
243.6602388732815
 21
168.6153863466703
 31
0.0
  0
LINE
  5
567
  8
LAYER0014
  6
CONTINUOUS
 62
     7
 10
243.6602388732815
 20
165.3439577195297
 30
0.0
 11
255.6601867617912
 21
165.3439577195297
 31
0.0
  0
LINE
  5
568
  8
LAYER0014
  6
CONTINUOUS
 62
     7
 10
83.66023614849765
 20
145.0280036556381
 30
0.0
 11
83.66023614849765
 21
124.8045383454142
 31
0.0
  0
LINE
  5
569
  8
LAYER0014
  6
CONTINUOUS
 62
     7
 10
87.66021877800088
 20
145.0280036556381
 30
0.0
 11
87.66021877800088
 21
124.8045383454142
 31
0.0
  0
LINE
  5
56A
  8
LAYER0014
  6
CONTINUOUS
 62
     7
 10
83.66023614849765
 20
128.0759669725549
 30
0.0
 11
87.66021877800088
 21
128.0759669725549
 31
0.0
  0
LINE
  5
56B
  8
LAYER0014
  6
CONTINUOUS
 62
     7
 10
-316.8004553113743
 20
157.419577963345
 30
0.0
 11
-360.5562979929157
 21
157.419577963345
 31
0.0
  0
LINE
  5
56C
  8
LAYER0014
  6
CONTINUOUS
 62
     7
 10
-161.6025679724994
 20
248.12672628891
 30
0.0
 11
-117.8467034926875
 21
248.12672628891
 31
0.0
  0
LINE
  5
56D
  8
LAYER0014
  6
CONTINUOUS
 62
     7
 10
-120.3759350159498
 20
226.4006734984376
 30
0.0
 11
-49.19150300011469
 21
226.4006734984376
 31
0.0
  0
LINE
  5
56E
  8
LAYER0014
  6
CONTINUOUS
 62
     7
 10
28.66023521185322
 20
-140.0000023841858
 30
0.0
 11
90.66027114493968
 21
-140.0000023841858
 31
0.0
  0
INSERT
  5
56F
  8
LAYER0014
 62
     7
  2
_OPEN30
 10
28.66023521185322
 20
-140.0000023841858
 30
0.0
 41
3.571422056312886
 42
3.571438870943352
 50
180.0
  0
INSERT
  5
570
  8
LAYER0014
 62
     7
  2
_OPEN30
 10
90.66027114493968
 20
-140.0000023841858
 30
0.0
 41
3.571422056312886
 42
3.571438870943352
 50
360.0
  0
LINE
  5
571
  8
LAYER0014
  6
CONTINUOUS
 62
     7
 10
247.6602215027847
 20
-140.0000023841858
 30
0.0
 11
269.6601695615934
 21
-140.0000023841858
 31
0.0
  0
INSERT
  5
572
  8
LAYER0014
 62
     7
  2
_OPEN30
 10
247.6602215027847
 20
-140.0000023841858
 30
0.0
 41
3.571422056312886
 42
3.571438870943352
 50
180.0
  0
INSERT
  5
573
  8
LAYER0014
 62
     7
  2
_OPEN30
 10
269.6601695615934
 20
-140.0000023841858
 30
0.0
 41
3.571422056312886
 42
3.571438870943352
 50
360.0
  0
LINE
  5
574
  8
LAYER0014
  6
CONTINUOUS
 62
     7
 10
74.58880742258356
 20
-130.0000022138868
 30
0.0
 11
83.66023614849765
 21
-130.0000022138868
 31
0.0
  0
INSERT
  5
575
  8
LAYER0014
 62
     7
  2
_OPEN30
 10
83.66023614849765
 20
-130.0000022138868
 30
0.0
 41
3.571422056312886
 42
3.571438870943352
 50
360.0
  0
LINE
  5
576
  8
LAYER0014
  6
CONTINUOUS
 62
     7
 10
81.58884241902561
 20
-120.0000020435879
 30
0.0
 11
90.66027114493968
 21
-120.0000020435879
 31
0.0
  0
INSERT
  5
577
  8
LAYER0014
 62
     7
  2
_OPEN30
 10
90.66027114493968
 20
-120.0000020435879
 30
0.0
 41
3.571422056312886
 42
3.571438870943352
 50
360.0
  0
LINE
  5
578
  8
LAYER0014
  6
CONTINUOUS
 62
     7
 10
238.5887927768706
 20
-130.0000022138868
 30
0.0
 11
247.6602215027847
 21
-130.0000022138868
 31
0.0
  0
INSERT
  5
579
  8
LAYER0014
 62
     7
  2
_OPEN30
 10
247.6602215027847
 20
-130.0000022138868
 30
0.0
 41
3.571422056312886
 42
3.571438870943352
 50
360.0
  0
LINE
  5
57A
  8
LAYER0014
  6
CONTINUOUS
 62
     7
 10
180.8176910590982
 20
-110.0000018732889
 30
0.0
 11
169.6602550516853
 21
-110.0000018732889
 31
0.0
  0
INSERT
  5
57B
  8
LAYER0014
 62
     7
  2
_OPEN30
 10
169.6602550516853
 20
-110.0000018732889
 30
0.0
 41
3.571422056312886
 42
3.571438870943352
 50
180.0
  0
LINE
  5
57C
  8
LAYER0014
  6
CONTINUOUS
 62
     7
 10
176.7316488663069
 20
-130.0000022138868
 30
0.0
 11
167.6602201403928
 21
-130.0000022138868
 31
0.0
  0
INSERT
  5
57D
  8
LAYER0014
 62
     7
  2
_OPEN30
 10
167.6602201403928
 20
-130.0000022138868
 30
0.0
 41
3.571422056312886
 42
3.571438870943352
 50
180.0
  0
LINE
  5
57E
  8
LAYER0014
  6
CONTINUOUS
 62
     7
 10
270.3133154820425
 20
165.3439577195297
 30
0.0
 11
255.6601867617912
 21
165.3439577195297
 31
0.0
  0
INSERT
  5
57F
  8
LAYER0014
 62
     7
  2
_OPEN30
 10
255.6601867617912
 20
165.3439577195297
 30
0.0
 41
3.571422056312886
 42
3.571438870943352
 50
180.0
  0
LINE
  5
580
  8
LAYER0014
  6
CONTINUOUS
 62
     7
 10
96.73164750391496
 20
128.0759669725549
 30
0.0
 11
87.66021877800088
 21
128.0759669725549
 31
0.0
  0
INSERT
  5
581
  8
LAYER0014
 62
     7
  2
_OPEN30
 10
87.66021877800088
 20
128.0759669725549
 30
0.0
 41
3.571422056312886
 42
3.571438870943352
 50
180.0
  0
TEXT
  5
582
  8
LAYER0014
 62
     7
 10
102.3382470993105
 20
-158.5502017010772
 30
0.0
 40
5.714285811599422
  1
6-M10×85ボルト
 41
0.8438356164383561
  7
DCSTYLE0
 72
     5
 11
152.6239622413854
 21
-158.5502017010772
 31
0.0
  0
TEXT
  5
583
  8
LAYER0014
 62
     7
 10
48.23168155519761
 20
-139.2857166577359
 30
0.0
 40
5.714285811599422
  1
MAX62
 41
0.8484848484848491
  7
DCSTYLE0
 72
     5
 11
71.08882480159531
 21
-139.2857166577359
 31
0.0
  0
TEXT
  5
584
  8
LAYER0014
 62
     7
 10
48.23168155519761
 20
-147.0925835476751
 30
0.0
 40
5.714285811599422
  1
MIN37
 41
0.9230769230769235
  7
DCSTYLE0
 72
     5
 11
71.08882480159531
 21
-147.0925835476751
 31
0.0
  0
TEXT
  5
585
  8
LAYER0014
 62
     7
 10
273.4882946267859
 20
-139.2857166577359
 30
0.0
 40
5.714285811599422
  1
MAX22
 41
0.848484848484847
  7
DCSTYLE0
 72
     5
 11
296.3454378731836
 21
-139.2857166577359
 31
0.0
  0
TEXT
  5
586
  8
LAYER0014
 62
     7
 10
273.4882946267859
 20
-147.1082794315211
 30
0.0
 40
5.714285811599422
  1
MIN-3
 41
0.8659793814432972
  7
DCSTYLE0
 72
     5
 11
296.3454378731836
 21
-147.1082794315211
 31
0.0
  0
TEXT
  5
587
  8
LAYER0014
 62
     7
 10
84.59266727028161
 20
-128.7008400705375
 30
0.0
 40
5.714285811599422
  1
7
 41
0.9882352941176477
  7
DCSTYLE0
 72
     5
 11
89.16409591956115
 21
-128.7008400705375
 31
0.0
  0
TEXT
  5
588
  8
LAYER0014
 62
     7
 10
98.6914950192508
 20
-118.9827119520358
 30
0.0
 40
5.714285811599422
  1
3
 41
0.9882352941176477
  7
DCSTYLE0
 72
     5
 11
103.2629236685303
 21
-118.9827119520358
 31
0.0
  0
TEXT
  5
589
  8
LAYER0014
 62
     7
 10
248.9516817299523
 20
-129.1236481482334
 30
0.0
 40
5.714285811599422
  1
8
 41
0.9882352941176477
  7
DCSTYLE0
 72
     5
 11
253.5231103792318
 21
-129.1236481482334
 31
0.0
  0
TEXT
  5
58A
  8
LAYER0014
 62
     7
 10
174.8369021593223
 20
-108.4189676781423
 30
0.0
 40
5.714285811599422
  1
2
 41
0.9882352941176477
  7
DCSTYLE0
 72
     5
 11
179.4083308086018
 21
-108.4189676781423
 31
0.0
  0
TEXT
  5
58B
  8
LAYER0014
 62
     7
 10
140.4950004859296
 20
-108.9827117817368
 30
0.0
 40
5.714285811599422
  1
2.5
 41
1.072340425531916
  7
DCSTYLE0
 72
     5
 11
154.2092864337682
 21
-108.9827117817368
 31
0.0
  0
TEXT
  5
58C
  8
LAYER0014
 62
     7
 10
260.2906015291343
 20
166.3978727042622
 30
0.0
 40
5.714285811599422
  1
12
 41
0.9081081081081086
  7
DCSTYLE0
 72
     5
 11
269.4334588276934
 21
166.3978727042622
 31
0.0
  0
TEXT
  5
58D
  8
LAYER0014
 62
     7
 10
75.17318050788941
 20
129.7709781174648
 30
0.0
 40
5.714285811599422
  1
4
 41
0.9333333333333339
  7
DCSTYLE0
 72
     5
 11
79.74460915716895
 21
129.7709781174648
 31
0.0
  0
TEXT
  5
58E
  8
LAYER0014
 62
     7
 10
-357.8038859217366
 20
158.9870481480207
 30
0.0
 40
5.714285811599422
  1
2×2-Rc3/8
 41
0.8307692307692313
  7
DCSTYLE0
 72
     5
 11
-316.6610280782207
 21
158.9870481480207
 31
0.0
  0
TEXT
  5
58F
  8
LAYER0014
 62
     7
 10
-160.7083496606419
 20
249.3807155156129
 30
0.0
 40
5.714285811599422
  1
６－Ｍ５ 皿ボルト
 41
0.9333333333333335
  7
DCSTYLE0
 72
     5
 11
-119.565491817126
 21
249.3807155156129
 31
0.0
  0
TEXT
  5
590
  8
LAYER0014
 62
     7
 10
-119.8483732742646
 20
227.6546191285996
 30
0.0
 40
5.714285811599422
  1
4－M6×12 PCD.15５
 41
0.8719723183391002
  7
DCSTYLE0
 72
     5
 11
-51.2769435350715
 21
227.6546191285996
 31
0.0
  0
VIEWPORT
  5
B2
 67
     1
  8
0
 10
0.0000217982703816
 20
0.0
 30
0.0
 40
2519.748011312281
 41
1781.640044989587
 68
     1
 69
     1
1001
ACAD
1000
MVIEW
1002
{
1070
    16
1010
0.0
1020
0.0
1030
0.0
1010
0.0
1020
0.0
1030
1.0
1040
0.0
1040
1781.640044989587
1040
0.0000217982703816
1040
0.0
1040
50.0
1040
0.0
1040
0.0
1070
     0
1070
   100
1070
     0
1070
     3
1070
     0
1070
     0
1070
     0
1070
     0
1040
0.0
1040
0.0
1040
0.0
1040
0.5
1040
0.5
1040
0.0
1040
0.0
1070
     0
1002
{
1002
}
1002
}
  0
ENDSEC
  0
EOF
