  0
SECTION
  2
HEADER
  9
$ACADVER
  1
AC1009
  9
$DWGCODEPAGE
  3
ansi_932
  9
$INSBASE
 10
0.0
 20
0.0
 30
0.0
  9
$EXTMIN
 10
-831.0
 20
-569.9999999999999
 30
0.0
  9
$EXTMAX
 10
831.0
 20
569.9999999999999
 30
0.0
  9
$LIMMIN
 10
-297.0
 20
-210.0
  9
$LIMMAX
 10
297.0
 20
210.0
  9
$ORTHOMODE
 70
     0
  9
$REGENMODE
 70
     1
  9
$FILLMODE
 70
     1
  9
$QTEXTMODE
 70
     0
  9
$MIRRTEXT
 70
     1
  9
$DRAGMODE
 70
     2
  9
$LTSCALE
 40
1.0
  9
$OSMODE
 70
    37
  9
$ATTMODE
 70
     1
  9
$TEXTSIZE
 40
0.2
  9
$TRACEWID
 40
0.05
  9
$TEXTSTYLE
  7
STANDARD
  9
$CLAYER
  8
0
  9
$CELTYPE
  6
BYLAYER
  9
$CECOLOR
 62
   256
  9
$DIMSCALE
 40
1.0
  9
$DIMASZ
 40
2.5
  9
$DIMEXO
 40
0.0625
  9
$DIMDLI
 40
0.38
  9
$DIMRND
 40
0.0
  9
$DIMDLE
 40
0.0
  9
$DIMEXE
 40
0.18
  9
$DIMTP
 40
0.0
  9
$DIMTM
 40
0.0
  9
$DIMTXT
 40
0.18
  9
$DIMCEN
 40
0.09
  9
$DIMTSZ
 40
0.0
  9
$DIMTOL
 70
     0
  9
$DIMLIM
 70
     0
  9
$DIMTIH
 70
     1
  9
$DIMTOH
 70
     1
  9
$DIMSE1
 70
     0
  9
$DIMSE2
 70
     0
  9
$DIMTAD
 70
     3
  9
$DIMZIN
 70
     0
  9
$DIMBLK
  1

  9
$DIMASO
 70
     1
  9
$DIMSHO
 70
     1
  9
$DIMPOST
  1

  9
$DIMAPOST
  1

  9
$DIMALT
 70
     0
  9
$DIMALTD
 70
     2
  9
$DIMALTF
 40
25.4
  9
$DIMLFAC
 40
1.0
  9
$DIMTOFL
 70
     0
  9
$DIMTVP
 40
0.0
  9
$DIMTIX
 70
     0
  9
$DIMSOXD
 70
     0
  9
$DIMSAH
 70
     0
  9
$DIMBLK1
  1

  9
$DIMBLK2
  1

  9
$DIMSTYLE
  2
STANDARD
  9
$DIMCLRD
 70
     0
  9
$DIMCLRE
 70
     0
  9
$DIMCLRT
 70
     0
  9
$DIMTFAC
 40
1.0
  9
$DIMGAP
 40
0.09
  9
$LUNITS
 70
     2
  9
$LUPREC
 70
     4
  9
$SKETCHINC
 40
0.1
  9
$FILLETRAD
 40
0.5
  9
$AUNITS
 70
     0
  9
$AUPREC
 70
     0
  9
$MENU
  1
.
  9
$ELEVATION
 40
0.0
  9
$PELEVATION
 40
0.0
  9
$THICKNESS
 40
0.0
  9
$LIMCHECK
 70
     0
  9
$CHAMFERA
 40
0.5
  9
$CHAMFERB
 40
0.5
  9
$SKPOLY
 70
     0
  9
$TDCREATE
 40
2456329.66549051
  9
$TDUPDATE
 40
2456329.665490521
  9
$TDINDWG
 40
0.0000000116
  9
$TDUSRTIMER
 40
0.0000000116
  9
$USRTIMER
 70
     1
  9
$ANGBASE
 50
0.0
  9
$ANGDIR
 70
     0
  9
$PDMODE
 70
     0
  9
$PDSIZE
 40
1.0
  9
$PLINEWID
 40
0.0
  9
$COORDS
 70
     1
  9
$SPLFRAME
 70
     0
  9
$SPLINETYPE
 70
     6
  9
$SPLINESEGS
 70
     8
  9
$ATTDIA
 70
     0
  9
$ATTREQ
 70
     1
  9
$HANDLING
 70
     1
  9
$HANDSEED
  5
73B
  9
$SURFTAB1
 70
     6
  9
$SURFTAB2
 70
     6
  9
$SURFTYPE
 70
     6
  9
$SURFU
 70
     6
  9
$SURFV
 70
     6
  9
$UCSNAME
  2

  9
$UCSORG
 10
0.0
 20
0.0
 30
0.0
  9
$UCSXDIR
 10
1.0
 20
0.0
 30
0.0
  9
$UCSYDIR
 10
0.0
 20
1.0
 30
0.0
  9
$PUCSNAME
  2

  9
$PUCSORG
 10
0.0
 20
0.0
 30
0.0
  9
$PUCSXDIR
 10
1.0
 20
0.0
 30
0.0
  9
$PUCSYDIR
 10
0.0
 20
1.0
 30
0.0
  9
$USERI1
 70
     0
  9
$USERI2
 70
     0
  9
$USERI3
 70
     0
  9
$USERI4
 70
     0
  9
$USERI5
 70
     0
  9
$USERR1
 40
0.0
  9
$USERR2
 40
0.0
  9
$USERR3
 40
0.0
  9
$USERR4
 40
0.0
  9
$USERR5
 40
0.0
  9
$WORLDVIEW
 70
     1
  9
$SHADEDGE
 70
     3
  9
$SHADEDIF
 70
    70
  9
$TILEMODE
 70
     1
  9
$MAXACTVP
 70
    64
  9
$PLIMCHECK
 70
     0
  9
$PEXTMIN
 10
1.000000000000000E+20
 20
1.000000000000000E+20
 30
1.000000000000000E+20
  9
$PEXTMAX
 10
-1.000000000000000E+20
 20
-1.000000000000000E+20
 30
-1.000000000000000E+20
  9
$PLIMMIN
 10
0.0
 20
0.0
  9
$PLIMMAX
 10
12.0
 20
9.0
  9
$UNITMODE
 70
     0
  9
$VISRETAIN
 70
     0
  9
$PLINEGEN
 70
     1
  9
$PSLTSCALE
 70
     0
  0
ENDSEC
  0
SECTION
  2
TABLES
  0
TABLE
  2
VPORT
 70
     1
  0
VPORT
  2
*ACTIVE
 70
     0
 10
0.0
 20
0.0
 11
1.0
 21
1.0
 12
0.0
 22
0.0
 13
0.0
 23
0.0
 14
0.5
 24
0.5
 15
0.5
 25
0.5
 16
0.0
 26
0.0
 36
1.0
 17
-0.0000000000000036
 27
0.0
 37
0.0
 40
387.6
 41
1.457894736842106
 42
50.0
 43
0.0
 44
0.0
 50
0.0
 51
0.0
 71
     0
 72
  1000
 73
     1
 74
     1
 75
     0
 76
     0
 77
     0
 78
     0
  0
ENDTAB
  0
TABLE
  2
LTYPE
 70
    28
  0
LTYPE
  2
CONTINUOUS
 70
     0
  3
Solid line
 72
    65
 73
     0
 40
0.0
  0
LTYPE
  2
HIDDENX2
 70
     0
  3
CADPAC LINETYPE
 72
    65
 73
     2
 40
10.30674846625766
 49
7.730061349693244
 49
-2.576687116564415
  0
LTYPE
  2
HIDDEN
 70
     0
  3
CADPAC LINETYPE
 72
    65
 73
     2
 40
7.730061349693244
 49
5.15337423312883
 49
-2.576687116564415
  0
LTYPE
  2
HIDDEN2
 70
     0
  3
CADPAC LINETYPE
 72
    65
 73
     2
 40
6.441717791411037
 49
3.865030674846622
 49
-2.576687116564415
  0
LTYPE
  2
DASHED
 70
     0
  3
CADPAC LINETYPE
 72
    65
 73
     2
 40
7.214723926380373
 49
5.15337423312883
 49
-2.061349693251543
  0
LTYPE
  2
DASHED2
 70
     0
  3
CADPAC LINETYPE
 72
    65
 73
     2
 40
4.638036809815901
 49
3.092024539877286
 49
-1.546012269938615
  0
LTYPE
  2
DASHEDX2
 70
     0
  3
CADPAC LINETYPE
 72
    65
 73
     2
 40
12.36809815950915
 49
10.3067484662576
 49
-2.061349693251543
  0
LTYPE
  2
DOTX2
 70
     0
  3
CADPAC LINETYPE
 72
    65
 73
     2
 40
4.509202453987697
 49
0.0
 49
-4.509202453987697
  0
LTYPE
  2
DOT
 70
     0
  3
CADPAC LINETYPE
 72
    65
 73
     2
 40
3.607361963190158
 49
0.0
 49
-3.607361963190158
  0
LTYPE
  2
DOT2
 70
     0
  3
CADPAC LINETYPE
 72
    65
 73
     2
 40
2.705521472392618
 49
0.0
 49
-2.705521472392618
  0
LTYPE
  2
CENTERX2
 70
     0
  3
CADPAC LINETYPE
 72
    65
 73
     4
 40
15.46012269938649
 49
6.441717791411037
 49
-3.220858895705518
 49
2.576687116564415
 49
-3.220858895705518
  0
LTYPE
  2
CENTER
 70
     0
  3
CADPAC LINETYPE
 72
    65
 73
     4
 40
11.85276073619631
 49
5.15337423312883
 49
-2.576687116564415
 49
1.546012269938649
 49
-2.576687116564415
  0
LTYPE
  2
CENTER2
 70
     0
  3
CADPAC LINETYPE
 72
    65
 73
     4
 40
8.245398773006126
 49
3.865030674846622
 49
-1.932515337423311
 49
0.515337423312883
 49
-1.932515337423311
  0
LTYPE
  2
DASHDOTX2
 70
     0
  3
CADPAC LINETYPE
 72
    65
 73
     4
 40
24.7361963190184
 49
12.36809815950915
 49
-4.122699386503086
 49
4.122699386503086
 49
-4.122699386503086
  0
LTYPE
  2
DASHDOT
 70
     0
  3
CADPAC LINETYPE
 72
    65
 73
     4
 40
12.3680981595092
 49
6.184049079754573
 49
-2.061349693251543
 49
2.061349693251543
 49
-2.061349693251543
  0
LTYPE
  2
DASHDOT2
 70
     0
  3
CADPAC LINETYPE
 72
    65
 73
     4
 40
7.936196319018398
 49
4.63803680981593
 49
-1.546012269938657
 49
0.2061349693251543
 49
-1.546012269938657
  0
LTYPE
  2
DIVIDEX2
 70
     0
  3
CADPAC LINETYPE
 72
    65
 73
     6
 40
32.98159509202458
 49
12.36809815950915
 49
-4.122699386503086
 49
4.122699386503086
 49
-4.122699386503086
 49
4.122699386503086
 49
-4.122699386503086
  0
LTYPE
  2
DIVIDE
 70
     0
  3
CADPAC LINETYPE
 72
    65
 73
     6
 40
16.49079754601229
 49
6.184049079754573
 49
-2.061349693251543
 49
2.061349693251543
 49
-2.061349693251543
 49
2.061349693251543
 49
-2.061349693251543
  0
LTYPE
  2
DIVIDE2
 70
     0
  3
CADPAC LINETYPE
 72
    65
 73
     6
 40
12.36809815950922
 49
4.63803680981593
 49
-1.546012269938657
 49
1.546012269938657
 49
-1.546012269938657
 49
1.546012269938657
 49
-1.546012269938657
  0
LTYPE
  2
BORDERX2
 70
     0
  3
CADPAC LINETYPE
 72
    65
 73
     6
 40
22.54601226993863
 49
6.441717791411037
 49
-3.220858895705518
 49
6.441717791411037
 49
-3.220858895705518
 49
0.0
 49
-3.220858895705518
  0
LTYPE
  2
BORDER
 70
     0
  3
CADPAC LINETYPE
 72
    65
 73
     6
 40
18.0368098159509
 49
5.15337423312883
 49
-2.576687116564415
 49
5.15337423312883
 49
-2.576687116564415
 49
0.0
 49
-2.576687116564415
  0
LTYPE
  2
BORDER2
 70
     0
  3
CADPAC LINETYPE
 72
    65
 73
     6
 40
13.39877300613495
 49
4.122699386503086
 49
-2.576687116564415
 49
1.546012269938615
 49
-2.576687116564415
 49
0.0
 49
-2.576687116564415
  0
LTYPE
  2
PHANTOMX2
 70
     0
  3
CADPAC LINETYPE
 72
    65
 73
     6
 40
19.32515337423311
 49
6.441717791411037
 49
-2.576687116564415
 49
2.576687116564415
 49
-2.576687116564415
 49
2.576687116564415
 49
-2.576687116564415
  0
LTYPE
  2
PHANTOM
 70
     0
  3
CADPAC LINETYPE
 72
    65
 73
     6
 40
15.97546012269937
 49
5.15337423312883
 49
-2.576687116564415
 49
1.546012269938649
 49
-2.576687116564415
 49
1.546012269938649
 49
-2.576687116564415
  0
LTYPE
  2
PHANTOM2
 70
     0
  3
CADPAC LINETYPE
 72
    65
 73
     6
 40
13.6564417177914
 49
3.865030674846622
 49
-2.576687116564415
 49
1.030674846625766
 49
-2.576687116564415
 49
1.030674846625766
 49
-2.576687116564415
  0
LTYPE
  2
ACAD_ISO06W100
 70
     0
  3
CADPAC LINETYPE
 72
    65
 73
     8
 40
27.31288343558265
 49
12.36809815950915
 49
-2.576687116564415
 49
1.546012269938615
 49
-2.576687116564415
 49
1.546012269938615
 49
-2.576687116564415
 49
1.546012269938615
 49
-2.576687116564415
  0
LTYPE
  2
ACAD_ISO13W100
 70
     0
  3
CADPAC LINETYPE
 72
    65
 73
     8
 40
20.61349693251532
 49
5.15337423312883
 49
-2.576687116564415
 49
5.15337423312883
 49
-2.576687116564415
 49
0.0
 49
-2.576687116564415
 49
0.0
 49
-2.576687116564415
  0
LTYPE
  2
ACAD_ISO14W100
 70
     0
  3
CADPAC LINETYPE
 72
    65
 73
     8
 40
15.46012269938649
 49
5.15337423312883
 49
-2.576687116564415
 49
0.0
 49
-2.576687116564415
 49
0.0
 49
-2.576687116564415
 49
0.0
 49
-2.576687116564415
  0
ENDTAB
  0
TABLE
  2
LAYER
 70
     3
  0
LAYER
  2
0
 70
     0
 62
     7
  6
CONTINUOUS
  0
LAYER
  2
LAYER0014
 70
     0
 62
     7
  6
CONTINUOUS
  0
LAYER
  2
ZUWAKU
 70
     0
 62
     7
  6
CONTINUOUS
  0
ENDTAB
  0
TABLE
  2
STYLE
 70
     5
  0
STYLE
  2
STANDARD
 70
     0
 40
0.0
 41
1.0
 50
0.0
 71
     0
 42
0.2
  3
txt
  4

  0
STYLE
  2
FDASTYLE1
 70
     0
 40
0.0
 41
0.7887323943661972
 50
0.0
 71
     0
 42
0.2
  3
txt.shx
  4
bigfont
  0
STYLE
  2
FDASTYLE0
 70
     4
 40
0.0
 41
0.8
 50
0.0
 71
     0
 42
0.2
  3
txt.shx
  4
bigfont
  0
STYLE
  2
FDASTYLE2
 70
     0
 40
0.0
 41
0.8123476848090983
 50
0.0
 71
     0
 42
0.2
  3
MSMINCHO.TTC
  4

  0
STYLE
  2
FDASTYLE3
 70
     0
 40
0.0
 41
0.77
 50
0.0
 71
     0
 42
0.2
  3
MSGOTHIC.TTC
  4

  0
ENDTAB
  0
TABLE
  2
VIEW
 70
     0
  0
ENDTAB
  0
TABLE
  2
UCS
 70
     0
  0
ENDTAB
  0
TABLE
  2
APPID
 70
     2
  0
APPID
  2
ACAD
 70
     0
  0
APPID
  2
DAFUSIONOUT
 70
     0
  0
ENDTAB
  0
TABLE
  2
DIMSTYLE
 70
     1
  0
DIMSTYLE
  2
STANDARD
 70
     0
  3

  4

  5

  6

  7

 40
1.0
 41
0.18
 42
0.0625
 43
0.38
 44
0.18
 45
0.0
 46
0.0
 47
0.0
 48
0.0
140
0.18
141
0.09
142
0.0
143
25.4
144
1.0
145
0.0
146
1.0
147
0.09
 71
     0
 72
     0
 73
     1
 74
     1
 75
     0
 76
     0
 77
     0
 78
     0
170
     0
171
     2
172
     0
173
     0
174
     0
175
     0
176
     0
177
     0
178
     0
  0
ENDTAB
  0
ENDSEC
  0
SECTION
  2
BLOCKS
  0
BLOCK
  8
0
  2
$MODEL_SPACE
 70
     0
 10
0.0
 20
0.0
 30
0.0
  3
$MODEL_SPACE
  1

  0
ENDBLK
  5
21
  8
0
  0
BLOCK
 67
     1
  8
0
  2
$PAPER_SPACE
 70
     0
 10
0.0
 20
0.0
 30
0.0
  3
$PAPER_SPACE
  1

  0
ENDBLK
  5
1D
 67
     1
  8
0
  0
BLOCK
  8
0
  2
DC_GROUP_1
 70
     0
 10
0.0
 20
0.0
 30
0.0
  3
DC_GROUP_1
  1

  0
LINE
  5
C7
  8
0
  6
CONTINUOUS
 62
     7
 10
-54.0748153443821
 20
135.6395161860537
 30
0.0
 11
-33.07481559728052
 21
161.9728397379818
 31
0.0
  0
INSERT
  5
CE
  8
0
 62
     7
  2
_OPEN30
 10
-54.0748153443821
 20
135.6395161860537
 30
0.0
 41
1.50000139391263
 42
1.499998500689492
 50
231.4287377108501
  0
LINE
  5
CF
  8
0
  6
CONTINUOUS
 62
     7
 10
-33.07481266568851
 20
161.9728337639699
 30
0.0
 11
14.55375502992916
 21
161.9728337639699
 31
0.0
  0
TEXT
  5
D1
  8
0
 62
     7
 10
-32.07481648038578
 20
163.5728337639699
 30
0.0
 40
4.0
  1
ｾﾚｰｼｮﾝP1.5山60ﾟ
 41
0.7887323943661972
  7
FDASTYLE1
 72
     5
 11
12.72518351961423
 21
163.5728337639699
 31
0.0
  0
ENDBLK
  5
4E
  8
0
  0
BLOCK
  8
0
  2
DA_IMAGEDIMGROUP_1
 70
     0
 10
0.0
 20
0.0
 30
0.0
  3
DA_IMAGEDIMGROUP_1
  1

  0
LINE
  5
D2
  8
LAYER0014
  6
CONTINUOUS
 62
     7
 10
-222.1299770028467
 20
31.71688378990987
 30
0.0
 11
-222.1299770028467
 21
73.71688283623556
 31
0.0
  0
INSERT
  5
D3
  8
LAYER0014
 62
     7
  2
_OPEN30
 10
-222.1299770028467
 20
31.71688378990987
 30
0.0
 41
1.50000139391263
 42
1.499998500689492
 50
270.0
  0
INSERT
  5
D4
  8
LAYER0014
 62
     7
  2
_OPEN30
 10
-222.1299770028467
 20
73.71688283623556
 30
0.0
 41
1.50000139391263
 42
1.499998500689492
 50
90.0
  0
LINE
  5
D5
  8
LAYER0014
  6
CONTINUOUS
 62
     7
 10
-166.085824781167
 20
31.71688378990987
 30
0.0
 11
-223.1299770028467
 21
31.71688378990987
 31
0.0
  0
LINE
  5
D6
  8
LAYER0014
  6
CONTINUOUS
 62
     7
 10
-166.240609937417
 20
73.71688283623556
 30
0.0
 11
-223.1299770028467
 21
73.71688283623556
 31
0.0
  0
TEXT
  5
D7
  8
LAYER0014
 62
     7
 10
-222.638354579003
 20
47.91689062388893
 30
0.0
 40
4.0
  1
φ42
 50
89.90000000000001
 41
0.7500000000000018
  7
FDASTYLE1
 72
     5
 11
-222.6215994266904
 21
57.51687600225651
 31
0.0
  0
ENDBLK
  5
51
  8
0
  0
BLOCK
  8
0
  2
DA_IMAGEDIMGROUP_2
 70
     0
 10
0.0
 20
0.0
 30
0.0
  3
DA_IMAGEDIMGROUP_2
  1

  0
LINE
  5
D8
  8
LAYER0014
  6
CONTINUOUS
 62
     7
 10
-232.9059779794092
 20
13.71688402832845
 30
0.0
 11
-232.9059779794092
 21
91.71688283623556
 31
0.0
  0
INSERT
  5
D9
  8
LAYER0014
 62
     7
  2
_OPEN30
 10
-232.9059779794092
 20
13.71688402832845
 30
0.0
 41
1.50000139391263
 42
1.499998500689492
 50
270.0
  0
INSERT
  5
DA
  8
LAYER0014
 62
     7
  2
_OPEN30
 10
-232.9059779794092
 20
91.71688283623556
 30
0.0
 41
1.50000139391263
 42
1.499998500689492
 50
90.0
  0
LINE
  5
DB
  8
LAYER0014
  6
CONTINUOUS
 62
     7
 10
-150.4858186776514
 20
13.71688402832845
 30
0.0
 11
-233.9059779794092
 21
13.71688402832845
 31
0.0
  0
LINE
  5
DC
  8
LAYER0014
  6
CONTINUOUS
 62
     7
 10
-150.4858186776514
 20
91.71688283623556
 30
0.0
 11
-233.9059779794092
 21
91.71688283623556
 31
0.0
  0
TEXT
  5
DD
  8
LAYER0014
 62
     7
 10
-233.4199406063364
 20
44.71689561697571
 30
0.0
 40
4.0
  1
φ78H7
 50
89.90000000000001
 41
0.7692307692307688
  7
FDASTYLE1
 72
     5
 11
-233.392015352482
 21
60.7168712475883
 31
0.0
  0
ENDBLK
  5
54
  8
0
  0
BLOCK
  8
0
  2
DA_IMAGEDIMGROUP_3
 70
     0
 10
0.0
 20
0.0
 30
0.0
  3
DA_IMAGEDIMGROUP_3
  1

  0
LINE
  5
DE
  8
LAYER0014
  6
CONTINUOUS
 62
     7
 10
-244.0668513924952
 20
-17.28311716376445
 30
0.0
 11
-244.0668513924952
 21
122.7168828362356
 31
0.0
  0
INSERT
  5
DF
  8
LAYER0014
 62
     7
  2
_OPEN30
 10
-244.0668513924952
 20
-17.28311716376445
 30
0.0
 41
1.50000139391263
 42
1.499998500689492
 50
270.0
  0
INSERT
  5
E0
  8
LAYER0014
 62
     7
  2
_OPEN30
 10
-244.0668513924952
 20
122.7168828362356
 30
0.0
 41
1.50000139391263
 42
1.499998500689492
 50
90.0
  0
LINE
  5
E1
  8
LAYER0014
  6
CONTINUOUS
 62
     7
 10
-154.4858186776514
 20
-17.28311716376445
 30
0.0
 11
-245.0668513924952
 21
-17.28311716376445
 31
0.0
  0
LINE
  5
E2
  8
LAYER0014
  6
CONTINUOUS
 62
     7
 10
-154.4858186776514
 20
122.7168828362356
 30
0.0
 11
-245.0668513924952
 21
122.7168828362356
 31
0.0
  0
TEXT
  5
E3
  8
LAYER0014
 62
     7
 10
-244.5836065448078
 20
43.116897457868
 30
0.0
 40
4.0
  1
φ140H7
 50
89.90000000000001
 41
0.7741935483870963
  7
FDASTYLE1
 72
     5
 11
-244.5500962401825
 21
62.31686821460311
 31
0.0
  0
ENDBLK
  5
57
  8
0
  0
BLOCK
  8
0
  2
DA_IMAGEDIMGROUP_4
 70
     0
 10
0.0
 20
0.0
 30
0.0
  3
DA_IMAGEDIMGROUP_4
  1

  0
LINE
  5
E4
  8
LAYER0014
  6
CONTINUOUS
 62
     7
 10
-254.8428523690577
 20
-32.28311716376445
 30
0.0
 11
-254.8428523690577
 21
137.7168828362356
 31
0.0
  0
INSERT
  5
E5
  8
LAYER0014
 62
     7
  2
_OPEN30
 10
-254.8428523690577
 20
-32.28311716376445
 30
0.0
 41
1.50000139391263
 42
1.499998500689492
 50
270.0
  0
INSERT
  5
E6
  8
LAYER0014
 62
     7
  2
_OPEN30
 10
-254.8428523690577
 20
137.7168828362356
 30
0.0
 41
1.50000139391263
 42
1.499998500689492
 50
90.0
  0
LINE
  5
E7
  8
LAYER0014
  6
CONTINUOUS
 62
     7
 10
-154.4858186776514
 20
-32.28311716376445
 30
0.0
 11
-255.8428523690575
 21
-32.28311716376445
 31
0.0
  0
LINE
  5
E8
  8
LAYER0014
  6
CONTINUOUS
 62
     7
 10
-154.4858186776514
 20
137.7168828362356
 30
0.0
 11
-255.8428523690575
 21
137.7168828362356
 31
0.0
  0
TEXT
  5
E9
  8
LAYER0014
 62
     7
 10
-255.3540224705994
 20
46.31689258399054
 30
0.0
 40
4.0
  1
φ170
 50
89.90000000000001
 41
0.7619047619047609
  7
FDASTYLE1
 72
     5
 11
-255.3316822675159
 21
59.1168730884806
 31
0.0
  0
ENDBLK
  5
5A
  8
0
  0
BLOCK
  8
0
  2
DA_IMAGEDIMGROUP_5
 70
     0
 10
0.0
 20
0.0
 30
0.0
  3
DA_IMAGEDIMGROUP_5
  1

  0
LINE
  5
EA
  8
LAYER0014
  6
CONTINUOUS
 62
     7
 10
-50.40583393644045
 20
9.716883789909872
 30
0.0
 11
-9.326963201272008
 21
9.716883789909872
 31
0.0
  0
LINE
  5
EB
  8
LAYER0014
  6
CONTINUOUS
 62
     7
 10
-11.61296249936771
 20
9.716883789909872
 30
0.0
 11
-11.61296249936771
 21
70.94736303032735
 31
0.0
  0
INSERT
  5
EC
  8
LAYER0014
 62
     7
  2
_OPEN30
 10
-11.61296249936771
 20
9.716883789909872
 30
0.0
 41
1.50000139391263
 42
1.499998500689492
 50
270.0
  0
TEXT
  5
ED
  8
LAYER0014
 62
     7
 10
-13.21296249936768
 20
45.24392136277059
 30
0.0
 40
4.0
  1
φ86
 50
90.0
 41
0.7499999999999996
  7
FDASTYLE1
 72
     5
 11
-13.21296249936768
 21
54.84392136277059
 31
0.0
  0
TEXT
  5
EE
  8
LAYER0014
 62
     7
 10
-15.71296249936768
 20
55.34392136277059
 30
0.0
 40
2.6
  1
+0.1
 50
90.0
 41
0.8
  7
FDASTYLE1
 72
     5
 11
-15.71296249936768
 21
63.66392136277059
 31
0.0
  0
TEXT
  5
EF
  8
LAYER0014
 62
     7
 10
-13.01296249936769
 20
55.34392136277059
 30
0.0
 40
2.6
  1
　0
 50
90.0
 41
0.7272727272727266
  7
FDASTYLE1
 72
     5
 11
-13.01296249936769
 21
59.50392136277058
 31
0.0
  0
ENDBLK
  5
5D
  8
0
  0
BLOCK
  8
0
  2
DA_IMAGEDIMGROUP_6
 70
     0
 10
0.0
 20
0.0
 30
0.0
  3
DA_IMAGEDIMGROUP_6
  1

  0
LINE
  5
F0
  8
LAYER0014
  6
CONTINUOUS
 62
     7
 10
-9.072962499367691
 20
52.71688283623556
 30
0.0
 11
1.449053391707423
 21
52.71688283623556
 31
0.0
  0
LINE
  5
F1
  8
LAYER0014
  6
CONTINUOUS
 62
     7
 10
-51.40583393644045
 20
92.71688283623556
 30
0.0
 11
1.449053391707423
 21
92.71688283623556
 31
0.0
  0
LINE
  5
F2
  8
LAYER0014
  6
CONTINUOUS
 62
     7
 10
-0.8369457871789905
 20
52.71688283623556
 30
0.0
 11
-0.8369457871789905
 21
92.71688283623556
 31
0.0
  0
INSERT
  5
F3
  8
LAYER0014
 62
     7
  2
_OPEN30
 10
-0.8369457871789905
 20
52.71688283623556
 30
0.0
 41
1.50000139391263
 42
1.499998500689492
 50
270.0
  0
INSERT
  5
F4
  8
LAYER0014
 62
     7
  2
_OPEN30
 10
-0.8369457871789905
 20
92.71688283623556
 30
0.0
 41
1.50000139391263
 42
1.499998500689492
 50
90.0
  0
TEXT
  5
F5
  8
LAYER0014
 62
     7
 10
-1.342530837949865
 20
69.51688771011303
 30
0.0
 40
4.0
  1
40
 50
89.90000000000001
 41
0.8000000000000007
  7
FDASTYLE1
 72
     5
 11
-1.331360736408116
 21
75.91687796235807
 31
0.0
  0
ENDBLK
  5
60
  8
0
  0
BLOCK
  8
0
  2
DA_IMAGEDIMGROUP_7
 70
     0
 10
0.0
 20
0.0
 30
0.0
  3
DA_IMAGEDIMGROUP_7
  1

  0
LINE
  5
F6
  8
LAYER0014
  6
CONTINUOUS
 62
     7
 10
-51.40583393644045
 20
137.7168828362356
 30
0.0
 11
1.449053391707423
 21
137.7168828362356
 31
0.0
  0
LINE
  5
F7
  8
LAYER0014
  6
CONTINUOUS
 62
     7
 10
-0.8369457871789905
 20
92.71688283623556
 30
0.0
 11
-0.8369457871789905
 21
137.7168828362356
 31
0.0
  0
INSERT
  5
F8
  8
LAYER0014
 62
     7
  2
_OPEN30
 10
-0.8369457871789905
 20
92.71688283623556
 30
0.0
 41
1.50000139391263
 42
1.499998500689492
 50
270.0
  0
INSERT
  5
F9
  8
LAYER0014
 62
     7
  2
_OPEN30
 10
-0.8369457871789905
 20
137.7168828362356
 30
0.0
 41
1.50000139391263
 42
1.499998500689492
 50
90.0
  0
TEXT
  5
FA
  8
LAYER0014
 62
     7
 10
-1.342530837949865
 20
112.016887710113
 30
0.0
 40
4.0
  1
45
 50
89.90000000000001
 41
0.8000000000000007
  7
FDASTYLE1
 72
     5
 11
-1.331360736408116
 21
118.4168779623581
 31
0.0
  0
ENDBLK
  5
63
  8
0
  0
BLOCK
  8
0
  2
DA_IMAGEDIMGROUP_8
 70
     0
 10
0.0
 20
0.0
 30
0.0
  3
DA_IMAGEDIMGROUP_8
  1

  0
LINE
  5
FB
  8
LAYER0014
  6
CONTINUOUS
 62
     7
 10
-163.9458186776514
 20
-7.208113577949014
 30
0.0
 11
-163.9458186776514
 21
-15.03722559271952
 31
0.0
  0
LINE
  5
FC
  8
LAYER0014
  6
CONTINUOUS
 62
     7
 10
-163.9458186776514
 20
-12.75122438727519
 30
0.0
 11
-147.9458186776514
 21
-12.75122438727519
 31
0.0
  0
INSERT
  5
FD
  8
LAYER0014
 62
     7
  2
_OPEN30
 10
-163.9458186776514
 20
-12.75122438727519
 30
0.0
 41
1.50000139391263
 42
1.499998500689492
 50
180.0
  0
INSERT
  5
FE
  8
LAYER0014
 62
     7
  2
_OPEN30
 10
-147.9458186776514
 20
-12.75122438727519
 30
0.0
 41
1.50000139391263
 42
1.499998500689492
 50
360.0
  0
TEXT
  5
FF
  8
LAYER0014
 62
     7
 10
-159.1458138037739
 20
-12.24563933650431
 30
0.0
 40
4.0
  1
16
 50
-0.1000000000000078
 41
0.7999999999999954
  7
FDASTYLE1
 72
     5
 11
-152.7458235515289
 21
-12.25680943804606
 31
0.0
  0
ENDBLK
  5
66
  8
0
  0
BLOCK
  8
0
  2
DA_IMAGEDIMGROUP_9
 70
     0
 10
0.0
 20
0.0
 30
0.0
  3
DA_IMAGEDIMGROUP_9
  1

  0
LINE
  5
100
  8
LAYER0014
  6
CONTINUOUS
 62
     7
 10
-166.4858186776514
 20
5.331885468376669
 30
0.0
 11
-180.9880244881983
 21
5.331885468376669
 31
0.0
  0
LINE
  5
101
  8
LAYER0014
  6
CONTINUOUS
 62
     7
 10
-166.4858186776514
 20
-4.668113577949015
 30
0.0
 11
-180.9880244881983
 21
-4.668113577949015
 31
0.0
  0
LINE
  5
102
  8
LAYER0014
  6
CONTINUOUS
 62
     7
 10
-178.7020290047998
 20
5.331885468376669
 30
0.0
 11
-178.7020290047998
 21
-4.668113577949015
 31
0.0
  0
LINE
  5
103
  8
LAYER0014
  6
CONTINUOUS
 62
     7
 10
-178.7020290047998
 20
-18.19996357794904
 30
0.0
 11
-178.7020290047998
 21
-4.668113577949015
 31
0.0
  0
INSERT
  5
104
  8
LAYER0014
 62
     7
  2
_OPEN30
 10
-178.7020290047998
 20
-4.668113577949015
 30
0.0
 41
1.50000139391263
 42
1.499998500689492
 50
90.0
  0
LINE
  5
105
  8
LAYER0014
  6
CONTINUOUS
 62
     7
 10
-178.7020290047998
 20
10.33188546837667
 30
0.0
 11
-178.7020290047998
 21
5.331885468376669
 31
0.0
  0
INSERT
  5
106
  8
LAYER0014
 62
     7
  2
_OPEN30
 10
-178.7020290047998
 20
5.331885468376669
 30
0.0
 41
1.50000139391263
 42
1.499998500689492
 50
270.0
  0
TEXT
  5
107
  8
LAYER0014
 62
     7
 10
-179.2187841571125
 20
-17.19994895631657
 30
0.0
 40
4.0
  1
M10
 50
89.90000000000001
 41
0.7999999999999993
  7
FDASTYLE1
 72
     5
 11
-179.2020290047998
 21
-7.599963577949016
 31
0.0
  0
ENDBLK
  5
69
  8
0
  0
BLOCK
  8
0
  2
DA_IMAGEDIMGROUP_10
 70
     0
 10
0.0
 20
0.0
 30
0.0
  3
DA_IMAGEDIMGROUP_10
  1

  0
LINE
  5
108
  8
LAYER0014
  6
CONTINUOUS
 62
     7
 10
-147.9458186776514
 20
98.02929891289571
 30
0.0
 11
-163.545824781167
 21
98.02929891289571
 31
0.0
  0
INSERT
  5
109
  8
LAYER0014
 62
     7
  2
_OPEN30
 10
-147.9458186776514
 20
98.02929891289571
 30
0.0
 41
1.50000139391263
 42
1.499998500689492
 50
360.0
  0
INSERT
  5
10A
  8
LAYER0014
 62
     7
  2
_OPEN30
 10
-163.545824781167
 20
98.02929891289571
 30
0.0
 41
1.50000139391263
 42
1.499998500689492
 50
180.0
  0
LINE
  5
10B
  8
LAYER0014
  6
CONTINUOUS
 62
     7
 10
-125.3504781172822
 20
98.02929891289571
 30
0.0
 11
-147.9458186776514
 21
98.02929891289571
 31
0.0
  0
TEXT
  5
10C
  8
LAYER0014
 62
     7
 10
-139.1504781172823
 20
98.52929891289571
 30
0.0
 40
4.0
  1
15.6
 41
0.7999999999999998
  7
FDASTYLE1
 72
     5
 11
-126.3504781172823
 21
98.52929891289571
 31
0.0
  0
ENDBLK
  5
6C
  8
0
  0
BLOCK
  8
0
  2
DA_IMAGEDIMGROUP_11
 70
     0
 10
0.0
 20
0.0
 30
0.0
  3
DA_IMAGEDIMGROUP_11
  1

  0
LINE
  5
10D
  8
LAYER0014
  6
CONTINUOUS
 62
     7
 10
-140.545824781167
 20
93.25688283623556
 30
0.0
 11
-140.545824781167
 21
115.8753453606496
 31
0.0
  0
LINE
  5
10E
  8
LAYER0014
  6
CONTINUOUS
 62
     7
 10
-163.545824781167
 20
74.75688283623555
 30
0.0
 11
-163.545824781167
 21
115.8753453606496
 31
0.0
  0
LINE
  5
10F
  8
LAYER0014
  6
CONTINUOUS
 62
     7
 10
-140.545824781167
 20
113.5893422478567
 30
0.0
 11
-163.545824781167
 21
113.5893422478567
 31
0.0
  0
INSERT
  5
110
  8
LAYER0014
 62
     7
  2
_OPEN30
 10
-140.545824781167
 20
113.5893422478567
 30
0.0
 41
1.50000139391263
 42
1.499998500689492
 50
360.0
  0
INSERT
  5
111
  8
LAYER0014
 62
     7
  2
_OPEN30
 10
-163.545824781167
 20
113.5893422478567
 30
0.0
 41
1.50000139391263
 42
1.499998500689492
 50
180.0
  0
TEXT
  5
112
  8
LAYER0014
 62
     7
 10
-155.245824781167
 20
114.0893422478567
 30
0.0
 40
4.0
  1
23
 41
0.7999999999999972
  7
FDASTYLE1
 72
     5
 11
-148.845824781167
 21
114.0893422478567
 31
0.0
  0
ENDBLK
  5
6F
  8
0
  0
BLOCK
  8
0
  2
DA_IMAGEDIMGROUP_12
 70
     0
 10
0.0
 20
0.0
 30
0.0
  3
DA_IMAGEDIMGROUP_12
  1

  0
LINE
  5
113
  8
LAYER0014
  6
CONTINUOUS
 62
     7
 10
-143.545824781167
 20
72.75688283623555
 30
0.0
 11
-143.545824781167
 21
107.7922078484426
 31
0.0
  0
LINE
  5
114
  8
LAYER0014
  6
CONTINUOUS
 62
     7
 10
-143.545824781167
 20
105.5062047356496
 30
0.0
 11
-163.545824781167
 21
105.5062047356496
 31
0.0
  0
INSERT
  5
115
  8
LAYER0014
 62
     7
  2
_OPEN30
 10
-143.545824781167
 20
105.5062047356496
 30
0.0
 41
1.50000139391263
 42
1.499998500689492
 50
360.0
  0
INSERT
  5
116
  8
LAYER0014
 62
     7
  2
_OPEN30
 10
-163.545824781167
 20
105.5062047356496
 30
0.0
 41
1.50000139391263
 42
1.499998500689492
 50
180.0
  0
TEXT
  5
117
  8
LAYER0014
 62
     7
 10
-154.810056000705
 20
106.0062047356496
 30
0.0
 40
4.0
  1
20
 41
0.7999999999999972
  7
FDASTYLE1
 72
     5
 11
-148.410056000705
 21
106.0062047356496
 31
0.0
  0
ENDBLK
  5
72
  8
0
  0
BLOCK
  8
0
  2
DA_IMAGEDIMGROUP_13
 70
     0
 10
0.0
 20
0.0
 30
0.0
  3
DA_IMAGEDIMGROUP_13
  1

  0
LINE
  5
118
  8
LAYER0014
  6
CONTINUOUS
 62
     7
 10
-156.1458308846827
 20
76.11779134453633
 30
0.0
 11
-156.1458308846827
 21
177.2032872551809
 31
0.0
  0
LINE
  5
119
  8
LAYER0014
  6
CONTINUOUS
 62
     7
 10
-176.1458308846827
 20
76.11779134453633
 30
0.0
 11
-176.1458308846827
 21
177.2032872551809
 31
0.0
  0
LINE
  5
11A
  8
LAYER0014
  6
CONTINUOUS
 62
     7
 10
-156.1458308846827
 20
174.9172917717824
 30
0.0
 11
-176.1458308846827
 21
174.9172917717824
 31
0.0
  0
LINE
  5
11B
  8
LAYER0014
  6
CONTINUOUS
 62
     7
 10
-202.4776808846826
 20
174.9172917717824
 30
0.0
 11
-176.1458308846827
 21
174.9172917717824
 31
0.0
  0
INSERT
  5
11C
  8
LAYER0014
 62
     7
  2
_OPEN30
 10
-176.1458308846827
 20
174.9172917717824
 30
0.0
 41
1.50000139391263
 42
1.499998500689492
 50
360.0
  0
LINE
  5
11D
  8
LAYER0014
  6
CONTINUOUS
 62
     7
 10
-151.1458308846827
 20
174.9172917717824
 30
0.0
 11
-156.1458308846827
 21
174.9172917717824
 31
0.0
  0
INSERT
  5
11E
  8
LAYER0014
 62
     7
  2
_OPEN30
 10
-156.1458308846827
 20
174.9172917717824
 30
0.0
 41
1.50000139391263
 42
1.499998500689492
 50
180.0
  0
TEXT
  5
11F
  8
LAYER0014
 62
     7
 10
-201.4776808846826
 20
175.4172917717824
 30
0.0
 40
4.0
  1
ｽﾄﾛｰｸ20
 41
0.8000000000000002
  7
FDASTYLE1
 72
     5
 11
-179.0776808846826
 21
175.4172917717824
 31
0.0
  0
ENDBLK
  5
75
  8
0
  0
BLOCK
  8
0
  2
DA_IMAGEDIMGROUP_14
 70
     0
 10
0.0
 20
0.0
 30
0.0
  3
DA_IMAGEDIMGROUP_14
  1

  0
LINE
  5
120
  8
LAYER0014
  6
CONTINUOUS
 62
     7
 10
-147.9458186776514
 20
125.2228786248098
 30
0.0
 11
-147.9458186776514
 21
165.0785771721731
 31
0.0
  0
LINE
  5
121
  8
LAYER0014
  6
CONTINUOUS
 62
     7
 10
-176.1458308846827
 20
162.7925816887746
 30
0.0
 11
-147.9458186776514
 21
162.7925816887746
 31
0.0
  0
LINE
  5
122
  8
LAYER0014
  6
CONTINUOUS
 62
     7
 10
-202.4776808846826
 20
162.7925816887746
 30
0.0
 11
-176.1458308846827
 21
162.7925816887746
 31
0.0
  0
INSERT
  5
123
  8
LAYER0014
 62
     7
  2
_OPEN30
 10
-176.1458308846827
 20
162.7925816887746
 30
0.0
 41
1.50000139391263
 42
1.499998500689492
 50
360.0
  0
LINE
  5
124
  8
LAYER0014
  6
CONTINUOUS
 62
     7
 10
-142.9458186776514
 20
162.7925816887746
 30
0.0
 11
-147.9458186776514
 21
162.7925816887746
 31
0.0
  0
INSERT
  5
125
  8
LAYER0014
 62
     7
  2
_OPEN30
 10
-147.9458186776514
 20
162.7925816887746
 30
0.0
 41
1.50000139391263
 42
1.499998500689492
 50
180.0
  0
TEXT
  5
126
  8
LAYER0014
 62
     7
 10
-201.4776467675403
 20
163.3316770441707
 30
0.0
 40
4.0
  1
MAX28.2
 50
-0.1000000000000078
 41
0.8000000000000005
  7
FDASTYLE1
 72
     5
 11
-179.0776808846826
 21
163.2925816887746
 31
0.0
  0
ENDBLK
  5
78
  8
0
  0
BLOCK
  8
0
  2
DC_GROUP_2
 70
     0
 10
0.0
 20
0.0
 30
0.0
  3
DC_GROUP_2
  1

  0
LINE
  5
127
  8
LAYER0014
  6
CONTINUOUS
 62
     7
 10
-43.69360984012059
 20
130.1758923566286
 30
0.0
 11
-27.83785206622764
 21
149.8989007294859
 31
0.0
  0
INSERT
  5
128
  8
LAYER0014
 62
     7
  2
_OPEN30
 10
-43.69360984012059
 20
130.1758923566286
 30
0.0
 41
1.50000139391263
 42
1.499998500689492
 50
231.2034374116924
  0
LINE
  5
129
  8
LAYER0014
  6
CONTINUOUS
 62
     7
 10
-27.83785511563968
 20
149.8989049309621
 30
0.0
 11
-18.25574566434574
 21
149.8989049309621
 31
0.0
  0
TEXT
  5
12A
  8
LAYER0014
 62
     7
 10
-26.48431469510746
 20
151.4989049309621
 30
0.0
 40
4.0
  1
M8
 41
0.7999999999999998
  7
FDASTYLE1
 72
     5
 11
-20.08431469510746
 21
151.4989049309621
 31
0.0
  0
ENDBLK
  5
7B
  8
0
  0
BLOCK
  8
0
  2
DA_IMAGEDIMGROUP_15
 70
     0
 10
0.0
 20
0.0
 30
0.0
  3
DA_IMAGEDIMGROUP_15
  1

  0
LINE
  5
12B
  8
LAYER0014
  6
CONTINUOUS
 62
     7
 10
-211.700609937417
 20
35.71688474358419
 30
0.0
 11
-211.700609937417
 21
69.71688283623556
 31
0.0
  0
INSERT
  5
12C
  8
LAYER0014
 62
     7
  2
_OPEN30
 10
-211.700609937417
 20
35.71688474358419
 30
0.0
 41
1.50000139391263
 42
1.499998500689492
 50
270.0
  0
INSERT
  5
12D
  8
LAYER0014
 62
     7
  2
_OPEN30
 10
-211.700609937417
 20
69.71688283623556
 30
0.0
 41
1.50000139391263
 42
1.499998500689492
 50
90.0
  0
LINE
  5
12E
  8
LAYER0014
  6
CONTINUOUS
 62
     7
 10
-166.085824781167
 20
35.71688474358419
 30
0.0
 11
-212.700609937417
 21
35.71688474358419
 31
0.0
  0
LINE
  5
12F
  8
LAYER0014
  6
CONTINUOUS
 62
     7
 10
-166.085824781167
 20
69.71688283623556
 30
0.0
 11
-212.700609937417
 21
69.71688283623556
 31
0.0
  0
TEXT
  5
130
  8
LAYER0014
 62
     7
 10
-212.2229501405005
 20
39.91690328541978
 30
0.0
 40
4.0
  1
M34×P1.5
 50
89.90000000000001
 41
0.7804878048780496
  7
FDASTYLE1
 72
     5
 11
-212.1782697343335
 21
65.51686429439997
 31
0.0
  0
ENDBLK
  5
7E
  8
0
  0
BLOCK
  8
0
  2
DA_IMAGEDIMGROUP_16
 70
     0
 10
0.0
 20
0.0
 30
0.0
  3
DA_IMAGEDIMGROUP_16
  1

  0
LINE
  5
131
  8
LAYER0014
  6
CONTINUOUS
 62
     7
 10
-34.40583393644045
 20
126.7168828362356
 30
0.0
 11
-10.61296249936771
 21
126.7168828362356
 31
0.0
  0
LINE
  5
132
  8
LAYER0014
  6
CONTINUOUS
 62
     7
 10
-11.61296249936771
 20
101.7168828362356
 30
0.0
 11
-11.61296249936771
 21
126.7168828362356
 31
0.0
  0
INSERT
  5
133
  8
LAYER0014
 62
     7
  2
_OPEN30
 10
-11.61296249936771
 20
101.7168828362356
 30
0.0
 41
1.50000139391263
 42
1.499998500689492
 50
270.0
  0
INSERT
  5
134
  8
LAYER0014
 62
     7
  2
_OPEN30
 10
-11.61296249936771
 20
126.7168828362356
 30
0.0
 41
1.50000139391263
 42
1.499998500689492
 50
90.0
  0
TEXT
  5
135
  8
LAYER0014
 62
     7
 10
-12.11296249936771
 20
111.0168828362356
 30
0.0
 40
4.0
  1
25
 50
90.0
 41
0.8000000000000007
  7
FDASTYLE1
 72
     5
 11
-12.11296249936771
 21
117.4168828362356
 31
0.0
  0
ENDBLK
  5
81
  8
0
  0
BLOCK
  8
0
  2
DA_IMAGEDIMGROUP_17
 70
     0
 10
0.0
 20
0.0
 30
0.0
  3
DA_IMAGEDIMGROUP_17
  1

  0
LINE
  5
136
  8
LAYER0014
  6
CONTINUOUS
 62
     7
 10
248.5520762704371
 20
52.71688283623556
 30
0.0
 11
259.136572730398
 21
52.71688283623556
 31
0.0
  0
LINE
  5
137
  8
LAYER0014
  6
CONTINUOUS
 62
     7
 10
231.9541017058131
 20
97.54135461549832
 30
0.0
 11
245.0932429102365
 21
105.1272475507958
 31
0.0
  0
ARC
  5
138
  8
LAYER0014
  6
CONTINUOUS
 62
     7
 10
154.3158787606714
 20
52.71688283623556
 30
0.0
 40
102.5346908569336
 50
0.0
 51
30.00001108010981
  0
INSERT
  5
139
  8
LAYER0014
 62
     7
  2
_OPEN30
 10
256.8505696176051
 20
52.71688283623556
 30
0.0
 41
1.50000139391263
 42
1.499998500689492
 50
270.4190959045782
  0
INSERT
  5
13A
  8
LAYER0014
 62
     7
  2
_OPEN30
 10
243.1135158976536
 20
103.9842454367809
 30
0.0
 41
1.50000139391263
 42
1.499998500689492
 50
119.5809151755326
  0
TEXT
  5
13B
  8
LAYER0014
 62
     7
 10
253.7782546270128
 20
83.86381646317916
 30
0.0
 40
4.0
  1
30ﾟ
 50
-74.99999999999997
 41
0.8000000000000026
  7
FDASTYLE1
 72
     5
 11
256.262917459997
 21
74.59092853080408
 31
0.0
  0
ENDBLK
  5
84
  8
0
  0
BLOCK
  8
0
  2
DC_GROUP_3
 70
     0
 10
0.0
 20
0.0
 30
0.0
  3
DC_GROUP_3
  1

  0
LINE
  5
13C
  8
LAYER0014
  6
CONTINUOUS
 62
     7
 10
148.9090186356591
 20
-7.045909959697809
 30
0.0
 11
121.4867402906388
 21
-47.23737422278711
 31
0.0
  0
INSERT
  5
13D
  8
LAYER0014
 62
     7
  2
_OPEN30
 10
148.9090186356591
 20
-7.045909959697809
 30
0.0
 41
1.50000139391263
 42
1.499998500689492
 50
55.69462983555972
  0
LINE
  5
13E
  8
LAYER0014
  6
CONTINUOUS
 62
     7
 10
121.4867390511988
 20
-47.23737131415507
 30
0.0
 11
89.81151474699956
 21
-47.23737131415507
 31
0.0
  0
TEXT
  5
13F
  8
LAYER0014
 62
     7
 10
92.55437000975591
 20
-45.63737131415508
 30
0.0
 40
4.0
  1
PCD104.77
 41
0.7999999999999999
  7
FDASTYLE1
 72
     5
 11
121.3543700097559
 21
-45.63737131415508
 31
0.0
  0
ENDBLK
  5
87
  8
0
  0
BLOCK
  8
0
  2
DA_IMAGEDIMGROUP_18
 70
     0
 10
0.0
 20
0.0
 30
0.0
  3
DA_IMAGEDIMGROUP_18
  1

  0
LINE
  5
140
  8
LAYER0014
  6
CONTINUOUS
 62
     7
 10
234.5425605559454
 20
6.398022858453276
 30
0.0
 11
245.0932983761438
 21
0.3065439422048542
 31
0.0
  0
ARC
  5
141
  8
LAYER0014
  6
CONTINUOUS
 62
     7
 10
154.3158787606714
 20
52.71688283623556
 30
0.0
 40
102.5346908569336
 50
330.0000025802685
 51
360.0
  0
INSERT
  5
142
  8
LAYER0014
 62
     7
  2
_OPEN30
 10
243.1135281207428
 20
1.449541406698138
 30
0.0
 41
1.50000139391263
 42
1.499998500689492
 50
240.4190984848459
  0
INSERT
  5
143
  8
LAYER0014
 62
     7
  2
_OPEN30
 10
256.8505696176051
 20
52.71688283623553
 30
0.0
 41
1.50000139391263
 42
1.499998500689492
 50
89.5809040954218
  0
TEXT
  5
144
  8
LAYER0014
 62
     7
 10
250.6872919828878
 20
22.3981863660834
 30
0.0
 40
4.0
  1
30ﾟ
 50
75.0
 41
0.7999999999999993
  7
FDASTYLE1
 72
     5
 11
253.1719548158719
 21
31.67107429845845
 31
0.0
  0
ENDBLK
  5
8A
  8
0
  0
BLOCK
  8
0
  2
DC_GROUP_4
 70
     0
 10
0.0
 20
0.0
 30
0.0
  3
DC_GROUP_4
  1

  0
LINE
  5
145
  8
LAYER0014
  6
CONTINUOUS
 62
     7
 10
156.202276122314
 20
13.25818721492399
 30
0.0
 11
182.2248927153512
 21
-47.02206489452962
 31
0.0
  0
INSERT
  5
146
  8
LAYER0014
 62
     7
  2
_OPEN30
 10
156.202276122314
 20
13.25818721492399
 30
0.0
 41
1.50000139391263
 42
1.499998500689492
 50
113.3495624565124
  0
LINE
  5
147
  8
LAYER0014
  6
CONTINUOUS
 62
     7
 10
182.2248906014918
 20
-47.02206217108866
 30
0.0
 11
217.3710545419214
 21
-47.02206217108866
 31
0.0
  0
TEXT
  5
148
  8
LAYER0014
 62
     7
 10
183.5424870370386
 20
-45.42206217108867
 30
0.0
 40
4.0
  1
3-M6 PCD74
 41
0.8
  7
FDASTYLE1
 72
     5
 11
215.5424870370386
 21
-45.42206217108867
 31
0.0
  0
ENDBLK
  5
8D
  8
0
  0
BLOCK
  8
0
  2
DC_GROUP_5
 70
     0
 10
0.0
 20
0.0
 30
0.0
  3
DC_GROUP_5
  1

  0
LINE
  5
149
  8
0
  6
CONTINUOUS
 62
     6
 10
-117.8606395881436
 20
96.51170124591623
 30
0.0
 11
-117.4595875951621
 21
96.74784495271186
 31
0.0
  0
LINE
  5
14A
  8
0
  6
CONTINUOUS
 62
     6
 10
-117.4595875951621
 20
96.74784495271186
 30
0.0
 11
-117.057691743064
 21
96.98206034643356
 31
0.0
  0
LINE
  5
14B
  8
0
  6
CONTINUOUS
 62
     6
 10
-117.057691743064
 20
96.98206034643356
 30
0.0
 11
-116.654108172733
 21
97.21241911400728
 31
0.0
  0
LINE
  5
14C
  8
0
  6
CONTINUOUS
 62
     6
 10
-116.654108172733
 20
97.21241911400728
 30
0.0
 11
-116.2479930250523
 21
97.43699294235917
 31
0.0
  0
LINE
  5
14D
  8
0
  6
CONTINUOUS
 62
     6
 10
-116.2479930250523
 20
97.43699294235917
 30
0.0
 11
-115.8385024409056
 21
97.65385351841528
 31
0.0
  0
LINE
  5
14E
  8
0
  6
CONTINUOUS
 62
     6
 10
-115.8385024409056
 20
97.65385351841528
 30
0.0
 11
-115.4247925611763
 21
97.86107252910155
 31
0.0
  0
LINE
  5
14F
  8
0
  6
CONTINUOUS
 62
     6
 10
-115.4247925611763
 20
97.86107252910155
 30
0.0
 11
-115.0060195267479
 21
98.05672166134413
 31
0.0
  0
LINE
  5
150
  8
0
  6
CONTINUOUS
 62
     6
 10
-115.0060195267479
 20
98.05672166134413
 30
0.0
 11
-114.5813394785039
 21
98.23887260206899
 31
0.0
  0
LINE
  5
151
  8
0
  6
CONTINUOUS
 62
     6
 10
-114.5813394785039
 20
98.23887260206899
 30
0.0
 11
-114.1499085573278
 21
98.40559703820225
 31
0.0
  0
LINE
  5
152
  8
0
  6
CONTINUOUS
 62
     6
 10
-114.1499085573278
 20
98.40559703820225
 30
0.0
 11
-113.710882904103
 21
98.55496665666988
 31
0.0
  0
LINE
  5
153
  8
0
  6
CONTINUOUS
 62
     6
 10
-113.710882904103
 20
98.55496665666988
 30
0.0
 11
-113.263418659713
 21
98.68505314439796
 31
0.0
  0
LINE
  5
154
  8
0
  6
CONTINUOUS
 62
     6
 10
-113.263418659713
 20
98.68505314439796
 30
0.0
 11
-112.8070730908151
 21
98.79390705883333
 31
0.0
  0
LINE
  5
155
  8
0
  6
CONTINUOUS
 62
     6
 10
-112.8070730908151
 20
98.79390705883333
 30
0.0
 11
-112.3436106294112
 21
98.87946269400283
 31
0.0
  0
LINE
  5
156
  8
0
  6
CONTINUOUS
 62
     6
 10
-112.3436106294112
 20
98.87946269400283
 30
0.0
 11
-111.8755508225427
 21
98.93961456791149
 31
0.0
  0
LINE
  5
157
  8
0
  6
CONTINUOUS
 62
     6
 10
-111.8755508225427
 20
98.93961456791149
 30
0.0
 11
-111.4054138778588
 21
98.97225716376654
 31
0.0
  0
LINE
  5
158
  8
0
  6
CONTINUOUS
 62
     6
 10
-111.4054138778588
 20
98.97225716376654
 30
0.0
 11
-110.9357200030086
 21
98.97528496477521
 31
0.0
  0
LINE
  5
159
  8
0
  6
CONTINUOUS
 62
     6
 10
-110.9357200030086
 20
98.97528496477521
 30
0.0
 11
-110.4689894056413
 21
98.94659245414474
 31
0.0
  0
LINE
  5
15A
  8
0
  6
CONTINUOUS
 62
     6
 10
-110.4689894056413
 20
98.94659245414474
 30
0.0
 11
-110.0077422934058
 21
98.8840741150823
 31
0.0
  0
LINE
  5
15B
  8
0
  6
CONTINUOUS
 62
     6
 10
-110.0077422934058
 20
98.8840741150823
 30
0.0
 11
-109.5544988739515
 21
98.78562443079517
 31
0.0
  0
LINE
  5
15C
  8
0
  6
CONTINUOUS
 62
     6
 10
-109.5544988739515
 20
98.78562443079517
 30
0.0
 11
-109.1117503355015
 21
98.6492033464137
 31
0.0
  0
LINE
  5
15D
  8
0
  6
CONTINUOUS
 62
     6
 10
-109.1117503355015
 20
98.6492033464137
 30
0.0
 11
-108.6801173151328
 21
98.47699039004475
 31
0.0
  0
LINE
  5
15E
  8
0
  6
CONTINUOUS
 62
     6
 10
-108.6801173151328
 20
98.47699039004475
 30
0.0
 11
-108.2572441454553
 21
98.27787902738805
 31
0.0
  0
LINE
  5
15F
  8
0
  6
CONTINUOUS
 62
     6
 10
-108.2572441454553
 20
98.27787902738805
 30
0.0
 11
-107.8405099230535
 21
98.06136104267777
 31
0.0
  0
LINE
  5
160
  8
0
  6
CONTINUOUS
 62
     6
 10
-107.8405099230535
 20
98.06136104267777
 30
0.0
 11
-107.427293744511
 21
97.83692822014805
 31
0.0
  0
LINE
  5
161
  8
0
  6
CONTINUOUS
 62
     6
 10
-107.427293744511
 20
97.83692822014805
 30
0.0
 11
-107.014974706412
 21
97.61407234403302
 31
0.0
  0
LINE
  5
162
  8
0
  6
CONTINUOUS
 62
     6
 10
-107.014974706412
 20
97.61407234403302
 30
0.0
 11
-106.6009319053406
 21
97.4022851985669
 31
0.0
  0
LINE
  5
163
  8
0
  6
CONTINUOUS
 62
     6
 10
-106.6009319053406
 20
97.4022851985669
 30
0.0
 11
-106.1825444378809
 21
97.21105856798381
 31
0.0
  0
LINE
  5
164
  8
0
  6
CONTINUOUS
 62
     6
 10
-106.1825444378809
 20
97.21105856798381
 30
0.0
 11
-105.7571914006169
 21
97.04988423651791
 31
0.0
  0
LINE
  5
165
  8
0
  6
CONTINUOUS
 62
     6
 10
-105.7571914006169
 20
97.04988423651791
 30
0.0
 11
-105.3222518901326
 21
96.92825398840338
 31
0.0
  0
LINE
  5
166
  8
0
  6
CONTINUOUS
 62
     6
 10
-105.3222518901326
 20
96.92825398840338
 30
0.0
 11
-104.8758640942203
 21
96.85379115558739
 31
0.0
  0
LINE
  5
167
  8
0
  6
CONTINUOUS
 62
     6
 10
-104.8758640942203
 20
96.85379115558739
 30
0.0
 11
-104.4199037546853
 21
96.82491933055773
 31
0.0
  0
LINE
  5
168
  8
0
  6
CONTINUOUS
 62
     6
 10
-104.4199037546853
 20
96.82491933055773
 30
0.0
 11
-103.9573949881662
 21
96.83723545788315
 31
0.0
  0
LINE
  5
169
  8
0
  6
CONTINUOUS
 62
     6
 10
-103.9573949881662
 20
96.83723545788315
 30
0.0
 11
-103.4913622212877
 21
96.88633571912301
 31
0.0
  0
LINE
  5
16A
  8
0
  6
CONTINUOUS
 62
     6
 10
-103.4913622212877
 20
96.88633571912301
 30
0.0
 11
-103.0248298806743
 21
96.96781629583667
 31
0.0
  0
LINE
  5
16B
  8
0
  6
CONTINUOUS
 62
     6
 10
-103.0248298806743
 20
96.96781629583667
 30
0.0
 11
-102.5608223929505
 21
97.07727336958354
 31
0.0
  0
LINE
  5
16C
  8
0
  6
CONTINUOUS
 62
     6
 10
-102.5608223929505
 20
97.07727336958354
 30
0.0
 11
-102.1023641847411
 21
97.21030312192303
 31
0.0
  0
LINE
  5
16D
  8
0
  6
CONTINUOUS
 62
     6
 10
-102.1023641847411
 20
97.21030312192303
 30
0.0
 11
-101.6524742231075
 21
97.36250485600297
 31
0.0
  0
LINE
  5
16E
  8
0
  6
CONTINUOUS
 62
     6
 10
-101.6524742231075
 20
97.36250485600297
 30
0.0
 11
-101.2129488445302
 21
97.53017693265696
 31
0.0
  0
LINE
  5
16F
  8
0
  6
CONTINUOUS
 62
     6
 10
-101.2129488445302
 20
97.53017693265696
 30
0.0
 11
-100.7828237972465
 21
97.71119612115906
 31
0.0
  0
LINE
  5
170
  8
0
  6
CONTINUOUS
 62
     6
 10
-100.7828237972465
 20
97.71119612115906
 30
0.0
 11
-100.360756176786
 21
97.90365569124519
 31
0.0
  0
LINE
  5
171
  8
0
  6
CONTINUOUS
 62
     6
 10
-100.360756176786
 20
97.90365569124519
 30
0.0
 11
-99.94540307867788
 21
98.10564891265139
 31
0.0
  0
LINE
  5
172
  8
0
  6
CONTINUOUS
 62
     6
 10
-99.94540307867788
 20
98.10564891265139
 30
0.0
 11
-99.53542159845188
 21
98.31526905511363
 31
0.0
  0
LINE
  5
173
  8
0
  6
CONTINUOUS
 62
     6
 10
-99.53542159845188
 20
98.31526905511363
 30
0.0
 11
-99.12946883163744
 21
98.53060938836794
 31
0.0
  0
LINE
  5
174
  8
0
  6
CONTINUOUS
 62
     6
 10
-99.12946883163744
 20
98.53060938836794
 30
0.0
 11
-98.72620187376396
 21
98.74976318215025
 31
0.0
  0
LINE
  5
175
  8
0
  6
CONTINUOUS
 62
     6
 10
-98.72620187376396
 20
98.74976318215025
 30
0.0
 11
-98.32427782036103
 21
98.97082370619656
 31
0.0
  0
ENDBLK
  5
90
  8
0
  0
BLOCK
  8
0
  2
DA_IMAGEDIMGROUP_19
 70
     0
 10
0.0
 20
0.0
 30
0.0
  3
DA_IMAGEDIMGROUP_19
  1

  0
LINE
  5
176
  8
0
  6
CONTINUOUS
 62
     7
 10
-100.9458186776514
 20
-36.76525474495616
 30
0.0
 11
-100.9458186776514
 21
-46.49632368593733
 31
0.0
  0
LINE
  5
177
  8
0
  6
CONTINUOUS
 62
     7
 10
-147.9458186776514
 20
-18.28311716376445
 30
0.0
 11
-147.9458186776514
 21
-46.49632368593733
 31
0.0
  0
LINE
  5
178
  8
0
  6
CONTINUOUS
 62
     7
 10
-147.9458186776514
 20
-45.49632368593733
 30
0.0
 11
-100.9458186776514
 21
-45.49632368593733
 31
0.0
  0
INSERT
  5
179
  8
0
 62
     7
  2
_OPEN30
 10
-147.9458186776514
 20
-45.49632368593733
 30
0.0
 41
1.50000139391263
 42
1.499998500689492
 50
180.0
  0
INSERT
  5
17A
  8
0
 62
     7
  2
_OPEN30
 10
-100.9458186776514
 20
-45.49632368593733
 30
0.0
 41
1.50000139391263
 42
1.499998500689492
 50
360.0
  0
TEXT
  5
17B
  8
0
 62
     7
 10
-127.6458186776514
 20
-44.99632368593733
 30
0.0
 40
4.0
  1
47
 41
0.8000000000000007
  7
FDASTYLE1
 72
     5
 11
-121.2458186776514
 21
-44.99632368593733
 31
0.0
  0
ENDBLK
  5
93
  8
0
  0
BLOCK
  8
0
  2
DA_IMAGEDIMGROUP_20
 70
     0
 10
0.0
 20
0.0
 30
0.0
  3
DA_IMAGEDIMGROUP_20
  1

  0
LINE
  5
17C
  8
0
  6
CONTINUOUS
 62
     7
 10
-151.9458186776514
 20
-33.28311716376445
 30
0.0
 11
-151.9458186776514
 21
-56.49632368593733
 31
0.0
  0
LINE
  5
17D
  8
0
  6
CONTINUOUS
 62
     7
 10
-147.9458186776514
 20
-18.28311716376445
 30
0.0
 11
-147.9458186776514
 21
-56.49632368593733
 31
0.0
  0
LINE
  5
17E
  8
0
  6
CONTINUOUS
 62
     7
 10
-151.9458186776514
 20
-55.49632368593733
 30
0.0
 11
-147.9458186776514
 21
-55.49632368593733
 31
0.0
  0
LINE
  5
17F
  8
0
  6
CONTINUOUS
 62
     7
 10
-52.94583393644047
 20
-31.78311716376445
 30
0.0
 11
-52.94583393644047
 21
-56.49632368593733
 31
0.0
  0
LINE
  5
180
  8
0
  6
CONTINUOUS
 62
     7
 10
-147.9458186776514
 20
-55.49632368593733
 30
0.0
 11
-52.94583393644047
 21
-55.49632368593733
 31
0.0
  0
INSERT
  5
181
  8
0
 62
     7
  2
_OPEN30
 10
-147.9458186776514
 20
-55.49632368593733
 30
0.0
 41
1.50000139391263
 42
1.499998500689492
 50
180.0
  0
INSERT
  5
182
  8
0
 62
     7
  2
_OPEN30
 10
-52.94583393644047
 20
-55.49632368593733
 30
0.0
 41
1.50000139391263
 42
1.499998500689492
 50
360.0
  0
LINE
  5
183
  8
0
  6
CONTINUOUS
 62
     7
 10
-159.0776686776514
 20
-55.49632368593733
 30
0.0
 11
-151.9458186776514
 21
-55.49632368593733
 31
0.0
  0
INSERT
  5
184
  8
0
 62
     7
  2
_OPEN30
 10
-151.9458186776514
 20
-55.49632368593733
 30
0.0
 41
1.50000139391263
 42
1.499998500689492
 50
360.0
  0
TEXT
  5
185
  8
0
 62
     7
 10
-158.0776686776513
 20
-54.99632368593733
 30
0.0
 40
4.0
  1
4
 41
0.7999999999999972
  7
FDASTYLE1
 72
     5
 11
-154.8776686776513
 21
-54.99632368593733
 31
0.0
  0
TEXT
  5
186
  8
0
 62
     7
 10
-103.6458263070459
 20
-54.99632368593733
 30
0.0
 40
4.0
  1
95
 41
0.8000000000000007
  7
FDASTYLE1
 72
     5
 11
-97.24582630704593
 21
-54.99632368593733
 31
0.0
  0
ENDBLK
  5
96
  8
0
  0
BLOCK
  8
0
  2
DA_IMAGEDIMGROUP_21
 70
     0
 10
0.0
 20
0.0
 30
0.0
  3
DA_IMAGEDIMGROUP_21
  1

  0
LINE
  5
187
  8
0
  6
CONTINUOUS
 62
     7
 10
83.83776096977685
 20
2.788549014960019
 30
0.0
 11
72.39591343466731
 21
-3.817405645518402
 31
0.0
  0
LINE
  5
188
  8
0
  6
CONTINUOUS
 62
     7
 10
75.83776002466102
 20
16.6449552119893
 30
0.0
 11
64.39591248955148
 21
10.03900055151087
 31
0.0
  0
LINE
  5
189
  8
0
  6
CONTINUOUS
 62
     7
 10
73.26193880875627
 20
-3.317405594084331
 30
0.0
 11
65.26193786364044
 21
10.53900060294495
 31
0.0
  0
INSERT
  5
18A
  8
0
 62
     7
  2
_OPEN30
 10
73.26193880875627
 20
-3.317405594084331
 30
0.0
 41
1.50000139391263
 42
1.499998500689492
 50
300.0000034028507
  0
INSERT
  5
18B
  8
0
 62
     7
  2
_OPEN30
 10
65.26193786364044
 20
10.53900060294495
 30
0.0
 41
1.50000139391263
 42
1.499998500689492
 50
120.0000034028507
  0
TEXT
  5
18C
  8
0
 62
     7
 10
67.29495077635932
 20
8.017719325774367
 30
0.0
 40
4.0
  1
φ16
 50
-59.99999659714933
 41
0.7499999999999998
  7
FDASTYLE1
 72
     5
 11
72.09495127012637
 21
-0.2961242654796781
 31
0.0
  0
ENDBLK
  5
99
  8
0
  0
BLOCK
  8
0
  2
DA_IMAGEDIMGROUP_22
 70
     0
 10
0.0
 20
0.0
 30
0.0
  3
DA_IMAGEDIMGROUP_22
  1

  0
LINE
  5
18D
  8
0
  6
CONTINUOUS
 62
     7
 10
148.8161991952418
 20
138.7168828362356
 30
0.0
 11
148.8161991952418
 21
147.3712881783256
 31
0.0
  0
LINE
  5
18E
  8
0
  6
CONTINUOUS
 62
     7
 10
159.8161991952418
 20
138.7168828362356
 30
0.0
 11
159.8161991952418
 21
147.3712881783256
 31
0.0
  0
LINE
  5
18F
  8
0
  6
CONTINUOUS
 62
     7
 10
148.8161991952418
 20
146.3712881783256
 30
0.0
 11
159.8161991952418
 21
146.3712881783256
 31
0.0
  0
LINE
  5
190
  8
0
  6
CONTINUOUS
 62
     7
 10
184.1909520289821
 20
146.3712881783256
 30
0.0
 11
159.8161991952418
 21
146.3712881783256
 31
0.0
  0
INSERT
  5
191
  8
0
 62
     7
  2
_OPEN30
 10
159.8161991952418
 20
146.3712881783256
 30
0.0
 41
1.50000139391263
 42
1.499998500689492
 50
180.0
  0
LINE
  5
192
  8
0
  6
CONTINUOUS
 62
     7
 10
143.8161991952418
 20
146.3712881783256
 30
0.0
 11
148.8161991952418
 21
146.3712881783256
 31
0.0
  0
INSERT
  5
193
  8
0
 62
     7
  2
_OPEN30
 10
148.8161991952418
 20
146.3712881783256
 30
0.0
 41
1.50000139391263
 42
1.499998500689492
 50
360.0
  0
TEXT
  5
194
  8
0
 62
     7
 10
170.3909520289821
 20
146.8712881783256
 30
0.0
 40
4.0
  1
11H8
 41
0.8000000000000007
  7
FDASTYLE1
 72
     5
 11
183.1909520289821
 21
146.8712881783256
 31
0.0
  0
ENDBLK
  5
9C
  8
0
  0
BLOCK
  8
0
  2
DA_IMAGEDIMGROUP_23
 70
     0
 10
0.0
 20
0.0
 30
0.0
  3
DA_IMAGEDIMGROUP_23
  1

  0
LINE
  5
195
  8
0
  6
CONTINUOUS
 62
     7
 10
140.3161916647848
 20
138.7168749514613
 30
0.0
 11
140.3161916647848
 21
157.8712881783256
 31
0.0
  0
LINE
  5
196
  8
0
  6
CONTINUOUS
 62
     7
 10
168.3161991952418
 20
138.716875206841
 30
0.0
 11
168.3161991952418
 21
157.8712881783256
 31
0.0
  0
LINE
  5
197
  8
0
  6
CONTINUOUS
 62
     7
 10
140.3161916647848
 20
156.8712881783256
 30
0.0
 11
168.3161991952418
 21
156.8712881783256
 31
0.0
  0
INSERT
  5
198
  8
0
 62
     7
  2
_OPEN30
 10
140.3161916647848
 20
156.8712881783256
 30
0.0
 41
1.50000139391263
 42
1.499998500689492
 50
180.0
  0
INSERT
  5
199
  8
0
 62
     7
  2
_OPEN30
 10
168.3161991952418
 20
156.8712881783256
 30
0.0
 41
1.50000139391263
 42
1.499998500689492
 50
360.0
  0
TEXT
  5
19A
  8
0
 62
     7
 10
151.1161954300133
 20
157.3712881783256
 30
0.0
 40
4.0
  1
28
 41
0.7999999999999972
  7
FDASTYLE1
 72
     5
 11
157.5161954300133
 21
157.3712881783256
 31
0.0
  0
ENDBLK
  5
9F
  8
0
  0
BLOCK
  8
0
  2
DA_IMAGEDIMGROUP_24
 70
     0
 10
0.0
 20
0.0
 30
0.0
  3
DA_IMAGEDIMGROUP_24
  1

  0
LINE
  5
19B
  8
LAYER0014
  6
CONTINUOUS
 62
     7
 10
-49.40583012174318
 20
67.71689046563009
 30
0.0
 11
-20.48782660077762
 21
67.71689046563009
 31
0.0
  0
LINE
  5
19C
  8
LAYER0014
  6
CONTINUOUS
 62
     7
 10
-49.40583012174318
 20
37.71689046563009
 30
0.0
 11
-20.48782660077762
 21
37.71689046563009
 31
0.0
  0
LINE
  5
19D
  8
LAYER0014
  6
CONTINUOUS
 62
     7
 10
-22.7738273293848
 20
67.71689046563009
 30
0.0
 11
-22.7738273293848
 21
37.71689046563009
 31
0.0
  0
INSERT
  5
19E
  8
LAYER0014
 62
     7
  2
_OPEN30
 10
-22.7738273293848
 20
67.71689046563009
 30
0.0
 41
1.50000139391263
 42
1.499998500689492
 50
90.0
  0
INSERT
  5
19F
  8
LAYER0014
 62
     7
  2
_OPEN30
 10
-22.7738273293848
 20
37.71689046563009
 30
0.0
 41
1.50000139391263
 42
1.499998500689492
 50
270.0
  0
TEXT
  5
1A0
  8
LAYER0014
 62
     7
 10
-23.28220490554111
 20
48.21964490104104
 30
0.0
 40
4.0
  1
φ30
 50
89.90000000000001
 41
0.7500000000000001
  7
FDASTYLE1
 72
     5
 11
-23.26544975322849
 21
57.81963027940861
 31
0.0
  0
ENDBLK
  5
A2
  8
0
  0
BLOCK
  8
0
  2
DA_IMAGEDIMGROUP_25
 70
     0
 10
0.0
 20
0.0
 30
0.0
  3
DA_IMAGEDIMGROUP_25
  1

  0
LINE
  5
1A1
  8
LAYER0014
  6
CONTINUOUS
 62
     7
 10
-69.98583012174316
 20
85.21688283623556
 30
0.0
 11
-79.65653492521
 21
85.21688283623556
 31
0.0
  0
LINE
  5
1A2
  8
LAYER0014
  6
CONTINUOUS
 62
     7
 10
-75.10472683801135
 20
20.21688927353719
 30
0.0
 11
-79.65653492521
 21
20.21688927353719
 31
0.0
  0
LINE
  5
1A3
  8
LAYER0014
  6
CONTINUOUS
 62
     7
 10
-77.37053562711429
 20
85.21688283623556
 30
0.0
 11
-77.37053562711429
 21
20.21688927353719
 31
0.0
  0
INSERT
  5
1A4
  8
LAYER0014
 62
     7
  2
_OPEN30
 10
-77.37053562711429
 20
85.21688283623556
 30
0.0
 41
1.50000139391263
 42
1.499998500689492
 50
90.0
  0
INSERT
  5
1A5
  8
LAYER0014
 62
     7
  2
_OPEN30
 10
-77.37053562711429
 20
20.21688927353719
 30
0.0
 41
1.50000139391263
 42
1.499998500689492
 50
270.0
  0
TEXT
  5
1A6
  8
LAYER0014
 62
     7
 10
-78.98369795358667
 20
45.17683683249965
 30
0.0
 40
4.0
  1
φ65H7
 50
89.90000000000001
 41
0.7692307692307688
  7
FDASTYLE1
 72
     5
 11
-78.95577269973229
 21
61.17681246311224
 31
0.0
  0
ENDBLK
  5
A5
  8
0
  0
BLOCK
  8
0
  2
DA_IMAGEDIMGROUP_26
 70
     0
 10
0.0
 20
0.0
 30
0.0
  3
DA_IMAGEDIMGROUP_26
  1

  0
LINE
  5
1A7
  8
LAYER0014
  6
CONTINUOUS
 62
     7
 10
-87.93436695646
 20
62.71689046563009
 30
0.0
 11
-87.93436695646
 21
42.71689046563009
 31
0.0
  0
INSERT
  5
1A8
  8
LAYER0014
 62
     7
  2
_OPEN30
 10
-87.93436695646
 20
62.71689046563009
 30
0.0
 41
1.50000139391263
 42
1.499998500689492
 50
90.0
  0
INSERT
  5
1A9
  8
LAYER0014
 62
     7
  2
_OPEN30
 10
-87.93436695646
 20
42.71689046563009
 30
0.0
 41
1.50000139391263
 42
1.499998500689492
 50
270.0
  0
TEXT
  5
1AA
  8
LAYER0014
 62
     7
 10
-89.55077060693051
 20
43.31969686695692
 30
0.0
 40
3.5
  1
φ20H7g6
 50
89.90000000000001
 41
0.7777777777777775
  7
FDASTYLE1
 72
     5
 11
-89.51656217095891
 21
62.91966701445735
 31
0.0
  0
ENDBLK
  5
A8
  8
0
  0
BLOCK
  8
0
  2
DA_IMAGEDIMGROUP_27
 70
     0
 10
0.0
 20
0.0
 30
0.0
  3
DA_IMAGEDIMGROUP_27
  1

  0
LINE
  5
1AB
  8
0
  6
CONTINUOUS
 62
     7
 10
-176.9458110482569
 20
39.71689046563009
 30
0.0
 11
-203.200609937417
 21
39.71689046563009
 31
0.0
  0
LINE
  5
1AC
  8
0
  6
CONTINUOUS
 62
     7
 10
-176.9458110482569
 20
65.71689046563009
 30
0.0
 11
-203.200609937417
 21
65.71689046563009
 31
0.0
  0
LINE
  5
1AD
  8
0
  6
CONTINUOUS
 62
     7
 10
-202.200609937417
 20
39.71689046563009
 30
0.0
 11
-202.200609937417
 21
65.71689046563009
 31
0.0
  0
INSERT
  5
1AE
  8
0
 62
     7
  2
_OPEN30
 10
-202.200609937417
 20
39.71689046563009
 30
0.0
 41
1.50000139391263
 42
1.499998500689492
 50
270.0
  0
INSERT
  5
1AF
  8
0
 62
     7
  2
_OPEN30
 10
-202.200609937417
 20
65.71689046563009
 30
0.0
 41
1.50000139391263
 42
1.499998500689492
 50
90.0
  0
TEXT
  5
1B0
  8
0
 62
     7
 10
-202.700609937417
 20
44.71689046563007
 30
0.0
 40
4.0
  1
φ26
 50
90.0
 41
0.7500000000000018
  7
FDASTYLE1
 72
     5
 11
-202.700609937417
 21
54.31689046563009
 31
0.0
  0
TEXT
  5
1B1
  8
0
 62
     7
 10
-205.200609937417
 20
54.81689046563009
 30
0.0
 40
2.6
  1
 0
 50
90.0
 41
0.7999999999999993
  7
FDASTYLE1
 72
     5
 11
-205.200609937417
 21
58.97689046563009
 31
0.0
  0
TEXT
  5
1B2
  8
0
 62
     7
 10
-202.500609937417
 20
54.81689046563009
 30
0.0
 40
2.6
  1
-0.1
 50
90.0
 41
0.7999999999999993
  7
FDASTYLE1
 72
     5
 11
-202.500609937417
 21
63.13689046563008
 31
0.0
  0
ENDBLK
  5
AB
  8
0
  0
BLOCK
  8
0
  2
DA_IMAGEDIMGROUP_28
 70
     0
 10
0.0
 20
0.0
 30
0.0
  3
DA_IMAGEDIMGROUP_28
  1

  0
LINE
  5
1B3
  8
0
  6
CONTINUOUS
 62
     7
 10
-137.0318864828623
 20
48.71689046563009
 30
0.0
 11
-137.0318864828623
 21
56.71689046563009
 31
0.0
  0
INSERT
  5
1B4
  8
0
 62
     7
  2
_OPEN30
 10
-137.0318864828623
 20
48.71689046563009
 30
0.0
 41
1.50000139391263
 42
1.499998500689492
 50
270.0
  0
INSERT
  5
1B5
  8
0
 62
     7
  2
_OPEN30
 10
-137.0318864828623
 20
56.71689046563009
 30
0.0
 41
1.50000139391263
 42
1.499998500689492
 50
90.0
  0
TEXT
  5
1B6
  8
0
 62
     7
 10
-137.5318864828623
 20
49.5168904656301
 30
0.0
 40
4.0
  1
φ8
 50
90.0
 41
0.7272727272727246
  7
FDASTYLE1
 72
     5
 11
-137.5318864828623
 21
55.91689046563008
 31
0.0
  0
ENDBLK
  5
AE
  8
0
  0
BLOCK
  8
0
  2
DA_IMAGEDIMGROUP_29
 70
     0
 10
0.0
 20
0.0
 30
0.0
  3
DA_IMAGEDIMGROUP_29
  1

  0
LINE
  5
1B7
  8
0
  6
CONTINUOUS
 62
     7
 10
-99.65296910394483
 20
37.71689046563009
 30
0.0
 11
-99.65296910394483
 21
67.71689046563009
 31
0.0
  0
INSERT
  5
1B8
  8
0
 62
     7
  2
_OPEN30
 10
-99.65296910394483
 20
37.71689046563009
 30
0.0
 41
1.50000139391263
 42
1.499998500689492
 50
270.0
  0
INSERT
  5
1B9
  8
0
 62
     7
  2
_OPEN30
 10
-99.65296910394483
 20
67.71689046563009
 30
0.0
 41
1.50000139391263
 42
1.499998500689492
 50
90.0
  0
TEXT
  5
1BA
  8
0
 62
     7
 10
-100.1529691039448
 20
47.91689046563009
 30
0.0
 40
4.0
  1
φ30
 50
90.0
 41
0.7499999999999996
  7
FDASTYLE1
 72
     5
 11
-100.1529691039448
 21
57.51689046563008
 31
0.0
  0
ENDBLK
  5
B1
  8
0
  0
BLOCK
  8
0
  2
DA_IMAGEDIMGROUP_30
 70
     0
 10
0.0
 20
0.0
 30
0.0
  3
DA_IMAGEDIMGROUP_30
  1

  0
LINE
  5
1BB
  8
0
  6
CONTINUOUS
 62
     7
 10
-51.9458301217432
 20
68.71689046563009
 30
0.0
 11
-51.9458301217432
 21
75.59608583333971
 31
0.0
  0
LINE
  5
1BC
  8
0
  6
CONTINUOUS
 62
     7
 10
-52.9458301217432
 20
74.59608583333971
 30
0.0
 11
-51.9458301217432
 21
74.59608583333971
 31
0.0
  0
LINE
  5
1BD
  8
0
  6
CONTINUOUS
 62
     7
 10
-44.81398012174316
 20
74.59608583333971
 30
0.0
 11
-51.9458301217432
 21
74.59608583333971
 31
0.0
  0
INSERT
  5
1BE
  8
0
 62
     7
  2
_OPEN30
 10
-51.9458301217432
 20
74.59608583333971
 30
0.0
 41
1.50000139391263
 42
1.499998500689492
 50
180.0
  0
LINE
  5
1BF
  8
0
  6
CONTINUOUS
 62
     7
 10
-57.9458301217432
 20
74.59608583333971
 30
0.0
 11
-52.9458301217432
 21
74.59608583333971
 31
0.0
  0
INSERT
  5
1C0
  8
0
 62
     7
  2
_OPEN30
 10
-52.9458301217432
 20
74.59608583333971
 30
0.0
 41
1.50000139391263
 42
1.499998500689492
 50
360.0
  0
TEXT
  5
1C1
  8
0
 62
     7
 10
-49.01398012174315
 20
75.09608583333971
 30
0.0
 40
4.0
  1
1
 41
0.8000000000000007
  7
FDASTYLE1
 72
     5
 11
-45.81398012174314
 21
75.09608583333971
 31
0.0
  0
ENDBLK
  5
B4
  8
0
  0
BLOCK
  8
0
  2
DA_IMAGEDIMGROUP_31
 70
     0
 10
0.0
 20
0.0
 30
0.0
  3
DA_IMAGEDIMGROUP_31
  1

  0
ARC
  5
1C2
  8
0
  6
CONTINUOUS
 62
     7
 10
-43.75931761960248
 20
52.71689549173416
 30
0.0
 40
11.81113185740266
 50
150.0000027410345
 51
210.0000113743439
  0
INSERT
  5
1C3
  8
0
 62
     7
  2
_OPEN30
 10
-53.98805813808359
 20
58.62246093109177
 30
0.0
 41
1.50000139391263
 42
1.499998500689492
 50
63.63825431032123
  0
INSERT
  5
1C4
  8
0
 62
     7
  2
_OPEN30
 10
-53.98805668318919
 20
46.81132753242599
 30
0.0
 41
1.50000139391263
 42
1.499998500689492
 50
296.3617598050572
  0
TEXT
  5
1C5
  8
0
 62
     7
 10
-56.07044888574148
 20
47.91689397525003
 30
0.0
 40
4.0
  1
60°
 50
90.0000070576892
 41
0.7499999999999997
  7
FDASTYLE1
 72
     5
 11
-56.07045006826866
 21
57.51689397524996
 31
0.0
  0
ENDBLK
  5
B7
  8
0
  0
BLOCK
  8
0
  2
DA_IMAGEDIMGROUP_32
 70
     0
 10
0.0
 20
0.0
 30
0.0
  3
DA_IMAGEDIMGROUP_32
  1

  0
LINE
  5
1C6
  8
0
  6
CONTINUOUS
 62
     7
 10
-151.9458186776514
 20
-33.28311716376445
 30
0.0
 11
-151.9458186776514
 21
-66.49632368593733
 31
0.0
  0
LINE
  5
1C7
  8
0
  6
CONTINUOUS
 62
     7
 10
-198.759806409585
 20
47.71689046563009
 30
0.0
 11
-198.759806409585
 21
-66.49632368593733
 31
0.0
  0
LINE
  5
1C8
  8
0
  6
CONTINUOUS
 62
     7
 10
-52.9458301217432
 20
-31.78310953436991
 30
0.0
 11
-52.9458301217432
 21
-66.49632368593733
 31
0.0
  0
LINE
  5
1C9
  8
0
  6
CONTINUOUS
 62
     7
 10
-198.759806409585
 20
-65.49632368593733
 30
0.0
 11
-151.9458186776514
 21
-65.49632368593733
 31
0.0
  0
INSERT
  5
1CA
  8
0
 62
     7
  2
_OPEN30
 10
-198.759806409585
 20
-65.49632368593733
 30
0.0
 41
1.50000139391263
 42
1.499998500689492
 50
180.0
  0
INSERT
  5
1CB
  8
0
 62
     7
  2
_OPEN30
 10
-151.9458186776514
 20
-65.49632368593733
 30
0.0
 41
1.50000139391263
 42
1.499998500689492
 50
360.0
  0
LINE
  5
1CC
  8
0
  6
CONTINUOUS
 62
     7
 10
-151.9458186776514
 20
-65.49632368593733
 30
0.0
 11
-52.9458301217432
 21
-65.49632368593733
 31
0.0
  0
INSERT
  5
1CD
  8
0
 62
     7
  2
_OPEN30
 10
-151.9458186776514
 20
-65.49632368593733
 30
0.0
 41
1.50000139391263
 42
1.499998500689492
 50
180.0
  0
INSERT
  5
1CE
  8
0
 62
     7
  2
_OPEN30
 10
-52.9458301217432
 20
-65.49632368593733
 30
0.0
 41
1.50000139391263
 42
1.499998500689492
 50
360.0
  0
TEXT
  5
1CF
  8
0
 62
     7
 10
-180.1528125436182
 20
-64.99632368593733
 30
0.0
 40
4.0
  1
約47
 41
0.7500000000000018
  7
FDASTYLE1
 72
     5
 11
-170.5528125436182
 21
-64.99632368593733
 31
0.0
  0
TEXT
  5
1D0
  8
0
 62
     7
 10
-105.6458243996973
 20
-64.99632368593733
 30
0.0
 40
4.0
  1
99
 41
0.8000000000000007
  7
FDASTYLE1
 72
     5
 11
-99.2458243996973
 21
-64.99632368593733
 31
0.0
  0
ENDBLK
  5
BA
  8
0
  0
BLOCK
  8
0
  2
DA_IMAGEDIMGROUP_33
 70
     0
 10
0.0
 20
0.0
 30
0.0
  3
DA_IMAGEDIMGROUP_33
  1

  0
LINE
  5
1D1
  8
0
  6
CONTINUOUS
 62
     7
 10
-55.9458301217432
 20
-16.83984026193704
 30
0.0
 11
-52.9458301217432
 21
-16.83984026193704
 31
0.0
  0
LINE
  5
1D2
  8
0
  6
CONTINUOUS
 62
     7
 10
-55.9458301217432
 20
8.716890465630087
 30
0.0
 11
-55.9458301217432
 21
-17.83984026193704
 31
0.0
  0
LINE
  5
1D3
  8
0
  6
CONTINUOUS
 62
     7
 10
-45.17795630492623
 20
-16.83984026193704
 30
0.0
 11
-52.9458301217432
 21
-16.83984026193704
 31
0.0
  0
INSERT
  5
1D4
  8
0
 62
     7
  2
_OPEN30
 10
-52.9458301217432
 20
-16.83984026193704
 30
0.0
 41
1.50000139391263
 42
1.499998500689492
 50
180.0
  0
LINE
  5
1D5
  8
0
  6
CONTINUOUS
 62
     7
 10
-60.9458301217432
 20
-16.83984026193704
 30
0.0
 11
-55.9458301217432
 21
-16.83984026193704
 31
0.0
  0
INSERT
  5
1D6
  8
0
 62
     7
  2
_OPEN30
 10
-55.9458301217432
 20
-16.83984026193704
 30
0.0
 41
1.50000139391263
 42
1.499998500689492
 50
360.0
  0
TEXT
  5
1D7
  8
0
 62
     7
 10
-49.37795630492627
 20
-16.33984026193704
 30
0.0
 40
4.0
  1
3
 41
0.8000000000000007
  7
FDASTYLE1
 72
     5
 11
-46.17795630492627
 21
-16.33984026193704
 31
0.0
  0
ENDBLK
  5
BD
  8
0
  0
BLOCK
  8
0
  2
DA_IMAGEDIMGROUP_34
 70
     0
 10
0.0
 20
0.0
 30
0.0
  3
DA_IMAGEDIMGROUP_34
  1

  0
LINE
  5
1D8
  8
0
  6
CONTINUOUS
 62
     7
 10
-63.4458301217432
 20
8.716890465630087
 30
0.0
 11
-63.4458301217432
 21
-27.83984026193704
 31
0.0
  0
LINE
  5
1D9
  8
0
  6
CONTINUOUS
 62
     7
 10
-63.4458301217432
 20
-26.83984026193704
 30
0.0
 11
-52.94583264619149
 21
-26.83984026193704
 31
0.0
  0
LINE
  5
1DA
  8
0
  6
CONTINUOUS
 62
     7
 10
-36.21398264619154
 20
-26.83984026193704
 30
0.0
 11
-52.94583264619149
 21
-26.83984026193704
 31
0.0
  0
INSERT
  5
1DB
  8
0
 62
     7
  2
_OPEN30
 10
-52.94583264619149
 20
-26.83984026193704
 30
0.0
 41
1.50000139391263
 42
1.499998500689492
 50
180.0
  0
LINE
  5
1DC
  8
0
  6
CONTINUOUS
 62
     7
 10
-68.4458301217432
 20
-26.83984026193704
 30
0.0
 11
-63.4458301217432
 21
-26.83984026193704
 31
0.0
  0
INSERT
  5
1DD
  8
0
 62
     7
  2
_OPEN30
 10
-63.4458301217432
 20
-26.83984026193704
 30
0.0
 41
1.50000139391263
 42
1.499998500689492
 50
360.0
  0
TEXT
  5
1DE
  8
0
 62
     7
 10
-50.01398264619155
 20
-26.33984026193704
 30
0.0
 40
4.0
  1
10.5
 41
0.7999999999999998
  7
FDASTYLE1
 72
     5
 11
-37.21398264619155
 21
-26.33984026193704
 31
0.0
  0
ENDBLK
  5
C0
  8
0
  0
BLOCK
  8
0
  2
DC_GROUP_6
 70
     0
 10
0.0
 20
0.0
 30
0.0
  3
DC_GROUP_6
  1

  0
LINE
  5
1DF
  8
0
  6
CONTINUOUS
 62
     7
 10
157.6933813663638
 20
27.1712015011482
 30
0.0
 11
204.2274659012666
 21
-32.20713261126173
 31
0.0
  0
INSERT
  5
1E0
  8
0
 62
     7
  2
_OPEN30
 10
157.6933813663638
 20
27.1712015011482
 30
0.0
 41
1.50000139391263
 42
1.499998500689492
 50
128.085371124789
  0
LINE
  5
1E1
  8
0
  6
CONTINUOUS
 62
     7
 10
204.2274659012666
 20
-32.20713261126173
 30
0.0
 11
236.2274659012666
 21
-32.20713261126173
 31
0.0
  0
TEXT
  5
1E2
  8
0
 62
     7
 10
204.2274659012666
 20
-31.70713261126173
 30
0.0
 40
4.0
  1
3-M5 PCD46
 41
0.8
  7
FDASTYLE1
 72
     5
 11
236.2274659012666
 21
-31.70713261126173
 31
0.0
  0
ENDBLK
  5
C3
  8
0
  0
BLOCK
  8
0
  2
DC_GROUP_7
 70
     0
 10
0.0
 20
0.0
 30
0.0
  3
DC_GROUP_7
  1

  0
LINE
  5
1E3
  8
0
  6
CONTINUOUS
 62
     7
 10
-100.9458186776514
 20
-32.28311716376445
 30
0.0
 11
-51.33151613941965
 21
-81.14689207230208
 31
0.0
  0
INSERT
  5
1E4
  8
0
 62
     7
  2
_OPEN30
 10
-100.9458186776514
 20
-32.28311716376445
 30
0.0
 41
1.50000139391263
 42
1.499998500689492
 50
135.4366579259096
  0
LINE
  5
1E5
  8
0
  6
CONTINUOUS
 62
     7
 10
-51.33151613941965
 20
-81.14689207230208
 30
0.0
 11
-35.33151613941965
 21
-81.14689207230208
 31
0.0
  0
TEXT
  5
1E6
  8
0
 62
     7
 10
-51.33151613941965
 20
-81.14689207230208
 30
0.0
 40
4.0
  1
M8×16
 41
0.7692307692307692
  7
FDASTYLE1
 72
     5
 11
-35.33151613941965
 21
-81.14689207230208
 31
0.0
  0
ENDBLK
  5
C6
  8
0
  0
BLOCK
  8
0
  2
_OPEN30
 70
     0
 10
0.0
 20
0.0
 30
0.0
  3
_OPEN30
  1

  0
LINE
  5
CB
  8
0
  6
BYBLOCK
 62
     0
 10
-1.0
 20
0.267949
 30
0.0
 11
0.0
 21
0.0
 31
0.0
  0
LINE
  5
CC
  8
0
  6
BYBLOCK
 62
     0
 10
0.0
 20
0.0
 30
0.0
 11
-1.0
 21
-0.267949
 31
0.0
  0
LINE
  5
CD
  8
0
  6
BYBLOCK
 62
     0
 10
0.0
 20
0.0
 30
0.0
 11
-1.0
 21
0.0
 31
0.0
  0
ENDBLK
  5
CA
  8
0
  0
ENDSEC
  0
SECTION
  2
ENTITIES
  0
LINE
  5
1E7
  8
ZUWAKU
  6
CONTINUOUS
 62
     3
 10
-277.0
 20
-190.0
 30
0.0
 11
-277.0
 21
190.0
 31
0.0
  0
LINE
  5
1E8
  8
ZUWAKU
  6
CONTINUOUS
 62
     3
 10
277.0
 20
-190.0
 30
0.0
 11
277.0
 21
190.0
 31
0.0
  0
LINE
  5
1E9
  8
ZUWAKU
  6
CONTINUOUS
 62
     3
 10
-277.0
 20
-190.0
 30
0.0
 11
277.0
 21
-190.0
 31
0.0
  0
LINE
  5
1EA
  8
ZUWAKU
  6
CONTINUOUS
 62
     3
 10
-277.0
 20
189.9999999999999
 30
0.0
 11
277.0
 21
189.9999999999999
 31
0.0
  0
LINE
  5
1EB
  8
ZUWAKU
  6
CONTINUOUS
 62
     3
 10
97.00000000000001
 20
-190.0
 30
0.0
 11
97.00000000000001
 21
-130.0
 31
0.0
  0
LINE
  5
1EC
  8
ZUWAKU
  6
CONTINUOUS
 62
     3
 10
97.00000000000001
 20
-176.0
 30
0.0
 11
277.0
 21
-176.0
 31
0.0
  0
LINE
  5
1ED
  8
ZUWAKU
  6
CONTINUOUS
 62
     3
 10
146.0
 20
-162.0
 30
0.0
 11
277.0
 21
-162.0
 31
0.0
  0
LINE
  5
1EE
  8
ZUWAKU
  6
CONTINUOUS
 62
     3
 10
146.0
 20
-148.0
 30
0.0
 11
277.0
 21
-148.0
 31
0.0
  0
LINE
  5
1EF
  8
ZUWAKU
  6
CONTINUOUS
 62
     3
 10
146.0
 20
-138.0
 30
0.0
 11
277.0
 21
-138.0
 31
0.0
  0
LINE
  5
1F0
  8
ZUWAKU
  6
CONTINUOUS
 62
     3
 10
146.0
 20
-176.0
 30
0.0
 11
146.0
 21
-130.0
 31
0.0
  0
LINE
  5
1F1
  8
ZUWAKU
  6
CONTINUOUS
 62
     3
 10
255.0
 20
-176.0
 30
0.0
 11
255.0
 21
-130.0
 31
0.0
  0
LINE
  5
1F2
  8
ZUWAKU
  6
CONTINUOUS
 62
     3
 10
171.0
 20
-190.0
 30
0.0
 11
171.0
 21
-176.0
 31
0.0
  0
LINE
  5
1F3
  8
ZUWAKU
  6
CONTINUOUS
 62
     3
 10
262.0
 20
-188.0
 30
0.0
 11
272.0
 21
-188.0
 31
0.0
  0
LINE
  5
1F4
  8
ZUWAKU
  6
CONTINUOUS
 62
     3
 10
267.0
 20
-178.0
 30
0.0
 11
262.0
 21
-188.0
 31
0.0
  0
LINE
  5
1F5
  8
ZUWAKU
  6
CONTINUOUS
 62
     3
 10
267.0
 20
-178.0
 30
0.0
 11
272.0
 21
-188.0
 31
0.0
  0
LINE
  5
1F6
  8
ZUWAKU
  6
CONTINUOUS
 62
     3
 10
97.00000000000001
 20
-130.0
 30
0.0
 11
277.0
 21
-130.0
 31
0.0
  0
LINE
  5
1F7
  8
ZUWAKU
  6
CONTINUOUS
 62
     3
 10
226.0
 20
-176.0
 30
0.0
 11
226.0
 21
-148.0
 31
0.0
  0
LINE
  5
1F8
  8
ZUWAKU
  6
CONTINUOUS
 62
     3
 10
-277.0
 20
-190.0
 30
0.0
 11
-277.0
 21
190.0
 31
0.0
  0
LINE
  5
1F9
  8
ZUWAKU
  6
CONTINUOUS
 62
     3
 10
277.0
 20
-190.0
 30
0.0
 11
277.0
 21
190.0
 31
0.0
  0
LINE
  5
1FA
  8
ZUWAKU
  6
CONTINUOUS
 62
     3
 10
-277.0
 20
-190.0
 30
0.0
 11
277.0
 21
-190.0
 31
0.0
  0
LINE
  5
1FB
  8
ZUWAKU
  6
CONTINUOUS
 62
     3
 10
-277.0
 20
189.9999999999999
 30
0.0
 11
277.0
 21
189.9999999999999
 31
0.0
  0
LINE
  5
1FC
  8
ZUWAKU
  6
CONTINUOUS
 62
     3
 10
97.00000000000001
 20
-190.0
 30
0.0
 11
97.00000000000001
 21
-130.0
 31
0.0
  0
LINE
  5
1FD
  8
ZUWAKU
  6
CONTINUOUS
 62
     3
 10
97.00000000000001
 20
-176.0
 30
0.0
 11
277.0
 21
-176.0
 31
0.0
  0
LINE
  5
1FE
  8
ZUWAKU
  6
CONTINUOUS
 62
     3
 10
146.0
 20
-162.0
 30
0.0
 11
277.0
 21
-162.0
 31
0.0
  0
LINE
  5
1FF
  8
ZUWAKU
  6
CONTINUOUS
 62
     3
 10
146.0
 20
-148.0
 30
0.0
 11
277.0
 21
-148.0
 31
0.0
  0
LINE
  5
200
  8
ZUWAKU
  6
CONTINUOUS
 62
     3
 10
146.0
 20
-138.0
 30
0.0
 11
277.0
 21
-138.0
 31
0.0
  0
LINE
  5
201
  8
ZUWAKU
  6
CONTINUOUS
 62
     3
 10
146.0
 20
-176.0
 30
0.0
 11
146.0
 21
-130.0
 31
0.0
  0
LINE
  5
202
  8
ZUWAKU
  6
CONTINUOUS
 62
     3
 10
255.0
 20
-176.0
 30
0.0
 11
255.0
 21
-130.0
 31
0.0
  0
LINE
  5
203
  8
ZUWAKU
  6
CONTINUOUS
 62
     3
 10
171.0
 20
-190.0
 30
0.0
 11
171.0
 21
-176.0
 31
0.0
  0
LINE
  5
204
  8
ZUWAKU
  6
CONTINUOUS
 62
     3
 10
262.0
 20
-188.0
 30
0.0
 11
272.0
 21
-188.0
 31
0.0
  0
LINE
  5
205
  8
ZUWAKU
  6
CONTINUOUS
 62
     3
 10
267.0
 20
-178.0
 30
0.0
 11
262.0
 21
-188.0
 31
0.0
  0
LINE
  5
206
  8
ZUWAKU
  6
CONTINUOUS
 62
     3
 10
267.0
 20
-178.0
 30
0.0
 11
272.0
 21
-188.0
 31
0.0
  0
LINE
  5
207
  8
ZUWAKU
  6
CONTINUOUS
 62
     3
 10
97.00000000000001
 20
-130.0
 30
0.0
 11
277.0
 21
-130.0
 31
0.0
  0
LINE
  5
208
  8
ZUWAKU
  6
CONTINUOUS
 62
     3
 10
226.0
 20
-176.0
 30
0.0
 11
226.0
 21
-148.0
 31
0.0
  0
LINE
  5
209
  8
ZUWAKU
  6
CONTINUOUS
 62
     4
 10
105.0
 20
-172.0
 30
0.0
 11
105.0
 21
-130.0
 31
0.0
  0
LINE
  5
20A
  8
ZUWAKU
  6
CONTINUOUS
 62
     4
 10
109.0
 20
-172.0
 30
0.0
 11
109.0
 21
-130.0
 31
0.0
  0
LINE
  5
20B
  8
ZUWAKU
  6
CONTINUOUS
 62
     4
 10
121.5
 20
-176.0
 30
0.0
 11
121.5
 21
-130.0
 31
0.0
  0
LINE
  5
20C
  8
ZUWAKU
  6
CONTINUOUS
 62
     4
 10
97.00000000000001
 20
-137.0
 30
0.0
 11
146.0
 21
-137.0
 31
0.0
  0
LINE
  5
20D
  8
ZUWAKU
  6
CONTINUOUS
 62
     4
 10
97.00000000000001
 20
-144.0
 30
0.0
 11
146.0
 21
-144.0
 31
0.0
  0
LINE
  5
20E
  8
ZUWAKU
  6
CONTINUOUS
 62
     4
 10
97.00000000000001
 20
-165.0
 30
0.0
 11
146.0
 21
-165.0
 31
0.0
  0
LINE
  5
20F
  8
ZUWAKU
  6
CONTINUOUS
 62
     4
 10
97.00000000000001
 20
-172.0
 30
0.0
 11
146.0
 21
-172.0
 31
0.0
  0
LINE
  5
210
  8
ZUWAKU
  6
CONTINUOUS
 62
     4
 10
255.0
 20
-166.0
 30
0.0
 11
277.0
 21
-166.0
 31
0.0
  0
LINE
  5
211
  8
ZUWAKU
  6
CONTINUOUS
 62
     4
 10
202.0
 20
-148.0
 30
0.0
 11
202.0
 21
-146.5
 31
0.0
  0
LINE
  5
212
  8
ZUWAKU
  6
CONTINUOUS
 62
     4
 10
226.0
 20
-148.0
 30
0.0
 11
226.0
 21
-146.5
 31
0.0
  0
LINE
  5
213
  8
ZUWAKU
  6
CONTINUOUS
 62
     4
 10
243.0
 20
-148.0
 30
0.0
 11
243.0
 21
-146.5
 31
0.0
  0
LINE
  5
214
  8
ZUWAKU
  6
CONTINUOUS
 62
     4
 10
97.00000000000001
 20
-151.0
 30
0.0
 11
146.0
 21
-151.0
 31
0.0
  0
LINE
  5
215
  8
ZUWAKU
  6
CONTINUOUS
 62
     4
 10
97.00000000000001
 20
-158.0
 30
0.0
 11
146.0
 21
-158.0
 31
0.0
  0
LINE
  5
216
  8
ZUWAKU
  6
CONTINUOUS
 62
     4
 10
101.0
 20
-130.5
 30
0.0
 11
98.00000000000001
 21
-136.5
 31
0.0
  0
LINE
  5
217
  8
ZUWAKU
  6
CONTINUOUS
 62
     4
 10
101.0
 20
-130.5
 30
0.0
 11
104.0
 21
-136.5
 31
0.0
  0
LINE
  5
218
  8
ZUWAKU
  6
CONTINUOUS
 62
     4
 10
98.00000000000001
 20
-136.5
 30
0.0
 11
104.0
 21
-136.5
 31
0.0
  0
LINE
  5
219
  8
ZUWAKU
  6
CONTINUOUS
 62
     4
 10
101.0
 20
-158.5
 30
0.0
 11
98.00000000000001
 21
-164.5
 31
0.0
  0
LINE
  5
21A
  8
ZUWAKU
  6
CONTINUOUS
 62
     4
 10
101.0
 20
-158.5
 30
0.0
 11
104.0
 21
-164.5
 31
0.0
  0
LINE
  5
21B
  8
ZUWAKU
  6
CONTINUOUS
 62
     4
 10
98.00000000000001
 20
-164.5
 30
0.0
 11
104.0
 21
-164.5
 31
0.0
  0
LINE
  5
21C
  8
ZUWAKU
  6
CONTINUOUS
 62
     4
 10
101.0
 20
-151.5
 30
0.0
 11
98.00000000000001
 21
-157.5
 31
0.0
  0
LINE
  5
21D
  8
ZUWAKU
  6
CONTINUOUS
 62
     4
 10
101.0
 20
-151.5
 30
0.0
 11
104.0
 21
-157.5
 31
0.0
  0
LINE
  5
21E
  8
ZUWAKU
  6
CONTINUOUS
 62
     4
 10
98.00000000000001
 20
-157.5
 30
0.0
 11
104.0
 21
-157.5
 31
0.0
  0
LINE
  5
21F
  8
ZUWAKU
  6
CONTINUOUS
 62
     4
 10
101.0
 20
-144.5
 30
0.0
 11
98.00000000000001
 21
-150.5
 31
0.0
  0
LINE
  5
220
  8
ZUWAKU
  6
CONTINUOUS
 62
     4
 10
101.0
 20
-144.5
 30
0.0
 11
104.0
 21
-150.5
 31
0.0
  0
LINE
  5
221
  8
ZUWAKU
  6
CONTINUOUS
 62
     4
 10
98.00000000000001
 20
-150.5
 30
0.0
 11
104.0
 21
-150.5
 31
0.0
  0
LINE
  5
222
  8
ZUWAKU
  6
CONTINUOUS
 62
     4
 10
101.0
 20
-137.5
 30
0.0
 11
98.00000000000001
 21
-143.5
 31
0.0
  0
LINE
  5
223
  8
ZUWAKU
  6
CONTINUOUS
 62
     4
 10
101.0
 20
-137.5
 30
0.0
 11
104.0
 21
-143.5
 31
0.0
  0
LINE
  5
224
  8
ZUWAKU
  6
CONTINUOUS
 62
     4
 10
98.00000000000001
 20
-143.5
 30
0.0
 11
104.0
 21
-143.5
 31
0.0
  0
LINE
  5
225
  8
ZUWAKU
  6
CONTINUOUS
 62
     4
 10
172.6666666666666
 20
-176.0
 30
0.0
 11
172.6666666666666
 21
-162.0
 31
0.0
  0
LINE
  5
226
  8
ZUWAKU
  6
CONTINUOUS
 62
     4
 10
199.3333333333333
 20
-176.0
 30
0.0
 11
199.3333333333333
 21
-161.9509415757253
 31
0.0
  0
LINE
  5
227
  8
ZUWAKU
  6
CONTINUOUS
 62
     4
 10
212.6666666666666
 20
-167.5
 30
0.0
 11
212.6666666666666
 21
-161.9509415757253
 31
0.0
  0
LINE
  5
228
  8
ZUWAKU
  6
CONTINUOUS
 62
     4
 10
226.0
 20
-155.0
 30
0.0
 11
255.0
 21
-155.0
 31
0.0
  0
LINE
  5
229
  8
ZUWAKU
  6
CONTINUOUS
 62
     4
 10
146.0
 20
-166.0
 30
0.0
 11
226.0
 21
-166.0
 31
0.0
  0
LINE
  5
22A
  8
ZUWAKU
  6
CONTINUOUS
 62
     4
 10
105.0
 20
-172.0
 30
0.0
 11
105.0
 21
-130.0
 31
0.0
  0
LINE
  5
22B
  8
ZUWAKU
  6
CONTINUOUS
 62
     4
 10
109.0
 20
-172.0
 30
0.0
 11
109.0
 21
-130.0
 31
0.0
  0
LINE
  5
22C
  8
ZUWAKU
  6
CONTINUOUS
 62
     4
 10
121.5
 20
-176.0
 30
0.0
 11
121.5
 21
-130.0
 31
0.0
  0
LINE
  5
22D
  8
ZUWAKU
  6
CONTINUOUS
 62
     4
 10
97.00000000000001
 20
-137.0
 30
0.0
 11
146.0
 21
-137.0
 31
0.0
  0
LINE
  5
22E
  8
ZUWAKU
  6
CONTINUOUS
 62
     4
 10
97.00000000000001
 20
-144.0
 30
0.0
 11
146.0
 21
-144.0
 31
0.0
  0
LINE
  5
22F
  8
ZUWAKU
  6
CONTINUOUS
 62
     4
 10
97.00000000000001
 20
-165.0
 30
0.0
 11
146.0
 21
-165.0
 31
0.0
  0
LINE
  5
230
  8
ZUWAKU
  6
CONTINUOUS
 62
     4
 10
97.00000000000001
 20
-172.0
 30
0.0
 11
146.0
 21
-172.0
 31
0.0
  0
LINE
  5
231
  8
ZUWAKU
  6
CONTINUOUS
 62
     4
 10
255.0
 20
-166.0
 30
0.0
 11
277.0
 21
-166.0
 31
0.0
  0
LINE
  5
232
  8
ZUWAKU
  6
CONTINUOUS
 62
     4
 10
153.0
 20
-139.5
 30
0.0
 11
153.0
 21
-130.0
 31
0.0
  0
LINE
  5
233
  8
ZUWAKU
  6
CONTINUOUS
 62
     4
 10
202.0
 20
-148.0
 30
0.0
 11
202.0
 21
-146.5
 31
0.0
  0
LINE
  5
234
  8
ZUWAKU
  6
CONTINUOUS
 62
     4
 10
226.0
 20
-148.0
 30
0.0
 11
226.0
 21
-146.5
 31
0.0
  0
LINE
  5
235
  8
ZUWAKU
  6
CONTINUOUS
 62
     4
 10
243.0
 20
-148.0
 30
0.0
 11
243.0
 21
-146.5
 31
0.0
  0
LINE
  5
236
  8
ZUWAKU
  6
CONTINUOUS
 62
     4
 10
202.0
 20
-139.5
 30
0.0
 11
202.0
 21
-130.0
 31
0.0
  0
LINE
  5
237
  8
ZUWAKU
  6
CONTINUOUS
 62
     4
 10
226.0
 20
-139.5
 30
0.0
 11
226.0
 21
-130.0
 31
0.0
  0
LINE
  5
238
  8
ZUWAKU
  6
CONTINUOUS
 62
     4
 10
243.0
 20
-139.5
 30
0.0
 11
243.0
 21
-130.0
 31
0.0
  0
LINE
  5
239
  8
ZUWAKU
  6
CONTINUOUS
 62
     4
 10
97.00000000000001
 20
-151.0
 30
0.0
 11
146.0
 21
-151.0
 31
0.0
  0
LINE
  5
23A
  8
ZUWAKU
  6
CONTINUOUS
 62
     4
 10
97.00000000000001
 20
-158.0
 30
0.0
 11
146.0
 21
-158.0
 31
0.0
  0
LINE
  5
23B
  8
ZUWAKU
  6
CONTINUOUS
 62
     4
 10
101.0
 20
-130.5
 30
0.0
 11
98.00000000000001
 21
-136.5
 31
0.0
  0
LINE
  5
23C
  8
ZUWAKU
  6
CONTINUOUS
 62
     4
 10
101.0
 20
-130.5
 30
0.0
 11
104.0
 21
-136.5
 31
0.0
  0
LINE
  5
23D
  8
ZUWAKU
  6
CONTINUOUS
 62
     4
 10
98.00000000000001
 20
-136.5
 30
0.0
 11
104.0
 21
-136.5
 31
0.0
  0
LINE
  5
23E
  8
ZUWAKU
  6
CONTINUOUS
 62
     4
 10
101.0
 20
-158.5
 30
0.0
 11
98.00000000000001
 21
-164.5
 31
0.0
  0
LINE
  5
23F
  8
ZUWAKU
  6
CONTINUOUS
 62
     4
 10
101.0
 20
-158.5
 30
0.0
 11
104.0
 21
-164.5
 31
0.0
  0
LINE
  5
240
  8
ZUWAKU
  6
CONTINUOUS
 62
     4
 10
98.00000000000001
 20
-164.5
 30
0.0
 11
104.0
 21
-164.5
 31
0.0
  0
LINE
  5
241
  8
ZUWAKU
  6
CONTINUOUS
 62
     4
 10
101.0
 20
-151.5
 30
0.0
 11
98.00000000000001
 21
-157.5
 31
0.0
  0
LINE
  5
242
  8
ZUWAKU
  6
CONTINUOUS
 62
     4
 10
101.0
 20
-151.5
 30
0.0
 11
104.0
 21
-157.5
 31
0.0
  0
LINE
  5
243
  8
ZUWAKU
  6
CONTINUOUS
 62
     4
 10
98.00000000000001
 20
-157.5
 30
0.0
 11
104.0
 21
-157.5
 31
0.0
  0
LINE
  5
244
  8
ZUWAKU
  6
CONTINUOUS
 62
     4
 10
101.0
 20
-144.5
 30
0.0
 11
98.00000000000001
 21
-150.5
 31
0.0
  0
LINE
  5
245
  8
ZUWAKU
  6
CONTINUOUS
 62
     4
 10
101.0
 20
-144.5
 30
0.0
 11
104.0
 21
-150.5
 31
0.0
  0
LINE
  5
246
  8
ZUWAKU
  6
CONTINUOUS
 62
     4
 10
98.00000000000001
 20
-150.5
 30
0.0
 11
104.0
 21
-150.5
 31
0.0
  0
LINE
  5
247
  8
ZUWAKU
  6
CONTINUOUS
 62
     4
 10
101.0
 20
-137.5
 30
0.0
 11
98.00000000000001
 21
-143.5
 31
0.0
  0
LINE
  5
248
  8
ZUWAKU
  6
CONTINUOUS
 62
     4
 10
101.0
 20
-137.5
 30
0.0
 11
104.0
 21
-143.5
 31
0.0
  0
LINE
  5
249
  8
ZUWAKU
  6
CONTINUOUS
 62
     4
 10
98.00000000000001
 20
-143.5
 30
0.0
 11
104.0
 21
-143.5
 31
0.0
  0
LINE
  5
24A
  8
ZUWAKU
  6
CONTINUOUS
 62
     4
 10
172.6666666666666
 20
-176.0
 30
0.0
 11
172.6666666666666
 21
-162.0
 31
0.0
  0
LINE
  5
24B
  8
ZUWAKU
  6
CONTINUOUS
 62
     4
 10
199.3333333333333
 20
-176.0
 30
0.0
 11
199.3333333333333
 21
-161.9509415757253
 31
0.0
  0
LINE
  5
24C
  8
ZUWAKU
  6
CONTINUOUS
 62
     4
 10
212.6666666666666
 20
-167.5
 30
0.0
 11
212.6666666666666
 21
-161.9509415757253
 31
0.0
  0
LINE
  5
24D
  8
ZUWAKU
  6
CONTINUOUS
 62
     4
 10
226.0
 20
-155.0
 30
0.0
 11
255.0
 21
-155.0
 31
0.0
  0
LINE
  5
24E
  8
ZUWAKU
  6
CONTINUOUS
 62
     4
 10
146.0
 20
-166.0
 30
0.0
 11
226.0
 21
-166.0
 31
0.0
  0
TEXT
  5
250
  8
ZUWAKU
 62
     7
 10
148.3132301474747
 20
-130.821188728956
 30
0.0
 40
2.6656
  1
符号
 41
0.8
  7
FDASTYLE0
  0
TEXT
  5
251
  8
ZUWAKU
 62
     7
 10
162.4141311219058
 20
-135.8245525019963
 30
0.0
 40
4.0
  1
品       名
 41
0.765957446808511
  7
FDASTYLE1
 72
     5
 11
191.2141311219058
 21
-135.8245525019963
 31
0.0
  0
TEXT
  5
252
  8
ZUWAKU
 62
     7
 10
207.2331564413096
 20
-135.8245525019963
 30
0.0
 40
4.0
  1
材  料
 41
0.7272727272727279
  7
FDASTYLE1
 72
     5
 11
220.0331564413096
 21
-135.8245525019963
 31
0.0
  0
TEXT
  5
253
  8
ZUWAKU
 62
     7
 10
229.516061684855
 20
-135.8245525019963
 30
0.0
 40
4.0
  1
個 数
 41
0.7058823529411761
  7
FDASTYLE1
 72
     5
 11
239.116061684855
 21
-135.8245525019963
 31
0.0
  0
TEXT
  5
254
  8
ZUWAKU
 62
     7
 10
245.721810952888
 20
-133.5649080050572
 30
0.0
 40
2.5
  1
単重量
 41
0.6666666666666666
  7
FDASTYLE1
 72
     5
 11
251.721810952888
 21
-133.5649080050572
 31
0.0
  0
TEXT
  5
255
  8
ZUWAKU
 62
     7
 10
244.7089516236359
 20
-137.3631304897525
 30
0.0
 40
2.5
  1
(kg)
 41
0.8
  7
FDASTYLE1
 72
     5
 11
252.7089516236359
 21
-137.3631304897525
 31
0.0
  0
TEXT
  5
256
  8
ZUWAKU
 62
     7
 10
259.1421970654778
 20
-135.8245525019963
 30
0.0
 40
4.0
  1
記  事
 41
0.7272727272727279
  7
FDASTYLE1
 72
     5
 11
271.9421970654778
 21
-135.8245525019963
 31
0.0
  0
TEXT
  5
257
  8
ZUWAKU
 62
     7
 10
258.8450794551645
 20
-165.4873041997729
 30
0.0
 40
3.0
  1
コード番号
 41
0.6666666666666666
  7
FDASTYLE1
 72
     5
 11
270.8450794551645
 21
-165.4873041997729
 31
0.0
  0
TEXT
  5
258
  8
ZUWAKU
 62
     7
 10
101.9119920158317
 20
-175.1879010540338
 30
0.0
 40
2.5
  1
訂 正 来 歴
 41
0.717948717948718
  7
FDASTYLE1
 72
     5
 11
115.9119920158317
 21
-175.1879010540338
 31
0.0
  0
TEXT
  5
259
  8
ZUWAKU
 62
     7
 10
125.890334846765
 20
-175.2166697391651
 30
0.0
 40
2.5
  1
工 事 番 号
 41
0.717948717948718
  7
FDASTYLE1
 72
     5
 11
139.890334846765
 21
-175.2166697391651
 31
0.0
  0
TEXT
  5
25A
  8
ZUWAKU
 62
     7
 10
99.96483784660289
 20
-165.9634530565915
 30
0.0
 40
2.0825
  1
記号
 41
0.8
  7
FDASTYLE0
  0
TEXT
  5
25B
  8
ZUWAKU
 62
     7
 10
105.9042249067618
 20
-165.9634530565915
 30
0.0
 40
2.0825
  1
理由
 41
0.8
  7
FDASTYLE0
  0
TEXT
  5
25C
  8
ZUWAKU
 62
     7
 10
111.6193667909843
 20
-169.8786046700178
 30
0.0
 40
3.0
  1
日 付
 41
0.7058823529411754
  7
FDASTYLE1
 72
     5
 11
118.8193667909843
 21
-169.8786046700178
 31
0.0
  0
TEXT
  5
25D
  8
ZUWAKU
 62
     7
 10
153.4481689819652
 20
-165.7187911464244
 30
0.0
 40
3.0
  1
承   認
 41
0.7407407407407408
  7
FDASTYLE1
 72
     5
 11
165.4481689819652
 21
-165.7187911464244
 31
0.0
  0
TEXT
  5
25E
  8
ZUWAKU
 62
     7
 10
179.863228033234
 20
-165.4873041997729
 30
0.0
 40
3.0
  1
検   図
 41
0.7407407407407408
  7
FDASTYLE1
 72
     5
 11
191.863228033234
 21
-165.4873041997729
 31
0.0
  0
TEXT
  5
25F
  8
ZUWAKU
 62
     7
 10
201.4771920983751
 20
-165.4873041997729
 30
0.0
 40
3.0
  1
担  当
 41
0.7272727272727269
  7
FDASTYLE1
 72
     5
 11
211.0771920983751
 21
-165.4873041997729
 31
0.0
  0
TEXT
  5
260
  8
ZUWAKU
 62
     7
 10
214.6770574841112
 20
-165.4873041997729
 30
0.0
 40
3.0
  1
製  図
 41
0.7272727272727269
  7
FDASTYLE1
 72
     5
 11
224.2770574841112
 21
-165.4873041997729
 31
0.0
  0
TEXT
  5
261
  8
ZUWAKU
 62
     7
 10
226.9462372304199
 20
-153.2184960272417
 30
0.0
 40
3.0
  1
作図
 41
0.6666666666666683
  7
FDASTYLE1
 72
     5
 11
231.7462372304199
 21
-153.2184960272417
 31
0.0
  0
TEXT
  5
262
  8
ZUWAKU
 62
     7
 10
228.1036719636776
 20
-160.2371566401815
 30
0.0
 40
4.0
  1
第 三 角 法
 41
0.7179487179487182
  7
FDASTYLE1
 72
     5
 11
250.5036719636776
 21
-160.2371566401815
 31
0.0
  0
TEXT
  5
263
  8
ZUWAKU
 62
     7
 10
227.409211123723
 20
-166.413251986379
 30
0.0
 40
3.0
  1
尺度
 41
0.6666666666666683
  7
FDASTYLE1
 72
     5
 11
232.209211123723
 21
-166.413251986379
 31
0.0
  0
TEXT
  5
264
  8
ZUWAKU
 62
     7
 10
148.3132301474747
 20
-130.821188728956
 30
0.0
 40
2.6656
  1
符号
 41
0.8
  7
FDASTYLE0
  0
TEXT
  5
265
  8
ZUWAKU
 62
     7
 10
162.4141311219058
 20
-135.8245525019963
 30
0.0
 40
4.0
  1
品       名
 41
0.765957446808511
  7
FDASTYLE1
 72
     5
 11
191.2141311219058
 21
-135.8245525019963
 31
0.0
  0
TEXT
  5
266
  8
ZUWAKU
 62
     7
 10
207.2331564413096
 20
-135.8245525019963
 30
0.0
 40
4.0
  1
材  料
 41
0.7272727272727279
  7
FDASTYLE1
 72
     5
 11
220.0331564413096
 21
-135.8245525019963
 31
0.0
  0
TEXT
  5
267
  8
ZUWAKU
 62
     7
 10
229.516061684855
 20
-135.8245525019963
 30
0.0
 40
4.0
  1
個 数
 41
0.7058823529411761
  7
FDASTYLE1
 72
     5
 11
239.116061684855
 21
-135.8245525019963
 31
0.0
  0
TEXT
  5
268
  8
ZUWAKU
 62
     7
 10
245.721810952888
 20
-133.5649080050572
 30
0.0
 40
2.5
  1
単重量
 41
0.6666666666666666
  7
FDASTYLE1
 72
     5
 11
251.721810952888
 21
-133.5649080050572
 31
0.0
  0
TEXT
  5
269
  8
ZUWAKU
 62
     7
 10
244.7089516236359
 20
-137.3631304897525
 30
0.0
 40
2.5
  1
(kg)
 41
0.8
  7
FDASTYLE1
 72
     5
 11
252.7089516236359
 21
-137.3631304897525
 31
0.0
  0
TEXT
  5
26A
  8
ZUWAKU
 62
     7
 10
259.1421970654778
 20
-135.8245525019963
 30
0.0
 40
4.0
  1
記  事
 41
0.7272727272727279
  7
FDASTYLE1
 72
     5
 11
271.9421970654778
 21
-135.8245525019963
 31
0.0
  0
TEXT
  5
26B
  8
ZUWAKU
 62
     7
 10
258.8450794551645
 20
-165.4873041997729
 30
0.0
 40
3.0
  1
コード番号
 41
0.6666666666666666
  7
FDASTYLE1
 72
     5
 11
270.8450794551645
 21
-165.4873041997729
 31
0.0
  0
TEXT
  5
26C
  8
ZUWAKU
 62
     7
 10
101.9119920158317
 20
-175.1879010540338
 30
0.0
 40
2.5
  1
訂 正 来 歴
 41
0.717948717948718
  7
FDASTYLE1
 72
     5
 11
115.9119920158317
 21
-175.1879010540338
 31
0.0
  0
TEXT
  5
26D
  8
ZUWAKU
 62
     7
 10
125.890334846765
 20
-175.2166697391651
 30
0.0
 40
2.5
  1
工 事 番 号
 41
0.717948717948718
  7
FDASTYLE1
 72
     5
 11
139.890334846765
 21
-175.2166697391651
 31
0.0
  0
TEXT
  5
26E
  8
ZUWAKU
 62
     7
 10
99.96483784660289
 20
-165.9634530565915
 30
0.0
 40
2.0825
  1
記号
 41
0.8
  7
FDASTYLE0
  0
TEXT
  5
26F
  8
ZUWAKU
 62
     7
 10
105.9042249067618
 20
-165.9634530565915
 30
0.0
 40
2.0825
  1
理由
 41
0.8
  7
FDASTYLE0
  0
TEXT
  5
270
  8
ZUWAKU
 62
     7
 10
111.6193667909843
 20
-169.8786046700178
 30
0.0
 40
3.0
  1
日 付
 41
0.7058823529411754
  7
FDASTYLE1
 72
     5
 11
118.8193667909843
 21
-169.8786046700178
 31
0.0
  0
TEXT
  5
271
  8
ZUWAKU
 62
     7
 10
153.4481689819652
 20
-165.7187911464244
 30
0.0
 40
3.0
  1
承   認
 41
0.7407407407407408
  7
FDASTYLE1
 72
     5
 11
165.4481689819652
 21
-165.7187911464244
 31
0.0
  0
TEXT
  5
272
  8
ZUWAKU
 62
     7
 10
179.863228033234
 20
-165.4873041997729
 30
0.0
 40
3.0
  1
検   図
 41
0.7407407407407408
  7
FDASTYLE1
 72
     5
 11
191.863228033234
 21
-165.4873041997729
 31
0.0
  0
TEXT
  5
273
  8
ZUWAKU
 62
     7
 10
201.4771920983751
 20
-165.4873041997729
 30
0.0
 40
3.0
  1
担  当
 41
0.7272727272727269
  7
FDASTYLE1
 72
     5
 11
211.0771920983751
 21
-165.4873041997729
 31
0.0
  0
TEXT
  5
274
  8
ZUWAKU
 62
     7
 10
214.6770574841112
 20
-165.4873041997729
 30
0.0
 40
3.0
  1
製  図
 41
0.7272727272727269
  7
FDASTYLE1
 72
     5
 11
224.2770574841112
 21
-165.4873041997729
 31
0.0
  0
TEXT
  5
275
  8
ZUWAKU
 62
     7
 10
226.9462372304199
 20
-153.2184960272417
 30
0.0
 40
3.0
  1
作図
 41
0.6666666666666683
  7
FDASTYLE1
 72
     5
 11
231.7462372304199
 21
-153.2184960272417
 31
0.0
  0
TEXT
  5
276
  8
ZUWAKU
 62
     7
 10
228.1036719636776
 20
-160.2371566401815
 30
0.0
 40
4.0
  1
第 三 角 法
 41
0.7179487179487182
  7
FDASTYLE1
 72
     5
 11
250.5036719636776
 21
-160.2371566401815
 31
0.0
  0
TEXT
  5
277
  8
ZUWAKU
 62
     7
 10
227.409211123723
 20
-166.413251986379
 30
0.0
 40
3.0
  1
尺度
 41
0.6666666666666683
  7
FDASTYLE1
 72
     5
 11
232.209211123723
 21
-166.413251986379
 31
0.0
  0
TEXT
  5
279
  8
ZUWAKU
 62
     3
 10
105.379154370034
 20
-185.9272077185017
 30
0.0
 40
7.0
  1
株式会社 野村製作所
 41
0.5763738641280831
  7
FDASTYLE2
 72
     5
 11
161.379154370034
 21
-185.9272077185017
 31
0.0
  0
TEXT
  5
27B
  8
ZUWAKU
 62
     3
 10
177.915125194095
 20
-186.9326208268579
 30
0.0
 40
8.0
  1
２－
 41
0.8244023083264632
  7
FDASTYLE3
 72
     5
 11
193.915125194095
 21
-186.9326208268579
 31
0.0
  0
TEXT
  5
27C
  8
ZUWAKU
 62
     3
 10
194.8270828185018
 20
-186.9326208268579
 30
0.0
 40
8.0
  1
C007026
 41
1.563197856185797
  7
FDASTYLE3
 72
     5
 11
250.8270828185018
 21
-186.9326208268579
 31
0.0
  0
TEXT
  5
27D
  8
ZUWAKU
 62
     3
 10
105.379154370034
 20
-185.9272077185017
 30
0.0
 40
7.0
  1
株式会社 野村製作所
 41
0.5763738641280831
  7
FDASTYLE2
 72
     5
 11
161.379154370034
 21
-185.9272077185017
 31
0.0
  0
TEXT
  5
27E
  8
ZUWAKU
 62
     6
 10
157.0070051766932
 20
-145.3589000228561
 30
0.0
 40
5.0
  1
外形図（センターホルダー付）
 41
0.5833333333333334
  7
FDASTYLE1
 72
     5
 11
206.0070051766932
 21
-145.3589000228561
 31
0.0
  0
TEXT
  5
27F
  8
ZUWAKU
 62
     6
 10
153.6045934631717
 20
-154.329135039116
 30
0.0
 40
5.0
  1
日鋼プﾚｼジｫﾝ
 41
0.6363636363636364
  7
FDASTYLE1
 72
     5
 11
181.6045934631717
 21
-154.329135039116
 31
0.0
  0
TEXT
  5
280
  8
ZUWAKU
 62
     6
 10
176.7533929846966
 20
-160.7144995510049
 30
0.0
 40
5.0
  1
COP-7型ﾁｬｯｸ
 41
0.6862745098039216
  7
FDASTYLE1
 72
     5
 11
211.7533929846966
 21
-160.7144995510049
 31
0.0
  0
TEXT
  5
281
  8
ZUWAKU
 62
     4
 10
239.3011788906399
 20
-172.297487439201
 30
0.0
 40
3.0
  1
1/1
 41
0.7000000000000013
  7
FDASTYLE1
 72
     5
 11
245.6011788906399
 21
-172.297487439201
 31
0.0
  0
TEXT
  5
282
  8
ZUWAKU
 62
     4
 10
239.3011788906399
 20
-172.297487439201
 30
0.0
 40
3.0
  1
1/1
 41
0.7000000000000013
  7
FDASTYLE1
 72
     5
 11
245.6011788906399
 21
-172.297487439201
 31
0.0
  0
TEXT
  5
283
  8
0
 62
     7
 10
256.9118216031794
 20
-144.5110618690862
 30
0.0
 40
4.0
  1
標準
 41
0.5833333333333357
  7
FDASTYLE1
 72
     5
 11
262.5118216031794
 21
-144.5110618690862
 31
0.0
  0
TEXT
  5
284
  8
0
 62
     7
 10
230.5293517639194
 20
-145.4114874608697
 30
0.0
 40
4.0
  1
一式
 41
0.5833333333333328
  7
FDASTYLE1
 72
     5
 11
236.1293517639194
 21
-145.4114874608697
 31
0.0
  0
TEXT
  5
285
  8
0
 62
     7
 10
4.555063839510754
 20
51.81366784175481
 30
0.0
 40
4.0
  1
(MAX43 MIN35)
 50
90.0
 41
0.8
  7
FDASTYLE1
 72
     5
 11
4.555063839510754
 21
93.41366784175482
 31
0.0
  0
LINE
  5
286
  8
0
  6
CONTINUOUS
 62
     6
 10
-245.5229245601005
 20
-166.6469735991586
 30
0.0
 11
-83.66763128617477
 21
-166.6469735991586
 31
0.0
  0
LINE
  5
287
  8
0
  6
CONTINUOUS
 62
     6
 10
-245.5229245601005
 20
-159.6469735991586
 30
0.0
 11
-83.66763128617477
 21
-159.6469735991586
 31
0.0
  0
LINE
  5
288
  8
0
  6
CONTINUOUS
 62
     6
 10
-245.5229245601005
 20
-152.6469735991586
 30
0.0
 11
-83.66763128617477
 21
-152.6469735991586
 31
0.0
  0
LINE
  5
289
  8
0
  6
CONTINUOUS
 62
     6
 10
-245.5229245601005
 20
-145.6469735991586
 30
0.0
 11
-83.66763128617477
 21
-145.6469735991586
 31
0.0
  0
LINE
  5
28A
  8
0
  6
CONTINUOUS
 62
     6
 10
-245.5229245601005
 20
-138.6469735991586
 30
0.0
 11
-83.66763128617477
 21
-138.6469735991586
 31
0.0
  0
LINE
  5
28B
  8
0
  6
CONTINUOUS
 62
     6
 10
-245.5229245601005
 20
-131.6469735991586
 30
0.0
 11
-83.66763128617477
 21
-131.6469735991586
 31
0.0
  0
LINE
  5
28C
  8
0
  6
CONTINUOUS
 62
     6
 10
-245.5229245601005
 20
-124.6469735991586
 30
0.0
 11
-83.66763128617477
 21
-124.6469735991586
 31
0.0
  0
LINE
  5
28D
  8
0
  6
CONTINUOUS
 62
     6
 10
-245.5229245601005
 20
-117.6469735991586
 30
0.0
 11
-83.66763128617477
 21
-117.6469735991586
 31
0.0
  0
LINE
  5
28E
  8
0
  6
CONTINUOUS
 62
     6
 10
-245.5229093013115
 20
-103.1469735991586
 30
0.0
 11
-229.0009671626396
 21
-103.1469735991586
 31
0.0
  0
LINE
  5
28F
  8
0
  6
CONTINUOUS
 62
     6
 10
-245.5229245601005
 20
-110.6469735991586
 30
0.0
 11
-83.66763128617477
 21
-110.6469735991586
 31
0.0
  0
LINE
  5
290
  8
0
  6
CONTINUOUS
 62
     6
 10
-47.55792822220992
 20
-166.831650723182
 30
0.0
 11
81.41178308150101
 21
-166.831650723182
 31
0.0
  0
LINE
  5
291
  8
0
  6
CONTINUOUS
 62
     6
 10
-47.55792822220992
 20
-159.831650723182
 30
0.0
 11
81.41178308150101
 21
-159.831650723182
 31
0.0
  0
LINE
  5
292
  8
0
  6
CONTINUOUS
 62
     6
 10
-47.55792822220992
 20
-152.831650723182
 30
0.0
 11
81.41178308150101
 21
-152.831650723182
 31
0.0
  0
LINE
  5
293
  8
0
  6
CONTINUOUS
 62
     6
 10
-47.55792822220992
 20
-145.831650723182
 30
0.0
 11
81.41178308150101
 21
-145.831650723182
 31
0.0
  0
LINE
  5
294
  8
0
  6
CONTINUOUS
 62
     6
 10
-52.13428320267867
 20
-138.831650723182
 30
0.0
 11
5.070031982868201
 21
-138.831650723182
 31
0.0
  0
LINE
  5
295
  8
0
  6
CONTINUOUS
 62
     6
 10
136.3492807654395
 20
-124.7186114008234
 30
0.0
 11
184.7469858435645
 21
-124.7186114008234
 31
0.0
  0
LINE
  5
296
  8
0
  6
CENTER
 62
     7
 10
78.14724571054013
 20
8.740901062012489
 30
0.0
 11
154.31586587633
 21
52.71686955998351
 31
0.0
  0
LINE
  5
297
  8
0
  6
CENTER
 62
     7
 10
-106.9458339364405
 20
103.2059790544571
 30
0.0
 11
-106.9458339364405
 21
72.48698247612813
 31
0.0
  0
LINE
  5
298
  8
0
  6
CENTER
 62
     7
 10
-166.7826608943108
 20
0.3318864220509852
 30
0.0
 11
-47.42256428312015
 21
0.3318864220509852
 31
0.0
  0
LINE
  5
299
  8
0
  6
CENTER
 62
     7
 10
-70.56820942472172
 20
126.7168828362356
 30
0.0
 11
-36.94583393644047
 21
126.7168828362356
 31
0.0
  0
LINE
  5
29A
  8
0
  6
CENTER
 62
     7
 10
-70.56820942472172
 20
101.7168828362356
 30
0.0
 11
-36.94583393644047
 21
101.7168828362356
 31
0.0
  0
LINE
  5
29B
  8
0
  6
CENTER
 62
     7
 10
-127.545824781167
 20
21.71687902153829
 30
0.0
 11
-127.545824781167
 21
8.383547913445028
 31
0.0
  0
LINE
  5
29C
  8
0
  6
CENTER
 62
     7
 10
62.89919174895269
 20
52.71688283623556
 30
0.0
 11
246.012061011648
 21
52.71688283623556
 31
0.0
  0
LINE
  5
29D
  8
0
  6
CENTER
 62
     7
 10
55.45929854220691
 20
-4.358139483404385
 30
0.0
 11
2.627093384911831
 21
-34.86083153652336
 31
0.0
  0
LINE
  5
29E
  8
0
  6
CENTER
 62
     7
 10
-78.94583393644047
 20
141.9033910149465
 30
0.0
 11
-78.94583393644047
 21
112.5762578362356
 31
0.0
  0
LINE
  5
29F
  8
0
  6
CENTER
 62
     7
 10
-83.56946064542484
 20
116.7168828362356
 30
0.0
 11
-74.29217030118656
 21
116.7168828362356
 31
0.0
  0
LINE
  5
2A0
  8
0
  6
CENTER
 62
     7
 10
13.47686292133113
 20
-15.80612602509046
 30
0.0
 11
24.79366915626366
 21
-35.40740671494274
 31
0.0
  0
LINE
  5
2A1
  8
0
  6
CENTER
 62
     7
 10
38.42101299148489
 20
-46.52684749473471
 30
0.0
 11
57.84303644742998
 21
-35.31353826310569
 31
0.0
  0
LINE
  5
2A2
  8
0
  6
CENTER
 62
     7
 10
154.3161991952418
 20
142.8279820793996
 30
0.0
 11
154.3161991952418
 21
-38.59501825629374
 31
0.0
  0
LINE
  5
2A3
  8
0
  6
CENTER
 62
     7
 10
101.9212483285425
 20
116.7168828362356
 30
0.0
 11
138.6991948007105
 21
116.7168828362356
 31
0.0
  0
LINE
  5
2A4
  8
0
  6
CENTER
 62
     7
 10
154.3158787635816
 20
52.71689546188466
 30
0.0
 11
232.3428079398122
 21
7.668031875033677
 31
0.0
  0
LINE
  5
2A5
  8
0
  6
CENTER
 62
     7
 10
107.0412342495162
 20
36.59893820022265
 30
0.0
 11
116.7491650179977
 21
19.78431117910421
 31
0.0
  0
LINE
  5
2A6
  8
0
  6
CENTER
 62
     7
 10
191.8613066462396
 20
19.74743198645277
 30
0.0
 11
201.5002047374244
 21
36.44249091951045
 31
0.0
  0
LINE
  5
2A7
  8
0
  6
CENTER
 62
     7
 10
213.497071660546
 20
7.221675438327594
 30
0.0
 11
223.1704889514024
 21
23.97652337085268
 31
0.0
  0
LINE
  5
2A8
  8
0
  6
CENTER
 62
     7
 10
144.5608433602808
 20
101.7168828362356
 30
0.0
 11
164.1171788094996
 21
101.7168828362356
 31
0.0
  0
LINE
  5
2A9
  8
0
  6
CENTER
 62
     7
 10
144.5608433602808
 20
126.7168828362356
 30
0.0
 11
164.1171788094996
 21
126.7168828362356
 31
0.0
  0
LINE
  5
2AA
  8
0
  6
CENTER
 62
     7
 10
126.3161991952418
 20
104.716875206841
 30
0.0
 11
126.3161991952418
 21
128.716875206841
 31
0.0
  0
LINE
  5
2AB
  8
0
  6
CENTER
 62
     7
 10
123.2828825762251
 20
2.468179599639399
 30
0.0
 11
102.4982732584456
 21
-9.531820400360601
 31
0.0
  0
LINE
  5
2AC
  8
0
  6
CENTER
 62
     7
 10
213.3495133658396
 20
50.96559807016368
 30
0.0
 11
234.1341226836191
 21
38.96559807016368
 31
0.0
  0
LINE
  5
2AD
  8
0
  6
CENTER
 62
     7
 10
118.7994610805938
 20
-13.76632133021028
 30
0.0
 11
106.6990754147002
 21
7.192161058127823
 31
0.0
  0
LINE
  5
2AE
  8
0
  6
CENTER
 62
     7
 10
229.7108426829325
 20
55.30425186424239
 30
0.0
 11
217.550320221995
 21
34.24160949335331
 31
0.0
  0
ARC
  5
2AF
  8
0
  6
CENTER
 62
     7
 10
154.3158635018824
 20
52.71688283623556
 30
0.0
 40
52.3849983215332
 50
13.53725393495227
 51
46.46272041394317
  0
ARC
  5
2B0
  8
0
  6
CENTER
 62
     7
 10
154.3158635018824
 20
52.71688283623556
 30
0.0
 40
52.3849983215332
 50
253.4061416994351
 51
286.3920758431481
  0
ARC
  5
2B1
  8
0
  6
CENTER
 62
     7
 10
154.3158635018824
 20
52.71688283623556
 30
0.0
 40
52.3849983215332
 50
133.5372880101077
 51
166.4627476589095
  0
LINE
  5
2B2
  8
0
  6
CENTER
 62
     7
 10
-163.6695354134913
 20
60.71689046563009
 30
0.0
 11
-105.0028712899561
 21
60.71689046563009
 31
0.0
  0
LINE
  5
2B3
  8
0
  6
CENTER
 62
     7
 10
-163.3462932259913
 20
44.71689046563009
 30
0.0
 11
-104.6796291024561
 21
44.71689046563009
 31
0.0
  0
LINE
  5
2B4
  8
0
  6
CENTER
 62
     7
 10
-68.39678837369632
 20
29.71689046563009
 30
0.0
 11
-52.39680363248539
 21
29.71689046563009
 31
0.0
  0
LINE
  5
2B5
  8
0
  6
CENTER
 62
     7
 10
-75.18467594693851
 20
15.71688927353719
 30
0.0
 11
-51.91195561002445
 21
15.71688927353719
 31
0.0
  0
LINE
  5
2B6
  8
0
  6
CENTER
 62
     7
 10
-75.34147812578709
 20
52.71689046563009
 30
0.0
 11
-62.57794536225424
 21
52.71689046563009
 31
0.0
  0
LINE
  5
2B7
  8
0
  6
CENTER
 62
     7
 10
-53.46113624544506
 20
52.71689046563009
 30
0.0
 11
-40.79890136098805
 21
52.71689046563009
 31
0.0
  0
LINE
  5
2B8
  8
0
  6
CENTER
 62
     7
 10
-201.4066886354424
 20
52.71689046563009
 30
0.0
 11
-141.8716740386995
 21
52.71689046563009
 31
0.0
  0
LINE
  5
2B9
  8
0
  6
CENTER
 62
     7
 10
-135.4786523370358
 20
52.71689046563009
 30
0.0
 11
-105.4269482112572
 21
52.71689046563009
 31
0.0
  0
LINE
  5
2BA
  8
0
  6
CENTER
 62
     7
 10
95.9584136403989
 20
86.40956850055001
 30
0.0
 11
139.7976813489165
 21
61.09895828432651
 31
0.0
  0
ARC
  5
2BB
  8
0
  6
CENTER
 62
     7
 10
154.315527808523
 20
52.71706012620304
 30
0.0
 40
52.3849983215332
 50
133.5372880101077
 51
166.4627476589095
  0
ARC
  5
2BC
  8
0
  6
CENTER
 62
     7
 10
154.315527808523
 20
52.71706012620304
 30
0.0
 40
37.0
 50
136.0286131702482
 51
163.9714088383907
  0
ARC
  5
2BD
  8
0
  6
CENTER
 62
     7
 10
154.315527808523
 20
52.71706012620304
 30
0.0
 40
23.0
 50
129.9691835273148
 51
170.0308111605675
  0
LINE
  5
2BE
  8
0
  6
CENTER
 62
     7
 10
168.7951856138646
 20
61.07687797212635
 30
0.0
 11
230.6764594470202
 21
96.80404413028921
 31
0.0
  0
ARC
  5
2BF
  8
0
  6
CENTER
 62
     7
 10
154.315527808523
 20
52.71706012620304
 30
0.0
 40
23.0
 50
9.969142621970098
 51
50.03078733069573
  0
ARC
  5
2C0
  8
0
  6
CENTER
 62
     7
 10
154.315527808523
 20
52.71706012620304
 30
0.0
 40
37.0
 50
16.02857909509276
 51
43.97137817832975
  0
ARC
  5
2C1
  8
0
  6
CENTER
 62
     7
 10
154.315527808523
 20
52.71706012620304
 30
0.0
 40
23.0
 50
249.9699896412176
 51
290.0316514254161
  0
ARC
  5
2C2
  8
0
  6
CENTER
 62
     7
 10
154.315527808523
 20
52.71706012620304
 30
0.0
 40
37.0
 50
256.0291050954492
 51
283.9719280843483
  0
LINE
  5
2C3
  8
0
  6
DASHED2
 62
     7
 10
227.4247704823226
 20
14.31814989324815
 30
0.0
 11
228.9666296534576
 21
12.3887272660559
 31
0.0
  0
LINE
  5
2C4
  8
0
  6
DASHED2
 62
     7
 10
226.5666582698422
 20
8.231806804917625
 30
0.0
 11
228.966659080465
 21
12.38873188357823
 31
0.0
  0
LINE
  5
2C5
  8
0
  6
DASHED2
 62
     7
 10
226.5666634719227
 20
8.23176764417795
 30
0.0
 11
224.1248047157104
 21
8.602344455514782
 31
0.0
  0
LINE
  5
2C6
  8
0
  6
DASHED2
 62
     7
 10
224.1247793017814
 20
8.602384732056208
 30
0.0
 11
227.4247813700617
 21
14.31815836702711
 31
0.0
  0
LINE
  5
2C7
  8
0
  6
DASHED2
 62
     7
 10
223.6022346188729
 20
9.697280553504271
 30
0.0
 11
226.2482489975352
 21
14.2803138093573
 31
0.0
  0
ARC
  5
2C8
  8
0
  6
DASHED2
 62
     7
 10
227.3527897714136
 20
10.54920877159933
 30
0.0
 40
1.200000047683716
 50
263.4679734035368
 51
396.5320180966219
  0
ARC
  5
2C9
  8
0
  6
DASHED2
 62
     7
 10
220.7944096444605
 20
7.643080841911825
 30
0.0
 40
3.0
 50
32.10687513715404
 51
96.76197857525
  0
ARC
  5
2CA
  8
0
  6
DASHED2
 62
     7
 10
225.7747715829371
 20
11.46027291954854
 30
0.0
 40
3.299999952316284
 50
59.99998800927377
 51
77.63968920126206
  0
ARC
  5
2CB
  8
0
  6
DASHED2
 62
     7
 10
226.5903996346949
 20
17.68202526511053
 30
0.0
 40
3.0
 50
203.2380060947195
 51
267.8898310420139
  0
LINE
  5
2CC
  8
0
  6
DASHED2
 62
     7
 10
-104.3458186776514
 20
-11.28311716376445
 30
0.0
 11
-97.54581867765137
 21
-11.28311716376445
 31
0.0
  0
LINE
  5
2CD
  8
0
  6
DASHED2
 62
     7
 10
-104.9458186776514
 20
-16.28311716376445
 30
0.0
 11
-96.9458186776514
 21
-16.28311716376445
 31
0.0
  0
LINE
  5
2CE
  8
0
  6
DASHED2
 62
     7
 10
-104.9458186776514
 20
-16.28311716376445
 30
0.0
 11
-104.9458186776514
 21
-32.28311716376445
 31
0.0
  0
LINE
  5
2CF
  8
0
  6
DASHED2
 62
     7
 10
-104.3458186776514
 20
-11.28311716376445
 30
0.0
 11
-104.3458186776514
 21
-32.28311716376445
 31
0.0
  0
LINE
  5
2D0
  8
0
  6
DASHED2
 62
     7
 10
-104.3458186776512
 20
-11.28311716376433
 30
0.0
 11
-100.9458186776515
 21
-9.320126248519781
 31
0.0
  0
LINE
  5
2D1
  8
0
  6
DASHED2
 62
     7
 10
-97.54581867765154
 20
-11.28311716376433
 30
0.0
 11
-100.9458186776513
 21
-9.320126248519781
 31
0.0
  0
LINE
  5
2D2
  8
0
  6
DASHED2
 62
     7
 10
-97.54581867765137
 20
-11.28311716376445
 30
0.0
 11
-97.54581867765137
 21
-32.28311716376445
 31
0.0
  0
LINE
  5
2D3
  8
0
  6
DASHED2
 62
     7
 10
-96.9458186776514
 20
-16.28311716376445
 30
0.0
 11
-96.9458186776514
 21
-32.28311716376445
 31
0.0
  0
LINE
  5
2D4
  8
0
  6
DASHED2
 62
     7
 10
211.4414840848602
 20
81.77240557261422
 30
0.0
 11
208.0414840848602
 21
87.66137831834845
 31
0.0
  0
LINE
  5
2D5
  8
0
  6
DASHED2
 62
     7
 10
216.0716111037824
 20
83.7527903303436
 30
0.0
 11
212.0716111037824
 21
90.6809935606191
 31
0.0
  0
LINE
  5
2D6
  8
0
  6
DASHED2
 62
     7
 10
216.0716111037824
 20
83.7527903303436
 30
0.0
 11
229.9280175643334
 21
91.7527903303436
 31
0.0
  0
LINE
  5
2D7
  8
0
  6
DASHED2
 62
     7
 10
211.4414840848602
 20
81.77240557261422
 30
0.0
 11
229.6280175643334
 21
92.27240557261422
 31
0.0
  0
LINE
  5
2D8
  8
0
  6
DASHED2
 62
     7
 10
211.44148408486
 20
81.77240557261436
 30
0.0
 11
208.0414840848603
 21
83.73539648785891
 31
0.0
  0
LINE
  5
2D9
  8
0
  6
DASHED2
 62
     7
 10
208.0414840848602
 20
87.66137831834823
 30
0.0
 11
208.0414840848602
 21
83.73539648785911
 31
0.0
  0
LINE
  5
2DA
  8
0
  6
DASHED2
 62
     7
 10
208.0414840848602
 20
87.66137831834845
 30
0.0
 11
226.2280175643334
 21
98.16137831834845
 31
0.0
  0
LINE
  5
2DB
  8
0
  6
DASHED2
 62
     7
 10
212.0716111037824
 20
90.6809935606191
 30
0.0
 11
225.9280175643334
 21
98.6809935606191
 31
0.0
  0
LINE
  5
2DC
  8
0
  6
DASHED2
 62
     7
 10
136.4243845252051
 20
-84.17643610785463
 30
0.0
 11
171.4243845252051
 21
-84.17643610785463
 31
0.0
  0
LINE
  5
2DD
  8
0
  6
DASHED2
 62
     7
 10
171.4243845252051
 20
-84.17643610785463
 30
0.0
 11
171.4243845252051
 21
-106.6764361078546
 31
0.0
  0
ARC
  5
2DE
  8
0
  6
DIVIDE
 62
     7
 10
225.7747715829371
 20
11.46027291954854
 30
0.0
 40
3.299999952316284
 50
222.3602954687075
 51
239.9999830003174
  0
ARC
  5
2DF
  8
0
  6
DIVIDE
 62
     7
 10
222.8274296639918
 20
16.62602169455388
 30
0.0
 40
1.0
 50
350.7154506536349
 51
401.8051017207902
  0
LINE
  5
2E0
  8
0
  6
CONTINUOUS
 62
     7
 10
-49.72945318857848
 20
58.03724841914513
 30
0.0
 11
-31.53216793836288
 21
62.91319578579444
 31
0.0
  0
LINE
  5
2E1
  8
0
  6
CONTINUOUS
 62
     7
 10
-49.72945248728848
 20
48.58427186037793
 30
0.0
 11
-31.53216723707288
 21
53.46021922702724
 31
0.0
  0
LINE
  5
2E2
  8
0
  6
CONTINUOUS
 62
     7
 10
136.4243845252051
 20
-101.6764361078546
 30
0.0
 11
186.4243845252051
 21
-101.6764361078546
 31
0.0
  0
LINE
  5
2E3
  8
0
  6
CONTINUOUS
 62
     7
 10
136.4243845252051
 20
-96.67643610785463
 30
0.0
 11
167.2195505408301
 21
-96.67643610785463
 31
0.0
  0
LINE
  5
2E4
  8
0
  6
CONTINUOUS
 62
     7
 10
136.4243845252051
 20
-91.67643610785463
 30
0.0
 11
167.2195505408301
 21
-91.67643610785463
 31
0.0
  0
LINE
  5
2E5
  8
0
  6
CONTINUOUS
 62
     7
 10
136.4243845252051
 20
-86.67643610785463
 30
0.0
 11
186.4243845252051
 21
-86.67643610785463
 31
0.0
  0
LINE
  5
2E6
  8
0
  6
CONTINUOUS
 62
     7
 10
136.4243845252051
 20
-81.67643610785463
 30
0.0
 11
146.9355692175879
 21
-81.67643610785463
 31
0.0
  0
LINE
  5
2E7
  8
0
  6
CONTINUOUS
 62
     7
 10
136.4243845252051
 20
-76.67643610785463
 30
0.0
 11
186.4243845252051
 21
-76.67643610785463
 31
0.0
  0
LINE
  5
2E8
  8
0
  6
CONTINUOUS
 62
     7
 10
136.4243845252051
 20
-71.67643610785463
 30
0.0
 11
186.4243845252051
 21
-71.67643610785463
 31
0.0
  0
LINE
  5
2E9
  8
0
  6
CONTINUOUS
 62
     7
 10
136.4243845252051
 20
-66.67643610785463
 30
0.0
 11
186.4243845252051
 21
-66.67643610785463
 31
0.0
  0
LINE
  5
2EA
  8
0
  6
CONTINUOUS
 62
     7
 10
136.4243845252051
 20
-61.67643610785463
 30
0.0
 11
186.4243845252051
 21
-61.67643610785463
 31
0.0
  0
LINE
  5
2EB
  8
0
  6
CONTINUOUS
 62
     7
 10
136.4243845252051
 20
-56.67643610785463
 30
0.0
 11
186.4243845252051
 21
-56.67643610785463
 31
0.0
  0
LINE
  5
2EC
  8
0
  6
CONTINUOUS
 62
     7
 10
141.4243845252051
 20
-56.67643610785463
 30
0.0
 11
141.4243845252051
 21
-106.6764361078546
 31
0.0
  0
LINE
  5
2ED
  8
0
  6
CONTINUOUS
 62
     7
 10
151.4243845252051
 20
-56.67643610785463
 30
0.0
 11
151.4243845252051
 21
-79.23385493109682
 31
0.0
  0
LINE
  5
2EE
  8
0
  6
CONTINUOUS
 62
     7
 10
156.4243845252051
 20
-56.67643610785463
 30
0.0
 11
156.4243845252051
 21
-79.23385493109682
 31
0.0
  0
LINE
  5
2EF
  8
0
  6
CONTINUOUS
 62
     7
 10
161.4243845252051
 20
-56.67643610785463
 30
0.0
 11
161.4243845252051
 21
-79.23385493109682
 31
0.0
  0
LINE
  5
2F0
  8
0
  6
CONTINUOUS
 62
     7
 10
171.4243845252051
 20
-56.67643610785463
 30
0.0
 11
171.4243845252051
 21
-82.15612665961244
 31
0.0
  0
LINE
  5
2F1
  8
0
  6
CONTINUOUS
 62
     7
 10
176.4243845252051
 20
-56.67643610785463
 30
0.0
 11
176.4243845252051
 21
-106.6764361078546
 31
0.0
  0
LINE
  5
2F2
  8
0
  6
CONTINUOUS
 62
     7
 10
181.4243845252051
 20
-56.67643610785463
 30
0.0
 11
181.4243845252051
 21
-106.6764361078546
 31
0.0
  0
LINE
  5
2F3
  8
0
  6
CONTINUOUS
 62
     7
 10
186.4243845252051
 20
-56.67643610785463
 30
0.0
 11
186.4243845252051
 21
-106.6764361078546
 31
0.0
  0
LINE
  5
2F4
  8
0
  6
CONTINUOUS
 62
     7
 10
151.4243845252051
 20
-85.25028864691713
 30
0.0
 11
151.4243845252051
 21
-106.6764361078546
 31
0.0
  0
LINE
  5
2F5
  8
0
  6
CONTINUOUS
 62
     7
 10
172.0327066687598
 20
-91.67643610785463
 30
0.0
 11
186.4243845252051
 21
-91.67643610785463
 31
0.0
  0
LINE
  5
2F6
  8
0
  6
CONTINUOUS
 62
     7
 10
172.0327066687598
 20
-96.67643610785463
 30
0.0
 11
186.4243845252051
 21
-96.67643610785463
 31
0.0
  0
LINE
  5
2F7
  8
0
  6
CONTINUOUS
 62
     7
 10
156.4243845252051
 20
-85.25028864691713
 30
0.0
 11
156.4243845252051
 21
-106.6764361078546
 31
0.0
  0
LINE
  5
2F8
  8
0
  6
CONTINUOUS
 62
     7
 10
161.4243845252051
 20
-85.25028864691713
 30
0.0
 11
161.4243845252051
 21
-106.6764361078546
 31
0.0
  0
LINE
  5
2F9
  8
0
  6
CONTINUOUS
 62
     7
 10
146.4243845252051
 20
-56.67643610785463
 30
0.0
 11
146.4243845252051
 21
-106.6764361078546
 31
0.0
  0
LINE
  5
2FA
  8
0
  6
CONTINUOUS
 62
     7
 10
136.424376230738
 20
-106.6764329412406
 30
0.0
 11
186.4243735008633
 21
-74.53357730023681
 31
0.0
  0
LINE
  5
2FB
  8
0
  6
CONTINUOUS
 62
     7
 10
168.2348764137342
 20
-81.67643610785463
 30
0.0
 11
186.4243845252051
 21
-81.67643610785463
 31
0.0
  0
LINE
  5
2FC
  8
0
  6
CONTINUOUS
 62
     7
 10
166.4243845252051
 20
-56.67643610785463
 30
0.0
 11
166.4243845252051
 21
-79.23385493109682
 31
0.0
  0
LINE
  5
2FD
  8
0
  6
CONTINUOUS
 62
     7
 10
166.4243845252051
 20
-85.25028864691713
 30
0.0
 11
166.4243845252051
 21
-106.6764361078546
 31
0.0
  0
LINE
  5
2FE
  8
0
  6
CONTINUOUS
 62
     3
 10
73.70369941200144
 20
22.34123497026715
 30
0.0
 11
117.8705147455929
 21
47.84095487510626
 31
0.0
  0
LINE
  5
2FF
  8
0
  6
CONTINUOUS
 62
     3
 10
71.56010464121826
 20
30.34123655819556
 30
0.0
 11
72.21206840953417
 21
30.71764797374797
 31
0.0
  0
LINE
  5
300
  8
0
  6
CONTINUOUS
 62
     3
 10
73.70370688681257
 20
22.34124296008466
 30
0.0
 11
79.09644587196223
 21
13.0007463269674
 31
0.0
  0
LINE
  5
301
  8
0
  6
CONTINUOUS
 62
     3
 10
71.56010512425456
 20
30.34124134466234
 30
0.0
 11
73.70370332916974
 21
22.34122492113798
 31
0.0
  0
LINE
  5
302
  8
0
  6
CONTINUOUS
 62
     3
 10
-52.94583393644047
 20
136.2168828362356
 30
0.0
 11
-52.94583393644047
 21
135.0435506218801
 31
0.0
  0
LINE
  5
303
  8
0
  6
CONTINUOUS
 62
     3
 10
-151.9458186776514
 20
137.7168828362356
 30
0.0
 11
-151.9458186776514
 21
119.8099690789113
 31
0.0
  0
LINE
  5
304
  8
0
  6
CONTINUOUS
 62
     3
 10
-151.9458186776514
 20
-32.28311716376445
 30
0.0
 11
-54.44583393644047
 21
-32.28311716376445
 31
0.0
  0
LINE
  5
305
  8
0
  6
CONTINUOUS
 62
     3
 10
-151.9458186776514
 20
137.7168828362356
 30
0.0
 11
-81.95681263517093
 21
137.7168828362356
 31
0.0
  0
LINE
  5
306
  8
0
  6
CONTINUOUS
 62
     3
 10
-147.9458186776514
 20
122.7168828362356
 30
0.0
 11
-147.9458186776514
 21
73.71688283623556
 31
0.0
  0
LINE
  5
307
  8
0
  6
CONTINUOUS
 62
     3
 10
-151.9458186776514
 20
122.7168828362356
 30
0.0
 11
-147.9458186776514
 21
122.7168828362356
 31
0.0
  0
LINE
  5
308
  8
0
  6
CONTINUOUS
 62
     3
 10
-151.9458186776514
 20
-17.28311716376445
 30
0.0
 11
-147.9458186776514
 21
-17.28311716376445
 31
0.0
  0
LINE
  5
309
  8
0
  6
CONTINUOUS
 62
     3
 10
-147.9458186776514
 20
91.71688283623556
 30
0.0
 11
-122.545824781167
 21
91.71688283623556
 31
0.0
  0
LINE
  5
30A
  8
0
  6
CONTINUOUS
 62
     3
 10
-147.9458186776514
 20
13.71688402832845
 30
0.0
 11
-73.94583393644047
 21
13.71688402832845
 31
0.0
  0
LINE
  5
30B
  8
0
  6
CONTINUOUS
 62
     3
 10
-147.9458186776514
 20
9.216883789909872
 30
0.0
 11
-113.9458186776514
 21
9.216883789909872
 31
0.0
  0
LINE
  5
30C
  8
0
  6
CONTINUOUS
 62
     3
 10
-113.9458186776514
 20
13.71688402832845
 30
0.0
 11
-113.9458186776514
 21
9.216883789909872
 31
0.0
  0
LINE
  5
30D
  8
0
  6
CONTINUOUS
 62
     3
 10
-147.9458186776514
 20
5.831885468376669
 30
0.0
 11
-63.94583393644047
 21
5.831885468376669
 31
0.0
  0
LINE
  5
30E
  8
0
  6
CONTINUOUS
 62
     3
 10
-147.9458186776514
 20
-5.168113577949015
 30
0.0
 11
-63.94583393644047
 21
-5.168113577949015
 31
0.0
  0
LINE
  5
30F
  8
0
  6
CONTINUOUS
 62
     3
 10
-63.94583393644047
 20
-8.168113577949015
 30
0.0
 11
-52.94583393644047
 21
-8.168113577949015
 31
0.0
  0
LINE
  5
310
  8
0
  6
CONTINUOUS
 62
     3
 10
-63.94583393644047
 20
8.831885468376669
 30
0.0
 11
-52.94583393644047
 21
8.831885468376669
 31
0.0
  0
LINE
  5
311
  8
0
  6
CONTINUOUS
 62
     3
 10
-63.94583393644047
 20
8.831885468376669
 30
0.0
 11
-63.94583393644047
 21
-8.168113577949015
 31
0.0
  0
LINE
  5
312
  8
0
  6
CONTINUOUS
 62
     3
 10
-94.94583393644047
 20
137.7168828362356
 30
0.0
 11
-94.94583393644047
 21
124.4628468865285
 31
0.0
  0
LINE
  5
313
  8
0
  6
CONTINUOUS
 62
     3
 10
-163.9458186776514
 20
-4.668113577949015
 30
0.0
 11
-63.94583393644047
 21
-4.668113577949015
 31
0.0
  0
LINE
  5
314
  8
0
  6
CONTINUOUS
 62
     3
 10
-163.9458186776514
 20
5.331885468376669
 30
0.0
 11
-63.94583393644047
 21
5.331885468376669
 31
0.0
  0
LINE
  5
315
  8
0
  6
CONTINUOUS
 62
     3
 10
-63.94583393644047
 20
8.331885468376669
 30
0.0
 11
-53.94583393644047
 21
8.331885468376669
 31
0.0
  0
LINE
  5
316
  8
0
  6
CONTINUOUS
 62
     3
 10
-63.94583393644047
 20
-7.668113577949015
 30
0.0
 11
-53.94583393644047
 21
-7.668113577949015
 31
0.0
  0
LINE
  5
317
  8
0
  6
CONTINUOUS
 62
     3
 10
-53.94583393644047
 20
8.331885468376669
 30
0.0
 11
-53.94583393644047
 21
-7.668113577949015
 31
0.0
  0
LINE
  5
318
  8
0
  6
CONTINUOUS
 62
     3
 10
-131.9458186776514
 20
5.331885468376669
 30
0.0
 11
-131.9458186776514
 21
-4.668113577949015
 31
0.0
  0
LINE
  5
319
  8
0
  6
CONTINUOUS
 62
     3
 10
-151.9458186776514
 20
-4.668113577949015
 30
0.0
 11
-151.9458186776514
 21
-32.28311716376445
 31
0.0
  0
LINE
  5
31A
  8
0
  6
CONTINUOUS
 62
     3
 10
-147.9458186776514
 20
-5.168113577949015
 30
0.0
 11
-147.9458186776514
 21
-17.28311716376445
 31
0.0
  0
LINE
  5
31B
  8
0
  6
CONTINUOUS
 62
     3
 10
-115.3301875741358
 20
87.21688283623556
 30
0.0
 11
-98.56148029874515
 21
87.21688283623556
 31
0.0
  0
LINE
  5
31C
  8
0
  6
CONTINUOUS
 62
     3
 10
-112.4458339364405
 20
73.71688283623556
 30
0.0
 11
-101.4458339364405
 21
73.71688283623556
 31
0.0
  0
LINE
  5
31D
  8
0
  6
CONTINUOUS
 62
     3
 10
-113.9458339364405
 20
75.31688512505392
 30
0.0
 11
-99.94583393644047
 21
75.31688512505392
 31
0.0
  0
LINE
  5
31E
  8
0
  6
CONTINUOUS
 62
     3
 10
-115.3301875741358
 20
76.31688512505392
 30
0.0
 11
-98.56148029874515
 21
76.31688512505392
 31
0.0
  0
LINE
  5
31F
  8
0
  6
CONTINUOUS
 62
     3
 10
-99.94583393644047
 20
97.90365569124519
 30
0.0
 11
-99.94583393644047
 21
87.21688283623556
 31
0.0
  0
LINE
  5
320
  8
0
  6
CONTINUOUS
 62
     3
 10
-113.9458691300467
 20
87.21688294018398
 30
0.0
 11
-115.3696713447203
 21
97.71742383917093
 31
0.0
  0
LINE
  5
321
  8
0
  6
CONTINUOUS
 62
     3
 10
-91.34582783292484
 20
91.71688283623556
 30
0.0
 11
-82.34582783292484
 21
91.71688283623556
 31
0.0
  0
LINE
  5
322
  8
0
  6
CONTINUOUS
 62
     3
 10
-111.9458339364405
 20
76.31688512505392
 30
0.0
 11
-111.9458339364405
 21
75.31688512505392
 31
0.0
  0
LINE
  5
323
  8
0
  6
CONTINUOUS
 62
     3
 10
-101.9458339364405
 20
76.31688512505392
 30
0.0
 11
-101.9458339364405
 21
75.31688512505392
 31
0.0
  0
LINE
  5
324
  8
0
  6
CONTINUOUS
 62
     3
 10
-99.94583393644047
 20
76.31688512505392
 30
0.0
 11
-99.94583393644047
 21
75.31688512505392
 31
0.0
  0
LINE
  5
325
  8
0
  6
CONTINUOUS
 62
     3
 10
-113.9458339364405
 20
76.31688512505392
 30
0.0
 11
-113.9458339364405
 21
75.31688512505392
 31
0.0
  0
LINE
  5
326
  8
0
  6
CONTINUOUS
 62
     3
 10
-112.4458339364405
 20
87.21688283623556
 30
0.0
 11
-112.4458339364405
 21
76.31688512505392
 31
0.0
  0
LINE
  5
327
  8
0
  6
CONTINUOUS
 62
     3
 10
-101.4458339364405
 20
87.21688283623556
 30
0.0
 11
-101.4458339364405
 21
76.31688512505392
 31
0.0
  0
LINE
  5
328
  8
0
  6
CONTINUOUS
 62
     3
 10
-112.4458339364405
 20
75.31688512505392
 30
0.0
 11
-112.4458339364405
 21
73.71688283623556
 31
0.0
  0
LINE
  5
329
  8
0
  6
CONTINUOUS
 62
     3
 10
-101.4458339364405
 20
75.31688512505392
 30
0.0
 11
-101.4458339364405
 21
73.71688283623556
 31
0.0
  0
LINE
  5
32A
  8
0
  6
CONTINUOUS
 62
     3
 10
-67.94583393644047
 20
137.7168828362356
 30
0.0
 11
-67.94583393644047
 21
70.71688283623556
 31
0.0
  0
LINE
  5
32B
  8
0
  6
CONTINUOUS
 62
     3
 10
-94.94583393644047
 20
92.71688283623556
 30
0.0
 11
-73.94583393644047
 21
92.71688283623556
 31
0.0
  0
LINE
  5
32C
  8
0
  6
CONTINUOUS
 62
     3
 10
-73.94583393644047
 20
70.71688283623556
 30
0.0
 11
-67.94583393644047
 21
70.71688283623556
 31
0.0
  0
LINE
  5
32D
  8
0
  6
CONTINUOUS
 62
     3
 10
-73.94583393644047
 20
78.71687902153829
 30
0.0
 11
-67.94583393644047
 21
78.71687902153829
 31
0.0
  0
LINE
  5
32E
  8
0
  6
CONTINUOUS
 62
     3
 10
-67.94583393644047
 20
92.71688283623556
 30
0.0
 11
-53.94583393644047
 21
92.71688283623556
 31
0.0
  0
LINE
  5
32F
  8
0
  6
CONTINUOUS
 62
     3
 10
-73.94583393644047
 20
97.71688283623556
 30
0.0
 11
-73.94583393644047
 21
70.71688283623556
 31
0.0
  0
LINE
  5
330
  8
0
  6
CONTINUOUS
 62
     3
 10
-66.94583393644047
 20
134.7168828362356
 30
0.0
 11
-66.94583393644047
 21
93.71688283623556
 31
0.0
  0
LINE
  5
331
  8
0
  6
CONTINUOUS
 62
     3
 10
-66.94583393644047
 20
134.7168828362356
 30
0.0
 11
-52.44583393644047
 21
134.7168828362356
 31
0.0
  0
LINE
  5
332
  8
0
  6
CONTINUOUS
 62
     3
 10
-66.94583393644047
 20
93.71688283623556
 30
0.0
 11
-52.44583393644047
 21
93.71688283623556
 31
0.0
  0
LINE
  5
333
  8
0
  6
CONTINUOUS
 62
     3
 10
-52.44583393644047
 20
134.7168828362356
 30
0.0
 11
-52.44583393644047
 21
130.0668813103567
 31
0.0
  0
LINE
  5
334
  8
0
  6
CONTINUOUS
 62
     3
 10
-66.94583393644047
 20
97.71688283623556
 30
0.0
 11
-46.94583393644047
 21
97.71688283623556
 31
0.0
  0
LINE
  5
335
  8
0
  6
CONTINUOUS
 62
     3
 10
-66.94583393644047
 20
105.7168828362356
 30
0.0
 11
-46.94583393644047
 21
105.7168828362356
 31
0.0
  0
LINE
  5
336
  8
0
  6
CONTINUOUS
 62
     3
 10
-66.94583393644047
 20
130.7168828362356
 30
0.0
 11
-46.94583393644047
 21
130.7168828362356
 31
0.0
  0
LINE
  5
337
  8
0
  6
CONTINUOUS
 62
     3
 10
-66.94583393644047
 20
122.7168828362356
 30
0.0
 11
-46.94583393644047
 21
122.7168828362356
 31
0.0
  0
LINE
  5
338
  8
0
  6
CONTINUOUS
 62
     3
 10
-46.94583393644047
 20
133.2168828362356
 30
0.0
 11
-46.94583393644047
 21
120.2168828362356
 31
0.0
  0
LINE
  5
339
  8
0
  6
CONTINUOUS
 62
     3
 10
-38.94583393644047
 20
133.2168828362356
 30
0.0
 11
-38.94583393644047
 21
120.2168828362356
 31
0.0
  0
LINE
  5
33A
  8
0
  6
CONTINUOUS
 62
     3
 10
-46.94583393644047
 20
95.21688283623556
 30
0.0
 11
-38.94583393644047
 21
95.21688283623556
 31
0.0
  0
LINE
  5
33B
  8
0
  6
CONTINUOUS
 62
     3
 10
-46.94583393644047
 20
108.2168828362356
 30
0.0
 11
-38.94583393644047
 21
108.2168828362356
 31
0.0
  0
LINE
  5
33C
  8
0
  6
CONTINUOUS
 62
     3
 10
-46.94583393644047
 20
133.2168828362356
 30
0.0
 11
-38.94583393644047
 21
133.2168828362356
 31
0.0
  0
LINE
  5
33D
  8
0
  6
CONTINUOUS
 62
     3
 10
-46.94583393644047
 20
120.2168828362356
 30
0.0
 11
-38.94583393644047
 21
120.2168828362356
 31
0.0
  0
LINE
  5
33E
  8
0
  6
CONTINUOUS
 62
     3
 10
-64.94583393644047
 20
130.7168828362356
 30
0.0
 11
-64.94583393644047
 21
122.7168828362356
 31
0.0
  0
LINE
  5
33F
  8
0
  6
CONTINUOUS
 62
     3
 10
-64.94583393644047
 20
105.7168828362356
 30
0.0
 11
-64.94583393644047
 21
97.71688283623556
 31
0.0
  0
LINE
  5
340
  8
0
  6
CONTINUOUS
 62
     3
 10
-52.44583393644047
 20
123.3668843621145
 30
0.0
 11
-52.44583393644047
 21
105.0668813103567
 31
0.0
  0
LINE
  5
341
  8
0
  6
CONTINUOUS
 62
     3
 10
-52.44583393644047
 20
98.36688436211446
 30
0.0
 11
-52.44583393644047
 21
93.71688283623556
 31
0.0
  0
LINE
  5
342
  8
0
  6
CONTINUOUS
 62
     3
 10
-46.94583393644047
 20
108.2168828362356
 30
0.0
 11
-46.94583393644047
 21
95.21688283623556
 31
0.0
  0
LINE
  5
343
  8
0
  6
CONTINUOUS
 62
     3
 10
-38.94583393644047
 20
108.2168828362356
 30
0.0
 11
-38.94583393644047
 21
95.21688283623556
 31
0.0
  0
LINE
  5
344
  8
0
  6
CONTINUOUS
 62
     3
 10
-151.9458186776514
 20
31.71688378990987
 30
0.0
 11
-151.9458186776514
 21
5.331885468376669
 31
0.0
  0
LINE
  5
345
  8
0
  6
CONTINUOUS
 62
     3
 10
-147.9458186776514
 20
31.71688378990987
 30
0.0
 11
-147.9458186776514
 21
5.831885468376669
 31
0.0
  0
LINE
  5
346
  8
0
  6
CONTINUOUS
 62
     3
 10
-129.4458186776514
 20
28.71688378990987
 30
0.0
 11
-116.9458339364405
 21
28.71688378990987
 31
0.0
  0
LINE
  5
347
  8
0
  6
CONTINUOUS
 62
     3
 10
-129.4458186776514
 20
76.71687902153829
 30
0.0
 11
-116.9458339364405
 21
76.71687902153829
 31
0.0
  0
LINE
  5
348
  8
0
  6
CONTINUOUS
 62
     3
 10
-96.94583393644047
 20
28.71688378990987
 30
0.0
 11
-84.44583393644047
 21
28.71688378990987
 31
0.0
  0
LINE
  5
349
  8
0
  6
CONTINUOUS
 62
     3
 10
-96.94583393644047
 20
76.71687902153829
 30
0.0
 11
-84.44583393644047
 21
76.71687902153829
 31
0.0
  0
LINE
  5
34A
  8
0
  6
CONTINUOUS
 62
     3
 10
-91.34582783292484
 20
91.71688283623556
 30
0.0
 11
-91.34582783292484
 21
84.04801381768087
 31
0.0
  0
LINE
  5
34B
  8
0
  6
CONTINUOUS
 62
     3
 10
-130.0475989675418
 20
25.71685336999215
 30
0.0
 11
-122.5458332427755
 21
21.38570738791421
 31
0.0
  0
LINE
  5
34C
  8
0
  6
CONTINUOUS
 62
     3
 10
-91.34584198460362
 20
84.04801404011371
 30
0.0
 11
-83.84410268883659
 21
79.71688331682393
 31
0.0
  0
LINE
  5
34D
  8
0
  6
CONTINUOUS
 62
     3
 10
-130.0476071548921
 20
79.71691877019796
 30
0.0
 11
-122.5458414301258
 21
84.04806475227591
 31
0.0
  0
LINE
  5
34E
  8
0
  6
CONTINUOUS
 62
     3
 10
-91.34583511857585
 20
21.38577780322979
 30
0.0
 11
-83.84409582280881
 21
25.71690852651958
 31
0.0
  0
LINE
  5
34F
  8
0
  6
CONTINUOUS
 62
     3
 10
-122.545824781167
 20
91.71688283623556
 30
0.0
 11
-122.545824781167
 21
84.04802907646993
 31
0.0
  0
LINE
  5
350
  8
0
  6
CONTINUOUS
 62
     3
 10
-91.34582783292484
 20
21.38575185479024
 30
0.0
 11
-91.34582783292484
 21
17.71688301504949
 31
0.0
  0
LINE
  5
351
  8
0
  6
CONTINUOUS
 62
     3
 10
-99.94583393644047
 20
89.71688283623556
 30
0.0
 11
-93.34582783292484
 21
89.71688283623556
 31
0.0
  0
LINE
  5
352
  8
0
  6
CONTINUOUS
 62
     3
 10
-120.545824781167
 20
89.71688283623556
 30
0.0
 11
-114.5560023934717
 21
89.71688283623556
 31
0.0
  0
LINE
  5
353
  8
0
  6
CONTINUOUS
 62
     3
 10
-132.545824781167
 20
91.71688283623556
 30
0.0
 11
-132.545824781167
 21
87.90688527764181
 31
0.0
  0
LINE
  5
354
  8
0
  6
CONTINUOUS
 62
     3
 10
-135.045824781167
 20
79.71687902153829
 30
0.0
 11
-130.0475948006983
 21
79.71687902153829
 31
0.0
  0
LINE
  5
355
  8
0
  6
CONTINUOUS
 62
     3
 10
-135.045824781167
 20
25.71688283623556
 30
0.0
 11
-130.0475948006983
 21
25.71688283623556
 31
0.0
  0
LINE
  5
356
  8
0
  6
CONTINUOUS
 62
     3
 10
-83.84408833097172
 20
79.71687902153829
 30
0.0
 11
-81.34582783292484
 21
79.71687902153829
 31
0.0
  0
LINE
  5
357
  8
0
  6
CONTINUOUS
 62
     3
 10
-83.84408833097172
 20
25.71688283623556
 30
0.0
 11
-81.34582783292484
 21
25.71688283623556
 31
0.0
  0
LINE
  5
358
  8
0
  6
CONTINUOUS
 62
     3
 10
-132.545824781167
 20
17.52688438834051
 30
0.0
 11
-132.545824781167
 21
13.71688402832845
 31
0.0
  0
LINE
  5
359
  8
0
  6
CONTINUOUS
 62
     3
 10
-140.545824781167
 20
90.71688283623556
 30
0.0
 11
-140.545824781167
 21
78.71687902153829
 31
0.0
  0
LINE
  5
35A
  8
0
  6
CONTINUOUS
 62
     3
 10
-140.545824781167
 20
26.71688283623556
 30
0.0
 11
-140.545824781167
 21
14.71688402832845
 31
0.0
  0
LINE
  5
35B
  8
0
  6
CONTINUOUS
 62
     3
 10
-162.045824781167
 20
73.71688283623556
 30
0.0
 11
-145.545824781167
 21
73.71688283623556
 31
0.0
  0
LINE
  5
35C
  8
0
  6
CONTINUOUS
 62
     3
 10
-162.045824781167
 20
31.71688378990987
 30
0.0
 11
-145.545824781167
 21
31.71688378990987
 31
0.0
  0
LINE
  5
35D
  8
0
  6
CONTINUOUS
 62
     3
 10
-132.545824781167
 20
16.71688301504949
 30
0.0
 11
-130.045824781167
 21
16.71688301504949
 31
0.0
  0
LINE
  5
35E
  8
0
  6
CONTINUOUS
 62
     3
 10
-132.545824781167
 20
88.71688283623556
 30
0.0
 11
-122.545824781167
 21
88.71688283623556
 31
0.0
  0
LINE
  5
35F
  8
0
  6
CONTINUOUS
 62
     3
 10
-146.545824781167
 20
35.21688474358419
 30
0.0
 11
-144.545824781167
 21
35.21688474358419
 31
0.0
  0
LINE
  5
360
  8
0
  6
CONTINUOUS
 62
     3
 10
-146.545824781167
 20
70.21688283623556
 30
0.0
 11
-144.545824781167
 21
70.21688283623556
 31
0.0
  0
LINE
  5
361
  8
0
  6
CONTINUOUS
 62
     3
 10
-163.545824781167
 20
36.53688443840841
 30
0.0
 11
-147.545824781167
 21
36.53688443840841
 31
0.0
  0
LINE
  5
362
  8
0
  6
CONTINUOUS
 62
     3
 10
-163.545824781167
 20
68.89688314141134
 30
0.0
 11
-147.545824781167
 21
68.89688314141134
 31
0.0
  0
LINE
  5
363
  8
0
  6
CONTINUOUS
 62
     3
 10
-143.545824781167
 20
38.21688474358419
 30
0.0
 11
-135.045824781167
 21
38.21688474358419
 31
0.0
  0
LINE
  5
364
  8
0
  6
CONTINUOUS
 62
     3
 10
-143.545824781167
 20
67.21688283623556
 30
0.0
 11
-135.045824781167
 21
67.21688283623556
 31
0.0
  0
LINE
  5
365
  8
0
  6
CONTINUOUS
 62
     3
 10
-163.5458946264561
 20
33.21681696827957
 30
0.0
 11
-162.0458930340719
 21
31.71681537589532
 31
0.0
  0
LINE
  5
366
  8
0
  6
CONTINUOUS
 62
     3
 10
-163.5459216004387
 20
72.21696087140393
 30
0.0
 11
-162.0459200080545
 21
73.71696246378818
 31
0.0
  0
LINE
  5
367
  8
0
  6
CONTINUOUS
 62
     3
 10
-140.5457838931533
 20
90.71684564089676
 30
0.0
 11
-139.5457828315638
 21
91.71684670248627
 31
0.0
  0
LINE
  5
368
  8
0
  6
CONTINUOUS
 62
     3
 10
-140.5457892879498
 20
14.71691061960067
 30
0.0
 11
-139.5457882263603
 21
13.71690955801117
 31
0.0
  0
LINE
  5
369
  8
0
  6
CONTINUOUS
 62
     3
 10
-81.34581167963637
 20
14.71687285602505
 30
0.0
 11
-82.34581274122587
 21
13.71687179443555
 31
0.0
  0
LINE
  5
36A
  8
0
  6
CONTINUOUS
 62
     3
 10
-81.34581909748152
 20
90.71690296060976
 30
0.0
 11
-82.34582015907103
 21
91.71690402219926
 31
0.0
  0
LINE
  5
36B
  8
0
  6
CONTINUOUS
 62
     3
 10
-122.545824781167
 20
17.71688301504949
 30
0.0
 11
-91.34582783292484
 21
17.71688301504949
 31
0.0
  0
LINE
  5
36C
  8
0
  6
CONTINUOUS
 62
     3
 10
-122.545824781167
 20
21.38574422539571
 30
0.0
 11
-122.545824781167
 21
16.71688301504949
 31
0.0
  0
LINE
  5
36D
  8
0
  6
CONTINUOUS
 62
     3
 10
-60.94583393644047
 20
137.7168828362356
 30
0.0
 11
-60.94583393644047
 21
134.7168828362356
 31
0.0
  0
LINE
  5
36E
  8
0
  6
CONTINUOUS
 62
     3
 10
-53.94583393644047
 20
137.7168828362356
 30
0.0
 11
-53.94583393644047
 21
134.7168828362356
 31
0.0
  0
LINE
  5
36F
  8
0
  6
CONTINUOUS
 62
     3
 10
-53.94583393644047
 20
93.71688283623556
 30
0.0
 11
-53.94583393644047
 21
92.71688283623556
 31
0.0
  0
LINE
  5
370
  8
0
  6
CONTINUOUS
 62
     3
 10
-60.94583393644047
 20
93.71688283623556
 30
0.0
 11
-60.94583393644047
 21
92.71688283623556
 31
0.0
  0
LINE
  5
371
  8
0
  6
CONTINUOUS
 62
     3
 10
-53.9458283421115
 20
137.2168895853361
 30
0.0
 11
-52.94583798582215
 21
136.2168993133396
 31
0.0
  0
LINE
  5
372
  8
0
  6
CONTINUOUS
 62
     3
 10
-125.045824781167
 20
20.71688307465414
 30
0.0
 11
-125.045824781167
 21
13.71688402832845
 31
0.0
  0
LINE
  5
373
  8
0
  6
CONTINUOUS
 62
     3
 10
-130.045824781167
 20
20.71688307465414
 30
0.0
 11
-130.045824781167
 21
13.71688402832845
 31
0.0
  0
LINE
  5
374
  8
0
  6
CONTINUOUS
 62
     3
 10
-130.045824781167
 20
20.71688307465414
 30
0.0
 11
-125.045824781167
 21
20.71688307465414
 31
0.0
  0
LINE
  5
375
  8
0
  6
CONTINUOUS
 62
     3
 10
-125.045824781167
 20
16.71688301504949
 30
0.0
 11
-122.545824781167
 21
16.71688301504949
 31
0.0
  0
LINE
  5
376
  8
0
  6
CONTINUOUS
 62
     3
 10
-52.94583264619149
 20
-30.78310059349556
 30
0.0
 11
-54.44584502816878
 21
-32.28311297547285
 31
0.0
  0
LINE
  5
377
  8
0
  6
CONTINUOUS
 62
     3
 10
-67.03674580167484
 20
82.04690755547384
 30
0.0
 11
-63.44583393644047
 21
82.04690755547384
 31
0.0
  0
LINE
  5
378
  8
0
  6
CONTINUOUS
 62
     3
 10
-151.9458186776514
 20
95.87500966729024
 30
0.0
 11
-151.9458186776514
 21
73.71688283623556
 31
0.0
  0
LINE
  5
379
  8
0
  6
CONTINUOUS
 62
     3
 10
76.70403541633093
 20
17.14509961108072
 30
0.0
 11
82.76621396848165
 21
20.64509856799944
 31
0.0
  0
LINE
  5
37A
  8
0
  6
CONTINUOUS
 62
     3
 10
87.76621489468627
 20
17.75833622246913
 30
0.0
 11
82.76620605802756
 21
20.64509449595474
 31
0.0
  0
LINE
  5
37B
  8
0
  6
CONTINUOUS
 62
     3
 10
84.7040396393954
 20
3.288695306575193
 30
0.0
 11
90.76621819154613
 21
6.788694263493909
 31
0.0
  0
LINE
  5
37C
  8
0
  6
CONTINUOUS
 62
     3
 10
84.50764457516291
 20
8.60239328274136
 30
0.0
 11
82.06578581895067
 21
8.231816213782423
 31
0.0
  0
LINE
  5
37D
  8
0
  6
CONTINUOUS
 62
     3
 10
79.66576609104706
 20
12.3887342226499
 30
0.0
 11
82.06576690166978
 21
8.231809143989295
 31
0.0
  0
LINE
  5
37E
  8
0
  6
CONTINUOUS
 62
     3
 10
79.66573948273432
 20
12.38873278802001
 30
0.0
 11
81.20759850665669
 21
14.31815556242489
 31
0.0
  0
LINE
  5
37F
  8
0
  6
CONTINUOUS
 62
     3
 10
81.2076286796017
 20
14.31815638033166
 30
0.0
 11
84.50763074788196
 21
8.602382745360757
 31
0.0
  0
LINE
  5
380
  8
0
  6
CONTINUOUS
 62
     3
 10
84.79863331587123
 20
16.49833269956551
 30
0.0
 11
88.19123331798093
 21
10.62217467152939
 31
0.0
  0
LINE
  5
381
  8
0
  6
CONTINUOUS
 62
     3
 10
85.05955705344545
 20
17.29261557017847
 30
0.0
 11
86.51988490097287
 21
18.13573589386013
 31
0.0
  0
LINE
  5
382
  8
0
  6
CONTINUOUS
 62
     3
 10
86.15652316963903
 20
15.67429106771286
 30
0.0
 11
87.43143175282646
 21
16.41035957393322
 31
0.0
  0
LINE
  5
383
  8
0
  6
CONTINUOUS
 62
     3
 10
38.78201246385376
 20
-7.635918723267622
 30
0.0
 11
31.85380853202108
 21
-11.635919676942
 31
0.0
  0
LINE
  5
384
  8
0
  6
CONTINUOUS
 62
     3
 10
31.10381200177531
 20
-10.33688394453102
 30
0.0
 11
31.85381209118228
 21
-11.63592202689225
 31
0.0
  0
LINE
  5
385
  8
0
  6
CONTINUOUS
 62
     3
 10
31.10380844261411
 20
-10.33688159458077
 30
0.0
 11
25.04163072492841
 21
-13.83688201181329
 31
0.0
  0
LINE
  5
386
  8
0
  6
CONTINUOUS
 62
     3
 10
25.04162989902224
 20
-13.8368824886505
 30
0.0
 11
32.04163073348727
 21
-25.9612379240219
 31
0.0
  0
LINE
  5
387
  8
0
  6
CONTINUOUS
 62
     3
 10
38.10381201033417
 20
-22.46123985673964
 30
0.0
 11
32.04163429264847
 21
-25.96124027397215
 31
0.0
  0
LINE
  5
388
  8
0
  6
CONTINUOUS
 62
     3
 10
37.35381274683337
 20
-21.1622012975412
 30
0.0
 11
38.10381283624034
 21
-22.46123937990242
 31
0.0
  0
LINE
  5
389
  8
0
  6
CONTINUOUS
 62
     3
 10
44.28201667866605
 20
-17.16220034386683
 30
0.0
 11
37.35381026911486
 21
-21.16220272805285
 31
0.0
  0
LINE
  5
38A
  8
0
  6
CONTINUOUS
 62
     3
 10
48.53201388168085
 20
-24.52341805126261
 30
0.0
 11
12.15894427194198
 21
-45.52342246200655
 31
0.0
  0
LINE
  5
38B
  8
0
  6
CONTINUOUS
 62
     3
 10
35.54163115071978
 20
-32.0234156417076
 30
0.0
 11
39.54163162755694
 21
-38.95161874763411
 31
0.0
  0
LINE
  5
38C
  8
0
  6
CONTINUOUS
 62
     3
 10
39.54162832393226
 20
-38.95162065498298
 30
0.0
 11
16.15894118961793
 21
-52.45162321798281
 31
0.0
  0
LINE
  5
38D
  8
0
  6
CONTINUOUS
 62
     3
 10
-5.841057873825235
 20
-14.34650848533724
 30
0.0
 11
16.15894284143027
 21
-52.45162226430838
 31
0.0
  0
LINE
  5
38E
  8
0
  6
CONTINUOUS
 62
     3
 10
17.541629958627
 20
-0.8465033168506295
 30
0.0
 11
-5.841058827499666
 21
-14.3465068335249
 31
0.0
  0
LINE
  5
38F
  8
0
  6
CONTINUOUS
 62
     3
 10
17.54163091230143
 20
-0.8465049686629698
 30
0.0
 11
21.54162948178973
 21
-7.774704770964803
 31
0.0
  0
LINE
  5
390
  8
0
  6
CONTINUOUS
 62
     3
 10
34.5320122127508
 20
-0.2747071805198118
 30
0.0
 11
-1.841059048800418
 21
-21.27471254493818
 31
0.0
  0
LINE
  5
391
  8
0
  6
CONTINUOUS
 62
     3
 10
24.54370901251812
 20
17.025542885524
 30
0.0
 11
34.53201195721428
 21
-0.2747029232207012
 31
0.0
  0
LINE
  5
392
  8
0
  6
CONTINUOUS
 62
     3
 10
43.53201468191023
 20
-15.86315895788093
 30
0.0
 11
44.28201667866605
 21
-17.16220034386683
 31
0.0
  0
LINE
  5
393
  8
0
  6
CONTINUOUS
 62
     3
 10
38.78201602301496
 20
-7.635921073217872
 30
0.0
 11
39.53201420507307
 21
-8.934955851954413
 31
0.0
  0
LINE
  5
394
  8
0
  6
CONTINUOUS
 62
     3
 10
26.15765820773697
 20
-13.76989345423601
 30
0.0
 11
32.65766088994621
 21
-25.02822680499128
 31
0.0
  0
LINE
  5
395
  8
0
  6
CONTINUOUS
 62
     3
 10
37.85381198053184
 20
-22.02822716261923
 30
0.0
 11
32.65765882518079
 21
-25.02822799708432
 31
0.0
  0
LINE
  5
396
  8
0
  6
CONTINUOUS
 62
     3
 10
31.35381120567146
 20
-10.76989711548865
 30
0.0
 11
26.15765887622658
 21
-13.76989747311652
 31
0.0
  0
LINE
  5
397
  8
0
  6
CONTINUOUS
 62
     3
 10
48.29515787639591
 20
-13.11316098000563
 30
0.0
 11
31.40766115388769
 21
-22.86316309597063
 31
0.0
  0
LINE
  5
398
  8
0
  6
CONTINUOUS
 62
     3
 10
44.29515549220989
 20
-6.184954570454437
 30
0.0
 11
27.4076579437955
 21
-15.93495716325666
 31
0.0
  0
LINE
  5
399
  8
0
  6
CONTINUOUS
 62
     3
 10
56.47336113133403
 20
-11.27822397377051
 30
0.0
 11
49.54515637359518
 21
-15.2782254042821
 31
0.0
  0
LINE
  5
39A
  8
0
  6
CONTINUOUS
 62
     3
 10
49.97336035647365
 20
-0.0198939266399236
 30
0.0
 11
43.04515559873479
 21
-4.019895357151512
 31
0.0
  0
LINE
  5
39B
  8
0
  6
CONTINUOUS
 62
     3
 10
43.04515725054714
 20
-4.019894403477082
 30
0.0
 11
49.54515611805866
 21
-15.27822114698299
 31
0.0
  0
LINE
  5
39C
  8
0
  6
CONTINUOUS
 62
     3
 10
49.97336035647365
 20
-0.0198939266399236
 30
0.0
 11
56.47335922398517
 21
-11.27822067014583
 31
0.0
  0
LINE
  5
39D
  8
0
  6
CONTINUOUS
 62
     3
 10
15.01534611727627
 20
-25.39905913062032
 30
0.0
 11
17.01534659411342
 21
-21.93495781607564
 31
0.0
  0
LINE
  5
39E
  8
0
  6
CONTINUOUS
 62
     3
 10
17.01534832701665
 20
-21.93496118842265
 30
0.0
 11
21.01534928069097
 21
-21.93496118842265
 31
0.0
  0
LINE
  5
39F
  8
0
  6
CONTINUOUS
 62
     3
 10
21.01535005429506
 20
-21.93496575723552
 30
0.0
 11
23.01534862378358
 21
-25.39906826387309
 31
0.0
  0
LINE
  5
3A0
  8
0
  6
CONTINUOUS
 62
     3
 10
23.01535535788591
 20
-25.39906799108437
 30
0.0
 11
21.01535297370012
 21
-28.86316835195473
 31
0.0
  0
LINE
  5
3A1
  8
0
  6
CONTINUOUS
 62
     3
 10
21.01534737334234
 20
-28.86316858588359
 30
0.0
 11
17.01534641966802
 21
-28.86316858588359
 31
0.0
  0
LINE
  5
3A2
  8
0
  6
CONTINUOUS
 62
     3
 10
17.01534790401965
 20
-28.86316672662812
 30
0.0
 11
15.01534885769397
 21
-25.39906469682771
 31
0.0
  0
LINE
  5
3A3
  8
0
  6
CONTINUOUS
 62
     3
 10
-70.94583393644047
 20
137.7168828362356
 30
0.0
 11
-70.94583393644047
 21
130.7168828362356
 31
0.0
  0
LINE
  5
3A4
  8
0
  6
CONTINUOUS
 62
     3
 10
-86.94583393644047
 20
130.7168828362356
 30
0.0
 11
-83.18167378019047
 21
130.7168828362356
 31
0.0
  0
LINE
  5
3A5
  8
0
  6
CONTINUOUS
 62
     3
 10
-86.94583393644047
 20
137.7168828362356
 30
0.0
 11
-86.94583393644047
 21
130.7168828362356
 31
0.0
  0
LINE
  5
3A6
  8
0
  6
CONTINUOUS
 62
     3
 10
-86.94582574523923
 20
130.7168917514182
 30
0.0
 11
-81.94581587619581
 21
127.8301350265097
 31
0.0
  0
LINE
  5
3A7
  8
0
  6
CONTINUOUS
 62
     3
 10
-81.94583393644047
 20
127.8301335686574
 30
0.0
 11
-75.94583393644047
 21
127.8301335686574
 31
0.0
  0
LINE
  5
3A8
  8
0
  6
CONTINUOUS
 62
     3
 10
-75.94583994261615
 20
127.8301519894601
 30
0.0
 11
-70.94583709377565
 21
130.716904661253
 31
0.0
  0
LINE
  5
3A9
  8
0
  6
CONTINUOUS
 62
     3
 10
-76.54583241056156
 20
137.5301305168996
 30
0.0
 11
-81.34583546231937
 21
137.5301305168996
 31
0.0
  0
LINE
  5
3AA
  8
0
  6
CONTINUOUS
 62
     3
 10
-82.89583088468265
 20
130.4070302361379
 30
0.0
 11
-82.89583088468265
 21
128.720781456841
 31
0.0
  0
LINE
  5
3AB
  8
0
  6
CONTINUOUS
 62
     3
 10
-74.99583698819828
 20
130.4070302361379
 30
0.0
 11
-74.99583698819828
 21
128.720781456841
 31
0.0
  0
LINE
  5
3AC
  8
0
  6
CONTINUOUS
 62
     3
 10
-75.64583088468265
 20
135.2301274651418
 30
0.0
 11
-82.24583698819828
 21
135.2301274651418
 31
0.0
  0
LINE
  5
3AD
  8
0
  6
CONTINUOUS
 62
     3
 10
-75.55324818204593
 20
131.0301305168996
 30
0.0
 11
-82.33845020841312
 21
131.0301305168996
 31
0.0
  0
LINE
  5
3AE
  8
0
  6
CONTINUOUS
 62
     3
 10
-76.94583393644047
 20
130.2661992424856
 30
0.0
 11
-76.94583393644047
 21
128.7940617913137
 31
0.0
  0
LINE
  5
3AF
  8
0
  6
CONTINUOUS
 62
     3
 10
-80.94583393644047
 20
130.2661992424856
 30
0.0
 11
-80.94583393644047
 21
128.7940617913137
 31
0.0
  0
LINE
  5
3B0
  8
0
  6
CONTINUOUS
 62
     3
 10
-82.24583244093122
 20
135.2301248135739
 30
0.0
 11
-81.34583263503504
 21
137.5301252089851
 31
0.0
  0
LINE
  5
3B1
  8
0
  6
CONTINUOUS
 62
     3
 10
-76.54583093718912
 20
137.5301249064429
 30
0.0
 11
-75.64583083686767
 21
135.2301246582443
 31
0.0
  0
LINE
  5
3B2
  8
0
  6
CONTINUOUS
 62
     3
 10
-76.33275868009281
 20
134.2301274651418
 30
0.0
 11
-81.62478901456547
 21
134.2301274651418
 31
0.0
  0
LINE
  5
3B3
  8
0
  6
CONTINUOUS
 62
     3
 10
-74.64988972257328
 20
130.7168828362356
 30
0.0
 11
-70.94583393644047
 21
130.7168828362356
 31
0.0
  0
LINE
  5
3B4
  8
0
  6
CONTINUOUS
 62
     3
 10
-76.21264149259281
 20
137.7168828362356
 30
0.0
 11
-53.94583393644047
 21
137.7168828362356
 31
0.0
  0
LINE
  5
3B5
  8
0
  6
CONTINUOUS
 62
     3
 10
82.32624362026533
 20
7.406573296017797
 30
0.0
 11
87.70370855574262
 21
-1.907467910658141
 31
0.0
  0
LINE
  5
3B6
  8
0
  6
CONTINUOUS
 62
     3
 10
84.40432840948458
 20
17.80779994235675
 30
0.0
 11
82.76621587582972
 21
20.64509526437431
 31
0.0
  0
LINE
  5
3B7
  8
0
  6
CONTINUOUS
 62
     3
 10
28.70669958531792
 20
-15.18495942379994
 30
0.0
 11
32.70670006215508
 21
-22.11316252972645
 31
0.0
  0
LINE
  5
3B8
  8
0
  6
CONTINUOUS
 62
     3
 10
56.39711798173263
 20
-38.9196466962899
 30
0.0
 11
54.85525939944816
 21
-40.84906976512005
 31
0.0
  0
LINE
  5
3B9
  8
0
  6
CONTINUOUS
 62
     3
 10
51.55522876772645
 20
-35.13329930589757
 30
0.0
 11
53.99708752393869
 21
-34.76272179530074
 31
0.0
  0
LINE
  5
3BA
  8
0
  6
CONTINUOUS
 62
     3
 10
51.26420885399509
 20
-43.02922669789243
 30
0.0
 11
47.87160743638194
 21
-37.15306947871542
 31
0.0
  0
LINE
  5
3BB
  8
0
  6
CONTINUOUS
 62
     3
 10
49.90633252635254
 20
-42.20518627662338
 30
0.0
 11
48.63142411865758
 21
-42.94125508995555
 31
0.0
  0
LINE
  5
3BC
  8
0
  6
CONTINUOUS
 62
     3
 10
47.9063339397463
 20
-38.74108376998569
 30
0.0
 11
46.63142718386368
 21
-39.47715162964343
 31
0.0
  0
LINE
  5
3BD
  8
0
  6
CONTINUOUS
 62
     3
 10
54.85521767017232
 20
-40.8490423951873
 30
0.0
 11
51.55522185441893
 21
-35.13328276149716
 31
0.0
  0
LINE
  5
3BE
  8
0
  6
CONTINUOUS
 62
     3
 10
51.0032976362813
 20
-43.82351572822401
 30
0.0
 11
49.54296338252013
 21
-44.66664021838071
 31
0.0
  0
LINE
  5
3BF
  8
0
  6
CONTINUOUS
 62
     3
 10
47.05330403186051
 20
-36.98192705417043
 30
0.0
 11
45.59297142991167
 21
-37.82505059065269
 31
0.0
  0
LINE
  5
3C0
  8
0
  6
CONTINUOUS
 62
     3
 10
56.39707458581754
 20
-38.91961846869978
 30
0.0
 11
53.99707277383615
 21
-34.76269396224413
 31
0.0
  0
LINE
  5
3C1
  8
0
  6
CONTINUOUS
 62
     3
 10
48.46983597397772
 20
-44.18923103908966
 30
0.0
 11
45.46983561634985
 21
-38.99307870964478
 31
0.0
  0
LINE
  5
3C2
  8
0
  6
CONTINUOUS
 62
     3
 10
56.20172660709565
 20
-37.80774453439582
 30
0.0
 11
66.21651738225043
 21
-55.15386860498458
 31
0.0
  0
LINE
  5
3C3
  8
0
  6
CONTINUOUS
 62
     3
 10
51.71069624714707
 20
-44.02909740452216
 30
0.0
 11
53.46982121271046
 21
-47.07599080383645
 31
0.0
  0
LINE
  5
3C4
  8
0
  6
CONTINUOUS
 62
     3
 10
49.80557050214171
 20
-44.96045102565287
 30
0.0
 11
53.46983892669064
 21
-47.07601715321741
 31
0.0
  0
LINE
  5
3C5
  8
0
  6
CONTINUOUS
 62
     3
 10
48.46985565596307
 20
-44.18924089148911
 30
0.0
 11
45.46984194687931
 21
-38.99307892383328
 31
0.0
  0
LINE
  5
3C6
  8
0
  6
CONTINUOUS
 62
     3
 10
39.30956533767201
 20
-42.54970409147293
 30
0.0
 11
39.95707594342574
 21
-43.67122520525302
 31
0.0
  0
LINE
  5
3C7
  8
0
  6
CONTINUOUS
 62
     3
 10
39.30959167062079
 20
-42.54974243112933
 30
0.0
 11
45.46984895742455
 21
-38.99311662125874
 31
0.0
  0
LINE
  5
3C8
  8
0
  6
CONTINUOUS
 62
     3
 10
43.82531132925234
 20
-46.87078514905382
 30
0.0
 11
48.46983835666376
 21
-44.18926651577871
 31
0.0
  0
LINE
  5
3C9
  8
0
  6
CONTINUOUS
 62
     3
 10
45.46982849822027
 20
-33.21959101019999
 30
0.0
 11
45.46982849822027
 21
-37.53006159125468
 31
0.0
  0
LINE
  5
3CA
  8
0
  6
CONTINUOUS
 62
     3
 10
45.46983980431398
 20
-33.21960161977458
 30
0.0
 11
51.53201793923219
 21
-29.71960182839084
 31
0.0
  0
LINE
  5
3CB
  8
0
  6
CONTINUOUS
 62
     3
 10
53.46983869780863
 20
-47.07602676817285
 30
0.0
 11
59.53203004722647
 21
-43.57601934739503
 31
0.0
  0
LINE
  5
3CC
  8
0
  6
CONTINUOUS
 62
     3
 10
45.46982025903614
 20
-33.21958459198342
 30
0.0
 11
47.25025031136781
 21
-36.30337947897871
 31
0.0
  0
LINE
  5
3CD
  8
0
  6
CONTINUOUS
 62
     3
 10
48.53201553349319
 20
-24.52341709758818
 30
0.0
 11
54.8125739146403
 21
-35.40166182160439
 31
0.0
  0
ARC
  5
3CE
  8
0
  6
CONTINUOUS
 62
     3
 10
154.3158635018824
 20
52.71688283623556
 30
0.0
 40
83.5
 50
99.6518521036499
 51
200.347889867233
  0
ARC
  5
3CF
  8
0
  6
CONTINUOUS
 62
     3
 10
-106.9458339364405
 20
81.76688588799337
 30
0.0
 40
10.0
 50
0.0
 51
33.02468863706367
  0
ARC
  5
3D0
  8
0
  6
CONTINUOUS
 62
     3
 10
-106.9458339364405
 20
81.76688588799337
 30
0.0
 40
10.0
 50
146.975330032271
 51
213.0246390045066
  0
ARC
  5
3D1
  8
0
  6
CONTINUOUS
 62
     3
 10
-106.9458339364405
 20
81.76688588799337
 30
0.0
 40
10.0
 50
326.9753216082201
 51
360.0
  0
ARC
  5
3D2
  8
0
  6
CONTINUOUS
 62
     3
 10
-106.9458339364405
 20
52.71688283623556
 30
0.0
 40
35.0
 50
49.99479906395894
 51
73.39844908519679
  0
ARC
  5
3D3
  8
0
  6
CONTINUOUS
 62
     3
 10
-106.9458339364405
 20
52.71688283623556
 30
0.0
 40
35.0
 50
229.9948077153809
 51
253.3984304158621
  0
ARC
  5
3D4
  8
0
  6
CONTINUOUS
 62
     3
 10
-106.9458339364405
 20
52.71688283623556
 30
0.0
 40
35.0
 50
286.6015509148032
 51
310.0052009360411
  0
ARC
  5
3D5
  8
0
  6
CONTINUOUS
 62
     3
 10
-106.9458339364405
 20
52.71688283623556
 30
0.0
 40
35.0
 50
106.6015695841379
 51
130.0051922846191
  0
ARC
  5
3D6
  8
0
  6
CONTINUOUS
 62
     3
 10
-93.34582783292484
 20
91.71688283623556
 30
0.0
 40
2.0
 50
270.0000179860894
 51
360.0
  0
ARC
  5
3D7
  8
0
  6
CONTINUOUS
 62
     3
 10
-120.545824781167
 20
91.71688283623556
 30
0.0
 40
2.0
 50
179.9999776881997
 51
270.000028004002
  0
ARC
  5
3D8
  8
0
  6
CONTINUOUS
 62
     3
 10
-145.545824781167
 20
78.71687902153829
 30
0.0
 40
5.0
 50
270.0000179860894
 51
360.0
  0
ARC
  5
3D9
  8
0
  6
CONTINUOUS
 62
     3
 10
-145.545824781167
 20
26.71688283623556
 30
0.0
 40
5.0
 50
0.0
 51
89.99998201391065
  0
ARC
  5
3DA
  8
0
  6
CONTINUOUS
 62
     3
 10
-127.545824781167
 20
13.71688402832845
 30
0.0
 40
4.0
 50
179.9999776881997
 51
360.0000100179126
  0
ARC
  5
3DB
  8
0
  6
CONTINUOUS
 62
     3
 10
154.3158635018824
 20
52.71688283623556
 30
0.0
 40
85.0
 50
99.47993624224068
 51
200.5198057286422
  0
ARC
  5
3DC
  8
0
  6
CONTINUOUS
 62
     3
 10
-146.545824781167
 20
69.21688283623556
 30
0.0
 40
1.0
 50
89.99998201391065
 51
179.9999640278213
  0
ARC
  5
3DD
  8
0
  6
CONTINUOUS
 62
     3
 10
-144.545824781167
 20
69.21688283623556
 30
0.0
 40
1.0
 50
0.0
 51
89.99998201391065
  0
ARC
  5
3DE
  8
0
  6
CONTINUOUS
 62
     3
 10
-144.545824781167
 20
36.21688474358419
 30
0.0
 40
1.0
 50
270.0000179860894
 51
360.0
  0
ARC
  5
3DF
  8
0
  6
CONTINUOUS
 62
     3
 10
-146.545824781167
 20
36.21688474358419
 30
0.0
 40
1.0
 50
179.9999776881997
 51
270.000028004002
  0
ARC
  5
3E0
  8
0
  6
CONTINUOUS
 62
     3
 10
81.27961624846441
 20
10.54920877159933
 30
0.0
 40
1.200000047683716
 50
143.4679869123344
 51
276.532011114852
  0
ARC
  5
3E1
  8
0
  6
CONTINUOUS
 62
     3
 10
82.85762680754644
 20
11.46027291954854
 30
0.0
 40
3.299999952316284
 50
102.3603021473159
 51
119.9999896789259
  0
ARC
  5
3E2
  8
0
  6
CONTINUOUS
 62
     3
 10
82.04202164397222
 20
17.68199093283513
 30
0.0
 40
3.0
 50
272.1068854582281
 51
336.7620025567024
  0
ARC
  5
3E3
  8
0
  6
CONTINUOUS
 62
     3
 10
82.85762680754644
 20
11.46027291954854
 30
0.0
 40
3.299999952316284
 50
300.0000256511046
 51
317.6397131827145
  0
ARC
  5
3E4
  8
0
  6
CONTINUOUS
 62
     3
 10
87.83800400481206
 20
7.643046509636434
 30
0.0
 40
3.0
 50
83.238012773328
 51
147.8898377206224
  0
ARC
  5
3E5
  8
0
  6
CONTINUOUS
 62
     3
 10
89.09300888762456
 20
15.06027163208822
 30
0.0
 40
3.0
 50
168.1897063490339
 51
251.8102780177743
  0
ARC
  5
3E6
  8
0
  6
CONTINUOUS
 62
     3
 10
85.80496872649175
 20
16.62602169455388
 30
0.0
 40
1.0
 50
230.7154746350873
 51
300.0000119907263
  0
ARC
  5
3E7
  8
0
  6
CONTINUOUS
 62
     3
 10
85.80496872649175
 20
16.62602169455388
 30
0.0
 40
1.0
 50
138.1948896277878
 51
189.2845406949431
  0
CIRCLE
  5
3E8
  8
0
  6
CONTINUOUS
 62
     3
 10
19.01534832701665
 20
-25.39906488715312
 30
0.0
 40
8.0
  0
CIRCLE
  5
3E9
  8
0
  6
CONTINUOUS
 62
     3
 10
19.01534832701665
 20
-25.39906488715312
 30
0.0
 40
3.299999952316284
  0
CIRCLE
  5
3EA
  8
0
  6
CONTINUOUS
 62
     3
 10
19.01534832701665
 20
-25.39906488715312
 30
0.0
 40
0.75
  0
CIRCLE
  5
3EB
  8
0
  6
CONTINUOUS
 62
     3
 10
19.01534832701665
 20
-25.39906488715312
 30
0.0
 40
2.400000095367432
  0
CIRCLE
  5
3EC
  8
0
  6
CONTINUOUS
 62
     3
 10
-78.94583393644047
 20
116.7168828362356
 30
0.0
 40
1.5
  0
ARC
  5
3ED
  8
0
  6
CONTINUOUS
 62
     3
 10
-78.94583393644047
 20
131.0301305168996
 30
0.0
 40
3.0
 50
270.000004325711
 51
311.8103174808379
  0
ARC
  5
3EE
  8
0
  6
CONTINUOUS
 62
     3
 10
-78.94583393644047
 20
128.0301305168996
 30
0.0
 40
3.0
 50
48.18970300972963
 51
131.8102883388484
  0
ARC
  5
3EF
  8
0
  6
CONTINUOUS
 62
     3
 10
-78.94583393644047
 20
131.0301305168996
 30
0.0
 40
3.0
 50
228.1896980007733
 51
270.000004325711
  0
ARC
  5
3F0
  8
0
  6
CONTINUOUS
 62
     3
 10
-78.94583393644047
 20
135.2301274651418
 30
0.0
 40
3.299999952316284
 50
342.3602988080117
 51
359.9999863396217
  0
ARC
  5
3F1
  8
0
  6
CONTINUOUS
 62
     3
 10
-78.94583393644047
 20
135.2301274651418
 30
0.0
 40
3.299999952316284
 50
180.0000223118003
 51
197.6397098434103
  0
ARC
  5
3F2
  8
0
  6
CONTINUOUS
 62
     3
 10
-73.14986683438968
 20
132.8256093377004
 30
0.0
 40
3.0
 50
152.1068921368366
 51
216.7619955749325
  0
ARC
  5
3F3
  8
0
  6
CONTINUOUS
 62
     3
 10
-84.74183155606937
 20
132.8256093377004
 30
0.0
 40
3.0
 50
323.2380094340238
 51
387.8898343813181
  0
ARC
  5
3F4
  8
0
  6
CONTINUOUS
 62
     3
 10
-75.94583393644047
 20
130.0947820061574
 30
0.0
 40
1.0
 50
110.7154744835066
 51
180.0000186693347
  0
ARC
  5
3F5
  8
0
  6
CONTINUOUS
 62
     3
 10
-75.94583393644047
 20
130.0947820061574
 30
0.0
 40
1.0
 50
18.19487945829444
 51
69.2845373556389
  0
ARC
  5
3F6
  8
0
  6
CONTINUOUS
 62
     3
 10
-81.94583393644047
 20
130.0947820061574
 30
0.0
 40
1.0
 50
359.9999863396217
 51
429.2845373556389
  0
ARC
  5
3F7
  8
0
  6
CONTINUOUS
 62
     3
 10
-81.94583393644047
 20
130.0947820061574
 30
0.0
 40
1.0
 50
110.7154744835066
 51
161.8051187204727
  0
ARC
  5
3F8
  8
0
  6
CONTINUOUS
 62
     3
 10
-75.94583393644047
 20
129.033037316216
 30
0.0
 40
1.0
 50
270.000004325711
 51
341.8051410322731
  0
ARC
  5
3F9
  8
0
  6
CONTINUOUS
 62
     3
 10
-81.94583393644047
 20
129.033037316216
 30
0.0
 40
1.0
 50
270.000004325711
 51
359.9999863396217
  0
ARC
  5
3FA
  8
0
  6
CONTINUOUS
 62
     3
 10
-75.94583393644047
 20
129.033037316216
 30
0.0
 40
1.0
 50
180.0000223118003
 51
270.000004325711
  0
ARC
  5
3FB
  8
0
  6
CONTINUOUS
 62
     3
 10
-81.94583393644047
 20
129.033037316216
 30
0.0
 40
1.0
 50
198.1948676191489
 51
270.000004325711
  0
ARC
  5
3FC
  8
0
  6
CONTINUOUS
 62
     3
 10
-78.94583393644047
 20
137.0522481316457
 30
0.0
 40
1.200000047683716
 50
23.46797674284104
 51
156.5320214359261
  0
ARC
  5
3FD
  8
0
  6
CONTINUOUS
 62
     3
 10
49.56791199431402
 20
-40.09116541205546
 30
0.0
 40
3.0
 50
209.9999889956806
 51
251.8103021508074
  0
ARC
  5
3FE
  8
0
  6
CONTINUOUS
 62
     3
 10
46.9698361276148
 20
-41.59116541205546
 30
0.0
 40
3.0
 50
348.1896876796992
 51
431.8102730088179
  0
ARC
  5
3FF
  8
0
  6
CONTINUOUS
 62
     3
 10
49.56791199431402
 20
-40.09116541205546
 30
0.0
 40
3.0
 50
168.1896653678988
 51
209.9999716928365
  0
ARC
  5
400
  8
0
  6
CONTINUOUS
 62
     3
 10
53.20521820769292
 20
-37.99116693793437
 30
0.0
 40
3.299999952316284
 50
282.3602834779813
 51
299.9999710095912
  0
ARC
  5
401
  8
0
  6
CONTINUOUS
 62
     3
 10
53.20521820769292
 20
-37.99116693793437
 30
0.0
 40
3.299999952316284
 50
119.9999760185475
 51
137.6396772105358
  0
ARC
  5
402
  8
0
  6
CONTINUOUS
 62
     3
 10
54.02082337126714
 20
-44.21288477240702
 30
0.0
 40
3.0
 50
92.10684948604947
 51
156.7619665845238
  0
ARC
  5
403
  8
0
  6
CONTINUOUS
 62
     3
 10
48.2248410104273
 20
-34.17394434271952
 30
0.0
 40
3.0
 50
263.2379941039933
 51
327.8898190512877
  0
ARC
  5
404
  8
0
  6
CONTINUOUS
 62
     3
 10
50.25787628874761
 20
-43.15691553412577
 30
0.0
 40
1.0
 50
50.71543866290864
 51
119.9999760185475
  0
ARC
  5
405
  8
0
  6
CONTINUOUS
 62
     3
 10
50.25787628874761
 20
-43.15691553412577
 30
0.0
 40
1.0
 50
318.194864128264
 51
369.2845220256085
  0
ARC
  5
406
  8
0
  6
CONTINUOUS
 62
     3
 10
47.25787628874761
 20
-37.96076380072734
 30
0.0
 40
1.0
 50
299.9999710095912
 51
369.2845220256085
  0
ARC
  5
407
  8
0
  6
CONTINUOUS
 62
     3
 10
47.25787628874761
 20
-37.96076380072734
 30
0.0
 40
1.0
 50
50.71543866290864
 51
101.8050897300639
  0
ARC
  5
408
  8
0
  6
CONTINUOUS
 62
     3
 10
49.3383778451441
 20
-43.68779169379374
 30
0.0
 40
1.0
 50
209.9999889956806
 51
281.8051257022426
  0
ARC
  5
409
  8
0
  6
CONTINUOUS
 62
     3
 10
46.33837403044683
 20
-38.49163614569804
 30
0.0
 40
1.0
 50
209.9999889956806
 51
299.9999710095912
  0
ARC
  5
40A
  8
0
  6
CONTINUOUS
 62
     3
 10
49.3383778451441
 20
-43.68779169379374
 30
0.0
 40
1.0
 50
119.9999760185475
 51
209.9999716928365
  0
ARC
  5
40B
  8
0
  6
CONTINUOUS
 62
     3
 10
46.33837403044683
 20
-38.49163614569804
 30
0.0
 40
1.0
 50
138.1948349862745
 51
209.9999716928365
  0
ARC
  5
40C
  8
0
  6
CONTINUOUS
 62
     3
 10
54.78321732268316
 20
-37.08010660468241
 30
0.0
 40
1.200000047683716
 50
323.4679614128106
 51
456.5320061058957
  0
POLYLINE
  5
40D
  8
0
  6
CONTINUOUS
 62
     3
 66
     1
 10
0.0
 20
0.0
 30
0.0
  0
VERTEX
  5
6FA
  8
0
  6
CONTINUOUS
 62
     3
 10
84.89009751067144
 20
28.89122117699483
 30
0.0
 40
0.18
 41
0.18
  0
VERTEX
  5
6FB
  8
0
  6
CONTINUOUS
 62
     3
 10
85.37001326224963
 20
28.85171201377246
 30
0.0
 40
0.18
 41
0.18
  0
VERTEX
  5
6FC
  8
0
  6
CONTINUOUS
 62
     3
 10
85.84845482876968
 20
28.79370135180396
 30
0.0
 40
0.18
 41
0.18
  0
VERTEX
  5
6FD
  8
0
  6
CONTINUOUS
 62
     3
 10
86.32469573431261
 20
28.71711625498085
 30
0.0
 40
0.18
 41
0.18
  0
VERTEX
  5
6FE
  8
0
  6
CONTINUOUS
 62
     3
 10
86.79800950295942
 20
28.6218837871946
 30
0.0
 40
0.18
 41
0.18
  0
VERTEX
  5
6FF
  8
0
  6
CONTINUOUS
 62
     3
 10
87.26766965879108
 20
28.50793101233671
 30
0.0
 40
0.18
 41
0.18
  0
VERTEX
  5
700
  8
0
  6
CONTINUOUS
 62
     3
 10
87.7329497258886
 20
28.37518499429867
 30
0.0
 40
0.18
 41
0.18
  0
VERTEX
  5
701
  8
0
  6
CONTINUOUS
 62
     3
 10
88.19312322833299
 20
28.22357279697198
 30
0.0
 40
0.18
 41
0.18
  0
VERTEX
  5
702
  8
0
  6
CONTINUOUS
 62
     3
 10
88.64743624473624
 20
28.05305071490273
 30
0.0
 40
0.18
 41
0.18
  0
VERTEX
  5
703
  8
0
  6
CONTINUOUS
 62
     3
 10
89.09491206992421
 20
27.86381231735425
 30
0.0
 40
0.18
 41
0.18
  0
VERTEX
  5
704
  8
0
  6
CONTINUOUS
 62
     3
 10
89.53446577042844
 20
27.65616644157405
 30
0.0
 40
0.18
 41
0.18
  0
VERTEX
  5
705
  8
0
  6
CONTINUOUS
 62
     3
 10
89.96501169473781
 20
27.43042268955734
 30
0.0
 40
0.18
 41
0.18
  0
VERTEX
  5
706
  8
0
  6
CONTINUOUS
 62
     3
 10
90.38546419134113
 20
27.18689066329931
 30
0.0
 40
0.18
 41
0.18
  0
VERTEX
  5
707
  8
0
  6
CONTINUOUS
 62
     3
 10
90.79473760872732
 20
26.92587996479514
 30
0.0
 40
0.18
 41
0.18
  0
VERTEX
  5
708
  8
0
  6
CONTINUOUS
 62
     3
 10
91.19174629538513
 20
26.64770019604003
 30
0.0
 40
0.18
 41
0.18
  0
VERTEX
  5
709
  8
0
  6
CONTINUOUS
 62
     3
 10
91.57540459980348
 20
26.35266095902917
 30
0.0
 40
0.18
 41
0.18
  0
VERTEX
  5
70A
  8
0
  6
CONTINUOUS
 62
     3
 10
91.94462687047115
 20
26.04107185575774
 30
0.0
 40
0.18
 41
0.18
  0
VERTEX
  5
70B
  8
0
  6
CONTINUOUS
 62
     3
 10
92.29832745745632
 20
25.71324248910261
 30
0.0
 40
0.18
 41
0.18
  0
VERTEX
  5
70C
  8
0
  6
CONTINUOUS
 62
     3
 10
92.63581613443273
 20
25.36970322199663
 30
0.0
 40
0.18
 41
0.18
  0
VERTEX
  5
70D
  8
0
  6
CONTINUOUS
 62
     3
 10
92.95790971453113
 20
25.01182577866232
 30
0.0
 40
0.18
 41
0.18
  0
VERTEX
  5
70E
  8
0
  6
CONTINUOUS
 62
     3
 10
93.26578397994831
 20
24.64118229126442
 30
0.0
 40
0.18
 41
0.18
  0
VERTEX
  5
70F
  8
0
  6
CONTINUOUS
 62
     3
 10
93.56061471288093
 20
24.2593448919676
 30
0.0
 40
0.18
 41
0.18
  0
VERTEX
  5
710
  8
0
  6
CONTINUOUS
 62
     3
 10
93.8435776955258
 20
23.86788571293659
 30
0.0
 40
0.18
 41
0.18
  0
VERTEX
  5
711
  8
0
  6
CONTINUOUS
 62
     3
 10
94.1158487100796
 20
23.46837688633607
 30
0.0
 40
0.18
 41
0.18
  0
VERTEX
  5
712
  8
0
  6
CONTINUOUS
 62
     3
 10
94.3786035387391
 20
23.06239054433076
 30
0.0
 40
0.18
 41
0.18
  0
VERTEX
  5
713
  8
0
  6
CONTINUOUS
 62
     3
 10
94.63315594075769
 20
22.65149805381048
 30
0.0
 40
0.18
 41
0.18
  0
VERTEX
  5
714
  8
0
  6
CONTINUOUS
 62
     3
 10
94.88159669238033
 20
22.23726647202407
 30
0.0
 40
0.18
 41
0.18
  0
VERTEX
  5
715
  8
0
  6
CONTINUOUS
 62
     3
 10
95.12628833635799
 20
21.82126134889673
 30
0.0
 40
0.18
 41
0.18
  0
VERTEX
  5
716
  8
0
  6
CONTINUOUS
 62
     3
 10
95.36959370235735
 20
21.40504823276229
 30
0.0
 40
0.18
 41
0.18
  0
VERTEX
  5
717
  8
0
  6
CONTINUOUS
 62
     3
 10
95.61387562004528
 20
20.99019267195464
 30
0.0
 40
0.18
 41
0.18
  0
VERTEX
  5
718
  8
0
  6
CONTINUOUS
 62
     3
 10
95.86149691908842
 20
20.5782602148076
 30
0.0
 40
0.18
 41
0.18
  0
VERTEX
  5
719
  8
0
  6
CONTINUOUS
 62
     3
 10
96.1148204291535
 20
20.17081640965503
 30
0.0
 40
0.18
 41
0.18
  0
VERTEX
  5
71A
  8
0
  6
CONTINUOUS
 62
     3
 10
96.3762089799073
 20
19.76942680483079
 30
0.0
 40
0.18
 41
0.18
  0
VERTEX
  5
71B
  8
0
  6
CONTINUOUS
 62
     3
 10
96.6474878749698
 20
19.37524392047769
 30
0.0
 40
0.18
 41
0.18
  0
VERTEX
  5
71C
  8
0
  6
CONTINUOUS
 62
     3
 10
96.92749215791751
 20
18.98712259887904
 30
0.0
 40
0.18
 41
0.18
  0
VERTEX
  5
71D
  8
0
  6
CONTINUOUS
 62
     3
 10
97.2140231075593
 20
18.60312335059307
 30
0.0
 40
0.18
 41
0.18
  0
VERTEX
  5
71E
  8
0
  6
CONTINUOUS
 62
     3
 10
97.50488101256516
 20
18.22130592536801
 30
0.0
 40
0.18
 41
0.18
  0
VERTEX
  5
71F
  8
0
  6
CONTINUOUS
 62
     3
 10
97.79786616160526
 20
17.83973007295208
 30
0.0
 40
0.18
 41
0.18
  0
VERTEX
  5
720
  8
0
  6
CONTINUOUS
 62
     3
 10
98.09077884334968
 20
17.45645554309349
 30
0.0
 40
0.18
 41
0.18
  0
VERTEX
  5
721
  8
0
  6
CONTINUOUS
 62
     3
 10
98.38141934646849
 20
17.06954208554048
 30
0.0
 40
0.18
 41
0.18
  0
VERTEX
  5
722
  8
0
  6
CONTINUOUS
 62
     3
 10
98.6675879596318
 20
16.67704945004125
 30
0.0
 40
0.18
 41
0.18
  0
VERTEX
  5
723
  8
0
  6
CONTINUOUS
 62
     3
 10
98.94737703624548
 20
16.2773402831516
 30
0.0
 40
0.18
 41
0.18
  0
VERTEX
  5
724
  8
0
  6
CONTINUOUS
 62
     3
 10
99.22201527742469
 20
15.87202989973037
 30
0.0
 40
0.18
 41
0.18
  0
VERTEX
  5
725
  8
0
  6
CONTINUOUS
 62
     3
 10
99.49463831652027
 20
15.4647112710106
 30
0.0
 40
0.18
 41
0.18
  0
VERTEX
  5
726
  8
0
  6
CONTINUOUS
 62
     3
 10
99.76840872167396
 20
15.05900530197155
 30
0.0
 40
0.18
 41
0.18
  0
VERTEX
  5
727
  8
0
  6
CONTINUOUS
 62
     3
 10
100.0464890610277
 20
14.65853289759247
 30
0.0
 40
0.18
 41
0.18
  0
VERTEX
  5
728
  8
0
  6
CONTINUOUS
 62
     3
 10
100.3320419027232
 20
14.26691496285265
 30
0.0
 40
0.18
 41
0.18
  0
VERTEX
  5
729
  8
0
  6
CONTINUOUS
 62
     3
 10
100.6282298149023
 20
13.88777240273134
 30
0.0
 40
0.18
 41
0.18
  0
VERTEX
  5
72A
  8
0
  6
CONTINUOUS
 62
     3
 10
100.9382153657069
 20
13.52472612220781
 30
0.0
 40
0.18
 41
0.18
  0
VERTEX
  5
72B
  8
0
  6
CONTINUOUS
 62
     3
 10
101.2651611232787
 20
13.18139702626131
 30
0.0
 40
0.18
 41
0.18
  0
VERTEX
  5
72C
  8
0
  6
CONTINUOUS
 62
     3
 10
101.6122296557596
 20
12.8614060198711
 30
0.0
 40
0.18
 41
0.18
  0
VERTEX
  5
72D
  8
0
  6
CONTINUOUS
 62
     3
 10
101.9820355130864
 20
12.56774044924475
 30
0.0
 40
0.18
 41
0.18
  0
VERTEX
  5
72E
  8
0
  6
CONTINUOUS
 62
     3
 10
102.3728199159793
 20
12.29833169518216
 30
0.0
 40
0.18
 41
0.18
  0
VERTEX
  5
72F
  8
0
  6
CONTINUOUS
 62
     3
 10
102.7807299539937
 20
12.04869013283689
 30
0.0
 40
0.18
 41
0.18
  0
VERTEX
  5
730
  8
0
  6
CONTINUOUS
 62
     3
 10
103.2018996021464
 20
11.81431097576572
 30
0.0
 40
0.18
 41
0.18
  0
VERTEX
  5
731
  8
0
  6
CONTINUOUS
 62
     3
 10
103.6324628354541
 20
11.59068943752545
 30
0.0
 40
0.18
 41
0.18
  0
VERTEX
  5
732
  8
0
  6
CONTINUOUS
 62
     3
 10
104.0685536289336
 20
11.37332073167288
 30
0.0
 40
0.18
 41
0.18
  0
VERTEX
  5
733
  8
0
  6
CONTINUOUS
 62
     3
 10
104.5063059576017
 20
11.15770007176479
 30
0.0
 40
0.18
 41
0.18
  0
VERTEX
  5
734
  8
0
  6
CONTINUOUS
 62
     3
 10
104.941853796475
 20
10.93932267135796
 30
0.0
 40
0.18
 41
0.18
  0
VERTEX
  5
735
  8
0
  6
CONTINUOUS
 62
     3
 10
105.3713787434014
 20
10.71373925210344
 30
0.0
 40
0.18
 41
0.18
  0
VERTEX
  5
736
  8
0
  6
CONTINUOUS
 62
     3
 10
105.7934528364145
 20
10.47928677865277
 30
0.0
 40
0.18
 41
0.18
  0
VERTEX
  5
737
  8
0
  6
CONTINUOUS
 62
     3
 10
106.2101071775366
 20
10.2383340223854
 30
0.0
 40
0.18
 41
0.18
  0
VERTEX
  5
738
  8
0
  6
CONTINUOUS
 62
     3
 10
106.6236434069845
 20
9.993565087880125
 30
0.0
 40
0.18
 41
0.18
  0
VERTEX
  5
739
  8
0
  6
CONTINUOUS
 62
     3
 10
107.0363631649754
 20
9.747664079715705
 30
0.0
 40
0.18
 41
0.18
  0
VERTEX
  5
73A
  8
0
  6
CONTINUOUS
 62
     3
 10
107.4505680917261
 20
9.503315102470921
 30
0.0
 40
0.18
 41
0.18
  0
SEQEND
  5
6F9
  8
0
  6
CONTINUOUS
 62
     3
  0
LINE
  5
40E
  8
0
  6
CONTINUOUS
 62
     3
 10
151.965950174105
 20
4.402160134829302
 30
0.0
 11
149.6159516999839
 21
0.3318434529972194
 31
0.0
  0
LINE
  5
40F
  8
0
  6
CONTINUOUS
 62
     3
 10
151.9658947284898
 20
-3.738429780573569
 30
0.0
 11
151.9690676326701
 21
-3.740258365982953
 31
0.0
  0
LINE
  5
410
  8
0
  6
CONTINUOUS
 62
     3
 10
151.9658573983668
 20
-3.738433707343546
 30
0.0
 11
156.665869605398
 21
-3.738433707343546
 31
0.0
  0
LINE
  5
411
  8
0
  6
CONTINUOUS
 62
     3
 10
156.6658687592773
 20
-3.738440063413208
 30
0.0
 11
159.0158741296588
 21
0.3318815448156158
 31
0.0
  0
LINE
  5
412
  8
0
  6
CONTINUOUS
 62
     3
 10
159.0158620206064
 20
0.3318781447544836
 30
0.0
 11
156.6658582983025
 21
4.402209441798078
 31
0.0
  0
LINE
  5
413
  8
0
  6
CONTINUOUS
 62
     3
 10
156.665869605398
 20
4.4022055977712
 30
0.0
 11
151.9658573983668
 21
4.4022055977712
 31
0.0
  0
LINE
  5
414
  8
0
  6
CONTINUOUS
 62
     3
 10
149.6158487839391
 20
0.331869779107393
 30
0.0
 11
151.9658458573519
 21
-3.738447743149635
 31
0.0
  0
LINE
  5
415
  8
0
  6
CONTINUOUS
 62
     3
 10
176.7602615334652
 20
23.59281899278489
 30
0.0
 11
220.9280422476781
 21
-1.907458274754362
 31
0.0
  0
LINE
  5
416
  8
0
  6
CONTINUOUS
 62
     3
 10
190.7602671139122
 20
47.84153663847286
 30
0.0
 11
234.9280452279101
 21
22.34126087216831
 31
0.0
  0
LINE
  5
417
  8
0
  6
CONTINUOUS
 62
     3
 10
87.70370620693049
 20
-1.907490783905331
 30
0.0
 11
131.8705241407376
 21
23.59223062216887
 31
0.0
  0
LINE
  5
418
  8
0
  6
CONTINUOUS
 62
     3
 10
93.56011749808997
 20
-7.763877169423012
 30
0.0
 11
94.21206144465643
 21
-7.387477197961715
 31
0.0
  0
LINE
  5
419
  8
0
  6
CONTINUOUS
 62
     3
 10
236.4196950984526
 20
30.71766077974556
 30
0.0
 11
237.0716588667685
 21
30.34124936419315
 31
0.0
  0
LINE
  5
41A
  8
0
  6
CONTINUOUS
 62
     3
 10
214.4196793805581
 20
-7.387457903310377
 30
0.0
 11
215.0716167198748
 21
-7.763854060074635
 31
0.0
  0
LINE
  5
41B
  8
0
  6
CONTINUOUS
 62
     3
 10
220.928051914326
 20
-1.907489073822461
 30
0.0
 11
234.9280535832561
 21
22.34122179692034
 31
0.0
  0
LINE
  5
41C
  8
0
  6
CONTINUOUS
 62
     3
 10
87.70368868085981
 20
-1.907443426929575
 30
0.0
 11
93.56011842955169
 21
-7.763872681961374
 31
0.0
  0
LINE
  5
41D
  8
0
  6
CONTINUOUS
 62
     3
 10
112.6748512649981
 20
44.84124233866899
 30
0.0
 11
116.9248555863353
 21
37.48001993137271
 31
0.0
  0
LINE
  5
41E
  8
0
  6
CONTINUOUS
 62
     3
 10
122.4248562419864
 20
27.95374066072375
 30
0.0
 11
126.6748529339281
 21
20.59253146792619
 31
0.0
  0
LINE
  5
41F
  8
0
  6
CONTINUOUS
 62
     3
 10
234.9280281775072
 20
22.34124424982386
 30
0.0
 11
237.0716224331568
 21
30.34124593448999
 31
0.0
  0
LINE
  5
420
  8
0
  6
CONTINUOUS
 62
     3
 10
215.0716658221633
 20
-7.763917752984497
 30
0.0
 11
220.9280739916673
 21
-1.907510077138767
 31
0.0
  0
LINE
  5
421
  8
0
  6
CONTINUOUS
 62
     3
 10
181.9569170728848
 20
20.59252682288528
 30
0.0
 11
186.2069137648266
 21
27.95373601568284
 31
0.0
  0
LINE
  5
422
  8
0
  6
CONTINUOUS
 62
     3
 10
186.2069006560098
 20
27.95376329807735
 30
0.0
 11
191.0011343367926
 21
25.18581149772811
 31
0.0
  0
LINE
  5
423
  8
0
  6
CONTINUOUS
 62
     3
 10
191.7069173573809
 20
37.48004220223314
 30
0.0
 11
196.5011246091644
 21
34.71210566067205
 31
0.0
  0
LINE
  5
424
  8
0
  6
CONTINUOUS
 62
     3
 10
191.7069144204777
 20
37.48001528633179
 30
0.0
 11
195.9569187418149
 21
44.84123769362807
 31
0.0
  0
LINE
  5
425
  8
0
  6
CONTINUOUS
 62
     3
 10
187.0729429677651
 20
27.45374256332755
 30
0.0
 11
192.5729436234162
 21
36.98002183397651
 31
0.0
  0
LINE
  5
426
  8
0
  6
CONTINUOUS
 62
     3
 10
116.0588387126927
 20
36.9800203828411
 30
0.0
 11
121.5588393683438
 21
27.45374111219215
 31
0.0
  0
LINE
  5
427
  8
0
  6
CONTINUOUS
 62
     3
 10
93.69925970611675
 20
24.07071687499254
 30
0.0
 11
106.1306152313906
 21
31.24796254094534
 31
0.0
  0
LINE
  5
428
  8
0
  6
CONTINUOUS
 62
     3
 10
99.85972667711994
 20
14.92575787933313
 30
0.0
 11
111.6306215108149
 21
21.72168642934233
 31
0.0
  0
LINE
  5
429
  8
0
  6
CONTINUOUS
 62
     3
 10
117.6306254249672
 20
25.18578992159613
 30
0.0
 11
122.42485910575
 21
27.95374172194536
 31
0.0
  0
LINE
  5
42A
  8
0
  6
CONTINUOUS
 62
     3
 10
112.1306059310433
 20
34.71205840380506
 30
0.0
 11
116.9248396118261
 21
37.4800102041543
 31
0.0
  0
LINE
  5
42B
  8
0
  6
CONTINUOUS
 62
     3
 10
202.5011681668156
 20
31.24797928023602
 30
0.0
 11
218.1517608053009
 21
22.21210640573011
 31
0.0
  0
LINE
  5
42C
  8
0
  6
CONTINUOUS
 62
     3
 10
224.1518043629521
 20
18.74798002529408
 30
0.0
 11
230.6780625104265
 21
14.98004354333764
 31
0.0
  0
LINE
  5
42D
  8
0
  6
CONTINUOUS
 62
     3
 10
218.6517612325817
 20
9.221716379926448
 30
0.0
 11
225.1780458090554
 21
5.453764639181856
 31
0.0
  0
LINE
  5
42E
  8
0
  6
CONTINUOUS
 62
     3
 10
197.0011250364453
 20
21.72171563486839
 30
0.0
 11
212.651770532929
 21
12.68581224278617
 31
0.0
  0
LINE
  5
42F
  8
0
  6
CONTINUOUS
 62
     3
 10
111.8806188131168
 20
31.71687938669382
 30
0.0
 11
108.8495291198089
 21
29.96688074269949
 31
0.0
  0
LINE
  5
430
  8
0
  6
CONTINUOUS
 62
     3
 10
114.9116998580041
 20
29.96687907403387
 30
0.0
 11
111.8806118336263
 21
31.71688053434767
 31
0.0
  0
LINE
  5
431
  8
0
  6
CONTINUOUS
 62
     3
 10
108.8495243905543
 20
29.96687997521261
 30
0.0
 11
108.8495243905543
 21
26.46687997521261
 31
0.0
  0
LINE
  5
432
  8
0
  6
CONTINUOUS
 62
     3
 10
108.8495327740304
 20
26.46686838181316
 30
0.0
 11
111.880621424257
 21
24.71686796458064
 31
0.0
  0
LINE
  5
433
  8
0
  6
CONTINUOUS
 62
     3
 10
111.8806134333223
 20
24.71688470561529
 30
0.0
 11
114.9117025007814
 21
26.4668843926909
 31
0.0
  0
LINE
  5
434
  8
0
  6
CONTINUOUS
 62
     3
 10
114.9117039559839
 20
26.46687806786397
 30
0.0
 11
114.9117039559839
 21
29.96687806786397
 31
0.0
  0
LINE
  5
435
  8
0
  6
CONTINUOUS
 62
     3
 10
196.7511113444741
 20
31.71688199865369
 30
0.0
 11
193.7200216511662
 21
29.96688335465936
 31
0.0
  0
LINE
  5
436
  8
0
  6
CONTINUOUS
 62
     3
 10
199.782209813113
 20
29.96687460123806
 30
0.0
 11
196.7511217887352
 21
31.71687606155186
 31
0.0
  0
LINE
  5
437
  8
0
  6
CONTINUOUS
 62
     3
 10
193.7200383065699
 20
29.9668914193044
 30
0.0
 11
193.7200383065699
 21
26.46689046563009
 31
0.0
  0
LINE
  5
438
  8
0
  6
CONTINUOUS
 62
     3
 10
193.7200347106643
 20
26.46689391281873
 30
0.0
 11
196.7511233608909
 21
24.71689349558622
 31
0.0
  0
LINE
  5
439
  8
0
  6
CONTINUOUS
 62
     3
 10
196.7511150052712
 20
24.71690029217146
 30
0.0
 11
199.7822040727303
 21
26.46689997924707
 31
0.0
  0
LINE
  5
43A
  8
0
  6
CONTINUOUS
 62
     3
 10
199.7822026132105
 20
26.46688951195577
 30
0.0
 11
199.7822026132105
 21
29.96688760460714
 31
0.0
  0
LINE
  5
43B
  8
0
  6
CONTINUOUS
 62
     3
 10
218.4017500722275
 20
19.21688685194206
 30
0.0
 11
215.3706603789196
 21
17.46688820794773
 31
0.0
  0
LINE
  5
43C
  8
0
  6
CONTINUOUS
 62
     3
 10
221.4328594025648
 20
17.46686975551941
 30
0.0
 11
218.401771378187
 21
19.21687121583321
 31
0.0
  0
LINE
  5
43D
  8
0
  6
CONTINUOUS
 62
     3
 10
215.3706730721949
 20
17.46689159811834
 30
0.0
 11
215.3706730721949
 21
13.96689165772298
 31
0.0
  0
LINE
  5
43E
  8
0
  6
CONTINUOUS
 62
     3
 10
215.3706679265685
 20
13.9668909325865
 30
0.0
 11
218.4017565767951
 21
12.21689051535398
 31
0.0
  0
LINE
  5
43F
  8
0
  6
CONTINUOUS
 62
     3
 10
218.4017315212381
 20
12.21689748340216
 30
0.0
 11
221.4328205886972
 21
13.96689717047778
 31
0.0
  0
LINE
  5
440
  8
0
  6
CONTINUOUS
 62
     3
 10
221.4328373788355
 20
13.96688975037435
 30
0.0
 11
221.4328373788355
 21
17.46688969076971
 31
0.0
  0
LINE
  5
441
  8
0
  6
CONTINUOUS
 62
     3
 10
140.3161991952418
 20
137.7168828362356
 30
0.0
 11
168.3161991952418
 21
137.7168828362356
 31
0.0
  0
LINE
  5
442
  8
0
  6
CONTINUOUS
 62
     3
 10
140.3161991952418
 20
137.7168828362356
 30
0.0
 11
140.3161991952418
 21
86.71688187572681
 31
0.0
  0
LINE
  5
443
  8
0
  6
CONTINUOUS
 62
     3
 10
168.3161991952418
 20
137.716875206841
 30
0.0
 11
168.3161991952418
 21
86.71688187572681
 31
0.0
  0
LINE
  5
444
  8
0
  6
CONTINUOUS
 62
     3
 10
148.8161991952418
 20
137.7168828362356
 30
0.0
 11
148.8161991952418
 21
130.180986534966
 31
0.0
  0
LINE
  5
445
  8
0
  6
CONTINUOUS
 62
     3
 10
159.8161991952418
 20
137.7168828362356
 30
0.0
 11
159.8161991952418
 21
130.180986534966
 31
0.0
  0
LINE
  5
446
  8
0
  6
CONTINUOUS
 62
     3
 10
132.3161991952418
 20
135.5732900017629
 30
0.0
 11
132.3161991952418
 21
134.8205663079152
 31
0.0
  0
LINE
  5
447
  8
0
  6
CONTINUOUS
 62
     3
 10
176.3161991952418
 20
135.5732823723684
 30
0.0
 11
176.3161991952418
 21
134.8203832024465
 31
0.0
  0
LINE
  5
448
  8
0
  6
CONTINUOUS
 62
     3
 10
168.3161698457077
 20
137.7168630168488
 30
0.0
 11
176.3161936386611
 21
135.5732633309604
 31
0.0
  0
LINE
  5
449
  8
0
  6
CONTINUOUS
 62
     3
 10
132.3161899801187
 20
135.57328118947
 30
0.0
 11
140.3161916647848
 21
137.7168749514613
 31
0.0
  0
LINE
  5
44A
  8
0
  6
CONTINUOUS
 62
     3
 10
140.3161991952418
 20
92.71688283623556
 30
0.0
 11
148.8161991952418
 21
92.71688283623556
 31
0.0
  0
LINE
  5
44B
  8
0
  6
CONTINUOUS
 62
     3
 10
159.8161991952418
 20
92.71688283623556
 30
0.0
 11
168.3161991952418
 21
92.71688283623556
 31
0.0
  0
LINE
  5
44C
  8
0
  6
CONTINUOUS
 62
     3
 10
148.8161991952418
 20
93.71688283623556
 30
0.0
 11
159.8161991952418
 21
93.71688283623556
 31
0.0
  0
LINE
  5
44D
  8
0
  6
CONTINUOUS
 62
     3
 10
148.8161991952418
 20
134.7168828362356
 30
0.0
 11
159.8161991952418
 21
134.7168828362356
 31
0.0
  0
LINE
  5
44E
  8
0
  6
CONTINUOUS
 62
     3
 10
148.8161991952418
 20
98.25277913750509
 30
0.0
 11
148.8161991952418
 21
92.71688283623556
 31
0.0
  0
LINE
  5
44F
  8
0
  6
CONTINUOUS
 62
     3
 10
159.8161991952418
 20
98.25277913750509
 30
0.0
 11
159.8161991952418
 21
92.71688283623556
 31
0.0
  0
LINE
  5
450
  8
0
  6
CONTINUOUS
 62
     3
 10
159.8161991952418
 20
123.2527791375051
 30
0.0
 11
159.8161991952418
 21
105.180986534966
 31
0.0
  0
LINE
  5
451
  8
0
  6
CONTINUOUS
 62
     3
 10
148.8161991952418
 20
123.2527791375051
 30
0.0
 11
148.8161991952418
 21
105.180986534966
 31
0.0
  0
LINE
  5
452
  8
0
  6
CONTINUOUS
 62
     3
 10
154.3161902839512
 20
130.2168742584479
 30
0.0
 11
151.2851005906433
 21
128.4668756144536
 31
0.0
  0
LINE
  5
453
  8
0
  6
CONTINUOUS
 62
     3
 10
157.347280551962
 20
128.4668682884885
 30
0.0
 11
154.3161925275842
 21
130.2168697488023
 31
0.0
  0
LINE
  5
454
  8
0
  6
CONTINUOUS
 62
     3
 10
151.2851170419214
 20
128.4668828362356
 30
0.0
 11
151.2851170419214
 21
124.9668828362356
 31
0.0
  0
LINE
  5
455
  8
0
  6
CONTINUOUS
 62
     3
 10
151.2851088455352
 20
124.9668779925669
 30
0.0
 11
154.3161974957618
 21
123.2168775753344
 31
0.0
  0
LINE
  5
456
  8
0
  6
CONTINUOUS
 62
     3
 10
154.3161959295535
 20
123.2168759705537
 30
0.0
 11
157.3472849970126
 21
124.9668756576293
 31
0.0
  0
LINE
  5
457
  8
0
  6
CONTINUOUS
 62
     3
 10
157.3472813485621
 20
124.9668828362356
 30
0.0
 11
157.3472813485621
 21
128.4668828362356
 31
0.0
  0
LINE
  5
458
  8
0
  6
CONTINUOUS
 62
     3
 10
154.3161942758773
 20
105.2168785252803
 30
0.0
 11
151.2851045825694
 21
103.4668798812859
 31
0.0
  0
LINE
  5
459
  8
0
  6
CONTINUOUS
 62
     3
 10
157.3472827452272
 20
103.4668782562299
 30
0.0
 11
154.3161947208493
 21
105.2168797165437
 31
0.0
  0
LINE
  5
45A
  8
0
  6
CONTINUOUS
 62
     3
 10
151.2851170419214
 20
103.4668828362356
 30
0.0
 11
151.2851170419214
 21
99.96688283623556
 31
0.0
  0
LINE
  5
45B
  8
0
  6
CONTINUOUS
 62
     3
 10
151.2850988824691
 20
99.9668822290669
 30
0.0
 11
154.3161875326957
 21
98.21688181183438
 31
0.0
  0
LINE
  5
45C
  8
0
  6
CONTINUOUS
 62
     3
 10
154.3161944706728
 20
98.2168743543364
 30
0.0
 11
157.3472835381319
 21
99.96687404141201
 31
0.0
  0
LINE
  5
45D
  8
0
  6
CONTINUOUS
 62
     3
 10
157.3472813485621
 20
99.96688283623556
 30
0.0
 11
157.3472813485621
 21
103.4668828362356
 31
0.0
  0
LINE
  5
45E
  8
0
  6
CONTINUOUS
 62
     3
 10
90.76621349164392
 20
6.788687145172645
 30
0.0
 11
89.17635114197364
 21
9.542410662144249
 31
0.0
  0
LINE
  5
45F
  8
0
  6
CONTINUOUS
 62
     3
 10
90.76621903166753
 20
6.788695465935263
 30
0.0
 11
90.76621903166753
 21
12.56220163048604
 31
0.0
  0
LINE
  5
460
  8
0
  6
CONTINUOUS
 62
     3
 10
88.15652257359258
 20
12.21018903791244
 30
0.0
 11
89.43143115678001
 21
12.94625754413281
 31
0.0
  0
LINE
  5
461
  8
0
  6
CONTINUOUS
 62
     3
 10
89.00954900980068
 20
10.45102595437314
 30
0.0
 11
90.4698768573281
 21
11.2941462780548
 31
0.0
  0
LINE
  5
462
  8
0
  6
CONTINUOUS
 62
     3
 10
87.76622493725969
 20
17.75835286377108
 30
0.0
 11
92.66538208230301
 21
20.5868813787138
 31
0.0
  0
LINE
  5
463
  8
0
  6
CONTINUOUS
 62
     3
 10
90.76621934328782
 20
12.56219270074919
 30
0.0
 11
87.76622023735749
 21
17.75834574544982
 31
0.0
  0
LINE
  5
464
  8
0
  6
CONTINUOUS
 62
     3
 10
90.76622404319002
 20
12.56219981907046
 30
0.0
 11
96.00177612125341
 21
15.58494595801656
 31
0.0
  0
LINE
  5
465
  8
0
  6
CONTINUOUS
 62
     3
 10
128.3161915658472
 20
113.2528096550832
 30
0.0
 11
124.3161915658472
 21
113.2528096550832
 31
0.0
  0
LINE
  5
466
  8
0
  6
CONTINUOUS
 62
     3
 10
130.3161868625484
 20
116.7168762807724
 30
0.0
 11
128.3161868625484
 21
113.2527747278091
 31
0.0
  0
LINE
  5
467
  8
0
  6
CONTINUOUS
 62
     3
 10
128.3162138179202
 20
120.1809876047151
 30
0.0
 11
130.3162114337344
 21
116.7168846212403
 31
0.0
  0
LINE
  5
468
  8
0
  6
CONTINUOUS
 62
     3
 10
124.3161915658472
 20
120.180986534966
 30
0.0
 11
128.3161915658472
 21
120.180986534966
 31
0.0
  0
LINE
  5
469
  8
0
  6
CONTINUOUS
 62
     3
 10
122.3161833613494
 20
116.7168784265396
 30
0.0
 11
124.3161833613494
 21
120.1809799795028
 31
0.0
  0
LINE
  5
46A
  8
0
  6
CONTINUOUS
 62
     3
 10
124.3161759212837
 20
113.2527739796097
 30
0.0
 11
122.3161763981209
 21
116.7168757709915
 31
0.0
  0
LINE
  5
46B
  8
0
  6
CONTINUOUS
 62
     3
 10
114.8905504463853
 20
-0.0677434552494276
 30
0.0
 11
116.8905504463853
 21
-3.531845008212684
 31
0.0
  0
LINE
  5
46C
  8
0
  6
CONTINUOUS
 62
     3
 10
110.8905857919214
 20
-0.0677355414499914
 30
0.0
 11
114.8905857919214
 21
-0.0677355414499914
 31
0.0
  0
LINE
  5
46D
  8
0
  6
CONTINUOUS
 62
     3
 10
108.890559815203
 20
-3.531815646299918
 30
0.0
 11
110.8905621993888
 21
-0.0677155238481362
 31
0.0
  0
LINE
  5
46E
  8
0
  6
CONTINUOUS
 62
     3
 10
110.8905733741837
 20
-6.995933448154091
 30
0.0
 11
108.8905733741837
 21
-3.531831895190834
 31
0.0
  0
LINE
  5
46F
  8
0
  6
CONTINUOUS
 62
     3
 10
114.8905857919214
 20
-6.995942938910929
 30
0.0
 11
110.8905857919214
 21
-6.995942938910929
 31
0.0
  0
LINE
  5
470
  8
0
  6
CONTINUOUS
 62
     3
 10
116.8905823931316
 20
-3.531842461846253
 30
0.0
 11
114.8905819162944
 21
-6.995943776390931
 31
0.0
  0
LINE
  5
471
  8
0
  6
CONTINUOUS
 62
     3
 10
221.7418278573511
 20
48.42970861138204
 30
0.0
 11
225.7418278573511
 21
48.42970861138204
 31
0.0
  0
LINE
  5
472
  8
0
  6
CONTINUOUS
 62
     3
 10
225.7418264951081
 20
48.42970887441746
 30
0.0
 11
227.7418264951081
 21
44.9656073214542
 31
0.0
  0
LINE
  5
473
  8
0
  6
CONTINUOUS
 62
     3
 10
227.7418263825782
 20
44.96559318258281
 30
0.0
 11
225.7418263825782
 21
41.50149162961955
 31
0.0
  0
LINE
  5
474
  8
0
  6
CONTINUOUS
 62
     3
 10
225.7418125985621
 20
41.50145162285665
 30
0.0
 11
221.7418125985621
 21
41.50145162285665
 31
0.0
  0
LINE
  5
475
  8
0
  6
CONTINUOUS
 62
     3
 10
221.7418229939092
 20
41.50150362272373
 30
0.0
 11
219.7418229939092
 21
44.96560517568699
 31
0.0
  0
LINE
  5
476
  8
0
  6
CONTINUOUS
 62
     3
 10
219.7418493103766
 20
44.96558006956096
 30
0.0
 11
221.7418493103766
 21
48.42968162252421
 31
0.0
  0
ARC
  5
477
  8
0
  6
CONTINUOUS
 62
     3
 10
154.3158635018824
 20
52.71688283623556
 30
0.0
 40
85.0
 50
0.0
 51
80.51962480441959
  0
CIRCLE
  5
478
  8
0
  6
CONTINUOUS
 62
     3
 10
154.3158635018824
 20
0.3318864220509852
 30
0.0
 40
8.0
  0
CIRCLE
  5
479
  8
0
  6
CONTINUOUS
 62
     3
 10
154.3158635018824
 20
0.3318864220509852
 30
0.0
 40
8.75
  0
CIRCLE
  5
47A
  8
0
  6
CONTINUOUS
 62
     3
 10
199.6826084969996
 20
78.90938390435079
 30
0.0
 40
5.5
  0
CIRCLE
  5
47B
  8
0
  6
CONTINUOUS
 62
     3
 10
108.9491185067652
 20
78.90938390435079
 30
0.0
 40
5.5
  0
ARC
  5
47C
  8
0
  6
CONTINUOUS
 62
     3
 10
154.3158635018824
 20
52.71688283623556
 30
0.0
 40
43.0
 50
109.0003456810247
 51
190.9991640634264
  0
ARC
  5
47D
  8
0
  6
CONTINUOUS
 62
     3
 10
154.3158635018824
 20
52.71688283623556
 30
0.0
 40
85.0
 50
219.4801276391182
 51
320.5198536915472
  0
ARC
  5
47E
  8
0
  6
CONTINUOUS
 62
     3
 10
154.3158635018824
 20
52.71688283623556
 30
0.0
 40
83.5
 50
219.6520435005274
 51
320.3479378301379
  0
ARC
  5
47F
  8
0
  6
CONTINUOUS
 62
     3
 10
154.3158635018824
 20
52.71688283623556
 30
0.0
 40
43.0
 50
229.0007829647123
 51
310.9992017810476
  0
ARC
  5
480
  8
0
  6
CONTINUOUS
 62
     3
 10
154.3158635018824
 20
52.71688283623556
 30
0.0
 40
43.0
 50
349.0008042332631
 51
430.9987235920153
  0
ARC
  5
481
  8
0
  6
CONTINUOUS
 62
     3
 10
154.3158635018824
 20
52.71688283623556
 30
0.0
 40
83.5
 50
339.6520707454937
 51
440.3477021128212
  0
ARC
  5
482
  8
0
  6
CONTINUOUS
 62
     3
 10
154.3158635018824
 20
52.71688283623556
 30
0.0
 40
85.0
 50
339.4801531765372
 51
360.0
  0
CIRCLE
  5
483
  8
0
  6
CONTINUOUS
 62
     3
 10
111.8806141732691
 20
28.21687806786397
 30
0.0
 40
6.5
  0
CIRCLE
  5
484
  8
0
  6
CONTINUOUS
 62
     3
 10
196.7511204598902
 20
28.21688951195577
 30
0.0
 40
6.5
  0
CIRCLE
  5
485
  8
0
  6
CONTINUOUS
 62
     3
 10
218.4017552255152
 20
15.71689070404867
 30
0.0
 40
6.5
  0
CIRCLE
  5
486
  8
0
  6
CONTINUOUS
 62
     3
 10
154.3161991952418
 20
126.7168828362356
 30
0.0
 40
6.5
  0
CIRCLE
  5
487
  8
0
  6
CONTINUOUS
 62
     3
 10
154.3161991952418
 20
101.7168828362356
 30
0.0
 40
6.5
  0
CIRCLE
  5
488
  8
0
  6
CONTINUOUS
 62
     3
 10
199.6826084969996
 20
78.90937246025899
 30
0.0
 40
8.5
  0
ARC
  5
489
  8
0
  6
CONTINUOUS
 62
     3
 10
88.80496109709722
 20
11.42986978234151
 30
0.0
 40
1.0
 50
230.7154746350873
 51
281.8051257022426
  0
ARC
  5
48A
  8
0
  6
CONTINUOUS
 62
     3
 10
88.80496109709722
 20
11.42986978234151
 30
0.0
 40
1.0
 50
119.9999896789259
 51
189.2845406949431
  0
ARC
  5
48B
  8
0
  6
CONTINUOUS
 62
     3
 10
89.72447098479253
 20
11.96074594200948
 30
0.0
 40
1.0
 50
318.1948709584532
 51
390.0000076650152
  0
ARC
  5
48C
  8
0
  6
CONTINUOUS
 62
     3
 10
89.72447098479253
 20
11.96074594200948
 30
0.0
 40
1.0
 50
30.00000766501523
 51
119.9999896789259
  0
ARC
  5
48D
  8
0
  6
CONTINUOUS
 62
     3
 10
86.49492539153081
 20
13.56027163208822
 30
0.0
 40
3.0
 50
348.1897013400775
 51
390.0000076650152
  0
ARC
  5
48E
  8
0
  6
CONTINUOUS
 62
     3
 10
86.49492539153081
 20
13.56027163208822
 30
0.0
 40
3.0
 50
30.00000766501523
 51
71.81032082014211
  0
ARC
  5
48F
  8
0
  6
CONTINUOUS
 62
     3
 10
86.72447098479253
 20
17.15689786074111
 30
0.0
 40
1.0
 50
300.0000256511046
 51
390.0000076650152
  0
ARC
  5
490
  8
0
  6
CONTINUOUS
 62
     3
 10
86.72447098479253
 20
17.15689786074111
 30
0.0
 40
1.0
 50
30.00000766501523
 51
101.8051443715773
  0
CIRCLE
  5
491
  8
0
  6
CONTINUOUS
 62
     3
 10
126.3161839364527
 20
116.7168828362356
 30
0.0
 40
8.0
  0
CIRCLE
  5
492
  8
0
  6
CONTINUOUS
 62
     3
 10
126.3161839364527
 20
116.7168828362356
 30
0.0
 40
2.400000095367432
  0
CIRCLE
  5
493
  8
0
  6
CONTINUOUS
 62
     3
 10
126.3161839364527
 20
116.7168828362356
 30
0.0
 40
0.75
  0
CIRCLE
  5
494
  8
0
  6
CONTINUOUS
 62
     3
 10
126.3161839364527
 20
116.7168828362356
 30
0.0
 40
3.299999952316284
  0
CIRCLE
  5
495
  8
0
  6
CONTINUOUS
 62
     3
 10
112.8905781625269
 20
-3.531841147529093
 30
0.0
 40
0.75
  0
CIRCLE
  5
496
  8
0
  6
CONTINUOUS
 62
     3
 10
112.8905781625269
 20
-3.531841147529093
 30
0.0
 40
3.299999952316284
  0
CIRCLE
  5
497
  8
0
  6
CONTINUOUS
 62
     3
 10
112.8905781625269
 20
-3.531841147529093
 30
0.0
 40
8.0
  0
CIRCLE
  5
498
  8
0
  6
CONTINUOUS
 62
     3
 10
112.8905781625269
 20
-3.531841147529093
 30
0.0
 40
2.400000095367432
  0
CIRCLE
  5
499
  8
0
  6
CONTINUOUS
 62
     3
 10
223.7418278573511
 20
44.9656068200002
 30
0.0
 40
2.400000095367432
  0
CIRCLE
  5
49A
  8
0
  6
CONTINUOUS
 62
     3
 10
223.7418278573511
 20
44.9656068200002
 30
0.0
 40
8.0
  0
CIRCLE
  5
49B
  8
0
  6
CONTINUOUS
 62
     3
 10
223.7418278573511
 20
44.9656068200002
 30
0.0
 40
3.299999952316284
  0
CIRCLE
  5
49C
  8
0
  6
CONTINUOUS
 62
     3
 10
223.7418278573511
 20
44.9656068200002
 30
0.0
 40
0.75
  0
LINE
  5
49D
  8
0
  6
CONTINUOUS
 62
     3
 10
-163.545824781167
 20
72.21688283623556
 30
0.0
 11
-163.545824781167
 21
68.89688314141134
 31
0.0
  0
LINE
  5
49E
  8
0
  6
CONTINUOUS
 62
     3
 10
-163.545824781167
 20
36.53688443840841
 30
0.0
 11
-163.545824781167
 21
33.21676839531759
 31
0.0
  0
LINE
  5
49F
  8
0
  6
CONTINUOUS
 62
     3
 10
-147.545824781167
 20
69.21688283623556
 30
0.0
 11
-147.545824781167
 21
66.44160656774912
 31
0.0
  0
LINE
  5
4A0
  8
0
  6
CONTINUOUS
 62
     3
 10
-147.545824781167
 20
39.76227766619842
 30
0.0
 11
-147.545824781167
 21
36.21688474358419
 31
0.0
  0
LINE
  5
4A1
  8
0
  6
CONTINUOUS
 62
     3
 10
-143.545824781167
 20
69.21688283623556
 30
0.0
 11
-143.545824781167
 21
66.44160656774912
 31
0.0
  0
LINE
  5
4A2
  8
0
  6
CONTINUOUS
 62
     3
 10
-143.545824781167
 20
39.76227766619842
 30
0.0
 11
-143.545824781167
 21
36.21688474358419
 31
0.0
  0
LINE
  5
4A3
  8
0
  6
CONTINUOUS
 62
     3
 10
-135.045824781167
 20
79.71687902153829
 30
0.0
 11
-135.045824781167
 21
66.44160656774912
 31
0.0
  0
LINE
  5
4A4
  8
0
  6
CONTINUOUS
 62
     3
 10
-135.045824781167
 20
39.76227766619842
 30
0.0
 11
-135.045824781167
 21
25.71688283623556
 31
0.0
  0
LINE
  5
4A5
  8
0
  6
CONTINUOUS
 62
     3
 10
-130.0475948006983
 20
79.71687902153829
 30
0.0
 11
-130.0475948006983
 21
67.21688283623556
 31
0.0
  0
LINE
  5
4A6
  8
0
  6
CONTINUOUS
 62
     3
 10
-130.0475948006983
 20
38.21688474358419
 30
0.0
 11
-130.0475948006983
 21
25.71688283623556
 31
0.0
  0
LINE
  5
4A7
  8
0
  6
CONTINUOUS
 62
     3
 10
-129.4458186776514
 20
79.5264035576711
 30
0.0
 11
-129.4458186776514
 21
67.21688283623556
 31
0.0
  0
LINE
  5
4A8
  8
0
  6
CONTINUOUS
 62
     3
 10
-129.4458186776514
 20
38.21688474358419
 30
0.0
 11
-129.4458186776514
 21
25.90735734642843
 31
0.0
  0
LINE
  5
4A9
  8
0
  6
CONTINUOUS
 62
     3
 10
-116.9458339364405
 20
86.25790609063009
 30
0.0
 11
-116.9458339364405
 21
69.48054294001884
 31
0.0
  0
LINE
  5
4AA
  8
0
  6
CONTINUOUS
 62
     3
 10
-116.9458339364405
 20
36.45743436135462
 30
0.0
 11
-116.9458339364405
 21
19.17586458863119
 31
0.0
  0
LINE
  5
4AB
  8
0
  6
CONTINUOUS
 62
     3
 10
-96.94583393644047
 20
86.25790609063009
 30
0.0
 11
-96.94583393644047
 21
69.48054294001884
 31
0.0
  0
LINE
  5
4AC
  8
0
  6
CONTINUOUS
 62
     3
 10
-96.94583393644047
 20
36.45743436135462
 30
0.0
 11
-96.94583393644047
 21
19.17586458863119
 31
0.0
  0
LINE
  5
4AD
  8
0
  6
CONTINUOUS
 62
     3
 10
-84.44583393644047
 20
79.52639592827657
 30
0.0
 11
-84.44583393644047
 21
69.48054294001884
 31
0.0
  0
LINE
  5
4AE
  8
0
  6
CONTINUOUS
 62
     3
 10
-84.44583393644047
 20
36.45743436135462
 30
0.0
 11
-84.44583393644047
 21
25.90737069786886
 31
0.0
  0
LINE
  5
4AF
  8
0
  6
CONTINUOUS
 62
     3
 10
-83.84408833097172
 20
79.71687902153829
 30
0.0
 11
-83.84408833097172
 21
69.48054294001884
 31
0.0
  0
LINE
  5
4B0
  8
0
  6
CONTINUOUS
 62
     3
 10
-83.84408833097172
 20
36.45743436135462
 30
0.0
 11
-83.84408833097172
 21
25.71688283623556
 31
0.0
  0
LINE
  5
4B1
  8
0
  6
CONTINUOUS
 62
     3
 10
-81.34582783292484
 20
90.71688283623556
 30
0.0
 11
-81.34582783292484
 21
69.48054294001884
 31
0.0
  0
LINE
  5
4B2
  8
0
  6
CONTINUOUS
 62
     3
 10
-81.34582783292484
 20
36.45743436135462
 30
0.0
 11
-81.34582783292484
 21
14.71685780228475
 31
0.0
  0
LINE
  5
4B3
  8
0
  6
CONTINUOUS
 62
     3
 10
-73.94583393644047
 20
36.45743436135462
 30
0.0
 11
-73.94583393644047
 21
13.71688402832845
 31
0.0
  0
LINE
  5
4B4
  8
0
  6
CONTINUOUS
 62
     3
 10
-52.9458301217432
 20
92.97744191826681
 30
0.0
 11
-52.9458301217432
 21
67.71689046563009
 31
0.0
  0
LINE
  5
4B5
  8
0
  6
CONTINUOUS
 62
     3
 10
-120.9458186776514
 20
67.71689046563009
 30
0.0
 11
-70.4458301217432
 21
67.71689046563009
 31
0.0
  0
LINE
  5
4B6
  8
0
  6
CONTINUOUS
 62
     3
 10
-120.9458186776514
 20
37.71689046563009
 30
0.0
 11
-70.4458301217432
 21
37.71689046563009
 31
0.0
  0
LINE
  5
4B7
  8
0
  6
CONTINUOUS
 62
     3
 10
-73.9458301217432
 20
37.71689046563009
 30
0.0
 11
-73.9458301217432
 21
13.71688998879293
 31
0.0
  0
LINE
  5
4B8
  8
0
  6
CONTINUOUS
 62
     3
 10
-67.4458301217432
 20
34.71689046563009
 30
0.0
 11
-67.4458301217432
 21
20.21688927353719
 31
0.0
  0
LINE
  5
4B9
  8
0
  6
CONTINUOUS
 62
     3
 10
-171.9458110482569
 20
39.71689046563009
 30
0.0
 11
-122.9458186776514
 21
39.71689046563009
 31
0.0
  0
LINE
  5
4BA
  8
0
  6
CONTINUOUS
 62
     3
 10
-171.9458110482569
 20
65.71689046563009
 30
0.0
 11
-122.9458186776514
 21
65.71689046563009
 31
0.0
  0
LINE
  5
4BB
  8
0
  6
CONTINUOUS
 62
     3
 10
-61.9458301217432
 20
80.71688665093282
 30
0.0
 11
-61.9458301217432
 21
62.71689046563009
 31
0.0
  0
LINE
  5
4BC
  8
0
  6
CONTINUOUS
 62
     3
 10
-108.9458186776514
 20
63.21689046563009
 30
0.0
 11
-108.9458186776514
 21
62.71689046563009
 31
0.0
  0
LINE
  5
4BD
  8
0
  6
CONTINUOUS
 62
     3
 10
-158.9458110482569
 20
63.71689046563009
 30
0.0
 11
-158.9458110482569
 21
63.21689046563009
 31
0.0
  0
LINE
  5
4BE
  8
0
  6
CONTINUOUS
 62
     3
 10
-171.9458110482569
 20
63.71689046563009
 30
0.0
 11
-158.9458110482569
 21
63.71689046563009
 31
0.0
  0
LINE
  5
4BF
  8
0
  6
CONTINUOUS
 62
     3
 10
-158.9458110482569
 20
63.21689046563009
 30
0.0
 11
-108.9458186776514
 21
63.21689046563009
 31
0.0
  0
LINE
  5
4C0
  8
0
  6
CONTINUOUS
 62
     3
 10
-158.9458110482569
 20
42.21689046563009
 30
0.0
 11
-108.9458186776514
 21
42.21689046563009
 31
0.0
  0
LINE
  5
4C1
  8
0
  6
CONTINUOUS
 62
     3
 10
-51.9458301217432
 20
67.71689046563009
 30
0.0
 11
-51.9458301217432
 21
57.44338048638204
 31
0.0
  0
LINE
  5
4C2
  8
0
  6
CONTINUOUS
 62
     3
 10
-53.9458301217432
 20
37.71689046563009
 30
0.0
 11
-51.9458301217432
 21
37.71689046563009
 31
0.0
  0
LINE
  5
4C3
  8
0
  6
CONTINUOUS
 62
     3
 10
-53.9458301217432
 20
67.71689046563009
 30
0.0
 11
-51.9458301217432
 21
67.71689046563009
 31
0.0
  0
LINE
  5
4C4
  8
0
  6
CONTINUOUS
 62
     3
 10
-52.9458301217432
 20
37.71689046563009
 30
0.0
 11
-52.9458301217432
 21
-30.78310953436991
 31
0.0
  0
LINE
  5
4C5
  8
0
  6
CONTINUOUS
 62
     3
 10
-55.9458301217432
 20
35.71689046563009
 30
0.0
 11
-55.9458301217432
 21
33.96689046563009
 31
0.0
  0
LINE
  5
4C6
  8
0
  6
CONTINUOUS
 62
     3
 10
-61.9458301217432
 20
42.71689046563009
 30
0.0
 11
-61.9458301217432
 21
32.21689046563009
 31
0.0
  0
LINE
  5
4C7
  8
0
  6
CONTINUOUS
 62
     3
 10
-108.9458186776514
 20
42.71689046563009
 30
0.0
 11
-108.9458186776514
 21
42.21689046563009
 31
0.0
  0
LINE
  5
4C8
  8
0
  6
CONTINUOUS
 62
     3
 10
-52.9458301217432
 20
47.21689046563009
 30
0.0
 11
-51.9458301217432
 21
47.21689046563009
 31
0.0
  0
LINE
  5
4C9
  8
0
  6
CONTINUOUS
 62
     3
 10
-61.94583550623258
 20
63.2168853291428
 30
0.0
 11
-43.75931761960248
 21
52.71689549173416
 31
0.0
  0
LINE
  5
4CA
  8
0
  6
CONTINUOUS
 62
     3
 10
-61.94584020560063
 20
42.21689951361256
 30
0.0
 11
-43.75931901534563
 21
52.71689125836971
 31
0.0
  0
LINE
  5
4CB
  8
0
  6
CONTINUOUS
 62
     3
 10
-61.07981754850101
 20
62.71689428032735
 30
0.0
 11
-61.07981754850101
 21
42.71688665093282
 31
0.0
  0
LINE
  5
4CC
  8
0
  6
CONTINUOUS
 62
     3
 10
-108.7598140389795
 20
61.56218923271993
 30
0.0
 11
-108.7598140389795
 21
43.87159551323751
 31
0.0
  0
LINE
  5
4CD
  8
0
  6
CONTINUOUS
 62
     3
 10
-106.7598140389795
 20
62.71689046563009
 30
0.0
 11
-106.7598140389795
 21
42.71689046563009
 31
0.0
  0
LINE
  5
4CE
  8
0
  6
CONTINUOUS
 62
     3
 10
-106.7598005845328
 20
42.71689204872203
 30
0.0
 11
-108.7598002374369
 21
43.87159589700335
 31
0.0
  0
LINE
  5
4CF
  8
0
  6
CONTINUOUS
 62
     3
 10
-106.759802598352
 20
62.71687152442431
 30
0.0
 11
-108.7598043160228
 21
61.56217125507195
 31
0.0
  0
LINE
  5
4D0
  8
0
  6
CONTINUOUS
 62
     3
 10
-108.7598140389795
 20
42.71689046563009
 30
0.0
 11
-61.07981754850101
 21
42.71689046563009
 31
0.0
  0
LINE
  5
4D1
  8
0
  6
CONTINUOUS
 62
     3
 10
-108.7598140389795
 20
62.71689046563009
 30
0.0
 11
-61.07981754850101
 21
62.71689046563009
 31
0.0
  0
LINE
  5
4D2
  8
0
  6
CONTINUOUS
 62
     3
 10
-198.759806409585
 20
56.71689046563009
 30
0.0
 11
-108.7598140389795
 21
56.71689046563009
 31
0.0
  0
LINE
  5
4D3
  8
0
  6
CONTINUOUS
 62
     3
 10
-198.759806409585
 20
48.71689046563009
 30
0.0
 11
-108.7598140389795
 21
48.71689046563009
 31
0.0
  0
LINE
  5
4D4
  8
0
  6
CONTINUOUS
 62
     3
 10
-198.759806409585
 20
56.71689046563009
 30
0.0
 11
-198.759806409585
 21
48.71689046563009
 31
0.0
  0
LINE
  5
4D5
  8
0
  6
CONTINUOUS
 62
     3
 10
-175.9458110482569
 20
39.71689046563009
 30
0.0
 11
-171.9458110482569
 21
39.71689046563009
 31
0.0
  0
LINE
  5
4D6
  8
0
  6
CONTINUOUS
 62
     3
 10
-172.9458110482569
 20
65.71689046563009
 30
0.0
 11
-172.9458110482569
 21
57.21689046563009
 31
0.0
  0
LINE
  5
4D7
  8
0
  6
CONTINUOUS
 62
     3
 10
-175.9458110482569
 20
48.21689046563009
 30
0.0
 11
-175.9458110482569
 21
39.71689046563009
 31
0.0
  0
LINE
  5
4D8
  8
0
  6
CONTINUOUS
 62
     3
 10
-172.9458110482569
 20
48.21689046563009
 30
0.0
 11
-172.9458110482569
 21
39.71689046563009
 31
0.0
  0
LINE
  5
4D9
  8
0
  6
CONTINUOUS
 62
     3
 10
-175.9458110482569
 20
48.21689046563009
 30
0.0
 11
-161.9458110482569
 21
48.21689046563009
 31
0.0
  0
LINE
  5
4DA
  8
0
  6
CONTINUOUS
 62
     3
 10
-175.9458110482569
 20
57.21689046563009
 30
0.0
 11
-161.9458110482569
 21
57.21689046563009
 31
0.0
  0
LINE
  5
4DB
  8
0
  6
CONTINUOUS
 62
     3
 10
-171.9458110482569
 20
42.21689046563009
 30
0.0
 11
-171.9458110482569
 21
39.71689046563009
 31
0.0
  0
LINE
  5
4DC
  8
0
  6
CONTINUOUS
 62
     3
 10
-143.5458171517725
 20
67.21689046563009
 30
0.0
 11
-135.045824781167
 21
67.21689046563009
 31
0.0
  0
LINE
  5
4DD
  8
0
  6
CONTINUOUS
 62
     3
 10
-185.9458110482569
 20
58.1848508232961
 30
0.0
 11
-185.9458110482569
 21
56.71689046563009
 31
0.0
  0
LINE
  5
4DE
  8
0
  6
CONTINUOUS
 62
     3
 10
-185.9458110482569
 20
48.71689046563009
 30
0.0
 11
-185.9458110482569
 21
47.24896444023946
 31
0.0
  0
LINE
  5
4DF
  8
0
  6
CONTINUOUS
 62
     3
 10
-176.9458948834312
 20
59.91683511538852
 30
0.0
 11
-175.9458898767375
 21
58.1848048251168
 31
0.0
  0
LINE
  5
4E0
  8
0
  6
CONTINUOUS
 62
     3
 10
-181.9457807114604
 20
59.91689928609733
 30
0.0
 11
-180.9457860758957
 21
58.18486303540661
 31
0.0
  0
LINE
  5
4E1
  8
0
  6
CONTINUOUS
 62
     3
 10
-184.9457360339761
 20
59.91683775810455
 30
0.0
 11
-185.9457332921251
 21
58.18480305712276
 31
0.0
  0
LINE
  5
4E2
  8
0
  6
CONTINUOUS
 62
     3
 10
-184.9458671002728
 20
45.51685913607847
 30
0.0
 11
-185.9458713320343
 21
47.2489427789574
 31
0.0
  0
LINE
  5
4E3
  8
0
  6
CONTINUOUS
 62
     3
 10
-176.9457462784159
 20
45.51685669535803
 30
0.0
 11
-175.945750629555
 21
47.24890997523474
 31
0.0
  0
LINE
  5
4E4
  8
0
  6
CONTINUOUS
 62
     3
 10
-179.9457707899441
 20
45.51690358659656
 30
0.0
 11
-180.9457682865099
 21
47.24893816836996
 31
0.0
  0
LINE
  5
4E5
  8
0
  6
CONTINUOUS
 62
     3
 10
-180.9458110482569
 20
58.18488897026876
 30
0.0
 11
-180.9458110482569
 21
56.71689046563009
 31
0.0
  0
LINE
  5
4E6
  8
0
  6
CONTINUOUS
 62
     3
 10
-180.9458663466677
 20
58.18488499822141
 30
0.0
 11
-179.9458891156448
 21
59.91689613120687
 31
0.0
  0
LINE
  5
4E7
  8
0
  6
CONTINUOUS
 62
     3
 10
-181.9458487522417
 20
45.51689172781497
 30
0.0
 11
-180.9458257448461
 21
47.24898214779276
 31
0.0
  0
LINE
  5
4E8
  8
0
  6
CONTINUOUS
 62
     3
 10
-175.9458110482569
 20
65.71689046563009
 30
0.0
 11
-175.9458110482569
 21
56.71689046563009
 31
0.0
  0
LINE
  5
4E9
  8
0
  6
CONTINUOUS
 62
     3
 10
-184.9458110482569
 20
45.51688970269063
 30
0.0
 11
-181.945841565835
 21
45.51688970269063
 31
0.0
  0
LINE
  5
4EA
  8
0
  6
CONTINUOUS
 62
     3
 10
-184.9458110482569
 20
59.91689122856954
 30
0.0
 11
-181.9458110482569
 21
59.91689122856954
 31
0.0
  0
LINE
  5
4EB
  8
0
  6
CONTINUOUS
 62
     3
 10
-179.945841565835
 20
59.91689122856954
 30
0.0
 11
-176.9458110482569
 21
59.91689122856954
 31
0.0
  0
LINE
  5
4EC
  8
0
  6
CONTINUOUS
 62
     3
 10
-179.9458110482569
 20
45.51688970269063
 30
0.0
 11
-176.9458110482569
 21
45.51688970269063
 31
0.0
  0
LINE
  5
4ED
  8
0
  6
CONTINUOUS
 62
     3
 10
-180.9458110482569
 20
48.71689046563009
 30
0.0
 11
-180.9458110482569
 21
47.24895299614767
 31
0.0
  0
LINE
  5
4EE
  8
0
  6
CONTINUOUS
 62
     3
 10
-175.9458110482569
 20
48.71689046563009
 30
0.0
 11
-175.9458110482569
 21
39.71689046563009
 31
0.0
  0
LINE
  5
4EF
  8
0
  6
CONTINUOUS
 62
     3
 10
-51.9458301217432
 20
47.99039663018087
 30
0.0
 11
-51.9458301217432
 21
37.71689046563009
 31
0.0
  0
ARC
  5
4F0
  8
0
  6
CONTINUOUS
 62
     3
 10
-122.9458186776514
 20
67.71689046563009
 30
0.0
 40
2.0
 50
270.0000179860894
 51
360.0
  0
ARC
  5
4F1
  8
0
  6
CONTINUOUS
 62
     3
 10
-122.9458186776514
 20
37.71689046563009
 30
0.0
 40
2.0
 50
0.0
 51
89.99998201391065
  0
ARC
  5
4F2
  8
0
  6
CONTINUOUS
 62
     3
 10
-70.4458301217432
 20
70.71689046563009
 30
0.0
 40
3.0
 50
270.0000179860894
 51
360.0
  0
ARC
  5
4F3
  8
0
  6
CONTINUOUS
 62
     3
 10
-70.4458301217432
 20
34.71689046563009
 30
0.0
 40
3.0
 50
0.0
 51
89.99998201391065
  0
ARC
  5
4F4
  8
0
  6
CONTINUOUS
 62
     3
 10
-53.9458301217432
 20
69.71689046563009
 30
0.0
 40
2.0
 50
179.9999813306654
 51
270.0000179860894
  0
ARC
  5
4F5
  8
0
  6
CONTINUOUS
 62
     3
 10
-53.9458301217432
 20
35.71689046563009
 30
0.0
 40
2.0
 50
89.99998201391065
 51
179.9999640278213
  0
LINE
  5
4F6
  8
0
  6
CONTINUOUS
 62
     3
 10
-63.4458301217432
 20
92.71688283623556
 30
0.0
 11
-63.4458301217432
 21
85.21688283623556
 31
0.0
  0
LINE
  5
4F7
  8
0
  6
CONTINUOUS
 62
     3
 10
-67.4458301217432
 20
85.21688283623556
 30
0.0
 11
-63.4458301217432
 21
85.21688283623556
 31
0.0
  0
LINE
  5
4F8
  8
0
  6
CONTINUOUS
 62
     3
 10
-55.9458301217432
 20
92.71688283623556
 30
0.0
 11
-55.9458301217432
 21
69.71689046563009
 31
0.0
  0
LINE
  5
4F9
  8
0
  6
CONTINUOUS
 62
     3
 10
-61.9458301217432
 20
80.71688665093282
 30
0.0
 11
-55.9458301217432
 21
80.71688665093282
 31
0.0
  0
LINE
  5
4FA
  8
0
  6
CONTINUOUS
 62
     3
 10
-63.4458301217432
 20
86.71688283623556
 30
0.0
 11
-55.9458301217432
 21
86.71688283623556
 31
0.0
  0
LINE
  5
4FB
  8
0
  6
CONTINUOUS
 62
     3
 10
-73.9458301217432
 20
20.21688927353719
 30
0.0
 11
-63.4458301217432
 21
20.21688927353719
 31
0.0
  0
LINE
  5
4FC
  8
0
  6
CONTINUOUS
 62
     3
 10
-63.4458301217432
 20
9.716890465630087
 30
0.0
 11
-52.9458301217432
 21
9.716890465630087
 31
0.0
  0
LINE
  5
4FD
  8
0
  6
CONTINUOUS
 62
     3
 10
-63.4458301217432
 20
20.21688927353719
 30
0.0
 11
-63.4458301217432
 21
18.71688924101048
 31
0.0
  0
LINE
  5
4FE
  8
0
  6
CONTINUOUS
 62
     3
 10
-61.9458301217432
 20
24.71688903511861
 30
0.0
 11
-55.9458301217432
 21
24.71688903511861
 31
0.0
  0
LINE
  5
4FF
  8
0
  6
CONTINUOUS
 62
     3
 10
-67.4458301217432
 20
27.21689046563009
 30
0.0
 11
-58.9458301217432
 21
27.21689046563009
 31
0.0
  0
LINE
  5
500
  8
0
  6
CONTINUOUS
 62
     3
 10
-67.4458301217432
 20
32.21689046563009
 30
0.0
 11
-58.9458301217432
 21
32.21689046563009
 31
0.0
  0
LINE
  5
501
  8
0
  6
CONTINUOUS
 62
     3
 10
-75.18467594693851
 20
12.71688998879293
 30
0.0
 11
-59.9458301217432
 21
12.71688998879293
 31
0.0
  0
LINE
  5
502
  8
0
  6
CONTINUOUS
 62
     3
 10
-73.9458301217432
 20
18.71688924101048
 30
0.0
 11
-59.9458301217432
 21
18.71688924101048
 31
0.0
  0
LINE
  5
503
  8
0
  6
CONTINUOUS
 62
     3
 10
-59.9458301217432
 20
20.71688927353719
 30
0.0
 11
-53.9458301217432
 21
20.71688927353719
 31
0.0
  0
LINE
  5
504
  8
0
  6
CONTINUOUS
 62
     3
 10
-59.9458301217432
 20
10.71688998879293
 30
0.0
 11
-53.9458301217432
 21
10.71688998879293
 31
0.0
  0
LINE
  5
505
  8
0
  6
CONTINUOUS
 62
     3
 10
-58.9458301217432
 20
25.46688903511861
 30
0.0
 11
-53.9458301217432
 21
25.46688903511861
 31
0.0
  0
LINE
  5
506
  8
0
  6
CONTINUOUS
 62
     3
 10
-58.9458301217432
 20
33.96689046563009
 30
0.0
 11
-53.9458301217432
 21
33.96689046563009
 31
0.0
  0
LINE
  5
507
  8
0
  6
CONTINUOUS
 62
     3
 10
-59.9458301217432
 20
20.71688927353719
 30
0.0
 11
-59.9458301217432
 21
10.71688998879293
 31
0.0
  0
LINE
  5
508
  8
0
  6
CONTINUOUS
 62
     3
 10
-58.9458301217432
 20
33.96689046563009
 30
0.0
 11
-58.9458301217432
 21
25.46688903511861
 31
0.0
  0
LINE
  5
509
  8
0
  6
CONTINUOUS
 62
     3
 10
-53.9458301217432
 20
33.96689046563009
 30
0.0
 11
-53.9458301217432
 21
25.46688903511861
 31
0.0
  0
LINE
  5
50A
  8
0
  6
CONTINUOUS
 62
     3
 10
-53.9458301217432
 20
33.96689046563009
 30
0.0
 11
-53.9458301217432
 21
25.46688903511861
 31
0.0
  0
LINE
  5
50B
  8
0
  6
CONTINUOUS
 62
     3
 10
-53.9458301217432
 20
20.71688927353719
 30
0.0
 11
-53.9458301217432
 21
10.71688998879293
 31
0.0
  0
LINE
  5
50C
  8
0
  6
CONTINUOUS
 62
     3
 10
-55.9458301217432
 20
25.46688903511861
 30
0.0
 11
-55.9458301217432
 21
20.71688927353719
 31
0.0
  0
LINE
  5
50D
  8
0
  6
CONTINUOUS
 62
     3
 10
-55.9458301217432
 20
10.71688998879293
 30
0.0
 11
-55.9458301217432
 21
9.716890465630087
 31
0.0
  0
LINE
  5
50E
  8
0
  6
CONTINUOUS
 62
     3
 10
-61.9458301217432
 20
27.21689046563009
 30
0.0
 11
-61.9458301217432
 21
24.71688903511861
 31
0.0
  0
LINE
  5
50F
  8
0
  6
CONTINUOUS
 62
     3
 10
-63.4458301217432
 20
12.71688998879293
 30
0.0
 11
-63.4458301217432
 21
9.716890465630087
 31
0.0
  0
LINE
  5
510
  8
0
  6
CONTINUOUS
 62
     3
 10
-53.9458301217432
 20
20.71688927353719
 30
0.0
 11
-53.9458301217432
 21
10.71688998879293
 31
0.0
  0
CIRCLE
  5
511
  8
0
  6
CONTINUOUS
 62
     3
 10
108.9487904428003
 20
78.90956500901554
 30
0.0
 40
8.5
  0
LINE
  5
512
  8
0
  6
CONTINUOUS
 62
     3
 10
140.3161991952418
 20
86.71688187572681
 30
0.0
 11
168.3161991952418
 21
86.71688187572681
 31
0.0
  0
LINE
  5
513
  8
0
  6
CONTINUOUS
 62
     3
 10
176.7602615334652
 20
23.59281899278489
 30
0.0
 11
190.7602671139122
 21
47.84153663847286
 31
0.0
  0
LINE
  5
514
  8
0
  6
CONTINUOUS
 62
     3
 10
117.8705147455929
 20
47.84095487510626
 30
0.0
 11
131.8705241407376
 21
23.59223062216887
 31
0.0
  0
LINE
  5
515
  8
0
  6
CONTINUOUS
 62
     3
 10
-163.9458186776514
 20
5.331885468376669
 30
0.0
 11
-163.9458186776514
 21
-4.668113577949015
 31
0.0
  0
LINE
  5
516
  8
0
  6
CONTINUOUS
 62
     3
 10
-171.9458110482569
 20
41.71689046563009
 30
0.0
 11
-158.9458110482569
 21
41.71689046563009
 31
0.0
  0
LINE
  5
517
  8
0
  6
CONTINUOUS
 62
     4
 10
-163.9458186776514
 20
-3.818115103827921
 30
0.0
 11
-131.9458186776514
 21
-3.818115103827921
 31
0.0
  0
LINE
  5
518
  8
0
  6
CONTINUOUS
 62
     4
 10
-163.9458186776514
 20
4.481886994255575
 30
0.0
 11
-131.9458186776514
 21
4.481886994255575
 31
0.0
  0
LINE
  5
519
  8
0
  6
CONTINUOUS
 62
     4
 10
-62.94583376194572
 20
-1.791164491562967
 30
0.0
 11
-61.00065941619909
 21
-0.6681176835017766
 31
0.0
  0
LINE
  5
51A
  8
0
  6
CONTINUOUS
 62
     4
 10
-45.94583427052595
 20
100.0864010792871
 30
0.0
 11
-44.85379793185922
 21
100.7168884837237
 31
0.0
  0
LINE
  5
51B
  8
0
  6
CONTINUOUS
 62
     4
 10
-45.94583724447369
 20
124.9304149282728
 30
0.0
 11
-44.58362385359254
 21
125.7168891093006
 31
0.0
  0
LINE
  5
51C
  8
0
  6
CONTINUOUS
 62
     4
 10
-41.26929801296063
 20
125.7168988634492
 30
0.0
 11
-39.94583944587356
 21
124.9527997878993
 31
0.0
  0
LINE
  5
51D
  8
0
  6
CONTINUOUS
 62
     4
 10
-41.15903252042102
 20
100.7168873840301
 30
0.0
 11
-39.94583573825861
 21
100.0164479726546
 31
0.0
  0
LINE
  5
51E
  8
0
  6
CONTINUOUS
 62
     4
 10
-57.25321261884966
 20
-0.6681172243612252
 30
0.0
 11
-54.94583544545532
 21
-2.000281909362315
 31
0.0
  0
LINE
  5
51F
  8
0
  6
CONTINUOUS
 62
     4
 10
-59.25321026396051
 20
-0.6681187064917538
 30
0.0
 11
-54.94583508947363
 21
-3.154982648228923
 31
0.0
  0
LINE
  5
520
  8
0
  6
CONTINUOUS
 62
     4
 10
-61.25320790907136
 20
-0.6681201886222823
 30
0.0
 11
-54.94583142986704
 21
-4.309685294444051
 31
0.0
  0
LINE
  5
521
  8
0
  6
CONTINUOUS
 62
     4
 10
-62.94583298913022
 20
-0.8455832843207816
 30
0.0
 11
-54.94583107388536
 21
-5.46438603331066
 31
0.0
  0
LINE
  5
522
  8
0
  6
CONTINUOUS
 62
     4
 10
-62.94583263314854
 20
-2.00028402318739
 30
0.0
 11
-54.94583402152858
 21
-6.61908486482875
 31
0.0
  0
LINE
  5
523
  8
0
  6
CONTINUOUS
 62
     4
 10
-62.94583558079177
 20
-3.15498285470548
 30
0.0
 11
-56.86090207750823
 21
-6.668120462688961
 31
0.0
  0
LINE
  5
524
  8
0
  6
CONTINUOUS
 62
     4
 10
-62.94583192118517
 20
-4.309685500920608
 30
0.0
 11
-58.86090302624399
 21
-6.66812003747097
 31
0.0
  0
LINE
  5
525
  8
0
  6
CONTINUOUS
 62
     4
 10
-62.9458348688284
 20
-5.464384332438698
 30
0.0
 11
-60.86090397497975
 21
-6.66811961225298
 31
0.0
  0
LINE
  5
526
  8
0
  6
CONTINUOUS
 62
     4
 10
-62.94583742155231
 20
-2.945867137778095
 30
0.0
 11
-59.00065516383842
 21
-0.6681153509352669
 31
0.0
  0
LINE
  5
527
  8
0
  6
CONTINUOUS
 62
     4
 10
-62.94583447390909
 20
-4.100565969296184
 30
0.0
 11
-57.00065751872756
 21
-0.6681168330657954
 31
0.0
  0
LINE
  5
528
  8
0
  6
CONTINUOUS
 62
     4
 10
-62.94583813351568
 20
-5.255268615511312
 30
0.0
 11
-54.94583291464591
 21
-0.6364639591729144
 31
0.0
  0
LINE
  5
529
  8
0
  6
CONTINUOUS
 62
     4
 10
-62.94583518587245
 20
-6.409967447029402
 30
0.0
 11
-54.94583327062759
 21
-1.791164698039523
 31
0.0
  0
LINE
  5
52A
  8
0
  6
CONTINUOUS
 62
     4
 10
-61.3929633502907
 20
-6.668117107132474
 30
0.0
 11
-54.94583362660927
 21
-2.945865436906132
 31
0.0
  0
LINE
  5
52B
  8
0
  6
CONTINUOUS
 62
     4
 10
-59.39295909793003
 20
-6.668114774565964
 30
0.0
 11
-54.94583398259096
 21
-4.100566175772741
 31
0.0
  0
LINE
  5
52C
  8
0
  6
CONTINUOUS
 62
     4
 10
-57.39295814919427
 20
-6.668114349347974
 30
0.0
 11
-54.94583433857264
 21
-5.25526691463935
 31
0.0
  0
LINE
  5
52D
  8
0
  6
CONTINUOUS
 62
     4
 10
-43.15903016553187
 20
100.7168859018996
 30
0.0
 11
-39.94583868590183
 21
98.86174914113647
 31
0.0
  0
LINE
  5
52E
  8
0
  6
CONTINUOUS
 62
     4
 10
-45.15902781064273
 20
100.7168844197691
 30
0.0
 11
-39.94583502629524
 21
97.70704649492134
 31
0.0
  0
LINE
  5
52F
  8
0
  6
CONTINUOUS
 62
     4
 10
-45.94583528084098
 20
100.01644734096
 30
0.0
 11
-39.94583797393847
 21
96.55234766340325
 31
0.0
  0
LINE
  5
530
  8
0
  6
CONTINUOUS
 62
     4
 10
-45.94583162123439
 20
98.86174469474489
 30
0.0
 11
-41.36480067750512
 21
96.21688553842594
 31
0.0
  0
LINE
  5
531
  8
0
  6
CONTINUOUS
 62
     4
 10
-45.94583456887762
 20
97.7070458632268
 30
0.0
 11
-43.36480492986578
 21
96.21688787099245
 31
0.0
  0
LINE
  5
532
  8
0
  6
CONTINUOUS
 62
     4
 10
-45.94583751652084
 20
96.55234703170871
 30
0.0
 11
-45.36480257497664
 21
96.21688638886192
 31
0.0
  0
LINE
  5
533
  8
0
  6
CONTINUOUS
 62
     4
 10
-45.94583462650763
 20
98.93170034042046
 30
0.0
 11
-42.85379863493591
 21
100.7168879552674
 31
0.0
  0
LINE
  5
534
  8
0
  6
CONTINUOUS
 62
     4
 10
-45.94583663430177
 20
97.77699864787959
 30
0.0
 11
-40.85379954448916
 21
100.7168873076019
 31
0.0
  0
LINE
  5
535
  8
0
  6
CONTINUOUS
 62
     4
 10
-45.945835338471
 20
96.62229886268725
 30
0.0
 11
-39.94583493442013
 21
100.0864003283833
 31
0.0
  0
LINE
  5
536
  8
0
  6
CONTINUOUS
 62
     4
 10
-44.64802812296267
 20
96.21688759179378
 30
0.0
 11
-39.94583508392526
 21
98.93169970872592
 31
0.0
  0
LINE
  5
537
  8
0
  6
CONTINUOUS
 62
     4
 10
-42.64802717422691
 20
96.21688801701177
 30
0.0
 11
-39.9458370917194
 21
97.77699801618505
 31
0.0
  0
LINE
  5
538
  8
0
  6
CONTINUOUS
 62
     4
 10
-40.6480245736787
 20
96.21688939590402
 30
0.0
 11
-39.94583414407617
 21
96.62229918466696
 31
0.0
  0
LINE
  5
539
  8
0
  6
CONTINUOUS
 62
     4
 10
-43.26928905082167
 20
125.7168935666216
 30
0.0
 11
-39.94582917901715
 21
123.7980933269871
 31
0.0
  0
LINE
  5
53A
  8
0
  6
CONTINUOUS
 62
     4
 10
-45.26929051062956
 20
125.7168854772413
 30
0.0
 11
-39.94583594135742
 21
122.6433878882192
 31
0.0
  0
LINE
  5
53B
  8
0
  6
CONTINUOUS
 62
     4
 10
-45.94583898845593
 20
124.9527991562048
 30
0.0
 11
-39.9458350743036
 21
121.488695663951
 31
0.0
  0
LINE
  5
53C
  8
0
  6
CONTINUOUS
 62
     4
 10
-45.94582872159953
 20
123.7980926952926
 30
0.0
 11
-41.47505956279491
 21
121.216893203148
 31
0.0
  0
LINE
  5
53D
  8
0
  6
CONTINUOUS
 62
     4
 10
-45.94583548393979
 20
122.6433872565247
 30
0.0
 11
-43.4750610226028
 21
121.2168851137676
 31
0.0
  0
LINE
  5
53E
  8
0
  6
CONTINUOUS
 62
     4
 10
-45.94583461688598
 20
121.4886950322564
 30
0.0
 11
-45.47506806751625
 21
121.216897868281
 31
0.0
  0
LINE
  5
53F
  8
0
  6
CONTINUOUS
 62
     4
 10
-45.94583760045538
 20
123.7757141894062
 30
0.0
 11
-42.58362290485678
 21
125.7168895345186
 31
0.0
  0
LINE
  5
540
  8
0
  6
CONTINUOUS
 62
     4
 10
-45.94583681569674
 20
122.6210229188122
 30
0.0
 11
-40.58362742263051
 21
125.7168956133121
 31
0.0
  0
LINE
  5
541
  8
0
  6
CONTINUOUS
 62
     4
 10
-45.94583335698138
 20
121.4663155726958
 30
0.0
 11
-39.94583605007887
 21
124.9304152502525
 31
0.0
  0
LINE
  5
542
  8
0
  6
CONTINUOUS
 62
     4
 10
-44.37785239288354
 20
121.2168891710449
 30
0.0
 11
-39.945838057873
 21
123.7757135577117
 31
0.0
  0
LINE
  5
543
  8
0
  6
CONTINUOUS
 62
     4
 10
-42.37785691065727
 20
121.2168952498385
 30
0.0
 11
-39.94584057673927
 21
122.6210203797691
 31
0.0
  0
LINE
  5
544
  8
0
  6
CONTINUOUS
 62
     4
 10
-40.37785214722447
 20
121.2168890678067
 30
0.0
 11
-39.94583381439901
 21
121.4663149410012
 31
0.0
  0
LINE
  5
545
  8
0
  6
CONTINUOUS
 62
     4
 10
48.52721228705457
 20
-11.51508663703248
 30
0.0
 11
50.25926413214053
 21
-8.515085815577507
 31
0.0
  0
LINE
  5
546
  8
0
  6
CONTINUOUS
 62
     4
 10
50.25925720915777
 20
-8.51508127509257
 30
0.0
 11
53.72335709319097
 21
-8.51508127509257
 31
0.0
  0
LINE
  5
547
  8
0
  6
CONTINUOUS
 62
     4
 10
51.99130524382574
 20
-7.51508127509257
 30
0.0
 11
53.14600647673589
 21
-7.51508127509257
 31
0.0
  0
LINE
  5
548
  8
0
  6
CONTINUOUS
 62
     4
 10
48.52720535979253
 20
-9.51508127509257
 30
0.0
 11
54.30070770964605
 21
-9.51508127509257
 31
0.0
  0
LINE
  5
549
  8
0
  6
CONTINUOUS
 62
     4
 10
47.94985474333745
 20
-10.51508127509257
 30
0.0
 11
54.87805832610113
 21
-10.51508127509257
 31
0.0
  0
LINE
  5
54A
  8
0
  6
CONTINUOUS
 62
     4
 10
48.52720535979253
 20
-11.51508127509257
 30
0.0
 11
54.06310166106206
 21
-11.51508127509257
 31
0.0
  0
LINE
  5
54B
  8
0
  6
CONTINUOUS
 62
     4
 10
49.10455597624761
 20
-12.51508127509257
 30
0.0
 11
52.3310536263941
 21
-12.51508127509257
 31
0.0
  0
LINE
  5
54C
  8
0
  6
CONTINUOUS
 62
     4
 10
49.68190277800542
 20
-13.5150831824412
 30
0.0
 11
50.59900177702886
 21
-13.5150831824412
 31
0.0
  0
LINE
  5
54D
  8
0
  6
CONTINUOUS
 62
     4
 10
49.10456223863764
 20
-12.51508701359558
 30
0.0
 11
51.99131457865678
 21
-7.515086917775875
 31
0.0
  0
LINE
  5
54E
  8
0
  6
CONTINUOUS
 62
     4
 10
49.6819157322638
 20
-13.5150888845547
 30
0.0
 11
53.14601811113323
 21
-7.515089512886561
 31
0.0
  0
LINE
  5
54F
  8
0
  6
CONTINUOUS
 62
     4
 10
50.95542136368255
 20
-13.30932027516673
 30
0.0
 11
53.72337136634076
 21
-8.515091796798743
 31
0.0
  0
LINE
  5
550
  8
0
  6
CONTINUOUS
 62
     4
 10
52.68746201853476
 20
-12.3093154488413
 30
0.0
 11
54.3007109302132
 21
-9.515087277220687
 31
0.0
  0
LINE
  5
551
  8
0
  6
CONTINUOUS
 62
     4
 10
54.41952458129676
 20
-11.30931845327116
 30
0.0
 11
54.87807275962338
 21
-10.51508996896833
 31
0.0
  0
LINE
  5
552
  8
0
  6
CONTINUOUS
 62
     4
 10
47.94986096456434
 20
-10.51508863494946
 30
0.0
 11
48.52721171867053
 21
-9.515088120241856
 31
0.0
  0
LINE
  5
553
  8
0
  6
CONTINUOUS
 62
     4
 10
183.7559381856542
 20
20.7085531438652
 30
0.0
 11
187.0059385730844
 21
26.3377181674305
 31
0.0
  0
LINE
  5
554
  8
0
  6
CONTINUOUS
 62
     4
 10
193.5059393479448
 20
37.59604821456108
 30
0.0
 11
196.755939735375
 21
43.22521323812637
 31
0.0
  0
LINE
  5
555
  8
0
  6
CONTINUOUS
 62
     4
 10
220.1290177062672
 20
-0.2914569889253187
 30
0.0
 11
223.3790180936973
 21
5.337708034639974
 31
0.0
  0
LINE
  5
556
  8
0
  6
CONTINUOUS
 62
     4
 10
229.8790188685577
 20
16.59603808177056
 30
0.0
 11
233.1290192559879
 21
22.22520310533585
 31
0.0
  0
LINE
  5
557
  8
0
  6
CONTINUOUS
 62
     4
 10
194.8049982742002
 20
36.84605371025739
 30
0.0
 11
198.0549986616304
 21
42.47521873382269
 31
0.0
  0
LINE
  5
558
  8
0
  6
CONTINUOUS
 62
     4
 10
196.1040022981685
 20
36.09605566514259
 30
0.0
 11
199.3540026855987
 21
41.72522068870788
 31
0.0
  0
LINE
  5
559
  8
0
  6
CONTINUOUS
 62
     4
 10
197.4030706242249
 20
35.3460469241941
 30
0.0
 11
200.6530710116551
 21
40.97521194775939
 31
0.0
  0
LINE
  5
55A
  8
0
  6
CONTINUOUS
 62
     4
 10
199.2050041217605
 20
35.46708712529292
 30
0.0
 11
201.952112908714
 21
40.22521846560179
 31
0.0
  0
LINE
  5
55B
  8
0
  6
CONTINUOUS
 62
     4
 10
185.0549971119096
 20
19.95855863956152
 30
0.0
 11
188.3049974993398
 21
25.58772366312681
 31
0.0
  0
LINE
  5
55C
  8
0
  6
CONTINUOUS
 62
     4
 10
186.354001135878
 20
19.20856059444671
 30
0.0
 11
189.6040015233081
 21
24.837725618012
 31
0.0
  0
LINE
  5
55D
  8
0
  6
CONTINUOUS
 62
     4
 10
187.6530694619343
 20
18.45855185349822
 30
0.0
 11
190.9030698493645
 21
24.08771687706351
 31
0.0
  0
LINE
  5
55E
  8
0
  6
CONTINUOUS
 62
     4
 10
188.9521113589933
 20
17.70855837134062
 30
0.0
 11
191.8399519742468
 21
22.71044435507432
 31
0.0
  0
LINE
  5
55F
  8
0
  6
CONTINUOUS
 62
     4
 10
218.8299570096062
 20
0.4585649665218909
 30
0.0
 11
222.0799573970364
 21
6.087729990087183
 31
0.0
  0
LINE
  5
560
  8
0
  6
CONTINUOUS
 62
     4
 10
217.5309491709402
 20
1.208556404387338
 30
0.0
 11
220.7809495583703
 21
6.83772142795263
 31
0.0
  0
LINE
  5
561
  8
0
  6
CONTINUOUS
 62
     4
 10
216.2319149032767
 20
1.958563101043666
 30
0.0
 11
219.4819152907068
 21
7.587728124608958
 31
0.0
  0
LINE
  5
562
  8
0
  6
CONTINUOUS
 62
     4
 10
214.9328730062177
 20
2.708556583201272
 30
0.0
 11
217.998036030305
 21
8.017573946230215
 31
0.0
  0
LINE
  5
563
  8
0
  6
CONTINUOUS
 62
     4
 10
228.5799581718968
 20
17.34606003721777
 30
0.0
 11
231.829958559327
 21
22.97522506078306
 31
0.0
  0
LINE
  5
564
  8
0
  6
CONTINUOUS
 62
     4
 10
227.2809503332307
 20
18.09605147508322
 30
0.0
 11
230.5309507206609
 21
23.72521649864851
 31
0.0
  0
LINE
  5
565
  8
0
  6
CONTINUOUS
 62
     4
 10
225.9819160655672
 20
18.84605817173954
 30
0.0
 11
229.2319164529974
 21
24.47522319530484
 31
0.0
  0
LINE
  5
566
  8
0
  6
CONTINUOUS
 62
     4
 10
224.8871741196205
 20
19.94990950067316
 30
0.0
 11
227.9328745559385
 21
25.22521667746244
 31
0.0
  0
LINE
  5
567
  8
0
  6
CONTINUOUS
 62
     4
 10
141.3161991952418
 20
94.21688283623556
 30
0.0
 11
147.8161991952418
 21
94.21688283623556
 31
0.0
  0
LINE
  5
568
  8
0
  6
CONTINUOUS
 62
     4
 10
160.8161991952418
 20
94.21688283623556
 30
0.0
 11
167.3161991952418
 21
94.21688283623556
 31
0.0
  0
LINE
  5
569
  8
0
  6
CONTINUOUS
 62
     4
 10
160.8161991952418
 20
136.2168828362356
 30
0.0
 11
167.3161991952418
 21
136.2168828362356
 31
0.0
  0
LINE
  5
56A
  8
0
  6
CONTINUOUS
 62
     4
 10
141.3161991952418
 20
136.2168828362356
 30
0.0
 11
147.8161991952418
 21
136.2168828362356
 31
0.0
  0
LINE
  5
56B
  8
0
  6
CONTINUOUS
 62
     4
 10
141.3161991952418
 20
95.71688283623556
 30
0.0
 11
147.8161991952418
 21
95.71688283623556
 31
0.0
  0
LINE
  5
56C
  8
0
  6
CONTINUOUS
 62
     4
 10
141.3161991952418
 20
97.21688283623556
 30
0.0
 11
147.8161991952418
 21
97.21688283623556
 31
0.0
  0
LINE
  5
56D
  8
0
  6
CONTINUOUS
 62
     4
 10
141.3161991952418
 20
98.71688283623556
 30
0.0
 11
147.8161991952418
 21
98.71688283623556
 31
0.0
  0
LINE
  5
56E
  8
0
  6
CONTINUOUS
 62
     4
 10
141.3161991952418
 20
100.2168828362356
 30
0.0
 11
146.4014347909449
 21
100.2168828362356
 31
0.0
  0
LINE
  5
56F
  8
0
  6
CONTINUOUS
 62
     4
 10
160.8161991952418
 20
95.71688283623556
 30
0.0
 11
167.3161991952418
 21
95.71688283623556
 31
0.0
  0
LINE
  5
570
  8
0
  6
CONTINUOUS
 62
     4
 10
160.8161991952418
 20
97.21688283623556
 30
0.0
 11
167.3161991952418
 21
97.21688283623556
 31
0.0
  0
LINE
  5
571
  8
0
  6
CONTINUOUS
 62
     4
 10
160.8161991952418
 20
98.71688283623556
 30
0.0
 11
167.3161991952418
 21
98.71688283623556
 31
0.0
  0
LINE
  5
572
  8
0
  6
CONTINUOUS
 62
     4
 10
162.0465153573511
 20
100.2168828362356
 30
0.0
 11
167.3161991952418
 21
100.2168828362356
 31
0.0
  0
LINE
  5
573
  8
0
  6
CONTINUOUS
 62
     4
 10
160.8161991952418
 20
134.7168828362356
 30
0.0
 11
167.3161991952418
 21
134.7168828362356
 31
0.0
  0
LINE
  5
574
  8
0
  6
CONTINUOUS
 62
     4
 10
160.8161991952418
 20
133.2168828362356
 30
0.0
 11
167.3161991952418
 21
133.2168828362356
 31
0.0
  0
LINE
  5
575
  8
0
  6
CONTINUOUS
 62
     4
 10
160.8161991952418
 20
131.7168828362356
 30
0.0
 11
167.3161991952418
 21
131.7168828362356
 31
0.0
  0
LINE
  5
576
  8
0
  6
CONTINUOUS
 62
     4
 10
161.3562840341089
 20
130.2168828362356
 30
0.0
 11
167.3161991952418
 21
130.2168828362356
 31
0.0
  0
LINE
  5
577
  8
0
  6
CONTINUOUS
 62
     4
 10
141.3161991952418
 20
134.7168828362356
 30
0.0
 11
147.8161991952418
 21
134.7168828362356
 31
0.0
  0
LINE
  5
578
  8
0
  6
CONTINUOUS
 62
     4
 10
141.3161991952418
 20
133.2168828362356
 30
0.0
 11
147.8161991952418
 21
133.2168828362356
 31
0.0
  0
LINE
  5
579
  8
0
  6
CONTINUOUS
 62
     4
 10
141.3161991952418
 20
131.7168828362356
 30
0.0
 11
147.8161991952418
 21
131.7168828362356
 31
0.0
  0
LINE
  5
57A
  8
0
  6
CONTINUOUS
 62
     4
 10
141.3161991952418
 20
130.2168828362356
 30
0.0
 11
147.3217381356714
 21
130.2168828362356
 31
0.0
  0
ARC
  5
57B
  8
0
  6
CONTINUOUS
 62
     4
 10
154.3158635018824
 20
52.71688283623556
 30
0.0
 40
44.0
 50
109.9318195592744
 51
143.493559140587
  0
ARC
  5
57C
  8
0
  6
CONTINUOUS
 62
     4
 10
154.3158635018824
 20
52.71688283623556
 30
0.0
 40
44.0
 50
230.2095215421295
 51
264.0596180498217
  0
ARC
  5
57D
  8
0
  6
CONTINUOUS
 62
     4
 10
154.3158635018824
 20
52.71688283623556
 30
0.0
 40
44.0
 50
350.2095342729438
 51
383.4935301880734
  0
ARC
  5
57E
  8
0
  6
CONTINUOUS
 62
     4
 10
154.3158635018824
 20
52.71688283623556
 30
0.0
 40
50.0
 50
107.4572215324112
 51
139.1114463728902
  0
ARC
  5
57F
  8
0
  6
CONTINUOUS
 62
     4
 10
154.3158635018824
 20
52.71688283623556
 30
0.0
 40
56.0
 50
105.5364562245878
 51
140.1246776155049
  0
ARC
  5
580
  8
0
  6
CONTINUOUS
 62
     4
 10
154.3158635018824
 20
52.71688283623556
 30
0.0
 40
50.0
 50
227.6979790220457
 51
259.4011011867928
  0
ARC
  5
581
  8
0
  6
CONTINUOUS
 62
     4
 10
154.3158635018824
 20
52.71688283623556
 30
0.0
 40
56.0
 50
225.7492714103277
 51
260.409851825312
  0
ARC
  5
582
  8
0
  6
CONTINUOUS
 62
     4
 10
154.3158635018824
 20
52.71688283623556
 30
0.0
 40
50.0
 50
347.6979994368229
 51
379.111414005282
  0
ARC
  5
583
  8
0
  6
CONTINUOUS
 62
     4
 10
154.3158635018824
 20
52.71688283623556
 30
0.0
 40
56.0
 50
345.7492807260475
 51
380.124646955444
  0
ARC
  5
584
  8
0
  6
CONTINUOUS
 62
     4
 10
154.3158635018824
 20
52.71688283623556
 30
0.0
 40
44.0
 50
275.9403564506545
 51
309.7904632036305
  0
ARC
  5
585
  8
0
  6
CONTINUOUS
 62
     4
 10
154.3158635018824
 20
52.71688283623556
 30
0.0
 40
50.0
 50
280.5988664834942
 51
312.3019852331467
  0
ARC
  5
586
  8
0
  6
CONTINUOUS
 62
     4
 10
154.3158635018824
 20
52.71688283623556
 30
0.0
 40
56.0
 50
279.590115844975
 51
314.250706505243
  0
ARC
  5
587
  8
0
  6
CONTINUOUS
 62
     4
 10
154.3158635018824
 20
52.71688283623556
 30
0.0
 40
56.0
 50
159.875344393134
 51
194.2506619574326
  0
ARC
  5
588
  8
0
  6
CONTINUOUS
 62
     4
 10
154.3158635018824
 20
52.71688283623556
 30
0.0
 40
50.0
 50
160.8885756357487
 51
192.3019406853363
  0
ARC
  5
589
  8
0
  6
CONTINUOUS
 62
     4
 10
154.3158635018824
 20
52.71688283623556
 30
0.0
 40
44.0
 50
156.5064765284303
 51
189.7904118256309
  0
ARC
  5
58A
  8
0
  6
CONTINUOUS
 62
     4
 10
154.3158635018824
 20
52.71688283623556
 30
0.0
 40
44.0
 50
36.50644245327479
 51
70.06726337414402
  0
ARC
  5
58B
  8
0
  6
CONTINUOUS
 62
     4
 10
154.3158635018824
 20
52.71688283623556
 30
0.0
 40
50.0
 50
40.88856205116074
 51
72.54199117460139
  0
ARC
  5
58C
  8
0
  6
CONTINUOUS
 62
     4
 10
154.3158635018824
 20
52.71688283623556
 30
0.0
 40
56.0
 50
39.87532397835685
 51
52.45179569333094
  0
ARC
  5
58D
  8
0
  6
CONTINUOUS
 62
     4
 10
154.3158635018824
 20
52.71688283623556
 30
0.0
 40
56.0
 50
52.45179569333093
 51
74.46285210507324
  0
LINE
  5
58E
  8
0
  6
CONTINUOUS
 62
     4
 10
-58.94583146801716
 20
14.36375800078329
 30
0.0
 11
-58.33419174532656
 21
14.71688832031126
 31
0.0
  0
LINE
  5
58F
  8
0
  6
CONTINUOUS
 62
     4
 10
-56.95787174541505
 20
14.71689021267585
 30
0.0
 11
-54.94583203153337
 21
13.55523867058756
 31
0.0
  0
LINE
  5
590
  8
0
  6
CONTINUOUS
 62
     4
 10
-58.94583098136167
 20
14.70993835254163
 30
0.0
 11
-54.94583167555169
 21
12.40053793172095
 31
0.0
  0
LINE
  5
591
  8
0
  6
CONTINUOUS
 62
     4
 10
-58.94583392900489
 20
13.55523952102354
 30
0.0
 11
-55.76172095581381
 21
11.71689124192577
 31
0.0
  0
LINE
  5
592
  8
0
  6
CONTINUOUS
 62
     4
 10
-58.94583357302321
 20
12.40053878215693
 30
0.0
 11
-57.76171860092467
 21
11.71688975979524
 31
0.0
  0
LINE
  5
593
  8
0
  6
CONTINUOUS
 62
     4
 10
-56.41034214962889
 20
28.71689178199554
 30
0.0
 11
-54.94583201347592
 21
27.87135655407306
 31
0.0
  0
LINE
  5
594
  8
0
  6
CONTINUOUS
 62
     4
 10
-57.9458336145704
 20
28.44870756133335
 30
0.0
 11
-54.94583165749424
 21
26.71665581520645
 31
0.0
  0
LINE
  5
595
  8
0
  6
CONTINUOUS
 62
     4
 10
-57.94583325858872
 20
27.29400682246674
 30
0.0
 11
-56.51322292454603
 21
26.46688895184494
 31
0.0
  0
LINE
  5
596
  8
0
  6
CONTINUOUS
 62
     4
 10
-58.94583182399884
 20
13.20905726191668
 30
0.0
 11
-56.3341907965908
 21
14.71688874552925
 31
0.0
  0
LINE
  5
597
  8
0
  6
CONTINUOUS
 62
     4
 10
-58.94583217998053
 20
12.05435652305008
 30
0.0
 11
-54.94583287417055
 21
14.36375694387075
 31
0.0
  0
LINE
  5
598
  8
0
  6
CONTINUOUS
 62
     4
 10
-57.53034536665405
 20
11.71688869333687
 30
0.0
 11
-54.94583370698933
 21
13.20905703091037
 31
0.0
  0
LINE
  5
599
  8
0
  6
CONTINUOUS
 62
     4
 10
-55.53034111429338
 20
11.71689102590338
 30
0.0
 11
-54.94583406297102
 21
12.05435629204376
 31
0.0
  0
LINE
  5
59A
  8
0
  6
CONTINUOUS
 62
     4
 10
-57.94583304160761
 20
27.49202471987101
 30
0.0
 11
-55.82430293921726
 21
28.71689056025443
 31
0.0
  0
LINE
  5
59B
  8
0
  6
CONTINUOUS
 62
     4
 10
-57.72141815759852
 20
26.46689016590861
 30
0.0
 11
-54.94583309232559
 21
28.06937477345704
 31
0.0
  0
LINE
  5
59C
  8
0
  6
CONTINUOUS
 62
     4
 10
-55.72141720886276
 20
26.4668905911266
 30
0.0
 11
-54.94583344830727
 21
26.91467403459043
 31
0.0
  0
LINE
  5
59D
  8
0
  6
CONTINUOUS
 62
     3
 10
-66.94583393644047
 20
130.0668813103567
 30
0.0
 11
-46.94583393644047
 21
130.0668813103567
 31
0.0
  0
LINE
  5
59E
  8
0
  6
CONTINUOUS
 62
     3
 10
-66.94583393644047
 20
123.3668843621145
 30
0.0
 11
-46.94583393644047
 21
123.3668843621145
 31
0.0
  0
LINE
  5
59F
  8
0
  6
CONTINUOUS
 62
     3
 10
-66.94583393644047
 20
98.36688436211446
 30
0.0
 11
-46.94583393644047
 21
98.36688436211446
 31
0.0
  0
LINE
  5
5A0
  8
0
  6
CONTINUOUS
 62
     3
 10
-66.94583393644047
 20
105.0668813103567
 30
0.0
 11
-46.94583393644047
 21
105.0668813103567
 31
0.0
  0
LINE
  5
5A1
  8
0
  6
CONTINUOUS
 62
     3
 10
-54.94583393644047
 20
137.7168828362356
 30
0.0
 11
-54.94583393644047
 21
134.7168828362356
 31
0.0
  0
LINE
  5
5A2
  8
0
  6
CONTINUOUS
 62
     3
 10
-54.94583393644047
 20
93.71688283623556
 30
0.0
 11
-54.94583393644047
 21
92.71688283623556
 31
0.0
  0
LINE
  5
5A3
  8
0
  6
CONTINUOUS
 62
     3
 10
44.79515415553871
 20
-7.050985169668792
 30
0.0
 11
27.90765908484283
 21
-16.80098633195937
 31
0.0
  0
LINE
  5
5A4
  8
0
  6
CONTINUOUS
 62
     3
 10
47.79515781679126
 20
-12.24713559176482
 30
0.0
 11
30.90766026837687
 21
-21.99713818456704
 31
0.0
  0
LINE
  5
5A5
  8
0
  6
CONTINUOUS
 62
     3
 10
-75.94583393644047
 20
127.8301335686574
 30
0.0
 11
-75.94583393644047
 21
119.8301335686574
 31
0.0
  0
LINE
  5
5A6
  8
0
  6
CONTINUOUS
 62
     3
 10
-81.94583393644047
 20
119.8301335686574
 30
0.0
 11
-75.94583393644047
 21
119.8301335686574
 31
0.0
  0
LINE
  5
5A7
  8
0
  6
CONTINUOUS
 62
     3
 10
-81.94583393644047
 20
127.8301335686574
 30
0.0
 11
-81.94583393644047
 21
119.8301335686574
 31
0.0
  0
LINE
  5
5A8
  8
0
  6
CONTINUOUS
 62
     4
 10
-132.545824781167
 20
87.90688527764181
 30
0.0
 11
-122.545824781167
 21
87.90688527764181
 31
0.0
  0
LINE
  5
5A9
  8
0
  6
CONTINUOUS
 62
     4
 10
-132.545824781167
 20
17.52688438834051
 30
0.0
 11
-130.045824781167
 21
17.52688438834051
 31
0.0
  0
LINE
  5
5AA
  8
0
  6
CONTINUOUS
 62
     4
 10
-163.545824781167
 20
35.71688474358419
 30
0.0
 11
-147.4118526131983
 21
35.71688474358419
 31
0.0
  0
LINE
  5
5AB
  8
0
  6
CONTINUOUS
 62
     4
 10
-163.545824781167
 20
69.71688283623556
 30
0.0
 11
-147.4118526131983
 21
69.71688283623556
 31
0.0
  0
LINE
  5
5AC
  8
0
  6
CONTINUOUS
 62
     4
 10
-125.045824781167
 20
17.52688438834051
 30
0.0
 11
-122.545824781167
 21
17.52688438834051
 31
0.0
  0
LINE
  5
5AD
  8
0
  6
CONTINUOUS
 62
     4
 10
82.4171160750486
 20
14.22326254234352
 30
0.0
 11
85.06313045371095
 21
9.640229286490495
 31
0.0
  0
LINE
  5
5AE
  8
0
  6
CONTINUOUS
 62
     4
 10
33.66598656897347
 20
-0.774702982825346
 30
0.0
 11
37.91598707561295
 21
-8.135918782872267
 31
0.0
  0
LINE
  5
5AF
  8
0
  6
CONTINUOUS
 62
     4
 10
32.79996308808151
 20
-1.274706346054671
 30
0.0
 11
37.04996359472099
 21
-8.635922146101592
 31
0.0
  0
LINE
  5
5B0
  8
0
  6
CONTINUOUS
 62
     4
 10
43.41598773126404
 20
-17.66219805352122
 30
0.0
 11
47.66598823790352
 21
-25.02341385356814
 31
0.0
  0
LINE
  5
5B1
  8
0
  6
CONTINUOUS
 62
     4
 10
42.54996425037209
 20
-18.16220141675055
 30
0.0
 11
46.79996475701157
 21
-25.52341721679747
 31
0.0
  0
LINE
  5
5B2
  8
0
  6
CONTINUOUS
 62
     4
 10
-76.54583241056156
 20
127.8301335686574
 30
0.0
 11
-76.54583241056156
 21
114.3301335686574
 31
0.0
  0
LINE
  5
5B3
  8
0
  6
CONTINUOUS
 62
     4
 10
-81.94583393644047
 20
121.8301335686574
 30
0.0
 11
-75.94583393644047
 21
121.8301335686574
 31
0.0
  0
LINE
  5
5B4
  8
0
  6
CONTINUOUS
 62
     4
 10
-81.34583546231937
 20
127.8301335686574
 30
0.0
 11
-81.34583546231937
 21
114.3301335686574
 31
0.0
  0
LINE
  5
5B5
  8
0
  6
CONTINUOUS
 62
     4
 10
53.6457338097924
 20
-40.75415119765339
 30
0.0
 11
50.99971451242877
 21
-36.17111196541018
 31
0.0
  0
LINE
  5
5B6
  8
0
  6
CONTINUOUS
 62
     4
 10
39.53457837240572
 20
-42.93944040944588
 30
0.0
 11
45.69483483330325
 21
-39.38281507641241
 31
0.0
  0
LINE
  5
5B7
  8
0
  6
CONTINUOUS
 62
     4
 10
43.44921415022529
 20
-46.56831321647967
 30
0.0
 11
48.24484815501589
 21
-43.79955293877688
 31
0.0
  0
LINE
  5
5B8
  8
0
  6
CONTINUOUS
 62
     4
 10
88.06621747766323
 20
17.23873506605494
 30
0.0
 11
93.01956728942488
 21
20.09855171864572
 31
0.0
  0
LINE
  5
5B9
  8
0
  6
CONTINUOUS
 62
     4
 10
90.46620977368761
 20
13.08180947632334
 30
0.0
 11
95.56912130257146
 21
16.02797559048466
 31
0.0
  0
LINE
  5
5BA
  8
0
  6
CONTINUOUS
 62
     4
 10
-171.9458110482569
 20
42.21689046563009
 30
0.0
 11
-161.9458110482569
 21
42.21689046563009
 31
0.0
  0
LINE
  5
5BB
  8
0
  6
CONTINUOUS
 62
     4
 10
-171.9458110482569
 20
63.21689046563009
 30
0.0
 11
-161.9458110482569
 21
63.21689046563009
 31
0.0
  0
LINE
  5
5BC
  8
0
  6
CONTINUOUS
 62
     4
 10
-198.759806409585
 20
56.06688893975118
 30
0.0
 11
-163.759806409585
 21
56.06688893975118
 31
0.0
  0
LINE
  5
5BD
  8
0
  6
CONTINUOUS
 62
     4
 10
-198.759806409585
 20
49.36688817681173
 30
0.0
 11
-163.759806409585
 21
49.36688817681173
 31
0.0
  0
LINE
  5
5BE
  8
0
  6
CONTINUOUS
 62
     4
 10
-67.4458301217432
 20
27.56688893975118
 30
0.0
 11
-58.9458301217432
 21
27.56688893975118
 31
0.0
  0
LINE
  5
5BF
  8
0
  6
CONTINUOUS
 62
     4
 10
-67.4458301217432
 20
31.86688817681173
 30
0.0
 11
-58.9458301217432
 21
31.86688817681173
 31
0.0
  0
LINE
  5
5C0
  8
0
  6
CONTINUOUS
 62
     4
 10
-75.18467594693851
 20
13.16689075173238
 30
0.0
 11
-59.9458301217432
 21
13.16689075173238
 31
0.0
  0
LINE
  5
5C1
  8
0
  6
CONTINUOUS
 62
     4
 10
-73.9458301217432
 20
18.26688848079542
 30
0.0
 11
-59.9458301217432
 21
18.26688848079542
 31
0.0
  0
LINE
  5
5C2
  8
0
  6
CONTINUOUS
 62
     4
 10
-71.9458301217432
 20
18.71688924101048
 30
0.0
 11
-71.9458301217432
 21
12.71688998879293
 31
0.0
  0
LINE
  5
5C3
  8
0
  6
DIVIDE
 62
     9
 10
-156.1458308846827
 20
72.21688283623556
 30
0.0
 11
-156.1458308846827
 21
67.71688283623556
 31
0.0
  0
LINE
  5
5C4
  8
0
  6
DIVIDE
 62
     9
 10
-176.1458308846827
 20
72.21688283623556
 30
0.0
 11
-176.1458308846827
 21
67.71688283623556
 31
0.0
  0
LINE
  5
5C5
  8
0
  6
DIVIDE
 62
     9
 10
-156.1458738231822
 20
72.21692310782831
 30
0.0
 11
-155.2059276364207
 21
73.15686929458983
 31
0.0
  0
LINE
  5
5C6
  8
0
  6
DIVIDE
 62
     9
 10
-176.1458896601757
 20
72.21692850262483
 30
0.0
 11
-175.2962307879238
 21
73.06658737487672
 31
0.0
  0
TEXT
  5
5C7
  8
0
 62
     6
 10
-243.3745902953453
 20
-102.0112008940805
 30
0.0
 40
4.5
  1
仕　様
 41
0.650685132463302
  7
FDASTYLE1
 72
     5
 11
-231.1603025374718
 21
-102.0112008940805
 31
0.0
  0
TEXT
  5
5C8
  8
0
 62
     6
 10
-243.6665367064781
 20
-109.321137417518
 30
0.0
 40
4.5
  1
1.爪ﾉｽﾄﾛｰｸ　（直径）
 41
0.7361965146695213
  7
FDASTYLE1
 72
     5
 11
-181.9522463260002
 21
-109.321137417518
 31
0.0
  0
TEXT
  5
5C9
  8
0
 62
     6
 10
-243.6665367064781
 20
-116.321137417518
 30
0.0
 40
4.5
  1
2.ピストンストローク
 41
0.6970261998908258
  7
FDASTYLE1
 72
     5
 11
-195.4522470412559
 21
-116.321137417518
 31
0.0
  0
TEXT
  5
5CA
  8
0
 62
     6
 10
-243.6665367064781
 20
-123.321137417518
 30
0.0
 40
4.5
  1
３．把握径ノ最大振レ
 41
0.6666668448313454
  7
FDASTYLE1
 72
     5
 11
-199.9522472796745
 21
-123.321137417518
 31
0.0
  0
TEXT
  5
5CB
  8
0
 62
     6
 10
-243.6665367064781
 20
-130.321137417518
 30
0.0
 40
4.5
  1
４．推奨シリンダー
 41
0.665939043803091
  7
FDASTYLE1
 72
     5
 11
-204.4522475180931
 21
-130.321137417518
 31
0.0
  0
TEXT
  5
5CC
  8
0
 62
     6
 10
-243.6665367064781
 20
-137.321137417518
 30
0.0
 40
4.5
  1
５．許容シリンダー力
 41
0.6666668448313454
  7
FDASTYLE1
 72
     5
 11
-199.9522472796745
 21
-137.321137417518
 31
0.0
  0
TEXT
  5
5CD
  8
0
 62
     6
 10
-243.6665367064781
 20
-144.321137417518
 30
0.0
 40
4.5
  1
６．最大静的把握力
 41
0.665939043803091
  7
FDASTYLE1
 72
     5
 11
-204.4522475180931
 21
-144.321137417518
 31
0.0
  0
TEXT
  5
5CE
  8
0
 62
     6
 10
-243.6665367064781
 20
-151.321137417518
 30
0.0
 40
4.5
  1
７．最高使用回転速度
 41
0.6666668448313454
  7
FDASTYLE1
 72
     5
 11
-199.9522472796745
 21
-151.321137417518
 31
0.0
  0
TEXT
  5
5CF
  8
0
 62
     6
 10
-243.6665367064781
 20
-158.321137417518
 30
0.0
 40
4.5
  1
８．慣性モーメント
 41
0.665939043803091
  7
FDASTYLE1
 72
     5
 11
-204.4522475180931
 21
-158.321137417518
 31
0.0
  0
TEXT
  5
5D0
  8
0
 62
     6
 10
-243.6665367064781
 20
-165.321137417518
 30
0.0
 40
4.5
  1
９．質　量
 41
0.6600001875135944
  7
FDASTYLE1
 72
     5
 11
-222.4522484717674
 21
-165.321137417518
 31
0.0
  0
TEXT
  5
5D1
  8
0
 62
     6
 10
-111.8080924926109
 20
-109.2289590727914
 30
0.0
 40
4.5
  1
16  ｍｍ
 41
0.757575957443828
  7
FDASTYLE1
 72
     5
 11
-86.09380401948165
 21
-109.2289590727914
 31
0.0
  0
TEXT
  5
5D2
  8
0
 62
     6
 10
-111.8080924926109
 20
-116.4622812163461
 30
0.0
 40
4.5
  1
20  mm
 41
0.7692310045927466
  7
FDASTYLE1
 72
     5
 11
-86.09380401948165
 21
-116.4622812163461
 31
0.0
  0
TEXT
  5
5D3
  8
0
 62
     6
 10
-107.3081077514
 20
-123.4622964751352
 30
0.0
 40
4.5
  1
4  mm
 41
0.7674420991559576
  7
FDASTYLE1
 72
     5
 11
-86.09381951668929
 21
-123.4622964751352
 31
0.0
  0
TEXT
  5
5D4
  8
0
 62
     6
 10
-124.8837952431692
 20
-130.4622964751352
 30
0.0
 40
4.5
  1
36TS-TA1型
 41
0.7780614369653334
  7
FDASTYLE1
 72
     5
 11
-85.66950605478422
 21
-130.4622964751352
 31
0.0
  0
TEXT
  5
5D5
  8
0
 62
     6
 10
-120.8163474974937
 20
-137.5112008940805
 30
0.0
 40
4.5
  1
14.9  kN
 41
0.7714288027324852
  7
FDASTYLE1
 72
     5
 11
-86.10205854752731
 21
-137.5112008940805
 31
0.0
  0
TEXT
  5
5D6
  8
0
 62
     6
 10
-120.8163474974937
 20
-144.5112008940805
 30
0.0
 40
4.5
  1
25.5  kN
 41
0.7714288027324852
  7
FDASTYLE1
 72
     5
 11
-86.10205854752731
 21
-144.5112008940805
 31
0.0
  0
TEXT
  5
5D7
  8
0
 62
     6
 10
-120.2414344725914
 20
-151.4622964751352
 30
0.0
 40
4.5
  1
4000 min
 41
0.7714288027324852
  7
FDASTYLE1
 72
     5
 11
-85.52714552262496
 21
-151.4622964751352
 31
0.0
  0
TEXT
  5
5D8
  8
0
 62
     6
 10
-85.65553273694866
 20
-148.9088670256994
 30
0.0
 40
2.25
  1
-1
 41
0.7500002723601481
  7
FDASTYLE1
 72
     5
 11
-81.79838897722118
 21
-148.9088670256994
 31
0.0
  0
TEXT
  5
5D9
  8
0
 62
     6
 10
-129.6734641967125
 20
-158.6576394927133
 30
0.0
 40
4.5
  1
0.063 kg・m
 41
0.7780322498418416
  7
FDASTYLE1
 72
     5
 11
-85.95917476990888
 21
-158.6576394927133
 31
0.0
  0
TEXT
  5
5DA
  8
0
 62
     6
 10
-86.03927747370643
 20
-155.797122802844
 30
0.0
 40
2.25
  1
2
 41
0.7142860624525282
  7
FDASTYLE1
 72
     5
 11
-84.43213383318825
 21
-155.797122802844
 31
0.0
  0
TEXT
  5
5DB
  8
0
 62
     6
 10
-111.3414329467125
 20
-165.4622964751352
 30
0.0
 40
4.5
  1
15  kg
 41
0.7692310045927466
  7
FDASTYLE1
 72
     5
 11
-85.62714447358322
 21
-165.4622964751352
 31
0.0
  0
TEXT
  5
5DC
  8
0
 62
     6
 10
-195.9664020190907
 20
-137.0269693028558
 30
0.0
 40
2.799999952316284
  1
(36TS-TA1 使用圧力 MAX 2.6MPa)
 41
0.7640069980495372
  7
FDASTYLE1
 72
     5
 11
-123.9664007673931
 21
-137.0269693028558
 31
0.0
  0
TEXT
  5
5DD
  8
0
 62
     6
 10
-51.06665469983291
 20
-137.5453195464242
 30
0.0
 40
4.0
  1
COP型ﾁｬｯｸ使用上の注意
 41
0.7283764907546588
  7
FDASTYLE1
 72
     5
 11
3.790489417522437
 21
-137.5453195464242
 31
0.0
  0
TEXT
  5
5DE
  8
0
 62
     6
 10
-46.40749867537689
 20
-142.171631742679
 30
0.0
 40
2.0
  1
☆
 41
0.5952383577823639
  7
FDASTYLE1
 72
     5
 11
-44.97892661669921
 21
-142.171631742679
 31
0.0
  0
TEXT
  5
5DF
  8
0
 62
     6
 10
-45.12178470471572
 20
-144.6716318022836
 30
0.0
 40
4.0
  1
COP型ﾁｬｯｸは両側ｾﾝﾀｰで御使用下さい。
 41
0.7233850578133115
  7
FDASTYLE1
 72
     5
 11
45.73535941263963
 21
-144.6716318022836
 31
0.0
  0
TEXT
  5
5E0
  8
0
 62
     6
 10
-46.40749867537689
 20
-149.171631742679
 30
0.0
 40
2.0
  1
☆
 41
0.5952383577823639
  7
FDASTYLE1
 72
     5
 11
-44.97892661669921
 21
-149.171631742679
 31
0.0
  0
TEXT
  5
5E1
  8
0
 62
     6
 10
-45.12178470471572
 20
-151.6716318022836
 30
0.0
 40
4.0
  1
COP型ﾁｬｯｸに使用するシリンダーのｽﾄﾛｰｸは、
 41
0.7211540079137738
  7
FDASTYLE1
 72
     5
 11
57.73535941263963
 21
-151.6716318022836
 31
0.0
  0
TEXT
  5
5E2
  8
0
 62
     6
 10
-47.12178470471572
 20
-158.6716318022836
 30
0.0
 40
4.0
  1
  ﾁｬｯｸピストンストロークに合った物以外、使用してはいけません。
 41
0.6916765856339457
  7
FDASTYLE1
 72
     5
 11
87.73535941263963
 21
-158.6716318022836
 31
0.0
  0
TEXT
  5
5E3
  8
0
 62
     6
 10
-46.40749867537689
 20
-163.171631742679
 30
0.0
 40
2.0
  1
☆　
 41
0.638298064524279
  7
FDASTYLE1
 72
     5
 11
-42.97892661669921
 21
-163.171631742679
 31
0.0
  0
TEXT
  5
5E4
  8
0
 62
     6
 10
-43.12178470471572
 20
-165.6716318022836
 30
0.0
 40
4.0
  1
御要望により、フローティング量を調整する事もできます。
 41
0.6707318531740094
  7
FDASTYLE1
 72
     5
 11
63.73535941263963
 21
-165.6716318022836
 31
0.0
  0
TEXT
  5
5E5
  8
0
 62
     6
 10
136.5575479773536
 20
-124.4582812006281
 30
0.0
 40
5.0
  1
標準センター　バネ荷重表
 41
0.6666666666666666
  7
FDASTYLE1
 72
     5
 11
184.5575479773536
 21
-124.4582812006281
 31
0.0
  0
TEXT
  5
5E6
  8
0
 62
     6
 10
147.2826578406348
 20
-83.14042536566713
 30
0.0
 40
3.0
  1
450N(取付時)
 41
0.7499999999999999
  7
FDASTYLE1
 72
     5
 11
168.8826578406348
 21
-83.14042536566713
 31
0.0
  0
TEXT
  5
5E7
  8
0
 62
     6
 10
170.4385294226661
 20
-99.5145434076593
 30
0.0
 40
3.0
  1
7mm
 50
90.0
 41
0.7999999999999987
  7
FDASTYLE1
 72
     5
 11
170.4385294226661
 21
-92.31454340765932
 31
0.0
  0
LINE
  5
5E8
  8
LAYER0014
  6
CONTINUOUS
 62
     7
 10
-53.94583393644047
 20
152.9332829827199
 30
0.0
 11
-60.60793568204593
 21
152.9332829827199
 31
0.0
  0
LINE
  5
5E9
  8
LAYER0014
  6
CONTINUOUS
 62
     7
 10
-52.94583393644047
 20
152.9332829827199
 30
0.0
 11
-53.94583393644047
 21
152.9332829827199
 31
0.0
  0
LINE
  5
5EA
  8
LAYER0014
  6
CONTINUOUS
 62
     7
 10
-52.94583393644047
 20
138.7568828362356
 30
0.0
 11
-52.94583393644047
 21
155.2192784661184
 31
0.0
  0
LINE
  5
5EB
  8
LAYER0014
  6
CONTINUOUS
 62
     7
 10
-53.94583393644047
 20
140.2568828362356
 30
0.0
 11
-53.94583393644047
 21
155.2192784661184
 31
0.0
  0
LINE
  5
5EC
  8
LAYER0014
  6
CONTINUOUS
 62
     7
 10
-156.1458308846827
 20
150.8699437493215
 30
0.0
 11
-198.5131785137818
 21
150.8699437493215
 31
0.0
  0
LINE
  5
5ED
  8
LAYER0014
  6
CONTINUOUS
 62
     7
 10
-147.9458186776514
 20
150.8699437493215
 30
0.0
 11
-156.1458308846827
 21
150.8699437493215
 31
0.0
  0
LINE
  5
5EE
  8
LAYER0014
  6
CONTINUOUS
 62
     7
 10
-23.03394390653324
 20
101.7168828362356
 30
0.0
 11
-23.03394390653324
 21
118.2951527947317
 31
0.0
  0
LINE
  5
5EF
  8
LAYER0014
  6
CONTINUOUS
 62
     7
 10
-23.03394390653324
 20
101.7168828362356
 30
0.0
 11
-23.03394390653324
 21
92.71688283623556
 31
0.0
  0
LINE
  5
5F0
  8
LAYER0014
  6
CONTINUOUS
 62
     7
 10
27.64551812822313
 20
11.65305789800144
 30
0.0
 11
32.70142515885917
 21
14.57207948490228
 31
0.0
  0
LINE
  5
5F1
  8
LAYER0014
  6
CONTINUOUS
 62
     7
 10
27.64552015842813
 20
11.65306201991038
 30
0.0
 11
26.7794943529548
 21
11.15306270536379
 31
0.0
  0
LINE
  5
5F2
  8
LAYER0014
  6
CONTINUOUS
 62
     7
 10
32.39598232203751
 20
1.425002330735929
 30
0.0
 11
25.63650045882434
 21
13.13279203283818
 31
0.0
  0
LINE
  5
5F3
  8
LAYER0014
  6
CONTINUOUS
 62
     7
 10
-11.61296249936771
 20
101.7168828362356
 30
0.0
 11
-11.61296249936771
 21
93.71688283623556
 31
0.0
  0
LINE
  5
5F4
  8
LAYER0014
  6
CONTINUOUS
 62
     7
 10
-34.40583393644045
 20
101.7168828362356
 30
0.0
 11
-10.61296249936771
 21
101.7168828362356
 31
0.0
  0
LINE
  5
5F5
  8
LAYER0014
  6
CONTINUOUS
 62
     7
 10
-49.90583393644045
 20
93.71688283623556
 30
0.0
 11
-10.61296249936771
 21
93.71688283623556
 31
0.0
  0
LINE
  5
5F6
  8
LAYER0014
  6
CONTINUOUS
 62
     7
 10
-43.75931049894047
 20
55.25688665093282
 30
0.0
 11
-43.75931049894047
 21
86.11075795830587
 31
0.0
  0
LINE
  5
5F7
  8
LAYER0014
  6
CONTINUOUS
 62
     7
 10
-33.94583202909183
 20
62.26646245659688
 30
0.0
 11
-33.94583202909183
 21
52.81348241509298
 31
0.0
  0
LINE
  5
5F8
  8
LAYER0014
  6
CONTINUOUS
 62
     7
 10
-52.9458301217432
 20
83.82476247490743
 30
0.0
 11
-43.75931049894047
 21
83.82476247490743
 31
0.0
  0
LINE
  5
5F9
  8
LAYER0014
  6
CONTINUOUS
 62
     7
 10
-52.94583393644047
 20
152.9332829827199
 30
0.0
 11
-46.59583393644044
 21
152.9332829827199
 31
0.0
  0
INSERT
  5
5FA
  8
LAYER0014
 62
     7
  2
_OPEN30
 10
-52.94583393644047
 20
152.9332829827199
 30
0.0
 41
1.50000139391263
 42
1.499998500689492
 50
180.0
  0
LINE
  5
5FB
  8
LAYER0014
  6
CONTINUOUS
 62
     7
 10
-147.9458186776514
 20
150.8699437493215
 30
0.0
 11
-141.5958186776514
 21
150.8699437493215
 31
0.0
  0
INSERT
  5
5FC
  8
LAYER0014
 62
     7
  2
_OPEN30
 10
-147.9458186776514
 20
150.8699437493215
 30
0.0
 41
1.50000139391263
 42
1.499998500689492
 50
180.0
  0
LINE
  5
5FD
  8
LAYER0014
  6
CONTINUOUS
 62
     7
 10
-23.03394390653324
 20
101.7168828362356
 30
0.0
 11
-23.03394390653324
 21
108.0668828362356
 31
0.0
  0
INSERT
  5
5FE
  8
LAYER0014
 62
     7
  2
_OPEN30
 10
-23.03394390653324
 20
101.7168828362356
 30
0.0
 41
1.50000139391263
 42
1.499998500689492
 50
270.0
  0
LINE
  5
5FF
  8
LAYER0014
  6
CONTINUOUS
 62
     7
 10
27.64552015842813
 20
11.65306201991038
 30
0.0
 11
33.1447839948824
 21
14.82805765094143
 31
0.0
  0
INSERT
  5
600
  8
LAYER0014
 62
     7
  2
_OPEN30
 10
27.64552015842813
 20
11.65306201991038
 30
0.0
 41
1.50000139391263
 42
1.499998500689492
 50
209.9999544805365
  0
LINE
  5
601
  8
LAYER0014
  6
CONTINUOUS
 62
     7
 10
-11.61296249936771
 20
101.7168828362356
 30
0.0
 11
-11.61296249936771
 21
108.0668828362356
 31
0.0
  0
INSERT
  5
602
  8
LAYER0014
 62
     7
  2
_OPEN30
 10
-11.61296249936771
 20
101.7168828362356
 30
0.0
 41
1.50000139391263
 42
1.499998500689492
 50
270.0
  0
LINE
  5
603
  8
LAYER0014
  6
CONTINUOUS
 62
     7
 10
-33.94583202909183
 20
62.26646245659688
 30
0.0
 11
-33.94583202909183
 21
68.61646245659688
 31
0.0
  0
INSERT
  5
604
  8
LAYER0014
 62
     7
  2
_OPEN30
 10
-33.94583202909183
 20
62.26646245659688
 30
0.0
 41
1.50000139391263
 42
1.499998500689492
 50
270.0
  0
LINE
  5
605
  8
LAYER0014
  6
CONTINUOUS
 62
     7
 10
-52.9458301217432
 20
83.82476247490743
 30
0.0
 11
-59.29583012174317
 21
83.82476247490743
 31
0.0
  0
INSERT
  5
606
  8
LAYER0014
 62
     7
  2
_OPEN30
 10
-52.9458301217432
 20
83.82476247490743
 30
0.0
 41
1.50000139391263
 42
1.499998500689492
 50
360.0
  0
LINE
  5
607
  8
LAYER0014
  6
CONTINUOUS
 62
     7
 10
-60.29583393644043
 20
152.9332829827199
 30
0.0
 11
-53.94583393644047
 21
152.9332829827199
 31
0.0
  0
INSERT
  5
608
  8
LAYER0014
 62
     7
  2
_OPEN30
 10
-53.94583393644047
 20
152.9332829827199
 30
0.0
 41
1.50000139391263
 42
1.499998500689492
 50
360.0
  0
LINE
  5
609
  8
LAYER0014
  6
CONTINUOUS
 62
     7
 10
-162.4958308846826
 20
150.8699437493215
 30
0.0
 11
-156.1458308846827
 21
150.8699437493215
 31
0.0
  0
INSERT
  5
60A
  8
LAYER0014
 62
     7
  2
_OPEN30
 10
-156.1458308846827
 20
150.8699437493215
 30
0.0
 41
1.50000139391263
 42
1.499998500689492
 50
360.0
  0
LINE
  5
60B
  8
LAYER0014
  6
CONTINUOUS
 62
     7
 10
-23.03394390653324
 20
86.36688283623556
 30
0.0
 11
-23.03394390653324
 21
92.71688283623556
 31
0.0
  0
INSERT
  5
60C
  8
LAYER0014
 62
     7
  2
_OPEN30
 10
-23.03394390653324
 20
92.71688283623556
 30
0.0
 41
1.50000139391263
 42
1.499998500689492
 50
90.0
  0
LINE
  5
60D
  8
LAYER0014
  6
CONTINUOUS
 62
     7
 10
21.28023051650053
 20
7.978067074332746
 30
0.0
 11
26.7794943529548
 21
11.15306270536379
 31
0.0
  0
INSERT
  5
60E
  8
LAYER0014
 62
     7
  2
_OPEN30
 10
26.7794943529548
 20
11.15306270536379
 30
0.0
 41
1.50000139391263
 42
1.499998500689492
 50
29.99995448053655
  0
LINE
  5
60F
  8
LAYER0014
  6
CONTINUOUS
 62
     7
 10
-11.61296249936771
 20
87.36688283623556
 30
0.0
 11
-11.61296249936771
 21
93.71688283623556
 31
0.0
  0
INSERT
  5
610
  8
LAYER0014
 62
     7
  2
_OPEN30
 10
-11.61296249936771
 20
93.71688283623556
 30
0.0
 41
1.50000139391263
 42
1.499998500689492
 50
90.0
  0
LINE
  5
611
  8
LAYER0014
  6
CONTINUOUS
 62
     7
 10
-33.94583202909183
 20
46.46348241509298
 30
0.0
 11
-33.94583202909183
 21
52.81348241509298
 31
0.0
  0
INSERT
  5
612
  8
LAYER0014
 62
     7
  2
_OPEN30
 10
-33.94583202909183
 20
52.81348241509298
 30
0.0
 41
1.50000139391263
 42
1.499998500689492
 50
90.0
  0
LINE
  5
613
  8
LAYER0014
  6
CONTINUOUS
 62
     7
 10
-37.40931049894044
 20
83.82476247490743
 30
0.0
 11
-43.75931049894047
 21
83.82476247490743
 31
0.0
  0
INSERT
  5
614
  8
LAYER0014
 62
     7
  2
_OPEN30
 10
-43.75931049894047
 20
83.82476247490743
 30
0.0
 41
1.50000139391263
 42
1.499998500689492
 50
180.0
  0
TEXT
  5
615
  8
LAYER0014
 62
     7
 10
-60.60793673108768
 20
154.5332829827199
 30
0.0
 40
4.0
  1
1
 41
0.8000000000000007
  7
FDASTYLE1
 72
     5
 11
-57.40793673108768
 21
154.5332829827199
 31
0.0
  0
TEXT
  5
616
  8
LAYER0014
 62
     7
 10
-196.8565127640258
 20
151.9308273985965
 30
0.0
 40
4.0
  1
MIN8.2
 41
0.7999999999999995
  7
FDASTYLE1
 72
     5
 11
-177.6565127640258
 21
151.9308273985965
 31
0.0
  0
TEXT
  5
617
  8
LAYER0014
 62
     7
 10
-24.07951301377995
 20
103.2930285119676
 30
0.0
 40
4.0
  1
MIN8
 50
90.0
 41
0.7999999999999989
  7
FDASTYLE1
 72
     5
 11
-24.07951301377995
 21
116.0930285119676
 31
0.0
  0
TEXT
  5
618
  8
LAYER0014
 62
     7
 10
30.31965744897127
 20
15.04586584797285
 30
0.0
 40
3.200000047683716
  1
1
 50
29.9
 41
0.7142860335963062
  7
FDASTYLE1
 72
     5
 11
32.30113664756879
 21
16.18526692231173
 31
0.0
  0
TEXT
  5
619
  8
LAYER0014
 62
     7
 10
-13.21296249936768
 20
96.57388282359938
 30
0.0
 40
4.0
  1
8
 50
90.0
 41
0.7999999999999972
  7
FDASTYLE1
 72
     5
 11
-13.21296249936768
 21
99.77388282359937
 31
0.0
  0
TEXT
  5
61A
  8
LAYER0014
 62
     7
 10
-35.55620183017876
 20
53.24702635112731
 30
0.0
 40
4.0
  1
φ9.5
 50
89.90000000000001
 41
0.7619047619047613
  7
FDASTYLE1
 72
     5
 11
-35.53386162709526
 21
66.04700685561738
 31
0.0
  0
TEXT
  5
61B
  8
LAYER0014
 62
     7
 10
-51.09262934693987
 20
85.42954722522352
 30
0.0
 40
4.0
  1
約9
 50
-0.1000000000000078
 41
0.7272727272727286
  7
FDASTYLE1
 72
     5
 11
-44.69263909469482
 21
85.41837712368177
 31
0.0
  0
INSERT
  5
61C
  8
0
  6
CONTINUOUS
  2
DC_GROUP_1
 10
0.0
 20
0.0
 30
0.0
  0
INSERT
  5
61D
  8
0
  6
CONTINUOUS
  2
DC_GROUP_5
 10
0.0
 20
0.0
 30
0.0
  0
INSERT
  5
61E
  8
0
  6
CONTINUOUS
  2
DA_IMAGEDIMGROUP_19
 10
0.0
 20
0.0
 30
0.0
  0
INSERT
  5
61F
  8
0
  6
CONTINUOUS
  2
DA_IMAGEDIMGROUP_20
 10
0.0
 20
0.0
 30
0.0
  0
INSERT
  5
620
  8
0
  6
CONTINUOUS
  2
DA_IMAGEDIMGROUP_21
 10
0.0
 20
0.0
 30
0.0
  0
INSERT
  5
621
  8
0
  6
CONTINUOUS
  2
DA_IMAGEDIMGROUP_22
 10
0.0
 20
0.0
 30
0.0
  0
INSERT
  5
622
  8
0
  6
CONTINUOUS
  2
DA_IMAGEDIMGROUP_23
 10
0.0
 20
0.0
 30
0.0
  0
INSERT
  5
623
  8
0
  6
CONTINUOUS
  2
DA_IMAGEDIMGROUP_27
 10
0.0
 20
0.0
 30
0.0
  0
INSERT
  5
624
  8
0
  6
CONTINUOUS
  2
DA_IMAGEDIMGROUP_28
 10
0.0
 20
0.0
 30
0.0
  0
INSERT
  5
625
  8
0
  6
CONTINUOUS
  2
DA_IMAGEDIMGROUP_29
 10
0.0
 20
0.0
 30
0.0
  0
INSERT
  5
626
  8
0
  6
CONTINUOUS
  2
DA_IMAGEDIMGROUP_30
 10
0.0
 20
0.0
 30
0.0
  0
INSERT
  5
627
  8
0
  6
CONTINUOUS
  2
DA_IMAGEDIMGROUP_31
 10
0.0
 20
0.0
 30
0.0
  0
INSERT
  5
628
  8
0
  6
CONTINUOUS
  2
DA_IMAGEDIMGROUP_32
 10
0.0
 20
0.0
 30
0.0
  0
INSERT
  5
629
  8
0
  6
CONTINUOUS
  2
DA_IMAGEDIMGROUP_33
 10
0.0
 20
0.0
 30
0.0
  0
INSERT
  5
62A
  8
0
  6
CONTINUOUS
  2
DA_IMAGEDIMGROUP_34
 10
0.0
 20
0.0
 30
0.0
  0
INSERT
  5
62B
  8
0
  6
CONTINUOUS
  2
DC_GROUP_6
 10
0.0
 20
0.0
 30
0.0
  0
INSERT
  5
62C
  8
0
  6
CONTINUOUS
  2
DC_GROUP_7
 10
0.0
 20
0.0
 30
0.0
  0
INSERT
  5
62D
  8
LAYER0014
  6
CONTINUOUS
  2
DA_IMAGEDIMGROUP_1
 10
0.0
 20
0.0
 30
0.0
  0
INSERT
  5
62E
  8
LAYER0014
  6
CONTINUOUS
  2
DA_IMAGEDIMGROUP_2
 10
0.0
 20
0.0
 30
0.0
  0
INSERT
  5
62F
  8
LAYER0014
  6
CONTINUOUS
  2
DA_IMAGEDIMGROUP_3
 10
0.0
 20
0.0
 30
0.0
  0
INSERT
  5
630
  8
LAYER0014
  6
CONTINUOUS
  2
DA_IMAGEDIMGROUP_4
 10
0.0
 20
0.0
 30
0.0
  0
INSERT
  5
631
  8
LAYER0014
  6
CONTINUOUS
  2
DA_IMAGEDIMGROUP_5
 10
0.0
 20
0.0
 30
0.0
  0
INSERT
  5
632
  8
LAYER0014
  6
CONTINUOUS
  2
DA_IMAGEDIMGROUP_6
 10
0.0
 20
0.0
 30
0.0
  0
INSERT
  5
633
  8
LAYER0014
  6
CONTINUOUS
  2
DA_IMAGEDIMGROUP_7
 10
0.0
 20
0.0
 30
0.0
  0
INSERT
  5
634
  8
LAYER0014
  6
CONTINUOUS
  2
DA_IMAGEDIMGROUP_8
 10
0.0
 20
0.0
 30
0.0
  0
INSERT
  5
635
  8
LAYER0014
  6
CONTINUOUS
  2
DA_IMAGEDIMGROUP_9
 10
0.0
 20
0.0
 30
0.0
  0
INSERT
  5
636
  8
LAYER0014
  6
CONTINUOUS
  2
DA_IMAGEDIMGROUP_10
 10
0.0
 20
0.0
 30
0.0
  0
INSERT
  5
637
  8
LAYER0014
  6
CONTINUOUS
  2
DA_IMAGEDIMGROUP_11
 10
0.0
 20
0.0
 30
0.0
  0
INSERT
  5
638
  8
LAYER0014
  6
CONTINUOUS
  2
DA_IMAGEDIMGROUP_12
 10
0.0
 20
0.0
 30
0.0
  0
INSERT
  5
639
  8
LAYER0014
  6
CONTINUOUS
  2
DA_IMAGEDIMGROUP_13
 10
0.0
 20
0.0
 30
0.0
  0
INSERT
  5
63A
  8
LAYER0014
  6
CONTINUOUS
  2
DA_IMAGEDIMGROUP_14
 10
0.0
 20
0.0
 30
0.0
  0
INSERT
  5
63B
  8
LAYER0014
  6
CONTINUOUS
  2
DC_GROUP_2
 10
0.0
 20
0.0
 30
0.0
  0
INSERT
  5
63C
  8
LAYER0014
  6
CONTINUOUS
  2
DA_IMAGEDIMGROUP_15
 10
0.0
 20
0.0
 30
0.0
  0
INSERT
  5
63D
  8
LAYER0014
  6
CONTINUOUS
  2
DA_IMAGEDIMGROUP_16
 10
0.0
 20
0.0
 30
0.0
  0
INSERT
  5
63E
  8
LAYER0014
  6
CONTINUOUS
  2
DA_IMAGEDIMGROUP_17
 10
0.0
 20
0.0
 30
0.0
  0
INSERT
  5
63F
  8
LAYER0014
  6
CONTINUOUS
  2
DC_GROUP_3
 10
0.0
 20
0.0
 30
0.0
  0
INSERT
  5
640
  8
LAYER0014
  6
CONTINUOUS
  2
DA_IMAGEDIMGROUP_18
 10
0.0
 20
0.0
 30
0.0
  0
INSERT
  5
641
  8
LAYER0014
  6
CONTINUOUS
  2
DC_GROUP_4
 10
0.0
 20
0.0
 30
0.0
  0
INSERT
  5
642
  8
LAYER0014
  6
CONTINUOUS
  2
DA_IMAGEDIMGROUP_24
 10
0.0
 20
0.0
 30
0.0
  0
INSERT
  5
643
  8
LAYER0014
  6
CONTINUOUS
  2
DA_IMAGEDIMGROUP_25
 10
0.0
 20
0.0
 30
0.0
  0
INSERT
  5
644
  8
LAYER0014
  6
CONTINUOUS
  2
DA_IMAGEDIMGROUP_26
 10
0.0
 20
0.0
 30
0.0
  0
LINE
  5
645
  8
0
  6
DASHED
 62
     7
 10
116.3158635018824
 20
128.7497807854543
 30
0.0
 11
116.3158635018824
 21
105.7168828362356
 31
0.0
  0
LINE
  5
646
  8
0
  6
DASHED
 62
     7
 10
87.86287583098394
 20
105.7168828362356
 30
0.0
 11
116.3158635018824
 21
105.7168828362356
 31
0.0
  0
LINE
  5
647
  8
0
  6
DASHED
 62
     7
 10
116.3158635018824
 20
122.7168828362356
 30
0.0
 11
130.9903782723902
 21
122.7168828362356
 31
0.0
  0
LINE
  5
648
  8
0
  6
DASHED
 62
     7
 10
116.3158635018824
 20
110.7168828362356
 30
0.0
 11
130.0274189828394
 21
110.7168828362356
 31
0.0
  0
LINE
  5
649
  8
0
  6
DASHED
 62
     7
 10
106.8158635018824
 20
119.1168843621145
 30
0.0
 11
106.8158635018824
 21
114.3168813103567
 31
0.0
  0
LINE
  5
64A
  8
0
  6
DASHED
 62
     7
 10
113.9389637826441
 20
112.7668858879934
 30
0.0
 11
115.625212561941
 21
112.7668858879934
 31
0.0
  0
LINE
  5
64B
  8
0
  6
DASHED
 62
     7
 10
113.9389637826441
 20
120.6668797844777
 30
0.0
 11
115.625212561941
 21
120.6668797844777
 31
0.0
  0
LINE
  5
64C
  8
0
  6
DASHED
 62
     7
 10
109.1158665536402
 20
120.0168858879934
 30
0.0
 11
109.1158665536402
 21
113.4168797844777
 31
0.0
  0
LINE
  5
64D
  8
0
  6
DASHED
 62
     7
 10
113.3158635018824
 20
120.1094685906301
 30
0.0
 11
113.3158635018824
 21
113.3242665642629
 31
0.0
  0
LINE
  5
64E
  8
0
  6
DASHED
 62
     7
 10
114.0797947762964
 20
118.7168828362356
 30
0.0
 11
115.5519322274683
 21
118.7168828362356
 31
0.0
  0
LINE
  5
64F
  8
0
  6
DASHED
 62
     7
 10
114.0797947762964
 20
114.7168828362356
 30
0.0
 11
115.5519322274683
 21
114.7168828362356
 31
0.0
  0
LINE
  5
650
  8
0
  6
DASHED
 62
     7
 10
109.1158739199848
 20
113.4168952994761
 30
0.0
 11
106.8158735245736
 21
114.3168952525849
 31
0.0
  0
LINE
  5
651
  8
0
  6
DASHED
 62
     7
 10
106.8158675005047
 20
119.1168961546482
 30
0.0
 11
109.1158536862781
 21
120.0168905474652
 31
0.0
  0
LINE
  5
652
  8
0
  6
DASHED
 62
     7
 10
110.1158665536402
 20
119.3299580925832
 30
0.0
 11
110.1158665536402
 21
114.0379277581106
 31
0.0
  0
ARC
  5
653
  8
0
  6
DASHED
 62
     7
 10
113.3158635018824
 20
116.7168828362356
 30
0.0
 40
3.0
 50
0.0
 51
41.81031315512688
  0
ARC
  5
654
  8
0
  6
DASHED
 62
     7
 10
116.3158635018824
 20
116.7168828362356
 30
0.0
 40
3.0
 50
138.1896986840186
 51
221.8102840131373
  0
ARC
  5
655
  8
0
  6
DASHED
 62
     7
 10
113.3158635018824
 20
116.7168828362356
 30
0.0
 40
3.0
 50
318.1896868448731
 51
360.0
  0
ARC
  5
656
  8
0
  6
DASHED
 62
     7
 10
109.1158665536402
 20
116.7168828362356
 30
0.0
 40
3.299999952316284
 50
72.3602944823007
 51
89.99998201391065
  0
ARC
  5
657
  8
0
  6
DASHED
 62
     7
 10
109.1158665536402
 20
116.7168828362356
 30
0.0
 40
3.299999952316284
 50
270.0000179860894
 51
287.6397055176993
  0
ARC
  5
658
  8
0
  6
DASHED
 62
     7
 10
111.5203846810816
 20
122.5128499382863
 30
0.0
 40
3.0
 50
242.1068914535913
 51
306.7619948916872
  0
ARC
  5
659
  8
0
  6
DASHED
 62
     7
 10
111.5203846810816
 20
110.9208852166067
 30
0.0
 40
3.0
 50
53.23800510831277
 51
117.8898300556071
  0
ARC
  5
65A
  8
0
  6
DASHED
 62
     7
 10
114.2512120126246
 20
119.7168828362356
 30
0.0
 40
1.0
 50
200.7154669700721
 51
270.0000179860894
  0
ARC
  5
65B
  8
0
  6
DASHED
 62
     7
 10
114.2512120126246
 20
119.7168828362356
 30
0.0
 40
1.0
 50
108.1948751325834
 51
159.2845330299279
  0
ARC
  5
65C
  8
0
  6
DASHED
 62
     7
 10
114.2512120126246
 20
113.7168828362356
 30
0.0
 40
1.0
 50
89.99998201391065
 51
159.2845330299279
  0
ARC
  5
65D
  8
0
  6
DASHED
 62
     7
 10
114.2512120126246
 20
113.7168828362356
 30
0.0
 40
1.0
 50
200.7154669700721
 51
251.8051248674166
  0
ARC
  5
65E
  8
0
  6
DASHED
 62
     7
 10
115.3129643319605
 20
119.7168828362356
 30
0.0
 40
1.0
 50
0.0
 51
71.80513670656207
  0
ARC
  5
65F
  8
0
  6
DASHED
 62
     7
 10
115.3129643319605
 20
113.7168828362356
 30
0.0
 40
1.0
 50
0.0
 51
89.99998201391065
  0
ARC
  5
660
  8
0
  6
DASHED
 62
     7
 10
115.3129643319605
 20
119.7168828362356
 30
0.0
 40
1.0
 50
270.0000179860894
 51
360.0
  0
ARC
  5
661
  8
0
  6
DASHED
 62
     7
 10
115.3129643319605
 20
113.7168828362356
 30
0.0
 40
1.0
 50
288.194863293438
 51
360.0
  0
ARC
  5
662
  8
0
  6
DASHED
 62
     7
 10
107.2937458871363
 20
116.7168828362356
 30
0.0
 40
1.200000047683716
 50
113.46797241713
 51
246.5320171102151
  0
LINE
  5
663
  8
0
  6
CENTER
 62
     7
 10
-100.9458186776514
 20
-7.488029107752936
 30
0.0
 11
-100.9458186776514
 21
-35.76525474495616
 31
0.0
  0
LINE
  5
664
  8
0
  6
CONTINUOUS
 62
     4
 10
222.579957456641
 20
6.953755378327998
 30
0.0
 11
228.0799542975944
 21
16.48002804172759
 31
0.0
  0
LINE
  5
665
  8
0
  6
CONTINUOUS
 62
     4
 10
-161.9458110482569
 20
63.71689046563009
 30
0.0
 11
-161.9458110482569
 21
57.21689046563009
 31
0.0
  0
LINE
  5
666
  8
0
  6
CONTINUOUS
 62
     4
 10
-52.9458301217432
 20
58.21689046563009
 30
0.0
 11
-51.9458301217432
 21
58.21689046563009
 31
0.0
  0
LINE
  5
667
  8
0
  6
CONTINUOUS
 62
     4
 10
-163.759806409585
 20
56.71689046563009
 30
0.0
 11
-163.759806409585
 21
48.71689046563009
 31
0.0
  0
LINE
  5
668
  8
0
  6
CONTINUOUS
 62
     4
 10
-175.9458110482569
 20
65.71689046563009
 30
0.0
 11
-171.9458110482569
 21
65.71689046563009
 31
0.0
  0
LINE
  5
669
  8
0
  6
CONTINUOUS
 62
     4
 10
-161.9458110482569
 20
48.21689046563009
 30
0.0
 11
-161.9458110482569
 21
41.71689046563009
 31
0.0
  0
LINE
  5
66A
  8
0
  6
CONTINUOUS
 62
     4
 10
-158.9458110482569
 20
42.21689046563009
 30
0.0
 11
-158.9458110482569
 21
41.71689046563009
 31
0.0
  0
LINE
  5
66B
  8
0
  6
CONTINUOUS
 62
     4
 10
-171.9458110482569
 20
65.71689046563009
 30
0.0
 11
-171.9458110482569
 21
63.21689046563009
 31
0.0
  0
LINE
  5
66C
  8
0
  6
CONTINUOUS
 62
     4
 10
-112.9003998706182
 20
60.71689856473941
 30
0.0
 11
-113.6057070588443
 21
56.71690020164036
 31
0.0
  0
LINE
  5
66D
  8
0
  6
CONTINUOUS
 62
     4
 10
-108.8387023481265
 20
60.71689191320277
 30
0.0
 11
-109.54400986756
 21
56.71689167173193
 31
0.0
  0
LINE
  5
66E
  8
0
  6
CONTINUOUS
 62
     4
 10
-114.7053945593859
 20
60.71689779278987
 30
0.0
 11
-115.4107020788194
 21
56.71689755131902
 31
0.0
  0
LINE
  5
66F
  8
0
  6
CONTINUOUS
 62
     4
 10
-118.7670777173182
 20
60.71689803792359
 30
0.0
 11
-119.4723855679591
 21
56.71689591808095
 31
0.0
  0
LINE
  5
670
  8
0
  6
CONTINUOUS
 62
     4
 10
-120.5720191492609
 20
60.71689174890994
 30
0.0
 11
-121.2773273311093
 21
56.71688775069552
 31
0.0
  0
LINE
  5
671
  8
0
  6
CONTINUOUS
 62
     4
 10
-124.7494123047125
 20
60.060931189581
 30
0.0
 11
-125.3390568947942
 21
56.71688843132009
 31
0.0
  0
LINE
  5
672
  8
0
  6
CONTINUOUS
 62
     4
 10
-149.9053688280806
 20
60.71689376091322
 30
0.0
 11
-150.6106756850992
 21
56.71689727618596
 31
0.0
  0
LINE
  5
673
  8
0
  6
CONTINUOUS
 62
     4
 10
-153.9670895534486
 20
60.71690063019528
 30
0.0
 11
-154.6723964104673
 21
56.71690414546802
 31
0.0
  0
LINE
  5
674
  8
0
  6
CONTINUOUS
 62
     4
 10
-159.8337742512209
 20
60.71690518495271
 30
0.0
 11
-160.5390824330693
 21
56.71690118673828
 31
0.0
  0
LINE
  5
675
  8
0
  6
CONTINUOUS
 62
     4
 10
-155.7720522010232
 20
60.71690582915781
 30
0.0
 11
-156.4773603828716
 21
56.71690183094339
 31
0.0
  0
LINE
  5
676
  8
0
  6
CONTINUOUS
 62
     4
 10
-157.8879752561349
 20
48.71690228718759
 30
0.0
 11
-158.5932821493794
 21
44.71690559701342
 31
0.0
  0
LINE
  5
677
  8
0
  6
CONTINUOUS
 62
     4
 10
-156.083011614938
 20
48.71690272334044
 30
0.0
 11
-156.788319331026
 21
44.71690136658634
 31
0.0
  0
LINE
  5
678
  8
0
  6
CONTINUOUS
 62
     4
 10
-152.0212907239663
 20
48.71689679324427
 30
0.0
 11
-152.7265982848007
 21
44.71689631697696
 31
0.0
  0
LINE
  5
679
  8
0
  6
CONTINUOUS
 62
     4
 10
-120.8830006068261
 20
48.71689543513926
 30
0.0
 11
-121.5883081262596
 21
44.71689519366842
 31
0.0
  0
LINE
  5
67A
  8
0
  6
CONTINUOUS
 62
     4
 10
-116.8213169520828
 20
48.71689800756323
 30
0.0
 11
-117.5266244715163
 21
44.71689776609239
 31
0.0
  0
LINE
  5
67B
  8
0
  6
CONTINUOUS
 62
     4
 10
-115.0163220977113
 20
48.71689971869867
 30
0.0
 11
-115.7216296171449
 21
44.71689947722783
 31
0.0
  0
LINE
  5
67C
  8
0
  6
CONTINUOUS
 62
     4
 10
-110.9546247408233
 20
48.71689212797614
 30
0.0
 11
-111.6599322602568
 21
44.71689188650529
 31
0.0
  0
LINE
  5
67D
  8
0
  6
CONTINUOUS
 62
     4
 10
-143.5458171517725
 20
38.21689046563009
 30
0.0
 11
-135.045824781167
 21
38.21689046563009
 31
0.0
  0
CIRCLE
  5
67E
  8
0
  6
CONTINUOUS
 62
     4
 10
-110.8695247323389
 20
60.71689046563009
 30
0.0
 40
2.0
  0
CIRCLE
  5
67F
  8
0
  6
CONTINUOUS
 62
     4
 10
-116.7361934335108
 20
60.71689046563009
 30
0.0
 40
2.0
  0
CIRCLE
  5
680
  8
0
  6
CONTINUOUS
 62
     4
 10
-157.8028667123194
 20
60.71689046563009
 30
0.0
 40
2.0
  0
CIRCLE
  5
681
  8
0
  6
CONTINUOUS
 62
     4
 10
-151.9361980111475
 20
60.71689046563009
 30
0.0
 40
2.0
  0
CIRCLE
  5
682
  8
0
  6
CONTINUOUS
 62
     4
 10
-113.6907527596827
 20
44.71689046563009
 30
0.0
 40
2.0
  0
CIRCLE
  5
683
  8
0
  6
CONTINUOUS
 62
     4
 10
-119.5574214608545
 20
44.71689046563009
 30
0.0
 40
2.0
  0
CIRCLE
  5
684
  8
0
  6
CONTINUOUS
 62
     4
 10
-154.7574260384913
 20
44.71689046563009
 30
0.0
 40
2.0
  0
ARC
  5
685
  8
0
  6
CONTINUOUS
 62
     4
 10
-160.6240947396631
 20
44.71689046563009
 30
0.0
 40
2.0
 50
0.0
 51
131.3653834766921
  0
CIRCLE
  5
686
  8
0
  6
CONTINUOUS
 62
     4
 10
-122.6028621346827
 20
60.71689046563009
 30
0.0
 40
2.0
  0
ARC
  5
687
  8
0
  6
CONTINUOUS
 62
     4
 10
-160.6240947396631
 20
44.71689046563009
 30
0.0
 40
2.0
 50
228.6346165233079
 51
360.0
  0
LINE
  5
688
  8
0
  6
CONTINUOUS
 62
     4
 10
-67.4458301217432
 20
85.21688283623556
 30
0.0
 11
-67.4458301217432
 21
70.71689046563009
 31
0.0
  0
LINE
  5
689
  8
0
  6
CONTINUOUS
 62
     4
 10
-75.17797733854007
 20
13.71688998879293
 30
0.0
 11
-75.17797733854007
 21
12.71688998879293
 31
0.0
  0
LINE
  5
68A
  8
0
  6
CONTINUOUS
 62
     4
 10
-66.9458301217432
 20
32.21689046563009
 30
0.0
 11
-66.9458301217432
 21
27.21689046563009
 31
0.0
  0
LINE
  5
68B
  8
0
  6
CONTINUOUS
 62
     4
 10
136.4243845252051
 20
-106.6764361078546
 30
0.0
 11
186.4243845252051
 21
-106.6764361078546
 31
0.0
  0
LINE
  5
68C
  8
0
  6
CONTINUOUS
 62
     4
 10
136.4243845252051
 20
-56.67643610785463
 30
0.0
 11
136.4243845252051
 21
-106.6764361078546
 31
0.0
  0
CIRCLE
  5
68D
  8
0
  6
CONTINUOUS
 62
     4
 10
154.315527808523
 20
52.71706012620304
 30
0.0
 40
28.0
  0
CIRCLE
  5
68E
  8
0
  6
CONTINUOUS
 62
     4
 10
154.315527808523
 20
52.71706012620304
 30
0.0
 40
15.0
  0
CIRCLE
  5
68F
  8
0
  6
CONTINUOUS
 62
     4
 10
154.315527808523
 20
52.71706012620304
 30
0.0
 40
5.5
  0
LINE
  5
690
  8
0
  6
DASHED
 62
     4
 10
223.9283789248663
 20
3.288696782199651
 30
0.0
 11
217.8662003727156
 21
6.788695739118367
 31
0.0
  0
LINE
  5
691
  8
0
  6
DASHED
 62
     4
 10
231.9283897551811
 20
17.14509727200905
 30
0.0
 11
225.8662112030304
 21
20.64509622892777
 31
0.0
  0
LINE
  5
692
  8
0
  6
CONTINUOUS
 62
     5
 10
208.189105385826
 20
100.366244796751
 30
0.0
 11
204.4391044321517
 21
106.8614368603694
 31
0.0
  0
LINE
  5
693
  8
0
  6
CONTINUOUS
 62
     5
 10
195.1987094403664
 20
92.86624047098113
 30
0.0
 11
208.1890902639786
 21
100.3662404709811
 31
0.0
  0
LINE
  5
694
  8
0
  6
CONTINUOUS
 62
     5
 10
195.1987245622138
 20
92.86624479675098
 30
0.0
 11
189.5737217011908
 21
102.6090353698972
 31
0.0
  0
LINE
  5
695
  8
0
  6
CONTINUOUS
 62
     5
 10
189.5737084866921
 20
102.6090277405026
 30
0.0
 11
191.5222656102339
 21
103.7340277405026
 31
0.0
  0
LINE
  5
696
  8
0
  6
CONTINUOUS
 62
     5
 10
192.0847807320813
 20
102.7597535045016
 30
0.0
 11
191.5222826394299
 21
103.7340287626478
 31
0.0
  0
LINE
  5
697
  8
0
  6
CONTINUOUS
 62
     5
 10
192.0847675175826
 20
102.759745875107
 30
0.0
 11
193.3838055999438
 21
103.509745875107
 31
0.0
  0
LINE
  5
698
  8
0
  6
CONTINUOUS
 62
     5
 10
193.9463188144425
 20
102.5354749427306
 30
0.0
 11
193.3838188144425
 21
103.5097535045016
 31
0.0
  0
LINE
  5
699
  8
0
  6
CONTINUOUS
 62
     5
 10
195.9953568968037
 20
101.9864368603694
 30
0.0
 11
195.2453568968037
 21
103.2854749427306
 31
0.0
  0
LINE
  5
69A
  8
0
  6
CONTINUOUS
 62
     5
 10
193.9463036925951
 20
102.5354706169608
 30
0.0
 11
195.2453417749564
 21
103.2854706169608
 31
0.0
  0
LINE
  5
69B
  8
0
  6
CONTINUOUS
 62
     5
 10
191.4487103940407
 20
99.36142923097489
 30
0.0
 11
204.4390912176529
 21
106.8614292309749
 31
0.0
  0
LINE
  5
69C
  8
0
  6
CONTINUOUS
 62
     5
 10
202.0689272348443
 20
95.96673503677724
 30
0.0
 11
204.3189272348443
 21
92.06962078969357
 31
0.0
  0
LINE
  5
69D
  8
0
  6
CONTINUOUS
 62
     5
 10
204.3188903963976
 20
92.0696361485216
 30
0.0
 11
203.2943776222266
 21
92.34415352129693
 31
0.0
  0
LINE
  5
69E
  8
0
  6
CONTINUOUS
 62
     5
 10
204.3189702171507
 20
92.0696059825091
 30
0.0
 11
204.5934914443601
 21
93.09413355875907
 31
0.0
  0
LINE
  5
69F
  8
0
  6
CONTINUOUS
 62
     5
 10
201.7944407324148
 20
94.94220612851407
 30
0.0
 11
202.0689619596242
 21
95.96673370476404
 31
0.0
  0
LINE
  5
6A0
  8
0
  6
CONTINUOUS
 62
     5
 10
203.0934101260538
 20
95.69224264356674
 30
0.0
 11
202.0688973518829
 21
95.96676001634208
 31
0.0
  0
LINE
  5
6A1
  8
0
  6
CONTINUOUS
 62
     5
 10
196.1192803101046
 20
104.771837689214
 30
0.0
 11
196.3938015373139
 21
105.796365265464
 31
0.0
  0
LINE
  5
6A2
  8
0
  6
CONTINUOUS
 62
     5
 10
196.393752864378
 20
105.796387866968
 30
0.0
 11
195.3692400902071
 21
106.0709052397433
 31
0.0
  0
LINE
  5
6A3
  8
0
  6
CONTINUOUS
 62
     5
 10
193.8306593606264
 20
104.3165219411042
 30
0.0
 11
196.3937699617306
 21
105.7963345631745
 31
0.0
  0
LINE
  5
6A4
  8
0
  6
CONTINUOUS
 62
     5
 10
200.5548561287394
 20
102.3407183003911
 30
0.0
 11
199.7881453979605
 21
101.7198483230641
 31
0.0
  0
LINE
  5
6A5
  8
0
  6
CONTINUOUS
 62
     5
 10
200.5548790436803
 20
102.3407238450618
 30
0.0
 11
199.9340185514127
 21
103.1074225999264
 31
0.0
  0
ARC
  5
6A6
  8
0
  6
CONTINUOUS
 62
     5
 10
199.8754795907496
 20
99.80514730156759
 30
0.0
 40
2.625001907348633
 50
75.00010795499728
 51
369.999953377945
  0
TEXT
  5
6A7
  8
0
 62
     5
 10
157.1876300691126
 20
-17.58311640082499
 30
0.0
 40
4.0
  1
COP-7
 41
0.7674421177096609
  7
FDASTYLE1
 72
     5
 11
176.0447753785608
 21
-17.58311640082499
 31
0.0
  0
TEXT
  5
6A8
  8
0
 62
     5
 10
125.8304793952463
 20
-18.08311640082499
 30
0.0
 40
5.0
  1
NIKKO
 41
0.7674421159044379
  7
FDASTYLE1
 72
     5
 11
149.4019107936381
 21
-18.08311640082499
 31
0.0
  0
TEXT
  5
6A9
  8
0
 62
     5
 10
157.5447732327936
 20
-24.08311640082499
 30
0.0
 40
3.0
  1
0001
 41
0.7647060767727455
  7
FDASTYLE1
 72
     5
 11
168.6876309035776
 21
-24.08311640082499
 31
0.0
  0
TEXT
  5
6AA
  8
0
 62
     5
 10
233.8221902712328
 20
67.60848374451948
 30
0.0
 40
2.5
  1
N MAX 4000 AT ΣS MAX
 50
120.0
 41
0.787340294363458
  7
FDASTYLE1
 72
     5
 11
208.8031057580454
 21
110.9428092802198
 31
0.0
  0
TEXT
  5
6AB
  8
0
 62
     5
 10
226.8939828737718
 20
63.60848374451948
 30
0.0
 40
2.5
  1
F MAX  14KN
 50
120.0
 41
0.7825372743633053
  7
FDASTYLE1
 72
     5
 11
213.2966541512949
 21
87.15974793906518
 31
0.0
  0
TEXT
  5
6AC
  8
0
 62
     5
 10
230.3580942018968
 20
65.60848374451948
 30
0.0
 40
2.5
  1
ΣS MAX 25KN
 50
120.0
 41
0.7876411374541946
  7
FDASTYLE1
 72
     5
 11
216.7607654794198
 21
89.15974793906521
 31
0.0
  0
TEXT
  5
6AD
  8
0
 62
     5
 10
195.3881079121572
 20
107.1833350761587
 30
0.0
 40
2.5
  1
ΣS
 50
120.0
 41
0.9590411728078666
  7
FDASTYLE1
 72
     5
 11
192.7507446869356
 21
111.7513821802563
 31
0.0
  0
TEXT
  5
6AE
  8
0
 62
     5
 10
202.0428930684072
 20
92.25203777391259
 30
0.0
 40
2.5
  1
F
 50
120.0
 41
0.8791213035583498
  7
FDASTYLE1
 72
     5
 11
200.9439914389593
 21
94.15539122863665
 31
0.0
  0
TEXT
  5
6AF
  8
0
 62
     5
 10
204.6576422615987
 20
102.7613756172111
 30
0.0
 40
2.5
  1
N min
 50
120.0
 41
0.7983872809842201
  7
FDASTYLE1
 72
     5
 11
198.4701422615987
 21
113.4784399890435
 31
0.0
  0
TEXT
  5
6B0
  8
0
 62
     5
 10
194.3217212121015
 20
112.4906384346479
 30
0.0
 40
1.25
  1
-1
 50
120.0
 41
0.782608910634555
  7
FDASTYLE1
 72
     5
 11
193.1967210779911
 21
114.439195825449
 31
0.0
  0
TEXT
  5
6B1
  8
0
 62
     4
 10
135.2243845252051
 20
-112.1764361078546
 30
0.0
 40
3.0
  1
0
 41
0.8000000000000019
  7
FDASTYLE1
 72
     5
 11
137.6243845252051
 21
-112.1764361078546
 31
0.0
  0
TEXT
  5
6B2
  8
0
 62
     4
 10
160.2243845252051
 20
-112.1764361078546
 30
0.0
 40
3.0
  1
5
 41
0.8000000000000019
  7
FDASTYLE1
 72
     5
 11
162.6243845252051
 21
-112.1764361078546
 31
0.0
  0
TEXT
  5
6B3
  8
0
 62
     4
 10
165.2243845252051
 20
-112.1764361078546
 30
0.0
 40
3.0
  1
6
 41
0.8000000000000019
  7
FDASTYLE1
 72
     5
 11
167.6243845252051
 21
-112.1764361078546
 31
0.0
  0
TEXT
  5
6B4
  8
0
 62
     4
 10
170.2243845252051
 20
-112.1764361078546
 30
0.0
 40
3.0
  1
7
 41
0.8000000000000019
  7
FDASTYLE1
 72
     5
 11
172.6243845252051
 21
-112.1764361078546
 31
0.0
  0
TEXT
  5
6B5
  8
0
 62
     4
 10
175.2243845252051
 20
-112.1764361078546
 30
0.0
 40
3.0
  1
8
 41
0.8000000000000019
  7
FDASTYLE1
 72
     5
 11
177.6243845252051
 21
-112.1764361078546
 31
0.0
  0
TEXT
  5
6B6
  8
0
 62
     4
 10
180.2243845252051
 20
-112.1764361078546
 30
0.0
 40
3.0
  1
9
 41
0.8000000000000019
  7
FDASTYLE1
 72
     5
 11
182.6243845252051
 21
-112.1764361078546
 31
0.0
  0
TEXT
  5
6B7
  8
0
 62
     4
 10
183.7310068396583
 20
-112.2329699213312
 30
0.0
 40
3.0
  1
10
 41
0.8000000000000019
  7
FDASTYLE1
 72
     5
 11
188.5310068396583
 21
-112.2329699213312
 31
0.0
  0
TEXT
  5
6B8
  8
0
 62
     4
 10
131.6250498084083
 20
-108.0004717523859
 30
0.0
 40
3.0
  1
0
 41
0.8000000000000019
  7
FDASTYLE1
 72
     5
 11
134.0250498084083
 21
-108.0004717523859
 31
0.0
  0
TEXT
  5
6B9
  8
0
 62
     4
 10
125.6243784216895
 20
-103.1764361078546
 30
0.0
 40
3.0
  1
100
 41
0.8000000000000003
  7
FDASTYLE1
 72
     5
 11
132.8243784216895
 21
-103.1764361078546
 31
0.0
  0
TEXT
  5
6BA
  8
0
 62
     4
 10
125.6243784216895
 20
-68.17643610785463
 30
0.0
 40
3.0
  1
800
 41
0.8000000000000003
  7
FDASTYLE1
 72
     5
 11
132.8243784216895
 21
-68.17643610785463
 31
0.0
  0
TEXT
  5
6BB
  8
0
 62
     4
 10
125.6243784216895
 20
-63.17643610785463
 30
0.0
 40
3.0
  1
900
 41
0.8000000000000003
  7
FDASTYLE1
 72
     5
 11
132.8243784216895
 21
-63.17643610785463
 31
0.0
  0
TEXT
  5
6BC
  8
0
 62
     4
 10
122.6243784216895
 20
-58.17643610785463
 30
0.0
 40
3.0
  1
1000
 41
0.8000000000000007
  7
FDASTYLE1
 72
     5
 11
132.2243784216895
 21
-58.17643610785463
 31
0.0
  0
TEXT
  5
6BD
  8
0
 62
     4
 10
125.6243784216895
 20
-73.17643610785463
 30
0.0
 40
3.0
  1
700
 41
0.8000000000000003
  7
FDASTYLE1
 72
     5
 11
132.8243784216895
 21
-73.17643610785463
 31
0.0
  0
TEXT
  5
6BE
  8
0
 62
     4
 10
125.6243784216895
 20
-78.17643610785463
 30
0.0
 40
3.0
  1
600
 41
0.8000000000000003
  7
FDASTYLE1
 72
     5
 11
132.8243784216895
 21
-78.17643610785463
 31
0.0
  0
TEXT
  5
6BF
  8
0
 62
     4
 10
125.6243784216895
 20
-83.17643610785463
 30
0.0
 40
3.0
  1
500
 41
0.8000000000000003
  7
FDASTYLE1
 72
     5
 11
132.8243784216895
 21
-83.17643610785463
 31
0.0
  0
TEXT
  5
6C0
  8
0
 62
     4
 10
125.6243784216895
 20
-88.17643610785463
 30
0.0
 40
3.0
  1
400
 41
0.8000000000000003
  7
FDASTYLE1
 72
     5
 11
132.8243784216895
 21
-88.17643610785463
 31
0.0
  0
TEXT
  5
6C1
  8
0
 62
     4
 10
125.6243784216895
 20
-93.17643610785463
 30
0.0
 40
3.0
  1
300
 41
0.8000000000000003
  7
FDASTYLE1
 72
     5
 11
132.8243784216895
 21
-93.17643610785463
 31
0.0
  0
TEXT
  5
6C2
  8
0
 62
     4
 10
125.6243784216895
 20
-98.17643610785463
 30
0.0
 40
3.0
  1
200
 41
0.8000000000000003
  7
FDASTYLE1
 72
     5
 11
132.8243784216895
 21
-98.17643610785463
 31
0.0
  0
TEXT
  5
6C3
  8
0
 62
     4
 10
140.2243845252051
 20
-112.1764361078546
 30
0.0
 40
3.0
  1
1
 41
0.8000000000000019
  7
FDASTYLE1
 72
     5
 11
142.6243845252051
 21
-112.1764361078546
 31
0.0
  0
TEXT
  5
6C4
  8
0
 62
     4
 10
145.2243845252051
 20
-112.1764361078546
 30
0.0
 40
3.0
  1
2
 41
0.8000000000000019
  7
FDASTYLE1
 72
     5
 11
147.6243845252051
 21
-112.1764361078546
 31
0.0
  0
TEXT
  5
6C5
  8
0
 62
     4
 10
150.2243845252051
 20
-112.1764361078546
 30
0.0
 40
3.0
  1
3
 41
0.8000000000000019
  7
FDASTYLE1
 72
     5
 11
152.6243845252051
 21
-112.1764361078546
 31
0.0
  0
TEXT
  5
6C6
  8
0
 62
     4
 10
155.2243845252051
 20
-112.1764361078546
 30
0.0
 40
3.0
  1
4
 41
0.8000000000000019
  7
FDASTYLE1
 72
     5
 11
157.6243845252051
 21
-112.1764361078546
 31
0.0
  0
TEXT
  5
6C7
  8
0
 62
     4
 10
147.6307962683692
 20
-117.5175310785578
 30
0.0
 40
4.0
  1
ﾀﾜﾐ量　mm
 41
0.7567567567567569
  7
FDASTYLE1
 72
     5
 11
170.0307962683692
 21
-117.5175310785578
 31
0.0
  0
TEXT
  5
6C8
  8
0
 62
     4
 10
119.6074442175879
 20
-87.85808588812806
 30
0.0
 40
4.0
  1
荷　重　N
 50
90.0
 41
0.6896551724137932
  7
FDASTYLE1
 72
     5
 11
119.6074442175879
 21
-71.85808588812806
 31
0.0
  0
LINE
  5
6C9
  8
0
  6
CONTINUOUS
 62
     2
 10
122.2725893327554
 20
74.16706335055939
 30
0.0
 11
124.8273594751638
 21
72.69206118393437
 31
0.0
  0
LINE
  5
6CA
  8
0
  6
CONTINUOUS
 62
     2
 10
124.8273686288355
 20
72.6920624150214
 30
0.0
 11
124.8273686288355
 21
69.74206546677921
 31
0.0
  0
LINE
  5
6CB
  8
0
  6
CONTINUOUS
 62
     2
 10
124.8273546023337
 20
69.74206242297647
 30
0.0
 11
122.2725807674214
 21
68.26706667427494
 31
0.0
  0
CIRCLE
  5
6CC
  8
0
  6
CONTINUOUS
 62
     2
 10
122.2725895761011
 20
71.21706775559757
 30
0.0
 40
5.0
  0
LINE
  5
6CD
  8
0
  6
CONTINUOUS
 62
     2
 10
119.7178144507971
 20
72.69206712877964
 30
0.0
 11
122.2725882857095
 21
74.16706296539793
 31
0.0
  0
LINE
  5
6CE
  8
0
  6
CONTINUOUS
 62
     2
 10
122.2725861802689
 20
68.26707036026825
 30
0.0
 11
119.7178151586929
 21
69.74207112022511
 31
0.0
  0
LINE
  5
6CF
  8
0
  6
CONTINUOUS
 62
     2
 10
119.7178105233668
 20
69.74206928147648
 30
0.0
 11
119.7178105233668
 21
72.69207004441593
 31
0.0
  0
LINE
  5
6D0
  8
0
  6
CONTINUOUS
 62
     2
 10
132.3617870135419
 20
65.39206932981666
 30
0.0
 11
134.3969532223488
 21
66.56707021046965
 31
0.0
  0
LINE
  5
6D1
  8
0
  6
CONTINUOUS
 62
     2
 10
134.3969498281146
 20
66.56706572562395
 30
0.0
 11
136.432113235496
 21
65.39205987244056
 31
0.0
  0
LINE
  5
6D2
  8
0
  6
CONTINUOUS
 62
     2
 10
136.4321049569605
 20
65.39206317796085
 30
0.0
 11
136.4321049569605
 21
63.04206470383976
 31
0.0
  0
LINE
  5
6D3
  8
0
  6
CONTINUOUS
 62
     2
 10
136.4321132718855
 20
63.042066674813
 30
0.0
 11
134.3969470630786
 21
61.86706572412437
 31
0.0
  0
LINE
  5
6D4
  8
0
  6
CONTINUOUS
 62
     2
 10
134.3969510426266
 20
61.86706178430065
 30
0.0
 11
132.3617870749601
 21
63.04206651691381
 31
0.0
  0
LINE
  5
6D5
  8
0
  6
CONTINUOUS
 62
     2
 10
132.3617924569605
 20
63.04206851853702
 30
0.0
 11
132.3617924569605
 21
65.39206699265812
 31
0.0
  0
CIRCLE
  5
6D6
  8
0
  6
CONTINUOUS
 62
     2
 10
134.3969487069605
 20
64.21706775559757
 30
0.0
 40
4.25
  0
LINE
  5
6D7
  8
0
  6
CONTINUOUS
 62
     2
 10
172.1989591024551
 20
65.39205076351233
 30
0.0
 11
174.234125311262
 21
66.56705164416532
 31
0.0
  0
LINE
  5
6D8
  8
0
  6
CONTINUOUS
 62
     2
 10
174.2341156498366
 20
66.56705121875781
 30
0.0
 11
176.2692724499736
 21
65.39204918028078
 31
0.0
  0
LINE
  5
6D9
  8
0
  6
CONTINUOUS
 62
     2
 10
176.2692784188746
 20
65.39204410447452
 30
0.0
 11
176.2692784188746
 21
63.04204563035343
 31
0.0
  0
LINE
  5
6DA
  8
0
  6
CONTINUOUS
 62
     2
 10
176.2692850007456
 20
63.04205078850261
 30
0.0
 11
174.2341187919387
 21
61.86704983781398
 31
0.0
  0
LINE
  5
6DB
  8
0
  6
CONTINUOUS
 62
     2
 10
174.2341277841803
 20
61.86704381867345
 30
0.0
 11
172.1989638165139
 21
63.04204855128661
 31
0.0
  0
LINE
  5
6DC
  8
0
  6
CONTINUOUS
 62
     2
 10
172.1989659188746
 20
63.04204944505069
 30
0.0
 11
172.1989659188746
 21
65.39204791917179
 31
0.0
  0
CIRCLE
  5
6DD
  8
0
  6
CONTINUOUS
 62
     2
 10
174.2341221688746
 20
64.21704868211124
 30
0.0
 40
4.25
  0
CIRCLE
  5
6DE
  8
0
  6
CONTINUOUS
 62
     2
 10
186.3584812997339
 20
71.21704868211124
 30
0.0
 40
5.0
  0
LINE
  5
6DF
  8
0
  6
CONTINUOUS
 62
     2
 10
183.8036869256561
 20
72.69204461309325
 30
0.0
 11
186.3584739750754
 21
74.16704807909242
 31
0.0
  0
LINE
  5
6E0
  8
0
  6
CONTINUOUS
 62
     2
 10
186.3584862330415
 20
74.16704650211956
 30
0.0
 11
188.9132563754499
 21
72.69204433549454
 31
0.0
  0
LINE
  5
6E1
  8
0
  6
CONTINUOUS
 62
     2
 10
188.9132695804509
 20
69.74205453414858
 30
0.0
 11
186.3584825310316
 21
68.26705115606661
 31
0.0
  0
LINE
  5
6E2
  8
0
  6
CONTINUOUS
 62
     2
 10
186.3584822972168
 20
68.26705546745122
 30
0.0
 11
183.8037112756408
 21
69.74205622740807
 31
0.0
  0
LINE
  5
6E3
  8
0
  6
CONTINUOUS
 62
     2
 10
183.8037022469996
 20
69.74205020799015
 30
0.0
 11
183.8037022469996
 21
72.6920509709296
 31
0.0
  0
LINE
  5
6E4
  8
0
  6
CONTINUOUS
 62
     2
 10
188.9132603524683
 20
72.69204715623233
 30
0.0
 11
188.9132603524683
 21
69.74204639329288
 31
0.0
  0
CIRCLE
  5
6E5
  8
0
  6
CONTINUOUS
 62
     2
 10
154.3158635018824
 20
29.71706012620304
 30
0.0
 40
4.25
  0
LINE
  5
6E6
  8
0
  6
CONTINUOUS
 62
     2
 10
154.3158532790219
 20
32.06706165852008
 30
0.0
 11
156.3510166864032
 21
30.89205580533668
 31
0.0
  0
LINE
  5
6E7
  8
0
  6
CONTINUOUS
 62
     2
 10
156.3510197518824
 20
30.89205745591495
 30
0.0
 11
156.3510197518824
 21
28.54205802811954
 31
0.0
  0
LINE
  5
6E8
  8
0
  6
CONTINUOUS
 62
     2
 10
156.351027720814
 20
28.54205324451301
 30
0.0
 11
154.3158615120071
 21
27.36705229382439
 31
0.0
  0
LINE
  5
6E9
  8
0
  6
CONTINUOUS
 62
     2
 10
152.2807125360593
 20
30.89206518070093
 30
0.0
 11
154.3158787448662
 21
32.06706606135391
 31
0.0
  0
LINE
  5
6EA
  8
0
  6
CONTINUOUS
 62
     2
 10
152.2807072518824
 20
28.54206184281681
 30
0.0
 11
152.2807072518824
 21
30.89206127061222
 31
0.0
  0
LINE
  5
6EB
  8
0
  6
CONTINUOUS
 62
     2
 10
154.3158645874662
 20
27.36705620481986
 30
0.0
 11
152.2807006197997
 21
28.54206093743302
 31
0.0
  0
LINE
  5
6EC
  8
0
  6
CONTINUOUS
 62
     2
 10
151.7610880111922
 20
17.192058561335
 30
0.0
 11
154.3158618461045
 21
18.66705439795329
 31
0.0
  0
LINE
  5
6ED
  8
0
  6
CONTINUOUS
 62
     2
 10
154.3158652347867
 20
12.76705706517329
 30
0.0
 11
151.7610942132107
 21
14.24205782513015
 31
0.0
  0
LINE
  5
6EE
  8
0
  6
CONTINUOUS
 62
     2
 10
151.761084449148
 20
14.2420621289191
 30
0.0
 11
151.761084449148
 21
17.19206146134708
 31
0.0
  0
CIRCLE
  5
6EF
  8
0
  6
CONTINUOUS
 62
     2
 10
154.3158635018824
 20
15.71706012620304
 30
0.0
 40
5.0
  0
LINE
  5
6F0
  8
0
  6
CONTINUOUS
 62
     2
 10
154.3158650410362
 20
18.66705193988607
 30
0.0
 11
156.8706351834446
 21
17.19204977326105
 31
0.0
  0
LINE
  5
6F1
  8
0
  6
CONTINUOUS
 62
     2
 10
156.8706425546168
 20
17.1920566929755
 30
0.0
 11
156.8706425546168
 21
14.24205688371036
 31
0.0
  0
LINE
  5
6F2
  8
0
  6
CONTINUOUS
 62
     2
 10
156.8706432820127
 20
14.24205487764836
 30
0.0
 11
154.3158694471003
 21
12.76705912894683
 31
0.0
  0
VIEWPORT
  5
48
 67
     1
  8
0
 10
0.0
 20
0.0
 30
0.0
 40
1662.0
 41
1140.0
 68
     1
 69
     1
1001
ACAD
1000
MVIEW
1002
{
1070
    16
1010
0.0
1020
0.0
1030
0.0
1020
0.0
1030
0.0
1010
0.0
1020
0.0
1030
1.0
1020
0.0
1030
1.0
1040
0.0
1040
1140.0
1040
0.0
1040
0.0
1040
50.0
1040
0.0
1040
0.0
1070
     0
1070
   100
1070
     0
1070
     1
1070
     0
1070
     0
1070
     0
1070
     0
1040
0.0
1040
0.0
1040
0.0
1040
0.5
1040
0.5
1040
0.0
1040
0.0
1070
     0
1002
{
1002
}
1002
}
  0
ENDSEC
  0
EOF
