  0
SECTION
  2
HEADER
  9
$ACADVER
  1
AC1009
  9
$DWGCODEPAGE
  3
ansi_932
  9
$INSBASE
 10
0.0
 20
0.0
 30
0.0
  9
$EXTMIN
 10
-831.0
 20
-569.9999999999999
 30
0.0
  9
$EXTMAX
 10
831.0
 20
569.9999999999999
 30
0.0
  9
$LIMMIN
 10
-297.0
 20
-210.0
  9
$LIMMAX
 10
297.0
 20
210.0
  9
$ORTHOMODE
 70
     0
  9
$REGENMODE
 70
     1
  9
$FILLMODE
 70
     1
  9
$QTEXTMODE
 70
     0
  9
$MIRRTEXT
 70
     1
  9
$DRAGMODE
 70
     2
  9
$LTSCALE
 40
0.25
  9
$OSMODE
 70
    37
  9
$ATTMODE
 70
     1
  9
$TEXTSIZE
 40
0.2
  9
$TRACEWID
 40
0.05
  9
$TEXTSTYLE
  7
STANDARD
  9
$CLAYER
  8
0
  9
$CELTYPE
  6
BYLAYER
  9
$CECOLOR
 62
   256
  9
$DIMSCALE
 40
1.0
  9
$DIMASZ
 40
2.499996185302734
  9
$DIMEXO
 40
1.0
  9
$DIMDLI
 40
10.0
  9
$DIMRND
 40
0.0
  9
$DIMDLE
 40
0.0
  9
$DIMEXE
 40
1.0
  9
$DIMTP
 40
0.0
  9
$DIMTM
 40
0.0
  9
$DIMTXT
 40
4.0
  9
$DIMCEN
 40
0.0
  9
$DIMTSZ
 40
0.0
  9
$DIMTOL
 70
     0
  9
$DIMLIM
 70
     0
  9
$DIMTIH
 70
     0
  9
$DIMTOH
 70
     0
  9
$DIMSE1
 70
     0
  9
$DIMSE2
 70
     0
  9
$DIMTAD
 70
     1
  9
$DIMZIN
 70
     8
  9
$DIMBLK
  1

  9
$DIMASO
 70
     1
  9
$DIMSHO
 70
     1
  9
$DIMPOST
  1

  9
$DIMAPOST
  1

  9
$DIMALT
 70
     0
  9
$DIMALTD
 70
     2
  9
$DIMALTF
 40
25.4
  9
$DIMLFAC
 40
1.0
  9
$DIMTOFL
 70
     0
  9
$DIMTVP
 40
0.0
  9
$DIMTIX
 70
     0
  9
$DIMSOXD
 70
     0
  9
$DIMSAH
 70
     0
  9
$DIMBLK1
  1

  9
$DIMBLK2
  1

  9
$DIMSTYLE
  2
STANDARD
  9
$DIMCLRD
 70
     0
  9
$DIMCLRE
 70
     0
  9
$DIMCLRT
 70
     0
  9
$DIMTFAC
 40
0.65
  9
$DIMGAP
 40
0.09
  9
$LUNITS
 70
     2
  9
$LUPREC
 70
     4
  9
$SKETCHINC
 40
0.1
  9
$FILLETRAD
 40
0.5
  9
$AUNITS
 70
     0
  9
$AUPREC
 70
     0
  9
$MENU
  1
.
  9
$ELEVATION
 40
0.0
  9
$PELEVATION
 40
0.0
  9
$THICKNESS
 40
0.0
  9
$LIMCHECK
 70
     0
  9
$CHAMFERA
 40
0.0
  9
$CHAMFERB
 40
0.0
  9
$SKPOLY
 70
     0
  9
$TDCREATE
 40
2457638.567066099
  9
$TDUPDATE
 40
2457638.567066643
  9
$TDINDWG
 40
0.0000000116
  9
$TDUSRTIMER
 40
0.0000000116
  9
$USRTIMER
 70
     1
  9
$ANGBASE
 50
0.0
  9
$ANGDIR
 70
     0
  9
$PDMODE
 70
     0
  9
$PDSIZE
 40
1.0
  9
$PLINEWID
 40
0.0
  9
$COORDS
 70
     1
  9
$SPLFRAME
 70
     0
  9
$SPLINETYPE
 70
     6
  9
$SPLINESEGS
 70
     8
  9
$ATTDIA
 70
     0
  9
$ATTREQ
 70
     1
  9
$HANDLING
 70
     1
  9
$HANDSEED
  5
762
  9
$SURFTAB1
 70
     6
  9
$SURFTAB2
 70
     6
  9
$SURFTYPE
 70
     6
  9
$SURFU
 70
     6
  9
$SURFV
 70
     6
  9
$UCSNAME
  2

  9
$UCSORG
 10
0.0
 20
0.0
 30
0.0
  9
$UCSXDIR
 10
1.0
 20
0.0
 30
0.0
  9
$UCSYDIR
 10
0.0
 20
1.0
 30
0.0
  9
$PUCSNAME
  2

  9
$PUCSORG
 10
0.0
 20
0.0
 30
0.0
  9
$PUCSXDIR
 10
1.0
 20
0.0
 30
0.0
  9
$PUCSYDIR
 10
0.0
 20
1.0
 30
0.0
  9
$USERI1
 70
     0
  9
$USERI2
 70
     0
  9
$USERI3
 70
     0
  9
$USERI4
 70
     0
  9
$USERI5
 70
     0
  9
$USERR1
 40
0.0
  9
$USERR2
 40
0.0
  9
$USERR3
 40
0.0
  9
$USERR4
 40
0.0
  9
$USERR5
 40
0.0
  9
$WORLDVIEW
 70
     1
  9
$SHADEDGE
 70
     3
  9
$SHADEDIF
 70
    70
  9
$TILEMODE
 70
     1
  9
$MAXACTVP
 70
    64
  9
$PLIMCHECK
 70
     0
  9
$PEXTMIN
 10
1.000000000000000E+20
 20
1.000000000000000E+20
 30
1.000000000000000E+20
  9
$PEXTMAX
 10
-1.000000000000000E+20
 20
-1.000000000000000E+20
 30
-1.000000000000000E+20
  9
$PLIMMIN
 10
0.0
 20
0.0
  9
$PLIMMAX
 10
12.0
 20
9.0
  9
$UNITMODE
 70
     0
  9
$VISRETAIN
 70
     0
  9
$PLINEGEN
 70
     1
  9
$PSLTSCALE
 70
     0
  0
ENDSEC
  0
SECTION
  2
TABLES
  0
TABLE
  2
VPORT
 70
     1
  0
VPORT
  2
*ACTIVE
 70
     0
 10
0.0
 20
0.0
 11
1.0
 21
1.0
 12
0.0
 22
0.0
 13
0.0
 23
0.0
 14
0.5
 24
0.5
 15
0.5
 25
0.5
 16
0.0
 26
0.0
 36
1.0
 17
-0.0000000000000036
 27
0.0
 37
0.0
 40
387.6
 41
1.457894736842106
 42
50.0
 43
0.0
 44
0.0
 50
0.0
 51
0.0
 71
     0
 72
  1000
 73
     1
 74
     1
 75
     0
 76
     0
 77
     0
 78
     0
  0
ENDTAB
  0
TABLE
  2
LTYPE
 70
    67
  0
LTYPE
  2
CONTINUOUS
 70
     0
  3
Solid line
 72
    65
 73
     0
 40
0.0
  0
LTYPE
  2
HIDDENX2
 70
     0
  3
Hidden (2x) ____ ____ ____ ____ ____ ____ ____ 
 72
    65
 73
     2
 40
19.05
 49
12.7
 49
-6.35
  0
LTYPE
  2
HIDDEN
 70
     0
  3
Hidden __ __ __ __ __ __ __ __ __ __ __ __ __ __
 72
    65
 73
     2
 40
9.524999999999999
 49
6.35
 49
-3.175
  0
LTYPE
  2
HIDDEN2
 70
     0
  3
Hidden (.5x) _ _ _ _ _ _ _ _ _ _ _ _ _ _ _ _ _ 
 72
    65
 73
     2
 40
4.762499999999999
 49
3.175
 49
-1.5875
  0
LTYPE
  2
DASHED
 70
     0
  3
Dashed __ __ __ __ __ __ __ __ __ __ __ __ __ _
 72
    65
 73
     2
 40
19.05
 49
12.7
 49
-6.35
  0
LTYPE
  2
DASHED2
 70
     0
  3
Dashed (.5x) _ _ _ _ _ _ _ _ _ _ _ _ _ _ _ _ _ 
 72
    65
 73
     2
 40
9.524999999999999
 49
6.35
 49
-3.175
  0
LTYPE
  2
DASHEDX2
 70
     0
  3
Dashed (2x) ____  ____  ____  ____  ____  ___
 72
    65
 73
     2
 40
38.09999999999999
 49
25.4
 49
-12.7
  0
LTYPE
  2
DOTX2
 70
     0
  3
Dot (2x) .  .  .  .  .  .  .  .  .  .  .  .  .  .
 72
    65
 73
     2
 40
12.7
 49
0.0
 49
-12.7
  0
LTYPE
  2
DOT
 70
     0
  3
Dot . . . . . . . . . . . . . . . . . . . . . . . .
 72
    65
 73
     2
 40
6.35
 49
0.0
 49
-6.35
  0
LTYPE
  2
DOT2
 70
     0
  3
Dot (.5x) ........................................
 72
    65
 73
     2
 40
3.175
 49
0.0
 49
-3.175
  0
LTYPE
  2
CENTERX2
 70
     0
  3
Center (2x) ________  __  ________  __  _____
 72
    65
 73
     4
 40
101.6
 49
63.5
 49
-12.7
 49
12.7
 49
-12.7
  0
LTYPE
  2
CENTER
 70
     0
  3
Center ____ _ ____ _ ____ _ ____ _ ____ _ ____
 72
    65
 73
     4
 40
50.8
 49
31.75
 49
-6.35
 49
6.35
 49
-6.35
  0
LTYPE
  2
CENTER2
 70
     0
  3
Center (.5x) ___ _ ___ _ ___ _ ___ _ ___ _ ___
 72
    65
 73
     4
 40
28.575
 49
19.05
 49
-3.175
 49
3.175
 49
-3.175
  0
LTYPE
  2
DASHDOTX2
 70
     0
  3
Dash dot (2x) ____  .  ____  .  ____  .  ___
 72
    65
 73
     4
 40
50.8
 49
25.4
 49
-12.7
 49
0.0
 49
-12.7
  0
LTYPE
  2
DASHDOT
 70
     0
  3
Dash dot __ . __ . __ . __ . __ . __ . __ . __
 72
    65
 73
     4
 40
25.4
 49
12.7
 49
-6.35
 49
0.0
 49
-6.35
  0
LTYPE
  2
DASHDOT2
 70
     0
  3
Dash dot (.5x) _._._._._._._._._._._._._._._.
 72
    65
 73
     4
 40
12.7
 49
6.35
 49
-3.175
 49
0.0
 49
-3.175
  0
LTYPE
  2
DIVIDEX2
 70
     0
  3
Divide (2x) ________  .  .  ________  .  .  _
 72
    65
 73
     6
 40
63.5
 49
25.4
 49
-12.7
 49
0.0
 49
-12.7
 49
0.0
 49
-12.7
  0
LTYPE
  2
DIVIDE
 70
     0
  3
Divide ____ . . ____ . . ____ . . ____ . . ____
 72
    65
 73
     6
 40
31.75
 49
12.7
 49
-6.35
 49
0.0
 49
-6.35
 49
0.0
 49
-6.35
  0
LTYPE
  2
DIVIDE2
 70
     0
  3
Divide (.5x) __..__..__..__..__..__..__..__.._
 72
    65
 73
     6
 40
15.875
 49
6.35
 49
-3.175
 49
0.0
 49
-3.175
 49
0.0
 49
-3.175
  0
LTYPE
  2
BORDERX2
 70
     0
  3
Border (2x) ____  ____  .  ____  ____  .  ___
 72
    65
 73
     6
 40
88.89999999999999
 49
25.4
 49
-12.7
 49
25.4
 49
-12.7
 49
0.0
 49
-12.7
  0
LTYPE
  2
BORDER
 70
     0
  3
Border __ __ . __ __ . __ __ . __ __ . __ __ .
 72
    65
 73
     6
 40
44.45
 49
12.7
 49
-6.35
 49
12.7
 49
-6.35
 49
0.0
 49
-6.35
  0
LTYPE
  2
BORDER2
 70
     0
  3
Border (.5x) __.__.__.__.__.__.__.__.__.__.__.
 72
    65
 73
     6
 40
22.225
 49
6.35
 49
-3.175
 49
6.35
 49
-3.175
 49
0.0
 49
-3.175
  0
LTYPE
  2
PHANTOMX2
 70
     0
  3
Phantom (2x) ____________    ____    ____   _
 72
    65
 73
     6
 40
127.0
 49
63.5
 49
-12.7
 49
12.7
 49
-12.7
 49
12.7
 49
-12.7
  0
LTYPE
  2
PHANTOM
 70
     0
  3
Phantom ______  __  __  ______  __  __  ______ 
 72
    65
 73
     6
 40
63.5
 49
31.75
 49
-6.35
 49
6.35
 49
-6.35
 49
6.35
 49
-6.35
  0
LTYPE
  2
PHANTOM2
 70
     0
  3
Phantom (.5x) ___ _ _ ___ _ _ ___ _ _ ___ _ _
 72
    65
 73
     6
 40
31.75
 49
15.875
 49
-3.175
 49
3.175
 49
-3.175
 49
3.175
 49
-3.175
  0
LTYPE
  2
ACAD_ISO06W100
 70
     0
  3
ISO long-dash triple-dot ____ ... ____ ... ____
 72
    65
 73
     8
 40
36.0
 49
24.0
 49
-3.0
 49
0.0
 49
-3.0
 49
0.0
 49
-3.0
 49
0.0
 49
-3.0
  0
LTYPE
  2
ACAD_ISO13W100
 70
     0
  3
ISO double-dash double-dot __ __ . . __ __ . . _
 72
    65
 73
     8
 40
36.0
 49
12.0
 49
-3.0
 49
12.0
 49
-3.0
 49
0.0
 49
-3.0
 49
0.0
 49
-3.0
  0
LTYPE
  2
ACAD_ISO14W100
 70
     0
  3
ISO dash triple-dot __ . . . __ . . . __ . . . _
 72
    65
 73
     8
 40
24.0
 49
12.0
 49
-3.0
 49
0.0
 49
-3.0
 49
0.0
 49
-3.0
 49
0.0
 49
-3.0
  0
LTYPE
  2
ACAD_ISO02W100
 70
     0
  3
ISO dash __ __ __ __ __ __ __ __ __ __ __ __ __
 72
    65
 73
     2
 40
15.0
 49
12.0
 49
-3.0
  0
LTYPE
  2
ACAD_ISO03W100
 70
     0
  3
ISO dash space __    __    __    __    __    __
 72
    65
 73
     2
 40
30.0
 49
12.0
 49
-18.0
  0
LTYPE
  2
ACAD_ISO04W100
 70
     0
  3
ISO long-dash dot ____ . ____ . ____ . ____ . _
 72
    65
 73
     4
 40
30.0
 49
24.0
 49
-3.0
 49
0.0
 49
-3.0
  0
LTYPE
  2
ACAD_ISO05W100
 70
     0
  3
ISO long-dash double-dot ____ .. ____ .. ____ . 
 72
    65
 73
     6
 40
33.0
 49
24.0
 49
-3.0
 49
0.0
 49
-3.0
 49
0.0
 49
-3.0
  0
LTYPE
  2
ACAD_ISO07W100
 70
     0
  3
ISO dot . . . . . . . . . . . . . . . . . . . . 
 72
    65
 73
     2
 40
3.0
 49
0.0
 49
-3.0
  0
LTYPE
  2
ACAD_ISO08W100
 70
     0
  3
ISO long-dash short-dash ____ __ ____ __ ____ _
 72
    65
 73
     4
 40
36.0
 49
24.0
 49
-3.0
 49
6.0
 49
-3.0
  0
LTYPE
  2
ACAD_ISO09W100
 70
     0
  3
ISO long-dash double-short-dash ____ __ __ ____
 72
    65
 73
     6
 40
45.0
 49
24.0
 49
-3.0
 49
6.0
 49
-3.0
 49
6.0
 49
-3.0
  0
LTYPE
  2
ACAD_ISO10W100
 70
     0
  3
ISO dash dot __ . __ . __ . __ . __ . __ . __ . 
 72
    65
 73
     4
 40
18.0
 49
12.0
 49
-3.0
 49
0.0
 49
-3.0
  0
LTYPE
  2
ACAD_ISO11W100
 70
     0
  3
ISO double-dash dot __ __ . __ __ . __ __ . __ _
 72
    65
 73
     6
 40
33.0
 49
12.0
 49
-3.0
 49
12.0
 49
-3.0
 49
0.0
 49
-3.0
  0
LTYPE
  2
ACAD_ISO12W100
 70
     0
  3
ISO dash double-dot __ . . __ . . __ . . __ . . 
 72
    65
 73
     6
 40
21.0
 49
12.0
 49
-3.0
 49
0.0
 49
-3.0
 49
0.0
 49
-3.0
  0
LTYPE
  2
ACAD_ISO15W100
 70
     0
  3
ISO double-dash triple-dot __ __ . . . __ __ . .
 72
    65
 73
    10
 40
39.0
 49
12.0
 49
-3.0
 49
12.0
 49
-3.0
 49
0.0
 49
-3.0
 49
0.0
 49
-3.0
 49
0.0
 49
-3.0
  0
LTYPE
  2
JIS_02_0_7
 70
     0
  3
HIDDEN0.75 _ _ _ _ _ _ _ _ _ _ _ _ _ _ _ _ _ 
 72
    65
 73
     2
 40
1.35
 49
0.75
 49
-0.6
  0
LTYPE
  2
JIS_02_1_0
 70
     0
  3
HIDDEN01 _ _ _ _ _ _ _ _ _ _ _ _ _ _ _ _ _ 
 72
    65
 73
     2
 40
2.0
 49
1.0
 49
-1.0
  0
LTYPE
  2
JIS_02_1_2
 70
     0
  3
HIDDEN01.25  _ _ _ _ _ _ _ _ _ _ _ _ _ _ _ _ _ 
 72
    65
 73
     2
 40
2.5
 49
1.25
 49
-1.25
  0
LTYPE
  2
JIS_02_2_0
 70
     0
  3
HIDDEN02 __ __ __ __ __ __ __ __ __ __ __ 
 72
    65
 73
     2
 40
3.0
 49
2.0
 49
-1.0
  0
LTYPE
  2
JIS_02_4_0
 70
     0
  3
HIDDEN04 ____ ____ ____ ____ ____ ____ ____ 
 72
    65
 73
     2
 40
5.5
 49
4.0
 49
-1.5
  0
LTYPE
  2
JIS_08_11
 70
     0
  3
1SASEN11 ___ _ ___ _ ___ _ ___ _ ___ _ ___
 72
    65
 73
     4
 40
12.8
 49
11.0
 49
-0.6
 49
0.6
 49
-0.6
  0
LTYPE
  2
JIS_08_15
 70
     0
  3
1SASEN15 ____ _ ____ _ ____ _ ____ _ ____ 
 72
    65
 73
     4
 40
17.25
 49
15.0
 49
-0.75
 49
0.75
 49
-0.75
  0
LTYPE
  2
JIS_08_25
 70
     0
  3
1SASEN25 ________  __  ________  __  _____
 72
    65
 73
     4
 40
28.0
 49
25.0
 49
-1.125
 49
0.75
 49
-1.125
  0
LTYPE
  2
JIS_08_37
 70
     0
  3
1SASEN37 ________  __  ________  __  _____
 72
    65
 73
     4
 40
40.5
 49
37.5
 49
-1.125
 49
0.75
 49
-1.125
  0
LTYPE
  2
JIS_08_50
 70
     0
  3
1SASEN50 _______________  __  ____________
 72
    65
 73
     4
 40
53.0
 49
50.0
 49
-1.125
 49
0.75
 49
-1.125
  0
LTYPE
  2
JIS_09_08
 70
     0
  3
2SASEN8 __ _ _ __ _ _ __ _ _ __ _ _ __ _ _ 
 72
    65
 73
     6
 40
10.75
 49
8.0
 49
-0.55
 49
0.55
 49
-0.55
 49
0.55
 49
-0.55
  0
LTYPE
  2
JIS_09_15
 70
     0
  3
2SASEN15 ___ _ _ ___ _ _ ___ _ _ ___ _ _ ___ 
 72
    65
 73
     6
 40
18.9
 49
15.0
 49
-0.9
 49
0.6
 49
-0.9
 49
0.6
 49
-0.9
  0
LTYPE
  2
JIS_09_29
 70
     0
  3
2SASEN29 ______　__  __  ______　__  __  ___
 72
    65
 73
     6
 40
34.0
 49
29.0
 49
-1.2
 49
0.7
 49
-1.2
 49
0.7
 49
-1.2
  0
LTYPE
  2
JIS_09_50
 70
     0
  3
2SASEN50 ____________　__  __  _____________
 72
    65
 73
     6
 40
55.0
 49
50.0
 49
-1.2
 49
0.7
 49
-1.2
 49
0.7
 49
-1.2
  0
LTYPE
  2
SXF_破線
 70
     0
  3
02 dashed -- -- -- -- -- --
 72
    65
 73
     2
 40
7.5
 49
6.0
 49
-1.5
  0
LTYPE
  2
SXF_跳び破線
 70
     0
  3
03 dashed_spaced --  --  --  --
 72
    65
 73
     2
 40
12.0
 49
6.0
 49
-6.0
  0
LTYPE
  2
SXF_一点長鎖線
 70
     0
  3
04 long_dashed_dotted ---- . ---- . ----
 72
    65
 73
     4
 40
15.25
 49
12.0
 49
-1.5
 49
0.25
 49
-1.5
  0
LTYPE
  2
SXF_二点長鎖線
 70
     0
  3
05 long_dashed_double-dotted ---- . . ---- 
 72
    65
 73
     6
 40
17.0
 49
12.0
 49
-1.5
 49
0.25
 49
-1.5
 49
0.25
 49
-1.5
  0
LTYPE
  2
SXF_三点長鎖線
 70
     0
  3
06 long_dashed_triplicate-dotted ---- ... ---- 
 72
    65
 73
     8
 40
18.75
 49
12.0
 49
-1.5
 49
0.25
 49
-1.5
 49
0.25
 49
-1.5
 49
0.25
 49
-1.5
  0
LTYPE
  2
SXF_点線
 70
     0
  3
07 dotted . . . . . . . . . . . . 
 72
    65
 73
     2
 40
1.75
 49
0.25
 49
-1.5
  0
LTYPE
  2
SXF_一点鎖線
 70
     0
  3
08 chain ---- - --- - --- - ---
 72
    65
 73
     4
 40
18.5
 49
12.0
 49
-1.5
 49
3.5
 49
-1.5
  0
LTYPE
  2
SXF_二点鎖線
 70
     0
  3
09 chain_double_dash ---- - - ---- - - ----
 72
    65
 73
     6
 40
23.5
 49
12.0
 49
-1.5
 49
3.5
 49
-1.5
 49
3.5
 49
-1.5
  0
LTYPE
  2
SXF_一点短鎖線
 70
     0
  3
10 dashed_dotted -- . -- . -- . --
 72
    65
 73
     4
 40
9.25
 49
6.0
 49
-1.5
 49
0.25
 49
-1.5
  0
LTYPE
  2
SXF_一点二短鎖線
 70
     0
  3
11 double-dashed_dotted -- -- . -- --
 72
    65
 73
     6
 40
16.75
 49
6.0
 49
-1.5
 49
6.0
 49
-1.5
 49
0.25
 49
-1.5
  0
LTYPE
  2
SXF_二点短鎖線
 70
     0
  3
12 dashed_double_dotted -- . . -- . . --
 72
    65
 73
     6
 40
11.0
 49
6.0
 49
-1.5
 49
0.25
 49
-1.5
 49
0.25
 49
-1.5
  0
LTYPE
  2
SXF_二点二短鎖線
 70
     0
  3
13 double-dashed_double-dotted -- -- . . -- --
 72
    65
 73
     8
 40
18.5
 49
6.0
 49
-1.5
 49
6.0
 49
-1.5
 49
0.25
 49
-1.5
 49
0.25
 49
-1.5
  0
LTYPE
  2
SXF_三点短鎖線
 70
     0
  3
14 dashed triplicate-dotted -- . . . -- . . . --
 72
    65
 73
     8
 40
12.75
 49
6.0
 49
-1.5
 49
0.25
 49
-1.5
 49
0.25
 49
-1.5
 49
0.25
 49
-1.5
  0
LTYPE
  2
SXF_三点二短鎖線
 70
     0
  3
15 double-dashed triplicate-dotted -- -- . . . -- -- 
 72
    65
 73
    10
 40
20.25
 49
6.0
 49
-1.5
 49
6.0
 49
-1.5
 49
0.25
 49
-1.5
 49
0.25
 49
-1.5
 49
0.25
 49
-1.5
  0
ENDTAB
  0
TABLE
  2
LAYER
 70
     3
  0
LAYER
  2
0
 70
     0
 62
     7
  6
CONTINUOUS
  0
LAYER
  2
LAYER0014
 70
     0
 62
     7
  6
CONTINUOUS
  0
LAYER
  2
ZUWAKU
 70
     0
 62
     7
  6
CONTINUOUS
  0
ENDTAB
  0
TABLE
  2
STYLE
 70
     5
  0
STYLE
  2
STANDARD
 70
     0
 40
0.0
 41
1.0
 50
0.0
 71
     0
 42
0.2
  3
txt.shx
  4
bigfont.shx
  0
STYLE
  2
DCSTYLE0
 70
     0
 40
0.0
 41
0.7887323943661972
 50
0.0
 71
     0
 42
0.2
  3
txt.shx
  4
bigfont
  0
STYLE
  2
DCSTYLE1
 70
     4
 40
0.0
 41
0.8
 50
0.0
 71
     0
 42
0.2
  3
txt.shx
  4
bigfont
  0
STYLE
  2
DCSTYLE2
 70
     0
 40
0.0
 41
0.8123476848090982
 50
0.0
 71
     0
 42
0.2
  3
ＭＳ 明朝
  4

  0
STYLE
  2
DCSTYLE3
 70
     0
 40
0.0
 41
0.77
 50
0.0
 71
     0
 42
0.2
  3
ＭＳ ゴシック
  4

  0
ENDTAB
  0
TABLE
  2
VIEW
 70
     0
  0
ENDTAB
  0
TABLE
  2
UCS
 70
     0
  0
ENDTAB
  0
TABLE
  2
APPID
 70
     2
  0
APPID
  2
ACAD
 70
     0
  0
APPID
  2
DAFUSIONOUT
 70
     0
  0
ENDTAB
  0
TABLE
  2
DIMSTYLE
 70
     1
  0
DIMSTYLE
  2
STANDARD
 70
     0
  3

  4

  5

  6

  7

 40
1.0
 41
0.18
 42
0.0625
 43
0.38
 44
0.18
 45
0.0
 46
0.0
 47
0.0
 48
0.0
140
0.18
141
0.09
142
0.0
143
25.4
144
1.0
145
0.0
146
1.0
147
0.09
 71
     0
 72
     0
 73
     1
 74
     1
 75
     0
 76
     0
 77
     0
 78
     0
170
     0
171
     2
172
     0
173
     0
174
     0
175
     0
176
     0
177
     0
178
     0
  0
ENDTAB
  0
ENDSEC
  0
SECTION
  2
BLOCKS
  0
BLOCK
  8
0
  2
$MODEL_SPACE
 70
     0
 10
0.0
 20
0.0
 30
0.0
  3
$MODEL_SPACE
  1

  0
ENDBLK
  5
21
  8
0
  0
BLOCK
 67
     1
  8
0
  2
$PAPER_SPACE
 70
     0
 10
0.0
 20
0.0
 30
0.0
  3
$PAPER_SPACE
  1

  0
ENDBLK
  5
1D
 67
     1
  8
0
  0
BLOCK
  8
0
  2
DC_GROUP_1
 70
     0
 10
0.0
 20
0.0
 30
0.0
  3
DC_GROUP_1
  1

  0
LINE
  5
11C
  8
0
  6
CONTINUOUS
 62
     7
 10
-54.43450847532179
 20
127.1023097449265
 30
0.0
 11
-33.43450872822021
 21
153.4356332968546
 31
0.0
  0
INSERT
  5
123
  8
0
 62
     7
  2
_OPEN30
 10
-54.43450847532179
 20
127.1023097449265
 30
0.0
 41
2.499995396844351
 42
2.500007167085477
 50
231.4287377108501
  0
LINE
  5
124
  8
0
  6
CONTINUOUS
 62
     7
 10
-33.4345057966282
 20
153.4356273228427
 30
0.0
 11
14.19406189898947
 21
153.4356273228427
 31
0.0
  0
TEXT
  5
126
  8
0
 62
     7
 10
-32.43450961132547
 20
155.0356273228427
 30
0.0
 40
4.0
  1
ｾﾚｰｼｮﾝP1.5山60ﾟ
 41
0.9333333333333335
  7
DCSTYLE0
 72
     5
 11
12.36549038867454
 21
155.0356273228427
 31
0.0
  0
ENDBLK
  5
B2
  8
0
  0
BLOCK
  8
0
  2
DA_IMAGEDIMGROUP_1
 70
     0
 10
0.0
 20
0.0
 30
0.0
  3
DA_IMAGEDIMGROUP_1
  1

  0
LINE
  5
127
  8
LAYER0014
  6
CONTINUOUS
 62
     7
 10
-166.6003030683567
 20
65.17967639510837
 30
0.0
 11
-204.7756656171848
 21
65.17967639510837
 31
0.0
  0
LINE
  5
128
  8
LAYER0014
  6
CONTINUOUS
 62
     7
 10
-166.4455179121067
 20
23.17967734878269
 30
0.0
 11
-204.7756656171848
 21
23.17967734878269
 31
0.0
  0
LINE
  5
129
  8
LAYER0014
  6
CONTINUOUS
 62
     7
 10
-202.4896701337864
 20
65.17967639510837
 30
0.0
 11
-202.4896701337864
 21
23.17967734878269
 31
0.0
  0
INSERT
  5
12A
  8
LAYER0014
 62
     7
  2
_OPEN30
 10
-202.4896701337864
 20
65.17967639510837
 30
0.0
 41
2.499995396844351
 42
2.500007167085477
 50
90.0
  0
INSERT
  5
12B
  8
LAYER0014
 62
     7
  2
_OPEN30
 10
-202.4896701337864
 20
23.17967734878269
 30
0.0
 41
2.499995396844351
 42
2.500007167085477
 50
270.0
  0
TEXT
  5
12C
  8
LAYER0014
 62
     7
 10
-202.9980477099427
 20
39.37968418276174
 30
0.0
 40
4.0
  1
φ42
 50
89.90000000000008
 41
0.9163636363636385
  7
DCSTYLE0
 72
     5
 11
-202.9812925576301
 21
48.97966956112933
 31
0.0
  0
ENDBLK
  5
B5
  8
0
  0
BLOCK
  8
0
  2
DA_IMAGEDIMGROUP_2
 70
     0
 10
0.0
 20
0.0
 30
0.0
  3
DA_IMAGEDIMGROUP_2
  1

  0
LINE
  5
12D
  8
LAYER0014
  6
CONTINUOUS
 62
     7
 10
-150.8455118085911
 20
83.17967639510837
 30
0.0
 11
-215.5516665937473
 21
83.17967639510837
 31
0.0
  0
LINE
  5
12E
  8
LAYER0014
  6
CONTINUOUS
 62
     7
 10
-150.8455118085911
 20
5.179677587201269
 30
0.0
 11
-215.5516665937473
 21
5.179677587201269
 31
0.0
  0
LINE
  5
12F
  8
LAYER0014
  6
CONTINUOUS
 62
     7
 10
-213.2656711103489
 20
83.17967639510837
 30
0.0
 11
-213.2656711103489
 21
5.179677587201269
 31
0.0
  0
INSERT
  5
130
  8
LAYER0014
 62
     7
  2
_OPEN30
 10
-213.2656711103489
 20
83.17967639510837
 30
0.0
 41
2.499995396844351
 42
2.500007167085477
 50
90.0
  0
INSERT
  5
131
  8
LAYER0014
 62
     7
  2
_OPEN30
 10
-213.2656711103489
 20
5.179677587201269
 30
0.0
 41
2.499995396844351
 42
2.500007167085477
 50
270.0
  0
TEXT
  5
132
  8
LAYER0014
 62
     7
 10
-213.7796337372761
 20
36.17968917584852
 30
0.0
 40
4.0
  1
φ78H7
 50
89.90000000000005
 41
0.8659793814432986
  7
DCSTYLE0
 72
     5
 11
-213.7517084834217
 21
52.17966480646112
 31
0.0
  0
ENDBLK
  5
B8
  8
0
  0
BLOCK
  8
0
  2
DA_IMAGEDIMGROUP_3
 70
     0
 10
0.0
 20
0.0
 30
0.0
  3
DA_IMAGEDIMGROUP_3
  1

  0
LINE
  5
133
  8
LAYER0014
  6
CONTINUOUS
 62
     7
 10
-154.8455118085911
 20
114.1796763951084
 30
0.0
 11
-226.7125400068333
 21
114.1796763951084
 31
0.0
  0
LINE
  5
134
  8
LAYER0014
  6
CONTINUOUS
 62
     7
 10
-154.8455118085911
 20
-25.82032360489163
 30
0.0
 11
-226.7125400068333
 21
-25.82032360489163
 31
0.0
  0
LINE
  5
135
  8
LAYER0014
  6
CONTINUOUS
 62
     7
 10
-224.4265445234348
 20
114.1796763951084
 30
0.0
 11
-224.4265445234348
 21
-25.82032360489163
 31
0.0
  0
INSERT
  5
136
  8
LAYER0014
 62
     7
  2
_OPEN30
 10
-224.4265445234348
 20
114.1796763951084
 30
0.0
 41
2.499995396844351
 42
2.500007167085477
 50
90.0
  0
INSERT
  5
137
  8
LAYER0014
 62
     7
  2
_OPEN30
 10
-224.4265445234348
 20
-25.82032360489163
 30
0.0
 41
2.499995396844351
 42
2.500007167085477
 50
270.0
  0
TEXT
  5
138
  8
LAYER0014
 62
     7
 10
-224.9432996757475
 20
34.57969101674082
 30
0.0
 40
4.0
  1
φ140H7
 50
89.89999999999999
 41
0.8615384615384609
  7
DCSTYLE0
 72
     5
 11
-224.9097893711222
 21
53.77966177347593
 31
0.0
  0
ENDBLK
  5
BB
  8
0
  0
BLOCK
  8
0
  2
DA_IMAGEDIMGROUP_4
 70
     0
 10
0.0
 20
0.0
 30
0.0
  3
DA_IMAGEDIMGROUP_4
  1

  0
LINE
  5
139
  8
LAYER0014
  6
CONTINUOUS
 62
     7
 10
-154.8455118085911
 20
129.1796763951084
 30
0.0
 11
-237.4885409833958
 21
129.1796763951084
 31
0.0
  0
LINE
  5
13A
  8
LAYER0014
  6
CONTINUOUS
 62
     7
 10
-154.8455118085911
 20
-40.82032360489163
 30
0.0
 11
-237.4885409833958
 21
-40.82032360489163
 31
0.0
  0
LINE
  5
13B
  8
LAYER0014
  6
CONTINUOUS
 62
     7
 10
-235.2025454999973
 20
129.1796763951084
 30
0.0
 11
-235.2025454999973
 21
-40.82032360489163
 31
0.0
  0
INSERT
  5
13C
  8
LAYER0014
 62
     7
  2
_OPEN30
 10
-235.2025454999973
 20
129.1796763951084
 30
0.0
 41
2.499995396844351
 42
2.500007167085477
 50
90.0
  0
INSERT
  5
13D
  8
LAYER0014
 62
     7
  2
_OPEN30
 10
-235.2025454999973
 20
-40.82032360489163
 30
0.0
 41
2.499995396844351
 42
2.500007167085477
 50
270.0
  0
TEXT
  5
13E
  8
LAYER0014
 62
     7
 10
-235.7137156015391
 20
37.77968614286333
 30
0.0
 40
4.0
  1
φ170
 50
89.89999999999999
 41
0.8960000000000007
  7
DCSTYLE0
 72
     5
 11
-235.6913753984556
 21
50.57966664735342
 31
0.0
  0
ENDBLK
  5
BE
  8
0
  0
BLOCK
  8
0
  2
DA_IMAGEDIMGROUP_5
 70
     0
 10
0.0
 20
0.0
 30
0.0
  3
DA_IMAGEDIMGROUP_5
  1

  0
LINE
  5
13F
  8
LAYER0014
  6
CONTINUOUS
 62
     7
 10
-50.76552706738016
 20
1.17967734878269
 30
0.0
 11
-9.686656332211697
 21
1.17967734878269
 31
0.0
  0
LINE
  5
140
  8
LAYER0014
  6
CONTINUOUS
 62
     7
 10
-11.9726556303074
 20
1.17967734878269
 30
0.0
 11
-11.9726556303074
 21
62.41015658920017
 31
0.0
  0
INSERT
  5
141
  8
LAYER0014
 62
     7
  2
_OPEN30
 10
-11.9726556303074
 20
1.17967734878269
 30
0.0
 41
2.499995396844351
 42
2.500007167085477
 50
270.0
  0
TEXT
  5
142
  8
LAYER0014
 62
     7
 10
-13.5726556303074
 20
36.70671492164341
 30
0.0
 40
4.0
  1
φ86
 50
90.0
 41
0.9163636363636359
  7
DCSTYLE0
 72
     5
 11
-13.5726556303074
 21
46.3067149216434
 31
0.0
  0
TEXT
  5
143
  8
LAYER0014
 62
     7
 10
-16.0726556303074
 20
46.8067149216434
 30
0.0
 40
2.6
  1
+0.1
 50
90.0
 41
1.002985074626866
  7
DCSTYLE0
 72
     5
 11
-16.0726556303074
 21
55.1267149216434
 31
0.0
  0
TEXT
  5
144
  8
LAYER0014
 62
     7
 10
-13.3726556303074
 20
46.8067149216434
 30
0.0
 40
2.6
  1
　0
 50
90.0
 41
0.9599999999999991
  7
DCSTYLE0
 72
     5
 11
-13.3726556303074
 21
50.9667149216434
 31
0.0
  0
ENDBLK
  5
C1
  8
0
  0
BLOCK
  8
0
  2
DA_IMAGEDIMGROUP_6
 70
     0
 10
0.0
 20
0.0
 30
0.0
  3
DA_IMAGEDIMGROUP_6
  1

  0
LINE
  5
145
  8
LAYER0014
  6
CONTINUOUS
 62
     7
 10
-9.432655630307401
 20
44.17967639510837
 30
0.0
 11
1.089360260767734
 21
44.17967639510837
 31
0.0
  0
LINE
  5
146
  8
LAYER0014
  6
CONTINUOUS
 62
     7
 10
-51.76552706738016
 20
84.17967639510837
 30
0.0
 11
1.089360260767734
 21
84.17967639510837
 31
0.0
  0
LINE
  5
147
  8
LAYER0014
  6
CONTINUOUS
 62
     7
 10
-1.19663891811868
 20
44.17967639510837
 30
0.0
 11
-1.19663891811868
 21
84.17967639510837
 31
0.0
  0
INSERT
  5
148
  8
LAYER0014
 62
     7
  2
_OPEN30
 10
-1.19663891811868
 20
44.17967639510837
 30
0.0
 41
2.499995396844351
 42
2.500007167085477
 50
270.0
  0
INSERT
  5
149
  8
LAYER0014
 62
     7
  2
_OPEN30
 10
-1.19663891811868
 20
84.17967639510837
 30
0.0
 41
2.499995396844351
 42
2.500007167085477
 50
90.0
  0
TEXT
  5
14A
  8
LAYER0014
 62
     7
 10
-1.702223968889554
 20
60.97968126898586
 30
0.0
 40
4.0
  1
40
 50
89.9
 41
0.9081081081081068
  7
DCSTYLE0
 72
     5
 11
-1.691053867347805
 21
67.37967152123089
 31
0.0
  0
ENDBLK
  5
C4
  8
0
  0
BLOCK
  8
0
  2
DA_IMAGEDIMGROUP_7
 70
     0
 10
0.0
 20
0.0
 30
0.0
  3
DA_IMAGEDIMGROUP_7
  1

  0
LINE
  5
14B
  8
LAYER0014
  6
CONTINUOUS
 62
     7
 10
-51.76552706738016
 20
129.1796763951084
 30
0.0
 11
1.089360260767734
 21
129.1796763951084
 31
0.0
  0
LINE
  5
14C
  8
LAYER0014
  6
CONTINUOUS
 62
     7
 10
-1.19663891811868
 20
84.17967639510837
 30
0.0
 11
-1.19663891811868
 21
129.1796763951084
 31
0.0
  0
INSERT
  5
14D
  8
LAYER0014
 62
     7
  2
_OPEN30
 10
-1.19663891811868
 20
84.17967639510837
 30
0.0
 41
2.499995396844351
 42
2.500007167085477
 50
270.0
  0
INSERT
  5
14E
  8
LAYER0014
 62
     7
  2
_OPEN30
 10
-1.19663891811868
 20
129.1796763951084
 30
0.0
 41
2.499995396844351
 42
2.500007167085477
 50
90.0
  0
TEXT
  5
14F
  8
LAYER0014
 62
     7
 10
-1.702223968889554
 20
103.4796812689858
 30
0.0
 40
4.0
  1
45
 50
89.9
 41
0.9081081081081088
  7
DCSTYLE0
 72
     5
 11
-1.691053867347805
 21
109.8796715212309
 31
0.0
  0
ENDBLK
  5
C7
  8
0
  0
BLOCK
  8
0
  2
DA_IMAGEDIMGROUP_8
 70
     0
 10
0.0
 20
0.0
 30
0.0
  3
DA_IMAGEDIMGROUP_8
  1

  0
LINE
  5
150
  8
LAYER0014
  6
CONTINUOUS
 62
     7
 10
-164.3055118085911
 20
-15.7453200190762
 30
0.0
 11
-164.3055118085911
 21
-23.5744320338467
 31
0.0
  0
LINE
  5
151
  8
LAYER0014
  6
CONTINUOUS
 62
     7
 10
-164.3055118085911
 20
-21.28843082840237
 30
0.0
 11
-148.3055118085911
 21
-21.28843082840237
 31
0.0
  0
INSERT
  5
152
  8
LAYER0014
 62
     7
  2
_OPEN30
 10
-164.3055118085911
 20
-21.28843082840237
 30
0.0
 41
2.499995396844351
 42
2.500007167085477
 50
180.0
  0
INSERT
  5
153
  8
LAYER0014
 62
     7
  2
_OPEN30
 10
-148.3055118085911
 20
-21.28843082840237
 30
0.0
 41
2.499995396844351
 42
2.500007167085477
 50
360.0
  0
TEXT
  5
154
  8
LAYER0014
 62
     7
 10
-159.5055069347136
 20
-20.78284577763149
 30
0.0
 40
4.0
  1
16
 50
359.8999999999998
 41
0.9081081081081027
  7
DCSTYLE0
 72
     5
 11
-153.1055166824686
 21
-20.79401587917324
 31
0.0
  0
ENDBLK
  5
CA
  8
0
  0
BLOCK
  8
0
  2
DA_IMAGEDIMGROUP_9
 70
     0
 10
0.0
 20
0.0
 30
0.0
  3
DA_IMAGEDIMGROUP_9
  1

  0
LINE
  5
155
  8
LAYER0014
  6
CONTINUOUS
 62
     7
 10
-166.8455118085911
 20
-3.205320972750513
 30
0.0
 11
-181.347717619138
 21
-3.205320972750513
 31
0.0
  0
LINE
  5
156
  8
LAYER0014
  6
CONTINUOUS
 62
     7
 10
-166.8455118085911
 20
-13.2053200190762
 30
0.0
 11
-181.347717619138
 21
-13.2053200190762
 31
0.0
  0
LINE
  5
157
  8
LAYER0014
  6
CONTINUOUS
 62
     7
 10
-179.0617221357395
 20
-3.205320972750513
 30
0.0
 11
-179.0617221357395
 21
-13.2053200190762
 31
0.0
  0
LINE
  5
158
  8
LAYER0014
  6
CONTINUOUS
 62
     7
 10
-179.0617221357395
 20
-26.73717001907622
 30
0.0
 11
-179.0617221357395
 21
-13.2053200190762
 31
0.0
  0
INSERT
  5
159
  8
LAYER0014
 62
     7
  2
_OPEN30
 10
-179.0617221357395
 20
-13.2053200190762
 30
0.0
 41
2.499995396844351
 42
2.500007167085477
 50
90.0
  0
LINE
  5
15A
  8
LAYER0014
  6
CONTINUOUS
 62
     7
 10
-179.0617221357395
 20
1.794679027249487
 30
0.0
 11
-179.0617221357395
 21
-3.205320972750513
 31
0.0
  0
INSERT
  5
15B
  8
LAYER0014
 62
     7
  2
_OPEN30
 10
-179.0617221357395
 20
-3.205320972750513
 30
0.0
 41
2.499995396844351
 42
2.500007167085477
 50
270.0
  0
TEXT
  5
15C
  8
LAYER0014
 62
     7
 10
-179.5784772880521
 20
-25.73715539744375
 30
0.0
 40
4.0
  1
M10
 50
89.90000000000008
 41
0.8262295081967205
  7
DCSTYLE0
 72
     5
 11
-179.5617221357395
 21
-16.1371700190762
 31
0.0
  0
ENDBLK
  5
CD
  8
0
  0
BLOCK
  8
0
  2
DA_IMAGEDIMGROUP_10
 70
     0
 10
0.0
 20
0.0
 30
0.0
  3
DA_IMAGEDIMGROUP_10
  1

  0
LINE
  5
15D
  8
LAYER0014
  6
CONTINUOUS
 62
     7
 10
-148.3055118085911
 20
89.49209247176853
 30
0.0
 11
-163.9055179121067
 21
89.49209247176853
 31
0.0
  0
INSERT
  5
15E
  8
LAYER0014
 62
     7
  2
_OPEN30
 10
-148.3055118085911
 20
89.49209247176853
 30
0.0
 41
2.499995396844351
 42
2.500007167085477
 50
360.0
  0
INSERT
  5
15F
  8
LAYER0014
 62
     7
  2
_OPEN30
 10
-163.9055179121067
 20
89.49209247176853
 30
0.0
 41
2.499995396844351
 42
2.500007167085477
 50
180.0
  0
LINE
  5
160
  8
LAYER0014
  6
CONTINUOUS
 62
     7
 10
-125.7101712482219
 20
89.49209247176853
 30
0.0
 11
-148.3055118085911
 21
89.49209247176853
 31
0.0
  0
TEXT
  5
161
  8
LAYER0014
 62
     7
 10
-139.510171248222
 20
89.99209247176853
 30
0.0
 40
4.0
  1
15.6
 41
1.002985074626865
  7
DCSTYLE0
 72
     5
 11
-126.710171248222
 21
89.99209247176853
 31
0.0
  0
ENDBLK
  5
D0
  8
0
  0
BLOCK
  8
0
  2
DA_IMAGEDIMGROUP_11
 70
     0
 10
0.0
 20
0.0
 30
0.0
  3
DA_IMAGEDIMGROUP_11
  1

  0
LINE
  5
162
  8
LAYER0014
  6
CONTINUOUS
 62
     7
 10
-140.9055179121067
 20
84.71967639510838
 30
0.0
 11
-140.9055179121067
 21
107.3381389195224
 31
0.0
  0
LINE
  5
163
  8
LAYER0014
  6
CONTINUOUS
 62
     7
 10
-163.9055179121067
 20
66.21967639510837
 30
0.0
 11
-163.9055179121067
 21
107.3381389195224
 31
0.0
  0
LINE
  5
164
  8
LAYER0014
  6
CONTINUOUS
 62
     7
 10
-140.9055179121067
 20
105.0521358067295
 30
0.0
 11
-163.9055179121067
 21
105.0521358067295
 31
0.0
  0
INSERT
  5
165
  8
LAYER0014
 62
     7
  2
_OPEN30
 10
-140.9055179121067
 20
105.0521358067295
 30
0.0
 41
2.499995396844351
 42
2.500007167085477
 50
360.0
  0
INSERT
  5
166
  8
LAYER0014
 62
     7
  2
_OPEN30
 10
-163.9055179121067
 20
105.0521358067295
 30
0.0
 41
2.499995396844351
 42
2.500007167085477
 50
180.0
  0
TEXT
  5
167
  8
LAYER0014
 62
     7
 10
-155.6055179121067
 20
105.5521358067295
 30
0.0
 40
4.0
  1
23
 41
0.9081081081081049
  7
DCSTYLE0
 72
     5
 11
-149.2055179121067
 21
105.5521358067295
 31
0.0
  0
ENDBLK
  5
D3
  8
0
  0
BLOCK
  8
0
  2
DA_IMAGEDIMGROUP_12
 70
     0
 10
0.0
 20
0.0
 30
0.0
  3
DA_IMAGEDIMGROUP_12
  1

  0
LINE
  5
168
  8
LAYER0014
  6
CONTINUOUS
 62
     7
 10
-143.9055179121067
 20
64.21967639510837
 30
0.0
 11
-143.9055179121067
 21
99.2550014073154
 31
0.0
  0
LINE
  5
169
  8
LAYER0014
  6
CONTINUOUS
 62
     7
 10
-143.9055179121067
 20
96.96899829452244
 30
0.0
 11
-163.9055179121067
 21
96.96899829452244
 31
0.0
  0
INSERT
  5
16A
  8
LAYER0014
 62
     7
  2
_OPEN30
 10
-143.9055179121067
 20
96.96899829452244
 30
0.0
 41
2.499995396844351
 42
2.500007167085477
 50
360.0
  0
INSERT
  5
16B
  8
LAYER0014
 62
     7
  2
_OPEN30
 10
-163.9055179121067
 20
96.96899829452244
 30
0.0
 41
2.499995396844351
 42
2.500007167085477
 50
180.0
  0
TEXT
  5
16C
  8
LAYER0014
 62
     7
 10
-155.1697491316447
 20
97.46899829452244
 30
0.0
 40
4.0
  1
20
 41
0.9081081081081049
  7
DCSTYLE0
 72
     5
 11
-148.7697491316447
 21
97.46899829452244
 31
0.0
  0
ENDBLK
  5
D6
  8
0
  0
BLOCK
  8
0
  2
DA_IMAGEDIMGROUP_13
 70
     0
 10
0.0
 20
0.0
 30
0.0
  3
DA_IMAGEDIMGROUP_13
  1

  0
LINE
  5
16D
  8
LAYER0014
  6
CONTINUOUS
 62
     7
 10
-156.5055240156223
 20
67.58058490340915
 30
0.0
 11
-156.5055240156223
 21
168.6660808140537
 31
0.0
  0
LINE
  5
16E
  8
LAYER0014
  6
CONTINUOUS
 62
     7
 10
-176.5055240156223
 20
67.58058490340915
 30
0.0
 11
-176.5055240156223
 21
168.6660808140537
 31
0.0
  0
LINE
  5
16F
  8
LAYER0014
  6
CONTINUOUS
 62
     7
 10
-156.5055240156223
 20
166.3800853306552
 30
0.0
 11
-176.5055240156223
 21
166.3800853306552
 31
0.0
  0
LINE
  5
170
  8
LAYER0014
  6
CONTINUOUS
 62
     7
 10
-202.8373740156223
 20
166.3800853306552
 30
0.0
 11
-176.5055240156223
 21
166.3800853306552
 31
0.0
  0
INSERT
  5
171
  8
LAYER0014
 62
     7
  2
_OPEN30
 10
-176.5055240156223
 20
166.3800853306552
 30
0.0
 41
2.499995396844351
 42
2.500007167085477
 50
360.0
  0
LINE
  5
172
  8
LAYER0014
  6
CONTINUOUS
 62
     7
 10
-151.5055240156223
 20
166.3800853306552
 30
0.0
 11
-156.5055240156223
 21
166.3800853306552
 31
0.0
  0
INSERT
  5
173
  8
LAYER0014
 62
     7
  2
_OPEN30
 10
-156.5055240156223
 20
166.3800853306552
 30
0.0
 41
2.499995396844351
 42
2.500007167085477
 50
180.0
  0
TEXT
  5
174
  8
LAYER0014
 62
     7
 10
-201.8373740156223
 20
166.8800853306552
 30
0.0
 40
4.0
  1
ｽﾄﾛｰｸ20
 41
0.9259842519685042
  7
DCSTYLE0
 72
     5
 11
-179.4373740156223
 21
166.8800853306552
 31
0.0
  0
ENDBLK
  5
D9
  8
0
  0
BLOCK
  8
0
  2
DA_IMAGEDIMGROUP_14
 70
     0
 10
0.0
 20
0.0
 30
0.0
  3
DA_IMAGEDIMGROUP_14
  1

  0
LINE
  5
175
  8
LAYER0014
  6
CONTINUOUS
 62
     7
 10
-148.3055118085911
 20
116.6856721836826
 30
0.0
 11
-148.3055118085911
 21
156.5413707310459
 31
0.0
  0
LINE
  5
176
  8
LAYER0014
  6
CONTINUOUS
 62
     7
 10
-176.5055240156223
 20
154.2553752476474
 30
0.0
 11
-148.3055118085911
 21
154.2553752476474
 31
0.0
  0
LINE
  5
177
  8
LAYER0014
  6
CONTINUOUS
 62
     7
 10
-202.8373740156223
 20
154.2553752476474
 30
0.0
 11
-176.5055240156223
 21
154.2553752476474
 31
0.0
  0
INSERT
  5
178
  8
LAYER0014
 62
     7
  2
_OPEN30
 10
-176.5055240156223
 20
154.2553752476474
 30
0.0
 41
2.499995396844351
 42
2.500007167085477
 50
360.0
  0
LINE
  5
179
  8
LAYER0014
  6
CONTINUOUS
 62
     7
 10
-143.3055118085911
 20
154.2553752476474
 30
0.0
 11
-148.3055118085911
 21
154.2553752476474
 31
0.0
  0
INSERT
  5
17A
  8
LAYER0014
 62
     7
  2
_OPEN30
 10
-148.3055118085911
 20
154.2553752476474
 30
0.0
 41
2.499995396844351
 42
2.500007167085477
 50
180.0
  0
TEXT
  5
17B
  8
LAYER0014
 62
     7
 10
-201.83733989848
 20
154.7944706030435
 30
0.0
 40
4.0
  1
MAX28.2
 50
359.8999999999998
 41
0.9116279069767445
  7
DCSTYLE0
 72
     5
 11
-179.4373740156223
 21
154.7553752476474
 31
0.0
  0
ENDBLK
  5
DC
  8
0
  0
BLOCK
  8
0
  2
DC_GROUP_2
 70
     0
 10
0.0
 20
0.0
 30
0.0
  3
DC_GROUP_2
  1

  0
LINE
  5
17C
  8
LAYER0014
  6
CONTINUOUS
 62
     7
 10
-44.05330297106028
 20
121.6386859155014
 30
0.0
 11
-28.19754519716733
 21
141.3616942883587
 31
0.0
  0
INSERT
  5
17D
  8
LAYER0014
 62
     7
  2
_OPEN30
 10
-44.05330297106028
 20
121.6386859155014
 30
0.0
 41
2.499995396844351
 42
2.500007167085477
 50
231.2034374116924
  0
LINE
  5
17E
  8
LAYER0014
  6
CONTINUOUS
 62
     7
 10
-28.19754824657937
 20
141.3616984898349
 30
0.0
 11
-18.61543879528543
 21
141.3616984898349
 31
0.0
  0
TEXT
  5
17F
  8
LAYER0014
 62
     7
 10
-26.84400782604715
 20
142.9616984898349
 30
0.0
 40
4.0
  1
M8
 41
0.8195121951219511
  7
DCSTYLE0
 72
     5
 11
-20.44400782604715
 21
142.9616984898349
 31
0.0
  0
ENDBLK
  5
DF
  8
0
  0
BLOCK
  8
0
  2
DA_IMAGEDIMGROUP_15
 70
     0
 10
0.0
 20
0.0
 30
0.0
  3
DA_IMAGEDIMGROUP_15
  1

  0
LINE
  5
180
  8
LAYER0014
  6
CONTINUOUS
 62
     7
 10
-61.26552706738016
 20
11.67967663352695
 30
0.0
 11
-21.10763773937722
 21
11.67967663352695
 31
0.0
  0
LINE
  5
181
  8
LAYER0014
  6
CONTINUOUS
 62
     7
 10
-23.39363703747293
 20
11.67967663352695
 30
0.0
 11
-23.39363703747293
 21
62.17967639510837
 31
0.0
  0
INSERT
  5
182
  8
LAYER0014
 62
     7
  2
_OPEN30
 10
-23.39363703747293
 20
11.67967663352695
 30
0.0
 41
2.499995396844351
 42
2.500007167085477
 50
270.0
  0
TEXT
  5
183
  8
LAYER0014
 62
     7
 10
-24.99363703747293
 20
36.87015233581272
 30
0.0
 40
4.0
  1
φ65H7
 50
90.0
 41
0.865979381443299
  7
DCSTYLE0
 72
     5
 11
-24.99363703747293
 21
52.87015233581272
 31
0.0
  0
ENDBLK
  5
E2
  8
0
  0
BLOCK
  8
0
  2
DA_IMAGEDIMGROUP_16
 70
     0
 10
0.0
 20
0.0
 30
0.0
  3
DA_IMAGEDIMGROUP_16
  1

  0
LINE
  5
184
  8
LAYER0014
  6
CONTINUOUS
 62
     7
 10
-166.4455179121067
 20
61.17967639510837
 30
0.0
 11
-194.3462985517552
 21
61.17967639510837
 31
0.0
  0
LINE
  5
185
  8
LAYER0014
  6
CONTINUOUS
 62
     7
 10
-166.4455179121067
 20
27.17967830245701
 30
0.0
 11
-194.3462985517552
 21
27.17967830245701
 31
0.0
  0
LINE
  5
186
  8
LAYER0014
  6
CONTINUOUS
 62
     7
 10
-192.0603030683567
 20
61.17967639510837
 30
0.0
 11
-192.0603030683567
 21
27.17967830245701
 31
0.0
  0
INSERT
  5
187
  8
LAYER0014
 62
     7
  2
_OPEN30
 10
-192.0603030683567
 20
61.17967639510837
 30
0.0
 41
2.499995396844351
 42
2.500007167085477
 50
90.0
  0
INSERT
  5
188
  8
LAYER0014
 62
     7
  2
_OPEN30
 10
-192.0603030683567
 20
27.17967830245701
 30
0.0
 41
2.499995396844351
 42
2.500007167085477
 50
270.0
  0
TEXT
  5
189
  8
LAYER0014
 62
     7
 10
-192.5826432714402
 20
31.3796968442926
 30
0.0
 40
4.0
  1
M34×P1.5
 50
89.89999999999999
 41
0.8960000000000006
  7
DCSTYLE0
 72
     5
 11
-192.5379628652732
 21
56.97965785327278
 31
0.0
  0
ENDBLK
  5
E5
  8
0
  0
BLOCK
  8
0
  2
DA_IMAGEDIMGROUP_17
 70
     0
 10
0.0
 20
0.0
 30
0.0
  3
DA_IMAGEDIMGROUP_17
  1

  0
LINE
  5
18A
  8
LAYER0014
  6
CONTINUOUS
 62
     7
 10
-134.4028492633892
 20
58.67967639510837
 30
0.0
 11
-119.7742999555637
 21
58.67967639510837
 31
0.0
  0
LINE
  5
18B
  8
LAYER0014
  6
CONTINUOUS
 62
     7
 10
-134.4028492633892
 20
29.67967830245701
 30
0.0
 11
-119.7742999555637
 21
29.67967830245701
 31
0.0
  0
LINE
  5
18C
  8
LAYER0014
  6
CONTINUOUS
 62
     7
 10
-122.0603030683567
 20
58.67967639510837
 30
0.0
 11
-122.0603030683567
 21
29.67967830245701
 31
0.0
  0
INSERT
  5
18D
  8
LAYER0014
 62
     7
  2
_OPEN30
 10
-122.0603030683567
 20
58.67967639510837
 30
0.0
 41
2.499995396844351
 42
2.500007167085477
 50
90.0
  0
INSERT
  5
18E
  8
LAYER0014
 62
     7
  2
_OPEN30
 10
-122.0603030683567
 20
29.67967830245701
 30
0.0
 41
2.499995396844351
 42
2.500007167085477
 50
270.0
  0
TEXT
  5
18F
  8
LAYER0014
 62
     7
 10
-122.568680644513
 20
39.37968465959892
 30
0.0
 40
4.0
  1
φ29
 50
89.89999999999999
 41
0.9333333333333327
  7
DCSTYLE0
 72
     5
 11
-122.5519254922004
 21
48.97967003796647
 31
0.0
  0
ENDBLK
  5
E8
  8
0
  0
BLOCK
  8
0
  2
DA_IMAGEDIMGROUP_18
 70
     0
 10
0.0
 20
0.0
 30
0.0
  3
DA_IMAGEDIMGROUP_18
  1

  0
LINE
  5
190
  8
LAYER0014
  6
CONTINUOUS
 62
     7
 10
-81.70552096386453
 20
24.02225051467624
 30
0.0
 11
-74.30552706738015
 21
24.02225051467624
 31
0.0
  0
INSERT
  5
191
  8
LAYER0014
 62
     7
  2
_OPEN30
 10
-81.70552096386453
 20
24.02225051467624
 30
0.0
 41
2.499995396844351
 42
2.500007167085477
 50
180.0
  0
INSERT
  5
192
  8
LAYER0014
 62
     7
  2
_OPEN30
 10
-74.30552706738015
 20
24.02225051467624
 30
0.0
 41
2.499995396844351
 42
2.500007167085477
 50
360.0
  0
TEXT
  5
193
  8
LAYER0014
 62
     7
 10
-81.24838156719704
 20
25.62225051467625
 30
0.0
 40
3.0
  1
7.4
 41
1.049999999999998
  7
DCSTYLE0
 72
     5
 11
-74.04838156719705
 21
25.62225051467625
 31
0.0
  0
ENDBLK
  5
EB
  8
0
  0
BLOCK
  8
0
  2
DA_IMAGEDIMGROUP_19
 70
     0
 10
0.0
 20
0.0
 30
0.0
  3
DA_IMAGEDIMGROUP_19
  1

  0
LINE
  5
194
  8
LAYER0014
  6
CONTINUOUS
 62
     7
 10
-74.30552706738015
 20
24.02225051467624
 30
0.0
 11
-63.80552706738015
 21
24.02225051467624
 31
0.0
  0
INSERT
  5
195
  8
LAYER0014
 62
     7
  2
_OPEN30
 10
-74.30552706738015
 20
24.02225051467624
 30
0.0
 41
2.499995396844351
 42
2.500007167085477
 50
180.0
  0
INSERT
  5
196
  8
LAYER0014
 62
     7
  2
_OPEN30
 10
-63.80552706738015
 20
24.02225051467624
 30
0.0
 41
2.499995396844351
 42
2.500007167085477
 50
360.0
  0
TEXT
  5
197
  8
LAYER0014
 62
     7
 10
-73.49838461895486
 20
25.62225051467625
 30
0.0
 40
3.0
  1
10.5
 41
1.002985074626865
  7
DCSTYLE0
 72
     5
 11
-63.89838461895486
 21
25.62225051467625
 31
0.0
  0
ENDBLK
  5
EE
  8
0
  0
BLOCK
  8
0
  2
DA_IMAGEDIMGROUP_20
 70
     0
 10
0.0
 20
0.0
 30
0.0
  3
DA_IMAGEDIMGROUP_20
  1

  0
LINE
  5
198
  8
LAYER0014
  6
CONTINUOUS
 62
     7
 10
-63.80552706738015
 20
24.02225051467624
 30
0.0
 11
-53.30552706738015
 21
24.02225051467624
 31
0.0
  0
INSERT
  5
199
  8
LAYER0014
 62
     7
  2
_OPEN30
 10
-63.80552706738015
 20
24.02225051467624
 30
0.0
 41
2.499995396844351
 42
2.500007167085477
 50
180.0
  0
INSERT
  5
19A
  8
LAYER0014
 62
     7
  2
_OPEN30
 10
-53.30552706738015
 20
24.02225051467624
 30
0.0
 41
2.499995396844351
 42
2.500007167085477
 50
360.0
  0
TEXT
  5
19B
  8
LAYER0014
 62
     7
 10
-62.99838461895486
 20
25.62225051467625
 30
0.0
 40
3.0
  1
10.5
 41
1.002985074626865
  7
DCSTYLE0
 72
     5
 11
-53.39838461895486
 21
25.62225051467625
 31
0.0
  0
ENDBLK
  5
F1
  8
0
  0
BLOCK
  8
0
  2
DA_IMAGEDIMGROUP_21
 70
     0
 10
0.0
 20
0.0
 30
0.0
  3
DA_IMAGEDIMGROUP_21
  1

  0
LINE
  5
19C
  8
LAYER0014
  6
CONTINUOUS
 62
     7
 10
-34.76552706738016
 20
118.1796763951084
 30
0.0
 11
-10.9726556303074
 21
118.1796763951084
 31
0.0
  0
LINE
  5
19D
  8
LAYER0014
  6
CONTINUOUS
 62
     7
 10
-11.9726556303074
 20
93.17967639510837
 30
0.0
 11
-11.9726556303074
 21
118.1796763951084
 31
0.0
  0
INSERT
  5
19E
  8
LAYER0014
 62
     7
  2
_OPEN30
 10
-11.9726556303074
 20
93.17967639510837
 30
0.0
 41
2.499995396844351
 42
2.500007167085477
 50
270.0
  0
INSERT
  5
19F
  8
LAYER0014
 62
     7
  2
_OPEN30
 10
-11.9726556303074
 20
118.1796763951084
 30
0.0
 41
2.499995396844351
 42
2.500007167085477
 50
90.0
  0
TEXT
  5
1A0
  8
LAYER0014
 62
     7
 10
-12.4726556303074
 20
102.4796763951084
 30
0.0
 40
4.0
  1
25
 50
90.0
 41
0.9081081081081089
  7
DCSTYLE0
 72
     5
 11
-12.4726556303074
 21
108.8796763951084
 31
0.0
  0
ENDBLK
  5
F4
  8
0
  0
BLOCK
  8
0
  2
DA_IMAGEDIMGROUP_22
 70
     0
 10
0.0
 20
0.0
 30
0.0
  3
DA_IMAGEDIMGROUP_22
  1

  0
LINE
  5
1A1
  8
LAYER0014
  6
CONTINUOUS
 62
     7
 10
247.2592532060573
 20
44.17967639510837
 30
0.0
 11
257.8437496660183
 21
44.17967639510837
 31
0.0
  0
LINE
  5
1A2
  8
LAYER0014
  6
CONTINUOUS
 62
     7
 10
230.6612786414334
 20
89.00414817437114
 30
0.0
 11
243.8004198458568
 21
96.59004110966865
 31
0.0
  0
ARC
  5
1A3
  8
LAYER0014
  6
CONTINUOUS
 62
     7
 10
153.0230556962917
 20
44.17967639510837
 30
0.0
 40
102.5346908569336
 50
0.0
 51
30.00001108010981
  0
INSERT
  5
1A4
  8
LAYER0014
 62
     7
  2
_OPEN30
 10
255.5577465532253
 20
44.17967639510837
 30
0.0
 41
2.499995396844351
 42
2.500007167085477
 50
270.6984915496383
  0
INSERT
  5
1A5
  8
LAYER0014
 62
     7
  2
_OPEN30
 10
241.8206928332739
 20
95.4470389956537
 30
0.0
 41
2.499995396844351
 42
2.500007167085477
 50
119.3015195304716
  0
TEXT
  5
1A6
  8
LAYER0014
 62
     7
 10
252.485431562633
 20
75.32661002205198
 30
0.0
 40
4.0
  1
30ﾟ
 50
285.0
 41
0.9163636363636395
  7
DCSTYLE0
 72
     5
 11
254.9700943956173
 21
66.0537220896769
 31
0.0
  0
ENDBLK
  5
F7
  8
0
  0
BLOCK
  8
0
  2
DC_GROUP_3
 70
     0
 10
0.0
 20
0.0
 30
0.0
  3
DC_GROUP_3
  1

  0
LINE
  5
1A7
  8
LAYER0014
  6
CONTINUOUS
 62
     7
 10
147.6161955712793
 20
-15.58311640082499
 30
0.0
 11
120.1939172262591
 21
-55.77458066391429
 31
0.0
  0
INSERT
  5
1A8
  8
LAYER0014
 62
     7
  2
_OPEN30
 10
147.6161955712793
 20
-15.58311640082499
 30
0.0
 41
2.499995396844351
 42
2.500007167085477
 50
55.69462983555971
  0
LINE
  5
1A9
  8
LAYER0014
  6
CONTINUOUS
 62
     7
 10
120.1939159868191
 20
-55.77457775528225
 30
0.0
 11
88.51869168261985
 21
-55.77457775528225
 31
0.0
  0
TEXT
  5
1AA
  8
LAYER0014
 62
     7
 10
91.2615469453762
 20
-54.17457775528226
 30
0.0
 40
4.0
  1
PCD104.77
 41
0.8894117647058821
  7
DCSTYLE0
 72
     5
 11
120.0615469453762
 21
-54.17457775528226
 31
0.0
  0
ENDBLK
  5
FA
  8
0
  0
BLOCK
  8
0
  2
DA_IMAGEDIMGROUP_23
 70
     0
 10
0.0
 20
0.0
 30
0.0
  3
DA_IMAGEDIMGROUP_23
  1

  0
LINE
  5
1AB
  8
LAYER0014
  6
CONTINUOUS
 62
     7
 10
233.2497374915657
 20
-2.139183582673907
 30
0.0
 11
243.8004753117641
 21
-8.230662498922328
 31
0.0
  0
ARC
  5
1AC
  8
LAYER0014
  6
CONTINUOUS
 62
     7
 10
153.0230556962917
 20
44.17967639510837
 30
0.0
 40
102.5346908569336
 50
330.0000025802685
 51
0.0
  0
INSERT
  5
1AD
  8
LAYER0014
 62
     7
  2
_OPEN30
 10
241.8207050563631
 20
-7.087665034429044
 30
0.0
 41
2.499995396844351
 42
2.500007167085477
 50
240.6984941299069
  0
INSERT
  5
1AE
  8
LAYER0014
 62
     7
  2
_OPEN30
 10
255.5577465532253
 20
44.17967639510834
 30
0.0
 41
2.499995396844351
 42
2.500007167085477
 50
89.3015084503618
  0
TEXT
  5
1AF
  8
LAYER0014
 62
     7
 10
249.394468918508
 20
13.86097992495622
 30
0.0
 40
4.0
  1
30ﾟ
 50
74.99999999999996
 41
0.9163636363636388
  7
DCSTYLE0
 72
     5
 11
251.8791317514922
 21
23.1338678573313
 31
0.0
  0
ENDBLK
  5
FD
  8
0
  0
BLOCK
  8
0
  2
DC_GROUP_4
 70
     0
 10
0.0
 20
0.0
 30
0.0
  3
DC_GROUP_4
  1

  0
LINE
  5
1B0
  8
LAYER0014
  6
CONTINUOUS
 62
     7
 10
154.9094530579343
 20
4.720980773796811
 30
0.0
 11
180.9320696509714
 21
-55.5592713356568
 31
0.0
  0
INSERT
  5
1B1
  8
LAYER0014
 62
     7
  2
_OPEN30
 10
154.9094530579343
 20
4.720980773796811
 30
0.0
 41
2.499995396844351
 42
2.500007167085477
 50
113.3495624565124
  0
LINE
  5
1B2
  8
LAYER0014
  6
CONTINUOUS
 62
     7
 10
180.932067537112
 20
-55.55926861221585
 30
0.0
 11
216.0782314775417
 21
-55.55926861221585
 31
0.0
  0
TEXT
  5
1B3
  8
LAYER0014
 62
     7
 10
182.2496639726589
 20
-53.95926861221585
 30
0.0
 40
4.0
  1
3-M6 PCD74
 41
0.7924528301886793
  7
DCSTYLE0
 72
     5
 11
214.2496639726589
 21
-53.95926861221585
 31
0.0
  0
ENDBLK
  5
100
  8
0
  0
BLOCK
  8
0
  2
DC_GROUP_5
 70
     0
 10
0.0
 20
0.0
 30
0.0
  3
DC_GROUP_5
  1

  0
LINE
  5
1B4
  8
0
  6
CONTINUOUS
 62
     6
 10
-118.2203327190833
 20
87.97449480478905
 30
0.0
 11
-117.8192807261018
 21
88.21063851158468
 31
0.0
  0
LINE
  5
1B5
  8
0
  6
CONTINUOUS
 62
     6
 10
-117.8192807261018
 20
88.21063851158468
 30
0.0
 11
-117.4173848740038
 21
88.44485390530637
 31
0.0
  0
LINE
  5
1B6
  8
0
  6
CONTINUOUS
 62
     6
 10
-117.4173848740038
 20
88.44485390530637
 30
0.0
 11
-117.0138013036727
 21
88.6752126728801
 31
0.0
  0
LINE
  5
1B7
  8
0
  6
CONTINUOUS
 62
     6
 10
-117.0138013036727
 20
88.6752126728801
 30
0.0
 11
-116.607686155992
 21
88.89978650123199
 31
0.0
  0
LINE
  5
1B8
  8
0
  6
CONTINUOUS
 62
     6
 10
-116.607686155992
 20
88.89978650123199
 30
0.0
 11
-116.1981955718453
 21
89.11664707728809
 31
0.0
  0
LINE
  5
1B9
  8
0
  6
CONTINUOUS
 62
     6
 10
-116.1981955718453
 20
89.11664707728809
 30
0.0
 11
-115.784485692116
 21
89.32386608797437
 31
0.0
  0
LINE
  5
1BA
  8
0
  6
CONTINUOUS
 62
     6
 10
-115.784485692116
 20
89.32386608797437
 30
0.0
 11
-115.3657126576877
 21
89.51951522021695
 31
0.0
  0
LINE
  5
1BB
  8
0
  6
CONTINUOUS
 62
     6
 10
-115.3657126576877
 20
89.51951522021695
 30
0.0
 11
-114.9410326094436
 21
89.70166616094181
 31
0.0
  0
LINE
  5
1BC
  8
0
  6
CONTINUOUS
 62
     6
 10
-114.9410326094436
 20
89.70166616094181
 30
0.0
 11
-114.5096016882675
 21
89.86839059707506
 31
0.0
  0
LINE
  5
1BD
  8
0
  6
CONTINUOUS
 62
     6
 10
-114.5096016882675
 20
89.86839059707506
 30
0.0
 11
-114.0705760350427
 21
90.0177602155427
 31
0.0
  0
LINE
  5
1BE
  8
0
  6
CONTINUOUS
 62
     6
 10
-114.0705760350427
 20
90.0177602155427
 30
0.0
 11
-113.6231117906527
 21
90.14784670327077
 31
0.0
  0
LINE
  5
1BF
  8
0
  6
CONTINUOUS
 62
     6
 10
-113.6231117906527
 20
90.14784670327077
 30
0.0
 11
-113.1667662217548
 21
90.25670061770614
 31
0.0
  0
LINE
  5
1C0
  8
0
  6
CONTINUOUS
 62
     6
 10
-113.1667662217548
 20
90.25670061770614
 30
0.0
 11
-112.7033037603509
 21
90.34225625287564
 31
0.0
  0
LINE
  5
1C1
  8
0
  6
CONTINUOUS
 62
     6
 10
-112.7033037603509
 20
90.34225625287564
 30
0.0
 11
-112.2352439534824
 21
90.40240812678431
 31
0.0
  0
LINE
  5
1C2
  8
0
  6
CONTINUOUS
 62
     6
 10
-112.2352439534824
 20
90.40240812678431
 30
0.0
 11
-111.7651070087985
 21
90.43505072263936
 31
0.0
  0
LINE
  5
1C3
  8
0
  6
CONTINUOUS
 62
     6
 10
-111.7651070087985
 20
90.43505072263936
 30
0.0
 11
-111.2954131339483
 21
90.43807852364803
 31
0.0
  0
LINE
  5
1C4
  8
0
  6
CONTINUOUS
 62
     6
 10
-111.2954131339483
 20
90.43807852364803
 30
0.0
 11
-110.828682536581
 21
90.40938601301755
 31
0.0
  0
LINE
  5
1C5
  8
0
  6
CONTINUOUS
 62
     6
 10
-110.828682536581
 20
90.40938601301755
 30
0.0
 11
-110.3674354243455
 21
90.34686767395512
 31
0.0
  0
LINE
  5
1C6
  8
0
  6
CONTINUOUS
 62
     6
 10
-110.3674354243455
 20
90.34686767395512
 30
0.0
 11
-109.9141920048912
 21
90.24841798966798
 31
0.0
  0
LINE
  5
1C7
  8
0
  6
CONTINUOUS
 62
     6
 10
-109.9141920048912
 20
90.24841798966798
 30
0.0
 11
-109.4714434664412
 21
90.11199690528652
 31
0.0
  0
LINE
  5
1C8
  8
0
  6
CONTINUOUS
 62
     6
 10
-109.4714434664412
 20
90.11199690528652
 30
0.0
 11
-109.0398104460725
 21
89.93978394891757
 31
0.0
  0
LINE
  5
1C9
  8
0
  6
CONTINUOUS
 62
     6
 10
-109.0398104460725
 20
89.93978394891757
 30
0.0
 11
-108.6169372763951
 21
89.74067258626087
 31
0.0
  0
LINE
  5
1CA
  8
0
  6
CONTINUOUS
 62
     6
 10
-108.6169372763951
 20
89.74067258626087
 30
0.0
 11
-108.2002030539931
 21
89.52415460155059
 31
0.0
  0
LINE
  5
1CB
  8
0
  6
CONTINUOUS
 62
     6
 10
-108.2002030539931
 20
89.52415460155059
 30
0.0
 11
-107.7869868754507
 21
89.29972177902087
 31
0.0
  0
LINE
  5
1CC
  8
0
  6
CONTINUOUS
 62
     6
 10
-107.7869868754507
 20
89.29972177902087
 30
0.0
 11
-107.3746678373517
 21
89.07686590290584
 31
0.0
  0
LINE
  5
1CD
  8
0
  6
CONTINUOUS
 62
     6
 10
-107.3746678373517
 20
89.07686590290584
 30
0.0
 11
-106.9606250362804
 21
88.86507875743972
 31
0.0
  0
LINE
  5
1CE
  8
0
  6
CONTINUOUS
 62
     6
 10
-106.9606250362804
 20
88.86507875743972
 30
0.0
 11
-106.5422375688206
 21
88.67385212685663
 31
0.0
  0
LINE
  5
1CF
  8
0
  6
CONTINUOUS
 62
     6
 10
-106.5422375688206
 20
88.67385212685663
 30
0.0
 11
-106.1168845315566
 21
88.51267779539073
 31
0.0
  0
LINE
  5
1D0
  8
0
  6
CONTINUOUS
 62
     6
 10
-106.1168845315566
 20
88.51267779539073
 30
0.0
 11
-105.6819450210723
 21
88.3910475472762
 31
0.0
  0
LINE
  5
1D1
  8
0
  6
CONTINUOUS
 62
     6
 10
-105.6819450210723
 20
88.3910475472762
 30
0.0
 11
-105.2355572251601
 21
88.3165847144602
 31
0.0
  0
LINE
  5
1D2
  8
0
  6
CONTINUOUS
 62
     6
 10
-105.2355572251601
 20
88.3165847144602
 30
0.0
 11
-104.779596885625
 21
88.28771288943055
 31
0.0
  0
LINE
  5
1D3
  8
0
  6
CONTINUOUS
 62
     6
 10
-104.779596885625
 20
88.28771288943055
 30
0.0
 11
-104.3170881191059
 21
88.30002901675597
 31
0.0
  0
LINE
  5
1D4
  8
0
  6
CONTINUOUS
 62
     6
 10
-104.3170881191059
 20
88.30002901675597
 30
0.0
 11
-103.8510553522274
 21
88.34912927799583
 31
0.0
  0
LINE
  5
1D5
  8
0
  6
CONTINUOUS
 62
     6
 10
-103.8510553522274
 20
88.34912927799583
 30
0.0
 11
-103.384523011614
 21
88.43060985470949
 31
0.0
  0
LINE
  5
1D6
  8
0
  6
CONTINUOUS
 62
     6
 10
-103.384523011614
 20
88.43060985470949
 30
0.0
 11
-102.9205155238902
 21
88.54006692845635
 31
0.0
  0
LINE
  5
1D7
  8
0
  6
CONTINUOUS
 62
     6
 10
-102.9205155238902
 20
88.54006692845635
 30
0.0
 11
-102.4620573156808
 21
88.67309668079585
 31
0.0
  0
LINE
  5
1D8
  8
0
  6
CONTINUOUS
 62
     6
 10
-102.4620573156808
 20
88.67309668079585
 30
0.0
 11
-102.0121673540472
 21
88.82529841487579
 31
0.0
  0
LINE
  5
1D9
  8
0
  6
CONTINUOUS
 62
     6
 10
-102.0121673540472
 20
88.82529841487579
 30
0.0
 11
-101.5726419754699
 21
88.99297049152977
 31
0.0
  0
LINE
  5
1DA
  8
0
  6
CONTINUOUS
 62
     6
 10
-101.5726419754699
 20
88.99297049152977
 30
0.0
 11
-101.1425169281863
 21
89.17398968003188
 31
0.0
  0
LINE
  5
1DB
  8
0
  6
CONTINUOUS
 62
     6
 10
-101.1425169281863
 20
89.17398968003188
 30
0.0
 11
-100.7204493077257
 21
89.36644925011801
 31
0.0
  0
LINE
  5
1DC
  8
0
  6
CONTINUOUS
 62
     6
 10
-100.7204493077257
 20
89.36644925011801
 30
0.0
 11
-100.3050962096176
 21
89.56844247152421
 31
0.0
  0
LINE
  5
1DD
  8
0
  6
CONTINUOUS
 62
     6
 10
-100.3050962096176
 20
89.56844247152421
 30
0.0
 11
-99.8951147293916
 21
89.77806261398645
 31
0.0
  0
LINE
  5
1DE
  8
0
  6
CONTINUOUS
 62
     6
 10
-99.8951147293916
 20
89.77806261398645
 30
0.0
 11
-99.48916196257713
 21
89.99340294724075
 31
0.0
  0
LINE
  5
1DF
  8
0
  6
CONTINUOUS
 62
     6
 10
-99.48916196257713
 20
89.99340294724075
 30
0.0
 11
-99.0858950047037
 21
90.21255674102306
 31
0.0
  0
LINE
  5
1E0
  8
0
  6
CONTINUOUS
 62
     6
 10
-99.0858950047037
 20
90.21255674102306
 30
0.0
 11
-98.68397095130076
 21
90.43361726506937
 31
0.0
  0
ENDBLK
  5
103
  8
0
  0
BLOCK
  8
0
  2
DA_IMAGEDIMGROUP_24
 70
     0
 10
0.0
 20
0.0
 30
0.0
  3
DA_IMAGEDIMGROUP_24
  1

  0
LINE
  5
1E1
  8
0
  6
CONTINUOUS
 62
     7
 10
-88.87251146581056
 20
20.17967734878269
 30
0.0
 11
-88.87251146581056
 21
68.17967258041111
 31
0.0
  0
INSERT
  5
1E2
  8
0
 62
     7
  2
_OPEN30
 10
-88.87251146581056
 20
20.17967734878269
 30
0.0
 41
2.499995396844351
 42
2.500007167085477
 50
270.0
  0
INSERT
  5
1E3
  8
0
 62
     7
  2
_OPEN30
 10
-88.87251146581056
 20
68.17967258041111
 30
0.0
 41
2.499995396844351
 42
2.500007167085477
 50
90.0
  0
TEXT
  5
1E4
  8
0
 62
     7
 10
-89.37251146581056
 20
39.3796749645969
 30
0.0
 40
4.0
  1
φ48
 50
90.0
 41
0.9163636363636359
  7
DCSTYLE0
 72
     5
 11
-89.37251146581056
 21
48.9796749645969
 31
0.0
  0
ENDBLK
  5
106
  8
0
  0
BLOCK
  8
0
  2
DA_IMAGEDIMGROUP_25
 70
     0
 10
0.0
 20
0.0
 30
0.0
  3
DA_IMAGEDIMGROUP_25
  1

  0
LINE
  5
1E5
  8
0
  6
CONTINUOUS
 62
     7
 10
-101.3055118085911
 20
-45.30246118608334
 30
0.0
 11
-101.3055118085911
 21
-55.03353012706451
 31
0.0
  0
LINE
  5
1E6
  8
0
  6
CONTINUOUS
 62
     7
 10
-148.3055118085911
 20
-26.82032360489163
 30
0.0
 11
-148.3055118085911
 21
-55.03353012706451
 31
0.0
  0
LINE
  5
1E7
  8
0
  6
CONTINUOUS
 62
     7
 10
-148.3055118085911
 20
-54.03353012706451
 30
0.0
 11
-101.3055118085911
 21
-54.03353012706451
 31
0.0
  0
INSERT
  5
1E8
  8
0
 62
     7
  2
_OPEN30
 10
-148.3055118085911
 20
-54.03353012706451
 30
0.0
 41
2.499995396844351
 42
2.500007167085477
 50
180.0
  0
INSERT
  5
1E9
  8
0
 62
     7
  2
_OPEN30
 10
-101.3055118085911
 20
-54.03353012706451
 30
0.0
 41
2.499995396844351
 42
2.500007167085477
 50
360.0
  0
TEXT
  5
1EA
  8
0
 62
     7
 10
-128.0055118085911
 20
-53.53353012706451
 30
0.0
 40
4.0
  1
47
 41
0.9081081081081069
  7
DCSTYLE0
 72
     5
 11
-121.6055118085911
 21
-53.53353012706451
 31
0.0
  0
ENDBLK
  5
109
  8
0
  0
BLOCK
  8
0
  2
DA_IMAGEDIMGROUP_26
 70
     0
 10
0.0
 20
0.0
 30
0.0
  3
DA_IMAGEDIMGROUP_26
  1

  0
LINE
  5
1EB
  8
0
  6
CONTINUOUS
 62
     7
 10
-152.3055118085911
 20
-41.82032360489163
 30
0.0
 11
-152.3055118085911
 21
-65.03353012706451
 31
0.0
  0
LINE
  5
1EC
  8
0
  6
CONTINUOUS
 62
     7
 10
-148.3055118085911
 20
-26.82032360489163
 30
0.0
 11
-148.3055118085911
 21
-65.03353012706451
 31
0.0
  0
LINE
  5
1ED
  8
0
  6
CONTINUOUS
 62
     7
 10
-152.3055118085911
 20
-64.03353012706451
 30
0.0
 11
-148.3055118085911
 21
-64.03353012706451
 31
0.0
  0
LINE
  5
1EE
  8
0
  6
CONTINUOUS
 62
     7
 10
-53.30552706738015
 20
-40.32032360489163
 30
0.0
 11
-53.30552706738015
 21
-65.03353012706451
 31
0.0
  0
LINE
  5
1EF
  8
0
  6
CONTINUOUS
 62
     7
 10
-148.3055118085911
 20
-64.03353012706451
 30
0.0
 11
-53.30552706738015
 21
-64.03353012706451
 31
0.0
  0
INSERT
  5
1F0
  8
0
 62
     7
  2
_OPEN30
 10
-148.3055118085911
 20
-64.03353012706451
 30
0.0
 41
2.499995396844351
 42
2.500007167085477
 50
180.0
  0
INSERT
  5
1F1
  8
0
 62
     7
  2
_OPEN30
 10
-53.30552706738015
 20
-64.03353012706451
 30
0.0
 41
2.499995396844351
 42
2.500007167085477
 50
360.0
  0
LINE
  5
1F2
  8
0
  6
CONTINUOUS
 62
     7
 10
-159.4373618085911
 20
-64.03353012706451
 30
0.0
 11
-152.3055118085911
 21
-64.03353012706451
 31
0.0
  0
INSERT
  5
1F3
  8
0
 62
     7
  2
_OPEN30
 10
-152.3055118085911
 20
-64.03353012706451
 30
0.0
 41
2.499995396844351
 42
2.500007167085477
 50
360.0
  0
TEXT
  5
1F4
  8
0
 62
     7
 10
-158.4373618085911
 20
-63.53353012706451
 30
0.0
 40
4.0
  1
4
 41
0.93333333333333
  7
DCSTYLE0
 72
     5
 11
-155.2373618085911
 21
-63.53353012706451
 31
0.0
  0
TEXT
  5
1F5
  8
0
 62
     7
 10
-104.0055194379856
 20
-63.53353012706451
 30
0.0
 40
4.0
  1
95
 41
0.9081081081081089
  7
DCSTYLE0
 72
     5
 11
-97.60551943798562
 21
-63.53353012706451
 31
0.0
  0
ENDBLK
  5
10C
  8
0
  0
BLOCK
  8
0
  2
DA_IMAGEDIMGROUP_27
 70
     0
 10
0.0
 20
0.0
 30
0.0
  3
DA_IMAGEDIMGROUP_27
  1

  0
LINE
  5
1F6
  8
0
  6
CONTINUOUS
 62
     7
 10
-152.3055118085911
 20
-41.82032360489163
 30
0.0
 11
-152.3055118085911
 21
-75.03353012706451
 31
0.0
  0
LINE
  5
1F7
  8
0
  6
CONTINUOUS
 62
     7
 10
-53.30552706738015
 20
-40.32032360489163
 30
0.0
 11
-53.30552706738015
 21
-75.03353012706451
 31
0.0
  0
LINE
  5
1F8
  8
0
  6
CONTINUOUS
 62
     7
 10
-152.3055118085911
 20
-74.03353012706451
 30
0.0
 11
-53.30552706738015
 21
-74.03353012706451
 31
0.0
  0
INSERT
  5
1F9
  8
0
 62
     7
  2
_OPEN30
 10
-152.3055118085911
 20
-74.03353012706451
 30
0.0
 41
2.499995396844351
 42
2.500007167085477
 50
180.0
  0
INSERT
  5
1FA
  8
0
 62
     7
  2
_OPEN30
 10
-53.30552706738015
 20
-74.03353012706451
 30
0.0
 41
2.499995396844351
 42
2.500007167085477
 50
360.0
  0
TEXT
  5
1FB
  8
0
 62
     7
 10
-106.0055194379856
 20
-73.53353012706451
 30
0.0
 40
4.0
  1
99
 41
0.9333333333333342
  7
DCSTYLE0
 72
     5
 11
-99.60551943798562
 21
-73.53353012706451
 31
0.0
  0
ENDBLK
  5
10F
  8
0
  0
BLOCK
  8
0
  2
DA_IMAGEDIMGROUP_28
 70
     0
 10
0.0
 20
0.0
 30
0.0
  3
DA_IMAGEDIMGROUP_28
  1

  0
LINE
  5
1FC
  8
0
  6
CONTINUOUS
 62
     7
 10
82.54493790539713
 20
-5.748657426167163
 30
0.0
 11
71.10309037028759
 21
-12.35461208664558
 31
0.0
  0
LINE
  5
1FD
  8
0
  6
CONTINUOUS
 62
     7
 10
74.5449369602813
 20
8.107748770862113
 30
0.0
 11
63.10308942517176
 21
1.501794110383693
 31
0.0
  0
LINE
  5
1FE
  8
0
  6
CONTINUOUS
 62
     7
 10
71.96911574437655
 20
-11.85461203521151
 30
0.0
 11
63.96911479926072
 21
2.001794161817763
 31
0.0
  0
INSERT
  5
1FF
  8
0
 62
     7
  2
_OPEN30
 10
71.96911574437655
 20
-11.85461203521151
 30
0.0
 41
2.499995396844351
 42
2.500007167085477
 50
300.0000034028507
  0
INSERT
  5
200
  8
0
 62
     7
  2
_OPEN30
 10
63.96911479926072
 20
2.001794161817763
 30
0.0
 41
2.499995396844351
 42
2.500007167085477
 50
120.0000034028507
  0
TEXT
  5
201
  8
0
 62
     7
 10
66.0021277119796
 20
-0.5194871153528169
 30
0.0
 40
4.0
  1
φ16
 50
300.0000034028507
 41
0.9163636363636362
  7
DCSTYLE0
 72
     5
 11
70.80212820574665
 21
-8.83333070660686
 31
0.0
  0
ENDBLK
  5
112
  8
0
  0
BLOCK
  8
0
  2
DA_IMAGEDIMGROUP_29
 70
     0
 10
0.0
 20
0.0
 30
0.0
  3
DA_IMAGEDIMGROUP_29
  1

  0
LINE
  5
202
  8
0
  6
CONTINUOUS
 62
     7
 10
147.523376130862
 20
130.1796763951084
 30
0.0
 11
147.523376130862
 21
138.8340817371985
 31
0.0
  0
LINE
  5
203
  8
0
  6
CONTINUOUS
 62
     7
 10
158.523376130862
 20
130.1796763951084
 30
0.0
 11
158.523376130862
 21
138.8340817371985
 31
0.0
  0
LINE
  5
204
  8
0
  6
CONTINUOUS
 62
     7
 10
147.523376130862
 20
137.8340817371985
 30
0.0
 11
158.523376130862
 21
137.8340817371985
 31
0.0
  0
LINE
  5
205
  8
0
  6
CONTINUOUS
 62
     7
 10
182.8981289646024
 20
137.8340817371985
 30
0.0
 11
158.523376130862
 21
137.8340817371985
 31
0.0
  0
INSERT
  5
206
  8
0
 62
     7
  2
_OPEN30
 10
158.523376130862
 20
137.8340817371985
 30
0.0
 41
2.499995396844351
 42
2.500007167085477
 50
180.0
  0
LINE
  5
207
  8
0
  6
CONTINUOUS
 62
     7
 10
142.523376130862
 20
137.8340817371985
 30
0.0
 11
147.523376130862
 21
137.8340817371985
 31
0.0
  0
INSERT
  5
208
  8
0
 62
     7
  2
_OPEN30
 10
147.523376130862
 20
137.8340817371985
 30
0.0
 41
2.499995396844351
 42
2.500007167085477
 50
360.0
  0
TEXT
  5
209
  8
0
 62
     7
 10
169.0981289646024
 20
138.3340817371985
 30
0.0
 40
4.0
  1
11H8
 41
0.8506329113924058
  7
DCSTYLE0
 72
     5
 11
181.8981289646024
 21
138.3340817371985
 31
0.0
  0
ENDBLK
  5
115
  8
0
  0
BLOCK
  8
0
  2
DA_IMAGEDIMGROUP_30
 70
     0
 10
0.0
 20
0.0
 30
0.0
  3
DA_IMAGEDIMGROUP_30
  1

  0
LINE
  5
20A
  8
0
  6
CONTINUOUS
 62
     7
 10
139.0233686004051
 20
130.1796685103341
 30
0.0
 11
139.0233686004051
 21
149.3340817371985
 31
0.0
  0
LINE
  5
20B
  8
0
  6
CONTINUOUS
 62
     7
 10
167.023376130862
 20
130.1796687657138
 30
0.0
 11
167.023376130862
 21
149.3340817371985
 31
0.0
  0
LINE
  5
20C
  8
0
  6
CONTINUOUS
 62
     7
 10
139.0233686004051
 20
148.3340817371985
 30
0.0
 11
167.023376130862
 21
148.3340817371985
 31
0.0
  0
INSERT
  5
20D
  8
0
 62
     7
  2
_OPEN30
 10
139.0233686004051
 20
148.3340817371985
 30
0.0
 41
2.499995396844351
 42
2.500007167085477
 50
180.0
  0
INSERT
  5
20E
  8
0
 62
     7
  2
_OPEN30
 10
167.023376130862
 20
148.3340817371985
 30
0.0
 41
2.499995396844351
 42
2.500007167085477
 50
360.0
  0
TEXT
  5
20F
  8
0
 62
     7
 10
149.8233723656336
 20
148.8340817371985
 30
0.0
 40
4.0
  1
28
 41
0.9081081081081049
  7
DCSTYLE0
 72
     5
 11
156.2233723656335
 21
148.8340817371985
 31
0.0
  0
ENDBLK
  5
118
  8
0
  0
BLOCK
  8
0
  2
DC_GROUP_6
 70
     0
 10
0.0
 20
0.0
 30
0.0
  3
DC_GROUP_6
  1

  0
LINE
  5
210
  8
0
  6
CONTINUOUS
 62
     7
 10
-101.2799115152977
 20
-40.82032360489163
 30
0.0
 11
-51.665608977066
 21
-89.68409851342926
 31
0.0
  0
INSERT
  5
211
  8
0
 62
     7
  2
_OPEN30
 10
-101.2799115152977
 20
-40.82032360489163
 30
0.0
 41
2.499995396844351
 42
2.500007167085477
 50
135.4366579259096
  0
LINE
  5
212
  8
0
  6
CONTINUOUS
 62
     7
 10
-51.665608977066
 20
-89.68409851342926
 30
0.0
 11
-35.665608977066
 21
-89.68409851342926
 31
0.0
  0
TEXT
  5
213
  8
0
 62
     7
 10
-51.665608977066
 20
-89.68409851342926
 30
0.0
 40
4.0
  1
M8×16
 41
0.8484848484848486
  7
DCSTYLE0
 72
     5
 11
-35.665608977066
 21
-89.68409851342926
 31
0.0
  0
ENDBLK
  5
11B
  8
0
  0
BLOCK
  8
0
  2
_OPEN30
 70
     0
 10
0.0
 20
0.0
 30
0.0
  3
_OPEN30
  1

  0
LINE
  5
120
  8
0
  6
BYBLOCK
 62
     0
 10
-1.0
 20
0.267949
 30
0.0
 11
0.0
 21
0.0
 31
0.0
  0
LINE
  5
121
  8
0
  6
BYBLOCK
 62
     0
 10
0.0
 20
0.0
 30
0.0
 11
-1.0
 21
-0.267949
 31
0.0
  0
LINE
  5
122
  8
0
  6
BYBLOCK
 62
     0
 10
0.0
 20
0.0
 30
0.0
 11
-1.0
 21
0.0
 31
0.0
  0
ENDBLK
  5
11F
  8
0
  0
ENDSEC
  0
SECTION
  2
ENTITIES
  0
LINE
  5
214
  8
ZUWAKU
  6
CONTINUOUS
 62
     3
 10
-277.0
 20
-190.0
 30
0.0
 11
-277.0
 21
190.0
 31
0.0
  0
LINE
  5
215
  8
ZUWAKU
  6
CONTINUOUS
 62
     3
 10
277.0
 20
-190.0
 30
0.0
 11
277.0
 21
190.0
 31
0.0
  0
LINE
  5
216
  8
ZUWAKU
  6
CONTINUOUS
 62
     3
 10
-277.0
 20
-190.0
 30
0.0
 11
277.0
 21
-190.0
 31
0.0
  0
LINE
  5
217
  8
ZUWAKU
  6
CONTINUOUS
 62
     3
 10
-277.0
 20
189.9999999999999
 30
0.0
 11
277.0
 21
189.9999999999999
 31
0.0
  0
LINE
  5
218
  8
ZUWAKU
  6
CONTINUOUS
 62
     3
 10
101.0000000000001
 20
179.9999999999999
 30
0.0
 11
277.0
 21
179.9999999999999
 31
0.0
  0
LINE
  5
219
  8
ZUWAKU
  6
CONTINUOUS
 62
     3
 10
101.0000000000001
 20
179.9999999999999
 30
0.0
 11
101.0000000000001
 21
189.9999999999999
 31
0.0
  0
LINE
  5
21A
  8
ZUWAKU
  6
CONTINUOUS
 62
     3
 10
-97.0
 20
184.9999999999999
 30
0.0
 11
-97.0
 21
189.9999999999999
 31
0.0
  0
LINE
  5
21B
  8
ZUWAKU
  6
CONTINUOUS
 62
     3
 10
-277.0
 20
184.9999999999999
 30
0.0
 11
-97.0
 21
184.9999999999999
 31
0.0
  0
LINE
  5
21C
  8
ZUWAKU
  6
CONTINUOUS
 62
     3
 10
97.00000000000001
 20
-190.0
 30
0.0
 11
97.00000000000001
 21
-130.0
 31
0.0
  0
LINE
  5
21D
  8
ZUWAKU
  6
CONTINUOUS
 62
     3
 10
97.00000000000001
 20
-176.0
 30
0.0
 11
277.0
 21
-176.0
 31
0.0
  0
LINE
  5
21E
  8
ZUWAKU
  6
CONTINUOUS
 62
     3
 10
146.0
 20
-162.0
 30
0.0
 11
277.0
 21
-162.0
 31
0.0
  0
LINE
  5
21F
  8
ZUWAKU
  6
CONTINUOUS
 62
     3
 10
146.0
 20
-148.0
 30
0.0
 11
277.0
 21
-148.0
 31
0.0
  0
LINE
  5
220
  8
ZUWAKU
  6
CONTINUOUS
 62
     3
 10
146.0
 20
-138.0
 30
0.0
 11
277.0
 21
-138.0
 31
0.0
  0
LINE
  5
221
  8
ZUWAKU
  6
CONTINUOUS
 62
     3
 10
146.0
 20
-176.0
 30
0.0
 11
146.0
 21
-130.0
 31
0.0
  0
LINE
  5
222
  8
ZUWAKU
  6
CONTINUOUS
 62
     3
 10
255.0
 20
-176.0
 30
0.0
 11
255.0
 21
-130.0
 31
0.0
  0
LINE
  5
223
  8
ZUWAKU
  6
CONTINUOUS
 62
     3
 10
171.0
 20
-190.0
 30
0.0
 11
171.0
 21
-176.0
 31
0.0
  0
LINE
  5
224
  8
ZUWAKU
  6
CONTINUOUS
 62
     3
 10
262.0
 20
-188.0
 30
0.0
 11
272.0
 21
-188.0
 31
0.0
  0
LINE
  5
225
  8
ZUWAKU
  6
CONTINUOUS
 62
     3
 10
267.0
 20
-178.0
 30
0.0
 11
262.0
 21
-188.0
 31
0.0
  0
LINE
  5
226
  8
ZUWAKU
  6
CONTINUOUS
 62
     3
 10
267.0
 20
-178.0
 30
0.0
 11
272.0
 21
-188.0
 31
0.0
  0
LINE
  5
227
  8
ZUWAKU
  6
CONTINUOUS
 62
     3
 10
97.00000000000001
 20
-130.0
 30
0.0
 11
277.0
 21
-130.0
 31
0.0
  0
LINE
  5
228
  8
ZUWAKU
  6
CONTINUOUS
 62
     3
 10
226.0
 20
-176.0
 30
0.0
 11
226.0
 21
-148.0
 31
0.0
  0
LINE
  5
229
  8
ZUWAKU
  6
CONTINUOUS
 62
     3
 10
-277.0
 20
-190.0
 30
0.0
 11
-277.0
 21
190.0
 31
0.0
  0
LINE
  5
22A
  8
ZUWAKU
  6
CONTINUOUS
 62
     3
 10
277.0
 20
-190.0
 30
0.0
 11
277.0
 21
190.0
 31
0.0
  0
LINE
  5
22B
  8
ZUWAKU
  6
CONTINUOUS
 62
     3
 10
-277.0
 20
-190.0
 30
0.0
 11
277.0
 21
-190.0
 31
0.0
  0
LINE
  5
22C
  8
ZUWAKU
  6
CONTINUOUS
 62
     3
 10
-277.0
 20
189.9999999999999
 30
0.0
 11
277.0
 21
189.9999999999999
 31
0.0
  0
LINE
  5
22D
  8
ZUWAKU
  6
CONTINUOUS
 62
     3
 10
101.0000000000001
 20
179.9999999999999
 30
0.0
 11
277.0
 21
179.9999999999999
 31
0.0
  0
LINE
  5
22E
  8
ZUWAKU
  6
CONTINUOUS
 62
     3
 10
101.0000000000001
 20
179.9999999999999
 30
0.0
 11
101.0000000000001
 21
189.9999999999999
 31
0.0
  0
LINE
  5
22F
  8
ZUWAKU
  6
CONTINUOUS
 62
     3
 10
-97.0
 20
184.9999999999999
 30
0.0
 11
-97.0
 21
189.9999999999999
 31
0.0
  0
LINE
  5
230
  8
ZUWAKU
  6
CONTINUOUS
 62
     3
 10
-277.0
 20
184.9999999999999
 30
0.0
 11
-97.0
 21
184.9999999999999
 31
0.0
  0
LINE
  5
231
  8
ZUWAKU
  6
CONTINUOUS
 62
     3
 10
97.00000000000001
 20
-190.0
 30
0.0
 11
97.00000000000001
 21
-130.0
 31
0.0
  0
LINE
  5
232
  8
ZUWAKU
  6
CONTINUOUS
 62
     3
 10
97.00000000000001
 20
-176.0
 30
0.0
 11
277.0
 21
-176.0
 31
0.0
  0
LINE
  5
233
  8
ZUWAKU
  6
CONTINUOUS
 62
     3
 10
146.0
 20
-162.0
 30
0.0
 11
277.0
 21
-162.0
 31
0.0
  0
LINE
  5
234
  8
ZUWAKU
  6
CONTINUOUS
 62
     3
 10
146.0
 20
-148.0
 30
0.0
 11
277.0
 21
-148.0
 31
0.0
  0
LINE
  5
235
  8
ZUWAKU
  6
CONTINUOUS
 62
     3
 10
146.0
 20
-138.0
 30
0.0
 11
277.0
 21
-138.0
 31
0.0
  0
LINE
  5
236
  8
ZUWAKU
  6
CONTINUOUS
 62
     3
 10
146.0
 20
-176.0
 30
0.0
 11
146.0
 21
-130.0
 31
0.0
  0
LINE
  5
237
  8
ZUWAKU
  6
CONTINUOUS
 62
     3
 10
255.0
 20
-176.0
 30
0.0
 11
255.0
 21
-130.0
 31
0.0
  0
LINE
  5
238
  8
ZUWAKU
  6
CONTINUOUS
 62
     3
 10
171.0
 20
-190.0
 30
0.0
 11
171.0
 21
-176.0
 31
0.0
  0
LINE
  5
239
  8
ZUWAKU
  6
CONTINUOUS
 62
     3
 10
262.0
 20
-188.0
 30
0.0
 11
272.0
 21
-188.0
 31
0.0
  0
LINE
  5
23A
  8
ZUWAKU
  6
CONTINUOUS
 62
     3
 10
267.0
 20
-178.0
 30
0.0
 11
262.0
 21
-188.0
 31
0.0
  0
LINE
  5
23B
  8
ZUWAKU
  6
CONTINUOUS
 62
     3
 10
267.0
 20
-178.0
 30
0.0
 11
272.0
 21
-188.0
 31
0.0
  0
LINE
  5
23C
  8
ZUWAKU
  6
CONTINUOUS
 62
     3
 10
97.00000000000001
 20
-130.0
 30
0.0
 11
277.0
 21
-130.0
 31
0.0
  0
LINE
  5
23D
  8
ZUWAKU
  6
CONTINUOUS
 62
     3
 10
226.0
 20
-176.0
 30
0.0
 11
226.0
 21
-148.0
 31
0.0
  0
LINE
  5
23E
  8
ZUWAKU
  6
CONTINUOUS
 62
     4
 10
258.7500000000001
 20
179.9999999999999
 30
0.0
 11
258.7500000000001
 21
189.9999999999999
 31
0.0
  0
LINE
  5
23F
  8
ZUWAKU
  6
CONTINUOUS
 62
     4
 10
240.5000000000001
 20
179.9999999999999
 30
0.0
 11
240.5000000000001
 21
189.9999999999999
 31
0.0
  0
LINE
  5
240
  8
ZUWAKU
  6
CONTINUOUS
 62
     4
 10
222.2500000000001
 20
179.9999999999999
 30
0.0
 11
222.2500000000001
 21
189.9999999999999
 31
0.0
  0
LINE
  5
241
  8
ZUWAKU
  6
CONTINUOUS
 62
     4
 10
204.0000000000001
 20
179.9999999999999
 30
0.0
 11
204.0000000000001
 21
189.9999999999999
 31
0.0
  0
LINE
  5
242
  8
ZUWAKU
  6
CONTINUOUS
 62
     4
 10
185.7500000000001
 20
179.9999999999999
 30
0.0
 11
185.7500000000001
 21
189.9999999999999
 31
0.0
  0
LINE
  5
243
  8
ZUWAKU
  6
CONTINUOUS
 62
     4
 10
167.5000000000001
 20
179.9999999999999
 30
0.0
 11
167.5000000000001
 21
189.9999999999999
 31
0.0
  0
LINE
  5
244
  8
ZUWAKU
  6
CONTINUOUS
 62
     4
 10
149.2500000000001
 20
179.9999999999999
 30
0.0
 11
149.2500000000001
 21
189.9999999999999
 31
0.0
  0
LINE
  5
245
  8
ZUWAKU
  6
CONTINUOUS
 62
     4
 10
131.0000000000001
 20
183.3333333333337
 30
0.0
 11
276.8559329553406
 21
183.3333333333337
 31
0.0
  0
LINE
  5
246
  8
ZUWAKU
  6
CONTINUOUS
 62
     4
 10
131.0000000000001
 20
189.9999999999999
 30
0.0
 11
131.0000000000001
 21
179.9999999999999
 31
0.0
  0
LINE
  5
247
  8
ZUWAKU
  6
CONTINUOUS
 62
     4
 10
-218.2925710077994
 20
188.476174033853
 30
0.0
 11
-219.4472715461787
 21
186.476174033853
 31
0.0
  0
LINE
  5
248
  8
ZUWAKU
  6
CONTINUOUS
 62
     4
 10
-219.4472715461787
 20
186.476174033853
 30
0.0
 11
-220.6019720845579
 21
188.476174033853
 31
0.0
  0
LINE
  5
249
  8
ZUWAKU
  6
CONTINUOUS
 62
     4
 10
-132.8638689229955
 20
188.4983433964739
 30
0.0
 11
-125.9411428538446
 21
188.4983433964739
 31
0.0
  0
LINE
  5
24A
  8
ZUWAKU
  6
CONTINUOUS
 62
     4
 10
-125.9411428538446
 20
188.4983433964739
 30
0.0
 11
-127.0958433922238
 21
186.4983433964739
 31
0.0
  0
LINE
  5
24B
  8
ZUWAKU
  6
CONTINUOUS
 62
     4
 10
-127.0958433922238
 20
186.4983433964739
 30
0.0
 11
-128.2586885975162
 21
188.5124503733781
 31
0.0
  0
LINE
  5
24C
  8
ZUWAKU
  6
CONTINUOUS
 62
     4
 10
-128.2505439306031
 20
188.4983433964739
 30
0.0
 11
-129.4025058884201
 21
186.5030867571485
 31
0.0
  0
LINE
  5
24D
  8
ZUWAKU
  6
CONTINUOUS
 62
     4
 10
-129.4025058884201
 20
186.5030867571485
 30
0.0
 11
-130.5545291860738
 21
188.4984496401879
 31
0.0
  0
LINE
  5
24E
  8
ZUWAKU
  6
CONTINUOUS
 62
     4
 10
-130.554467846237
 20
188.4983433964739
 30
0.0
 11
-131.7148559129413
 21
186.4884923084454
 31
0.0
  0
LINE
  5
24F
  8
ZUWAKU
  6
CONTINUOUS
 62
     4
 10
-131.7091683846163
 20
186.4983433964739
 30
0.0
 11
-132.8663986750254
 21
188.5027250555201
 31
0.0
  0
LINE
  5
250
  8
ZUWAKU
  6
CONTINUOUS
 62
     4
 10
-177.8965033760828
 20
188.531573759697
 30
0.0
 11
-170.9737773069319
 21
188.531573759697
 31
0.0
  0
LINE
  5
251
  8
ZUWAKU
  6
CONTINUOUS
 62
     4
 10
-170.9737773069319
 20
188.531573759697
 30
0.0
 11
-172.1284778453111
 21
186.531573759697
 31
0.0
  0
LINE
  5
252
  8
ZUWAKU
  6
CONTINUOUS
 62
     4
 10
-172.1284778453111
 20
186.531573759697
 30
0.0
 11
-173.2913230506035
 21
188.5456807366012
 31
0.0
  0
LINE
  5
253
  8
ZUWAKU
  6
CONTINUOUS
 62
     4
 10
-173.2831783836904
 20
188.531573759697
 30
0.0
 11
-174.4351403415073
 21
186.5363171203715
 31
0.0
  0
LINE
  5
254
  8
ZUWAKU
  6
CONTINUOUS
 62
     4
 10
-174.4351403415073
 20
186.5363171203715
 30
0.0
 11
-175.5871636391611
 21
188.531680003411
 31
0.0
  0
LINE
  5
255
  8
ZUWAKU
  6
CONTINUOUS
 62
     4
 10
-175.5871022993243
 20
188.531573759697
 30
0.0
 11
-176.7474903660286
 21
186.5217226716685
 31
0.0
  0
LINE
  5
256
  8
ZUWAKU
  6
CONTINUOUS
 62
     4
 10
-176.7418028377036
 20
186.531573759697
 30
0.0
 11
-177.8990331281126
 21
188.5359554187432
 31
0.0
  0
LINE
  5
257
  8
ZUWAKU
  6
CONTINUOUS
 62
     4
 10
-200.3670241701527
 20
188.5727405553386
 30
0.0
 11
-195.7536991777603
 21
188.5727405553386
 31
0.0
  0
LINE
  5
258
  8
ZUWAKU
  6
CONTINUOUS
 62
     4
 10
-195.7536991777603
 20
188.5727405553386
 30
0.0
 11
-196.9083997161396
 21
186.5727405553386
 31
0.0
  0
LINE
  5
259
  8
ZUWAKU
  6
CONTINUOUS
 62
     4
 10
-196.9083997161396
 20
186.5727405553386
 30
0.0
 11
-198.0712449214319
 21
188.5868475322428
 31
0.0
  0
LINE
  5
25A
  8
ZUWAKU
  6
CONTINUOUS
 62
     4
 10
-198.0631002545189
 20
188.5727405553386
 30
0.0
 11
-199.2150622123358
 21
186.5774839160132
 31
0.0
  0
LINE
  5
25B
  8
ZUWAKU
  6
CONTINUOUS
 62
     4
 10
-199.2150622123358
 20
186.5774839160132
 30
0.0
 11
-200.3670855099896
 21
188.5728467990526
 31
0.0
  0
LINE
  5
25C
  8
ZUWAKU
  6
CONTINUOUS
 62
     4
 10
-220.6019720845579
 20
188.476174033853
 30
0.0
 11
-218.2925710077994
 21
188.476174033853
 31
0.0
  0
LINE
  5
25D
  8
ZUWAKU
  6
CONTINUOUS
 62
     4
 10
-154.7449214064321
 20
187.3569078961084
 30
0.0
 11
-149.1487224992438
 21
187.3569078961084
 31
0.0
  0
LINE
  5
25E
  8
ZUWAKU
  6
CONTINUOUS
 62
     4
 10
-149.1487224992438
 20
187.3569078961084
 30
0.0
 11
-150.0821602557662
 21
185.7401462761084
 31
0.0
  0
LINE
  5
25F
  8
ZUWAKU
  6
CONTINUOUS
 62
     4
 10
-150.0821602557662
 20
185.7401462761084
 30
0.0
 11
-151.0221820047251
 21
187.3683117055248
 31
0.0
  0
LINE
  5
260
  8
ZUWAKU
  6
CONTINUOUS
 62
     4
 10
-151.0155980122888
 20
187.3569078961084
 30
0.0
 11
-151.946821952838
 21
185.7439807178525
 31
0.0
  0
LINE
  5
261
  8
ZUWAKU
  6
CONTINUOUS
 62
     4
 10
-151.946821952838
 20
185.7439807178525
 30
0.0
 11
-152.8780954793341
 21
187.3569937814879
 31
0.0
  0
LINE
  5
262
  8
ZUWAKU
  6
CONTINUOUS
 62
     4
 10
-152.8780458933872
 20
187.3569078961084
 30
0.0
 11
-153.816081338664
 21
185.7321828455884
 31
0.0
  0
LINE
  5
263
  8
ZUWAKU
  6
CONTINUOUS
 62
     4
 10
-153.8114836499097
 20
185.7401462761084
 30
0.0
 11
-154.7469664094271
 21
187.3604499451973
 31
0.0
  0
LINE
  5
264
  8
ZUWAKU
  6
CONTINUOUS
 62
     4
 10
-154.7449214064321
 20
187.3569078961084
 30
0.0
 11
-149.1487224992438
 21
187.3569078961084
 31
0.0
  0
LINE
  5
265
  8
ZUWAKU
  6
CONTINUOUS
 62
     4
 10
-149.1487224992438
 20
187.3569078961084
 30
0.0
 11
-150.0821602557662
 21
185.7401462761084
 31
0.0
  0
LINE
  5
266
  8
ZUWAKU
  6
CONTINUOUS
 62
     4
 10
-150.0821602557662
 20
185.7401462761084
 30
0.0
 11
-151.0221820047251
 21
187.3683117055248
 31
0.0
  0
LINE
  5
267
  8
ZUWAKU
  6
CONTINUOUS
 62
     4
 10
-151.0155980122888
 20
187.3569078961084
 30
0.0
 11
-151.946821952838
 21
185.7439807178525
 31
0.0
  0
LINE
  5
268
  8
ZUWAKU
  6
CONTINUOUS
 62
     4
 10
-151.946821952838
 20
185.7439807178525
 30
0.0
 11
-152.8780954793341
 21
187.3569937814879
 31
0.0
  0
LINE
  5
269
  8
ZUWAKU
  6
CONTINUOUS
 62
     4
 10
-152.8780458933872
 20
187.3569078961084
 30
0.0
 11
-153.816081338664
 21
185.7321828455884
 31
0.0
  0
LINE
  5
26A
  8
ZUWAKU
  6
CONTINUOUS
 62
     4
 10
-153.8114836499097
 20
185.7401462761084
 30
0.0
 11
-154.7469664094271
 21
187.3604499451973
 31
0.0
  0
LINE
  5
26B
  8
ZUWAKU
  6
CONTINUOUS
 62
     4
 10
-126.0958433922238
 20
188.4983433964739
 30
0.0
 11
-127.4618687960083
 21
187.1323179926895
 31
0.0
  0
LINE
  5
26C
  8
ZUWAKU
  6
CONTINUOUS
 62
     4
 10
-126.2372647484611
 20
188.4983433964739
 30
0.0
 11
-127.5136326050288
 21
187.2219755399063
 31
0.0
  0
LINE
  5
26D
  8
ZUWAKU
  6
CONTINUOUS
 62
     4
 10
-126.3786861046984
 20
188.4983433964739
 30
0.0
 11
-127.5653964140492
 21
187.3116330871231
 31
0.0
  0
LINE
  5
26E
  8
ZUWAKU
  6
CONTINUOUS
 62
     4
 10
-126.5201074609357
 20
188.4983433964739
 30
0.0
 11
-127.6171602230698
 21
187.4012906343399
 31
0.0
  0
LINE
  5
26F
  8
ZUWAKU
  6
CONTINUOUS
 62
     4
 10
-126.661528817173
 20
188.4983433964739
 30
0.0
 11
-127.6689240320903
 21
187.4909481815566
 31
0.0
  0
LINE
  5
270
  8
ZUWAKU
  6
CONTINUOUS
 62
     4
 10
-126.8029501734103
 20
188.4983433964739
 30
0.0
 11
-127.7206878411108
 21
187.5806057287734
 31
0.0
  0
LINE
  5
271
  8
ZUWAKU
  6
CONTINUOUS
 62
     4
 10
-126.9443715296476
 20
188.4983433964739
 30
0.0
 11
-127.7724516501312
 21
187.6702632759902
 31
0.0
  0
LINE
  5
272
  8
ZUWAKU
  6
CONTINUOUS
 62
     4
 10
-127.0857928858848
 20
188.4983433964739
 30
0.0
 11
-127.8242154591517
 21
187.759920823207
 31
0.0
  0
LINE
  5
273
  8
ZUWAKU
  6
CONTINUOUS
 62
     4
 10
-127.2272142421221
 20
188.4983433964739
 30
0.0
 11
-127.8759792681722
 21
187.8495783704238
 31
0.0
  0
LINE
  5
274
  8
ZUWAKU
  6
CONTINUOUS
 62
     4
 10
-127.3686355983594
 20
188.4983433964739
 30
0.0
 11
-127.9277430771927
 21
187.9392359176406
 31
0.0
  0
LINE
  5
275
  8
ZUWAKU
  6
CONTINUOUS
 62
     4
 10
-127.5100569545967
 20
188.4983433964739
 30
0.0
 11
-127.9795068862132
 21
188.0288934648574
 31
0.0
  0
LINE
  5
276
  8
ZUWAKU
  6
CONTINUOUS
 62
     4
 10
-127.651478310834
 20
188.4983433964739
 30
0.0
 11
-128.0312706952337
 21
188.1185510120742
 31
0.0
  0
LINE
  5
277
  8
ZUWAKU
  6
CONTINUOUS
 62
     4
 10
-127.7928996670713
 20
188.4983433964739
 30
0.0
 11
-128.0830345042542
 21
188.208208559291
 31
0.0
  0
LINE
  5
278
  8
ZUWAKU
  6
CONTINUOUS
 62
     4
 10
-127.9343210233085
 20
188.4983433964739
 30
0.0
 11
-128.1347983132747
 21
188.2978661065078
 31
0.0
  0
LINE
  5
279
  8
ZUWAKU
  6
CONTINUOUS
 62
     4
 10
-128.0757423795458
 20
188.4983433964739
 30
0.0
 11
-128.1865621222952
 21
188.3875236537246
 31
0.0
  0
LINE
  5
27A
  8
ZUWAKU
  6
CONTINUOUS
 62
     4
 10
-128.2171637357831
 20
188.4983433964739
 30
0.0
 11
-128.2383259313157
 21
188.4771812009414
 31
0.0
  0
LINE
  5
27B
  8
ZUWAKU
  6
CONTINUOUS
 62
     4
 10
-125.9544220359865
 20
188.4983433964739
 30
0.0
 11
-127.4101049869878
 21
187.0426604454726
 31
0.0
  0
LINE
  5
27C
  8
ZUWAKU
  6
CONTINUOUS
 62
     4
 10
-126.116188318955
 20
188.1951557572682
 30
0.0
 11
-127.3583411779673
 21
186.9530028982558
 31
0.0
  0
LINE
  5
27D
  8
ZUWAKU
  6
CONTINUOUS
 62
     4
 10
-126.3093734842128
 20
187.8605492357731
 30
0.0
 11
-127.3065773689468
 21
186.863345351039
 31
0.0
  0
LINE
  5
27E
  8
ZUWAKU
  6
CONTINUOUS
 62
     4
 10
-126.5025586494705
 20
187.525942714278
 30
0.0
 11
-127.2548135599263
 21
186.7736878038222
 31
0.0
  0
LINE
  5
27F
  8
ZUWAKU
  6
CONTINUOUS
 62
     4
 10
-126.6957438147284
 20
187.1913361927829
 30
0.0
 11
-127.2030497509058
 21
186.6840302566055
 31
0.0
  0
LINE
  5
280
  8
ZUWAKU
  6
CONTINUOUS
 62
     4
 10
-126.8889289799861
 20
186.8567296712879
 30
0.0
 11
-127.1512859418853
 21
186.5943727093887
 31
0.0
  0
LINE
  5
281
  8
ZUWAKU
  6
CONTINUOUS
 62
     4
 10
-127.0821141452439
 20
186.5221231497929
 30
0.0
 11
-127.0995221328648
 21
186.5047151621719
 31
0.0
  0
LINE
  5
282
  8
ZUWAKU
  6
CONTINUOUS
 62
     4
 10
-128.0958433922239
 20
188.4983433964739
 30
0.0
 11
-126.7298179884394
 21
187.1323179926895
 31
0.0
  0
LINE
  5
283
  8
ZUWAKU
  6
CONTINUOUS
 62
     4
 10
-127.9544220359866
 20
188.4983433964739
 30
0.0
 11
-126.6780541794189
 21
187.2219755399063
 31
0.0
  0
LINE
  5
284
  8
ZUWAKU
  6
CONTINUOUS
 62
     4
 10
-127.8130006797493
 20
188.4983433964739
 30
0.0
 11
-126.6262903703984
 21
187.311633087123
 31
0.0
  0
LINE
  5
285
  8
ZUWAKU
  6
CONTINUOUS
 62
     4
 10
-127.671579323512
 20
188.4983433964739
 30
0.0
 11
-126.5745265613779
 21
187.4012906343398
 31
0.0
  0
LINE
  5
286
  8
ZUWAKU
  6
CONTINUOUS
 62
     4
 10
-127.5301579672747
 20
188.4983433964739
 30
0.0
 11
-126.5227627523574
 21
187.4909481815566
 31
0.0
  0
LINE
  5
287
  8
ZUWAKU
  6
CONTINUOUS
 62
     4
 10
-127.3887366110374
 20
188.4983433964739
 30
0.0
 11
-126.4709989433369
 21
187.5806057287734
 31
0.0
  0
LINE
  5
288
  8
ZUWAKU
  6
CONTINUOUS
 62
     4
 10
-127.2473152548002
 20
188.4983433964739
 30
0.0
 11
-126.4192351343164
 21
187.6702632759902
 31
0.0
  0
LINE
  5
289
  8
ZUWAKU
  6
CONTINUOUS
 62
     4
 10
-127.1058938985628
 20
188.4983433964739
 30
0.0
 11
-126.3674713252959
 21
187.759920823207
 31
0.0
  0
LINE
  5
28A
  8
ZUWAKU
  6
CONTINUOUS
 62
     4
 10
-126.9644725423256
 20
188.4983433964739
 30
0.0
 11
-126.3157075162754
 21
187.8495783704238
 31
0.0
  0
LINE
  5
28B
  8
ZUWAKU
  6
CONTINUOUS
 62
     4
 10
-126.8230511860883
 20
188.4983433964739
 30
0.0
 11
-126.2639437072549
 21
187.9392359176406
 31
0.0
  0
LINE
  5
28C
  8
ZUWAKU
  6
CONTINUOUS
 62
     4
 10
-126.681629829851
 20
188.4983433964739
 30
0.0
 11
-126.2121798982344
 21
188.0288934648574
 31
0.0
  0
LINE
  5
28D
  8
ZUWAKU
  6
CONTINUOUS
 62
     4
 10
-126.5402084736137
 20
188.4983433964739
 30
0.0
 11
-126.1604160892139
 21
188.1185510120742
 31
0.0
  0
LINE
  5
28E
  8
ZUWAKU
  6
CONTINUOUS
 62
     4
 10
-126.3987871173764
 20
188.4983433964739
 30
0.0
 11
-126.1086522801934
 21
188.208208559291
 31
0.0
  0
LINE
  5
28F
  8
ZUWAKU
  6
CONTINUOUS
 62
     4
 10
-126.2573657611391
 20
188.4983433964739
 30
0.0
 11
-126.056888471173
 21
188.2978661065078
 31
0.0
  0
LINE
  5
290
  8
ZUWAKU
  6
CONTINUOUS
 62
     4
 10
-126.1159444049019
 20
188.4983433964739
 30
0.0
 11
-126.0051246621524
 21
188.3875236537245
 31
0.0
  0
LINE
  5
291
  8
ZUWAKU
  6
CONTINUOUS
 62
     4
 10
-125.9745230486646
 20
188.4983433964739
 30
0.0
 11
-125.953360853132
 21
188.4771812009413
 31
0.0
  0
LINE
  5
292
  8
ZUWAKU
  6
CONTINUOUS
 62
     4
 10
-128.2372647484611
 20
188.4983433964739
 30
0.0
 11
-126.7815817974599
 21
187.0426604454726
 31
0.0
  0
LINE
  5
293
  8
ZUWAKU
  6
CONTINUOUS
 62
     4
 10
-128.0754984654926
 20
188.1951557572681
 30
0.0
 11
-126.8333456064804
 21
186.9530028982558
 31
0.0
  0
LINE
  5
294
  8
ZUWAKU
  6
CONTINUOUS
 62
     4
 10
-127.8823133002349
 20
187.860549235773
 30
0.0
 11
-126.8851094155009
 21
186.863345351039
 31
0.0
  0
LINE
  5
295
  8
ZUWAKU
  6
CONTINUOUS
 62
     4
 10
-127.6891281349771
 20
187.525942714278
 30
0.0
 11
-126.9368732245214
 21
186.7736878038222
 31
0.0
  0
LINE
  5
296
  8
ZUWAKU
  6
CONTINUOUS
 62
     4
 10
-127.4959429697194
 20
187.191336192783
 30
0.0
 11
-126.9886370335419
 21
186.6840302566054
 31
0.0
  0
LINE
  5
297
  8
ZUWAKU
  6
CONTINUOUS
 62
     4
 10
-127.3027578044616
 20
186.8567296712879
 30
0.0
 11
-127.0404008425624
 21
186.5943727093887
 31
0.0
  0
LINE
  5
298
  8
ZUWAKU
  6
CONTINUOUS
 62
     4
 10
-127.1095726392038
 20
186.5221231497929
 30
0.0
 11
-127.0921646515829
 21
186.5047151621719
 31
0.0
  0
LINE
  5
299
  8
ZUWAKU
  6
CONTINUOUS
 62
     4
 10
105.0
 20
-172.0
 30
0.0
 11
105.0
 21
-130.0
 31
0.0
  0
LINE
  5
29A
  8
ZUWAKU
  6
CONTINUOUS
 62
     4
 10
109.0
 20
-172.0
 30
0.0
 11
109.0
 21
-130.0
 31
0.0
  0
LINE
  5
29B
  8
ZUWAKU
  6
CONTINUOUS
 62
     4
 10
121.5
 20
-176.0
 30
0.0
 11
121.5
 21
-130.0
 31
0.0
  0
LINE
  5
29C
  8
ZUWAKU
  6
CONTINUOUS
 62
     4
 10
97.00000000000001
 20
-137.0
 30
0.0
 11
146.0
 21
-137.0
 31
0.0
  0
LINE
  5
29D
  8
ZUWAKU
  6
CONTINUOUS
 62
     4
 10
97.00000000000001
 20
-144.0
 30
0.0
 11
146.0
 21
-144.0
 31
0.0
  0
LINE
  5
29E
  8
ZUWAKU
  6
CONTINUOUS
 62
     4
 10
97.00000000000001
 20
-165.0
 30
0.0
 11
146.0
 21
-165.0
 31
0.0
  0
LINE
  5
29F
  8
ZUWAKU
  6
CONTINUOUS
 62
     4
 10
97.00000000000001
 20
-172.0
 30
0.0
 11
146.0
 21
-172.0
 31
0.0
  0
LINE
  5
2A0
  8
ZUWAKU
  6
CONTINUOUS
 62
     4
 10
255.0
 20
-166.0
 30
0.0
 11
277.0
 21
-166.0
 31
0.0
  0
LINE
  5
2A1
  8
ZUWAKU
  6
CONTINUOUS
 62
     4
 10
202.0
 20
-148.0
 30
0.0
 11
202.0
 21
-146.5
 31
0.0
  0
LINE
  5
2A2
  8
ZUWAKU
  6
CONTINUOUS
 62
     4
 10
226.0
 20
-148.0
 30
0.0
 11
226.0
 21
-146.5
 31
0.0
  0
LINE
  5
2A3
  8
ZUWAKU
  6
CONTINUOUS
 62
     4
 10
243.0
 20
-148.0
 30
0.0
 11
243.0
 21
-146.5
 31
0.0
  0
LINE
  5
2A4
  8
ZUWAKU
  6
CONTINUOUS
 62
     4
 10
97.00000000000001
 20
-151.0
 30
0.0
 11
146.0
 21
-151.0
 31
0.0
  0
LINE
  5
2A5
  8
ZUWAKU
  6
CONTINUOUS
 62
     4
 10
97.00000000000001
 20
-158.0
 30
0.0
 11
146.0
 21
-158.0
 31
0.0
  0
LINE
  5
2A6
  8
ZUWAKU
  6
CONTINUOUS
 62
     4
 10
101.0
 20
-130.5
 30
0.0
 11
98.00000000000001
 21
-136.5
 31
0.0
  0
LINE
  5
2A7
  8
ZUWAKU
  6
CONTINUOUS
 62
     4
 10
101.0
 20
-130.5
 30
0.0
 11
104.0
 21
-136.5
 31
0.0
  0
LINE
  5
2A8
  8
ZUWAKU
  6
CONTINUOUS
 62
     4
 10
98.00000000000001
 20
-136.5
 30
0.0
 11
104.0
 21
-136.5
 31
0.0
  0
LINE
  5
2A9
  8
ZUWAKU
  6
CONTINUOUS
 62
     4
 10
101.0
 20
-158.5
 30
0.0
 11
98.00000000000001
 21
-164.5
 31
0.0
  0
LINE
  5
2AA
  8
ZUWAKU
  6
CONTINUOUS
 62
     4
 10
101.0
 20
-158.5
 30
0.0
 11
104.0
 21
-164.5
 31
0.0
  0
LINE
  5
2AB
  8
ZUWAKU
  6
CONTINUOUS
 62
     4
 10
98.00000000000001
 20
-164.5
 30
0.0
 11
104.0
 21
-164.5
 31
0.0
  0
LINE
  5
2AC
  8
ZUWAKU
  6
CONTINUOUS
 62
     4
 10
101.0
 20
-151.5
 30
0.0
 11
98.00000000000001
 21
-157.5
 31
0.0
  0
LINE
  5
2AD
  8
ZUWAKU
  6
CONTINUOUS
 62
     4
 10
101.0
 20
-151.5
 30
0.0
 11
104.0
 21
-157.5
 31
0.0
  0
LINE
  5
2AE
  8
ZUWAKU
  6
CONTINUOUS
 62
     4
 10
98.00000000000001
 20
-157.5
 30
0.0
 11
104.0
 21
-157.5
 31
0.0
  0
LINE
  5
2AF
  8
ZUWAKU
  6
CONTINUOUS
 62
     4
 10
101.0
 20
-144.5
 30
0.0
 11
98.00000000000001
 21
-150.5
 31
0.0
  0
LINE
  5
2B0
  8
ZUWAKU
  6
CONTINUOUS
 62
     4
 10
101.0
 20
-144.5
 30
0.0
 11
104.0
 21
-150.5
 31
0.0
  0
LINE
  5
2B1
  8
ZUWAKU
  6
CONTINUOUS
 62
     4
 10
98.00000000000001
 20
-150.5
 30
0.0
 11
104.0
 21
-150.5
 31
0.0
  0
LINE
  5
2B2
  8
ZUWAKU
  6
CONTINUOUS
 62
     4
 10
101.0
 20
-137.5
 30
0.0
 11
98.00000000000001
 21
-143.5
 31
0.0
  0
LINE
  5
2B3
  8
ZUWAKU
  6
CONTINUOUS
 62
     4
 10
101.0
 20
-137.5
 30
0.0
 11
104.0
 21
-143.5
 31
0.0
  0
LINE
  5
2B4
  8
ZUWAKU
  6
CONTINUOUS
 62
     4
 10
98.00000000000001
 20
-143.5
 30
0.0
 11
104.0
 21
-143.5
 31
0.0
  0
LINE
  5
2B5
  8
ZUWAKU
  6
CONTINUOUS
 62
     4
 10
172.6666666666666
 20
-176.0
 30
0.0
 11
172.6666666666666
 21
-162.0
 31
0.0
  0
LINE
  5
2B6
  8
ZUWAKU
  6
CONTINUOUS
 62
     4
 10
199.3333333333333
 20
-176.0
 30
0.0
 11
199.3333333333333
 21
-161.9509415757253
 31
0.0
  0
LINE
  5
2B7
  8
ZUWAKU
  6
CONTINUOUS
 62
     4
 10
212.6666666666666
 20
-167.5
 30
0.0
 11
212.6666666666666
 21
-161.9509415757253
 31
0.0
  0
LINE
  5
2B8
  8
ZUWAKU
  6
CONTINUOUS
 62
     4
 10
226.0
 20
-155.0
 30
0.0
 11
255.0
 21
-155.0
 31
0.0
  0
LINE
  5
2B9
  8
ZUWAKU
  6
CONTINUOUS
 62
     4
 10
146.0
 20
-166.0
 30
0.0
 11
226.0
 21
-166.0
 31
0.0
  0
LINE
  5
2BA
  8
ZUWAKU
  6
CONTINUOUS
 62
     4
 10
258.7500000000001
 20
179.9999999999999
 30
0.0
 11
258.7500000000001
 21
189.9999999999999
 31
0.0
  0
LINE
  5
2BB
  8
ZUWAKU
  6
CONTINUOUS
 62
     4
 10
240.5000000000001
 20
179.9999999999999
 30
0.0
 11
240.5000000000001
 21
189.9999999999999
 31
0.0
  0
LINE
  5
2BC
  8
ZUWAKU
  6
CONTINUOUS
 62
     4
 10
222.2500000000001
 20
179.9999999999999
 30
0.0
 11
222.2500000000001
 21
189.9999999999999
 31
0.0
  0
LINE
  5
2BD
  8
ZUWAKU
  6
CONTINUOUS
 62
     4
 10
204.0000000000001
 20
179.9999999999999
 30
0.0
 11
204.0000000000001
 21
189.9999999999999
 31
0.0
  0
LINE
  5
2BE
  8
ZUWAKU
  6
CONTINUOUS
 62
     4
 10
185.7500000000001
 20
179.9999999999999
 30
0.0
 11
185.7500000000001
 21
189.9999999999999
 31
0.0
  0
LINE
  5
2BF
  8
ZUWAKU
  6
CONTINUOUS
 62
     4
 10
167.5000000000001
 20
179.9999999999999
 30
0.0
 11
167.5000000000001
 21
189.9999999999999
 31
0.0
  0
LINE
  5
2C0
  8
ZUWAKU
  6
CONTINUOUS
 62
     4
 10
149.2500000000001
 20
179.9999999999999
 30
0.0
 11
149.2500000000001
 21
189.9999999999999
 31
0.0
  0
LINE
  5
2C1
  8
ZUWAKU
  6
CONTINUOUS
 62
     4
 10
131.0000000000001
 20
183.3333333333337
 30
0.0
 11
276.8559329553406
 21
183.3333333333337
 31
0.0
  0
LINE
  5
2C2
  8
ZUWAKU
  6
CONTINUOUS
 62
     4
 10
131.0000000000001
 20
189.9999999999999
 30
0.0
 11
131.0000000000001
 21
179.9999999999999
 31
0.0
  0
LINE
  5
2C3
  8
ZUWAKU
  6
CONTINUOUS
 62
     4
 10
-218.2925710077994
 20
188.476174033853
 30
0.0
 11
-219.4472715461787
 21
186.476174033853
 31
0.0
  0
LINE
  5
2C4
  8
ZUWAKU
  6
CONTINUOUS
 62
     4
 10
-219.4472715461787
 20
186.476174033853
 30
0.0
 11
-220.6019720845579
 21
188.476174033853
 31
0.0
  0
LINE
  5
2C5
  8
ZUWAKU
  6
CONTINUOUS
 62
     4
 10
-132.8638689229955
 20
188.4983433964739
 30
0.0
 11
-125.9411428538446
 21
188.4983433964739
 31
0.0
  0
LINE
  5
2C6
  8
ZUWAKU
  6
CONTINUOUS
 62
     4
 10
-125.9411428538446
 20
188.4983433964739
 30
0.0
 11
-127.0958433922238
 21
186.4983433964739
 31
0.0
  0
LINE
  5
2C7
  8
ZUWAKU
  6
CONTINUOUS
 62
     4
 10
-127.0958433922238
 20
186.4983433964739
 30
0.0
 11
-128.2586885975162
 21
188.5124503733781
 31
0.0
  0
LINE
  5
2C8
  8
ZUWAKU
  6
CONTINUOUS
 62
     4
 10
-128.2505439306031
 20
188.4983433964739
 30
0.0
 11
-129.4025058884201
 21
186.5030867571485
 31
0.0
  0
LINE
  5
2C9
  8
ZUWAKU
  6
CONTINUOUS
 62
     4
 10
-129.4025058884201
 20
186.5030867571485
 30
0.0
 11
-130.5545291860738
 21
188.4984496401879
 31
0.0
  0
LINE
  5
2CA
  8
ZUWAKU
  6
CONTINUOUS
 62
     4
 10
-130.554467846237
 20
188.4983433964739
 30
0.0
 11
-131.7148559129413
 21
186.4884923084454
 31
0.0
  0
LINE
  5
2CB
  8
ZUWAKU
  6
CONTINUOUS
 62
     4
 10
-131.7091683846163
 20
186.4983433964739
 30
0.0
 11
-132.8663986750254
 21
188.5027250555201
 31
0.0
  0
LINE
  5
2CC
  8
ZUWAKU
  6
CONTINUOUS
 62
     4
 10
-177.8965033760828
 20
188.531573759697
 30
0.0
 11
-170.9737773069319
 21
188.531573759697
 31
0.0
  0
LINE
  5
2CD
  8
ZUWAKU
  6
CONTINUOUS
 62
     4
 10
-170.9737773069319
 20
188.531573759697
 30
0.0
 11
-172.1284778453111
 21
186.531573759697
 31
0.0
  0
LINE
  5
2CE
  8
ZUWAKU
  6
CONTINUOUS
 62
     4
 10
-172.1284778453111
 20
186.531573759697
 30
0.0
 11
-173.2913230506035
 21
188.5456807366012
 31
0.0
  0
LINE
  5
2CF
  8
ZUWAKU
  6
CONTINUOUS
 62
     4
 10
-173.2831783836904
 20
188.531573759697
 30
0.0
 11
-174.4351403415073
 21
186.5363171203715
 31
0.0
  0
LINE
  5
2D0
  8
ZUWAKU
  6
CONTINUOUS
 62
     4
 10
-174.4351403415073
 20
186.5363171203715
 30
0.0
 11
-175.5871636391611
 21
188.531680003411
 31
0.0
  0
LINE
  5
2D1
  8
ZUWAKU
  6
CONTINUOUS
 62
     4
 10
-175.5871022993243
 20
188.531573759697
 30
0.0
 11
-176.7474903660286
 21
186.5217226716685
 31
0.0
  0
LINE
  5
2D2
  8
ZUWAKU
  6
CONTINUOUS
 62
     4
 10
-176.7418028377036
 20
186.531573759697
 30
0.0
 11
-177.8990331281126
 21
188.5359554187432
 31
0.0
  0
LINE
  5
2D3
  8
ZUWAKU
  6
CONTINUOUS
 62
     4
 10
-200.3670241701527
 20
188.5727405553386
 30
0.0
 11
-195.7536991777603
 21
188.5727405553386
 31
0.0
  0
LINE
  5
2D4
  8
ZUWAKU
  6
CONTINUOUS
 62
     4
 10
-195.7536991777603
 20
188.5727405553386
 30
0.0
 11
-196.9083997161396
 21
186.5727405553386
 31
0.0
  0
LINE
  5
2D5
  8
ZUWAKU
  6
CONTINUOUS
 62
     4
 10
-196.9083997161396
 20
186.5727405553386
 30
0.0
 11
-198.0712449214319
 21
188.5868475322428
 31
0.0
  0
LINE
  5
2D6
  8
ZUWAKU
  6
CONTINUOUS
 62
     4
 10
-198.0631002545189
 20
188.5727405553386
 30
0.0
 11
-199.2150622123358
 21
186.5774839160132
 31
0.0
  0
LINE
  5
2D7
  8
ZUWAKU
  6
CONTINUOUS
 62
     4
 10
-199.2150622123358
 20
186.5774839160132
 30
0.0
 11
-200.3670855099896
 21
188.5728467990526
 31
0.0
  0
LINE
  5
2D8
  8
ZUWAKU
  6
CONTINUOUS
 62
     4
 10
-220.6019720845579
 20
188.476174033853
 30
0.0
 11
-218.2925710077994
 21
188.476174033853
 31
0.0
  0
LINE
  5
2D9
  8
ZUWAKU
  6
CONTINUOUS
 62
     4
 10
-154.7449214064321
 20
187.3569078961084
 30
0.0
 11
-149.1487224992438
 21
187.3569078961084
 31
0.0
  0
LINE
  5
2DA
  8
ZUWAKU
  6
CONTINUOUS
 62
     4
 10
-149.1487224992438
 20
187.3569078961084
 30
0.0
 11
-150.0821602557662
 21
185.7401462761084
 31
0.0
  0
LINE
  5
2DB
  8
ZUWAKU
  6
CONTINUOUS
 62
     4
 10
-150.0821602557662
 20
185.7401462761084
 30
0.0
 11
-151.0221820047251
 21
187.3683117055248
 31
0.0
  0
LINE
  5
2DC
  8
ZUWAKU
  6
CONTINUOUS
 62
     4
 10
-151.0155980122888
 20
187.3569078961084
 30
0.0
 11
-151.946821952838
 21
185.7439807178525
 31
0.0
  0
LINE
  5
2DD
  8
ZUWAKU
  6
CONTINUOUS
 62
     4
 10
-151.946821952838
 20
185.7439807178525
 30
0.0
 11
-152.8780954793341
 21
187.3569937814879
 31
0.0
  0
LINE
  5
2DE
  8
ZUWAKU
  6
CONTINUOUS
 62
     4
 10
-152.8780458933872
 20
187.3569078961084
 30
0.0
 11
-153.816081338664
 21
185.7321828455884
 31
0.0
  0
LINE
  5
2DF
  8
ZUWAKU
  6
CONTINUOUS
 62
     4
 10
-153.8114836499097
 20
185.7401462761084
 30
0.0
 11
-154.7469664094271
 21
187.3604499451973
 31
0.0
  0
LINE
  5
2E0
  8
ZUWAKU
  6
CONTINUOUS
 62
     4
 10
-154.7449214064321
 20
187.3569078961084
 30
0.0
 11
-149.1487224992438
 21
187.3569078961084
 31
0.0
  0
LINE
  5
2E1
  8
ZUWAKU
  6
CONTINUOUS
 62
     4
 10
-149.1487224992438
 20
187.3569078961084
 30
0.0
 11
-150.0821602557662
 21
185.7401462761084
 31
0.0
  0
LINE
  5
2E2
  8
ZUWAKU
  6
CONTINUOUS
 62
     4
 10
-150.0821602557662
 20
185.7401462761084
 30
0.0
 11
-151.0221820047251
 21
187.3683117055248
 31
0.0
  0
LINE
  5
2E3
  8
ZUWAKU
  6
CONTINUOUS
 62
     4
 10
-151.0155980122888
 20
187.3569078961084
 30
0.0
 11
-151.946821952838
 21
185.7439807178525
 31
0.0
  0
LINE
  5
2E4
  8
ZUWAKU
  6
CONTINUOUS
 62
     4
 10
-151.946821952838
 20
185.7439807178525
 30
0.0
 11
-152.8780954793341
 21
187.3569937814879
 31
0.0
  0
LINE
  5
2E5
  8
ZUWAKU
  6
CONTINUOUS
 62
     4
 10
-152.8780458933872
 20
187.3569078961084
 30
0.0
 11
-153.816081338664
 21
185.7321828455884
 31
0.0
  0
LINE
  5
2E6
  8
ZUWAKU
  6
CONTINUOUS
 62
     4
 10
-153.8114836499097
 20
185.7401462761084
 30
0.0
 11
-154.7469664094271
 21
187.3604499451973
 31
0.0
  0
LINE
  5
2E7
  8
ZUWAKU
  6
CONTINUOUS
 62
     4
 10
-126.0958433922238
 20
188.4983433964739
 30
0.0
 11
-127.4618687960083
 21
187.1323179926895
 31
0.0
  0
LINE
  5
2E8
  8
ZUWAKU
  6
CONTINUOUS
 62
     4
 10
-126.2372647484611
 20
188.4983433964739
 30
0.0
 11
-127.5136326050288
 21
187.2219755399063
 31
0.0
  0
LINE
  5
2E9
  8
ZUWAKU
  6
CONTINUOUS
 62
     4
 10
-126.3786861046984
 20
188.4983433964739
 30
0.0
 11
-127.5653964140492
 21
187.3116330871231
 31
0.0
  0
LINE
  5
2EA
  8
ZUWAKU
  6
CONTINUOUS
 62
     4
 10
-126.5201074609357
 20
188.4983433964739
 30
0.0
 11
-127.6171602230698
 21
187.4012906343399
 31
0.0
  0
LINE
  5
2EB
  8
ZUWAKU
  6
CONTINUOUS
 62
     4
 10
-126.661528817173
 20
188.4983433964739
 30
0.0
 11
-127.6689240320903
 21
187.4909481815566
 31
0.0
  0
LINE
  5
2EC
  8
ZUWAKU
  6
CONTINUOUS
 62
     4
 10
-126.8029501734103
 20
188.4983433964739
 30
0.0
 11
-127.7206878411108
 21
187.5806057287734
 31
0.0
  0
LINE
  5
2ED
  8
ZUWAKU
  6
CONTINUOUS
 62
     4
 10
-126.9443715296476
 20
188.4983433964739
 30
0.0
 11
-127.7724516501312
 21
187.6702632759902
 31
0.0
  0
LINE
  5
2EE
  8
ZUWAKU
  6
CONTINUOUS
 62
     4
 10
-127.0857928858848
 20
188.4983433964739
 30
0.0
 11
-127.8242154591517
 21
187.759920823207
 31
0.0
  0
LINE
  5
2EF
  8
ZUWAKU
  6
CONTINUOUS
 62
     4
 10
-127.2272142421221
 20
188.4983433964739
 30
0.0
 11
-127.8759792681722
 21
187.8495783704238
 31
0.0
  0
LINE
  5
2F0
  8
ZUWAKU
  6
CONTINUOUS
 62
     4
 10
-127.3686355983594
 20
188.4983433964739
 30
0.0
 11
-127.9277430771927
 21
187.9392359176406
 31
0.0
  0
LINE
  5
2F1
  8
ZUWAKU
  6
CONTINUOUS
 62
     4
 10
-127.5100569545967
 20
188.4983433964739
 30
0.0
 11
-127.9795068862132
 21
188.0288934648574
 31
0.0
  0
LINE
  5
2F2
  8
ZUWAKU
  6
CONTINUOUS
 62
     4
 10
-127.651478310834
 20
188.4983433964739
 30
0.0
 11
-128.0312706952337
 21
188.1185510120742
 31
0.0
  0
LINE
  5
2F3
  8
ZUWAKU
  6
CONTINUOUS
 62
     4
 10
-127.7928996670713
 20
188.4983433964739
 30
0.0
 11
-128.0830345042542
 21
188.208208559291
 31
0.0
  0
LINE
  5
2F4
  8
ZUWAKU
  6
CONTINUOUS
 62
     4
 10
-127.9343210233085
 20
188.4983433964739
 30
0.0
 11
-128.1347983132747
 21
188.2978661065078
 31
0.0
  0
LINE
  5
2F5
  8
ZUWAKU
  6
CONTINUOUS
 62
     4
 10
-128.0757423795458
 20
188.4983433964739
 30
0.0
 11
-128.1865621222952
 21
188.3875236537246
 31
0.0
  0
LINE
  5
2F6
  8
ZUWAKU
  6
CONTINUOUS
 62
     4
 10
-128.2171637357831
 20
188.4983433964739
 30
0.0
 11
-128.2383259313157
 21
188.4771812009414
 31
0.0
  0
LINE
  5
2F7
  8
ZUWAKU
  6
CONTINUOUS
 62
     4
 10
-125.9544220359865
 20
188.4983433964739
 30
0.0
 11
-127.4101049869878
 21
187.0426604454726
 31
0.0
  0
LINE
  5
2F8
  8
ZUWAKU
  6
CONTINUOUS
 62
     4
 10
-126.116188318955
 20
188.1951557572682
 30
0.0
 11
-127.3583411779673
 21
186.9530028982558
 31
0.0
  0
LINE
  5
2F9
  8
ZUWAKU
  6
CONTINUOUS
 62
     4
 10
-126.3093734842128
 20
187.8605492357731
 30
0.0
 11
-127.3065773689468
 21
186.863345351039
 31
0.0
  0
LINE
  5
2FA
  8
ZUWAKU
  6
CONTINUOUS
 62
     4
 10
-126.5025586494705
 20
187.525942714278
 30
0.0
 11
-127.2548135599263
 21
186.7736878038222
 31
0.0
  0
LINE
  5
2FB
  8
ZUWAKU
  6
CONTINUOUS
 62
     4
 10
-126.6957438147284
 20
187.1913361927829
 30
0.0
 11
-127.2030497509058
 21
186.6840302566055
 31
0.0
  0
LINE
  5
2FC
  8
ZUWAKU
  6
CONTINUOUS
 62
     4
 10
-126.8889289799861
 20
186.8567296712879
 30
0.0
 11
-127.1512859418853
 21
186.5943727093887
 31
0.0
  0
LINE
  5
2FD
  8
ZUWAKU
  6
CONTINUOUS
 62
     4
 10
-127.0821141452439
 20
186.5221231497929
 30
0.0
 11
-127.0995221328648
 21
186.5047151621719
 31
0.0
  0
LINE
  5
2FE
  8
ZUWAKU
  6
CONTINUOUS
 62
     4
 10
-128.0958433922239
 20
188.4983433964739
 30
0.0
 11
-126.7298179884394
 21
187.1323179926895
 31
0.0
  0
LINE
  5
2FF
  8
ZUWAKU
  6
CONTINUOUS
 62
     4
 10
-127.9544220359866
 20
188.4983433964739
 30
0.0
 11
-126.6780541794189
 21
187.2219755399063
 31
0.0
  0
LINE
  5
300
  8
ZUWAKU
  6
CONTINUOUS
 62
     4
 10
-127.8130006797493
 20
188.4983433964739
 30
0.0
 11
-126.6262903703984
 21
187.311633087123
 31
0.0
  0
LINE
  5
301
  8
ZUWAKU
  6
CONTINUOUS
 62
     4
 10
-127.671579323512
 20
188.4983433964739
 30
0.0
 11
-126.5745265613779
 21
187.4012906343398
 31
0.0
  0
LINE
  5
302
  8
ZUWAKU
  6
CONTINUOUS
 62
     4
 10
-127.5301579672747
 20
188.4983433964739
 30
0.0
 11
-126.5227627523574
 21
187.4909481815566
 31
0.0
  0
LINE
  5
303
  8
ZUWAKU
  6
CONTINUOUS
 62
     4
 10
-127.3887366110374
 20
188.4983433964739
 30
0.0
 11
-126.4709989433369
 21
187.5806057287734
 31
0.0
  0
LINE
  5
304
  8
ZUWAKU
  6
CONTINUOUS
 62
     4
 10
-127.2473152548002
 20
188.4983433964739
 30
0.0
 11
-126.4192351343164
 21
187.6702632759902
 31
0.0
  0
LINE
  5
305
  8
ZUWAKU
  6
CONTINUOUS
 62
     4
 10
-127.1058938985628
 20
188.4983433964739
 30
0.0
 11
-126.3674713252959
 21
187.759920823207
 31
0.0
  0
LINE
  5
306
  8
ZUWAKU
  6
CONTINUOUS
 62
     4
 10
-126.9644725423256
 20
188.4983433964739
 30
0.0
 11
-126.3157075162754
 21
187.8495783704238
 31
0.0
  0
LINE
  5
307
  8
ZUWAKU
  6
CONTINUOUS
 62
     4
 10
-126.8230511860883
 20
188.4983433964739
 30
0.0
 11
-126.2639437072549
 21
187.9392359176406
 31
0.0
  0
LINE
  5
308
  8
ZUWAKU
  6
CONTINUOUS
 62
     4
 10
-126.681629829851
 20
188.4983433964739
 30
0.0
 11
-126.2121798982344
 21
188.0288934648574
 31
0.0
  0
LINE
  5
309
  8
ZUWAKU
  6
CONTINUOUS
 62
     4
 10
-126.5402084736137
 20
188.4983433964739
 30
0.0
 11
-126.1604160892139
 21
188.1185510120742
 31
0.0
  0
LINE
  5
30A
  8
ZUWAKU
  6
CONTINUOUS
 62
     4
 10
-126.3987871173764
 20
188.4983433964739
 30
0.0
 11
-126.1086522801934
 21
188.208208559291
 31
0.0
  0
LINE
  5
30B
  8
ZUWAKU
  6
CONTINUOUS
 62
     4
 10
-126.2573657611391
 20
188.4983433964739
 30
0.0
 11
-126.056888471173
 21
188.2978661065078
 31
0.0
  0
LINE
  5
30C
  8
ZUWAKU
  6
CONTINUOUS
 62
     4
 10
-126.1159444049019
 20
188.4983433964739
 30
0.0
 11
-126.0051246621524
 21
188.3875236537245
 31
0.0
  0
LINE
  5
30D
  8
ZUWAKU
  6
CONTINUOUS
 62
     4
 10
-125.9745230486646
 20
188.4983433964739
 30
0.0
 11
-125.953360853132
 21
188.4771812009413
 31
0.0
  0
LINE
  5
30E
  8
ZUWAKU
  6
CONTINUOUS
 62
     4
 10
-128.2372647484611
 20
188.4983433964739
 30
0.0
 11
-126.7815817974599
 21
187.0426604454726
 31
0.0
  0
LINE
  5
30F
  8
ZUWAKU
  6
CONTINUOUS
 62
     4
 10
-128.0754984654926
 20
188.1951557572681
 30
0.0
 11
-126.8333456064804
 21
186.9530028982558
 31
0.0
  0
LINE
  5
310
  8
ZUWAKU
  6
CONTINUOUS
 62
     4
 10
-127.8823133002349
 20
187.860549235773
 30
0.0
 11
-126.8851094155009
 21
186.863345351039
 31
0.0
  0
LINE
  5
311
  8
ZUWAKU
  6
CONTINUOUS
 62
     4
 10
-127.6891281349771
 20
187.525942714278
 30
0.0
 11
-126.9368732245214
 21
186.7736878038222
 31
0.0
  0
LINE
  5
312
  8
ZUWAKU
  6
CONTINUOUS
 62
     4
 10
-127.4959429697194
 20
187.191336192783
 30
0.0
 11
-126.9886370335419
 21
186.6840302566054
 31
0.0
  0
LINE
  5
313
  8
ZUWAKU
  6
CONTINUOUS
 62
     4
 10
-127.3027578044616
 20
186.8567296712879
 30
0.0
 11
-127.0404008425624
 21
186.5943727093887
 31
0.0
  0
LINE
  5
314
  8
ZUWAKU
  6
CONTINUOUS
 62
     4
 10
-127.1095726392038
 20
186.5221231497929
 30
0.0
 11
-127.0921646515829
 21
186.5047151621719
 31
0.0
  0
LINE
  5
315
  8
ZUWAKU
  6
CONTINUOUS
 62
     4
 10
105.0
 20
-172.0
 30
0.0
 11
105.0
 21
-130.0
 31
0.0
  0
LINE
  5
316
  8
ZUWAKU
  6
CONTINUOUS
 62
     4
 10
109.0
 20
-172.0
 30
0.0
 11
109.0
 21
-130.0
 31
0.0
  0
LINE
  5
317
  8
ZUWAKU
  6
CONTINUOUS
 62
     4
 10
121.5
 20
-176.0
 30
0.0
 11
121.5
 21
-130.0
 31
0.0
  0
LINE
  5
318
  8
ZUWAKU
  6
CONTINUOUS
 62
     4
 10
97.00000000000001
 20
-137.0
 30
0.0
 11
146.0
 21
-137.0
 31
0.0
  0
LINE
  5
319
  8
ZUWAKU
  6
CONTINUOUS
 62
     4
 10
97.00000000000001
 20
-144.0
 30
0.0
 11
146.0
 21
-144.0
 31
0.0
  0
LINE
  5
31A
  8
ZUWAKU
  6
CONTINUOUS
 62
     4
 10
97.00000000000001
 20
-165.0
 30
0.0
 11
146.0
 21
-165.0
 31
0.0
  0
LINE
  5
31B
  8
ZUWAKU
  6
CONTINUOUS
 62
     4
 10
97.00000000000001
 20
-172.0
 30
0.0
 11
146.0
 21
-172.0
 31
0.0
  0
LINE
  5
31C
  8
ZUWAKU
  6
CONTINUOUS
 62
     4
 10
255.0
 20
-166.0
 30
0.0
 11
277.0
 21
-166.0
 31
0.0
  0
LINE
  5
31D
  8
ZUWAKU
  6
CONTINUOUS
 62
     4
 10
153.0
 20
-139.5
 30
0.0
 11
153.0
 21
-130.0
 31
0.0
  0
LINE
  5
31E
  8
ZUWAKU
  6
CONTINUOUS
 62
     4
 10
202.0
 20
-148.0
 30
0.0
 11
202.0
 21
-146.5
 31
0.0
  0
LINE
  5
31F
  8
ZUWAKU
  6
CONTINUOUS
 62
     4
 10
226.0
 20
-148.0
 30
0.0
 11
226.0
 21
-146.5
 31
0.0
  0
LINE
  5
320
  8
ZUWAKU
  6
CONTINUOUS
 62
     4
 10
243.0
 20
-148.0
 30
0.0
 11
243.0
 21
-146.5
 31
0.0
  0
LINE
  5
321
  8
ZUWAKU
  6
CONTINUOUS
 62
     4
 10
202.0
 20
-139.5
 30
0.0
 11
202.0
 21
-130.0
 31
0.0
  0
LINE
  5
322
  8
ZUWAKU
  6
CONTINUOUS
 62
     4
 10
226.0
 20
-139.5
 30
0.0
 11
226.0
 21
-130.0
 31
0.0
  0
LINE
  5
323
  8
ZUWAKU
  6
CONTINUOUS
 62
     4
 10
243.0
 20
-139.5
 30
0.0
 11
243.0
 21
-130.0
 31
0.0
  0
LINE
  5
324
  8
ZUWAKU
  6
CONTINUOUS
 62
     4
 10
97.00000000000001
 20
-151.0
 30
0.0
 11
146.0
 21
-151.0
 31
0.0
  0
LINE
  5
325
  8
ZUWAKU
  6
CONTINUOUS
 62
     4
 10
97.00000000000001
 20
-158.0
 30
0.0
 11
146.0
 21
-158.0
 31
0.0
  0
LINE
  5
326
  8
ZUWAKU
  6
CONTINUOUS
 62
     4
 10
101.0
 20
-130.5
 30
0.0
 11
98.00000000000001
 21
-136.5
 31
0.0
  0
LINE
  5
327
  8
ZUWAKU
  6
CONTINUOUS
 62
     4
 10
101.0
 20
-130.5
 30
0.0
 11
104.0
 21
-136.5
 31
0.0
  0
LINE
  5
328
  8
ZUWAKU
  6
CONTINUOUS
 62
     4
 10
98.00000000000001
 20
-136.5
 30
0.0
 11
104.0
 21
-136.5
 31
0.0
  0
LINE
  5
329
  8
ZUWAKU
  6
CONTINUOUS
 62
     4
 10
101.0
 20
-158.5
 30
0.0
 11
98.00000000000001
 21
-164.5
 31
0.0
  0
LINE
  5
32A
  8
ZUWAKU
  6
CONTINUOUS
 62
     4
 10
101.0
 20
-158.5
 30
0.0
 11
104.0
 21
-164.5
 31
0.0
  0
LINE
  5
32B
  8
ZUWAKU
  6
CONTINUOUS
 62
     4
 10
98.00000000000001
 20
-164.5
 30
0.0
 11
104.0
 21
-164.5
 31
0.0
  0
LINE
  5
32C
  8
ZUWAKU
  6
CONTINUOUS
 62
     4
 10
101.0
 20
-151.5
 30
0.0
 11
98.00000000000001
 21
-157.5
 31
0.0
  0
LINE
  5
32D
  8
ZUWAKU
  6
CONTINUOUS
 62
     4
 10
101.0
 20
-151.5
 30
0.0
 11
104.0
 21
-157.5
 31
0.0
  0
LINE
  5
32E
  8
ZUWAKU
  6
CONTINUOUS
 62
     4
 10
98.00000000000001
 20
-157.5
 30
0.0
 11
104.0
 21
-157.5
 31
0.0
  0
LINE
  5
32F
  8
ZUWAKU
  6
CONTINUOUS
 62
     4
 10
101.0
 20
-144.5
 30
0.0
 11
98.00000000000001
 21
-150.5
 31
0.0
  0
LINE
  5
330
  8
ZUWAKU
  6
CONTINUOUS
 62
     4
 10
101.0
 20
-144.5
 30
0.0
 11
104.0
 21
-150.5
 31
0.0
  0
LINE
  5
331
  8
ZUWAKU
  6
CONTINUOUS
 62
     4
 10
98.00000000000001
 20
-150.5
 30
0.0
 11
104.0
 21
-150.5
 31
0.0
  0
LINE
  5
332
  8
ZUWAKU
  6
CONTINUOUS
 62
     4
 10
101.0
 20
-137.5
 30
0.0
 11
98.00000000000001
 21
-143.5
 31
0.0
  0
LINE
  5
333
  8
ZUWAKU
  6
CONTINUOUS
 62
     4
 10
101.0
 20
-137.5
 30
0.0
 11
104.0
 21
-143.5
 31
0.0
  0
LINE
  5
334
  8
ZUWAKU
  6
CONTINUOUS
 62
     4
 10
98.00000000000001
 20
-143.5
 30
0.0
 11
104.0
 21
-143.5
 31
0.0
  0
LINE
  5
335
  8
ZUWAKU
  6
CONTINUOUS
 62
     4
 10
172.6666666666666
 20
-176.0
 30
0.0
 11
172.6666666666666
 21
-162.0
 31
0.0
  0
LINE
  5
336
  8
ZUWAKU
  6
CONTINUOUS
 62
     4
 10
199.3333333333333
 20
-176.0
 30
0.0
 11
199.3333333333333
 21
-161.9509415757253
 31
0.0
  0
LINE
  5
337
  8
ZUWAKU
  6
CONTINUOUS
 62
     4
 10
212.6666666666666
 20
-167.5
 30
0.0
 11
212.6666666666666
 21
-161.9509415757253
 31
0.0
  0
LINE
  5
338
  8
ZUWAKU
  6
CONTINUOUS
 62
     4
 10
226.0
 20
-155.0
 30
0.0
 11
255.0
 21
-155.0
 31
0.0
  0
LINE
  5
339
  8
ZUWAKU
  6
CONTINUOUS
 62
     4
 10
146.0
 20
-166.0
 30
0.0
 11
226.0
 21
-166.0
 31
0.0
  0
TEXT
  5
33A
  8
ZUWAKU
 62
     7
 10
106.0000000000001
 20
186.8333333333332
 30
0.0
 40
2.0
  1
特ニ指定ノナイ機械加
 41
1.186440677966102
  7
DCSTYLE0
 72
     5
 11
126.0000000000001
 21
186.8333333333332
 31
0.0
  0
TEXT
  5
33B
  8
ZUWAKU
 62
     7
 10
106.0000000000001
 20
183.9999999999999
 30
0.0
 40
2.0
  1
工部分ノ寸法ニ対スル
 41
1.186440677966102
  7
DCSTYLE0
 72
     5
 11
126.0000000000001
 21
183.9999999999999
 31
0.0
  0
TEXT
  5
33C
  8
ZUWAKU
 62
     7
 10
106.4921112372305
 20
181.1666666666666
 30
0.0
 40
2.0
  1
寸法差 (単位mm)
 41
1.076923076923077
  7
DCSTYLE0
 72
     5
 11
126.4921112372305
 21
181.1666666666666
 31
0.0
  0
TEXT
  5
33D
  8
ZUWAKU
 62
     7
 10
132.7604426787742
 20
187.1111133333332
 30
0.0
 40
2.0
  1
呼ビ寸法
 41
2.130434782608696
  7
DCSTYLE0
 72
     5
 11
146.7604426787742
 21
187.1111133333332
 31
0.0
  0
TEXT
  5
33E
  8
ZUWAKU
 62
     7
 10
133.1250908059024
 20
184.2222200000002
 30
0.0
 40
2.0
  1
ノ区分
 41
2.882352941176471
  7
DCSTYLE0
 72
     5
 11
147.1250908059024
 21
184.2222200000002
 31
0.0
  0
TEXT
  5
33F
  8
ZUWAKU
 62
     7
 10
133.1250000000001
 20
180.6666733333338
 30
0.0
 40
2.0
  1
寸法差
 41
2.882352941176471
  7
DCSTYLE0
 72
     5
 11
147.1250000000001
 21
180.6666733333338
 31
0.0
  0
TEXT
  5
340
  8
ZUWAKU
 62
     7
 10
151.0104426787742
 20
187.1111133333336
 30
0.0
 40
2.0
  1
１以上
 41
2.882352941176471
  7
DCSTYLE0
 72
     5
 11
165.0104426787742
 21
187.1111133333336
 31
0.0
  0
TEXT
  5
341
  8
ZUWAKU
 62
     7
 10
151.3750908059024
 20
184.2222200000006
 30
0.0
 40
2.0
  1
４以下
 41
2.882352941176471
  7
DCSTYLE0
 72
     5
 11
165.3750908059024
 21
184.2222200000006
 31
0.0
  0
TEXT
  5
342
  8
ZUWAKU
 62
     7
 10
151.3750000000001
 20
180.6666733333341
 30
0.0
 40
2.0
  1
 ±０．１ 
 41
1.204918032786885
  7
DCSTYLE0
 72
     5
 11
165.3750000000001
 21
180.6666733333341
 31
0.0
  0
TEXT
  5
343
  8
ZUWAKU
 62
     7
 10
169.6250908059024
 20
184.2222200000006
 30
0.0
 40
2.0
  1
１６以下
 41
2.130434782608696
  7
DCSTYLE0
 72
     5
 11
183.6250908059024
 21
184.2222200000006
 31
0.0
  0
TEXT
  5
344
  8
ZUWAKU
 62
     7
 10
169.2604426787742
 20
187.1111133333336
 30
0.0
 40
2.0
  1
 ４ヲコエ
 41
1.633333333333333
  7
DCSTYLE0
 72
     5
 11
183.2604426787742
 21
187.1111133333336
 31
0.0
  0
TEXT
  5
345
  8
ZUWAKU
 62
     7
 10
169.6250000000001
 20
180.6666733333341
 30
0.0
 40
2.0
  1
 ±０．２ 
 41
1.204918032786885
  7
DCSTYLE0
 72
     5
 11
183.6250000000001
 21
180.6666733333341
 31
0.0
  0
TEXT
  5
346
  8
ZUWAKU
 62
     7
 10
187.5104426787742
 20
187.1111133333336
 30
0.0
 40
2.0
  1
１６ヲコエ
 41
1.689655172413793
  7
DCSTYLE0
 72
     5
 11
201.5104426787742
 21
187.1111133333336
 31
0.0
  0
TEXT
  5
347
  8
ZUWAKU
 62
     7
 10
187.8750908059024
 20
184.2222200000006
 30
0.0
 40
2.0
  1
６３以下
 41
2.130434782608696
  7
DCSTYLE0
 72
     5
 11
201.8750908059024
 21
184.2222200000006
 31
0.0
  0
TEXT
  5
348
  8
ZUWAKU
 62
     7
 10
187.8750000000001
 20
180.6666733333341
 30
0.0
 40
2.0
  1
 ±０．３ 
 41
1.204918032786885
  7
DCSTYLE0
 72
     5
 11
201.8750000000001
 21
180.6666733333341
 31
0.0
  0
TEXT
  5
349
  8
ZUWAKU
 62
     7
 10
206.1250908059024
 20
184.2222200000006
 30
0.0
 40
2.0
  1
２５０以下
 41
1.689655172413793
  7
DCSTYLE0
 72
     5
 11
220.1250908059024
 21
184.2222200000006
 31
0.0
  0
TEXT
  5
34A
  8
ZUWAKU
 62
     7
 10
205.7604426787742
 20
187.1111133333336
 30
0.0
 40
2.0
  1
 ６３ヲコエ
 41
1.361111111111111
  7
DCSTYLE0
 72
     5
 11
219.7604426787742
 21
187.1111133333336
 31
0.0
  0
TEXT
  5
34B
  8
ZUWAKU
 62
     7
 10
206.1250000000001
 20
180.6666733333341
 30
0.0
 40
2.0
  1
 ±０．５ 
 41
1.204918032786885
  7
DCSTYLE0
 72
     5
 11
220.1250000000001
 21
180.6666733333341
 31
0.0
  0
TEXT
  5
34C
  8
ZUWAKU
 62
     7
 10
224.3750908059024
 20
184.2222200000006
 30
0.0
 40
2.0
  1
１０００以下
 41
1.4
  7
DCSTYLE0
 72
     5
 11
238.3750908059024
 21
184.2222200000006
 31
0.0
  0
TEXT
  5
34D
  8
ZUWAKU
 62
     7
 10
224.3750000000001
 20
180.6666733333341
 30
0.0
 40
2.0
  1
 ±０．８ 
 41
1.204918032786885
  7
DCSTYLE0
 72
     5
 11
238.3750000000001
 21
180.6666733333341
 31
0.0
  0
TEXT
  5
34E
  8
ZUWAKU
 62
     7
 10
242.2604426787742
 20
187.1111133333336
 30
0.0
 40
2.0
  1
１０００ヲコエ
 41
1.195121951219512
  7
DCSTYLE0
 72
     5
 11
256.2604426787742
 21
187.1111133333336
 31
0.0
  0
TEXT
  5
34F
  8
ZUWAKU
 62
     7
 10
242.6250908059024
 20
184.2222200000006
 30
0.0
 40
2.0
  1
２０００以下
 41
1.400000000000003
  7
DCSTYLE0
 72
     5
 11
256.6250908059025
 21
184.2222200000006
 31
0.0
  0
TEXT
  5
350
  8
ZUWAKU
 62
     7
 10
224.0104426787742
 20
187.1111133333336
 30
0.0
 40
2.0
  1
 ２５０ヲコエ
 41
1.166666666666667
  7
DCSTYLE0
 72
     5
 11
238.0104426787742
 21
187.1111133333336
 31
0.0
  0
TEXT
  5
351
  8
ZUWAKU
 62
     7
 10
260.5104426787742
 20
187.1111133333336
 30
0.0
 40
2.0
  1
２０００ヲ
 41
1.689655172413793
  7
DCSTYLE0
 72
     5
 11
274.5104426787742
 21
187.1111133333336
 31
0.0
  0
TEXT
  5
352
  8
ZUWAKU
 62
     7
 10
260.8750908059025
 20
184.2222200000006
 30
0.0
 40
2.0
  1
コエルモノ
 41
1.689655172413793
  7
DCSTYLE0
 72
     5
 11
274.8750908059025
 21
184.2222200000006
 31
0.0
  0
TEXT
  5
353
  8
ZUWAKU
 62
     7
 10
242.6250000000001
 20
180.6666733333341
 30
0.0
 40
2.0
  1
 ±１．０ 
 41
1.204918032786885
  7
DCSTYLE0
 72
     5
 11
256.6250000000001
 21
180.6666733333341
 31
0.0
  0
TEXT
  5
354
  8
ZUWAKU
 62
     7
 10
260.7309329553406
 20
180.6666733333341
 30
0.0
 40
2.0
  1
 ±２．０ 
 41
1.204918032786885
  7
DCSTYLE0
 72
     5
 11
274.7309329553406
 21
180.6666733333341
 31
0.0
  0
TEXT
  5
355
  8
ZUWAKU
 62
     7
 10
-274.4054197053454
 20
181.2949862932913
 30
0.0
 40
2.25
  1
特ニ指定ノナイ角部ハ０．５Ｃ  マタ隅部ハ０．５Ｒトスル
 41
1.159763313609467
  7
DCSTYLE0
 72
     5
 11
-211.4054197053454
 21
181.2949862932913
 31
0.0
  0
TEXT
  5
356
  8
ZUWAKU
 62
     7
 10
-274.5
 20
186.375
 30
0.0
 40
2.25
  1
仕上記号ノ表面粗さ  ～･･･特ニ規定シナイ   ･･･３５Ｓ    ･･･１８Ｓ     ･･･６S     ･･･３Ｓ     ･･･６Ｓ（キサゲ仕上）
 41
1.110508474576272
  7
DCSTYLE0
 72
     5
 11
-99.0
 21
186.375
 31
0.0
  0
TEXT
  5
357
  8
ZUWAKU
 62
     7
 10
-154.7251281296784
 20
187.670028682731
 30
0.0
 40
1.84815
  1
ケンマ
 41
1.235294117647062
  7
DCSTYLE0
 72
     5
 11
-149.1806781296784
 21
187.670028682731
 31
0.0
  0
TEXT
  5
358
  8
ZUWAKU
 62
     7
 10
-274.0
 20
-185.0000000000068
 30
0.0
 40
2.0
  1
訂正理由  Ａ注文元指示、Ｂ設計変更、Ｃ誤 記、D記入漏、Ｅ工作都合、Ｆ誤工対策、Ｇ材料都合、Ｈ工事都合
 50
90.0
 41
1.155555555555557
  7
DCSTYLE0
 72
     5
 11
-274.0
 21
-81.00000000000682
 31
0.0
  0
TEXT
  5
35A
  8
ZUWAKU
 62
     7
 10
149.5932301474747
 20
-130.8211887289559
 30
0.0
 40
2.6656
  1
符号
 41
0.8
  7
DCSTYLE1
  0
TEXT
  5
35B
  8
ZUWAKU
 62
     7
 10
162.4141311219058
 20
-135.8245525019963
 30
0.0
 40
4.0
  1
品       名
 41
0.8400000000000003
  7
DCSTYLE0
 72
     5
 11
191.2141311219058
 21
-135.8245525019963
 31
0.0
  0
TEXT
  5
35C
  8
ZUWAKU
 62
     7
 10
207.2331564413096
 20
-135.8245525019963
 30
0.0
 40
4.0
  1
材  料
 41
0.8960000000000009
  7
DCSTYLE0
 72
     5
 11
220.0331564413096
 21
-135.8245525019963
 31
0.0
  0
TEXT
  5
35D
  8
ZUWAKU
 62
     7
 10
229.516061684855
 20
-135.8245525019963
 30
0.0
 40
4.0
  1
個 数
 41
0.9333333333333329
  7
DCSTYLE0
 72
     5
 11
239.116061684855
 21
-135.8245525019963
 31
0.0
  0
TEXT
  5
35E
  8
ZUWAKU
 62
     7
 10
245.721810952888
 20
-133.5649080050572
 30
0.0
 40
2.5
  1
単重量
 41
0.9882352941176471
  7
DCSTYLE0
 72
     5
 11
251.721810952888
 21
-133.5649080050572
 31
0.0
  0
TEXT
  5
35F
  8
ZUWAKU
 62
     7
 10
244.7089516236359
 20
-137.3631304897525
 30
0.0
 40
2.5
  1
(kg)
 41
1.12
  7
DCSTYLE0
 72
     5
 11
252.7089516236359
 21
-137.3631304897525
 31
0.0
  0
TEXT
  5
360
  8
ZUWAKU
 62
     7
 10
259.1421970654778
 20
-135.8245525019963
 30
0.0
 40
4.0
  1
記  事
 41
0.8960000000000009
  7
DCSTYLE0
 72
     5
 11
271.9421970654778
 21
-135.8245525019963
 31
0.0
  0
TEXT
  5
361
  8
ZUWAKU
 62
     7
 10
258.8450794551645
 20
-165.4873041997729
 30
0.0
 40
3.0
  1
コード番号
 41
0.9655172413793105
  7
DCSTYLE0
 72
     5
 11
270.8450794551645
 21
-165.4873041997729
 31
0.0
  0
TEXT
  5
362
  8
ZUWAKU
 62
     7
 10
101.9119920158317
 20
-175.1879010540338
 30
0.0
 40
2.5
  1
訂 正 来 歴
 41
0.8909090909090911
  7
DCSTYLE0
 72
     5
 11
115.9119920158317
 21
-175.1879010540338
 31
0.0
  0
TEXT
  5
363
  8
ZUWAKU
 62
     7
 10
125.890334846765
 20
-175.2166697391651
 30
0.0
 40
2.5
  1
工 事 番 号
 41
0.8909090909090911
  7
DCSTYLE0
 72
     5
 11
139.890334846765
 21
-175.2166697391651
 31
0.0
  0
TEXT
  5
364
  8
ZUWAKU
 62
     7
 10
100.9648378466029
 20
-165.9634530565915
 30
0.0
 40
2.0825
  1
記号
 41
0.8
  7
DCSTYLE1
  0
TEXT
  5
365
  8
ZUWAKU
 62
     7
 10
106.9042249067618
 20
-165.9634530565915
 30
0.0
 40
2.0825
  1
理由
 41
0.8
  7
DCSTYLE1
  0
TEXT
  5
366
  8
ZUWAKU
 62
     7
 10
111.6193667909843
 20
-169.8786046700178
 30
0.0
 40
3.0
  1
日 付
 41
0.9333333333333319
  7
DCSTYLE0
 72
     5
 11
118.8193667909843
 21
-169.8786046700178
 31
0.0
  0
TEXT
  5
367
  8
ZUWAKU
 62
     7
 10
153.4481689819652
 20
-165.7187911464244
 30
0.0
 40
3.0
  1
承   認
 41
0.875
  7
DCSTYLE0
 72
     5
 11
165.4481689819652
 21
-165.7187911464244
 31
0.0
  0
TEXT
  5
368
  8
ZUWAKU
 62
     7
 10
179.863228033234
 20
-165.4873041997729
 30
0.0
 40
3.0
  1
検   図
 41
0.875
  7
DCSTYLE0
 72
     5
 11
191.863228033234
 21
-165.4873041997729
 31
0.0
  0
TEXT
  5
369
  8
ZUWAKU
 62
     7
 10
201.4771920983751
 20
-165.4873041997729
 30
0.0
 40
3.0
  1
担  当
 41
0.8959999999999996
  7
DCSTYLE0
 72
     5
 11
211.0771920983751
 21
-165.4873041997729
 31
0.0
  0
TEXT
  5
36A
  8
ZUWAKU
 62
     7
 10
214.6770574841112
 20
-165.4873041997729
 30
0.0
 40
3.0
  1
製  図
 41
0.8959999999999996
  7
DCSTYLE0
 72
     5
 11
224.2770574841112
 21
-165.4873041997729
 31
0.0
  0
TEXT
  5
36B
  8
ZUWAKU
 62
     7
 10
226.9462372304199
 20
-153.2184960272417
 30
0.0
 40
3.0
  1
作図
 41
1.018181818181821
  7
DCSTYLE0
 72
     5
 11
231.7462372304199
 21
-153.2184960272417
 31
0.0
  0
TEXT
  5
36C
  8
ZUWAKU
 62
     7
 10
228.1036719636776
 20
-160.2371566401815
 30
0.0
 40
4.0
  1
第 三 角 法
 41
0.8909090909090912
  7
DCSTYLE0
 72
     5
 11
250.5036719636776
 21
-160.2371566401815
 31
0.0
  0
TEXT
  5
36D
  8
ZUWAKU
 62
     7
 10
227.409211123723
 20
-166.413251986379
 30
0.0
 40
3.0
  1
尺度
 41
1.018181818181821
  7
DCSTYLE0
 72
     5
 11
232.209211123723
 21
-166.413251986379
 31
0.0
  0
TEXT
  5
36E
  8
ZUWAKU
 62
     7
 10
106.0000000000001
 20
186.8333333333332
 30
0.0
 40
2.0
  1
特ニ指定ノナイ機械加
 41
1.186440677966102
  7
DCSTYLE0
 72
     5
 11
126.0000000000001
 21
186.8333333333332
 31
0.0
  0
TEXT
  5
36F
  8
ZUWAKU
 62
     7
 10
106.0000000000001
 20
183.9999999999999
 30
0.0
 40
2.0
  1
工部分ノ寸法ニ対スル
 41
1.186440677966102
  7
DCSTYLE0
 72
     5
 11
126.0000000000001
 21
183.9999999999999
 31
0.0
  0
TEXT
  5
370
  8
ZUWAKU
 62
     7
 10
106.4921112372305
 20
181.1666666666666
 30
0.0
 40
2.0
  1
寸法差 (単位mm)
 41
1.076923076923077
  7
DCSTYLE0
 72
     5
 11
126.4921112372305
 21
181.1666666666666
 31
0.0
  0
TEXT
  5
371
  8
ZUWAKU
 62
     7
 10
132.7604426787742
 20
187.1111133333332
 30
0.0
 40
2.0
  1
呼ビ寸法
 41
2.130434782608696
  7
DCSTYLE0
 72
     5
 11
146.7604426787742
 21
187.1111133333332
 31
0.0
  0
TEXT
  5
372
  8
ZUWAKU
 62
     7
 10
133.1250908059024
 20
184.2222200000002
 30
0.0
 40
2.0
  1
ノ区分
 41
2.882352941176471
  7
DCSTYLE0
 72
     5
 11
147.1250908059024
 21
184.2222200000002
 31
0.0
  0
TEXT
  5
373
  8
ZUWAKU
 62
     7
 10
133.1250000000001
 20
180.6666733333338
 30
0.0
 40
2.0
  1
寸法差
 41
2.882352941176471
  7
DCSTYLE0
 72
     5
 11
147.1250000000001
 21
180.6666733333338
 31
0.0
  0
TEXT
  5
374
  8
ZUWAKU
 62
     7
 10
151.0104426787742
 20
187.1111133333336
 30
0.0
 40
2.0
  1
１以上
 41
2.882352941176471
  7
DCSTYLE0
 72
     5
 11
165.0104426787742
 21
187.1111133333336
 31
0.0
  0
TEXT
  5
375
  8
ZUWAKU
 62
     7
 10
151.3750908059024
 20
184.2222200000006
 30
0.0
 40
2.0
  1
４以下
 41
2.882352941176471
  7
DCSTYLE0
 72
     5
 11
165.3750908059024
 21
184.2222200000006
 31
0.0
  0
TEXT
  5
376
  8
ZUWAKU
 62
     7
 10
151.3750000000001
 20
180.6666733333341
 30
0.0
 40
2.0
  1
 ±０．１ 
 41
1.204918032786885
  7
DCSTYLE0
 72
     5
 11
165.3750000000001
 21
180.6666733333341
 31
0.0
  0
TEXT
  5
377
  8
ZUWAKU
 62
     7
 10
169.6250908059024
 20
184.2222200000006
 30
0.0
 40
2.0
  1
１６以下
 41
2.130434782608696
  7
DCSTYLE0
 72
     5
 11
183.6250908059024
 21
184.2222200000006
 31
0.0
  0
TEXT
  5
378
  8
ZUWAKU
 62
     7
 10
169.2604426787742
 20
187.1111133333336
 30
0.0
 40
2.0
  1
 ４ヲコエ
 41
1.633333333333333
  7
DCSTYLE0
 72
     5
 11
183.2604426787742
 21
187.1111133333336
 31
0.0
  0
TEXT
  5
379
  8
ZUWAKU
 62
     7
 10
169.6250000000001
 20
180.6666733333341
 30
0.0
 40
2.0
  1
 ±０．２ 
 41
1.204918032786885
  7
DCSTYLE0
 72
     5
 11
183.6250000000001
 21
180.6666733333341
 31
0.0
  0
TEXT
  5
37A
  8
ZUWAKU
 62
     7
 10
187.5104426787742
 20
187.1111133333336
 30
0.0
 40
2.0
  1
１６ヲコエ
 41
1.689655172413793
  7
DCSTYLE0
 72
     5
 11
201.5104426787742
 21
187.1111133333336
 31
0.0
  0
TEXT
  5
37B
  8
ZUWAKU
 62
     7
 10
187.8750908059024
 20
184.2222200000006
 30
0.0
 40
2.0
  1
６３以下
 41
2.130434782608696
  7
DCSTYLE0
 72
     5
 11
201.8750908059024
 21
184.2222200000006
 31
0.0
  0
TEXT
  5
37C
  8
ZUWAKU
 62
     7
 10
187.8750000000001
 20
180.6666733333341
 30
0.0
 40
2.0
  1
 ±０．３ 
 41
1.204918032786885
  7
DCSTYLE0
 72
     5
 11
201.8750000000001
 21
180.6666733333341
 31
0.0
  0
TEXT
  5
37D
  8
ZUWAKU
 62
     7
 10
206.1250908059024
 20
184.2222200000006
 30
0.0
 40
2.0
  1
２５０以下
 41
1.689655172413793
  7
DCSTYLE0
 72
     5
 11
220.1250908059024
 21
184.2222200000006
 31
0.0
  0
TEXT
  5
37E
  8
ZUWAKU
 62
     7
 10
205.7604426787742
 20
187.1111133333336
 30
0.0
 40
2.0
  1
 ６３ヲコエ
 41
1.361111111111111
  7
DCSTYLE0
 72
     5
 11
219.7604426787742
 21
187.1111133333336
 31
0.0
  0
TEXT
  5
37F
  8
ZUWAKU
 62
     7
 10
206.1250000000001
 20
180.6666733333341
 30
0.0
 40
2.0
  1
 ±０．５ 
 41
1.204918032786885
  7
DCSTYLE0
 72
     5
 11
220.1250000000001
 21
180.6666733333341
 31
0.0
  0
TEXT
  5
380
  8
ZUWAKU
 62
     7
 10
224.3750908059024
 20
184.2222200000006
 30
0.0
 40
2.0
  1
１０００以下
 41
1.4
  7
DCSTYLE0
 72
     5
 11
238.3750908059024
 21
184.2222200000006
 31
0.0
  0
TEXT
  5
381
  8
ZUWAKU
 62
     7
 10
224.3750000000001
 20
180.6666733333341
 30
0.0
 40
2.0
  1
 ±０．８ 
 41
1.204918032786885
  7
DCSTYLE0
 72
     5
 11
238.3750000000001
 21
180.6666733333341
 31
0.0
  0
TEXT
  5
382
  8
ZUWAKU
 62
     7
 10
242.2604426787742
 20
187.1111133333336
 30
0.0
 40
2.0
  1
１０００ヲコエ
 41
1.195121951219512
  7
DCSTYLE0
 72
     5
 11
256.2604426787742
 21
187.1111133333336
 31
0.0
  0
TEXT
  5
383
  8
ZUWAKU
 62
     7
 10
242.6250908059024
 20
184.2222200000006
 30
0.0
 40
2.0
  1
２０００以下
 41
1.400000000000003
  7
DCSTYLE0
 72
     5
 11
256.6250908059025
 21
184.2222200000006
 31
0.0
  0
TEXT
  5
384
  8
ZUWAKU
 62
     7
 10
224.0104426787742
 20
187.1111133333336
 30
0.0
 40
2.0
  1
 ２５０ヲコエ
 41
1.166666666666667
  7
DCSTYLE0
 72
     5
 11
238.0104426787742
 21
187.1111133333336
 31
0.0
  0
TEXT
  5
385
  8
ZUWAKU
 62
     7
 10
260.5104426787742
 20
187.1111133333336
 30
0.0
 40
2.0
  1
２０００ヲ
 41
1.689655172413793
  7
DCSTYLE0
 72
     5
 11
274.5104426787742
 21
187.1111133333336
 31
0.0
  0
TEXT
  5
386
  8
ZUWAKU
 62
     7
 10
260.8750908059025
 20
184.2222200000006
 30
0.0
 40
2.0
  1
コエルモノ
 41
1.689655172413793
  7
DCSTYLE0
 72
     5
 11
274.8750908059025
 21
184.2222200000006
 31
0.0
  0
TEXT
  5
387
  8
ZUWAKU
 62
     7
 10
242.6250000000001
 20
180.6666733333341
 30
0.0
 40
2.0
  1
 ±１．０ 
 41
1.204918032786885
  7
DCSTYLE0
 72
     5
 11
256.6250000000001
 21
180.6666733333341
 31
0.0
  0
TEXT
  5
388
  8
ZUWAKU
 62
     7
 10
260.7309329553406
 20
180.6666733333341
 30
0.0
 40
2.0
  1
 ±２．０ 
 41
1.204918032786885
  7
DCSTYLE0
 72
     5
 11
274.7309329553406
 21
180.6666733333341
 31
0.0
  0
TEXT
  5
389
  8
ZUWAKU
 62
     7
 10
-274.4054197053454
 20
181.2949862932913
 30
0.0
 40
2.25
  1
特ニ指定ノナイ角部ハ０．５Ｃ  マタ隅部ハ０．５Ｒトスル
 41
1.159763313609467
  7
DCSTYLE0
 72
     5
 11
-211.4054197053454
 21
181.2949862932913
 31
0.0
  0
TEXT
  5
38A
  8
ZUWAKU
 62
     7
 10
-274.5
 20
186.375
 30
0.0
 40
2.25
  1
仕上記号ノ表面粗さ  ～･･･特ニ規定シナイ   ･･･３５Ｓ    ･･･１８Ｓ     ･･･６S     ･･･３Ｓ     ･･･６Ｓ（キサゲ仕上）
 41
1.110508474576272
  7
DCSTYLE0
 72
     5
 11
-99.0
 21
186.375
 31
0.0
  0
TEXT
  5
38B
  8
ZUWAKU
 62
     7
 10
-154.7251281296784
 20
187.670028682731
 30
0.0
 40
1.84815
  1
ケンマ
 41
1.235294117647062
  7
DCSTYLE0
 72
     5
 11
-149.1806781296784
 21
187.670028682731
 31
0.0
  0
TEXT
  5
38C
  8
ZUWAKU
 62
     7
 10
-274.0
 20
-185.0000000000068
 30
0.0
 40
2.0
  1
訂正理由  Ａ注文元指示、Ｂ設計変更、Ｃ誤 記、D記入漏、Ｅ工作都合、Ｆ誤工対策、Ｇ材料都合、Ｈ工事都合
 50
90.0
 41
1.155555555555557
  7
DCSTYLE0
 72
     5
 11
-274.0
 21
-81.00000000000682
 31
0.0
  0
TEXT
  5
38D
  8
ZUWAKU
 62
     7
 10
149.5932301474747
 20
-130.8211887289559
 30
0.0
 40
2.6656
  1
符号
 41
0.8
  7
DCSTYLE1
  0
TEXT
  5
38E
  8
ZUWAKU
 62
     7
 10
162.4141311219058
 20
-135.8245525019963
 30
0.0
 40
4.0
  1
品       名
 41
0.8400000000000003
  7
DCSTYLE0
 72
     5
 11
191.2141311219058
 21
-135.8245525019963
 31
0.0
  0
TEXT
  5
38F
  8
ZUWAKU
 62
     7
 10
207.2331564413096
 20
-135.8245525019963
 30
0.0
 40
4.0
  1
材  料
 41
0.8960000000000009
  7
DCSTYLE0
 72
     5
 11
220.0331564413096
 21
-135.8245525019963
 31
0.0
  0
TEXT
  5
390
  8
ZUWAKU
 62
     7
 10
229.516061684855
 20
-135.8245525019963
 30
0.0
 40
4.0
  1
個 数
 41
0.9333333333333329
  7
DCSTYLE0
 72
     5
 11
239.116061684855
 21
-135.8245525019963
 31
0.0
  0
TEXT
  5
391
  8
ZUWAKU
 62
     7
 10
245.721810952888
 20
-133.5649080050572
 30
0.0
 40
2.5
  1
単重量
 41
0.9882352941176471
  7
DCSTYLE0
 72
     5
 11
251.721810952888
 21
-133.5649080050572
 31
0.0
  0
TEXT
  5
392
  8
ZUWAKU
 62
     7
 10
244.7089516236359
 20
-137.3631304897525
 30
0.0
 40
2.5
  1
(kg)
 41
1.12
  7
DCSTYLE0
 72
     5
 11
252.7089516236359
 21
-137.3631304897525
 31
0.0
  0
TEXT
  5
393
  8
ZUWAKU
 62
     7
 10
259.1421970654778
 20
-135.8245525019963
 30
0.0
 40
4.0
  1
記  事
 41
0.8960000000000009
  7
DCSTYLE0
 72
     5
 11
271.9421970654778
 21
-135.8245525019963
 31
0.0
  0
TEXT
  5
394
  8
ZUWAKU
 62
     7
 10
258.8450794551645
 20
-165.4873041997729
 30
0.0
 40
3.0
  1
コード番号
 41
0.9655172413793105
  7
DCSTYLE0
 72
     5
 11
270.8450794551645
 21
-165.4873041997729
 31
0.0
  0
TEXT
  5
395
  8
ZUWAKU
 62
     7
 10
101.9119920158317
 20
-175.1879010540338
 30
0.0
 40
2.5
  1
訂 正 来 歴
 41
0.8909090909090911
  7
DCSTYLE0
 72
     5
 11
115.9119920158317
 21
-175.1879010540338
 31
0.0
  0
TEXT
  5
396
  8
ZUWAKU
 62
     7
 10
125.890334846765
 20
-175.2166697391651
 30
0.0
 40
2.5
  1
工 事 番 号
 41
0.8909090909090911
  7
DCSTYLE0
 72
     5
 11
139.890334846765
 21
-175.2166697391651
 31
0.0
  0
TEXT
  5
397
  8
ZUWAKU
 62
     7
 10
100.9648378466029
 20
-165.9634530565915
 30
0.0
 40
2.0825
  1
記号
 41
0.8
  7
DCSTYLE1
  0
TEXT
  5
398
  8
ZUWAKU
 62
     7
 10
106.9042249067618
 20
-165.9634530565915
 30
0.0
 40
2.0825
  1
理由
 41
0.8
  7
DCSTYLE1
  0
TEXT
  5
399
  8
ZUWAKU
 62
     7
 10
111.6193667909843
 20
-169.8786046700178
 30
0.0
 40
3.0
  1
日 付
 41
0.9333333333333319
  7
DCSTYLE0
 72
     5
 11
118.8193667909843
 21
-169.8786046700178
 31
0.0
  0
TEXT
  5
39A
  8
ZUWAKU
 62
     7
 10
153.4481689819652
 20
-165.7187911464244
 30
0.0
 40
3.0
  1
承   認
 41
0.875
  7
DCSTYLE0
 72
     5
 11
165.4481689819652
 21
-165.7187911464244
 31
0.0
  0
TEXT
  5
39B
  8
ZUWAKU
 62
     7
 10
179.863228033234
 20
-165.4873041997729
 30
0.0
 40
3.0
  1
検   図
 41
0.875
  7
DCSTYLE0
 72
     5
 11
191.863228033234
 21
-165.4873041997729
 31
0.0
  0
TEXT
  5
39C
  8
ZUWAKU
 62
     7
 10
201.4771920983751
 20
-165.4873041997729
 30
0.0
 40
3.0
  1
担  当
 41
0.8959999999999996
  7
DCSTYLE0
 72
     5
 11
211.0771920983751
 21
-165.4873041997729
 31
0.0
  0
TEXT
  5
39D
  8
ZUWAKU
 62
     7
 10
214.6770574841112
 20
-165.4873041997729
 30
0.0
 40
3.0
  1
製  図
 41
0.8959999999999996
  7
DCSTYLE0
 72
     5
 11
224.2770574841112
 21
-165.4873041997729
 31
0.0
  0
TEXT
  5
39E
  8
ZUWAKU
 62
     7
 10
226.9462372304199
 20
-153.2184960272417
 30
0.0
 40
3.0
  1
作図
 41
1.018181818181821
  7
DCSTYLE0
 72
     5
 11
231.7462372304199
 21
-153.2184960272417
 31
0.0
  0
TEXT
  5
39F
  8
ZUWAKU
 62
     7
 10
228.1036719636776
 20
-160.2371566401815
 30
0.0
 40
4.0
  1
第 三 角 法
 41
0.8909090909090912
  7
DCSTYLE0
 72
     5
 11
250.5036719636776
 21
-160.2371566401815
 31
0.0
  0
TEXT
  5
3A0
  8
ZUWAKU
 62
     7
 10
227.409211123723
 20
-166.413251986379
 30
0.0
 40
3.0
  1
尺度
 41
1.018181818181821
  7
DCSTYLE0
 72
     5
 11
232.209211123723
 21
-166.413251986379
 31
0.0
  0
TEXT
  5
3A2
  8
ZUWAKU
 62
     3
 10
105.379154370034
 20
-185.9272077185016
 30
0.0
 40
7.0
  1
株式会社 野村製作所
 41
0.5754193966448269
  7
DCSTYLE2
 72
     5
 11
161.379154370034
 21
-185.9272077185016
 31
0.0
  0
TEXT
  5
3A4
  8
ZUWAKU
 62
     3
 10
177.915125194095
 20
-186.9326208268579
 30
0.0
 40
8.0
  1
２－
 41
0.7692307692307692
  7
DCSTYLE3
 72
     5
 11
193.915125194095
 21
-186.9326208268579
 31
0.0
  0
TEXT
  5
3A5
  8
ZUWAKU
 62
     3
 10
194.8270828185018
 20
-186.9326208268579
 30
0.0
 40
8.0
  1
9407007
 41
1.538461538461539
  7
DCSTYLE3
 72
     5
 11
250.8270828185018
 21
-186.9326208268579
 31
0.0
  0
TEXT
  5
3A6
  8
ZUWAKU
 62
     3
 10
105.379154370034
 20
-185.9272077185016
 30
0.0
 40
7.0
  1
株式会社 野村製作所
 41
0.5754193966448269
  7
DCSTYLE2
 72
     5
 11
161.379154370034
 21
-185.9272077185016
 31
0.0
  0
TEXT
  5
3A7
  8
ZUWAKU
 62
     6
 10
157.0070051766932
 20
-145.3589000228561
 30
0.0
 40
5.0
  1
外形図（センターホルダー無し）
 41
0.8258426966292136
  7
DCSTYLE0
 72
     5
 11
209.5070051766932
 21
-145.3589000228561
 31
0.0
  0
TEXT
  5
3A8
  8
ZUWAKU
 62
     6
 10
153.6045934631717
 20
-154.329135039116
 30
0.0
 40
5.0
  1
日鋼プﾚｼジｫﾝ
 41
0.8340425531914895
  7
DCSTYLE0
 72
     5
 11
181.6045934631717
 21
-154.329135039116
 31
0.0
  0
TEXT
  5
3A9
  8
ZUWAKU
 62
     6
 10
176.7533929846966
 20
-160.7144995510048
 30
0.0
 40
5.0
  1
COP-7型ﾁｬｯｸ
 41
0.7461928934010154
  7
DCSTYLE0
 72
     5
 11
211.7533929846966
 21
-160.7144995510048
 31
0.0
  0
TEXT
  5
3AA
  8
ZUWAKU
 62
     4
 10
239.3011788906399
 20
-172.297487439201
 30
0.0
 40
3.0
  1
1/1
 41
0.8320754716981147
  7
DCSTYLE0
 72
     5
 11
245.6011788906399
 21
-172.297487439201
 31
0.0
  0
TEXT
  5
3AB
  8
ZUWAKU
 62
     4
 10
239.3011788906399
 20
-172.297487439201
 30
0.0
 40
3.0
  1
1/1
 41
0.8320754716981147
  7
DCSTYLE0
 72
     5
 11
245.6011788906399
 21
-172.297487439201
 31
0.0
  0
LINE
  5
3AC
  8
0
  6
CENTER
 62
     7
 10
154.75
 20
187.0
 30
0.0
 11
182.25
 21
187.0
 31
0.0
  0
LINE
  5
3AD
  8
0
  6
CENTER
 62
     7
 10
76.85442264616042
 20
0.2036946208853057
 30
0.0
 11
153.0230428119503
 21
44.17966311885633
 31
0.0
  0
LINE
  5
3AE
  8
0
  6
CENTER
 62
     7
 10
-169.7481845380833
 20
44.17967639510837
 30
0.0
 11
-128.4391177656223
 21
44.17967639510837
 31
0.0
  0
LINE
  5
3AF
  8
0
  6
CENTER
 62
     7
 10
-107.3055270673802
 20
94.66877261332992
 30
0.0
 11
-107.3055270673802
 21
63.94977603500095
 31
0.0
  0
LINE
  5
3B0
  8
0
  6
CENTER
 62
     7
 10
-167.1423540252505
 20
-8.205320019076197
 30
0.0
 11
-47.78225741405984
 21
-8.205320019076197
 31
0.0
  0
LINE
  5
3B1
  8
0
  6
CENTER
 62
     7
 10
-70.9279025556614
 20
118.1796763951084
 30
0.0
 11
-37.30552706738015
 21
118.1796763951084
 31
0.0
  0
LINE
  5
3B2
  8
0
  6
CENTER
 62
     7
 10
-70.9279025556614
 20
93.17967639510837
 30
0.0
 11
-37.30552706738015
 21
93.17967639510837
 31
0.0
  0
LINE
  5
3B3
  8
0
  6
CENTER
 62
     7
 10
-77.7269748212864
 20
7.179676633526952
 30
0.0
 11
-59.72696719189187
 21
7.179676633526952
 31
0.0
  0
LINE
  5
3B4
  8
0
  6
CENTER
 62
     7
 10
61.60636868457297
 20
44.17967639510837
 30
0.0
 11
244.7192379472683
 21
44.17967639510837
 31
0.0
  0
LINE
  5
3B5
  8
0
  6
CENTER
 62
     7
 10
-121.2034610273411
 20
44.17967639510837
 30
0.0
 11
-95.54974398632547
 21
44.17967639510837
 31
0.0
  0
LINE
  5
3B6
  8
0
  6
CENTER
 62
     7
 10
-87.78785738964578
 20
44.17967639510837
 30
0.0
 11
-46.7269748212864
 21
44.17967639510837
 31
0.0
  0
LINE
  5
3B7
  8
0
  6
CENTER
 62
     7
 10
54.16647547782719
 20
-12.89534592453157
 30
0.0
 11
1.334270320532113
 21
-43.39803797765055
 31
0.0
  0
LINE
  5
3B8
  8
0
  6
CENTER
 62
     7
 10
-79.30552706738015
 20
133.3661845738193
 30
0.0
 11
-79.30552706738015
 21
104.0390513951084
 31
0.0
  0
LINE
  5
3B9
  8
0
  6
CENTER
 62
     7
 10
-83.92915377636453
 20
108.1796763951084
 30
0.0
 11
-74.65186343212625
 21
108.1796763951084
 31
0.0
  0
LINE
  5
3BA
  8
0
  6
CENTER
 62
     7
 10
12.18403985695142
 20
-24.34333246621765
 30
0.0
 11
23.50084609188394
 21
-43.94461315606992
 31
0.0
  0
LINE
  5
3BB
  8
0
  6
CENTER
 62
     7
 10
37.12818992710517
 20
-55.06405393586189
 30
0.0
 11
56.55021338305026
 21
-43.85074470423287
 31
0.0
  0
LINE
  5
3BC
  8
0
  6
CENTER
 62
     7
 10
153.023376130862
 20
134.2907756382724
 30
0.0
 11
153.023376130862
 21
-47.13222469742092
 31
0.0
  0
LINE
  5
3BD
  8
0
  6
CENTER
 62
     7
 10
94.66592574248077
 20
77.87218998799167
 30
0.0
 11
126.663432559405
 21
59.39842285486114
 31
0.0
  0
LINE
  5
3BE
  8
0
  6
CENTER
 62
     7
 10
100.6284252641628
 20
108.1796763951084
 30
0.0
 11
137.4063717363308
 21
108.1796763951084
 31
0.0
  0
LINE
  5
3BF
  8
0
  6
CENTER
 62
     7
 10
153.0230556992019
 20
44.17968902075748
 30
0.0
 11
231.0499848754325
 21
-0.8691745660935055
 31
0.0
  0
LINE
  5
3C0
  8
0
  6
CENTER
 62
     7
 10
179.7020339788396
 20
59.5827841490009
 30
0.0
 11
229.1613554472586
 21
88.13813355787859
 31
0.0
  0
LINE
  5
3C1
  8
0
  6
CENTER
 62
     7
 10
105.7484111851365
 20
28.06173175909547
 30
0.0
 11
115.456341953618
 21
11.24710473797703
 31
0.0
  0
LINE
  5
3C2
  8
0
  6
CENTER
 62
     7
 10
190.5684835818599
 20
11.21022554532559
 30
0.0
 11
200.2073816730446
 21
27.90528447838327
 31
0.0
  0
LINE
  5
3C3
  8
0
  6
CENTER
 62
     7
 10
212.2042485961663
 20
-1.315531002799588
 30
0.0
 11
221.8776658870226
 21
15.43931692972549
 31
0.0
  0
LINE
  5
3C4
  8
0
  6
CENTER
 62
     7
 10
143.2680202959011
 20
93.17967639510837
 30
0.0
 11
162.8243557451198
 21
93.17967639510837
 31
0.0
  0
LINE
  5
3C5
  8
0
  6
CENTER
 62
     7
 10
143.2680202959011
 20
118.1796763951084
 30
0.0
 11
162.8243557451198
 21
118.1796763951084
 31
0.0
  0
LINE
  5
3C6
  8
0
  6
CENTER
 62
     7
 10
125.023376130862
 20
96.17966876571384
 30
0.0
 11
125.023376130862
 21
120.1796687657138
 31
0.0
  0
LINE
  5
3C7
  8
0
  6
CENTER
 62
     7
 10
121.9900595118454
 20
-6.069026841487783
 30
0.0
 11
101.2054501940658
 21
-18.06902684148778
 31
0.0
  0
LINE
  5
3C8
  8
0
  6
CENTER
 62
     7
 10
212.0566903014598
 20
42.4283916290365
 30
0.0
 11
232.8412996192394
 21
30.4283916290365
 31
0.0
  0
LINE
  5
3C9
  8
0
  6
CENTER
 62
     7
 10
117.5066380162141
 20
-22.30352777133746
 30
0.0
 11
105.4062523503205
 21
-1.345045382999359
 31
0.0
  0
LINE
  5
3CA
  8
0
  6
CENTER
 62
     7
 10
228.4180196185527
 20
46.76704542311521
 30
0.0
 11
216.2574971576152
 21
25.70440305222613
 31
0.0
  0
ARC
  5
3CB
  8
0
  6
CENTER
 62
     7
 10
153.0230404375027
 20
44.17967639510837
 30
0.0
 40
52.3849983215332
 50
13.53725393495227
 51
46.46272041394317
  0
ARC
  5
3CC
  8
0
  6
CENTER
 62
     7
 10
153.0230404375027
 20
44.17967639510837
 30
0.0
 40
52.3849983215332
 50
253.4061416994351
 51
286.3920758431481
  0
ARC
  5
3CD
  8
0
  6
CENTER
 62
     7
 10
153.0230404375027
 20
44.17967639510837
 30
0.0
 40
52.3849983215332
 50
133.5372880101077
 51
166.4627476589095
  0
ARC
  5
3CE
  8
0
  6
CENTER
 62
     7
 10
153.0230404375027
 20
44.17967639510837
 30
0.0
 40
37.0
 50
140.3413585367344
 51
159.6587864153096
  0
ARC
  5
3CF
  8
0
  6
CENTER
 62
     7
 10
153.0230404375027
 20
44.17967639510837
 30
0.0
 40
37.0
 50
260.3414816317202
 51
279.6583562649726
  0
ARC
  5
3D0
  8
0
  6
CENTER
 62
     7
 10
153.0230404375027
 20
44.17967639510837
 30
0.0
 40
37.0
 50
20.34190161256376
 51
39.65812737784503
  0
LINE
  5
3D1
  8
0
  6
DASHED2
 62
     7
 10
226.1319474179429
 20
5.780943452120965
 30
0.0
 11
227.6738065890779
 21
3.851520824928713
 31
0.0
  0
LINE
  5
3D2
  8
0
  6
DASHED2
 62
     7
 10
225.2738352054625
 20
-0.3053996362095575
 30
0.0
 11
227.6738360160852
 21
3.851525442451049
 31
0.0
  0
LINE
  5
3D3
  8
0
  6
DASHED2
 62
     7
 10
225.273840407543
 20
-0.3054387969492325
 30
0.0
 11
222.8319816513307
 21
0.0651380143875997
 31
0.0
  0
LINE
  5
3D4
  8
0
  6
DASHED2
 62
     7
 10
222.8319562374017
 20
0.0651782909290262
 30
0.0
 11
226.131958305682
 21
5.780951925899927
 31
0.0
  0
LINE
  5
3D5
  8
0
  6
DASHED2
 62
     7
 10
222.3094115544932
 20
1.160074112377089
 30
0.0
 11
224.9554259331555
 21
5.743107368230113
 31
0.0
  0
ARC
  5
3D6
  8
0
  6
DASHED2
 62
     7
 10
226.0599667070339
 20
2.012002330472143
 30
0.0
 40
1.200000047683716
 50
263.4679734035368
 51
36.5320180966219
  0
ARC
  5
3D7
  8
0
  6
DASHED2
 62
     7
 10
219.5015865800808
 20
-0.8941255992153572
 30
0.0
 40
3.0
 50
32.10687513715404
 51
96.76197857525
  0
ARC
  5
3D8
  8
0
  6
DASHED2
 62
     7
 10
224.4819485185573
 20
2.923066478421362
 30
0.0
 40
3.299999952316284
 50
59.99998800927378
 51
77.63968920126207
  0
ARC
  5
3D9
  8
0
  6
DASHED2
 62
     7
 10
225.2975765703152
 20
9.144818823983343
 30
0.0
 40
3.0
 50
203.2380060947195
 51
267.8898310420139
  0
LINE
  5
3DA
  8
0
  6
DASHED2
 62
     7
 10
-104.7055118085911
 20
-19.82032360489163
 30
0.0
 11
-97.90551180859109
 21
-19.82032360489163
 31
0.0
  0
LINE
  5
3DB
  8
0
  6
DASHED2
 62
     7
 10
-105.3055118085911
 20
-24.82032360489163
 30
0.0
 11
-97.30551180859109
 21
-24.82032360489163
 31
0.0
  0
LINE
  5
3DC
  8
0
  6
DASHED2
 62
     7
 10
-105.3055118085911
 20
-24.82032360489163
 30
0.0
 11
-105.3055118085911
 21
-40.82032360489163
 31
0.0
  0
LINE
  5
3DD
  8
0
  6
DASHED2
 62
     7
 10
-104.7055118085911
 20
-19.82032360489163
 30
0.0
 11
-104.7055118085911
 21
-40.82032360489163
 31
0.0
  0
LINE
  5
3DE
  8
0
  6
DASHED2
 62
     7
 10
-104.7055118085909
 20
-19.82032360489152
 30
0.0
 11
-101.3055118085912
 21
-17.85733268964696
 31
0.0
  0
LINE
  5
3DF
  8
0
  6
DASHED2
 62
     7
 10
-97.90551180859129
 20
-19.82032360489152
 30
0.0
 11
-101.305511808591
 21
-17.85733268964696
 31
0.0
  0
LINE
  5
3E0
  8
0
  6
DASHED2
 62
     7
 10
-97.90551180859109
 20
-19.82032360489163
 30
0.0
 11
-97.90551180859109
 21
-40.82032360489163
 31
0.0
  0
LINE
  5
3E1
  8
0
  6
DASHED2
 62
     7
 10
-97.30551180859109
 20
-24.82032360489163
 30
0.0
 11
-97.30551180859109
 21
-40.82032360489163
 31
0.0
  0
LINE
  5
3E2
  8
0
  6
DASHED2
 62
     7
 10
210.1486610204805
 20
73.23519913148704
 30
0.0
 11
206.7486610204805
 21
79.12417187722127
 31
0.0
  0
LINE
  5
3E3
  8
0
  6
DASHED2
 62
     7
 10
214.7787880394026
 20
75.21558388921642
 30
0.0
 11
210.7787880394027
 21
82.14378711949192
 31
0.0
  0
LINE
  5
3E4
  8
0
  6
DASHED2
 62
     7
 10
214.7787880394026
 20
75.21558388921642
 30
0.0
 11
228.6351944999537
 21
83.21558388921642
 31
0.0
  0
LINE
  5
3E5
  8
0
  6
DASHED2
 62
     7
 10
210.1486610204805
 20
73.23519913148704
 30
0.0
 11
228.3351944999537
 21
83.73519913148704
 31
0.0
  0
LINE
  5
3E6
  8
0
  6
DASHED2
 62
     7
 10
210.1486610204802
 20
73.23519913148718
 30
0.0
 11
206.7486610204806
 21
75.19819004673172
 31
0.0
  0
LINE
  5
3E7
  8
0
  6
DASHED2
 62
     7
 10
206.7486610204805
 20
79.12417187722104
 30
0.0
 11
206.7486610204805
 21
75.19819004673192
 31
0.0
  0
LINE
  5
3E8
  8
0
  6
DASHED2
 62
     7
 10
206.7486610204805
 20
79.12417187722127
 30
0.0
 11
224.9351944999537
 21
89.62417187722127
 31
0.0
  0
LINE
  5
3E9
  8
0
  6
DASHED2
 62
     7
 10
210.7787880394027
 20
82.14378711949192
 30
0.0
 11
224.6351944999537
 21
90.14378711949192
 31
0.0
  0
ARC
  5
3EA
  8
0
  6
DIVIDE
 62
     7
 10
224.4819485185573
 20
2.923066478421362
 30
0.0
 40
3.299999952316284
 50
222.3602954687075
 51
239.9999830003175
  0
ARC
  5
3EB
  8
0
  6
DIVIDE
 62
     7
 10
221.534606599612
 20
8.088815253426702
 30
0.0
 40
1.0
 50
350.7154506536348
 51
41.80510172079016
  0
TEXT
  5
3EC
  8
0
 62
     7
 10
230.5293517639194
 20
-145.4114874608697
 30
0.0
 40
4.0
  1
一式
 41
0.8909090909090901
  7
DCSTYLE0
 72
     5
 11
236.1293517639194
 21
-145.4114874608697
 31
0.0
  0
TEXT
  5
3ED
  8
0
 62
     7
 10
4.195370708571036
 20
43.27646140062763
 30
0.0
 40
4.0
  1
(MAX43 MIN35)
 50
90.0
 41
0.9062240663900415
  7
DCSTYLE0
 72
     5
 11
4.195370708571036
 21
84.87646140062763
 31
0.0
  0
LINE
  5
3EE
  8
0
  6
CONTINUOUS
 62
     6
 10
-245.8839267255833
 20
-165.9064747279385
 30
0.0
 11
-84.0286334516575
 21
-165.9064747279385
 31
0.0
  0
LINE
  5
3EF
  8
0
  6
CONTINUOUS
 62
     6
 10
-245.8839267255833
 20
-158.9064747279385
 30
0.0
 11
-84.0286334516575
 21
-158.9064747279385
 31
0.0
  0
LINE
  5
3F0
  8
0
  6
CONTINUOUS
 62
     6
 10
-245.8839267255833
 20
-151.9064747279385
 30
0.0
 11
-84.0286334516575
 21
-151.9064747279385
 31
0.0
  0
LINE
  5
3F1
  8
0
  6
CONTINUOUS
 62
     6
 10
-245.8839267255833
 20
-144.9064747279385
 30
0.0
 11
-84.0286334516575
 21
-144.9064747279385
 31
0.0
  0
LINE
  5
3F2
  8
0
  6
CONTINUOUS
 62
     6
 10
-245.8839267255833
 20
-137.9064747279385
 30
0.0
 11
-84.0286334516575
 21
-137.9064747279385
 31
0.0
  0
LINE
  5
3F3
  8
0
  6
CONTINUOUS
 62
     6
 10
-245.8839267255833
 20
-130.9064747279385
 30
0.0
 11
-84.0286334516575
 21
-130.9064747279385
 31
0.0
  0
LINE
  5
3F4
  8
0
  6
CONTINUOUS
 62
     6
 10
-245.8839267255833
 20
-123.9064747279385
 30
0.0
 11
-84.0286334516575
 21
-123.9064747279385
 31
0.0
  0
LINE
  5
3F5
  8
0
  6
CONTINUOUS
 62
     6
 10
-245.8839267255833
 20
-116.9064747279385
 30
0.0
 11
-84.0286334516575
 21
-116.9064747279385
 31
0.0
  0
LINE
  5
3F6
  8
0
  6
CONTINUOUS
 62
     6
 10
-245.8839114667942
 20
-102.4064747279385
 30
0.0
 11
-229.3619693281223
 21
-102.4064747279385
 31
0.0
  0
LINE
  5
3F7
  8
0
  6
CONTINUOUS
 62
     6
 10
-245.8839267255833
 20
-109.9064747279385
 30
0.0
 11
-84.0286334516575
 21
-109.9064747279385
 31
0.0
  0
LINE
  5
3F8
  8
0
  6
CONTINUOUS
 62
     6
 10
-47.91893038769265
 20
-166.0911518519619
 30
0.0
 11
81.05078091601828
 21
-166.0911518519619
 31
0.0
  0
LINE
  5
3F9
  8
0
  6
CONTINUOUS
 62
     6
 10
-47.91893038769265
 20
-159.0911518519619
 30
0.0
 11
81.05078091601828
 21
-159.0911518519619
 31
0.0
  0
LINE
  5
3FA
  8
0
  6
CONTINUOUS
 62
     6
 10
-47.91893038769265
 20
-152.0911518519619
 30
0.0
 11
81.05078091601828
 21
-152.0911518519619
 31
0.0
  0
LINE
  5
3FB
  8
0
  6
CONTINUOUS
 62
     6
 10
-47.91893038769265
 20
-145.0911518519619
 30
0.0
 11
81.05078091601828
 21
-145.0911518519619
 31
0.0
  0
LINE
  5
3FC
  8
0
  6
CONTINUOUS
 62
     6
 10
-52.4952853681614
 20
-138.0911518519619
 30
0.0
 11
4.709029817385471
 21
-138.0911518519619
 31
0.0
  0
LINE
  5
3FD
  8
0
  6
CONTINUOUS
 62
     3
 10
72.41087634762172
 20
13.80402852913997
 30
0.0
 11
120.6228219841798
 21
41.63920524527819
 31
0.0
  0
LINE
  5
3FE
  8
0
  6
CONTINUOUS
 62
     3
 10
70.26728157683854
 20
21.80403011706838
 30
0.0
 11
70.91924534515445
 21
22.18044153262079
 31
0.0
  0
LINE
  5
3FF
  8
0
  6
CONTINUOUS
 62
     3
 10
72.41088382243285
 20
13.80403651895747
 30
0.0
 11
77.80362280758251
 21
4.46353988584022
 31
0.0
  0
LINE
  5
400
  8
0
  6
CONTINUOUS
 62
     3
 10
70.26728205987484
 20
21.80403490353515
 30
0.0
 11
72.41088026479002
 21
13.8040184800108
 31
0.0
  0
LINE
  5
401
  8
0
  6
CONTINUOUS
 62
     3
 10
-53.30552706738015
 20
127.6796763951084
 30
0.0
 11
-53.30552706738015
 21
126.5063441807529
 31
0.0
  0
LINE
  5
402
  8
0
  6
CONTINUOUS
 62
     3
 10
-152.3055118085911
 20
129.1796763951084
 30
0.0
 11
-152.3055118085911
 21
111.2727626377842
 31
0.0
  0
LINE
  5
403
  8
0
  6
CONTINUOUS
 62
     3
 10
-152.3055118085911
 20
-40.82032360489163
 30
0.0
 11
-54.80552706738015
 21
-40.82032360489163
 31
0.0
  0
LINE
  5
404
  8
0
  6
CONTINUOUS
 62
     3
 10
-152.3055118085911
 20
129.1796763951084
 30
0.0
 11
-82.31650576611062
 21
129.1796763951084
 31
0.0
  0
LINE
  5
405
  8
0
  6
CONTINUOUS
 62
     3
 10
-148.3055118085911
 20
114.1796763951084
 30
0.0
 11
-148.3055118085911
 21
65.17967639510837
 31
0.0
  0
LINE
  5
406
  8
0
  6
CONTINUOUS
 62
     3
 10
-152.3055118085911
 20
114.1796763951084
 30
0.0
 11
-148.3055118085911
 21
114.1796763951084
 31
0.0
  0
LINE
  5
407
  8
0
  6
CONTINUOUS
 62
     3
 10
-152.3055118085911
 20
-25.82032360489163
 30
0.0
 11
-148.3055118085911
 21
-25.82032360489163
 31
0.0
  0
LINE
  5
408
  8
0
  6
CONTINUOUS
 62
     3
 10
-148.3055118085911
 20
83.17967639510837
 30
0.0
 11
-122.9055179121067
 21
83.17967639510837
 31
0.0
  0
LINE
  5
409
  8
0
  6
CONTINUOUS
 62
     3
 10
-148.3055118085911
 20
5.179677587201269
 30
0.0
 11
-74.30552706738015
 21
5.179677587201269
 31
0.0
  0
LINE
  5
40A
  8
0
  6
CONTINUOUS
 62
     3
 10
-74.30552706738015
 20
11.67967663352695
 30
0.0
 11
-63.80552706738015
 21
11.67967663352695
 31
0.0
  0
LINE
  5
40B
  8
0
  6
CONTINUOUS
 62
     3
 10
-63.80552706738015
 20
1.17967734878269
 30
0.0
 11
-53.30552706738015
 21
1.17967734878269
 31
0.0
  0
LINE
  5
40C
  8
0
  6
CONTINUOUS
 62
     3
 10
-148.3055118085911
 20
0.6796773487826897
 30
0.0
 11
-114.3055118085911
 21
0.6796773487826897
 31
0.0
  0
LINE
  5
40D
  8
0
  6
CONTINUOUS
 62
     3
 10
-114.3055118085911
 20
5.179677587201269
 30
0.0
 11
-114.3055118085911
 21
0.6796773487826897
 31
0.0
  0
LINE
  5
40E
  8
0
  6
CONTINUOUS
 62
     3
 10
-148.3055118085911
 20
-2.705320972750513
 30
0.0
 11
-64.30552706738015
 21
-2.705320972750513
 31
0.0
  0
LINE
  5
40F
  8
0
  6
CONTINUOUS
 62
     3
 10
-148.3055118085911
 20
-13.7053200190762
 30
0.0
 11
-64.30552706738015
 21
-13.7053200190762
 31
0.0
  0
LINE
  5
410
  8
0
  6
CONTINUOUS
 62
     3
 10
-64.30552706738015
 20
-16.7053200190762
 30
0.0
 11
-53.30552706738015
 21
-16.7053200190762
 31
0.0
  0
LINE
  5
411
  8
0
  6
CONTINUOUS
 62
     3
 10
-64.30552706738015
 20
0.2946790272494866
 30
0.0
 11
-53.30552706738015
 21
0.2946790272494866
 31
0.0
  0
LINE
  5
412
  8
0
  6
CONTINUOUS
 62
     3
 10
-64.30552706738015
 20
0.2946790272494866
 30
0.0
 11
-64.30552706738015
 21
-16.7053200190762
 31
0.0
  0
LINE
  5
413
  8
0
  6
CONTINUOUS
 62
     3
 10
-95.30552706738015
 20
129.1796763951084
 30
0.0
 11
-95.30552706738015
 21
115.9256404454013
 31
0.0
  0
LINE
  5
414
  8
0
  6
CONTINUOUS
 62
     3
 10
-164.3055118085911
 20
-13.2053200190762
 30
0.0
 11
-64.30552706738015
 21
-13.2053200190762
 31
0.0
  0
LINE
  5
415
  8
0
  6
CONTINUOUS
 62
     3
 10
-164.3055118085911
 20
-3.205320972750513
 30
0.0
 11
-64.30552706738015
 21
-3.205320972750513
 31
0.0
  0
LINE
  5
416
  8
0
  6
CONTINUOUS
 62
     3
 10
-64.30552706738015
 20
-0.2053209727505134
 30
0.0
 11
-54.30552706738015
 21
-0.2053209727505134
 31
0.0
  0
LINE
  5
417
  8
0
  6
CONTINUOUS
 62
     3
 10
-64.30552706738015
 20
-16.2053200190762
 30
0.0
 11
-54.30552706738015
 21
-16.2053200190762
 31
0.0
  0
LINE
  5
418
  8
0
  6
CONTINUOUS
 62
     3
 10
-54.30552706738015
 20
-0.2053209727505134
 30
0.0
 11
-54.30552706738015
 21
-16.2053200190762
 31
0.0
  0
LINE
  5
419
  8
0
  6
CONTINUOUS
 62
     3
 10
-132.3055118085911
 20
-3.205320972750513
 30
0.0
 11
-132.3055118085911
 21
-13.2053200190762
 31
0.0
  0
LINE
  5
41A
  8
0
  6
CONTINUOUS
 62
     3
 10
-152.3055118085911
 20
-13.2053200190762
 30
0.0
 11
-152.3055118085911
 21
-40.82032360489163
 31
0.0
  0
LINE
  5
41B
  8
0
  6
CONTINUOUS
 62
     3
 10
-148.3055118085911
 20
-13.7053200190762
 30
0.0
 11
-148.3055118085911
 21
-25.82032360489163
 31
0.0
  0
LINE
  5
41C
  8
0
  6
CONTINUOUS
 62
     3
 10
-115.6898807050755
 20
78.67967639510837
 30
0.0
 11
-98.92117342968484
 21
78.67967639510837
 31
0.0
  0
LINE
  5
41D
  8
0
  6
CONTINUOUS
 62
     3
 10
-112.8055270673802
 20
65.17967639510837
 30
0.0
 11
-101.8055270673802
 21
65.17967639510837
 31
0.0
  0
LINE
  5
41E
  8
0
  6
CONTINUOUS
 62
     3
 10
-114.3055270673802
 20
66.77967868392673
 30
0.0
 11
-100.3055270673802
 21
66.77967868392673
 31
0.0
  0
LINE
  5
41F
  8
0
  6
CONTINUOUS
 62
     3
 10
-115.6898807050755
 20
67.77967868392673
 30
0.0
 11
-98.92117342968484
 21
67.77967868392673
 31
0.0
  0
LINE
  5
420
  8
0
  6
CONTINUOUS
 62
     3
 10
-100.3055270673802
 20
89.36644925011801
 30
0.0
 11
-100.3055270673802
 21
78.67967639510837
 31
0.0
  0
LINE
  5
421
  8
0
  6
CONTINUOUS
 62
     3
 10
-114.3055622609864
 20
78.6796764990568
 30
0.0
 11
-115.7293644756599
 21
89.18021739804375
 31
0.0
  0
LINE
  5
422
  8
0
  6
CONTINUOUS
 62
     3
 10
-91.70552096386453
 20
83.17967639510837
 30
0.0
 11
-82.70552096386453
 21
83.17967639510837
 31
0.0
  0
LINE
  5
423
  8
0
  6
CONTINUOUS
 62
     3
 10
-112.3055270673802
 20
67.77967868392673
 30
0.0
 11
-112.3055270673802
 21
66.77967868392673
 31
0.0
  0
LINE
  5
424
  8
0
  6
CONTINUOUS
 62
     3
 10
-102.3055270673802
 20
67.77967868392673
 30
0.0
 11
-102.3055270673802
 21
66.77967868392673
 31
0.0
  0
LINE
  5
425
  8
0
  6
CONTINUOUS
 62
     3
 10
-100.3055270673802
 20
67.77967868392673
 30
0.0
 11
-100.3055270673802
 21
66.77967868392673
 31
0.0
  0
LINE
  5
426
  8
0
  6
CONTINUOUS
 62
     3
 10
-114.3055270673802
 20
67.77967868392673
 30
0.0
 11
-114.3055270673802
 21
66.77967868392673
 31
0.0
  0
LINE
  5
427
  8
0
  6
CONTINUOUS
 62
     3
 10
-112.8055270673802
 20
78.67967639510837
 30
0.0
 11
-112.8055270673802
 21
67.77967868392673
 31
0.0
  0
LINE
  5
428
  8
0
  6
CONTINUOUS
 62
     3
 10
-101.8055270673802
 20
78.67967639510837
 30
0.0
 11
-101.8055270673802
 21
67.77967868392673
 31
0.0
  0
LINE
  5
429
  8
0
  6
CONTINUOUS
 62
     3
 10
-112.8055270673802
 20
66.77967868392673
 30
0.0
 11
-112.8055270673802
 21
65.17967639510837
 31
0.0
  0
LINE
  5
42A
  8
0
  6
CONTINUOUS
 62
     3
 10
-101.8055270673802
 20
66.77967868392673
 30
0.0
 11
-101.8055270673802
 21
65.17967639510837
 31
0.0
  0
LINE
  5
42B
  8
0
  6
CONTINUOUS
 62
     3
 10
-68.30552706738015
 20
129.1796763951084
 30
0.0
 11
-68.30552706738015
 21
62.17967639510837
 31
0.0
  0
LINE
  5
42C
  8
0
  6
CONTINUOUS
 62
     3
 10
-95.30552706738015
 20
84.17967639510837
 30
0.0
 11
-74.30552706738015
 21
84.17967639510837
 31
0.0
  0
LINE
  5
42D
  8
0
  6
CONTINUOUS
 62
     3
 10
-74.30552706738015
 20
62.17967639510837
 30
0.0
 11
-68.30552706738015
 21
62.17967639510837
 31
0.0
  0
LINE
  5
42E
  8
0
  6
CONTINUOUS
 62
     3
 10
-74.30552706738015
 20
70.17967258041111
 30
0.0
 11
-68.30552706738015
 21
70.17967258041111
 31
0.0
  0
LINE
  5
42F
  8
0
  6
CONTINUOUS
 62
     3
 10
-68.30552706738015
 20
84.17967639510837
 30
0.0
 11
-54.30552706738015
 21
84.17967639510837
 31
0.0
  0
LINE
  5
430
  8
0
  6
CONTINUOUS
 62
     3
 10
-74.30552706738015
 20
89.17967639510837
 30
0.0
 11
-74.30552706738015
 21
62.17967639510837
 31
0.0
  0
LINE
  5
431
  8
0
  6
CONTINUOUS
 62
     3
 10
-67.30552706738015
 20
126.1796763951084
 30
0.0
 11
-67.30552706738015
 21
85.17967639510837
 31
0.0
  0
LINE
  5
432
  8
0
  6
CONTINUOUS
 62
     3
 10
-67.30552706738015
 20
126.1796763951084
 30
0.0
 11
-52.80552706738015
 21
126.1796763951084
 31
0.0
  0
LINE
  5
433
  8
0
  6
CONTINUOUS
 62
     3
 10
-67.30552706738015
 20
85.17967639510837
 30
0.0
 11
-52.80552706738015
 21
85.17967639510837
 31
0.0
  0
LINE
  5
434
  8
0
  6
CONTINUOUS
 62
     3
 10
-52.80552706738015
 20
126.1796763951084
 30
0.0
 11
-52.80552706738015
 21
121.5296748692295
 31
0.0
  0
LINE
  5
435
  8
0
  6
CONTINUOUS
 62
     3
 10
-67.30552706738015
 20
89.17967639510837
 30
0.0
 11
-47.30552706738015
 21
89.17967639510837
 31
0.0
  0
LINE
  5
436
  8
0
  6
CONTINUOUS
 62
     3
 10
-67.30552706738015
 20
97.17967639510837
 30
0.0
 11
-47.30552706738015
 21
97.17967639510837
 31
0.0
  0
LINE
  5
437
  8
0
  6
CONTINUOUS
 62
     3
 10
-67.30552706738015
 20
122.1796763951084
 30
0.0
 11
-47.30552706738015
 21
122.1796763951084
 31
0.0
  0
LINE
  5
438
  8
0
  6
CONTINUOUS
 62
     3
 10
-67.30552706738015
 20
114.1796763951084
 30
0.0
 11
-47.30552706738015
 21
114.1796763951084
 31
0.0
  0
LINE
  5
439
  8
0
  6
CONTINUOUS
 62
     3
 10
-47.30552706738015
 20
124.6796763951084
 30
0.0
 11
-47.30552706738015
 21
111.6796763951084
 31
0.0
  0
LINE
  5
43A
  8
0
  6
CONTINUOUS
 62
     3
 10
-39.30552706738015
 20
124.6796763951084
 30
0.0
 11
-39.30552706738015
 21
111.6796763951084
 31
0.0
  0
LINE
  5
43B
  8
0
  6
CONTINUOUS
 62
     3
 10
-47.30552706738015
 20
86.67967639510837
 30
0.0
 11
-39.30552706738015
 21
86.67967639510837
 31
0.0
  0
LINE
  5
43C
  8
0
  6
CONTINUOUS
 62
     3
 10
-47.30552706738015
 20
99.67967639510837
 30
0.0
 11
-39.30552706738015
 21
99.67967639510837
 31
0.0
  0
LINE
  5
43D
  8
0
  6
CONTINUOUS
 62
     3
 10
-47.30552706738015
 20
124.6796763951084
 30
0.0
 11
-39.30552706738015
 21
124.6796763951084
 31
0.0
  0
LINE
  5
43E
  8
0
  6
CONTINUOUS
 62
     3
 10
-47.30552706738015
 20
111.6796763951084
 30
0.0
 11
-39.30552706738015
 21
111.6796763951084
 31
0.0
  0
LINE
  5
43F
  8
0
  6
CONTINUOUS
 62
     3
 10
-65.30552706738015
 20
122.1796763951084
 30
0.0
 11
-65.30552706738015
 21
114.1796763951084
 31
0.0
  0
LINE
  5
440
  8
0
  6
CONTINUOUS
 62
     3
 10
-65.30552706738015
 20
97.17967639510837
 30
0.0
 11
-65.30552706738015
 21
89.17967639510837
 31
0.0
  0
LINE
  5
441
  8
0
  6
CONTINUOUS
 62
     3
 10
-52.80552706738015
 20
114.8296779209873
 30
0.0
 11
-52.80552706738015
 21
96.52967486922947
 31
0.0
  0
LINE
  5
442
  8
0
  6
CONTINUOUS
 62
     3
 10
-52.80552706738015
 20
89.82967792098728
 30
0.0
 11
-52.80552706738015
 21
85.17967639510837
 31
0.0
  0
LINE
  5
443
  8
0
  6
CONTINUOUS
 62
     3
 10
-47.30552706738015
 20
99.67967639510837
 30
0.0
 11
-47.30552706738015
 21
86.67967639510837
 31
0.0
  0
LINE
  5
444
  8
0
  6
CONTINUOUS
 62
     3
 10
-39.30552706738015
 20
99.67967639510837
 30
0.0
 11
-39.30552706738015
 21
86.67967639510837
 31
0.0
  0
LINE
  5
445
  8
0
  6
CONTINUOUS
 62
     3
 10
-74.30552706738015
 20
60.91300998275486
 30
0.0
 11
-74.30552706738015
 21
5.179677587201269
 31
0.0
  0
LINE
  5
446
  8
0
  6
CONTINUOUS
 62
     3
 10
-152.3055118085911
 20
23.17967734878269
 30
0.0
 11
-152.3055118085911
 21
-3.205320972750513
 31
0.0
  0
LINE
  5
447
  8
0
  6
CONTINUOUS
 62
     3
 10
-148.3055118085911
 20
23.17967734878269
 30
0.0
 11
-148.3055118085911
 21
-2.705320972750513
 31
0.0
  0
LINE
  5
448
  8
0
  6
CONTINUOUS
 62
     3
 10
-53.30552706738015
 20
82.84634814803806
 30
0.0
 11
-53.30552706738015
 21
-39.32032360489163
 31
0.0
  0
LINE
  5
449
  8
0
  6
CONTINUOUS
 62
     3
 10
-75.54437289257547
 20
4.17967734878269
 30
0.0
 11
-63.80552706738015
 21
4.17967734878269
 31
0.0
  0
LINE
  5
44A
  8
0
  6
CONTINUOUS
 62
     3
 10
-74.30552706738015
 20
10.17967663352695
 30
0.0
 11
-63.80552706738015
 21
10.17967663352695
 31
0.0
  0
LINE
  5
44B
  8
0
  6
CONTINUOUS
 62
     3
 10
-75.53767428417703
 20
5.179677587201269
 30
0.0
 11
-75.53767428417703
 21
4.17967734878269
 31
0.0
  0
LINE
  5
44C
  8
0
  6
CONTINUOUS
 62
     3
 10
-63.80552706738015
 20
81.91301379745212
 30
0.0
 11
-63.80552706738015
 21
1.17967734878269
 31
0.0
  0
LINE
  5
44D
  8
0
  6
CONTINUOUS
 62
     3
 10
-117.3055270673802
 20
77.7206996495029
 30
0.0
 11
-117.3055270673802
 21
10.638658147504
 31
0.0
  0
LINE
  5
44E
  8
0
  6
CONTINUOUS
 62
     3
 10
-97.30552706738015
 20
77.7206996495029
 30
0.0
 11
-97.30552706738015
 21
10.638658147504
 31
0.0
  0
LINE
  5
44F
  8
0
  6
CONTINUOUS
 62
     3
 10
-129.8055118085911
 20
70.98919711654392
 30
0.0
 11
-129.8055118085911
 21
17.37015090530124
 31
0.0
  0
LINE
  5
450
  8
0
  6
CONTINUOUS
 62
     3
 10
-84.80552706738015
 20
70.98918948714939
 30
0.0
 11
-84.80552706738015
 21
17.37016425674167
 31
0.0
  0
LINE
  5
451
  8
0
  6
CONTINUOUS
 62
     3
 10
-129.8055118085911
 20
20.17967734878269
 30
0.0
 11
-117.3055270673802
 21
20.17967734878269
 31
0.0
  0
LINE
  5
452
  8
0
  6
CONTINUOUS
 62
     3
 10
-129.8055118085911
 20
68.17967258041111
 30
0.0
 11
-117.3055270673802
 21
68.17967258041111
 31
0.0
  0
LINE
  5
453
  8
0
  6
CONTINUOUS
 62
     3
 10
-97.30552706738015
 20
20.17967734878269
 30
0.0
 11
-84.80552706738015
 21
20.17967734878269
 31
0.0
  0
LINE
  5
454
  8
0
  6
CONTINUOUS
 62
     3
 10
-97.30552706738015
 20
68.17967258041111
 30
0.0
 11
-84.80552706738015
 21
68.17967258041111
 31
0.0
  0
LINE
  5
455
  8
0
  6
CONTINUOUS
 62
     3
 10
-91.70552096386453
 20
83.17967639510837
 30
0.0
 11
-91.70552096386453
 21
75.51080737655369
 31
0.0
  0
LINE
  5
456
  8
0
  6
CONTINUOUS
 62
     3
 10
-130.4072920984815
 20
17.17964692886497
 30
0.0
 11
-122.9055263737152
 21
12.84850094678703
 31
0.0
  0
LINE
  5
457
  8
0
  6
CONTINUOUS
 62
     3
 10
-91.70553511554337
 20
75.51080759898653
 30
0.0
 11
-84.20379581977633
 21
71.17967687569674
 31
0.0
  0
LINE
  5
458
  8
0
  6
CONTINUOUS
 62
     3
 10
-130.4073002858318
 20
71.17971232907078
 30
0.0
 11
-122.9055345610655
 21
75.51085831114872
 31
0.0
  0
LINE
  5
459
  8
0
  6
CONTINUOUS
 62
     3
 10
-91.70552824951554
 20
12.8485713621026
 30
0.0
 11
-84.2037889537485
 21
17.17970208539239
 31
0.0
  0
LINE
  5
45A
  8
0
  6
CONTINUOUS
 62
     3
 10
-122.9055179121067
 20
83.17967639510837
 30
0.0
 11
-122.9055179121067
 21
75.51082263534275
 31
0.0
  0
LINE
  5
45B
  8
0
  6
CONTINUOUS
 62
     3
 10
-130.407287931638
 20
71.17967258041111
 30
0.0
 11
-130.407287931638
 21
17.17967639510837
 31
0.0
  0
LINE
  5
45C
  8
0
  6
CONTINUOUS
 62
     3
 10
-84.2037814619114
 20
71.17967258041111
 30
0.0
 11
-84.2037814619114
 21
17.17967639510837
 31
0.0
  0
LINE
  5
45D
  8
0
  6
CONTINUOUS
 62
     3
 10
-91.70552096386453
 20
12.84854541366306
 30
0.0
 11
-91.70552096386453
 21
9.179676573922308
 31
0.0
  0
LINE
  5
45E
  8
0
  6
CONTINUOUS
 62
     3
 10
-100.3055270673802
 20
81.17967639510837
 30
0.0
 11
-93.70552096386453
 21
81.17967639510837
 31
0.0
  0
LINE
  5
45F
  8
0
  6
CONTINUOUS
 62
     3
 10
-120.9055179121067
 20
81.17967639510837
 30
0.0
 11
-114.9156955244114
 21
81.17967639510837
 31
0.0
  0
LINE
  5
460
  8
0
  6
CONTINUOUS
 62
     3
 10
-81.70552096386453
 20
82.17967639510837
 30
0.0
 11
-81.70552096386453
 21
6.179651361157568
 31
0.0
  0
LINE
  5
461
  8
0
  6
CONTINUOUS
 62
     3
 10
-132.9055179121067
 20
83.17967639510837
 30
0.0
 11
-132.9055179121067
 21
79.36967883651462
 31
0.0
  0
LINE
  5
462
  8
0
  6
CONTINUOUS
 62
     3
 10
-135.4055179121067
 20
71.17967258041111
 30
0.0
 11
-130.407287931638
 21
71.17967258041111
 31
0.0
  0
LINE
  5
463
  8
0
  6
CONTINUOUS
 62
     3
 10
-135.4055179121067
 20
17.17967639510837
 30
0.0
 11
-130.407287931638
 21
17.17967639510837
 31
0.0
  0
LINE
  5
464
  8
0
  6
CONTINUOUS
 62
     3
 10
-84.2037814619114
 20
71.17967258041111
 30
0.0
 11
-81.70552096386453
 21
71.17967258041111
 31
0.0
  0
LINE
  5
465
  8
0
  6
CONTINUOUS
 62
     3
 10
-84.2037814619114
 20
17.17967639510837
 30
0.0
 11
-81.70552096386453
 21
17.17967639510837
 31
0.0
  0
LINE
  5
466
  8
0
  6
CONTINUOUS
 62
     3
 10
-132.9055179121067
 20
8.989677947213323
 30
0.0
 11
-132.9055179121067
 21
5.179677587201269
 31
0.0
  0
LINE
  5
467
  8
0
  6
CONTINUOUS
 62
     3
 10
-163.9055179121067
 20
63.67967639510837
 30
0.0
 11
-163.9055179121067
 21
24.6795619541904
 31
0.0
  0
LINE
  5
468
  8
0
  6
CONTINUOUS
 62
     3
 10
-140.9055179121067
 20
82.17967639510837
 30
0.0
 11
-140.9055179121067
 21
70.17967258041111
 31
0.0
  0
LINE
  5
469
  8
0
  6
CONTINUOUS
 62
     3
 10
-140.9055179121067
 20
18.17967639510837
 30
0.0
 11
-140.9055179121067
 21
6.179677587201269
 31
0.0
  0
LINE
  5
46A
  8
0
  6
CONTINUOUS
 62
     3
 10
-162.4055179121067
 20
65.17967639510837
 30
0.0
 11
-145.9055179121067
 21
65.17967639510837
 31
0.0
  0
LINE
  5
46B
  8
0
  6
CONTINUOUS
 62
     3
 10
-162.4055179121067
 20
23.17967734878269
 30
0.0
 11
-145.9055179121067
 21
23.17967734878269
 31
0.0
  0
LINE
  5
46C
  8
0
  6
CONTINUOUS
 62
     3
 10
-132.9055179121067
 20
8.179676573922308
 30
0.0
 11
-130.4055179121067
 21
8.179676573922308
 31
0.0
  0
LINE
  5
46D
  8
0
  6
CONTINUOUS
 62
     3
 10
-132.9055179121067
 20
80.17967639510837
 30
0.0
 11
-122.9055179121067
 21
80.17967639510837
 31
0.0
  0
LINE
  5
46E
  8
0
  6
CONTINUOUS
 62
     3
 10
-147.9055179121067
 20
60.67967639510837
 30
0.0
 11
-147.9055179121067
 21
27.67967830245701
 31
0.0
  0
LINE
  5
46F
  8
0
  6
CONTINUOUS
 62
     3
 10
-146.9055179121067
 20
26.67967830245701
 30
0.0
 11
-144.9055179121067
 21
26.67967830245701
 31
0.0
  0
LINE
  5
470
  8
0
  6
CONTINUOUS
 62
     3
 10
-146.9055179121067
 20
61.67967639510837
 30
0.0
 11
-144.9055179121067
 21
61.67967639510837
 31
0.0
  0
LINE
  5
471
  8
0
  6
CONTINUOUS
 62
     3
 10
-163.9055179121067
 20
27.99967799728122
 30
0.0
 11
-147.9055179121067
 21
27.99967799728122
 31
0.0
  0
LINE
  5
472
  8
0
  6
CONTINUOUS
 62
     3
 10
-163.9055179121067
 20
60.35967670028415
 30
0.0
 11
-147.9055179121067
 21
60.35967670028415
 31
0.0
  0
LINE
  5
473
  8
0
  6
CONTINUOUS
 62
     3
 10
-143.9055179121067
 20
29.67967830245701
 30
0.0
 11
-135.4055179121067
 21
29.67967830245701
 31
0.0
  0
LINE
  5
474
  8
0
  6
CONTINUOUS
 62
     3
 10
-143.9055179121067
 20
58.67967639510837
 30
0.0
 11
-135.4055179121067
 21
58.67967639510837
 31
0.0
  0
LINE
  5
475
  8
0
  6
CONTINUOUS
 62
     3
 10
-143.9055179121067
 20
60.67967639510837
 30
0.0
 11
-143.9055179121067
 21
27.67967830245701
 31
0.0
  0
LINE
  5
476
  8
0
  6
CONTINUOUS
 62
     3
 10
-135.4055179121067
 20
71.17967258041111
 30
0.0
 11
-135.4055179121067
 21
17.17967639510837
 31
0.0
  0
LINE
  5
477
  8
0
  6
CONTINUOUS
 62
     3
 10
-163.9055877573958
 20
24.67961052715239
 30
0.0
 11
-162.4055861650116
 21
23.17960893476814
 31
0.0
  0
LINE
  5
478
  8
0
  6
CONTINUOUS
 62
     3
 10
-163.9056147313784
 20
63.67975443027674
 30
0.0
 11
-162.4056131389941
 21
65.179756022661
 31
0.0
  0
LINE
  5
479
  8
0
  6
CONTINUOUS
 62
     3
 10
-140.905477024093
 20
82.17963919976958
 30
0.0
 11
-139.9054759625035
 21
83.17964026135908
 31
0.0
  0
LINE
  5
47A
  8
0
  6
CONTINUOUS
 62
     3
 10
-140.9054824188895
 20
6.179704178473486
 30
0.0
 11
-139.9054813573
 21
5.179703116883985
 31
0.0
  0
LINE
  5
47B
  8
0
  6
CONTINUOUS
 62
     3
 10
-81.70550481057606
 20
6.179666414897866
 30
0.0
 11
-82.70550587216556
 21
5.179665353308366
 31
0.0
  0
LINE
  5
47C
  8
0
  6
CONTINUOUS
 62
     3
 10
-81.70551222842127
 20
82.17969651948258
 30
0.0
 11
-82.70551329001077
 21
83.17969758107208
 31
0.0
  0
LINE
  5
47D
  8
0
  6
CONTINUOUS
 62
     3
 10
-122.9055179121067
 20
9.179676573922308
 30
0.0
 11
-91.70552096386453
 21
9.179676573922308
 31
0.0
  0
LINE
  5
47E
  8
0
  6
CONTINUOUS
 62
     3
 10
-122.9055179121067
 20
12.84853778426853
 30
0.0
 11
-122.9055179121067
 21
8.179676573922308
 31
0.0
  0
LINE
  5
47F
  8
0
  6
CONTINUOUS
 62
     3
 10
-61.30552706738015
 20
129.1796763951084
 30
0.0
 11
-61.30552706738015
 21
126.1796763951084
 31
0.0
  0
LINE
  5
480
  8
0
  6
CONTINUOUS
 62
     3
 10
-54.30552706738015
 20
129.1796763951084
 30
0.0
 11
-54.30552706738015
 21
126.1796763951084
 31
0.0
  0
LINE
  5
481
  8
0
  6
CONTINUOUS
 62
     3
 10
-54.30552706738015
 20
85.17967639510837
 30
0.0
 11
-54.30552706738015
 21
84.17967639510837
 31
0.0
  0
LINE
  5
482
  8
0
  6
CONTINUOUS
 62
     3
 10
-61.30552706738015
 20
85.17967639510837
 30
0.0
 11
-61.30552706738015
 21
84.17967639510837
 31
0.0
  0
LINE
  5
483
  8
0
  6
CONTINUOUS
 62
     3
 10
-54.30552147305119
 20
128.6796831442089
 30
0.0
 11
-53.30553111676184
 21
127.6796928722124
 31
0.0
  0
LINE
  5
484
  8
0
  6
CONTINUOUS
 62
     3
 10
-125.4055179121067
 20
12.17967663352695
 30
0.0
 11
-125.4055179121067
 21
5.179677587201269
 31
0.0
  0
LINE
  5
485
  8
0
  6
CONTINUOUS
 62
     3
 10
-130.4055179121067
 20
12.17967663352695
 30
0.0
 11
-130.4055179121067
 21
5.179677587201269
 31
0.0
  0
LINE
  5
486
  8
0
  6
CONTINUOUS
 62
     3
 10
-130.4055179121067
 20
12.17967663352695
 30
0.0
 11
-125.4055179121067
 21
12.17967663352695
 31
0.0
  0
LINE
  5
487
  8
0
  6
CONTINUOUS
 62
     3
 10
-125.4055179121067
 20
8.179676573922308
 30
0.0
 11
-122.9055179121067
 21
8.179676573922308
 31
0.0
  0
LINE
  5
488
  8
0
  6
CONTINUOUS
 62
     3
 10
-53.30552577713124
 20
-39.32030703462274
 30
0.0
 11
-54.80553815910852
 21
-40.82031941660003
 31
0.0
  0
LINE
  5
489
  8
0
  6
CONTINUOUS
 62
     3
 10
-67.39643893261453
 20
73.50970111434665
 30
0.0
 11
-63.80552706738015
 21
73.50970111434665
 31
0.0
  0
LINE
  5
48A
  8
0
  6
CONTINUOUS
 62
     3
 10
-152.3055118085911
 20
87.33780322616306
 30
0.0
 11
-152.3055118085911
 21
65.17967639510837
 31
0.0
  0
LINE
  5
48B
  8
0
  6
CONTINUOUS
 62
     3
 10
75.4112123519512
 20
8.607893169953542
 30
0.0
 11
81.47339090410193
 21
12.10789212687226
 31
0.0
  0
LINE
  5
48C
  8
0
  6
CONTINUOUS
 62
     3
 10
86.47339183030655
 20
9.221129781341943
 30
0.0
 11
81.47338299364785
 21
12.10788805482755
 31
0.0
  0
LINE
  5
48D
  8
0
  6
CONTINUOUS
 62
     3
 10
83.41121657501569
 20
-5.24851113455199
 30
0.0
 11
89.47339512716641
 21
-1.748512177633273
 31
0.0
  0
LINE
  5
48E
  8
0
  6
CONTINUOUS
 62
     3
 10
83.2148215107832
 20
0.0651868416141781
 30
0.0
 11
80.77296275457095
 21
-0.3053902273447591
 31
0.0
  0
LINE
  5
48F
  8
0
  6
CONTINUOUS
 62
     3
 10
78.37294302666734
 20
3.851527781522719
 30
0.0
 11
80.77294383729006
 21
-0.3053972971378869
 31
0.0
  0
LINE
  5
490
  8
0
  6
CONTINUOUS
 62
     3
 10
78.3729164183546
 20
3.851526346892825
 30
0.0
 11
79.91477544227698
 21
5.780949121297709
 31
0.0
  0
LINE
  5
491
  8
0
  6
CONTINUOUS
 62
     3
 10
79.91480561522198
 20
5.780949939204476
 30
0.0
 11
83.21480768350224
 21
0.0651763042335745
 31
0.0
  0
LINE
  5
492
  8
0
  6
CONTINUOUS
 62
     3
 10
83.50581025149151
 20
7.961126258438327
 30
0.0
 11
86.89841025360121
 21
2.084968230402211
 31
0.0
  0
LINE
  5
493
  8
0
  6
CONTINUOUS
 62
     3
 10
83.76673398906573
 20
8.755409129051287
 30
0.0
 11
85.22706183659315
 21
9.598529452732947
 31
0.0
  0
LINE
  5
494
  8
0
  6
CONTINUOUS
 62
     3
 10
84.86370010525931
 20
7.137084626585676
 30
0.0
 11
86.13860868844674
 21
7.873153132806038
 31
0.0
  0
LINE
  5
495
  8
0
  6
CONTINUOUS
 62
     3
 10
37.48918939947404
 20
-16.1731251643948
 30
0.0
 11
30.56098546764136
 21
-20.17312611806918
 31
0.0
  0
LINE
  5
496
  8
0
  6
CONTINUOUS
 62
     3
 10
29.81098893739559
 20
-18.87409038565821
 30
0.0
 11
30.56098902680256
 21
-20.17312846801943
 31
0.0
  0
LINE
  5
497
  8
0
  6
CONTINUOUS
 62
     3
 10
29.81098537823439
 20
-18.87408803570796
 30
0.0
 11
23.74880766054869
 21
-22.37408845294047
 31
0.0
  0
LINE
  5
498
  8
0
  6
CONTINUOUS
 62
     3
 10
23.74880683464252
 20
-22.37408892977768
 30
0.0
 11
30.74880766910755
 21
-34.49844436514908
 31
0.0
  0
LINE
  5
499
  8
0
  6
CONTINUOUS
 62
     3
 10
36.81098894595445
 20
-30.99844629786682
 30
0.0
 11
30.74881122826875
 21
-34.49844671509933
 31
0.0
  0
LINE
  5
49A
  8
0
  6
CONTINUOUS
 62
     3
 10
36.06098968245365
 20
-29.69940773866838
 30
0.0
 11
36.81098977186062
 21
-30.99844582102961
 31
0.0
  0
LINE
  5
49B
  8
0
  6
CONTINUOUS
 62
     3
 10
42.98919361428634
 20
-25.69940678499401
 30
0.0
 11
36.06098720473514
 21
-29.69940916918003
 31
0.0
  0
LINE
  5
49C
  8
0
  6
CONTINUOUS
 62
     3
 10
47.23919081730114
 20
-33.06062449238979
 30
0.0
 11
10.86612120756226
 21
-54.06062890313373
 31
0.0
  0
LINE
  5
49D
  8
0
  6
CONTINUOUS
 62
     3
 10
34.24880808634006
 20
-40.56062208283478
 30
0.0
 11
38.24880856317722
 21
-47.4888251887613
 31
0.0
  0
LINE
  5
49E
  8
0
  6
CONTINUOUS
 62
     3
 10
38.24880525955254
 20
-47.48882709611016
 30
0.0
 11
14.86611812523822
 21
-60.98882965911
 31
0.0
  0
LINE
  5
49F
  8
0
  6
CONTINUOUS
 62
     3
 10
-7.133880938204953
 20
-22.88371492646442
 30
0.0
 11
14.86611977705056
 21
-60.98882870543557
 31
0.0
  0
LINE
  5
4A0
  8
0
  6
CONTINUOUS
 62
     3
 10
16.24880689424728
 20
-9.383709757977812
 30
0.0
 11
-7.133881891879383
 21
-22.88371327465208
 31
0.0
  0
LINE
  5
4A1
  8
0
  6
CONTINUOUS
 62
     3
 10
16.24880784792171
 20
-9.383711409790152
 30
0.0
 11
20.24880641741001
 21
-16.31191121209199
 31
0.0
  0
LINE
  5
4A2
  8
0
  6
CONTINUOUS
 62
     3
 10
33.23918914837108
 20
-8.811913621646994
 30
0.0
 11
-3.133882113180135
 21
-29.81191898606536
 31
0.0
  0
LINE
  5
4A3
  8
0
  6
CONTINUOUS
 62
     3
 10
23.2508859481384
 20
8.488336444396822
 30
0.0
 11
33.23918889283456
 21
-8.811909364347883
 31
0.0
  0
LINE
  5
4A4
  8
0
  6
CONTINUOUS
 62
     3
 10
42.23919161753051
 20
-24.40036539900811
 30
0.0
 11
42.98919361428634
 21
-25.69940678499401
 31
0.0
  0
LINE
  5
4A5
  8
0
  6
CONTINUOUS
 62
     3
 10
37.48919295863524
 20
-16.17312751434505
 30
0.0
 11
38.23919114069335
 21
-17.4721622930816
 31
0.0
  0
LINE
  5
4A6
  8
0
  6
CONTINUOUS
 62
     3
 10
24.86483514335725
 20
-22.30709989536319
 30
0.0
 11
31.3648378255665
 21
-33.56543324611846
 31
0.0
  0
LINE
  5
4A7
  8
0
  6
CONTINUOUS
 62
     3
 10
36.56098891615213
 20
-30.56543360374641
 30
0.0
 11
31.36483576080107
 21
-33.5654344382115
 31
0.0
  0
LINE
  5
4A8
  8
0
  6
CONTINUOUS
 62
     3
 10
30.06098814129174
 20
-19.30710355661583
 30
0.0
 11
24.86483581184686
 21
-22.3071039142437
 31
0.0
  0
LINE
  5
4A9
  8
0
  6
CONTINUOUS
 62
     3
 10
47.00233481201619
 20
-21.65036742113281
 30
0.0
 11
30.11483808950797
 21
-31.40036953709782
 31
0.0
  0
LINE
  5
4AA
  8
0
  6
CONTINUOUS
 62
     3
 10
43.00233242783017
 20
-14.72216101158162
 30
0.0
 11
26.11483487941578
 21
-24.47216360438384
 31
0.0
  0
LINE
  5
4AB
  8
0
  6
CONTINUOUS
 62
     3
 10
55.18053806695431
 20
-19.81543041489769
 30
0.0
 11
48.25233330921546
 21
-23.81543184540928
 31
0.0
  0
LINE
  5
4AC
  8
0
  6
CONTINUOUS
 62
     3
 10
48.68053729209393
 20
-8.557100367767106
 30
0.0
 11
41.75233253435508
 21
-12.55710179827869
 31
0.0
  0
LINE
  5
4AD
  8
0
  6
CONTINUOUS
 62
     3
 10
41.75233418616742
 20
-12.55710084460426
 30
0.0
 11
48.25233305367894
 21
-23.81542758811017
 31
0.0
  0
LINE
  5
4AE
  8
0
  6
CONTINUOUS
 62
     3
 10
48.68053729209393
 20
-8.557100367767106
 30
0.0
 11
55.18053615960545
 21
-19.81542711127301
 31
0.0
  0
LINE
  5
4AF
  8
0
  6
CONTINUOUS
 62
     3
 10
13.72252305289655
 20
-33.9362655717475
 30
0.0
 11
15.72252352973371
 21
-30.47216425720282
 31
0.0
  0
LINE
  5
4B0
  8
0
  6
CONTINUOUS
 62
     3
 10
15.72252526263694
 20
-30.47216762954983
 30
0.0
 11
19.72252621631125
 21
-30.47216762954983
 31
0.0
  0
LINE
  5
4B1
  8
0
  6
CONTINUOUS
 62
     3
 10
19.72252698991534
 20
-30.4721721983627
 30
0.0
 11
21.72252555940386
 21
-33.93627470500027
 31
0.0
  0
LINE
  5
4B2
  8
0
  6
CONTINUOUS
 62
     3
 10
21.72253229350619
 20
-33.93627443221155
 30
0.0
 11
19.7225299093204
 21
-37.40037479308191
 31
0.0
  0
LINE
  5
4B3
  8
0
  6
CONTINUOUS
 62
     3
 10
19.72252430896262
 20
-37.40037502701077
 30
0.0
 11
15.7225233552883
 21
-37.40037502701077
 31
0.0
  0
LINE
  5
4B4
  8
0
  6
CONTINUOUS
 62
     3
 10
15.72252483963993
 20
-37.4003731677553
 30
0.0
 11
13.72252579331425
 21
-33.93627113795489
 31
0.0
  0
LINE
  5
4B5
  8
0
  6
CONTINUOUS
 62
     3
 10
-71.30552706738015
 20
129.1796763951084
 30
0.0
 11
-71.30552706738015
 21
122.1796763951084
 31
0.0
  0
LINE
  5
4B6
  8
0
  6
CONTINUOUS
 62
     3
 10
-87.30552706738015
 20
122.1796763951084
 30
0.0
 11
-83.54136691113015
 21
122.1796763951084
 31
0.0
  0
LINE
  5
4B7
  8
0
  6
CONTINUOUS
 62
     3
 10
-87.30552706738015
 20
129.1796763951084
 30
0.0
 11
-87.30552706738015
 21
122.1796763951084
 31
0.0
  0
LINE
  5
4B8
  8
0
  6
CONTINUOUS
 62
     3
 10
-87.30551887617892
 20
122.179685310291
 30
0.0
 11
-82.3055090071355
 21
119.2929285853825
 31
0.0
  0
LINE
  5
4B9
  8
0
  6
CONTINUOUS
 62
     3
 10
-82.30552706738015
 20
119.2929271275302
 30
0.0
 11
-76.30552706738015
 21
119.2929271275302
 31
0.0
  0
LINE
  5
4BA
  8
0
  6
CONTINUOUS
 62
     3
 10
-76.30553307355584
 20
119.2929455483329
 30
0.0
 11
-71.30553022471534
 21
122.1796982201258
 31
0.0
  0
LINE
  5
4BB
  8
0
  6
CONTINUOUS
 62
     3
 10
-76.90552554150125
 20
128.9929240757724
 30
0.0
 11
-81.70552859325906
 21
128.9929240757724
 31
0.0
  0
LINE
  5
4BC
  8
0
  6
CONTINUOUS
 62
     3
 10
-83.25552401562234
 20
121.8698237950107
 30
0.0
 11
-83.25552401562234
 21
120.1835750157138
 31
0.0
  0
LINE
  5
4BD
  8
0
  6
CONTINUOUS
 62
     3
 10
-75.35553011913797
 20
121.8698237950107
 30
0.0
 11
-75.35553011913797
 21
120.1835750157138
 31
0.0
  0
LINE
  5
4BE
  8
0
  6
CONTINUOUS
 62
     3
 10
-76.00552401562234
 20
126.6929210240146
 30
0.0
 11
-82.60553011913797
 21
126.6929210240146
 31
0.0
  0
LINE
  5
4BF
  8
0
  6
CONTINUOUS
 62
     3
 10
-75.91294131298562
 20
122.4929240757724
 30
0.0
 11
-82.69814333935281
 21
122.4929240757724
 31
0.0
  0
LINE
  5
4C0
  8
0
  6
CONTINUOUS
 62
     3
 10
-77.30552706738015
 20
121.7289928013584
 30
0.0
 11
-77.30552706738015
 21
120.2568553501865
 31
0.0
  0
LINE
  5
4C1
  8
0
  6
CONTINUOUS
 62
     3
 10
-81.30552706738015
 20
121.7289928013584
 30
0.0
 11
-81.30552706738015
 21
120.2568553501865
 31
0.0
  0
LINE
  5
4C2
  8
0
  6
CONTINUOUS
 62
     3
 10
-82.60552557187091
 20
126.6929183724467
 30
0.0
 11
-81.70552576597473
 21
128.9929187678579
 31
0.0
  0
LINE
  5
4C3
  8
0
  6
CONTINUOUS
 62
     3
 10
-76.90552406812881
 20
128.9929184653157
 30
0.0
 11
-76.00552396780736
 21
126.6929182171171
 31
0.0
  0
LINE
  5
4C4
  8
0
  6
CONTINUOUS
 62
     3
 10
-76.6924518110325
 20
125.6929210240146
 30
0.0
 11
-81.98448214550515
 21
125.6929210240146
 31
0.0
  0
LINE
  5
4C5
  8
0
  6
CONTINUOUS
 62
     3
 10
-75.00958285351297
 20
122.1796763951084
 30
0.0
 11
-71.30552706738015
 21
122.1796763951084
 31
0.0
  0
LINE
  5
4C6
  8
0
  6
CONTINUOUS
 62
     3
 10
-76.5723346235325
 20
129.1796763951084
 30
0.0
 11
-54.30552706738015
 21
129.1796763951084
 31
0.0
  0
LINE
  5
4C7
  8
0
  6
CONTINUOUS
 62
     3
 10
81.03342055588561
 20
-1.130633145109385
 30
0.0
 11
86.4108854913629
 21
-10.44467435178532
 31
0.0
  0
LINE
  5
4C8
  8
0
  6
CONTINUOUS
 62
     3
 10
83.11150534510486
 20
9.27059350122957
 30
0.0
 11
81.47339281145
 21
12.10788882324712
 31
0.0
  0
LINE
  5
4C9
  8
0
  6
CONTINUOUS
 62
     3
 10
27.4138765209382
 20
-23.72216586492712
 30
0.0
 11
31.41387699777536
 21
-30.65036897085363
 31
0.0
  0
LINE
  5
4CA
  8
0
  6
CONTINUOUS
 62
     3
 10
55.10429491735292
 20
-47.45685313741708
 30
0.0
 11
53.56243633506844
 21
-49.38627620624723
 31
0.0
  0
LINE
  5
4CB
  8
0
  6
CONTINUOUS
 62
     3
 10
50.26240570334673
 20
-43.67050574702475
 30
0.0
 11
52.70426445955897
 21
-43.29992823642792
 31
0.0
  0
LINE
  5
4CC
  8
0
  6
CONTINUOUS
 62
     3
 10
49.97138578961537
 20
-51.56643313901961
 30
0.0
 11
46.57878437200222
 21
-45.69027591984261
 31
0.0
  0
LINE
  5
4CD
  8
0
  6
CONTINUOUS
 62
     3
 10
48.61350946197282
 20
-50.74239271775056
 30
0.0
 11
47.33860105427786
 21
-51.47846153108273
 31
0.0
  0
LINE
  5
4CE
  8
0
  6
CONTINUOUS
 62
     3
 10
46.61351087536659
 20
-47.27829021111287
 30
0.0
 11
45.33860411948396
 21
-48.01435807077061
 31
0.0
  0
LINE
  5
4CF
  8
0
  6
CONTINUOUS
 62
     3
 10
53.5623946057926
 20
-49.38624883631448
 30
0.0
 11
50.26239879003921
 21
-43.67048920262434
 31
0.0
  0
LINE
  5
4D0
  8
0
  6
CONTINUOUS
 62
     3
 10
49.71047457190159
 20
-52.36072216935119
 30
0.0
 11
48.25014031814041
 21
-53.20384665950789
 31
0.0
  0
LINE
  5
4D1
  8
0
  6
CONTINUOUS
 62
     3
 10
45.76048096748079
 20
-45.51913349529761
 30
0.0
 11
44.30014836553195
 21
-46.36225703177988
 31
0.0
  0
LINE
  5
4D2
  8
0
  6
CONTINUOUS
 62
     3
 10
55.10425152143782
 20
-47.45682490982696
 30
0.0
 11
52.70424970945643
 21
-43.29990040337131
 31
0.0
  0
LINE
  5
4D3
  8
0
  6
CONTINUOUS
 62
     3
 10
47.17701290959801
 20
-52.72643748021684
 30
0.0
 11
44.17701255197014
 21
-47.53028515077196
 31
0.0
  0
LINE
  5
4D4
  8
0
  6
CONTINUOUS
 62
     3
 10
54.90890354271593
 20
-46.34495097552301
 30
0.0
 11
64.92369431787071
 21
-63.69107504611176
 31
0.0
  0
LINE
  5
4D5
  8
0
  6
CONTINUOUS
 62
     3
 10
50.41787318276735
 20
-52.56630384564934
 30
0.0
 11
52.17699814833074
 21
-55.61319724496363
 31
0.0
  0
LINE
  5
4D6
  8
0
  6
CONTINUOUS
 62
     3
 10
48.51274743776199
 20
-53.49765746678005
 30
0.0
 11
52.17701586231092
 21
-55.61322359434459
 31
0.0
  0
LINE
  5
4D7
  8
0
  6
CONTINUOUS
 62
     3
 10
47.17703259158336
 20
-52.72644733261629
 30
0.0
 11
44.1770188824996
 21
-47.53028536496046
 31
0.0
  0
LINE
  5
4D8
  8
0
  6
CONTINUOUS
 62
     3
 10
38.01674227329229
 20
-51.08691053260011
 30
0.0
 11
38.66425287904602
 21
-52.20843164638021
 31
0.0
  0
LINE
  5
4D9
  8
0
  6
CONTINUOUS
 62
     3
 10
38.01676860624107
 20
-51.08694887225651
 30
0.0
 11
44.17702589304483
 21
-47.53032306238592
 31
0.0
  0
LINE
  5
4DA
  8
0
  6
CONTINUOUS
 62
     3
 10
42.53248826487263
 20
-55.407991590181
 30
0.0
 11
47.17701529228404
 21
-52.72647295690589
 31
0.0
  0
LINE
  5
4DB
  8
0
  6
CONTINUOUS
 62
     3
 10
44.17700543384055
 20
-41.75679745132717
 30
0.0
 11
44.17700543384055
 21
-46.06726803238186
 31
0.0
  0
LINE
  5
4DC
  8
0
  6
CONTINUOUS
 62
     3
 10
44.17701673993426
 20
-41.75680806090176
 30
0.0
 11
50.23919487485247
 21
-38.25680826951802
 31
0.0
  0
LINE
  5
4DD
  8
0
  6
CONTINUOUS
 62
     3
 10
52.17701563342891
 20
-55.61323320930003
 30
0.0
 11
58.23920698284675
 21
-52.11322578852221
 31
0.0
  0
LINE
  5
4DE
  8
0
  6
CONTINUOUS
 62
     3
 10
44.17699719465642
 20
-41.7567910331106
 30
0.0
 11
45.95742724698809
 21
-44.84058592010589
 31
0.0
  0
LINE
  5
4DF
  8
0
  6
CONTINUOUS
 62
     3
 10
47.23919246911348
 20
-33.06062353871536
 30
0.0
 11
53.51975085026058
 21
-43.93886826273157
 31
0.0
  0
ARC
  5
4E0
  8
0
  6
CONTINUOUS
 62
     3
 10
153.0230404375027
 20
44.17967639510837
 30
0.0
 40
83.5
 50
99.6518521036499
 51
200.347889867233
  0
ARC
  5
4E1
  8
0
  6
CONTINUOUS
 62
     3
 10
-107.3055270673802
 20
73.22967944686619
 30
0.0
 40
10.0
 50
0.0
 51
33.02468863706368
  0
ARC
  5
4E2
  8
0
  6
CONTINUOUS
 62
     3
 10
-107.3055270673802
 20
73.22967944686619
 30
0.0
 40
10.0
 50
146.975330032271
 51
213.0246390045066
  0
ARC
  5
4E3
  8
0
  6
CONTINUOUS
 62
     3
 10
-107.3055270673802
 20
73.22967944686619
 30
0.0
 40
10.0
 50
326.9753216082201
 51
0.0
  0
ARC
  5
4E4
  8
0
  6
CONTINUOUS
 62
     3
 10
-107.3055270673802
 20
44.17967639510837
 30
0.0
 40
35.0
 50
49.99479906395894
 51
73.39844908519679
  0
ARC
  5
4E5
  8
0
  6
CONTINUOUS
 62
     3
 10
-107.3055270673802
 20
44.17967639510837
 30
0.0
 40
35.0
 50
229.9948077153809
 51
253.3984304158621
  0
ARC
  5
4E6
  8
0
  6
CONTINUOUS
 62
     3
 10
-107.3055270673802
 20
44.17967639510837
 30
0.0
 40
35.0
 50
286.6015509148032
 51
310.005200936041
  0
ARC
  5
4E7
  8
0
  6
CONTINUOUS
 62
     3
 10
-107.3055270673802
 20
44.17967639510837
 30
0.0
 40
35.0
 50
106.6015695841379
 51
130.0051922846191
  0
ARC
  5
4E8
  8
0
  6
CONTINUOUS
 62
     3
 10
-93.70552096386453
 20
83.17967639510837
 30
0.0
 40
2.0
 50
270.0000179860893
 51
0.0
  0
ARC
  5
4E9
  8
0
  6
CONTINUOUS
 62
     3
 10
-120.9055179121067
 20
83.17967639510837
 30
0.0
 40
2.0
 50
179.9999776881997
 51
270.000028004002
  0
ARC
  5
4EA
  8
0
  6
CONTINUOUS
 62
     3
 10
-145.9055179121067
 20
70.17967258041111
 30
0.0
 40
5.0
 50
270.0000179860893
 51
0.0
  0
ARC
  5
4EB
  8
0
  6
CONTINUOUS
 62
     3
 10
-145.9055179121067
 20
18.17967639510837
 30
0.0
 40
5.0
 50
0.0
 51
89.99998201391067
  0
ARC
  5
4EC
  8
0
  6
CONTINUOUS
 62
     3
 10
-127.9055179121067
 20
5.179677587201269
 30
0.0
 40
4.0
 50
179.9999776881997
 51
0.0000100179126691
  0
ARC
  5
4ED
  8
0
  6
CONTINUOUS
 62
     3
 10
153.0230404375027
 20
44.17967639510837
 30
0.0
 40
85.0
 50
99.47993624224068
 51
200.5198057286422
  0
ARC
  5
4EE
  8
0
  6
CONTINUOUS
 62
     3
 10
-146.9055179121067
 20
60.67967639510837
 30
0.0
 40
1.0
 50
89.99998201391067
 51
179.9999640278213
  0
ARC
  5
4EF
  8
0
  6
CONTINUOUS
 62
     3
 10
-144.9055179121067
 20
60.67967639510837
 30
0.0
 40
1.0
 50
0.0
 51
89.99998201391067
  0
ARC
  5
4F0
  8
0
  6
CONTINUOUS
 62
     3
 10
-144.9055179121067
 20
27.67967830245701
 30
0.0
 40
1.0
 50
270.0000179860893
 51
0.0
  0
ARC
  5
4F1
  8
0
  6
CONTINUOUS
 62
     3
 10
-146.9055179121067
 20
27.67967830245701
 30
0.0
 40
1.0
 50
179.9999776881997
 51
270.000028004002
  0
ARC
  5
4F2
  8
0
  6
CONTINUOUS
 62
     3
 10
79.98679318408469
 20
2.012002330472143
 30
0.0
 40
1.200000047683716
 50
143.4679869123344
 51
276.532011114852
  0
ARC
  5
4F3
  8
0
  6
CONTINUOUS
 62
     3
 10
81.56480374316672
 20
2.923066478421362
 30
0.0
 40
3.299999952316284
 50
102.3603021473159
 51
119.9999896789259
  0
ARC
  5
4F4
  8
0
  6
CONTINUOUS
 62
     3
 10
80.7491985795925
 20
9.144784491707952
 30
0.0
 40
3.0
 50
272.1068854582281
 51
336.7620025567024
  0
ARC
  5
4F5
  8
0
  6
CONTINUOUS
 62
     3
 10
81.56480374316672
 20
2.923066478421362
 30
0.0
 40
3.299999952316284
 50
300.0000256511046
 51
317.6397131827145
  0
ARC
  5
4F6
  8
0
  6
CONTINUOUS
 62
     3
 10
86.54518094043235
 20
-0.8941599314907478
 30
0.0
 40
3.0
 50
83.238012773328
 51
147.8898377206224
  0
ARC
  5
4F7
  8
0
  6
CONTINUOUS
 62
     3
 10
87.80018582324485
 20
6.523065190961034
 30
0.0
 40
3.0
 50
168.1897063490339
 51
251.8102780177743
  0
ARC
  5
4F8
  8
0
  6
CONTINUOUS
 62
     3
 10
84.51214566211203
 20
8.088815253426702
 30
0.0
 40
1.0
 50
230.7154746350873
 51
300.0000119907263
  0
ARC
  5
4F9
  8
0
  6
CONTINUOUS
 62
     3
 10
84.51214566211203
 20
8.088815253426702
 30
0.0
 40
1.0
 50
138.1948896277878
 51
189.2845406949431
  0
CIRCLE
  5
4FA
  8
0
  6
CONTINUOUS
 62
     3
 10
17.72252526263694
 20
-33.9362713282803
 30
0.0
 40
8.0
  0
CIRCLE
  5
4FB
  8
0
  6
CONTINUOUS
 62
     3
 10
17.72252526263694
 20
-33.9362713282803
 30
0.0
 40
3.299999952316284
  0
CIRCLE
  5
4FC
  8
0
  6
CONTINUOUS
 62
     3
 10
17.72252526263694
 20
-33.9362713282803
 30
0.0
 40
0.75
  0
CIRCLE
  5
4FD
  8
0
  6
CONTINUOUS
 62
     3
 10
17.72252526263694
 20
-33.9362713282803
 30
0.0
 40
2.400000095367432
  0
CIRCLE
  5
4FE
  8
0
  6
CONTINUOUS
 62
     3
 10
-79.30552706738015
 20
108.1796763951084
 30
0.0
 40
1.5
  0
ARC
  5
4FF
  8
0
  6
CONTINUOUS
 62
     3
 10
-79.30552706738015
 20
122.4929240757724
 30
0.0
 40
3.0
 50
270.000004325711
 51
311.8103174808379
  0
ARC
  5
500
  8
0
  6
CONTINUOUS
 62
     3
 10
-79.30552706738015
 20
119.4929240757724
 30
0.0
 40
3.0
 50
48.18970300972962
 51
131.8102883388484
  0
ARC
  5
501
  8
0
  6
CONTINUOUS
 62
     3
 10
-79.30552706738015
 20
122.4929240757724
 30
0.0
 40
3.0
 50
228.1896980007733
 51
270.000004325711
  0
ARC
  5
502
  8
0
  6
CONTINUOUS
 62
     3
 10
-79.30552706738015
 20
126.6929210240146
 30
0.0
 40
3.299999952316284
 50
342.3602988080117
 51
359.9999863396217
  0
ARC
  5
503
  8
0
  6
CONTINUOUS
 62
     3
 10
-79.30552706738015
 20
126.6929210240146
 30
0.0
 40
3.299999952316284
 50
180.0000223118003
 51
197.6397098434103
  0
ARC
  5
504
  8
0
  6
CONTINUOUS
 62
     3
 10
-73.50955996532937
 20
124.2884028965732
 30
0.0
 40
3.0
 50
152.1068921368366
 51
216.7619955749325
  0
ARC
  5
505
  8
0
  6
CONTINUOUS
 62
     3
 10
-85.10152468700906
 20
124.2884028965732
 30
0.0
 40
3.0
 50
323.2380094340238
 51
27.88983438131812
  0
ARC
  5
506
  8
0
  6
CONTINUOUS
 62
     3
 10
-76.30552706738015
 20
121.5575755650302
 30
0.0
 40
1.0
 50
110.7154744835066
 51
180.0000186693347
  0
ARC
  5
507
  8
0
  6
CONTINUOUS
 62
     3
 10
-76.30552706738015
 20
121.5575755650302
 30
0.0
 40
1.0
 50
18.19487945829444
 51
69.2845373556389
  0
ARC
  5
508
  8
0
  6
CONTINUOUS
 62
     3
 10
-82.30552706738015
 20
121.5575755650302
 30
0.0
 40
1.0
 50
359.9999863396217
 51
69.2845373556389
  0
ARC
  5
509
  8
0
  6
CONTINUOUS
 62
     3
 10
-82.30552706738015
 20
121.5575755650302
 30
0.0
 40
1.0
 50
110.7154744835066
 51
161.8051187204727
  0
ARC
  5
50A
  8
0
  6
CONTINUOUS
 62
     3
 10
-76.30552706738015
 20
120.4958308750888
 30
0.0
 40
1.0
 50
270.000004325711
 51
341.8051410322731
  0
ARC
  5
50B
  8
0
  6
CONTINUOUS
 62
     3
 10
-82.30552706738015
 20
120.4958308750888
 30
0.0
 40
1.0
 50
270.000004325711
 51
359.9999863396217
  0
ARC
  5
50C
  8
0
  6
CONTINUOUS
 62
     3
 10
-76.30552706738015
 20
120.4958308750888
 30
0.0
 40
1.0
 50
180.0000223118003
 51
270.000004325711
  0
ARC
  5
50D
  8
0
  6
CONTINUOUS
 62
     3
 10
-82.30552706738015
 20
120.4958308750888
 30
0.0
 40
1.0
 50
198.1948676191489
 51
270.000004325711
  0
ARC
  5
50E
  8
0
  6
CONTINUOUS
 62
     3
 10
-79.30552706738015
 20
128.5150416905185
 30
0.0
 40
1.200000047683716
 50
23.46797674284104
 51
156.5320214359261
  0
ARC
  5
50F
  8
0
  6
CONTINUOUS
 62
     3
 10
48.2750889299343
 20
-48.62837185318264
 30
0.0
 40
3.0
 50
209.9999889956806
 51
251.8103021508074
  0
ARC
  5
510
  8
0
  6
CONTINUOUS
 62
     3
 10
45.67701306323508
 20
-50.12837185318264
 30
0.0
 40
3.0
 50
348.1896876796992
 51
71.81027300881792
  0
ARC
  5
511
  8
0
  6
CONTINUOUS
 62
     3
 10
48.2750889299343
 20
-48.62837185318264
 30
0.0
 40
3.0
 50
168.1896653678988
 51
209.9999716928365
  0
ARC
  5
512
  8
0
  6
CONTINUOUS
 62
     3
 10
51.9123951433132
 20
-46.52837337906155
 30
0.0
 40
3.299999952316284
 50
282.3602834779812
 51
299.9999710095912
  0
ARC
  5
513
  8
0
  6
CONTINUOUS
 62
     3
 10
51.9123951433132
 20
-46.52837337906155
 30
0.0
 40
3.299999952316284
 50
119.9999760185476
 51
137.6396772105358
  0
ARC
  5
514
  8
0
  6
CONTINUOUS
 62
     3
 10
52.72800030688742
 20
-52.7500912135342
 30
0.0
 40
3.0
 50
92.10684948604947
 51
156.7619665845238
  0
ARC
  5
515
  8
0
  6
CONTINUOUS
 62
     3
 10
46.93201794604758
 20
-42.7111507838467
 30
0.0
 40
3.0
 50
263.2379941039933
 51
327.8898190512876
  0
ARC
  5
516
  8
0
  6
CONTINUOUS
 62
     3
 10
48.96505322436789
 20
-51.69412197525295
 30
0.0
 40
1.0
 50
50.71543866290864
 51
119.9999760185476
  0
ARC
  5
517
  8
0
  6
CONTINUOUS
 62
     3
 10
48.96505322436789
 20
-51.69412197525295
 30
0.0
 40
1.0
 50
318.194864128264
 51
9.284522025608453
  0
ARC
  5
518
  8
0
  6
CONTINUOUS
 62
     3
 10
45.96505322436789
 20
-46.49797024185452
 30
0.0
 40
1.0
 50
299.9999710095912
 51
9.284522025608453
  0
ARC
  5
519
  8
0
  6
CONTINUOUS
 62
     3
 10
45.96505322436789
 20
-46.49797024185452
 30
0.0
 40
1.0
 50
50.71543866290864
 51
101.8050897300639
  0
ARC
  5
51A
  8
0
  6
CONTINUOUS
 62
     3
 10
48.04555478076438
 20
-52.22499813492092
 30
0.0
 40
1.0
 50
209.9999889956806
 51
281.8051257022426
  0
ARC
  5
51B
  8
0
  6
CONTINUOUS
 62
     3
 10
45.04555096606711
 20
-47.02884258682522
 30
0.0
 40
1.0
 50
209.9999889956806
 51
299.9999710095912
  0
ARC
  5
51C
  8
0
  6
CONTINUOUS
 62
     3
 10
48.04555478076438
 20
-52.22499813492092
 30
0.0
 40
1.0
 50
119.9999760185476
 51
209.9999716928365
  0
ARC
  5
51D
  8
0
  6
CONTINUOUS
 62
     3
 10
45.04555096606711
 20
-47.02884258682522
 30
0.0
 40
1.0
 50
138.1948349862745
 51
209.9999716928365
  0
ARC
  5
51E
  8
0
  6
CONTINUOUS
 62
     3
 10
53.49039425830344
 20
-45.6173130458096
 30
0.0
 40
1.200000047683716
 50
323.4679614128106
 51
96.53200610589568
  0
POLYLINE
  5
51F
  8
0
  6
CONTINUOUS
 62
     3
 66
     1
 10
0.0
 20
0.0
 30
0.0
  0
VERTEX
  5
71E
  8
0
  6
CONTINUOUS
 62
     3
 10
83.59727444629172
 20
20.35401473586765
 30
0.0
 40
0.18
 41
0.18
  0
VERTEX
  5
71F
  8
0
  6
CONTINUOUS
 62
     3
 10
84.07719019786991
 20
20.31450557264528
 30
0.0
 40
0.18
 41
0.18
  0
VERTEX
  5
720
  8
0
  6
CONTINUOUS
 62
     3
 10
84.55563176438994
 20
20.25649491067679
 30
0.0
 40
0.18
 41
0.18
  0
VERTEX
  5
721
  8
0
  6
CONTINUOUS
 62
     3
 10
85.03187266993288
 20
20.17990981385367
 30
0.0
 40
0.18
 41
0.18
  0
VERTEX
  5
722
  8
0
  6
CONTINUOUS
 62
     3
 10
85.5051864385797
 20
20.08467734606742
 30
0.0
 40
0.18
 41
0.18
  0
VERTEX
  5
723
  8
0
  6
CONTINUOUS
 62
     3
 10
85.97484659441136
 20
19.97072457120953
 30
0.0
 40
0.18
 41
0.18
  0
VERTEX
  5
724
  8
0
  6
CONTINUOUS
 62
     3
 10
86.4401266615089
 20
19.83797855317149
 30
0.0
 40
0.18
 41
0.18
  0
VERTEX
  5
725
  8
0
  6
CONTINUOUS
 62
     3
 10
86.90030016395329
 20
19.6863663558448
 30
0.0
 40
0.18
 41
0.18
  0
VERTEX
  5
726
  8
0
  6
CONTINUOUS
 62
     3
 10
87.35461318035652
 20
19.51584427377555
 30
0.0
 40
0.18
 41
0.18
  0
VERTEX
  5
727
  8
0
  6
CONTINUOUS
 62
     3
 10
87.80208900554447
 20
19.32660587622706
 30
0.0
 40
0.18
 41
0.18
  0
VERTEX
  5
728
  8
0
  6
CONTINUOUS
 62
     3
 10
88.24164270604874
 20
19.11896000044687
 30
0.0
 40
0.18
 41
0.18
  0
VERTEX
  5
729
  8
0
  6
CONTINUOUS
 62
     3
 10
88.67218863035808
 20
18.89321624843016
 30
0.0
 40
0.18
 41
0.18
  0
VERTEX
  5
72A
  8
0
  6
CONTINUOUS
 62
     3
 10
89.09264112696142
 20
18.64968422217213
 30
0.0
 40
0.18
 41
0.18
  0
VERTEX
  5
72B
  8
0
  6
CONTINUOUS
 62
     3
 10
89.5019145443476
 20
18.38867352366796
 30
0.0
 40
0.18
 41
0.18
  0
VERTEX
  5
72C
  8
0
  6
CONTINUOUS
 62
     3
 10
89.89892323100541
 20
18.11049375491285
 30
0.0
 40
0.18
 41
0.18
  0
VERTEX
  5
72D
  8
0
  6
CONTINUOUS
 62
     3
 10
90.28258153542374
 20
17.81545451790198
 30
0.0
 40
0.18
 41
0.18
  0
VERTEX
  5
72E
  8
0
  6
CONTINUOUS
 62
     3
 10
90.65180380609145
 20
17.50386541463056
 30
0.0
 40
0.18
 41
0.18
  0
VERTEX
  5
72F
  8
0
  6
CONTINUOUS
 62
     3
 10
91.0055043930766
 20
17.17603604797543
 30
0.0
 40
0.18
 41
0.18
  0
VERTEX
  5
730
  8
0
  6
CONTINUOUS
 62
     3
 10
91.34299307005301
 20
16.83249678086944
 30
0.0
 40
0.18
 41
0.18
  0
VERTEX
  5
731
  8
0
  6
CONTINUOUS
 62
     3
 10
91.66508665015142
 20
16.47461933753515
 30
0.0
 40
0.18
 41
0.18
  0
VERTEX
  5
732
  8
0
  6
CONTINUOUS
 62
     3
 10
91.97296091556859
 20
16.10397585013724
 30
0.0
 40
0.18
 41
0.18
  0
VERTEX
  5
733
  8
0
  6
CONTINUOUS
 62
     3
 10
92.26779164850122
 20
15.72213845084042
 30
0.0
 40
0.18
 41
0.18
  0
VERTEX
  5
734
  8
0
  6
CONTINUOUS
 62
     3
 10
92.55075463114608
 20
15.33067927180941
 30
0.0
 40
0.18
 41
0.18
  0
VERTEX
  5
735
  8
0
  6
CONTINUOUS
 62
     3
 10
92.82302564569989
 20
14.93117044520889
 30
0.0
 40
0.18
 41
0.18
  0
VERTEX
  5
736
  8
0
  6
CONTINUOUS
 62
     3
 10
93.08578047435938
 20
14.52518410320358
 30
0.0
 40
0.18
 41
0.18
  0
VERTEX
  5
737
  8
0
  6
CONTINUOUS
 62
     3
 10
93.34033287637797
 20
14.1142916126833
 30
0.0
 40
0.18
 41
0.18
  0
VERTEX
  5
738
  8
0
  6
CONTINUOUS
 62
     3
 10
93.58877362800058
 20
13.70006003089689
 30
0.0
 40
0.18
 41
0.18
  0
VERTEX
  5
739
  8
0
  6
CONTINUOUS
 62
     3
 10
93.83346527197826
 20
13.28405490776954
 30
0.0
 40
0.18
 41
0.18
  0
VERTEX
  5
73A
  8
0
  6
CONTINUOUS
 62
     3
 10
94.07677063797763
 20
12.86784179163511
 30
0.0
 40
0.18
 41
0.18
  0
VERTEX
  5
73B
  8
0
  6
CONTINUOUS
 62
     3
 10
94.32105255566556
 20
12.45298623082746
 30
0.0
 40
0.18
 41
0.18
  0
VERTEX
  5
73C
  8
0
  6
CONTINUOUS
 62
     3
 10
94.56867385470869
 20
12.04105377368042
 30
0.0
 40
0.18
 41
0.18
  0
VERTEX
  5
73D
  8
0
  6
CONTINUOUS
 62
     3
 10
94.8219973647738
 20
11.63360996852785
 30
0.0
 40
0.18
 41
0.18
  0
VERTEX
  5
73E
  8
0
  6
CONTINUOUS
 62
     3
 10
95.08338591552757
 20
11.23222036370361
 30
0.0
 40
0.18
 41
0.18
  0
VERTEX
  5
73F
  8
0
  6
CONTINUOUS
 62
     3
 10
95.35466481059007
 20
10.83803747935051
 30
0.0
 40
0.18
 41
0.18
  0
VERTEX
  5
740
  8
0
  6
CONTINUOUS
 62
     3
 10
95.63466909353781
 20
10.44991615775186
 30
0.0
 40
0.18
 41
0.18
  0
VERTEX
  5
741
  8
0
  6
CONTINUOUS
 62
     3
 10
95.92120004317957
 20
10.06591690946589
 30
0.0
 40
0.18
 41
0.18
  0
VERTEX
  5
742
  8
0
  6
CONTINUOUS
 62
     3
 10
96.21205794818545
 20
9.684099484240829
 30
0.0
 40
0.18
 41
0.18
  0
VERTEX
  5
743
  8
0
  6
CONTINUOUS
 62
     3
 10
96.50504309722552
 20
9.302523631824894
 30
0.0
 40
0.18
 41
0.18
  0
VERTEX
  5
744
  8
0
  6
CONTINUOUS
 62
     3
 10
96.79795577896996
 20
8.919249101966308
 30
0.0
 40
0.18
 41
0.18
  0
VERTEX
  5
745
  8
0
  6
CONTINUOUS
 62
     3
 10
97.08859628208879
 20
8.532335644413292
 30
0.0
 40
0.18
 41
0.18
  0
VERTEX
  5
746
  8
0
  6
CONTINUOUS
 62
     3
 10
97.37476489525208
 20
8.139843008914067
 30
0.0
 40
0.18
 41
0.18
  0
VERTEX
  5
747
  8
0
  6
CONTINUOUS
 62
     3
 10
97.65455397186575
 20
7.740133842024423
 30
0.0
 40
0.18
 41
0.18
  0
VERTEX
  5
748
  8
0
  6
CONTINUOUS
 62
     3
 10
97.92919221304496
 20
7.334823458603192
 30
0.0
 40
0.18
 41
0.18
  0
VERTEX
  5
749
  8
0
  6
CONTINUOUS
 62
     3
 10
98.20181525214055
 20
6.927504829883419
 30
0.0
 40
0.18
 41
0.18
  0
VERTEX
  5
74A
  8
0
  6
CONTINUOUS
 62
     3
 10
98.47558565729426
 20
6.521798860844366
 30
0.0
 40
0.18
 41
0.18
  0
VERTEX
  5
74B
  8
0
  6
CONTINUOUS
 62
     3
 10
98.75366599664797
 20
6.121326456465295
 30
0.0
 40
0.18
 41
0.18
  0
VERTEX
  5
74C
  8
0
  6
CONTINUOUS
 62
     3
 10
99.03921883834349
 20
5.729708521725473
 30
0.0
 40
0.18
 41
0.18
  0
VERTEX
  5
74D
  8
0
  6
CONTINUOUS
 62
     3
 10
99.33540675052261
 20
5.350565961604161
 30
0.0
 40
0.18
 41
0.18
  0
VERTEX
  5
74E
  8
0
  6
CONTINUOUS
 62
     3
 10
99.64539230132719
 20
4.987519681080623
 30
0.0
 40
0.18
 41
0.18
  0
VERTEX
  5
74F
  8
0
  6
CONTINUOUS
 62
     3
 10
99.972338058899
 20
4.644190585134122
 30
0.0
 40
0.18
 41
0.18
  0
VERTEX
  5
750
  8
0
  6
CONTINUOUS
 62
     3
 10
100.3194065913799
 20
4.324199578743921
 30
0.0
 40
0.18
 41
0.18
  0
VERTEX
  5
751
  8
0
  6
CONTINUOUS
 62
     3
 10
100.6892124487067
 20
4.030534008117567
 30
0.0
 40
0.18
 41
0.18
  0
VERTEX
  5
752
  8
0
  6
CONTINUOUS
 62
     3
 10
101.0799968515996
 20
3.761125254054975
 30
0.0
 40
0.18
 41
0.18
  0
VERTEX
  5
753
  8
0
  6
CONTINUOUS
 62
     3
 10
101.487906889614
 20
3.5114836917097
 30
0.0
 40
0.18
 41
0.18
  0
VERTEX
  5
754
  8
0
  6
CONTINUOUS
 62
     3
 10
101.9090765377667
 20
3.277104534638536
 30
0.0
 40
0.18
 41
0.18
  0
VERTEX
  5
755
  8
0
  6
CONTINUOUS
 62
     3
 10
102.3396397710744
 20
3.053482996398271
 30
0.0
 40
0.18
 41
0.18
  0
VERTEX
  5
756
  8
0
  6
CONTINUOUS
 62
     3
 10
102.7757305645539
 20
2.836114290545695
 30
0.0
 40
0.18
 41
0.18
  0
VERTEX
  5
757
  8
0
  6
CONTINUOUS
 62
     3
 10
103.213482893222
 20
2.620493630637602
 30
0.0
 40
0.18
 41
0.18
  0
VERTEX
  5
758
  8
0
  6
CONTINUOUS
 62
     3
 10
103.6490307320953
 20
2.402116230230781
 30
0.0
 40
0.18
 41
0.18
  0
VERTEX
  5
759
  8
0
  6
CONTINUOUS
 62
     3
 10
104.0785556790217
 20
2.176532810976257
 30
0.0
 40
0.18
 41
0.18
  0
VERTEX
  5
75A
  8
0
  6
CONTINUOUS
 62
     3
 10
104.5006297720348
 20
1.942080337525583
 30
0.0
 40
0.18
 41
0.18
  0
VERTEX
  5
75B
  8
0
  6
CONTINUOUS
 62
     3
 10
104.9172841131568
 20
1.70112758125822
 30
0.0
 40
0.18
 41
0.18
  0
VERTEX
  5
75C
  8
0
  6
CONTINUOUS
 62
     3
 10
105.3308203426048
 20
1.456358646752941
 30
0.0
 40
0.18
 41
0.18
  0
VERTEX
  5
75D
  8
0
  6
CONTINUOUS
 62
     3
 10
105.7435401005957
 20
1.210457638588522
 30
0.0
 40
0.18
 41
0.18
  0
VERTEX
  5
75E
  8
0
  6
CONTINUOUS
 62
     3
 10
106.1577450273464
 20
0.9661086613437375
 30
0.0
 40
0.18
 41
0.18
  0
SEQEND
  5
761
  8
0
  6
CONTINUOUS
 62
     3
  0
LINE
  5
520
  8
0
  6
CONTINUOUS
 62
     3
 10
150.6731271097253
 20
-4.13504630629788
 30
0.0
 11
148.3231286356042
 21
-8.205362988129963
 31
0.0
  0
LINE
  5
521
  8
0
  6
CONTINUOUS
 62
     3
 10
150.6730716641101
 20
-12.27563622170075
 30
0.0
 11
150.6762445682903
 21
-12.27746480711014
 31
0.0
  0
LINE
  5
522
  8
0
  6
CONTINUOUS
 62
     3
 10
150.673034333987
 20
-12.27564014847073
 30
0.0
 11
155.3730465410183
 21
-12.27564014847073
 31
0.0
  0
LINE
  5
523
  8
0
  6
CONTINUOUS
 62
     3
 10
155.3730456948976
 20
-12.27564650454039
 30
0.0
 11
157.7230510652791
 21
-8.205324896311566
 31
0.0
  0
LINE
  5
524
  8
0
  6
CONTINUOUS
 62
     3
 10
157.7230389562266
 20
-8.205328296372699
 30
0.0
 11
155.3730352339228
 21
-4.134996999329104
 31
0.0
  0
LINE
  5
525
  8
0
  6
CONTINUOUS
 62
     3
 10
155.3730465410183
 20
-4.135000843355982
 30
0.0
 11
150.673034333987
 21
-4.135000843355982
 31
0.0
  0
LINE
  5
526
  8
0
  6
CONTINUOUS
 62
     3
 10
148.3230257195594
 20
-8.20533666201979
 30
0.0
 11
150.6730227929722
 21
-12.27565418427682
 31
0.0
  0
LINE
  5
527
  8
0
  6
CONTINUOUS
 62
     3
 10
171.4237823049761
 20
17.39021826858473
 30
0.0
 11
219.6352191832984
 21
-10.44466471588154
 31
0.0
  0
LINE
  5
528
  8
0
  6
CONTINUOUS
 62
     3
 10
185.4239174302045
 20
41.63886112156663
 30
0.0
 11
233.6352221635304
 21
13.80405443104112
 31
0.0
  0
LINE
  5
529
  8
0
  6
CONTINUOUS
 62
     3
 10
86.41088314255077
 20
-10.44469722503251
 30
0.0
 11
134.6227098486122
 21
17.39041082655902
 31
0.0
  0
LINE
  5
52A
  8
0
  6
CONTINUOUS
 62
     3
 10
92.26729443371025
 20
-16.30108361055019
 30
0.0
 11
92.91923838027671
 21
-15.9246836390889
 31
0.0
  0
LINE
  5
52B
  8
0
  6
CONTINUOUS
 62
     3
 10
235.1268720340729
 20
22.18045433861838
 30
0.0
 11
235.7788358023888
 21
21.80404292306596
 31
0.0
  0
LINE
  5
52C
  8
0
  6
CONTINUOUS
 62
     3
 10
213.1268563161784
 20
-15.92466434443756
 30
0.0
 11
213.778793655495
 21
-16.30106050120182
 31
0.0
  0
LINE
  5
52D
  8
0
  6
CONTINUOUS
 62
     3
 10
219.6352288499463
 20
-10.44469551494964
 30
0.0
 11
233.6352305188763
 21
13.80401535579315
 31
0.0
  0
LINE
  5
52E
  8
0
  6
CONTINUOUS
 62
     3
 10
86.4108656164801
 20
-10.44464986805676
 30
0.0
 11
92.26729536517198
 21
-16.30107912308856
 31
0.0
  0
LINE
  5
52F
  8
0
  6
CONTINUOUS
 62
     3
 10
111.3820282006184
 20
36.30403589754181
 30
0.0
 11
115.6320325219556
 21
28.94281349024553
 31
0.0
  0
LINE
  5
530
  8
0
  6
CONTINUOUS
 62
     3
 10
121.1320331776066
 20
19.41653421959657
 30
0.0
 11
125.3820298695484
 21
12.05532502679901
 31
0.0
  0
LINE
  5
531
  8
0
  6
CONTINUOUS
 62
     3
 10
233.6352051131275
 20
13.80403780869668
 30
0.0
 11
235.778799368777
 21
21.80403949336281
 31
0.0
  0
LINE
  5
532
  8
0
  6
CONTINUOUS
 62
     3
 10
213.7788427577836
 20
-16.30112419411168
 30
0.0
 11
219.6352509272876
 21
-10.44471651826595
 31
0.0
  0
LINE
  5
533
  8
0
  6
CONTINUOUS
 62
     3
 10
180.6640940085051
 20
12.05532038175809
 30
0.0
 11
184.9140907004468
 21
19.41652957455565
 31
0.0
  0
LINE
  5
534
  8
0
  6
CONTINUOUS
 62
     3
 10
184.91407759163
 20
19.41655685695017
 30
0.0
 11
189.7083112724128
 21
16.64860505660093
 31
0.0
  0
LINE
  5
535
  8
0
  6
CONTINUOUS
 62
     3
 10
190.4140942930012
 20
28.94283576110595
 30
0.0
 11
195.2083015447847
 21
26.17489921954487
 31
0.0
  0
LINE
  5
536
  8
0
  6
CONTINUOUS
 62
     3
 10
190.4140913560979
 20
28.94280884520461
 30
0.0
 11
194.6640956774351
 21
36.30403125250089
 31
0.0
  0
LINE
  5
537
  8
0
  6
CONTINUOUS
 62
     3
 10
185.7801199033854
 20
18.91653612220037
 30
0.0
 11
191.2801205590365
 21
28.44281539284933
 31
0.0
  0
LINE
  5
538
  8
0
  6
CONTINUOUS
 62
     3
 10
114.766015648313
 20
28.44281394171392
 30
0.0
 11
120.2660163039641
 21
18.91653467106497
 31
0.0
  0
LINE
  5
539
  8
0
  6
CONTINUOUS
 62
     3
 10
92.40643664173703
 20
15.53351043386536
 30
0.0
 11
104.8377921670109
 21
22.71075609981816
 31
0.0
  0
LINE
  5
53A
  8
0
  6
CONTINUOUS
 62
     3
 10
98.56690361274022
 20
6.388551438205951
 30
0.0
 11
110.3377984464351
 21
13.18447998821514
 31
0.0
  0
LINE
  5
53B
  8
0
  6
CONTINUOUS
 62
     3
 10
116.3378023605875
 20
16.64858348046894
 30
0.0
 11
121.1320360413702
 21
19.41653528081818
 31
0.0
  0
LINE
  5
53C
  8
0
  6
CONTINUOUS
 62
     3
 10
110.8377828666636
 20
26.17485196267788
 30
0.0
 11
115.6320165474463
 21
28.94280376302711
 31
0.0
  0
LINE
  5
53D
  8
0
  6
CONTINUOUS
 62
     3
 10
201.2083451024359
 20
22.71077283910884
 30
0.0
 11
216.8589377409212
 21
13.67489996460293
 31
0.0
  0
LINE
  5
53E
  8
0
  6
CONTINUOUS
 62
     3
 10
222.8589812985724
 20
10.2107735841669
 30
0.0
 11
229.3852394460468
 21
6.442837102210461
 31
0.0
  0
LINE
  5
53F
  8
0
  6
CONTINUOUS
 62
     3
 10
217.358938168202
 20
0.6845099387992661
 30
0.0
 11
223.8852227446757
 21
-3.083441801945327
 31
0.0
  0
LINE
  5
540
  8
0
  6
CONTINUOUS
 62
     3
 10
195.7083019720655
 20
13.18450919374121
 30
0.0
 11
211.3589474685493
 21
4.148605801658988
 31
0.0
  0
LINE
  5
541
  8
0
  6
CONTINUOUS
 62
     3
 10
110.5877957487371
 20
23.17967294556664
 30
0.0
 11
107.5567060554292
 21
21.42967430157231
 31
0.0
  0
LINE
  5
542
  8
0
  6
CONTINUOUS
 62
     3
 10
113.6188767936244
 20
21.42967263290669
 30
0.0
 11
110.5877887692465
 21
23.17967409322048
 31
0.0
  0
LINE
  5
543
  8
0
  6
CONTINUOUS
 62
     3
 10
107.5567013261745
 20
21.42967353408542
 30
0.0
 11
107.5567013261745
 21
17.92967353408542
 31
0.0
  0
LINE
  5
544
  8
0
  6
CONTINUOUS
 62
     3
 10
107.5567097096507
 20
17.92966194068597
 30
0.0
 11
110.5877983598773
 21
16.17966152345346
 31
0.0
  0
LINE
  5
545
  8
0
  6
CONTINUOUS
 62
     3
 10
110.5877903689426
 20
16.1796782644881
 30
0.0
 11
113.6188794364017
 21
17.92967795156372
 31
0.0
  0
LINE
  5
546
  8
0
  6
CONTINUOUS
 62
     3
 10
113.6188808916042
 20
17.92967162673679
 30
0.0
 11
113.6188808916042
 21
21.42967162673679
 31
0.0
  0
LINE
  5
547
  8
0
  6
CONTINUOUS
 62
     3
 10
195.4582882800944
 20
23.17967555752651
 30
0.0
 11
192.4271985867865
 21
21.42967691353218
 31
0.0
  0
LINE
  5
548
  8
0
  6
CONTINUOUS
 62
     3
 10
198.4893867487333
 20
21.42966816011088
 30
0.0
 11
195.4582987243554
 21
23.17966962042468
 31
0.0
  0
LINE
  5
549
  8
0
  6
CONTINUOUS
 62
     3
 10
192.4272152421902
 20
21.42968497817722
 30
0.0
 11
192.4272152421902
 21
17.9296840245029
 31
0.0
  0
LINE
  5
54A
  8
0
  6
CONTINUOUS
 62
     3
 10
192.4272116462846
 20
17.92968747169155
 30
0.0
 11
195.4583002965112
 21
16.17968705445904
 31
0.0
  0
LINE
  5
54B
  8
0
  6
CONTINUOUS
 62
     3
 10
195.4582919408915
 20
16.17969385104428
 30
0.0
 11
198.4893810083506
 21
17.92969353811989
 31
0.0
  0
LINE
  5
54C
  8
0
  6
CONTINUOUS
 62
     3
 10
198.4893795488308
 20
17.92968307082859
 30
0.0
 11
198.4893795488308
 21
21.42968116347996
 31
0.0
  0
LINE
  5
54D
  8
0
  6
CONTINUOUS
 62
     3
 10
217.1089270078478
 20
10.67968041081488
 30
0.0
 11
214.0778373145399
 21
8.92968176682055
 31
0.0
  0
LINE
  5
54E
  8
0
  6
CONTINUOUS
 62
     3
 10
220.1400363381851
 20
8.92966331439223
 30
0.0
 11
217.1089483138073
 21
10.67966477470603
 31
0.0
  0
LINE
  5
54F
  8
0
  6
CONTINUOUS
 62
     3
 10
214.0778500078152
 20
8.929685156991155
 30
0.0
 11
214.0778500078152
 21
5.4296852165958
 31
0.0
  0
LINE
  5
550
  8
0
  6
CONTINUOUS
 62
     3
 10
214.0778448621888
 20
5.429684491459312
 30
0.0
 11
217.1089335124154
 21
3.679684074226799
 31
0.0
  0
LINE
  5
551
  8
0
  6
CONTINUOUS
 62
     3
 10
217.1089084568584
 20
3.679691042274982
 30
0.0
 11
220.1399975243175
 21
5.429690729350597
 31
0.0
  0
LINE
  5
552
  8
0
  6
CONTINUOUS
 62
     3
 10
220.1400143144558
 20
5.429683309247167
 30
0.0
 11
220.1400143144558
 21
8.929683249642522
 31
0.0
  0
LINE
  5
553
  8
0
  6
CONTINUOUS
 62
     3
 10
139.023376130862
 20
129.1796763951084
 30
0.0
 11
167.023376130862
 21
129.1796763951084
 31
0.0
  0
LINE
  5
554
  8
0
  6
CONTINUOUS
 62
     3
 10
139.023376130862
 20
129.1796763951084
 30
0.0
 11
139.023376130862
 21
73.50970111434665
 31
0.0
  0
LINE
  5
555
  8
0
  6
CONTINUOUS
 62
     3
 10
167.023376130862
 20
129.1796687657138
 30
0.0
 11
167.023376130862
 21
73.50970111434665
 31
0.0
  0
LINE
  5
556
  8
0
  6
CONTINUOUS
 62
     3
 10
147.523376130862
 20
129.1796763951084
 30
0.0
 11
147.523376130862
 21
121.6437800938388
 31
0.0
  0
LINE
  5
557
  8
0
  6
CONTINUOUS
 62
     3
 10
158.523376130862
 20
129.1796763951084
 30
0.0
 11
158.523376130862
 21
121.6437800938388
 31
0.0
  0
LINE
  5
558
  8
0
  6
CONTINUOUS
 62
     3
 10
131.023376130862
 20
127.0360835606357
 30
0.0
 11
131.023376130862
 21
126.2833598667881
 31
0.0
  0
LINE
  5
559
  8
0
  6
CONTINUOUS
 62
     3
 10
175.023376130862
 20
127.0360759312412
 30
0.0
 11
175.023376130862
 21
126.2831767613193
 31
0.0
  0
LINE
  5
55A
  8
0
  6
CONTINUOUS
 62
     3
 10
167.0233467813279
 20
129.1796565757216
 30
0.0
 11
175.0233705742814
 21
127.0360568898332
 31
0.0
  0
LINE
  5
55B
  8
0
  6
CONTINUOUS
 62
     3
 10
131.0233669157389
 20
127.0360747483428
 30
0.0
 11
139.0233686004051
 21
129.1796685103341
 31
0.0
  0
LINE
  5
55C
  8
0
  6
CONTINUOUS
 62
     3
 10
139.023376130862
 20
84.17967639510837
 30
0.0
 11
147.523376130862
 21
84.17967639510837
 31
0.0
  0
LINE
  5
55D
  8
0
  6
CONTINUOUS
 62
     3
 10
158.523376130862
 20
84.17967639510837
 30
0.0
 11
167.023376130862
 21
84.17967639510837
 31
0.0
  0
LINE
  5
55E
  8
0
  6
CONTINUOUS
 62
     3
 10
147.523376130862
 20
85.17967639510837
 30
0.0
 11
158.523376130862
 21
85.17967639510837
 31
0.0
  0
LINE
  5
55F
  8
0
  6
CONTINUOUS
 62
     3
 10
147.523376130862
 20
126.1796763951084
 30
0.0
 11
158.523376130862
 21
126.1796763951084
 31
0.0
  0
LINE
  5
560
  8
0
  6
CONTINUOUS
 62
     3
 10
147.523376130862
 20
89.7155726963779
 30
0.0
 11
147.523376130862
 21
84.17967639510837
 31
0.0
  0
LINE
  5
561
  8
0
  6
CONTINUOUS
 62
     3
 10
158.523376130862
 20
89.7155726963779
 30
0.0
 11
158.523376130862
 21
84.17967639510837
 31
0.0
  0
LINE
  5
562
  8
0
  6
CONTINUOUS
 62
     3
 10
158.523376130862
 20
114.7155726963779
 30
0.0
 11
158.523376130862
 21
96.64378009383884
 31
0.0
  0
LINE
  5
563
  8
0
  6
CONTINUOUS
 62
     3
 10
147.523376130862
 20
114.7155726963779
 30
0.0
 11
147.523376130862
 21
96.64378009383884
 31
0.0
  0
LINE
  5
564
  8
0
  6
CONTINUOUS
 62
     3
 10
153.0233672195714
 20
121.6796678173207
 30
0.0
 11
149.9922775262636
 21
119.9296691733264
 31
0.0
  0
LINE
  5
565
  8
0
  6
CONTINUOUS
 62
     3
 10
156.0544574875823
 20
119.9296618473614
 30
0.0
 11
153.0233694632045
 21
121.6796633076752
 31
0.0
  0
LINE
  5
566
  8
0
  6
CONTINUOUS
 62
     3
 10
149.9922939775417
 20
119.9296763951084
 30
0.0
 11
149.9922939775417
 21
116.4296763951084
 31
0.0
  0
LINE
  5
567
  8
0
  6
CONTINUOUS
 62
     3
 10
149.9922857811555
 20
116.4296715514397
 30
0.0
 11
153.0233744313821
 21
114.6796711342072
 31
0.0
  0
LINE
  5
568
  8
0
  6
CONTINUOUS
 62
     3
 10
153.0233728651737
 20
114.6796695294265
 30
0.0
 11
156.0544619326328
 21
116.4296692165022
 31
0.0
  0
LINE
  5
569
  8
0
  6
CONTINUOUS
 62
     3
 10
156.0544582841823
 20
116.4296763951084
 30
0.0
 11
156.0544582841823
 21
119.9296763951084
 31
0.0
  0
LINE
  5
56A
  8
0
  6
CONTINUOUS
 62
     3
 10
153.0233712114976
 20
96.67967208415307
 30
0.0
 11
149.9922815181897
 21
94.92967344015874
 31
0.0
  0
LINE
  5
56B
  8
0
  6
CONTINUOUS
 62
     3
 10
156.0544596808474
 20
94.9296718151027
 30
0.0
 11
153.0233716564696
 21
96.67967327541649
 31
0.0
  0
LINE
  5
56C
  8
0
  6
CONTINUOUS
 62
     3
 10
149.9922939775417
 20
94.92967639510837
 30
0.0
 11
149.9922939775417
 21
91.42967639510837
 31
0.0
  0
LINE
  5
56D
  8
0
  6
CONTINUOUS
 62
     3
 10
149.9922758180894
 20
91.42967578793971
 30
0.0
 11
153.023364468316
 21
89.6796753707072
 31
0.0
  0
LINE
  5
56E
  8
0
  6
CONTINUOUS
 62
     3
 10
153.0233714062931
 20
89.67966791320922
 30
0.0
 11
156.0544604737522
 21
91.42966760028483
 31
0.0
  0
LINE
  5
56F
  8
0
  6
CONTINUOUS
 62
     3
 10
156.0544582841823
 20
91.42967639510837
 30
0.0
 11
156.0544582841823
 21
94.92967639510837
 31
0.0
  0
LINE
  5
570
  8
0
  6
CONTINUOUS
 62
     3
 10
131.023376130862
 20
68.10142551009861
 30
0.0
 11
131.023376130862
 21
64.0493243748447
 31
0.0
  0
LINE
  5
571
  8
0
  6
CONTINUOUS
 62
     3
 10
159.2306341979119
 20
15.19233056598162
 30
0.0
 11
162.7400220795307
 21
13.16618475169074
 31
0.0
  0
LINE
  5
572
  8
0
  6
CONTINUOUS
 62
     3
 10
181.2304969269164
 20
53.29751995787277
 30
0.0
 11
184.7402812435241
 21
51.27114526175959
 31
0.0
  0
LINE
  5
573
  8
0
  6
CONTINUOUS
 62
     3
 10
171.7850536626885
 20
62.17967397826217
 30
0.0
 11
175.0233857278673
 21
64.04932566125584
 31
0.0
  0
LINE
  5
574
  8
0
  6
CONTINUOUS
 62
     3
 10
131.0233902733946
 20
64.04933482490517
 30
0.0
 11
134.2617223385734
 21
62.17968314191151
 31
0.0
  0
LINE
  5
575
  8
0
  6
CONTINUOUS
 62
     3
 10
124.8152025376387
 20
53.29727628913659
 30
0.0
 11
128.053983895805
 21
51.42736520674433
 31
0.0
  0
LINE
  5
576
  8
0
  6
CONTINUOUS
 62
     3
 10
159.230636262698
 20
18.93151031081882
 30
0.0
 11
159.230636262698
 21
15.1923211628696
 31
0.0
  0
LINE
  5
577
  8
0
  6
CONTINUOUS
 62
     3
 10
146.815353059573
 20
18.93169913833347
 30
0.0
 11
146.815353059573
 21
15.19224105422703
 31
0.0
  0
LINE
  5
578
  8
0
  6
CONTINUOUS
 62
     3
 10
89.4733904272642
 20
-1.748519295954537
 30
0.0
 11
87.88352807759392
 21
1.005204221017067
 31
0.0
  0
LINE
  5
579
  8
0
  6
CONTINUOUS
 62
     3
 10
89.47339596728781
 20
-1.74851097519192
 30
0.0
 11
89.47339596728781
 21
4.024995189358862
 31
0.0
  0
LINE
  5
57A
  8
0
  6
CONTINUOUS
 62
     3
 10
86.86369950921286
 20
3.672982596785261
 30
0.0
 11
88.13860809240029
 21
4.409051103005623
 31
0.0
  0
LINE
  5
57B
  8
0
  6
CONTINUOUS
 62
     3
 10
87.71672594542096
 20
1.913819513245954
 30
0.0
 11
89.17705379294839
 21
2.756939836927614
 31
0.0
  0
LINE
  5
57C
  8
0
  6
CONTINUOUS
 62
     3
 10
86.47340187287998
 20
9.221146422643898
 30
0.0
 11
91.3725590179233
 21
12.04967493758662
 31
0.0
  0
LINE
  5
57D
  8
0
  6
CONTINUOUS
 62
     3
 10
89.4733962789081
 20
4.024986259622011
 30
0.0
 11
86.47339717297777
 21
9.221139304322634
 31
0.0
  0
LINE
  5
57E
  8
0
  6
CONTINUOUS
 62
     3
 10
89.4734009788103
 20
4.024993377943275
 30
0.0
 11
94.7089530568737
 21
7.047739516889379
 31
0.0
  0
LINE
  5
57F
  8
0
  6
CONTINUOUS
 62
     3
 10
143.3063407216141
 20
13.16631143767111
 30
0.0
 11
146.8153585972431
 21
15.19224362892786
 31
0.0
  0
LINE
  5
580
  8
0
  6
CONTINUOUS
 62
     3
 10
121.3065865011594
 20
51.27157228666172
 30
0.0
 11
124.8151881200501
 21
53.29726415200506
 31
0.0
  0
LINE
  5
581
  8
0
  6
CONTINUOUS
 62
     3
 10
175.023376130862
 20
68.10142551009861
 30
0.0
 11
175.023376130862
 21
64.0493243748447
 31
0.0
  0
LINE
  5
582
  8
0
  6
CONTINUOUS
 62
     3
 10
127.0233685014675
 20
104.715603213956
 30
0.0
 11
123.0233685014675
 21
104.715603213956
 31
0.0
  0
LINE
  5
583
  8
0
  6
CONTINUOUS
 62
     3
 10
129.0233637981687
 20
108.1796698396452
 30
0.0
 11
127.0233637981687
 21
104.7155682866819
 31
0.0
  0
LINE
  5
584
  8
0
  6
CONTINUOUS
 62
     3
 10
127.0233907535405
 20
111.6437811635879
 30
0.0
 11
129.0233883693547
 21
108.1796781801131
 31
0.0
  0
LINE
  5
585
  8
0
  6
CONTINUOUS
 62
     3
 10
123.0233685014675
 20
111.6437800938388
 30
0.0
 11
127.0233685014675
 21
111.6437800938388
 31
0.0
  0
LINE
  5
586
  8
0
  6
CONTINUOUS
 62
     3
 10
121.0233602969697
 20
108.1796719854124
 30
0.0
 11
123.0233602969697
 21
111.6437735383757
 31
0.0
  0
LINE
  5
587
  8
0
  6
CONTINUOUS
 62
     3
 10
123.023352856904
 20
104.7155675384825
 30
0.0
 11
121.0233533337411
 21
108.1796693298643
 31
0.0
  0
LINE
  5
588
  8
0
  6
CONTINUOUS
 62
     3
 10
113.5977273820056
 20
-8.60494989637661
 30
0.0
 11
115.5977273820056
 21
-12.06905144933987
 31
0.0
  0
LINE
  5
589
  8
0
  6
CONTINUOUS
 62
     3
 10
109.5977627275417
 20
-8.604941982577174
 30
0.0
 11
113.5977627275417
 21
-8.604941982577174
 31
0.0
  0
LINE
  5
58A
  8
0
  6
CONTINUOUS
 62
     3
 10
107.5977367508233
 20
-12.0690220874271
 30
0.0
 11
109.597739135009
 21
-8.604921964975318
 31
0.0
  0
LINE
  5
58B
  8
0
  6
CONTINUOUS
 62
     3
 10
109.597750309804
 20
-15.53313988928127
 30
0.0
 11
107.597750309804
 21
-12.06903833631802
 31
0.0
  0
LINE
  5
58C
  8
0
  6
CONTINUOUS
 62
     3
 10
113.5977627275417
 20
-15.53314938003811
 30
0.0
 11
109.5977627275417
 21
-15.53314938003811
 31
0.0
  0
LINE
  5
58D
  8
0
  6
CONTINUOUS
 62
     3
 10
115.5977593287518
 20
-12.06904890297344
 30
0.0
 11
113.5977588519147
 21
-15.53315021751811
 31
0.0
  0
LINE
  5
58E
  8
0
  6
CONTINUOUS
 62
     3
 10
220.4490047929714
 20
39.89250217025486
 30
0.0
 11
224.4490047929714
 21
39.89250217025486
 31
0.0
  0
LINE
  5
58F
  8
0
  6
CONTINUOUS
 62
     3
 10
224.4490034307284
 20
39.89250243329028
 30
0.0
 11
226.4490034307284
 21
36.42840088032702
 31
0.0
  0
LINE
  5
590
  8
0
  6
CONTINUOUS
 62
     3
 10
226.4490033181985
 20
36.42838674145563
 30
0.0
 11
224.4490033181985
 21
32.96428518849237
 31
0.0
  0
LINE
  5
591
  8
0
  6
CONTINUOUS
 62
     3
 10
224.4489895341823
 20
32.96424518172947
 30
0.0
 11
220.4489895341823
 21
32.96424518172947
 31
0.0
  0
LINE
  5
592
  8
0
  6
CONTINUOUS
 62
     3
 10
220.4489999295294
 20
32.96429718159655
 30
0.0
 11
218.4489999295294
 21
36.42839873455981
 31
0.0
  0
LINE
  5
593
  8
0
  6
CONTINUOUS
 62
     3
 10
218.4490262459969
 20
36.42837362843377
 30
0.0
 11
220.4490262459969
 21
39.89247518139703
 31
0.0
  0
ARC
  5
594
  8
0
  6
CONTINUOUS
 62
     3
 10
153.0230404375027
 20
44.17967639510837
 30
0.0
 40
85.0
 50
0.0
 51
80.5196248044196
  0
CIRCLE
  5
595
  8
0
  6
CONTINUOUS
 62
     3
 10
153.0230404375027
 20
-8.205320019076197
 30
0.0
 40
8.0
  0
CIRCLE
  5
596
  8
0
  6
CONTINUOUS
 62
     3
 10
153.0230404375027
 20
-8.205320019076197
 30
0.0
 40
8.75
  0
CIRCLE
  5
597
  8
0
  6
CONTINUOUS
 62
     3
 10
198.3897854326198
 20
70.37217746322361
 30
0.0
 40
5.5
  0
CIRCLE
  5
598
  8
0
  6
CONTINUOUS
 62
     3
 10
107.6562954423855
 20
70.37217746322361
 30
0.0
 40
5.5
  0
ARC
  5
599
  8
0
  6
CONTINUOUS
 62
     3
 10
153.0230404375027
 20
44.17967639510837
 30
0.0
 40
43.0
 50
109.0003456810247
 51
190.9991640634264
  0
ARC
  5
59A
  8
0
  6
CONTINUOUS
 62
     3
 10
153.0230404375027
 20
44.17967639510837
 30
0.0
 40
85.0
 50
219.4801276391182
 51
320.5198536915472
  0
ARC
  5
59B
  8
0
  6
CONTINUOUS
 62
     3
 10
153.0230404375027
 20
44.17967639510837
 30
0.0
 40
83.5
 50
219.6520435005274
 51
320.3479378301379
  0
ARC
  5
59C
  8
0
  6
CONTINUOUS
 62
     3
 10
153.0230404375027
 20
44.17967639510837
 30
0.0
 40
43.0
 50
229.0007829647123
 51
310.9992017810476
  0
ARC
  5
59D
  8
0
  6
CONTINUOUS
 62
     3
 10
153.0230404375027
 20
44.17967639510837
 30
0.0
 40
43.0
 50
349.0008042332631
 51
70.99872359201534
  0
ARC
  5
59E
  8
0
  6
CONTINUOUS
 62
     3
 10
153.0230404375027
 20
44.17967639510837
 30
0.0
 40
83.5
 50
339.6520707454937
 51
80.34770211282121
  0
ARC
  5
59F
  8
0
  6
CONTINUOUS
 62
     3
 10
153.0230404375027
 20
44.17967639510837
 30
0.0
 40
85.0
 50
339.4801531765372
 51
0.0
  0
CIRCLE
  5
5A0
  8
0
  6
CONTINUOUS
 62
     3
 10
110.5877911088894
 20
19.67967162673679
 30
0.0
 40
6.5
  0
CIRCLE
  5
5A1
  8
0
  6
CONTINUOUS
 62
     3
 10
195.4582973955105
 20
19.67968307082859
 30
0.0
 40
6.5
  0
CIRCLE
  5
5A2
  8
0
  6
CONTINUOUS
 62
     3
 10
217.1089321611355
 20
7.179684262921484
 30
0.0
 40
6.5
  0
CIRCLE
  5
5A3
  8
0
  6
CONTINUOUS
 62
     3
 10
153.023376130862
 20
118.1796763951084
 30
0.0
 40
6.5
  0
CIRCLE
  5
5A4
  8
0
  6
CONTINUOUS
 62
     3
 10
153.023376130862
 20
93.17967639510837
 30
0.0
 40
6.5
  0
CIRCLE
  5
5A5
  8
0
  6
CONTINUOUS
 62
     3
 10
198.3897854326198
 20
70.37216601913181
 30
0.0
 40
8.5
  0
CIRCLE
  5
5A6
  8
0
  6
CONTINUOUS
 62
     3
 10
107.65630307178
 20
70.37218127792087
 30
0.0
 40
8.5
  0
ARC
  5
5A7
  8
0
  6
CONTINUOUS
 62
     3
 10
153.023376130862
 20
44.17967639510837
 30
0.0
 40
32.5
 50
0.0
 51
64.48361104841528
  0
ARC
  5
5A8
  8
0
  6
CONTINUOUS
 62
     3
 10
153.023376130862
 20
44.17967639510837
 30
0.0
 40
32.5
 50
235.5160730932308
 51
304.4832969355039
  0
ARC
  5
5A9
  8
0
  6
CONTINUOUS
 62
     3
 10
153.023376130862
 20
44.17967639510837
 30
0.0
 40
32.5
 50
115.5164076209194
 51
184.4832455575043
  0
ARC
  5
5AA
  8
0
  6
CONTINUOUS
 62
     3
 10
153.023376130862
 20
44.17967639510837
 30
0.0
 40
32.5
 50
355.5160811282901
 51
0.0
  0
ARC
  5
5AB
  8
0
  6
CONTINUOUS
 62
     3
 10
153.023376130862
 20
44.17967639510837
 30
0.0
 40
26.0
 50
163.8139866384002
 51
256.1859977284079
  0
ARC
  5
5AC
  8
0
  6
CONTINUOUS
 62
     3
 10
153.023376130862
 20
44.17967639510837
 30
0.0
 40
26.0
 50
43.81304073299052
 51
136.1869642759658
  0
ARC
  5
5AD
  8
0
  6
CONTINUOUS
 62
     3
 10
153.023376130862
 20
44.17967639510837
 30
0.0
 40
26.0
 50
283.8122314313642
 51
0.0
  0
CIRCLE
  5
5AE
  8
0
  6
CONTINUOUS
 62
     3
 10
185.0659939287136
 20
62.67966495101658
 30
0.0
 40
2.5
  0
CIRCLE
  5
5AF
  8
0
  6
CONTINUOUS
 62
     3
 10
153.023376130862
 20
7.179677587201269
 30
0.0
 40
2.5
  0
CIRCLE
  5
5B0
  8
0
  6
CONTINUOUS
 62
     3
 10
120.9801022050808
 20
62.6796840245029
 30
0.0
 40
2.5
  0
CIRCLE
  5
5B1
  8
0
  6
CONTINUOUS
 62
     3
 10
153.023376130862
 20
44.17967639510837
 30
0.0
 40
14.5
  0
CIRCLE
  5
5B2
  8
0
  6
CONTINUOUS
 62
     3
 10
153.023376130862
 20
44.17967639510837
 30
0.0
 40
24.0
  0
ARC
  5
5B3
  8
0
  6
CONTINUOUS
 62
     3
 10
153.023376130862
 20
44.17967639510837
 30
0.0
 40
27.0
 50
16.70888813454083
 51
43.29188705403479
  0
ARC
  5
5B4
  8
0
  6
CONTINUOUS
 62
     3
 10
153.023376130862
 20
44.17967639510837
 30
0.0
 40
27.0
 50
136.7081350303945
 51
163.2928022235932
  0
ARC
  5
5B5
  8
0
  6
CONTINUOUS
 62
     3
 10
153.023376130862
 20
44.17967639510837
 30
0.0
 40
27.0
 50
256.7072199366264
 51
283.2910948278814
  0
ARC
  5
5B6
  8
0
  6
CONTINUOUS
 62
     3
 10
87.5121380327175
 20
2.89266334121433
 30
0.0
 40
1.0
 50
230.7154746350873
 51
281.8051257022426
  0
ARC
  5
5B7
  8
0
  6
CONTINUOUS
 62
     3
 10
87.5121380327175
 20
2.89266334121433
 30
0.0
 40
1.0
 50
119.9999896789259
 51
189.2845406949431
  0
ARC
  5
5B8
  8
0
  6
CONTINUOUS
 62
     3
 10
88.43164792041281
 20
3.423539500882299
 30
0.0
 40
1.0
 50
318.1948709584531
 51
30.00000766501523
  0
ARC
  5
5B9
  8
0
  6
CONTINUOUS
 62
     3
 10
88.43164792041281
 20
3.423539500882299
 30
0.0
 40
1.0
 50
30.00000766501523
 51
119.9999896789259
  0
ARC
  5
5BA
  8
0
  6
CONTINUOUS
 62
     3
 10
85.2021023271511
 20
5.023065190961034
 30
0.0
 40
3.0
 50
348.1897013400775
 51
30.00000766501523
  0
ARC
  5
5BB
  8
0
  6
CONTINUOUS
 62
     3
 10
85.2021023271511
 20
5.023065190961034
 30
0.0
 40
3.0
 50
30.00000766501523
 51
71.81032082014211
  0
ARC
  5
5BC
  8
0
  6
CONTINUOUS
 62
     3
 10
85.43164792041281
 20
8.619691419613929
 30
0.0
 40
1.0
 50
300.0000256511046
 51
30.00000766501523
  0
ARC
  5
5BD
  8
0
  6
CONTINUOUS
 62
     3
 10
85.43164792041281
 20
8.619691419613929
 30
0.0
 40
1.0
 50
30.00000766501523
 51
101.8051443715773
  0
CIRCLE
  5
5BE
  8
0
  6
CONTINUOUS
 62
     3
 10
125.023360872073
 20
108.1796763951084
 30
0.0
 40
8.0
  0
CIRCLE
  5
5BF
  8
0
  6
CONTINUOUS
 62
     3
 10
125.023360872073
 20
108.1796763951084
 30
0.0
 40
2.400000095367432
  0
CIRCLE
  5
5C0
  8
0
  6
CONTINUOUS
 62
     3
 10
125.023360872073
 20
108.1796763951084
 30
0.0
 40
0.75
  0
CIRCLE
  5
5C1
  8
0
  6
CONTINUOUS
 62
     3
 10
125.023360872073
 20
108.1796763951084
 30
0.0
 40
3.299999952316284
  0
CIRCLE
  5
5C2
  8
0
  6
CONTINUOUS
 62
     3
 10
111.5977550981472
 20
-12.06904758865628
 30
0.0
 40
0.75
  0
CIRCLE
  5
5C3
  8
0
  6
CONTINUOUS
 62
     3
 10
111.5977550981472
 20
-12.06904758865628
 30
0.0
 40
3.299999952316284
  0
CIRCLE
  5
5C4
  8
0
  6
CONTINUOUS
 62
     3
 10
111.5977550981472
 20
-12.06904758865628
 30
0.0
 40
8.0
  0
CIRCLE
  5
5C5
  8
0
  6
CONTINUOUS
 62
     3
 10
111.5977550981472
 20
-12.06904758865628
 30
0.0
 40
2.400000095367432
  0
CIRCLE
  5
5C6
  8
0
  6
CONTINUOUS
 62
     3
 10
222.4490047929714
 20
36.42840037887302
 30
0.0
 40
2.400000095367432
  0
CIRCLE
  5
5C7
  8
0
  6
CONTINUOUS
 62
     3
 10
222.4490047929714
 20
36.42840037887302
 30
0.0
 40
8.0
  0
CIRCLE
  5
5C8
  8
0
  6
CONTINUOUS
 62
     3
 10
222.4490047929714
 20
36.42840037887302
 30
0.0
 40
3.299999952316284
  0
CIRCLE
  5
5C9
  8
0
  6
CONTINUOUS
 62
     3
 10
222.4490047929714
 20
36.42840037887302
 30
0.0
 40
0.75
  0
LINE
  5
5CA
  8
0
  6
CONTINUOUS
 62
     3
 10
-164.3055118085911
 20
-3.205320972750513
 30
0.0
 11
-164.3055118085911
 21
-13.2053200190762
 31
0.0
  0
LINE
  5
5CB
  8
0
  6
CONTINUOUS
 62
     4
 10
-164.3055118085911
 20
-12.3553215449551
 30
0.0
 11
-132.3055118085911
 21
-12.3553215449551
 31
0.0
  0
LINE
  5
5CC
  8
0
  6
CONTINUOUS
 62
     4
 10
-164.3055118085911
 20
-4.055319446871607
 30
0.0
 11
-132.3055118085911
 21
-4.055319446871607
 31
0.0
  0
LINE
  5
5CD
  8
0
  6
CONTINUOUS
 62
     4
 10
-63.30552689288541
 20
-10.32837093269015
 30
0.0
 11
-61.36035254713877
 21
-9.205324124628959
 31
0.0
  0
LINE
  5
5CE
  8
0
  6
CONTINUOUS
 62
     4
 10
-46.30552740146564
 20
91.54919463815989
 30
0.0
 11
-45.21349106279891
 21
92.17968204259651
 31
0.0
  0
LINE
  5
5CF
  8
0
  6
CONTINUOUS
 62
     4
 10
-46.30553037541338
 20
116.3932084871456
 30
0.0
 11
-44.94331698453223
 21
117.1796826681734
 31
0.0
  0
LINE
  5
5D0
  8
0
  6
CONTINUOUS
 62
     4
 10
-41.62899114390032
 20
117.179692422322
 30
0.0
 11
-40.30553257681325
 21
116.4155933467721
 31
0.0
  0
LINE
  5
5D1
  8
0
  6
CONTINUOUS
 62
     4
 10
-41.51872565136071
 20
92.17968094290293
 30
0.0
 11
-40.3055288691983
 21
91.47924153152738
 31
0.0
  0
LINE
  5
5D2
  8
0
  6
CONTINUOUS
 62
     4
 10
-57.61290574978935
 20
-9.205323665488407
 30
0.0
 11
-55.30552857639501
 21
-10.5374883504895
 31
0.0
  0
LINE
  5
5D3
  8
0
  6
CONTINUOUS
 62
     4
 10
-59.6129033949002
 20
-9.205325147618936
 30
0.0
 11
-55.30552822041332
 21
-11.69218908935611
 31
0.0
  0
LINE
  5
5D4
  8
0
  6
CONTINUOUS
 62
     4
 10
-61.61290104001105
 20
-9.205326629749464
 30
0.0
 11
-55.30552456080673
 21
-12.84689173557123
 31
0.0
  0
LINE
  5
5D5
  8
0
  6
CONTINUOUS
 62
     4
 10
-63.30552612006991
 20
-9.382789725447964
 30
0.0
 11
-55.30552420482505
 21
-14.00159247443784
 31
0.0
  0
LINE
  5
5D6
  8
0
  6
CONTINUOUS
 62
     4
 10
-63.30552576408823
 20
-10.53749046431457
 30
0.0
 11
-55.30552715246827
 21
-15.15629130595593
 31
0.0
  0
LINE
  5
5D7
  8
0
  6
CONTINUOUS
 62
     4
 10
-63.30552871173145
 20
-11.69218929583266
 30
0.0
 11
-57.22059520844792
 21
-15.20532690381614
 31
0.0
  0
LINE
  5
5D8
  8
0
  6
CONTINUOUS
 62
     4
 10
-63.30552505212486
 20
-12.84689194204779
 30
0.0
 11
-59.22059615718368
 21
-15.20532647859815
 31
0.0
  0
LINE
  5
5D9
  8
0
  6
CONTINUOUS
 62
     4
 10
-63.30552799976809
 20
-14.00159077356588
 30
0.0
 11
-61.22059710591944
 21
-15.20532605338016
 31
0.0
  0
LINE
  5
5DA
  8
0
  6
CONTINUOUS
 62
     4
 10
-63.305530552492
 20
-11.48307357890528
 30
0.0
 11
-59.36034829477811
 21
-9.205321792062449
 31
0.0
  0
LINE
  5
5DB
  8
0
  6
CONTINUOUS
 62
     4
 10
-63.30552760484878
 20
-12.63777241042337
 30
0.0
 11
-57.36035064966725
 21
-9.205323274192978
 31
0.0
  0
LINE
  5
5DC
  8
0
  6
CONTINUOUS
 62
     4
 10
-63.30553126445537
 20
-13.79247505663849
 30
0.0
 11
-55.30552604558559
 21
-9.173670400300097
 31
0.0
  0
LINE
  5
5DD
  8
0
  6
CONTINUOUS
 62
     4
 10
-63.30552831681214
 20
-14.94717388815658
 30
0.0
 11
-55.30552640156728
 21
-10.32837113916671
 31
0.0
  0
LINE
  5
5DE
  8
0
  6
CONTINUOUS
 62
     4
 10
-61.75265648123039
 20
-15.20532354825966
 30
0.0
 11
-55.30552675754896
 21
-11.48307187803331
 31
0.0
  0
LINE
  5
5DF
  8
0
  6
CONTINUOUS
 62
     4
 10
-59.75265222886972
 20
-15.20532121569315
 30
0.0
 11
-55.30552711353064
 21
-12.63777261689992
 31
0.0
  0
LINE
  5
5E0
  8
0
  6
CONTINUOUS
 62
     4
 10
-57.75265128013396
 20
-15.20532079047516
 30
0.0
 11
-55.30552746951233
 21
-13.79247335576653
 31
0.0
  0
LINE
  5
5E1
  8
0
  6
CONTINUOUS
 62
     4
 10
-43.51872329647156
 20
92.1796794607724
 30
0.0
 11
-40.30553181684152
 21
90.32454270000929
 31
0.0
  0
LINE
  5
5E2
  8
0
  6
CONTINUOUS
 62
     4
 10
-45.51872094158242
 20
92.17967797864188
 30
0.0
 11
-40.30552815723493
 21
89.16984005379416
 31
0.0
  0
LINE
  5
5E3
  8
0
  6
CONTINUOUS
 62
     4
 10
-46.30552841178067
 20
91.47924089983283
 30
0.0
 11
-40.30553110487816
 21
88.01514122227607
 31
0.0
  0
LINE
  5
5E4
  8
0
  6
CONTINUOUS
 62
     4
 10
-46.30552475217408
 20
90.3245382536177
 30
0.0
 11
-41.72449380844481
 21
87.67967909729876
 31
0.0
  0
LINE
  5
5E5
  8
0
  6
CONTINUOUS
 62
     4
 10
-46.3055276998173
 20
89.16983942209961
 30
0.0
 11
-43.72449806080547
 21
87.67968142986527
 31
0.0
  0
LINE
  5
5E6
  8
0
  6
CONTINUOUS
 62
     4
 10
-46.30553064746053
 20
88.01514059058152
 30
0.0
 11
-45.72449570591633
 21
87.67967994773474
 31
0.0
  0
LINE
  5
5E7
  8
0
  6
CONTINUOUS
 62
     4
 10
-46.30552775744732
 20
90.39449389929328
 30
0.0
 11
-43.2134917658756
 21
92.17968151414024
 31
0.0
  0
LINE
  5
5E8
  8
0
  6
CONTINUOUS
 62
     4
 10
-46.30552976524146
 20
89.23979220675241
 30
0.0
 11
-41.21349267542885
 21
92.1796808664747
 31
0.0
  0
LINE
  5
5E9
  8
0
  6
CONTINUOUS
 62
     4
 10
-46.30552846941069
 20
88.08509242156006
 30
0.0
 11
-40.30552806535982
 21
91.54919388725607
 31
0.0
  0
LINE
  5
5EA
  8
0
  6
CONTINUOUS
 62
     4
 10
-45.00772125390236
 20
87.6796811506666
 30
0.0
 11
-40.30552821486495
 21
90.39449326759873
 31
0.0
  0
LINE
  5
5EB
  8
0
  6
CONTINUOUS
 62
     4
 10
-43.0077203051666
 20
87.67968157588459
 30
0.0
 11
-40.30553022265909
 21
89.23979157505786
 31
0.0
  0
LINE
  5
5EC
  8
0
  6
CONTINUOUS
 62
     4
 10
-41.00771770461839
 20
87.67968295477684
 30
0.0
 11
-40.30552727501586
 21
88.08509274353978
 31
0.0
  0
LINE
  5
5ED
  8
0
  6
CONTINUOUS
 62
     4
 10
-43.62898218176136
 20
117.1796871254944
 30
0.0
 11
-40.30552230995684
 21
115.2608868858599
 31
0.0
  0
LINE
  5
5EE
  8
0
  6
CONTINUOUS
 62
     4
 10
-45.62898364156925
 20
117.1796790361141
 30
0.0
 11
-40.30552907229711
 21
114.106181447092
 31
0.0
  0
LINE
  5
5EF
  8
0
  6
CONTINUOUS
 62
     4
 10
-46.30553211939562
 20
116.4155927150776
 30
0.0
 11
-40.30552820524329
 21
112.9514892228238
 31
0.0
  0
LINE
  5
5F0
  8
0
  6
CONTINUOUS
 62
     4
 10
-46.30552185253921
 20
115.2608862541654
 30
0.0
 11
-41.8347526937346
 21
112.6796867620208
 31
0.0
  0
LINE
  5
5F1
  8
0
  6
CONTINUOUS
 62
     4
 10
-46.30552861487948
 20
114.1061808153975
 30
0.0
 11
-43.83475415354249
 21
112.6796786726404
 31
0.0
  0
LINE
  5
5F2
  8
0
  6
CONTINUOUS
 62
     4
 10
-46.30552774782566
 20
112.9514885911292
 30
0.0
 11
-45.83476119845594
 21
112.6796914271538
 31
0.0
  0
LINE
  5
5F3
  8
0
  6
CONTINUOUS
 62
     4
 10
-46.30553073139507
 20
115.238507748279
 30
0.0
 11
-42.94331603579647
 21
117.1796830933914
 31
0.0
  0
LINE
  5
5F4
  8
0
  6
CONTINUOUS
 62
     4
 10
-46.30552994663643
 20
114.083816477685
 30
0.0
 11
-40.9433205535702
 21
117.1796891721849
 31
0.0
  0
LINE
  5
5F5
  8
0
  6
CONTINUOUS
 62
     4
 10
-46.30552648792107
 20
112.9291091315686
 30
0.0
 11
-40.30552918101856
 21
116.3932088091254
 31
0.0
  0
LINE
  5
5F6
  8
0
  6
CONTINUOUS
 62
     4
 10
-44.73754552382323
 20
112.6796827299177
 30
0.0
 11
-40.30553118881269
 21
115.2385071165845
 31
0.0
  0
LINE
  5
5F7
  8
0
  6
CONTINUOUS
 62
     4
 10
-42.73755004159696
 20
112.6796888087113
 30
0.0
 11
-40.30553370767896
 21
114.083813938642
 31
0.0
  0
LINE
  5
5F8
  8
0
  6
CONTINUOUS
 62
     4
 10
-40.73754527816416
 20
112.6796826266795
 30
0.0
 11
-40.3055269453387
 21
112.929108499874
 31
0.0
  0
LINE
  5
5F9
  8
0
  6
CONTINUOUS
 62
     4
 10
47.23438922267485
 20
-20.05229307815966
 30
0.0
 11
48.96644106776081
 21
-17.05229225670469
 31
0.0
  0
LINE
  5
5FA
  8
0
  6
CONTINUOUS
 62
     4
 10
48.96643414477805
 20
-17.05228771621975
 30
0.0
 11
52.43053402881125
 21
-17.05228771621975
 31
0.0
  0
LINE
  5
5FB
  8
0
  6
CONTINUOUS
 62
     4
 10
50.69848217944602
 20
-16.05228771621975
 30
0.0
 11
51.85318341235617
 21
-16.05228771621975
 31
0.0
  0
LINE
  5
5FC
  8
0
  6
CONTINUOUS
 62
     4
 10
47.23438229541281
 20
-18.05228771621975
 30
0.0
 11
53.00788464526633
 21
-18.05228771621975
 31
0.0
  0
LINE
  5
5FD
  8
0
  6
CONTINUOUS
 62
     4
 10
46.65703167895774
 20
-19.05228771621975
 30
0.0
 11
53.58523526172141
 21
-19.05228771621975
 31
0.0
  0
LINE
  5
5FE
  8
0
  6
CONTINUOUS
 62
     4
 10
47.23438229541281
 20
-20.05228771621975
 30
0.0
 11
52.77027859668235
 21
-20.05228771621975
 31
0.0
  0
LINE
  5
5FF
  8
0
  6
CONTINUOUS
 62
     4
 10
47.81173291186789
 20
-21.05228771621975
 30
0.0
 11
51.03823056201438
 21
-21.05228771621975
 31
0.0
  0
LINE
  5
600
  8
0
  6
CONTINUOUS
 62
     4
 10
48.3890797136257
 20
-22.05228962356838
 30
0.0
 11
49.30617871264914
 21
-22.05228962356838
 31
0.0
  0
LINE
  5
601
  8
0
  6
CONTINUOUS
 62
     4
 10
47.81173917425792
 20
-21.05229345472276
 30
0.0
 11
50.69849151427707
 21
-16.05229335890306
 31
0.0
  0
LINE
  5
602
  8
0
  6
CONTINUOUS
 62
     4
 10
48.38909266788409
 20
-22.05229532568188
 30
0.0
 11
51.85319504675351
 21
-16.05229595401374
 31
0.0
  0
LINE
  5
603
  8
0
  6
CONTINUOUS
 62
     4
 10
49.66259829930283
 20
-21.84652671629391
 30
0.0
 11
52.43054830196104
 21
-17.05229823792592
 31
0.0
  0
LINE
  5
604
  8
0
  6
CONTINUOUS
 62
     4
 10
51.39463895415504
 20
-20.84652188996849
 30
0.0
 11
53.00788786583348
 21
-18.05229371834787
 31
0.0
  0
LINE
  5
605
  8
0
  6
CONTINUOUS
 62
     4
 10
53.12670151691704
 20
-19.84652489439834
 30
0.0
 11
53.58524969524366
 21
-19.05229641009551
 31
0.0
  0
LINE
  5
606
  8
0
  6
CONTINUOUS
 62
     4
 10
46.65703790018462
 20
-19.05229507607665
 30
0.0
 11
47.23438865429081
 21
-18.05229456136904
 31
0.0
  0
LINE
  5
607
  8
0
  6
CONTINUOUS
 62
     4
 10
182.4631151212745
 20
12.17134670273802
 30
0.0
 11
185.7131155087047
 21
17.80051172630331
 31
0.0
  0
LINE
  5
608
  8
0
  6
CONTINUOUS
 62
     4
 10
192.2131162835651
 20
29.0588417734339
 30
0.0
 11
195.4631166709953
 21
34.68800679699919
 31
0.0
  0
LINE
  5
609
  8
0
  6
CONTINUOUS
 62
     4
 10
218.8361946418874
 20
-8.8286634300525
 30
0.0
 11
222.0861950293176
 21
-3.199498406487209
 31
0.0
  0
LINE
  5
60A
  8
0
  6
CONTINUOUS
 62
     4
 10
228.586195804178
 20
8.058831640643376
 30
0.0
 11
231.8361961916082
 21
13.68799666420867
 31
0.0
  0
LINE
  5
60B
  8
0
  6
CONTINUOUS
 62
     4
 10
193.5121752098205
 20
28.30884726913021
 30
0.0
 11
196.7621755972507
 21
33.9380122926955
 31
0.0
  0
LINE
  5
60C
  8
0
  6
CONTINUOUS
 62
     4
 10
194.8111792337888
 20
27.5588492240154
 30
0.0
 11
198.061179621219
 21
33.1880142475807
 31
0.0
  0
LINE
  5
60D
  8
0
  6
CONTINUOUS
 62
     4
 10
196.1102475598452
 20
26.80884048306692
 30
0.0
 11
199.3602479472754
 21
32.43800550663221
 31
0.0
  0
LINE
  5
60E
  8
0
  6
CONTINUOUS
 62
     4
 10
197.9121810573808
 20
26.92988068416574
 30
0.0
 11
200.6592898443343
 21
31.6880120244746
 31
0.0
  0
LINE
  5
60F
  8
0
  6
CONTINUOUS
 62
     4
 10
183.7621740475299
 20
11.42135219843433
 30
0.0
 11
187.0121744349601
 21
17.05051722199963
 31
0.0
  0
LINE
  5
610
  8
0
  6
CONTINUOUS
 62
     4
 10
185.0611780714982
 20
10.67135415331953
 30
0.0
 11
188.3111784589284
 21
16.30051917688482
 31
0.0
  0
LINE
  5
611
  8
0
  6
CONTINUOUS
 62
     4
 10
186.3602463975546
 20
9.92134541237104
 30
0.0
 11
189.6102467849848
 21
15.55051043593633
 31
0.0
  0
LINE
  5
612
  8
0
  6
CONTINUOUS
 62
     4
 10
187.6592882946136
 20
9.171351930213433
 30
0.0
 11
190.547128909867
 21
14.17323791394713
 31
0.0
  0
LINE
  5
613
  8
0
  6
CONTINUOUS
 62
     4
 10
217.5371339452265
 20
-8.078641474605291
 30
0.0
 11
220.7871343326567
 21
-2.449476451039999
 31
0.0
  0
LINE
  5
614
  8
0
  6
CONTINUOUS
 62
     4
 10
216.2381261065604
 20
-7.328650036739845
 30
0.0
 11
219.4881264939906
 21
-1.699485013174552
 31
0.0
  0
LINE
  5
615
  8
0
  6
CONTINUOUS
 62
     4
 10
214.9390918388969
 20
-6.578643340083516
 30
0.0
 11
218.1890922263271
 21
-0.9494783165182241
 31
0.0
  0
LINE
  5
616
  8
0
  6
CONTINUOUS
 62
     4
 10
213.640049941838
 20
-5.82864985792591
 30
0.0
 11
216.7052129659253
 21
-0.5196324948969675
 31
0.0
  0
LINE
  5
617
  8
0
  6
CONTINUOUS
 62
     4
 10
227.2871351075171
 20
8.808853596090586
 30
0.0
 11
230.5371354949473
 21
14.43801861965588
 31
0.0
  0
LINE
  5
618
  8
0
  6
CONTINUOUS
 62
     4
 10
225.988127268851
 20
9.558845033956032
 30
0.0
 11
229.2381276562812
 21
15.18801005752132
 31
0.0
  0
LINE
  5
619
  8
0
  6
CONTINUOUS
 62
     4
 10
224.6890930011875
 20
10.30885173061236
 30
0.0
 11
227.9390933886177
 21
15.93801675417765
 31
0.0
  0
LINE
  5
61A
  8
0
  6
CONTINUOUS
 62
     4
 10
223.5943510552408
 20
11.41270305954598
 30
0.0
 11
226.6400514915588
 21
16.68801023633526
 31
0.0
  0
LINE
  5
61B
  8
0
  6
CONTINUOUS
 62
     4
 10
140.023376130862
 20
85.67967639510837
 30
0.0
 11
146.523376130862
 21
85.67967639510837
 31
0.0
  0
LINE
  5
61C
  8
0
  6
CONTINUOUS
 62
     4
 10
159.523376130862
 20
85.67967639510837
 30
0.0
 11
166.023376130862
 21
85.67967639510837
 31
0.0
  0
LINE
  5
61D
  8
0
  6
CONTINUOUS
 62
     4
 10
159.523376130862
 20
127.6796763951084
 30
0.0
 11
166.023376130862
 21
127.6796763951084
 31
0.0
  0
LINE
  5
61E
  8
0
  6
CONTINUOUS
 62
     4
 10
140.023376130862
 20
127.6796763951084
 30
0.0
 11
146.523376130862
 21
127.6796763951084
 31
0.0
  0
LINE
  5
61F
  8
0
  6
CONTINUOUS
 62
     4
 10
140.023376130862
 20
87.17967639510837
 30
0.0
 11
146.523376130862
 21
87.17967639510837
 31
0.0
  0
LINE
  5
620
  8
0
  6
CONTINUOUS
 62
     4
 10
140.023376130862
 20
88.67967639510837
 30
0.0
 11
146.523376130862
 21
88.67967639510837
 31
0.0
  0
LINE
  5
621
  8
0
  6
CONTINUOUS
 62
     4
 10
140.023376130862
 20
90.17967639510837
 30
0.0
 11
146.523376130862
 21
90.17967639510837
 31
0.0
  0
LINE
  5
622
  8
0
  6
CONTINUOUS
 62
     4
 10
140.023376130862
 20
91.67967639510837
 30
0.0
 11
145.1086117265652
 21
91.67967639510837
 31
0.0
  0
LINE
  5
623
  8
0
  6
CONTINUOUS
 62
     4
 10
159.523376130862
 20
87.17967639510837
 30
0.0
 11
166.023376130862
 21
87.17967639510837
 31
0.0
  0
LINE
  5
624
  8
0
  6
CONTINUOUS
 62
     4
 10
159.523376130862
 20
88.67967639510837
 30
0.0
 11
166.023376130862
 21
88.67967639510837
 31
0.0
  0
LINE
  5
625
  8
0
  6
CONTINUOUS
 62
     4
 10
159.523376130862
 20
90.17967639510837
 30
0.0
 11
166.023376130862
 21
90.17967639510837
 31
0.0
  0
LINE
  5
626
  8
0
  6
CONTINUOUS
 62
     4
 10
160.7536922929714
 20
91.67967639510837
 30
0.0
 11
166.023376130862
 21
91.67967639510837
 31
0.0
  0
LINE
  5
627
  8
0
  6
CONTINUOUS
 62
     4
 10
159.523376130862
 20
126.1796763951084
 30
0.0
 11
166.023376130862
 21
126.1796763951084
 31
0.0
  0
LINE
  5
628
  8
0
  6
CONTINUOUS
 62
     4
 10
159.523376130862
 20
124.6796763951084
 30
0.0
 11
166.023376130862
 21
124.6796763951084
 31
0.0
  0
LINE
  5
629
  8
0
  6
CONTINUOUS
 62
     4
 10
159.523376130862
 20
123.1796763951084
 30
0.0
 11
166.023376130862
 21
123.1796763951084
 31
0.0
  0
LINE
  5
62A
  8
0
  6
CONTINUOUS
 62
     4
 10
160.0634609697292
 20
121.6796763951084
 30
0.0
 11
166.023376130862
 21
121.6796763951084
 31
0.0
  0
LINE
  5
62B
  8
0
  6
CONTINUOUS
 62
     4
 10
140.023376130862
 20
126.1796763951084
 30
0.0
 11
146.523376130862
 21
126.1796763951084
 31
0.0
  0
LINE
  5
62C
  8
0
  6
CONTINUOUS
 62
     4
 10
140.023376130862
 20
124.6796763951084
 30
0.0
 11
146.523376130862
 21
124.6796763951084
 31
0.0
  0
LINE
  5
62D
  8
0
  6
CONTINUOUS
 62
     4
 10
140.023376130862
 20
123.1796763951084
 30
0.0
 11
146.523376130862
 21
123.1796763951084
 31
0.0
  0
LINE
  5
62E
  8
0
  6
CONTINUOUS
 62
     4
 10
140.023376130862
 20
121.6796763951084
 30
0.0
 11
146.0289150712917
 21
121.6796763951084
 31
0.0
  0
ARC
  5
62F
  8
0
  6
CONTINUOUS
 62
     4
 10
153.0230404375027
 20
44.17967639510837
 30
0.0
 40
44.0
 50
109.9318195592744
 51
143.493559140587
  0
ARC
  5
630
  8
0
  6
CONTINUOUS
 62
     4
 10
153.0230404375027
 20
44.17967639510837
 30
0.0
 40
44.0
 50
230.2095215421295
 51
264.0596180498217
  0
ARC
  5
631
  8
0
  6
CONTINUOUS
 62
     4
 10
153.0230404375027
 20
44.17967639510837
 30
0.0
 40
44.0
 50
350.2095342729438
 51
23.49353018807335
  0
ARC
  5
632
  8
0
  6
CONTINUOUS
 62
     4
 10
153.0230404375027
 20
44.17967639510837
 30
0.0
 40
50.0
 50
107.4572215324112
 51
139.1114463728902
  0
ARC
  5
633
  8
0
  6
CONTINUOUS
 62
     4
 10
153.0230404375027
 20
44.17967639510837
 30
0.0
 40
56.0
 50
105.5364562245878
 51
140.1246776155049
  0
ARC
  5
634
  8
0
  6
CONTINUOUS
 62
     4
 10
153.0230404375027
 20
44.17967639510837
 30
0.0
 40
50.0
 50
227.6979790220457
 51
259.4011011867928
  0
ARC
  5
635
  8
0
  6
CONTINUOUS
 62
     4
 10
153.0230404375027
 20
44.17967639510837
 30
0.0
 40
56.0
 50
225.7492714103277
 51
260.409851825312
  0
ARC
  5
636
  8
0
  6
CONTINUOUS
 62
     4
 10
153.0230404375027
 20
44.17967639510837
 30
0.0
 40
50.0
 50
347.6979994368229
 51
19.11141400528199
  0
ARC
  5
637
  8
0
  6
CONTINUOUS
 62
     4
 10
153.0230404375027
 20
44.17967639510837
 30
0.0
 40
56.0
 50
345.7492807260475
 51
20.12464695544399
  0
ARC
  5
638
  8
0
  6
CONTINUOUS
 62
     4
 10
153.0230404375027
 20
44.17967639510837
 30
0.0
 40
44.0
 50
275.9403564506545
 51
309.7904632036305
  0
ARC
  5
639
  8
0
  6
CONTINUOUS
 62
     4
 10
153.0230404375027
 20
44.17967639510837
 30
0.0
 40
50.0
 50
280.5988664834941
 51
312.3019852331466
  0
ARC
  5
63A
  8
0
  6
CONTINUOUS
 62
     4
 10
153.0230404375027
 20
44.17967639510837
 30
0.0
 40
56.0
 50
279.590115844975
 51
314.250706505243
  0
ARC
  5
63B
  8
0
  6
CONTINUOUS
 62
     4
 10
153.0230404375027
 20
44.17967639510837
 30
0.0
 40
56.0
 50
159.875344393134
 51
194.2506619574327
  0
ARC
  5
63C
  8
0
  6
CONTINUOUS
 62
     4
 10
153.0230404375027
 20
44.17967639510837
 30
0.0
 40
50.0
 50
160.8885756357487
 51
192.3019406853363
  0
ARC
  5
63D
  8
0
  6
CONTINUOUS
 62
     4
 10
153.0230404375027
 20
44.17967639510837
 30
0.0
 40
44.0
 50
156.5064765284303
 51
189.7904118256309
  0
ARC
  5
63E
  8
0
  6
CONTINUOUS
 62
     4
 10
153.0230404375027
 20
44.17967639510837
 30
0.0
 40
44.0
 50
36.50644245327479
 51
70.06726337414402
  0
ARC
  5
63F
  8
0
  6
CONTINUOUS
 62
     4
 10
153.0230404375027
 20
44.17967639510837
 30
0.0
 40
50.0
 50
40.88856205116074
 51
72.54199117460139
  0
ARC
  5
640
  8
0
  6
CONTINUOUS
 62
     4
 10
153.0230404375027
 20
44.17967639510837
 30
0.0
 40
56.0
 50
39.87532397835685
 51
52.45179569333094
  0
ARC
  5
641
  8
0
  6
CONTINUOUS
 62
     4
 10
153.0230404375027
 20
44.17967639510837
 30
0.0
 40
56.0
 50
52.45179569333093
 51
74.46285210507324
  0
LINE
  5
642
  8
0
  6
CONTINUOUS
 62
     3
 10
-67.30552706738015
 20
121.5296748692295
 30
0.0
 11
-47.30552706738015
 21
121.5296748692295
 31
0.0
  0
LINE
  5
643
  8
0
  6
CONTINUOUS
 62
     3
 10
-67.30552706738015
 20
114.8296779209873
 30
0.0
 11
-47.30552706738015
 21
114.8296779209873
 31
0.0
  0
LINE
  5
644
  8
0
  6
CONTINUOUS
 62
     3
 10
-67.30552706738015
 20
89.82967792098728
 30
0.0
 11
-47.30552706738015
 21
89.82967792098728
 31
0.0
  0
LINE
  5
645
  8
0
  6
CONTINUOUS
 62
     3
 10
-67.30552706738015
 20
96.52967486922947
 30
0.0
 11
-47.30552706738015
 21
96.52967486922947
 31
0.0
  0
LINE
  5
646
  8
0
  6
CONTINUOUS
 62
     3
 10
-75.54437289257547
 20
4.629678350140722
 30
0.0
 11
-63.80552706738015
 21
4.629678350140722
 31
0.0
  0
LINE
  5
647
  8
0
  6
CONTINUOUS
 62
     3
 10
-74.30552706738015
 20
9.7296758705875
 30
0.0
 11
-63.80552706738015
 21
9.7296758705875
 31
0.0
  0
LINE
  5
648
  8
0
  6
CONTINUOUS
 62
     3
 10
-132.9055179121067
 20
79.36967883651462
 30
0.0
 11
-122.9055179121067
 21
79.36967883651462
 31
0.0
  0
LINE
  5
649
  8
0
  6
CONTINUOUS
 62
     3
 10
-132.9055179121067
 20
8.989677947213323
 30
0.0
 11
-130.4055179121067
 21
8.989677947213323
 31
0.0
  0
LINE
  5
64A
  8
0
  6
CONTINUOUS
 62
     3
 10
-55.30552706738015
 20
129.1796763951084
 30
0.0
 11
-55.30552706738015
 21
126.1796763951084
 31
0.0
  0
LINE
  5
64B
  8
0
  6
CONTINUOUS
 62
     3
 10
-55.30552706738015
 20
85.17967639510837
 30
0.0
 11
-55.30552706738015
 21
84.17967639510837
 31
0.0
  0
LINE
  5
64C
  8
0
  6
CONTINUOUS
 62
     3
 10
-125.4055179121067
 20
8.989677947213323
 30
0.0
 11
-122.9055179121067
 21
8.989677947213323
 31
0.0
  0
LINE
  5
64D
  8
0
  6
CONTINUOUS
 62
     3
 10
32.37316350459375
 20
-9.311909423952528
 30
0.0
 11
36.62316401123323
 21
-16.67312522399945
 31
0.0
  0
LINE
  5
64E
  8
0
  6
CONTINUOUS
 62
     3
 10
31.50714002370179
 20
-9.811912787181853
 30
0.0
 11
35.75714053034127
 21
-17.17312858722877
 31
0.0
  0
LINE
  5
64F
  8
0
  6
CONTINUOUS
 62
     3
 10
42.12316466688432
 20
-26.19940449464841
 30
0.0
 11
46.3731651735238
 21
-33.56062029469533
 31
0.0
  0
LINE
  5
650
  8
0
  6
CONTINUOUS
 62
     3
 10
41.25714118599237
 20
-26.69940785787773
 30
0.0
 11
45.50714169263185
 21
-34.06062365792465
 31
0.0
  0
LINE
  5
651
  8
0
  6
CONTINUOUS
 62
     3
 10
43.50233109115899
 20
-15.58819161079597
 30
0.0
 11
26.61483602046312
 21
-25.33819277308655
 31
0.0
  0
LINE
  5
652
  8
0
  6
CONTINUOUS
 62
     3
 10
46.50233475241154
 20
-20.784342032892
 30
0.0
 11
29.61483720399715
 21
-30.53434462569422
 31
0.0
  0
LINE
  5
653
  8
0
  6
CONTINUOUS
 62
     3
 10
-76.30552706738015
 20
119.2929271275302
 30
0.0
 11
-76.30552706738015
 21
111.2929271275302
 31
0.0
  0
LINE
  5
654
  8
0
  6
CONTINUOUS
 62
     3
 10
-82.30552706738015
 20
111.2929271275302
 30
0.0
 11
-76.30552706738015
 21
111.2929271275302
 31
0.0
  0
LINE
  5
655
  8
0
  6
CONTINUOUS
 62
     3
 10
-82.30552706738015
 20
119.2929271275302
 30
0.0
 11
-82.30552706738015
 21
111.2929271275302
 31
0.0
  0
LINE
  5
656
  8
0
  6
CENTER
 62
     3
 10
-127.9055179121067
 20
13.17967258041111
 30
0.0
 11
-127.9055179121067
 21
-0.153658527682154
 31
0.0
  0
LINE
  5
657
  8
0
  6
CONTINUOUS
 62
     4
 10
-163.9055179121067
 20
27.17967830245701
 30
0.0
 11
-147.771545744138
 21
27.17967830245701
 31
0.0
  0
LINE
  5
658
  8
0
  6
CONTINUOUS
 62
     4
 10
-163.9055179121067
 20
61.17967639510837
 30
0.0
 11
-147.771545744138
 21
61.17967639510837
 31
0.0
  0
LINE
  5
659
  8
0
  6
CONTINUOUS
 62
     4
 10
81.12429301066888
 20
5.686056101216337
 30
0.0
 11
83.77030738933124
 21
1.103022845363313
 31
0.0
  0
LINE
  5
65A
  8
0
  6
CONTINUOUS
 62
     4
 10
-76.90552554150125
 20
119.2929271275302
 30
0.0
 11
-76.90552554150125
 21
105.7929271275302
 31
0.0
  0
LINE
  5
65B
  8
0
  6
CONTINUOUS
 62
     4
 10
-82.30552706738015
 20
113.2929271275302
 30
0.0
 11
-76.30552706738015
 21
113.2929271275302
 31
0.0
  0
LINE
  5
65C
  8
0
  6
CONTINUOUS
 62
     4
 10
-81.70552859325906
 20
119.2929271275302
 30
0.0
 11
-81.70552859325906
 21
105.7929271275302
 31
0.0
  0
LINE
  5
65D
  8
0
  6
CONTINUOUS
 62
     4
 10
52.35291074541269
 20
-49.29135763878057
 30
0.0
 11
49.70689144804905
 21
-44.70831840653736
 31
0.0
  0
LINE
  5
65E
  8
0
  6
CONTINUOUS
 62
     4
 10
38.241755308026
 20
-51.47664685057306
 30
0.0
 11
44.40201176892353
 21
-47.9200215175396
 31
0.0
  0
LINE
  5
65F
  8
0
  6
CONTINUOUS
 62
     4
 10
42.15639108584557
 20
-55.10551965760685
 30
0.0
 11
46.95202509063617
 21
-52.33675937990407
 31
0.0
  0
LINE
  5
660
  8
0
  6
CONTINUOUS
 62
     4
 10
86.77339441328351
 20
8.70152862492776
 30
0.0
 11
91.72674422504517
 21
11.56134527751854
 31
0.0
  0
LINE
  5
661
  8
0
  6
CONTINUOUS
 62
     4
 10
89.17338670930789
 20
4.544603035196161
 30
0.0
 11
94.27629823819174
 21
7.490769149357476
 31
0.0
  0
CIRCLE
  5
662
  8
0
  6
CONTINUOUS
 62
     4
 10
120.9801022050808
 20
62.6796840245029
 30
0.0
 40
3.0
  0
CIRCLE
  5
663
  8
0
  6
CONTINUOUS
 62
     4
 10
185.0659939287136
 20
62.67966495101658
 30
0.0
 40
3.0
  0
CIRCLE
  5
664
  8
0
  6
CONTINUOUS
 62
     4
 10
153.023376130862
 20
7.179677587201269
 30
0.0
 40
3.0
  0
LINE
  5
665
  8
0
  6
DIVIDE
 62
     9
 10
-156.5055240156223
 20
63.67967639510837
 30
0.0
 11
-156.5055240156223
 21
59.17967639510837
 31
0.0
  0
LINE
  5
666
  8
0
  6
DIVIDE
 62
     9
 10
-176.5055240156223
 20
63.67967639510837
 30
0.0
 11
-176.5055240156223
 21
59.17967639510837
 31
0.0
  0
LINE
  5
667
  8
0
  6
DIVIDE
 62
     9
 10
-156.5055669541219
 20
63.67971666670113
 30
0.0
 11
-155.5656207673603
 21
64.61966285346264
 31
0.0
  0
LINE
  5
668
  8
0
  6
DIVIDE
 62
     9
 10
-176.5055827911154
 20
63.67972206149764
 30
0.0
 11
-175.6559239188635
 21
64.52938093374954
 31
0.0
  0
LINE
  5
669
  8
0
  6
DASHED
 62
     7
 10
70.91925011352575
 20
22.18043327355852
 30
0.0
 11
121.3065865011594
 21
51.27157228666172
 31
0.0
  0
LINE
  5
66A
  8
0
  6
DASHED
 62
     7
 10
115.0230404375027
 20
120.2125743443271
 30
0.0
 11
115.0230404375027
 21
97.17967639510837
 31
0.0
  0
LINE
  5
66B
  8
0
  6
DASHED
 62
     7
 10
86.57005276660422
 20
97.17967639510837
 30
0.0
 11
115.0230404375027
 21
97.17967639510837
 31
0.0
  0
LINE
  5
66C
  8
0
  6
DASHED
 62
     7
 10
115.0230404375027
 20
114.1796763951084
 30
0.0
 11
129.6975552080105
 21
114.1796763951084
 31
0.0
  0
LINE
  5
66D
  8
0
  6
DASHED
 62
     7
 10
115.0230404375027
 20
102.1796763951084
 30
0.0
 11
128.7345959184597
 21
102.1796763951084
 31
0.0
  0
LINE
  5
66E
  8
0
  6
DASHED
 62
     7
 10
105.5230404375027
 20
110.5796779209873
 30
0.0
 11
105.5230404375027
 21
105.7796748692295
 31
0.0
  0
LINE
  5
66F
  8
0
  6
DASHED
 62
     7
 10
112.6461407182644
 20
104.2296794468662
 30
0.0
 11
114.3323894975613
 21
104.2296794468662
 31
0.0
  0
LINE
  5
670
  8
0
  6
DASHED
 62
     7
 10
112.6461407182644
 20
112.1296733433506
 30
0.0
 11
114.3323894975613
 21
112.1296733433506
 31
0.0
  0
LINE
  5
671
  8
0
  6
DASHED
 62
     7
 10
107.8230434892605
 20
111.4796794468662
 30
0.0
 11
107.8230434892605
 21
104.8796733433506
 31
0.0
  0
LINE
  5
672
  8
0
  6
DASHED
 62
     7
 10
112.0230404375027
 20
111.5722621495029
 30
0.0
 11
112.0230404375027
 21
104.7870601231357
 31
0.0
  0
LINE
  5
673
  8
0
  6
DASHED
 62
     7
 10
112.7869717119167
 20
110.1796763951084
 30
0.0
 11
114.2591091630886
 21
110.1796763951084
 31
0.0
  0
LINE
  5
674
  8
0
  6
DASHED
 62
     7
 10
112.7869717119167
 20
106.1796763951084
 30
0.0
 11
114.2591091630886
 21
106.1796763951084
 31
0.0
  0
LINE
  5
675
  8
0
  6
DASHED
 62
     7
 10
107.823050855605
 20
104.8796888583489
 30
0.0
 11
105.5230504601938
 21
105.7796888114578
 31
0.0
  0
LINE
  5
676
  8
0
  6
DASHED
 62
     7
 10
105.523044436125
 20
110.579689713521
 30
0.0
 11
107.8230306218984
 21
111.4796841063381
 31
0.0
  0
LINE
  5
677
  8
0
  6
DASHED
 62
     7
 10
108.8230434892605
 20
110.792751651456
 30
0.0
 11
108.8230434892605
 21
105.5007213169834
 31
0.0
  0
LINE
  5
678
  8
0
  6
DASHED
 62
     7
 10
92.91925540947338
 20
-15.92468261694464
 30
0.0
 11
143.3063407216141
 21
13.16631143767111
 31
0.0
  0
ARC
  5
679
  8
0
  6
DASHED
 62
     7
 10
112.0230404375027
 20
108.1796763951084
 30
0.0
 40
3.0
 50
0.0
 51
41.81031315512688
  0
ARC
  5
67A
  8
0
  6
DASHED
 62
     7
 10
115.0230404375027
 20
108.1796763951084
 30
0.0
 40
3.0
 50
138.1896986840186
 51
221.8102840131373
  0
ARC
  5
67B
  8
0
  6
DASHED
 62
     7
 10
112.0230404375027
 20
108.1796763951084
 30
0.0
 40
3.0
 50
318.1896868448731
 51
0.0
  0
ARC
  5
67C
  8
0
  6
DASHED
 62
     7
 10
107.8230434892605
 20
108.1796763951084
 30
0.0
 40
3.299999952316284
 50
72.3602944823007
 51
89.99998201391067
  0
ARC
  5
67D
  8
0
  6
DASHED
 62
     7
 10
107.8230434892605
 20
108.1796763951084
 30
0.0
 40
3.299999952316284
 50
270.0000179860893
 51
287.6397055176993
  0
ARC
  5
67E
  8
0
  6
DASHED
 62
     7
 10
110.2275616167019
 20
113.9756434971592
 30
0.0
 40
3.0
 50
242.1068914535913
 51
306.7619948916872
  0
ARC
  5
67F
  8
0
  6
DASHED
 62
     7
 10
110.2275616167019
 20
102.3836787754795
 30
0.0
 40
3.0
 50
53.23800510831276
 51
117.8898300556071
  0
ARC
  5
680
  8
0
  6
DASHED
 62
     7
 10
112.9583889482448
 20
111.1796763951084
 30
0.0
 40
1.0
 50
200.7154669700721
 51
270.0000179860893
  0
ARC
  5
681
  8
0
  6
DASHED
 62
     7
 10
112.9583889482448
 20
111.1796763951084
 30
0.0
 40
1.0
 50
108.1948751325834
 51
159.2845330299279
  0
ARC
  5
682
  8
0
  6
DASHED
 62
     7
 10
112.9583889482448
 20
105.1796763951084
 30
0.0
 40
1.0
 50
89.99998201391067
 51
159.2845330299279
  0
ARC
  5
683
  8
0
  6
DASHED
 62
     7
 10
112.9583889482448
 20
105.1796763951084
 30
0.0
 40
1.0
 50
200.7154669700721
 51
251.8051248674166
  0
ARC
  5
684
  8
0
  6
DASHED
 62
     7
 10
114.0201412675808
 20
111.1796763951084
 30
0.0
 40
1.0
 50
0.0
 51
71.80513670656207
  0
ARC
  5
685
  8
0
  6
DASHED
 62
     7
 10
114.0201412675808
 20
105.1796763951084
 30
0.0
 40
1.0
 50
0.0
 51
89.99998201391067
  0
ARC
  5
686
  8
0
  6
DASHED
 62
     7
 10
114.0201412675808
 20
111.1796763951084
 30
0.0
 40
1.0
 50
270.0000179860893
 51
0.0
  0
ARC
  5
687
  8
0
  6
DASHED
 62
     7
 10
114.0201412675808
 20
105.1796763951084
 30
0.0
 40
1.0
 50
288.1948632934379
 51
0.0
  0
ARC
  5
688
  8
0
  6
DASHED
 62
     7
 10
106.0009228227566
 20
108.1796763951084
 30
0.0
 40
1.200000047683716
 50
113.46797241713
 51
246.5320171102152
  0
LINE
  5
689
  8
0
  6
CENTER
 62
     7
 10
-101.3055118085911
 20
-16.02523554888012
 30
0.0
 11
-101.3055118085911
 21
-44.30246118608334
 31
0.0
  0
TEXT
  5
68A
  8
0
 62
     6
 10
-243.735592460828
 20
-101.2707020228604
 30
0.0
 40
4.5
  1
仕　様
 41
1.117647245818494
  7
DCSTYLE0
 72
     5
 11
-231.5213047029545
 21
-101.2707020228604
 31
0.0
  0
TEXT
  5
68B
  8
0
 62
     6
 10
-244.0275388719608
 20
-108.5806385462979
 30
0.0
 40
4.5
  1
1.爪ﾉｽﾄﾛｰｸ　（直径）
 41
1.185185274796558
  7
DCSTYLE0
 72
     5
 11
-182.3132484914829
 21
-108.5806385462979
 31
0.0
  0
TEXT
  5
68C
  8
0
 62
     6
 10
-244.0275388719608
 20
-115.5806385462979
 30
0.0
 40
4.5
  1
2.ピストンストローク
 41
1.190476288030177
  7
DCSTYLE0
 72
     5
 11
-195.8132492067387
 21
-115.5806385462979
 31
0.0
  0
TEXT
  5
68D
  8
0
 62
     6
 10
-244.0275388719608
 20
-122.5806385462979
 30
0.0
 40
4.5
  1
３．把握径ノ最大振レ
 41
1.152542470763183
  7
DCSTYLE0
 72
     5
 11
-200.3132494451573
 21
-122.5806385462979
 31
0.0
  0
TEXT
  5
68E
  8
0
 62
     6
 10
-244.0275388719608
 20
-129.5806385462979
 30
0.0
 40
4.5
  1
４．推奨シリンダー
 41
1.150943498191594
  7
DCSTYLE0
 72
     5
 11
-204.8132496835758
 21
-129.5806385462979
 31
0.0
  0
TEXT
  5
68F
  8
0
 62
     6
 10
-244.0275388719608
 20
-136.5806385462979
 30
0.0
 40
4.5
  1
５．許容シリンダー力
 41
1.152542470763183
  7
DCSTYLE0
 72
     5
 11
-200.3132494451573
 21
-136.5806385462979
 31
0.0
  0
TEXT
  5
690
  8
0
 62
     6
 10
-244.0275388719608
 20
-143.5806385462979
 30
0.0
 40
4.5
  1
６．最大静的把握力
 41
1.150943498191594
  7
DCSTYLE0
 72
     5
 11
-204.8132496835758
 21
-143.5806385462979
 31
0.0
  0
TEXT
  5
691
  8
0
 62
     6
 10
-244.0275388719608
 20
-150.5806385462979
 30
0.0
 40
4.5
  1
７．最高使用回転速度
 41
1.152542470763183
  7
DCSTYLE0
 72
     5
 11
-200.3132494451573
 21
-150.5806385462979
 31
0.0
  0
TEXT
  5
692
  8
0
 62
     6
 10
-244.0275388719608
 20
-157.5806385462979
 30
0.0
 40
4.5
  1
８．慣性モーメント
 41
1.150943498191594
  7
DCSTYLE0
 72
     5
 11
-204.8132496835758
 21
-157.5806385462979
 31
0.0
  0
TEXT
  5
693
  8
0
 62
     6
 10
-244.0275388719608
 20
-164.5806385462979
 30
0.0
 40
4.5
  1
９．質　量
 41
1.137931169677968
  7
DCSTYLE0
 72
     5
 11
-222.8132506372501
 21
-164.5806385462979
 31
0.0
  0
TEXT
  5
694
  8
0
 62
     6
 10
-112.1690946580937
 20
-108.4884602015713
 30
0.0
 40
4.5
  1
16  ｍｍ
 41
1.043478372822637
  7
DCSTYLE0
 72
     5
 11
-86.45480618496438
 21
-108.4884602015713
 31
0.0
  0
TEXT
  5
695
  8
0
 62
     6
 10
-112.1690946580937
 20
-115.721782345126
 30
0.0
 40
4.5
  1
20  mm
 41
0.869565310685531
  7
DCSTYLE0
 72
     5
 11
-86.45480618496438
 21
-115.721782345126
 31
0.0
  0
TEXT
  5
696
  8
0
 62
     6
 10
-107.6691099168827
 20
-122.7217976039151
 30
0.0
 40
4.5
  1
4  mm
 41
0.8389831505252817
  7
DCSTYLE0
 72
     5
 11
-86.45482168217202
 21
-122.7217976039151
 31
0.0
  0
TEXT
  5
697
  8
0
 62
     6
 10
-125.244797408652
 20
-129.7217976039151
 30
0.0
 40
4.5
  1
36TS-TA1型
 41
1.070175533406219
  7
DCSTYLE0
 72
     5
 11
-86.03050822026695
 21
-129.7217976039151
 31
0.0
  0
TEXT
  5
698
  8
0
 62
     6
 10
-121.1773496629765
 20
-136.7707020228604
 30
0.0
 40
4.5
  1
14.9  kN
 41
1.102040919046553
  7
DCSTYLE0
 72
     5
 11
-86.46306071301004
 21
-136.7707020228604
 31
0.0
  0
TEXT
  5
699
  8
0
 62
     6
 10
-121.1773496629765
 20
-143.7707020228604
 30
0.0
 40
4.5
  1
25.5  kN
 41
1.102040919046553
  7
DCSTYLE0
 72
     5
 11
-86.46306071301004
 21
-143.7707020228604
 31
0.0
  0
TEXT
  5
69A
  8
0
 62
     6
 10
-120.6024366380741
 20
-150.7217976039151
 30
0.0
 40
4.5
  1
4000 min
 41
1.051948149998983
  7
DCSTYLE0
 72
     5
 11
-85.8881476881077
 21
-150.7217976039151
 31
0.0
  0
TEXT
  5
69B
  8
0
 62
     6
 10
-86.01653490243139
 20
-148.1683681544793
 30
0.0
 40
2.25
  1
-1
 41
0.9729732006519765
  7
DCSTYLE0
 72
     5
 11
-82.15939114270391
 21
-148.1683681544793
 31
0.0
  0
TEXT
  5
69C
  8
0
 62
     6
 10
-130.0344663621952
 20
-157.9171406214932
 30
0.0
 40
4.5
  1
0.063 kg・m
 41
1.068062917932374
  7
DCSTYLE0
 72
     5
 11
-86.32017693539163
 21
-157.9171406214932
 31
0.0
  0
TEXT
  5
69D
  8
0
 62
     6
 10
-86.40027963918916
 20
-155.0566239316239
 30
0.0
 40
2.25
  1
2
 41
0.8823533712648878
  7
DCSTYLE0
 72
     5
 11
-84.79313599867098
 21
-155.0566239316239
 31
0.0
  0
TEXT
  5
69E
  8
0
 62
     6
 10
-111.7024351121952
 20
-164.7217976039151
 30
0.0
 40
4.5
  1
15  kg
 41
1.052631691882485
  7
DCSTYLE0
 72
     5
 11
-85.98814663906595
 21
-164.7217976039151
 31
0.0
  0
TEXT
  5
69F
  8
0
 62
     6
 10
-196.3274041845734
 20
-136.2864704316357
 30
0.0
 40
2.799999952316284
  1
(36TS-TA1 使用圧力 MAX 2.6MPa)
 41
1.099796371861257
  7
DCSTYLE0
 72
     5
 11
-124.3274029328758
 21
-136.2864704316357
 31
0.0
  0
TEXT
  5
6A0
  8
0
 62
     6
 10
-51.42765686531564
 20
-136.8048206752041
 30
0.0
 40
4.0
  1
COP型ﾁｬｯｸ使用上の注意
 41
1.11196913751396
  7
DCSTYLE0
 72
     5
 11
3.429487252039706
 21
-136.8048206752041
 31
0.0
  0
TEXT
  5
6A1
  8
0
 62
     6
 10
-46.76850084085962
 20
-141.4311328714589
 30
0.0
 40
2.0
  1
☆
 41
1.000000441074371
  7
DCSTYLE0
 72
     5
 11
-45.33992878218194
 21
-141.4311328714589
 31
0.0
  0
TEXT
  5
6A2
  8
0
 62
     6
 10
-45.48278687019845
 20
-143.9311329310635
 30
0.0
 40
4.0
  1
COP型ﾁｬｯｸは両側ｾﾝﾀｰで御使用下さい。
 41
1.133016642793623
  7
DCSTYLE0
 72
     5
 11
45.37435724715689
 21
-143.9311329310635
 31
0.0
  0
TEXT
  5
6A3
  8
0
 62
     6
 10
-46.76850084085962
 20
-148.4311328714589
 30
0.0
 40
2.0
  1
☆
 41
1.000000441074371
  7
DCSTYLE0
 72
     5
 11
-45.33992878218194
 21
-148.4311328714589
 31
0.0
  0
TEXT
  5
6A4
  8
0
 62
     6
 10
-45.48278687019845
 20
-150.9311329310635
 30
0.0
 40
4.0
  1
COP型ﾁｬｯｸに使用するシリンダーのｽﾄﾛｰｸは、
 41
1.136842119191822
  7
DCSTYLE0
 72
     5
 11
57.37435724715689
 21
-150.9311329310635
 31
0.0
  0
TEXT
  5
6A5
  8
0
 62
     6
 10
-47.48278687019845
 20
-157.9311329310635
 30
0.0
 40
4.0
  1
  ﾁｬｯｸピストンストロークに合った物以外、使用してはいけません。
 41
1.151219522953033
  7
DCSTYLE0
 72
     5
 11
87.3743572471569
 21
-157.9311329310635
 31
0.0
  0
TEXT
  5
6A6
  8
0
 62
     6
 10
-46.76850084085962
 20
-162.4311328714589
 30
0.0
 40
2.0
  1
☆　
 41
1.090909291397442
  7
DCSTYLE0
 72
     5
 11
-43.33992878218194
 21
-162.4311328714589
 31
0.0
  0
TEXT
  5
6A7
  8
0
 62
     6
 10
-43.48278687019845
 20
-164.9311329310635
 30
0.0
 40
4.0
  1
御要望により、フローティング量を調整する事もできます。
 41
1.161490696927775
  7
DCSTYLE0
 72
     5
 11
63.37435724715689
 21
-164.9311329310635
 31
0.0
  0
LINE
  5
6A8
  8
LAYER0014
  6
CONTINUOUS
 62
     7
 10
-54.30552706738015
 20
144.3960765415927
 30
0.0
 11
-60.96762881298562
 21
144.3960765415927
 31
0.0
  0
LINE
  5
6A9
  8
LAYER0014
  6
CONTINUOUS
 62
     7
 10
-53.30552706738015
 20
144.3960765415927
 30
0.0
 11
-54.30552706738015
 21
144.3960765415927
 31
0.0
  0
LINE
  5
6AA
  8
LAYER0014
  6
CONTINUOUS
 62
     7
 10
-53.30552706738015
 20
130.2196763951084
 30
0.0
 11
-53.30552706738015
 21
146.6820720249912
 31
0.0
  0
LINE
  5
6AB
  8
LAYER0014
  6
CONTINUOUS
 62
     7
 10
-54.30552706738015
 20
131.7196763951084
 30
0.0
 11
-54.30552706738015
 21
146.6820720249912
 31
0.0
  0
LINE
  5
6AC
  8
LAYER0014
  6
CONTINUOUS
 62
     7
 10
-156.5055240156223
 20
142.3327373081943
 30
0.0
 11
-198.8728716447216
 21
142.3327373081943
 31
0.0
  0
LINE
  5
6AD
  8
LAYER0014
  6
CONTINUOUS
 62
     7
 10
-148.3055118085911
 20
142.3327373081943
 30
0.0
 11
-156.5055240156223
 21
142.3327373081943
 31
0.0
  0
LINE
  5
6AE
  8
LAYER0014
  6
CONTINUOUS
 62
     7
 10
-23.39363703747293
 20
93.17967639510837
 30
0.0
 11
-23.39363703747293
 21
109.7579463536045
 31
0.0
  0
LINE
  5
6AF
  8
LAYER0014
  6
CONTINUOUS
 62
     7
 10
-23.39363703747293
 20
93.17967639510837
 30
0.0
 11
-23.39363703747293
 21
84.17967639510837
 31
0.0
  0
LINE
  5
6B0
  8
LAYER0014
  6
CONTINUOUS
 62
     7
 10
26.35269506384341
 20
3.115851456874253
 30
0.0
 11
31.40860209447945
 21
6.034873043775093
 31
0.0
  0
LINE
  5
6B1
  8
LAYER0014
  6
CONTINUOUS
 62
     7
 10
26.35269709404841
 20
3.115855578783197
 30
0.0
 11
25.48667128857508
 21
2.615856264236612
 31
0.0
  0
LINE
  5
6B2
  8
LAYER0014
  6
CONTINUOUS
 62
     7
 10
31.10315925765779
 20
-7.112204110391254
 30
0.0
 11
24.34367739444463
 21
4.595585591711
 31
0.0
  0
LINE
  5
6B3
  8
LAYER0014
  6
CONTINUOUS
 62
     7
 10
-11.9726556303074
 20
93.17967639510837
 30
0.0
 11
-11.9726556303074
 21
85.17967639510837
 31
0.0
  0
LINE
  5
6B4
  8
LAYER0014
  6
CONTINUOUS
 62
     7
 10
-34.76552706738016
 20
93.17967639510837
 30
0.0
 11
-10.9726556303074
 21
93.17967639510837
 31
0.0
  0
LINE
  5
6B5
  8
LAYER0014
  6
CONTINUOUS
 62
     7
 10
-50.26552706738016
 20
85.17967639510837
 30
0.0
 11
-10.9726556303074
 21
85.17967639510837
 31
0.0
  0
LINE
  5
6B6
  8
LAYER0014
  6
CONTINUOUS
 62
     7
 10
-53.30552706738015
 20
144.3960765415927
 30
0.0
 11
-46.95552706738015
 21
144.3960765415927
 31
0.0
  0
INSERT
  5
6B7
  8
LAYER0014
 62
     7
  2
_OPEN30
 10
-53.30552706738015
 20
144.3960765415927
 30
0.0
 41
2.499995396844351
 42
2.500007167085477
 50
180.0
  0
LINE
  5
6B8
  8
LAYER0014
  6
CONTINUOUS
 62
     7
 10
-148.3055118085911
 20
142.3327373081943
 30
0.0
 11
-141.9555118085911
 21
142.3327373081943
 31
0.0
  0
INSERT
  5
6B9
  8
LAYER0014
 62
     7
  2
_OPEN30
 10
-148.3055118085911
 20
142.3327373081943
 30
0.0
 41
2.499995396844351
 42
2.500007167085477
 50
180.0
  0
LINE
  5
6BA
  8
LAYER0014
  6
CONTINUOUS
 62
     7
 10
-23.39363703747293
 20
93.17967639510837
 30
0.0
 11
-23.39363703747293
 21
99.52967639510837
 31
0.0
  0
INSERT
  5
6BB
  8
LAYER0014
 62
     7
  2
_OPEN30
 10
-23.39363703747293
 20
93.17967639510837
 30
0.0
 41
2.499995396844351
 42
2.500007167085477
 50
270.0
  0
LINE
  5
6BC
  8
LAYER0014
  6
CONTINUOUS
 62
     7
 10
26.35269709404841
 20
3.115855578783197
 30
0.0
 11
31.85196093050268
 21
6.290851209814245
 31
0.0
  0
INSERT
  5
6BD
  8
LAYER0014
 62
     7
  2
_OPEN30
 10
26.35269709404841
 20
3.115855578783197
 30
0.0
 41
2.499995396844351
 42
2.500007167085477
 50
209.9999544805366
  0
LINE
  5
6BE
  8
LAYER0014
  6
CONTINUOUS
 62
     7
 10
-11.9726556303074
 20
93.17967639510837
 30
0.0
 11
-11.9726556303074
 21
99.52967639510837
 31
0.0
  0
INSERT
  5
6BF
  8
LAYER0014
 62
     7
  2
_OPEN30
 10
-11.9726556303074
 20
93.17967639510837
 30
0.0
 41
2.499995396844351
 42
2.500007167085477
 50
270.0
  0
LINE
  5
6C0
  8
LAYER0014
  6
CONTINUOUS
 62
     7
 10
-60.65552706738016
 20
144.3960765415927
 30
0.0
 11
-54.30552706738015
 21
144.3960765415927
 31
0.0
  0
INSERT
  5
6C1
  8
LAYER0014
 62
     7
  2
_OPEN30
 10
-54.30552706738015
 20
144.3960765415927
 30
0.0
 41
2.499995396844351
 42
2.500007167085477
 50
360.0
  0
LINE
  5
6C2
  8
LAYER0014
  6
CONTINUOUS
 62
     7
 10
-162.8555240156223
 20
142.3327373081943
 30
0.0
 11
-156.5055240156223
 21
142.3327373081943
 31
0.0
  0
INSERT
  5
6C3
  8
LAYER0014
 62
     7
  2
_OPEN30
 10
-156.5055240156223
 20
142.3327373081943
 30
0.0
 41
2.499995396844351
 42
2.500007167085477
 50
360.0
  0
LINE
  5
6C4
  8
LAYER0014
  6
CONTINUOUS
 62
     7
 10
-23.39363703747293
 20
77.82967639510838
 30
0.0
 11
-23.39363703747293
 21
84.17967639510837
 31
0.0
  0
INSERT
  5
6C5
  8
LAYER0014
 62
     7
  2
_OPEN30
 10
-23.39363703747293
 20
84.17967639510837
 30
0.0
 41
2.499995396844351
 42
2.500007167085477
 50
90.0
  0
LINE
  5
6C6
  8
LAYER0014
  6
CONTINUOUS
 62
     7
 10
19.98740745212081
 20
-0.5591393667944367
 30
0.0
 11
25.48667128857508
 21
2.615856264236612
 31
0.0
  0
INSERT
  5
6C7
  8
LAYER0014
 62
     7
  2
_OPEN30
 10
25.48667128857508
 20
2.615856264236612
 30
0.0
 41
2.499995396844351
 42
2.500007167085477
 50
29.99995448053656
  0
LINE
  5
6C8
  8
LAYER0014
  6
CONTINUOUS
 62
     7
 10
-11.9726556303074
 20
78.82967639510838
 30
0.0
 11
-11.9726556303074
 21
85.17967639510837
 31
0.0
  0
INSERT
  5
6C9
  8
LAYER0014
 62
     7
  2
_OPEN30
 10
-11.9726556303074
 20
85.17967639510837
 30
0.0
 41
2.499995396844351
 42
2.500007167085477
 50
90.0
  0
TEXT
  5
6CA
  8
LAYER0014
 62
     7
 10
-60.96762986202737
 20
145.9960765415927
 30
0.0
 40
4.0
  1
1
 41
1.527272727272729
  7
DCSTYLE0
 72
     5
 11
-57.76762986202737
 21
145.9960765415927
 31
0.0
  0
TEXT
  5
6CB
  8
LAYER0014
 62
     7
 10
-197.2162058949655
 20
143.3936209574693
 30
0.0
 40
4.0
  1
MIN8.2
 41
0.9980198019801975
  7
DCSTYLE0
 72
     5
 11
-178.0162058949655
 21
143.3936209574693
 31
0.0
  0
TEXT
  5
6CC
  8
LAYER0014
 62
     7
 10
-24.43920614471967
 20
94.75582207084041
 30
0.0
 40
4.0
  1
MIN8
 50
90.0
 41
0.9464788732394376
  7
DCSTYLE0
 72
     5
 11
-24.43920614471967
 21
107.5558220708404
 31
0.0
  0
TEXT
  5
6CD
  8
LAYER0014
 62
     7
 10
29.02683438459155
 20
6.508659406845664
 30
0.0
 40
3.200000047683716
  1
1
 50
29.89999999999999
 41
1.363636973229314
  7
DCSTYLE0
 72
     5
 11
31.00831358318907
 21
7.648060481184548
 31
0.0
  0
TEXT
  5
6CE
  8
LAYER0014
 62
     7
 10
-13.5726556303074
 20
88.0366763824722
 30
0.0
 40
4.0
  1
8
 50
90.0
 41
0.9882352941176435
  7
DCSTYLE0
 72
     5
 11
-13.5726556303074
 21
91.23667638247218
 31
0.0
  0
INSERT
  5
6CF
  8
0
  6
CONTINUOUS
  2
DC_GROUP_1
 10
0.0
 20
0.0
 30
0.0
  0
INSERT
  5
6D0
  8
0
  6
CONTINUOUS
  2
DC_GROUP_5
 10
0.0
 20
0.0
 30
0.0
  0
INSERT
  5
6D1
  8
0
  6
CONTINUOUS
  2
DA_IMAGEDIMGROUP_24
 10
0.0
 20
0.0
 30
0.0
  0
INSERT
  5
6D2
  8
0
  6
CONTINUOUS
  2
DA_IMAGEDIMGROUP_25
 10
0.0
 20
0.0
 30
0.0
  0
INSERT
  5
6D3
  8
0
  6
CONTINUOUS
  2
DA_IMAGEDIMGROUP_26
 10
0.0
 20
0.0
 30
0.0
  0
INSERT
  5
6D4
  8
0
  6
CONTINUOUS
  2
DA_IMAGEDIMGROUP_27
 10
0.0
 20
0.0
 30
0.0
  0
INSERT
  5
6D5
  8
0
  6
CONTINUOUS
  2
DA_IMAGEDIMGROUP_28
 10
0.0
 20
0.0
 30
0.0
  0
INSERT
  5
6D6
  8
0
  6
CONTINUOUS
  2
DA_IMAGEDIMGROUP_29
 10
0.0
 20
0.0
 30
0.0
  0
INSERT
  5
6D7
  8
0
  6
CONTINUOUS
  2
DA_IMAGEDIMGROUP_30
 10
0.0
 20
0.0
 30
0.0
  0
INSERT
  5
6D8
  8
0
  6
CONTINUOUS
  2
DC_GROUP_6
 10
0.0
 20
0.0
 30
0.0
  0
INSERT
  5
6D9
  8
LAYER0014
  6
CONTINUOUS
  2
DA_IMAGEDIMGROUP_1
 10
0.0
 20
0.0
 30
0.0
  0
INSERT
  5
6DA
  8
LAYER0014
  6
CONTINUOUS
  2
DA_IMAGEDIMGROUP_2
 10
0.0
 20
0.0
 30
0.0
  0
INSERT
  5
6DB
  8
LAYER0014
  6
CONTINUOUS
  2
DA_IMAGEDIMGROUP_3
 10
0.0
 20
0.0
 30
0.0
  0
INSERT
  5
6DC
  8
LAYER0014
  6
CONTINUOUS
  2
DA_IMAGEDIMGROUP_4
 10
0.0
 20
0.0
 30
0.0
  0
INSERT
  5
6DD
  8
LAYER0014
  6
CONTINUOUS
  2
DA_IMAGEDIMGROUP_5
 10
0.0
 20
0.0
 30
0.0
  0
INSERT
  5
6DE
  8
LAYER0014
  6
CONTINUOUS
  2
DA_IMAGEDIMGROUP_6
 10
0.0
 20
0.0
 30
0.0
  0
INSERT
  5
6DF
  8
LAYER0014
  6
CONTINUOUS
  2
DA_IMAGEDIMGROUP_7
 10
0.0
 20
0.0
 30
0.0
  0
INSERT
  5
6E0
  8
LAYER0014
  6
CONTINUOUS
  2
DA_IMAGEDIMGROUP_8
 10
0.0
 20
0.0
 30
0.0
  0
INSERT
  5
6E1
  8
LAYER0014
  6
CONTINUOUS
  2
DA_IMAGEDIMGROUP_9
 10
0.0
 20
0.0
 30
0.0
  0
INSERT
  5
6E2
  8
LAYER0014
  6
CONTINUOUS
  2
DA_IMAGEDIMGROUP_10
 10
0.0
 20
0.0
 30
0.0
  0
INSERT
  5
6E3
  8
LAYER0014
  6
CONTINUOUS
  2
DA_IMAGEDIMGROUP_11
 10
0.0
 20
0.0
 30
0.0
  0
INSERT
  5
6E4
  8
LAYER0014
  6
CONTINUOUS
  2
DA_IMAGEDIMGROUP_12
 10
0.0
 20
0.0
 30
0.0
  0
INSERT
  5
6E5
  8
LAYER0014
  6
CONTINUOUS
  2
DA_IMAGEDIMGROUP_13
 10
0.0
 20
0.0
 30
0.0
  0
INSERT
  5
6E6
  8
LAYER0014
  6
CONTINUOUS
  2
DA_IMAGEDIMGROUP_14
 10
0.0
 20
0.0
 30
0.0
  0
INSERT
  5
6E7
  8
LAYER0014
  6
CONTINUOUS
  2
DC_GROUP_2
 10
0.0
 20
0.0
 30
0.0
  0
INSERT
  5
6E8
  8
LAYER0014
  6
CONTINUOUS
  2
DA_IMAGEDIMGROUP_15
 10
0.0
 20
0.0
 30
0.0
  0
INSERT
  5
6E9
  8
LAYER0014
  6
CONTINUOUS
  2
DA_IMAGEDIMGROUP_16
 10
0.0
 20
0.0
 30
0.0
  0
INSERT
  5
6EA
  8
LAYER0014
  6
CONTINUOUS
  2
DA_IMAGEDIMGROUP_17
 10
0.0
 20
0.0
 30
0.0
  0
INSERT
  5
6EB
  8
LAYER0014
  6
CONTINUOUS
  2
DA_IMAGEDIMGROUP_18
 10
0.0
 20
0.0
 30
0.0
  0
INSERT
  5
6EC
  8
LAYER0014
  6
CONTINUOUS
  2
DA_IMAGEDIMGROUP_19
 10
0.0
 20
0.0
 30
0.0
  0
INSERT
  5
6ED
  8
LAYER0014
  6
CONTINUOUS
  2
DA_IMAGEDIMGROUP_20
 10
0.0
 20
0.0
 30
0.0
  0
INSERT
  5
6EE
  8
LAYER0014
  6
CONTINUOUS
  2
DA_IMAGEDIMGROUP_21
 10
0.0
 20
0.0
 30
0.0
  0
INSERT
  5
6EF
  8
LAYER0014
  6
CONTINUOUS
  2
DA_IMAGEDIMGROUP_22
 10
0.0
 20
0.0
 30
0.0
  0
INSERT
  5
6F0
  8
LAYER0014
  6
CONTINUOUS
  2
DC_GROUP_3
 10
0.0
 20
0.0
 30
0.0
  0
INSERT
  5
6F1
  8
LAYER0014
  6
CONTINUOUS
  2
DA_IMAGEDIMGROUP_23
 10
0.0
 20
0.0
 30
0.0
  0
INSERT
  5
6F2
  8
LAYER0014
  6
CONTINUOUS
  2
DC_GROUP_4
 10
0.0
 20
0.0
 30
0.0
  0
LINE
  5
6F3
  8
0
  6
CONTINUOUS
 62
     4
 10
221.2871343922613
 20
-1.583451062799185
 30
0.0
 11
226.7871312332147
 21
7.942821600600411
 31
0.0
  0
LINE
  5
6F4
  8
0
  6
CONTINUOUS
 62
     4
 10
177.9925758169985
 20
51.42811213550252
 30
0.0
 11
181.2304850181891
 21
53.29751967788573
 31
0.0
  0
ARC
  5
6F5
  8
0
  6
CONTINUOUS
 62
     4
 10
153.023376130862
 20
44.17967639510837
 30
0.0
 40
26.0
 50
0.0
 51
16.1877583612472
  0
LINE
  5
6F6
  8
0
  6
DASHED
 62
     4
 10
222.6355558604866
 20
-5.248509658927532
 30
0.0
 11
216.5733773083359
 21
-1.748510702008815
 31
0.0
  0
LINE
  5
6F7
  8
0
  6
DASHED
 62
     4
 10
230.6355666908014
 20
8.607890830881871
 30
0.0
 11
224.5733881386506
 21
12.10788978780059
 31
0.0
  0
LINE
  5
6F8
  8
0
  6
CONTINUOUS
 62
     5
 10
206.8962823214463
 20
91.8290383556238
 30
0.0
 11
203.1462813677719
 21
98.32423041924224
 31
0.0
  0
LINE
  5
6F9
  8
0
  6
CONTINUOUS
 62
     5
 10
193.9058863759867
 20
84.32903402985394
 30
0.0
 11
206.8962671995989
 21
91.82903402985394
 31
0.0
  0
LINE
  5
6FA
  8
0
  6
CONTINUOUS
 62
     5
 10
193.905901497834
 20
84.3290383556238
 30
0.0
 11
188.2808986368111
 21
94.07182892876997
 31
0.0
  0
LINE
  5
6FB
  8
0
  6
CONTINUOUS
 62
     5
 10
188.2808854223124
 20
94.07182129937544
 30
0.0
 11
190.2294425458542
 21
95.19682129937544
 31
0.0
  0
LINE
  5
6FC
  8
0
  6
CONTINUOUS
 62
     5
 10
190.7919576677016
 20
94.22254706337438
 30
0.0
 11
190.2294595750502
 21
95.19682232152061
 31
0.0
  0
LINE
  5
6FD
  8
0
  6
CONTINUOUS
 62
     5
 10
190.7919444532028
 20
94.22253943397985
 30
0.0
 11
192.0909825355641
 21
94.97253943397985
 31
0.0
  0
LINE
  5
6FE
  8
0
  6
CONTINUOUS
 62
     5
 10
192.6534957500628
 20
93.99826850160346
 30
0.0
 11
192.0909957500628
 21
94.97254706337438
 31
0.0
  0
LINE
  5
6FF
  8
0
  6
CONTINUOUS
 62
     5
 10
194.702533832424
 20
93.44923041924224
 30
0.0
 11
193.952533832424
 21
94.74826850160346
 31
0.0
  0
LINE
  5
700
  8
0
  6
CONTINUOUS
 62
     5
 10
192.6534806282154
 20
93.99826417583361
 30
0.0
 11
193.9525187105766
 21
94.74826417583361
 31
0.0
  0
LINE
  5
701
  8
0
  6
CONTINUOUS
 62
     5
 10
190.155887329661
 20
90.82422278984771
 30
0.0
 11
203.1462681532732
 21
98.32422278984771
 31
0.0
  0
LINE
  5
702
  8
0
  6
CONTINUOUS
 62
     5
 10
200.7761041704645
 20
87.42952859565005
 30
0.0
 11
203.0261041704645
 21
83.53241434856639
 31
0.0
  0
LINE
  5
703
  8
0
  6
CONTINUOUS
 62
     5
 10
203.0260673320178
 20
83.53242970739441
 30
0.0
 11
202.0015545578469
 21
83.80694708016975
 31
0.0
  0
LINE
  5
704
  8
0
  6
CONTINUOUS
 62
     5
 10
203.026147152771
 20
83.53239954138192
 30
0.0
 11
203.3006683799804
 21
84.55692711763189
 31
0.0
  0
LINE
  5
705
  8
0
  6
CONTINUOUS
 62
     5
 10
200.5016176680351
 20
86.40499968738689
 30
0.0
 11
200.7761388952444
 21
87.42952726363686
 31
0.0
  0
LINE
  5
706
  8
0
  6
CONTINUOUS
 62
     5
 10
201.8005870616741
 20
87.15503620243956
 30
0.0
 11
200.7760742875032
 21
87.4295535752149
 31
0.0
  0
LINE
  5
707
  8
0
  6
CONTINUOUS
 62
     5
 10
194.8264572457249
 20
96.2346312480868
 30
0.0
 11
195.1009784729342
 21
97.25915882433677
 31
0.0
  0
LINE
  5
708
  8
0
  6
CONTINUOUS
 62
     5
 10
195.1009297999983
 20
97.25918142584081
 30
0.0
 11
194.0764170258273
 21
97.53369879861614
 31
0.0
  0
LINE
  5
709
  8
0
  6
CONTINUOUS
 62
     5
 10
192.5378362962467
 20
95.779315499977
 30
0.0
 11
195.1009468973509
 21
97.25912812204731
 31
0.0
  0
LINE
  5
70A
  8
0
  6
CONTINUOUS
 62
     5
 10
199.2620330643597
 20
93.80351185926386
 30
0.0
 11
198.4953223335808
 21
93.18264188193692
 31
0.0
  0
LINE
  5
70B
  8
0
  6
CONTINUOUS
 62
     5
 10
199.2620559793006
 20
93.80351740393465
 30
0.0
 11
198.6411954870329
 21
94.57021615879924
 31
0.0
  0
ARC
  5
70C
  8
0
  6
CONTINUOUS
 62
     5
 10
198.5826565263698
 20
91.2679408604404
 30
0.0
 40
2.625001907348633
 50
75.00010795499728
 51
9.999953377944937
  0
TEXT
  5
70D
  8
0
 62
     5
 10
155.8948070047329
 20
-26.12032284195217
 30
0.0
 40
4.0
  1
COP-7
 41
0.9252337651832082
  7
DCSTYLE0
 72
     5
 11
174.7519523141811
 21
-26.12032284195217
 31
0.0
  0
TEXT
  5
70E
  8
0
 62
     5
 10
124.5376563308666
 20
-26.62032284195217
 30
0.0
 40
5.0
  1
NIKKO
 41
1.08791221838731
  7
DCSTYLE0
 72
     5
 11
148.1090877292583
 21
-26.62032284195217
 31
0.0
  0
TEXT
  5
70F
  8
0
 62
     5
 10
156.2519501684139
 20
-32.62032284195217
 30
0.0
 40
3.0
  1
0001
 41
1.098591601344901
  7
DCSTYLE0
 72
     5
 11
167.3948078391979
 21
-32.62032284195217
 31
0.0
  0
TEXT
  5
710
  8
0
 62
     5
 10
232.529367206853
 20
59.0712773033923
 30
0.0
 40
2.5
  1
N MAX 4000 AT ΣS MAX
 50
120.0
 41
1.050801549553871
  7
DCSTYLE0
 72
     5
 11
207.5102826936656
 21
102.4056028390926
 31
0.0
  0
TEXT
  5
711
  8
0
 62
     5
 10
225.6011598093921
 20
55.0712773033923
 30
0.0
 40
2.5
  1
F MAX  14KN
 50
120.0
 41
1.028987038457716
  7
DCSTYLE0
 72
     5
 11
212.0038310869151
 21
78.622541497938
 31
0.0
  0
TEXT
  5
712
  8
0
 62
     5
 10
229.0652711375171
 20
57.0712773033923
 30
0.0
 40
2.5
  1
ΣS MAX 25KN
 50
120.0
 41
1.033643088405488
  7
DCSTYLE0
 72
     5
 11
215.4679424150401
 21
80.622541497938
 31
0.0
  0
TEXT
  5
713
  8
0
 62
     5
 10
194.0952848477775
 20
98.6461286350315
 30
0.0
 40
2.5
  1
ΣS
 50
120.0
 41
1.265934348106384
  7
DCSTYLE0
 72
     5
 11
191.4579216225559
 21
103.2141757391291
 31
0.0
  0
TEXT
  5
714
  8
0
 62
     5
 10
200.7500700040275
 20
83.71483133278541
 30
0.0
 40
2.5
  1
F
 50
120.0
 41
1.085973374983844
  7
DCSTYLE0
 72
     5
 11
199.6511683745796
 21
85.61818478750946
 31
0.0
  0
TEXT
  5
715
  8
0
 62
     5
 10
203.364819197219
 20
94.22416917608393
 30
0.0
 40
2.5
  1
N min
 50
120.0
 41
1.0828125
  7
DCSTYLE0
 72
     5
 11
197.177319197219
 21
104.9412335479164
 31
0.0
  0
TEXT
  5
716
  8
0
 62
     5
 10
193.0288981477218
 20
103.9534319935208
 30
0.0
 40
1.25
  1
-1
 50
120.0
 41
1.021621743408409
  7
DCSTYLE0
 72
     5
 11
191.9038980136114
 21
105.9019893843219
 31
0.0
  0
VIEWPORT
  5
AF
 67
     1
  8
0
 10
0.0
 20
0.0
 30
0.0
 40
1662.0
 41
1140.0
 68
     1
 69
     1
1001
ACAD
1000
MVIEW
1002
{
1070
    16
1010
0.0
1020
0.0
1030
0.0
1010
0.0
1020
0.0
1030
1.0
1040
0.0
1040
1140.0
1040
0.0
1040
0.0
1040
50.0
1040
0.0
1040
0.0
1070
     0
1070
   100
1070
     0
1070
     3
1070
     0
1070
     0
1070
     0
1070
     0
1040
0.0
1040
0.0
1040
0.0
1040
0.5
1040
0.5
1040
0.0
1040
0.0
1070
     0
1002
{
1002
}
1002
}
  0
ENDSEC
  0
EOF
