  0
SECTION
  2
HEADER
  9
$ACADVER
  1
AC1009
  9
$DWGCODEPAGE
  3
ansi_932
  9
$INSBASE
 10
0.0
 20
0.0
 30
0.0
  9
$EXTMIN
 10
-831.0
 20
-569.9999999999999
 30
0.0
  9
$EXTMAX
 10
831.0
 20
569.9999999999999
 30
0.0
  9
$LIMMIN
 10
-297.0
 20
-210.0
  9
$LIMMAX
 10
297.0
 20
210.0
  9
$ORTHOMODE
 70
     0
  9
$REGENMODE
 70
     1
  9
$FILLMODE
 70
     1
  9
$QTEXTMODE
 70
     0
  9
$MIRRTEXT
 70
     1
  9
$DRAGMODE
 70
     2
  9
$LTSCALE
 40
1.0
  9
$OSMODE
 70
    37
  9
$ATTMODE
 70
     1
  9
$TEXTSIZE
 40
0.2
  9
$TRACEWID
 40
0.05
  9
$TEXTSTYLE
  7
STANDARD
  9
$CLAYER
  8
0
  9
$CELTYPE
  6
BYLAYER
  9
$CECOLOR
 62
   256
  9
$DIMSCALE
 40
1.0
  9
$DIMASZ
 40
2.5
  9
$DIMEXO
 40
0.0625
  9
$DIMDLI
 40
0.38
  9
$DIMRND
 40
0.0
  9
$DIMDLE
 40
0.0
  9
$DIMEXE
 40
0.18
  9
$DIMTP
 40
0.0
  9
$DIMTM
 40
0.0
  9
$DIMTXT
 40
0.18
  9
$DIMCEN
 40
0.09
  9
$DIMTSZ
 40
0.0
  9
$DIMTOL
 70
     0
  9
$DIMLIM
 70
     0
  9
$DIMTIH
 70
     1
  9
$DIMTOH
 70
     1
  9
$DIMSE1
 70
     0
  9
$DIMSE2
 70
     0
  9
$DIMTAD
 70
     3
  9
$DIMZIN
 70
     0
  9
$DIMBLK
  1

  9
$DIMASO
 70
     1
  9
$DIMSHO
 70
     1
  9
$DIMPOST
  1

  9
$DIMAPOST
  1

  9
$DIMALT
 70
     0
  9
$DIMALTD
 70
     2
  9
$DIMALTF
 40
25.4
  9
$DIMLFAC
 40
1.0
  9
$DIMTOFL
 70
     0
  9
$DIMTVP
 40
0.0
  9
$DIMTIX
 70
     0
  9
$DIMSOXD
 70
     0
  9
$DIMSAH
 70
     0
  9
$DIMBLK1
  1

  9
$DIMBLK2
  1

  9
$DIMSTYLE
  2
STANDARD
  9
$DIMCLRD
 70
     0
  9
$DIMCLRE
 70
     0
  9
$DIMCLRT
 70
     0
  9
$DIMTFAC
 40
1.0
  9
$DIMGAP
 40
0.09
  9
$LUNITS
 70
     2
  9
$LUPREC
 70
     4
  9
$SKETCHINC
 40
0.1
  9
$FILLETRAD
 40
0.5
  9
$AUNITS
 70
     0
  9
$AUPREC
 70
     0
  9
$MENU
  1
.
  9
$ELEVATION
 40
0.0
  9
$PELEVATION
 40
0.0
  9
$THICKNESS
 40
0.0
  9
$LIMCHECK
 70
     0
  9
$CHAMFERA
 40
0.5
  9
$CHAMFERB
 40
0.5
  9
$SKPOLY
 70
     0
  9
$TDCREATE
 40
2456329.668526076
  9
$TDUPDATE
 40
2456329.668526088
  9
$TDINDWG
 40
0.0000000116
  9
$TDUSRTIMER
 40
0.0000000116
  9
$USRTIMER
 70
     1
  9
$ANGBASE
 50
0.0
  9
$ANGDIR
 70
     0
  9
$PDMODE
 70
     0
  9
$PDSIZE
 40
1.0
  9
$PLINEWID
 40
0.0
  9
$COORDS
 70
     1
  9
$SPLFRAME
 70
     0
  9
$SPLINETYPE
 70
     6
  9
$SPLINESEGS
 70
     8
  9
$ATTDIA
 70
     0
  9
$ATTREQ
 70
     1
  9
$HANDLING
 70
     1
  9
$HANDSEED
  5
73C
  9
$SURFTAB1
 70
     6
  9
$SURFTAB2
 70
     6
  9
$SURFTYPE
 70
     6
  9
$SURFU
 70
     6
  9
$SURFV
 70
     6
  9
$UCSNAME
  2

  9
$UCSORG
 10
0.0
 20
0.0
 30
0.0
  9
$UCSXDIR
 10
1.0
 20
0.0
 30
0.0
  9
$UCSYDIR
 10
0.0
 20
1.0
 30
0.0
  9
$PUCSNAME
  2

  9
$PUCSORG
 10
0.0
 20
0.0
 30
0.0
  9
$PUCSXDIR
 10
1.0
 20
0.0
 30
0.0
  9
$PUCSYDIR
 10
0.0
 20
1.0
 30
0.0
  9
$USERI1
 70
     0
  9
$USERI2
 70
     0
  9
$USERI3
 70
     0
  9
$USERI4
 70
     0
  9
$USERI5
 70
     0
  9
$USERR1
 40
0.0
  9
$USERR2
 40
0.0
  9
$USERR3
 40
0.0
  9
$USERR4
 40
0.0
  9
$USERR5
 40
0.0
  9
$WORLDVIEW
 70
     1
  9
$SHADEDGE
 70
     3
  9
$SHADEDIF
 70
    70
  9
$TILEMODE
 70
     1
  9
$MAXACTVP
 70
    64
  9
$PLIMCHECK
 70
     0
  9
$PEXTMIN
 10
1.000000000000000E+20
 20
1.000000000000000E+20
 30
1.000000000000000E+20
  9
$PEXTMAX
 10
-1.000000000000000E+20
 20
-1.000000000000000E+20
 30
-1.000000000000000E+20
  9
$PLIMMIN
 10
0.0
 20
0.0
  9
$PLIMMAX
 10
12.0
 20
9.0
  9
$UNITMODE
 70
     0
  9
$VISRETAIN
 70
     0
  9
$PLINEGEN
 70
     1
  9
$PSLTSCALE
 70
     0
  0
ENDSEC
  0
SECTION
  2
TABLES
  0
TABLE
  2
VPORT
 70
     1
  0
VPORT
  2
*ACTIVE
 70
     0
 10
0.0
 20
0.0
 11
1.0
 21
1.0
 12
0.0
 22
0.0
 13
0.0
 23
0.0
 14
0.5
 24
0.5
 15
0.5
 25
0.5
 16
0.0
 26
0.0
 36
1.0
 17
-0.0000000000000036
 27
0.0
 37
0.0
 40
387.6
 41
1.457894736842106
 42
50.0
 43
0.0
 44
0.0
 50
0.0
 51
0.0
 71
     0
 72
  1000
 73
     1
 74
     1
 75
     0
 76
     0
 77
     0
 78
     0
  0
ENDTAB
  0
TABLE
  2
LTYPE
 70
    28
  0
LTYPE
  2
CONTINUOUS
 70
     0
  3
Solid line
 72
    65
 73
     0
 40
0.0
  0
LTYPE
  2
HIDDENX2
 70
     0
  3
CADPAC LINETYPE
 72
    65
 73
     2
 40
10.30674846625766
 49
7.730061349693244
 49
-2.576687116564415
  0
LTYPE
  2
HIDDEN
 70
     0
  3
CADPAC LINETYPE
 72
    65
 73
     2
 40
7.730061349693244
 49
5.15337423312883
 49
-2.576687116564415
  0
LTYPE
  2
HIDDEN2
 70
     0
  3
CADPAC LINETYPE
 72
    65
 73
     2
 40
6.441717791411037
 49
3.865030674846622
 49
-2.576687116564415
  0
LTYPE
  2
DASHED
 70
     0
  3
CADPAC LINETYPE
 72
    65
 73
     2
 40
7.214723926380373
 49
5.15337423312883
 49
-2.061349693251543
  0
LTYPE
  2
DASHED2
 70
     0
  3
CADPAC LINETYPE
 72
    65
 73
     2
 40
4.638036809815958
 49
3.092024539877286
 49
-1.546012269938672
  0
LTYPE
  2
DASHEDX2
 70
     0
  3
CADPAC LINETYPE
 72
    65
 73
     2
 40
12.3680981595092
 49
10.30674846625766
 49
-2.061349693251543
  0
LTYPE
  2
DOTX2
 70
     0
  3
CADPAC LINETYPE
 72
    65
 73
     2
 40
4.509202453987768
 49
0.0
 49
-4.509202453987768
  0
LTYPE
  2
DOT
 70
     0
  3
CADPAC LINETYPE
 72
    65
 73
     2
 40
3.607361963190215
 49
0.0
 49
-3.607361963190215
  0
LTYPE
  2
DOT2
 70
     0
  3
CADPAC LINETYPE
 72
    65
 73
     2
 40
2.705521472392661
 49
0.0
 49
-2.705521472392661
  0
LTYPE
  2
CENTERX2
 70
     0
  3
CADPAC LINETYPE
 72
    65
 73
     4
 40
15.46012269938649
 49
6.441717791411037
 49
-3.220858895705518
 49
2.576687116564415
 49
-3.220858895705518
  0
LTYPE
  2
CENTER
 70
     0
  3
CADPAC LINETYPE
 72
    65
 73
     4
 40
11.85276073619631
 49
5.15337423312883
 49
-2.576687116564415
 49
1.546012269938649
 49
-2.576687116564415
  0
LTYPE
  2
CENTER2
 70
     0
  3
CADPAC LINETYPE
 72
    65
 73
     4
 40
8.245398773006126
 49
3.865030674846622
 49
-1.932515337423311
 49
0.515337423312883
 49
-1.932515337423311
  0
LTYPE
  2
DASHDOTX2
 70
     0
  3
CADPAC LINETYPE
 72
    65
 73
     4
 40
24.73619631901846
 49
12.3680981595092
 49
-4.122699386503086
 49
4.122699386503086
 49
-4.122699386503086
  0
LTYPE
  2
DASHDOT
 70
     0
  3
CADPAC LINETYPE
 72
    65
 73
     4
 40
12.36809815950926
 49
6.18404907975463
 49
-2.061349693251543
 49
2.061349693251543
 49
-2.061349693251543
  0
LTYPE
  2
DASHDOT2
 70
     0
  3
CADPAC LINETYPE
 72
    65
 73
     4
 40
7.936196319018441
 49
4.638036809815972
 49
-1.546012269938657
 49
0.2061349693251543
 49
-1.546012269938657
  0
LTYPE
  2
DIVIDEX2
 70
     0
  3
CADPAC LINETYPE
 72
    65
 73
     6
 40
32.98159509202463
 49
12.3680981595092
 49
-4.122699386503086
 49
4.122699386503086
 49
-4.122699386503086
 49
4.122699386503086
 49
-4.122699386503086
  0
LTYPE
  2
DIVIDE
 70
     0
  3
CADPAC LINETYPE
 72
    65
 73
     6
 40
16.49079754601235
 49
6.18404907975463
 49
-2.061349693251543
 49
2.061349693251543
 49
-2.061349693251543
 49
2.061349693251543
 49
-2.061349693251543
  0
LTYPE
  2
DIVIDE2
 70
     0
  3
CADPAC LINETYPE
 72
    65
 73
     6
 40
12.36809815950926
 49
4.638036809815972
 49
-1.546012269938657
 49
1.546012269938657
 49
-1.546012269938657
 49
1.546012269938657
 49
-1.546012269938657
  0
LTYPE
  2
BORDERX2
 70
     0
  3
CADPAC LINETYPE
 72
    65
 73
     6
 40
22.54601226993863
 49
6.441717791411037
 49
-3.220858895705518
 49
6.441717791411037
 49
-3.220858895705518
 49
0.0
 49
-3.220858895705518
  0
LTYPE
  2
BORDER
 70
     0
  3
CADPAC LINETYPE
 72
    65
 73
     6
 40
18.0368098159509
 49
5.15337423312883
 49
-2.576687116564415
 49
5.15337423312883
 49
-2.576687116564415
 49
0.0
 49
-2.576687116564415
  0
LTYPE
  2
BORDER2
 70
     0
  3
CADPAC LINETYPE
 72
    65
 73
     6
 40
13.398773006135
 49
4.122699386503086
 49
-2.576687116564415
 49
1.546012269938672
 49
-2.576687116564415
 49
0.0
 49
-2.576687116564415
  0
LTYPE
  2
PHANTOMX2
 70
     0
  3
CADPAC LINETYPE
 72
    65
 73
     6
 40
19.32515337423311
 49
6.441717791411037
 49
-2.576687116564415
 49
2.576687116564415
 49
-2.576687116564415
 49
2.576687116564415
 49
-2.576687116564415
  0
LTYPE
  2
PHANTOM
 70
     0
  3
CADPAC LINETYPE
 72
    65
 73
     6
 40
15.97546012269937
 49
5.15337423312883
 49
-2.576687116564415
 49
1.546012269938649
 49
-2.576687116564415
 49
1.546012269938649
 49
-2.576687116564415
  0
LTYPE
  2
PHANTOM2
 70
     0
  3
CADPAC LINETYPE
 72
    65
 73
     6
 40
13.6564417177914
 49
3.865030674846622
 49
-2.576687116564415
 49
1.030674846625766
 49
-2.576687116564415
 49
1.030674846625766
 49
-2.576687116564415
  0
LTYPE
  2
ACAD_ISO06W100
 70
     0
  3
CADPAC LINETYPE
 72
    65
 73
     8
 40
27.31288343558288
 49
12.3680981595092
 49
-2.576687116564415
 49
1.546012269938672
 49
-2.576687116564415
 49
1.546012269938672
 49
-2.576687116564415
 49
1.546012269938672
 49
-2.576687116564415
  0
LTYPE
  2
ACAD_ISO13W100
 70
     0
  3
CADPAC LINETYPE
 72
    65
 73
     8
 40
20.61349693251532
 49
5.15337423312883
 49
-2.576687116564415
 49
5.15337423312883
 49
-2.576687116564415
 49
0.0
 49
-2.576687116564415
 49
0.0
 49
-2.576687116564415
  0
LTYPE
  2
ACAD_ISO14W100
 70
     0
  3
CADPAC LINETYPE
 72
    65
 73
     8
 40
15.46012269938649
 49
5.15337423312883
 49
-2.576687116564415
 49
0.0
 49
-2.576687116564415
 49
0.0
 49
-2.576687116564415
 49
0.0
 49
-2.576687116564415
  0
ENDTAB
  0
TABLE
  2
LAYER
 70
     3
  0
LAYER
  2
0
 70
     0
 62
     7
  6
CONTINUOUS
  0
LAYER
  2
LAYER0014
 70
     0
 62
     7
  6
CONTINUOUS
  0
LAYER
  2
ZUWAKU
 70
     0
 62
     7
  6
CONTINUOUS
  0
ENDTAB
  0
TABLE
  2
STYLE
 70
     5
  0
STYLE
  2
STANDARD
 70
     0
 40
0.0
 41
1.0
 50
0.0
 71
     0
 42
0.2
  3
txt
  4

  0
STYLE
  2
FDASTYLE1
 70
     0
 40
0.0
 41
0.8000000000000002
 50
0.0
 71
     0
 42
0.2
  3
txt.shx
  4
bigfont
  0
STYLE
  2
FDASTYLE0
 70
     4
 40
0.0
 41
0.8
 50
0.0
 71
     0
 42
0.2
  3
txt.shx
  4
bigfont
  0
STYLE
  2
FDASTYLE2
 70
     0
 40
0.0
 41
0.8123476848090983
 50
0.0
 71
     0
 42
0.2
  3
MSMINCHO.TTC
  4

  0
STYLE
  2
FDASTYLE3
 70
     0
 40
0.0
 41
0.77
 50
0.0
 71
     0
 42
0.2
  3
MSGOTHIC.TTC
  4

  0
ENDTAB
  0
TABLE
  2
VIEW
 70
     0
  0
ENDTAB
  0
TABLE
  2
UCS
 70
     0
  0
ENDTAB
  0
TABLE
  2
APPID
 70
     2
  0
APPID
  2
ACAD
 70
     0
  0
APPID
  2
DAFUSIONOUT
 70
     0
  0
ENDTAB
  0
TABLE
  2
DIMSTYLE
 70
     1
  0
DIMSTYLE
  2
STANDARD
 70
     0
  3

  4

  5

  6

  7

 40
1.0
 41
0.18
 42
0.0625
 43
0.38
 44
0.18
 45
0.0
 46
0.0
 47
0.0
 48
0.0
140
0.18
141
0.09
142
0.0
143
25.4
144
1.0
145
0.0
146
1.0
147
0.09
 71
     0
 72
     0
 73
     1
 74
     1
 75
     0
 76
     0
 77
     0
 78
     0
170
     0
171
     2
172
     0
173
     0
174
     0
175
     0
176
     0
177
     0
178
     0
  0
ENDTAB
  0
ENDSEC
  0
SECTION
  2
BLOCKS
  0
BLOCK
  8
0
  2
$MODEL_SPACE
 70
     0
 10
0.0
 20
0.0
 30
0.0
  3
$MODEL_SPACE
  1

  0
ENDBLK
  5
21
  8
0
  0
BLOCK
 67
     1
  8
0
  2
$PAPER_SPACE
 70
     0
 10
0.0
 20
0.0
 30
0.0
  3
$PAPER_SPACE
  1

  0
ENDBLK
  5
1D
 67
     1
  8
0
  0
BLOCK
  8
0
  2
DA_IMAGEDIMGROUP_1
 70
     0
 10
0.0
 20
0.0
 30
0.0
  3
DA_IMAGEDIMGROUP_1
  1

  0
LINE
  5
D3
  8
LAYER0014
  6
CONTINUOUS
 62
     7
 10
-159.0431744084396
 20
135.2768906576504
 30
0.0
 11
-159.0431744084396
 21
161.5676096517911
 31
0.0
  0
LINE
  5
D4
  8
LAYER0014
  6
CONTINUOUS
 62
     7
 10
-182.6453472600021
 20
159.2816141683926
 30
0.0
 11
-159.0431744084396
 21
159.2816141683926
 31
0.0
  0
LINE
  5
D5
  8
LAYER0014
  6
CONTINUOUS
 62
     7
 10
-208.9771972600021
 20
159.2816141683926
 30
0.0
 11
-182.6453472600021
 21
159.2816141683926
 31
0.0
  0
INSERT
  5
DC
  8
LAYER0014
 62
     7
  2
_OPEN30
 10
-182.6453472600021
 20
159.2816141683926
 30
0.0
 41
1.50000139391263
 42
1.499998500689492
 50
360.0
  0
TEXT
  5
DE
  8
LAYER0014
 62
     7
 10
-207.9771972600021
 20
159.7816141683926
 30
0.0
 40
4.0
  1
MAX23.7
 41
0.8000000000000002
  7
FDASTYLE1
 72
     5
 11
-185.5771972600021
 21
159.7816141683926
 31
0.0
  0
ENDBLK
  5
4E
  8
0
  0
BLOCK
  8
0
  2
DA_IMAGEDIMGROUP_2
 70
     0
 10
0.0
 20
0.0
 30
0.0
  3
DA_IMAGEDIMGROUP_2
  1

  0
LINE
  5
DF
  8
LAYER0014
  6
CONTINUOUS
 62
     7
 10
-182.6453472600021
 20
67.27688684295316
 30
0.0
 11
-182.6453472600021
 21
171.4114206869473
 31
0.0
  0
LINE
  5
E0
  8
LAYER0014
  6
CONTINUOUS
 62
     7
 10
-157.6453472600021
 20
67.27688684295316
 30
0.0
 11
-157.6453472600021
 21
171.4114206869473
 31
0.0
  0
LINE
  5
E1
  8
LAYER0014
  6
CONTINUOUS
 62
     7
 10
-182.6453472600021
 20
169.1254252035489
 30
0.0
 11
-157.6453472600021
 21
169.1254252035489
 31
0.0
  0
INSERT
  5
E2
  8
LAYER0014
 62
     7
  2
_OPEN30
 10
-182.6453472600021
 20
169.1254252035489
 30
0.0
 41
1.50000139391263
 42
1.499998500689492
 50
180.0
  0
INSERT
  5
E3
  8
LAYER0014
 62
     7
  2
_OPEN30
 10
-157.6453472600021
 20
169.1254252035489
 30
0.0
 41
1.50000139391263
 42
1.499998500689492
 50
360.0
  0
TEXT
  5
E4
  8
LAYER0014
 62
     7
 10
-181.3453472600021
 20
169.6254252035489
 30
0.0
 40
4.0
  1
ｽﾄﾛｰｸ25
 41
0.7999999999999992
  7
FDASTYLE1
 72
     5
 11
-158.9453472600021
 21
169.6254252035489
 31
0.0
  0
ENDBLK
  5
51
  8
0
  0
BLOCK
  8
0
  2
DA_IMAGEDIMGROUP_3
 70
     0
 10
0.0
 20
0.0
 30
0.0
  3
DA_IMAGEDIMGROUP_3
  1

  0
LINE
  5
E5
  8
LAYER0014
  6
CONTINUOUS
 62
     7
 10
-239.8731047814411
 20
9.236887796627476
 30
0.0
 11
-239.8731047814411
 21
66.23688684295317
 31
0.0
  0
INSERT
  5
E6
  8
LAYER0014
 62
     7
  2
_OPEN30
 10
-239.8731047814411
 20
9.236887796627476
 30
0.0
 41
1.50000139391263
 42
1.499998500689492
 50
270.0
  0
INSERT
  5
E7
  8
LAYER0014
 62
     7
  2
_OPEN30
 10
-239.8731047814411
 20
66.23688684295317
 30
0.0
 41
1.50000139391263
 42
1.499998500689492
 50
90.0
  0
LINE
  5
E8
  8
LAYER0014
  6
CONTINUOUS
 62
     7
 10
-171.1853472600021
 20
9.236887796627471
 30
0.0
 11
-240.8731047814411
 21
9.236887796627476
 31
0.0
  0
LINE
  5
E9
  8
LAYER0014
  6
CONTINUOUS
 62
     7
 10
-171.1853472600021
 20
66.23688684295317
 30
0.0
 11
-240.8731047814411
 21
66.23688684295317
 31
0.0
  0
TEXT
  5
EA
  8
LAYER0014
 62
     7
 10
-240.3814823575974
 20
32.93689463060653
 30
0.0
 40
4.0
  1
φ57
 50
89.90000000000001
 41
0.7500000000000012
  7
FDASTYLE1
 72
     5
 11
-240.3647272052848
 21
42.53688000897411
 31
0.0
  0
ENDBLK
  5
54
  8
0
  0
BLOCK
  8
0
  2
DA_IMAGEDIMGROUP_4
 70
     0
 10
0.0
 20
0.0
 30
0.0
  3
DA_IMAGEDIMGROUP_4
  1

  0
LINE
  5
EB
  8
LAYER0014
  6
CONTINUOUS
 62
     7
 10
-248.1570202258503
 20
-13.26311124969821
 30
0.0
 11
-248.1570202258503
 21
88.73689065765043
 31
0.0
  0
INSERT
  5
EC
  8
LAYER0014
 62
     7
  2
_OPEN30
 10
-248.1570202258503
 20
-13.26311124969821
 30
0.0
 41
1.50000139391263
 42
1.499998500689492
 50
270.0
  0
INSERT
  5
ED
  8
LAYER0014
 62
     7
  2
_OPEN30
 10
-248.1570202258503
 20
88.73689065765043
 30
0.0
 41
1.50000139391263
 42
1.499998500689492
 50
90.0
  0
LINE
  5
EE
  8
LAYER0014
  6
CONTINUOUS
 62
     7
 10
-161.5831744084396
 20
-13.26311124969821
 30
0.0
 11
-249.1570202258503
 21
-13.26311124969821
 31
0.0
  0
LINE
  5
EF
  8
LAYER0014
  6
CONTINUOUS
 62
     7
 10
-161.5831744084396
 20
88.73689065765043
 30
0.0
 11
-249.1570202258503
 21
88.73689065765043
 31
0.0
  0
TEXT
  5
F0
  8
LAYER0014
 62
     7
 10
-248.673775378163
 20
28.13690432560853
 30
0.0
 40
4.0
  1
φ102H7
 50
89.90000000000001
 41
0.7741935483870974
  7
FDASTYLE1
 72
     5
 11
-248.6402650735377
 21
47.33687508234367
 31
0.0
  0
ENDBLK
  5
57
  8
0
  0
BLOCK
  8
0
  2
DA_IMAGEDIMGROUP_5
 70
     0
 10
0.0
 20
0.0
 30
0.0
  3
DA_IMAGEDIMGROUP_5
  1

  0
LINE
  5
F1
  8
LAYER0014
  6
CONTINUOUS
 62
     7
 10
-257.3413612620433
 20
-57.26311315704685
 30
0.0
 11
-257.3413612620433
 21
132.7368906576504
 31
0.0
  0
INSERT
  5
F2
  8
LAYER0014
 62
     7
  2
_OPEN30
 10
-257.3413612620433
 20
-57.26311315704685
 30
0.0
 41
1.50000139391263
 42
1.499998500689492
 50
270.0
  0
INSERT
  5
F3
  8
LAYER0014
 62
     7
  2
_OPEN30
 10
-257.3413612620433
 20
132.7368906576504
 30
0.0
 41
1.50000139391263
 42
1.499998500689492
 50
90.0
  0
LINE
  5
F4
  8
LAYER0014
  6
CONTINUOUS
 62
     7
 10
-165.7831713566818
 20
-57.26311315704685
 30
0.0
 11
-258.3413612620433
 21
-57.26311315704685
 31
0.0
  0
LINE
  5
F5
  8
LAYER0014
  6
CONTINUOUS
 62
     7
 10
-165.7831713566818
 20
132.7368906576504
 30
0.0
 11
-258.3413612620433
 21
132.7368906576504
 31
0.0
  0
TEXT
  5
F6
  8
LAYER0014
 62
     7
 10
-257.8581164143559
 20
28.13690337193422
 30
0.0
 40
4.0
  1
φ190H7
 50
89.90000000000001
 41
0.7741935483870974
  7
FDASTYLE1
 72
     5
 11
-257.8246061097307
 21
47.33687412866936
 31
0.0
  0
ENDBLK
  5
5A
  8
0
  0
BLOCK
  8
0
  2
DA_IMAGEDIMGROUP_6
 70
     0
 10
0.0
 20
0.0
 30
0.0
  3
DA_IMAGEDIMGROUP_6
  1

  0
LINE
  5
F7
  8
LAYER0014
  6
CONTINUOUS
 62
     7
 10
-266.5257022982361
 20
-69.76310934234957
 30
0.0
 11
-266.5257022982361
 21
145.2368906576504
 31
0.0
  0
INSERT
  5
F8
  8
LAYER0014
 62
     7
  2
_OPEN30
 10
-266.5257022982361
 20
-69.76310934234957
 30
0.0
 41
1.50000139391263
 42
1.499998500689492
 50
270.0
  0
INSERT
  5
F9
  8
LAYER0014
 62
     7
  2
_OPEN30
 10
-266.5257022982361
 20
145.2368906576504
 30
0.0
 41
1.50000139391263
 42
1.499998500689492
 50
90.0
  0
LINE
  5
FA
  8
LAYER0014
  6
CONTINUOUS
 62
     7
 10
-165.7831713566818
 20
-69.76310934234957
 30
0.0
 11
-267.5257022982361
 21
-69.76310934234957
 31
0.0
  0
LINE
  5
FB
  8
LAYER0014
  6
CONTINUOUS
 62
     7
 10
-165.7831713566818
 20
145.2368906576504
 30
0.0
 11
-267.5257022982361
 21
145.2368906576504
 31
0.0
  0
TEXT
  5
FC
  8
LAYER0014
 62
     7
 10
-267.0368723997779
 20
31.33690040540542
 30
0.0
 40
4.0
  1
φ215
 50
89.90000000000001
 41
0.7619047619047592
  7
FDASTYLE1
 72
     5
 11
-267.0145321966944
 21
44.13688090989545
 31
0.0
  0
ENDBLK
  5
5D
  8
0
  0
BLOCK
  8
0
  2
DC_GROUP_1
 70
     0
 10
0.0
 20
0.0
 30
0.0
  3
DC_GROUP_1
  1

  0
LINE
  5
FD
  8
0
  6
CONTINUOUS
 62
     4
 10
-47.64719405031582
 20
112.8426035482754
 30
0.0
 11
-42.45104136324306
 21
112.8426035482754
 31
0.0
  0
LINE
  5
FE
  8
0
  6
CONTINUOUS
 62
     4
 10
-47.64719411576627
 20
112.842603563592
 30
0.0
 11
-45.04911770093366
 21
117.3426032988197
 31
0.0
  0
LINE
  5
FF
  8
0
  6
CONTINUOUS
 62
     4
 10
-45.04911771262522
 20
117.3426032988197
 30
0.0
 11
-42.45104129779261
 21
112.842603563592
 31
0.0
  0
TEXT
  5
100
  8
0
 62
     4
 10
-46.11292650556942
 20
113.2516506750455
 30
0.0
 40
3.0
  1
1
 41
0.7142860094706217
  7
FDASTYLE1
 72
     5
 11
-43.97006847715755
 21
113.2516506750455
 31
0.0
  0
ENDBLK
  5
60
  8
0
  0
BLOCK
  8
0
  2
DA_IMAGEDIMGROUP_7
 70
     0
 10
0.0
 20
0.0
 30
0.0
  3
DA_IMAGEDIMGROUP_7
  1

  0
LINE
  5
101
  8
LAYER0014
  6
CONTINUOUS
 62
     7
 10
-34.50317822313686
 20
-18.26311124969821
 30
0.0
 11
-4.664245270256004
 21
-18.26311124969821
 31
0.0
  0
LINE
  5
102
  8
LAYER0014
  6
CONTINUOUS
 62
     7
 10
-6.950244568351707
 20
-18.26311124969821
 30
0.0
 11
-6.950244568351707
 21
69.73689065765043
 31
0.0
  0
INSERT
  5
103
  8
LAYER0014
 62
     7
  2
_OPEN30
 10
-6.950244568351707
 20
-18.26311124969821
 30
0.0
 41
1.50000139391263
 42
1.499998500689492
 50
270.0
  0
TEXT
  5
104
  8
LAYER0014
 62
     7
 10
-7.450244568351706
 20
25.65718194254441
 30
0.0
 40
4.0
  1
φ112.1
 50
90.0
 41
0.7741935483870969
  7
FDASTYLE1
 72
     5
 11
-7.450244568351706
 21
44.85718194254442
 31
0.0
  0
TEXT
  5
105
  8
LAYER0014
 62
     7
 10
-9.950244568351707
 20
45.35718194254442
 30
0.0
 40
2.6
  1
+0.1
 50
90.0
 41
0.8
  7
FDASTYLE1
 72
     5
 11
-9.950244568351707
 21
53.67718194254442
 31
0.0
  0
TEXT
  5
106
  8
LAYER0014
 62
     7
 10
-7.250244568351704
 20
45.35718194254442
 30
0.0
 40
2.6
  1
 0
 50
90.0
 41
0.7999999999999993
  7
FDASTYLE1
 72
     5
 11
-7.250244568351704
 21
49.51718194254441
 31
0.0
  0
ENDBLK
  5
63
  8
0
  0
BLOCK
  8
0
  2
DA_IMAGEDIMGROUP_8
 70
     0
 10
0.0
 20
0.0
 30
0.0
  3
DA_IMAGEDIMGROUP_8
  1

  0
LINE
  5
107
  8
LAYER0014
  6
CONTINUOUS
 62
     7
 10
2.716427184577981
 20
37.73688684295316
 30
0.0
 11
2.716427184577981
 21
87.73689065765043
 31
0.0
  0
INSERT
  5
108
  8
LAYER0014
 62
     7
  2
_OPEN30
 10
2.716427184577981
 20
37.73688684295316
 30
0.0
 41
1.50000139391263
 42
1.499998500689492
 50
270.0
  0
INSERT
  5
109
  8
LAYER0014
 62
     7
  2
_OPEN30
 10
2.716427184577981
 20
87.73689065765043
 30
0.0
 41
1.50000139391263
 42
1.499998500689492
 50
90.0
  0
LINE
  5
10A
  8
LAYER0014
  6
CONTINUOUS
 62
     7
 10
-4.295514071247673
 20
37.73688684295316
 30
0.0
 11
3.716427184577981
 21
37.73688684295316
 31
0.0
  0
LINE
  5
10B
  8
LAYER0014
  6
CONTINUOUS
 62
     7
 10
-37.04317822313686
 20
87.73689065765043
 30
0.0
 11
3.716427184577981
 21
87.73689065765043
 31
0.0
  0
TEXT
  5
10C
  8
LAYER0014
 62
     7
 10
2.210842133807107
 20
59.50451923776254
 30
0.0
 40
4.0
  1
50
 50
89.90000000000001
 41
0.7999999999999998
  7
FDASTYLE1
 72
     5
 11
2.222012235348855
 21
65.90450949000758
 31
0.0
  0
ENDBLK
  5
66
  8
0
  0
BLOCK
  8
0
  2
DA_IMAGEDIMGROUP_9
 70
     0
 10
0.0
 20
0.0
 30
0.0
  3
DA_IMAGEDIMGROUP_9
  1

  0
LINE
  5
10D
  8
LAYER0014
  6
CONTINUOUS
 62
     7
 10
2.716427184577981
 20
87.73689065765043
 30
0.0
 11
2.716427184577981
 21
145.2368906576504
 31
0.0
  0
INSERT
  5
10E
  8
LAYER0014
 62
     7
  2
_OPEN30
 10
2.716427184577981
 20
87.73689065765043
 30
0.0
 41
1.50000139391263
 42
1.499998500689492
 50
270.0
  0
INSERT
  5
10F
  8
LAYER0014
 62
     7
  2
_OPEN30
 10
2.716427184577981
 20
145.2368906576504
 30
0.0
 41
1.50000139391263
 42
1.499998500689492
 50
90.0
  0
LINE
  5
110
  8
LAYER0014
  6
CONTINUOUS
 62
     7
 10
2.716427184577981
 20
87.73689065765043
 30
0.0
 11
1.716427184577981
 21
87.73689065765043
 31
0.0
  0
LINE
  5
111
  8
LAYER0014
  6
CONTINUOUS
 62
     7
 10
-35.50317822313686
 20
145.2368906576504
 30
0.0
 11
3.716427184577981
 21
145.2368906576504
 31
0.0
  0
TEXT
  5
112
  8
LAYER0014
 62
     7
 10
2.205257083036232
 20
110.0869004054054
 30
0.0
 40
4.0
  1
57.5
 50
89.90000000000001
 41
0.8000000000000007
  7
FDASTYLE1
 72
     5
 11
2.22759728611973
 21
122.8868809098955
 31
0.0
  0
ENDBLK
  5
69
  8
0
  0
BLOCK
  8
0
  2
DC_GROUP_2
 70
     0
 10
0.0
 20
0.0
 30
0.0
  3
DC_GROUP_2
  1

  0
LINE
  5
113
  8
LAYER0014
  6
CONTINUOUS
 62
     7
 10
-38.28357303065712
 20
142.6884306389426
 30
0.0
 11
-17.2835796771198
 21
169.0217532159874
 31
0.0
  0
INSERT
  5
114
  8
LAYER0014
 62
     7
  2
_OPEN30
 10
-38.28357303065712
 20
142.6884306389426
 30
0.0
 41
1.50000139391263
 42
1.499998500689492
 50
231.4287451801885
  0
LINE
  5
115
  8
LAYER0014
  6
CONTINUOUS
 62
     7
 10
-17.28358425951382
 20
169.0217569906583
 30
0.0
 11
30.34498200559239
 21
169.0217569906583
 31
0.0
  0
TEXT
  5
116
  8
LAYER0014
 62
     7
 10
-16.28358807421108
 20
170.6217569906582
 30
0.0
 40
4.0
  1
ｾﾚｰｼｮﾝP1.5山60ﾟ
 41
0.7887323943661972
  7
FDASTYLE1
 72
     5
 11
28.51641192578892
 21
170.6217569906582
 31
0.0
  0
ENDBLK
  5
6C
  8
0
  0
BLOCK
  8
0
  2
DC_GROUP_3
 70
     0
 10
0.0
 20
0.0
 30
0.0
  3
DC_GROUP_3
  1

  0
LINE
  5
117
  8
LAYER0014
  6
CONTINUOUS
 62
     7
 10
171.1925722772152
 20
-34.91376678244374
 30
0.0
 11
204.420935014184
 21
-91.38026991574938
 31
0.0
  0
INSERT
  5
118
  8
LAYER0014
 62
     7
  2
_OPEN30
 10
171.1925722772152
 20
-34.91376678244374
 30
0.0
 41
1.50000139391263
 42
1.499998500689492
 50
120.4751725263615
  0
LINE
  5
119
  8
LAYER0014
  6
CONTINUOUS
 62
     7
 10
204.4209327363637
 20
-91.38025869537674
 30
0.0
 11
236.3525886201528
 21
-91.38025869537671
 31
0.0
  0
TEXT
  5
11A
  8
LAYER0014
 62
     7
 10
205.7240180635121
 20
-89.78025869537692
 30
0.0
 40
4.0
  1
PCD133.35
 41
0.8000000000000003
  7
FDASTYLE1
 72
     5
 11
234.5240180635121
 21
-89.78025869537692
 31
0.0
  0
ENDBLK
  5
6F
  8
0
  0
BLOCK
  8
0
  2
DC_GROUP_4
 70
     0
 10
0.0
 20
0.0
 30
0.0
  3
DC_GROUP_4
  1

  0
LINE
  5
11B
  8
LAYER0014
  6
CONTINUOUS
 62
     7
 10
-25.67792394721863
 20
135.9130791047348
 30
0.0
 11
-10.85308982593386
 21
154.9192630657036
 31
0.0
  0
INSERT
  5
11C
  8
LAYER0014
 62
     7
  2
_OPEN30
 10
-25.67792394721863
 20
135.9130791047348
 30
0.0
 41
1.50000139391263
 42
1.499998500689492
 50
232.0457491980739
  0
LINE
  5
11D
  8
LAYER0014
  6
CONTINUOUS
 62
     7
 10
-10.8530880436935
 20
154.9192637045254
 30
0.0
 11
0.5765803828201683
 21
154.9192637045254
 31
0.0
  0
TEXT
  5
11E
  8
LAYER0014
 62
     7
 10
-10.0928455815353
 20
156.5192637045254
 30
0.0
 40
4.0
  1
M10
 41
0.8000000000000002
  7
FDASTYLE1
 72
     5
 11
-0.492845581535299
 21
156.5192637045254
 31
0.0
  0
ENDBLK
  5
72
  8
0
  0
BLOCK
  8
0
  2
DC_GROUP_5
 70
     0
 10
0.0
 20
0.0
 30
0.0
  3
DC_GROUP_5
  1

  0
LINE
  5
11F
  8
LAYER0014
  6
CONTINUOUS
 62
     7
 10
147.3029007756831
 20
-14.71612116505683
 30
0.0
 11
122.1101536790332
 21
-91.38025633249671
 31
0.0
  0
INSERT
  5
120
  8
LAYER0014
 62
     7
  2
_OPEN30
 10
147.3029007756831
 20
-14.71612116505683
 30
0.0
 41
1.50000139391263
 42
1.499998500689492
 50
71.80886144586793
  0
LINE
  5
121
  8
LAYER0014
  6
CONTINUOUS
 62
     7
 10
122.1101569795277
 20
-91.38025869537685
 30
0.0
 11
86.54415508743789
 21
-91.38025869537688
 31
0.0
  0
TEXT
  5
122
  8
LAYER0014
 62
     7
 10
89.28700729843638
 20
-89.78025869537692
 30
0.0
 40
4.0
  1
3-M8 PCD97
 41
0.8
  7
FDASTYLE1
 72
     5
 11
121.2870072984364
 21
-89.78025869537692
 31
0.0
  0
ENDBLK
  5
75
  8
0
  0
BLOCK
  8
0
  2
DA_IMAGEDIMGROUP_10
 70
     0
 10
0.0
 20
0.0
 30
0.0
  3
DA_IMAGEDIMGROUP_10
  1

  0
LINE
  5
123
  8
LAYER0014
  6
CONTINUOUS
 62
     7
 10
141.8119086885121
 20
166.5717262588709
 30
0.0
 11
155.8119086885121
 21
166.5717262588709
 31
0.0
  0
INSERT
  5
124
  8
LAYER0014
 62
     7
  2
_OPEN30
 10
141.8119086885121
 20
166.5717262588709
 30
0.0
 41
1.50000139391263
 42
1.499998500689492
 50
180.0
  0
INSERT
  5
125
  8
LAYER0014
 62
     7
  2
_OPEN30
 10
155.8119086885121
 20
166.5717262588709
 30
0.0
 41
1.50000139391263
 42
1.499998500689492
 50
360.0
  0
LINE
  5
126
  8
LAYER0014
  6
CONTINUOUS
 62
     7
 10
141.8119086885121
 20
147.7768906576504
 30
0.0
 11
141.8119086885121
 21
167.5717262588709
 31
0.0
  0
LINE
  5
127
  8
LAYER0014
  6
CONTINUOUS
 62
     7
 10
155.8119086885121
 20
147.7768906576504
 30
0.0
 11
155.8119086885121
 21
167.5717262588709
 31
0.0
  0
TEXT
  5
128
  8
LAYER0014
 62
     7
 10
142.4119086885121
 20
167.0717262588709
 30
0.0
 40
4.0
  1
14H8
 41
0.8000000000000007
  7
FDASTYLE1
 72
     5
 11
155.2119086885121
 21
167.0717262588709
 31
0.0
  0
ENDBLK
  5
78
  8
0
  0
BLOCK
  8
0
  2
DA_IMAGEDIMGROUP_11
 70
     0
 10
0.0
 20
0.0
 30
0.0
  3
DA_IMAGEDIMGROUP_11
  1

  0
LINE
  5
129
  8
LAYER0014
  6
CONTINUOUS
 62
     7
 10
131.3119086885121
 20
174.0772367041208
 30
0.0
 11
166.3119086885121
 21
174.0772367041208
 31
0.0
  0
INSERT
  5
12A
  8
LAYER0014
 62
     7
  2
_OPEN30
 10
131.3119086885121
 20
174.0772367041208
 30
0.0
 41
1.50000139391263
 42
1.499998500689492
 50
180.0
  0
INSERT
  5
12B
  8
LAYER0014
 62
     7
  2
_OPEN30
 10
166.3119086885121
 20
174.0772367041208
 30
0.0
 41
1.50000139391263
 42
1.499998500689492
 50
360.0
  0
LINE
  5
12C
  8
LAYER0014
  6
CONTINUOUS
 62
     7
 10
131.3119086885121
 20
147.7768906576504
 30
0.0
 11
131.3119086885121
 21
175.0772367041208
 31
0.0
  0
LINE
  5
12D
  8
LAYER0014
  6
CONTINUOUS
 62
     7
 10
166.3119086885121
 20
147.7768906576504
 30
0.0
 11
166.3119086885121
 21
175.0772367041208
 31
0.0
  0
TEXT
  5
12E
  8
LAYER0014
 62
     7
 10
145.6119086885121
 20
174.5772367041208
 30
0.0
 40
4.0
  1
35
 41
0.7999999999999972
  7
FDASTYLE1
 72
     5
 11
152.0119086885121
 21
174.5772367041208
 31
0.0
  0
ENDBLK
  5
7B
  8
0
  0
BLOCK
  8
0
  2
DA_IMAGEDIMGROUP_12
 70
     0
 10
0.0
 20
0.0
 30
0.0
  3
DA_IMAGEDIMGROUP_12
  1

  0
LINE
  5
12F
  8
LAYER0014
  6
CONTINUOUS
 62
     7
 10
45.79914801493875
 20
-51.75976771497729
 30
0.0
 11
57.66990105201903
 21
-44.90618513052574
 31
0.0
  0
LINE
  5
130
  8
LAYER0014
  6
CONTINUOUS
 62
     7
 10
54.79914884084492
 20
-67.34822422647477
 30
0.0
 11
66.66990105201903
 21
-60.49464211886038
 31
0.0
  0
LINE
  5
131
  8
LAYER0014
  6
CONTINUOUS
 62
     7
 10
56.80387566377821
 20
-45.40618513052574
 30
0.0
 11
65.80387566377821
 21
-60.99464211886038
 31
0.0
  0
INSERT
  5
132
  8
LAYER0014
 62
     7
  2
_OPEN30
 10
56.80387566377821
 20
-45.40618513052574
 30
0.0
 41
1.50000139391263
 42
1.499998500689492
 50
120.0000004452921
  0
INSERT
  5
133
  8
LAYER0014
 62
     7
  2
_OPEN30
 10
65.80387566377821
 20
-60.99464211886038
 30
0.0
 41
1.50000139391263
 42
1.499998500689492
 50
300.0000004452921
  0
TEXT
  5
134
  8
LAYER0014
 62
     7
 10
59.33688836372748
 20
-48.79349168316246
 30
0.0
 40
4.0
  1
φ18
 50
-59.99999999999999
 41
0.7500000000000009
  7
FDASTYLE1
 72
     5
 11
64.13688836372748
 21
-57.10733555949308
 31
0.0
  0
ENDBLK
  5
7E
  8
0
  0
BLOCK
  8
0
  2
DA_IMAGEDIMGROUP_13
 70
     0
 10
0.0
 20
0.0
 30
0.0
  3
DA_IMAGEDIMGROUP_13
  1

  0
LINE
  5
135
  8
LAYER0014
  6
CONTINUOUS
 62
     7
 10
-7.051854752067527
 20
87.73689065765043
 30
0.0
 11
-7.051854752067527
 21
101.2368906576504
 31
0.0
  0
INSERT
  5
136
  8
LAYER0014
 62
     7
  2
_OPEN30
 10
-7.051854752067527
 20
87.73689065765043
 30
0.0
 41
1.50000139391263
 42
1.499998500689492
 50
270.0
  0
INSERT
  5
137
  8
LAYER0014
 62
     7
  2
_OPEN30
 10
-7.051854752067527
 20
101.2368906576504
 30
0.0
 41
1.50000139391263
 42
1.499998500689492
 50
90.0
  0
LINE
  5
138
  8
LAYER0014
  6
CONTINUOUS
 62
     7
 10
-7.051854752067527
 20
87.73689065765043
 30
0.0
 11
-8.051854752067527
 21
87.73689065765043
 31
0.0
  0
LINE
  5
139
  8
LAYER0014
  6
CONTINUOUS
 62
     7
 10
-10.62068234300991
 20
101.2368906576504
 30
0.0
 11
-6.051854752067527
 21
101.2368906576504
 31
0.0
  0
TEXT
  5
13A
  8
LAYER0014
 62
     7
 10
-7.551854752067527
 20
87.92001823985407
 30
0.0
 40
4.0
  1
 10
 50
90.0
 41
0.7999999999999995
  7
FDASTYLE1
 72
     5
 11
-7.551854752067527
 21
97.52001823985407
 31
0.0
  0
ENDBLK
  5
81
  8
0
  0
BLOCK
  8
0
  2
DA_IMAGEDIMGROUP_14
 70
     0
 10
0.0
 20
0.0
 30
0.0
  3
DA_IMAGEDIMGROUP_14
  1

  0
LINE
  5
13B
  8
LAYER0014
  6
CONTINUOUS
 62
     7
 10
-7.051854752067527
 20
101.2368906576504
 30
0.0
 11
-7.051854752067527
 21
131.2368906576504
 31
0.0
  0
INSERT
  5
13C
  8
LAYER0014
 62
     7
  2
_OPEN30
 10
-7.051854752067527
 20
101.2368906576504
 30
0.0
 41
1.50000139391263
 42
1.499998500689492
 50
270.0
  0
INSERT
  5
13D
  8
LAYER0014
 62
     7
  2
_OPEN30
 10
-7.051854752067527
 20
131.2368906576504
 30
0.0
 41
1.50000139391263
 42
1.499998500689492
 50
90.0
  0
LINE
  5
13E
  8
LAYER0014
  6
CONTINUOUS
 62
     7
 10
-7.051854752067527
 20
101.2368906576504
 30
0.0
 11
-8.051854752067527
 21
101.2368906576504
 31
0.0
  0
LINE
  5
13F
  8
LAYER0014
  6
CONTINUOUS
 62
     7
 10
-10.79932080126186
 20
131.2368906576504
 30
0.0
 11
-6.051854752067527
 21
131.2368906576504
 31
0.0
  0
TEXT
  5
140
  8
LAYER0014
 62
     7
 10
-7.551854752067527
 20
113.0368906576504
 30
0.0
 40
4.0
  1
30
 50
90.0
 41
0.8000000000000007
  7
FDASTYLE1
 72
     5
 11
-7.551854752067527
 21
119.4368906576504
 31
0.0
  0
ENDBLK
  5
84
  8
0
  0
BLOCK
  8
0
  2
DA_IMAGEDIMGROUP_15
 70
     0
 10
0.0
 20
0.0
 30
0.0
  3
DA_IMAGEDIMGROUP_15
  1

  0
LINE
  5
141
  8
0
  6
CONTINUOUS
 62
     7
 10
-159.0431744084396
 20
-83.63722697055984
 30
0.0
 11
-98.0431744084396
 21
-83.63722697055984
 31
0.0
  0
INSERT
  5
142
  8
0
 62
     7
  2
_OPEN30
 10
-159.0431744084396
 20
-83.63722697055984
 30
0.0
 41
1.50000139391263
 42
1.499998500689492
 50
180.0
  0
INSERT
  5
143
  8
0
 62
     7
  2
_OPEN30
 10
-98.0431744084396
 20
-83.63722697055984
 30
0.0
 41
1.50000139391263
 42
1.499998500689492
 50
360.0
  0
LINE
  5
144
  8
0
  6
CONTINUOUS
 62
     7
 10
-159.0431744084396
 20
-58.26311315704685
 30
0.0
 11
-159.0431744084396
 21
-84.63722697055984
 31
0.0
  0
LINE
  5
145
  8
0
  6
CONTINUOUS
 62
     7
 10
-98.0431744084396
 20
-74.24524692354129
 30
0.0
 11
-98.0431744084396
 21
-84.63722697055984
 31
0.0
  0
TEXT
  5
146
  8
0
 62
     7
 10
-131.7431744084396
 20
-83.13722697055984
 30
0.0
 40
4.0
  1
61
 41
0.7999999999999989
  7
FDASTYLE1
 72
     5
 11
-125.3431744084396
 21
-83.13722697055984
 31
0.0
  0
ENDBLK
  5
87
  8
0
  0
BLOCK
  8
0
  2
DA_IMAGEDIMGROUP_16
 70
     0
 10
0.0
 20
0.0
 30
0.0
  3
DA_IMAGEDIMGROUP_16
  1

  0
LINE
  5
147
  8
0
  6
CONTINUOUS
 62
     7
 10
-163.2431713566818
 20
-70.76310934234957
 30
0.0
 11
-163.2431713566818
 21
-94.63722697055984
 31
0.0
  0
LINE
  5
148
  8
0
  6
CONTINUOUS
 62
     7
 10
-159.0431744084396
 20
-58.26311315704685
 30
0.0
 11
-159.0431744084396
 21
-94.63722697055984
 31
0.0
  0
LINE
  5
149
  8
0
  6
CONTINUOUS
 62
     7
 10
-163.2431713566818
 20
-93.63722697055984
 30
0.0
 11
-159.0431744084396
 21
-93.63722697055984
 31
0.0
  0
LINE
  5
14A
  8
0
  6
CONTINUOUS
 62
     7
 10
-37.04317822313686
 20
-68.76310171295503
 30
0.0
 11
-37.04317822313686
 21
-94.63722697055984
 31
0.0
  0
LINE
  5
14B
  8
0
  6
CONTINUOUS
 62
     7
 10
-176.7750213566818
 20
-93.63722697055984
 30
0.0
 11
-163.2431713566818
 21
-93.63722697055984
 31
0.0
  0
INSERT
  5
14C
  8
0
 62
     7
  2
_OPEN30
 10
-163.2431713566818
 20
-93.63722697055984
 30
0.0
 41
1.50000139391263
 42
1.499998500689492
 50
360.0
  0
LINE
  5
14D
  8
0
  6
CONTINUOUS
 62
     7
 10
-159.0431744084396
 20
-93.63722697055984
 30
0.0
 11
-37.04317822313686
 21
-93.63722697055984
 31
0.0
  0
INSERT
  5
14E
  8
0
 62
     7
  2
_OPEN30
 10
-159.0431744084396
 20
-93.63722697055984
 30
0.0
 41
1.50000139391263
 42
1.499998500689492
 50
180.0
  0
INSERT
  5
14F
  8
0
 62
     7
  2
_OPEN30
 10
-37.04317822313686
 20
-93.63722697055984
 30
0.0
 41
1.50000139391263
 42
1.499998500689492
 50
360.0
  0
TEXT
  5
150
  8
0
 62
     7
 10
-175.7750213566818
 20
-93.13722697055984
 30
0.0
 40
4.0
  1
4.2
 41
0.7999999999999995
  7
FDASTYLE1
 72
     5
 11
-166.1750213566818
 21
-93.13722697055984
 31
0.0
  0
TEXT
  5
151
  8
0
 62
     7
 10
-102.8431763157882
 20
-93.13722697055984
 30
0.0
 40
4.0
  1
122
 41
0.7999999999999995
  7
FDASTYLE1
 72
     5
 11
-93.24317631578823
 21
-93.13722697055984
 31
0.0
  0
ENDBLK
  5
8A
  8
0
  0
BLOCK
  8
0
  2
DA_IMAGEDIMGROUP_17
 70
     0
 10
0.0
 20
0.0
 30
0.0
  3
DA_IMAGEDIMGROUP_17
  1

  0
LINE
  5
152
  8
0
  6
CONTINUOUS
 62
     7
 10
-163.2431713566818
 20
-70.76310934234957
 30
0.0
 11
-163.2431713566818
 21
-104.1372269705598
 31
0.0
  0
LINE
  5
153
  8
0
  6
CONTINUOUS
 62
     7
 10
-37.04317822313686
 20
-68.76310171295503
 30
0.0
 11
-37.04317822313686
 21
-104.1372269705598
 31
0.0
  0
LINE
  5
154
  8
0
  6
CONTINUOUS
 62
     7
 10
-163.2431713566818
 20
-103.1372269705598
 30
0.0
 11
-37.04317822313686
 21
-103.1372269705598
 31
0.0
  0
INSERT
  5
155
  8
0
 62
     7
  2
_OPEN30
 10
-163.2431713566818
 20
-103.1372269705598
 30
0.0
 41
1.50000139391263
 42
1.499998500689492
 50
180.0
  0
INSERT
  5
156
  8
0
 62
     7
  2
_OPEN30
 10
-37.04317822313686
 20
-103.1372269705598
 30
0.0
 41
1.50000139391263
 42
1.499998500689492
 50
360.0
  0
TEXT
  5
157
  8
0
 62
     7
 10
-108.1431747899093
 20
-102.6372269705598
 30
0.0
 40
4.0
  1
126.2
 41
0.8
  7
FDASTYLE1
 72
     5
 11
-92.14317478990932
 21
-102.6372269705598
 31
0.0
  0
ENDBLK
  5
8D
  8
0
  0
BLOCK
  8
0
  2
DA_IMAGEDIMGROUP_18
 70
     0
 10
0.0
 20
0.0
 30
0.0
  3
DA_IMAGEDIMGROUP_18
  1

  0
LINE
  5
158
  8
0
  6
CONTINUOUS
 62
     7
 10
-175.0431744084396
 20
-35.96311010528903
 30
0.0
 11
-175.0431744084396
 21
-47.75494865218574
 31
0.0
  0
LINE
  5
159
  8
0
  6
CONTINUOUS
 62
     7
 10
-175.0431744084396
 20
-46.75494865218574
 30
0.0
 11
-159.0431744084396
 21
-46.75494865218574
 31
0.0
  0
INSERT
  5
15A
  8
0
 62
     7
  2
_OPEN30
 10
-175.0431744084396
 20
-46.75494865218574
 30
0.0
 41
1.50000139391263
 42
1.499998500689492
 50
180.0
  0
INSERT
  5
15B
  8
0
 62
     7
  2
_OPEN30
 10
-159.0431744084396
 20
-46.75494865218574
 30
0.0
 41
1.50000139391263
 42
1.499998500689492
 50
360.0
  0
TEXT
  5
15C
  8
0
 62
     7
 10
-170.2431744084396
 20
-46.25494865218574
 30
0.0
 40
4.0
  1
16
 41
0.7999999999999972
  7
FDASTYLE1
 72
     5
 11
-163.8431744084396
 21
-46.25494865218574
 31
0.0
  0
ENDBLK
  5
90
  8
0
  0
BLOCK
  8
0
  2
DA_IMAGEDIMGROUP_19
 70
     0
 10
0.0
 20
0.0
 30
0.0
  3
DA_IMAGEDIMGROUP_19
  1

  0
LINE
  5
15D
  8
0
  6
CONTINUOUS
 62
     7
 10
-176.0431744084396
 20
-34.96311010528903
 30
0.0
 11
-183.9629006962636
 21
-34.96311010528903
 31
0.0
  0
LINE
  5
15E
  8
0
  6
CONTINUOUS
 62
     7
 10
-176.0431744084396
 20
-22.9631081979404
 30
0.0
 11
-183.9629006962636
 21
-22.9631081979404
 31
0.0
  0
LINE
  5
15F
  8
0
  6
CONTINUOUS
 62
     7
 10
-182.9629006962636
 20
-34.96311010528903
 30
0.0
 11
-182.9629006962636
 21
-22.9631081979404
 31
0.0
  0
INSERT
  5
160
  8
0
 62
     7
  2
_OPEN30
 10
-182.9629006962636
 20
-34.96311010528903
 30
0.0
 41
1.50000139391263
 42
1.499998500689492
 50
270.0
  0
INSERT
  5
161
  8
0
 62
     7
  2
_OPEN30
 10
-182.9629006962636
 20
-22.9631081979404
 30
0.0
 41
1.50000139391263
 42
1.499998500689492
 50
90.0
  0
TEXT
  5
162
  8
0
 62
     7
 10
-183.4629006962636
 20
-33.76310915161473
 30
0.0
 40
4.0
  1
M12
 50
90.0
 41
0.8000000000000019
  7
FDASTYLE1
 72
     5
 11
-183.4629006962636
 21
-24.16310915161471
 31
0.0
  0
ENDBLK
  5
93
  8
0
  0
BLOCK
  8
0
  2
DA_IMAGEDIMGROUP_20
 70
     0
 10
0.0
 20
0.0
 30
0.0
  3
DA_IMAGEDIMGROUP_20
  1

  0
LINE
  5
163
  8
0
  6
CONTINUOUS
 62
     7
 10
-170.1453472600021
 20
65.73688684295317
 30
0.0
 11
-170.1453472600021
 21
99.3968860974458
 31
0.0
  0
LINE
  5
164
  8
0
  6
CONTINUOUS
 62
     7
 10
-170.1453472600021
 20
98.3968860974458
 30
0.0
 11
-159.0431744084396
 21
98.3968860974458
 31
0.0
  0
LINE
  5
165
  8
0
  6
CONTINUOUS
 62
     7
 10
-199.4149804812839
 20
98.3968860974458
 30
0.0
 11
-170.1453472600021
 21
98.3968860974458
 31
0.0
  0
INSERT
  5
166
  8
0
 62
     7
  2
_OPEN30
 10
-170.1453472600021
 20
98.3968860974458
 30
0.0
 41
1.50000139391263
 42
1.499998500689492
 50
360.0
  0
LINE
  5
167
  8
0
  6
CONTINUOUS
 62
     7
 10
-154.0431744084396
 20
98.3968860974458
 30
0.0
 11
-159.0431744084396
 21
98.3968860974458
 31
0.0
  0
INSERT
  5
168
  8
0
 62
     7
  2
_OPEN30
 10
-159.0431744084396
 20
98.3968860974458
 30
0.0
 41
1.50000139391263
 42
1.499998500689492
 50
180.0
  0
TEXT
  5
169
  8
0
 62
     7
 10
-198.4149804812839
 20
98.8968860974458
 30
0.0
 40
4.0
  1
11.2
 41
0.8000000000000007
  7
FDASTYLE1
 72
     5
 11
-185.6149804812839
 21
98.8968860974458
 31
0.0
  0
ENDBLK
  5
96
  8
0
  0
BLOCK
  8
0
  2
DA_IMAGEDIMGROUP_21
 70
     0
 10
0.0
 20
0.0
 30
0.0
  3
DA_IMAGEDIMGROUP_21
  1

  0
LINE
  5
16A
  8
0
  6
CONTINUOUS
 62
     7
 10
-150.1453472600021
 20
62.98688684295316
 30
0.0
 11
-150.1453472600021
 21
109.3968860974458
 31
0.0
  0
LINE
  5
16B
  8
0
  6
CONTINUOUS
 62
     7
 10
-170.1453384111325
 20
65.73686811897292
 30
0.0
 11
-170.1453384111325
 21
109.3968860974458
 31
0.0
  0
LINE
  5
16C
  8
0
  6
CONTINUOUS
 62
     7
 10
-170.1453384111325
 20
108.3968860974458
 30
0.0
 11
-150.1453472600021
 21
108.3968860974458
 31
0.0
  0
INSERT
  5
16D
  8
0
 62
     7
  2
_OPEN30
 10
-170.1453384111325
 20
108.3968860974458
 30
0.0
 41
1.50000139391263
 42
1.499998500689492
 50
180.0
  0
INSERT
  5
16E
  8
0
 62
     7
  2
_OPEN30
 10
-150.1453472600021
 20
108.3968860974458
 30
0.0
 41
1.50000139391263
 42
1.499998500689492
 50
360.0
  0
TEXT
  5
16F
  8
0
 62
     7
 10
-165.4525275484258
 20
108.8968860974458
 30
0.0
 40
4.0
  1
20
 41
0.7999999999999972
  7
FDASTYLE1
 72
     5
 11
-159.0525275484258
 21
108.8968860974458
 31
0.0
  0
ENDBLK
  5
99
  8
0
  0
BLOCK
  8
0
  2
DA_IMAGEDIMGROUP_22
 70
     0
 10
0.0
 20
0.0
 30
0.0
  3
DA_IMAGEDIMGROUP_22
  1

  0
LINE
  5
170
  8
0
  6
CONTINUOUS
 62
     7
 10
-170.1453384111325
 20
65.73686811897292
 30
0.0
 11
-170.1453384111325
 21
119.8968860974458
 31
0.0
  0
LINE
  5
171
  8
0
  6
CONTINUOUS
 62
     7
 10
-146.6453114015628
 20
88.23684255383537
 30
0.0
 11
-146.6453114015628
 21
119.8968860974458
 31
0.0
  0
LINE
  5
172
  8
0
  6
CONTINUOUS
 62
     7
 10
-170.1453384111325
 20
118.8968860974458
 30
0.0
 11
-146.6453114015628
 21
118.8968860974458
 31
0.0
  0
LINE
  5
173
  8
0
  6
CONTINUOUS
 62
     7
 10
-129.9134614015628
 20
118.8968860974458
 30
0.0
 11
-146.6453114015628
 21
118.8968860974458
 31
0.0
  0
INSERT
  5
174
  8
0
 62
     7
  2
_OPEN30
 10
-146.6453114015628
 20
118.8968860974458
 30
0.0
 41
1.50000139391263
 42
1.499998500689492
 50
180.0
  0
LINE
  5
175
  8
0
  6
CONTINUOUS
 62
     7
 10
-175.1453384111325
 20
118.8968860974458
 30
0.0
 11
-170.1453384111325
 21
118.8968860974458
 31
0.0
  0
INSERT
  5
176
  8
0
 62
     7
  2
_OPEN30
 10
-170.1453384111325
 20
118.8968860974458
 30
0.0
 41
1.50000139391263
 42
1.499998500689492
 50
360.0
  0
TEXT
  5
177
  8
0
 62
     7
 10
-143.7134614015628
 20
119.3968860974458
 30
0.0
 40
4.0
  1
23.5
 41
0.8000000000000007
  7
FDASTYLE1
 72
     5
 11
-130.9134614015628
 21
119.3968860974458
 31
0.0
  0
ENDBLK
  5
9C
  8
0
  0
BLOCK
  8
0
  2
DC_GROUP_6
 70
     0
 10
0.0
 20
0.0
 30
0.0
  3
DC_GROUP_6
  1

  0
LINE
  5
178
  8
0
  6
CONTINUOUS
 62
     7
 10
-98.01757411514625
 20
-69.76310934234957
 30
0.0
 11
-26.50735874477532
 21
-115.9837709971162
 31
0.0
  0
INSERT
  5
179
  8
0
 62
     7
  2
_OPEN30
 10
-98.01757411514625
 20
-69.76310934234957
 30
0.0
 41
1.50000139391263
 42
1.499998500689492
 50
147.1233740741112
  0
LINE
  5
17A
  8
0
  6
CONTINUOUS
 62
     7
 10
-26.50735874477532
 20
-115.9837709971162
 30
0.0
 11
-10.50735874477532
 21
-115.9837709971162
 31
0.0
  0
TEXT
  5
17B
  8
0
 62
     7
 10
-26.50735874477532
 20
-115.9837709971162
 30
0.0
 40
4.0
  1
M8×16
 41
0.7692307692307692
  7
FDASTYLE1
 72
     5
 11
-10.50735874477532
 21
-115.9837709971162
 31
0.0
  0
ENDBLK
  5
9F
  8
0
  0
BLOCK
  8
0
  2
DA_IMAGEDIMGROUP_23
 70
     0
 10
0.0
 20
0.0
 30
0.0
  3
DA_IMAGEDIMGROUP_23
  1

  0
TEXT
  5
17C
  8
LAYER0014
 62
     7
 10
-2.086236924694246
 20
89.84740137356472
 30
0.0
 40
4.0
  1
MIN
 50
90.0
 41
0.7999999999999995
  7
FDASTYLE1
 72
     5
 11
-2.086236924694246
 21
99.44740137356472
 31
0.0
  0
ENDBLK
  5
A2
  8
0
  0
BLOCK
  8
0
  2
DA_IMAGEDIMGROUP_24
 70
     0
 10
0.0
 20
0.0
 30
0.0
  3
DA_IMAGEDIMGROUP_24
  1

  0
LINE
  5
17D
  8
0
  6
CONTINUOUS
 62
     7
 10
20.48341800867565
 20
-14.9916436146179
 30
0.0
 11
14.153313887869
 21
-4.027583163983048
 31
0.0
  0
LINE
  5
17E
  8
0
  6
CONTINUOUS
 62
     7
 10
14.65331393930306
 20
-4.893608538072011
 30
0.0
 11
15.51933932754388
 21
-4.393608478467364
 31
0.0
  0
LINE
  5
17F
  8
0
  6
CONTINUOUS
 62
     7
 10
21.69570239174025
 20
-0.8276831116472998
 30
0.0
 11
15.51933932754388
 21
-4.393608478467364
 31
0.0
  0
INSERT
  5
180
  8
0
 62
     7
  2
_OPEN30
 10
15.51933932754388
 20
-4.393608478467364
 30
0.0
 41
1.50000139391263
 42
1.499998500689492
 50
210.0000034028507
  0
LINE
  5
181
  8
0
  6
CONTINUOUS
 62
     7
 10
10.32318706885825
 20
-7.393608795242354
 30
0.0
 11
14.65331393930306
 21
-4.893608538072011
 31
0.0
  0
INSERT
  5
182
  8
0
 62
     7
  2
_OPEN30
 10
14.65331393930306
 20
-4.893608538072011
 30
0.0
 41
1.50000139391263
 42
1.499998500689492
 50
30.00000340285066
  0
TEXT
  5
183
  8
0
 62
     7
 10
17.80839579484957
 20
-2.494670640625907
 30
0.0
 40
4.0
  1
1
 50
30.00000340285065
 41
0.8
  7
FDASTYLE1
 72
     5
 11
20.57967699193426
 21
-0.8946704760368878
 31
0.0
  0
ENDBLK
  5
A5
  8
0
  0
BLOCK
  8
0
  2
DA_IMAGEDIMGROUP_25
 70
     0
 10
0.0
 20
0.0
 30
0.0
  3
DA_IMAGEDIMGROUP_25
  1

  0
LINE
  5
184
  8
0
  6
CONTINUOUS
 62
     7
 10
249.8033651089517
 20
96.04431527774887
 30
0.0
 11
244.9447195714401
 21
93.23917527868687
 31
0.0
  0
ARC
  5
185
  8
0
  6
CONTINUOUS
 62
     7
 10
148.8119254434708
 20
37.73688684295316
 30
0.0
 40
115.6148665324679
 50
0.0
 51
29.99999725896548
  0
INSERT
  5
186
  8
0
 62
     7
  2
_OPEN30
 10
264.4267919759386
 20
37.73688684295316
 30
0.0
 41
1.50000139391263
 42
1.499998500689492
 50
270.3716811713248
  0
INSERT
  5
187
  8
0
 62
     7
  2
_OPEN30
 10
248.9373396812472
 20
95.54431531917959
 30
0.0
 41
1.50000139391263
 42
1.499998500689492
 50
119.6283160876416
  0
TEXT
  5
188
  8
0
 62
     7
 10
259.0370283143367
 20
71.27640374309517
 30
0.0
 40
4.0
  1
30°
 50
109.3117687194537
 41
0.7500000000000024
  7
FDASTYLE1
 72
     5
 11
255.8622291604636
 21
80.33624095645433
 31
0.0
  0
ENDBLK
  5
A8
  8
0
  0
BLOCK
  8
0
  2
DA_IMAGEDIMGROUP_26
 70
     0
 10
0.0
 20
0.0
 30
0.0
  3
DA_IMAGEDIMGROUP_26
  1

  0
LINE
  5
189
  8
0
  6
CONTINUOUS
 62
     7
 10
274.7625602830127
 20
37.73688684295316
 30
0.0
 11
269.5452460908558
 21
37.73688684295316
 31
0.0
  0
LINE
  5
18A
  8
0
  6
CONTINUOUS
 62
     7
 10
270.4708964985052
 20
70.33531304636729
 30
0.0
 11
227.2450485971354
 21
58.75298324564219
 31
0.0
  0
ARC
  5
18B
  8
0
  6
CONTINUOUS
 62
     7
 10
148.8119006715524
 20
37.73688684295316
 30
0.0
 40
124.9506596114603
 50
0.0
 51
14.99999847069179
  0
INSERT
  5
18C
  8
0
 62
     7
  2
_OPEN30
 10
273.7625602830127
 20
37.73688684295316
 30
0.0
 41
1.50000139391263
 42
1.499998500689492
 50
270.3439107016225
  0
INSERT
  5
18D
  8
0
 62
     7
  2
_OPEN30
 10
269.5049706653078
 20
70.07649402704675
 30
0.0
 41
1.50000139391263
 42
1.499998500689492
 50
104.6560877690675
  0
TEXT
  5
18E
  8
0
 62
     7
 10
272.8243935138497
 20
49.22202057167907
 30
0.0
 40
4.0
  1
15°
 50
97.4999992353459
 41
0.7500000000000014
  7
FDASTYLE1
 72
     5
 11
271.5713421955602
 21
58.73989125759056
 31
0.0
  0
ENDBLK
  5
AB
  8
0
  0
BLOCK
  8
0
  2
DA_IMAGEDIMGROUP_27
 70
     0
 10
0.0
 20
0.0
 30
0.0
  3
DA_IMAGEDIMGROUP_27
  1

  0
LINE
  5
18F
  8
0
  6
CONTINUOUS
 62
     7
 10
237.870460195797
 20
126.7953978247666
 30
0.0
 11
206.2290079749007
 21
95.15394827104504
 31
0.0
  0
ARC
  5
190
  8
0
  6
CONTINUOUS
 62
     7
 10
148.8119567268961
 20
37.73690186293565
 30
0.0
 40
124.947738142071
 50
14.99999847069177
 51
44.99999758516351
  0
INSERT
  5
191
  8
0
 62
     7
  2
_OPEN30
 10
269.5022047978975
 20
70.07575291518688
 30
0.0
 41
1.50000139391263
 42
1.499998500689492
 50
285.3439172134736
  0
INSERT
  5
192
  8
0
 62
     7
  2
_OPEN30
 10
237.1633533848082
 20
126.0882910733823
 30
0.0
 41
1.50000139391263
 42
1.499998500689492
 50
134.6560788423818
  0
TEXT
  5
193
  8
0
 62
     7
 10
249.1928552513084
 20
113.1282157949348
 30
0.0
 40
4.0
  1
30°
 50
-55.28276773182463
 41
0.7500000000000014
  7
FDASTYLE1
 72
     5
 11
254.6603122007914
 21
105.2372770354746
 31
0.0
  0
ENDBLK
  5
AE
  8
0
  0
BLOCK
  8
0
  2
DA_IMAGEDIMGROUP_28
 70
     0
 10
0.0
 20
0.0
 30
0.0
  3
DA_IMAGEDIMGROUP_28
  1

  0
LINE
  5
194
  8
0
  6
CONTINUOUS
 62
     7
 10
148.8119086885121
 20
163.5910541775322
 30
0.0
 11
148.8119086885121
 21
156.977994783627
 31
0.0
  0
ARC
  5
195
  8
0
  6
CONTINUOUS
 62
     7
 10
148.8119086885121
 20
37.73685382455565
 30
0.0
 40
124.8542003529765
 50
44.99999758516351
 51
90.0
  0
INSERT
  5
196
  8
0
 62
     7
  2
_OPEN30
 10
237.0971641386706
 20
126.022101832824
 30
0.0
 41
1.50000139391263
 42
1.499998500689492
 50
315.3441739836657
  0
INSERT
  5
197
  8
0
 62
     7
  2
_OPEN30
 10
148.8119086885121
 20
162.5910541775322
 30
0.0
 41
1.50000139391263
 42
1.499998500689492
 50
179.6558236014978
  0
TEXT
  5
198
  8
0
 62
     7
 10
192.3482650641846
 20
155.3859134028821
 30
0.0
 40
4.0
  1
45°
 50
-22.50000120741824
 41
0.7500000000000038
  7
FDASTYLE1
 72
     5
 11
201.2175084988742
 21
151.7121522652719
 31
0.0
  0
ENDBLK
  5
B1
  8
0
  0
BLOCK
  8
0
  2
DC_GROUP_7
 70
     0
 10
0.0
 20
0.0
 30
0.0
  3
DC_GROUP_7
  1

  0
LINE
  5
199
  8
0
  6
CONTINUOUS
 62
     6
 10
-117.2681442526126
 20
88.34054289884965
 30
0.0
 11
-116.8230883349994
 21
88.71062128920735
 31
0.0
  0
LINE
  5
19A
  8
0
  6
CONTINUOUS
 62
     6
 10
-116.8230883349994
 20
88.71062128920735
 30
0.0
 11
-116.3772072270203
 21
89.0768798363119
 31
0.0
  0
LINE
  5
19B
  8
0
  6
CONTINUOUS
 62
     6
 10
-116.3772072270203
 20
89.0768798363119
 30
0.0
 11
-115.9296757383091
 21
89.43549869691006
 31
0.0
  0
LINE
  5
19C
  8
0
  6
CONTINUOUS
 62
     6
 10
-115.9296757383091
 20
89.43549869691006
 30
0.0
 11
-115.4796686785002
 21
89.78265802774871
 31
0.0
  0
LINE
  5
19D
  8
0
  6
CONTINUOUS
 62
     6
 10
-115.4796686785002
 20
89.78265802774871
 30
0.0
 11
-115.0263608572274
 21
90.11453798557459
 31
0.0
  0
LINE
  5
19E
  8
0
  6
CONTINUOUS
 62
     6
 10
-115.0263608572274
 20
90.11453798557459
 30
0.0
 11
-114.5689270841249
 21
90.42731872713461
 31
0.0
  0
LINE
  5
19F
  8
0
  6
CONTINUOUS
 62
     6
 10
-114.5689270841249
 20
90.42731872713461
 30
0.0
 11
-114.1065421688265
 21
90.71718040917551
 31
0.0
  0
LINE
  5
1A0
  8
0
  6
CONTINUOUS
 62
     6
 10
-114.1065421688265
 20
90.71718040917551
 30
0.0
 11
-113.6383809209665
 21
90.98030318844414
 31
0.0
  0
LINE
  5
1A1
  8
0
  6
CONTINUOUS
 62
     6
 10
-113.6383809209665
 20
90.98030318844414
 30
0.0
 11
-113.1636181501788
 21
91.21286722168738
 31
0.0
  0
LINE
  5
1A2
  8
0
  6
CONTINUOUS
 62
     6
 10
-113.1636181501788
 20
91.21286722168738
 30
0.0
 11
-112.6814286660975
 21
91.41105266565194
 31
0.0
  0
LINE
  5
1A3
  8
0
  6
CONTINUOUS
 62
     6
 10
-112.6814286660975
 20
91.41105266565194
 30
0.0
 11
-112.1909872783565
 21
91.5710396770847
 31
0.0
  0
LINE
  5
1A4
  8
0
  6
CONTINUOUS
 62
     6
 10
-112.1909872783565
 20
91.5710396770847
 30
0.0
 11
-111.69146879659
 21
91.68900841273248
 31
0.0
  0
LINE
  5
1A5
  8
0
  6
CONTINUOUS
 62
     6
 10
-111.69146879659
 20
91.68900841273248
 30
0.0
 11
-111.1820538572369
 21
91.76116346783611
 31
0.0
  0
LINE
  5
1A6
  8
0
  6
CONTINUOUS
 62
     6
 10
-111.1820538572369
 20
91.76116346783611
 30
0.0
 11
-110.6627141447553
 21
91.7870272117665
 31
0.0
  0
LINE
  5
1A7
  8
0
  6
CONTINUOUS
 62
     6
 10
-110.6627141447553
 20
91.7870272117665
 30
0.0
 11
-110.1350062549972
 21
91.77276937017449
 31
0.0
  0
LINE
  5
1A8
  8
0
  6
CONTINUOUS
 62
     6
 10
-110.1350062549972
 20
91.77276937017449
 30
0.0
 11
-109.6006758480901
 21
91.7253526326631
 31
0.0
  0
LINE
  5
1A9
  8
0
  6
CONTINUOUS
 62
     6
 10
-109.6006758480901
 20
91.7253526326631
 30
0.0
 11
-109.061468584162
 21
91.65173968883534
 31
0.0
  0
LINE
  5
1AA
  8
0
  6
CONTINUOUS
 62
     6
 10
-109.061468584162
 20
91.65173968883534
 30
0.0
 11
-108.5191301233405
 21
91.55889322829415
 31
0.0
  0
LINE
  5
1AB
  8
0
  6
CONTINUOUS
 62
     6
 10
-108.5191301233405
 20
91.55889322829415
 30
0.0
 11
-107.9754061257534
 21
91.45377594064254
 31
0.0
  0
LINE
  5
1AC
  8
0
  6
CONTINUOUS
 62
     6
 10
-107.9754061257534
 20
91.45377594064254
 30
0.0
 11
-107.4320422515285
 21
91.34335051548351
 31
0.0
  0
LINE
  5
1AD
  8
0
  6
CONTINUOUS
 62
     6
 10
-107.4320422515285
 20
91.34335051548351
 30
0.0
 11
-106.8906039681589
 21
91.23417653347615
 31
0.0
  0
LINE
  5
1AE
  8
0
  6
CONTINUOUS
 62
     6
 10
-106.8906039681589
 20
91.23417653347615
 30
0.0
 11
-106.3513661304034
 21
91.12992634552553
 31
0.0
  0
LINE
  5
1AF
  8
0
  6
CONTINUOUS
 62
     6
 10
-106.3513661304034
 20
91.12992634552553
 30
0.0
 11
-105.8140408453814
 21
91.03301337978962
 31
0.0
  0
LINE
  5
1B0
  8
0
  6
CONTINUOUS
 62
     6
 10
-105.8140408453814
 20
91.03301337978962
 30
0.0
 11
-105.2783378855224
 21
90.94584584149148
 31
0.0
  0
LINE
  5
1B1
  8
0
  6
CONTINUOUS
 62
     6
 10
-105.2783378855224
 20
90.94584584149148
 30
0.0
 11
-104.7439670232558
 21
90.87083193585414
 31
0.0
  0
LINE
  5
1B2
  8
0
  6
CONTINUOUS
 62
     6
 10
-104.7439670232558
 20
90.87083193585414
 30
0.0
 11
-104.210638031011
 21
90.81037986810077
 31
0.0
  0
LINE
  5
1B3
  8
0
  6
CONTINUOUS
 62
     6
 10
-104.210638031011
 20
90.81037986810077
 30
0.0
 11
-103.6780606812174
 21
90.76689784345435
 31
0.0
  0
LINE
  5
1B4
  8
0
  6
CONTINUOUS
 62
     6
 10
-103.6780606812174
 20
90.76689784345435
 30
0.0
 11
-103.1459447463046
 21
90.74279406713801
 31
0.0
  0
LINE
  5
1B5
  8
0
  6
CONTINUOUS
 62
     6
 10
-103.1459447463046
 20
90.74279406713801
 30
0.0
 11
-102.6139999987018
 21
90.74047674437477
 31
0.0
  0
LINE
  5
1B6
  8
0
  6
CONTINUOUS
 62
     6
 10
-102.6139999987018
 20
90.74047674437477
 30
0.0
 11
-102.0819382931115
 21
90.76233989198514
 31
0.0
  0
LINE
  5
1B7
  8
0
  6
CONTINUOUS
 62
     6
 10
-102.0819382931115
 20
90.76233989198514
 30
0.0
 11
-101.5497130592242
 21
90.80913145865894
 31
0.0
  0
LINE
  5
1B8
  8
0
  6
CONTINUOUS
 62
     6
 10
-101.5497130592242
 20
90.80913145865894
 30
0.0
 11
-101.0177414194757
 21
90.87843983647589
 31
0.0
  0
LINE
  5
1B9
  8
0
  6
CONTINUOUS
 62
     6
 10
-101.0177414194757
 20
90.87843983647589
 30
0.0
 11
-100.4864930144723
 21
90.96749556388484
 31
0.0
  0
LINE
  5
1BA
  8
0
  6
CONTINUOUS
 62
     6
 10
-100.4864930144723
 20
90.96749556388484
 30
0.0
 11
-99.95643748481992
 21
91.07352917933463
 31
0.0
  0
LINE
  5
1BB
  8
0
  6
CONTINUOUS
 62
     6
 10
-99.95643748481992
 20
91.07352917933463
 30
0.0
 11
-99.42804447112489
 21
91.19377122127403
 31
0.0
  0
LINE
  5
1BC
  8
0
  6
CONTINUOUS
 62
     6
 10
-99.42804447112489
 20
91.19377122127403
 30
0.0
 11
-98.9017836139935
 21
91.32545222815196
 31
0.0
  0
LINE
  5
1BD
  8
0
  6
CONTINUOUS
 62
     6
 10
-98.9017836139935
 20
91.32545222815196
 30
0.0
 11
-98.37812455387321
 21
91.46580273879476
 31
0.0
  0
LINE
  5
1BE
  8
0
  6
CONTINUOUS
 62
     6
 10
-98.37812455387321
 20
91.46580273879476
 30
0.0
 11
-97.857390386728
 21
91.61240214669276
 31
0.0
  0
LINE
  5
1BF
  8
0
  6
CONTINUOUS
 62
     6
 10
-97.857390386728
 20
91.61240214669276
 30
0.0
 11
-97.33933598983116
 21
91.76418251133525
 31
0.0
  0
LINE
  5
1C0
  8
0
  6
CONTINUOUS
 62
     6
 10
-97.33933598983116
 20
91.76418251133525
 30
0.0
 11
-96.82357853886143
 21
91.92040369604437
 31
0.0
  0
LINE
  5
1C1
  8
0
  6
CONTINUOUS
 62
     6
 10
-96.82357853886143
 20
91.92040369604437
 30
0.0
 11
-96.30973520949762
 21
92.0803255641424
 31
0.0
  0
LINE
  5
1C2
  8
0
  6
CONTINUOUS
 62
     6
 10
-96.30973520949762
 20
92.0803255641424
 30
0.0
 11
-95.79742317741859
 21
92.24320797895156
 31
0.0
  0
LINE
  5
1C3
  8
0
  6
CONTINUOUS
 62
     6
 10
-95.79742317741859
 20
92.24320797895156
 30
0.0
 11
-95.28625961830312
 21
92.40831080379405
 31
0.0
  0
LINE
  5
1C4
  8
0
  6
CONTINUOUS
 62
     6
 10
-95.28625961830312
 20
92.40831080379405
 30
0.0
 11
-94.77586170783006
 21
92.57489390199214
 31
0.0
  0
LINE
  5
1C5
  8
0
  6
CONTINUOUS
 62
     6
 10
-94.77586170783006
 20
92.57489390199214
 30
0.0
 11
-94.26584662167815
 21
92.74221713686798
 31
0.0
  0
ENDBLK
  5
B4
  8
0
  0
BLOCK
  8
0
  2
DA_IMAGEDIMGROUP_29
 70
     0
 10
0.0
 20
0.0
 30
0.0
  3
DA_IMAGEDIMGROUP_29
  1

  0
LINE
  5
1C6
  8
0
  6
CONTINUOUS
 62
     7
 10
-232.0470088808383
 20
17.73689065765044
 30
0.0
 11
-232.0470088808383
 21
57.73689065765044
 31
0.0
  0
INSERT
  5
1C7
  8
0
 62
     7
  2
_OPEN30
 10
-232.0470088808383
 20
17.73689065765044
 30
0.0
 41
1.50000139391263
 42
1.499998500689492
 50
270.0
  0
INSERT
  5
1C8
  8
0
 62
     7
  2
_OPEN30
 10
-232.0470088808383
 20
57.73689065765044
 30
0.0
 41
1.50000139391263
 42
1.499998500689492
 50
90.0
  0
LINE
  5
1C9
  8
0
  6
CONTINUOUS
 62
     7
 10
-199.0431744084396
 20
17.73689065765043
 30
0.0
 11
-233.0470088808383
 21
17.73689065765044
 31
0.0
  0
LINE
  5
1CA
  8
0
  6
CONTINUOUS
 62
     7
 10
-199.0431744084396
 20
57.73689065765043
 30
0.0
 11
-233.0470088808383
 21
57.73689065765044
 31
0.0
  0
TEXT
  5
1CB
  8
0
 62
     7
 10
-232.5470088808383
 20
28.52689065765043
 30
0.0
 40
4.0
  1
φ40
 50
90.0
 41
0.7500000000000018
  7
FDASTYLE1
 72
     5
 11
-232.5470088808383
 21
38.12689065765045
 31
0.0
  0
TEXT
  5
1CC
  8
0
 62
     7
 10
-235.0470088808383
 20
38.62689065765045
 30
0.0
 40
2.6
  1
 0
 50
90.0
 41
0.7999999999999993
  7
FDASTYLE1
 72
     5
 11
-235.0470088808383
 21
42.78689065765045
 31
0.0
  0
TEXT
  5
1CD
  8
0
 62
     7
 10
-232.3470088808383
 20
38.62689065765045
 30
0.0
 40
2.6
  1
-0.1
 50
90.0
 41
0.7999999999999993
  7
FDASTYLE1
 72
     5
 11
-232.3470088808383
 21
46.94689065765044
 31
0.0
  0
ENDBLK
  5
B7
  8
0
  0
BLOCK
  8
0
  2
DC_GROUP_8
 70
     0
 10
0.0
 20
0.0
 30
0.0
  3
DC_GROUP_8
  1

  0
LINE
  5
1CE
  8
0
  6
CONTINUOUS
 62
     7
 10
-163.3910815856885
 20
12.59823715861231
 30
0.0
 11
-183.4266857713513
 21
-6.853805740089456
 31
0.0
  0
INSERT
  5
1CF
  8
0
 62
     7
  2
_OPEN30
 10
-163.3910815856885
 20
12.59823715861231
 30
0.0
 41
1.50000139391263
 42
1.499998500689492
 50
44.1533259761385
  0
LINE
  5
1D0
  8
0
  6
CONTINUOUS
 62
     7
 10
-183.4266857713513
 20
-6.853805740089456
 30
0.0
 11
-209.0266857713513
 21
-6.853805740089456
 31
0.0
  0
TEXT
  5
1D1
  8
0
 62
     7
 10
-209.0266857713513
 20
-6.353805740089456
 30
0.0
 40
4.0
  1
M50×Ｐ1.5
 41
0.7619047619047618
  7
FDASTYLE1
 72
     5
 11
-183.4266857713513
 21
-6.353805740089456
 31
0.0
  0
ENDBLK
  5
BA
  8
0
  0
BLOCK
  8
0
  2
DA_IMAGEDIMGROUP_30
 70
     0
 10
0.0
 20
0.0
 30
0.0
  3
DA_IMAGEDIMGROUP_30
  1

  0
LINE
  5
1D2
  8
0
  6
CONTINUOUS
 62
     7
 10
-145.7689716115313
 20
32.73689065765043
 30
0.0
 11
-145.7689716115313
 21
42.73689065765043
 31
0.0
  0
INSERT
  5
1D3
  8
0
 62
     7
  2
_OPEN30
 10
-145.7689716115313
 20
32.73689065765043
 30
0.0
 41
1.50000139391263
 42
1.499998500689492
 50
270.0
  0
INSERT
  5
1D4
  8
0
 62
     7
  2
_OPEN30
 10
-145.7689716115313
 20
42.73689065765043
 30
0.0
 41
1.50000139391263
 42
1.499998500689492
 50
90.0
  0
TEXT
  5
1D5
  8
0
 62
     7
 10
-146.2689716115313
 20
32.93689065765042
 30
0.0
 40
4.0
  1
φ10
 50
90.0
 41
0.7500000000000018
  7
FDASTYLE1
 72
     5
 11
-146.2689716115313
 21
42.53689065765045
 31
0.0
  0
ENDBLK
  5
BD
  8
0
  0
BLOCK
  8
0
  2
DA_IMAGEDIMGROUP_31
 70
     0
 10
0.0
 20
0.0
 30
0.0
  3
DA_IMAGEDIMGROUP_31
  1

  0
LINE
  5
1D6
  8
0
  6
CONTINUOUS
 62
     7
 10
-88.28188094307663
 20
15.73689065765044
 30
0.0
 11
-88.28188094307663
 21
59.73689065765044
 31
0.0
  0
INSERT
  5
1D7
  8
0
 62
     7
  2
_OPEN30
 10
-88.28188094307663
 20
15.73689065765044
 30
0.0
 41
1.50000139391263
 42
1.499998500689492
 50
270.0
  0
INSERT
  5
1D8
  8
0
 62
     7
  2
_OPEN30
 10
-88.28188094307663
 20
59.73689065765044
 30
0.0
 41
1.50000139391263
 42
1.499998500689492
 50
90.0
  0
TEXT
  5
1D9
  8
0
 62
     7
 10
-88.78188094307663
 20
32.93689065765044
 30
0.0
 40
4.0
  1
φ44
 50
90.0
 41
0.7499999999999996
  7
FDASTYLE1
 72
     5
 11
-88.78188094307663
 21
42.53689065765043
 31
0.0
  0
ENDBLK
  5
C0
  8
0
  0
BLOCK
  8
0
  2
DA_IMAGEDIMGROUP_32
 70
     0
 10
0.0
 20
0.0
 30
0.0
  3
DA_IMAGEDIMGROUP_32
  1

  0
LINE
  5
1DA
  8
0
  6
CONTINUOUS
 62
     7
 10
-75.58942295167374
 20
25.23689065765044
 30
0.0
 11
-75.58942295167374
 21
50.23689065765043
 31
0.0
  0
INSERT
  5
1DB
  8
0
 62
     7
  2
_OPEN30
 10
-75.58942295167374
 20
25.23689065765044
 30
0.0
 41
1.50000139391263
 42
1.499998500689492
 50
270.0
  0
INSERT
  5
1DC
  8
0
 62
     7
  2
_OPEN30
 10
-75.58942295167374
 20
50.23689065765043
 30
0.0
 41
1.50000139391263
 42
1.499998500689492
 50
90.0
  0
TEXT
  5
1DD
  8
0
 62
     7
 10
-76.08942295167374
 20
26.53689065765043
 30
0.0
 40
4.0
  1
φ25Ｈ7ｇ6
 50
90.0
 41
0.7368421052631581
  7
FDASTYLE1
 72
     5
 11
-76.08942295167374
 21
48.93689065765044
 31
0.0
  0
ENDBLK
  5
C3
  8
0
  0
BLOCK
  8
0
  2
DA_IMAGEDIMGROUP_33
 70
     0
 10
0.0
 20
0.0
 30
0.0
  3
DA_IMAGEDIMGROUP_33
  1

  0
LINE
  5
1DE
  8
0
  6
CONTINUOUS
 62
     7
 10
-61.0431744084396
 20
-3.263109342349566
 30
0.0
 11
-65.50175849941375
 21
-3.263109342349564
 31
0.0
  0
LINE
  5
1DF
  8
0
  6
CONTINUOUS
 62
     7
 10
-53.5431744084396
 20
78.73689065765043
 30
0.0
 11
-65.50175849941375
 21
78.73689065765043
 31
0.0
  0
LINE
  5
1E0
  8
0
  6
CONTINUOUS
 62
     7
 10
-64.50175849941375
 20
-3.263109342349564
 30
0.0
 11
-64.50175849941375
 21
78.73689065765043
 31
0.0
  0
INSERT
  5
1E1
  8
0
 62
     7
  2
_OPEN30
 10
-64.50175849941375
 20
-3.263109342349564
 30
0.0
 41
1.50000139391263
 42
1.499998500689492
 50
270.0
  0
INSERT
  5
1E2
  8
0
 62
     7
  2
_OPEN30
 10
-64.50175849941375
 20
78.73689065765043
 30
0.0
 41
1.50000139391263
 42
1.499998500689492
 50
90.0
  0
TEXT
  5
1E3
  8
0
 62
     7
 10
-65.00175849941375
 20
29.73689065765043
 30
0.0
 40
4.0
  1
φ82Ｈ7
 50
90.0
 41
0.7407407407407407
  7
FDASTYLE1
 72
     5
 11
-65.00175849941375
 21
45.73689065765043
 31
0.0
  0
ENDBLK
  5
C6
  8
0
  0
BLOCK
  8
0
  2
DA_IMAGEDIMGROUP_34
 70
     0
 10
0.0
 20
0.0
 30
0.0
  3
DA_IMAGEDIMGROUP_34
  1

  0
ARC
  5
1E4
  8
0
  6
CONTINUOUS
 62
     7
 10
-25.09350090755286
 20
37.73689223911305
 30
0.0
 40
15.92201302909412
 50
150.0000027410345
 51
209.9999972589654
  0
INSERT
  5
1E5
  8
0
 62
     7
  2
_OPEN30
 10
-38.88236905099033
 20
45.6978980939996
 30
0.0
 41
1.50000139391263
 42
1.499998500689492
 50
62.69889947832043
  0
INSERT
  5
1E6
  8
0
 62
     7
  2
_OPEN30
 10
-38.88236905099034
 20
29.7758863842265
 30
0.0
 41
1.50000139391263
 42
1.499998500689492
 50
297.3011005216796
  0
TEXT
  5
1E7
  8
0
 62
     7
 10
-41.51551393664698
 20
32.93689223911305
 30
0.0
 40
4.0
  1
60°
 50
90.0
 41
0.7499999999999996
  7
FDASTYLE1
 72
     5
 11
-41.51551393664698
 21
42.53689223911304
 31
0.0
  0
ENDBLK
  5
C9
  8
0
  0
BLOCK
  8
0
  2
DA_IMAGEDIMGROUP_35
 70
     0
 10
0.0
 20
0.0
 30
0.0
  3
DA_IMAGEDIMGROUP_35
  1

  0
LINE
  5
1E8
  8
0
  6
CONTINUOUS
 62
     7
 10
-35.0431744084396
 20
20.23689065765043
 30
0.0
 11
-15.21206200338667
 21
20.23689065765043
 31
0.0
  0
LINE
  5
1E9
  8
0
  6
CONTINUOUS
 62
     7
 10
-35.0431744084396
 20
55.23689065765043
 30
0.0
 11
-15.21206200338667
 21
55.23689065765043
 31
0.0
  0
LINE
  5
1EA
  8
0
  6
CONTINUOUS
 62
     7
 10
-16.21206200338667
 20
20.23689065765043
 30
0.0
 11
-16.21206200338667
 21
55.23689065765043
 31
0.0
  0
INSERT
  5
1EB
  8
0
 62
     7
  2
_OPEN30
 10
-16.21206200338667
 20
20.23689065765043
 30
0.0
 41
1.50000139391263
 42
1.499998500689492
 50
270.0
  0
INSERT
  5
1EC
  8
0
 62
     7
  2
_OPEN30
 10
-16.21206200338667
 20
55.23689065765043
 30
0.0
 41
1.50000139391263
 42
1.499998500689492
 50
89.99999999999999
  0
TEXT
  5
1ED
  8
0
 62
     7
 10
-16.71206200338667
 20
32.93689065765044
 30
0.0
 40
4.0
  1
φ35
 50
90.0
 41
0.7499999999999996
  7
FDASTYLE1
 72
     5
 11
-16.71206200338667
 21
42.53689065765043
 31
0.0
  0
ENDBLK
  5
CC
  8
0
  0
BLOCK
  8
0
  2
DA_IMAGEDIMGROUP_36
 70
     0
 10
0.0
 20
0.0
 30
0.0
  3
DA_IMAGEDIMGROUP_36
  1

  0
LINE
  5
1EE
  8
0
  6
CONTINUOUS
 62
     7
 10
-163.2431713566818
 20
-70.76310934234957
 30
0.0
 11
-163.2431713566818
 21
-103.8773912616201
 31
0.0
  0
LINE
  5
1EF
  8
0
  6
CONTINUOUS
 62
     7
 10
-223.2434978947677
 20
31.73689065765043
 30
0.0
 11
-223.2434978947677
 21
-103.8773912616201
 31
0.0
  0
LINE
  5
1F0
  8
0
  6
CONTINUOUS
 62
     7
 10
-223.2434978947677
 20
-102.8773912616201
 30
0.0
 11
-163.2431713566818
 21
-102.8773912616201
 31
0.0
  0
INSERT
  5
1F1
  8
0
 62
     7
  2
_OPEN30
 10
-223.2434978947677
 20
-102.8773912616201
 30
0.0
 41
1.50000139391263
 42
1.499998500689492
 50
180.0
  0
INSERT
  5
1F2
  8
0
 62
     7
  2
_OPEN30
 10
-163.2431713566818
 20
-102.8773912616201
 30
0.0
 41
1.50000139391263
 42
1.499998500689492
 50
360.0
  0
TEXT
  5
1F3
  8
0
 62
     7
 10
-198.0433346257248
 20
-102.3773912616201
 30
0.0
 40
4.0
  1
約60
 41
0.7500000000000018
  7
FDASTYLE1
 72
     5
 11
-188.4433346257247
 21
-102.3773912616201
 31
0.0
  0
ENDBLK
  5
CF
  8
0
  0
BLOCK
  8
0
  2
DC_GROUP_9
 70
     0
 10
0.0
 20
0.0
 30
0.0
  3
DC_GROUP_9
  1

  0
LINE
  5
1F4
  8
0
  6
CONTINUOUS
 62
     7
 10
151.6340366282203
 20
8.383997875579313
 30
0.0
 11
217.2975554687162
 21
-62.11584386261982
 31
0.0
  0
INSERT
  5
1F5
  8
0
 62
     7
  2
_OPEN30
 10
151.6340366282203
 20
8.383997875579313
 30
0.0
 41
1.50000139391263
 42
1.499998500689492
 50
132.9657930715984
  0
LINE
  5
1F6
  8
0
  6
CONTINUOUS
 62
     7
 10
217.2975554687162
 20
-62.11584386261982
 30
0.0
 11
249.2975554687162
 21
-62.11584386261982
 31
0.0
  0
TEXT
  5
1F7
  8
0
 62
     7
 10
217.2975554687162
 20
-61.61584386261982
 30
0.0
 40
4.0
  1
3-Ｍ6　ＰＣＤ54
 41
0.7272727272727273
  7
FDASTYLE1
 72
     5
 11
249.2975554687162
 21
-61.61584386261982
 31
0.0
  0
ENDBLK
  5
D2
  8
0
  0
BLOCK
  8
0
  2
_OPEN30
 70
     0
 10
0.0
 20
0.0
 30
0.0
  3
_OPEN30
  1

  0
LINE
  5
D9
  8
0
  6
BYBLOCK
 62
     0
 10
-1.0
 20
0.267949
 30
0.0
 11
0.0
 21
0.0
 31
0.0
  0
LINE
  5
DA
  8
0
  6
BYBLOCK
 62
     0
 10
0.0
 20
0.0
 30
0.0
 11
-1.0
 21
-0.267949
 31
0.0
  0
LINE
  5
DB
  8
0
  6
BYBLOCK
 62
     0
 10
0.0
 20
0.0
 30
0.0
 11
-1.0
 21
0.0
 31
0.0
  0
ENDBLK
  5
D8
  8
0
  0
ENDSEC
  0
SECTION
  2
ENTITIES
  0
LINE
  5
1F8
  8
ZUWAKU
  6
CONTINUOUS
 62
     3
 10
-277.0
 20
-190.0
 30
0.0
 11
-277.0
 21
190.0
 31
0.0
  0
LINE
  5
1F9
  8
ZUWAKU
  6
CONTINUOUS
 62
     3
 10
277.0
 20
-190.0
 30
0.0
 11
277.0
 21
190.0
 31
0.0
  0
LINE
  5
1FA
  8
ZUWAKU
  6
CONTINUOUS
 62
     3
 10
-277.0
 20
-190.0
 30
0.0
 11
277.0
 21
-190.0
 31
0.0
  0
LINE
  5
1FB
  8
ZUWAKU
  6
CONTINUOUS
 62
     3
 10
-277.0
 20
189.9999999999999
 30
0.0
 11
277.0
 21
189.9999999999999
 31
0.0
  0
LINE
  5
1FC
  8
ZUWAKU
  6
CONTINUOUS
 62
     3
 10
97.00000000000001
 20
-190.0
 30
0.0
 11
97.00000000000001
 21
-130.0
 31
0.0
  0
LINE
  5
1FD
  8
ZUWAKU
  6
CONTINUOUS
 62
     3
 10
97.00000000000001
 20
-176.0
 30
0.0
 11
277.0
 21
-176.0
 31
0.0
  0
LINE
  5
1FE
  8
ZUWAKU
  6
CONTINUOUS
 62
     3
 10
146.0
 20
-162.0
 30
0.0
 11
277.0
 21
-162.0
 31
0.0
  0
LINE
  5
1FF
  8
ZUWAKU
  6
CONTINUOUS
 62
     3
 10
146.0
 20
-148.0
 30
0.0
 11
277.0
 21
-148.0
 31
0.0
  0
LINE
  5
200
  8
ZUWAKU
  6
CONTINUOUS
 62
     3
 10
146.0
 20
-138.0
 30
0.0
 11
277.0
 21
-138.0
 31
0.0
  0
LINE
  5
201
  8
ZUWAKU
  6
CONTINUOUS
 62
     3
 10
146.0
 20
-176.0
 30
0.0
 11
146.0
 21
-130.0
 31
0.0
  0
LINE
  5
202
  8
ZUWAKU
  6
CONTINUOUS
 62
     3
 10
255.0
 20
-176.0
 30
0.0
 11
255.0
 21
-130.0
 31
0.0
  0
LINE
  5
203
  8
ZUWAKU
  6
CONTINUOUS
 62
     3
 10
171.0
 20
-190.0
 30
0.0
 11
171.0
 21
-176.0
 31
0.0
  0
LINE
  5
204
  8
ZUWAKU
  6
CONTINUOUS
 62
     3
 10
262.0
 20
-188.0
 30
0.0
 11
272.0
 21
-188.0
 31
0.0
  0
LINE
  5
205
  8
ZUWAKU
  6
CONTINUOUS
 62
     3
 10
267.0
 20
-178.0
 30
0.0
 11
262.0
 21
-188.0
 31
0.0
  0
LINE
  5
206
  8
ZUWAKU
  6
CONTINUOUS
 62
     3
 10
267.0
 20
-178.0
 30
0.0
 11
272.0
 21
-188.0
 31
0.0
  0
LINE
  5
207
  8
ZUWAKU
  6
CONTINUOUS
 62
     3
 10
97.00000000000001
 20
-130.0
 30
0.0
 11
277.0
 21
-130.0
 31
0.0
  0
LINE
  5
208
  8
ZUWAKU
  6
CONTINUOUS
 62
     3
 10
226.0
 20
-176.0
 30
0.0
 11
226.0
 21
-148.0
 31
0.0
  0
LINE
  5
209
  8
ZUWAKU
  6
CONTINUOUS
 62
     3
 10
-277.0
 20
-190.0
 30
0.0
 11
-277.0
 21
190.0
 31
0.0
  0
LINE
  5
20A
  8
ZUWAKU
  6
CONTINUOUS
 62
     3
 10
277.0
 20
-190.0
 30
0.0
 11
277.0
 21
190.0
 31
0.0
  0
LINE
  5
20B
  8
ZUWAKU
  6
CONTINUOUS
 62
     3
 10
-277.0
 20
-190.0
 30
0.0
 11
277.0
 21
-190.0
 31
0.0
  0
LINE
  5
20C
  8
ZUWAKU
  6
CONTINUOUS
 62
     3
 10
-277.0
 20
189.9999999999999
 30
0.0
 11
277.0
 21
189.9999999999999
 31
0.0
  0
LINE
  5
20D
  8
ZUWAKU
  6
CONTINUOUS
 62
     3
 10
97.00000000000001
 20
-190.0
 30
0.0
 11
97.00000000000001
 21
-130.0
 31
0.0
  0
LINE
  5
20E
  8
ZUWAKU
  6
CONTINUOUS
 62
     3
 10
97.00000000000001
 20
-176.0
 30
0.0
 11
277.0
 21
-176.0
 31
0.0
  0
LINE
  5
20F
  8
ZUWAKU
  6
CONTINUOUS
 62
     3
 10
146.0
 20
-162.0
 30
0.0
 11
277.0
 21
-162.0
 31
0.0
  0
LINE
  5
210
  8
ZUWAKU
  6
CONTINUOUS
 62
     3
 10
146.0
 20
-148.0
 30
0.0
 11
277.0
 21
-148.0
 31
0.0
  0
LINE
  5
211
  8
ZUWAKU
  6
CONTINUOUS
 62
     3
 10
146.0
 20
-138.0
 30
0.0
 11
277.0
 21
-138.0
 31
0.0
  0
LINE
  5
212
  8
ZUWAKU
  6
CONTINUOUS
 62
     3
 10
146.0
 20
-176.0
 30
0.0
 11
146.0
 21
-130.0
 31
0.0
  0
LINE
  5
213
  8
ZUWAKU
  6
CONTINUOUS
 62
     3
 10
255.0
 20
-176.0
 30
0.0
 11
255.0
 21
-130.0
 31
0.0
  0
LINE
  5
214
  8
ZUWAKU
  6
CONTINUOUS
 62
     3
 10
171.0
 20
-190.0
 30
0.0
 11
171.0
 21
-176.0
 31
0.0
  0
LINE
  5
215
  8
ZUWAKU
  6
CONTINUOUS
 62
     3
 10
262.0
 20
-188.0
 30
0.0
 11
272.0
 21
-188.0
 31
0.0
  0
LINE
  5
216
  8
ZUWAKU
  6
CONTINUOUS
 62
     3
 10
267.0
 20
-178.0
 30
0.0
 11
262.0
 21
-188.0
 31
0.0
  0
LINE
  5
217
  8
ZUWAKU
  6
CONTINUOUS
 62
     3
 10
267.0
 20
-178.0
 30
0.0
 11
272.0
 21
-188.0
 31
0.0
  0
LINE
  5
218
  8
ZUWAKU
  6
CONTINUOUS
 62
     3
 10
97.00000000000001
 20
-130.0
 30
0.0
 11
277.0
 21
-130.0
 31
0.0
  0
LINE
  5
219
  8
ZUWAKU
  6
CONTINUOUS
 62
     3
 10
226.0
 20
-176.0
 30
0.0
 11
226.0
 21
-148.0
 31
0.0
  0
LINE
  5
21A
  8
ZUWAKU
  6
CONTINUOUS
 62
     4
 10
105.0
 20
-172.0
 30
0.0
 11
105.0
 21
-130.0
 31
0.0
  0
LINE
  5
21B
  8
ZUWAKU
  6
CONTINUOUS
 62
     4
 10
109.0
 20
-172.0
 30
0.0
 11
109.0
 21
-130.0
 31
0.0
  0
LINE
  5
21C
  8
ZUWAKU
  6
CONTINUOUS
 62
     4
 10
121.5
 20
-176.0
 30
0.0
 11
121.5
 21
-130.0
 31
0.0
  0
LINE
  5
21D
  8
ZUWAKU
  6
CONTINUOUS
 62
     4
 10
97.00000000000001
 20
-137.0
 30
0.0
 11
146.0
 21
-137.0
 31
0.0
  0
LINE
  5
21E
  8
ZUWAKU
  6
CONTINUOUS
 62
     4
 10
97.00000000000001
 20
-144.0
 30
0.0
 11
146.0
 21
-144.0
 31
0.0
  0
LINE
  5
21F
  8
ZUWAKU
  6
CONTINUOUS
 62
     4
 10
97.00000000000001
 20
-165.0
 30
0.0
 11
146.0
 21
-165.0
 31
0.0
  0
LINE
  5
220
  8
ZUWAKU
  6
CONTINUOUS
 62
     4
 10
97.00000000000001
 20
-172.0
 30
0.0
 11
146.0
 21
-172.0
 31
0.0
  0
LINE
  5
221
  8
ZUWAKU
  6
CONTINUOUS
 62
     4
 10
255.0
 20
-166.0
 30
0.0
 11
277.0
 21
-166.0
 31
0.0
  0
LINE
  5
222
  8
ZUWAKU
  6
CONTINUOUS
 62
     4
 10
202.0
 20
-148.0
 30
0.0
 11
202.0
 21
-146.5
 31
0.0
  0
LINE
  5
223
  8
ZUWAKU
  6
CONTINUOUS
 62
     4
 10
226.0
 20
-148.0
 30
0.0
 11
226.0
 21
-146.5
 31
0.0
  0
LINE
  5
224
  8
ZUWAKU
  6
CONTINUOUS
 62
     4
 10
243.0
 20
-148.0
 30
0.0
 11
243.0
 21
-146.5
 31
0.0
  0
LINE
  5
225
  8
ZUWAKU
  6
CONTINUOUS
 62
     4
 10
97.00000000000001
 20
-151.0
 30
0.0
 11
146.0
 21
-151.0
 31
0.0
  0
LINE
  5
226
  8
ZUWAKU
  6
CONTINUOUS
 62
     4
 10
97.00000000000001
 20
-158.0
 30
0.0
 11
146.0
 21
-158.0
 31
0.0
  0
LINE
  5
227
  8
ZUWAKU
  6
CONTINUOUS
 62
     4
 10
101.0
 20
-130.5
 30
0.0
 11
98.00000000000001
 21
-136.5
 31
0.0
  0
LINE
  5
228
  8
ZUWAKU
  6
CONTINUOUS
 62
     4
 10
101.0
 20
-130.5
 30
0.0
 11
104.0
 21
-136.5
 31
0.0
  0
LINE
  5
229
  8
ZUWAKU
  6
CONTINUOUS
 62
     4
 10
98.00000000000001
 20
-136.5
 30
0.0
 11
104.0
 21
-136.5
 31
0.0
  0
LINE
  5
22A
  8
ZUWAKU
  6
CONTINUOUS
 62
     4
 10
101.0
 20
-158.5
 30
0.0
 11
98.00000000000001
 21
-164.5
 31
0.0
  0
LINE
  5
22B
  8
ZUWAKU
  6
CONTINUOUS
 62
     4
 10
101.0
 20
-158.5
 30
0.0
 11
104.0
 21
-164.5
 31
0.0
  0
LINE
  5
22C
  8
ZUWAKU
  6
CONTINUOUS
 62
     4
 10
98.00000000000001
 20
-164.5
 30
0.0
 11
104.0
 21
-164.5
 31
0.0
  0
LINE
  5
22D
  8
ZUWAKU
  6
CONTINUOUS
 62
     4
 10
101.0
 20
-151.5
 30
0.0
 11
98.00000000000001
 21
-157.5
 31
0.0
  0
LINE
  5
22E
  8
ZUWAKU
  6
CONTINUOUS
 62
     4
 10
101.0
 20
-151.5
 30
0.0
 11
104.0
 21
-157.5
 31
0.0
  0
LINE
  5
22F
  8
ZUWAKU
  6
CONTINUOUS
 62
     4
 10
98.00000000000001
 20
-157.5
 30
0.0
 11
104.0
 21
-157.5
 31
0.0
  0
LINE
  5
230
  8
ZUWAKU
  6
CONTINUOUS
 62
     4
 10
101.0
 20
-144.5
 30
0.0
 11
98.00000000000001
 21
-150.5
 31
0.0
  0
LINE
  5
231
  8
ZUWAKU
  6
CONTINUOUS
 62
     4
 10
101.0
 20
-144.5
 30
0.0
 11
104.0
 21
-150.5
 31
0.0
  0
LINE
  5
232
  8
ZUWAKU
  6
CONTINUOUS
 62
     4
 10
98.00000000000001
 20
-150.5
 30
0.0
 11
104.0
 21
-150.5
 31
0.0
  0
LINE
  5
233
  8
ZUWAKU
  6
CONTINUOUS
 62
     4
 10
101.0
 20
-137.5
 30
0.0
 11
98.00000000000001
 21
-143.5
 31
0.0
  0
LINE
  5
234
  8
ZUWAKU
  6
CONTINUOUS
 62
     4
 10
101.0
 20
-137.5
 30
0.0
 11
104.0
 21
-143.5
 31
0.0
  0
LINE
  5
235
  8
ZUWAKU
  6
CONTINUOUS
 62
     4
 10
98.00000000000001
 20
-143.5
 30
0.0
 11
104.0
 21
-143.5
 31
0.0
  0
LINE
  5
236
  8
ZUWAKU
  6
CONTINUOUS
 62
     4
 10
172.6666666666666
 20
-176.0
 30
0.0
 11
172.6666666666666
 21
-162.0
 31
0.0
  0
LINE
  5
237
  8
ZUWAKU
  6
CONTINUOUS
 62
     4
 10
199.3333333333333
 20
-176.0
 30
0.0
 11
199.3333333333333
 21
-161.9509415757253
 31
0.0
  0
LINE
  5
238
  8
ZUWAKU
  6
CONTINUOUS
 62
     4
 10
212.6666666666666
 20
-167.5
 30
0.0
 11
212.6666666666666
 21
-161.9509415757253
 31
0.0
  0
LINE
  5
239
  8
ZUWAKU
  6
CONTINUOUS
 62
     4
 10
226.0
 20
-155.0
 30
0.0
 11
255.0
 21
-155.0
 31
0.0
  0
LINE
  5
23A
  8
ZUWAKU
  6
CONTINUOUS
 62
     4
 10
146.0
 20
-166.0
 30
0.0
 11
226.0
 21
-166.0
 31
0.0
  0
LINE
  5
23B
  8
ZUWAKU
  6
CONTINUOUS
 62
     4
 10
105.0
 20
-172.0
 30
0.0
 11
105.0
 21
-130.0
 31
0.0
  0
LINE
  5
23C
  8
ZUWAKU
  6
CONTINUOUS
 62
     4
 10
109.0
 20
-172.0
 30
0.0
 11
109.0
 21
-130.0
 31
0.0
  0
LINE
  5
23D
  8
ZUWAKU
  6
CONTINUOUS
 62
     4
 10
121.5
 20
-176.0
 30
0.0
 11
121.5
 21
-130.0
 31
0.0
  0
LINE
  5
23E
  8
ZUWAKU
  6
CONTINUOUS
 62
     4
 10
97.00000000000001
 20
-137.0
 30
0.0
 11
146.0
 21
-137.0
 31
0.0
  0
LINE
  5
23F
  8
ZUWAKU
  6
CONTINUOUS
 62
     4
 10
97.00000000000001
 20
-144.0
 30
0.0
 11
146.0
 21
-144.0
 31
0.0
  0
LINE
  5
240
  8
ZUWAKU
  6
CONTINUOUS
 62
     4
 10
97.00000000000001
 20
-165.0
 30
0.0
 11
146.0
 21
-165.0
 31
0.0
  0
LINE
  5
241
  8
ZUWAKU
  6
CONTINUOUS
 62
     4
 10
97.00000000000001
 20
-172.0
 30
0.0
 11
146.0
 21
-172.0
 31
0.0
  0
LINE
  5
242
  8
ZUWAKU
  6
CONTINUOUS
 62
     4
 10
255.0
 20
-166.0
 30
0.0
 11
277.0
 21
-166.0
 31
0.0
  0
LINE
  5
243
  8
ZUWAKU
  6
CONTINUOUS
 62
     4
 10
153.0
 20
-139.5
 30
0.0
 11
153.0
 21
-130.0
 31
0.0
  0
LINE
  5
244
  8
ZUWAKU
  6
CONTINUOUS
 62
     4
 10
202.0
 20
-148.0
 30
0.0
 11
202.0
 21
-146.5
 31
0.0
  0
LINE
  5
245
  8
ZUWAKU
  6
CONTINUOUS
 62
     4
 10
226.0
 20
-148.0
 30
0.0
 11
226.0
 21
-146.5
 31
0.0
  0
LINE
  5
246
  8
ZUWAKU
  6
CONTINUOUS
 62
     4
 10
243.0
 20
-148.0
 30
0.0
 11
243.0
 21
-146.5
 31
0.0
  0
LINE
  5
247
  8
ZUWAKU
  6
CONTINUOUS
 62
     4
 10
202.0
 20
-139.5
 30
0.0
 11
202.0
 21
-130.0
 31
0.0
  0
LINE
  5
248
  8
ZUWAKU
  6
CONTINUOUS
 62
     4
 10
226.0
 20
-139.5
 30
0.0
 11
226.0
 21
-130.0
 31
0.0
  0
LINE
  5
249
  8
ZUWAKU
  6
CONTINUOUS
 62
     4
 10
243.0
 20
-139.5
 30
0.0
 11
243.0
 21
-130.0
 31
0.0
  0
LINE
  5
24A
  8
ZUWAKU
  6
CONTINUOUS
 62
     4
 10
97.00000000000001
 20
-151.0
 30
0.0
 11
146.0
 21
-151.0
 31
0.0
  0
LINE
  5
24B
  8
ZUWAKU
  6
CONTINUOUS
 62
     4
 10
97.00000000000001
 20
-158.0
 30
0.0
 11
146.0
 21
-158.0
 31
0.0
  0
LINE
  5
24C
  8
ZUWAKU
  6
CONTINUOUS
 62
     4
 10
101.0
 20
-130.5
 30
0.0
 11
98.00000000000001
 21
-136.5
 31
0.0
  0
LINE
  5
24D
  8
ZUWAKU
  6
CONTINUOUS
 62
     4
 10
101.0
 20
-130.5
 30
0.0
 11
104.0
 21
-136.5
 31
0.0
  0
LINE
  5
24E
  8
ZUWAKU
  6
CONTINUOUS
 62
     4
 10
98.00000000000001
 20
-136.5
 30
0.0
 11
104.0
 21
-136.5
 31
0.0
  0
LINE
  5
24F
  8
ZUWAKU
  6
CONTINUOUS
 62
     4
 10
101.0
 20
-158.5
 30
0.0
 11
98.00000000000001
 21
-164.5
 31
0.0
  0
LINE
  5
250
  8
ZUWAKU
  6
CONTINUOUS
 62
     4
 10
101.0
 20
-158.5
 30
0.0
 11
104.0
 21
-164.5
 31
0.0
  0
LINE
  5
251
  8
ZUWAKU
  6
CONTINUOUS
 62
     4
 10
98.00000000000001
 20
-164.5
 30
0.0
 11
104.0
 21
-164.5
 31
0.0
  0
LINE
  5
252
  8
ZUWAKU
  6
CONTINUOUS
 62
     4
 10
101.0
 20
-151.5
 30
0.0
 11
98.00000000000001
 21
-157.5
 31
0.0
  0
LINE
  5
253
  8
ZUWAKU
  6
CONTINUOUS
 62
     4
 10
101.0
 20
-151.5
 30
0.0
 11
104.0
 21
-157.5
 31
0.0
  0
LINE
  5
254
  8
ZUWAKU
  6
CONTINUOUS
 62
     4
 10
98.00000000000001
 20
-157.5
 30
0.0
 11
104.0
 21
-157.5
 31
0.0
  0
LINE
  5
255
  8
ZUWAKU
  6
CONTINUOUS
 62
     4
 10
101.0
 20
-144.5
 30
0.0
 11
98.00000000000001
 21
-150.5
 31
0.0
  0
LINE
  5
256
  8
ZUWAKU
  6
CONTINUOUS
 62
     4
 10
101.0
 20
-144.5
 30
0.0
 11
104.0
 21
-150.5
 31
0.0
  0
LINE
  5
257
  8
ZUWAKU
  6
CONTINUOUS
 62
     4
 10
98.00000000000001
 20
-150.5
 30
0.0
 11
104.0
 21
-150.5
 31
0.0
  0
LINE
  5
258
  8
ZUWAKU
  6
CONTINUOUS
 62
     4
 10
101.0
 20
-137.5
 30
0.0
 11
98.00000000000001
 21
-143.5
 31
0.0
  0
LINE
  5
259
  8
ZUWAKU
  6
CONTINUOUS
 62
     4
 10
101.0
 20
-137.5
 30
0.0
 11
104.0
 21
-143.5
 31
0.0
  0
LINE
  5
25A
  8
ZUWAKU
  6
CONTINUOUS
 62
     4
 10
98.00000000000001
 20
-143.5
 30
0.0
 11
104.0
 21
-143.5
 31
0.0
  0
LINE
  5
25B
  8
ZUWAKU
  6
CONTINUOUS
 62
     4
 10
172.6666666666666
 20
-176.0
 30
0.0
 11
172.6666666666666
 21
-162.0
 31
0.0
  0
LINE
  5
25C
  8
ZUWAKU
  6
CONTINUOUS
 62
     4
 10
199.3333333333333
 20
-176.0
 30
0.0
 11
199.3333333333333
 21
-161.9509415757253
 31
0.0
  0
LINE
  5
25D
  8
ZUWAKU
  6
CONTINUOUS
 62
     4
 10
212.6666666666666
 20
-167.5
 30
0.0
 11
212.6666666666666
 21
-161.9509415757253
 31
0.0
  0
LINE
  5
25E
  8
ZUWAKU
  6
CONTINUOUS
 62
     4
 10
226.0
 20
-155.0
 30
0.0
 11
255.0
 21
-155.0
 31
0.0
  0
LINE
  5
25F
  8
ZUWAKU
  6
CONTINUOUS
 62
     4
 10
146.0
 20
-166.0
 30
0.0
 11
226.0
 21
-166.0
 31
0.0
  0
TEXT
  5
261
  8
ZUWAKU
 62
     7
 10
148.3132301474747
 20
-130.821188728956
 30
0.0
 40
2.6656
  1
符号
 41
0.8
  7
FDASTYLE0
  0
TEXT
  5
262
  8
ZUWAKU
 62
     7
 10
162.4141311219058
 20
-135.8245525019963
 30
0.0
 40
4.0
  1
品       名
 41
0.765957446808511
  7
FDASTYLE1
 72
     5
 11
191.2141311219058
 21
-135.8245525019963
 31
0.0
  0
TEXT
  5
263
  8
ZUWAKU
 62
     7
 10
207.2331564413096
 20
-135.8245525019963
 30
0.0
 40
4.0
  1
材  料
 41
0.7272727272727279
  7
FDASTYLE1
 72
     5
 11
220.0331564413096
 21
-135.8245525019963
 31
0.0
  0
TEXT
  5
264
  8
ZUWAKU
 62
     7
 10
229.516061684855
 20
-135.8245525019963
 30
0.0
 40
4.0
  1
個 数
 41
0.7058823529411761
  7
FDASTYLE1
 72
     5
 11
239.116061684855
 21
-135.8245525019963
 31
0.0
  0
TEXT
  5
265
  8
ZUWAKU
 62
     7
 10
245.721810952888
 20
-133.5649080050572
 30
0.0
 40
2.5
  1
単重量
 41
0.6666666666666666
  7
FDASTYLE1
 72
     5
 11
251.721810952888
 21
-133.5649080050572
 31
0.0
  0
TEXT
  5
266
  8
ZUWAKU
 62
     7
 10
244.7089516236359
 20
-137.3631304897525
 30
0.0
 40
2.5
  1
(kg)
 41
0.8
  7
FDASTYLE1
 72
     5
 11
252.7089516236359
 21
-137.3631304897525
 31
0.0
  0
TEXT
  5
267
  8
ZUWAKU
 62
     7
 10
259.1421970654778
 20
-135.8245525019963
 30
0.0
 40
4.0
  1
記  事
 41
0.7272727272727279
  7
FDASTYLE1
 72
     5
 11
271.9421970654778
 21
-135.8245525019963
 31
0.0
  0
TEXT
  5
268
  8
ZUWAKU
 62
     7
 10
258.8450794551645
 20
-165.4873041997729
 30
0.0
 40
3.0
  1
コード番号
 41
0.6666666666666666
  7
FDASTYLE1
 72
     5
 11
270.8450794551645
 21
-165.4873041997729
 31
0.0
  0
TEXT
  5
269
  8
ZUWAKU
 62
     7
 10
101.9119920158317
 20
-175.1879010540338
 30
0.0
 40
2.5
  1
訂 正 来 歴
 41
0.717948717948718
  7
FDASTYLE1
 72
     5
 11
115.9119920158317
 21
-175.1879010540338
 31
0.0
  0
TEXT
  5
26A
  8
ZUWAKU
 62
     7
 10
125.890334846765
 20
-175.2166697391651
 30
0.0
 40
2.5
  1
工 事 番 号
 41
0.717948717948718
  7
FDASTYLE1
 72
     5
 11
139.890334846765
 21
-175.2166697391651
 31
0.0
  0
TEXT
  5
26B
  8
ZUWAKU
 62
     7
 10
99.96483784660289
 20
-165.9634530565915
 30
0.0
 40
2.0825
  1
記号
 41
0.8
  7
FDASTYLE0
  0
TEXT
  5
26C
  8
ZUWAKU
 62
     7
 10
105.9042249067618
 20
-165.9634530565915
 30
0.0
 40
2.0825
  1
理由
 41
0.8
  7
FDASTYLE0
  0
TEXT
  5
26D
  8
ZUWAKU
 62
     7
 10
111.6193667909843
 20
-169.8786046700178
 30
0.0
 40
3.0
  1
日 付
 41
0.7058823529411754
  7
FDASTYLE1
 72
     5
 11
118.8193667909843
 21
-169.8786046700178
 31
0.0
  0
TEXT
  5
26E
  8
ZUWAKU
 62
     7
 10
153.4481689819652
 20
-165.7187911464244
 30
0.0
 40
3.0
  1
承   認
 41
0.7407407407407408
  7
FDASTYLE1
 72
     5
 11
165.4481689819652
 21
-165.7187911464244
 31
0.0
  0
TEXT
  5
26F
  8
ZUWAKU
 62
     7
 10
179.863228033234
 20
-165.4873041997729
 30
0.0
 40
3.0
  1
検   図
 41
0.7407407407407408
  7
FDASTYLE1
 72
     5
 11
191.863228033234
 21
-165.4873041997729
 31
0.0
  0
TEXT
  5
270
  8
ZUWAKU
 62
     7
 10
201.4771920983751
 20
-165.4873041997729
 30
0.0
 40
3.0
  1
担  当
 41
0.7272727272727269
  7
FDASTYLE1
 72
     5
 11
211.0771920983751
 21
-165.4873041997729
 31
0.0
  0
TEXT
  5
271
  8
ZUWAKU
 62
     7
 10
214.6770574841112
 20
-165.4873041997729
 30
0.0
 40
3.0
  1
製  図
 41
0.7272727272727269
  7
FDASTYLE1
 72
     5
 11
224.2770574841112
 21
-165.4873041997729
 31
0.0
  0
TEXT
  5
272
  8
ZUWAKU
 62
     7
 10
226.9462372304199
 20
-153.2184960272417
 30
0.0
 40
3.0
  1
作図
 41
0.6666666666666683
  7
FDASTYLE1
 72
     5
 11
231.7462372304199
 21
-153.2184960272417
 31
0.0
  0
TEXT
  5
273
  8
ZUWAKU
 62
     7
 10
228.1036719636776
 20
-160.2371566401815
 30
0.0
 40
4.0
  1
第 三 角 法
 41
0.7179487179487182
  7
FDASTYLE1
 72
     5
 11
250.5036719636776
 21
-160.2371566401815
 31
0.0
  0
TEXT
  5
274
  8
ZUWAKU
 62
     7
 10
227.409211123723
 20
-166.413251986379
 30
0.0
 40
3.0
  1
尺度
 41
0.6666666666666683
  7
FDASTYLE1
 72
     5
 11
232.209211123723
 21
-166.413251986379
 31
0.0
  0
TEXT
  5
275
  8
ZUWAKU
 62
     7
 10
148.3132301474747
 20
-130.821188728956
 30
0.0
 40
2.6656
  1
符号
 41
0.8
  7
FDASTYLE0
  0
TEXT
  5
276
  8
ZUWAKU
 62
     7
 10
162.4141311219058
 20
-135.8245525019963
 30
0.0
 40
4.0
  1
品       名
 41
0.765957446808511
  7
FDASTYLE1
 72
     5
 11
191.2141311219058
 21
-135.8245525019963
 31
0.0
  0
TEXT
  5
277
  8
ZUWAKU
 62
     7
 10
207.2331564413096
 20
-135.8245525019963
 30
0.0
 40
4.0
  1
材  料
 41
0.7272727272727279
  7
FDASTYLE1
 72
     5
 11
220.0331564413096
 21
-135.8245525019963
 31
0.0
  0
TEXT
  5
278
  8
ZUWAKU
 62
     7
 10
229.516061684855
 20
-135.8245525019963
 30
0.0
 40
4.0
  1
個 数
 41
0.7058823529411761
  7
FDASTYLE1
 72
     5
 11
239.116061684855
 21
-135.8245525019963
 31
0.0
  0
TEXT
  5
279
  8
ZUWAKU
 62
     7
 10
245.721810952888
 20
-133.5649080050572
 30
0.0
 40
2.5
  1
単重量
 41
0.6666666666666666
  7
FDASTYLE1
 72
     5
 11
251.721810952888
 21
-133.5649080050572
 31
0.0
  0
TEXT
  5
27A
  8
ZUWAKU
 62
     7
 10
244.7089516236359
 20
-137.3631304897525
 30
0.0
 40
2.5
  1
(kg)
 41
0.8
  7
FDASTYLE1
 72
     5
 11
252.7089516236359
 21
-137.3631304897525
 31
0.0
  0
TEXT
  5
27B
  8
ZUWAKU
 62
     7
 10
259.1421970654778
 20
-135.8245525019963
 30
0.0
 40
4.0
  1
記  事
 41
0.7272727272727279
  7
FDASTYLE1
 72
     5
 11
271.9421970654778
 21
-135.8245525019963
 31
0.0
  0
TEXT
  5
27C
  8
ZUWAKU
 62
     7
 10
258.8450794551645
 20
-165.4873041997729
 30
0.0
 40
3.0
  1
コード番号
 41
0.6666666666666666
  7
FDASTYLE1
 72
     5
 11
270.8450794551645
 21
-165.4873041997729
 31
0.0
  0
TEXT
  5
27D
  8
ZUWAKU
 62
     7
 10
101.9119920158317
 20
-175.1879010540338
 30
0.0
 40
2.5
  1
訂 正 来 歴
 41
0.717948717948718
  7
FDASTYLE1
 72
     5
 11
115.9119920158317
 21
-175.1879010540338
 31
0.0
  0
TEXT
  5
27E
  8
ZUWAKU
 62
     7
 10
125.890334846765
 20
-175.2166697391651
 30
0.0
 40
2.5
  1
工 事 番 号
 41
0.717948717948718
  7
FDASTYLE1
 72
     5
 11
139.890334846765
 21
-175.2166697391651
 31
0.0
  0
TEXT
  5
27F
  8
ZUWAKU
 62
     7
 10
99.96483784660289
 20
-165.9634530565915
 30
0.0
 40
2.0825
  1
記号
 41
0.8
  7
FDASTYLE0
  0
TEXT
  5
280
  8
ZUWAKU
 62
     7
 10
105.9042249067618
 20
-165.9634530565915
 30
0.0
 40
2.0825
  1
理由
 41
0.8
  7
FDASTYLE0
  0
TEXT
  5
281
  8
ZUWAKU
 62
     7
 10
111.6193667909843
 20
-169.8786046700178
 30
0.0
 40
3.0
  1
日 付
 41
0.7058823529411754
  7
FDASTYLE1
 72
     5
 11
118.8193667909843
 21
-169.8786046700178
 31
0.0
  0
TEXT
  5
282
  8
ZUWAKU
 62
     7
 10
153.4481689819652
 20
-165.7187911464244
 30
0.0
 40
3.0
  1
承   認
 41
0.7407407407407408
  7
FDASTYLE1
 72
     5
 11
165.4481689819652
 21
-165.7187911464244
 31
0.0
  0
TEXT
  5
283
  8
ZUWAKU
 62
     7
 10
179.863228033234
 20
-165.4873041997729
 30
0.0
 40
3.0
  1
検   図
 41
0.7407407407407408
  7
FDASTYLE1
 72
     5
 11
191.863228033234
 21
-165.4873041997729
 31
0.0
  0
TEXT
  5
284
  8
ZUWAKU
 62
     7
 10
201.4771920983751
 20
-165.4873041997729
 30
0.0
 40
3.0
  1
担  当
 41
0.7272727272727269
  7
FDASTYLE1
 72
     5
 11
211.0771920983751
 21
-165.4873041997729
 31
0.0
  0
TEXT
  5
285
  8
ZUWAKU
 62
     7
 10
214.6770574841112
 20
-165.4873041997729
 30
0.0
 40
3.0
  1
製  図
 41
0.7272727272727269
  7
FDASTYLE1
 72
     5
 11
224.2770574841112
 21
-165.4873041997729
 31
0.0
  0
TEXT
  5
286
  8
ZUWAKU
 62
     7
 10
226.9462372304199
 20
-153.2184960272417
 30
0.0
 40
3.0
  1
作図
 41
0.6666666666666683
  7
FDASTYLE1
 72
     5
 11
231.7462372304199
 21
-153.2184960272417
 31
0.0
  0
TEXT
  5
287
  8
ZUWAKU
 62
     7
 10
228.1036719636776
 20
-160.2371566401815
 30
0.0
 40
4.0
  1
第 三 角 法
 41
0.7179487179487182
  7
FDASTYLE1
 72
     5
 11
250.5036719636776
 21
-160.2371566401815
 31
0.0
  0
TEXT
  5
288
  8
ZUWAKU
 62
     7
 10
227.409211123723
 20
-166.413251986379
 30
0.0
 40
3.0
  1
尺度
 41
0.6666666666666683
  7
FDASTYLE1
 72
     5
 11
232.209211123723
 21
-166.413251986379
 31
0.0
  0
TEXT
  5
28A
  8
ZUWAKU
 62
     3
 10
105.379154370034
 20
-185.9272077185017
 30
0.0
 40
7.0
  1
株式会社 野村製作所
 41
0.5763738641280831
  7
FDASTYLE2
 72
     5
 11
161.379154370034
 21
-185.9272077185017
 31
0.0
  0
TEXT
  5
28C
  8
ZUWAKU
 62
     3
 10
177.915125194095
 20
-186.9326208268579
 30
0.0
 40
8.0
  1
２－
 41
0.8244023083264632
  7
FDASTYLE3
 72
     5
 11
193.915125194095
 21
-186.9326208268579
 31
0.0
  0
TEXT
  5
28D
  8
ZUWAKU
 62
     3
 10
194.8270828185018
 20
-186.9326208268579
 30
0.0
 40
8.0
  1
C008103
 41
1.564945226917058
  7
FDASTYLE3
 72
     5
 11
250.8270828185018
 21
-186.9326208268579
 31
0.0
  0
TEXT
  5
28E
  8
ZUWAKU
 62
     3
 10
105.379154370034
 20
-185.9272077185017
 30
0.0
 40
7.0
  1
株式会社 野村製作所
 41
0.5763738641280831
  7
FDASTYLE2
 72
     5
 11
161.379154370034
 21
-185.9272077185017
 31
0.0
  0
TEXT
  5
28F
  8
ZUWAKU
 62
     6
 10
157.0070051766932
 20
-145.3589000228561
 30
0.0
 40
5.0
  1
外形図（センターホルダー付）
 41
0.5833333333333334
  7
FDASTYLE1
 72
     5
 11
206.0070051766932
 21
-145.3589000228561
 31
0.0
  0
TEXT
  5
290
  8
ZUWAKU
 62
     6
 10
153.6045934631717
 20
-154.329135039116
 30
0.0
 40
5.0
  1
日鋼プﾚｼジｫﾝ
 41
0.6363636363636364
  7
FDASTYLE1
 72
     5
 11
181.6045934631717
 21
-154.329135039116
 31
0.0
  0
TEXT
  5
291
  8
ZUWAKU
 62
     6
 10
176.7533929846966
 20
-160.7144995510049
 30
0.0
 40
5.0
  1
COP-8型ﾁｬｯｸ
 41
0.6862745098039216
  7
FDASTYLE1
 72
     5
 11
211.7533929846966
 21
-160.7144995510049
 31
0.0
  0
TEXT
  5
292
  8
ZUWAKU
 62
     4
 10
239.3011788906399
 20
-172.297487439201
 30
0.0
 40
3.0
  1
1/1
 41
0.7000000000000013
  7
FDASTYLE1
 72
     5
 11
245.6011788906399
 21
-172.297487439201
 31
0.0
  0
TEXT
  5
293
  8
ZUWAKU
 62
     4
 10
239.3011788906399
 20
-172.297487439201
 30
0.0
 40
3.0
  1
1/1
 41
0.7000000000000013
  7
FDASTYLE1
 72
     5
 11
245.6011788906399
 21
-172.297487439201
 31
0.0
  0
TEXT
  5
294
  8
0
 62
     7
 10
256.9118216031794
 20
-144.5110618690862
 30
0.0
 40
4.0
  1
標準
 41
0.5833333333333357
  7
FDASTYLE1
 72
     5
 11
262.5118216031794
 21
-144.5110618690862
 31
0.0
  0
TEXT
  5
295
  8
0
 62
     7
 10
230.5293517639194
 20
-145.4114874608697
 30
0.0
 40
4.0
  1
一式
 41
0.5833333333333328
  7
FDASTYLE1
 72
     5
 11
236.1293517639194
 21
-145.4114874608697
 31
0.0
  0
TEXT
  5
296
  8
0
 62
     7
 10
7.806843139167827
 20
41.43688226531643
 30
0.0
 40
4.0
  1
(MAX55 MIN45)
 50
90.0
 41
0.8
  7
FDASTYLE1
 72
     5
 11
7.806843139167827
 21
83.03688226531644
 31
0.0
  0
LINE
  5
297
  8
0
  6
CONTINUOUS
 62
     6
 10
-82.71622162983353
 20
-186.2116755740609
 30
0.0
 11
46.2534896738774
 21
-186.2116755740609
 31
0.0
  0
LINE
  5
298
  8
0
  6
CONTINUOUS
 62
     6
 10
-82.71622162983353
 20
-179.2116755740609
 30
0.0
 11
46.2534896738774
 21
-179.2116755740609
 31
0.0
  0
LINE
  5
299
  8
0
  6
CONTINUOUS
 62
     6
 10
-82.71622162983353
 20
-172.2116755740609
 30
0.0
 11
46.2534896738774
 21
-172.2116755740609
 31
0.0
  0
LINE
  5
29A
  8
0
  6
CONTINUOUS
 62
     6
 10
-82.71622162983353
 20
-165.2116755740609
 30
0.0
 11
46.2534896738774
 21
-165.2116755740609
 31
0.0
  0
LINE
  5
29B
  8
0
  6
CONTINUOUS
 62
     6
 10
-87.29257661030228
 20
-158.2116755740609
 30
0.0
 11
-30.08826142475541
 21
-158.2116755740609
 31
0.0
  0
LINE
  5
29C
  8
0
  6
CONTINUOUS
 62
     6
 10
-263.301147000316
 20
-186.3305795525529
 30
0.0
 11
-101.4458537263902
 21
-186.3305795525529
 31
0.0
  0
LINE
  5
29D
  8
0
  6
CONTINUOUS
 62
     6
 10
-263.301147000316
 20
-179.3305795525529
 30
0.0
 11
-101.4458537263902
 21
-179.3305795525529
 31
0.0
  0
LINE
  5
29E
  8
0
  6
CONTINUOUS
 62
     6
 10
-263.301147000316
 20
-172.3305795525529
 30
0.0
 11
-101.4458537263902
 21
-172.3305795525529
 31
0.0
  0
LINE
  5
29F
  8
0
  6
CONTINUOUS
 62
     6
 10
-263.301147000316
 20
-165.3305795525529
 30
0.0
 11
-101.4458537263902
 21
-165.3305795525529
 31
0.0
  0
LINE
  5
2A0
  8
0
  6
CONTINUOUS
 62
     6
 10
-263.301147000316
 20
-158.3305795525529
 30
0.0
 11
-101.4458537263902
 21
-158.3305795525529
 31
0.0
  0
LINE
  5
2A1
  8
0
  6
CONTINUOUS
 62
     6
 10
-263.301147000316
 20
-151.3305795525529
 30
0.0
 11
-101.4458537263902
 21
-151.3305795525529
 31
0.0
  0
LINE
  5
2A2
  8
0
  6
CONTINUOUS
 62
     6
 10
-263.301147000316
 20
-144.3305795525529
 30
0.0
 11
-101.4458537263902
 21
-144.3305795525529
 31
0.0
  0
LINE
  5
2A3
  8
0
  6
CONTINUOUS
 62
     6
 10
-263.301147000316
 20
-137.3305795525529
 30
0.0
 11
-101.4458537263902
 21
-137.3305795525529
 31
0.0
  0
LINE
  5
2A4
  8
0
  6
CONTINUOUS
 62
     6
 10
-263.301147000316
 20
-123.3305795525529
 30
0.0
 11
-246.7791896028551
 21
-123.3305795525529
 31
0.0
  0
LINE
  5
2A5
  8
0
  6
CONTINUOUS
 62
     6
 10
-263.301147000316
 20
-130.3305795525529
 30
0.0
 11
-101.4458537263902
 21
-130.3305795525529
 31
0.0
  0
LINE
  5
2A6
  8
0
  6
CONTINUOUS
 62
     6
 10
26.52931467730525
 20
-154.3990536791155
 30
0.0
 11
74.92701975543025
 21
-154.3990536791155
 31
0.0
  0
TEXT
  5
2A7
  8
0
 62
     6
 10
-86.22494810745651
 20
-156.9253443973031
 30
0.0
 40
4.0
  1
COP型ﾁｬｯｸ使用上の注意
 41
0.7283764907546588
  7
FDASTYLE1
 72
     5
 11
-31.36780399010117
 21
-156.9253443973031
 31
0.0
  0
TEXT
  5
2A8
  8
0
 62
     6
 10
-81.56579208300049
 20
-161.5516565935578
 30
0.0
 40
2.0
  1
☆
 41
0.5952383577823639
  7
FDASTYLE1
 72
     5
 11
-80.13722002432282
 21
-161.5516565935578
 31
0.0
  0
TEXT
  5
2A9
  8
0
 62
     6
 10
-80.28007811233934
 20
-164.0516566531625
 30
0.0
 40
4.0
  1
COP型ﾁｬｯｸは両側ｾﾝﾀｰで御使用下さい。
 41
0.7233850578133115
  7
FDASTYLE1
 72
     5
 11
10.57706600501601
 21
-164.0516566531625
 31
0.0
  0
TEXT
  5
2AA
  8
0
 62
     6
 10
-81.56579208300049
 20
-168.5516565935578
 30
0.0
 40
2.0
  1
☆
 41
0.5952383577823639
  7
FDASTYLE1
 72
     5
 11
-80.13722002432282
 21
-168.5516565935578
 31
0.0
  0
TEXT
  5
2AB
  8
0
 62
     6
 10
-80.28007811233934
 20
-171.0516566531625
 30
0.0
 40
4.0
  1
COP型ﾁｬｯｸに使用するシリンダーのｽﾄﾛｰｸは、
 41
0.7211540079137738
  7
FDASTYLE1
 72
     5
 11
22.57706600501601
 21
-171.0516566531625
 31
0.0
  0
TEXT
  5
2AC
  8
0
 62
     6
 10
-82.28007811233933
 20
-178.0516566531625
 30
0.0
 40
4.0
  1
  ﾁｬｯｸピストンストロークに合った物以外、使用してはいけません。
 41
0.6916765856339457
  7
FDASTYLE1
 72
     5
 11
52.57706600501602
 21
-178.0516566531625
 31
0.0
  0
TEXT
  5
2AD
  8
0
 62
     6
 10
-81.56579208300049
 20
-182.5516565935578
 30
0.0
 40
2.0
  1
☆　
 41
0.638298064524279
  7
FDASTYLE1
 72
     5
 11
-78.13722002432282
 21
-182.5516565935578
 31
0.0
  0
TEXT
  5
2AE
  8
0
 62
     6
 10
-78.28007811233934
 20
-185.0516566531625
 30
0.0
 40
4.0
  1
御要望により、フローティング量を調整する事もできます。
 41
0.6707318531740094
  7
FDASTYLE1
 72
     5
 11
28.57706600501601
 21
-185.0516566531625
 31
0.0
  0
TEXT
  5
2AF
  8
0
 62
     6
 10
-261.1528125950426
 20
-122.1948068474747
 30
0.0
 40
4.5
  1
仕　様
 41
0.6506850891349445
  7
FDASTYLE1
 72
     5
 11
-248.9385255950426
 21
-122.1948068474747
 31
0.0
  0
TEXT
  5
2B0
  8
0
 62
     6
 10
-261.4447742649645
 20
-129.0047433709122
 30
0.0
 40
4.5
  1
1.爪ﾉｽﾄﾛｰｸ　（直径）
 41
0.7361964698521113
  7
FDASTYLE1
 72
     5
 11
-199.7304872649644
 21
-129.0047433709122
 31
0.0
  0
TEXT
  5
2B1
  8
0
 62
     6
 10
-261.4447742649645
 20
-136.0047433709122
 30
0.0
 40
4.5
  1
2.ピストンストローク
 41
0.6970261574950822
  7
FDASTYLE1
 72
     5
 11
-213.2304872649644
 21
-136.0047433709122
 31
0.0
  0
TEXT
  5
2B2
  8
0
 62
     6
 10
-261.4447742649645
 20
-143.0047433709122
 30
0.0
 40
4.5
  1
３．把握径ノ最大振レ
 41
0.6666668039215931
  7
FDASTYLE1
 72
     5
 11
-217.7304872649644
 21
-143.0047433709122
 31
0.0
  0
TEXT
  5
2B3
  8
0
 62
     6
 10
-261.4447742649645
 20
-150.0047433709122
 30
0.0
 40
4.5
  1
４．推奨シリンダー
 41
0.6659390027841055
  7
FDASTYLE1
 72
     5
 11
-222.2304872649644
 21
-150.0047433709122
 31
0.0
  0
TEXT
  5
2B4
  8
0
 62
     6
 10
-261.4447742649645
 20
-157.0047433709122
 30
0.0
 40
4.5
  1
５．許容シリンダー力
 41
0.6666668039215931
  7
FDASTYLE1
 72
     5
 11
-217.7304872649644
 21
-157.0047433709122
 31
0.0
  0
TEXT
  5
2B5
  8
0
 62
     6
 10
-261.4447742649645
 20
-164.0047433709122
 30
0.0
 40
4.5
  1
６．最大静的把握力
 41
0.6659390027841055
  7
FDASTYLE1
 72
     5
 11
-222.2304872649644
 21
-164.0047433709122
 31
0.0
  0
TEXT
  5
2B6
  8
0
 62
     6
 10
-261.4447742649645
 20
-171.0047433709122
 30
0.0
 40
4.5
  1
７．最高使用回転速度
 41
0.6666668039215931
  7
FDASTYLE1
 72
     5
 11
-217.7304872649644
 21
-171.0047433709122
 31
0.0
  0
TEXT
  5
2B7
  8
0
 62
     6
 10
-261.4447742649645
 20
-178.0047433709122
 30
0.0
 40
4.5
  1
８．慣性モーメント
 41
0.6659390027841055
  7
FDASTYLE1
 72
     5
 11
-222.2304872649644
 21
-178.0047433709122
 31
0.0
  0
TEXT
  5
2B8
  8
0
 62
     6
 10
-261.4447742649645
 20
-185.0047433709122
 30
0.0
 40
4.5
  1
９．質　量
 41
0.6600001456000237
  7
FDASTYLE1
 72
     5
 11
-240.2304872649644
 21
-185.0047433709122
 31
0.0
  0
TEXT
  5
2B9
  8
0
 62
     6
 10
-130.5863147923082
 20
-128.9125650261857
 30
0.0
 40
4.5
  1
２０  ｍｍ
 41
0.7194245999172086
  7
FDASTYLE1
 72
     5
 11
-104.8720277923082
 21
-128.9125650261857
 31
0.0
  0
TEXT
  5
2BA
  8
0
 62
     6
 10
-130.5863147923082
 20
-136.1458871697404
 30
0.0
 40
4.5
  1
25  mm
 41
0.7692309556213376
  7
FDASTYLE1
 72
     5
 11
-104.8720277923082
 21
-136.1458871697404
 31
0.0
  0
TEXT
  5
2BB
  8
0
 62
     6
 10
-130.4863392063707
 20
-143.1459024285294
 30
0.0
 40
4.5
  1
 4  mm
 41
0.7692309556213376
  7
FDASTYLE1
 72
     5
 11
-104.7720522063707
 21
-143.1459024285294
 31
0.0
  0
TEXT
  5
2BC
  8
0
 62
     6
 10
-144.3466592839665
 20
-150.1459024285294
 30
0.0
 40
4.5
  1
52TS-TA1型
 41
0.7780613889395337
  7
FDASTYLE1
 72
     5
 11
-105.1323722839665
 21
-150.1459024285294
 31
0.0
  0
TEXT
  5
2BD
  8
0
 62
     6
 10
-140.094569797191
 20
-157.1948068474747
 30
0.0
 40
4.5
  1
20.7  kN
 41
0.7714287542857508
  7
FDASTYLE1
 72
     5
 11
-105.380282797191
 21
-157.1948068474747
 31
0.0
  0
TEXT
  5
2BE
  8
0
 62
     6
 10
-140.094569797191
 20
-164.1948068474747
 30
0.0
 40
4.5
  1
31.4  kN
 41
0.7714287542857508
  7
FDASTYLE1
 72
     5
 11
-105.380282797191
 21
-164.1948068474747
 31
0.0
  0
TEXT
  5
2BF
  8
0
 62
     6
 10
-139.6196552464098
 20
-171.1459024285294
 30
0.0
 40
4.5
  1
3200 min
 41
0.7714287542857508
  7
FDASTYLE1
 72
     5
 11
-104.9053682464098
 21
-171.1459024285294
 31
0.0
  0
TEXT
  5
2C0
  8
0
 62
     6
 10
-105.2426598184589
 20
-168.1503620606542
 30
0.0
 40
2.25
  1
-1
 41
0.7500001944444864
  7
FDASTYLE1
 72
     5
 11
-101.3855168184589
 21
-168.1503620606542
 31
0.0
  0
TEXT
  5
2C1
  8
0
 62
     6
 10
-140.0196567722887
 20
-178.1459024285294
 30
0.0
 40
4.5
  1
0.2 kg・m
 41
0.7780981460688436
  7
FDASTYLE1
 72
     5
 11
-105.3053697722887
 21
-178.1459024285294
 31
0.0
  0
TEXT
  5
2C2
  8
0
 62
     6
 10
-104.8547118933213
 20
-175.3556920677307
 30
0.0
 40
2.25
  1
2
 41
0.7142860000000029
  7
FDASTYLE1
 72
     5
 11
-103.2475683933213
 21
-175.3556920677307
 31
0.0
  0
TEXT
  5
2C3
  8
0
 62
     6
 10
-134.9196582981676
 20
-185.1459024285294
 30
0.0
 40
4.5
  1
 28  kg
 41
0.7704919876377681
  7
FDASTYLE1
 72
     5
 11
-104.7053712981676
 21
-185.1459024285294
 31
0.0
  0
TEXT
  5
2C4
  8
0
 62
     6
 10
-214.1712242632781
 20
-156.5170332515352
 30
0.0
 40
2.599999904632568
  1
(52TS-TA1型 使用圧力 MAX 3.2MPa)
 41
0.7601627880449519
  7
FDASTYLE1
 72
     5
 11
-144.7140831023131
 21
-156.5170332515352
 31
0.0
  0
TEXT
  5
2C5
  8
0
 62
     6
 10
26.73758188921931
 20
-154.1387234789202
 30
0.0
 40
5.0
  1
標準センター　バネ荷重表
 41
0.6666666666666666
  7
FDASTYLE1
 72
     5
 11
74.73758188921931
 21
-154.1387234789202
 31
0.0
  0
TEXT
  5
2C6
  8
0
 62
     6
 10
33.39090928718236
 20
-109.7985193477158
 30
0.0
 40
3.0
  1
520N(取付時)
 41
0.7500000000000001
  7
FDASTYLE1
 72
     5
 11
54.99090928718236
 21
-109.7985193477158
 31
0.0
  0
TEXT
  5
2C7
  8
0
 62
     6
 10
54.89648691851619
 20
-129.2839596849748
 30
0.0
 40
3.0
  1
5.7mm
 50
90.0
 41
0.7999999999999991
  7
FDASTYLE1
 72
     5
 11
54.89648691851619
 21
-117.2839596849749
 31
0.0
  0
LINE
  5
2C8
  8
0
  6
CONTINUOUS
 62
     3
 10
-163.2431713566818
 20
145.2368906576504
 30
0.0
 11
-163.2431713566818
 21
125.2273539144864
 31
0.0
  0
LINE
  5
2C9
  8
0
  6
CONTINUOUS
 62
     3
 10
-163.2431713566818
 20
145.2368906576504
 30
0.0
 11
-90.54318203783413
 21
145.2368906576504
 31
0.0
  0
LINE
  5
2CA
  8
0
  6
CONTINUOUS
 62
     3
 10
-163.2431713566818
 20
-69.76310934234957
 30
0.0
 11
-39.04317822313686
 21
-69.76310934234957
 31
0.0
  0
LINE
  5
2CB
  8
0
  6
CONTINUOUS
 62
     3
 10
-159.0431744084396
 20
132.7368906576504
 30
0.0
 11
-159.0431744084396
 21
124.9613092977872
 31
0.0
  0
LINE
  5
2CC
  8
0
  6
CONTINUOUS
 62
     3
 10
-163.2431713566818
 20
-57.26311315704685
 30
0.0
 11
-159.0431744084396
 21
-57.26311315704685
 31
0.0
  0
LINE
  5
2CD
  8
0
  6
CONTINUOUS
 62
     3
 10
-163.2431713566818
 20
132.7368906576504
 30
0.0
 11
-159.0431744084396
 21
132.7368906576504
 31
0.0
  0
LINE
  5
2CE
  8
0
  6
CONTINUOUS
 62
     3
 10
-115.6615520939865
 20
79.23689065765043
 30
0.0
 11
-94.42480435228725
 21
79.23689065765043
 31
0.0
  0
LINE
  5
2CF
  8
0
  6
CONTINUOUS
 62
     3
 10
-112.0431744084396
 20
61.23688684295316
 30
0.0
 11
-98.04318203783413
 21
61.23688684295316
 31
0.0
  0
LINE
  5
2D0
  8
0
  6
CONTINUOUS
 62
     3
 10
-112.0431744084396
 20
79.23689065765043
 30
0.0
 11
-112.0431744084396
 21
64.23688684295317
 31
0.0
  0
LINE
  5
2D1
  8
0
  6
CONTINUOUS
 62
     3
 10
-98.04318203783413
 20
79.23689065765043
 30
0.0
 11
-98.04318203783413
 21
64.23688684295317
 31
0.0
  0
LINE
  5
2D2
  8
0
  6
CONTINUOUS
 62
     3
 10
-113.0431720650141
 20
79.23689429333743
 30
0.0
 11
-114.8987684737848
 21
90.20178217841131
 31
0.0
  0
LINE
  5
2D3
  8
0
  6
CONTINUOUS
 62
     3
 10
-97.04317531572221
 20
79.23688504374746
 30
0.0
 11
-96.35999741474906
 21
92.27269125603792
 31
0.0
  0
LINE
  5
2D4
  8
0
  6
CONTINUOUS
 62
     3
 10
-114.7431713566818
 20
63.23688684295316
 30
0.0
 11
-95.34318508959194
 21
63.23688684295316
 31
0.0
  0
LINE
  5
2D5
  8
0
  6
CONTINUOUS
 62
     3
 10
-115.6615520939865
 20
64.23688684295317
 30
0.0
 11
-94.42480435228725
 21
64.23688684295317
 31
0.0
  0
LINE
  5
2D6
  8
0
  6
CONTINUOUS
 62
     3
 10
-111.7431713566818
 20
64.23688684295317
 30
0.0
 11
-111.7431713566818
 21
63.23688684295316
 31
0.0
  0
LINE
  5
2D7
  8
0
  6
CONTINUOUS
 62
     3
 10
-98.34318508959194
 20
64.23688684295317
 30
0.0
 11
-98.34318508959194
 21
63.23688684295316
 31
0.0
  0
LINE
  5
2D8
  8
0
  6
CONTINUOUS
 62
     3
 10
-112.0431744084396
 20
63.23688684295316
 30
0.0
 11
-112.0431744084396
 21
61.23688684295316
 31
0.0
  0
LINE
  5
2D9
  8
0
  6
CONTINUOUS
 62
     3
 10
-98.04318203783413
 20
63.23688684295316
 30
0.0
 11
-98.04318203783413
 21
61.23688684295316
 31
0.0
  0
LINE
  5
2DA
  8
0
  6
CONTINUOUS
 62
     3
 10
-95.34318508959194
 20
64.23688684295317
 30
0.0
 11
-95.34318508959194
 21
63.23688684295316
 31
0.0
  0
LINE
  5
2DB
  8
0
  6
CONTINUOUS
 62
     3
 10
-114.7431713566818
 20
64.23688684295317
 30
0.0
 11
-114.7431713566818
 21
63.23688684295316
 31
0.0
  0
LINE
  5
2DC
  8
0
  6
CONTINUOUS
 62
     3
 10
-163.2431713566818
 20
7.684376819836089
 30
0.0
 11
-163.2431713566818
 21
-69.76310934234957
 31
0.0
  0
LINE
  5
2DD
  8
0
  6
CONTINUOUS
 62
     3
 10
-159.0431744084396
 20
7.684376819836089
 30
0.0
 11
-159.0431744084396
 21
-57.26311315704685
 31
0.0
  0
LINE
  5
2DE
  8
0
  6
CONTINUOUS
 62
     3
 10
-90.54318203783413
 20
145.2368906576504
 30
0.0
 11
-90.54318203783413
 21
125.9677581593288
 31
0.0
  0
LINE
  5
2DF
  8
0
  6
CONTINUOUS
 62
     3
 10
-90.54318203783413
 20
145.2368906576504
 30
0.0
 11
-72.54318203783413
 21
145.2368906576504
 31
0.0
  0
LINE
  5
2E0
  8
0
  6
CONTINUOUS
 62
     3
 10
-90.54318203783413
 20
87.73689065765043
 30
0.0
 11
-60.04318203783413
 21
87.73689065765043
 31
0.0
  0
LINE
  5
2E1
  8
0
  6
CONTINUOUS
 62
     3
 10
-159.0431744084396
 20
88.73689065765043
 30
0.0
 11
-137.1501537785568
 21
88.73689065765043
 31
0.0
  0
LINE
  5
2E2
  8
0
  6
CONTINUOUS
 62
     3
 10
-159.0431744084396
 20
-13.26311124969821
 30
0.0
 11
-137.3400036320724
 21
-13.26311124969821
 31
0.0
  0
LINE
  5
2E3
  8
0
  6
CONTINUOUS
 62
     3
 10
-159.0431744084396
 20
-17.76311124969821
 30
0.0
 11
-104.0431820378341
 21
-17.76311124969821
 31
0.0
  0
LINE
  5
2E4
  8
0
  6
CONTINUOUS
 62
     3
 10
-104.0431820378341
 20
-13.26311124969821
 30
0.0
 11
-104.0431820378341
 21
-17.76311124969821
 31
0.0
  0
LINE
  5
2E5
  8
0
  6
CONTINUOUS
 62
     3
 10
-135.0431744084396
 20
64.73688684295317
 30
0.0
 11
-118.0431744084396
 21
64.73688684295317
 31
0.0
  0
LINE
  5
2E6
  8
0
  6
CONTINUOUS
 62
     3
 10
-135.0431744084396
 20
10.73688779662747
 30
0.0
 11
-118.0431744084396
 21
10.73688779662747
 31
0.0
  0
LINE
  5
2E7
  8
0
  6
CONTINUOUS
 62
     3
 10
-92.04318203783413
 20
64.73688684295317
 30
0.0
 11
-75.04318203783413
 21
64.73688684295317
 31
0.0
  0
LINE
  5
2E8
  8
0
  6
CONTINUOUS
 62
     3
 10
-92.04318203783413
 20
10.73688779662747
 30
0.0
 11
-75.04318203783413
 21
10.73688779662747
 31
0.0
  0
LINE
  5
2E9
  8
0
  6
CONTINUOUS
 62
     3
 10
-134.4214172837444
 20
72.73689706446945
 30
0.0
 11
-122.645375402443
 21
79.53579726347144
 31
0.0
  0
LINE
  5
2EA
  8
0
  6
CONTINUOUS
 62
     3
 10
-87.44099682764414
 20
-4.062008750433378
 30
0.0
 11
-73.93290405065187
 21
3.736891388963969
 31
0.0
  0
LINE
  5
2EB
  8
0
  6
CONTINUOUS
 62
     3
 10
-87.44101196723625
 20
79.53580155650948
 30
0.0
 11
-73.93289936849453
 21
71.73688997302102
 31
0.0
  0
LINE
  5
2EC
  8
0
  6
CONTINUOUS
 62
     3
 10
-134.4214069480115
 20
2.736878831006052
 30
0.0
 11
-122.6453518522105
 21
-4.062028997390016
 31
0.0
  0
LINE
  5
2ED
  8
0
  6
CONTINUOUS
 62
     3
 10
-87.4410015568771
 20
79.73689065765043
 30
0.0
 11
-87.4410015568771
 21
79.15142618011137
 31
0.0
  0
LINE
  5
2EE
  8
0
  6
CONTINUOUS
 62
     3
 10
-122.6453625187912
 20
88.73689065765043
 30
0.0
 11
-122.6453625187912
 21
79.15142618011137
 31
0.0
  0
LINE
  5
2EF
  8
0
  6
CONTINUOUS
 62
     3
 10
-122.6453625187912
 20
-4.062012807620576
 30
0.0
 11
-122.6453625187912
 21
-7.263112203372529
 31
0.0
  0
LINE
  5
2F0
  8
0
  6
CONTINUOUS
 62
     3
 10
-87.4410015568771
 20
-3.677643911136201
 30
0.0
 11
-87.4410015568771
 21
-6.263112203372529
 31
0.0
  0
LINE
  5
2F1
  8
0
  6
CONTINUOUS
 62
     3
 10
-87.4410015568771
 20
79.73689065765043
 30
0.0
 11
-72.4410015568771
 21
79.73689065765043
 31
0.0
  0
LINE
  5
2F2
  8
0
  6
CONTINUOUS
 62
     3
 10
-119.6453625187912
 20
85.73689065765043
 30
0.0
 11
-115.4913860783615
 21
85.73689065765043
 31
0.0
  0
LINE
  5
2F3
  8
0
  6
CONTINUOUS
 62
     3
 10
-136.6409985051193
 20
88.73689065765043
 30
0.0
 11
-122.6453625187912
 21
88.73689065765043
 31
0.0
  0
LINE
  5
2F4
  8
0
  6
CONTINUOUS
 62
     3
 10
-136.6409985051193
 20
-13.26311124969821
 30
0.0
 11
-74.44099392748257
 21
-13.26311124969821
 31
0.0
  0
LINE
  5
2F5
  8
0
  6
CONTINUOUS
 62
     3
 10
-119.6409985051193
 20
-7.263112203372529
 30
0.0
 11
-88.4410015568771
 21
-7.263112203372529
 31
0.0
  0
LINE
  5
2F6
  8
0
  6
CONTINUOUS
 62
     3
 10
-137.6409985051193
 20
88.23689065765043
 30
0.0
 11
-137.6409985051193
 21
81.93688760589262
 31
0.0
  0
LINE
  5
2F7
  8
0
  6
CONTINUOUS
 62
     3
 10
-119.6409985051193
 20
-5.513116018069795
 30
0.0
 11
-119.6409985051193
 21
-6.513112203372529
 31
0.0
  0
LINE
  5
2F8
  8
0
  6
CONTINUOUS
 62
     3
 10
-122.6409985051193
 20
-7.513112203372529
 30
0.0
 11
-120.6409985051193
 21
-7.513112203372529
 31
0.0
  0
LINE
  5
2F9
  8
0
  6
CONTINUOUS
 62
     3
 10
-140.6453472600021
 20
72.73689065765043
 30
0.0
 11
-134.4213940129318
 21
72.73689065765043
 31
0.0
  0
LINE
  5
2FA
  8
0
  6
CONTINUOUS
 62
     3
 10
-140.6453472600021
 20
2.736887915836761
 30
0.0
 11
-134.4213940129318
 21
2.736887915836761
 31
0.0
  0
LINE
  5
2FB
  8
0
  6
CONTINUOUS
 62
     3
 10
-134.4213940129318
 20
72.73689065765043
 30
0.0
 11
-134.4213940129318
 21
71.82384286712309
 31
0.0
  0
LINE
  5
2FC
  8
0
  6
CONTINUOUS
 62
     3
 10
-134.4213940129318
 20
3.649935736166427
 30
0.0
 11
-134.4213940129318
 21
2.736887915836761
 31
0.0
  0
LINE
  5
2FD
  8
0
  6
CONTINUOUS
 62
     3
 10
-153.1453472600021
 20
12.48688779662747
 30
0.0
 11
-151.1453472600021
 21
12.48688779662747
 31
0.0
  0
LINE
  5
2FE
  8
0
  6
CONTINUOUS
 62
     3
 10
-153.1453472600021
 20
62.98688684295316
 30
0.0
 11
-151.1453472600021
 21
62.98688684295316
 31
0.0
  0
LINE
  5
2FF
  8
0
  6
CONTINUOUS
 62
     3
 10
-169.1453472600021
 20
13.53688703368802
 30
0.0
 11
-154.1453472600021
 21
13.53688703368802
 31
0.0
  0
LINE
  5
300
  8
0
  6
CONTINUOUS
 62
     3
 10
-169.1453472600021
 20
61.93688760589261
 30
0.0
 11
-154.1453472600021
 21
61.93688760589261
 31
0.0
  0
LINE
  5
301
  8
0
  6
CONTINUOUS
 62
     3
 10
-168.6453472600021
 20
66.23688684295317
 30
0.0
 11
-149.1453472600021
 21
66.23688684295317
 31
0.0
  0
LINE
  5
302
  8
0
  6
CONTINUOUS
 62
     3
 10
-168.6453472600021
 20
9.236887796627471
 30
0.0
 11
-149.1453472600021
 21
9.236887796627471
 31
0.0
  0
LINE
  5
303
  8
0
  6
CONTINUOUS
 62
     3
 10
-146.6453472600021
 20
87.23689065765043
 30
0.0
 11
-146.6453472600021
 21
68.73689065765043
 31
0.0
  0
LINE
  5
304
  8
0
  6
CONTINUOUS
 62
     3
 10
-145.6453472600021
 20
-12.76311124969821
 30
0.0
 11
-137.6409985051193
 21
-12.76311124969821
 31
0.0
  0
LINE
  5
305
  8
0
  6
CONTINUOUS
 62
     3
 10
-145.6453472600021
 20
88.23689065765043
 30
0.0
 11
-137.6409985051193
 21
88.23689065765043
 31
0.0
  0
LINE
  5
306
  8
0
  6
CONTINUOUS
 62
     3
 10
-146.6453472600021
 20
6.73688803504605
 30
0.0
 11
-146.6453472600021
 21
-11.76311220337253
 31
0.0
  0
LINE
  5
307
  8
0
  6
CONTINUOUS
 62
     3
 10
-168.6453368608833
 20
9.236877436411433
 30
0.0
 11
-170.1453365566574
 21
10.73688092540591
 31
0.0
  0
LINE
  5
308
  8
0
  6
CONTINUOUS
 62
     3
 10
-170.1453384111325
 20
64.73686811897292
 30
0.0
 11
-168.645334922138
 21
66.23686781474694
 31
0.0
  0
LINE
  5
309
  8
0
  6
CONTINUOUS
 62
     3
 10
-146.645323185781
 20
-11.76308966522798
 30
0.0
 11
-145.6453211126661
 21
-12.76308979958581
 31
0.0
  0
LINE
  5
30A
  8
0
  6
CONTINUOUS
 62
     3
 10
-146.6453114015628
 20
87.23684255383537
 30
0.0
 11
-145.6453093284478
 21
88.23684268819321
 31
0.0
  0
LINE
  5
30B
  8
0
  6
CONTINUOUS
 62
     3
 10
-169.1453442246345
 20
61.93688020555614
 30
0.0
 11
-170.145345286224
 21
62.93688126714564
 31
0.0
  0
LINE
  5
30C
  8
0
  6
CONTINUOUS
 62
     3
 10
-169.1453226454484
 20
13.53688061467086
 30
0.0
 11
-170.1453237070379
 21
12.53687955308136
 31
0.0
  0
LINE
  5
30D
  8
0
  6
CONTINUOUS
 62
     3
 10
-169.1453472600021
 20
61.93688760589261
 30
0.0
 11
-169.1453472600021
 21
58.88888888888893
 31
0.0
  0
LINE
  5
30E
  8
0
  6
CONTINUOUS
 62
     3
 10
-150.1453472600021
 20
15.23688779662747
 30
0.0
 11
-140.6453472600021
 21
15.23688779662747
 31
0.0
  0
LINE
  5
30F
  8
0
  6
CONTINUOUS
 62
     3
 10
-150.1453472600021
 20
60.23688684295316
 30
0.0
 11
-140.6453472600021
 21
60.23688684295316
 31
0.0
  0
LINE
  5
310
  8
0
  6
CONTINUOUS
 62
     3
 10
-137.6409985051193
 20
-6.463112966311982
 30
0.0
 11
-137.6409985051193
 21
-12.76311124969821
 31
0.0
  0
LINE
  5
311
  8
0
  6
CONTINUOUS
 62
     3
 10
-136.6409520317986
 20
-13.26308454176511
 30
0.0
 11
-137.6409550321452
 21
-12.26308533463894
 31
0.0
  0
LINE
  5
312
  8
0
  6
CONTINUOUS
 62
     3
 10
-137.640967973369
 20
87.73686335723383
 30
0.0
 11
-136.6409669117795
 21
88.73686441882333
 31
0.0
  0
LINE
  5
313
  8
0
  6
CONTINUOUS
 62
     3
 10
-137.6409985051193
 20
-7.263112203372529
 30
0.0
 11
-134.6409985051193
 21
-7.263112203372529
 31
0.0
  0
LINE
  5
314
  8
0
  6
CONTINUOUS
 62
     3
 10
-137.6409985051193
 20
82.73689065765043
 30
0.0
 11
-122.6453625187912
 21
82.73689065765043
 31
0.0
  0
LINE
  5
315
  8
0
  6
CONTINUOUS
 62
     3
 10
-134.6409985051193
 20
-3.763112203372529
 30
0.0
 11
-134.6409985051193
 21
-13.26311124969821
 31
0.0
  0
LINE
  5
316
  8
0
  6
CONTINUOUS
 62
     3
 10
-128.6409985051193
 20
-3.763112203372529
 30
0.0
 11
-128.6409985051193
 21
-13.26311124969821
 31
0.0
  0
LINE
  5
317
  8
0
  6
CONTINUOUS
 62
     3
 10
-134.6409985051193
 20
-3.763112203372529
 30
0.0
 11
-128.6409985051193
 21
-3.763112203372529
 31
0.0
  0
LINE
  5
318
  8
0
  6
CONTINUOUS
 62
     3
 10
-128.6409985051193
 20
-7.263112203372529
 30
0.0
 11
-122.6453625187912
 21
-7.263112203372529
 31
0.0
  0
LINE
  5
319
  8
0
  6
CONTINUOUS
 62
     3
 10
-163.2431713566818
 20
105.4145050392549
 30
0.0
 11
-163.2431713566818
 21
67.61028467010161
 31
0.0
  0
LINE
  5
31A
  8
0
  6
CONTINUOUS
 62
     3
 10
-159.0431744084396
 20
100.7508677084317
 30
0.0
 11
-159.0431744084396
 21
67.61028467010161
 31
0.0
  0
LINE
  5
31B
  8
0
  6
CONTINUOUS
 62
     3
 10
-169.1453472600021
 20
16.95156695156697
 30
0.0
 11
-169.1453472600021
 21
13.53688703368802
 31
0.0
  0
ARC
  5
31C
  8
0
  6
CONTINUOUS
 62
     3
 10
-105.0431744084396
 20
71.73689065765043
 30
0.0
 40
13.0
 50
0.0
 51
35.23441875810288
  0
ARC
  5
31D
  8
0
  6
CONTINUOUS
 62
     3
 10
-96.54318203783413
 20
77.82267556975981
 30
0.0
 40
1.5
 50
109.4712394129729
 51
179.9999640278213
  0
ARC
  5
31E
  8
0
  6
CONTINUOUS
 62
     3
 10
-113.5431744084396
 20
77.82267556975981
 30
0.0
 40
1.5
 50
0.0
 51
70.52877925636179
  0
ARC
  5
31F
  8
0
  6
CONTINUOUS
 62
     3
 10
-105.0431744084396
 20
71.73689065765043
 30
0.0
 40
13.0
 50
144.7655999112318
 51
215.2343827859242
  0
ARC
  5
320
  8
0
  6
CONTINUOUS
 62
     3
 10
-105.0431744084396
 20
71.73689065765043
 30
0.0
 40
13.0
 50
324.7655812418971
 51
360.0
  0
ARC
  5
321
  8
0
  6
CONTINUOUS
 62
     3
 10
-105.0431744084396
 20
37.73688684295316
 30
0.0
 40
45.0
 50
48.1896859342567
 51
73.20854933570293
  0
ARC
  5
322
  8
0
  6
CONTINUOUS
 62
     3
 10
-105.0431744084396
 20
37.73688684295316
 30
0.0
 40
45.0
 50
106.7914693336317
 51
131.8103293199834
  0
ARC
  5
323
  8
0
  6
CONTINUOUS
 62
     3
 10
-105.0431744084396
 20
37.73688684295316
 30
0.0
 40
45.0
 50
228.1896706800166
 51
253.2085306663683
  0
ARC
  5
324
  8
0
  6
CONTINUOUS
 62
     3
 10
-105.0431744084396
 20
37.73688684295316
 30
0.0
 40
45.0
 50
286.7914506642971
 51
311.8103140657433
  0
ARC
  5
325
  8
0
  6
CONTINUOUS
 62
     3
 10
-119.6453625187912
 20
88.73689065765043
 30
0.0
 40
3.0
 50
179.9999776881997
 51
270.000028004002
  0
ARC
  5
326
  8
0
  6
CONTINUOUS
 62
     3
 10
-88.4410015568771
 20
-6.263112203372529
 30
0.0
 40
1.0
 50
270.0000179860894
 51
360.0
  0
ARC
  5
327
  8
0
  6
CONTINUOUS
 62
     3
 10
-120.6409985051193
 20
-6.513112203372529
 30
0.0
 40
1.0
 50
270.0000179860894
 51
360.0
  0
ARC
  5
328
  8
0
  6
CONTINUOUS
 62
     3
 10
-153.1453472600021
 20
61.98688684295316
 30
0.0
 40
1.0
 50
89.99998201391065
 51
179.9999640278213
  0
ARC
  5
329
  8
0
  6
CONTINUOUS
 62
     3
 10
-151.1453472600021
 20
61.98688684295316
 30
0.0
 40
1.0
 50
0.0
 51
89.99998201391065
  0
ARC
  5
32A
  8
0
  6
CONTINUOUS
 62
     3
 10
-151.1453472600021
 20
13.48688779662747
 30
0.0
 40
1.0
 50
270.0000179860894
 51
360.0
  0
ARC
  5
32B
  8
0
  6
CONTINUOUS
 62
     3
 10
-153.1453472600021
 20
13.48688779662747
 30
0.0
 40
1.0
 50
179.9999776881997
 51
270.000028004002
  0
ARC
  5
32C
  8
0
  6
CONTINUOUS
 62
     3
 10
-149.1453472600021
 20
68.73689065765043
 30
0.0
 40
2.5
 50
270.0000179860894
 51
360.0
  0
ARC
  5
32D
  8
0
  6
CONTINUOUS
 62
     3
 10
-149.1453472600021
 20
6.73688803504605
 30
0.0
 40
2.5
 50
0.0
 51
89.99998201391065
  0
ARC
  5
32E
  8
0
  6
CONTINUOUS
 62
     3
 10
-131.6409985051193
 20
-13.26311124969821
 30
0.0
 40
4.0
 50
179.9999776881997
 51
360.0000100179126
  0
LINE
  5
32F
  8
0
  6
CONTINUOUS
 62
     3
 10
-37.04317822313686
 20
143.2368753988614
 30
0.0
 11
-37.04317822313686
 21
141.2368906576504
 31
0.0
  0
LINE
  5
330
  8
0
  6
CONTINUOUS
 62
     3
 10
-38.0431816899424
 20
144.2368702111145
 30
0.0
 11
-37.04318256711002
 21
143.2368672107679
 31
0.0
  0
LINE
  5
331
  8
0
  6
CONTINUOUS
 62
     3
 10
-37.04319460774318
 20
-67.76309649211467
 30
0.0
 11
-39.04319049319005
 21
-69.76309423201988
 31
0.0
  0
LINE
  5
332
  8
0
  6
CONTINUOUS
 62
     3
 10
46.96417222927818
 20
-0.8576728592050671
 30
0.0
 11
96.76063762575581
 21
27.89232666578759
 31
0.0
  0
LINE
  5
333
  8
0
  6
CONTINUOUS
 62
     3
 10
64.46417404721967
 20
-31.16856848923349
 30
0.0
 11
114.2606426939657
 21
-2.418567087697696
 31
0.0
  0
LINE
  5
334
  8
0
  6
CONTINUOUS
 62
     3
 10
183.3632062497031
 20
-2.418566598508107
 30
0.0
 11
233.1596490834135
 21
-31.16855309688241
 31
0.0
  0
LINE
  5
335
  8
0
  6
CONTINUOUS
 62
     3
 10
200.863219900983
 20
27.89234202128837
 30
0.0
 11
250.6596594844233
 21
-0.8576426005418938
 31
0.0
  0
LINE
  5
336
  8
0
  6
CONTINUOUS
 62
     3
 10
46.96417663766067
 20
-0.857667115548665
 30
0.0
 11
64.46417681647438
 21
-31.16855240035248
 31
0.0
  0
LINE
  5
337
  8
0
  6
CONTINUOUS
 62
     3
 10
233.1596683492834
 20
-31.16856608408976
 30
0.0
 11
250.659670435446
 21
-0.8576774956612638
 31
0.0
  0
LINE
  5
338
  8
0
  6
CONTINUOUS
 62
     3
 10
43.49120941841113
 20
8.684218884405951
 30
0.0
 11
45.06189805910265
 21
9.591056293733132
 31
0.0
  0
LINE
  5
339
  8
0
  6
CONTINUOUS
 62
     3
 10
70.99121489760535
 20
-38.94718544699559
 30
0.0
 11
72.56190023467195
 21
-38.04034994501693
 31
0.0
  0
LINE
  5
33A
  8
0
  6
CONTINUOUS
 62
     3
 10
225.0619101925337
 20
-38.04031840867343
 30
0.0
 11
226.6326252622245
 21
-38.94717107678876
 31
0.0
  0
LINE
  5
33B
  8
0
  6
CONTINUOUS
 62
     3
 10
252.561912368103
 20
9.591087830076631
 30
0.0
 11
254.1326274377938
 21
8.684235161961297
 31
0.0
  0
LINE
  5
33C
  8
0
  6
CONTINUOUS
 62
     3
 10
250.6596525677563
 20
-0.8576742139747324
 30
0.0
 11
254.132616311072
 21
8.684214907690276
 31
0.0
  0
LINE
  5
33D
  8
0
  6
CONTINUOUS
 62
     3
 10
43.49120262790655
 20
8.684225468544483
 30
0.0
 11
46.96416637122218
 21
-0.8576636531205253
 31
0.0
  0
LINE
  5
33E
  8
0
  6
CONTINUOUS
 62
     3
 10
226.6325517252475
 20
-38.94712816914021
 30
0.0
 11
233.159588585609
 21
-31.16850951047296
 31
0.0
  0
LINE
  5
33F
  8
0
  6
CONTINUOUS
 62
     3
 10
64.46415785625311
 20
-31.16854728355143
 30
0.0
 11
70.99119471661459
 21
-38.94716594221869
 31
0.0
  0
LINE
  5
340
  8
0
  6
CONTINUOUS
 62
     3
 10
96.76063762575581
 20
27.89232666578759
 30
0.0
 11
102.0106337837316
 21
18.799067827841
 31
0.0
  0
LINE
  5
341
  8
0
  6
CONTINUOUS
 62
     3
 10
183.3632062497031
 20
-2.418566598508107
 30
0.0
 11
188.6132091512853
 21
6.674703919705863
 31
0.0
  0
LINE
  5
342
  8
0
  6
CONTINUOUS
 62
     3
 10
52.21417617365296
 20
-9.950939806046321
 30
0.0
 11
60.98444136153921
 21
-4.887425398382661
 31
0.0
  0
LINE
  5
343
  8
0
  6
CONTINUOUS
 62
     3
 10
59.21418096739387
 20
-22.07529747215914
 30
0.0
 11
67.98444285165522
 21
-17.01178497184399
 31
0.0
  0
LINE
  5
344
  8
0
  6
CONTINUOUS
 62
     3
 10
109.0106365255455
 20
6.674709088844921
 30
0.0
 11
114.2606426939657
 21
-2.418567087697696
 31
0.0
  0
LINE
  5
345
  8
0
  6
CONTINUOUS
 62
     3
 10
195.6132099857504
 20
18.79905935507726
 30
0.0
 11
200.863219900983
 21
27.89234202128837
 31
0.0
  0
LINE
  5
346
  8
0
  6
CONTINUOUS
 62
     3
 10
-53.04318203783413
 20
145.2368906576504
 30
0.0
 11
-53.04318203783413
 21
60.23688684295316
 31
0.0
  0
LINE
  5
347
  8
0
  6
CONTINUOUS
 62
     3
 10
-60.04318203783413
 20
87.73689065765043
 30
0.0
 11
-60.04318203783413
 21
60.23688684295316
 31
0.0
  0
LINE
  5
348
  8
0
  6
CONTINUOUS
 62
     3
 10
-53.04318203783413
 20
87.73689065765043
 30
0.0
 11
-38.04317822313686
 21
87.73689065765043
 31
0.0
  0
LINE
  5
349
  8
0
  6
CONTINUOUS
 62
     3
 10
-60.04318203783413
 20
69.73689065765043
 30
0.0
 11
-53.04318203783413
 21
69.73689065765043
 31
0.0
  0
LINE
  5
34A
  8
0
  6
CONTINUOUS
 62
     3
 10
-46.04318203783413
 20
145.2368906576504
 30
0.0
 11
-46.04318203783413
 21
141.2368906576504
 31
0.0
  0
LINE
  5
34B
  8
0
  6
CONTINUOUS
 62
     3
 10
-74.30566372728725
 20
-13.26311124969821
 30
0.0
 11
-60.04318203783413
 21
-13.26311124969821
 31
0.0
  0
LINE
  5
34C
  8
0
  6
CONTINUOUS
 62
     3
 10
-48.54318203783413
 20
-18.26311124969821
 30
0.0
 11
-37.04317822313686
 21
-18.26311124969821
 31
0.0
  0
LINE
  5
34D
  8
0
  6
CONTINUOUS
 62
     3
 10
-63.54318203783413
 20
-13.26311124969821
 30
0.0
 11
-63.54318203783413
 21
-14.76311124969821
 31
0.0
  0
LINE
  5
34E
  8
0
  6
CONTINUOUS
 62
     3
 10
-52.04318203783413
 20
91.23689065765043
 30
0.0
 11
-36.54317822313686
 21
91.23689065765043
 31
0.0
  0
LINE
  5
34F
  8
0
  6
CONTINUOUS
 62
     3
 10
-52.04318203783413
 20
141.2368906576504
 30
0.0
 11
-36.54317822313686
 21
141.2368906576504
 31
0.0
  0
LINE
  5
350
  8
0
  6
CONTINUOUS
 62
     3
 10
-52.04318203783413
 20
141.2368906576504
 30
0.0
 11
-52.04318203783413
 21
91.23689065765043
 31
0.0
  0
LINE
  5
351
  8
0
  6
CONTINUOUS
 62
     3
 10
-36.54317822313686
 20
141.2368906576504
 30
0.0
 11
-36.54317822313686
 21
136.2368906576504
 31
0.0
  0
LINE
  5
352
  8
0
  6
CONTINUOUS
 62
     3
 10
-46.04318203783413
 20
91.23689065765043
 30
0.0
 11
-46.04318203783413
 21
87.73689065765043
 31
0.0
  0
LINE
  5
353
  8
0
  6
CONTINUOUS
 62
     3
 10
-52.04318203783413
 20
106.2368906576504
 30
0.0
 11
-30.04317822313686
 21
106.2368906576504
 31
0.0
  0
LINE
  5
354
  8
0
  6
CONTINUOUS
 62
     3
 10
-52.04318203783413
 20
96.23689065765043
 30
0.0
 11
-30.04317822313686
 21
96.23689065765043
 31
0.0
  0
LINE
  5
355
  8
0
  6
CONTINUOUS
 62
     3
 10
-52.04318203783413
 20
126.2368906576504
 30
0.0
 11
-30.04317822313686
 21
126.2368906576504
 31
0.0
  0
LINE
  5
356
  8
0
  6
CONTINUOUS
 62
     3
 10
-52.04318203783413
 20
136.2368906576504
 30
0.0
 11
-30.04317822313686
 21
136.2368906576504
 31
0.0
  0
LINE
  5
357
  8
0
  6
CONTINUOUS
 62
     3
 10
-30.04317822313686
 20
109.2368906576504
 30
0.0
 11
-30.04317822313686
 21
93.23689065765043
 31
0.0
  0
LINE
  5
358
  8
0
  6
CONTINUOUS
 62
     3
 10
-30.04317822313686
 20
139.2368906576504
 30
0.0
 11
-30.04317822313686
 21
123.2368906576504
 31
0.0
  0
LINE
  5
359
  8
0
  6
CONTINUOUS
 62
     3
 10
-20.04317822313686
 20
139.2368906576504
 30
0.0
 11
-20.04317822313686
 21
123.2368906576504
 31
0.0
  0
LINE
  5
35A
  8
0
  6
CONTINUOUS
 62
     3
 10
-20.04317822313686
 20
109.2368906576504
 30
0.0
 11
-20.04317822313686
 21
93.23689065765043
 31
0.0
  0
LINE
  5
35B
  8
0
  6
CONTINUOUS
 62
     3
 10
-30.04317822313686
 20
93.23689065765043
 30
0.0
 11
-20.04317822313686
 21
93.23689065765043
 31
0.0
  0
LINE
  5
35C
  8
0
  6
CONTINUOUS
 62
     3
 10
-30.04317822313686
 20
109.2368906576504
 30
0.0
 11
-20.04317822313686
 21
109.2368906576504
 31
0.0
  0
LINE
  5
35D
  8
0
  6
CONTINUOUS
 62
     3
 10
-30.04317822313686
 20
123.2368906576504
 30
0.0
 11
-20.04317822313686
 21
123.2368906576504
 31
0.0
  0
LINE
  5
35E
  8
0
  6
CONTINUOUS
 62
     3
 10
-30.04317822313686
 20
139.2368906576504
 30
0.0
 11
-20.04317822313686
 21
139.2368906576504
 31
0.0
  0
LINE
  5
35F
  8
0
  6
CONTINUOUS
 62
     3
 10
-48.04318203783413
 20
136.2368906576504
 30
0.0
 11
-48.04318203783413
 21
126.2368906576504
 31
0.0
  0
LINE
  5
360
  8
0
  6
CONTINUOUS
 62
     3
 10
-48.04318203783413
 20
106.2368906576504
 30
0.0
 11
-48.04318203783413
 21
96.23689065765043
 31
0.0
  0
LINE
  5
361
  8
0
  6
CONTINUOUS
 62
     3
 10
-36.54317822313686
 20
126.2368906576504
 30
0.0
 11
-36.54317822313686
 21
106.2368906576504
 31
0.0
  0
LINE
  5
362
  8
0
  6
CONTINUOUS
 62
     3
 10
-36.54317822313686
 20
96.23689065765043
 30
0.0
 11
-36.54317822313686
 21
91.23689065765043
 31
0.0
  0
LINE
  5
363
  8
0
  6
CONTINUOUS
 62
     3
 10
-73.93290676927944
 20
71.73689065765043
 30
0.0
 11
-72.4410015568771
 21
71.73689065765043
 31
0.0
  0
LINE
  5
364
  8
0
  6
CONTINUOUS
 62
     3
 10
-73.93290676927944
 20
3.736887938188502
 30
0.0
 11
-72.4410015568771
 21
3.736887938188502
 31
0.0
  0
LINE
  5
365
  8
0
  6
CONTINUOUS
 62
     3
 10
-72.44100506462399
 20
-11.26310690633987
 30
0.0
 11
-74.44099993854815
 21
-13.26310548918069
 31
0.0
  0
LINE
  5
366
  8
0
  6
CONTINUOUS
 62
     3
 10
131.3119086885121
 20
145.2368906576504
 30
0.0
 11
166.3119086885121
 21
145.2368906576504
 31
0.0
  0
LINE
  5
367
  8
0
  6
CONTINUOUS
 62
     3
 10
131.3119086885121
 20
145.2368906576504
 30
0.0
 11
131.3119086885121
 21
87.73689065765043
 31
0.0
  0
LINE
  5
368
  8
0
  6
CONTINUOUS
 62
     3
 10
166.3119086885121
 20
145.2368906576504
 30
0.0
 11
166.3119086885121
 21
87.73689065765043
 31
0.0
  0
LINE
  5
369
  8
0
  6
CONTINUOUS
 62
     3
 10
121.3119010591175
 20
143.4736155111661
 30
0.0
 11
121.3119010591175
 21
141.6599405844083
 31
0.0
  0
LINE
  5
36A
  8
0
  6
CONTINUOUS
 62
     3
 10
176.3119086885121
 20
143.4736155111661
 30
0.0
 11
176.3119086885121
 21
141.6599405844083
 31
0.0
  0
LINE
  5
36B
  8
0
  6
CONTINUOUS
 62
     3
 10
121.3118945332479
 20
143.4736063160746
 30
0.0
 11
131.3118945316836
 21
145.2368761738309
 31
0.0
  0
LINE
  5
36C
  8
0
  6
CONTINUOUS
 62
     3
 10
166.3119000082583
 20
145.2368611080639
 30
0.0
 11
176.3119000066939
 21
143.4735912503076
 31
0.0
  0
LINE
  5
36D
  8
0
  6
CONTINUOUS
 62
     3
 10
131.3119086885121
 20
87.73689065765043
 30
0.0
 11
141.8119086885121
 21
87.73689065765043
 31
0.0
  0
LINE
  5
36E
  8
0
  6
CONTINUOUS
 62
     3
 10
141.8119086885121
 20
145.2368906576504
 30
0.0
 11
141.8119086885121
 21
135.1098764974942
 31
0.0
  0
LINE
  5
36F
  8
0
  6
CONTINUOUS
 62
     3
 10
155.8119086885121
 20
145.2368906576504
 30
0.0
 11
155.8119086885121
 21
135.1098764974942
 31
0.0
  0
LINE
  5
370
  8
0
  6
CONTINUOUS
 62
     3
 10
155.8119086885121
 20
87.73689065765043
 30
0.0
 11
166.3119086885121
 21
87.73689065765043
 31
0.0
  0
LINE
  5
371
  8
0
  6
CONTINUOUS
 62
     3
 10
-60.04318203783413
 20
60.23688684295316
 30
0.0
 11
-53.04318203783413
 21
60.23688684295316
 31
0.0
  0
LINE
  5
372
  8
0
  6
CONTINUOUS
 62
     3
 10
-53.04318203783413
 20
68.14658914397856
 30
0.0
 11
-48.54318203783413
 21
68.14658914397856
 31
0.0
  0
LINE
  5
373
  8
0
  6
CONTINUOUS
 62
     3
 10
55.67828072382156
 20
-7.950936757283316
 30
0.0
 11
62.67828537298431
 21
-20.07529879990408
 31
0.0
  0
LINE
  5
374
  8
0
  6
CONTINUOUS
 62
     3
 10
234.9455712368666
 20
-20.07529266189327
 30
0.0
 11
241.9455797007271
 21
-7.950924012023151
 31
0.0
  0
LINE
  5
375
  8
0
  6
CONTINUOUS
 62
     3
 10
141.8119086885121
 20
141.2368906576504
 30
0.0
 11
155.8119086885121
 21
141.2368906576504
 31
0.0
  0
LINE
  5
376
  8
0
  6
CONTINUOUS
 62
     3
 10
141.8119086885121
 20
91.23689065765043
 30
0.0
 11
155.8119086885121
 21
91.23689065765043
 31
0.0
  0
LINE
  5
377
  8
0
  6
CONTINUOUS
 62
     3
 10
141.8119086885121
 20
127.3639048178067
 30
0.0
 11
141.8119086885121
 21
105.1098764974942
 31
0.0
  0
LINE
  5
378
  8
0
  6
CONTINUOUS
 62
     3
 10
155.8119086885121
 20
127.3639048178067
 30
0.0
 11
155.8119086885121
 21
105.1098764974942
 31
0.0
  0
LINE
  5
379
  8
0
  6
CONTINUOUS
 62
     3
 10
155.8119086885121
 20
97.36390481780668
 30
0.0
 11
155.8119086885121
 21
87.73689065765043
 31
0.0
  0
LINE
  5
37A
  8
0
  6
CONTINUOUS
 62
     3
 10
141.8119086885121
 20
97.36390481780668
 30
0.0
 11
141.8119086885121
 21
87.73689065765043
 31
0.0
  0
LINE
  5
37B
  8
0
  6
CONTINUOUS
 62
     3
 10
229.6394270407988
 20
-17.01178776777384
 30
0.0
 11
238.4096525851861
 21
-22.07527928725527
 31
0.0
  0
LINE
  5
37C
  8
0
  6
CONTINUOUS
 62
     3
 10
236.6394304382633
 20
-4.887424890687598
 30
0.0
 11
245.4096559826506
 21
-9.950916410169029
 31
0.0
  0
LINE
  5
37D
  8
0
  6
CONTINUOUS
 62
     3
 10
-78.54318203783413
 20
145.2368906576504
 30
0.0
 11
-78.54318203783413
 21
138.2368906576504
 31
0.0
  0
LINE
  5
37E
  8
0
  6
CONTINUOUS
 62
     3
 10
-62.54318203783413
 20
145.2368906576504
 30
0.0
 11
-62.54318203783413
 21
138.2368906576504
 31
0.0
  0
LINE
  5
37F
  8
0
  6
CONTINUOUS
 62
     3
 10
-78.54318203783413
 20
138.2368906576504
 30
0.0
 11
-74.49155392504116
 21
138.2368906576504
 31
0.0
  0
LINE
  5
380
  8
0
  6
CONTINUOUS
 62
     3
 10
-78.54318149192358
 20
138.2368954329164
 30
0.0
 11
-73.54317196700839
 21
135.3501385359438
 31
0.0
  0
LINE
  5
381
  8
0
  6
CONTINUOUS
 62
     3
 10
-67.54318192259262
 20
135.3501414902841
 30
0.0
 11
-62.54318272150456
 21
138.2368924267923
 31
0.0
  0
LINE
  5
382
  8
0
  6
CONTINUOUS
 62
     3
 10
-73.54318203783413
 20
135.3501413900723
 30
0.0
 11
-73.54318203783413
 21
127.3501413900723
 31
0.0
  0
LINE
  5
383
  8
0
  6
CONTINUOUS
 62
     3
 10
-67.54318203783413
 20
135.3501413900723
 30
0.0
 11
-67.54318203783413
 21
127.3501413900723
 31
0.0
  0
LINE
  5
384
  8
0
  6
CONTINUOUS
 62
     3
 10
-67.54318203783413
 20
135.3501413900723
 30
0.0
 11
-73.54318203783413
 21
135.3501413900723
 31
0.0
  0
LINE
  5
385
  8
0
  6
CONTINUOUS
 62
     3
 10
-67.54318203783413
 20
127.3501413900723
 30
0.0
 11
-73.54318203783413
 21
127.3501413900723
 31
0.0
  0
LINE
  5
386
  8
0
  6
CONTINUOUS
 62
     3
 10
-67.25765957689663
 20
138.2368906576504
 30
0.0
 11
-62.54318203783413
 21
138.2368906576504
 31
0.0
  0
LINE
  5
387
  8
0
  6
CONTINUOUS
 62
     3
 10
-68.14318051195522
 20
144.8501413900723
 30
0.0
 11
-72.94318356371304
 21
144.8501413900723
 31
0.0
  0
LINE
  5
388
  8
0
  6
CONTINUOUS
 62
     3
 10
-74.49317898607632
 20
137.7270334799161
 30
0.0
 11
-74.49317898607632
 21
136.0407847006192
 31
0.0
  0
LINE
  5
389
  8
0
  6
CONTINUOUS
 62
     3
 10
-66.59318508959194
 20
137.7270334799161
 30
0.0
 11
-66.59318508959194
 21
136.0407847006192
 31
0.0
  0
LINE
  5
38A
  8
0
  6
CONTINUOUS
 62
     3
 10
-67.24317898607632
 20
142.5501383383145
 30
0.0
 11
-73.84318508959194
 21
142.5501383383145
 31
0.0
  0
LINE
  5
38B
  8
0
  6
CONTINUOUS
 62
     3
 10
-67.1505962834396
 20
138.3501413900723
 30
0.0
 11
-73.93579830980679
 21
138.3501413900723
 31
0.0
  0
LINE
  5
38C
  8
0
  6
CONTINUOUS
 62
     3
 10
-68.54318203783413
 20
137.5862101156583
 30
0.0
 11
-68.54318203783413
 21
136.1140726644864
 31
0.0
  0
LINE
  5
38D
  8
0
  6
CONTINUOUS
 62
     3
 10
-72.54318203783413
 20
137.5862101156583
 30
0.0
 11
-72.54318203783413
 21
136.1140726644864
 31
0.0
  0
LINE
  5
38E
  8
0
  6
CONTINUOUS
 62
     3
 10
-73.8431822624836
 20
142.5501431997197
 30
0.0
 11
-72.94318230937478
 21
144.8501435951309
 31
0.0
  0
LINE
  5
38F
  8
0
  6
CONTINUOUS
 62
     3
 10
-68.14318320017827
 20
144.85014014623
 30
0.0
 11
-67.24318324706945
 21
142.5501397508188
 31
0.0
  0
LINE
  5
390
  8
0
  6
CONTINUOUS
 62
     3
 10
-68.54318203783413
 20
145.2368906576504
 30
0.0
 11
-38.04317822313686
 21
145.2368906576504
 31
0.0
  0
LINE
  5
391
  8
0
  6
CONTINUOUS
 62
     3
 10
-24.48292091283709
 20
-42.10766676024242
 30
0.0
 11
21.84944240518398
 21
-15.35766728178313
 31
0.0
  0
LINE
  5
392
  8
0
  6
CONTINUOUS
 62
     3
 10
-6.982919605967723
 20
-72.4185538756725
 30
0.0
 11
39.34944371205334
 21
-45.66855439721322
 31
0.0
  0
LINE
  5
393
  8
0
  6
CONTINUOUS
 62
     3
 10
19.30521463475439
 20
-28.95093551012415
 30
0.0
 11
27.09944387184008
 21
-24.45093565913577
 31
0.0
  0
LINE
  5
394
  8
0
  6
CONTINUOUS
 62
     3
 10
26.30521586933433
 20
-41.07529082628632
 30
0.0
 11
34.09944469346691
 21
-36.5752912137165
 31
0.0
  0
LINE
  5
395
  8
0
  6
CONTINUOUS
 62
     3
 10
11.74303741514937
 20
-29.85285848113439
 30
0.0
 11
17.80521472416136
 21
-26.35285916658778
 31
0.0
  0
LINE
  5
396
  8
0
  6
CONTINUOUS
 62
     3
 10
21.74303847091538
 20
-47.17336648436931
 30
0.0
 11
27.80521577992737
 21
-43.6733671698227
 31
0.0
  0
LINE
  5
397
  8
0
  6
CONTINUOUS
 62
     3
 10
39.34944362716423
 20
-45.66855421390604
 30
0.0
 11
56.38255341523727
 21
-75.17076173129755
 31
0.0
  0
LINE
  5
398
  8
0
  6
CONTINUOUS
 62
     3
 10
17.80521349386918
 20
-26.35285657372545
 30
0.0
 11
19.30521367268311
 21
-28.95093273844789
 31
0.0
  0
LINE
  5
399
  8
0
  6
CONTINUOUS
 62
     3
 10
11.74303660208965
 20
-29.85285651412075
 30
0.0
 11
21.74303779418254
 21
-47.17336427893703
 31
0.0
  0
LINE
  5
39A
  8
0
  6
CONTINUOUS
 62
     3
 10
26.30521450714814
 20
-41.07528817381929
 30
0.0
 11
27.80521468596207
 21
-43.67336433854173
 31
0.0
  0
LINE
  5
39B
  8
0
  6
CONTINUOUS
 62
     3
 10
25.49303824121738
 20
-53.66855469074314
 30
0.0
 11
30.49303883726383
 21
-62.32880857315126
 31
0.0
  0
LINE
  5
39C
  8
0
  6
CONTINUOUS
 62
     3
 10
2.993036512682792
 20
-14.69741387171884
 30
0.0
 11
7.99303615505481
 21
-23.35766610231464
 31
0.0
  0
LINE
  5
39D
  8
0
  6
CONTINUOUS
 62
     3
 10
-29.48292171099571
 20
-33.44741305880486
 30
0.0
 11
-1.982920340089109
 21
-81.07880610842494
 31
0.0
  0
LINE
  5
39E
  8
0
  6
CONTINUOUS
 62
     3
 10
-1.982916600366039
 20
-81.07880644677857
 30
0.0
 11
30.49303769383867
 21
-62.32880756436566
 31
0.0
  0
LINE
  5
39F
  8
0
  6
CONTINUOUS
 62
     3
 10
-29.48292061481386
 20
-33.44741228178783
 30
0.0
 11
2.993035331203302
 21
-14.69741244570066
 31
0.0
  0
LINE
  5
3A0
  8
0
  6
CONTINUOUS
 62
     3
 10
33.09944478945504
 20
-34.84324016452054
 30
0.0
 11
34.09944300131546
 21
-36.57528763737749
 31
0.0
  0
LINE
  5
3A1
  8
0
  6
CONTINUOUS
 62
     3
 10
27.09944216685044
 20
-24.45093220200609
 30
0.0
 11
28.09944419340859
 21
-26.1829862821124
 31
0.0
  0
LINE
  5
3A2
  8
0
  6
CONTINUOUS
 62
     3
 10
13.00906356389326
 20
-30.0456794080085
 30
0.0
 11
22.20906351620941
 21
-45.98054456946467
 31
0.0
  0
LINE
  5
3A3
  8
0
  6
CONTINUOUS
 62
     3
 10
13.00906245768327
 20
-30.0456782084881
 30
0.0
 11
18.2052143188498
 21
-27.04567886413916
 31
0.0
  0
LINE
  5
3A4
  8
0
  6
CONTINUOUS
 62
     3
 10
21.34303887622694
 20
-46.48054678681793
 30
0.0
 11
27.40521618523893
 21
-42.98054747227131
 31
0.0
  0
LINE
  5
3A5
  8
0
  6
CONTINUOUS
 62
     3
 10
42.18790115602052
 20
-14.58490855076572
 30
0.0
 11
50.18790115602052
 21
-28.44131476261875
 31
0.0
  0
LINE
  5
3A6
  8
0
  6
CONTINUOUS
 62
     3
 10
33.52764727361237
 20
-19.58490855076572
 30
0.0
 11
42.18790115602052
 21
-14.58490855076572
 31
0.0
  0
LINE
  5
3A7
  8
0
  6
CONTINUOUS
 62
     3
 10
33.52764727361237
 20
-19.58490855076572
 30
0.0
 11
41.52764727361237
 21
-33.44131476261875
 31
0.0
  0
LINE
  5
3A8
  8
0
  6
CONTINUOUS
 62
     3
 10
41.52764727361237
 20
-33.44131476261875
 30
0.0
 11
50.18790115602052
 21
-28.44131476261875
 31
0.0
  0
LINE
  5
3A9
  8
0
  6
CONTINUOUS
 62
     3
 10
20.10906334407365
 20
-42.3432385978963
 30
0.0
 11
40.02764727361237
 21
-30.8432385978963
 31
0.0
  0
LINE
  5
3AA
  8
0
  6
CONTINUOUS
 62
     3
 10
19.43919028527772
 20
-31.18298471548816
 30
0.0
 11
24.43919028527772
 21
-39.8432385978963
 31
0.0
  0
LINE
  5
3AB
  8
0
  6
CONTINUOUS
 62
     3
 10
15.10906334407365
 20
-33.68298471548816
 30
0.0
 11
35.02764727361237
 21
-22.18298471548816
 31
0.0
  0
LINE
  5
3AC
  8
0
  6
CONTINUOUS
 62
     3
 10
108.1119017223776
 20
111.7368879081625
 30
0.0
 11
110.9619007448613
 21
106.8005418549718
 31
0.0
  0
LINE
  5
3AD
  8
0
  6
CONTINUOUS
 62
     3
 10
110.9618998779252
 20
106.8005404226499
 30
0.0
 11
116.6619044555619
 21
106.8005380384617
 31
0.0
  0
LINE
  5
3AE
  8
0
  6
CONTINUOUS
 62
     3
 10
116.6618978497587
 20
106.8005382931166
 30
0.0
 11
119.5118997213427
 21
111.7368783247117
 31
0.0
  0
LINE
  5
3AF
  8
0
  6
CONTINUOUS
 62
     3
 10
119.5119065012972
 20
111.7368857540438
 30
0.0
 11
116.6619060810859
 21
116.6732357903531
 31
0.0
  0
LINE
  5
3B0
  8
0
  6
CONTINUOUS
 62
     3
 10
116.6619031539747
 20
116.6732337042114
 30
0.0
 11
110.9619062057325
 21
116.6732346578853
 31
0.0
  0
LINE
  5
3B1
  8
0
  6
CONTINUOUS
 62
     3
 10
110.9619110790517
 20
116.6732412040382
 30
0.0
 11
108.1119039562944
 21
111.7368862592138
 31
0.0
  0
LINE
  5
3B2
  8
0
  6
CONTINUOUS
 62
     3
 10
105.0760205410769
 20
-34.51034619967469
 30
0.0
 11
107.9260213278579
 21
-29.57400315728226
 31
0.0
  0
LINE
  5
3B3
  8
0
  6
CONTINUOUS
 62
     3
 10
107.9260286135999
 20
-29.57400153510922
 30
0.0
 11
105.0760321779566
 21
-24.63765810605115
 31
0.0
  0
LINE
  5
3B4
  8
0
  6
CONTINUOUS
 62
     3
 10
105.0760306977894
 20
-24.63776411224704
 30
0.0
 11
99.37602612015269
 21
-24.63776411224704
 31
0.0
  0
LINE
  5
3B5
  8
0
  6
CONTINUOUS
 62
     3
 10
99.37602941265902
 20
-24.63765575948661
 30
0.0
 11
96.52602603903517
 21
-29.57400176575662
 31
0.0
  0
LINE
  5
3B6
  8
0
  6
CONTINUOUS
 62
     3
 10
96.5260270535349
 20
-29.57399928354549
 30
0.0
 11
99.37602849298639
 21
-34.51034864036124
 31
0.0
  0
LINE
  5
3B7
  8
0
  6
CONTINUOUS
 62
     3
 10
99.37602612015269
 20
-34.51037420441013
 30
0.0
 11
105.0760230683949
 21
-34.51037420441013
 31
0.0
  0
LINE
  5
3B8
  8
0
  6
CONTINUOUS
 62
     3
 10
227.5477790498402
 20
26.11142335723538
 30
0.0
 11
233.2477912568714
 21
26.11142335723538
 31
0.0
  0
LINE
  5
3B9
  8
0
  6
CONTINUOUS
 62
     3
 10
224.6978675576032
 20
31.04783130697901
 30
0.0
 11
227.5478660317243
 21
26.11148923690611
 31
0.0
  0
LINE
  5
3BA
  8
0
  6
CONTINUOUS
 62
     3
 10
227.5477853771621
 20
35.98412830353858
 30
0.0
 11
224.6977848645632
 21
31.04778725270457
 31
0.0
  0
LINE
  5
3BB
  8
0
  6
CONTINUOUS
 62
     3
 10
233.2477912568714
 20
35.98411737273831
 30
0.0
 11
227.5477790498402
 21
35.98411737273831
 31
0.0
  0
LINE
  5
3BC
  8
0
  6
CONTINUOUS
 62
     3
 10
233.2477822438372
 20
26.1114436066256
 30
0.0
 11
236.0977813974508
 21
31.0477853369522
 31
0.0
  0
LINE
  5
3BD
  8
0
  6
CONTINUOUS
 62
     3
 10
236.097809093499
 20
31.04779244410987
 30
0.0
 11
233.2478068046806
 21
35.98414112143213
 31
0.0
  0
LINE
  5
3BE
  8
0
  6
CONTINUOUS
 62
     3
 10
105.9795425406568
 20
4.924706478711315
 30
0.0
 11
98.97954254065678
 21
17.04906191408271
 31
0.0
  0
LINE
  5
3BF
  8
0
  6
CONTINUOUS
 62
     3
 10
74.69263438025075
 20
-13.13879869401818
 30
0.0
 11
93.96519119989614
 21
-2.011782626513295
 31
0.0
  0
LINE
  5
3C0
  8
0
  6
CONTINUOUS
 62
     3
 10
67.69263438025075
 20
-1.014443258646779
 30
0.0
 11
86.96519119989614
 21
10.1125728088581
 31
0.0
  0
LINE
  5
3C1
  8
0
  6
CONTINUOUS
 62
     3
 10
93.6733927238505
 20
13.98555483400459
 30
0.0
 11
102.0106313994996
 21
18.79906191408271
 31
0.0
  0
LINE
  5
3C2
  8
0
  6
CONTINUOUS
 62
     3
 10
100.6733927238505
 20
1.86119939863319
 30
0.0
 11
109.0106313994996
 21
6.674706478711315
 31
0.0
  0
LINE
  5
3C3
  8
0
  6
CONTINUOUS
 62
     3
 10
196.9504210985828
 20
1.86120110789183
 30
0.0
 11
188.6131824229336
 21
6.674708187969955
 31
0.0
  0
LINE
  5
3C4
  8
0
  6
CONTINUOUS
 62
     3
 10
203.9504210985828
 20
13.98555654326323
 30
0.0
 11
195.6131824229336
 21
18.79906362334135
 31
0.0
  0
LINE
  5
3C5
  8
0
  6
CONTINUOUS
 62
     3
 10
198.6442712817765
 20
17.04906362334135
 30
0.0
 11
191.6442712817765
 21
4.924708187969955
 31
0.0
  0
LINE
  5
3C6
  8
0
  6
CONTINUOUS
 62
     3
 10
229.9311827458072
 20
-1.014443456736771
 30
0.0
 11
210.6586292297865
 21
10.11257070341948
 31
0.0
  0
LINE
  5
3C7
  8
0
  6
CONTINUOUS
 62
     3
 10
222.9311827458072
 20
-13.13879889210817
 30
0.0
 11
203.6586292297865
 21
-2.01178473195192
 31
0.0
  0
ARC
  5
3C8
  8
0
  6
CONTINUOUS
 62
     3
 10
148.8119086885121
 20
37.73688684295316
 30
0.0
 40
107.5
 50
0.0
 51
80.63108666148504
  0
ARC
  5
3C9
  8
0
  6
CONTINUOUS
 62
     3
 10
148.8119086885121
 20
37.73688684295316
 30
0.0
 40
105.5
 50
99.54819032261662
 51
200.4517907048872
  0
CIRCLE
  5
3CA
  8
0
  6
CONTINUOUS
 62
     3
 10
101.6478843354847
 20
84.90090738128325
 30
0.0
 40
7.0
  0
CIRCLE
  5
3CB
  8
0
  6
CONTINUOUS
 62
     3
 10
84.38465496536753
 20
55.00011621307034
 30
0.0
 40
7.0
  0
CIRCLE
  5
3CC
  8
0
  6
CONTINUOUS
 62
     3
 10
166.0751380586293
 20
-26.69036115814548
 30
0.0
 40
7.0
  0
CIRCLE
  5
3CD
  8
0
  6
CONTINUOUS
 62
     3
 10
195.9759406709339
 20
84.90090738128325
 30
0.0
 40
7.0
  0
CIRCLE
  5
3CE
  8
0
  6
CONTINUOUS
 62
     3
 10
213.2391547822621
 20
55.00011239837308
 30
0.0
 40
7.0
  0
CIRCLE
  5
3CF
  8
0
  6
CONTINUOUS
 62
     3
 10
166.0751380586293
 20
-26.69036115814548
 30
0.0
 40
9.5
  0
CIRCLE
  5
3D0
  8
0
  6
CONTINUOUS
 62
     3
 10
131.5486793183949
 20
-26.69036115814548
 30
0.0
 40
9.5
  0
ARC
  5
3D1
  8
0
  6
CONTINUOUS
 62
     3
 10
148.8119086885121
 20
37.73688684295316
 30
0.0
 40
56.0
 50
108.7493156844908
 51
191.2506706017424
  0
ARC
  5
3D2
  8
0
  6
CONTINUOUS
 62
     3
 10
148.8119086885121
 20
37.73688684295316
 30
0.0
 40
105.5
 50
219.5481563232515
 51
320.4518284225084
  0
ARC
  5
3D3
  8
0
  6
CONTINUOUS
 62
     3
 10
148.8119086885121
 20
37.73688684295316
 30
0.0
 40
105.5
 50
339.5481750304813
 51
440.4518283467181
  0
ARC
  5
3D4
  8
0
  6
CONTINUOUS
 62
     3
 10
148.8119086885121
 20
37.73688684295316
 30
0.0
 40
56.0
 50
228.7493470178723
 51
311.2506946554307
  0
ARC
  5
3D5
  8
0
  6
CONTINUOUS
 62
     3
 10
148.8119086885121
 20
37.73688684295316
 30
0.0
 40
56.0
 50
348.7493772540976
 51
431.2506339904493
  0
ARC
  5
3D6
  8
0
  6
CONTINUOUS
 62
     3
 10
148.8119086885121
 20
37.73688684295316
 30
0.0
 40
107.5
 50
219.3688911782953
 51
320.6310867372754
  0
ARC
  5
3D7
  8
0
  6
CONTINUOUS
 62
     3
 10
148.8119086885121
 20
37.73688684295316
 30
0.0
 40
107.5
 50
339.3689184232617
 51
360.0
  0
ARC
  5
3D8
  8
0
  6
CONTINUOUS
 62
     3
 10
148.8119086885121
 20
37.73688684295316
 30
0.0
 40
107.5
 50
99.36893200784964
 51
200.631042189465
  0
CIRCLE
  5
3D9
  8
0
  6
CONTINUOUS
 62
     3
 10
84.38465496536753
 20
55.00011621307034
 30
0.0
 40
9.5
  0
CIRCLE
  5
3DA
  8
0
  6
CONTINUOUS
 62
     3
 10
101.6478843354847
 20
84.90090738128325
 30
0.0
 40
9.5
  0
CIRCLE
  5
3DB
  8
0
  6
CONTINUOUS
 62
     3
 10
195.9759406709339
 20
84.90090738128325
 30
0.0
 40
9.5
  0
CIRCLE
  5
3DC
  8
0
  6
CONTINUOUS
 62
     3
 10
213.2391547822621
 20
55.00011239837308
 30
0.0
 40
9.5
  0
CIRCLE
  5
3DD
  8
0
  6
CONTINUOUS
 62
     3
 10
67.83853527542613
 20
-9.013112203372529
 30
0.0
 40
8.0
  0
ARC
  5
3DE
  8
0
  6
CONTINUOUS
 62
     3
 10
-70.54318203783413
 20
138.3501413900723
 30
0.0
 40
3.0
 50
269.9999974955218
 51
311.8103140657433
  0
ARC
  5
3DF
  8
0
  6
CONTINUOUS
 62
     3
 10
-70.54318203783413
 20
135.3501413900723
 30
0.0
 40
3.0
 50
48.18969959463504
 51
131.8102883388484
  0
ARC
  5
3E0
  8
0
  6
CONTINUOUS
 62
     3
 10
-70.54318203783413
 20
138.3501413900723
 30
0.0
 40
3.0
 50
228.189684340395
 51
269.9999974955218
  0
ARC
  5
3E1
  8
0
  6
CONTINUOUS
 62
     3
 10
-70.54318203783413
 20
142.5501383383145
 30
0.0
 40
3.299999952316284
 50
342.3602936853698
 51
359.9999820139094
  0
ARC
  5
3E2
  8
0
  6
CONTINUOUS
 62
     3
 10
-70.54318203783413
 20
142.5501383383145
 30
0.0
 40
3.299999952316284
 50
180.0000223118003
 51
197.6397098434103
  0
ARC
  5
3E3
  8
0
  6
CONTINUOUS
 62
     3
 10
-64.74721493578335
 20
140.1456125814786
 30
0.0
 40
3.0
 50
152.1068921368366
 51
216.7619955749325
  0
ARC
  5
3E4
  8
0
  6
CONTINUOUS
 62
     3
 10
-76.33917965746304
 20
140.1456125814786
 30
0.0
 40
3.0
 50
323.2380060189292
 51
387.8898292586762
  0
ARC
  5
3E5
  8
0
  6
CONTINUOUS
 62
     3
 10
-67.54318203783413
 20
137.4147928793301
 30
0.0
 40
1.0
 50
110.7154676533174
 51
180.0000186693347
  0
ARC
  5
3E6
  8
0
  6
CONTINUOUS
 62
     3
 10
-67.54318203783413
 20
137.4147928793301
 30
0.0
 40
1.0
 50
18.19487433565256
 51
69.28453052544974
  0
ARC
  5
3E7
  8
0
  6
CONTINUOUS
 62
     3
 10
-73.54318203783413
 20
137.4147928793301
 30
0.0
 40
1.0
 50
359.9999820139094
 51
429.2845305254497
  0
ARC
  5
3E8
  8
0
  6
CONTINUOUS
 62
     3
 10
-73.54318203783413
 20
137.4147928793301
 30
0.0
 40
1.0
 50
110.7154676533174
 51
161.8051187204727
  0
ARC
  5
3E9
  8
0
  6
CONTINUOUS
 62
     3
 10
-73.54318203783413
 20
136.3530405599942
 30
0.0
 40
1.0
 50
269.9999974955218
 51
359.9999820139094
  0
ARC
  5
3EA
  8
0
  6
CONTINUOUS
 62
     3
 10
-67.54318203783413
 20
136.3530405599942
 30
0.0
 40
1.0
 50
180.0000223118003
 51
269.9999974955218
  0
ARC
  5
3EB
  8
0
  6
CONTINUOUS
 62
     3
 10
-70.54318203783413
 20
144.3722513754239
 30
0.0
 40
1.200000047683716
 50
23.46797162019917
 51
156.5320214359261
  0
CIRCLE
  5
3EC
  8
0
  6
CONTINUOUS
 62
     3
 10
1.587591312575327
 20
-47.26311377850767
 30
0.0
 40
8.0
  0
CIRCLE
  5
3ED
  8
0
  6
CONTINUOUS
 62
     3
 10
113.8119010591175
 20
111.7368906576504
 30
0.0
 40
9.0
  0
CIRCLE
  5
3EE
  8
0
  6
CONTINUOUS
 62
     3
 10
113.8119010591175
 20
111.7368906576504
 30
0.0
 40
2.400000095367432
  0
CIRCLE
  5
3EF
  8
0
  6
CONTINUOUS
 62
     3
 10
113.8119010591175
 20
111.7368906576504
 30
0.0
 40
3.299999952316284
  0
CIRCLE
  5
3F0
  8
0
  6
CONTINUOUS
 62
     3
 10
102.2260245942738
 20
-29.57399954010349
 30
0.0
 40
9.0
  0
CIRCLE
  5
3F1
  8
0
  6
CONTINUOUS
 62
     3
 10
102.2260245942738
 20
-29.57399954010349
 30
0.0
 40
2.400000095367432
  0
CIRCLE
  5
3F2
  8
0
  6
CONTINUOUS
 62
     3
 10
102.2260245942738
 20
-29.57399954010349
 30
0.0
 40
3.299999952316284
  0
CIRCLE
  5
3F3
  8
0
  6
CONTINUOUS
 62
     3
 10
230.3977851533558
 20
31.04777704070706
 30
0.0
 40
9.0
  0
CIRCLE
  5
3F4
  8
0
  6
CONTINUOUS
 62
     3
 10
230.3977851533558
 20
31.04777704070706
 30
0.0
 40
2.400000095367432
  0
CIRCLE
  5
3F5
  8
0
  6
CONTINUOUS
 62
     3
 10
230.3977851533558
 20
31.04777704070706
 30
0.0
 40
3.299999952316284
  0
LINE
  5
3F6
  8
0
  6
CONTINUOUS
 62
     3
 10
-150.1453472600021
 20
61.98688684295316
 30
0.0
 11
-150.1453472600021
 21
58.88888888888893
 31
0.0
  0
LINE
  5
3F7
  8
0
  6
CONTINUOUS
 62
     3
 10
-150.1453472600021
 20
16.95156695156697
 30
0.0
 11
-150.1453472600021
 21
13.48688779662747
 31
0.0
  0
LINE
  5
3F8
  8
0
  6
CONTINUOUS
 62
     3
 10
-154.1453472600021
 20
61.98688684295316
 30
0.0
 11
-154.1453472600021
 21
58.88888888888893
 31
0.0
  0
LINE
  5
3F9
  8
0
  6
CONTINUOUS
 62
     3
 10
-154.1453472600021
 20
16.95156695156697
 30
0.0
 11
-154.1453472600021
 21
13.53688703368802
 31
0.0
  0
LINE
  5
3FA
  8
0
  6
CONTINUOUS
 62
     3
 10
-140.6453472600021
 20
72.73689065765043
 30
0.0
 11
-140.6453472600021
 21
58.88888888888893
 31
0.0
  0
LINE
  5
3FB
  8
0
  6
CONTINUOUS
 62
     3
 10
-140.6453472600021
 20
16.95156695156697
 30
0.0
 11
-140.6453472600021
 21
2.736887915836761
 31
0.0
  0
LINE
  5
3FC
  8
0
  6
CONTINUOUS
 62
     3
 10
-135.0431744084396
 20
71.27790628265043
 30
0.0
 11
-135.0431744084396
 21
58.88888888888893
 31
0.0
  0
LINE
  5
3FD
  8
0
  6
CONTINUOUS
 62
     3
 10
-135.0431744084396
 20
16.95156695156697
 30
0.0
 11
-135.0431744084396
 21
4.195868505941817
 31
0.0
  0
LINE
  5
3FE
  8
0
  6
CONTINUOUS
 62
     3
 10
-118.0431744084396
 20
80.8182047445645
 30
0.0
 11
-118.0431744084396
 21
61.23688684295316
 31
0.0
  0
LINE
  5
3FF
  8
0
  6
CONTINUOUS
 62
     3
 10
-118.0431744084396
 20
16.95156695156697
 30
0.0
 11
-118.0431744084396
 21
-5.344430104983857
 31
0.0
  0
LINE
  5
400
  8
0
  6
CONTINUOUS
 62
     3
 10
-92.04318203783413
 20
80.8182047445645
 30
0.0
 11
-92.04318203783413
 21
61.23688684295316
 31
0.0
  0
LINE
  5
401
  8
0
  6
CONTINUOUS
 62
     3
 10
-92.04318203783413
 20
13.46597438092461
 30
0.0
 11
-92.04318203783413
 21
-5.344430104983857
 31
0.0
  0
LINE
  5
402
  8
0
  6
CONTINUOUS
 62
     3
 10
-75.04318203783413
 20
71.27790628265043
 30
0.0
 11
-75.04318203783413
 21
61.23688684295316
 31
0.0
  0
LINE
  5
403
  8
0
  6
CONTINUOUS
 62
     3
 10
-75.04318203783413
 20
13.46597438092461
 30
0.0
 11
-75.04318203783413
 21
4.195868505941817
 31
0.0
  0
LINE
  5
404
  8
0
  6
CONTINUOUS
 62
     3
 10
-73.93290676927944
 20
71.73689065765043
 30
0.0
 11
-73.93290676927944
 21
61.23688684295316
 31
0.0
  0
LINE
  5
405
  8
0
  6
CONTINUOUS
 62
     3
 10
-73.93290676927944
 20
13.46597438092461
 30
0.0
 11
-73.93290676927944
 21
3.736887938188502
 31
0.0
  0
LINE
  5
406
  8
0
  6
CONTINUOUS
 62
     3
 10
-72.4410015568771
 20
79.73689065765043
 30
0.0
 11
-72.4410015568771
 21
61.23688684295316
 31
0.0
  0
LINE
  5
407
  8
0
  6
CONTINUOUS
 62
     3
 10
-72.4410015568771
 20
13.46597438092461
 30
0.0
 11
-72.4410015568771
 21
-11.26310648132663
 31
0.0
  0
LINE
  5
408
  8
0
  6
CONTINUOUS
 62
     3
 10
-37.04317822313686
 20
89.49129281829497
 30
0.0
 11
-37.04317822313686
 21
58.88888888888893
 31
0.0
  0
LINE
  5
409
  8
0
  6
CONTINUOUS
 62
     3
 10
-37.04317822313686
 20
16.95156695156697
 30
0.0
 11
-37.04317822313686
 21
-67.76310171295503
 31
0.0
  0
LINE
  5
40A
  8
0
  6
CONTINUOUS
 62
     3
 10
-198.0431744084396
 20
57.73689065765043
 30
0.0
 11
-198.0431744084396
 21
50.93689142058989
 31
0.0
  0
LINE
  5
40B
  8
0
  6
CONTINUOUS
 62
     3
 10
-198.0431744084396
 20
51.73689065765043
 30
0.0
 11
-186.0431744084396
 21
51.73689065765043
 31
0.0
  0
LINE
  5
40C
  8
0
  6
CONTINUOUS
 62
     3
 10
-198.043189664657
 20
52.60292026892162
 30
0.0
 11
-196.543185382494
 21
51.73689248850965
 31
0.0
  0
LINE
  5
40D
  8
0
  6
CONTINUOUS
 62
     3
 10
-204.0431744084396
 20
32.73689065765043
 30
0.0
 11
-204.0431744084396
 21
20.23689065765043
 31
0.0
  0
LINE
  5
40E
  8
0
  6
CONTINUOUS
 62
     3
 10
-204.0431744084396
 20
55.23689065765043
 30
0.0
 11
-204.0431744084396
 21
42.73689065765043
 31
0.0
  0
LINE
  5
40F
  8
0
  6
CONTINUOUS
 62
     3
 10
-200.0431744084396
 20
55.23689065765043
 30
0.0
 11
-200.0431744084396
 21
43.23689065765043
 31
0.0
  0
LINE
  5
410
  8
0
  6
CONTINUOUS
 62
     3
 10
-200.0431744084396
 20
32.23689065765043
 30
0.0
 11
-200.0431744084396
 21
20.23689065765043
 31
0.0
  0
LINE
  5
411
  8
0
  6
CONTINUOUS
 62
     3
 10
-204.0431744084396
 20
55.23689065765043
 30
0.0
 11
-198.0431744084396
 21
55.23689065765043
 31
0.0
  0
LINE
  5
412
  8
0
  6
CONTINUOUS
 62
     3
 10
-204.0431744084396
 20
20.23689065765043
 30
0.0
 11
-198.0431744084396
 21
20.23689065765043
 31
0.0
  0
LINE
  5
413
  8
0
  6
CONTINUOUS
 62
     3
 10
-223.2434978947677
 20
42.73689065765043
 30
0.0
 11
-113.0934978947677
 21
42.73689065765043
 31
0.0
  0
LINE
  5
414
  8
0
  6
CONTINUOUS
 62
     3
 10
-223.2434978947677
 20
32.73689065765043
 30
0.0
 11
-113.0934978947677
 21
32.73689065765043
 31
0.0
  0
LINE
  5
415
  8
0
  6
CONTINUOUS
 62
     3
 10
-223.2434978947677
 20
42.73689065765043
 30
0.0
 11
-223.2434978947677
 21
32.73689065765043
 31
0.0
  0
LINE
  5
416
  8
0
  6
CONTINUOUS
 62
     3
 10
-209.0431744084396
 20
32.73689065765043
 30
0.0
 11
-209.0431744084396
 21
30.43689142058989
 31
0.0
  0
LINE
  5
417
  8
0
  6
CONTINUOUS
 62
     3
 10
-214.0431744084396
 20
32.73689065765043
 30
0.0
 11
-214.0431744084396
 21
30.43689142058989
 31
0.0
  0
LINE
  5
418
  8
0
  6
CONTINUOUS
 62
     3
 10
-209.0431744084396
 20
45.03688989471098
 30
0.0
 11
-209.0431744084396
 21
42.73689065765043
 31
0.0
  0
LINE
  5
419
  8
0
  6
CONTINUOUS
 62
     3
 10
-214.0431744084396
 20
45.03688989471098
 30
0.0
 11
-214.0431744084396
 21
42.73689065765043
 31
0.0
  0
LINE
  5
41A
  8
0
  6
CONTINUOUS
 62
     3
 10
-213.4244152531662
 20
46.73689065765043
 30
0.0
 11
-209.661933563713
 21
46.73689065765043
 31
0.0
  0
LINE
  5
41B
  8
0
  6
CONTINUOUS
 62
     3
 10
-213.4244305119552
 20
28.73689065765043
 30
0.0
 11
-209.661918304924
 21
28.73689065765043
 31
0.0
  0
LINE
  5
41C
  8
0
  6
CONTINUOUS
 62
     3
 10
-214.0431529765853
 20
45.03688680632254
 30
0.0
 11
-213.4244026334397
 21
46.73688934152065
 31
0.0
  0
LINE
  5
41D
  8
0
  6
CONTINUOUS
 62
     3
 10
-209.0431743563608
 20
45.03689395212624
 30
0.0
 11
-208.4244253179185
 21
46.73689290268149
 31
0.0
  0
LINE
  5
41E
  8
0
  6
CONTINUOUS
 62
     3
 10
-204.6619294275753
 20
28.73688360846941
 30
0.0
 11
-204.0431790844297
 21
30.43688614366752
 31
0.0
  0
LINE
  5
41F
  8
0
  6
CONTINUOUS
 62
     3
 10
-209.6619178199096
 20
28.7368942277291
 30
0.0
 11
-209.0431700861706
 21
30.4368895936415
 31
0.0
  0
LINE
  5
420
  8
0
  6
CONTINUOUS
 62
     3
 10
-214.0431662954458
 20
30.43688503833906
 30
0.0
 11
-213.4244185617069
 21
28.73688967242666
 31
0.0
  0
LINE
  5
421
  8
0
  6
CONTINUOUS
 62
     3
 10
-209.0431622598368
 20
30.43689729176927
 30
0.0
 11
-208.4244145260979
 21
28.73690192585687
 31
0.0
  0
LINE
  5
422
  8
0
  6
CONTINUOUS
 62
     3
 10
-209.661922019012
 20
46.73689717431731
 30
0.0
 11
-209.0431690664597
 21
45.03688746983349
 31
0.0
  0
LINE
  5
423
  8
0
  6
CONTINUOUS
 62
     3
 10
-204.6619271031611
 20
46.73688987036272
 30
0.0
 11
-204.0431819788288
 21
45.03690167373603
 31
0.0
  0
LINE
  5
424
  8
0
  6
CONTINUOUS
 62
     3
 10
-208.4244305119552
 20
46.73689065765043
 30
0.0
 11
-204.661918304924
 21
46.73689065765043
 31
0.0
  0
LINE
  5
425
  8
0
  6
CONTINUOUS
 62
     3
 10
-208.4244152531662
 20
28.73689065765043
 30
0.0
 11
-204.661933563713
 21
28.73689065765043
 31
0.0
  0
LINE
  5
426
  8
0
  6
CONTINUOUS
 62
     3
 10
-170.1453472600021
 20
64.73688684295317
 30
0.0
 11
-170.1453472600021
 21
58.88888888888893
 31
0.0
  0
LINE
  5
427
  8
0
  6
CONTINUOUS
 62
     3
 10
-170.1453472600021
 20
16.95156695156697
 30
0.0
 11
-170.1453472600021
 21
10.73689018081326
 31
0.0
  0
LINE
  5
428
  8
0
  6
CONTINUOUS
 62
     3
 10
130.8119319768948
 20
79.73689298278757
 30
0.0
 11
166.8119319768948
 21
79.73689298278757
 31
0.0
  0
LINE
  5
429
  8
0
  6
CONTINUOUS
 62
     3
 10
130.8119319768948
 20
90.7651890822408
 30
0.0
 11
130.8119319768948
 21
79.73689298278757
 31
0.0
  0
LINE
  5
42A
  8
0
  6
CONTINUOUS
 62
     3
 10
166.8119319768948
 20
90.76517327215694
 30
0.0
 11
166.8119319768948
 21
79.73689298278757
 31
0.0
  0
CIRCLE
  5
42B
  8
0
  6
CONTINUOUS
 62
     3
 10
148.8119319768948
 20
37.73689298278757
 30
0.0
 40
34.0
  0
CIRCLE
  5
42C
  8
0
  6
CONTINUOUS
 62
     3
 10
125.4292568059964
 20
51.2369006121821
 30
0.0
 40
5.5
  0
CIRCLE
  5
42D
  8
0
  6
CONTINUOUS
 62
     3
 10
148.8119319768948
 20
37.73689298278757
 30
0.0
 40
17.5
  0
CIRCLE
  5
42E
  8
0
  6
CONTINUOUS
 62
     3
 10
172.1946224065823
 20
51.23688916809031
 30
0.0
 40
5.5
  0
CIRCLE
  5
42F
  8
0
  6
CONTINUOUS
 62
     3
 10
148.8119319768948
 20
37.73689298278757
 30
0.0
 40
7.5
  0
CIRCLE
  5
430
  8
0
  6
CONTINUOUS
 62
     3
 10
148.8119319768948
 20
10.73689298278757
 30
0.0
 40
5.5
  0
CIRCLE
  5
431
  8
0
  6
CONTINUOUS
 62
     3
 10
106.8097041936917
 20
61.9869006121821
 30
0.0
 40
7.0
  0
CIRCLE
  5
432
  8
0
  6
CONTINUOUS
 62
     3
 10
190.814175018887
 20
61.98688916809031
 30
0.0
 40
7.0
  0
CIRCLE
  5
433
  8
0
  6
CONTINUOUS
 62
     3
 10
148.8119319768948
 20
-10.76310701721243
 30
0.0
 40
7.0
  0
LINE
  5
434
  8
0
  6
CENTER
 62
     7
 10
-105.0431744084396
 20
123.5195902426114
 30
0.0
 11
-105.0431744084396
 21
59.26392541717191
 31
0.0
  0
LINE
  5
435
  8
0
  6
CENTER
 62
     7
 10
-177.77723978468
 20
-28.96311010528903
 30
0.0
 11
-33.46409100134375
 21
-28.96311010528903
 31
0.0
  0
LINE
  5
436
  8
0
  6
CENTER
 62
     7
 10
-131.6409985051193
 20
-1.846448079837373
 30
0.0
 11
-131.6409985051193
 21
-18.34644712616306
 31
0.0
  0
LINE
  5
437
  8
0
  6
CENTER
 62
     7
 10
148.8119086885121
 20
155.977994783627
 30
0.0
 11
148.8119086885121
 21
-79.42978872467378
 31
0.0
  0
LINE
  5
438
  8
0
  6
CENTER
 62
     7
 10
31.73692318436167
 20
37.73688684295316
 30
0.0
 11
268.5452460908558
 21
37.73688684295316
 31
0.0
  0
LINE
  5
439
  8
0
  6
CENTER
 62
     7
 10
-22.57282765825706
 20
-61.21213556324744
 30
0.0
 11
48.2491531564956
 21
-20.32305039281276
 31
0.0
  0
LINE
  5
43A
  8
0
  6
CENTER
 62
     7
 10
98.69671975095901
 20
66.67091491540501
 30
0.0
 11
249.4458947308746
 21
-20.3641522235606
 31
0.0
  0
LINE
  5
43B
  8
0
  6
CENTER
 62
     7
 10
200.1991405593225
 20
51.50605480206839
 30
0.0
 11
226.2791227639381
 21
58.49416422632164
 31
0.0
  0
LINE
  5
43C
  8
0
  6
CENTER
 62
     7
 10
71.34465595691302
 20
58.49415869787187
 30
0.0
 11
97.42465658510139
 21
51.50604433703769
 31
0.0
  0
LINE
  5
43D
  8
0
  6
CENTER
 62
     7
 10
92.10195297009005
 20
94.44686872339514
 30
0.0
 11
111.1938449311418
 21
75.35497837166943
 31
0.0
  0
LINE
  5
43E
  8
0
  6
CENTER
 62
     7
 10
186.4300167892933
 20
75.35495875436769
 30
0.0
 11
205.5219011639118
 21
94.44684151966081
 31
0.0
  0
LINE
  5
43F
  8
0
  6
CENTER
 62
     7
 10
127.6663973745187
 20
-41.17925681288942
 30
0.0
 11
135.4309698245071
 21
-12.20148151007321
 31
0.0
  0
LINE
  5
440
  8
0
  6
CENTER
 62
     7
 10
162.1928235873388
 20
-12.20148089842029
 30
0.0
 11
169.9573948031817
 21
-41.1792515953433
 31
0.0
  0
LINE
  5
441
  8
0
  6
CENTER
 62
     7
 10
82.2351112031605
 20
111.7368906576504
 30
0.0
 11
125.3875312471058
 21
111.7368906576504
 31
0.0
  0
LINE
  5
442
  8
0
  6
CENTER
 62
     7
 10
113.8119010591175
 20
123.8657969076504
 30
0.0
 11
113.8119010591175
 21
99.54626260589262
 31
0.0
  0
LINE
  5
443
  8
0
  6
CENTER
 62
     7
 10
-62.32499661302944
 20
-10.76311220337253
 30
0.0
 11
-44.60984005785366
 21
-10.76311220337253
 31
0.0
  0
LINE
  5
444
  8
0
  6
CENTER
 62
     7
 10
-55.14079251146694
 20
131.2368906576504
 30
0.0
 11
-13.33932080126186
 21
131.2368906576504
 31
0.0
  0
LINE
  5
445
  8
0
  6
CENTER
 62
     7
 10
-55.14079251146694
 20
101.2368906576504
 30
0.0
 11
-13.16068234300991
 21
101.2368906576504
 31
0.0
  0
LINE
  5
446
  8
0
  6
CENTER
 62
     7
 10
223.7853170564353
 20
-19.4054190070509
 30
0.0
 11
235.7853184869467
 21
1.379190310728646
 31
0.0
  0
LINE
  5
447
  8
0
  6
CENTER
 62
     7
 10
61.83853621555534
 20
1.379187476342523
 30
0.0
 11
73.83853764606681
 21
-19.40542184143702
 31
0.0
  0
LINE
  5
448
  8
0
  6
CENTER
 62
     7
 10
136.8119086885121
 20
131.2368906576504
 30
0.0
 11
160.8119086885121
 21
131.2368906576504
 31
0.0
  0
LINE
  5
449
  8
0
  6
CENTER
 62
     7
 10
136.8119086885121
 20
101.2368906576504
 30
0.0
 11
160.8119086885121
 21
101.2368906576504
 31
0.0
  0
LINE
  5
44A
  8
0
  6
CENTER
 62
     7
 10
-70.54318203783413
 20
150.6788004476895
 30
0.0
 11
-70.54318203783413
 21
112.745214327084
 31
0.0
  0
LINE
  5
44B
  8
0
  6
CENTER
 62
     7
 10
48.2491531564956
 20
-20.32305039281276
 30
0.0
 11
244.0786941437356
 21
92.7391753201176
 31
0.0
  0
LINE
  5
44C
  8
0
  6
CENTER
 62
     7
 10
-4.662409897542389
 20
-36.43779195373169
 30
0.0
 11
7.837592009806244
 21
-58.08842996337671
 31
0.0
  0
LINE
  5
44D
  8
0
  6
CENTER
 62
     7
 10
108.8315804771058
 20
-41.0151669398541
 30
0.0
 11
96.43820508037732
 21
-19.54921146072216
 31
0.0
  0
LINE
  5
44E
  8
0
  6
CENTER
 62
     7
 10
20.78097855930353
 20
-76.59631959622016
 30
0.0
 11
52.45678570051838
 21
-58.30828348820319
 31
0.0
  0
LINE
  5
44F
  8
0
  6
CENTER
 62
     7
 10
240.9017154556099
 20
24.98332239122932
 30
0.0
 11
219.840394534593
 21
37.1430819127137
 31
0.0
  0
LINE
  5
450
  8
0
  6
CENTER
 62
     7
 10
236.7636270674742
 20
42.0737550323321
 30
0.0
 11
224.6099558028258
 21
21.02297928129532
 31
0.0
  0
LINE
  5
451
  8
0
  6
CENTER
 62
     7
 10
90.91707859713586
 20
-36.10322166946149
 30
0.0
 11
112.7834135657944
 21
-23.4786870625279
 31
0.0
  0
LINE
  5
452
  8
0
  6
CENTER
 62
     7
 10
99.81928865824864
 20
-4.405420462492756
 30
0.0
 11
87.81928865824864
 21
16.37918885528679
 31
0.0
  0
LINE
  5
453
  8
0
  6
CENTER
 62
     7
 10
209.8045251641846
 20
16.37919056454543
 30
0.0
 11
197.8045251641846
 21
-4.405418753234116
 31
0.0
  0
ARC
  5
454
  8
0
  6
CENTER
 62
     7
 10
148.8119086885121
 20
37.73688684295316
 30
0.0
 40
66.69999694824219
 50
3.383514351605175
 51
26.61648050680536
  0
ARC
  5
455
  8
0
  6
CENTER
 62
     7
 10
148.8119086885121
 20
37.73688684295316
 30
0.0
 40
66.69999694824219
 50
33.38350921001571
 51
56.61647280389495
  0
ARC
  5
456
  8
0
  6
CENTER
 62
     7
 10
148.8119086885121
 20
37.73688684295316
 30
0.0
 40
66.69999694824219
 50
123.3835424503451
 51
146.6165128744136
  0
ARC
  5
457
  8
0
  6
CENTER
 62
     7
 10
148.8119086885121
 20
37.73688684295316
 30
0.0
 40
66.69999694824219
 50
153.383536454982
 51
176.6165068790504
  0
ARC
  5
458
  8
0
  6
CENTER
 62
     7
 10
148.8119086885121
 20
37.73688684295316
 30
0.0
 40
66.69999694824219
 50
242.0875620182401
 51
267.9123979870316
  0
ARC
  5
459
  8
0
  6
CENTER
 62
     7
 10
148.8119086885121
 20
37.73688684295316
 30
0.0
 40
66.69999694824219
 50
272.0875833436337
 51
297.9124193124252
  0
LINE
  5
45A
  8
0
  6
CENTER
 62
     7
 10
-62.32498516893764
 20
-10.76310934234957
 30
0.0
 11
-32.32498135424038
 21
-10.76310934234957
 31
0.0
  0
LINE
  5
45B
  8
0
  6
CENTER
 62
     7
 10
-55.14164700365444
 20
10.73689065765043
 30
0.0
 11
-35.10130848741909
 21
10.73689065765043
 31
0.0
  0
LINE
  5
45C
  8
0
  6
CENTER
 62
     7
 10
-188.5431744084396
 20
47.23689065765043
 30
0.0
 11
-112.5025021061935
 21
47.23689065765043
 31
0.0
  0
LINE
  5
45D
  8
0
  6
CENTER
 62
     7
 10
-187.7054668889084
 20
28.23689065765043
 30
0.0
 11
-110.5934978947677
 21
28.23689065765043
 31
0.0
  0
LINE
  5
45E
  8
0
  6
CENTER
 62
     7
 10
-144.5276257023849
 20
37.73689065765043
 30
0.0
 11
-95.27445187425991
 21
37.73689065765043
 31
0.0
  0
LINE
  5
45F
  8
0
  6
CENTER
 62
     7
 10
-226.8288207347743
 20
37.73688684295316
 30
0.0
 11
-151.301997147162
 21
37.73688684295316
 31
0.0
  0
LINE
  5
460
  8
0
  6
CENTER
 62
     7
 10
-144.5276257023849
 20
37.73688684295316
 30
0.0
 11
-128.8577665239153
 21
37.73688684295316
 31
0.0
  0
LINE
  5
461
  8
0
  6
CENTER
 62
     7
 10
-38.72780165863392
 20
37.73689065765043
 30
0.0
 11
-24.33328991359463
 21
37.73689065765043
 31
0.0
  0
LINE
  5
462
  8
0
  6
CENTER
 62
     7
 10
-62.65381442403706
 20
37.73689065765043
 30
0.0
 11
-47.96752203551724
 21
37.73689065765043
 31
0.0
  0
LINE
  5
463
  8
0
  6
CENTER
 62
     7
 10
-85.94763579523243
 20
37.73689065765043
 30
0.0
 11
-81.0359949633102
 21
37.73689065765043
 31
0.0
  0
LINE
  5
464
  8
0
  6
CENTER
 62
     7
 10
-74.3250401632581
 20
37.73689065765043
 30
0.0
 11
-70.53189179801127
 21
37.73689065765043
 31
0.0
  0
ARC
  5
465
  8
0
  6
CENTER
 62
     7
 10
148.8119319768948
 20
37.73689298278757
 30
0.0
 40
27.0
 50
130.8118512859759
 51
169.188129741528
  0
ARC
  5
466
  8
0
  6
CENTER
 62
     7
 10
148.8119319768948
 20
37.73689298278757
 30
0.0
 40
27.0
 50
10.81185221553992
 51
49.18812981731834
  0
ARC
  5
467
  8
0
  6
CENTER
 62
     7
 10
148.8119319768948
 20
37.73689298278757
 30
0.0
 40
27.0
 50
250.8118514375566
 51
289.1881298931087
  0
ARC
  5
468
  8
0
  6
CENTER
 62
     7
 10
148.8119319768948
 20
37.73689298278757
 30
0.0
 40
48.5
 50
135.78731624725
 51
164.2126921010105
  0
ARC
  5
469
  8
0
  6
CENTER
 62
     7
 10
148.8119319768948
 20
37.73689298278757
 30
0.0
 40
48.5
 50
15.78730437020935
 51
44.21267851642254
  0
ARC
  5
46A
  8
0
  6
CENTER
 62
     7
 10
148.8119319768948
 20
37.73689298278757
 30
0.0
 40
48.5
 50
255.7872890780741
 51
284.2126922525912
  0
LINE
  5
46B
  8
0
  6
DASHED2
 62
     7
 10
-159.0431744084396
 20
-35.96311010528903
 30
0.0
 11
-50.04318203783413
 21
-35.96311010528903
 31
0.0
  0
LINE
  5
46C
  8
0
  6
DASHED2
 62
     7
 10
-159.0431744084396
 20
-21.9631081979404
 30
0.0
 11
-50.04318203783413
 21
-21.9631081979404
 31
0.0
  0
LINE
  5
46D
  8
0
  6
DASHED2
 62
     7
 10
100.8119010591175
 20
133.925504549252
 30
0.0
 11
100.8119010591175
 21
100.7368906576504
 31
0.0
  0
LINE
  5
46E
  8
0
  6
DASHED2
 62
     7
 10
61.70708080765269
 20
100.7368906576504
 30
0.0
 11
100.8119010591175
 21
100.7368906576504
 31
0.0
  0
LINE
  5
46F
  8
0
  6
DASHED2
 62
     7
 10
100.8119010591175
 20
119.7368906576504
 30
0.0
 11
119.762447323766
 21
119.7368906576504
 31
0.0
  0
LINE
  5
470
  8
0
  6
DASHED2
 62
     7
 10
100.8119010591175
 20
103.7368906576504
 30
0.0
 11
119.762447323766
 21
103.7368906576504
 31
0.0
  0
LINE
  5
471
  8
0
  6
DASHED2
 62
     7
 10
101.8119010591175
 20
119.7368906576504
 30
0.0
 11
101.8119010591175
 21
103.7368906576504
 31
0.0
  0
LINE
  5
472
  8
0
  6
DASHED2
 62
     7
 10
100.8119004410013
 20
118.7368834538666
 30
0.0
 11
101.8119015025908
 21
119.7368845154561
 31
0.0
  0
LINE
  5
473
  8
0
  6
DASHED2
 62
     7
 10
100.8118817278009
 20
104.736865725628
 30
0.0
 11
101.8118822836283
 21
103.7368651698006
 31
0.0
  0
LINE
  5
474
  8
0
  6
DASHED2
 62
     7
 10
88.81190105911753
 20
114.1368921835293
 30
0.0
 11
88.81190105911753
 21
109.3368891317715
 31
0.0
  0
LINE
  5
475
  8
0
  6
DASHED2
 62
     7
 10
91.51189800735972
 20
115.0368937094083
 30
0.0
 11
91.51189800735972
 21
108.4368876058926
 31
0.0
  0
LINE
  5
476
  8
0
  6
DASHED2
 62
     7
 10
97.25065227982066
 20
106.0368937094083
 30
0.0
 11
100.3731498384144
 21
106.0368937094083
 31
0.0
  0
LINE
  5
477
  8
0
  6
DASHED2
 62
     7
 10
97.25065227982066
 20
117.4368876058926
 30
0.0
 11
100.3731498384144
 21
117.4368876058926
 31
0.0
  0
LINE
  5
478
  8
0
  6
DASHED2
 62
     7
 10
91.51188081752491
 20
108.4368398396004
 30
0.0
 11
88.81188402039481
 21
109.3368386588853
 31
0.0
  0
LINE
  5
479
  8
0
  6
DASHED2
 62
     7
 10
91.51191911075409
 20
115.0368629327765
 30
0.0
 11
88.81191507574465
 21
114.1368617008654
 31
0.0
  0
LINE
  5
47A
  8
0
  6
DASHED2
 62
     7
 10
92.51189800735972
 20
114.4822214681973
 30
0.0
 11
92.51189800735972
 21
108.9414118368497
 31
0.0
  0
LINE
  5
47B
  8
0
  6
DASHED2
 62
     7
 10
96.81190105911753
 20
116.1868876058926
 30
0.0
 11
96.81190105911753
 21
107.2868937094083
 31
0.0
  0
LINE
  5
47C
  8
0
  6
DASHED2
 62
     7
 10
97.555789914098
 20
114.6305521566739
 30
0.0
 11
100.0680122041371
 21
114.6305521566739
 31
0.0
  0
LINE
  5
47D
  8
0
  6
DASHED2
 62
     7
 10
97.555789914098
 20
108.843229158627
 30
0.0
 11
100.0680122041371
 21
108.843229158627
 31
0.0
  0
LINE
  5
47E
  8
0
  6
DASHED2
 62
     7
 10
100.8119010591175
 20
116.0368937094083
 30
0.0
 11
107.8119010591175
 21
116.0368937094083
 31
0.0
  0
LINE
  5
47F
  8
0
  6
DASHED2
 62
     7
 10
100.8119010591175
 20
107.4368876058926
 30
0.0
 11
107.8119010591175
 21
107.4368876058926
 31
0.0
  0
LINE
  5
480
  8
0
  6
DASHED2
 62
     7
 10
100.8119010591175
 20
115.3368891317715
 30
0.0
 11
107.8119010591175
 21
115.3368891317715
 31
0.0
  0
LINE
  5
481
  8
0
  6
DASHED2
 62
     7
 10
100.8119010591175
 20
108.1368921835293
 30
0.0
 11
107.8119010591175
 21
108.1368921835293
 31
0.0
  0
LINE
  5
482
  8
0
  6
DASHED2
 62
     7
 10
107.8119010591175
 20
116.0368937094083
 30
0.0
 11
107.8119010591175
 21
107.4368876058926
 31
0.0
  0
LINE
  5
483
  8
0
  6
DASHED2
 62
     7
 10
107.8119010591175
 20
113.2368906576504
 30
0.0
 11
119.762447323766
 21
113.2368906576504
 31
0.0
  0
LINE
  5
484
  8
0
  6
DASHED2
 62
     7
 10
107.8119010591175
 20
110.2368906576504
 30
0.0
 11
119.762447323766
 21
110.2368906576504
 31
0.0
  0
LINE
  5
485
  8
0
  6
DASHED2
 62
     7
 10
-50.04318203783413
 20
-19.4631081979404
 30
0.0
 11
-50.04318203783413
 21
-38.46311010528903
 31
0.0
  0
LINE
  5
486
  8
0
  6
DASHED2
 62
     7
 10
-50.04318203783413
 20
-38.46311010528903
 30
0.0
 11
-37.04317822313686
 21
-38.46311010528903
 31
0.0
  0
LINE
  5
487
  8
0
  6
DASHED2
 62
     7
 10
-50.04318203783413
 20
-19.4631081979404
 30
0.0
 11
-37.04317822313686
 21
-19.4631081979404
 31
0.0
  0
LINE
  5
488
  8
0
  6
DASHED2
 62
     7
 10
32.34111303911281
 20
-59.52976797049155
 30
0.0
 11
43.59944349919648
 21
-53.02976773207298
 31
0.0
  0
LINE
  5
489
  8
0
  6
DASHED2
 62
     7
 10
41.34111469092515
 20
-75.11822400515189
 30
0.0
 11
52.59944432510265
 21
-68.61822424357047
 31
0.0
  0
LINE
  5
48A
  8
0
  6
DASHED2
 62
     7
 10
32.34111408667313
 20
-59.52977078881332
 30
0.0
 11
41.34111515955674
 21
-75.11822777714798
 31
0.0
  0
LINE
  5
48B
  8
0
  6
DASHED2
 62
     7
 10
48.43341928684821
 20
-63.40245824104954
 30
0.0
 11
46.0334177609693
 21
-59.24553373459389
 31
0.0
  0
LINE
  5
48C
  8
0
  6
DASHED2
 62
     7
 10
46.5451516667187
 20
-65.53188231654872
 30
0.0
 11
43.24515242965815
 21
-59.81611607560922
 31
0.0
  0
LINE
  5
48D
  8
0
  6
DASHED2
 62
     7
 10
37.07524807351676
 20
-60.60702905126323
 30
0.0
 11
34.37108426124227
 21
-62.16827878423442
 31
0.0
  0
LINE
  5
48E
  8
0
  6
DASHED2
 62
     7
 10
43.24514877728767
 20
-59.8161121542025
 30
0.0
 11
46.03341768577671
 21
-59.24553489726114
 31
0.0
  0
LINE
  5
48F
  8
0
  6
DASHED2
 62
     7
 10
46.54515183055604
 20
-65.53188290803132
 30
0.0
 11
48.43341944797849
 21
-63.40246121839618
 31
0.0
  0
LINE
  5
490
  8
0
  6
DASHED2
 62
     7
 10
45.40179015787241
 20
-65.55152207350761
 30
0.0
 11
42.63138534219858
 21
-60.75304026135132
 31
0.0
  0
LINE
  5
491
  8
0
  6
DASHED2
 62
     7
 10
42.53021389210333
 20
-69.1778063225936
 30
0.0
 11
38.08021694386115
 21
-61.47018565304984
 31
0.0
  0
LINE
  5
492
  8
0
  6
DASHED2
 62
     7
 10
41.10782035895765
 20
-68.20192426160406
 30
0.0
 11
38.93217042306701
 21
-69.45803636029791
 31
0.0
  0
LINE
  5
493
  8
0
  6
DASHED2
 62
     7
 10
38.21415885993422
 20
-63.18995561534553
 30
0.0
 11
36.03850892404357
 21
-64.44606771403937
 31
0.0
  0
LINE
  5
494
  8
0
  6
DASHED2
 62
     7
 10
26.11813585608671
 20
-68.75125524202974
 30
0.0
 11
34.69111355538222
 21
-63.6000905903835
 31
0.0
  0
LINE
  5
495
  8
0
  6
DASHED2
 62
     7
 10
26.51813349442647
 20
-69.4440713808425
 30
0.0
 11
35.09111119372197
 21
-64.29290672919626
 31
0.0
  0
LINE
  5
496
  8
0
  6
DASHED2
 62
     7
 10
27.40408064155086
 20
-67.97857963244485
 30
0.0
 11
31.55571535277282
 21
-75.16942090046985
 31
0.0
  0
ARC
  5
497
  8
0
  6
DASHED2
 62
     7
 10
91.51189800735972
 20
111.7368906576504
 30
0.0
 40
3.299999952316284
 50
73.48282241201396
 51
89.99998201391065
  0
ARC
  5
498
  8
0
  6
DASHED2
 62
     7
 10
91.51189800735972
 20
111.7368906576504
 30
0.0
 40
3.299999952316284
 50
270.0000179860894
 51
286.5171775879861
  0
ARC
  5
499
  8
0
  6
DASHED2
 62
     7
 10
98.81190105911753
 20
116.1868876058926
 30
0.0
 40
2.0
 50
0.0
 51
38.68218896809859
  0
ARC
  5
49A
  8
0
  6
DASHED2
 62
     7
 10
98.81190105911753
 20
107.2868937094083
 30
0.0
 40
2.0
 50
0.0
 51
51.09316519948327
  0
ARC
  5
49B
  8
0
  6
DASHED2
 62
     7
 10
94.81190105911753
 20
111.7368906576504
 30
0.0
 40
6.0
 50
0.0
 51
28.83423780766662
  0
ARC
  5
49C
  8
0
  6
DASHED2
 62
     7
 10
102.8119010591175
 20
111.7368906576504
 30
0.0
 40
6.0
 50
151.1657740314789
 51
208.8342086656771
  0
ARC
  5
49D
  8
0
  6
DASHED2
 62
     7
 10
94.81190105911753
 20
111.7368906576504
 30
0.0
 40
6.0
 50
331.1657621923334
 51
360.0
  0
ARC
  5
49E
  8
0
  6
DASHED2
 62
     7
 10
98.81190105911753
 20
116.1868876058926
 30
0.0
 40
2.0
 50
308.9068348005167
 51
360.0
  0
ARC
  5
49F
  8
0
  6
DASHED2
 62
     7
 10
98.81190105911753
 20
116.1868876058926
 30
0.0
 40
2.0
 50
141.3178297012361
 51
231.0931121518317
  0
ARC
  5
4A0
  8
0
  6
DASHED2
 62
     7
 10
98.81190105911753
 20
107.2868937094083
 30
0.0
 40
2.0
 50
128.906856884946
 51
218.6821529959199
  0
ARC
  5
4A1
  8
0
  6
DASHED2
 62
     7
 10
98.81190105911753
 20
107.2868937094083
 30
0.0
 40
2.0
 50
321.3178110319014
 51
360.0
  0
ARC
  5
4A2
  8
0
  6
DASHED2
 62
     7
 10
92.845096554723
 20
120.5368937094083
 30
0.0
 40
5.650000095367432
 50
265.9910930942637
 51
315.0592540539054
  0
ARC
  5
4A3
  8
0
  6
DASHED2
 62
     7
 10
92.845096554723
 20
102.9368876058926
 30
0.0
 40
5.650000095367432
 50
44.94074594609464
 51
94.00890690573628
  0
ARC
  5
4A4
  8
0
  6
DASHED2
 62
     7
 10
89.51189800735972
 20
111.7368906576504
 30
0.0
 40
1.5
 50
117.818154050457
 51
242.1818423070773
  0
ARC
  5
4A5
  8
0
  6
DASHED2
 62
     7
 10
44.89515127961634
 20
-62.67399863568539
 30
0.0
 40
3.299999952316284
 50
283.4828250680728
 51
299.9999846699695
  0
ARC
  5
4A6
  8
0
  6
DASHED2
 62
     7
 10
44.89515127961634
 20
-62.67399863568539
 30
0.0
 40
3.299999952316284
 50
120.0000169996826
 51
136.5171766015793
  0
ARC
  5
4A7
  8
0
  6
DASHED2
 62
     7
 10
36.34816565339564
 20
-62.47018699017758
 30
0.0
 40
2.0
 50
210.0000026560589
 51
261.0931644404476
  0
ARC
  5
4A8
  8
0
  6
DASHED2
 62
     7
 10
42.0372678262472
 20
-64.3240001615643
 30
0.0
 40
6.0
 50
210.0000026560589
 51
238.8342336335363
  0
ARC
  5
4A9
  8
0
  6
DASHED2
 62
     7
 10
35.1090623361349
 20
-68.3240001615643
 30
0.0
 40
6.0
 50
1.165774019495132
 51
58.83421132173599
  0
ARC
  5
4AA
  8
0
  6
DASHED2
 62
     7
 10
42.0372678262472
 20
-64.3240001615643
 30
0.0
 40
6.0
 50
181.1657580182031
 51
210.0000026560589
  0
ARC
  5
4AB
  8
0
  6
DASHED2
 62
     7
 10
40.79816450898646
 20
-70.17781333295102
 30
0.0
 40
2.0
 50
351.317829795974
 51
441.0931148078906
  0
ARC
  5
4AC
  8
0
  6
DASHED2
 62
     7
 10
36.34816565339564
 20
-62.47018699017758
 30
0.0
 40
2.0
 50
338.9068561259103
 51
428.6821556519788
  0
ARC
  5
4AD
  8
0
  6
DASHED2
 62
     7
 10
36.34816565339564
 20
-62.47018699017758
 30
0.0
 40
2.0
 50
171.3178100454946
 51
209.9999990135932
  0
ARC
  5
4AE
  8
0
  6
DASHED2
 62
     7
 10
48.14056601350306
 20
-70.96161918011899
 30
0.0
 40
5.650000095367432
 50
115.9910921078569
 51
165.0592530674986
  0
ARC
  5
4AF
  8
0
  6
DASHED2
 62
     7
 10
39.34056677644252
 20
-55.7195766386151
 30
0.0
 40
5.650000095367432
 50
254.9407486021535
 51
304.0089061467006
  0
ARC
  5
4B0
  8
0
  6
DASHED2
 62
     7
 10
46.62720312898158
 20
-61.67399863568539
 30
0.0
 40
1.5
 50
327.8181532914213
 51
452.1818449631362
  0
LINE
  5
4B1
  8
0
  6
DASHED2
 62
     7
 10
42.77524502175895
 20
-70.47971319140902
 30
0.0
 11
40.07108120948446
 21
-72.04096292438021
 31
0.0
  0
LINE
  5
4B2
  8
0
  6
DASHED2
 62
     7
 10
29.84358341527626
 20
-75.20392415895793
 30
0.0
 11
38.5911135345202
 21
-70.3550892502318
 31
0.0
  0
LINE
  5
4B3
  8
0
  6
DASHED2
 62
     7
 10
30.24358262778831
 20
-75.89673943246339
 30
0.0
 11
38.99111107882753
 21
-71.0479054484382
 31
0.0
  0
LINE
  5
4B4
  8
0
  6
DASHED2
 62
     7
 10
26.11813460176596
 20
-68.75125580165866
 30
0.0
 11
30.24358522783528
 21
-75.89674491006997
 31
0.0
  0
LINE
  5
4B5
  8
0
  6
DASHED2
 62
     7
 10
22.51208682224079
 20
-71.75696825460113
 30
0.0
 11
26.51813644135108
 21
-69.44407438710846
 31
0.0
  0
LINE
  5
4B6
  8
0
  6
DASHED2
 62
     7
 10
25.76346498761153
 20
-77.55957516604963
 30
0.0
 11
29.84358352387061
 21
-75.20391758853498
 31
0.0
  0
ARC
  5
4B7
  8
0
  6
DASHED2
 62
     7
 10
40.79816450898646
 20
-70.17781333295102
 30
0.0
 40
2.0
 50
210.0000026560589
 51
248.6821916241575
  0
ARC
  5
4B8
  8
0
  6
DASHED2
 62
     7
 10
40.79816450898646
 20
-70.17781333295102
 30
0.0
 40
2.0
 50
158.9068372292045
 51
209.9999990135932
  0
LINE
  5
4B9
  8
0
  6
DASHED2
 62
     7
 10
-101.4431744084396
 20
-48.76310934234957
 30
0.0
 11
-94.64317440843959
 21
-48.76310934234957
 31
0.0
  0
LINE
  5
4BA
  8
0
  6
DASHED2
 62
     7
 10
-102.0431744084396
 20
-53.76310934234957
 30
0.0
 11
-94.0431744084396
 21
-53.76310934234957
 31
0.0
  0
LINE
  5
4BB
  8
0
  6
DASHED2
 62
     7
 10
-102.0431744084396
 20
-53.76310934234957
 30
0.0
 11
-102.0431744084396
 21
-69.76310934234957
 31
0.0
  0
LINE
  5
4BC
  8
0
  6
DASHED2
 62
     7
 10
-101.4431744084396
 20
-48.76310934234957
 30
0.0
 11
-101.4431744084396
 21
-69.76310934234957
 31
0.0
  0
LINE
  5
4BD
  8
0
  6
DASHED2
 62
     7
 10
-101.4431744084394
 20
-48.76310934234945
 30
0.0
 11
-98.04317440843971
 21
-46.80011842710491
 31
0.0
  0
LINE
  5
4BE
  8
0
  6
DASHED2
 62
     7
 10
-94.64317440843979
 20
-48.76310934234945
 30
0.0
 11
-98.04317440843948
 21
-46.80011842710491
 31
0.0
  0
LINE
  5
4BF
  8
0
  6
DASHED2
 62
     7
 10
-94.64317440843959
 20
-48.76310934234957
 30
0.0
 11
-94.64317440843959
 21
-69.76310934234957
 31
0.0
  0
LINE
  5
4C0
  8
0
  6
DASHED2
 62
     7
 10
-94.0431744084396
 20
-53.76310934234957
 30
0.0
 11
-94.0431744084396
 21
-69.76310934234957
 31
0.0
  0
LINE
  5
4C1
  8
0
  6
DASHED2
 62
     7
 10
222.0230992411829
 20
83.93138512312106
 30
0.0
 11
240.2096327206561
 21
94.43138512312106
 31
0.0
  0
LINE
  5
4C2
  8
0
  6
DASHED2
 62
     7
 10
226.0532262601051
 20
86.95100036539171
 30
0.0
 11
239.9096327206561
 21
94.95100036539171
 31
0.0
  0
LINE
  5
4C3
  8
0
  6
DASHED2
 62
     7
 10
230.053226260105
 20
80.02279713511621
 30
0.0
 11
226.0532262601051
 21
86.95100036539171
 31
0.0
  0
LINE
  5
4C4
  8
0
  6
DASHED2
 62
     7
 10
230.053226260105
 20
80.02279713511621
 30
0.0
 11
243.9096327206561
 21
88.02279713511621
 31
0.0
  0
LINE
  5
4C5
  8
0
  6
DASHED2
 62
     7
 10
225.4230992411829
 20
78.04241237738683
 30
0.0
 11
243.6096327206561
 21
88.54241237738683
 31
0.0
  0
LINE
  5
4C6
  8
0
  6
DASHED2
 62
     7
 10
225.4230992411829
 20
78.04241237738683
 30
0.0
 11
222.0230992411829
 21
83.93138512312106
 31
0.0
  0
LINE
  5
4C7
  8
0
  6
DASHED2
 62
     7
 10
225.4230992411826
 20
78.04241237738697
 30
0.0
 11
222.023099241183
 21
80.00540329263151
 31
0.0
  0
LINE
  5
4C8
  8
0
  6
DASHED2
 62
     7
 10
222.0230992411829
 20
83.93138512312083
 30
0.0
 11
222.0230992411829
 21
80.00540329263171
 31
0.0
  0
LINE
  5
4C9
  8
0
  6
DASHED2
 62
     7
 10
-50.0431744084396
 20
-19.46310629059175
 30
0.0
 11
-37.0431744084396
 21
-19.46310629059175
 31
0.0
  0
LINE
  5
4CA
  8
0
  6
DASHED2
 62
     7
 10
55.10441843707088
 20
-110.3568783861467
 30
0.0
 11
55.10441843707088
 21
-136.3568783861467
 31
0.0
  0
LINE
  5
4CB
  8
0
  6
DASHED2
 62
     7
 10
26.60441843707088
 20
-110.3568783861467
 30
0.0
 11
55.10441843707088
 21
-110.3568783861467
 31
0.0
  0
LINE
  5
4CC
  8
0
  6
DIVIDE
 62
     7
 10
-157.6453472600021
 20
64.73688684295317
 30
0.0
 11
-157.6453472600021
 21
54.820222719418
 31
0.0
  0
LINE
  5
4CD
  8
0
  6
DIVIDE
 62
     7
 10
-157.6454021487099
 20
64.73693604701262
 30
0.0
 11
-156.538098584396
 21
65.84423961132657
 31
0.0
  0
LINE
  5
4CE
  8
0
  6
DIVIDE
 62
     7
 10
-139.0431744084396
 20
-22.9631081979404
 30
0.0
 11
-139.0431744084396
 21
-34.96311010528903
 31
0.0
  0
LINE
  5
4CF
  8
0
  6
CONTINUOUS
 62
     7
 10
-23.47697267513405
 20
100.2368947817626
 30
0.0
 11
-21.04317238376581
 21
98.83173968363158
 31
0.0
  0
LINE
  5
4D0
  8
0
  6
CONTINUOUS
 62
     7
 10
-25.87698520293208
 20
100.2368877721821
 30
0.0
 11
-21.04317409575316
 21
97.44608593657372
 31
0.0
  0
LINE
  5
4D1
  8
0
  6
CONTINUOUS
 62
     7
 10
-28.27697307213936
 20
100.236892954957
 30
0.0
 11
-21.04317097089921
 21
96.06045582596235
 31
0.0
  0
LINE
  5
4D2
  8
0
  6
CONTINUOUS
 62
     7
 10
-29.04317599440782
 20
99.2936100388678
 30
0.0
 11
-21.04317738278786
 21
94.67480919722644
 31
0.0
  0
LINE
  5
4D3
  8
0
  6
CONTINUOUS
 62
     7
 10
-29.04317286955387
 20
97.90797992825642
 30
0.0
 11
-22.68467279490045
 21
94.23689860410119
 31
0.0
  0
LINE
  5
4D4
  8
0
  6
CONTINUOUS
 62
     7
 10
-29.04318016664678
 20
96.52234702509227
 30
0.0
 11
-25.08466447880477
 21
94.23689717962625
 31
0.0
  0
LINE
  5
4D5
  8
0
  6
CONTINUOUS
 62
     7
 10
-29.04318187863413
 20
95.13669327803441
 30
0.0
 11
-27.48467700660279
 21
94.23689017004577
 31
0.0
  0
LINE
  5
4D6
  8
0
  6
CONTINUOUS
 62
     7
 10
-23.82345077990811
 20
130.2368931965513
 30
0.0
 11
-21.04317291545357
 21
128.6316992004314
 31
0.0
  0
LINE
  5
4D7
  8
0
  6
CONTINUOUS
 62
     7
 10
-26.22346228556188
 20
130.2369032161675
 30
0.0
 11
-21.04317360529666
 21
127.2460624825702
 31
0.0
  0
LINE
  5
4D8
  8
0
  6
CONTINUOUS
 62
     7
 10
-28.6234539694662
 20
130.2369017916925
 30
0.0
 11
-21.04316768788993
 21
125.860421950012
 31
0.0
  0
LINE
  5
4D9
  8
0
  6
CONTINUOUS
 62
     7
 10
-29.04316801149724
 20
129.0935690445955
 30
0.0
 11
-21.04316939987729
 21
124.4747682029542
 31
0.0
  0
LINE
  5
4DA
  8
0
  6
CONTINUOUS
 62
     7
 10
-29.04317149389311
 20
127.7079427486812
 30
0.0
 11
-23.03115559957581
 21
124.2369041372118
 31
0.0
  0
LINE
  5
4DB
  8
0
  6
CONTINUOUS
 62
     7
 10
-29.04316939118343
 20
126.3222956088731
 30
0.0
 11
-25.43114449092735
 21
124.2368922907901
 31
0.0
  0
LINE
  5
4DC
  8
0
  6
CONTINUOUS
 62
     7
 10
-29.04317668827633
 20
124.936662705709
 30
0.0
 11
-27.83116260383093
 21
124.2369061251033
 31
0.0
  0
LINE
  5
4DD
  8
0
  6
CONTINUOUS
 62
     7
 10
-29.04318930779635
 20
128.6987037395857
 30
0.0
 11
-26.37895126823031
 21
130.2369021189712
 31
0.0
  0
LINE
  5
4DE
  8
0
  6
CONTINUOUS
 62
     7
 10
-29.04319192157817
 20
127.313065114376
 30
0.0
 11
-23.97893976257655
 21
130.2369121385874
 31
0.0
  0
LINE
  5
4DF
  8
0
  6
CONTINUOUS
 62
     7
 10
-29.04317782099741
 20
125.9274185198751
 30
0.0
 11
-21.57893714565324
 21
130.2368994069614
 31
0.0
  0
LINE
  5
4E0
  8
0
  6
CONTINUOUS
 62
     7
 10
-29.04318704202905
 20
124.5417760799683
 30
0.0
 11
-21.04318430087795
 21
129.1605793057953
 31
0.0
  0
LINE
  5
4E1
  8
0
  6
CONTINUOUS
 62
     7
 10
-27.17124428567803
 20
124.2369054987077
 30
0.0
 11
-21.04318361103486
 21
127.7749425879341
 31
0.0
  0
LINE
  5
4E2
  8
0
  6
CONTINUOUS
 62
     7
 10
-24.77125260177371
 20
124.2369040742328
 30
0.0
 11
-21.04318952844159
 21
126.3893020553759
 31
0.0
  0
LINE
  5
4E3
  8
0
  6
CONTINUOUS
 62
     7
 10
-22.37124605155731
 20
124.2369112328262
 30
0.0
 11
-21.0431888385985
 21
125.0036653375147
 31
0.0
  0
LINE
  5
4E4
  8
0
  6
CONTINUOUS
 62
     7
 10
-29.04318556302957
 20
98.61731750869359
 30
0.0
 11
-26.23798824941849
 21
100.2368987539025
 31
0.0
  0
LINE
  5
4E5
  8
0
  6
CONTINUOUS
 62
     7
 10
-29.0431871444286
 20
97.23167947953027
 30
0.0
 11
-23.83798046034275
 21
100.2369066277516
 31
0.0
  0
LINE
  5
4E6
  8
0
  6
CONTINUOUS
 62
     7
 10
-29.04318482858263
 20
95.84604370044218
 30
0.0
 11
-21.42635010588805
 21
100.2436247921095
 31
0.0
  0
LINE
  5
4E7
  8
0
  6
CONTINUOUS
 62
     7
 10
-29.04318642022018
 20
94.4603880460358
 30
0.0
 11
-21.04318406621263
 21
99.07919104834542
 31
0.0
  0
LINE
  5
4E8
  8
0
  6
CONTINUOUS
 62
     7
 10
-27.03028921109438
 20
94.23690635670312
 30
0.0
 11
-21.04318719106658
 21
97.69356093773405
 31
0.0
  0
LINE
  5
4E9
  8
0
  6
CONTINUOUS
 62
     7
 10
-24.630288137626
 20
94.23690154362902
 30
0.0
 11
-21.04318268652645
 21
96.30791761262304
 31
0.0
  0
LINE
  5
4EA
  8
0
  6
CONTINUOUS
 62
     7
 10
-22.2302834456986
 20
94.23690762933887
 30
0.0
 11
-21.04318695212072
 21
94.92227803373908
 31
0.0
  0
LINE
  5
4EB
  8
0
  6
CONTINUOUS
 62
     7
 10
-34.89945649479256
 20
31.72154947077621
 30
0.0
 11
-27.52626482747223
 21
33.6971900127436
 31
0.0
  0
LINE
  5
4EC
  8
0
  6
CONTINUOUS
 62
     7
 10
-34.61403422259201
 20
44.44162010229312
 30
0.0
 11
-27.52626422953927
 21
46.34078214530346
 31
0.0
  0
LINE
  5
4ED
  8
0
  6
CONTINUOUS
 62
     7
 10
26.60441843707088
 20
-131.3568783861467
 30
0.0
 11
76.60441843707088
 21
-131.3568783861467
 31
0.0
  0
LINE
  5
4EE
  8
0
  6
CONTINUOUS
 62
     7
 10
26.60441843707088
 20
-126.3568783861467
 30
0.0
 11
51.60441843707088
 21
-126.3568783861467
 31
0.0
  0
LINE
  5
4EF
  8
0
  6
CONTINUOUS
 62
     7
 10
26.60441843707088
 20
-121.3568783861467
 30
0.0
 11
51.60441843707088
 21
-121.3568783861467
 31
0.0
  0
LINE
  5
4F0
  8
0
  6
CONTINUOUS
 62
     7
 10
26.60441843707088
 20
-116.3568783861467
 30
0.0
 11
76.60441843707088
 21
-116.3568783861467
 31
0.0
  0
LINE
  5
4F1
  8
0
  6
CONTINUOUS
 62
     7
 10
26.60441843707088
 20
-111.3568783861467
 30
0.0
 11
76.60441843707088
 21
-111.3568783861467
 31
0.0
  0
LINE
  5
4F2
  8
0
  6
CONTINUOUS
 62
     7
 10
26.60441843707088
 20
-106.3568783861467
 30
0.0
 11
76.60441843707088
 21
-106.3568783861467
 31
0.0
  0
LINE
  5
4F3
  8
0
  6
CONTINUOUS
 62
     7
 10
26.60441843707088
 20
-101.3568783861467
 30
0.0
 11
76.60441843707088
 21
-101.3568783861467
 31
0.0
  0
LINE
  5
4F4
  8
0
  6
CONTINUOUS
 62
     7
 10
26.60441843707088
 20
-96.35687075675219
 30
0.0
 11
76.60441843707088
 21
-96.35687075675219
 31
0.0
  0
LINE
  5
4F5
  8
0
  6
CONTINUOUS
 62
     7
 10
26.60441843707088
 20
-91.35687075675219
 30
0.0
 11
76.60441843707088
 21
-91.35687075675219
 31
0.0
  0
LINE
  5
4F6
  8
0
  6
CONTINUOUS
 62
     7
 10
26.60441843707088
 20
-86.35687075675219
 30
0.0
 11
76.60441843707088
 21
-86.35687075675219
 31
0.0
  0
LINE
  5
4F7
  8
0
  6
CONTINUOUS
 62
     7
 10
31.60441843707088
 20
-86.35687075675219
 30
0.0
 11
31.60441843707088
 21
-136.3568783861467
 31
0.0
  0
LINE
  5
4F8
  8
0
  6
CONTINUOUS
 62
     7
 10
41.60441843707088
 20
-86.35687075675219
 30
0.0
 11
41.60441843707088
 21
-106.7374478441545
 31
0.0
  0
LINE
  5
4F9
  8
0
  6
CONTINUOUS
 62
     7
 10
46.60441843707088
 20
-86.35687075675219
 30
0.0
 11
46.60441843707088
 21
-106.9214688402483
 31
0.0
  0
LINE
  5
4FA
  8
0
  6
CONTINUOUS
 62
     7
 10
51.60441843707088
 20
-86.35687075675219
 30
0.0
 11
51.60441843707088
 21
-106.7374478441545
 31
0.0
  0
LINE
  5
4FB
  8
0
  6
CONTINUOUS
 62
     7
 10
56.60441843707088
 20
-86.35687075675219
 30
0.0
 11
56.60441843707088
 21
-136.3568783861467
 31
0.0
  0
LINE
  5
4FC
  8
0
  6
CONTINUOUS
 62
     7
 10
61.60441843707088
 20
-86.35687075675219
 30
0.0
 11
61.60441843707088
 21
-136.3568783861467
 31
0.0
  0
LINE
  5
4FD
  8
0
  6
CONTINUOUS
 62
     7
 10
66.60441843707088
 20
-86.35687075675219
 30
0.0
 11
66.60441843707088
 21
-136.3568783861467
 31
0.0
  0
LINE
  5
4FE
  8
0
  6
CONTINUOUS
 62
     7
 10
71.60441843707088
 20
-86.35687075675219
 30
0.0
 11
71.60441843707088
 21
-136.3568783861467
 31
0.0
  0
LINE
  5
4FF
  8
0
  6
CONTINUOUS
 62
     7
 10
76.60441843707088
 20
-86.35687075675219
 30
0.0
 11
76.60441843707088
 21
-136.3568783861467
 31
0.0
  0
LINE
  5
500
  8
0
  6
CONTINUOUS
 62
     7
 10
26.60441729250817
 20
-136.3568683700999
 30
0.0
 11
76.60442265569384
 21
-90.74282711573346
 31
0.0
  0
LINE
  5
501
  8
0
  6
CONTINUOUS
 62
     7
 10
41.60441843707088
 20
-110.9699460130998
 30
0.0
 11
41.60441843707088
 21
-136.3568783861467
 31
0.0
  0
LINE
  5
502
  8
0
  6
CONTINUOUS
 62
     7
 10
55.78875986773494
 20
-121.3568783861467
 30
0.0
 11
76.60441843707088
 21
-121.3568783861467
 31
0.0
  0
LINE
  5
503
  8
0
  6
CONTINUOUS
 62
     7
 10
55.78875986773494
 20
-126.3568783861467
 30
0.0
 11
76.60441843707088
 21
-126.3568783861467
 31
0.0
  0
LINE
  5
504
  8
0
  6
CONTINUOUS
 62
     7
 10
46.60441843707088
 20
-110.9699460130998
 30
0.0
 11
46.60441843707088
 21
-136.3568783861467
 31
0.0
  0
LINE
  5
505
  8
0
  6
CONTINUOUS
 62
     7
 10
51.60441843707088
 20
-110.9699460130998
 30
0.0
 11
51.60441843707088
 21
-136.3568783861467
 31
0.0
  0
LINE
  5
506
  8
0
  6
CONTINUOUS
 62
     7
 10
36.60441843707088
 20
-86.35687075675219
 30
0.0
 11
36.60441843707088
 21
-106.7374478441545
 31
0.0
  0
LINE
  5
507
  8
0
  6
CONTINUOUS
 62
     7
 10
36.60441843707088
 20
-110.9699460130998
 30
0.0
 11
36.60441843707088
 21
-136.3568783861467
 31
0.0
  0
LINE
  5
508
  8
0
  6
CONTINUOUS
 62
     4
 10
-169.9453503117599
 20
62.73688684295316
 30
0.0
 11
-153.8067852482834
 21
62.73688684295316
 31
0.0
  0
LINE
  5
509
  8
0
  6
CONTINUOUS
 62
     4
 10
-169.9453503117599
 20
12.73688779662747
 30
0.0
 11
-153.8067852482834
 21
12.73688779662747
 31
0.0
  0
LINE
  5
50A
  8
0
  6
CONTINUOUS
 62
     4
 10
-60.04318203783413
 20
-7.413113729251435
 30
0.0
 11
-48.54318203783413
 21
-7.413113729251435
 31
0.0
  0
LINE
  5
50B
  8
0
  6
CONTINUOUS
 62
     4
 10
-60.04318203783413
 20
-6.763112203372529
 30
0.0
 11
-48.54318203783413
 21
-6.763112203372529
 31
0.0
  0
LINE
  5
50C
  8
0
  6
CONTINUOUS
 62
     4
 10
-63.54318203783413
 20
-14.76311124969821
 30
0.0
 11
-48.54318203783413
 21
-14.76311124969821
 31
0.0
  0
LINE
  5
50D
  8
0
  6
CONTINUOUS
 62
     4
 10
-52.04318203783413
 20
127.0868891317715
 30
0.0
 11
-30.04317822313686
 21
127.0868891317715
 31
0.0
  0
LINE
  5
50E
  8
0
  6
CONTINUOUS
 62
     4
 10
-52.04318203783413
 20
135.3868845541348
 30
0.0
 11
-30.04317822313686
 21
135.3868845541348
 31
0.0
  0
LINE
  5
50F
  8
0
  6
CONTINUOUS
 62
     4
 10
-52.04318203783413
 20
105.3868921835293
 30
0.0
 11
-30.04317822313686
 21
105.3868921835293
 31
0.0
  0
LINE
  5
510
  8
0
  6
CONTINUOUS
 62
     4
 10
-52.04318203783413
 20
97.08688913177153
 30
0.0
 11
-30.04317822313686
 21
97.08688913177153
 31
0.0
  0
LINE
  5
511
  8
0
  6
CONTINUOUS
 62
     4
 10
-72.74317898607632
 20
135.3501413900723
 30
0.0
 11
-72.74317898607632
 21
116.2368906576504
 31
0.0
  0
LINE
  5
512
  8
0
  6
CONTINUOUS
 62
     4
 10
-68.34318508959194
 20
135.3501413900723
 30
0.0
 11
-68.34318508959194
 21
116.2368906576504
 31
0.0
  0
LINE
  5
513
  8
0
  6
CONTINUOUS
 62
     4
 10
-67.54318203783413
 20
129.3501413900723
 30
0.0
 11
-73.54318203783413
 21
129.3501413900723
 31
0.0
  0
LINE
  5
514
  8
0
  6
CONTINUOUS
 62
     4
 10
-67.93010678148647
 20
141.5501383383145
 30
0.0
 11
-73.22213711595913
 21
141.5501383383145
 31
0.0
  0
LINE
  5
515
  8
0
  6
CONTINUOUS
 62
     4
 10
20.98341806010971
 20
-15.85766898870686
 30
0.0
 11
26.23341868595848
 21
-24.95093556523541
 31
0.0
  0
LINE
  5
516
  8
0
  6
CONTINUOUS
 62
     4
 10
20.1173926718689
 20
-16.35766904831151
 30
0.0
 11
25.36739329771767
 21
-25.45093562484006
 31
0.0
  0
LINE
  5
517
  8
0
  6
CONTINUOUS
 62
     4
 10
32.3673941321827
 20
-37.57529106021146
 30
0.0
 11
37.61739285068261
 21
-46.66855433311532
 31
0.0
  0
LINE
  5
518
  8
0
  6
CONTINUOUS
 62
     4
 10
33.23341952042351
 20
-37.07529100060681
 30
0.0
 11
38.48341823892342
 21
-46.16855427351068
 31
0.0
  0
LINE
  5
519
  8
0
  6
CONTINUOUS
 62
     4
 10
19.6840641070131
 20
-41.60711833934148
 30
0.0
 11
39.60264803655183
 21
-30.10711833934148
 31
0.0
  0
LINE
  5
51A
  8
0
  6
CONTINUOUS
 62
     4
 10
15.53406258113419
 20
-34.41910497404298
 30
0.0
 11
35.45264651067292
 21
-22.91910497404298
 31
0.0
  0
LINE
  5
51B
  8
0
  6
CONTINUOUS
 62
     4
 10
-63.5431744084396
 20
-14.11310781647066
 30
0.0
 11
-46.0431744084396
 21
-14.11310781647066
 31
0.0
  0
LINE
  5
51C
  8
0
  6
CONTINUOUS
 62
     4
 10
-60.0431744084396
 20
-7.413110868228472
 30
0.0
 11
-46.0431744084396
 21
-7.413110868228472
 31
0.0
  0
LINE
  5
51D
  8
0
  6
CONTINUOUS
 62
     4
 10
-198.0431744084396
 20
50.93689142058989
 30
0.0
 11
-186.0431744084396
 21
50.93689142058989
 31
0.0
  0
LINE
  5
51E
  8
0
  6
CONTINUOUS
 62
     4
 10
-198.0431744084396
 20
24.53688989471098
 30
0.0
 11
-186.0431744084396
 21
24.53688989471098
 31
0.0
  0
LINE
  5
51F
  8
0
  6
CONTINUOUS
 62
     4
 10
-52.5431744084396
 20
8.236890657650434
 30
0.0
 11
-45.0431744084396
 21
8.236890657650434
 31
0.0
  0
LINE
  5
520
  8
0
  6
CONTINUOUS
 62
     4
 10
-52.5431744084396
 20
13.23689065765043
 30
0.0
 11
-45.0431744084396
 21
13.23689065765043
 31
0.0
  0
LINE
  5
521
  8
0
  6
CONTINUOUS
 62
     4
 10
-223.2434978947677
 20
41.93689142058989
 30
0.0
 11
-183.2434978947677
 21
41.93689142058989
 31
0.0
  0
LINE
  5
522
  8
0
  6
CONTINUOUS
 62
     4
 10
-223.2434978947677
 20
33.53688989471098
 30
0.0
 11
-183.2434978947677
 21
33.53688989471098
 31
0.0
  0
LINE
  5
523
  8
0
  6
CONTINUOUS
 62
     3
 10
-137.6409985051193
 20
-6.463112966311982
 30
0.0
 11
-134.6409985051193
 21
-6.463112966311982
 31
0.0
  0
LINE
  5
524
  8
0
  6
CONTINUOUS
 62
     3
 10
-137.6409985051193
 20
81.93688760589262
 30
0.0
 11
-122.6453625187912
 21
81.93688760589262
 31
0.0
  0
LINE
  5
525
  8
0
  6
CONTINUOUS
 62
     3
 10
-128.6409985051193
 20
-6.463112966311982
 30
0.0
 11
-122.6453625187912
 21
-6.463112966311982
 31
0.0
  0
LINE
  5
526
  8
0
  6
CONTINUOUS
 62
     3
 10
-38.04317822313686
 20
145.2368906576504
 30
0.0
 11
-38.04317822313686
 21
141.2368906576504
 31
0.0
  0
LINE
  5
527
  8
0
  6
CONTINUOUS
 62
     3
 10
-39.04317822313686
 20
145.2368906576504
 30
0.0
 11
-39.04317822313686
 21
141.2368906576504
 31
0.0
  0
LINE
  5
528
  8
0
  6
CONTINUOUS
 62
     3
 10
-63.54318203783413
 20
-14.11310972381931
 30
0.0
 11
-48.54318203783413
 21
-14.11310972381931
 31
0.0
  0
LINE
  5
529
  8
0
  6
CONTINUOUS
 62
     3
 10
-38.04317822313686
 20
91.23689065765043
 30
0.0
 11
-38.04317822313686
 21
87.73689065765043
 31
0.0
  0
LINE
  5
52A
  8
0
  6
CONTINUOUS
 62
     3
 10
-39.04317822313686
 20
91.23689065765043
 30
0.0
 11
-39.04317822313686
 21
87.73689065765043
 31
0.0
  0
CIRCLE
  5
52B
  8
0
  6
CONTINUOUS
 62
     3
 10
-70.54318203783413
 20
120.2368906576504
 30
0.0
 40
1.5
  0
LINE
  5
52C
  8
0
  6
CONTINUOUS
 62
     3
 10
-204.0431744084396
 20
32.23689065765043
 30
0.0
 11
-186.0431744084396
 21
32.23689065765043
 31
0.0
  0
LINE
  5
52D
  8
0
  6
CONTINUOUS
 62
     3
 10
-204.0431744084396
 20
43.23689065765043
 30
0.0
 11
-186.0431744084396
 21
43.23689065765043
 31
0.0
  0
LINE
  5
52E
  8
0
  6
DIVIDE
 62
     9
 10
-182.6453472600021
 20
64.73688684295317
 30
0.0
 11
-182.6453472600021
 21
54.820222719418
 31
0.0
  0
LINE
  5
52F
  8
0
  6
DIVIDE
 62
     9
 10
-182.6453102115272
 20
64.73685750104201
 30
0.0
 11
-181.5953533302242
 21
65.78680367332541
 31
0.0
  0
LINE
  5
530
  8
0
  6
DIVIDE
 62
     9
 10
-175.0431744084396
 20
-22.9631081979404
 30
0.0
 11
-175.0431744084396
 21
-34.96311010528903
 31
0.0
  0
LINE
  5
531
  8
0
  6
DIVIDE
 62
     9
 10
-175.0431744084396
 20
-34.96311010528903
 30
0.0
 11
-50.04318203783413
 21
-34.96311010528903
 31
0.0
  0
LINE
  5
532
  8
0
  6
DIVIDE
 62
     9
 10
-175.0431744084396
 20
-22.9631081979404
 30
0.0
 11
-50.04318203783413
 21
-22.9631081979404
 31
0.0
  0
LINE
  5
533
  8
0
  6
DIVIDE
 62
     9
 10
-175.0431744084396
 20
-34.16311086822849
 30
0.0
 11
-139.0431744084396
 21
-34.16311086822849
 31
0.0
  0
LINE
  5
534
  8
0
  6
DIVIDE
 62
     9
 10
-175.0431744084396
 20
-23.76310743500095
 30
0.0
 11
-139.0431744084396
 21
-23.76310743500095
 31
0.0
  0
LINE
  5
535
  8
0
  6
DIVIDE
 62
     9
 10
-50.04318203783413
 20
-37.96311010528903
 30
0.0
 11
-38.04317822313686
 21
-37.96311010528903
 31
0.0
  0
LINE
  5
536
  8
0
  6
DIVIDE
 62
     9
 10
-50.04318203783413
 20
-19.9631081979404
 30
0.0
 11
-38.04317822313686
 21
-19.9631081979404
 31
0.0
  0
LINE
  5
537
  8
0
  6
DIVIDE
 62
     9
 10
-38.04317822313686
 20
-19.9631081979404
 30
0.0
 11
-38.04317822313686
 21
-37.96311010528903
 31
0.0
  0
LINE
  5
538
  8
0
  6
DIVIDE
 62
     9
 10
-169.4413067326584
 20
49.73689065765043
 30
0.0
 11
-128.0069653019943
 21
49.73689065765043
 31
0.0
  0
LINE
  5
539
  8
0
  6
DIVIDE
 62
     9
 10
-169.4413067326584
 20
44.73689065765043
 30
0.0
 11
-128.0069653019943
 21
44.73689065765043
 31
0.0
  0
LINE
  5
53A
  8
0
  6
DIVIDE
 62
     9
 10
-171.1788708195724
 20
25.73689065765043
 30
0.0
 11
-129.6108776555099
 21
25.73689065765043
 31
0.0
  0
LINE
  5
53B
  8
0
  6
DIVIDE
 62
     9
 10
-171.045219086174
 20
30.73689065765043
 30
0.0
 11
-129.7445293889084
 21
30.73689065765043
 31
0.0
  0
LINE
  5
53C
  8
0
  6
DIVIDE
 62
     9
 10
-115.6030584952119
 20
28.23689292518932
 30
0.0
 11
-113.9407725039329
 21
47.23689580927785
 31
0.0
  0
LINE
  5
53D
  8
0
  6
DIVIDE
 62
     9
 10
-185.1959315683426
 20
28.23689047193525
 30
0.0
 11
-183.533645660182
 21
47.23689240597847
 31
0.0
  0
LINE
  5
53E
  8
0
  6
DIVIDE
 62
     9
 10
-178.1691923124463
 20
28.23689234617146
 30
0.0
 11
-176.5069062380491
 21
47.23689618030531
 31
0.0
  0
LINE
  5
53F
  8
0
  6
DIVIDE
 62
     9
 10
-183.188276390234
 20
28.23689184907144
 30
0.0
 11
-181.5259906483098
 21
47.23689188302402
 31
0.0
  0
LINE
  5
540
  8
0
  6
DIVIDE
 62
     9
 10
-171.1424533059048
 20
28.23689137027171
 30
0.0
 11
-169.4801674808624
 21
47.2368923542696
 31
0.0
  0
LINE
  5
541
  8
0
  6
DIVIDE
 62
     9
 10
-176.1615525844176
 20
28.23689220306372
 30
0.0
 11
-174.4992665931386
 21
47.23689508715225
 31
0.0
  0
LINE
  5
542
  8
0
  6
DIVIDE
 62
     9
 10
-124.6374373960187
 20
28.23689214410618
 30
0.0
 11
-122.9751517372128
 21
47.23689122801343
 31
0.0
  0
LINE
  5
543
  8
0
  6
DIVIDE
 62
     9
 10
-129.6565291572871
 20
28.23689136190686
 30
0.0
 11
-127.994243415363
 21
47.23689139585943
 31
0.0
  0
LINE
  5
544
  8
0
  6
DIVIDE
 62
     9
 10
-122.6297901507457
 20
28.2368903860071
 30
0.0
 11
-120.9675041594667
 21
47.23689327009564
 31
0.0
  0
LINE
  5
545
  8
0
  6
DIVIDE
 62
     9
 10
-117.6106907059963
 20
28.23689145330573
 30
0.0
 11
-115.9484048809539
 21
47.23689243730362
 31
0.0
  0
LINE
  5
546
  8
0
  6
DIVIDE
 62
     9
 10
-50.0431744084396
 20
-19.96310629059175
 30
0.0
 11
-38.0431744084396
 21
-19.96310629059175
 31
0.0
  0
LINE
  5
547
  8
LAYER0014
  6
CONTINUOUS
 62
     7
 10
-157.6453472600021
 20
159.2816141683926
 30
0.0
 11
-133.8335033879318
 21
159.2816141683926
 31
0.0
  0
LINE
  5
548
  8
LAYER0014
  6
CONTINUOUS
 62
     7
 10
-159.0431744084396
 20
159.2816141683926
 30
0.0
 11
-157.6453472600021
 21
159.2816141683926
 31
0.0
  0
LINE
  5
549
  8
LAYER0014
  6
CONTINUOUS
 62
     7
 10
-37.04317822313686
 20
161.7687204916348
 30
0.0
 11
-31.02325024462124
 21
161.7687204916348
 31
0.0
  0
LINE
  5
54A
  8
LAYER0014
  6
CONTINUOUS
 62
     7
 10
-38.04317822313686
 20
161.7687204916348
 30
0.0
 11
-37.04317822313686
 21
161.7687204916348
 31
0.0
  0
LINE
  5
54B
  8
LAYER0014
  6
CONTINUOUS
 62
     7
 10
-38.04317822313686
 20
147.7768906576504
 30
0.0
 11
-38.04317822313686
 21
164.0547159750333
 31
0.0
  0
LINE
  5
54C
  8
LAYER0014
  6
CONTINUOUS
 62
     7
 10
-37.04317822313686
 20
145.7768753988614
 30
0.0
 11
-37.04317822313686
 21
164.0547159750333
 31
0.0
  0
LINE
  5
54D
  8
LAYER0014
  6
CONTINUOUS
 62
     7
 10
-6.235857055511076
 20
-45.5916842180516
 30
0.0
 11
-16.94183553740824
 21
-43.30442388279018
 31
0.0
  0
LINE
  5
54E
  8
LAYER0014
  6
CONTINUOUS
 62
     7
 10
-29.51874508715054
 20
33.16330896209379
 30
0.0
 11
-29.51874508715054
 21
14.73548398803374
 31
0.0
  0
LINE
  5
54F
  8
LAYER0014
  6
CONTINUOUS
 62
     7
 10
-159.0431744084396
 20
159.2816141683926
 30
0.0
 11
-165.3931744084396
 21
159.2816141683926
 31
0.0
  0
INSERT
  5
550
  8
LAYER0014
 62
     7
  2
_OPEN30
 10
-159.0431744084396
 20
159.2816141683926
 30
0.0
 41
1.50000139391263
 42
1.499998500689492
 50
360.0
  0
LINE
  5
551
  8
LAYER0014
  6
CONTINUOUS
 62
     7
 10
-38.04317822313686
 20
161.7687204916348
 30
0.0
 11
-44.39317822313686
 21
161.7687204916348
 31
0.0
  0
INSERT
  5
552
  8
LAYER0014
 62
     7
  2
_OPEN30
 10
-38.04317822313686
 20
161.7687204916348
 30
0.0
 41
1.50000139391263
 42
1.499998500689492
 50
360.0
  0
LINE
  5
553
  8
LAYER0014
  6
CONTINUOUS
 62
     7
 10
-151.2953472600021
 20
159.2816141683926
 30
0.0
 11
-157.6453472600021
 21
159.2816141683926
 31
0.0
  0
INSERT
  5
554
  8
LAYER0014
 62
     7
  2
_OPEN30
 10
-157.6453472600021
 20
159.2816141683926
 30
0.0
 41
1.50000139391263
 42
1.499998500689492
 50
180.0
  0
LINE
  5
555
  8
LAYER0014
  6
CONTINUOUS
 62
     7
 10
-30.69317822313686
 20
161.7687204916348
 30
0.0
 11
-37.04317822313686
 21
161.7687204916348
 31
0.0
  0
INSERT
  5
556
  8
LAYER0014
 62
     7
  2
_OPEN30
 10
-37.04317822313686
 20
161.7687204916348
 30
0.0
 41
1.50000139391263
 42
1.499998500689492
 50
180.0
  0
LINE
  5
557
  8
LAYER0014
  6
CONTINUOUS
 62
     7
 10
9.411038586276206
 20
-48.93453829084375
 30
0.0
 11
-6.235857055511076
 21
-45.5916842180516
 31
0.0
  0
INSERT
  5
558
  8
LAYER0014
 62
     7
  2
_OPEN30
 10
9.411038586276206
 20
-48.93453829084375
 30
0.0
 41
1.50000139391263
 42
1.499998500689492
 50
347.9404404483791
  0
INSERT
  5
559
  8
LAYER0014
 62
     7
  2
_OPEN30
 10
-6.235857055511076
 20
-45.5916842180516
 30
0.0
 41
1.50000139391263
 42
1.499998500689492
 50
167.9404404483791
  0
LINE
  5
55A
  8
LAYER0014
  6
CONTINUOUS
 62
     7
 10
-29.51874508715054
 20
45.80690561126372
 30
0.0
 11
-29.51874508715054
 21
33.16330896209379
 31
0.0
  0
INSERT
  5
55B
  8
LAYER0014
 62
     7
  2
_OPEN30
 10
-29.51874508715054
 20
45.80690561126372
 30
0.0
 41
1.50000139391263
 42
1.499998500689492
 50
90.0
  0
INSERT
  5
55C
  8
LAYER0014
 62
     7
  2
_OPEN30
 10
-29.51874508715054
 20
33.16330896209379
 30
0.0
 41
1.50000139391263
 42
1.499998500689492
 50
270.0
  0
TEXT
  5
55D
  8
LAYER0014
 62
     7
 10
-154.0633588628639
 20
160.2792327086322
 30
0.0
 40
4.0
  1
MIN1.3
 50
-0.1000000000000078
 41
0.8000000000000002
  7
FDASTYLE1
 72
     5
 11
-134.8633881061288
 21
160.2457224040069
 31
0.0
  0
TEXT
  5
55E
  8
LAYER0014
 62
     7
 10
-33.3061740381043
 20
163.3707127165654
 30
0.0
 40
4.0
  1
1
 50
-0.1000000000000078
 41
0.7999999999999998
  7
FDASTYLE1
 72
     5
 11
-30.10617891198178
 21
163.3651276657946
 31
0.0
  0
TEXT
  5
55F
  8
LAYER0014
 62
     7
 10
-16.19049439670052
 20
-42.9142531603232
 30
0.0
 40
4.0
  1
φ16
 50
-12.10000000000003
 41
0.7500000000000003
  7
FDASTYLE1
 72
     5
 11
-6.803775323817892
 21
-44.92659136419989
 31
0.0
  0
TEXT
  5
560
  8
LAYER0014
 62
     7
 10
-30.04888272772194
 20
14.73548351119658
 30
0.0
 40
4.0
  1
φ12.6
 50
90.0
 41
0.7692307692307691
  7
FDASTYLE1
 72
     5
 11
-30.04888272772194
 21
30.73548351119658
 31
0.0
  0
INSERT
  5
561
  8
LAYER0014
  6
CONTINUOUS
  2
DA_IMAGEDIMGROUP_1
 10
0.0
 20
0.0
 30
0.0
  0
INSERT
  5
562
  8
LAYER0014
  6
CONTINUOUS
  2
DA_IMAGEDIMGROUP_2
 10
0.0
 20
0.0
 30
0.0
  0
INSERT
  5
563
  8
LAYER0014
  6
CONTINUOUS
  2
DA_IMAGEDIMGROUP_3
 10
0.0
 20
0.0
 30
0.0
  0
INSERT
  5
564
  8
LAYER0014
  6
CONTINUOUS
  2
DA_IMAGEDIMGROUP_4
 10
0.0
 20
0.0
 30
0.0
  0
INSERT
  5
565
  8
LAYER0014
  6
CONTINUOUS
  2
DA_IMAGEDIMGROUP_5
 10
0.0
 20
0.0
 30
0.0
  0
INSERT
  5
566
  8
LAYER0014
  6
CONTINUOUS
  2
DA_IMAGEDIMGROUP_6
 10
0.0
 20
0.0
 30
0.0
  0
INSERT
  5
567
  8
LAYER0014
  6
CONTINUOUS
  2
DA_IMAGEDIMGROUP_7
 10
0.0
 20
0.0
 30
0.0
  0
INSERT
  5
568
  8
LAYER0014
  6
CONTINUOUS
  2
DA_IMAGEDIMGROUP_8
 10
0.0
 20
0.0
 30
0.0
  0
INSERT
  5
569
  8
LAYER0014
  6
CONTINUOUS
  2
DA_IMAGEDIMGROUP_9
 10
0.0
 20
0.0
 30
0.0
  0
INSERT
  5
56A
  8
LAYER0014
  6
CONTINUOUS
  2
DC_GROUP_2
 10
0.0
 20
0.0
 30
0.0
  0
INSERT
  5
56B
  8
LAYER0014
  6
CONTINUOUS
  2
DC_GROUP_3
 10
0.0
 20
0.0
 30
0.0
  0
INSERT
  5
56C
  8
LAYER0014
  6
CONTINUOUS
  2
DC_GROUP_4
 10
0.0
 20
0.0
 30
0.0
  0
INSERT
  5
56D
  8
LAYER0014
  6
CONTINUOUS
  2
DC_GROUP_5
 10
0.0
 20
0.0
 30
0.0
  0
INSERT
  5
56E
  8
LAYER0014
  6
CONTINUOUS
  2
DA_IMAGEDIMGROUP_10
 10
0.0
 20
0.0
 30
0.0
  0
INSERT
  5
56F
  8
LAYER0014
  6
CONTINUOUS
  2
DA_IMAGEDIMGROUP_11
 10
0.0
 20
0.0
 30
0.0
  0
INSERT
  5
570
  8
LAYER0014
  6
CONTINUOUS
  2
DA_IMAGEDIMGROUP_12
 10
0.0
 20
0.0
 30
0.0
  0
INSERT
  5
571
  8
LAYER0014
  6
CONTINUOUS
  2
DA_IMAGEDIMGROUP_13
 10
0.0
 20
0.0
 30
0.0
  0
INSERT
  5
572
  8
LAYER0014
  6
CONTINUOUS
  2
DA_IMAGEDIMGROUP_14
 10
0.0
 20
0.0
 30
0.0
  0
INSERT
  5
573
  8
LAYER0014
  6
CONTINUOUS
  2
DA_IMAGEDIMGROUP_23
 10
0.0
 20
0.0
 30
0.0
  0
LINE
  5
574
  8
0
  6
CONTINUOUS
 62
     4
 10
197.4122387279152
 20
18.91509889055591
 30
0.0
 11
201.6622392345547
 21
26.27631469060283
 31
0.0
  0
LINE
  5
575
  8
0
  6
CONTINUOUS
 62
     4
 10
185.1622372676014
 20
-2.302523121344038
 30
0.0
 11
189.4122377742409
 21
5.058692678702883
 31
0.0
  0
LINE
  5
576
  8
0
  6
CONTINUOUS
 62
     4
 10
95.96160834962495
 20
26.27631655611721
 30
0.0
 11
100.2116088562644
 21
18.91510075607029
 31
0.0
  0
LINE
  5
577
  8
0
  6
CONTINUOUS
 62
     4
 10
108.2116098099388
 20
5.058694544217261
 30
0.0
 11
112.461614131276
 21
-2.302527863079021
 31
0.0
  0
LINE
  5
578
  8
0
  6
CONTINUOUS
 62
     4
 10
48.76321477962654
 20
-0.9736924143825121
 30
0.0
 11
53.01321528626602
 21
-8.334908214429433
 31
0.0
  0
LINE
  5
579
  8
0
  6
CONTINUOUS
 62
     4
 10
232.3606303265268
 20
-29.55254060644198
 30
0.0
 11
236.6106308331663
 21
-22.19132480639506
 31
0.0
  0
LINE
  5
57A
  8
0
  6
CONTINUOUS
 62
     4
 10
61.01321623994033
 20
-22.19131442628246
 30
0.0
 11
65.26321293188209
 21
-29.55252361908002
 31
0.0
  0
LINE
  5
57B
  8
0
  6
CONTINUOUS
 62
     4
 10
244.6106317868406
 20
-8.334918594542032
 30
0.0
 11
248.8606322934801
 21
-0.9737027944951109
 31
0.0
  0
LINE
  5
57C
  8
0
  6
CONTINUOUS
 62
     4
 10
94.66257878186195
 20
25.52631697778328
 30
0.0
 11
98.91258119585029
 21
18.16509787411168
 31
0.0
  0
LINE
  5
57D
  8
0
  6
CONTINUOUS
 62
     4
 10
93.36352557765315
 20
24.77631256260555
 30
0.0
 11
97.61352608429263
 21
17.41509676255863
 31
0.0
  0
LINE
  5
57E
  8
0
  6
CONTINUOUS
 62
     4
 10
92.06449791723901
 20
24.02630968064695
 30
0.0
 11
96.31449842387849
 21
16.66509388060003
 31
0.0
  0
LINE
  5
57F
  8
0
  6
CONTINUOUS
 62
     4
 10
90.76545983487779
 20
23.27630959123998
 30
0.0
 11
95.01546034151727
 21
15.91509379119306
 31
0.0
  0
LINE
  5
580
  8
0
  6
CONTINUOUS
 62
     4
 10
89.46641514526721
 20
22.52630568713529
 30
0.0
 11
93.71641755925555
 21
15.16508658346369
 31
0.0
  0
LINE
  5
581
  8
0
  6
CONTINUOUS
 62
     4
 10
88.16737515555712
 20
21.77630890135301
 30
0.0
 11
92.41737566219661
 21
14.41509310130608
 31
0.0
  0
LINE
  5
582
  8
0
  6
CONTINUOUS
 62
     4
 10
106.9125821495246
 20
4.308691662258653
 30
0.0
 11
111.1625788414664
 21
-3.052517530538907
 31
0.0
  0
LINE
  5
583
  8
0
  6
CONTINUOUS
 62
     4
 10
105.613527037967
 20
3.558690550705606
 30
0.0
 11
109.8635275446064
 21
-3.802525249341315
 31
0.0
  0
LINE
  5
584
  8
0
  6
CONTINUOUS
 62
     4
 10
104.3144993775528
 20
2.808687668746998
 30
0.0
 11
108.5644960694946
 21
-4.552521524050562
 31
0.0
  0
LINE
  5
585
  8
0
  6
CONTINUOUS
 62
     4
 10
103.0154612951916
 20
2.058687579340031
 30
0.0
 11
107.2654618018311
 21
-5.30252822070689
 31
0.0
  0
LINE
  5
586
  8
0
  6
CONTINUOUS
 62
     4
 10
101.7164185129299
 20
1.308680371610663
 30
0.0
 11
105.9664132975228
 21
-6.052525517562216
 31
0.0
  0
LINE
  5
587
  8
0
  6
CONTINUOUS
 62
     4
 10
100.4173766158709
 20
0.5586868894530568
 30
0.0
 11
104.6673752151615
 21
-6.802525606969184
 31
0.0
  0
LINE
  5
588
  8
0
  6
CONTINUOUS
 62
     4
 10
62.31225432230156
 20
-21.44131433687549
 30
0.0
 11
66.56225101424332
 21
-28.80252352967305
 31
0.0
  0
LINE
  5
589
  8
0
  6
CONTINUOUS
 62
     4
 10
63.6112891010381
 20
-20.69131615481739
 30
0.0
 11
67.86128579297986
 21
-28.05252534761495
 31
0.0
  0
LINE
  5
58A
  8
0
  6
CONTINUOUS
 62
     4
 10
64.910330487024
 20
-19.94131415806156
 30
0.0
 11
69.16032717896576
 21
-27.30252335085912
 31
0.0
  0
LINE
  5
58B
  8
0
  6
CONTINUOUS
 62
     4
 10
66.20937378035876
 20
-19.19131546493041
 30
0.0
 11
70.45936856495166
 21
-26.55252135410329
 31
0.0
  0
LINE
  5
58C
  8
0
  6
CONTINUOUS
 62
     4
 10
67.50840665174644
 20
-18.44131397924762
 30
0.0
 11
71.7584033436882
 21
-25.80252317204518
 31
0.0
  0
LINE
  5
58D
  8
0
  6
CONTINUOUS
 62
     4
 10
69.19251227716825
 20
-18.35827797668308
 30
0.0
 11
73.05743812242474
 21
-25.05252498998708
 31
0.0
  0
LINE
  5
58E
  8
0
  6
CONTINUOUS
 62
     4
 10
50.06225286198776
 20
-0.2236923249755449
 30
0.0
 11
54.31225336862724
 21
-7.584908125022466
 31
0.0
  0
LINE
  5
58F
  8
0
  6
CONTINUOUS
 62
     4
 10
51.3612876407243
 20
0.5263058570825621
 30
0.0
 11
55.61128814736378
 21
-6.834909942964359
 31
0.0
  0
LINE
  5
590
  8
0
  6
CONTINUOUS
 62
     4
 10
52.6603290267102
 20
1.276307853838389
 30
0.0
 11
56.91032953334968
 21
-6.084907946208531
 31
0.0
  0
LINE
  5
591
  8
0
  6
CONTINUOUS
 62
     4
 10
53.95937232004496
 20
2.026306546969536
 30
0.0
 11
58.20937282668444
 21
-5.334909253077385
 31
0.0
  0
LINE
  5
592
  8
0
  6
CONTINUOUS
 62
     4
 10
55.2584070987815
 20
2.776304729027643
 30
0.0
 11
59.50840569807212
 21
-4.584907767394597
 31
0.0
  0
LINE
  5
593
  8
0
  6
CONTINUOUS
 62
     4
 10
56.55743806282032
 20
3.526309518335111
 30
0.0
 11
60.43720498955793
 21
-3.193642998607729
 31
0.0
  0
LINE
  5
594
  8
0
  6
CONTINUOUS
 62
     4
 10
198.71125978108
 20
18.16509982329502
 30
0.0
 11
202.9612602877195
 21
25.52631562334194
 31
0.0
  0
LINE
  5
595
  8
0
  6
CONTINUOUS
 62
     4
 10
200.0103281071364
 20
17.41509108234654
 30
0.0
 11
204.2603286137759
 21
24.77630688239346
 31
0.0
  0
LINE
  5
596
  8
0
  6
CONTINUOUS
 62
     4
 10
201.3093623747999
 20
16.66508438569021
 30
0.0
 11
205.5593628814394
 21
24.02630018573713
 31
0.0
  0
LINE
  5
597
  8
0
  6
CONTINUOUS
 62
     4
 10
202.6084080865566
 20
15.91509751078196
 30
0.0
 11
206.858408593196
 21
23.27631331082888
 31
0.0
  0
LINE
  5
598
  8
0
  6
CONTINUOUS
 62
     4
 10
203.9074121105249
 20
15.16509946566715
 30
0.0
 11
208.1574126171644
 21
22.52631526571408
 31
0.0
  0
LINE
  5
599
  8
0
  6
CONTINUOUS
 62
     4
 10
205.2064804365813
 20
14.41509072471867
 30
0.0
 11
209.4564809432208
 21
21.77630652476559
 31
0.0
  0
LINE
  5
59A
  8
0
  6
CONTINUOUS
 62
     4
 10
186.4612545060685
 20
-3.052528795854286
 30
0.0
 11
190.711255012708
 21
4.308687004192635
 31
0.0
  0
LINE
  5
59B
  8
0
  6
CONTINUOUS
 62
     4
 10
187.7603228321249
 20
-3.802537536802774
 30
0.0
 11
192.0103233387644
 21
3.558678263244147
 31
0.0
  0
LINE
  5
59C
  8
0
  6
CONTINUOUS
 62
     4
 10
189.0593570997884
 20
-4.552544233459102
 30
0.0
 11
193.3093576064279
 21
2.808671566587819
 31
0.0
  0
LINE
  5
59D
  8
0
  6
CONTINUOUS
 62
     4
 10
190.3584066262428
 20
-5.302524501117986
 30
0.0
 11
194.6084071328822
 21
2.058691298928935
 31
0.0
  0
LINE
  5
59E
  8
0
  6
CONTINUOUS
 62
     4
 10
191.6574068355134
 20
-6.052529153482155
 30
0.0
 11
195.9074073421529
 21
1.308686646564766
 31
0.0
  0
LINE
  5
59F
  8
0
  6
CONTINUOUS
 62
     4
 10
192.9564751615698
 20
-6.802537894430643
 30
0.0
 11
197.2064756682092
 21
0.5586779056162783
 31
0.0
  0
LINE
  5
5A0
  8
0
  6
CONTINUOUS
 62
     4
 10
231.0616016439666
 20
-28.80255475367981
 30
0.0
 11
235.3116021506061
 21
-21.44133895363289
 31
0.0
  0
LINE
  5
5A1
  8
0
  6
CONTINUOUS
 62
     4
 10
229.7625427177112
 20
-28.05256024937613
 30
0.0
 11
234.0125432243507
 21
-20.69134444932921
 31
0.0
  0
LINE
  5
5A2
  8
0
  6
CONTINUOUS
 62
     4
 10
228.4635122647454
 20
-27.30254694547044
 30
0.0
 11
232.7135127713849
 21
-19.94133114542352
 31
0.0
  0
LINE
  5
5A3
  8
0
  6
CONTINUOUS
 62
     4
 10
227.1644779970819
 20
-26.55254024881411
 30
0.0
 11
231.4144785037214
 21
-19.19132444876719
 31
0.0
  0
LINE
  5
5A4
  8
0
  6
CONTINUOUS
 62
     4
 10
225.8654322853253
 20
-25.80255337390587
 30
0.0
 11
230.1154327919647
 21
-18.44133757385895
 31
0.0
  0
LINE
  5
5A5
  8
0
  6
CONTINUOUS
 62
     4
 10
224.5664074174628
 20
-25.05256091389434
 30
0.0
 11
228.4171158843154
 21
-18.38293911895867
 31
0.0
  0
LINE
  5
5A6
  8
0
  6
CONTINUOUS
 62
     4
 10
243.3116031042804
 20
-7.584932741779866
 30
0.0
 11
247.5616036109199
 21
-0.2237169417329454
 31
0.0
  0
LINE
  5
5A7
  8
0
  6
CONTINUOUS
 62
     4
 10
242.012544178025
 20
-6.83493823747618
 30
0.0
 11
246.2625446846645
 21
0.5262775625707405
 31
0.0
  0
LINE
  5
5A8
  8
0
  6
CONTINUOUS
 62
     4
 10
240.7135137250592
 20
-6.084924933570491
 30
0.0
 11
244.9635142316987
 21
1.27629086647643
 31
0.0
  0
LINE
  5
5A9
  8
0
  6
CONTINUOUS
 62
     4
 10
239.4144794573957
 20
-5.334918236914163
 30
0.0
 11
243.6644799640352
 21
2.026297563132758
 31
0.0
  0
LINE
  5
5AA
  8
0
  6
CONTINUOUS
 62
     4
 10
238.1154337456391
 20
-4.584931362005918
 30
0.0
 11
242.3654342522785
 21
2.776284438041003
 31
0.0
  0
LINE
  5
5AB
  8
0
  6
CONTINUOUS
 62
     4
 10
237.2894886155685
 20
-3.015540872493929
 30
0.0
 11
241.066409384416
 21
3.526276898052529
 31
0.0
  0
LINE
  5
5AC
  8
0
  6
CONTINUOUS
 62
     4
 10
132.3119086885121
 20
89.23689065765043
 30
0.0
 11
140.8119086885121
 21
89.23689065765043
 31
0.0
  0
LINE
  5
5AD
  8
0
  6
CONTINUOUS
 62
     4
 10
156.8119086885121
 20
89.23689065765043
 30
0.0
 11
165.3119086885121
 21
89.23689065765043
 31
0.0
  0
LINE
  5
5AE
  8
0
  6
CONTINUOUS
 62
     4
 10
132.3119086885121
 20
143.7368906576504
 30
0.0
 11
140.8119086885121
 21
143.7368906576504
 31
0.0
  0
LINE
  5
5AF
  8
0
  6
CONTINUOUS
 62
     4
 10
156.8119086885121
 20
143.7368906576504
 30
0.0
 11
165.3119086885121
 21
143.7368906576504
 31
0.0
  0
LINE
  5
5B0
  8
0
  6
CONTINUOUS
 62
     4
 10
156.8119086885121
 20
90.73689065765043
 30
0.0
 11
165.3119086885121
 21
90.73689065765043
 31
0.0
  0
LINE
  5
5B1
  8
0
  6
CONTINUOUS
 62
     4
 10
156.8119086885121
 20
92.23689065765043
 30
0.0
 11
165.3119086885121
 21
92.23689065765043
 31
0.0
  0
LINE
  5
5B2
  8
0
  6
CONTINUOUS
 62
     4
 10
156.8119086885121
 20
93.73689065765043
 30
0.0
 11
165.3119086885121
 21
93.73689065765043
 31
0.0
  0
LINE
  5
5B3
  8
0
  6
CONTINUOUS
 62
     4
 10
156.8119086885121
 20
95.23689065765043
 30
0.0
 11
165.3119086885121
 21
95.23689065765043
 31
0.0
  0
LINE
  5
5B4
  8
0
  6
CONTINUOUS
 62
     4
 10
156.8119086885121
 20
96.73689065765043
 30
0.0
 11
165.3119086885121
 21
96.73689065765043
 31
0.0
  0
LINE
  5
5B5
  8
0
  6
CONTINUOUS
 62
     4
 10
156.8119086885121
 20
98.23689065765043
 30
0.0
 11
165.3119086885121
 21
98.23689065765043
 31
0.0
  0
LINE
  5
5B6
  8
0
  6
CONTINUOUS
 62
     4
 10
132.3119086885121
 20
90.73689065765043
 30
0.0
 11
140.8119086885121
 21
90.73689065765043
 31
0.0
  0
LINE
  5
5B7
  8
0
  6
CONTINUOUS
 62
     4
 10
132.3119086885121
 20
92.23689065765043
 30
0.0
 11
140.8119086885121
 21
92.23689065765043
 31
0.0
  0
LINE
  5
5B8
  8
0
  6
CONTINUOUS
 62
     4
 10
132.3119086885121
 20
93.73689065765043
 30
0.0
 11
140.8119086885121
 21
93.73689065765043
 31
0.0
  0
LINE
  5
5B9
  8
0
  6
CONTINUOUS
 62
     4
 10
132.3119086885121
 20
95.23689065765043
 30
0.0
 11
140.8119086885121
 21
95.23689065765043
 31
0.0
  0
LINE
  5
5BA
  8
0
  6
CONTINUOUS
 62
     4
 10
132.3119086885121
 20
96.73689065765043
 30
0.0
 11
140.8119086885121
 21
96.73689065765043
 31
0.0
  0
LINE
  5
5BB
  8
0
  6
CONTINUOUS
 62
     4
 10
132.3119086885121
 20
98.23689065765043
 30
0.0
 11
140.8119086885121
 21
98.23689065765043
 31
0.0
  0
LINE
  5
5BC
  8
0
  6
CONTINUOUS
 62
     4
 10
156.8119086885121
 20
142.2368906576504
 30
0.0
 11
165.3119086885121
 21
142.2368906576504
 31
0.0
  0
LINE
  5
5BD
  8
0
  6
CONTINUOUS
 62
     4
 10
156.8119086885121
 20
140.7368906576504
 30
0.0
 11
165.3119086885121
 21
140.7368906576504
 31
0.0
  0
LINE
  5
5BE
  8
0
  6
CONTINUOUS
 62
     4
 10
156.8119086885121
 20
139.2368906576504
 30
0.0
 11
165.3119086885121
 21
139.2368906576504
 31
0.0
  0
LINE
  5
5BF
  8
0
  6
CONTINUOUS
 62
     4
 10
156.8119086885121
 20
137.7368906576504
 30
0.0
 11
165.3119086885121
 21
137.7368906576504
 31
0.0
  0
LINE
  5
5C0
  8
0
  6
CONTINUOUS
 62
     4
 10
156.8119086885121
 20
136.2368906576504
 30
0.0
 11
165.3119086885121
 21
136.2368906576504
 31
0.0
  0
LINE
  5
5C1
  8
0
  6
CONTINUOUS
 62
     4
 10
156.8119086885121
 20
134.7368906576504
 30
0.0
 11
165.3119086885121
 21
134.7368906576504
 31
0.0
  0
LINE
  5
5C2
  8
0
  6
CONTINUOUS
 62
     4
 10
132.3119086885121
 20
142.2368906576504
 30
0.0
 11
140.8119086885121
 21
142.2368906576504
 31
0.0
  0
LINE
  5
5C3
  8
0
  6
CONTINUOUS
 62
     4
 10
132.3119086885121
 20
140.7368906576504
 30
0.0
 11
140.8119086885121
 21
140.7368906576504
 31
0.0
  0
LINE
  5
5C4
  8
0
  6
CONTINUOUS
 62
     4
 10
132.3119086885121
 20
139.2368906576504
 30
0.0
 11
140.8119086885121
 21
139.2368906576504
 31
0.0
  0
LINE
  5
5C5
  8
0
  6
CONTINUOUS
 62
     4
 10
132.3119086885121
 20
137.7368906576504
 30
0.0
 11
140.8119086885121
 21
137.7368906576504
 31
0.0
  0
LINE
  5
5C6
  8
0
  6
CONTINUOUS
 62
     4
 10
132.3119086885121
 20
136.2368906576504
 30
0.0
 11
140.8119086885121
 21
136.2368906576504
 31
0.0
  0
LINE
  5
5C7
  8
0
  6
CONTINUOUS
 62
     4
 10
132.3119086885121
 20
134.7368906576504
 30
0.0
 11
140.8119086885121
 21
134.7368906576504
 31
0.0
  0
LINE
  5
5C8
  8
0
  6
CONTINUOUS
 62
     4
 10
43.71414007966517
 20
-24.0960300382733
 30
0.0
 11
46.5244504434347
 21
-24.0960300382733
 31
0.0
  0
LINE
  5
5C9
  8
0
  6
CONTINUOUS
 62
     4
 10
41.63567175691127
 20
-25.29604224530455
 30
0.0
 11
47.21727576081752
 21
-25.29604224530455
 31
0.0
  0
LINE
  5
5CA
  8
0
  6
CONTINUOUS
 62
     4
 10
39.55721869294642
 20
-26.4960315641522
 30
0.0
 11
47.9100934488058
 21
-26.4960315641522
 31
0.0
  0
LINE
  5
5CB
  8
0
  6
CONTINUOUS
 62
     4
 10
39.36531081025599
 20
-27.69603995648619
 30
0.0
 11
48.60291113679408
 21
-27.69603995648619
 31
0.0
  0
LINE
  5
5CC
  8
0
  6
CONTINUOUS
 62
     4
 10
40.05812849824427
 20
-28.89602927533385
 30
0.0
 11
47.40028967683314
 21
-28.89602927533385
 31
0.0
  0
LINE
  5
5CD
  8
0
  6
CONTINUOUS
 62
     4
 10
40.75093664948939
 20
-30.09602622357603
 30
0.0
 11
45.3218366128683
 21
-30.09602622357603
 31
0.0
  0
LINE
  5
5CE
  8
0
  6
CONTINUOUS
 62
     4
 10
41.4437619668722
 20
-31.29603843060728
 30
0.0
 11
43.24336829011439
 21
-31.29603843060728
 31
0.0
  0
LINE
  5
5CF
  8
0
  6
CONTINUOUS
 62
     4
 10
47.79380973061443
 20
-28.66882943995491
 30
0.0
 11
48.47918025756842
 21
-27.48173302807955
 31
0.0
  0
LINE
  5
5D0
  8
0
  6
CONTINUOUS
 62
     4
 10
45.71534714552466
 20
-29.86883805637378
 30
0.0
 11
47.78636418089177
 21
-26.28173181977589
 31
0.0
  0
LINE
  5
5D1
  8
0
  6
CONTINUOUS
 62
     4
 10
43.6368831983949
 20
-31.06883377312705
 30
0.0
 11
47.09353863594247
 21
-25.08173175221153
 31
0.0
  0
LINE
  5
5D2
  8
0
  6
CONTINUOUS
 62
     4
 10
41.78192225375845
 20
-31.88174150458941
 30
0.0
 11
46.40072630549189
 21
-23.88173931404261
 31
0.0
  0
LINE
  5
5D3
  8
0
  6
CONTINUOUS
 62
     4
 10
41.08909582360637
 20
-30.68172771145329
 30
0.0
 11
45.48667792513997
 21
-23.06489312584775
 31
0.0
  0
LINE
  5
5D4
  8
0
  6
CONTINUOUS
 62
     4
 10
40.396275932232
 20
-29.48173311039899
 30
0.0
 11
43.40150385624843
 21
-24.27652637161107
 31
0.0
  0
LINE
  5
5D5
  8
0
  6
CONTINUOUS
 62
     4
 10
39.70345794820649
 20
-28.28173520572001
 30
0.0
 11
41.32303984064701
 21
-25.47653746574845
 31
0.0
  0
ARC
  5
5D6
  8
0
  6
CONTINUOUS
 62
     4
 10
148.8119086885121
 20
37.73688684295316
 30
0.0
 40
60.0
 50
108.4614779064565
 51
127.0923351696621
  0
ARC
  5
5D7
  8
0
  6
CONTINUOUS
 62
     4
 10
148.8119086885121
 20
37.73688684295316
 30
0.0
 40
60.0
 50
228.4614439070914
 51
247.0922875099186
  0
ARC
  5
5D8
  8
0
  6
CONTINUOUS
 62
     4
 10
148.8119086885121
 20
37.73688684295316
 30
0.0
 40
60.0
 50
348.4614626143213
 51
367.0922985331856
  0
ARC
  5
5D9
  8
0
  6
CONTINUOUS
 62
     4
 10
148.8119086885121
 20
37.73688684295316
 30
0.0
 40
66.0
 50
106.7310221594771
 51
125.5093705276199
  0
ARC
  5
5DA
  8
0
  6
CONTINUOUS
 62
     4
 10
148.8119086885121
 20
37.73688684295316
 30
0.0
 40
72.0
 50
105.3009581321949
 51
127.0242108628804
  0
ARC
  5
5DB
  8
0
  6
CONTINUOUS
 62
     4
 10
148.8119086885121
 20
37.73688684295316
 30
0.0
 40
66.0
 50
226.730988160112
 51
245.5093296980656
  0
ARC
  5
5DC
  8
0
  6
CONTINUOUS
 62
     4
 10
148.8119086885121
 20
37.73688684295316
 30
0.0
 40
72.0
 50
225.3009241328298
 51
247.0241632031369
  0
ARC
  5
5DD
  8
0
  6
CONTINUOUS
 62
     4
 10
148.8119086885121
 20
37.73688684295316
 30
0.0
 40
66.0
 50
346.7310085748891
 51
365.5093466977482
  0
ARC
  5
5DE
  8
0
  6
CONTINUOUS
 62
     4
 10
148.8119086885121
 20
37.73688684295316
 30
0.0
 40
72.0
 50
345.3009445476069
 51
367.0241814834799
  0
ARC
  5
5DF
  8
0
  6
CONTINUOUS
 62
     4
 10
148.8119086885121
 20
37.73688684295316
 30
0.0
 40
60.0
 50
262.9076724953532
 51
277.0923088353122
  0
ARC
  5
5E0
  8
0
  6
CONTINUOUS
 62
     4
 10
148.8119086885121
 20
37.73688684295316
 30
0.0
 40
66.0
 50
264.4906303072062
 51
275.5093578536483
  0
ARC
  5
5E1
  8
0
  6
CONTINUOUS
 62
     4
 10
148.8119086885121
 20
37.73688684295316
 30
0.0
 40
72.0
 50
262.975803632324
 51
277.0241776983413
  0
ARC
  5
5E2
  8
0
  6
CONTINUOUS
 62
     4
 10
148.8119086885121
 20
37.73688684295316
 30
0.0
 40
72.0
 50
292.9758249577176
 51
314.6990640280247
  0
ARC
  5
5E3
  8
0
  6
CONTINUOUS
 62
     4
 10
148.8119086885121
 20
37.73688684295316
 30
0.0
 40
66.0
 50
294.4906516325997
 51
313.2690034158371
  0
ARC
  5
5E4
  8
0
  6
CONTINUOUS
 62
     4
 10
148.8119086885121
 20
37.73688684295316
 30
0.0
 40
60.0
 50
292.9076938207467
 51
311.5385476688577
  0
ARC
  5
5E5
  8
0
  6
CONTINUOUS
 62
     4
 10
148.8119086885121
 20
37.73688684295316
 30
0.0
 40
72.0
 50
172.9758384665152
 51
194.699022895309
  0
ARC
  5
5E6
  8
0
  6
CONTINUOUS
 62
     4
 10
148.8119086885121
 20
37.73688684295316
 30
0.0
 40
66.0
 50
174.4906651413973
 51
193.2689588680267
  0
ARC
  5
5E7
  8
0
  6
CONTINUOUS
 62
     4
 10
148.8119086885121
 20
37.73688684295316
 30
0.0
 40
60.0
 50
172.9077141597335
 51
191.5385031210473
  0
ARC
  5
5E8
  8
0
  6
CONTINUOUS
 62
     4
 10
148.8119086885121
 20
37.73688684295316
 30
0.0
 40
60.0
 50
142.9077201550966
 51
157.092329174299
  0
ARC
  5
5E9
  8
0
  6
CONTINUOUS
 62
     4
 10
148.8119086885121
 20
37.73688684295316
 30
0.0
 40
66.0
 50
144.4906711367605
 51
155.5093645322568
  0
ARC
  5
5EA
  8
0
  6
CONTINUOUS
 62
     4
 10
148.8119086885121
 20
37.73688684295316
 30
0.0
 40
72.0
 50
142.9758444618783
 51
157.0242048675173
  0
ARC
  5
5EB
  8
0
  6
CONTINUOUS
 62
     4
 10
148.8119086885121
 20
37.73688684295316
 30
0.0
 40
60.0
 50
52.90768008457803
 51
71.53854076287813
  0
ARC
  5
5EC
  8
0
  6
CONTINUOUS
 62
     4
 10
148.8119086885121
 20
37.73688684295316
 30
0.0
 40
66.0
 50
54.49063448133643
 51
73.26899650985754
  0
ARC
  5
5ED
  8
0
  6
CONTINUOUS
 62
     4
 10
148.8119086885121
 20
37.73688684295316
 30
0.0
 40
72.0
 50
52.97581463664349
 51
74.69906053713979
  0
ARC
  5
5EE
  8
0
  6
CONTINUOUS
 62
     4
 10
148.8119086885121
 20
37.73688684295316
 30
0.0
 40
60.0
 50
22.90769632522489
 51
37.09230534442722
  0
ARC
  5
5EF
  8
0
  6
CONTINUOUS
 62
     4
 10
148.8119086885121
 20
37.73688684295316
 30
0.0
 40
66.0
 50
24.49064389179413
 51
35.50934070238506
  0
ARC
  5
5F0
  8
0
  6
CONTINUOUS
 62
     4
 10
148.8119086885121
 20
37.73688684295316
 30
0.0
 40
72.0
 50
22.97581380181743
 51
37.02416737726717
  0
LINE
  5
5F1
  8
0
  6
CONTINUOUS
 62
     4
 10
-44.24317639984696
 20
8.517736686010068
 30
0.0
 11
-41.78513080527995
 21
9.936889814922921
 31
0.0
  0
LINE
  5
5F2
  8
0
  6
CONTINUOUS
 62
     4
 10
-45.04317456472566
 20
-13.36768529176052
 30
0.0
 11
-42.26396872655371
 21
-11.76311023023513
 31
0.0
  0
LINE
  5
5F3
  8
0
  6
CONTINUOUS
 62
     4
 10
-42.45882436070764
 20
-11.76311007821929
 30
0.0
 11
-39.0431751840369
 21
-13.73513583195424
 31
0.0
  0
LINE
  5
5F4
  8
0
  6
CONTINUOUS
 62
     4
 10
-42.27256734866975
 20
9.936890649255616
 30
0.0
 11
-39.84317574474105
 21
8.534280907723399
 31
0.0
  0
LINE
  5
5F5
  8
0
  6
CONTINUOUS
 62
     4
 10
-43.87256952447575
 20
9.936891587188171
 30
0.0
 11
-39.84317621604811
 21
7.610520532918571
 31
0.0
  0
LINE
  5
5F6
  8
0
  6
CONTINUOUS
 62
     4
 10
-44.24317559338365
 20
9.227100430281638
 30
0.0
 11
-39.84317503554271
 21
6.686759204439483
 31
0.0
  0
LINE
  5
5F7
  8
0
  6
CONTINUOUS
 62
     4
 10
-44.24317606469072
 20
8.303340055476809
 30
0.0
 11
-41.18359488421379
 21
6.536890232481738
 31
0.0
  0
LINE
  5
5F8
  8
0
  6
CONTINUOUS
 62
     4
 10
-44.24317605916065
 20
7.379580506578208
 30
0.0
 11
-42.7835949313702
 21
6.536891042646261
 31
0.0
  0
LINE
  5
5F9
  8
0
  6
CONTINUOUS
 62
     4
 10
-44.24317640537703
 20
7.593977137111466
 30
0.0
 11
-40.18513075812354
 21
9.936890625087443
 31
0.0
  0
LINE
  5
5FA
  8
0
  6
CONTINUOUS
 62
     4
 10
-44.2431764109071
 20
6.670217588212864
 30
0.0
 11
-39.84317585306616
 21
9.21055881405502
 31
0.0
  0
LINE
  5
5FB
  8
0
  6
CONTINUOUS
 62
     4
 10
-42.87410374657304
 20
6.53689022405527
 30
0.0
 11
-39.84317490492197
 21
8.286797613343964
 31
0.0
  0
LINE
  5
5FC
  8
0
  6
CONTINUOUS
 62
     4
 10
-41.27410369941663
 20
6.536891034219792
 30
0.0
 11
-39.84317491045204
 21
7.363038064445362
 31
0.0
  0
LINE
  5
5FD
  8
0
  6
CONTINUOUS
 62
     4
 10
-45.04317492070734
 20
-14.52238603062713
 30
0.0
 11
-40.26396777781795
 21
-11.76310980501714
 31
0.0
  0
LINE
  5
5FE
  8
0
  6
CONTINUOUS
 62
     4
 10
-45.04317527668903
 20
-15.67708676949374
 30
0.0
 11
-39.04317466616161
 21
-12.21298518458846
 31
0.0
  0
LINE
  5
5FF
  8
0
  6
CONTINUOUS
 62
     4
 10
-44.05819650316337
 20
-16.26310974327279
 30
0.0
 11
-39.04317496253864
 21
-13.36768602669335
 31
0.0
  0
LINE
  5
600
  8
0
  6
CONTINUOUS
 62
     4
 10
-42.05819555442761
 20
-16.2631093180548
 30
0.0
 11
-39.04317531852033
 21
-14.52238676555996
 31
0.0
  0
LINE
  5
601
  8
0
  6
CONTINUOUS
 62
     4
 10
-40.05819802852605
 20
-16.26311059370877
 30
0.0
 11
-39.0431757937113
 21
-15.67708729795001
 31
0.0
  0
LINE
  5
602
  8
0
  6
CONTINUOUS
 62
     4
 10
-44.4588253094434
 20
-11.76310965300129
 30
0.0
 11
-39.04317482805521
 21
-14.88983657082085
 31
0.0
  0
LINE
  5
603
  8
0
  6
CONTINUOUS
 62
     4
 10
-45.04317508260095
 20
-12.58043572478218
 30
0.0
 11
-39.04317529797976
 21
-16.04453683285033
 31
0.0
  0
LINE
  5
604
  8
0
  6
CONTINUOUS
 62
     4
 10
-45.04317637843172
 20
-13.73513550997453
 30
0.0
 11
-40.66459487268088
 21
-16.26311044169293
 31
0.0
  0
LINE
  5
605
  8
0
  6
CONTINUOUS
 62
     4
 10
-45.04317602245004
 20
-14.88983624884114
 30
0.0
 11
-42.66459499551041
 21
-16.26311049331207
 31
0.0
  0
LINE
  5
606
  8
0
  6
CONTINUOUS
 62
     4
 10
-45.04317566646836
 20
-16.04453698770774
 30
0.0
 11
-44.66459511833995
 21
-16.26311054493121
 31
0.0
  0
LINE
  5
607
  8
0
  6
CONTINUOUS
 62
     2
 10
126.4824284785894
 20
-23.76537195398838
 30
0.0
 11
131.5486854237855
 21
-20.8403741325436
 31
0.0
  0
LINE
  5
608
  8
0
  6
CONTINUOUS
 62
     2
 10
131.5487058336843
 20
-20.84036114610795
 30
0.0
 11
136.6149554564421
 21
-23.76537152030402
 31
0.0
  0
LINE
  5
609
  8
0
  6
CONTINUOUS
 62
     2
 10
136.6149329805043
 20
-23.76536955047946
 30
0.0
 11
136.6149329805043
 21
-29.61536993194919
 31
0.0
  0
LINE
  5
60A
  8
0
  6
CONTINUOUS
 62
     2
 10
136.6149290046
 20
-29.61537112815618
 30
0.0
 11
131.5486720594039
 21
-32.54036894960096
 31
0.0
  0
LINE
  5
60B
  8
0
  6
CONTINUOUS
 62
     2
 10
131.5486794030388
 20
-32.54037298918216
 30
0.0
 11
126.4824280368433
 21
-29.61536575317392
 31
0.0
  0
LINE
  5
60C
  8
0
  6
CONTINUOUS
 62
     2
 10
126.4824256562855
 20
-29.61535848785739
 30
0.0
 11
126.4824256562855
 21
-23.76535810638767
 31
0.0
  0
LINE
  5
60D
  8
0
  6
CONTINUOUS
 62
     2
 10
148.8119141803818
 20
135.9368918988886
 30
0.0
 11
144.741581762768
 21
133.5868901375826
 31
0.0
  0
LINE
  5
60E
  8
0
  6
CONTINUOUS
 62
     2
 10
144.7415961885121
 20
133.586881502377
 30
0.0
 11
144.7415961885121
 21
128.8868921835293
 31
0.0
  0
LINE
  5
60F
  8
0
  6
CONTINUOUS
 62
     2
 10
144.7415891768172
 20
128.886891129505
 30
0.0
 11
148.8119038976578
 21
126.5368892936841
 31
0.0
  0
LINE
  5
610
  8
0
  6
CONTINUOUS
 62
     2
 10
148.8119066945961
 20
126.5368980295545
 30
0.0
 11
152.88223911221
 21
128.8868999309317
 31
0.0
  0
LINE
  5
611
  8
0
  6
CONTINUOUS
 62
     2
 10
152.8822211885121
 20
128.8868845541348
 30
0.0
 11
152.8822211885121
 21
133.586881502377
 31
0.0
  0
LINE
  5
612
  8
0
  6
CONTINUOUS
 62
     2
 10
152.8822256437537
 20
133.5868705472568
 30
0.0
 11
148.8119120434798
 21
135.9368746242109
 31
0.0
  0
LINE
  5
613
  8
0
  6
CONTINUOUS
 62
     2
 10
148.8119175601552
 20
105.9368922972446
 30
0.0
 11
144.7415851425414
 21
103.5868905359386
 31
0.0
  0
LINE
  5
614
  8
0
  6
CONTINUOUS
 62
     2
 10
144.7415961885121
 20
103.5868891317715
 30
0.0
 11
144.7415961885121
 21
98.88689218352934
 31
0.0
  0
LINE
  5
615
  8
0
  6
CONTINUOUS
 62
     2
 10
144.7415866694568
 20
98.8869002144003
 30
0.0
 11
148.8119013902973
 21
96.53689837857942
 31
0.0
  0
LINE
  5
616
  8
0
  6
CONTINUOUS
 62
     2
 10
148.8118981109865
 20
96.53688952558892
 30
0.0
 11
152.8822305286004
 21
98.88689142696617
 31
0.0
  0
LINE
  5
617
  8
0
  6
CONTINUOUS
 62
     2
 10
152.8822211885121
 20
98.88688455413481
 30
0.0
 11
152.8822211885121
 21
103.586881502377
 31
0.0
  0
LINE
  5
618
  8
0
  6
CONTINUOUS
 62
     2
 10
152.8822280154285
 20
103.5868842589554
 30
0.0
 11
148.8119144151546
 21
105.9368883359095
 31
0.0
  0
LINE
  5
619
  8
0
  6
CONTINUOUS
 62
     2
 10
229.7853363299163
 20
-4.31310558464962
 30
0.0
 11
225.7150039123025
 21
-6.663107345955595
 31
0.0
  0
LINE
  5
61A
  8
0
  6
CONTINUOUS
 62
     2
 10
225.7150153779652
 20
-6.663115636600068
 30
0.0
 11
225.7150153779652
 21
-11.36311449219089
 31
0.0
  0
LINE
  5
61B
  8
0
  6
CONTINUOUS
 62
     2
 10
225.7150040889113
 20
-11.36311363027731
 30
0.0
 11
229.7853320242442
 21
-13.71312309550363
 31
0.0
  0
LINE
  5
61C
  8
0
  6
CONTINUOUS
 62
     2
 10
229.7853280853946
 20
-13.71312029786519
 30
0.0
 11
233.8556605030084
 21
-11.36311839648793
 31
0.0
  0
LINE
  5
61D
  8
0
  6
CONTINUOUS
 62
     2
 10
233.8556403779652
 20
-11.36312212158542
 30
0.0
 11
233.8556403779652
 21
-6.663123265994599
 31
0.0
  0
LINE
  5
61E
  8
0
  6
CONTINUOUS
 62
     2
 10
233.855660533752
 20
-6.663129199474369
 30
0.0
 11
229.7853337189894
 21
-4.313117493107583
 31
0.0
  0
LINE
  5
61F
  8
0
  6
CONTINUOUS
 62
     2
 10
67.83854432571991
 20
-4.313110692561153
 30
0.0
 11
63.76821851535954
 21
-6.663108639176912
 31
0.0
  0
LINE
  5
620
  8
0
  6
CONTINUOUS
 62
     2
 10
63.76821514603159
 20
-6.66310991455417
 30
0.0
 11
63.76821514603159
 21
-11.36310877014499
 31
0.0
  0
LINE
  5
621
  8
0
  6
CONTINUOUS
 62
     2
 10
63.76821695347132
 20
-11.36310756379122
 30
0.0
 11
67.83853167431187
 21
-13.71310939961209
 31
0.0
  0
LINE
  5
622
  8
0
  6
CONTINUOUS
 62
     2
 10
67.83854116047871
 20
-13.71311204529512
 30
0.0
 11
71.90886036358563
 21
-11.36311777329875
 31
0.0
  0
LINE
  5
623
  8
0
  6
CONTINUOUS
 62
     2
 10
71.90885540482066
 20
-11.36311639953952
 30
0.0
 11
71.90885540482066
 21
-6.663117543948701
 31
0.0
  0
LINE
  5
624
  8
0
  6
CONTINUOUS
 62
     2
 10
71.90885841460056
 20
-6.663114978649773
 30
0.0
 11
67.83854481432661
 21
-4.313110901695708
 31
0.0
  0
LINE
  5
625
  8
0
  6
CONTINUOUS
 62
     2
 10
89.74895519829977
 20
3.63689722263247
 30
0.0
 11
93.81928257334755
 21
1.286886916978475
 31
0.0
  0
LINE
  5
626
  8
0
  6
CONTINUOUS
 62
     2
 10
93.8192865673326
 20
1.286890996262528
 30
0.0
 11
97.88960324916468
 21
3.636889470383622
 31
0.0
  0
LINE
  5
627
  8
0
  6
CONTINUOUS
 62
     2
 10
97.88953777786753
 20
3.636882900105903
 30
0.0
 11
97.88953777786753
 21
8.336880071865508
 31
0.0
  0
LINE
  5
628
  8
0
  6
CONTINUOUS
 62
     2
 10
97.88961980169017
 20
8.336879838808173
 30
0.0
 11
93.81929214649983
 21
10.68689014446217
 31
0.0
  0
LINE
  5
629
  8
0
  6
CONTINUOUS
 62
     2
 10
93.81929735641404
 20
10.68688121122877
 30
0.0
 11
89.74898067458196
 21
8.336882737107672
 31
0.0
  0
LINE
  5
62A
  8
0
  6
CONTINUOUS
 62
     2
 10
89.74885937210581
 20
8.336885317074248
 30
0.0
 11
89.74885937210581
 21
3.636888145314643
 31
0.0
  0
LINE
  5
62B
  8
0
  6
CONTINUOUS
 62
     2
 10
203.804577905374
 20
1.286791862731334
 30
0.0
 11
207.8748945872061
 21
3.636790336852428
 31
0.0
  0
LINE
  5
62C
  8
0
  6
CONTINUOUS
 62
     2
 10
207.8748331478513
 20
8.336884446366312
 30
0.0
 11
203.8045164660192
 21
10.68688292048741
 31
0.0
  0
LINE
  5
62D
  8
0
  6
CONTINUOUS
 62
     2
 10
199.7342039660192
 20
3.636894994339528
 30
0.0
 11
203.8045206478513
 21
1.286896520218434
 31
0.0
  0
LINE
  5
62E
  8
0
  6
CONTINUOUS
 62
     2
 10
199.7341193818714
 20
8.336891039120147
 30
0.0
 11
199.7341193818714
 21
3.636878697978446
 31
0.0
  0
LINE
  5
62F
  8
0
  6
CONTINUOUS
 62
     2
 10
203.8045591990225
 20
10.68681790649647
 30
0.0
 11
199.7342425171904
 21
8.336819432375378
 31
0.0
  0
LINE
  5
630
  8
0
  6
CONTINUOUS
 62
     2
 10
207.8747596406605
 20
3.636869861589858
 30
0.0
 11
207.8747596406605
 21
8.336881979214141
 31
0.0
  0
CIRCLE
  5
631
  8
0
  6
CONTINUOUS
 62
     2
 10
131.5486793183949
 20
-26.69036115814548
 30
0.0
 40
9.0
  0
CIRCLE
  5
632
  8
0
  6
CONTINUOUS
 62
     2
 10
148.8119086885121
 20
131.2368906576504
 30
0.0
 40
8.0
  0
CIRCLE
  5
633
  8
0
  6
CONTINUOUS
 62
     2
 10
148.8119086885121
 20
101.2368906576504
 30
0.0
 40
8.0
  0
CIRCLE
  5
634
  8
0
  6
CONTINUOUS
 62
     2
 10
229.7853278779652
 20
-9.013117925418428
 30
0.0
 40
8.0
  0
CIRCLE
  5
635
  8
0
  6
CONTINUOUS
 62
     2
 10
93.81929394241831
 20
5.986884935604522
 30
0.0
 40
8.0
  0
CIRCLE
  5
636
  8
0
  6
CONTINUOUS
 62
     2
 10
203.8045234346058
 20
5.986884935604522
 30
0.0
 40
8.0
  0
LINE
  5
637
  8
0
  6
CONTINUOUS
 62
     2
 10
122.8744681803329
 20
52.71189574167327
 30
0.0
 11
125.4292618370056
 21
54.18690302236289
 31
0.0
  0
LINE
  5
638
  8
0
  6
CONTINUOUS
 62
     2
 10
125.4292554285671
 20
54.18689825966519
 30
0.0
 11
127.9840255709756
 21
52.71189609304017
 31
0.0
  0
LINE
  5
639
  8
0
  6
CONTINUOUS
 62
     2
 10
127.9840358587308
 20
52.7118990863032
 30
0.0
 11
127.9840358587308
 21
49.76189832336375
 31
0.0
  0
LINE
  5
63A
  8
0
  6
CONTINUOUS
 62
     2
 10
122.874477753262
 20
49.76190213806101
 30
0.0
 11
122.874477753262
 21
52.71190290100046
 31
0.0
  0
CIRCLE
  5
63B
  8
0
  6
CONTINUOUS
 62
     2
 10
125.4292568059964
 20
51.2369006121821
 30
0.0
 40
5.0
  0
LINE
  5
63C
  8
0
  6
CONTINUOUS
 62
     2
 10
169.6398403263586
 20
52.71189286669276
 30
0.0
 11
172.1946273757779
 21
54.18689633269194
 31
0.0
  0
LINE
  5
63D
  8
0
  6
CONTINUOUS
 62
     2
 10
172.194619019384
 20
54.18689311579372
 30
0.0
 11
174.7494023762802
 21
52.71188331975507
 31
0.0
  0
LINE
  5
63E
  8
0
  6
CONTINUOUS
 62
     2
 10
174.7494014593167
 20
52.71188382751414
 30
0.0
 11
174.7494014593167
 21
49.76188687927195
 31
0.0
  0
LINE
  5
63F
  8
0
  6
CONTINUOUS
 62
     2
 10
174.7494099156528
 20
49.76189571447774
 30
0.0
 11
172.1946228662336
 21
48.28689233639577
 31
0.0
  0
LINE
  5
640
  8
0
  6
CONTINUOUS
 62
     2
 10
172.1946307407093
 20
48.28688386711199
 30
0.0
 11
169.6398465046409
 21
49.7618922564752
 31
0.0
  0
LINE
  5
641
  8
0
  6
CONTINUOUS
 62
     2
 10
169.639843353848
 20
49.76189069396921
 30
0.0
 11
169.639843353848
 21
52.71189145690867
 31
0.0
  0
CIRCLE
  5
642
  8
0
  6
CONTINUOUS
 62
     2
 10
172.1946224065823
 20
51.23688916809031
 30
0.0
 40
5.0
  0
LINE
  5
643
  8
0
  6
CONTINUOUS
 62
     2
 10
127.9840450737378
 20
49.7619036111432
 30
0.0
 11
125.4292514170651
 21
48.28689641837102
 31
0.0
  0
LINE
  5
644
  8
0
  6
CONTINUOUS
 62
     2
 10
125.4292550595488
 20
48.28690441829574
 30
0.0
 11
122.8744840379727
 21
49.7619051782526
 31
0.0
  0
LINE
  5
645
  8
0
  6
CONTINUOUS
 62
     2
 10
146.2571516736694
 20
12.21189468700775
 30
0.0
 11
148.8119321158352
 21
13.68689433831649
 31
0.0
  0
LINE
  5
646
  8
0
  6
CONTINUOUS
 62
     2
 10
148.8119399407301
 20
13.68688791020666
 30
0.0
 11
151.3667100831385
 21
12.21188574358164
 31
0.0
  0
LINE
  5
647
  8
0
  6
CONTINUOUS
 62
     2
 10
151.3667110296292
 20
12.21188954956003
 30
0.0
 11
151.3667110296292
 21
9.261889740294897
 31
0.0
  0
LINE
  5
648
  8
0
  6
CONTINUOUS
 62
     2
 10
151.3666969296535
 20
9.261893904968908
 30
0.0
 11
148.8119164874877
 21
7.78689434157716
 31
0.0
  0
LINE
  5
649
  8
0
  6
CONTINUOUS
 62
     2
 10
148.811938132772
 20
7.786894219859256
 30
0.0
 11
146.257167111196
 21
9.261894979816113
 31
0.0
  0
LINE
  5
64A
  8
0
  6
CONTINUOUS
 62
     2
 10
146.2571529241605
 20
9.26189450866648
 30
0.0
 11
146.2571529241605
 21
12.21189431793162
 31
0.0
  0
CIRCLE
  5
64B
  8
0
  6
CONTINUOUS
 62
     2
 10
148.8119319768948
 20
10.73689298278757
 30
0.0
 40
5.0
  0
LINE
  5
64C
  8
0
  6
CONTINUOUS
 62
     2
 10
106.809701272894
 20
58.48690105526791
 30
0.0
 11
109.8407903403531
 21
60.23690074234353
 31
0.0
  0
CIRCLE
  5
64D
  8
0
  6
CONTINUOUS
 62
     2
 10
106.8097041936917
 20
61.9869006121821
 30
0.0
 40
6.5
  0
LINE
  5
64E
  8
0
  6
CONTINUOUS
 62
     2
 10
109.8407939764066
 20
60.2369006121821
 30
0.0
 11
109.8407939764066
 21
63.7369006121821
 31
0.0
  0
LINE
  5
64F
  8
0
  6
CONTINUOUS
 62
     2
 10
106.809705511232
 20
65.48689799043603
 30
0.0
 11
103.7786158179242
 21
63.73689934644171
 31
0.0
  0
LINE
  5
650
  8
0
  6
CONTINUOUS
 62
     2
 10
109.8407949871931
 20
63.73689715570706
 30
0.0
 11
106.8097069628152
 21
65.48689861602085
 31
0.0
  0
LINE
  5
651
  8
0
  6
CONTINUOUS
 62
     2
 10
103.7786144109769
 20
63.7369006121821
 30
0.0
 11
103.7786144109769
 21
60.2369006121821
 31
0.0
  0
LINE
  5
652
  8
0
  6
CONTINUOUS
 62
     2
 10
103.7786210022305
 20
60.23690108309481
 30
0.0
 11
106.8097096524571
 21
58.4869006658623
 31
0.0
  0
LINE
  5
653
  8
0
  6
CONTINUOUS
 62
     2
 10
190.8141638246335
 20
65.48688573953243
 30
0.0
 11
187.7830741313257
 21
63.7368870955381
 31
0.0
  0
LINE
  5
654
  8
0
  6
CONTINUOUS
 62
     2
 10
187.7830928655667
 20
63.73688916809031
 30
0.0
 11
187.7830928655667
 21
60.23688916809031
 31
0.0
  0
CIRCLE
  5
655
  8
0
  6
CONTINUOUS
 62
     2
 10
190.814175018887
 20
61.98688916809031
 30
0.0
 40
6.5
  0
LINE
  5
656
  8
0
  6
CONTINUOUS
 62
     2
 10
187.7830797666184
 20
60.23689595196581
 30
0.0
 11
190.814168416845
 21
58.4868955347333
 31
0.0
  0
LINE
  5
657
  8
0
  6
CONTINUOUS
 62
     2
 10
190.8141757845112
 20
58.48688908941811
 30
0.0
 11
193.8452648519703
 21
60.23688877649372
 31
0.0
  0
LINE
  5
658
  8
0
  6
CONTINUOUS
 62
     2
 10
193.8452571722073
 20
60.23688916809031
 30
0.0
 11
193.8452571722073
 21
63.73688916809031
 31
0.0
  0
LINE
  5
659
  8
0
  6
CONTINUOUS
 62
     2
 10
193.8452619120644
 20
63.73689307649645
 30
0.0
 11
190.8141738876866
 21
65.48689453681024
 31
0.0
  0
LINE
  5
65A
  8
0
  6
CONTINUOUS
 62
     2
 10
148.8119236697656
 20
-7.263107207950746
 30
0.0
 11
145.7808339764577
 21
-9.013105851945078
 31
0.0
  0
LINE
  5
65B
  8
0
  6
CONTINUOUS
 62
     2
 10
145.7808498235745
 20
-9.013107017212427
 30
0.0
 11
145.7808498235745
 21
-12.51310701721243
 31
0.0
  0
LINE
  5
65C
  8
0
  6
CONTINUOUS
 62
     2
 10
145.7808437397071
 20
-12.51311773797672
 30
0.0
 11
148.8119323899337
 21
-14.26311815520923
 31
0.0
  0
CIRCLE
  5
65D
  8
0
  6
CONTINUOUS
 62
     2
 10
148.8119319768948
 20
-10.76310701721243
 30
0.0
 40
6.5
  0
LINE
  5
65E
  8
0
  6
CONTINUOUS
 62
     2
 10
151.8430159717102
 20
-9.013109918056465
 30
0.0
 11
148.8119279473324
 21
-7.263108457742668
 31
0.0
  0
LINE
  5
65F
  8
0
  6
CONTINUOUS
 62
     2
 10
151.8430141302152
 20
-12.51310701721243
 30
0.0
 11
151.8430141302152
 21
-9.01310892456106
 31
0.0
  0
LINE
  5
660
  8
0
  6
CONTINUOUS
 62
     2
 10
148.8119364974121
 20
-14.26310583630541
 30
0.0
 11
151.8430255648712
 21
-12.51310614922979
 31
0.0
  0
LINE
  5
661
  8
0
  6
CONTINUOUS
 62
     3
 10
-60.04318203783413
 20
-3.263112203372529
 30
0.0
 11
-48.54318203783413
 21
-3.263112203372529
 31
0.0
  0
LINE
  5
662
  8
0
  6
CONTINUOUS
 62
     3
 10
-60.04318203783413
 20
13.46597438092461
 30
0.0
 11
-60.04318203783413
 21
-13.26311124969821
 31
0.0
  0
LINE
  5
663
  8
0
  6
CONTINUOUS
 62
     3
 10
-60.0431744084396
 20
8.201598985897505
 30
0.0
 11
-60.0431744084396
 21
-13.26310934234957
 31
0.0
  0
LINE
  5
664
  8
0
  6
CONTINUOUS
 62
     3
 10
-60.0431744084396
 20
-3.263109342349566
 30
0.0
 11
-48.5431744084396
 21
-3.263109342349566
 31
0.0
  0
LINE
  5
665
  8
0
  6
CONTINUOUS
 62
     3
 10
-48.5431744084396
 20
-18.26310934234957
 30
0.0
 11
-37.0431744084396
 21
-18.26310934234957
 31
0.0
  0
LINE
  5
666
  8
0
  6
CONTINUOUS
 62
     3
 10
-60.0431744084396
 20
-6.763109342349566
 30
0.0
 11
-46.0431744084396
 21
-6.763109342349566
 31
0.0
  0
LINE
  5
667
  8
0
  6
CONTINUOUS
 62
     3
 10
-63.5431744084396
 20
-14.76310934234957
 30
0.0
 11
-46.0431744084396
 21
-14.76310934234957
 31
0.0
  0
LINE
  5
668
  8
0
  6
CONTINUOUS
 62
     3
 10
-63.5431744084396
 20
-13.26310934234957
 30
0.0
 11
-63.5431744084396
 21
-14.76310934234957
 31
0.0
  0
LINE
  5
669
  8
0
  6
CONTINUOUS
 62
     3
 10
-198.0431744084396
 20
24.53688989471098
 30
0.0
 11
-198.0431744084396
 21
17.73689065765043
 31
0.0
  0
LINE
  5
66A
  8
0
  6
CONTINUOUS
 62
     3
 10
-40.0431744084396
 20
18.73689065765043
 30
0.0
 11
-40.0431744084396
 21
15.97844110320708
 31
0.0
  0
LINE
  5
66B
  8
0
  6
CONTINUOUS
 62
     3
 10
-40.0431744084396
 20
-17.76310934234957
 30
0.0
 11
-40.0431744084396
 21
-18.26310934234957
 31
0.0
  0
LINE
  5
66C
  8
0
  6
CONTINUOUS
 62
     3
 10
-52.5431744084396
 20
14.23689065765043
 30
0.0
 11
-52.5431744084396
 21
-3.263109342349566
 31
0.0
  0
LINE
  5
66D
  8
0
  6
CONTINUOUS
 62
     3
 10
-48.5431744084396
 20
-6.263109342349566
 30
0.0
 11
-46.0431744084396
 21
-6.263109342349566
 31
0.0
  0
LINE
  5
66E
  8
0
  6
CONTINUOUS
 62
     3
 10
-48.5431744084396
 20
-15.26310934234957
 30
0.0
 11
-46.0431744084396
 21
-15.26310934234957
 31
0.0
  0
LINE
  5
66F
  8
0
  6
CONTINUOUS
 62
     3
 10
-46.0431744084396
 20
-17.76310934234957
 30
0.0
 11
-40.0431744084396
 21
-17.76310934234957
 31
0.0
  0
LINE
  5
670
  8
0
  6
CONTINUOUS
 62
     3
 10
-46.0431744084396
 20
-3.763109342349566
 30
0.0
 11
-40.0431744084396
 21
-3.763109342349566
 31
0.0
  0
LINE
  5
671
  8
0
  6
CONTINUOUS
 62
     3
 10
-46.0431744084396
 20
-3.763109342349566
 30
0.0
 11
-46.0431744084396
 21
-17.76310934234957
 31
0.0
  0
LINE
  5
672
  8
0
  6
CONTINUOUS
 62
     3
 10
-38.0431744084396
 20
-4.263109342349566
 30
0.0
 11
-38.0431744084396
 21
-17.26310934234957
 31
0.0
  0
LINE
  5
673
  8
0
  6
CONTINUOUS
 62
     3
 10
-46.0431744084396
 20
-17.26310934234957
 30
0.0
 11
-38.0431744084396
 21
-17.26310934234957
 31
0.0
  0
LINE
  5
674
  8
0
  6
CONTINUOUS
 62
     3
 10
-46.0431744084396
 20
-4.263109342349566
 30
0.0
 11
-38.0431744084396
 21
-4.263109342349566
 31
0.0
  0
LINE
  5
675
  8
0
  6
CONTINUOUS
 62
     3
 10
-126.0431744084396
 20
15.73689065765043
 30
0.0
 11
-54.0431744084396
 21
15.73689065765043
 31
0.0
  0
LINE
  5
676
  8
0
  6
CONTINUOUS
 62
     3
 10
-126.0431744084396
 20
59.73689065765043
 30
0.0
 11
-54.0431744084396
 21
59.73689065765043
 31
0.0
  0
LINE
  5
677
  8
0
  6
CONTINUOUS
 62
     3
 10
-198.0431744084396
 20
57.73689065765043
 30
0.0
 11
-128.0431744084396
 21
57.73689065765043
 31
0.0
  0
LINE
  5
678
  8
0
  6
CONTINUOUS
 62
     3
 10
-198.0431744084396
 20
17.73689065765043
 30
0.0
 11
-128.0431744084396
 21
17.73689065765043
 31
0.0
  0
LINE
  5
679
  8
0
  6
CONTINUOUS
 62
     3
 10
-128.0431821669519
 20
57.73690378689608
 30
0.0
 11
-126.0431852699823
 21
59.73690051527856
 31
0.0
  0
LINE
  5
67A
  8
0
  6
CONTINUOUS
 62
     3
 10
-128.0431823355395
 20
17.73688514752044
 30
0.0
 11
-126.0431800437729
 21
15.73688302434144
 31
0.0
  0
LINE
  5
67B
  8
0
  6
CONTINUOUS
 62
     3
 10
-48.0431744084396
 20
71.73689065765043
 30
0.0
 11
-48.0431744084396
 21
51.10291848968168
 31
0.0
  0
LINE
  5
67C
  8
0
  6
CONTINUOUS
 62
     3
 10
-48.0431744084396
 20
24.37086664031645
 30
0.0
 11
-48.0431744084396
 21
13.73689065765043
 31
0.0
  0
LINE
  5
67D
  8
0
  6
CONTINUOUS
 62
     3
 10
-120.0431744084396
 20
25.23689065765043
 30
0.0
 11
-46.74413647508999
 21
25.23689065765043
 31
0.0
  0
LINE
  5
67E
  8
0
  6
CONTINUOUS
 62
     3
 10
-120.0431744084396
 20
50.23689065765043
 30
0.0
 11
-46.74413647508999
 21
50.23689065765043
 31
0.0
  0
LINE
  5
67F
  8
0
  6
CONTINUOUS
 62
     3
 10
-48.0431744084396
 20
3.736890657650434
 30
0.0
 11
-40.0431744084396
 21
3.736890657650434
 31
0.0
  0
LINE
  5
680
  8
0
  6
CONTINUOUS
 62
     3
 10
-120.0431744084396
 20
25.23689065765043
 30
0.0
 11
-120.0431744084396
 21
24.98689065765043
 31
0.0
  0
LINE
  5
681
  8
0
  6
CONTINUOUS
 62
     3
 10
-183.0431744084396
 20
24.98689065765043
 30
0.0
 11
-120.0431744084396
 21
24.98689065765043
 31
0.0
  0
LINE
  5
682
  8
0
  6
CONTINUOUS
 62
     3
 10
-183.0431744084396
 20
50.48689065765043
 30
0.0
 11
-120.0431744084396
 21
50.48689065765043
 31
0.0
  0
LINE
  5
683
  8
0
  6
CONTINUOUS
 62
     3
 10
-186.0431744084396
 20
52.23689065765043
 30
0.0
 11
-183.0431744084396
 21
52.23689065765043
 31
0.0
  0
LINE
  5
684
  8
0
  6
CONTINUOUS
 62
     3
 10
-186.0431744084396
 20
23.23689065765043
 30
0.0
 11
-183.0431744084396
 21
23.23689065765043
 31
0.0
  0
LINE
  5
685
  8
0
  6
CONTINUOUS
 62
     3
 10
-183.0431744084396
 20
28.43493066619536
 30
0.0
 11
-183.0431744084396
 21
23.23689065765043
 31
0.0
  0
LINE
  5
686
  8
0
  6
CONTINUOUS
 62
     3
 10
-183.0431744084396
 20
52.23689065765043
 30
0.0
 11
-183.0431744084396
 21
47.10159860442778
 31
0.0
  0
LINE
  5
687
  8
0
  6
CONTINUOUS
 62
     3
 10
-186.0431744084396
 20
52.23689065765043
 30
0.0
 11
-186.0431744084396
 21
42.73689065765043
 31
0.0
  0
LINE
  5
688
  8
0
  6
CONTINUOUS
 62
     3
 10
-186.0431744084396
 20
32.73689065765043
 30
0.0
 11
-186.0431744084396
 21
23.23689065765043
 31
0.0
  0
LINE
  5
689
  8
0
  6
CONTINUOUS
 62
     3
 10
-49.54317432961855
 20
25.23689030189988
 30
0.0
 11
-48.04317335108047
 21
24.37086442883643
 31
0.0
  0
LINE
  5
68A
  8
0
  6
CONTINUOUS
 62
     3
 10
-198.0431744084396
 20
23.73689065765043
 30
0.0
 11
-186.0431744084396
 21
23.73689065765043
 31
0.0
  0
LINE
  5
68B
  8
0
  6
CONTINUOUS
 62
     3
 10
-198.043186955932
 20
22.87086357077092
 30
0.0
 11
-196.543182673769
 21
23.73689135118289
 31
0.0
  0
LINE
  5
68C
  8
0
  6
CONTINUOUS
 62
     3
 10
-52.5431744084396
 20
7.736890657650434
 30
0.0
 11
-45.0431744084396
 21
7.736890657650434
 31
0.0
  0
LINE
  5
68D
  8
0
  6
CONTINUOUS
 62
     3
 10
-52.5431744084396
 20
13.73689065765043
 30
0.0
 11
-45.0431744084396
 21
13.73689065765043
 31
0.0
  0
LINE
  5
68E
  8
0
  6
CONTINUOUS
 62
     3
 10
-48.0431744084396
 20
7.736890657650434
 30
0.0
 11
-48.0431744084396
 21
3.736890657650434
 31
0.0
  0
LINE
  5
68F
  8
0
  6
CONTINUOUS
 62
     3
 10
-36.0431744084396
 20
31.41509233306547
 30
0.0
 11
-36.0431744084396
 21
20.23689065765043
 31
0.0
  0
LINE
  5
690
  8
0
  6
CONTINUOUS
 62
     3
 10
-36.0431744084396
 20
55.23689065765043
 30
0.0
 11
-36.0431744084396
 21
44.05868707488676
 31
0.0
  0
LINE
  5
691
  8
0
  6
CONTINUOUS
 62
     3
 10
-38.5431744084396
 20
55.23689065765043
 30
0.0
 11
-36.0431744084396
 21
55.23689065765043
 31
0.0
  0
LINE
  5
692
  8
0
  6
CONTINUOUS
 62
     3
 10
-38.5431744084396
 20
20.23689065765043
 30
0.0
 11
-36.0431744084396
 21
20.23689065765043
 31
0.0
  0
LINE
  5
693
  8
0
  6
CONTINUOUS
 62
     3
 10
-48.04317695516676
 20
24.48689205909412
 30
0.0
 11
-26.09349993599591
 21
37.15954259463879
 31
0.0
  0
LINE
  5
694
  8
0
  6
CONTINUOUS
 62
     3
 10
-48.04317540659258
 20
50.98689152506236
 30
0.0
 11
-26.09350003923419
 21
38.31424194319195
 31
0.0
  0
LINE
  5
695
  8
0
  6
CONTINUOUS
 62
     3
 10
-45.0431744084396
 20
16.23689065765043
 30
0.0
 11
-45.0431744084396
 21
5.236890657650434
 31
0.0
  0
LINE
  5
696
  8
0
  6
CONTINUOUS
 62
     3
 10
-39.0431744084396
 20
15.73689065765043
 30
0.0
 11
-39.0431744084396
 21
5.736890657650434
 31
0.0
  0
LINE
  5
697
  8
0
  6
CONTINUOUS
 62
     3
 10
-48.0431744084396
 20
7.236890657650434
 30
0.0
 11
-45.0431744084396
 21
7.236890657650434
 31
0.0
  0
LINE
  5
698
  8
0
  6
CONTINUOUS
 62
     3
 10
-48.0431744084396
 20
14.23689065765043
 30
0.0
 11
-45.0431744084396
 21
14.23689065765043
 31
0.0
  0
LINE
  5
699
  8
0
  6
CONTINUOUS
 62
     3
 10
-45.0431744084396
 20
15.73689065765043
 30
0.0
 11
-39.0431744084396
 21
15.73689065765043
 31
0.0
  0
LINE
  5
69A
  8
0
  6
CONTINUOUS
 62
     3
 10
-45.0431744084396
 20
5.736890657650434
 30
0.0
 11
-39.0431744084396
 21
5.736890657650434
 31
0.0
  0
LINE
  5
69B
  8
0
  6
CONTINUOUS
 62
     3
 10
-40.0431744084396
 20
5.499778612362348
 30
0.0
 11
-40.0431744084396
 21
-3.763109342349566
 31
0.0
  0
LINE
  5
69C
  8
0
  6
CONTINUOUS
 62
     3
 10
-45.0431744084396
 20
5.236890657650434
 30
0.0
 11
-40.0431744084396
 21
5.236890657650434
 31
0.0
  0
LINE
  5
69D
  8
0
  6
CONTINUOUS
 62
     3
 10
-45.0431744084396
 20
16.23689065765043
 30
0.0
 11
-40.0431744084396
 21
16.23689065765043
 31
0.0
  0
LINE
  5
69E
  8
0
  6
CONTINUOUS
 62
     3
 10
-113.0934978947677
 20
49.37086282561918
 30
0.0
 11
-113.0934978947677
 21
26.10291658233305
 31
0.0
  0
LINE
  5
69F
  8
0
  6
CONTINUOUS
 62
     3
 10
-111.5934978947677
 20
50.23689065765043
 30
0.0
 11
-111.5934978947677
 21
25.23689065765043
 31
0.0
  0
LINE
  5
6A0
  8
0
  6
CONTINUOUS
 62
     3
 10
-26.09349884844204
 20
38.31424127410551
 30
0.0
 11
-26.09349884844204
 21
37.15954004119536
 31
0.0
  0
LINE
  5
6A1
  8
0
  6
CONTINUOUS
 62
     3
 10
-46.74413647508999
 20
50.23689065765043
 30
0.0
 11
-46.74413647508999
 21
25.23689065765043
 31
0.0
  0
LINE
  5
6A2
  8
0
  6
CONTINUOUS
 62
     3
 10
-113.0935064970581
 20
49.37086435421762
 30
0.0
 11
-111.5935022148951
 21
50.23689213462959
 31
0.0
  0
ARC
  5
6A3
  8
0
  6
CONTINUOUS
 62
     3
 10
-54.0431744084396
 20
61.23689065765043
 30
0.0
 40
1.5
 50
270.0000179860894
 51
360.0
  0
ARC
  5
6A4
  8
0
  6
CONTINUOUS
 62
     3
 10
-54.0431744084396
 20
14.23689065765043
 30
0.0
 40
1.5
 50
0.0
 51
89.99998201391065
  0
ARC
  5
6A5
  8
0
  6
CONTINUOUS
 62
     3
 10
-38.5431744084396
 20
56.73689065765043
 30
0.0
 40
1.5
 50
179.9999813306654
 51
270.0000179860894
  0
ARC
  5
6A6
  8
0
  6
CONTINUOUS
 62
     3
 10
-38.5431744084396
 20
18.73689065765043
 30
0.0
 40
1.5
 50
89.99998201391065
 51
179.9999640278213
  0
LINE
  5
6A7
  8
0
  6
CONTINUOUS
 62
     3
 10
-40.0431744084396
 20
86.76826272796293
 30
0.0
 11
-40.0431744084396
 21
56.73689065765043
 31
0.0
  0
LINE
  5
6A8
  8
0
  6
CONTINUOUS
 62
     3
 10
-48.0431744084396
 20
71.73689065765043
 30
0.0
 11
-40.0431744084396
 21
71.73689065765043
 31
0.0
  0
LINE
  5
6A9
  8
0
  6
CONTINUOUS
 62
     3
 10
-52.57498135424038
 20
78.73689065765043
 30
0.0
 11
-48.5431744084396
 21
78.73689065765043
 31
0.0
  0
LINE
  5
6AA
  8
0
  6
CONTINUOUS
 62
     3
 10
-48.5431744084396
 20
86.76826272796293
 30
0.0
 11
-48.5431744084396
 21
78.73689065765043
 31
0.0
  0
LINE
  5
6AB
  8
0
  6
CONTINUOUS
 62
     3
 10
-48.5431744084396
 20
79.73689065765043
 30
0.0
 11
-40.0431744084396
 21
79.73689065765043
 31
0.0
  0
LINE
  5
6AC
  8
0
  6
CONTINUOUS
 62
     3
 10
-52.5431744084396
 20
78.73689065765043
 30
0.0
 11
-52.5431744084396
 21
61.23689065765043
 31
0.0
  0
LINE
  5
6AD
  8
0
  6
CONTINUOUS
 62
     3
 10
-48.54318203783413
 20
-3.263109342349566
 30
0.0
 11
-48.54318203783413
 21
-7.413113729251435
 31
0.0
  0
LINE
  5
6AE
  8
0
  6
CONTINUOUS
 62
     3
 10
-48.54318203783413
 20
-14.11310972381931
 30
0.0
 11
-48.54318203783413
 21
-18.26311124969821
 31
0.0
  0
LINE
  5
6AF
  8
0
  6
DASHED
 62
     7
 10
139.0619086885121
 20
145.2368906576504
 30
0.0
 11
139.0619086885121
 21
87.73689065765043
 31
0.0
  0
LINE
  5
6B0
  8
0
  6
DASHED
 62
     7
 10
158.5619086885121
 20
145.2368906576504
 30
0.0
 11
158.5619086885121
 21
87.73689065765043
 31
0.0
  0
LINE
  5
6B1
  8
0
  6
CENTER
 62
     7
 10
-98.0431744084396
 20
-44.96802128633806
 30
0.0
 11
-98.0431744084396
 21
-73.24524692354129
 31
0.0
  0
LINE
  5
6B2
  8
0
  6
CENTER
 62
     7
 10
-68.34318508959194
 20
120.2368906576504
 30
0.0
 11
-72.74317898607632
 21
120.2368906576504
 31
0.0
  0
LINE
  5
6B3
  8
0
  6
CONTINUOUS
 62
     5
 10
222.6037129562541
 20
96.88643751669079
 30
0.0
 11
218.8537110489054
 21
103.3816312321216
 31
0.0
  0
LINE
  5
6B4
  8
0
  6
CONTINUOUS
 62
     5
 10
209.6133170107945
 20
89.38643319092094
 30
0.0
 11
222.6036978344067
 21
96.88643319092094
 31
0.0
  0
LINE
  5
6B5
  8
0
  6
CONTINUOUS
 62
     5
 10
209.6133189181431
 20
89.38642988729626
 30
0.0
 11
203.9883151034459
 21
99.12922211225478
 31
0.0
  0
LINE
  5
6B6
  8
0
  6
CONTINUOUS
 62
     5
 10
203.9883151034459
 20
99.12922211225478
 30
0.0
 11
205.9368722269877
 21
100.2542221122548
 31
0.0
  0
LINE
  5
6B7
  8
0
  6
CONTINUOUS
 62
     5
 10
206.4993873488351
 20
99.27994787625372
 30
0.0
 11
205.9368892561837
 21
100.2542231344
 31
0.0
  0
LINE
  5
6B8
  8
0
  6
CONTINUOUS
 62
     5
 10
206.4993741343363
 20
99.27994024685918
 30
0.0
 11
207.7984122166976
 21
100.0299402468592
 31
0.0
  0
LINE
  5
6B9
  8
0
  6
CONTINUOUS
 62
     5
 10
208.3609254311963
 20
99.0556693144828
 30
0.0
 11
207.7984254311963
 21
100.0299478762537
 31
0.0
  0
LINE
  5
6BA
  8
0
  6
CONTINUOUS
 62
     5
 10
210.4099502990588
 20
98.50662360272705
 30
0.0
 11
209.6599502990588
 21
99.80566168508827
 31
0.0
  0
LINE
  5
6BB
  8
0
  6
CONTINUOUS
 62
     5
 10
208.3609103093489
 20
99.05566498871295
 30
0.0
 11
209.6599483917102
 21
99.80566498871295
 31
0.0
  0
LINE
  5
6BC
  8
0
  6
CONTINUOUS
 62
     5
 10
205.8633170107945
 20
95.88162360272705
 30
0.0
 11
218.8536978344067
 21
103.3816236027271
 31
0.0
  0
LINE
  5
6BD
  8
0
  6
CONTINUOUS
 62
     5
 10
216.483522544448
 20
92.48691847551018
 30
0.0
 11
218.733522544448
 21
88.58980422842652
 31
0.0
  0
LINE
  5
6BE
  8
0
  6
CONTINUOUS
 62
     5
 10
218.7335053061537
 20
88.58981629072892
 30
0.0
 11
217.7089925319827
 21
88.86433366350425
 31
0.0
  0
LINE
  5
6BF
  8
0
  6
CONTINUOUS
 62
     5
 10
218.7335848800743
 20
88.58978869857143
 30
0.0
 11
219.0081061072837
 21
89.61431627482139
 31
0.0
  0
LINE
  5
6C0
  8
0
  6
CONTINUOUS
 62
     5
 10
216.2090553953384
 20
91.4623888445764
 30
0.0
 11
216.4835766225477
 21
92.48691642082636
 31
0.0
  0
LINE
  5
6C1
  8
0
  6
CONTINUOUS
 62
     5
 10
217.50802503581
 20
92.21242278577407
 30
0.0
 11
216.483512261639
 21
92.4869401585494
 31
0.0
  0
LINE
  5
6C2
  8
0
  6
CONTINUOUS
 62
     5
 10
210.5338929983963
 20
101.2920130358467
 30
0.0
 11
210.8084142256056
 21
102.3165406120967
 31
0.0
  0
LINE
  5
6C3
  8
0
  6
CONTINUOUS
 62
     5
 10
210.8083697487667
 20
102.3165753786044
 30
0.0
 11
209.7838569745958
 21
102.5910927513798
 31
0.0
  0
LINE
  5
6C4
  8
0
  6
CONTINUOUS
 62
     5
 10
208.2452659773802
 20
100.8367163128563
 30
0.0
 11
210.8083765784844
 21
102.3165289349267
 31
0.0
  0
LINE
  5
6C5
  8
0
  6
CONTINUOUS
 62
     5
 10
214.9694632286929
 20
98.86091561782669
 30
0.0
 11
214.2027524979141
 21
98.24004564049974
 31
0.0
  0
LINE
  5
6C6
  8
0
  6
CONTINUOUS
 62
     5
 10
214.9694865056453
 20
98.86092170518228
 30
0.0
 11
214.3486260133776
 21
99.62762046004687
 31
0.0
  0
ARC
  5
6C7
  8
0
  6
CONTINUOUS
 62
     5
 10
214.2900733613636
 20
96.32533822845122
 30
0.0
 40
2.625001907348633
 50
75.00010795499728
 51
369.999953377945
  0
LINE
  5
6C8
  8
0
  6
CONTINUOUS
 62
     4
 10
11.61837171021823
 20
2.36306470669301
 30
0.0
 11
21.84944344835053
 21
-15.35766892910222
 31
0.0
  0
LINE
  5
6C9
  8
0
  6
CONTINUOUS
 62
     4
 10
-2.412407808540834
 20
-47.26310790884169
 30
0.0
 11
-0.4124073317036761
 21
-43.79900659429701
 31
0.0
  0
LINE
  5
6CA
  8
0
  6
CONTINUOUS
 62
     4
 10
-0.4124077337503564
 20
-43.7990100797772
 30
0.0
 11
3.587591789412485
 21
-43.7990100797772
 31
0.0
  0
LINE
  5
6CB
  8
0
  6
CONTINUOUS
 62
     4
 10
3.587592201477932
 20
-43.799009529331
 30
0.0
 11
5.587592678313726
 21
-47.26311533959417
 31
0.0
  0
LINE
  5
6CC
  8
0
  6
CONTINUOUS
 62
     4
 10
5.587591658293135
 20
-47.26311362074104
 30
0.0
 11
3.587589274107344
 21
-50.7272139816114
 31
0.0
  0
LINE
  5
6CD
  8
0
  6
CONTINUOUS
 62
     4
 10
3.587589405226694
 20
-50.72720984784361
 30
0.0
 11
-0.4124096410989893
 21
-50.72720984784361
 31
0.0
  0
LINE
  5
6CE
  8
0
  6
CONTINUOUS
 62
     4
 10
-0.4124090729822143
 20
-50.7272106980404
 30
0.0
 11
-2.412408119307898
 21
-47.26310866823998
 31
0.0
  0
CIRCLE
  5
6CF
  8
0
  6
CONTINUOUS
 62
     4
 10
1.587591312575327
 20
-47.26311377850767
 30
0.0
 40
3.299999952316284
  0
CIRCLE
  5
6D0
  8
0
  6
CONTINUOUS
 62
     4
 10
1.587591312575327
 20
-47.26311377850767
 30
0.0
 40
0.75
  0
CIRCLE
  5
6D1
  8
0
  6
CONTINUOUS
 62
     4
 10
1.587591312575327
 20
-47.26311377850767
 30
0.0
 40
2.400000095367432
  0
CIRCLE
  5
6D2
  8
0
  6
CONTINUOUS
 62
     4
 10
113.8119010591175
 20
111.7368906576504
 30
0.0
 40
0.75
  0
CIRCLE
  5
6D3
  8
0
  6
CONTINUOUS
 62
     4
 10
102.2260245942738
 20
-29.57399954010349
 30
0.0
 40
0.75
  0
CIRCLE
  5
6D4
  8
0
  6
CONTINUOUS
 62
     4
 10
230.3977851533558
 20
31.04777704070706
 30
0.0
 40
0.75
  0
LINE
  5
6D5
  8
0
  6
CONTINUOUS
 62
     4
 10
-48.5431744084396
 20
-3.263109342349566
 30
0.0
 11
-48.5431744084396
 21
-6.763109342349566
 31
0.0
  0
LINE
  5
6D6
  8
0
  6
CONTINUOUS
 62
     4
 10
-48.5431744084396
 20
-14.76310934234957
 30
0.0
 11
-48.5431744084396
 21
-18.26310934234957
 31
0.0
  0
LINE
  5
6D7
  8
0
  6
CONTINUOUS
 62
     4
 10
-120.0431744084396
 20
50.48689065765043
 30
0.0
 11
-120.0431744084396
 21
50.23689065765043
 31
0.0
  0
LINE
  5
6D8
  8
0
  6
CONTINUOUS
 62
     4
 10
-49.54317635502986
 20
50.23689410816283
 30
0.0
 11
-48.043176202398
 21
51.10291950438915
 31
0.0
  0
LINE
  5
6D9
  8
0
  6
CONTINUOUS
 62
     4
 10
-38.08388104296108
 20
30.23689065765043
 30
0.0
 11
-36.0431744084396
 21
30.23689065765043
 31
0.0
  0
LINE
  5
6DA
  8
0
  6
CONTINUOUS
 62
     4
 10
-38.08388295030971
 20
45.23689065765043
 30
0.0
 11
-36.0431744084396
 21
45.23689065765043
 31
0.0
  0
LINE
  5
6DB
  8
0
  6
CONTINUOUS
 62
     4
 10
-113.0935025985332
 20
26.10291567077789
 30
0.0
 11
-111.5935049236201
 21
25.23689170506296
 31
0.0
  0
LINE
  5
6DC
  8
0
  6
CONTINUOUS
 62
     4
 10
-183.2434978947677
 20
42.73689065765043
 30
0.0
 11
-183.2434978947677
 21
32.73689065765043
 31
0.0
  0
LINE
  5
6DD
  8
0
  6
CONTINUOUS
 62
     4
 10
-150.1453472600021
 20
15.23689065765043
 30
0.0
 11
-140.6453472600021
 21
15.23689065765043
 31
0.0
  0
LINE
  5
6DE
  8
0
  6
CONTINUOUS
 62
     4
 10
-150.1453472600021
 20
60.23689065765043
 30
0.0
 11
-140.6453472600021
 21
60.23689065765043
 31
0.0
  0
CIRCLE
  5
6DF
  8
0
  6
CONTINUOUS
 62
     4
 10
-118.457946442131
 20
47.23689065765043
 30
0.0
 40
2.5
  0
CIRCLE
  5
6E0
  8
0
  6
CONTINUOUS
 62
     4
 10
-125.4846874699631
 20
47.23689065765043
 30
0.0
 40
2.5
  0
CIRCLE
  5
6E1
  8
0
  6
CONTINUOUS
 62
     4
 10
-120.1202312932052
 20
28.23689065765043
 30
0.0
 40
2.5
  0
CIRCLE
  5
6E2
  8
0
  6
CONTINUOUS
 62
     4
 10
-127.1469723210373
 20
28.23689065765043
 30
0.0
 40
2.5
  0
CIRCLE
  5
6E3
  8
0
  6
CONTINUOUS
 62
     4
 10
-179.0164410100021
 20
47.23689065765043
 30
0.0
 40
2.5
  0
CIRCLE
  5
6E4
  8
0
  6
CONTINUOUS
 62
     4
 10
-171.9896923527755
 20
47.23689065765043
 30
0.0
 40
2.5
  0
ARC
  5
6E5
  8
0
  6
CONTINUOUS
 62
     4
 10
-186.0431744084396
 20
47.23689065765043
 30
0.0
 40
2.5
 50
270.0000179860894
 51
449.9999820139107
  0
CIRCLE
  5
6E6
  8
0
  6
CONTINUOUS
 62
     4
 10
-180.6787182316818
 20
28.23689065765043
 30
0.0
 40
2.5
  0
CIRCLE
  5
6E7
  8
0
  6
CONTINUOUS
 62
     4
 10
-173.6519848332443
 20
28.23689065765043
 30
0.0
 40
2.5
  0
ARC
  5
6E8
  8
0
  6
CONTINUOUS
 62
     4
 10
-113.0934978947677
 20
28.23689065765043
 30
0.0
 40
2.5
 50
89.99998201391065
 51
270.0000006832453
  0
ARC
  5
6E9
  8
0
  6
CONTINUOUS
 62
     4
 10
-111.431205414299
 20
47.23689065765043
 30
0.0
 40
2.5
 50
131.6759931593876
 51
228.3239895377684
  0
ARC
  5
6EA
  8
0
  6
CONTINUOUS
 62
     4
 10
-187.7054668889084
 20
28.23689065765043
 30
0.0
 40
2.5
 50
311.6759539994854
 51
408.3240460005146
  0
LINE
  5
6EB
  8
0
  6
CONTINUOUS
 62
     4
 10
93.88806085884885
 20
26.81118596914194
 30
0.0
 11
103.4388739019163
 21
32.32534984132119
 31
0.0
  0
LINE
  5
6EC
  8
0
  6
CONTINUOUS
 62
     4
 10
103.4388815298981
 20
32.32535577511724
 30
0.0
 11
121.4388836756653
 21
1.148441798447927
 31
0.0
  0
LINE
  5
6ED
  8
0
  6
CONTINUOUS
 62
     4
 10
111.8880632102147
 20
-4.365721569054028
 30
0.0
 11
121.4388699680099
 21
1.14843867432203
 31
0.0
  0
LINE
  5
6EE
  8
0
  6
CONTINUOUS
 62
     4
 10
176.1850050659828
 20
1.148449922175111
 30
0.0
 11
185.7357847895571
 21
-4.365694712987978
 31
0.0
  0
LINE
  5
6EF
  8
0
  6
CONTINUOUS
 62
     4
 10
176.1850282618557
 20
1.148443755918358
 30
0.0
 11
194.1850265929252
 21
32.32535112533831
 31
0.0
  0
LINE
  5
6F0
  8
0
  6
CONTINUOUS
 62
     4
 10
194.1850172075988
 20
32.32535841521756
 30
0.0
 11
203.7357656437601
 21
26.81123184384882
 31
0.0
  0
LINE
  5
6F1
  8
0
  6
CONTINUOUS
 62
     4
 10
26.60441843707088
 20
-136.3568783861467
 30
0.0
 11
76.60441843707088
 21
-136.3568783861467
 31
0.0
  0
LINE
  5
6F2
  8
0
  6
CONTINUOUS
 62
     4
 10
26.60441843707088
 20
-86.35687075675219
 30
0.0
 11
26.60441843707088
 21
-136.3568783861467
 31
0.0
  0
TEXT
  5
6F3
  8
0
 62
     5
 10
120.3261888885166
 20
-54.06311239410739
 30
0.0
 40
5.0
  1
NIKKO
 41
0.7674421159044379
  7
FDASTYLE1
 72
     5
 11
143.8976202869084
 21
-54.06311239410739
 31
0.0
  0
TEXT
  5
6F4
  8
0
 62
     5
 10
155.6833395623829
 20
-53.56311239410739
 30
0.0
 40
4.0
  1
COP-8
 41
0.7674421177096609
  7
FDASTYLE1
 72
     5
 11
174.5404848718312
 21
-53.56311239410739
 31
0.0
  0
TEXT
  5
6F5
  8
0
 62
     5
 10
156.0404827260639
 20
-60.06311620880466
 30
0.0
 40
3.0
  1
0001
 41
0.7647060767727455
  7
FDASTYLE1
 72
     5
 11
167.1833403968479
 21
-60.06311620880466
 31
0.0
  0
TEXT
  5
6F6
  8
0
 62
     5
 10
239.9809848863251
 20
59.4274049800821
 30
0.0
 40
3.0
  1
F MAX  20KN
 50
120.0
 41
0.7894738964517459
  7
FDASTYLE1
 72
     5
 11
223.4809844690926
 21
88.0062440276365
 31
0.0
  0
TEXT
  5
6F7
  8
0
 62
     5
 10
210.0947726565964
 20
103.697670665959
 30
0.0
 40
3.0
  1
ΣS
 50
120.0
 41
0.9090909271529234
  7
FDASTYLE1
 72
     5
 11
207.0947725969918
 21
108.8938231919039
 31
0.0
  0
TEXT
  5
6F8
  8
0
 62
     5
 10
216.7838986117012
 20
88.70689335532381
 30
0.0
 40
3.0
  1
F
 50
120.0
 41
0.8791213035583497
  7
FDASTYLE1
 72
     5
 11
215.4652166563637
 21
90.99091750099268
 31
0.0
  0
TEXT
  5
6F9
  8
0
 62
     5
 10
219.3824923831589
 20
99.24418678088516
 30
0.0
 40
3.0
  1
N min
 50
120.0
 41
0.7983872414958763
  7
FDASTYLE1
 72
     5
 11
211.9574927884705
 21
112.1046633250638
 31
0.0
  0
TEXT
  5
6FA
  8
0
 62
     5
 10
206.9793874969332
 20
110.9193013724072
 30
0.0
 40
1.5
  1
-1
 50
120.0
 41
0.7826088684192838
  7
FDASTYLE1
 72
     5
 11
205.6293874134867
 21
113.2575701071587
 31
0.0
  0
TEXT
  5
6FB
  8
0
 62
     5
 10
244.3111087876923
 20
61.9274049800821
 30
0.0
 40
3.0
  1
ΣS MAX 31KN
 50
120.0
 41
0.7947978833511999
  7
FDASTYLE1
 72
     5
 11
227.8111083704598
 21
90.5062440276365
 31
0.0
  0
TEXT
  5
6FC
  8
0
 62
     5
 10
248.6412479478485
 20
64.42740498008212
 30
0.0
 40
3.0
  1
N MAX 3200 A ΣS MAX
 50
120.0
 41
0.7943772663875798
  7
FDASTYLE1
 72
     5
 11
219.8212475973732
 21
114.3451098612582
 31
0.0
  0
CIRCLE
  5
6FD
  8
0
  6
CONTINUOUS
 62
     5
 10
214.2900733613636
 20
96.32533822845122
 30
0.0
 40
0.5
  0
INSERT
  5
6FE
  8
0
  6
CONTINUOUS
  2
DC_GROUP_1
 10
0.0
 20
0.0
 30
0.0
  0
INSERT
  5
6FF
  8
0
  6
CONTINUOUS
  2
DA_IMAGEDIMGROUP_15
 10
0.0
 20
0.0
 30
0.0
  0
INSERT
  5
700
  8
0
  6
CONTINUOUS
  2
DA_IMAGEDIMGROUP_16
 10
0.0
 20
0.0
 30
0.0
  0
INSERT
  5
701
  8
0
  6
CONTINUOUS
  2
DA_IMAGEDIMGROUP_17
 10
0.0
 20
0.0
 30
0.0
  0
INSERT
  5
702
  8
0
  6
CONTINUOUS
  2
DA_IMAGEDIMGROUP_18
 10
0.0
 20
0.0
 30
0.0
  0
INSERT
  5
703
  8
0
  6
CONTINUOUS
  2
DA_IMAGEDIMGROUP_19
 10
0.0
 20
0.0
 30
0.0
  0
INSERT
  5
704
  8
0
  6
CONTINUOUS
  2
DA_IMAGEDIMGROUP_20
 10
0.0
 20
0.0
 30
0.0
  0
INSERT
  5
705
  8
0
  6
CONTINUOUS
  2
DA_IMAGEDIMGROUP_21
 10
0.0
 20
0.0
 30
0.0
  0
INSERT
  5
706
  8
0
  6
CONTINUOUS
  2
DA_IMAGEDIMGROUP_22
 10
0.0
 20
0.0
 30
0.0
  0
INSERT
  5
707
  8
0
  6
CONTINUOUS
  2
DC_GROUP_6
 10
0.0
 20
0.0
 30
0.0
  0
INSERT
  5
708
  8
0
  6
CONTINUOUS
  2
DA_IMAGEDIMGROUP_24
 10
0.0
 20
0.0
 30
0.0
  0
INSERT
  5
709
  8
0
  6
CONTINUOUS
  2
DA_IMAGEDIMGROUP_25
 10
0.0
 20
0.0
 30
0.0
  0
INSERT
  5
70A
  8
0
  6
CONTINUOUS
  2
DA_IMAGEDIMGROUP_26
 10
0.0
 20
0.0
 30
0.0
  0
INSERT
  5
70B
  8
0
  6
CONTINUOUS
  2
DA_IMAGEDIMGROUP_27
 10
0.0
 20
0.0
 30
0.0
  0
INSERT
  5
70C
  8
0
  6
CONTINUOUS
  2
DA_IMAGEDIMGROUP_28
 10
0.0
 20
0.0
 30
0.0
  0
INSERT
  5
70D
  8
0
  6
CONTINUOUS
  2
DC_GROUP_7
 10
0.0
 20
0.0
 30
0.0
  0
INSERT
  5
70E
  8
0
  6
CONTINUOUS
  2
DA_IMAGEDIMGROUP_29
 10
0.0
 20
0.0
 30
0.0
  0
INSERT
  5
70F
  8
0
  6
CONTINUOUS
  2
DC_GROUP_8
 10
0.0
 20
0.0
 30
0.0
  0
INSERT
  5
710
  8
0
  6
CONTINUOUS
  2
DA_IMAGEDIMGROUP_30
 10
0.0
 20
0.0
 30
0.0
  0
INSERT
  5
711
  8
0
  6
CONTINUOUS
  2
DA_IMAGEDIMGROUP_31
 10
0.0
 20
0.0
 30
0.0
  0
INSERT
  5
712
  8
0
  6
CONTINUOUS
  2
DA_IMAGEDIMGROUP_32
 10
0.0
 20
0.0
 30
0.0
  0
INSERT
  5
713
  8
0
  6
CONTINUOUS
  2
DA_IMAGEDIMGROUP_33
 10
0.0
 20
0.0
 30
0.0
  0
INSERT
  5
714
  8
0
  6
CONTINUOUS
  2
DA_IMAGEDIMGROUP_34
 10
0.0
 20
0.0
 30
0.0
  0
INSERT
  5
715
  8
0
  6
CONTINUOUS
  2
DA_IMAGEDIMGROUP_35
 10
0.0
 20
0.0
 30
0.0
  0
INSERT
  5
716
  8
0
  6
CONTINUOUS
  2
DA_IMAGEDIMGROUP_36
 10
0.0
 20
0.0
 30
0.0
  0
INSERT
  5
717
  8
0
  6
CONTINUOUS
  2
DC_GROUP_9
 10
0.0
 20
0.0
 30
0.0
  0
POINT
  5
718
  8
0
  6
CONTINUOUS
 62
     2
 10
-70.54318203783413
 20
120.2368906576504
 30
0.0
  0
POINT
  5
719
  8
0
  6
CONTINUOUS
 62
     2
 10
-70.54318203783413
 20
120.2368906576504
 30
0.0
  0
POINT
  5
71A
  8
0
  6
CONTINUOUS
 62
     2
 10
-70.54318203783413
 20
120.2368906576504
 30
0.0
  0
POINT
  5
71B
  8
0
  6
CONTINUOUS
 62
     2
 10
-70.54318203783413
 20
120.2368906576504
 30
0.0
  0
POINT
  5
71C
  8
0
  6
CONTINUOUS
 62
     2
 10
-70.54318203783413
 20
131.7120073873868
 30
0.0
  0
POINT
  5
71D
  8
0
  6
CONTINUOUS
 62
     2
 10
-70.54318203783413
 20
120.2368906576504
 30
0.0
  0
TEXT
  5
71E
  8
0
 62
     4
 10
25.40441843707088
 20
-141.8568783861467
 30
0.0
 40
3.0
  1
0
 41
0.7999999999999995
  7
FDASTYLE1
 72
     5
 11
27.80441843707088
 21
-141.8568783861467
 31
0.0
  0
TEXT
  5
71F
  8
0
 62
     4
 10
50.40441843707087
 20
-141.8568783861467
 30
0.0
 40
3.0
  1
5
 41
0.7999999999999995
  7
FDASTYLE1
 72
     5
 11
52.80441843707087
 21
-141.8568783861467
 31
0.0
  0
TEXT
  5
720
  8
0
 62
     4
 10
55.40441843707087
 20
-141.8568783861467
 30
0.0
 40
3.0
  1
6
 41
0.7999999999999995
  7
FDASTYLE1
 72
     5
 11
57.80441843707087
 21
-141.8568783861467
 31
0.0
  0
TEXT
  5
721
  8
0
 62
     4
 10
60.40441843707087
 20
-141.8568783861467
 30
0.0
 40
3.0
  1
7
 41
0.8000000000000019
  7
FDASTYLE1
 72
     5
 11
62.80441843707088
 21
-141.8568783861467
 31
0.0
  0
TEXT
  5
722
  8
0
 62
     4
 10
65.40441843707087
 20
-141.8568783861467
 30
0.0
 40
3.0
  1
8
 41
0.8000000000000019
  7
FDASTYLE1
 72
     5
 11
67.80441843707088
 21
-141.8568783861467
 31
0.0
  0
TEXT
  5
723
  8
0
 62
     4
 10
70.40441843707087
 20
-141.8568783861467
 30
0.0
 40
3.0
  1
9
 41
0.8000000000000019
  7
FDASTYLE1
 72
     5
 11
72.80441843707088
 21
-141.8568783861467
 31
0.0
  0
TEXT
  5
724
  8
0
 62
     4
 10
73.911040751524
 20
-141.9134121996233
 30
0.0
 40
3.0
  1
10
 41
0.7999999999999995
  7
FDASTYLE1
 72
     5
 11
78.711040751524
 21
-141.9134121996233
 31
0.0
  0
TEXT
  5
725
  8
0
 62
     4
 10
21.805083720274
 20
-137.680914030678
 30
0.0
 40
3.0
  1
0
 41
0.7999999999999995
  7
FDASTYLE1
 72
     5
 11
24.205083720274
 21
-137.680914030678
 31
0.0
  0
TEXT
  5
726
  8
0
 62
     4
 10
15.80441233355525
 20
-132.8568783861467
 30
0.0
 40
3.0
  1
100
 41
0.8000000000000003
  7
FDASTYLE1
 72
     5
 11
23.00441233355526
 21
-132.8568783861467
 31
0.0
  0
TEXT
  5
727
  8
0
 62
     4
 10
15.80441233355525
 20
-97.85687075675219
 30
0.0
 40
3.0
  1
800
 41
0.8000000000000003
  7
FDASTYLE1
 72
     5
 11
23.00441233355526
 21
-97.85687075675219
 31
0.0
  0
TEXT
  5
728
  8
0
 62
     4
 10
15.80441233355525
 20
-92.85687075675219
 30
0.0
 40
3.0
  1
900
 41
0.8000000000000003
  7
FDASTYLE1
 72
     5
 11
23.00441233355526
 21
-92.85687075675219
 31
0.0
  0
TEXT
  5
729
  8
0
 62
     4
 10
12.80441233355525
 20
-87.85687075675219
 30
0.0
 40
3.0
  1
1000
 41
0.8000000000000002
  7
FDASTYLE1
 72
     5
 11
22.40441233355525
 21
-87.85687075675219
 31
0.0
  0
TEXT
  5
72A
  8
0
 62
     4
 10
15.80441233355525
 20
-102.8568783861467
 30
0.0
 40
3.0
  1
700
 41
0.8000000000000003
  7
FDASTYLE1
 72
     5
 11
23.00441233355526
 21
-102.8568783861467
 31
0.0
  0
TEXT
  5
72B
  8
0
 62
     4
 10
15.80441233355525
 20
-107.8568783861467
 30
0.0
 40
3.0
  1
600
 41
0.8000000000000003
  7
FDASTYLE1
 72
     5
 11
23.00441233355526
 21
-107.8568783861467
 31
0.0
  0
TEXT
  5
72C
  8
0
 62
     4
 10
15.80441233355525
 20
-112.8568783861467
 30
0.0
 40
3.0
  1
500
 41
0.8000000000000003
  7
FDASTYLE1
 72
     5
 11
23.00441233355526
 21
-112.8568783861467
 31
0.0
  0
TEXT
  5
72D
  8
0
 62
     4
 10
15.80441233355525
 20
-117.8568783861467
 30
0.0
 40
3.0
  1
400
 41
0.8000000000000003
  7
FDASTYLE1
 72
     5
 11
23.00441233355526
 21
-117.8568783861467
 31
0.0
  0
TEXT
  5
72E
  8
0
 62
     4
 10
15.80441233355525
 20
-122.8568783861467
 30
0.0
 40
3.0
  1
300
 41
0.8000000000000003
  7
FDASTYLE1
 72
     5
 11
23.00441233355526
 21
-122.8568783861467
 31
0.0
  0
TEXT
  5
72F
  8
0
 62
     4
 10
15.80441233355525
 20
-127.8568783861467
 30
0.0
 40
3.0
  1
200
 41
0.8000000000000003
  7
FDASTYLE1
 72
     5
 11
23.00441233355526
 21
-127.8568783861467
 31
0.0
  0
TEXT
  5
730
  8
0
 62
     4
 10
30.40441843707088
 20
-141.8568783861467
 30
0.0
 40
3.0
  1
1
 41
0.7999999999999984
  7
FDASTYLE1
 72
     5
 11
32.80441843707087
 21
-141.8568783861467
 31
0.0
  0
TEXT
  5
731
  8
0
 62
     4
 10
35.40441843707087
 20
-141.8568783861467
 30
0.0
 40
3.0
  1
2
 41
0.7999999999999995
  7
FDASTYLE1
 72
     5
 11
37.80441843707087
 21
-141.8568783861467
 31
0.0
  0
TEXT
  5
732
  8
0
 62
     4
 10
40.40441843707087
 20
-141.8568783861467
 30
0.0
 40
3.0
  1
3
 41
0.7999999999999995
  7
FDASTYLE1
 72
     5
 11
42.80441843707087
 21
-141.8568783861467
 31
0.0
  0
TEXT
  5
733
  8
0
 62
     4
 10
45.40441843707087
 20
-141.8568783861467
 30
0.0
 40
3.0
  1
4
 41
0.7999999999999995
  7
FDASTYLE1
 72
     5
 11
47.80441843707087
 21
-141.8568783861467
 31
0.0
  0
TEXT
  5
734
  8
0
 62
     4
 10
37.81083018023494
 20
-147.1979733568498
 30
0.0
 40
4.0
  1
ﾀﾜﾐ量　mm
 41
0.7567567567567569
  7
FDASTYLE1
 72
     5
 11
60.21083018023494
 21
-147.1979733568498
 31
0.0
  0
TEXT
  5
735
  8
0
 62
     4
 10
9.787478129453689
 20
-117.5385281664202
 30
0.0
 40
4.0
  1
荷　重　N
 50
90.0
 41
0.6896551724137932
  7
FDASTYLE1
 72
     5
 11
9.787478129453689
 21
-101.5385281664202
 31
0.0
  0
VIEWPORT
  5
48
 67
     1
  8
0
 10
0.0
 20
0.0
 30
0.0
 40
1662.0
 41
1140.0
 68
     1
 69
     1
1001
ACAD
1000
MVIEW
1002
{
1070
    16
1010
0.0
1020
0.0
1030
0.0
1020
0.0
1030
0.0
1010
0.0
1020
0.0
1030
1.0
1020
0.0
1030
1.0
1040
0.0
1040
1140.0
1040
0.0
1040
0.0
1040
50.0
1040
0.0
1040
0.0
1070
     0
1070
   100
1070
     0
1070
     1
1070
     0
1070
     0
1070
     0
1070
     0
1040
0.0
1040
0.0
1040
0.0
1040
0.5
1040
0.5
1040
0.0
1040
0.0
1070
     0
1002
{
1002
}
1002
}
  0
ENDSEC
  0
EOF
