  0
SECTION
  2
HEADER
  9
$ACADVER
  1
AC1009
  9
$DWGCODEPAGE
  3
ansi_932
  9
$INSBASE
 10
0.0
 20
0.0
 30
0.0
  9
$EXTMIN
 10
-831.0
 20
-569.9999999999999
 30
0.0
  9
$EXTMAX
 10
831.0
 20
569.9999999999999
 30
0.0
  9
$LIMMIN
 10
-297.0
 20
-210.0
  9
$LIMMAX
 10
297.0
 20
210.0
  9
$ORTHOMODE
 70
     0
  9
$REGENMODE
 70
     1
  9
$FILLMODE
 70
     1
  9
$QTEXTMODE
 70
     0
  9
$MIRRTEXT
 70
     1
  9
$DRAGMODE
 70
     2
  9
$LTSCALE
 40
0.25
  9
$OSMODE
 70
    37
  9
$ATTMODE
 70
     1
  9
$TEXTSIZE
 40
0.2
  9
$TRACEWID
 40
0.05
  9
$TEXTSTYLE
  7
STANDARD
  9
$CLAYER
  8
0
  9
$CELTYPE
  6
BYLAYER
  9
$CECOLOR
 62
   256
  9
$DIMSCALE
 40
1.0
  9
$DIMASZ
 40
2.499996185302734
  9
$DIMEXO
 40
1.0
  9
$DIMDLI
 40
10.0
  9
$DIMRND
 40
0.0
  9
$DIMDLE
 40
0.0
  9
$DIMEXE
 40
1.0
  9
$DIMTP
 40
0.0
  9
$DIMTM
 40
0.0
  9
$DIMTXT
 40
4.0
  9
$DIMCEN
 40
0.0
  9
$DIMTSZ
 40
0.0
  9
$DIMTOL
 70
     0
  9
$DIMLIM
 70
     0
  9
$DIMTIH
 70
     0
  9
$DIMTOH
 70
     0
  9
$DIMSE1
 70
     0
  9
$DIMSE2
 70
     0
  9
$DIMTAD
 70
     1
  9
$DIMZIN
 70
     8
  9
$DIMBLK
  1

  9
$DIMASO
 70
     1
  9
$DIMSHO
 70
     1
  9
$DIMPOST
  1

  9
$DIMAPOST
  1

  9
$DIMALT
 70
     0
  9
$DIMALTD
 70
     2
  9
$DIMALTF
 40
25.4
  9
$DIMLFAC
 40
1.0
  9
$DIMTOFL
 70
     0
  9
$DIMTVP
 40
0.0
  9
$DIMTIX
 70
     0
  9
$DIMSOXD
 70
     0
  9
$DIMSAH
 70
     0
  9
$DIMBLK1
  1

  9
$DIMBLK2
  1

  9
$DIMSTYLE
  2
STANDARD
  9
$DIMCLRD
 70
     0
  9
$DIMCLRE
 70
     0
  9
$DIMCLRT
 70
     0
  9
$DIMTFAC
 40
0.65
  9
$DIMGAP
 40
0.09
  9
$LUNITS
 70
     2
  9
$LUPREC
 70
     4
  9
$SKETCHINC
 40
0.1
  9
$FILLETRAD
 40
0.5
  9
$AUNITS
 70
     0
  9
$AUPREC
 70
     0
  9
$MENU
  1
.
  9
$ELEVATION
 40
0.0
  9
$PELEVATION
 40
0.0
  9
$THICKNESS
 40
0.0
  9
$LIMCHECK
 70
     0
  9
$CHAMFERA
 40
0.0
  9
$CHAMFERB
 40
0.0
  9
$SKPOLY
 70
     0
  9
$TDCREATE
 40
2457638.568800336
  9
$TDUPDATE
 40
2457638.568800694
  9
$TDINDWG
 40
0.0000000116
  9
$TDUSRTIMER
 40
0.0000000116
  9
$USRTIMER
 70
     1
  9
$ANGBASE
 50
0.0
  9
$ANGDIR
 70
     0
  9
$PDMODE
 70
     0
  9
$PDSIZE
 40
1.0
  9
$PLINEWID
 40
0.0
  9
$COORDS
 70
     1
  9
$SPLFRAME
 70
     0
  9
$SPLINETYPE
 70
     6
  9
$SPLINESEGS
 70
     8
  9
$ATTDIA
 70
     0
  9
$ATTREQ
 70
     1
  9
$HANDLING
 70
     1
  9
$HANDSEED
  5
74C
  9
$SURFTAB1
 70
     6
  9
$SURFTAB2
 70
     6
  9
$SURFTYPE
 70
     6
  9
$SURFU
 70
     6
  9
$SURFV
 70
     6
  9
$UCSNAME
  2

  9
$UCSORG
 10
0.0
 20
0.0
 30
0.0
  9
$UCSXDIR
 10
1.0
 20
0.0
 30
0.0
  9
$UCSYDIR
 10
0.0
 20
1.0
 30
0.0
  9
$PUCSNAME
  2

  9
$PUCSORG
 10
0.0
 20
0.0
 30
0.0
  9
$PUCSXDIR
 10
1.0
 20
0.0
 30
0.0
  9
$PUCSYDIR
 10
0.0
 20
1.0
 30
0.0
  9
$USERI1
 70
     0
  9
$USERI2
 70
     0
  9
$USERI3
 70
     0
  9
$USERI4
 70
     0
  9
$USERI5
 70
     0
  9
$USERR1
 40
0.0
  9
$USERR2
 40
0.0
  9
$USERR3
 40
0.0
  9
$USERR4
 40
0.0
  9
$USERR5
 40
0.0
  9
$WORLDVIEW
 70
     1
  9
$SHADEDGE
 70
     3
  9
$SHADEDIF
 70
    70
  9
$TILEMODE
 70
     1
  9
$MAXACTVP
 70
    64
  9
$PLIMCHECK
 70
     0
  9
$PEXTMIN
 10
1.000000000000000E+20
 20
1.000000000000000E+20
 30
1.000000000000000E+20
  9
$PEXTMAX
 10
-1.000000000000000E+20
 20
-1.000000000000000E+20
 30
-1.000000000000000E+20
  9
$PLIMMIN
 10
0.0
 20
0.0
  9
$PLIMMAX
 10
12.0
 20
9.0
  9
$UNITMODE
 70
     0
  9
$VISRETAIN
 70
     0
  9
$PLINEGEN
 70
     1
  9
$PSLTSCALE
 70
     0
  0
ENDSEC
  0
SECTION
  2
TABLES
  0
TABLE
  2
VPORT
 70
     1
  0
VPORT
  2
*ACTIVE
 70
     0
 10
0.0
 20
0.0
 11
1.0
 21
1.0
 12
0.0
 22
0.0
 13
0.0
 23
0.0
 14
0.5
 24
0.5
 15
0.5
 25
0.5
 16
0.0
 26
0.0
 36
1.0
 17
-0.0000000000000036
 27
0.0
 37
0.0
 40
387.6
 41
1.457894736842106
 42
50.0
 43
0.0
 44
0.0
 50
0.0
 51
0.0
 71
     0
 72
  1000
 73
     1
 74
     1
 75
     0
 76
     0
 77
     0
 78
     0
  0
ENDTAB
  0
TABLE
  2
LTYPE
 70
    67
  0
LTYPE
  2
CONTINUOUS
 70
     0
  3
Solid line
 72
    65
 73
     0
 40
0.0
  0
LTYPE
  2
HIDDENX2
 70
     0
  3
Hidden (2x) ____ ____ ____ ____ ____ ____ ____ 
 72
    65
 73
     2
 40
19.05
 49
12.7
 49
-6.35
  0
LTYPE
  2
HIDDEN
 70
     0
  3
Hidden __ __ __ __ __ __ __ __ __ __ __ __ __ __
 72
    65
 73
     2
 40
9.524999999999999
 49
6.35
 49
-3.175
  0
LTYPE
  2
HIDDEN2
 70
     0
  3
Hidden (.5x) _ _ _ _ _ _ _ _ _ _ _ _ _ _ _ _ _ 
 72
    65
 73
     2
 40
4.762499999999999
 49
3.175
 49
-1.5875
  0
LTYPE
  2
DASHED
 70
     0
  3
Dashed __ __ __ __ __ __ __ __ __ __ __ __ __ _
 72
    65
 73
     2
 40
19.05
 49
12.7
 49
-6.35
  0
LTYPE
  2
DASHED2
 70
     0
  3
Dashed (.5x) _ _ _ _ _ _ _ _ _ _ _ _ _ _ _ _ _ 
 72
    65
 73
     2
 40
9.524999999999999
 49
6.35
 49
-3.175
  0
LTYPE
  2
DASHEDX2
 70
     0
  3
Dashed (2x) ____  ____  ____  ____  ____  ___
 72
    65
 73
     2
 40
38.09999999999999
 49
25.4
 49
-12.7
  0
LTYPE
  2
DOTX2
 70
     0
  3
Dot (2x) .  .  .  .  .  .  .  .  .  .  .  .  .  .
 72
    65
 73
     2
 40
12.7
 49
0.0
 49
-12.7
  0
LTYPE
  2
DOT
 70
     0
  3
Dot . . . . . . . . . . . . . . . . . . . . . . . .
 72
    65
 73
     2
 40
6.35
 49
0.0
 49
-6.35
  0
LTYPE
  2
DOT2
 70
     0
  3
Dot (.5x) ........................................
 72
    65
 73
     2
 40
3.175
 49
0.0
 49
-3.175
  0
LTYPE
  2
CENTERX2
 70
     0
  3
Center (2x) ________  __  ________  __  _____
 72
    65
 73
     4
 40
101.6
 49
63.5
 49
-12.7
 49
12.7
 49
-12.7
  0
LTYPE
  2
CENTER
 70
     0
  3
Center ____ _ ____ _ ____ _ ____ _ ____ _ ____
 72
    65
 73
     4
 40
50.8
 49
31.75
 49
-6.35
 49
6.35
 49
-6.35
  0
LTYPE
  2
CENTER2
 70
     0
  3
Center (.5x) ___ _ ___ _ ___ _ ___ _ ___ _ ___
 72
    65
 73
     4
 40
28.575
 49
19.05
 49
-3.175
 49
3.175
 49
-3.175
  0
LTYPE
  2
DASHDOTX2
 70
     0
  3
Dash dot (2x) ____  .  ____  .  ____  .  ___
 72
    65
 73
     4
 40
50.8
 49
25.4
 49
-12.7
 49
0.0
 49
-12.7
  0
LTYPE
  2
DASHDOT
 70
     0
  3
Dash dot __ . __ . __ . __ . __ . __ . __ . __
 72
    65
 73
     4
 40
25.4
 49
12.7
 49
-6.35
 49
0.0
 49
-6.35
  0
LTYPE
  2
DASHDOT2
 70
     0
  3
Dash dot (.5x) _._._._._._._._._._._._._._._.
 72
    65
 73
     4
 40
12.7
 49
6.35
 49
-3.175
 49
0.0
 49
-3.175
  0
LTYPE
  2
DIVIDEX2
 70
     0
  3
Divide (2x) ________  .  .  ________  .  .  _
 72
    65
 73
     6
 40
63.5
 49
25.4
 49
-12.7
 49
0.0
 49
-12.7
 49
0.0
 49
-12.7
  0
LTYPE
  2
DIVIDE
 70
     0
  3
Divide ____ . . ____ . . ____ . . ____ . . ____
 72
    65
 73
     6
 40
31.75
 49
12.7
 49
-6.35
 49
0.0
 49
-6.35
 49
0.0
 49
-6.35
  0
LTYPE
  2
DIVIDE2
 70
     0
  3
Divide (.5x) __..__..__..__..__..__..__..__.._
 72
    65
 73
     6
 40
15.875
 49
6.35
 49
-3.175
 49
0.0
 49
-3.175
 49
0.0
 49
-3.175
  0
LTYPE
  2
BORDERX2
 70
     0
  3
Border (2x) ____  ____  .  ____  ____  .  ___
 72
    65
 73
     6
 40
88.89999999999999
 49
25.4
 49
-12.7
 49
25.4
 49
-12.7
 49
0.0
 49
-12.7
  0
LTYPE
  2
BORDER
 70
     0
  3
Border __ __ . __ __ . __ __ . __ __ . __ __ .
 72
    65
 73
     6
 40
44.45
 49
12.7
 49
-6.35
 49
12.7
 49
-6.35
 49
0.0
 49
-6.35
  0
LTYPE
  2
BORDER2
 70
     0
  3
Border (.5x) __.__.__.__.__.__.__.__.__.__.__.
 72
    65
 73
     6
 40
22.225
 49
6.35
 49
-3.175
 49
6.35
 49
-3.175
 49
0.0
 49
-3.175
  0
LTYPE
  2
PHANTOMX2
 70
     0
  3
Phantom (2x) ____________    ____    ____   _
 72
    65
 73
     6
 40
127.0
 49
63.5
 49
-12.7
 49
12.7
 49
-12.7
 49
12.7
 49
-12.7
  0
LTYPE
  2
PHANTOM
 70
     0
  3
Phantom ______  __  __  ______  __  __  ______ 
 72
    65
 73
     6
 40
63.5
 49
31.75
 49
-6.35
 49
6.35
 49
-6.35
 49
6.35
 49
-6.35
  0
LTYPE
  2
PHANTOM2
 70
     0
  3
Phantom (.5x) ___ _ _ ___ _ _ ___ _ _ ___ _ _
 72
    65
 73
     6
 40
31.75
 49
15.875
 49
-3.175
 49
3.175
 49
-3.175
 49
3.175
 49
-3.175
  0
LTYPE
  2
ACAD_ISO06W100
 70
     0
  3
ISO long-dash triple-dot ____ ... ____ ... ____
 72
    65
 73
     8
 40
36.0
 49
24.0
 49
-3.0
 49
0.0
 49
-3.0
 49
0.0
 49
-3.0
 49
0.0
 49
-3.0
  0
LTYPE
  2
ACAD_ISO13W100
 70
     0
  3
ISO double-dash double-dot __ __ . . __ __ . . _
 72
    65
 73
     8
 40
36.0
 49
12.0
 49
-3.0
 49
12.0
 49
-3.0
 49
0.0
 49
-3.0
 49
0.0
 49
-3.0
  0
LTYPE
  2
ACAD_ISO14W100
 70
     0
  3
ISO dash triple-dot __ . . . __ . . . __ . . . _
 72
    65
 73
     8
 40
24.0
 49
12.0
 49
-3.0
 49
0.0
 49
-3.0
 49
0.0
 49
-3.0
 49
0.0
 49
-3.0
  0
LTYPE
  2
ACAD_ISO02W100
 70
     0
  3
ISO dash __ __ __ __ __ __ __ __ __ __ __ __ __
 72
    65
 73
     2
 40
15.0
 49
12.0
 49
-3.0
  0
LTYPE
  2
ACAD_ISO03W100
 70
     0
  3
ISO dash space __    __    __    __    __    __
 72
    65
 73
     2
 40
30.0
 49
12.0
 49
-18.0
  0
LTYPE
  2
ACAD_ISO04W100
 70
     0
  3
ISO long-dash dot ____ . ____ . ____ . ____ . _
 72
    65
 73
     4
 40
30.0
 49
24.0
 49
-3.0
 49
0.0
 49
-3.0
  0
LTYPE
  2
ACAD_ISO05W100
 70
     0
  3
ISO long-dash double-dot ____ .. ____ .. ____ . 
 72
    65
 73
     6
 40
33.0
 49
24.0
 49
-3.0
 49
0.0
 49
-3.0
 49
0.0
 49
-3.0
  0
LTYPE
  2
ACAD_ISO07W100
 70
     0
  3
ISO dot . . . . . . . . . . . . . . . . . . . . 
 72
    65
 73
     2
 40
3.0
 49
0.0
 49
-3.0
  0
LTYPE
  2
ACAD_ISO08W100
 70
     0
  3
ISO long-dash short-dash ____ __ ____ __ ____ _
 72
    65
 73
     4
 40
36.0
 49
24.0
 49
-3.0
 49
6.0
 49
-3.0
  0
LTYPE
  2
ACAD_ISO09W100
 70
     0
  3
ISO long-dash double-short-dash ____ __ __ ____
 72
    65
 73
     6
 40
45.0
 49
24.0
 49
-3.0
 49
6.0
 49
-3.0
 49
6.0
 49
-3.0
  0
LTYPE
  2
ACAD_ISO10W100
 70
     0
  3
ISO dash dot __ . __ . __ . __ . __ . __ . __ . 
 72
    65
 73
     4
 40
18.0
 49
12.0
 49
-3.0
 49
0.0
 49
-3.0
  0
LTYPE
  2
ACAD_ISO11W100
 70
     0
  3
ISO double-dash dot __ __ . __ __ . __ __ . __ _
 72
    65
 73
     6
 40
33.0
 49
12.0
 49
-3.0
 49
12.0
 49
-3.0
 49
0.0
 49
-3.0
  0
LTYPE
  2
ACAD_ISO12W100
 70
     0
  3
ISO dash double-dot __ . . __ . . __ . . __ . . 
 72
    65
 73
     6
 40
21.0
 49
12.0
 49
-3.0
 49
0.0
 49
-3.0
 49
0.0
 49
-3.0
  0
LTYPE
  2
ACAD_ISO15W100
 70
     0
  3
ISO double-dash triple-dot __ __ . . . __ __ . .
 72
    65
 73
    10
 40
39.0
 49
12.0
 49
-3.0
 49
12.0
 49
-3.0
 49
0.0
 49
-3.0
 49
0.0
 49
-3.0
 49
0.0
 49
-3.0
  0
LTYPE
  2
JIS_02_0_7
 70
     0
  3
HIDDEN0.75 _ _ _ _ _ _ _ _ _ _ _ _ _ _ _ _ _ 
 72
    65
 73
     2
 40
1.35
 49
0.75
 49
-0.6
  0
LTYPE
  2
JIS_02_1_0
 70
     0
  3
HIDDEN01 _ _ _ _ _ _ _ _ _ _ _ _ _ _ _ _ _ 
 72
    65
 73
     2
 40
2.0
 49
1.0
 49
-1.0
  0
LTYPE
  2
JIS_02_1_2
 70
     0
  3
HIDDEN01.25  _ _ _ _ _ _ _ _ _ _ _ _ _ _ _ _ _ 
 72
    65
 73
     2
 40
2.5
 49
1.25
 49
-1.25
  0
LTYPE
  2
JIS_02_2_0
 70
     0
  3
HIDDEN02 __ __ __ __ __ __ __ __ __ __ __ 
 72
    65
 73
     2
 40
3.0
 49
2.0
 49
-1.0
  0
LTYPE
  2
JIS_02_4_0
 70
     0
  3
HIDDEN04 ____ ____ ____ ____ ____ ____ ____ 
 72
    65
 73
     2
 40
5.5
 49
4.0
 49
-1.5
  0
LTYPE
  2
JIS_08_11
 70
     0
  3
1SASEN11 ___ _ ___ _ ___ _ ___ _ ___ _ ___
 72
    65
 73
     4
 40
12.8
 49
11.0
 49
-0.6
 49
0.6
 49
-0.6
  0
LTYPE
  2
JIS_08_15
 70
     0
  3
1SASEN15 ____ _ ____ _ ____ _ ____ _ ____ 
 72
    65
 73
     4
 40
17.25
 49
15.0
 49
-0.75
 49
0.75
 49
-0.75
  0
LTYPE
  2
JIS_08_25
 70
     0
  3
1SASEN25 ________  __  ________  __  _____
 72
    65
 73
     4
 40
28.0
 49
25.0
 49
-1.125
 49
0.75
 49
-1.125
  0
LTYPE
  2
JIS_08_37
 70
     0
  3
1SASEN37 ________  __  ________  __  _____
 72
    65
 73
     4
 40
40.5
 49
37.5
 49
-1.125
 49
0.75
 49
-1.125
  0
LTYPE
  2
JIS_08_50
 70
     0
  3
1SASEN50 _______________  __  ____________
 72
    65
 73
     4
 40
53.0
 49
50.0
 49
-1.125
 49
0.75
 49
-1.125
  0
LTYPE
  2
JIS_09_08
 70
     0
  3
2SASEN8 __ _ _ __ _ _ __ _ _ __ _ _ __ _ _ 
 72
    65
 73
     6
 40
10.75
 49
8.0
 49
-0.55
 49
0.55
 49
-0.55
 49
0.55
 49
-0.55
  0
LTYPE
  2
JIS_09_15
 70
     0
  3
2SASEN15 ___ _ _ ___ _ _ ___ _ _ ___ _ _ ___ 
 72
    65
 73
     6
 40
18.9
 49
15.0
 49
-0.9
 49
0.6
 49
-0.9
 49
0.6
 49
-0.9
  0
LTYPE
  2
JIS_09_29
 70
     0
  3
2SASEN29 ______　__  __  ______　__  __  ___
 72
    65
 73
     6
 40
34.0
 49
29.0
 49
-1.2
 49
0.7
 49
-1.2
 49
0.7
 49
-1.2
  0
LTYPE
  2
JIS_09_50
 70
     0
  3
2SASEN50 ____________　__  __  _____________
 72
    65
 73
     6
 40
55.0
 49
50.0
 49
-1.2
 49
0.7
 49
-1.2
 49
0.7
 49
-1.2
  0
LTYPE
  2
SXF_破線
 70
     0
  3
02 dashed -- -- -- -- -- --
 72
    65
 73
     2
 40
7.5
 49
6.0
 49
-1.5
  0
LTYPE
  2
SXF_跳び破線
 70
     0
  3
03 dashed_spaced --  --  --  --
 72
    65
 73
     2
 40
12.0
 49
6.0
 49
-6.0
  0
LTYPE
  2
SXF_一点長鎖線
 70
     0
  3
04 long_dashed_dotted ---- . ---- . ----
 72
    65
 73
     4
 40
15.25
 49
12.0
 49
-1.5
 49
0.25
 49
-1.5
  0
LTYPE
  2
SXF_二点長鎖線
 70
     0
  3
05 long_dashed_double-dotted ---- . . ---- 
 72
    65
 73
     6
 40
17.0
 49
12.0
 49
-1.5
 49
0.25
 49
-1.5
 49
0.25
 49
-1.5
  0
LTYPE
  2
SXF_三点長鎖線
 70
     0
  3
06 long_dashed_triplicate-dotted ---- ... ---- 
 72
    65
 73
     8
 40
18.75
 49
12.0
 49
-1.5
 49
0.25
 49
-1.5
 49
0.25
 49
-1.5
 49
0.25
 49
-1.5
  0
LTYPE
  2
SXF_点線
 70
     0
  3
07 dotted . . . . . . . . . . . . 
 72
    65
 73
     2
 40
1.75
 49
0.25
 49
-1.5
  0
LTYPE
  2
SXF_一点鎖線
 70
     0
  3
08 chain ---- - --- - --- - ---
 72
    65
 73
     4
 40
18.5
 49
12.0
 49
-1.5
 49
3.5
 49
-1.5
  0
LTYPE
  2
SXF_二点鎖線
 70
     0
  3
09 chain_double_dash ---- - - ---- - - ----
 72
    65
 73
     6
 40
23.5
 49
12.0
 49
-1.5
 49
3.5
 49
-1.5
 49
3.5
 49
-1.5
  0
LTYPE
  2
SXF_一点短鎖線
 70
     0
  3
10 dashed_dotted -- . -- . -- . --
 72
    65
 73
     4
 40
9.25
 49
6.0
 49
-1.5
 49
0.25
 49
-1.5
  0
LTYPE
  2
SXF_一点二短鎖線
 70
     0
  3
11 double-dashed_dotted -- -- . -- --
 72
    65
 73
     6
 40
16.75
 49
6.0
 49
-1.5
 49
6.0
 49
-1.5
 49
0.25
 49
-1.5
  0
LTYPE
  2
SXF_二点短鎖線
 70
     0
  3
12 dashed_double_dotted -- . . -- . . --
 72
    65
 73
     6
 40
11.0
 49
6.0
 49
-1.5
 49
0.25
 49
-1.5
 49
0.25
 49
-1.5
  0
LTYPE
  2
SXF_二点二短鎖線
 70
     0
  3
13 double-dashed_double-dotted -- -- . . -- --
 72
    65
 73
     8
 40
18.5
 49
6.0
 49
-1.5
 49
6.0
 49
-1.5
 49
0.25
 49
-1.5
 49
0.25
 49
-1.5
  0
LTYPE
  2
SXF_三点短鎖線
 70
     0
  3
14 dashed triplicate-dotted -- . . . -- . . . --
 72
    65
 73
     8
 40
12.75
 49
6.0
 49
-1.5
 49
0.25
 49
-1.5
 49
0.25
 49
-1.5
 49
0.25
 49
-1.5
  0
LTYPE
  2
SXF_三点二短鎖線
 70
     0
  3
15 double-dashed triplicate-dotted -- -- . . . -- -- 
 72
    65
 73
    10
 40
20.25
 49
6.0
 49
-1.5
 49
6.0
 49
-1.5
 49
0.25
 49
-1.5
 49
0.25
 49
-1.5
 49
0.25
 49
-1.5
  0
ENDTAB
  0
TABLE
  2
LAYER
 70
     3
  0
LAYER
  2
0
 70
     0
 62
     7
  6
CONTINUOUS
  0
LAYER
  2
LAYER0014
 70
     0
 62
     7
  6
CONTINUOUS
  0
LAYER
  2
ZUWAKU
 70
     0
 62
     7
  6
CONTINUOUS
  0
ENDTAB
  0
TABLE
  2
STYLE
 70
     5
  0
STYLE
  2
STANDARD
 70
     0
 40
0.0
 41
1.0
 50
0.0
 71
     0
 42
0.2
  3
txt.shx
  4
bigfont.shx
  0
STYLE
  2
DCSTYLE0
 70
     0
 40
0.0
 41
0.8000000000000002
 50
0.0
 71
     0
 42
0.2
  3
txt.shx
  4
bigfont
  0
STYLE
  2
DCSTYLE1
 70
     4
 40
0.0
 41
0.8
 50
0.0
 71
     0
 42
0.2
  3
txt.shx
  4
bigfont
  0
STYLE
  2
DCSTYLE2
 70
     0
 40
0.0
 41
0.8123476848090982
 50
0.0
 71
     0
 42
0.2
  3
ＭＳ 明朝
  4

  0
STYLE
  2
DCSTYLE3
 70
     0
 40
0.0
 41
0.77
 50
0.0
 71
     0
 42
0.2
  3
ＭＳ ゴシック
  4

  0
ENDTAB
  0
TABLE
  2
VIEW
 70
     0
  0
ENDTAB
  0
TABLE
  2
UCS
 70
     0
  0
ENDTAB
  0
TABLE
  2
APPID
 70
     2
  0
APPID
  2
ACAD
 70
     0
  0
APPID
  2
DAFUSIONOUT
 70
     0
  0
ENDTAB
  0
TABLE
  2
DIMSTYLE
 70
     1
  0
DIMSTYLE
  2
STANDARD
 70
     0
  3

  4

  5

  6

  7

 40
1.0
 41
0.18
 42
0.0625
 43
0.38
 44
0.18
 45
0.0
 46
0.0
 47
0.0
 48
0.0
140
0.18
141
0.09
142
0.0
143
25.4
144
1.0
145
0.0
146
1.0
147
0.09
 71
     0
 72
     0
 73
     1
 74
     1
 75
     0
 76
     0
 77
     0
 78
     0
170
     0
171
     2
172
     0
173
     0
174
     0
175
     0
176
     0
177
     0
178
     0
  0
ENDTAB
  0
ENDSEC
  0
SECTION
  2
BLOCKS
  0
BLOCK
  8
0
  2
$MODEL_SPACE
 70
     0
 10
0.0
 20
0.0
 30
0.0
  3
$MODEL_SPACE
  1

  0
ENDBLK
  5
21
  8
0
  0
BLOCK
 67
     1
  8
0
  2
$PAPER_SPACE
 70
     0
 10
0.0
 20
0.0
 30
0.0
  3
$PAPER_SPACE
  1

  0
ENDBLK
  5
1D
 67
     1
  8
0
  0
BLOCK
  8
0
  2
DA_IMAGEDIMGROUP_1
 70
     0
 10
0.0
 20
0.0
 30
0.0
  3
DA_IMAGEDIMGROUP_1
  1

  0
LINE
  5
125
  8
LAYER0014
  6
CONTINUOUS
 62
     7
 10
-186.5547905302379
 20
135.2768906576504
 30
0.0
 11
-186.5547905302379
 21
161.5676096517911
 31
0.0
  0
LINE
  5
126
  8
LAYER0014
  6
CONTINUOUS
 62
     7
 10
-210.1569633818004
 20
159.2816141683926
 30
0.0
 11
-186.5547905302379
 21
159.2816141683926
 31
0.0
  0
LINE
  5
127
  8
LAYER0014
  6
CONTINUOUS
 62
     7
 10
-236.4888133818004
 20
159.2816141683926
 30
0.0
 11
-210.1569633818004
 21
159.2816141683926
 31
0.0
  0
INSERT
  5
12E
  8
LAYER0014
 62
     7
  2
_OPEN30
 10
-210.1569633818004
 20
159.2816141683926
 30
0.0
 41
2.499995396844351
 42
2.500007167085477
 50
360.0
  0
TEXT
  5
130
  8
LAYER0014
 62
     7
 10
-235.4888133818004
 20
159.7816141683926
 30
0.0
 40
4.0
  1
MAX23.7
 41
0.9116279069767443
  7
DCSTYLE0
 72
     5
 11
-213.0888133818004
 21
159.7816141683926
 31
0.0
  0
ENDBLK
  5
B2
  8
0
  0
BLOCK
  8
0
  2
DA_IMAGEDIMGROUP_2
 70
     0
 10
0.0
 20
0.0
 30
0.0
  3
DA_IMAGEDIMGROUP_2
  1

  0
LINE
  5
131
  8
LAYER0014
  6
CONTINUOUS
 62
     7
 10
-210.1569633818004
 20
67.27688684295316
 30
0.0
 11
-210.1569633818004
 21
171.4114206869473
 31
0.0
  0
LINE
  5
132
  8
LAYER0014
  6
CONTINUOUS
 62
     7
 10
-185.1569633818004
 20
67.27688684295316
 30
0.0
 11
-185.1569633818004
 21
171.4114206869473
 31
0.0
  0
LINE
  5
133
  8
LAYER0014
  6
CONTINUOUS
 62
     7
 10
-210.1569633818004
 20
169.1254252035489
 30
0.0
 11
-185.1569633818004
 21
169.1254252035489
 31
0.0
  0
INSERT
  5
134
  8
LAYER0014
 62
     7
  2
_OPEN30
 10
-210.1569633818004
 20
169.1254252035489
 30
0.0
 41
2.499995396844351
 42
2.500007167085477
 50
180.0
  0
INSERT
  5
135
  8
LAYER0014
 62
     7
  2
_OPEN30
 10
-185.1569633818004
 20
169.1254252035489
 30
0.0
 41
2.499995396844351
 42
2.500007167085477
 50
360.0
  0
TEXT
  5
136
  8
LAYER0014
 62
     7
 10
-208.8569633818004
 20
169.6254252035489
 30
0.0
 40
4.0
  1
ｽﾄﾛｰｸ25
 41
0.925984251968503
  7
DCSTYLE0
 72
     5
 11
-186.4569633818004
 21
169.6254252035489
 31
0.0
  0
ENDBLK
  5
B5
  8
0
  0
BLOCK
  8
0
  2
DA_IMAGEDIMGROUP_3
 70
     0
 10
0.0
 20
0.0
 30
0.0
  3
DA_IMAGEDIMGROUP_3
  1

  0
LINE
  5
137
  8
LAYER0014
  6
CONTINUOUS
 62
     7
 10
-199.9969664335582
 20
62.73688684295315
 30
0.0
 11
-214.9878349638317
 21
62.73688684295315
 31
0.0
  0
LINE
  5
138
  8
LAYER0014
  6
CONTINUOUS
 62
     7
 10
-199.9969664335582
 20
12.73688779662747
 30
0.0
 11
-214.9878349638317
 21
12.73688779662747
 31
0.0
  0
LINE
  5
139
  8
LAYER0014
  6
CONTINUOUS
 62
     7
 10
-212.7018394804333
 20
62.73688684295315
 30
0.0
 11
-212.7018394804333
 21
12.73688779662747
 31
0.0
  0
INSERT
  5
13A
  8
LAYER0014
 62
     7
  2
_OPEN30
 10
-212.7018394804333
 20
62.73688684295315
 30
0.0
 41
2.499995396844351
 42
2.500007167085477
 50
90.0
  0
INSERT
  5
13B
  8
LAYER0014
 62
     7
  2
_OPEN30
 10
-212.7018394804333
 20
12.73688779662747
 30
0.0
 41
2.499995396844351
 42
2.500007167085477
 50
270.0
  0
TEXT
  5
13C
  8
LAYER0014
 62
     7
 10
-213.2241796835168
 20
24.93690681530022
 30
0.0
 40
4.0
  1
M50×P1.5
 50
89.89999999999999
 41
0.8960000000000006
  7
DCSTYLE0
 72
     5
 11
-213.1794992773497
 21
50.53686782428041
 31
0.0
  0
ENDBLK
  5
B8
  8
0
  0
BLOCK
  8
0
  2
DA_IMAGEDIMGROUP_4
 70
     0
 10
0.0
 20
0.0
 30
0.0
  3
DA_IMAGEDIMGROUP_4
  1

  0
LINE
  5
13D
  8
LAYER0014
  6
CONTINUOUS
 62
     7
 10
-198.6969633818004
 20
66.23688684295317
 30
0.0
 11
-226.9763298368786
 21
66.23688684295317
 31
0.0
  0
LINE
  5
13E
  8
LAYER0014
  6
CONTINUOUS
 62
     7
 10
-198.6969633818004
 20
9.236887796627471
 30
0.0
 11
-226.9763298368786
 21
9.236887796627471
 31
0.0
  0
LINE
  5
13F
  8
LAYER0014
  6
CONTINUOUS
 62
     7
 10
-224.6903343534801
 20
66.23688684295317
 30
0.0
 11
-224.6903343534801
 21
9.236887796627471
 31
0.0
  0
INSERT
  5
140
  8
LAYER0014
 62
     7
  2
_OPEN30
 10
-224.6903343534801
 20
66.23688684295317
 30
0.0
 41
2.499995396844351
 42
2.500007167085477
 50
90.0
  0
INSERT
  5
141
  8
LAYER0014
 62
     7
  2
_OPEN30
 10
-224.6903343534801
 20
9.236887796627471
 30
0.0
 41
2.499995396844351
 42
2.500007167085477
 50
270.0
  0
TEXT
  5
142
  8
LAYER0014
 62
     7
 10
-225.1987119296364
 20
32.93689463060653
 30
0.0
 40
4.0
  1
φ57
 50
89.90000000000008
 41
0.9163636363636378
  7
DCSTYLE0
 72
     5
 11
-225.1819567773238
 21
42.53688000897411
 31
0.0
  0
ENDBLK
  5
BB
  8
0
  0
BLOCK
  8
0
  2
DA_IMAGEDIMGROUP_5
 70
     0
 10
0.0
 20
0.0
 30
0.0
  3
DA_IMAGEDIMGROUP_5
  1

  0
LINE
  5
143
  8
LAYER0014
  6
CONTINUOUS
 62
     7
 10
-189.0947905302379
 20
88.73689065765043
 30
0.0
 11
-238.9648247099254
 21
88.73689065765043
 31
0.0
  0
LINE
  5
144
  8
LAYER0014
  6
CONTINUOUS
 62
     7
 10
-189.0947905302379
 20
-13.26311124969821
 30
0.0
 11
-238.9648247099254
 21
-13.26311124969821
 31
0.0
  0
LINE
  5
145
  8
LAYER0014
  6
CONTINUOUS
 62
     7
 10
-236.678829226527
 20
88.73689065765043
 30
0.0
 11
-236.678829226527
 21
-13.26311124969821
 31
0.0
  0
INSERT
  5
146
  8
LAYER0014
 62
     7
  2
_OPEN30
 10
-236.678829226527
 20
88.73689065765043
 30
0.0
 41
2.499995396844351
 42
2.500007167085477
 50
90.0
  0
INSERT
  5
147
  8
LAYER0014
 62
     7
  2
_OPEN30
 10
-236.678829226527
 20
-13.26311124969821
 30
0.0
 41
2.499995396844351
 42
2.500007167085477
 50
270.0
  0
TEXT
  5
148
  8
LAYER0014
 62
     7
 10
-237.1955843788396
 20
28.13690432560855
 30
0.0
 40
4.0
  1
φ102H7
 50
89.89999999999999
 41
0.8615384615384609
  7
DCSTYLE0
 72
     5
 11
-237.1620740742144
 21
47.33687508234367
 31
0.0
  0
ENDBLK
  5
BE
  8
0
  0
BLOCK
  8
0
  2
DA_IMAGEDIMGROUP_6
 70
     0
 10
0.0
 20
0.0
 30
0.0
  3
DA_IMAGEDIMGROUP_6
  1

  0
LINE
  5
149
  8
LAYER0014
  6
CONTINUOUS
 62
     7
 10
-193.2947874784801
 20
132.7368906576504
 30
0.0
 11
-251.3400383329723
 21
132.7368906576504
 31
0.0
  0
LINE
  5
14A
  8
LAYER0014
  6
CONTINUOUS
 62
     7
 10
-193.2947874784801
 20
-57.26311315704685
 30
0.0
 11
-251.3400383329723
 21
-57.26311315704685
 31
0.0
  0
LINE
  5
14B
  8
LAYER0014
  6
CONTINUOUS
 62
     7
 10
-249.0540428495739
 20
132.7368906576504
 30
0.0
 11
-249.0540428495739
 21
-57.26311315704685
 31
0.0
  0
INSERT
  5
14C
  8
LAYER0014
 62
     7
  2
_OPEN30
 10
-249.0540428495739
 20
132.7368906576504
 30
0.0
 41
2.499995396844351
 42
2.500007167085477
 50
90.0
  0
INSERT
  5
14D
  8
LAYER0014
 62
     7
  2
_OPEN30
 10
-249.0540428495739
 20
-57.26311315704685
 30
0.0
 41
2.499995396844351
 42
2.500007167085477
 50
270.0
  0
TEXT
  5
14E
  8
LAYER0014
 62
     7
 10
-249.5707980018865
 20
28.13690337193422
 30
0.0
 40
4.0
  1
φ190H7
 50
89.89999999999999
 41
0.8615384615384621
  7
DCSTYLE0
 72
     5
 11
-249.5372876972613
 21
47.33687412866936
 31
0.0
  0
ENDBLK
  5
C1
  8
0
  0
BLOCK
  8
0
  2
DA_IMAGEDIMGROUP_7
 70
     0
 10
0.0
 20
0.0
 30
0.0
  3
DA_IMAGEDIMGROUP_7
  1

  0
LINE
  5
14F
  8
LAYER0014
  6
CONTINUOUS
 62
     7
 10
-193.2947874784801
 20
145.2368906576504
 30
0.0
 11
-263.7152824735973
 21
145.2368906576504
 31
0.0
  0
LINE
  5
150
  8
LAYER0014
  6
CONTINUOUS
 62
     7
 10
-193.2947874784801
 20
-69.76310934234957
 30
0.0
 11
-263.7152824735973
 21
-69.76310934234957
 31
0.0
  0
LINE
  5
151
  8
LAYER0014
  6
CONTINUOUS
 62
     7
 10
-261.4292717314098
 20
145.2368906576504
 30
0.0
 11
-261.4292717314098
 21
-69.76310934234957
 31
0.0
  0
INSERT
  5
152
  8
LAYER0014
 62
     7
  2
_OPEN30
 10
-261.4292717314098
 20
145.2368906576504
 30
0.0
 41
2.499995396844351
 42
2.500007167085477
 50
90.0
  0
INSERT
  5
153
  8
LAYER0014
 62
     7
  2
_OPEN30
 10
-261.4292717314098
 20
-69.76310934234957
 30
0.0
 41
2.499995396844351
 42
2.500007167085477
 50
270.0
  0
TEXT
  5
154
  8
LAYER0014
 62
     7
 10
-261.9404418329516
 20
31.33690040540542
 30
0.0
 40
4.0
  1
φ215
 50
89.89999999999999
 41
0.8959999999999988
  7
DCSTYLE0
 72
     5
 11
-261.9181016298681
 21
44.13688090989548
 31
0.0
  0
ENDBLK
  5
C4
  8
0
  0
BLOCK
  8
0
  2
DA_IMAGEDIMGROUP_8
 70
     0
 10
0.0
 20
0.0
 30
0.0
  3
DA_IMAGEDIMGROUP_8
  1

  0
LINE
  5
155
  8
LAYER0014
  6
CONTINUOUS
 62
     7
 10
-165.6169633818004
 20
60.23688684295315
 30
0.0
 11
-148.6079979276989
 21
60.23688684295315
 31
0.0
  0
LINE
  5
156
  8
LAYER0014
  6
CONTINUOUS
 62
     7
 10
-165.6169633818004
 20
15.23688779662747
 30
0.0
 11
-148.6079979276989
 21
15.23688779662747
 31
0.0
  0
LINE
  5
157
  8
LAYER0014
  6
CONTINUOUS
 62
     7
 10
-150.8939934110973
 20
60.23688684295315
 30
0.0
 11
-150.8939934110973
 21
15.23688779662747
 31
0.0
  0
INSERT
  5
158
  8
LAYER0014
 62
     7
  2
_OPEN30
 10
-150.8939934110973
 20
60.23688684295315
 30
0.0
 41
2.499995396844351
 42
2.500007167085477
 50
90.0
  0
INSERT
  5
159
  8
LAYER0014
 62
     7
  2
_OPEN30
 10
-150.8939934110973
 20
15.23688779662747
 30
0.0
 41
2.499995396844351
 42
2.500007167085477
 50
270.0
  0
TEXT
  5
15A
  8
LAYER0014
 62
     7
 10
-151.4023709872536
 20
32.93689463060652
 30
0.0
 40
4.0
  1
φ45
 50
89.90000000000008
 41
0.9163636363636385
  7
DCSTYLE0
 72
     5
 11
-151.385615834941
 21
42.53688000897411
 31
0.0
  0
ENDBLK
  5
C7
  8
0
  0
BLOCK
  8
0
  2
DA_IMAGEDIMGROUP_9
 70
     0
 10
0.0
 20
0.0
 30
0.0
  3
DA_IMAGEDIMGROUP_9
  1

  0
LINE
  5
15B
  8
LAYER0014
  6
CONTINUOUS
 62
     7
 10
-62.0147943449352
 20
-18.26311124969821
 30
0.0
 11
-32.17586139205434
 21
-18.26311124969821
 31
0.0
  0
LINE
  5
15C
  8
LAYER0014
  6
CONTINUOUS
 62
     7
 10
-34.46186069015005
 20
-18.26311124969821
 30
0.0
 11
-34.46186069015005
 21
69.73689065765043
 31
0.0
  0
INSERT
  5
15D
  8
LAYER0014
 62
     7
  2
_OPEN30
 10
-34.46186069015005
 20
-18.26311124969821
 30
0.0
 41
2.499995396844351
 42
2.500007167085477
 50
270.0
  0
TEXT
  5
15E
  8
LAYER0014
 62
     7
 10
-34.96186069015005
 20
25.65718194254441
 30
0.0
 40
4.0
  1
φ112.1
 50
90.0
 41
1.018181818181818
  7
DCSTYLE0
 72
     5
 11
-34.96186069015005
 21
44.85718194254441
 31
0.0
  0
TEXT
  5
15F
  8
LAYER0014
 62
     7
 10
-37.46186069015005
 20
45.35718194254441
 30
0.0
 40
2.6
  1
+0.1
 50
90.0
 41
1.002985074626866
  7
DCSTYLE0
 72
     5
 11
-37.46186069015005
 21
53.67718194254441
 31
0.0
  0
TEXT
  5
160
  8
LAYER0014
 62
     7
 10
-34.76186069015004
 20
45.35718194254441
 30
0.0
 40
2.6
  1
 0
 50
90.0
 41
0.8842105263157887
  7
DCSTYLE0
 72
     5
 11
-34.76186069015004
 21
49.51718194254441
 31
0.0
  0
ENDBLK
  5
CA
  8
0
  0
BLOCK
  8
0
  2
DA_IMAGEDIMGROUP_10
 70
     0
 10
0.0
 20
0.0
 30
0.0
  3
DA_IMAGEDIMGROUP_10
  1

  0
LINE
  5
161
  8
LAYER0014
  6
CONTINUOUS
 62
     7
 10
-30.77262210372427
 20
37.73688684295315
 30
0.0
 11
-22.50918963912466
 21
37.73688684295315
 31
0.0
  0
LINE
  5
162
  8
LAYER0014
  6
CONTINUOUS
 62
     7
 10
-63.0147943449352
 20
87.73689065765043
 30
0.0
 11
-22.50918963912466
 21
87.73689065765043
 31
0.0
  0
LINE
  5
163
  8
LAYER0014
  6
CONTINUOUS
 62
     7
 10
-24.79518893722036
 20
37.73688684295315
 30
0.0
 11
-24.79518893722036
 21
87.73689065765043
 31
0.0
  0
INSERT
  5
164
  8
LAYER0014
 62
     7
  2
_OPEN30
 10
-24.79518893722036
 20
37.73688684295315
 30
0.0
 41
2.499995396844351
 42
2.500007167085477
 50
270.0
  0
INSERT
  5
165
  8
LAYER0014
 62
     7
  2
_OPEN30
 10
-24.79518893722036
 20
87.73689065765043
 30
0.0
 41
2.499995396844351
 42
2.500007167085477
 50
90.0
  0
TEXT
  5
166
  8
LAYER0014
 62
     7
 10
-25.30077398799123
 20
59.50451923776254
 30
0.0
 40
4.0
  1
50
 50
89.90000000000002
 41
0.9081081081081078
  7
DCSTYLE0
 72
     5
 11
-25.28960388644948
 21
65.90450949000758
 31
0.0
  0
ENDBLK
  5
CD
  8
0
  0
BLOCK
  8
0
  2
DA_IMAGEDIMGROUP_11
 70
     0
 10
0.0
 20
0.0
 30
0.0
  3
DA_IMAGEDIMGROUP_11
  1

  0
LINE
  5
167
  8
LAYER0014
  6
CONTINUOUS
 62
     7
 10
-63.0147943449352
 20
145.2368906576504
 30
0.0
 11
-22.50918963912466
 21
145.2368906576504
 31
0.0
  0
LINE
  5
168
  8
LAYER0014
  6
CONTINUOUS
 62
     7
 10
-24.79518893722036
 20
87.73689065765043
 30
0.0
 11
-24.79518893722036
 21
145.2368906576504
 31
0.0
  0
INSERT
  5
169
  8
LAYER0014
 62
     7
  2
_OPEN30
 10
-24.79518893722036
 20
87.73689065765043
 30
0.0
 41
2.499995396844351
 42
2.500007167085477
 50
270.0
  0
INSERT
  5
16A
  8
LAYER0014
 62
     7
  2
_OPEN30
 10
-24.79518893722036
 20
145.2368906576504
 30
0.0
 41
2.499995396844351
 42
2.500007167085477
 50
90.0
  0
TEXT
  5
16B
  8
LAYER0014
 62
     7
 10
-25.30635903876211
 20
110.0869004054054
 30
0.0
 40
4.0
  1
57.5
 50
89.9
 41
1.002985074626865
  7
DCSTYLE0
 72
     5
 11
-25.28401883567861
 21
122.8868809098955
 31
0.0
  0
ENDBLK
  5
D0
  8
0
  0
BLOCK
  8
0
  2
DC_GROUP_1
 70
     0
 10
0.0
 20
0.0
 30
0.0
  3
DC_GROUP_1
  1

  0
LINE
  5
16C
  8
LAYER0014
  6
CONTINUOUS
 62
     7
 10
-65.79518915245546
 20
142.6884306389426
 30
0.0
 11
-44.79519579891814
 21
169.0217532159874
 31
0.0
  0
INSERT
  5
16D
  8
LAYER0014
 62
     7
  2
_OPEN30
 10
-65.79518915245546
 20
142.6884306389426
 30
0.0
 41
2.499995396844351
 42
2.500007167085477
 50
231.4287451801885
  0
LINE
  5
16E
  8
LAYER0014
  6
CONTINUOUS
 62
     7
 10
-44.79520038131216
 20
169.0217569906582
 30
0.0
 11
2.833365883794045
 21
169.0217569906582
 31
0.0
  0
TEXT
  5
16F
  8
LAYER0014
 62
     7
 10
-43.79520419600942
 20
170.6217569906582
 30
0.0
 40
4.0
  1
ｾﾚｰｼｮﾝP1.5山60ﾟ
 41
0.9333333333333335
  7
DCSTYLE0
 72
     5
 11
1.004795803990582
 21
170.6217569906582
 31
0.0
  0
ENDBLK
  5
D3
  8
0
  0
BLOCK
  8
0
  2
DC_GROUP_2
 70
     0
 10
0.0
 20
0.0
 30
0.0
  3
DC_GROUP_2
  1

  0
LINE
  5
170
  8
LAYER0014
  6
CONTINUOUS
 62
     7
 10
171.1925722772152
 20
-34.91376678244374
 30
0.0
 11
204.420935014184
 21
-91.38026991574938
 31
0.0
  0
INSERT
  5
171
  8
LAYER0014
 62
     7
  2
_OPEN30
 10
171.1925722772152
 20
-34.91376678244374
 30
0.0
 41
2.499995396844351
 42
2.500007167085477
 50
120.4751725263615
  0
LINE
  5
172
  8
LAYER0014
  6
CONTINUOUS
 62
     7
 10
204.4209327363637
 20
-91.38025869537674
 30
0.0
 11
236.3525886201528
 21
-91.38025869537671
 31
0.0
  0
TEXT
  5
173
  8
LAYER0014
 62
     7
 10
205.7240180635121
 20
-89.78025869537692
 30
0.0
 40
4.0
  1
PCD133.35
 41
0.8894117647058826
  7
DCSTYLE0
 72
     5
 11
234.5240180635121
 21
-89.78025869537692
 31
0.0
  0
ENDBLK
  5
D6
  8
0
  0
BLOCK
  8
0
  2
DC_GROUP_3
 70
     0
 10
0.0
 20
0.0
 30
0.0
  3
DC_GROUP_3
  1

  0
LINE
  5
174
  8
LAYER0014
  6
CONTINUOUS
 62
     7
 10
-53.18954006901697
 20
135.9130791047347
 30
0.0
 11
-38.3647059477322
 21
154.9192630657036
 31
0.0
  0
INSERT
  5
175
  8
LAYER0014
 62
     7
  2
_OPEN30
 10
-53.18954006901697
 20
135.9130791047347
 30
0.0
 41
2.499995396844351
 42
2.500007167085477
 50
232.0457491980739
  0
LINE
  5
176
  8
LAYER0014
  6
CONTINUOUS
 62
     7
 10
-38.36470416549184
 20
154.9192637045254
 30
0.0
 11
-26.93503573897817
 21
154.9192637045254
 31
0.0
  0
TEXT
  5
177
  8
LAYER0014
 62
     7
 10
-37.60446170333364
 20
156.5192637045254
 30
0.0
 40
4.0
  1
M10
 41
0.8262295081967216
  7
DCSTYLE0
 72
     5
 11
-28.00446170333364
 21
156.5192637045254
 31
0.0
  0
ENDBLK
  5
D9
  8
0
  0
BLOCK
  8
0
  2
DA_IMAGEDIMGROUP_12
 70
     0
 10
0.0
 20
0.0
 30
0.0
  3
DA_IMAGEDIMGROUP_12
  1

  0
LINE
  5
178
  8
LAYER0014
  6
CONTINUOUS
 62
     7
 10
-73.51479815963246
 20
-3.263112203372529
 30
0.0
 11
-43.00211337569692
 21
-3.263112203372529
 31
0.0
  0
LINE
  5
179
  8
LAYER0014
  6
CONTINUOUS
 62
     7
 10
-45.28811267379263
 20
-3.263112203372529
 30
0.0
 11
-45.28811267379263
 21
69.73689065765043
 31
0.0
  0
INSERT
  5
17A
  8
LAYER0014
 62
     7
  2
_OPEN30
 10
-45.28811267379263
 20
-3.263112203372529
 30
0.0
 41
2.499995396844351
 42
2.500007167085477
 50
270.0
  0
TEXT
  5
17B
  8
LAYER0014
 62
     7
 10
-45.80207530071981
 20
25.23690141183265
 30
0.0
 40
4.0
  1
φ82H7
 50
89.90000000000002
 41
0.8659793814432992
  7
DCSTYLE0
 72
     5
 11
-45.77415004686544
 21
41.23687704244526
 31
0.0
  0
ENDBLK
  5
DC
  8
0
  0
BLOCK
  8
0
  2
DC_GROUP_4
 70
     0
 10
0.0
 20
0.0
 30
0.0
  3
DC_GROUP_4
  1

  0
LINE
  5
17C
  8
LAYER0014
  6
CONTINUOUS
 62
     7
 10
147.3029007756831
 20
-14.71612116505683
 30
0.0
 11
122.1101536790331
 21
-91.38025633249671
 31
0.0
  0
INSERT
  5
17D
  8
LAYER0014
 62
     7
  2
_OPEN30
 10
147.3029007756831
 20
-14.71612116505683
 30
0.0
 41
2.499995396844351
 42
2.500007167085477
 50
71.80886144586795
  0
LINE
  5
17E
  8
LAYER0014
  6
CONTINUOUS
 62
     7
 10
122.1101569795277
 20
-91.38025869537685
 30
0.0
 11
86.54415508743789
 21
-91.38025869537688
 31
0.0
  0
TEXT
  5
17F
  8
LAYER0014
 62
     7
 10
89.28700729843638
 20
-89.78025869537692
 30
0.0
 40
4.0
  1
3-M8 PCD97
 41
0.7962085308056872
  7
DCSTYLE0
 72
     5
 11
121.2870072984364
 21
-89.78025869537692
 31
0.0
  0
ENDBLK
  5
DF
  8
0
  0
BLOCK
  8
0
  2
DA_IMAGEDIMGROUP_13
 70
     0
 10
0.0
 20
0.0
 30
0.0
  3
DA_IMAGEDIMGROUP_13
  1

  0
LINE
  5
180
  8
LAYER0014
  6
CONTINUOUS
 62
     7
 10
141.8119086885121
 20
166.5717262588709
 30
0.0
 11
155.8119086885121
 21
166.5717262588709
 31
0.0
  0
INSERT
  5
181
  8
LAYER0014
 62
     7
  2
_OPEN30
 10
141.8119086885121
 20
166.5717262588709
 30
0.0
 41
2.499995396844351
 42
2.500007167085477
 50
180.0
  0
INSERT
  5
182
  8
LAYER0014
 62
     7
  2
_OPEN30
 10
155.8119086885121
 20
166.5717262588709
 30
0.0
 41
2.499995396844351
 42
2.500007167085477
 50
360.0
  0
LINE
  5
183
  8
LAYER0014
  6
CONTINUOUS
 62
     7
 10
141.8119086885121
 20
147.7768906576504
 30
0.0
 11
141.8119086885121
 21
167.5717262588709
 31
0.0
  0
LINE
  5
184
  8
LAYER0014
  6
CONTINUOUS
 62
     7
 10
155.8119086885121
 20
147.7768906576504
 30
0.0
 11
155.8119086885121
 21
167.5717262588709
 31
0.0
  0
TEXT
  5
185
  8
LAYER0014
 62
     7
 10
142.4119086885121
 20
167.0717262588709
 30
0.0
 40
4.0
  1
14H8
 41
0.8506329113924058
  7
DCSTYLE0
 72
     5
 11
155.2119086885121
 21
167.0717262588709
 31
0.0
  0
ENDBLK
  5
E2
  8
0
  0
BLOCK
  8
0
  2
DA_IMAGEDIMGROUP_14
 70
     0
 10
0.0
 20
0.0
 30
0.0
  3
DA_IMAGEDIMGROUP_14
  1

  0
LINE
  5
186
  8
LAYER0014
  6
CONTINUOUS
 62
     7
 10
131.3119086885121
 20
174.0772367041208
 30
0.0
 11
166.3119086885121
 21
174.0772367041208
 31
0.0
  0
INSERT
  5
187
  8
LAYER0014
 62
     7
  2
_OPEN30
 10
131.3119086885121
 20
174.0772367041208
 30
0.0
 41
2.499995396844351
 42
2.500007167085477
 50
180.0
  0
INSERT
  5
188
  8
LAYER0014
 62
     7
  2
_OPEN30
 10
166.3119086885121
 20
174.0772367041208
 30
0.0
 41
2.499995396844351
 42
2.500007167085477
 50
360.0
  0
LINE
  5
189
  8
LAYER0014
  6
CONTINUOUS
 62
     7
 10
131.3119086885121
 20
147.7768906576504
 30
0.0
 11
131.3119086885121
 21
175.0772367041208
 31
0.0
  0
LINE
  5
18A
  8
LAYER0014
  6
CONTINUOUS
 62
     7
 10
166.3119086885121
 20
147.7768906576504
 30
0.0
 11
166.3119086885121
 21
175.0772367041208
 31
0.0
  0
TEXT
  5
18B
  8
LAYER0014
 62
     7
 10
145.6119086885121
 20
174.5772367041208
 30
0.0
 40
4.0
  1
35
 41
0.9081081081081049
  7
DCSTYLE0
 72
     5
 11
152.0119086885121
 21
174.5772367041208
 31
0.0
  0
ENDBLK
  5
E5
  8
0
  0
BLOCK
  8
0
  2
DA_IMAGEDIMGROUP_15
 70
     0
 10
0.0
 20
0.0
 30
0.0
  3
DA_IMAGEDIMGROUP_15
  1

  0
LINE
  5
18C
  8
LAYER0014
  6
CONTINUOUS
 62
     7
 10
32.80876659937158
 20
-59.25976709351647
 30
0.0
 11
44.67951963645186
 21
-52.40618450906491
 31
0.0
  0
LINE
  5
18D
  8
LAYER0014
  6
CONTINUOUS
 62
     7
 10
41.80876742527775
 20
-74.84822360501394
 30
0.0
 11
53.67951963645186
 21
-67.99464149739956
 31
0.0
  0
LINE
  5
18E
  8
LAYER0014
  6
CONTINUOUS
 62
     7
 10
43.81349424821104
 20
-52.90618450906491
 30
0.0
 11
52.81349424821104
 21
-68.49464149739956
 31
0.0
  0
INSERT
  5
18F
  8
LAYER0014
 62
     7
  2
_OPEN30
 10
43.81349424821104
 20
-52.90618450906491
 30
0.0
 41
2.499995396844351
 42
2.500007167085477
 50
120.0000004452921
  0
INSERT
  5
190
  8
LAYER0014
 62
     7
  2
_OPEN30
 10
52.81349424821104
 20
-68.49464149739956
 30
0.0
 41
2.499995396844351
 42
2.500007167085477
 50
300.0000004452921
  0
TEXT
  5
191
  8
LAYER0014
 62
     7
 10
46.34650694816031
 20
-56.29349106170163
 30
0.0
 40
4.0
  1
φ18
 50
300.0
 41
0.9163636363636377
  7
DCSTYLE0
 72
     5
 11
51.14650694816032
 21
-64.60733493803225
 31
0.0
  0
ENDBLK
  5
E8
  8
0
  0
BLOCK
  8
0
  2
DA_IMAGEDIMGROUP_16
 70
     0
 10
0.0
 20
0.0
 30
0.0
  3
DA_IMAGEDIMGROUP_16
  1

  0
LINE
  5
192
  8
LAYER0014
  6
CONTINUOUS
 62
     7
 10
-38.13229846480825
 20
101.2368906576504
 30
0.0
 11
-33.56347087386587
 21
101.2368906576504
 31
0.0
  0
LINE
  5
193
  8
LAYER0014
  6
CONTINUOUS
 62
     7
 10
-34.56347087386587
 20
101.2368906576504
 30
0.0
 11
-34.56347087386587
 21
87.73689065765043
 31
0.0
  0
INSERT
  5
194
  8
LAYER0014
 62
     7
  2
_OPEN30
 10
-34.56347087386587
 20
101.2368906576504
 30
0.0
 41
2.499995396844351
 42
2.500007167085477
 50
90.0
  0
INSERT
  5
195
  8
LAYER0014
 62
     7
  2
_OPEN30
 10
-34.56347087386587
 20
87.73689065765043
 30
0.0
 41
2.499995396844351
 42
2.500007167085477
 50
270.0
  0
TEXT
  5
196
  8
LAYER0014
 62
     7
 10
-35.06347087386587
 20
87.92001823985407
 30
0.0
 40
4.0
  1
 10
 50
90.0
 41
0.8689655172413788
  7
DCSTYLE0
 72
     5
 11
-35.06347087386587
 21
97.52001823985407
 31
0.0
  0
ENDBLK
  5
EB
  8
0
  0
BLOCK
  8
0
  2
DA_IMAGEDIMGROUP_17
 70
     0
 10
0.0
 20
0.0
 30
0.0
  3
DA_IMAGEDIMGROUP_17
  1

  0
LINE
  5
197
  8
LAYER0014
  6
CONTINUOUS
 62
     7
 10
-38.3109369230602
 20
131.2368906576504
 30
0.0
 11
-33.56347087386587
 21
131.2368906576504
 31
0.0
  0
LINE
  5
198
  8
LAYER0014
  6
CONTINUOUS
 62
     7
 10
-34.56347087386587
 20
101.2368906576504
 30
0.0
 11
-34.56347087386587
 21
131.2368906576504
 31
0.0
  0
INSERT
  5
199
  8
LAYER0014
 62
     7
  2
_OPEN30
 10
-34.56347087386587
 20
101.2368906576504
 30
0.0
 41
2.499995396844351
 42
2.500007167085477
 50
270.0
  0
INSERT
  5
19A
  8
LAYER0014
 62
     7
  2
_OPEN30
 10
-34.56347087386587
 20
131.2368906576504
 30
0.0
 41
2.499995396844351
 42
2.500007167085477
 50
90.0
  0
TEXT
  5
19B
  8
LAYER0014
 62
     7
 10
-35.06347087386587
 20
113.0368906576504
 30
0.0
 40
4.0
  1
30
 50
90.0
 41
0.9081081081081089
  7
DCSTYLE0
 72
     5
 11
-35.06347087386587
 21
119.4368906576504
 31
0.0
  0
ENDBLK
  5
EE
  8
0
  0
BLOCK
  8
0
  2
DA_IMAGEDIMGROUP_18
 70
     0
 10
0.0
 20
0.0
 30
0.0
  3
DA_IMAGEDIMGROUP_18
  1

  0
LINE
  5
19C
  8
0
  6
CONTINUOUS
 62
     7
 10
-186.5547905302379
 20
-83.63722697055984
 30
0.0
 11
-125.5547905302379
 21
-83.63722697055984
 31
0.0
  0
INSERT
  5
19D
  8
0
 62
     7
  2
_OPEN30
 10
-186.5547905302379
 20
-83.63722697055984
 30
0.0
 41
2.499995396844351
 42
2.500007167085477
 50
180.0
  0
INSERT
  5
19E
  8
0
 62
     7
  2
_OPEN30
 10
-125.5547905302379
 20
-83.63722697055984
 30
0.0
 41
2.499995396844351
 42
2.500007167085477
 50
360.0
  0
LINE
  5
19F
  8
0
  6
CONTINUOUS
 62
     7
 10
-186.5547905302379
 20
-58.26311315704685
 30
0.0
 11
-186.5547905302379
 21
-84.63722697055984
 31
0.0
  0
LINE
  5
1A0
  8
0
  6
CONTINUOUS
 62
     7
 10
-125.5547905302379
 20
-74.24524692354129
 30
0.0
 11
-125.5547905302379
 21
-84.63722697055984
 31
0.0
  0
TEXT
  5
1A1
  8
0
 62
     7
 10
-159.2547905302379
 20
-83.13722697055984
 30
0.0
 40
4.0
  1
61
 41
1.083870967741932
  7
DCSTYLE0
 72
     5
 11
-152.8547905302379
 21
-83.13722697055984
 31
0.0
  0
ENDBLK
  5
F1
  8
0
  0
BLOCK
  8
0
  2
DA_IMAGEDIMGROUP_19
 70
     0
 10
0.0
 20
0.0
 30
0.0
  3
DA_IMAGEDIMGROUP_19
  1

  0
LINE
  5
1A2
  8
0
  6
CONTINUOUS
 62
     7
 10
-190.7547874784801
 20
-70.76310934234957
 30
0.0
 11
-190.7547874784801
 21
-94.63722697055984
 31
0.0
  0
LINE
  5
1A3
  8
0
  6
CONTINUOUS
 62
     7
 10
-186.5547905302379
 20
-58.26311315704685
 30
0.0
 11
-186.5547905302379
 21
-94.63722697055984
 31
0.0
  0
LINE
  5
1A4
  8
0
  6
CONTINUOUS
 62
     7
 10
-190.7547874784801
 20
-93.63722697055984
 30
0.0
 11
-186.5547905302379
 21
-93.63722697055984
 31
0.0
  0
LINE
  5
1A5
  8
0
  6
CONTINUOUS
 62
     7
 10
-64.5547943449352
 20
-68.76310171295503
 30
0.0
 11
-64.5547943449352
 21
-94.63722697055984
 31
0.0
  0
LINE
  5
1A6
  8
0
  6
CONTINUOUS
 62
     7
 10
-204.2866374784801
 20
-93.63722697055984
 30
0.0
 11
-190.7547874784801
 21
-93.63722697055984
 31
0.0
  0
INSERT
  5
1A7
  8
0
 62
     7
  2
_OPEN30
 10
-190.7547874784801
 20
-93.63722697055984
 30
0.0
 41
2.499995396844351
 42
2.500007167085477
 50
360.0
  0
LINE
  5
1A8
  8
0
  6
CONTINUOUS
 62
     7
 10
-186.5547905302379
 20
-93.63722697055984
 30
0.0
 11
-64.5547943449352
 21
-93.63722697055984
 31
0.0
  0
INSERT
  5
1A9
  8
0
 62
     7
  2
_OPEN30
 10
-186.5547905302379
 20
-93.63722697055984
 30
0.0
 41
2.499995396844351
 42
2.500007167085477
 50
180.0
  0
INSERT
  5
1AA
  8
0
 62
     7
  2
_OPEN30
 10
-64.5547943449352
 20
-93.63722697055984
 30
0.0
 41
2.499995396844351
 42
2.500007167085477
 50
360.0
  0
TEXT
  5
1AB
  8
0
 62
     7
 10
-203.2866374784801
 20
-93.13722697055984
 30
0.0
 40
4.0
  1
4.2
 41
1.072340425531914
  7
DCSTYLE0
 72
     5
 11
-193.6866374784801
 21
-93.13722697055984
 31
0.0
  0
TEXT
  5
1AC
  8
0
 62
     7
 10
-130.3547924375866
 20
-93.13722697055984
 30
0.0
 40
4.0
  1
122
 41
0.8842105263157902
  7
DCSTYLE0
 72
     5
 11
-120.7547924375866
 21
-93.13722697055984
 31
0.0
  0
ENDBLK
  5
F4
  8
0
  0
BLOCK
  8
0
  2
DA_IMAGEDIMGROUP_20
 70
     0
 10
0.0
 20
0.0
 30
0.0
  3
DA_IMAGEDIMGROUP_20
  1

  0
LINE
  5
1AD
  8
0
  6
CONTINUOUS
 62
     7
 10
-190.7547874784801
 20
-70.76310934234957
 30
0.0
 11
-190.7547874784801
 21
-104.1372269705598
 31
0.0
  0
LINE
  5
1AE
  8
0
  6
CONTINUOUS
 62
     7
 10
-64.5547943449352
 20
-68.76310171295503
 30
0.0
 11
-64.5547943449352
 21
-104.1372269705598
 31
0.0
  0
LINE
  5
1AF
  8
0
  6
CONTINUOUS
 62
     7
 10
-190.7547874784801
 20
-103.1372269705598
 30
0.0
 11
-64.5547943449352
 21
-103.1372269705598
 31
0.0
  0
INSERT
  5
1B0
  8
0
 62
     7
  2
_OPEN30
 10
-190.7547874784801
 20
-103.1372269705598
 30
0.0
 41
2.499995396844351
 42
2.500007167085477
 50
180.0
  0
INSERT
  5
1B1
  8
0
 62
     7
  2
_OPEN30
 10
-64.5547943449352
 20
-103.1372269705598
 30
0.0
 41
2.499995396844351
 42
2.500007167085477
 50
360.0
  0
TEXT
  5
1B2
  8
0
 62
     7
 10
-135.6547909117077
 20
-102.6372269705598
 30
0.0
 40
4.0
  1
126.2
 41
0.9655172413793105
  7
DCSTYLE0
 72
     5
 11
-119.6547909117077
 21
-102.6372269705598
 31
0.0
  0
ENDBLK
  5
F7
  8
0
  0
BLOCK
  8
0
  2
DA_IMAGEDIMGROUP_21
 70
     0
 10
0.0
 20
0.0
 30
0.0
  3
DA_IMAGEDIMGROUP_21
  1

  0
LINE
  5
1B3
  8
0
  6
CONTINUOUS
 62
     7
 10
-99.95261767867544
 20
6.334835924330813
 30
0.0
 11
-87.55479815963247
 21
6.334835924330813
 31
0.0
  0
INSERT
  5
1B4
  8
0
 62
     7
  2
_OPEN30
 10
-99.95261767867544
 20
6.334835924330813
 30
0.0
 41
2.499995396844351
 42
2.500007167085477
 50
180.0
  0
INSERT
  5
1B5
  8
0
 62
     7
  2
_OPEN30
 10
-87.55479815963247
 20
6.334835924330813
 30
0.0
 41
2.499995396844351
 42
2.500007167085477
 50
360.0
  0
LINE
  5
1B6
  8
0
  6
CONTINUOUS
 62
     7
 10
-87.55479815963247
 20
6.334835924330813
 30
0.0
 11
-76.05479815963247
 21
6.334835924330813
 31
0.0
  0
INSERT
  5
1B7
  8
0
 62
     7
  2
_OPEN30
 10
-87.55479815963247
 20
6.334835924330813
 30
0.0
 41
2.499995396844351
 42
2.500007167085477
 50
180.0
  0
INSERT
  5
1B8
  8
0
 62
     7
  2
_OPEN30
 10
-76.05479815963247
 20
6.334835924330813
 30
0.0
 41
2.499995396844351
 42
2.500007167085477
 50
360.0
  0
LINE
  5
1B9
  8
0
  6
CONTINUOUS
 62
     7
 10
-76.05479815963247
 20
6.334835924330813
 30
0.0
 11
-64.5547943449352
 21
6.334835924330813
 31
0.0
  0
INSERT
  5
1BA
  8
0
 62
     7
  2
_OPEN30
 10
-76.05479815963247
 20
6.334835924330813
 30
0.0
 41
2.499995396844351
 42
2.500007167085477
 50
180.0
  0
INSERT
  5
1BB
  8
0
 62
     7
  2
_OPEN30
 10
-64.5547943449352
 20
6.334835924330813
 30
0.0
 41
2.499995396844351
 42
2.500007167085477
 50
360.0
  0
TEXT
  5
1BC
  8
0
 62
     7
 10
-98.55370791915395
 20
6.834835924330813
 30
0.0
 40
3.0
  1
12.5
 41
1.002985074626865
  7
DCSTYLE0
 72
     5
 11
-88.95370791915396
 21
6.834835924330813
 31
0.0
  0
TEXT
  5
1BD
  8
0
 62
     7
 10
-86.60479815963247
 20
6.834835924330813
 30
0.0
 40
3.0
  1
11.5
 41
1.002985074626865
  7
DCSTYLE0
 72
     5
 11
-77.00479815963247
 21
6.834835924330813
 31
0.0
  0
TEXT
  5
1BE
  8
0
 62
     7
 10
-75.10479625228383
 20
6.834835924330813
 30
0.0
 40
3.0
  1
11.5
 41
1.002985074626865
  7
DCSTYLE0
 72
     5
 11
-65.50479625228384
 21
6.834835924330813
 31
0.0
  0
ENDBLK
  5
FA
  8
0
  0
BLOCK
  8
0
  2
DA_IMAGEDIMGROUP_22
 70
     0
 10
0.0
 20
0.0
 30
0.0
  3
DA_IMAGEDIMGROUP_22
  1

  0
LINE
  5
1BF
  8
0
  6
CONTINUOUS
 62
     7
 10
-202.5547905302379
 20
-35.96311010528903
 30
0.0
 11
-202.5547905302379
 21
-47.75494865218574
 31
0.0
  0
LINE
  5
1C0
  8
0
  6
CONTINUOUS
 62
     7
 10
-202.5547905302379
 20
-46.75494865218574
 30
0.0
 11
-186.5547905302379
 21
-46.75494865218574
 31
0.0
  0
INSERT
  5
1C1
  8
0
 62
     7
  2
_OPEN30
 10
-202.5547905302379
 20
-46.75494865218574
 30
0.0
 41
2.499995396844351
 42
2.500007167085477
 50
180.0
  0
INSERT
  5
1C2
  8
0
 62
     7
  2
_OPEN30
 10
-186.5547905302379
 20
-46.75494865218574
 30
0.0
 41
2.499995396844351
 42
2.500007167085477
 50
360.0
  0
TEXT
  5
1C3
  8
0
 62
     7
 10
-197.7547905302379
 20
-46.25494865218574
 30
0.0
 40
4.0
  1
16
 41
0.9081081081081049
  7
DCSTYLE0
 72
     5
 11
-191.3547905302379
 21
-46.25494865218574
 31
0.0
  0
ENDBLK
  5
FD
  8
0
  0
BLOCK
  8
0
  2
DA_IMAGEDIMGROUP_23
 70
     0
 10
0.0
 20
0.0
 30
0.0
  3
DA_IMAGEDIMGROUP_23
  1

  0
LINE
  5
1C4
  8
0
  6
CONTINUOUS
 62
     7
 10
-203.5547905302379
 20
-34.96311010528903
 30
0.0
 11
-211.4745168180619
 21
-34.96311010528903
 31
0.0
  0
LINE
  5
1C5
  8
0
  6
CONTINUOUS
 62
     7
 10
-203.5547905302379
 20
-22.9631081979404
 30
0.0
 11
-211.4745168180619
 21
-22.9631081979404
 31
0.0
  0
LINE
  5
1C6
  8
0
  6
CONTINUOUS
 62
     7
 10
-210.4745168180619
 20
-34.96311010528903
 30
0.0
 11
-210.4745168180619
 21
-22.9631081979404
 31
0.0
  0
INSERT
  5
1C7
  8
0
 62
     7
  2
_OPEN30
 10
-210.4745168180619
 20
-34.96311010528903
 30
0.0
 41
2.499995396844351
 42
2.500007167085477
 50
270.0
  0
INSERT
  5
1C8
  8
0
 62
     7
  2
_OPEN30
 10
-210.4745168180619
 20
-22.9631081979404
 30
0.0
 41
2.499995396844351
 42
2.500007167085477
 50
90.0
  0
TEXT
  5
1C9
  8
0
 62
     7
 10
-210.9745168180619
 20
-33.76310915161473
 30
0.0
 40
4.0
  1
M12
 50
90.0
 41
0.8262295081967235
  7
DCSTYLE0
 72
     5
 11
-210.9745168180619
 21
-24.16310915161471
 31
0.0
  0
ENDBLK
  5
100
  8
0
  0
BLOCK
  8
0
  2
DA_IMAGEDIMGROUP_24
 70
     0
 10
0.0
 20
0.0
 30
0.0
  3
DA_IMAGEDIMGROUP_24
  1

  0
LINE
  5
1CA
  8
0
  6
CONTINUOUS
 62
     7
 10
-108.4008481067657
 20
10.73688779662747
 30
0.0
 11
-108.4008481067657
 21
64.73688684295317
 31
0.0
  0
INSERT
  5
1CB
  8
0
 62
     7
  2
_OPEN30
 10
-108.4008481067657
 20
10.73688779662747
 30
0.0
 41
2.499995396844351
 42
2.500007167085477
 50
270.0
  0
INSERT
  5
1CC
  8
0
 62
     7
  2
_OPEN30
 10
-108.4008481067657
 20
64.73688684295317
 30
0.0
 41
2.499995396844351
 42
2.500007167085477
 50
90.0
  0
TEXT
  5
1CD
  8
0
 62
     7
 10
-108.9008481067657
 20
32.93688731979032
 30
0.0
 40
4.0
  1
φ54
 50
90.0
 41
0.8999999999999995
  7
DCSTYLE0
 72
     5
 11
-108.9008481067657
 21
42.53688731979032
 31
0.0
  0
ENDBLK
  5
103
  8
0
  0
BLOCK
  8
0
  2
DA_IMAGEDIMGROUP_25
 70
     0
 10
0.0
 20
0.0
 30
0.0
  3
DA_IMAGEDIMGROUP_25
  1

  0
LINE
  5
1CE
  8
0
  6
CONTINUOUS
 62
     7
 10
-197.6569633818004
 20
65.73688684295317
 30
0.0
 11
-197.6569633818004
 21
99.3968860974458
 31
0.0
  0
LINE
  5
1CF
  8
0
  6
CONTINUOUS
 62
     7
 10
-197.6569633818004
 20
98.3968860974458
 30
0.0
 11
-186.5547905302379
 21
98.3968860974458
 31
0.0
  0
LINE
  5
1D0
  8
0
  6
CONTINUOUS
 62
     7
 10
-226.9265966030822
 20
98.3968860974458
 30
0.0
 11
-197.6569633818004
 21
98.3968860974458
 31
0.0
  0
INSERT
  5
1D1
  8
0
 62
     7
  2
_OPEN30
 10
-197.6569633818004
 20
98.3968860974458
 30
0.0
 41
2.499995396844351
 42
2.500007167085477
 50
360.0
  0
LINE
  5
1D2
  8
0
  6
CONTINUOUS
 62
     7
 10
-181.5547905302379
 20
98.3968860974458
 30
0.0
 11
-186.5547905302379
 21
98.3968860974458
 31
0.0
  0
INSERT
  5
1D3
  8
0
 62
     7
  2
_OPEN30
 10
-186.5547905302379
 20
98.3968860974458
 30
0.0
 41
2.499995396844351
 42
2.500007167085477
 50
180.0
  0
TEXT
  5
1D4
  8
0
 62
     7
 10
-225.9265966030822
 20
98.8968860974458
 30
0.0
 40
4.0
  1
11.2
 41
1.002985074626866
  7
DCSTYLE0
 72
     5
 11
-213.1265966030822
 21
98.8968860974458
 31
0.0
  0
ENDBLK
  5
106
  8
0
  0
BLOCK
  8
0
  2
DA_IMAGEDIMGROUP_26
 70
     0
 10
0.0
 20
0.0
 30
0.0
  3
DA_IMAGEDIMGROUP_26
  1

  0
LINE
  5
1D5
  8
0
  6
CONTINUOUS
 62
     7
 10
-177.6569633818004
 20
62.98688684295315
 30
0.0
 11
-177.6569633818004
 21
109.3968860974458
 31
0.0
  0
LINE
  5
1D6
  8
0
  6
CONTINUOUS
 62
     7
 10
-197.6569545329309
 20
65.73686811897292
 30
0.0
 11
-197.6569545329309
 21
109.3968860974458
 31
0.0
  0
LINE
  5
1D7
  8
0
  6
CONTINUOUS
 62
     7
 10
-197.6569545329309
 20
108.3968860974458
 30
0.0
 11
-177.6569633818004
 21
108.3968860974458
 31
0.0
  0
INSERT
  5
1D8
  8
0
 62
     7
  2
_OPEN30
 10
-197.6569545329309
 20
108.3968860974458
 30
0.0
 41
2.499995396844351
 42
2.500007167085477
 50
180.0
  0
INSERT
  5
1D9
  8
0
 62
     7
  2
_OPEN30
 10
-177.6569633818004
 20
108.3968860974458
 30
0.0
 41
2.499995396844351
 42
2.500007167085477
 50
360.0
  0
TEXT
  5
1DA
  8
0
 62
     7
 10
-192.9641436702241
 20
108.8968860974458
 30
0.0
 40
4.0
  1
20
 41
0.9081081081081049
  7
DCSTYLE0
 72
     5
 11
-186.5641436702242
 21
108.8968860974458
 31
0.0
  0
ENDBLK
  5
109
  8
0
  0
BLOCK
  8
0
  2
DA_IMAGEDIMGROUP_27
 70
     0
 10
0.0
 20
0.0
 30
0.0
  3
DA_IMAGEDIMGROUP_27
  1

  0
LINE
  5
1DB
  8
0
  6
CONTINUOUS
 62
     7
 10
-197.6569545329309
 20
65.73686811897292
 30
0.0
 11
-197.6569545329309
 21
119.8968860974458
 31
0.0
  0
LINE
  5
1DC
  8
0
  6
CONTINUOUS
 62
     7
 10
-174.1569275233611
 20
88.23684255383537
 30
0.0
 11
-174.1569275233611
 21
119.8968860974458
 31
0.0
  0
LINE
  5
1DD
  8
0
  6
CONTINUOUS
 62
     7
 10
-197.6569545329309
 20
118.8968860974458
 30
0.0
 11
-174.1569275233611
 21
118.8968860974458
 31
0.0
  0
LINE
  5
1DE
  8
0
  6
CONTINUOUS
 62
     7
 10
-157.4250775233611
 20
118.8968860974458
 30
0.0
 11
-174.1569275233611
 21
118.8968860974458
 31
0.0
  0
INSERT
  5
1DF
  8
0
 62
     7
  2
_OPEN30
 10
-174.1569275233611
 20
118.8968860974458
 30
0.0
 41
2.499995396844351
 42
2.500007167085477
 50
180.0
  0
LINE
  5
1E0
  8
0
  6
CONTINUOUS
 62
     7
 10
-202.6569545329309
 20
118.8968860974458
 30
0.0
 11
-197.6569545329309
 21
118.8968860974458
 31
0.0
  0
INSERT
  5
1E1
  8
0
 62
     7
  2
_OPEN30
 10
-197.6569545329309
 20
118.8968860974458
 30
0.0
 41
2.499995396844351
 42
2.500007167085477
 50
360.0
  0
TEXT
  5
1E2
  8
0
 62
     7
 10
-171.2250775233611
 20
119.3968860974458
 30
0.0
 40
4.0
  1
23.5
 41
1.002985074626866
  7
DCSTYLE0
 72
     5
 11
-158.4250775233611
 21
119.3968860974458
 31
0.0
  0
ENDBLK
  5
10C
  8
0
  0
BLOCK
  8
0
  2
DC_GROUP_5
 70
     0
 10
0.0
 20
0.0
 30
0.0
  3
DC_GROUP_5
  1

  0
LINE
  5
1E3
  8
0
  6
CONTINUOUS
 62
     7
 10
-125.5291902369446
 20
-69.76310934234957
 30
0.0
 11
-54.01897486657366
 21
-115.9837709971162
 31
0.0
  0
INSERT
  5
1E4
  8
0
 62
     7
  2
_OPEN30
 10
-125.5291902369446
 20
-69.76310934234957
 30
0.0
 41
2.499995396844351
 42
2.500007167085477
 50
147.1233740741112
  0
LINE
  5
1E5
  8
0
  6
CONTINUOUS
 62
     7
 10
-54.01897486657366
 20
-115.9837709971162
 30
0.0
 11
-38.01897486657366
 21
-115.9837709971162
 31
0.0
  0
TEXT
  5
1E6
  8
0
 62
     7
 10
-54.01897486657366
 20
-115.9837709971162
 30
0.0
 40
4.0
  1
M8×16
 41
0.8484848484848486
  7
DCSTYLE0
 72
     5
 11
-38.01897486657366
 21
-115.9837709971162
 31
0.0
  0
ENDBLK
  5
10F
  8
0
  0
BLOCK
  8
0
  2
DA_IMAGEDIMGROUP_28
 70
     0
 10
0.0
 20
0.0
 30
0.0
  3
DA_IMAGEDIMGROUP_28
  1

  0
TEXT
  5
1E7
  8
LAYER0014
 62
     7
 10
-29.59785304649259
 20
89.84740137356472
 30
0.0
 40
4.0
  1
MIN
 50
90.0
 41
1.007999999999999
  7
DCSTYLE0
 72
     5
 11
-29.59785304649259
 21
99.44740137356472
 31
0.0
  0
ENDBLK
  5
112
  8
0
  0
BLOCK
  8
0
  2
DA_IMAGEDIMGROUP_29
 70
     0
 10
0.0
 20
0.0
 30
0.0
  3
DA_IMAGEDIMGROUP_29
  1

  0
LINE
  5
1E8
  8
0
  6
CONTINUOUS
 62
     7
 10
7.493036593108473
 20
-22.49164299315707
 30
0.0
 11
1.162932472301824
 21
-11.52758254252222
 31
0.0
  0
LINE
  5
1E9
  8
0
  6
CONTINUOUS
 62
     7
 10
1.662932523735894
 20
-12.39360791661118
 30
0.0
 11
2.528957911976708
 21
-11.89360785700654
 31
0.0
  0
LINE
  5
1EA
  8
0
  6
CONTINUOUS
 62
     7
 10
8.70532097617308
 20
-8.327682490186472
 30
0.0
 11
2.528957911976708
 21
-11.89360785700654
 31
0.0
  0
INSERT
  5
1EB
  8
0
 62
     7
  2
_OPEN30
 10
2.528957911976708
 20
-11.89360785700654
 30
0.0
 41
2.499995396844351
 42
2.500007167085477
 50
210.0000034028507
  0
LINE
  5
1EC
  8
0
  6
CONTINUOUS
 62
     7
 10
-2.667194346708922
 20
-14.89360817378153
 30
0.0
 11
1.662932523735894
 21
-12.39360791661118
 31
0.0
  0
INSERT
  5
1ED
  8
0
 62
     7
  2
_OPEN30
 10
1.662932523735894
 20
-12.39360791661118
 30
0.0
 41
2.499995396844351
 42
2.500007167085477
 50
30.00000340285067
  0
TEXT
  5
1EE
  8
0
 62
     7
 10
4.818014379282401
 20
-9.994670019165078
 30
0.0
 40
4.0
  1
1
 50
30.00000340285063
 41
1.527272727272728
  7
DCSTYLE0
 72
     5
 11
7.589295576367084
 21
-8.394669854576058
 31
0.0
  0
ENDBLK
  5
115
  8
0
  0
BLOCK
  8
0
  2
DA_IMAGEDIMGROUP_30
 70
     0
 10
0.0
 20
0.0
 30
0.0
  3
DA_IMAGEDIMGROUP_30
  1

  0
LINE
  5
1EF
  8
0
  6
CONTINUOUS
 62
     7
 10
249.8033651089517
 20
96.04431527774886
 30
0.0
 11
244.9447195714401
 21
93.23917527868687
 31
0.0
  0
ARC
  5
1F0
  8
0
  6
CONTINUOUS
 62
     7
 10
148.8119254434708
 20
37.73688684295315
 30
0.0
 40
115.6148665324679
 50
0.0
 51
29.99999725896548
  0
INSERT
  5
1F1
  8
0
 62
     7
  2
_OPEN30
 10
264.4267919759386
 20
37.73688684295315
 30
0.0
 41
2.499995396844351
 42
2.500007167085477
 50
270.6194671780228
  0
INSERT
  5
1F2
  8
0
 62
     7
  2
_OPEN30
 10
248.9373396812472
 20
95.54431531917959
 30
0.0
 41
2.499995396844351
 42
2.500007167085477
 50
119.3805300809427
  0
TEXT
  5
1F3
  8
0
 62
     7
 10
259.0370283143367
 20
71.27640374309517
 30
0.0
 40
4.0
  1
30°
 50
109.3117687194538
 41
1.120000000000003
  7
DCSTYLE0
 72
     5
 11
255.8622291604636
 21
80.33624095645433
 31
0.0
  0
ENDBLK
  5
118
  8
0
  0
BLOCK
  8
0
  2
DA_IMAGEDIMGROUP_31
 70
     0
 10
0.0
 20
0.0
 30
0.0
  3
DA_IMAGEDIMGROUP_31
  1

  0
LINE
  5
1F4
  8
0
  6
CONTINUOUS
 62
     7
 10
274.7625602830127
 20
37.73688684295315
 30
0.0
 11
269.5452460908558
 21
37.73688684295315
 31
0.0
  0
LINE
  5
1F5
  8
0
  6
CONTINUOUS
 62
     7
 10
270.4708964985052
 20
70.33531304636729
 30
0.0
 11
227.2450485971354
 21
58.75298324564219
 31
0.0
  0
ARC
  5
1F6
  8
0
  6
CONTINUOUS
 62
     7
 10
148.8119006715524
 20
37.73688684295315
 30
0.0
 40
124.9506596114603
 50
0.0
 51
14.99999847069179
  0
INSERT
  5
1F7
  8
0
 62
     7
  2
_OPEN30
 10
273.7625602830127
 20
37.73688684295315
 30
0.0
 41
2.499995396844351
 42
2.500007167085477
 50
270.5731831695088
  0
INSERT
  5
1F8
  8
0
 62
     7
  2
_OPEN30
 10
269.5049706653078
 20
70.07649402704675
 30
0.0
 41
2.499995396844351
 42
2.500007167085477
 50
104.4268153011827
  0
TEXT
  5
1F9
  8
0
 62
     7
 10
272.8243935138497
 20
49.22202057167907
 30
0.0
 40
4.0
  1
15°
 50
97.49999923534574
 41
1.120000000000002
  7
DCSTYLE0
 72
     5
 11
271.5713421955602
 21
58.73989125759056
 31
0.0
  0
ENDBLK
  5
11B
  8
0
  0
BLOCK
  8
0
  2
DA_IMAGEDIMGROUP_32
 70
     0
 10
0.0
 20
0.0
 30
0.0
  3
DA_IMAGEDIMGROUP_32
  1

  0
LINE
  5
1FA
  8
0
  6
CONTINUOUS
 62
     7
 10
237.870460195797
 20
126.7953978247666
 30
0.0
 11
206.2290079749007
 21
95.15394827104504
 31
0.0
  0
ARC
  5
1FB
  8
0
  6
CONTINUOUS
 62
     7
 10
148.8119567268961
 20
37.73690186293565
 30
0.0
 40
124.947738142071
 50
14.99999847069177
 51
44.99999758516351
  0
INSERT
  5
1FC
  8
0
 62
     7
  2
_OPEN30
 10
269.5022047978975
 20
70.07575291518688
 30
0.0
 41
2.499995396844351
 42
2.500007167085477
 50
285.5731950421003
  0
INSERT
  5
1FD
  8
0
 62
     7
  2
_OPEN30
 10
237.1633533848081
 20
126.0882910733823
 30
0.0
 41
2.499995396844351
 42
2.500007167085477
 50
134.426801013755
  0
TEXT
  5
1FE
  8
0
 62
     7
 10
249.1928552513084
 20
113.1282157949348
 30
0.0
 40
4.0
  1
30°
 50
304.7172322681755
 41
1.120000000000003
  7
DCSTYLE0
 72
     5
 11
254.6603122007914
 21
105.2372770354746
 31
0.0
  0
ENDBLK
  5
11E
  8
0
  0
BLOCK
  8
0
  2
DA_IMAGEDIMGROUP_33
 70
     0
 10
0.0
 20
0.0
 30
0.0
  3
DA_IMAGEDIMGROUP_33
  1

  0
LINE
  5
1FF
  8
0
  6
CONTINUOUS
 62
     7
 10
148.8119086885121
 20
163.5910541775322
 30
0.0
 11
148.8119086885121
 21
156.977994783627
 31
0.0
  0
ARC
  5
200
  8
0
  6
CONTINUOUS
 62
     7
 10
148.8119086885121
 20
37.73685382455565
 30
0.0
 40
124.8542003529765
 50
44.99999758516351
 51
90.0
  0
INSERT
  5
201
  8
0
 62
     7
  2
_OPEN30
 10
237.0971641386706
 20
126.022101832824
 30
0.0
 41
2.499995396844351
 42
2.500007167085477
 50
315.5736235817729
  0
INSERT
  5
202
  8
0
 62
     7
  2
_OPEN30
 10
148.8119086885121
 20
162.5910541775322
 30
0.0
 41
2.499995396844351
 42
2.500007167085477
 50
179.4263740033907
  0
TEXT
  5
203
  8
0
 62
     7
 10
192.3482650641845
 20
155.3859134028821
 30
0.0
 40
4.0
  1
45°
 50
337.4999987925818
 41
1.120000000000006
  7
DCSTYLE0
 72
     5
 11
201.2175084988742
 21
151.7121522652719
 31
0.0
  0
ENDBLK
  5
121
  8
0
  0
BLOCK
  8
0
  2
DC_GROUP_6
 70
     0
 10
0.0
 20
0.0
 30
0.0
  3
DC_GROUP_6
  1

  0
LINE
  5
204
  8
0
  6
CONTINUOUS
 62
     6
 10
-144.7797603744109
 20
88.34054289884965
 30
0.0
 11
-144.3347044567977
 21
88.71062128920735
 31
0.0
  0
LINE
  5
205
  8
0
  6
CONTINUOUS
 62
     6
 10
-144.3347044567977
 20
88.71062128920735
 30
0.0
 11
-143.8888233488186
 21
89.0768798363119
 31
0.0
  0
LINE
  5
206
  8
0
  6
CONTINUOUS
 62
     6
 10
-143.8888233488186
 20
89.0768798363119
 30
0.0
 11
-143.4412918601075
 21
89.43549869691006
 31
0.0
  0
LINE
  5
207
  8
0
  6
CONTINUOUS
 62
     6
 10
-143.4412918601075
 20
89.43549869691006
 30
0.0
 11
-142.9912848002986
 21
89.78265802774871
 31
0.0
  0
LINE
  5
208
  8
0
  6
CONTINUOUS
 62
     6
 10
-142.9912848002986
 20
89.78265802774871
 30
0.0
 11
-142.5379769790258
 21
90.11453798557459
 31
0.0
  0
LINE
  5
209
  8
0
  6
CONTINUOUS
 62
     6
 10
-142.5379769790258
 20
90.11453798557459
 30
0.0
 11
-142.0805432059232
 21
90.4273187271346
 31
0.0
  0
LINE
  5
20A
  8
0
  6
CONTINUOUS
 62
     6
 10
-142.0805432059232
 20
90.4273187271346
 30
0.0
 11
-141.6181582906248
 21
90.71718040917551
 31
0.0
  0
LINE
  5
20B
  8
0
  6
CONTINUOUS
 62
     6
 10
-141.6181582906248
 20
90.71718040917551
 30
0.0
 11
-141.1499970427648
 21
90.98030318844414
 31
0.0
  0
LINE
  5
20C
  8
0
  6
CONTINUOUS
 62
     6
 10
-141.1499970427648
 20
90.98030318844414
 30
0.0
 11
-140.6752342719771
 21
91.21286722168738
 31
0.0
  0
LINE
  5
20D
  8
0
  6
CONTINUOUS
 62
     6
 10
-140.6752342719771
 20
91.21286722168738
 30
0.0
 11
-140.1930447878958
 21
91.41105266565194
 31
0.0
  0
LINE
  5
20E
  8
0
  6
CONTINUOUS
 62
     6
 10
-140.1930447878958
 20
91.41105266565194
 30
0.0
 11
-139.7026034001549
 21
91.5710396770847
 31
0.0
  0
LINE
  5
20F
  8
0
  6
CONTINUOUS
 62
     6
 10
-139.7026034001549
 20
91.5710396770847
 30
0.0
 11
-139.2030849183884
 21
91.68900841273248
 31
0.0
  0
LINE
  5
210
  8
0
  6
CONTINUOUS
 62
     6
 10
-139.2030849183884
 20
91.68900841273248
 30
0.0
 11
-138.6936699790352
 21
91.76116346783611
 31
0.0
  0
LINE
  5
211
  8
0
  6
CONTINUOUS
 62
     6
 10
-138.6936699790352
 20
91.76116346783611
 30
0.0
 11
-138.1743302665537
 21
91.7870272117665
 31
0.0
  0
LINE
  5
212
  8
0
  6
CONTINUOUS
 62
     6
 10
-138.1743302665537
 20
91.7870272117665
 30
0.0
 11
-137.6466223767955
 21
91.77276937017449
 31
0.0
  0
LINE
  5
213
  8
0
  6
CONTINUOUS
 62
     6
 10
-137.6466223767955
 20
91.77276937017449
 30
0.0
 11
-137.1122919698885
 21
91.7253526326631
 31
0.0
  0
LINE
  5
214
  8
0
  6
CONTINUOUS
 62
     6
 10
-137.1122919698885
 20
91.7253526326631
 30
0.0
 11
-136.5730847059603
 21
91.65173968883533
 31
0.0
  0
LINE
  5
215
  8
0
  6
CONTINUOUS
 62
     6
 10
-136.5730847059603
 20
91.65173968883533
 30
0.0
 11
-136.0307462451389
 21
91.55889322829415
 31
0.0
  0
LINE
  5
216
  8
0
  6
CONTINUOUS
 62
     6
 10
-136.0307462451389
 20
91.55889322829415
 30
0.0
 11
-135.4870222475517
 21
91.45377594064254
 31
0.0
  0
LINE
  5
217
  8
0
  6
CONTINUOUS
 62
     6
 10
-135.4870222475517
 20
91.45377594064254
 30
0.0
 11
-134.9436583733269
 21
91.34335051548351
 31
0.0
  0
LINE
  5
218
  8
0
  6
CONTINUOUS
 62
     6
 10
-134.9436583733269
 20
91.34335051548351
 30
0.0
 11
-134.4022200899572
 21
91.23417653347614
 31
0.0
  0
LINE
  5
219
  8
0
  6
CONTINUOUS
 62
     6
 10
-134.4022200899572
 20
91.23417653347614
 30
0.0
 11
-133.8629822522017
 21
91.12992634552553
 31
0.0
  0
LINE
  5
21A
  8
0
  6
CONTINUOUS
 62
     6
 10
-133.8629822522017
 20
91.12992634552553
 30
0.0
 11
-133.3256569671798
 21
91.03301337978962
 31
0.0
  0
LINE
  5
21B
  8
0
  6
CONTINUOUS
 62
     6
 10
-133.3256569671798
 20
91.03301337978962
 30
0.0
 11
-132.7899540073207
 21
90.94584584149148
 31
0.0
  0
LINE
  5
21C
  8
0
  6
CONTINUOUS
 62
     6
 10
-132.7899540073207
 20
90.94584584149148
 30
0.0
 11
-132.2555831450541
 21
90.87083193585414
 31
0.0
  0
LINE
  5
21D
  8
0
  6
CONTINUOUS
 62
     6
 10
-132.2555831450541
 20
90.87083193585414
 30
0.0
 11
-131.7222541528093
 21
90.81037986810077
 31
0.0
  0
LINE
  5
21E
  8
0
  6
CONTINUOUS
 62
     6
 10
-131.7222541528093
 20
90.81037986810077
 30
0.0
 11
-131.1896768030158
 21
90.76689784345434
 31
0.0
  0
LINE
  5
21F
  8
0
  6
CONTINUOUS
 62
     6
 10
-131.1896768030158
 20
90.76689784345434
 30
0.0
 11
-130.6575608681029
 21
90.74279406713801
 31
0.0
  0
LINE
  5
220
  8
0
  6
CONTINUOUS
 62
     6
 10
-130.6575608681029
 20
90.74279406713801
 30
0.0
 11
-130.1256161205001
 21
90.74047674437477
 31
0.0
  0
LINE
  5
221
  8
0
  6
CONTINUOUS
 62
     6
 10
-130.1256161205001
 20
90.74047674437477
 30
0.0
 11
-129.5935544149098
 21
90.76233989198514
 31
0.0
  0
LINE
  5
222
  8
0
  6
CONTINUOUS
 62
     6
 10
-129.5935544149098
 20
90.76233989198514
 30
0.0
 11
-129.0613291810226
 21
90.80913145865894
 31
0.0
  0
LINE
  5
223
  8
0
  6
CONTINUOUS
 62
     6
 10
-129.0613291810226
 20
90.80913145865894
 30
0.0
 11
-128.5293575412741
 21
90.87843983647589
 31
0.0
  0
LINE
  5
224
  8
0
  6
CONTINUOUS
 62
     6
 10
-128.5293575412741
 20
90.87843983647589
 30
0.0
 11
-127.9981091362706
 21
90.96749556388484
 31
0.0
  0
LINE
  5
225
  8
0
  6
CONTINUOUS
 62
     6
 10
-127.9981091362706
 20
90.96749556388484
 30
0.0
 11
-127.4680536066183
 21
91.07352917933463
 31
0.0
  0
LINE
  5
226
  8
0
  6
CONTINUOUS
 62
     6
 10
-127.4680536066183
 20
91.07352917933463
 30
0.0
 11
-126.9396605929232
 21
91.19377122127403
 31
0.0
  0
LINE
  5
227
  8
0
  6
CONTINUOUS
 62
     6
 10
-126.9396605929232
 20
91.19377122127403
 30
0.0
 11
-126.4133997357918
 21
91.32545222815196
 31
0.0
  0
LINE
  5
228
  8
0
  6
CONTINUOUS
 62
     6
 10
-126.4133997357918
 20
91.32545222815196
 30
0.0
 11
-125.8897406756715
 21
91.46580273879476
 31
0.0
  0
LINE
  5
229
  8
0
  6
CONTINUOUS
 62
     6
 10
-125.8897406756715
 20
91.46580273879476
 30
0.0
 11
-125.3690065085263
 21
91.61240214669276
 31
0.0
  0
LINE
  5
22A
  8
0
  6
CONTINUOUS
 62
     6
 10
-125.3690065085263
 20
91.61240214669276
 30
0.0
 11
-124.8509521116295
 21
91.76418251133525
 31
0.0
  0
LINE
  5
22B
  8
0
  6
CONTINUOUS
 62
     6
 10
-124.8509521116295
 20
91.76418251133525
 30
0.0
 11
-124.3351946606598
 21
91.92040369604437
 31
0.0
  0
LINE
  5
22C
  8
0
  6
CONTINUOUS
 62
     6
 10
-124.3351946606598
 20
91.92040369604437
 30
0.0
 11
-123.821351331296
 21
92.0803255641424
 31
0.0
  0
LINE
  5
22D
  8
0
  6
CONTINUOUS
 62
     6
 10
-123.821351331296
 20
92.0803255641424
 30
0.0
 11
-123.3090392992169
 21
92.24320797895156
 31
0.0
  0
LINE
  5
22E
  8
0
  6
CONTINUOUS
 62
     6
 10
-123.3090392992169
 20
92.24320797895156
 30
0.0
 11
-122.7978757401015
 21
92.40831080379405
 31
0.0
  0
LINE
  5
22F
  8
0
  6
CONTINUOUS
 62
     6
 10
-122.7978757401015
 20
92.40831080379405
 30
0.0
 11
-122.2874778296284
 21
92.57489390199214
 31
0.0
  0
LINE
  5
230
  8
0
  6
CONTINUOUS
 62
     6
 10
-122.2874778296284
 20
92.57489390199214
 30
0.0
 11
-121.7774627434765
 21
92.74221713686798
 31
0.0
  0
ENDBLK
  5
124
  8
0
  0
BLOCK
  8
0
  2
_OPEN30
 70
     0
 10
0.0
 20
0.0
 30
0.0
  3
_OPEN30
  1

  0
LINE
  5
12B
  8
0
  6
BYBLOCK
 62
     0
 10
-1.0
 20
0.267949
 30
0.0
 11
0.0
 21
0.0
 31
0.0
  0
LINE
  5
12C
  8
0
  6
BYBLOCK
 62
     0
 10
0.0
 20
0.0
 30
0.0
 11
-1.0
 21
-0.267949
 31
0.0
  0
LINE
  5
12D
  8
0
  6
BYBLOCK
 62
     0
 10
0.0
 20
0.0
 30
0.0
 11
-1.0
 21
0.0
 31
0.0
  0
ENDBLK
  5
12A
  8
0
  0
ENDSEC
  0
SECTION
  2
ENTITIES
  0
LINE
  5
231
  8
ZUWAKU
  6
CONTINUOUS
 62
     3
 10
-277.0
 20
-190.0
 30
0.0
 11
-277.0
 21
190.0
 31
0.0
  0
LINE
  5
232
  8
ZUWAKU
  6
CONTINUOUS
 62
     3
 10
277.0
 20
-190.0
 30
0.0
 11
277.0
 21
190.0
 31
0.0
  0
LINE
  5
233
  8
ZUWAKU
  6
CONTINUOUS
 62
     3
 10
-277.0
 20
-190.0
 30
0.0
 11
277.0
 21
-190.0
 31
0.0
  0
LINE
  5
234
  8
ZUWAKU
  6
CONTINUOUS
 62
     3
 10
-277.0
 20
189.9999999999999
 30
0.0
 11
277.0
 21
189.9999999999999
 31
0.0
  0
LINE
  5
235
  8
ZUWAKU
  6
CONTINUOUS
 62
     3
 10
101.0000000000001
 20
179.9999999999999
 30
0.0
 11
277.0
 21
179.9999999999999
 31
0.0
  0
LINE
  5
236
  8
ZUWAKU
  6
CONTINUOUS
 62
     3
 10
101.0000000000001
 20
179.9999999999999
 30
0.0
 11
101.0000000000001
 21
189.9999999999999
 31
0.0
  0
LINE
  5
237
  8
ZUWAKU
  6
CONTINUOUS
 62
     3
 10
-97.0
 20
184.9999999999999
 30
0.0
 11
-97.0
 21
189.9999999999999
 31
0.0
  0
LINE
  5
238
  8
ZUWAKU
  6
CONTINUOUS
 62
     3
 10
-277.0
 20
184.9999999999999
 30
0.0
 11
-97.0
 21
184.9999999999999
 31
0.0
  0
LINE
  5
239
  8
ZUWAKU
  6
CONTINUOUS
 62
     3
 10
97.00000000000001
 20
-190.0
 30
0.0
 11
97.00000000000001
 21
-130.0
 31
0.0
  0
LINE
  5
23A
  8
ZUWAKU
  6
CONTINUOUS
 62
     3
 10
97.00000000000001
 20
-176.0
 30
0.0
 11
277.0
 21
-176.0
 31
0.0
  0
LINE
  5
23B
  8
ZUWAKU
  6
CONTINUOUS
 62
     3
 10
146.0
 20
-162.0
 30
0.0
 11
277.0
 21
-162.0
 31
0.0
  0
LINE
  5
23C
  8
ZUWAKU
  6
CONTINUOUS
 62
     3
 10
146.0
 20
-148.0
 30
0.0
 11
277.0
 21
-148.0
 31
0.0
  0
LINE
  5
23D
  8
ZUWAKU
  6
CONTINUOUS
 62
     3
 10
146.0
 20
-138.0
 30
0.0
 11
277.0
 21
-138.0
 31
0.0
  0
LINE
  5
23E
  8
ZUWAKU
  6
CONTINUOUS
 62
     3
 10
146.0
 20
-176.0
 30
0.0
 11
146.0
 21
-130.0
 31
0.0
  0
LINE
  5
23F
  8
ZUWAKU
  6
CONTINUOUS
 62
     3
 10
255.0
 20
-176.0
 30
0.0
 11
255.0
 21
-130.0
 31
0.0
  0
LINE
  5
240
  8
ZUWAKU
  6
CONTINUOUS
 62
     3
 10
171.0
 20
-190.0
 30
0.0
 11
171.0
 21
-176.0
 31
0.0
  0
LINE
  5
241
  8
ZUWAKU
  6
CONTINUOUS
 62
     3
 10
262.0
 20
-188.0
 30
0.0
 11
272.0
 21
-188.0
 31
0.0
  0
LINE
  5
242
  8
ZUWAKU
  6
CONTINUOUS
 62
     3
 10
267.0
 20
-178.0
 30
0.0
 11
262.0
 21
-188.0
 31
0.0
  0
LINE
  5
243
  8
ZUWAKU
  6
CONTINUOUS
 62
     3
 10
267.0
 20
-178.0
 30
0.0
 11
272.0
 21
-188.0
 31
0.0
  0
LINE
  5
244
  8
ZUWAKU
  6
CONTINUOUS
 62
     3
 10
97.00000000000001
 20
-130.0
 30
0.0
 11
277.0
 21
-130.0
 31
0.0
  0
LINE
  5
245
  8
ZUWAKU
  6
CONTINUOUS
 62
     3
 10
226.0
 20
-176.0
 30
0.0
 11
226.0
 21
-148.0
 31
0.0
  0
LINE
  5
246
  8
ZUWAKU
  6
CONTINUOUS
 62
     3
 10
-277.0
 20
-190.0
 30
0.0
 11
-277.0
 21
190.0
 31
0.0
  0
LINE
  5
247
  8
ZUWAKU
  6
CONTINUOUS
 62
     3
 10
277.0
 20
-190.0
 30
0.0
 11
277.0
 21
190.0
 31
0.0
  0
LINE
  5
248
  8
ZUWAKU
  6
CONTINUOUS
 62
     3
 10
-277.0
 20
-190.0
 30
0.0
 11
277.0
 21
-190.0
 31
0.0
  0
LINE
  5
249
  8
ZUWAKU
  6
CONTINUOUS
 62
     3
 10
-277.0
 20
189.9999999999999
 30
0.0
 11
277.0
 21
189.9999999999999
 31
0.0
  0
LINE
  5
24A
  8
ZUWAKU
  6
CONTINUOUS
 62
     3
 10
101.0000000000001
 20
179.9999999999999
 30
0.0
 11
277.0
 21
179.9999999999999
 31
0.0
  0
LINE
  5
24B
  8
ZUWAKU
  6
CONTINUOUS
 62
     3
 10
101.0000000000001
 20
179.9999999999999
 30
0.0
 11
101.0000000000001
 21
189.9999999999999
 31
0.0
  0
LINE
  5
24C
  8
ZUWAKU
  6
CONTINUOUS
 62
     3
 10
-97.0
 20
184.9999999999999
 30
0.0
 11
-97.0
 21
189.9999999999999
 31
0.0
  0
LINE
  5
24D
  8
ZUWAKU
  6
CONTINUOUS
 62
     3
 10
-277.0
 20
184.9999999999999
 30
0.0
 11
-97.0
 21
184.9999999999999
 31
0.0
  0
LINE
  5
24E
  8
ZUWAKU
  6
CONTINUOUS
 62
     3
 10
97.00000000000001
 20
-190.0
 30
0.0
 11
97.00000000000001
 21
-130.0
 31
0.0
  0
LINE
  5
24F
  8
ZUWAKU
  6
CONTINUOUS
 62
     3
 10
97.00000000000001
 20
-176.0
 30
0.0
 11
277.0
 21
-176.0
 31
0.0
  0
LINE
  5
250
  8
ZUWAKU
  6
CONTINUOUS
 62
     3
 10
146.0
 20
-162.0
 30
0.0
 11
277.0
 21
-162.0
 31
0.0
  0
LINE
  5
251
  8
ZUWAKU
  6
CONTINUOUS
 62
     3
 10
146.0
 20
-148.0
 30
0.0
 11
277.0
 21
-148.0
 31
0.0
  0
LINE
  5
252
  8
ZUWAKU
  6
CONTINUOUS
 62
     3
 10
146.0
 20
-138.0
 30
0.0
 11
277.0
 21
-138.0
 31
0.0
  0
LINE
  5
253
  8
ZUWAKU
  6
CONTINUOUS
 62
     3
 10
146.0
 20
-176.0
 30
0.0
 11
146.0
 21
-130.0
 31
0.0
  0
LINE
  5
254
  8
ZUWAKU
  6
CONTINUOUS
 62
     3
 10
255.0
 20
-176.0
 30
0.0
 11
255.0
 21
-130.0
 31
0.0
  0
LINE
  5
255
  8
ZUWAKU
  6
CONTINUOUS
 62
     3
 10
171.0
 20
-190.0
 30
0.0
 11
171.0
 21
-176.0
 31
0.0
  0
LINE
  5
256
  8
ZUWAKU
  6
CONTINUOUS
 62
     3
 10
262.0
 20
-188.0
 30
0.0
 11
272.0
 21
-188.0
 31
0.0
  0
LINE
  5
257
  8
ZUWAKU
  6
CONTINUOUS
 62
     3
 10
267.0
 20
-178.0
 30
0.0
 11
262.0
 21
-188.0
 31
0.0
  0
LINE
  5
258
  8
ZUWAKU
  6
CONTINUOUS
 62
     3
 10
267.0
 20
-178.0
 30
0.0
 11
272.0
 21
-188.0
 31
0.0
  0
LINE
  5
259
  8
ZUWAKU
  6
CONTINUOUS
 62
     3
 10
97.00000000000001
 20
-130.0
 30
0.0
 11
277.0
 21
-130.0
 31
0.0
  0
LINE
  5
25A
  8
ZUWAKU
  6
CONTINUOUS
 62
     3
 10
226.0
 20
-176.0
 30
0.0
 11
226.0
 21
-148.0
 31
0.0
  0
LINE
  5
25B
  8
ZUWAKU
  6
CONTINUOUS
 62
     4
 10
258.7500000000001
 20
179.9999999999999
 30
0.0
 11
258.7500000000001
 21
189.9999999999999
 31
0.0
  0
LINE
  5
25C
  8
ZUWAKU
  6
CONTINUOUS
 62
     4
 10
240.5000000000001
 20
179.9999999999999
 30
0.0
 11
240.5000000000001
 21
189.9999999999999
 31
0.0
  0
LINE
  5
25D
  8
ZUWAKU
  6
CONTINUOUS
 62
     4
 10
222.2500000000001
 20
179.9999999999999
 30
0.0
 11
222.2500000000001
 21
189.9999999999999
 31
0.0
  0
LINE
  5
25E
  8
ZUWAKU
  6
CONTINUOUS
 62
     4
 10
204.0000000000001
 20
179.9999999999999
 30
0.0
 11
204.0000000000001
 21
189.9999999999999
 31
0.0
  0
LINE
  5
25F
  8
ZUWAKU
  6
CONTINUOUS
 62
     4
 10
185.7500000000001
 20
179.9999999999999
 30
0.0
 11
185.7500000000001
 21
189.9999999999999
 31
0.0
  0
LINE
  5
260
  8
ZUWAKU
  6
CONTINUOUS
 62
     4
 10
167.5000000000001
 20
179.9999999999999
 30
0.0
 11
167.5000000000001
 21
189.9999999999999
 31
0.0
  0
LINE
  5
261
  8
ZUWAKU
  6
CONTINUOUS
 62
     4
 10
149.2500000000001
 20
179.9999999999999
 30
0.0
 11
149.2500000000001
 21
189.9999999999999
 31
0.0
  0
LINE
  5
262
  8
ZUWAKU
  6
CONTINUOUS
 62
     4
 10
131.0000000000001
 20
183.3333333333337
 30
0.0
 11
276.8559329553406
 21
183.3333333333337
 31
0.0
  0
LINE
  5
263
  8
ZUWAKU
  6
CONTINUOUS
 62
     4
 10
131.0000000000001
 20
189.9999999999999
 30
0.0
 11
131.0000000000001
 21
179.9999999999999
 31
0.0
  0
LINE
  5
264
  8
ZUWAKU
  6
CONTINUOUS
 62
     4
 10
-218.2925710077994
 20
188.476174033853
 30
0.0
 11
-219.4472715461787
 21
186.476174033853
 31
0.0
  0
LINE
  5
265
  8
ZUWAKU
  6
CONTINUOUS
 62
     4
 10
-219.4472715461787
 20
186.476174033853
 30
0.0
 11
-220.6019720845579
 21
188.476174033853
 31
0.0
  0
LINE
  5
266
  8
ZUWAKU
  6
CONTINUOUS
 62
     4
 10
-132.8638689229955
 20
188.4983433964739
 30
0.0
 11
-125.9411428538446
 21
188.4983433964739
 31
0.0
  0
LINE
  5
267
  8
ZUWAKU
  6
CONTINUOUS
 62
     4
 10
-125.9411428538446
 20
188.4983433964739
 30
0.0
 11
-127.0958433922238
 21
186.4983433964739
 31
0.0
  0
LINE
  5
268
  8
ZUWAKU
  6
CONTINUOUS
 62
     4
 10
-127.0958433922238
 20
186.4983433964739
 30
0.0
 11
-128.2586885975162
 21
188.5124503733781
 31
0.0
  0
LINE
  5
269
  8
ZUWAKU
  6
CONTINUOUS
 62
     4
 10
-128.2505439306031
 20
188.4983433964739
 30
0.0
 11
-129.4025058884201
 21
186.5030867571485
 31
0.0
  0
LINE
  5
26A
  8
ZUWAKU
  6
CONTINUOUS
 62
     4
 10
-129.4025058884201
 20
186.5030867571485
 30
0.0
 11
-130.5545291860738
 21
188.4984496401879
 31
0.0
  0
LINE
  5
26B
  8
ZUWAKU
  6
CONTINUOUS
 62
     4
 10
-130.554467846237
 20
188.4983433964739
 30
0.0
 11
-131.7148559129413
 21
186.4884923084454
 31
0.0
  0
LINE
  5
26C
  8
ZUWAKU
  6
CONTINUOUS
 62
     4
 10
-131.7091683846163
 20
186.4983433964739
 30
0.0
 11
-132.8663986750254
 21
188.5027250555201
 31
0.0
  0
LINE
  5
26D
  8
ZUWAKU
  6
CONTINUOUS
 62
     4
 10
-177.8965033760828
 20
188.531573759697
 30
0.0
 11
-170.9737773069319
 21
188.531573759697
 31
0.0
  0
LINE
  5
26E
  8
ZUWAKU
  6
CONTINUOUS
 62
     4
 10
-170.9737773069319
 20
188.531573759697
 30
0.0
 11
-172.1284778453111
 21
186.531573759697
 31
0.0
  0
LINE
  5
26F
  8
ZUWAKU
  6
CONTINUOUS
 62
     4
 10
-172.1284778453111
 20
186.531573759697
 30
0.0
 11
-173.2913230506035
 21
188.5456807366012
 31
0.0
  0
LINE
  5
270
  8
ZUWAKU
  6
CONTINUOUS
 62
     4
 10
-173.2831783836904
 20
188.531573759697
 30
0.0
 11
-174.4351403415073
 21
186.5363171203715
 31
0.0
  0
LINE
  5
271
  8
ZUWAKU
  6
CONTINUOUS
 62
     4
 10
-174.4351403415073
 20
186.5363171203715
 30
0.0
 11
-175.5871636391611
 21
188.531680003411
 31
0.0
  0
LINE
  5
272
  8
ZUWAKU
  6
CONTINUOUS
 62
     4
 10
-175.5871022993243
 20
188.531573759697
 30
0.0
 11
-176.7474903660286
 21
186.5217226716685
 31
0.0
  0
LINE
  5
273
  8
ZUWAKU
  6
CONTINUOUS
 62
     4
 10
-176.7418028377036
 20
186.531573759697
 30
0.0
 11
-177.8990331281126
 21
188.5359554187432
 31
0.0
  0
LINE
  5
274
  8
ZUWAKU
  6
CONTINUOUS
 62
     4
 10
-200.3670241701527
 20
188.5727405553386
 30
0.0
 11
-195.7536991777603
 21
188.5727405553386
 31
0.0
  0
LINE
  5
275
  8
ZUWAKU
  6
CONTINUOUS
 62
     4
 10
-195.7536991777603
 20
188.5727405553386
 30
0.0
 11
-196.9083997161396
 21
186.5727405553386
 31
0.0
  0
LINE
  5
276
  8
ZUWAKU
  6
CONTINUOUS
 62
     4
 10
-196.9083997161396
 20
186.5727405553386
 30
0.0
 11
-198.0712449214319
 21
188.5868475322428
 31
0.0
  0
LINE
  5
277
  8
ZUWAKU
  6
CONTINUOUS
 62
     4
 10
-198.0631002545189
 20
188.5727405553386
 30
0.0
 11
-199.2150622123358
 21
186.5774839160132
 31
0.0
  0
LINE
  5
278
  8
ZUWAKU
  6
CONTINUOUS
 62
     4
 10
-199.2150622123358
 20
186.5774839160132
 30
0.0
 11
-200.3670855099896
 21
188.5728467990526
 31
0.0
  0
LINE
  5
279
  8
ZUWAKU
  6
CONTINUOUS
 62
     4
 10
-220.6019720845579
 20
188.476174033853
 30
0.0
 11
-218.2925710077994
 21
188.476174033853
 31
0.0
  0
LINE
  5
27A
  8
ZUWAKU
  6
CONTINUOUS
 62
     4
 10
-154.7449214064321
 20
187.3569078961084
 30
0.0
 11
-149.1487224992438
 21
187.3569078961084
 31
0.0
  0
LINE
  5
27B
  8
ZUWAKU
  6
CONTINUOUS
 62
     4
 10
-149.1487224992438
 20
187.3569078961084
 30
0.0
 11
-150.0821602557662
 21
185.7401462761084
 31
0.0
  0
LINE
  5
27C
  8
ZUWAKU
  6
CONTINUOUS
 62
     4
 10
-150.0821602557662
 20
185.7401462761084
 30
0.0
 11
-151.0221820047251
 21
187.3683117055248
 31
0.0
  0
LINE
  5
27D
  8
ZUWAKU
  6
CONTINUOUS
 62
     4
 10
-151.0155980122888
 20
187.3569078961084
 30
0.0
 11
-151.946821952838
 21
185.7439807178525
 31
0.0
  0
LINE
  5
27E
  8
ZUWAKU
  6
CONTINUOUS
 62
     4
 10
-151.946821952838
 20
185.7439807178525
 30
0.0
 11
-152.8780954793341
 21
187.3569937814879
 31
0.0
  0
LINE
  5
27F
  8
ZUWAKU
  6
CONTINUOUS
 62
     4
 10
-152.8780458933872
 20
187.3569078961084
 30
0.0
 11
-153.816081338664
 21
185.7321828455884
 31
0.0
  0
LINE
  5
280
  8
ZUWAKU
  6
CONTINUOUS
 62
     4
 10
-153.8114836499097
 20
185.7401462761084
 30
0.0
 11
-154.7469664094271
 21
187.3604499451973
 31
0.0
  0
LINE
  5
281
  8
ZUWAKU
  6
CONTINUOUS
 62
     4
 10
-154.7449214064321
 20
187.3569078961084
 30
0.0
 11
-149.1487224992438
 21
187.3569078961084
 31
0.0
  0
LINE
  5
282
  8
ZUWAKU
  6
CONTINUOUS
 62
     4
 10
-149.1487224992438
 20
187.3569078961084
 30
0.0
 11
-150.0821602557662
 21
185.7401462761084
 31
0.0
  0
LINE
  5
283
  8
ZUWAKU
  6
CONTINUOUS
 62
     4
 10
-150.0821602557662
 20
185.7401462761084
 30
0.0
 11
-151.0221820047251
 21
187.3683117055248
 31
0.0
  0
LINE
  5
284
  8
ZUWAKU
  6
CONTINUOUS
 62
     4
 10
-151.0155980122888
 20
187.3569078961084
 30
0.0
 11
-151.946821952838
 21
185.7439807178525
 31
0.0
  0
LINE
  5
285
  8
ZUWAKU
  6
CONTINUOUS
 62
     4
 10
-151.946821952838
 20
185.7439807178525
 30
0.0
 11
-152.8780954793341
 21
187.3569937814879
 31
0.0
  0
LINE
  5
286
  8
ZUWAKU
  6
CONTINUOUS
 62
     4
 10
-152.8780458933872
 20
187.3569078961084
 30
0.0
 11
-153.816081338664
 21
185.7321828455884
 31
0.0
  0
LINE
  5
287
  8
ZUWAKU
  6
CONTINUOUS
 62
     4
 10
-153.8114836499097
 20
185.7401462761084
 30
0.0
 11
-154.7469664094271
 21
187.3604499451973
 31
0.0
  0
LINE
  5
288
  8
ZUWAKU
  6
CONTINUOUS
 62
     4
 10
-126.0958433922238
 20
188.4983433964739
 30
0.0
 11
-127.4618687960083
 21
187.1323179926895
 31
0.0
  0
LINE
  5
289
  8
ZUWAKU
  6
CONTINUOUS
 62
     4
 10
-126.2372647484611
 20
188.4983433964739
 30
0.0
 11
-127.5136326050288
 21
187.2219755399063
 31
0.0
  0
LINE
  5
28A
  8
ZUWAKU
  6
CONTINUOUS
 62
     4
 10
-126.3786861046984
 20
188.4983433964739
 30
0.0
 11
-127.5653964140492
 21
187.3116330871231
 31
0.0
  0
LINE
  5
28B
  8
ZUWAKU
  6
CONTINUOUS
 62
     4
 10
-126.5201074609357
 20
188.4983433964739
 30
0.0
 11
-127.6171602230698
 21
187.4012906343399
 31
0.0
  0
LINE
  5
28C
  8
ZUWAKU
  6
CONTINUOUS
 62
     4
 10
-126.661528817173
 20
188.4983433964739
 30
0.0
 11
-127.6689240320903
 21
187.4909481815566
 31
0.0
  0
LINE
  5
28D
  8
ZUWAKU
  6
CONTINUOUS
 62
     4
 10
-126.8029501734103
 20
188.4983433964739
 30
0.0
 11
-127.7206878411108
 21
187.5806057287734
 31
0.0
  0
LINE
  5
28E
  8
ZUWAKU
  6
CONTINUOUS
 62
     4
 10
-126.9443715296476
 20
188.4983433964739
 30
0.0
 11
-127.7724516501312
 21
187.6702632759902
 31
0.0
  0
LINE
  5
28F
  8
ZUWAKU
  6
CONTINUOUS
 62
     4
 10
-127.0857928858848
 20
188.4983433964739
 30
0.0
 11
-127.8242154591517
 21
187.759920823207
 31
0.0
  0
LINE
  5
290
  8
ZUWAKU
  6
CONTINUOUS
 62
     4
 10
-127.2272142421221
 20
188.4983433964739
 30
0.0
 11
-127.8759792681722
 21
187.8495783704238
 31
0.0
  0
LINE
  5
291
  8
ZUWAKU
  6
CONTINUOUS
 62
     4
 10
-127.3686355983594
 20
188.4983433964739
 30
0.0
 11
-127.9277430771927
 21
187.9392359176406
 31
0.0
  0
LINE
  5
292
  8
ZUWAKU
  6
CONTINUOUS
 62
     4
 10
-127.5100569545967
 20
188.4983433964739
 30
0.0
 11
-127.9795068862132
 21
188.0288934648574
 31
0.0
  0
LINE
  5
293
  8
ZUWAKU
  6
CONTINUOUS
 62
     4
 10
-127.651478310834
 20
188.4983433964739
 30
0.0
 11
-128.0312706952337
 21
188.1185510120742
 31
0.0
  0
LINE
  5
294
  8
ZUWAKU
  6
CONTINUOUS
 62
     4
 10
-127.7928996670713
 20
188.4983433964739
 30
0.0
 11
-128.0830345042542
 21
188.208208559291
 31
0.0
  0
LINE
  5
295
  8
ZUWAKU
  6
CONTINUOUS
 62
     4
 10
-127.9343210233085
 20
188.4983433964739
 30
0.0
 11
-128.1347983132747
 21
188.2978661065078
 31
0.0
  0
LINE
  5
296
  8
ZUWAKU
  6
CONTINUOUS
 62
     4
 10
-128.0757423795458
 20
188.4983433964739
 30
0.0
 11
-128.1865621222952
 21
188.3875236537246
 31
0.0
  0
LINE
  5
297
  8
ZUWAKU
  6
CONTINUOUS
 62
     4
 10
-128.2171637357831
 20
188.4983433964739
 30
0.0
 11
-128.2383259313157
 21
188.4771812009414
 31
0.0
  0
LINE
  5
298
  8
ZUWAKU
  6
CONTINUOUS
 62
     4
 10
-125.9544220359865
 20
188.4983433964739
 30
0.0
 11
-127.4101049869878
 21
187.0426604454726
 31
0.0
  0
LINE
  5
299
  8
ZUWAKU
  6
CONTINUOUS
 62
     4
 10
-126.116188318955
 20
188.1951557572682
 30
0.0
 11
-127.3583411779673
 21
186.9530028982558
 31
0.0
  0
LINE
  5
29A
  8
ZUWAKU
  6
CONTINUOUS
 62
     4
 10
-126.3093734842128
 20
187.8605492357731
 30
0.0
 11
-127.3065773689468
 21
186.863345351039
 31
0.0
  0
LINE
  5
29B
  8
ZUWAKU
  6
CONTINUOUS
 62
     4
 10
-126.5025586494705
 20
187.525942714278
 30
0.0
 11
-127.2548135599263
 21
186.7736878038222
 31
0.0
  0
LINE
  5
29C
  8
ZUWAKU
  6
CONTINUOUS
 62
     4
 10
-126.6957438147284
 20
187.1913361927829
 30
0.0
 11
-127.2030497509058
 21
186.6840302566055
 31
0.0
  0
LINE
  5
29D
  8
ZUWAKU
  6
CONTINUOUS
 62
     4
 10
-126.8889289799861
 20
186.8567296712879
 30
0.0
 11
-127.1512859418853
 21
186.5943727093887
 31
0.0
  0
LINE
  5
29E
  8
ZUWAKU
  6
CONTINUOUS
 62
     4
 10
-127.0821141452439
 20
186.5221231497929
 30
0.0
 11
-127.0995221328648
 21
186.5047151621719
 31
0.0
  0
LINE
  5
29F
  8
ZUWAKU
  6
CONTINUOUS
 62
     4
 10
-128.0958433922239
 20
188.4983433964739
 30
0.0
 11
-126.7298179884394
 21
187.1323179926895
 31
0.0
  0
LINE
  5
2A0
  8
ZUWAKU
  6
CONTINUOUS
 62
     4
 10
-127.9544220359866
 20
188.4983433964739
 30
0.0
 11
-126.6780541794189
 21
187.2219755399063
 31
0.0
  0
LINE
  5
2A1
  8
ZUWAKU
  6
CONTINUOUS
 62
     4
 10
-127.8130006797493
 20
188.4983433964739
 30
0.0
 11
-126.6262903703984
 21
187.311633087123
 31
0.0
  0
LINE
  5
2A2
  8
ZUWAKU
  6
CONTINUOUS
 62
     4
 10
-127.671579323512
 20
188.4983433964739
 30
0.0
 11
-126.5745265613779
 21
187.4012906343398
 31
0.0
  0
LINE
  5
2A3
  8
ZUWAKU
  6
CONTINUOUS
 62
     4
 10
-127.5301579672747
 20
188.4983433964739
 30
0.0
 11
-126.5227627523574
 21
187.4909481815566
 31
0.0
  0
LINE
  5
2A4
  8
ZUWAKU
  6
CONTINUOUS
 62
     4
 10
-127.3887366110374
 20
188.4983433964739
 30
0.0
 11
-126.4709989433369
 21
187.5806057287734
 31
0.0
  0
LINE
  5
2A5
  8
ZUWAKU
  6
CONTINUOUS
 62
     4
 10
-127.2473152548002
 20
188.4983433964739
 30
0.0
 11
-126.4192351343164
 21
187.6702632759902
 31
0.0
  0
LINE
  5
2A6
  8
ZUWAKU
  6
CONTINUOUS
 62
     4
 10
-127.1058938985628
 20
188.4983433964739
 30
0.0
 11
-126.3674713252959
 21
187.759920823207
 31
0.0
  0
LINE
  5
2A7
  8
ZUWAKU
  6
CONTINUOUS
 62
     4
 10
-126.9644725423256
 20
188.4983433964739
 30
0.0
 11
-126.3157075162754
 21
187.8495783704238
 31
0.0
  0
LINE
  5
2A8
  8
ZUWAKU
  6
CONTINUOUS
 62
     4
 10
-126.8230511860883
 20
188.4983433964739
 30
0.0
 11
-126.2639437072549
 21
187.9392359176406
 31
0.0
  0
LINE
  5
2A9
  8
ZUWAKU
  6
CONTINUOUS
 62
     4
 10
-126.681629829851
 20
188.4983433964739
 30
0.0
 11
-126.2121798982344
 21
188.0288934648574
 31
0.0
  0
LINE
  5
2AA
  8
ZUWAKU
  6
CONTINUOUS
 62
     4
 10
-126.5402084736137
 20
188.4983433964739
 30
0.0
 11
-126.1604160892139
 21
188.1185510120742
 31
0.0
  0
LINE
  5
2AB
  8
ZUWAKU
  6
CONTINUOUS
 62
     4
 10
-126.3987871173764
 20
188.4983433964739
 30
0.0
 11
-126.1086522801934
 21
188.208208559291
 31
0.0
  0
LINE
  5
2AC
  8
ZUWAKU
  6
CONTINUOUS
 62
     4
 10
-126.2573657611391
 20
188.4983433964739
 30
0.0
 11
-126.056888471173
 21
188.2978661065078
 31
0.0
  0
LINE
  5
2AD
  8
ZUWAKU
  6
CONTINUOUS
 62
     4
 10
-126.1159444049019
 20
188.4983433964739
 30
0.0
 11
-126.0051246621524
 21
188.3875236537245
 31
0.0
  0
LINE
  5
2AE
  8
ZUWAKU
  6
CONTINUOUS
 62
     4
 10
-125.9745230486646
 20
188.4983433964739
 30
0.0
 11
-125.953360853132
 21
188.4771812009413
 31
0.0
  0
LINE
  5
2AF
  8
ZUWAKU
  6
CONTINUOUS
 62
     4
 10
-128.2372647484611
 20
188.4983433964739
 30
0.0
 11
-126.7815817974599
 21
187.0426604454726
 31
0.0
  0
LINE
  5
2B0
  8
ZUWAKU
  6
CONTINUOUS
 62
     4
 10
-128.0754984654926
 20
188.1951557572681
 30
0.0
 11
-126.8333456064804
 21
186.9530028982558
 31
0.0
  0
LINE
  5
2B1
  8
ZUWAKU
  6
CONTINUOUS
 62
     4
 10
-127.8823133002349
 20
187.860549235773
 30
0.0
 11
-126.8851094155009
 21
186.863345351039
 31
0.0
  0
LINE
  5
2B2
  8
ZUWAKU
  6
CONTINUOUS
 62
     4
 10
-127.6891281349771
 20
187.525942714278
 30
0.0
 11
-126.9368732245214
 21
186.7736878038222
 31
0.0
  0
LINE
  5
2B3
  8
ZUWAKU
  6
CONTINUOUS
 62
     4
 10
-127.4959429697194
 20
187.191336192783
 30
0.0
 11
-126.9886370335419
 21
186.6840302566054
 31
0.0
  0
LINE
  5
2B4
  8
ZUWAKU
  6
CONTINUOUS
 62
     4
 10
-127.3027578044616
 20
186.8567296712879
 30
0.0
 11
-127.0404008425624
 21
186.5943727093887
 31
0.0
  0
LINE
  5
2B5
  8
ZUWAKU
  6
CONTINUOUS
 62
     4
 10
-127.1095726392038
 20
186.5221231497929
 30
0.0
 11
-127.0921646515829
 21
186.5047151621719
 31
0.0
  0
LINE
  5
2B6
  8
ZUWAKU
  6
CONTINUOUS
 62
     4
 10
105.0
 20
-172.0
 30
0.0
 11
105.0
 21
-130.0
 31
0.0
  0
LINE
  5
2B7
  8
ZUWAKU
  6
CONTINUOUS
 62
     4
 10
109.0
 20
-172.0
 30
0.0
 11
109.0
 21
-130.0
 31
0.0
  0
LINE
  5
2B8
  8
ZUWAKU
  6
CONTINUOUS
 62
     4
 10
121.5
 20
-176.0
 30
0.0
 11
121.5
 21
-130.0
 31
0.0
  0
LINE
  5
2B9
  8
ZUWAKU
  6
CONTINUOUS
 62
     4
 10
97.00000000000001
 20
-137.0
 30
0.0
 11
146.0
 21
-137.0
 31
0.0
  0
LINE
  5
2BA
  8
ZUWAKU
  6
CONTINUOUS
 62
     4
 10
97.00000000000001
 20
-144.0
 30
0.0
 11
146.0
 21
-144.0
 31
0.0
  0
LINE
  5
2BB
  8
ZUWAKU
  6
CONTINUOUS
 62
     4
 10
97.00000000000001
 20
-165.0
 30
0.0
 11
146.0
 21
-165.0
 31
0.0
  0
LINE
  5
2BC
  8
ZUWAKU
  6
CONTINUOUS
 62
     4
 10
97.00000000000001
 20
-172.0
 30
0.0
 11
146.0
 21
-172.0
 31
0.0
  0
LINE
  5
2BD
  8
ZUWAKU
  6
CONTINUOUS
 62
     4
 10
255.0
 20
-166.0
 30
0.0
 11
277.0
 21
-166.0
 31
0.0
  0
LINE
  5
2BE
  8
ZUWAKU
  6
CONTINUOUS
 62
     4
 10
202.0
 20
-148.0
 30
0.0
 11
202.0
 21
-146.5
 31
0.0
  0
LINE
  5
2BF
  8
ZUWAKU
  6
CONTINUOUS
 62
     4
 10
226.0
 20
-148.0
 30
0.0
 11
226.0
 21
-146.5
 31
0.0
  0
LINE
  5
2C0
  8
ZUWAKU
  6
CONTINUOUS
 62
     4
 10
243.0
 20
-148.0
 30
0.0
 11
243.0
 21
-146.5
 31
0.0
  0
LINE
  5
2C1
  8
ZUWAKU
  6
CONTINUOUS
 62
     4
 10
97.00000000000001
 20
-151.0
 30
0.0
 11
146.0
 21
-151.0
 31
0.0
  0
LINE
  5
2C2
  8
ZUWAKU
  6
CONTINUOUS
 62
     4
 10
97.00000000000001
 20
-158.0
 30
0.0
 11
146.0
 21
-158.0
 31
0.0
  0
LINE
  5
2C3
  8
ZUWAKU
  6
CONTINUOUS
 62
     4
 10
101.0
 20
-130.5
 30
0.0
 11
98.00000000000001
 21
-136.5
 31
0.0
  0
LINE
  5
2C4
  8
ZUWAKU
  6
CONTINUOUS
 62
     4
 10
101.0
 20
-130.5
 30
0.0
 11
104.0
 21
-136.5
 31
0.0
  0
LINE
  5
2C5
  8
ZUWAKU
  6
CONTINUOUS
 62
     4
 10
98.00000000000001
 20
-136.5
 30
0.0
 11
104.0
 21
-136.5
 31
0.0
  0
LINE
  5
2C6
  8
ZUWAKU
  6
CONTINUOUS
 62
     4
 10
101.0
 20
-158.5
 30
0.0
 11
98.00000000000001
 21
-164.5
 31
0.0
  0
LINE
  5
2C7
  8
ZUWAKU
  6
CONTINUOUS
 62
     4
 10
101.0
 20
-158.5
 30
0.0
 11
104.0
 21
-164.5
 31
0.0
  0
LINE
  5
2C8
  8
ZUWAKU
  6
CONTINUOUS
 62
     4
 10
98.00000000000001
 20
-164.5
 30
0.0
 11
104.0
 21
-164.5
 31
0.0
  0
LINE
  5
2C9
  8
ZUWAKU
  6
CONTINUOUS
 62
     4
 10
101.0
 20
-151.5
 30
0.0
 11
98.00000000000001
 21
-157.5
 31
0.0
  0
LINE
  5
2CA
  8
ZUWAKU
  6
CONTINUOUS
 62
     4
 10
101.0
 20
-151.5
 30
0.0
 11
104.0
 21
-157.5
 31
0.0
  0
LINE
  5
2CB
  8
ZUWAKU
  6
CONTINUOUS
 62
     4
 10
98.00000000000001
 20
-157.5
 30
0.0
 11
104.0
 21
-157.5
 31
0.0
  0
LINE
  5
2CC
  8
ZUWAKU
  6
CONTINUOUS
 62
     4
 10
101.0
 20
-144.5
 30
0.0
 11
98.00000000000001
 21
-150.5
 31
0.0
  0
LINE
  5
2CD
  8
ZUWAKU
  6
CONTINUOUS
 62
     4
 10
101.0
 20
-144.5
 30
0.0
 11
104.0
 21
-150.5
 31
0.0
  0
LINE
  5
2CE
  8
ZUWAKU
  6
CONTINUOUS
 62
     4
 10
98.00000000000001
 20
-150.5
 30
0.0
 11
104.0
 21
-150.5
 31
0.0
  0
LINE
  5
2CF
  8
ZUWAKU
  6
CONTINUOUS
 62
     4
 10
101.0
 20
-137.5
 30
0.0
 11
98.00000000000001
 21
-143.5
 31
0.0
  0
LINE
  5
2D0
  8
ZUWAKU
  6
CONTINUOUS
 62
     4
 10
101.0
 20
-137.5
 30
0.0
 11
104.0
 21
-143.5
 31
0.0
  0
LINE
  5
2D1
  8
ZUWAKU
  6
CONTINUOUS
 62
     4
 10
98.00000000000001
 20
-143.5
 30
0.0
 11
104.0
 21
-143.5
 31
0.0
  0
LINE
  5
2D2
  8
ZUWAKU
  6
CONTINUOUS
 62
     4
 10
172.6666666666666
 20
-176.0
 30
0.0
 11
172.6666666666666
 21
-162.0
 31
0.0
  0
LINE
  5
2D3
  8
ZUWAKU
  6
CONTINUOUS
 62
     4
 10
199.3333333333333
 20
-176.0
 30
0.0
 11
199.3333333333333
 21
-161.9509415757253
 31
0.0
  0
LINE
  5
2D4
  8
ZUWAKU
  6
CONTINUOUS
 62
     4
 10
212.6666666666666
 20
-167.5
 30
0.0
 11
212.6666666666666
 21
-161.9509415757253
 31
0.0
  0
LINE
  5
2D5
  8
ZUWAKU
  6
CONTINUOUS
 62
     4
 10
226.0
 20
-155.0
 30
0.0
 11
255.0
 21
-155.0
 31
0.0
  0
LINE
  5
2D6
  8
ZUWAKU
  6
CONTINUOUS
 62
     4
 10
146.0
 20
-166.0
 30
0.0
 11
226.0
 21
-166.0
 31
0.0
  0
LINE
  5
2D7
  8
ZUWAKU
  6
CONTINUOUS
 62
     4
 10
258.7500000000001
 20
179.9999999999999
 30
0.0
 11
258.7500000000001
 21
189.9999999999999
 31
0.0
  0
LINE
  5
2D8
  8
ZUWAKU
  6
CONTINUOUS
 62
     4
 10
240.5000000000001
 20
179.9999999999999
 30
0.0
 11
240.5000000000001
 21
189.9999999999999
 31
0.0
  0
LINE
  5
2D9
  8
ZUWAKU
  6
CONTINUOUS
 62
     4
 10
222.2500000000001
 20
179.9999999999999
 30
0.0
 11
222.2500000000001
 21
189.9999999999999
 31
0.0
  0
LINE
  5
2DA
  8
ZUWAKU
  6
CONTINUOUS
 62
     4
 10
204.0000000000001
 20
179.9999999999999
 30
0.0
 11
204.0000000000001
 21
189.9999999999999
 31
0.0
  0
LINE
  5
2DB
  8
ZUWAKU
  6
CONTINUOUS
 62
     4
 10
185.7500000000001
 20
179.9999999999999
 30
0.0
 11
185.7500000000001
 21
189.9999999999999
 31
0.0
  0
LINE
  5
2DC
  8
ZUWAKU
  6
CONTINUOUS
 62
     4
 10
167.5000000000001
 20
179.9999999999999
 30
0.0
 11
167.5000000000001
 21
189.9999999999999
 31
0.0
  0
LINE
  5
2DD
  8
ZUWAKU
  6
CONTINUOUS
 62
     4
 10
149.2500000000001
 20
179.9999999999999
 30
0.0
 11
149.2500000000001
 21
189.9999999999999
 31
0.0
  0
LINE
  5
2DE
  8
ZUWAKU
  6
CONTINUOUS
 62
     4
 10
131.0000000000001
 20
183.3333333333337
 30
0.0
 11
276.8559329553406
 21
183.3333333333337
 31
0.0
  0
LINE
  5
2DF
  8
ZUWAKU
  6
CONTINUOUS
 62
     4
 10
131.0000000000001
 20
189.9999999999999
 30
0.0
 11
131.0000000000001
 21
179.9999999999999
 31
0.0
  0
LINE
  5
2E0
  8
ZUWAKU
  6
CONTINUOUS
 62
     4
 10
-218.2925710077994
 20
188.476174033853
 30
0.0
 11
-219.4472715461787
 21
186.476174033853
 31
0.0
  0
LINE
  5
2E1
  8
ZUWAKU
  6
CONTINUOUS
 62
     4
 10
-219.4472715461787
 20
186.476174033853
 30
0.0
 11
-220.6019720845579
 21
188.476174033853
 31
0.0
  0
LINE
  5
2E2
  8
ZUWAKU
  6
CONTINUOUS
 62
     4
 10
-132.8638689229955
 20
188.4983433964739
 30
0.0
 11
-125.9411428538446
 21
188.4983433964739
 31
0.0
  0
LINE
  5
2E3
  8
ZUWAKU
  6
CONTINUOUS
 62
     4
 10
-125.9411428538446
 20
188.4983433964739
 30
0.0
 11
-127.0958433922238
 21
186.4983433964739
 31
0.0
  0
LINE
  5
2E4
  8
ZUWAKU
  6
CONTINUOUS
 62
     4
 10
-127.0958433922238
 20
186.4983433964739
 30
0.0
 11
-128.2586885975162
 21
188.5124503733781
 31
0.0
  0
LINE
  5
2E5
  8
ZUWAKU
  6
CONTINUOUS
 62
     4
 10
-128.2505439306031
 20
188.4983433964739
 30
0.0
 11
-129.4025058884201
 21
186.5030867571485
 31
0.0
  0
LINE
  5
2E6
  8
ZUWAKU
  6
CONTINUOUS
 62
     4
 10
-129.4025058884201
 20
186.5030867571485
 30
0.0
 11
-130.5545291860738
 21
188.4984496401879
 31
0.0
  0
LINE
  5
2E7
  8
ZUWAKU
  6
CONTINUOUS
 62
     4
 10
-130.554467846237
 20
188.4983433964739
 30
0.0
 11
-131.7148559129413
 21
186.4884923084454
 31
0.0
  0
LINE
  5
2E8
  8
ZUWAKU
  6
CONTINUOUS
 62
     4
 10
-131.7091683846163
 20
186.4983433964739
 30
0.0
 11
-132.8663986750254
 21
188.5027250555201
 31
0.0
  0
LINE
  5
2E9
  8
ZUWAKU
  6
CONTINUOUS
 62
     4
 10
-177.8965033760828
 20
188.531573759697
 30
0.0
 11
-170.9737773069319
 21
188.531573759697
 31
0.0
  0
LINE
  5
2EA
  8
ZUWAKU
  6
CONTINUOUS
 62
     4
 10
-170.9737773069319
 20
188.531573759697
 30
0.0
 11
-172.1284778453111
 21
186.531573759697
 31
0.0
  0
LINE
  5
2EB
  8
ZUWAKU
  6
CONTINUOUS
 62
     4
 10
-172.1284778453111
 20
186.531573759697
 30
0.0
 11
-173.2913230506035
 21
188.5456807366012
 31
0.0
  0
LINE
  5
2EC
  8
ZUWAKU
  6
CONTINUOUS
 62
     4
 10
-173.2831783836904
 20
188.531573759697
 30
0.0
 11
-174.4351403415073
 21
186.5363171203715
 31
0.0
  0
LINE
  5
2ED
  8
ZUWAKU
  6
CONTINUOUS
 62
     4
 10
-174.4351403415073
 20
186.5363171203715
 30
0.0
 11
-175.5871636391611
 21
188.531680003411
 31
0.0
  0
LINE
  5
2EE
  8
ZUWAKU
  6
CONTINUOUS
 62
     4
 10
-175.5871022993243
 20
188.531573759697
 30
0.0
 11
-176.7474903660286
 21
186.5217226716685
 31
0.0
  0
LINE
  5
2EF
  8
ZUWAKU
  6
CONTINUOUS
 62
     4
 10
-176.7418028377036
 20
186.531573759697
 30
0.0
 11
-177.8990331281126
 21
188.5359554187432
 31
0.0
  0
LINE
  5
2F0
  8
ZUWAKU
  6
CONTINUOUS
 62
     4
 10
-200.3670241701527
 20
188.5727405553386
 30
0.0
 11
-195.7536991777603
 21
188.5727405553386
 31
0.0
  0
LINE
  5
2F1
  8
ZUWAKU
  6
CONTINUOUS
 62
     4
 10
-195.7536991777603
 20
188.5727405553386
 30
0.0
 11
-196.9083997161396
 21
186.5727405553386
 31
0.0
  0
LINE
  5
2F2
  8
ZUWAKU
  6
CONTINUOUS
 62
     4
 10
-196.9083997161396
 20
186.5727405553386
 30
0.0
 11
-198.0712449214319
 21
188.5868475322428
 31
0.0
  0
LINE
  5
2F3
  8
ZUWAKU
  6
CONTINUOUS
 62
     4
 10
-198.0631002545189
 20
188.5727405553386
 30
0.0
 11
-199.2150622123358
 21
186.5774839160132
 31
0.0
  0
LINE
  5
2F4
  8
ZUWAKU
  6
CONTINUOUS
 62
     4
 10
-199.2150622123358
 20
186.5774839160132
 30
0.0
 11
-200.3670855099896
 21
188.5728467990526
 31
0.0
  0
LINE
  5
2F5
  8
ZUWAKU
  6
CONTINUOUS
 62
     4
 10
-220.6019720845579
 20
188.476174033853
 30
0.0
 11
-218.2925710077994
 21
188.476174033853
 31
0.0
  0
LINE
  5
2F6
  8
ZUWAKU
  6
CONTINUOUS
 62
     4
 10
-154.7449214064321
 20
187.3569078961084
 30
0.0
 11
-149.1487224992438
 21
187.3569078961084
 31
0.0
  0
LINE
  5
2F7
  8
ZUWAKU
  6
CONTINUOUS
 62
     4
 10
-149.1487224992438
 20
187.3569078961084
 30
0.0
 11
-150.0821602557662
 21
185.7401462761084
 31
0.0
  0
LINE
  5
2F8
  8
ZUWAKU
  6
CONTINUOUS
 62
     4
 10
-150.0821602557662
 20
185.7401462761084
 30
0.0
 11
-151.0221820047251
 21
187.3683117055248
 31
0.0
  0
LINE
  5
2F9
  8
ZUWAKU
  6
CONTINUOUS
 62
     4
 10
-151.0155980122888
 20
187.3569078961084
 30
0.0
 11
-151.946821952838
 21
185.7439807178525
 31
0.0
  0
LINE
  5
2FA
  8
ZUWAKU
  6
CONTINUOUS
 62
     4
 10
-151.946821952838
 20
185.7439807178525
 30
0.0
 11
-152.8780954793341
 21
187.3569937814879
 31
0.0
  0
LINE
  5
2FB
  8
ZUWAKU
  6
CONTINUOUS
 62
     4
 10
-152.8780458933872
 20
187.3569078961084
 30
0.0
 11
-153.816081338664
 21
185.7321828455884
 31
0.0
  0
LINE
  5
2FC
  8
ZUWAKU
  6
CONTINUOUS
 62
     4
 10
-153.8114836499097
 20
185.7401462761084
 30
0.0
 11
-154.7469664094271
 21
187.3604499451973
 31
0.0
  0
LINE
  5
2FD
  8
ZUWAKU
  6
CONTINUOUS
 62
     4
 10
-154.7449214064321
 20
187.3569078961084
 30
0.0
 11
-149.1487224992438
 21
187.3569078961084
 31
0.0
  0
LINE
  5
2FE
  8
ZUWAKU
  6
CONTINUOUS
 62
     4
 10
-149.1487224992438
 20
187.3569078961084
 30
0.0
 11
-150.0821602557662
 21
185.7401462761084
 31
0.0
  0
LINE
  5
2FF
  8
ZUWAKU
  6
CONTINUOUS
 62
     4
 10
-150.0821602557662
 20
185.7401462761084
 30
0.0
 11
-151.0221820047251
 21
187.3683117055248
 31
0.0
  0
LINE
  5
300
  8
ZUWAKU
  6
CONTINUOUS
 62
     4
 10
-151.0155980122888
 20
187.3569078961084
 30
0.0
 11
-151.946821952838
 21
185.7439807178525
 31
0.0
  0
LINE
  5
301
  8
ZUWAKU
  6
CONTINUOUS
 62
     4
 10
-151.946821952838
 20
185.7439807178525
 30
0.0
 11
-152.8780954793341
 21
187.3569937814879
 31
0.0
  0
LINE
  5
302
  8
ZUWAKU
  6
CONTINUOUS
 62
     4
 10
-152.8780458933872
 20
187.3569078961084
 30
0.0
 11
-153.816081338664
 21
185.7321828455884
 31
0.0
  0
LINE
  5
303
  8
ZUWAKU
  6
CONTINUOUS
 62
     4
 10
-153.8114836499097
 20
185.7401462761084
 30
0.0
 11
-154.7469664094271
 21
187.3604499451973
 31
0.0
  0
LINE
  5
304
  8
ZUWAKU
  6
CONTINUOUS
 62
     4
 10
-126.0958433922238
 20
188.4983433964739
 30
0.0
 11
-127.4618687960083
 21
187.1323179926895
 31
0.0
  0
LINE
  5
305
  8
ZUWAKU
  6
CONTINUOUS
 62
     4
 10
-126.2372647484611
 20
188.4983433964739
 30
0.0
 11
-127.5136326050288
 21
187.2219755399063
 31
0.0
  0
LINE
  5
306
  8
ZUWAKU
  6
CONTINUOUS
 62
     4
 10
-126.3786861046984
 20
188.4983433964739
 30
0.0
 11
-127.5653964140492
 21
187.3116330871231
 31
0.0
  0
LINE
  5
307
  8
ZUWAKU
  6
CONTINUOUS
 62
     4
 10
-126.5201074609357
 20
188.4983433964739
 30
0.0
 11
-127.6171602230698
 21
187.4012906343399
 31
0.0
  0
LINE
  5
308
  8
ZUWAKU
  6
CONTINUOUS
 62
     4
 10
-126.661528817173
 20
188.4983433964739
 30
0.0
 11
-127.6689240320903
 21
187.4909481815566
 31
0.0
  0
LINE
  5
309
  8
ZUWAKU
  6
CONTINUOUS
 62
     4
 10
-126.8029501734103
 20
188.4983433964739
 30
0.0
 11
-127.7206878411108
 21
187.5806057287734
 31
0.0
  0
LINE
  5
30A
  8
ZUWAKU
  6
CONTINUOUS
 62
     4
 10
-126.9443715296476
 20
188.4983433964739
 30
0.0
 11
-127.7724516501312
 21
187.6702632759902
 31
0.0
  0
LINE
  5
30B
  8
ZUWAKU
  6
CONTINUOUS
 62
     4
 10
-127.0857928858848
 20
188.4983433964739
 30
0.0
 11
-127.8242154591517
 21
187.759920823207
 31
0.0
  0
LINE
  5
30C
  8
ZUWAKU
  6
CONTINUOUS
 62
     4
 10
-127.2272142421221
 20
188.4983433964739
 30
0.0
 11
-127.8759792681722
 21
187.8495783704238
 31
0.0
  0
LINE
  5
30D
  8
ZUWAKU
  6
CONTINUOUS
 62
     4
 10
-127.3686355983594
 20
188.4983433964739
 30
0.0
 11
-127.9277430771927
 21
187.9392359176406
 31
0.0
  0
LINE
  5
30E
  8
ZUWAKU
  6
CONTINUOUS
 62
     4
 10
-127.5100569545967
 20
188.4983433964739
 30
0.0
 11
-127.9795068862132
 21
188.0288934648574
 31
0.0
  0
LINE
  5
30F
  8
ZUWAKU
  6
CONTINUOUS
 62
     4
 10
-127.651478310834
 20
188.4983433964739
 30
0.0
 11
-128.0312706952337
 21
188.1185510120742
 31
0.0
  0
LINE
  5
310
  8
ZUWAKU
  6
CONTINUOUS
 62
     4
 10
-127.7928996670713
 20
188.4983433964739
 30
0.0
 11
-128.0830345042542
 21
188.208208559291
 31
0.0
  0
LINE
  5
311
  8
ZUWAKU
  6
CONTINUOUS
 62
     4
 10
-127.9343210233085
 20
188.4983433964739
 30
0.0
 11
-128.1347983132747
 21
188.2978661065078
 31
0.0
  0
LINE
  5
312
  8
ZUWAKU
  6
CONTINUOUS
 62
     4
 10
-128.0757423795458
 20
188.4983433964739
 30
0.0
 11
-128.1865621222952
 21
188.3875236537246
 31
0.0
  0
LINE
  5
313
  8
ZUWAKU
  6
CONTINUOUS
 62
     4
 10
-128.2171637357831
 20
188.4983433964739
 30
0.0
 11
-128.2383259313157
 21
188.4771812009414
 31
0.0
  0
LINE
  5
314
  8
ZUWAKU
  6
CONTINUOUS
 62
     4
 10
-125.9544220359865
 20
188.4983433964739
 30
0.0
 11
-127.4101049869878
 21
187.0426604454726
 31
0.0
  0
LINE
  5
315
  8
ZUWAKU
  6
CONTINUOUS
 62
     4
 10
-126.116188318955
 20
188.1951557572682
 30
0.0
 11
-127.3583411779673
 21
186.9530028982558
 31
0.0
  0
LINE
  5
316
  8
ZUWAKU
  6
CONTINUOUS
 62
     4
 10
-126.3093734842128
 20
187.8605492357731
 30
0.0
 11
-127.3065773689468
 21
186.863345351039
 31
0.0
  0
LINE
  5
317
  8
ZUWAKU
  6
CONTINUOUS
 62
     4
 10
-126.5025586494705
 20
187.525942714278
 30
0.0
 11
-127.2548135599263
 21
186.7736878038222
 31
0.0
  0
LINE
  5
318
  8
ZUWAKU
  6
CONTINUOUS
 62
     4
 10
-126.6957438147284
 20
187.1913361927829
 30
0.0
 11
-127.2030497509058
 21
186.6840302566055
 31
0.0
  0
LINE
  5
319
  8
ZUWAKU
  6
CONTINUOUS
 62
     4
 10
-126.8889289799861
 20
186.8567296712879
 30
0.0
 11
-127.1512859418853
 21
186.5943727093887
 31
0.0
  0
LINE
  5
31A
  8
ZUWAKU
  6
CONTINUOUS
 62
     4
 10
-127.0821141452439
 20
186.5221231497929
 30
0.0
 11
-127.0995221328648
 21
186.5047151621719
 31
0.0
  0
LINE
  5
31B
  8
ZUWAKU
  6
CONTINUOUS
 62
     4
 10
-128.0958433922239
 20
188.4983433964739
 30
0.0
 11
-126.7298179884394
 21
187.1323179926895
 31
0.0
  0
LINE
  5
31C
  8
ZUWAKU
  6
CONTINUOUS
 62
     4
 10
-127.9544220359866
 20
188.4983433964739
 30
0.0
 11
-126.6780541794189
 21
187.2219755399063
 31
0.0
  0
LINE
  5
31D
  8
ZUWAKU
  6
CONTINUOUS
 62
     4
 10
-127.8130006797493
 20
188.4983433964739
 30
0.0
 11
-126.6262903703984
 21
187.311633087123
 31
0.0
  0
LINE
  5
31E
  8
ZUWAKU
  6
CONTINUOUS
 62
     4
 10
-127.671579323512
 20
188.4983433964739
 30
0.0
 11
-126.5745265613779
 21
187.4012906343398
 31
0.0
  0
LINE
  5
31F
  8
ZUWAKU
  6
CONTINUOUS
 62
     4
 10
-127.5301579672747
 20
188.4983433964739
 30
0.0
 11
-126.5227627523574
 21
187.4909481815566
 31
0.0
  0
LINE
  5
320
  8
ZUWAKU
  6
CONTINUOUS
 62
     4
 10
-127.3887366110374
 20
188.4983433964739
 30
0.0
 11
-126.4709989433369
 21
187.5806057287734
 31
0.0
  0
LINE
  5
321
  8
ZUWAKU
  6
CONTINUOUS
 62
     4
 10
-127.2473152548002
 20
188.4983433964739
 30
0.0
 11
-126.4192351343164
 21
187.6702632759902
 31
0.0
  0
LINE
  5
322
  8
ZUWAKU
  6
CONTINUOUS
 62
     4
 10
-127.1058938985628
 20
188.4983433964739
 30
0.0
 11
-126.3674713252959
 21
187.759920823207
 31
0.0
  0
LINE
  5
323
  8
ZUWAKU
  6
CONTINUOUS
 62
     4
 10
-126.9644725423256
 20
188.4983433964739
 30
0.0
 11
-126.3157075162754
 21
187.8495783704238
 31
0.0
  0
LINE
  5
324
  8
ZUWAKU
  6
CONTINUOUS
 62
     4
 10
-126.8230511860883
 20
188.4983433964739
 30
0.0
 11
-126.2639437072549
 21
187.9392359176406
 31
0.0
  0
LINE
  5
325
  8
ZUWAKU
  6
CONTINUOUS
 62
     4
 10
-126.681629829851
 20
188.4983433964739
 30
0.0
 11
-126.2121798982344
 21
188.0288934648574
 31
0.0
  0
LINE
  5
326
  8
ZUWAKU
  6
CONTINUOUS
 62
     4
 10
-126.5402084736137
 20
188.4983433964739
 30
0.0
 11
-126.1604160892139
 21
188.1185510120742
 31
0.0
  0
LINE
  5
327
  8
ZUWAKU
  6
CONTINUOUS
 62
     4
 10
-126.3987871173764
 20
188.4983433964739
 30
0.0
 11
-126.1086522801934
 21
188.208208559291
 31
0.0
  0
LINE
  5
328
  8
ZUWAKU
  6
CONTINUOUS
 62
     4
 10
-126.2573657611391
 20
188.4983433964739
 30
0.0
 11
-126.056888471173
 21
188.2978661065078
 31
0.0
  0
LINE
  5
329
  8
ZUWAKU
  6
CONTINUOUS
 62
     4
 10
-126.1159444049019
 20
188.4983433964739
 30
0.0
 11
-126.0051246621524
 21
188.3875236537245
 31
0.0
  0
LINE
  5
32A
  8
ZUWAKU
  6
CONTINUOUS
 62
     4
 10
-125.9745230486646
 20
188.4983433964739
 30
0.0
 11
-125.953360853132
 21
188.4771812009413
 31
0.0
  0
LINE
  5
32B
  8
ZUWAKU
  6
CONTINUOUS
 62
     4
 10
-128.2372647484611
 20
188.4983433964739
 30
0.0
 11
-126.7815817974599
 21
187.0426604454726
 31
0.0
  0
LINE
  5
32C
  8
ZUWAKU
  6
CONTINUOUS
 62
     4
 10
-128.0754984654926
 20
188.1951557572681
 30
0.0
 11
-126.8333456064804
 21
186.9530028982558
 31
0.0
  0
LINE
  5
32D
  8
ZUWAKU
  6
CONTINUOUS
 62
     4
 10
-127.8823133002349
 20
187.860549235773
 30
0.0
 11
-126.8851094155009
 21
186.863345351039
 31
0.0
  0
LINE
  5
32E
  8
ZUWAKU
  6
CONTINUOUS
 62
     4
 10
-127.6891281349771
 20
187.525942714278
 30
0.0
 11
-126.9368732245214
 21
186.7736878038222
 31
0.0
  0
LINE
  5
32F
  8
ZUWAKU
  6
CONTINUOUS
 62
     4
 10
-127.4959429697194
 20
187.191336192783
 30
0.0
 11
-126.9886370335419
 21
186.6840302566054
 31
0.0
  0
LINE
  5
330
  8
ZUWAKU
  6
CONTINUOUS
 62
     4
 10
-127.3027578044616
 20
186.8567296712879
 30
0.0
 11
-127.0404008425624
 21
186.5943727093887
 31
0.0
  0
LINE
  5
331
  8
ZUWAKU
  6
CONTINUOUS
 62
     4
 10
-127.1095726392038
 20
186.5221231497929
 30
0.0
 11
-127.0921646515829
 21
186.5047151621719
 31
0.0
  0
LINE
  5
332
  8
ZUWAKU
  6
CONTINUOUS
 62
     4
 10
105.0
 20
-172.0
 30
0.0
 11
105.0
 21
-130.0
 31
0.0
  0
LINE
  5
333
  8
ZUWAKU
  6
CONTINUOUS
 62
     4
 10
109.0
 20
-172.0
 30
0.0
 11
109.0
 21
-130.0
 31
0.0
  0
LINE
  5
334
  8
ZUWAKU
  6
CONTINUOUS
 62
     4
 10
121.5
 20
-176.0
 30
0.0
 11
121.5
 21
-130.0
 31
0.0
  0
LINE
  5
335
  8
ZUWAKU
  6
CONTINUOUS
 62
     4
 10
97.00000000000001
 20
-137.0
 30
0.0
 11
146.0
 21
-137.0
 31
0.0
  0
LINE
  5
336
  8
ZUWAKU
  6
CONTINUOUS
 62
     4
 10
97.00000000000001
 20
-144.0
 30
0.0
 11
146.0
 21
-144.0
 31
0.0
  0
LINE
  5
337
  8
ZUWAKU
  6
CONTINUOUS
 62
     4
 10
97.00000000000001
 20
-165.0
 30
0.0
 11
146.0
 21
-165.0
 31
0.0
  0
LINE
  5
338
  8
ZUWAKU
  6
CONTINUOUS
 62
     4
 10
97.00000000000001
 20
-172.0
 30
0.0
 11
146.0
 21
-172.0
 31
0.0
  0
LINE
  5
339
  8
ZUWAKU
  6
CONTINUOUS
 62
     4
 10
255.0
 20
-166.0
 30
0.0
 11
277.0
 21
-166.0
 31
0.0
  0
LINE
  5
33A
  8
ZUWAKU
  6
CONTINUOUS
 62
     4
 10
153.0
 20
-139.5
 30
0.0
 11
153.0
 21
-130.0
 31
0.0
  0
LINE
  5
33B
  8
ZUWAKU
  6
CONTINUOUS
 62
     4
 10
202.0
 20
-148.0
 30
0.0
 11
202.0
 21
-146.5
 31
0.0
  0
LINE
  5
33C
  8
ZUWAKU
  6
CONTINUOUS
 62
     4
 10
226.0
 20
-148.0
 30
0.0
 11
226.0
 21
-146.5
 31
0.0
  0
LINE
  5
33D
  8
ZUWAKU
  6
CONTINUOUS
 62
     4
 10
243.0
 20
-148.0
 30
0.0
 11
243.0
 21
-146.5
 31
0.0
  0
LINE
  5
33E
  8
ZUWAKU
  6
CONTINUOUS
 62
     4
 10
202.0
 20
-139.5
 30
0.0
 11
202.0
 21
-130.0
 31
0.0
  0
LINE
  5
33F
  8
ZUWAKU
  6
CONTINUOUS
 62
     4
 10
226.0
 20
-139.5
 30
0.0
 11
226.0
 21
-130.0
 31
0.0
  0
LINE
  5
340
  8
ZUWAKU
  6
CONTINUOUS
 62
     4
 10
243.0
 20
-139.5
 30
0.0
 11
243.0
 21
-130.0
 31
0.0
  0
LINE
  5
341
  8
ZUWAKU
  6
CONTINUOUS
 62
     4
 10
97.00000000000001
 20
-151.0
 30
0.0
 11
146.0
 21
-151.0
 31
0.0
  0
LINE
  5
342
  8
ZUWAKU
  6
CONTINUOUS
 62
     4
 10
97.00000000000001
 20
-158.0
 30
0.0
 11
146.0
 21
-158.0
 31
0.0
  0
LINE
  5
343
  8
ZUWAKU
  6
CONTINUOUS
 62
     4
 10
101.0
 20
-130.5
 30
0.0
 11
98.00000000000001
 21
-136.5
 31
0.0
  0
LINE
  5
344
  8
ZUWAKU
  6
CONTINUOUS
 62
     4
 10
101.0
 20
-130.5
 30
0.0
 11
104.0
 21
-136.5
 31
0.0
  0
LINE
  5
345
  8
ZUWAKU
  6
CONTINUOUS
 62
     4
 10
98.00000000000001
 20
-136.5
 30
0.0
 11
104.0
 21
-136.5
 31
0.0
  0
LINE
  5
346
  8
ZUWAKU
  6
CONTINUOUS
 62
     4
 10
101.0
 20
-158.5
 30
0.0
 11
98.00000000000001
 21
-164.5
 31
0.0
  0
LINE
  5
347
  8
ZUWAKU
  6
CONTINUOUS
 62
     4
 10
101.0
 20
-158.5
 30
0.0
 11
104.0
 21
-164.5
 31
0.0
  0
LINE
  5
348
  8
ZUWAKU
  6
CONTINUOUS
 62
     4
 10
98.00000000000001
 20
-164.5
 30
0.0
 11
104.0
 21
-164.5
 31
0.0
  0
LINE
  5
349
  8
ZUWAKU
  6
CONTINUOUS
 62
     4
 10
101.0
 20
-151.5
 30
0.0
 11
98.00000000000001
 21
-157.5
 31
0.0
  0
LINE
  5
34A
  8
ZUWAKU
  6
CONTINUOUS
 62
     4
 10
101.0
 20
-151.5
 30
0.0
 11
104.0
 21
-157.5
 31
0.0
  0
LINE
  5
34B
  8
ZUWAKU
  6
CONTINUOUS
 62
     4
 10
98.00000000000001
 20
-157.5
 30
0.0
 11
104.0
 21
-157.5
 31
0.0
  0
LINE
  5
34C
  8
ZUWAKU
  6
CONTINUOUS
 62
     4
 10
101.0
 20
-144.5
 30
0.0
 11
98.00000000000001
 21
-150.5
 31
0.0
  0
LINE
  5
34D
  8
ZUWAKU
  6
CONTINUOUS
 62
     4
 10
101.0
 20
-144.5
 30
0.0
 11
104.0
 21
-150.5
 31
0.0
  0
LINE
  5
34E
  8
ZUWAKU
  6
CONTINUOUS
 62
     4
 10
98.00000000000001
 20
-150.5
 30
0.0
 11
104.0
 21
-150.5
 31
0.0
  0
LINE
  5
34F
  8
ZUWAKU
  6
CONTINUOUS
 62
     4
 10
101.0
 20
-137.5
 30
0.0
 11
98.00000000000001
 21
-143.5
 31
0.0
  0
LINE
  5
350
  8
ZUWAKU
  6
CONTINUOUS
 62
     4
 10
101.0
 20
-137.5
 30
0.0
 11
104.0
 21
-143.5
 31
0.0
  0
LINE
  5
351
  8
ZUWAKU
  6
CONTINUOUS
 62
     4
 10
98.00000000000001
 20
-143.5
 30
0.0
 11
104.0
 21
-143.5
 31
0.0
  0
LINE
  5
352
  8
ZUWAKU
  6
CONTINUOUS
 62
     4
 10
172.6666666666666
 20
-176.0
 30
0.0
 11
172.6666666666666
 21
-162.0
 31
0.0
  0
LINE
  5
353
  8
ZUWAKU
  6
CONTINUOUS
 62
     4
 10
199.3333333333333
 20
-176.0
 30
0.0
 11
199.3333333333333
 21
-161.9509415757253
 31
0.0
  0
LINE
  5
354
  8
ZUWAKU
  6
CONTINUOUS
 62
     4
 10
212.6666666666666
 20
-167.5
 30
0.0
 11
212.6666666666666
 21
-161.9509415757253
 31
0.0
  0
LINE
  5
355
  8
ZUWAKU
  6
CONTINUOUS
 62
     4
 10
226.0
 20
-155.0
 30
0.0
 11
255.0
 21
-155.0
 31
0.0
  0
LINE
  5
356
  8
ZUWAKU
  6
CONTINUOUS
 62
     4
 10
146.0
 20
-166.0
 30
0.0
 11
226.0
 21
-166.0
 31
0.0
  0
TEXT
  5
357
  8
ZUWAKU
 62
     7
 10
106.0000000000001
 20
186.8333333333332
 30
0.0
 40
2.0
  1
特ニ指定ノナイ機械加
 41
1.186440677966102
  7
DCSTYLE0
 72
     5
 11
126.0000000000001
 21
186.8333333333332
 31
0.0
  0
TEXT
  5
358
  8
ZUWAKU
 62
     7
 10
106.0000000000001
 20
183.9999999999999
 30
0.0
 40
2.0
  1
工部分ノ寸法ニ対スル
 41
1.186440677966102
  7
DCSTYLE0
 72
     5
 11
126.0000000000001
 21
183.9999999999999
 31
0.0
  0
TEXT
  5
359
  8
ZUWAKU
 62
     7
 10
106.4921112372305
 20
181.1666666666666
 30
0.0
 40
2.0
  1
寸法差 (単位mm)
 41
1.076923076923077
  7
DCSTYLE0
 72
     5
 11
126.4921112372305
 21
181.1666666666666
 31
0.0
  0
TEXT
  5
35A
  8
ZUWAKU
 62
     7
 10
132.7604426787742
 20
187.1111133333332
 30
0.0
 40
2.0
  1
呼ビ寸法
 41
2.130434782608696
  7
DCSTYLE0
 72
     5
 11
146.7604426787742
 21
187.1111133333332
 31
0.0
  0
TEXT
  5
35B
  8
ZUWAKU
 62
     7
 10
133.1250908059024
 20
184.2222200000002
 30
0.0
 40
2.0
  1
ノ区分
 41
2.882352941176471
  7
DCSTYLE0
 72
     5
 11
147.1250908059024
 21
184.2222200000002
 31
0.0
  0
TEXT
  5
35C
  8
ZUWAKU
 62
     7
 10
133.1250000000001
 20
180.6666733333338
 30
0.0
 40
2.0
  1
寸法差
 41
2.882352941176471
  7
DCSTYLE0
 72
     5
 11
147.1250000000001
 21
180.6666733333338
 31
0.0
  0
TEXT
  5
35D
  8
ZUWAKU
 62
     7
 10
151.0104426787742
 20
187.1111133333336
 30
0.0
 40
2.0
  1
１以上
 41
2.882352941176471
  7
DCSTYLE0
 72
     5
 11
165.0104426787742
 21
187.1111133333336
 31
0.0
  0
TEXT
  5
35E
  8
ZUWAKU
 62
     7
 10
151.3750908059024
 20
184.2222200000006
 30
0.0
 40
2.0
  1
４以下
 41
2.882352941176471
  7
DCSTYLE0
 72
     5
 11
165.3750908059024
 21
184.2222200000006
 31
0.0
  0
TEXT
  5
35F
  8
ZUWAKU
 62
     7
 10
151.3750000000001
 20
180.6666733333341
 30
0.0
 40
2.0
  1
 ±０．１ 
 41
1.204918032786885
  7
DCSTYLE0
 72
     5
 11
165.3750000000001
 21
180.6666733333341
 31
0.0
  0
TEXT
  5
360
  8
ZUWAKU
 62
     7
 10
169.6250908059024
 20
184.2222200000006
 30
0.0
 40
2.0
  1
１６以下
 41
2.130434782608696
  7
DCSTYLE0
 72
     5
 11
183.6250908059024
 21
184.2222200000006
 31
0.0
  0
TEXT
  5
361
  8
ZUWAKU
 62
     7
 10
169.2604426787742
 20
187.1111133333336
 30
0.0
 40
2.0
  1
 ４ヲコエ
 41
1.633333333333333
  7
DCSTYLE0
 72
     5
 11
183.2604426787742
 21
187.1111133333336
 31
0.0
  0
TEXT
  5
362
  8
ZUWAKU
 62
     7
 10
169.6250000000001
 20
180.6666733333341
 30
0.0
 40
2.0
  1
 ±０．２ 
 41
1.204918032786885
  7
DCSTYLE0
 72
     5
 11
183.6250000000001
 21
180.6666733333341
 31
0.0
  0
TEXT
  5
363
  8
ZUWAKU
 62
     7
 10
187.5104426787742
 20
187.1111133333336
 30
0.0
 40
2.0
  1
１６ヲコエ
 41
1.689655172413793
  7
DCSTYLE0
 72
     5
 11
201.5104426787742
 21
187.1111133333336
 31
0.0
  0
TEXT
  5
364
  8
ZUWAKU
 62
     7
 10
187.8750908059024
 20
184.2222200000006
 30
0.0
 40
2.0
  1
６３以下
 41
2.130434782608696
  7
DCSTYLE0
 72
     5
 11
201.8750908059024
 21
184.2222200000006
 31
0.0
  0
TEXT
  5
365
  8
ZUWAKU
 62
     7
 10
187.8750000000001
 20
180.6666733333341
 30
0.0
 40
2.0
  1
 ±０．３ 
 41
1.204918032786885
  7
DCSTYLE0
 72
     5
 11
201.8750000000001
 21
180.6666733333341
 31
0.0
  0
TEXT
  5
366
  8
ZUWAKU
 62
     7
 10
206.1250908059024
 20
184.2222200000006
 30
0.0
 40
2.0
  1
２５０以下
 41
1.689655172413793
  7
DCSTYLE0
 72
     5
 11
220.1250908059024
 21
184.2222200000006
 31
0.0
  0
TEXT
  5
367
  8
ZUWAKU
 62
     7
 10
205.7604426787742
 20
187.1111133333336
 30
0.0
 40
2.0
  1
 ６３ヲコエ
 41
1.361111111111111
  7
DCSTYLE0
 72
     5
 11
219.7604426787742
 21
187.1111133333336
 31
0.0
  0
TEXT
  5
368
  8
ZUWAKU
 62
     7
 10
206.1250000000001
 20
180.6666733333341
 30
0.0
 40
2.0
  1
 ±０．５ 
 41
1.204918032786885
  7
DCSTYLE0
 72
     5
 11
220.1250000000001
 21
180.6666733333341
 31
0.0
  0
TEXT
  5
369
  8
ZUWAKU
 62
     7
 10
224.3750908059024
 20
184.2222200000006
 30
0.0
 40
2.0
  1
１０００以下
 41
1.4
  7
DCSTYLE0
 72
     5
 11
238.3750908059024
 21
184.2222200000006
 31
0.0
  0
TEXT
  5
36A
  8
ZUWAKU
 62
     7
 10
224.3750000000001
 20
180.6666733333341
 30
0.0
 40
2.0
  1
 ±０．８ 
 41
1.204918032786885
  7
DCSTYLE0
 72
     5
 11
238.3750000000001
 21
180.6666733333341
 31
0.0
  0
TEXT
  5
36B
  8
ZUWAKU
 62
     7
 10
242.2604426787742
 20
187.1111133333336
 30
0.0
 40
2.0
  1
１０００ヲコエ
 41
1.195121951219512
  7
DCSTYLE0
 72
     5
 11
256.2604426787742
 21
187.1111133333336
 31
0.0
  0
TEXT
  5
36C
  8
ZUWAKU
 62
     7
 10
242.6250908059024
 20
184.2222200000006
 30
0.0
 40
2.0
  1
２０００以下
 41
1.400000000000003
  7
DCSTYLE0
 72
     5
 11
256.6250908059025
 21
184.2222200000006
 31
0.0
  0
TEXT
  5
36D
  8
ZUWAKU
 62
     7
 10
224.0104426787742
 20
187.1111133333336
 30
0.0
 40
2.0
  1
 ２５０ヲコエ
 41
1.166666666666667
  7
DCSTYLE0
 72
     5
 11
238.0104426787742
 21
187.1111133333336
 31
0.0
  0
TEXT
  5
36E
  8
ZUWAKU
 62
     7
 10
260.5104426787742
 20
187.1111133333336
 30
0.0
 40
2.0
  1
２０００ヲ
 41
1.689655172413793
  7
DCSTYLE0
 72
     5
 11
274.5104426787742
 21
187.1111133333336
 31
0.0
  0
TEXT
  5
36F
  8
ZUWAKU
 62
     7
 10
260.8750908059025
 20
184.2222200000006
 30
0.0
 40
2.0
  1
コエルモノ
 41
1.689655172413793
  7
DCSTYLE0
 72
     5
 11
274.8750908059025
 21
184.2222200000006
 31
0.0
  0
TEXT
  5
370
  8
ZUWAKU
 62
     7
 10
242.6250000000001
 20
180.6666733333341
 30
0.0
 40
2.0
  1
 ±１．０ 
 41
1.204918032786885
  7
DCSTYLE0
 72
     5
 11
256.6250000000001
 21
180.6666733333341
 31
0.0
  0
TEXT
  5
371
  8
ZUWAKU
 62
     7
 10
260.7309329553406
 20
180.6666733333341
 30
0.0
 40
2.0
  1
 ±２．０ 
 41
1.204918032786885
  7
DCSTYLE0
 72
     5
 11
274.7309329553406
 21
180.6666733333341
 31
0.0
  0
TEXT
  5
372
  8
ZUWAKU
 62
     7
 10
-274.4054197053454
 20
181.2949862932913
 30
0.0
 40
2.25
  1
特ニ指定ノナイ角部ハ０．５Ｃ  マタ隅部ハ０．５Ｒトスル
 41
1.159763313609467
  7
DCSTYLE0
 72
     5
 11
-211.4054197053454
 21
181.2949862932913
 31
0.0
  0
TEXT
  5
373
  8
ZUWAKU
 62
     7
 10
-274.5
 20
186.375
 30
0.0
 40
2.25
  1
仕上記号ノ表面粗さ  ～･･･特ニ規定シナイ   ･･･３５Ｓ    ･･･１８Ｓ     ･･･６S     ･･･３Ｓ     ･･･６Ｓ（キサゲ仕上）
 41
1.110508474576272
  7
DCSTYLE0
 72
     5
 11
-99.0
 21
186.375
 31
0.0
  0
TEXT
  5
374
  8
ZUWAKU
 62
     7
 10
-154.7251281296784
 20
187.670028682731
 30
0.0
 40
1.84815
  1
ケンマ
 41
1.235294117647062
  7
DCSTYLE0
 72
     5
 11
-149.1806781296784
 21
187.670028682731
 31
0.0
  0
TEXT
  5
375
  8
ZUWAKU
 62
     7
 10
-274.0
 20
-185.0000000000068
 30
0.0
 40
2.0
  1
訂正理由  Ａ注文元指示、Ｂ設計変更、Ｃ誤 記、D記入漏、Ｅ工作都合、Ｆ誤工対策、Ｇ材料都合、Ｈ工事都合
 50
90.0
 41
1.155555555555557
  7
DCSTYLE0
 72
     5
 11
-274.0
 21
-81.00000000000682
 31
0.0
  0
TEXT
  5
377
  8
ZUWAKU
 62
     7
 10
149.5932301474747
 20
-130.8211887289559
 30
0.0
 40
2.6656
  1
符号
 41
0.8
  7
DCSTYLE1
  0
TEXT
  5
378
  8
ZUWAKU
 62
     7
 10
162.4141311219058
 20
-135.8245525019963
 30
0.0
 40
4.0
  1
品       名
 41
0.8400000000000003
  7
DCSTYLE0
 72
     5
 11
191.2141311219058
 21
-135.8245525019963
 31
0.0
  0
TEXT
  5
379
  8
ZUWAKU
 62
     7
 10
207.2331564413096
 20
-135.8245525019963
 30
0.0
 40
4.0
  1
材  料
 41
0.8960000000000009
  7
DCSTYLE0
 72
     5
 11
220.0331564413096
 21
-135.8245525019963
 31
0.0
  0
TEXT
  5
37A
  8
ZUWAKU
 62
     7
 10
229.516061684855
 20
-135.8245525019963
 30
0.0
 40
4.0
  1
個 数
 41
0.9333333333333329
  7
DCSTYLE0
 72
     5
 11
239.116061684855
 21
-135.8245525019963
 31
0.0
  0
TEXT
  5
37B
  8
ZUWAKU
 62
     7
 10
245.721810952888
 20
-133.5649080050572
 30
0.0
 40
2.5
  1
単重量
 41
0.9882352941176471
  7
DCSTYLE0
 72
     5
 11
251.721810952888
 21
-133.5649080050572
 31
0.0
  0
TEXT
  5
37C
  8
ZUWAKU
 62
     7
 10
244.7089516236359
 20
-137.3631304897525
 30
0.0
 40
2.5
  1
(kg)
 41
1.12
  7
DCSTYLE0
 72
     5
 11
252.7089516236359
 21
-137.3631304897525
 31
0.0
  0
TEXT
  5
37D
  8
ZUWAKU
 62
     7
 10
259.1421970654778
 20
-135.8245525019963
 30
0.0
 40
4.0
  1
記  事
 41
0.8960000000000009
  7
DCSTYLE0
 72
     5
 11
271.9421970654778
 21
-135.8245525019963
 31
0.0
  0
TEXT
  5
37E
  8
ZUWAKU
 62
     7
 10
258.8450794551645
 20
-165.4873041997729
 30
0.0
 40
3.0
  1
コード番号
 41
0.9655172413793105
  7
DCSTYLE0
 72
     5
 11
270.8450794551645
 21
-165.4873041997729
 31
0.0
  0
TEXT
  5
37F
  8
ZUWAKU
 62
     7
 10
101.9119920158317
 20
-175.1879010540338
 30
0.0
 40
2.5
  1
訂 正 来 歴
 41
0.8909090909090911
  7
DCSTYLE0
 72
     5
 11
115.9119920158317
 21
-175.1879010540338
 31
0.0
  0
TEXT
  5
380
  8
ZUWAKU
 62
     7
 10
125.890334846765
 20
-175.2166697391651
 30
0.0
 40
2.5
  1
工 事 番 号
 41
0.8909090909090911
  7
DCSTYLE0
 72
     5
 11
139.890334846765
 21
-175.2166697391651
 31
0.0
  0
TEXT
  5
381
  8
ZUWAKU
 62
     7
 10
100.9648378466029
 20
-165.9634530565915
 30
0.0
 40
2.0825
  1
記号
 41
0.8
  7
DCSTYLE1
  0
TEXT
  5
382
  8
ZUWAKU
 62
     7
 10
106.9042249067618
 20
-165.9634530565915
 30
0.0
 40
2.0825
  1
理由
 41
0.8
  7
DCSTYLE1
  0
TEXT
  5
383
  8
ZUWAKU
 62
     7
 10
111.6193667909843
 20
-169.8786046700178
 30
0.0
 40
3.0
  1
日 付
 41
0.9333333333333319
  7
DCSTYLE0
 72
     5
 11
118.8193667909843
 21
-169.8786046700178
 31
0.0
  0
TEXT
  5
384
  8
ZUWAKU
 62
     7
 10
153.4481689819652
 20
-165.7187911464244
 30
0.0
 40
3.0
  1
承   認
 41
0.875
  7
DCSTYLE0
 72
     5
 11
165.4481689819652
 21
-165.7187911464244
 31
0.0
  0
TEXT
  5
385
  8
ZUWAKU
 62
     7
 10
179.863228033234
 20
-165.4873041997729
 30
0.0
 40
3.0
  1
検   図
 41
0.875
  7
DCSTYLE0
 72
     5
 11
191.863228033234
 21
-165.4873041997729
 31
0.0
  0
TEXT
  5
386
  8
ZUWAKU
 62
     7
 10
201.4771920983751
 20
-165.4873041997729
 30
0.0
 40
3.0
  1
担  当
 41
0.8959999999999996
  7
DCSTYLE0
 72
     5
 11
211.0771920983751
 21
-165.4873041997729
 31
0.0
  0
TEXT
  5
387
  8
ZUWAKU
 62
     7
 10
214.6770574841112
 20
-165.4873041997729
 30
0.0
 40
3.0
  1
製  図
 41
0.8959999999999996
  7
DCSTYLE0
 72
     5
 11
224.2770574841112
 21
-165.4873041997729
 31
0.0
  0
TEXT
  5
388
  8
ZUWAKU
 62
     7
 10
226.9462372304199
 20
-153.2184960272417
 30
0.0
 40
3.0
  1
作図
 41
1.018181818181821
  7
DCSTYLE0
 72
     5
 11
231.7462372304199
 21
-153.2184960272417
 31
0.0
  0
TEXT
  5
389
  8
ZUWAKU
 62
     7
 10
228.1036719636776
 20
-160.2371566401815
 30
0.0
 40
4.0
  1
第 三 角 法
 41
0.8909090909090912
  7
DCSTYLE0
 72
     5
 11
250.5036719636776
 21
-160.2371566401815
 31
0.0
  0
TEXT
  5
38A
  8
ZUWAKU
 62
     7
 10
227.409211123723
 20
-166.413251986379
 30
0.0
 40
3.0
  1
尺度
 41
1.018181818181821
  7
DCSTYLE0
 72
     5
 11
232.209211123723
 21
-166.413251986379
 31
0.0
  0
TEXT
  5
38B
  8
ZUWAKU
 62
     7
 10
106.0000000000001
 20
186.8333333333332
 30
0.0
 40
2.0
  1
特ニ指定ノナイ機械加
 41
1.186440677966102
  7
DCSTYLE0
 72
     5
 11
126.0000000000001
 21
186.8333333333332
 31
0.0
  0
TEXT
  5
38C
  8
ZUWAKU
 62
     7
 10
106.0000000000001
 20
183.9999999999999
 30
0.0
 40
2.0
  1
工部分ノ寸法ニ対スル
 41
1.186440677966102
  7
DCSTYLE0
 72
     5
 11
126.0000000000001
 21
183.9999999999999
 31
0.0
  0
TEXT
  5
38D
  8
ZUWAKU
 62
     7
 10
106.4921112372305
 20
181.1666666666666
 30
0.0
 40
2.0
  1
寸法差 (単位mm)
 41
1.076923076923077
  7
DCSTYLE0
 72
     5
 11
126.4921112372305
 21
181.1666666666666
 31
0.0
  0
TEXT
  5
38E
  8
ZUWAKU
 62
     7
 10
132.7604426787742
 20
187.1111133333332
 30
0.0
 40
2.0
  1
呼ビ寸法
 41
2.130434782608696
  7
DCSTYLE0
 72
     5
 11
146.7604426787742
 21
187.1111133333332
 31
0.0
  0
TEXT
  5
38F
  8
ZUWAKU
 62
     7
 10
133.1250908059024
 20
184.2222200000002
 30
0.0
 40
2.0
  1
ノ区分
 41
2.882352941176471
  7
DCSTYLE0
 72
     5
 11
147.1250908059024
 21
184.2222200000002
 31
0.0
  0
TEXT
  5
390
  8
ZUWAKU
 62
     7
 10
133.1250000000001
 20
180.6666733333338
 30
0.0
 40
2.0
  1
寸法差
 41
2.882352941176471
  7
DCSTYLE0
 72
     5
 11
147.1250000000001
 21
180.6666733333338
 31
0.0
  0
TEXT
  5
391
  8
ZUWAKU
 62
     7
 10
151.0104426787742
 20
187.1111133333336
 30
0.0
 40
2.0
  1
１以上
 41
2.882352941176471
  7
DCSTYLE0
 72
     5
 11
165.0104426787742
 21
187.1111133333336
 31
0.0
  0
TEXT
  5
392
  8
ZUWAKU
 62
     7
 10
151.3750908059024
 20
184.2222200000006
 30
0.0
 40
2.0
  1
４以下
 41
2.882352941176471
  7
DCSTYLE0
 72
     5
 11
165.3750908059024
 21
184.2222200000006
 31
0.0
  0
TEXT
  5
393
  8
ZUWAKU
 62
     7
 10
151.3750000000001
 20
180.6666733333341
 30
0.0
 40
2.0
  1
 ±０．１ 
 41
1.204918032786885
  7
DCSTYLE0
 72
     5
 11
165.3750000000001
 21
180.6666733333341
 31
0.0
  0
TEXT
  5
394
  8
ZUWAKU
 62
     7
 10
169.6250908059024
 20
184.2222200000006
 30
0.0
 40
2.0
  1
１６以下
 41
2.130434782608696
  7
DCSTYLE0
 72
     5
 11
183.6250908059024
 21
184.2222200000006
 31
0.0
  0
TEXT
  5
395
  8
ZUWAKU
 62
     7
 10
169.2604426787742
 20
187.1111133333336
 30
0.0
 40
2.0
  1
 ４ヲコエ
 41
1.633333333333333
  7
DCSTYLE0
 72
     5
 11
183.2604426787742
 21
187.1111133333336
 31
0.0
  0
TEXT
  5
396
  8
ZUWAKU
 62
     7
 10
169.6250000000001
 20
180.6666733333341
 30
0.0
 40
2.0
  1
 ±０．２ 
 41
1.204918032786885
  7
DCSTYLE0
 72
     5
 11
183.6250000000001
 21
180.6666733333341
 31
0.0
  0
TEXT
  5
397
  8
ZUWAKU
 62
     7
 10
187.5104426787742
 20
187.1111133333336
 30
0.0
 40
2.0
  1
１６ヲコエ
 41
1.689655172413793
  7
DCSTYLE0
 72
     5
 11
201.5104426787742
 21
187.1111133333336
 31
0.0
  0
TEXT
  5
398
  8
ZUWAKU
 62
     7
 10
187.8750908059024
 20
184.2222200000006
 30
0.0
 40
2.0
  1
６３以下
 41
2.130434782608696
  7
DCSTYLE0
 72
     5
 11
201.8750908059024
 21
184.2222200000006
 31
0.0
  0
TEXT
  5
399
  8
ZUWAKU
 62
     7
 10
187.8750000000001
 20
180.6666733333341
 30
0.0
 40
2.0
  1
 ±０．３ 
 41
1.204918032786885
  7
DCSTYLE0
 72
     5
 11
201.8750000000001
 21
180.6666733333341
 31
0.0
  0
TEXT
  5
39A
  8
ZUWAKU
 62
     7
 10
206.1250908059024
 20
184.2222200000006
 30
0.0
 40
2.0
  1
２５０以下
 41
1.689655172413793
  7
DCSTYLE0
 72
     5
 11
220.1250908059024
 21
184.2222200000006
 31
0.0
  0
TEXT
  5
39B
  8
ZUWAKU
 62
     7
 10
205.7604426787742
 20
187.1111133333336
 30
0.0
 40
2.0
  1
 ６３ヲコエ
 41
1.361111111111111
  7
DCSTYLE0
 72
     5
 11
219.7604426787742
 21
187.1111133333336
 31
0.0
  0
TEXT
  5
39C
  8
ZUWAKU
 62
     7
 10
206.1250000000001
 20
180.6666733333341
 30
0.0
 40
2.0
  1
 ±０．５ 
 41
1.204918032786885
  7
DCSTYLE0
 72
     5
 11
220.1250000000001
 21
180.6666733333341
 31
0.0
  0
TEXT
  5
39D
  8
ZUWAKU
 62
     7
 10
224.3750908059024
 20
184.2222200000006
 30
0.0
 40
2.0
  1
１０００以下
 41
1.4
  7
DCSTYLE0
 72
     5
 11
238.3750908059024
 21
184.2222200000006
 31
0.0
  0
TEXT
  5
39E
  8
ZUWAKU
 62
     7
 10
224.3750000000001
 20
180.6666733333341
 30
0.0
 40
2.0
  1
 ±０．８ 
 41
1.204918032786885
  7
DCSTYLE0
 72
     5
 11
238.3750000000001
 21
180.6666733333341
 31
0.0
  0
TEXT
  5
39F
  8
ZUWAKU
 62
     7
 10
242.2604426787742
 20
187.1111133333336
 30
0.0
 40
2.0
  1
１０００ヲコエ
 41
1.195121951219512
  7
DCSTYLE0
 72
     5
 11
256.2604426787742
 21
187.1111133333336
 31
0.0
  0
TEXT
  5
3A0
  8
ZUWAKU
 62
     7
 10
242.6250908059024
 20
184.2222200000006
 30
0.0
 40
2.0
  1
２０００以下
 41
1.400000000000003
  7
DCSTYLE0
 72
     5
 11
256.6250908059025
 21
184.2222200000006
 31
0.0
  0
TEXT
  5
3A1
  8
ZUWAKU
 62
     7
 10
224.0104426787742
 20
187.1111133333336
 30
0.0
 40
2.0
  1
 ２５０ヲコエ
 41
1.166666666666667
  7
DCSTYLE0
 72
     5
 11
238.0104426787742
 21
187.1111133333336
 31
0.0
  0
TEXT
  5
3A2
  8
ZUWAKU
 62
     7
 10
260.5104426787742
 20
187.1111133333336
 30
0.0
 40
2.0
  1
２０００ヲ
 41
1.689655172413793
  7
DCSTYLE0
 72
     5
 11
274.5104426787742
 21
187.1111133333336
 31
0.0
  0
TEXT
  5
3A3
  8
ZUWAKU
 62
     7
 10
260.8750908059025
 20
184.2222200000006
 30
0.0
 40
2.0
  1
コエルモノ
 41
1.689655172413793
  7
DCSTYLE0
 72
     5
 11
274.8750908059025
 21
184.2222200000006
 31
0.0
  0
TEXT
  5
3A4
  8
ZUWAKU
 62
     7
 10
242.6250000000001
 20
180.6666733333341
 30
0.0
 40
2.0
  1
 ±１．０ 
 41
1.204918032786885
  7
DCSTYLE0
 72
     5
 11
256.6250000000001
 21
180.6666733333341
 31
0.0
  0
TEXT
  5
3A5
  8
ZUWAKU
 62
     7
 10
260.7309329553406
 20
180.6666733333341
 30
0.0
 40
2.0
  1
 ±２．０ 
 41
1.204918032786885
  7
DCSTYLE0
 72
     5
 11
274.7309329553406
 21
180.6666733333341
 31
0.0
  0
TEXT
  5
3A6
  8
ZUWAKU
 62
     7
 10
-274.4054197053454
 20
181.2949862932913
 30
0.0
 40
2.25
  1
特ニ指定ノナイ角部ハ０．５Ｃ  マタ隅部ハ０．５Ｒトスル
 41
1.159763313609467
  7
DCSTYLE0
 72
     5
 11
-211.4054197053454
 21
181.2949862932913
 31
0.0
  0
TEXT
  5
3A7
  8
ZUWAKU
 62
     7
 10
-274.5
 20
186.375
 30
0.0
 40
2.25
  1
仕上記号ノ表面粗さ  ～･･･特ニ規定シナイ   ･･･３５Ｓ    ･･･１８Ｓ     ･･･６S     ･･･３Ｓ     ･･･６Ｓ（キサゲ仕上）
 41
1.110508474576272
  7
DCSTYLE0
 72
     5
 11
-99.0
 21
186.375
 31
0.0
  0
TEXT
  5
3A8
  8
ZUWAKU
 62
     7
 10
-154.7251281296784
 20
187.670028682731
 30
0.0
 40
1.84815
  1
ケンマ
 41
1.235294117647062
  7
DCSTYLE0
 72
     5
 11
-149.1806781296784
 21
187.670028682731
 31
0.0
  0
TEXT
  5
3A9
  8
ZUWAKU
 62
     7
 10
-274.0
 20
-185.0000000000068
 30
0.0
 40
2.0
  1
訂正理由  Ａ注文元指示、Ｂ設計変更、Ｃ誤 記、D記入漏、Ｅ工作都合、Ｆ誤工対策、Ｇ材料都合、Ｈ工事都合
 50
90.0
 41
1.155555555555557
  7
DCSTYLE0
 72
     5
 11
-274.0
 21
-81.00000000000682
 31
0.0
  0
TEXT
  5
3AA
  8
ZUWAKU
 62
     7
 10
149.5932301474747
 20
-130.8211887289559
 30
0.0
 40
2.6656
  1
符号
 41
0.8
  7
DCSTYLE1
  0
TEXT
  5
3AB
  8
ZUWAKU
 62
     7
 10
162.4141311219058
 20
-135.8245525019963
 30
0.0
 40
4.0
  1
品       名
 41
0.8400000000000003
  7
DCSTYLE0
 72
     5
 11
191.2141311219058
 21
-135.8245525019963
 31
0.0
  0
TEXT
  5
3AC
  8
ZUWAKU
 62
     7
 10
207.2331564413096
 20
-135.8245525019963
 30
0.0
 40
4.0
  1
材  料
 41
0.8960000000000009
  7
DCSTYLE0
 72
     5
 11
220.0331564413096
 21
-135.8245525019963
 31
0.0
  0
TEXT
  5
3AD
  8
ZUWAKU
 62
     7
 10
229.516061684855
 20
-135.8245525019963
 30
0.0
 40
4.0
  1
個 数
 41
0.9333333333333329
  7
DCSTYLE0
 72
     5
 11
239.116061684855
 21
-135.8245525019963
 31
0.0
  0
TEXT
  5
3AE
  8
ZUWAKU
 62
     7
 10
245.721810952888
 20
-133.5649080050572
 30
0.0
 40
2.5
  1
単重量
 41
0.9882352941176471
  7
DCSTYLE0
 72
     5
 11
251.721810952888
 21
-133.5649080050572
 31
0.0
  0
TEXT
  5
3AF
  8
ZUWAKU
 62
     7
 10
244.7089516236359
 20
-137.3631304897525
 30
0.0
 40
2.5
  1
(kg)
 41
1.12
  7
DCSTYLE0
 72
     5
 11
252.7089516236359
 21
-137.3631304897525
 31
0.0
  0
TEXT
  5
3B0
  8
ZUWAKU
 62
     7
 10
259.1421970654778
 20
-135.8245525019963
 30
0.0
 40
4.0
  1
記  事
 41
0.8960000000000009
  7
DCSTYLE0
 72
     5
 11
271.9421970654778
 21
-135.8245525019963
 31
0.0
  0
TEXT
  5
3B1
  8
ZUWAKU
 62
     7
 10
258.8450794551645
 20
-165.4873041997729
 30
0.0
 40
3.0
  1
コード番号
 41
0.9655172413793105
  7
DCSTYLE0
 72
     5
 11
270.8450794551645
 21
-165.4873041997729
 31
0.0
  0
TEXT
  5
3B2
  8
ZUWAKU
 62
     7
 10
101.9119920158317
 20
-175.1879010540338
 30
0.0
 40
2.5
  1
訂 正 来 歴
 41
0.8909090909090911
  7
DCSTYLE0
 72
     5
 11
115.9119920158317
 21
-175.1879010540338
 31
0.0
  0
TEXT
  5
3B3
  8
ZUWAKU
 62
     7
 10
125.890334846765
 20
-175.2166697391651
 30
0.0
 40
2.5
  1
工 事 番 号
 41
0.8909090909090911
  7
DCSTYLE0
 72
     5
 11
139.890334846765
 21
-175.2166697391651
 31
0.0
  0
TEXT
  5
3B4
  8
ZUWAKU
 62
     7
 10
100.9648378466029
 20
-165.9634530565915
 30
0.0
 40
2.0825
  1
記号
 41
0.8
  7
DCSTYLE1
  0
TEXT
  5
3B5
  8
ZUWAKU
 62
     7
 10
106.9042249067618
 20
-165.9634530565915
 30
0.0
 40
2.0825
  1
理由
 41
0.8
  7
DCSTYLE1
  0
TEXT
  5
3B6
  8
ZUWAKU
 62
     7
 10
111.6193667909843
 20
-169.8786046700178
 30
0.0
 40
3.0
  1
日 付
 41
0.9333333333333319
  7
DCSTYLE0
 72
     5
 11
118.8193667909843
 21
-169.8786046700178
 31
0.0
  0
TEXT
  5
3B7
  8
ZUWAKU
 62
     7
 10
153.4481689819652
 20
-165.7187911464244
 30
0.0
 40
3.0
  1
承   認
 41
0.875
  7
DCSTYLE0
 72
     5
 11
165.4481689819652
 21
-165.7187911464244
 31
0.0
  0
TEXT
  5
3B8
  8
ZUWAKU
 62
     7
 10
179.863228033234
 20
-165.4873041997729
 30
0.0
 40
3.0
  1
検   図
 41
0.875
  7
DCSTYLE0
 72
     5
 11
191.863228033234
 21
-165.4873041997729
 31
0.0
  0
TEXT
  5
3B9
  8
ZUWAKU
 62
     7
 10
201.4771920983751
 20
-165.4873041997729
 30
0.0
 40
3.0
  1
担  当
 41
0.8959999999999996
  7
DCSTYLE0
 72
     5
 11
211.0771920983751
 21
-165.4873041997729
 31
0.0
  0
TEXT
  5
3BA
  8
ZUWAKU
 62
     7
 10
214.6770574841112
 20
-165.4873041997729
 30
0.0
 40
3.0
  1
製  図
 41
0.8959999999999996
  7
DCSTYLE0
 72
     5
 11
224.2770574841112
 21
-165.4873041997729
 31
0.0
  0
TEXT
  5
3BB
  8
ZUWAKU
 62
     7
 10
226.9462372304199
 20
-153.2184960272417
 30
0.0
 40
3.0
  1
作図
 41
1.018181818181821
  7
DCSTYLE0
 72
     5
 11
231.7462372304199
 21
-153.2184960272417
 31
0.0
  0
TEXT
  5
3BC
  8
ZUWAKU
 62
     7
 10
228.1036719636776
 20
-160.2371566401815
 30
0.0
 40
4.0
  1
第 三 角 法
 41
0.8909090909090912
  7
DCSTYLE0
 72
     5
 11
250.5036719636776
 21
-160.2371566401815
 31
0.0
  0
TEXT
  5
3BD
  8
ZUWAKU
 62
     7
 10
227.409211123723
 20
-166.413251986379
 30
0.0
 40
3.0
  1
尺度
 41
1.018181818181821
  7
DCSTYLE0
 72
     5
 11
232.209211123723
 21
-166.413251986379
 31
0.0
  0
TEXT
  5
3BF
  8
ZUWAKU
 62
     3
 10
105.379154370034
 20
-185.9272077185016
 30
0.0
 40
7.0
  1
株式会社 野村製作所
 41
0.5754193966448269
  7
DCSTYLE2
 72
     5
 11
161.379154370034
 21
-185.9272077185016
 31
0.0
  0
TEXT
  5
3C1
  8
ZUWAKU
 62
     3
 10
177.915125194095
 20
-186.9326208268579
 30
0.0
 40
8.0
  1
２－
 41
0.7692307692307692
  7
DCSTYLE3
 72
     5
 11
193.915125194095
 21
-186.9326208268579
 31
0.0
  0
TEXT
  5
3C2
  8
ZUWAKU
 62
     3
 10
194.8270828185018
 20
-186.9326208268579
 30
0.0
 40
8.0
  1
C008093
 41
1.538461538461539
  7
DCSTYLE3
 72
     5
 11
250.8270828185018
 21
-186.9326208268579
 31
0.0
  0
TEXT
  5
3C3
  8
ZUWAKU
 62
     3
 10
105.379154370034
 20
-185.9272077185016
 30
0.0
 40
7.0
  1
株式会社 野村製作所
 41
0.5754193966448269
  7
DCSTYLE2
 72
     5
 11
161.379154370034
 21
-185.9272077185016
 31
0.0
  0
TEXT
  5
3C4
  8
ZUWAKU
 62
     6
 10
157.0070051766932
 20
-145.3589000228561
 30
0.0
 40
5.0
  1
外形図（センターホルダー無し）
 41
0.8258426966292136
  7
DCSTYLE0
 72
     5
 11
209.5070051766932
 21
-145.3589000228561
 31
0.0
  0
TEXT
  5
3C5
  8
ZUWAKU
 62
     6
 10
153.6045934631717
 20
-154.329135039116
 30
0.0
 40
5.0
  1
日鋼プﾚｼジｫﾝ
 41
0.8340425531914895
  7
DCSTYLE0
 72
     5
 11
181.6045934631717
 21
-154.329135039116
 31
0.0
  0
TEXT
  5
3C6
  8
ZUWAKU
 62
     6
 10
176.7533929846966
 20
-160.7144995510048
 30
0.0
 40
5.0
  1
COP-8型ﾁｬｯｸ
 41
0.7461928934010154
  7
DCSTYLE0
 72
     5
 11
211.7533929846966
 21
-160.7144995510048
 31
0.0
  0
TEXT
  5
3C7
  8
ZUWAKU
 62
     4
 10
239.3011788906399
 20
-172.297487439201
 30
0.0
 40
3.0
  1
1/1
 41
0.8320754716981147
  7
DCSTYLE0
 72
     5
 11
245.6011788906399
 21
-172.297487439201
 31
0.0
  0
TEXT
  5
3C8
  8
ZUWAKU
 62
     4
 10
239.3011788906399
 20
-172.297487439201
 30
0.0
 40
3.0
  1
1/1
 41
0.8320754716981147
  7
DCSTYLE0
 72
     5
 11
245.6011788906399
 21
-172.297487439201
 31
0.0
  0
LINE
  5
3C9
  8
0
  6
CENTER
 62
     7
 10
154.75
 20
187.0
 30
0.0
 11
182.25
 21
187.0
 31
0.0
  0
LINE
  5
3CA
  8
0
  6
CENTER
 62
     7
 10
-132.5547905302379
 20
123.5195902426114
 30
0.0
 11
-132.5547905302379
 21
59.2639254171719
 31
0.0
  0
LINE
  5
3CB
  8
0
  6
CENTER
 62
     7
 10
-205.2888559064783
 20
-28.96311010528903
 30
0.0
 11
-60.97570712314209
 21
-28.96311010528903
 31
0.0
  0
LINE
  5
3CC
  8
0
  6
CENTER
 62
     7
 10
-159.1526146269176
 20
-1.846448079837373
 30
0.0
 11
-159.1526146269176
 21
-18.34644712616306
 31
0.0
  0
LINE
  5
3CD
  8
0
  6
CENTER
 62
     7
 10
148.8119086885121
 20
155.977994783627
 30
0.0
 11
148.8119086885121
 21
-79.42978872467378
 31
0.0
  0
LINE
  5
3CE
  8
0
  6
CENTER
 62
     7
 10
31.73692318436167
 20
37.73688684295315
 30
0.0
 11
268.5452460908558
 21
37.73688684295315
 31
0.0
  0
LINE
  5
3CF
  8
0
  6
CENTER
 62
     7
 10
-31.43824638013327
 20
-66.33058688330502
 30
0.0
 11
35.66351870901487
 21
-27.58936902619105
 31
0.0
  0
LINE
  5
3D0
  8
0
  6
CENTER
 62
     7
 10
98.696719750959
 20
66.670914915405
 30
0.0
 11
249.4458947308746
 21
-20.36415222356059
 31
0.0
  0
LINE
  5
3D1
  8
0
  6
CENTER
 62
     7
 10
200.1991405593225
 20
51.50605480206839
 30
0.0
 11
226.2791227639381
 21
58.49416422632164
 31
0.0
  0
LINE
  5
3D2
  8
0
  6
CENTER
 62
     7
 10
71.34465595691302
 20
58.49415869787187
 30
0.0
 11
97.42465658510139
 21
51.50604433703769
 31
0.0
  0
LINE
  5
3D3
  8
0
  6
CENTER
 62
     7
 10
92.10195297009005
 20
94.44686872339514
 30
0.0
 11
111.1938449311418
 21
75.35497837166943
 31
0.0
  0
LINE
  5
3D4
  8
0
  6
CENTER
 62
     7
 10
186.4300167892933
 20
75.35495875436769
 30
0.0
 11
205.5219011639118
 21
94.44684151966081
 31
0.0
  0
LINE
  5
3D5
  8
0
  6
CENTER
 62
     7
 10
127.6663973745187
 20
-41.17925681288942
 30
0.0
 11
135.4309698245071
 21
-12.20148151007321
 31
0.0
  0
LINE
  5
3D6
  8
0
  6
CENTER
 62
     7
 10
162.1928235873388
 20
-12.20148089842029
 30
0.0
 11
169.9573948031817
 21
-41.1792515953433
 31
0.0
  0
LINE
  5
3D7
  8
0
  6
CENTER
 62
     7
 10
82.2351112031605
 20
111.7368906576504
 30
0.0
 11
125.3875312471058
 21
111.7368906576504
 31
0.0
  0
LINE
  5
3D8
  8
0
  6
CENTER
 62
     7
 10
113.8119010591175
 20
123.8657969076504
 30
0.0
 11
113.8119010591175
 21
99.54626260589262
 31
0.0
  0
LINE
  5
3D9
  8
0
  6
CENTER
 62
     7
 10
-89.83661273482778
 20
-10.76311220337253
 30
0.0
 11
-72.121456179652
 21
-10.76311220337253
 31
0.0
  0
LINE
  5
3DA
  8
0
  6
CENTER
 62
     7
 10
-82.65240863326528
 20
131.2368906576504
 30
0.0
 11
-40.8509369230602
 21
131.2368906576504
 31
0.0
  0
LINE
  5
3DB
  8
0
  6
CENTER
 62
     7
 10
-82.65240863326528
 20
101.2368906576504
 30
0.0
 11
-40.67229846480825
 21
101.2368906576504
 31
0.0
  0
LINE
  5
3DC
  8
0
  6
CENTER
 62
     7
 10
223.7853170564352
 20
-19.4054190070509
 30
0.0
 11
235.7853184869467
 21
1.379190310728646
 31
0.0
  0
LINE
  5
3DD
  8
0
  6
CENTER
 62
     7
 10
61.83853621555534
 20
1.379187476342523
 30
0.0
 11
73.83853764606681
 21
-19.40542184143702
 31
0.0
  0
LINE
  5
3DE
  8
0
  6
CENTER
 62
     7
 10
136.8119086885121
 20
131.2368906576504
 30
0.0
 11
160.8119086885121
 21
131.2368906576504
 31
0.0
  0
LINE
  5
3DF
  8
0
  6
CENTER
 62
     7
 10
136.8119086885121
 20
101.2368906576504
 30
0.0
 11
160.8119086885121
 21
101.2368906576504
 31
0.0
  0
LINE
  5
3E0
  8
0
  6
CENTER
 62
     7
 10
-98.05479815963247
 20
150.6788004476895
 30
0.0
 11
-98.05479815963247
 21
112.745214327084
 31
0.0
  0
LINE
  5
3E1
  8
0
  6
CENTER
 62
     7
 10
48.24915315649559
 20
-20.32305039281276
 30
0.0
 11
244.0786941437356
 21
92.7391753201176
 31
0.0
  0
LINE
  5
3E2
  8
0
  6
CENTER
 62
     7
 10
-17.65279131310956
 20
-43.93779133227086
 30
0.0
 11
-5.152789405760927
 21
-65.58842934191588
 31
0.0
  0
LINE
  5
3E3
  8
0
  6
CENTER
 62
     7
 10
108.8315804771058
 20
-41.0151669398541
 30
0.0
 11
96.43820508037732
 21
-19.54921146072216
 31
0.0
  0
LINE
  5
3E4
  8
0
  6
CENTER
 62
     7
 10
7.790597143736363
 20
-84.09631897475933
 30
0.0
 11
39.46640428495121
 21
-65.80828286674236
 31
0.0
  0
LINE
  5
3E5
  8
0
  6
CENTER
 62
     7
 10
240.9017154556099
 20
24.98332239122932
 30
0.0
 11
219.840394534593
 21
37.1430819127137
 31
0.0
  0
LINE
  5
3E6
  8
0
  6
CENTER
 62
     7
 10
236.7636270674742
 20
42.0737550323321
 30
0.0
 11
224.6099558028258
 21
21.02297928129532
 31
0.0
  0
LINE
  5
3E7
  8
0
  6
CENTER
 62
     7
 10
90.91707859713586
 20
-36.10322166946149
 30
0.0
 11
112.7834135657944
 21
-23.4786870625279
 31
0.0
  0
LINE
  5
3E8
  8
0
  6
CENTER
 62
     7
 10
99.81928865824864
 20
-4.405420462492756
 30
0.0
 11
87.81928865824864
 21
16.37918885528678
 31
0.0
  0
LINE
  5
3E9
  8
0
  6
CENTER
 62
     7
 10
209.8045251641846
 20
16.37919056454542
 30
0.0
 11
197.8045251641846
 21
-4.405418753234116
 31
0.0
  0
ARC
  5
3EA
  8
0
  6
CENTER
 62
     7
 10
148.8119086885121
 20
37.73688684295315
 30
0.0
 40
66.69999694824219
 50
3.383514351605176
 51
26.61648050680536
  0
ARC
  5
3EB
  8
0
  6
CENTER
 62
     7
 10
148.8119086885121
 20
37.73688684295315
 30
0.0
 40
66.69999694824219
 50
33.38350921001571
 51
56.61647280389494
  0
ARC
  5
3EC
  8
0
  6
CENTER
 62
     7
 10
148.8119086885121
 20
37.73688684295315
 30
0.0
 40
66.69999694824219
 50
123.3835424503451
 51
146.6165128744136
  0
ARC
  5
3ED
  8
0
  6
CENTER
 62
     7
 10
148.8119086885121
 20
37.73688684295315
 30
0.0
 40
66.69999694824219
 50
153.383536454982
 51
176.6165068790504
  0
ARC
  5
3EE
  8
0
  6
CENTER
 62
     7
 10
148.8119086885121
 20
37.73688684295315
 30
0.0
 40
66.69999694824219
 50
242.0875620182401
 51
267.9123979870316
  0
ARC
  5
3EF
  8
0
  6
CENTER
 62
     7
 10
148.8119086885121
 20
37.73688684295315
 30
0.0
 40
66.69999694824219
 50
272.0875833436337
 51
297.9124193124252
  0
ARC
  5
3F0
  8
0
  6
CENTER
 62
     7
 10
148.8119086885121
 20
37.73688684295315
 30
0.0
 40
48.5
 50
141.7941259024853
 51
158.1537904606924
  0
ARC
  5
3F1
  8
0
  6
CENTER
 62
     7
 10
148.8119086885121
 20
37.73688684295315
 30
0.0
 40
48.5
 50
261.7251553963458
 51
278.2472384478131
  0
ARC
  5
3F2
  8
0
  6
CENTER
 62
     7
 10
148.8119086885121
 20
37.73688684295315
 30
0.0
 40
48.5
 50
21.23774544386827
 51
38.45221019850915
  0
LINE
  5
3F3
  8
0
  6
CENTER
 62
     7
 10
-207.0214500761364
 20
37.73688684295315
 30
0.0
 11
-156.3693826457136
 21
37.73688684295315
 31
0.0
  0
LINE
  5
3F4
  8
0
  6
CENTER
 62
     7
 10
-149.3240041353056
 20
37.73688684295315
 30
0.0
 11
-114.3969149241342
 21
37.73688684295315
 31
0.0
  0
LINE
  5
3F5
  8
0
  6
CENTER
 62
     7
 10
-106.9018314024235
 20
37.73688684295315
 30
0.0
 11
-55.02143863204458
 21
37.73688684295315
 31
0.0
  0
LINE
  5
3F6
  8
0
  6
DASHED2
 62
     7
 10
-186.5547905302379
 20
-35.96311010528903
 30
0.0
 11
-77.55479815963247
 21
-35.96311010528903
 31
0.0
  0
LINE
  5
3F7
  8
0
  6
DASHED2
 62
     7
 10
-186.5547905302379
 20
-21.9631081979404
 30
0.0
 11
-77.55479815963247
 21
-21.9631081979404
 31
0.0
  0
LINE
  5
3F8
  8
0
  6
DASHED2
 62
     7
 10
100.8119010591175
 20
133.925504549252
 30
0.0
 11
100.8119010591175
 21
100.7368906576504
 31
0.0
  0
LINE
  5
3F9
  8
0
  6
DASHED2
 62
     7
 10
61.70708080765269
 20
100.7368906576504
 30
0.0
 11
100.8119010591175
 21
100.7368906576504
 31
0.0
  0
LINE
  5
3FA
  8
0
  6
DASHED2
 62
     7
 10
100.8119010591175
 20
119.7368906576504
 30
0.0
 11
119.762447323766
 21
119.7368906576504
 31
0.0
  0
LINE
  5
3FB
  8
0
  6
DASHED2
 62
     7
 10
100.8119010591175
 20
103.7368906576504
 30
0.0
 11
119.762447323766
 21
103.7368906576504
 31
0.0
  0
LINE
  5
3FC
  8
0
  6
DASHED2
 62
     7
 10
101.8119010591175
 20
119.7368906576504
 30
0.0
 11
101.8119010591175
 21
103.7368906576504
 31
0.0
  0
LINE
  5
3FD
  8
0
  6
DASHED2
 62
     7
 10
100.8119004410013
 20
118.7368834538666
 30
0.0
 11
101.8119015025908
 21
119.7368845154561
 31
0.0
  0
LINE
  5
3FE
  8
0
  6
DASHED2
 62
     7
 10
100.8118817278009
 20
104.736865725628
 30
0.0
 11
101.8118822836283
 21
103.7368651698006
 31
0.0
  0
LINE
  5
3FF
  8
0
  6
DASHED2
 62
     7
 10
88.81190105911753
 20
114.1368921835293
 30
0.0
 11
88.81190105911753
 21
109.3368891317715
 31
0.0
  0
LINE
  5
400
  8
0
  6
DASHED2
 62
     7
 10
91.51189800735972
 20
115.0368937094082
 30
0.0
 11
91.51189800735972
 21
108.4368876058926
 31
0.0
  0
LINE
  5
401
  8
0
  6
DASHED2
 62
     7
 10
97.25065227982066
 20
106.0368937094082
 30
0.0
 11
100.3731498384144
 21
106.0368937094082
 31
0.0
  0
LINE
  5
402
  8
0
  6
DASHED2
 62
     7
 10
97.25065227982066
 20
117.4368876058926
 30
0.0
 11
100.3731498384144
 21
117.4368876058926
 31
0.0
  0
LINE
  5
403
  8
0
  6
DASHED2
 62
     7
 10
91.51188081752491
 20
108.4368398396004
 30
0.0
 11
88.81188402039481
 21
109.3368386588853
 31
0.0
  0
LINE
  5
404
  8
0
  6
DASHED2
 62
     7
 10
91.51191911075409
 20
115.0368629327765
 30
0.0
 11
88.81191507574465
 21
114.1368617008654
 31
0.0
  0
LINE
  5
405
  8
0
  6
DASHED2
 62
     7
 10
92.51189800735972
 20
114.4822214681973
 30
0.0
 11
92.51189800735972
 21
108.9414118368497
 31
0.0
  0
LINE
  5
406
  8
0
  6
DASHED2
 62
     7
 10
96.81190105911753
 20
116.1868876058926
 30
0.0
 11
96.81190105911753
 21
107.2868937094082
 31
0.0
  0
LINE
  5
407
  8
0
  6
DASHED2
 62
     7
 10
97.555789914098
 20
114.6305521566739
 30
0.0
 11
100.0680122041371
 21
114.6305521566739
 31
0.0
  0
LINE
  5
408
  8
0
  6
DASHED2
 62
     7
 10
97.555789914098
 20
108.843229158627
 30
0.0
 11
100.0680122041371
 21
108.843229158627
 31
0.0
  0
LINE
  5
409
  8
0
  6
DASHED2
 62
     7
 10
100.8119010591175
 20
116.0368937094082
 30
0.0
 11
107.8119010591175
 21
116.0368937094082
 31
0.0
  0
LINE
  5
40A
  8
0
  6
DASHED2
 62
     7
 10
100.8119010591175
 20
107.4368876058926
 30
0.0
 11
107.8119010591175
 21
107.4368876058926
 31
0.0
  0
LINE
  5
40B
  8
0
  6
DASHED2
 62
     7
 10
100.8119010591175
 20
115.3368891317715
 30
0.0
 11
107.8119010591175
 21
115.3368891317715
 31
0.0
  0
LINE
  5
40C
  8
0
  6
DASHED2
 62
     7
 10
100.8119010591175
 20
108.1368921835293
 30
0.0
 11
107.8119010591175
 21
108.1368921835293
 31
0.0
  0
LINE
  5
40D
  8
0
  6
DASHED2
 62
     7
 10
107.8119010591175
 20
116.0368937094082
 30
0.0
 11
107.8119010591175
 21
107.4368876058926
 31
0.0
  0
LINE
  5
40E
  8
0
  6
DASHED2
 62
     7
 10
107.8119010591175
 20
113.2368906576504
 30
0.0
 11
119.762447323766
 21
113.2368906576504
 31
0.0
  0
LINE
  5
40F
  8
0
  6
DASHED2
 62
     7
 10
107.8119010591175
 20
110.2368906576504
 30
0.0
 11
119.762447323766
 21
110.2368906576504
 31
0.0
  0
LINE
  5
410
  8
0
  6
DASHED2
 62
     7
 10
-77.55479815963247
 20
-19.4631081979404
 30
0.0
 11
-77.55479815963247
 21
-38.46311010528903
 31
0.0
  0
LINE
  5
411
  8
0
  6
DASHED2
 62
     7
 10
-77.55479815963247
 20
-38.46311010528903
 30
0.0
 11
-64.5547943449352
 21
-38.46311010528903
 31
0.0
  0
LINE
  5
412
  8
0
  6
DASHED2
 62
     7
 10
-77.55479815963247
 20
-19.4631081979404
 30
0.0
 11
-64.5547943449352
 21
-19.4631081979404
 31
0.0
  0
LINE
  5
413
  8
0
  6
DASHED2
 62
     7
 10
19.35073162354564
 20
-67.02976734903072
 30
0.0
 11
30.60906208362931
 21
-60.52976711061216
 31
0.0
  0
LINE
  5
414
  8
0
  6
DASHED2
 62
     7
 10
28.35073327535798
 20
-82.61822338369106
 30
0.0
 11
39.60906290953548
 21
-76.11822362210964
 31
0.0
  0
LINE
  5
415
  8
0
  6
DASHED2
 62
     7
 10
19.35073267110596
 20
-67.0297701673525
 30
0.0
 11
28.35073374398957
 21
-82.61822715568715
 31
0.0
  0
LINE
  5
416
  8
0
  6
DASHED2
 62
     7
 10
35.44303787128104
 20
-70.90245761958872
 30
0.0
 11
33.04303634540213
 21
-66.74553311313306
 31
0.0
  0
LINE
  5
417
  8
0
  6
DASHED2
 62
     7
 10
33.55477025115152
 20
-73.03188169508789
 30
0.0
 11
30.25477101409098
 21
-67.31611545414839
 31
0.0
  0
LINE
  5
418
  8
0
  6
DASHED2
 62
     7
 10
24.08486665794959
 20
-68.1070284298024
 30
0.0
 11
21.3807028456751
 21
-69.66827816277359
 31
0.0
  0
LINE
  5
419
  8
0
  6
DASHED2
 62
     7
 10
30.2547673617205
 20
-67.31611153274167
 30
0.0
 11
33.04303627020954
 21
-66.74553427580031
 31
0.0
  0
LINE
  5
41A
  8
0
  6
DASHED2
 62
     7
 10
33.55477041498887
 20
-73.0318822865705
 30
0.0
 11
35.44303803241132
 21
-70.90246059693536
 31
0.0
  0
LINE
  5
41B
  8
0
  6
DASHED2
 62
     7
 10
32.41140874230524
 20
-73.05152145204679
 30
0.0
 11
29.64100392663141
 21
-68.25303963989049
 31
0.0
  0
LINE
  5
41C
  8
0
  6
DASHED2
 62
     7
 10
29.53983247653616
 20
-76.67780570113277
 30
0.0
 11
25.08983552829397
 21
-68.97018503158901
 31
0.0
  0
LINE
  5
41D
  8
0
  6
DASHED2
 62
     7
 10
28.11743894339048
 20
-75.70192364014324
 30
0.0
 11
25.94178900749984
 21
-76.95803573883708
 31
0.0
  0
LINE
  5
41E
  8
0
  6
DASHED2
 62
     7
 10
25.22377744436704
 20
-70.6899549938847
 30
0.0
 11
23.0481275084764
 21
-71.94606709257855
 31
0.0
  0
LINE
  5
41F
  8
0
  6
DASHED2
 62
     7
 10
13.12775444051954
 20
-76.25125462056891
 30
0.0
 11
21.70073213981505
 21
-71.10008996892267
 31
0.0
  0
LINE
  5
420
  8
0
  6
DASHED2
 62
     7
 10
13.52775207885929
 20
-76.94407075938167
 30
0.0
 11
22.1007297781548
 21
-71.79290610773543
 31
0.0
  0
LINE
  5
421
  8
0
  6
DASHED2
 62
     7
 10
14.41369922598369
 20
-75.47857901098402
 30
0.0
 11
18.56533393720565
 21
-82.66942027900902
 31
0.0
  0
ARC
  5
422
  8
0
  6
DASHED2
 62
     7
 10
91.51189800735972
 20
111.7368906576504
 30
0.0
 40
3.299999952316284
 50
73.48282241201396
 51
89.99998201391067
  0
ARC
  5
423
  8
0
  6
DASHED2
 62
     7
 10
91.51189800735972
 20
111.7368906576504
 30
0.0
 40
3.299999952316284
 50
270.0000179860893
 51
286.5171775879861
  0
ARC
  5
424
  8
0
  6
DASHED2
 62
     7
 10
98.81190105911753
 20
116.1868876058926
 30
0.0
 40
2.0
 50
0.0
 51
38.68218896809859
  0
ARC
  5
425
  8
0
  6
DASHED2
 62
     7
 10
98.81190105911753
 20
107.2868937094082
 30
0.0
 40
2.0
 50
0.0
 51
51.09316519948327
  0
ARC
  5
426
  8
0
  6
DASHED2
 62
     7
 10
94.81190105911753
 20
111.7368906576504
 30
0.0
 40
6.0
 50
0.0
 51
28.83423780766662
  0
ARC
  5
427
  8
0
  6
DASHED2
 62
     7
 10
102.8119010591175
 20
111.7368906576504
 30
0.0
 40
6.0
 50
151.1657740314789
 51
208.8342086656771
  0
ARC
  5
428
  8
0
  6
DASHED2
 62
     7
 10
94.81190105911753
 20
111.7368906576504
 30
0.0
 40
6.0
 50
331.1657621923334
 51
0.0
  0
ARC
  5
429
  8
0
  6
DASHED2
 62
     7
 10
98.81190105911753
 20
116.1868876058926
 30
0.0
 40
2.0
 50
308.9068348005167
 51
0.0
  0
ARC
  5
42A
  8
0
  6
DASHED2
 62
     7
 10
98.81190105911753
 20
116.1868876058926
 30
0.0
 40
2.0
 50
141.3178297012361
 51
231.0931121518317
  0
ARC
  5
42B
  8
0
  6
DASHED2
 62
     7
 10
98.81190105911753
 20
107.2868937094082
 30
0.0
 40
2.0
 50
128.906856884946
 51
218.6821529959199
  0
ARC
  5
42C
  8
0
  6
DASHED2
 62
     7
 10
98.81190105911753
 20
107.2868937094082
 30
0.0
 40
2.0
 50
321.3178110319014
 51
0.0
  0
ARC
  5
42D
  8
0
  6
DASHED2
 62
     7
 10
92.845096554723
 20
120.5368937094082
 30
0.0
 40
5.650000095367432
 50
265.9910930942638
 51
315.0592540539054
  0
ARC
  5
42E
  8
0
  6
DASHED2
 62
     7
 10
92.845096554723
 20
102.9368876058926
 30
0.0
 40
5.650000095367432
 50
44.94074594609464
 51
94.00890690573628
  0
ARC
  5
42F
  8
0
  6
DASHED2
 62
     7
 10
89.51189800735972
 20
111.7368906576504
 30
0.0
 40
1.5
 50
117.818154050457
 51
242.1818423070773
  0
ARC
  5
430
  8
0
  6
DASHED2
 62
     7
 10
31.90476986404917
 20
-70.17399801422457
 30
0.0
 40
3.299999952316284
 50
283.4828250680729
 51
299.9999846699696
  0
ARC
  5
431
  8
0
  6
DASHED2
 62
     7
 10
31.90476986404917
 20
-70.17399801422457
 30
0.0
 40
3.299999952316284
 50
120.0000169996826
 51
136.5171766015793
  0
ARC
  5
432
  8
0
  6
DASHED2
 62
     7
 10
23.35778423782847
 20
-69.97018636871675
 30
0.0
 40
2.0
 50
210.0000026560589
 51
261.0931644404476
  0
ARC
  5
433
  8
0
  6
DASHED2
 62
     7
 10
29.04688641068003
 20
-71.82399954010347
 30
0.0
 40
6.0
 50
210.0000026560589
 51
238.8342336335363
  0
ARC
  5
434
  8
0
  6
DASHED2
 62
     7
 10
22.11868092056773
 20
-75.82399954010347
 30
0.0
 40
6.0
 50
1.165774019495132
 51
58.83421132173599
  0
ARC
  5
435
  8
0
  6
DASHED2
 62
     7
 10
29.04688641068003
 20
-71.82399954010347
 30
0.0
 40
6.0
 50
181.1657580182031
 51
210.0000026560589
  0
ARC
  5
436
  8
0
  6
DASHED2
 62
     7
 10
27.80778309341929
 20
-77.67781271149019
 30
0.0
 40
2.0
 50
351.317829795974
 51
81.09311480789054
  0
ARC
  5
437
  8
0
  6
DASHED2
 62
     7
 10
23.35778423782847
 20
-69.97018636871675
 30
0.0
 40
2.0
 50
338.9068561259103
 51
68.68215565197879
  0
ARC
  5
438
  8
0
  6
DASHED2
 62
     7
 10
23.35778423782847
 20
-69.97018636871675
 30
0.0
 40
2.0
 50
171.3178100454946
 51
209.9999990135932
  0
ARC
  5
439
  8
0
  6
DASHED2
 62
     7
 10
35.15018459793589
 20
-78.46161855865816
 30
0.0
 40
5.650000095367432
 50
115.9910921078569
 51
165.0592530674986
  0
ARC
  5
43A
  8
0
  6
DASHED2
 62
     7
 10
26.35018536087534
 20
-63.21957601715427
 30
0.0
 40
5.650000095367432
 50
254.9407486021535
 51
304.0089061467006
  0
ARC
  5
43B
  8
0
  6
DASHED2
 62
     7
 10
33.63682171341441
 20
-69.17399801422457
 30
0.0
 40
1.5
 50
327.8181532914213
 51
92.18184496313621
  0
LINE
  5
43C
  8
0
  6
DASHED2
 62
     7
 10
29.78486360619178
 20
-77.97971256994819
 30
0.0
 11
27.08069979391729
 21
-79.54096230291938
 31
0.0
  0
LINE
  5
43D
  8
0
  6
DASHED2
 62
     7
 10
16.85320199970909
 20
-82.7039235374971
 30
0.0
 11
25.60073211895303
 21
-77.85508862877097
 31
0.0
  0
LINE
  5
43E
  8
0
  6
DASHED2
 62
     7
 10
17.25320121222114
 20
-83.39673881100256
 30
0.0
 11
26.00072966326036
 21
-78.54790482697737
 31
0.0
  0
LINE
  5
43F
  8
0
  6
DASHED2
 62
     7
 10
13.12775318619879
 20
-76.25125518019783
 30
0.0
 11
17.25320381226811
 21
-83.39674428860914
 31
0.0
  0
LINE
  5
440
  8
0
  6
DASHED2
 62
     7
 10
9.521705406673618
 20
-79.2569676331403
 30
0.0
 11
13.5277550257839
 21
-76.94407376564763
 31
0.0
  0
LINE
  5
441
  8
0
  6
DASHED2
 62
     7
 10
12.77308357204436
 20
-85.0595745445888
 30
0.0
 11
16.85320210830344
 21
-82.70391696707415
 31
0.0
  0
ARC
  5
442
  8
0
  6
DASHED2
 62
     7
 10
27.80778309341929
 20
-77.67781271149019
 30
0.0
 40
2.0
 50
210.0000026560589
 51
248.6821916241575
  0
ARC
  5
443
  8
0
  6
DASHED2
 62
     7
 10
27.80778309341929
 20
-77.67781271149019
 30
0.0
 40
2.0
 50
158.9068372292045
 51
209.9999990135932
  0
LINE
  5
444
  8
0
  6
DASHED2
 62
     7
 10
-128.954790530238
 20
-48.76310934234957
 30
0.0
 11
-122.1547905302379
 21
-48.76310934234957
 31
0.0
  0
LINE
  5
445
  8
0
  6
DASHED2
 62
     7
 10
-129.5547905302379
 20
-53.76310934234957
 30
0.0
 11
-121.5547905302379
 21
-53.76310934234957
 31
0.0
  0
LINE
  5
446
  8
0
  6
DASHED2
 62
     7
 10
-129.5547905302379
 20
-53.76310934234957
 30
0.0
 11
-129.5547905302379
 21
-69.76310934234957
 31
0.0
  0
LINE
  5
447
  8
0
  6
DASHED2
 62
     7
 10
-128.954790530238
 20
-48.76310934234957
 30
0.0
 11
-128.954790530238
 21
-69.76310934234957
 31
0.0
  0
LINE
  5
448
  8
0
  6
DASHED2
 62
     7
 10
-128.9547905302377
 20
-48.76310934234945
 30
0.0
 11
-125.5547905302381
 21
-46.80011842710491
 31
0.0
  0
LINE
  5
449
  8
0
  6
DASHED2
 62
     7
 10
-122.1547905302381
 20
-48.76310934234945
 30
0.0
 11
-125.5547905302378
 21
-46.80011842710491
 31
0.0
  0
LINE
  5
44A
  8
0
  6
DASHED2
 62
     7
 10
-122.1547905302379
 20
-48.76310934234957
 30
0.0
 11
-122.1547905302379
 21
-69.76310934234957
 31
0.0
  0
LINE
  5
44B
  8
0
  6
DASHED2
 62
     7
 10
-121.5547905302379
 20
-53.76310934234957
 30
0.0
 11
-121.5547905302379
 21
-69.76310934234957
 31
0.0
  0
LINE
  5
44C
  8
0
  6
DASHED2
 62
     7
 10
222.0230992411828
 20
83.93138512312106
 30
0.0
 11
240.2096327206561
 21
94.43138512312106
 31
0.0
  0
LINE
  5
44D
  8
0
  6
DASHED2
 62
     7
 10
226.053226260105
 20
86.9510003653917
 30
0.0
 11
239.9096327206561
 21
94.9510003653917
 31
0.0
  0
LINE
  5
44E
  8
0
  6
DASHED2
 62
     7
 10
230.053226260105
 20
80.0227971351162
 30
0.0
 11
226.053226260105
 21
86.9510003653917
 31
0.0
  0
LINE
  5
44F
  8
0
  6
DASHED2
 62
     7
 10
230.053226260105
 20
80.0227971351162
 30
0.0
 11
243.909632720656
 21
88.0227971351162
 31
0.0
  0
LINE
  5
450
  8
0
  6
DASHED2
 62
     7
 10
225.4230992411829
 20
78.04241237738682
 30
0.0
 11
243.6096327206561
 21
88.54241237738682
 31
0.0
  0
LINE
  5
451
  8
0
  6
DASHED2
 62
     7
 10
225.4230992411829
 20
78.04241237738682
 30
0.0
 11
222.0230992411828
 21
83.93138512312106
 31
0.0
  0
LINE
  5
452
  8
0
  6
DASHED2
 62
     7
 10
225.4230992411826
 20
78.04241237738697
 30
0.0
 11
222.023099241183
 21
80.00540329263151
 31
0.0
  0
LINE
  5
453
  8
0
  6
DASHED2
 62
     7
 10
222.0230992411828
 20
83.93138512312083
 30
0.0
 11
222.0230992411828
 21
80.00540329263171
 31
0.0
  0
LINE
  5
454
  8
0
  6
DIVIDE
 62
     7
 10
-185.1569633818004
 20
64.73688684295317
 30
0.0
 11
-185.1569633818004
 21
54.820222719418
 31
0.0
  0
LINE
  5
455
  8
0
  6
DIVIDE
 62
     7
 10
-185.1570182705083
 20
64.73693604701262
 30
0.0
 11
-184.0497147061943
 21
65.84423961132657
 31
0.0
  0
LINE
  5
456
  8
0
  6
DIVIDE
 62
     7
 10
-166.5547905302379
 20
-22.9631081979404
 30
0.0
 11
-166.5547905302379
 21
-34.96311010528903
 31
0.0
  0
LINE
  5
457
  8
0
  6
CONTINUOUS
 62
     7
 10
-50.98858879693239
 20
100.2368947817626
 30
0.0
 11
-48.55478850556415
 21
98.83173968363158
 31
0.0
  0
LINE
  5
458
  8
0
  6
CONTINUOUS
 62
     7
 10
-53.38860132473042
 20
100.2368877721821
 30
0.0
 11
-48.5547902175515
 21
97.44608593657372
 31
0.0
  0
LINE
  5
459
  8
0
  6
CONTINUOUS
 62
     7
 10
-55.7885891939377
 20
100.236892954957
 30
0.0
 11
-48.55478709269755
 21
96.06045582596235
 31
0.0
  0
LINE
  5
45A
  8
0
  6
CONTINUOUS
 62
     7
 10
-56.55479211620616
 20
99.2936100388678
 30
0.0
 11
-48.5547935045862
 21
94.67480919722644
 31
0.0
  0
LINE
  5
45B
  8
0
  6
CONTINUOUS
 62
     7
 10
-56.55478899135221
 20
97.90797992825642
 30
0.0
 11
-50.19628891669879
 21
94.23689860410119
 31
0.0
  0
LINE
  5
45C
  8
0
  6
CONTINUOUS
 62
     7
 10
-56.55479628844512
 20
96.52234702509227
 30
0.0
 11
-52.59628060060311
 21
94.23689717962625
 31
0.0
  0
LINE
  5
45D
  8
0
  6
CONTINUOUS
 62
     7
 10
-56.55479800043247
 20
95.13669327803441
 30
0.0
 11
-54.99629312840113
 21
94.23689017004577
 31
0.0
  0
LINE
  5
45E
  8
0
  6
CONTINUOUS
 62
     7
 10
-51.33506690170645
 20
130.2368931965513
 30
0.0
 11
-48.55478903725191
 21
128.6316992004314
 31
0.0
  0
LINE
  5
45F
  8
0
  6
CONTINUOUS
 62
     7
 10
-53.73507840736022
 20
130.2369032161675
 30
0.0
 11
-48.554789727095
 21
127.2460624825702
 31
0.0
  0
LINE
  5
460
  8
0
  6
CONTINUOUS
 62
     7
 10
-56.13507009126454
 20
130.2369017916925
 30
0.0
 11
-48.55478380968827
 21
125.860421950012
 31
0.0
  0
LINE
  5
461
  8
0
  6
CONTINUOUS
 62
     7
 10
-56.55478413329558
 20
129.0935690445955
 30
0.0
 11
-48.55478552167563
 21
124.4747682029542
 31
0.0
  0
LINE
  5
462
  8
0
  6
CONTINUOUS
 62
     7
 10
-56.55478761569145
 20
127.7079427486812
 30
0.0
 11
-50.54277172137415
 21
124.2369041372118
 31
0.0
  0
LINE
  5
463
  8
0
  6
CONTINUOUS
 62
     7
 10
-56.55478551298177
 20
126.3222956088731
 30
0.0
 11
-52.94276061272569
 21
124.2368922907901
 31
0.0
  0
LINE
  5
464
  8
0
  6
CONTINUOUS
 62
     7
 10
-56.55479281007467
 20
124.936662705709
 30
0.0
 11
-55.34277872562927
 21
124.2369061251033
 31
0.0
  0
LINE
  5
465
  8
0
  6
CONTINUOUS
 62
     7
 10
-56.55480542959469
 20
128.6987037395857
 30
0.0
 11
-53.89056739002865
 21
130.2369021189712
 31
0.0
  0
LINE
  5
466
  8
0
  6
CONTINUOUS
 62
     7
 10
-56.55480804337651
 20
127.313065114376
 30
0.0
 11
-51.49055588437488
 21
130.2369121385874
 31
0.0
  0
LINE
  5
467
  8
0
  6
CONTINUOUS
 62
     7
 10
-56.55479394279575
 20
125.9274185198751
 30
0.0
 11
-49.09055326745158
 21
130.2368994069614
 31
0.0
  0
LINE
  5
468
  8
0
  6
CONTINUOUS
 62
     7
 10
-56.55480316382739
 20
124.5417760799683
 30
0.0
 11
-48.55480042267629
 21
129.1605793057953
 31
0.0
  0
LINE
  5
469
  8
0
  6
CONTINUOUS
 62
     7
 10
-54.68286040747637
 20
124.2369054987077
 30
0.0
 11
-48.5547997328332
 21
127.7749425879341
 31
0.0
  0
LINE
  5
46A
  8
0
  6
CONTINUOUS
 62
     7
 10
-52.28286872357205
 20
124.2369040742328
 30
0.0
 11
-48.55480565023993
 21
126.3893020553759
 31
0.0
  0
LINE
  5
46B
  8
0
  6
CONTINUOUS
 62
     7
 10
-49.88286217335565
 20
124.2369112328262
 30
0.0
 11
-48.55480496039684
 21
125.0036653375147
 31
0.0
  0
LINE
  5
46C
  8
0
  6
CONTINUOUS
 62
     7
 10
-56.55480168482791
 20
98.61731750869359
 30
0.0
 11
-53.74960437121683
 21
100.2368987539025
 31
0.0
  0
LINE
  5
46D
  8
0
  6
CONTINUOUS
 62
     7
 10
-56.55480326622694
 20
97.23167947953027
 30
0.0
 11
-51.34959658214109
 21
100.2369066277516
 31
0.0
  0
LINE
  5
46E
  8
0
  6
CONTINUOUS
 62
     7
 10
-56.55480095038097
 20
95.84604370044218
 30
0.0
 11
-48.93796622768639
 21
100.2436247921095
 31
0.0
  0
LINE
  5
46F
  8
0
  6
CONTINUOUS
 62
     7
 10
-56.55480254201852
 20
94.4603880460358
 30
0.0
 11
-48.55480018801097
 21
99.07919104834542
 31
0.0
  0
LINE
  5
470
  8
0
  6
CONTINUOUS
 62
     7
 10
-54.54190533289272
 20
94.23690635670312
 30
0.0
 11
-48.55480331286492
 21
97.69356093773405
 31
0.0
  0
LINE
  5
471
  8
0
  6
CONTINUOUS
 62
     7
 10
-52.14190425942434
 20
94.23690154362902
 30
0.0
 11
-48.55479880832479
 21
96.30791761262304
 31
0.0
  0
LINE
  5
472
  8
0
  6
CONTINUOUS
 62
     7
 10
-49.74189956749694
 20
94.23690762933887
 30
0.0
 11
-48.55480307391906
 21
94.92227803373908
 31
0.0
  0
ARC
  5
473
  8
0
  6
CONTINUOUS
 62
     7
 10
148.8119086885121
 20
37.73688684295315
 30
0.0
 40
60.0
 50
228.4614439070914
 51
247.0922875099186
  0
ARC
  5
474
  8
0
  6
CONTINUOUS
 62
     7
 10
148.8119086885121
 20
37.73688684295315
 30
0.0
 40
66.0
 50
226.730988160112
 51
245.5093296980656
  0
ARC
  5
475
  8
0
  6
CONTINUOUS
 62
     7
 10
148.8119086885121
 20
37.73688684295315
 30
0.0
 40
72.0
 50
225.3009241328297
 51
247.0241632031369
  0
ARC
  5
476
  8
0
  6
CONTINUOUS
 62
     7
 10
148.8119086885121
 20
37.73688684295315
 30
0.0
 40
60.0
 50
262.9076724953532
 51
277.0923088353122
  0
ARC
  5
477
  8
0
  6
CONTINUOUS
 62
     7
 10
148.8119086885121
 20
37.73688684295315
 30
0.0
 40
66.0
 50
264.4906303072061
 51
275.5093578536483
  0
ARC
  5
478
  8
0
  6
CONTINUOUS
 62
     7
 10
148.8119086885121
 20
37.73688684295315
 30
0.0
 40
72.0
 50
262.975803632324
 51
277.0241776983413
  0
ARC
  5
479
  8
0
  6
CONTINUOUS
 62
     7
 10
148.8119086885121
 20
37.73688684295315
 30
0.0
 40
72.0
 50
292.9758249577176
 51
314.6990640280247
  0
ARC
  5
47A
  8
0
  6
CONTINUOUS
 62
     7
 10
148.8119086885121
 20
37.73688684295315
 30
0.0
 40
66.0
 50
294.4906516325997
 51
313.2690034158371
  0
ARC
  5
47B
  8
0
  6
CONTINUOUS
 62
     7
 10
148.8119086885121
 20
37.73688684295315
 30
0.0
 40
60.0
 50
292.9076938207467
 51
311.5385476688576
  0
TEXT
  5
47C
  8
0
 62
     7
 10
230.5293517639194
 20
-145.4114874608697
 30
0.0
 40
4.0
  1
一式
 41
0.8909090909090901
  7
DCSTYLE0
 72
     5
 11
236.1293517639194
 21
-145.4114874608697
 31
0.0
  0
TEXT
  5
47D
  8
0
 62
     7
 10
-19.70477298263051
 20
41.43688226531643
 30
0.0
 40
4.0
  1
(MAX55 MIN45)
 50
90.0
 41
0.9062240663900415
  7
DCSTYLE0
 72
     5
 11
-19.70477298263051
 21
83.03688226531644
 31
0.0
  0
LINE
  5
47E
  8
0
  6
CONTINUOUS
 62
     6
 10
-47.91893038769265
 20
-166.0911518519619
 30
0.0
 11
81.05078091601828
 21
-166.0911518519619
 31
0.0
  0
LINE
  5
47F
  8
0
  6
CONTINUOUS
 62
     6
 10
-47.91893038769265
 20
-159.0911518519619
 30
0.0
 11
81.05078091601828
 21
-159.0911518519619
 31
0.0
  0
LINE
  5
480
  8
0
  6
CONTINUOUS
 62
     6
 10
-47.91893038769265
 20
-152.0911518519619
 30
0.0
 11
81.05078091601828
 21
-152.0911518519619
 31
0.0
  0
LINE
  5
481
  8
0
  6
CONTINUOUS
 62
     6
 10
-47.91893038769265
 20
-145.0911518519619
 30
0.0
 11
81.05078091601828
 21
-145.0911518519619
 31
0.0
  0
LINE
  5
482
  8
0
  6
CONTINUOUS
 62
     6
 10
-52.4952853681614
 20
-138.0911518519619
 30
0.0
 11
4.709029817385471
 21
-138.0911518519619
 31
0.0
  0
LINE
  5
483
  8
0
  6
CONTINUOUS
 62
     6
 10
-233.3538557581751
 20
-179.2114238195099
 30
0.0
 11
-71.49856248424936
 21
-179.2114238195099
 31
0.0
  0
LINE
  5
484
  8
0
  6
CONTINUOUS
 62
     6
 10
-233.3538557581751
 20
-172.2114238195099
 30
0.0
 11
-71.49856248424936
 21
-172.2114238195099
 31
0.0
  0
LINE
  5
485
  8
0
  6
CONTINUOUS
 62
     6
 10
-233.3538557581751
 20
-165.2114238195099
 30
0.0
 11
-71.49856248424936
 21
-165.2114238195099
 31
0.0
  0
LINE
  5
486
  8
0
  6
CONTINUOUS
 62
     6
 10
-233.3538557581751
 20
-158.2114238195099
 30
0.0
 11
-71.49856248424936
 21
-158.2114238195099
 31
0.0
  0
LINE
  5
487
  8
0
  6
CONTINUOUS
 62
     6
 10
-233.3538557581751
 20
-151.2114238195099
 30
0.0
 11
-71.49856248424936
 21
-151.2114238195099
 31
0.0
  0
LINE
  5
488
  8
0
  6
CONTINUOUS
 62
     6
 10
-233.3538557581751
 20
-144.2114238195099
 30
0.0
 11
-71.49856248424936
 21
-144.2114238195099
 31
0.0
  0
LINE
  5
489
  8
0
  6
CONTINUOUS
 62
     6
 10
-233.3538557581751
 20
-137.2114238195099
 30
0.0
 11
-71.49856248424936
 21
-137.2114238195099
 31
0.0
  0
LINE
  5
48A
  8
0
  6
CONTINUOUS
 62
     6
 10
-233.3538557581751
 20
-130.2114238195099
 30
0.0
 11
-71.49856248424936
 21
-130.2114238195099
 31
0.0
  0
LINE
  5
48B
  8
0
  6
CONTINUOUS
 62
     6
 10
-233.3538557581751
 20
-116.2114238195099
 30
0.0
 11
-216.8318983607142
 21
-116.2114238195099
 31
0.0
  0
LINE
  5
48C
  8
0
  6
CONTINUOUS
 62
     6
 10
-233.3538557581751
 20
-123.2114238195099
 30
0.0
 11
-71.49856248424936
 21
-123.2114238195099
 31
0.0
  0
TEXT
  5
48D
  8
0
 62
     6
 10
-51.42765686531564
 20
-136.8048206752041
 30
0.0
 40
4.0
  1
COP型ﾁｬｯｸ使用上の注意
 41
1.11196913751396
  7
DCSTYLE0
 72
     5
 11
3.429487252039706
 21
-136.8048206752041
 31
0.0
  0
TEXT
  5
48E
  8
0
 62
     6
 10
-46.76850084085962
 20
-141.4311328714589
 30
0.0
 40
2.0
  1
☆
 41
1.000000441074371
  7
DCSTYLE0
 72
     5
 11
-45.33992878218194
 21
-141.4311328714589
 31
0.0
  0
TEXT
  5
48F
  8
0
 62
     6
 10
-45.48278687019845
 20
-143.9311329310635
 30
0.0
 40
4.0
  1
COP型ﾁｬｯｸは両側ｾﾝﾀｰで御使用下さい。
 41
1.133016642793623
  7
DCSTYLE0
 72
     5
 11
45.37435724715689
 21
-143.9311329310635
 31
0.0
  0
TEXT
  5
490
  8
0
 62
     6
 10
-46.76850084085962
 20
-148.4311328714589
 30
0.0
 40
2.0
  1
☆
 41
1.000000441074371
  7
DCSTYLE0
 72
     5
 11
-45.33992878218194
 21
-148.4311328714589
 31
0.0
  0
TEXT
  5
491
  8
0
 62
     6
 10
-45.48278687019845
 20
-150.9311329310635
 30
0.0
 40
4.0
  1
COP型ﾁｬｯｸに使用するシリンダーのｽﾄﾛｰｸは、
 41
1.136842119191822
  7
DCSTYLE0
 72
     5
 11
57.37435724715689
 21
-150.9311329310635
 31
0.0
  0
TEXT
  5
492
  8
0
 62
     6
 10
-47.48278687019845
 20
-157.9311329310635
 30
0.0
 40
4.0
  1
  ﾁｬｯｸピストンストロークに合った物以外、使用してはいけません。
 41
1.151219522953033
  7
DCSTYLE0
 72
     5
 11
87.3743572471569
 21
-157.9311329310635
 31
0.0
  0
TEXT
  5
493
  8
0
 62
     6
 10
-46.76850084085962
 20
-162.4311328714589
 30
0.0
 40
2.0
  1
☆　
 41
1.090909291397442
  7
DCSTYLE0
 72
     5
 11
-43.33992878218194
 21
-162.4311328714589
 31
0.0
  0
TEXT
  5
494
  8
0
 62
     6
 10
-43.48278687019845
 20
-164.9311329310635
 30
0.0
 40
4.0
  1
御要望により、フローティング量を調整する事もできます。
 41
1.161490696927775
  7
DCSTYLE0
 72
     5
 11
63.37435724715689
 21
-164.9311329310635
 31
0.0
  0
TEXT
  5
495
  8
0
 62
     6
 10
-231.2055213529017
 20
-115.0756511144318
 30
0.0
 40
4.5
  1
仕　様
 41
1.11764717647059
  7
DCSTYLE0
 72
     5
 11
-218.9912343529017
 21
-115.0756511144318
 31
0.0
  0
TEXT
  5
496
  8
0
 62
     6
 10
-231.4974830228236
 20
-121.8855876378693
 30
0.0
 40
4.5
  1
1.爪ﾉｽﾄﾛｰｸ　（直径）
 41
1.185185209876544
  7
DCSTYLE0
 72
     5
 11
-169.7831960228236
 21
-121.8855876378693
 31
0.0
  0
TEXT
  5
497
  8
0
 62
     6
 10
-231.4974830228236
 20
-128.8855876378693
 30
0.0
 40
4.5
  1
2.ピストンストローク
 41
1.190476222222222
  7
DCSTYLE0
 72
     5
 11
-183.2831960228236
 21
-128.8855876378693
 31
0.0
  0
TEXT
  5
498
  8
0
 62
     6
 10
-231.4974830228236
 20
-135.8855876378693
 30
0.0
 40
4.5
  1
３．把握径ノ最大振レ
 41
1.152542406779661
  7
DCSTYLE0
 72
     5
 11
-187.7831960228236
 21
-135.8855876378693
 31
0.0
  0
TEXT
  5
499
  8
0
 62
     6
 10
-231.4974830228236
 20
-142.8855876378693
 30
0.0
 40
4.5
  1
４．推奨シリンダー
 41
1.150943433962265
  7
DCSTYLE0
 72
     5
 11
-192.2831960228236
 21
-142.8855876378693
 31
0.0
  0
TEXT
  5
49A
  8
0
 62
     6
 10
-231.4974830228236
 20
-149.8855876378693
 30
0.0
 40
4.5
  1
５．許容シリンダー力
 41
1.152542406779661
  7
DCSTYLE0
 72
     5
 11
-187.7831960228236
 21
-149.8855876378693
 31
0.0
  0
TEXT
  5
49B
  8
0
 62
     6
 10
-231.4974830228236
 20
-156.8855876378693
 30
0.0
 40
4.5
  1
６．最大静的把握力
 41
1.150943433962265
  7
DCSTYLE0
 72
     5
 11
-192.2831960228236
 21
-156.8855876378693
 31
0.0
  0
TEXT
  5
49C
  8
0
 62
     6
 10
-231.4974830228236
 20
-163.8855876378693
 30
0.0
 40
4.5
  1
７．最高使用回転速度
 41
1.152542406779661
  7
DCSTYLE0
 72
     5
 11
-187.7831960228236
 21
-163.8855876378693
 31
0.0
  0
TEXT
  5
49D
  8
0
 62
     6
 10
-231.4974830228236
 20
-170.8855876378693
 30
0.0
 40
4.5
  1
８．慣性モーメント
 41
1.150943433962265
  7
DCSTYLE0
 72
     5
 11
-192.2831960228236
 21
-170.8855876378693
 31
0.0
  0
TEXT
  5
49E
  8
0
 62
     6
 10
-231.4974830228236
 20
-177.8855876378693
 30
0.0
 40
4.5
  1
９．質　量
 41
1.137931103448277
  7
DCSTYLE0
 72
     5
 11
-210.2831960228236
 21
-177.8855876378693
 31
0.0
  0
TEXT
  5
49F
  8
0
 62
     6
 10
-100.6390235501673
 20
-121.7934092931428
 30
0.0
 40
4.5
  1
２０  ｍｍ
 41
1.081081135135135
  7
DCSTYLE0
 72
     5
 11
-74.92473655016734
 21
-121.7934092931428
 31
0.0
  0
TEXT
  5
4A0
  8
0
 62
     6
 10
-100.6390235501673
 20
-129.0267314366974
 30
0.0
 40
4.5
  1
25  mm
 41
0.8695652608695652
  7
DCSTYLE0
 72
     5
 11
-74.92473655016734
 21
-129.0267314366974
 31
0.0
  0
TEXT
  5
4A1
  8
0
 62
     6
 10
-100.5390479642298
 20
-136.0267466954865
 30
0.0
 40
4.5
  1
 4  mm
 41
0.8633093956834532
  7
DCSTYLE0
 72
     5
 11
-74.82476096422984
 21
-136.0267466954865
 31
0.0
  0
TEXT
  5
4A2
  8
0
 62
     6
 10
-114.1703291870199
 20
-143.0267466954865
 30
0.0
 40
4.5
  1
52ＴＳ-ＴＡ1型
 41
1.057803502890173
  7
DCSTYLE0
 72
     5
 11
-74.95604218701989
 21
-143.0267466954865
 31
0.0
  0
TEXT
  5
4A3
  8
0
 62
     6
 10
-110.1472785550501
 20
-150.0756511144318
 30
0.0
 40
4.5
  1
20.7  kN
 41
1.102040857142857
  7
DCSTYLE0
 72
     5
 11
-75.43299155505015
 21
-150.0756511144318
 31
0.0
  0
TEXT
  5
4A4
  8
0
 62
     6
 10
-110.1472785550501
 20
-157.0756511144318
 30
0.0
 40
4.5
  1
31.4  kN
 41
1.102040857142857
  7
DCSTYLE0
 72
     5
 11
-75.43299155505015
 21
-157.0756511144318
 31
0.0
  0
TEXT
  5
4A5
  8
0
 62
     6
 10
-109.6723640042689
 20
-164.0267466954865
 30
0.0
 40
4.5
  1
3200 min
 41
1.051948090909091
  7
DCSTYLE0
 72
     5
 11
-74.9580770042689
 21
-164.0267466954865
 31
0.0
  0
TEXT
  5
4A6
  8
0
 62
     6
 10
-75.29536857631797
 20
-161.0312063276112
 30
0.0
 40
2.25
  1
-1
 41
0.9729730090090074
  7
DCSTYLE0
 72
     5
 11
-71.43822557631798
 21
-161.0312063276112
 31
0.0
  0
TEXT
  5
4A7
  8
0
 62
     6
 10
-110.0723655301478
 20
-171.0267466954865
 30
0.0
 40
4.5
  1
0.2 kg・m
 41
1.072847721854304
  7
DCSTYLE0
 72
     5
 11
-75.35807853014781
 21
-171.0267466954865
 31
0.0
  0
TEXT
  5
4A8
  8
0
 62
     6
 10
-74.90742065118044
 20
-168.2365363346878
 30
0.0
 40
2.25
  1
2
 41
0.8823532941176506
  7
DCSTYLE0
 72
     5
 11
-73.30027715118044
 21
-168.2365363346878
 31
0.0
  0
TEXT
  5
4A9
  8
0
 62
     6
 10
-104.9723670560267
 20
-178.0267466954865
 30
0.0
 40
4.5
  1
 28  kg
 41
1.044444488888889
  7
DCSTYLE0
 72
     5
 11
-74.75808005602671
 21
-178.0267466954865
 31
0.0
  0
TEXT
  5
4AA
  8
0
 62
     6
 10
-184.2239330211372
 20
-149.3978775184923
 30
0.0
 40
2.599999904632568
  1
(52TS-TA1型 使用圧力 MAX 3.2MPa)
 41
1.102161113708171
  7
DCSTYLE0
 72
     5
 11
-114.7667918601722
 21
-149.3978775184923
 31
0.0
  0
LINE
  5
4AB
  8
0
  6
CONTINUOUS
 62
     3
 10
-190.7547874784801
 20
145.2368906576504
 30
0.0
 11
-190.7547874784801
 21
125.2273539144864
 31
0.0
  0
LINE
  5
4AC
  8
0
  6
CONTINUOUS
 62
     3
 10
-190.7547874784801
 20
145.2368906576504
 30
0.0
 11
-118.0547981596325
 21
145.2368906576504
 31
0.0
  0
LINE
  5
4AD
  8
0
  6
CONTINUOUS
 62
     3
 10
-190.7547874784801
 20
-69.76310934234957
 30
0.0
 11
-66.5547943449352
 21
-69.76310934234957
 31
0.0
  0
LINE
  5
4AE
  8
0
  6
CONTINUOUS
 62
     3
 10
-186.5547905302379
 20
132.7368906576504
 30
0.0
 11
-186.5547905302379
 21
124.9613092977872
 31
0.0
  0
LINE
  5
4AF
  8
0
  6
CONTINUOUS
 62
     3
 10
-190.7547874784801
 20
-57.26311315704685
 30
0.0
 11
-186.5547905302379
 21
-57.26311315704685
 31
0.0
  0
LINE
  5
4B0
  8
0
  6
CONTINUOUS
 62
     3
 10
-190.7547874784801
 20
132.7368906576504
 30
0.0
 11
-186.5547905302379
 21
132.7368906576504
 31
0.0
  0
LINE
  5
4B1
  8
0
  6
CONTINUOUS
 62
     3
 10
-143.1731682157848
 20
79.23689065765043
 30
0.0
 11
-121.9364204740856
 21
79.23689065765043
 31
0.0
  0
LINE
  5
4B2
  8
0
  6
CONTINUOUS
 62
     3
 10
-139.5547905302379
 20
61.23688684295315
 30
0.0
 11
-125.5547981596325
 21
61.23688684295315
 31
0.0
  0
LINE
  5
4B3
  8
0
  6
CONTINUOUS
 62
     3
 10
-139.5547905302379
 20
79.23689065765043
 30
0.0
 11
-139.5547905302379
 21
64.23688684295317
 31
0.0
  0
LINE
  5
4B4
  8
0
  6
CONTINUOUS
 62
     3
 10
-125.5547981596325
 20
79.23689065765043
 30
0.0
 11
-125.5547981596325
 21
64.23688684295317
 31
0.0
  0
LINE
  5
4B5
  8
0
  6
CONTINUOUS
 62
     3
 10
-140.5547881868124
 20
79.23689429333743
 30
0.0
 11
-142.4103845955832
 21
90.2017821784113
 31
0.0
  0
LINE
  5
4B6
  8
0
  6
CONTINUOUS
 62
     3
 10
-124.5547914375205
 20
79.23688504374746
 30
0.0
 11
-123.8716135365474
 21
92.27269125603792
 31
0.0
  0
LINE
  5
4B7
  8
0
  6
CONTINUOUS
 62
     3
 10
-142.2547874784801
 20
63.23688684295316
 30
0.0
 11
-122.8548012113903
 21
63.23688684295316
 31
0.0
  0
LINE
  5
4B8
  8
0
  6
CONTINUOUS
 62
     3
 10
-143.1731682157848
 20
64.23688684295317
 30
0.0
 11
-121.9364204740856
 21
64.23688684295317
 31
0.0
  0
LINE
  5
4B9
  8
0
  6
CONTINUOUS
 62
     3
 10
-139.2547874784801
 20
64.23688684295317
 30
0.0
 11
-139.2547874784801
 21
63.23688684295316
 31
0.0
  0
LINE
  5
4BA
  8
0
  6
CONTINUOUS
 62
     3
 10
-125.8548012113903
 20
64.23688684295317
 30
0.0
 11
-125.8548012113903
 21
63.23688684295316
 31
0.0
  0
LINE
  5
4BB
  8
0
  6
CONTINUOUS
 62
     3
 10
-139.5547905302379
 20
63.23688684295316
 30
0.0
 11
-139.5547905302379
 21
61.23688684295315
 31
0.0
  0
LINE
  5
4BC
  8
0
  6
CONTINUOUS
 62
     3
 10
-125.5547981596325
 20
63.23688684295316
 30
0.0
 11
-125.5547981596325
 21
61.23688684295315
 31
0.0
  0
LINE
  5
4BD
  8
0
  6
CONTINUOUS
 62
     3
 10
-122.8548012113903
 20
64.23688684295317
 30
0.0
 11
-122.8548012113903
 21
63.23688684295316
 31
0.0
  0
LINE
  5
4BE
  8
0
  6
CONTINUOUS
 62
     3
 10
-142.2547874784801
 20
64.23688684295317
 30
0.0
 11
-142.2547874784801
 21
63.23688684295316
 31
0.0
  0
LINE
  5
4BF
  8
0
  6
CONTINUOUS
 62
     3
 10
-190.7547874784801
 20
7.684376819836089
 30
0.0
 11
-190.7547874784801
 21
-69.76310934234957
 31
0.0
  0
LINE
  5
4C0
  8
0
  6
CONTINUOUS
 62
     3
 10
-186.5547905302379
 20
7.684376819836089
 30
0.0
 11
-186.5547905302379
 21
-57.26311315704685
 31
0.0
  0
LINE
  5
4C1
  8
0
  6
CONTINUOUS
 62
     3
 10
-118.0547981596325
 20
145.2368906576504
 30
0.0
 11
-118.0547981596325
 21
125.9677581593288
 31
0.0
  0
LINE
  5
4C2
  8
0
  6
CONTINUOUS
 62
     3
 10
-118.0547981596325
 20
145.2368906576504
 30
0.0
 11
-100.0547981596325
 21
145.2368906576504
 31
0.0
  0
LINE
  5
4C3
  8
0
  6
CONTINUOUS
 62
     3
 10
-118.0547981596325
 20
87.73689065765043
 30
0.0
 11
-87.55479815963247
 21
87.73689065765043
 31
0.0
  0
LINE
  5
4C4
  8
0
  6
CONTINUOUS
 62
     3
 10
-186.5547905302379
 20
88.73689065765043
 30
0.0
 11
-164.6617699003551
 21
88.73689065765043
 31
0.0
  0
LINE
  5
4C5
  8
0
  6
CONTINUOUS
 62
     3
 10
-186.5547905302379
 20
-13.26311124969821
 30
0.0
 11
-164.8516197538708
 21
-13.26311124969821
 31
0.0
  0
LINE
  5
4C6
  8
0
  6
CONTINUOUS
 62
     3
 10
-186.5547905302379
 20
-17.76311124969821
 30
0.0
 11
-131.5547981596325
 21
-17.76311124969821
 31
0.0
  0
LINE
  5
4C7
  8
0
  6
CONTINUOUS
 62
     3
 10
-131.5547981596325
 20
-13.26311124969821
 30
0.0
 11
-131.5547981596325
 21
-17.76311124969821
 31
0.0
  0
LINE
  5
4C8
  8
0
  6
CONTINUOUS
 62
     3
 10
-145.5547905302379
 20
80.8182047445645
 30
0.0
 11
-145.5547905302379
 21
-5.344430104983857
 31
0.0
  0
LINE
  5
4C9
  8
0
  6
CONTINUOUS
 62
     3
 10
-119.5547981596325
 20
80.8182047445645
 30
0.0
 11
-119.5547981596325
 21
-5.344430104983857
 31
0.0
  0
LINE
  5
4CA
  8
0
  6
CONTINUOUS
 62
     3
 10
-162.5547905302379
 20
71.27790628265043
 30
0.0
 11
-162.5547905302379
 21
4.195868505941817
 31
0.0
  0
LINE
  5
4CB
  8
0
  6
CONTINUOUS
 62
     3
 10
-162.5547905302379
 20
64.73688684295317
 30
0.0
 11
-145.5547905302379
 21
64.73688684295317
 31
0.0
  0
LINE
  5
4CC
  8
0
  6
CONTINUOUS
 62
     3
 10
-162.5547905302379
 20
10.73688779662747
 30
0.0
 11
-145.5547905302379
 21
10.73688779662747
 31
0.0
  0
LINE
  5
4CD
  8
0
  6
CONTINUOUS
 62
     3
 10
-119.5547981596325
 20
64.73688684295317
 30
0.0
 11
-102.5547981596325
 21
64.73688684295317
 31
0.0
  0
LINE
  5
4CE
  8
0
  6
CONTINUOUS
 62
     3
 10
-119.5547981596325
 20
10.73688779662747
 30
0.0
 11
-102.5547981596325
 21
10.73688779662747
 31
0.0
  0
LINE
  5
4CF
  8
0
  6
CONTINUOUS
 62
     3
 10
-161.9330334055427
 20
72.73689706446945
 30
0.0
 11
-150.1569915242413
 21
79.53579726347144
 31
0.0
  0
LINE
  5
4D0
  8
0
  6
CONTINUOUS
 62
     3
 10
-114.9526129494425
 20
-4.062008750433378
 30
0.0
 11
-101.4445201724502
 21
3.736891388963969
 31
0.0
  0
LINE
  5
4D1
  8
0
  6
CONTINUOUS
 62
     3
 10
-114.9526280890346
 20
79.53580155650948
 30
0.0
 11
-101.4445154902929
 21
71.73688997302102
 31
0.0
  0
LINE
  5
4D2
  8
0
  6
CONTINUOUS
 62
     3
 10
-161.9330230698098
 20
2.736878831006052
 30
0.0
 11
-150.1569679740088
 21
-4.062028997390016
 31
0.0
  0
LINE
  5
4D3
  8
0
  6
CONTINUOUS
 62
     3
 10
-114.9526176786754
 20
79.73689065765043
 30
0.0
 11
-114.9526176786754
 21
79.15142618011137
 31
0.0
  0
LINE
  5
4D4
  8
0
  6
CONTINUOUS
 62
     3
 10
-150.1569786405895
 20
88.73689065765043
 30
0.0
 11
-150.1569786405895
 21
79.15142618011137
 31
0.0
  0
LINE
  5
4D5
  8
0
  6
CONTINUOUS
 62
     3
 10
-150.1569786405895
 20
-4.062012807620576
 30
0.0
 11
-150.1569786405895
 21
-7.263112203372529
 31
0.0
  0
LINE
  5
4D6
  8
0
  6
CONTINUOUS
 62
     3
 10
-114.9526176786754
 20
-3.677643911136201
 30
0.0
 11
-114.9526176786754
 21
-6.263112203372529
 31
0.0
  0
LINE
  5
4D7
  8
0
  6
CONTINUOUS
 62
     3
 10
-114.9526176786754
 20
79.73689065765043
 30
0.0
 11
-99.95261767867544
 21
79.73689065765043
 31
0.0
  0
LINE
  5
4D8
  8
0
  6
CONTINUOUS
 62
     3
 10
-147.1569786405895
 20
85.73689065765043
 30
0.0
 11
-143.0030022001598
 21
85.73689065765043
 31
0.0
  0
LINE
  5
4D9
  8
0
  6
CONTINUOUS
 62
     3
 10
-164.1526146269176
 20
88.73689065765043
 30
0.0
 11
-150.1569786405895
 21
88.73689065765043
 31
0.0
  0
LINE
  5
4DA
  8
0
  6
CONTINUOUS
 62
     3
 10
-164.1526146269176
 20
-13.26311124969821
 30
0.0
 11
-101.9526100492809
 21
-13.26311124969821
 31
0.0
  0
LINE
  5
4DB
  8
0
  6
CONTINUOUS
 62
     3
 10
-147.1526146269176
 20
-7.263112203372529
 30
0.0
 11
-115.9526176786754
 21
-7.263112203372529
 31
0.0
  0
LINE
  5
4DC
  8
0
  6
CONTINUOUS
 62
     3
 10
-165.1526146269176
 20
88.23689065765043
 30
0.0
 11
-165.1526146269176
 21
81.93688760589262
 31
0.0
  0
LINE
  5
4DD
  8
0
  6
CONTINUOUS
 62
     3
 10
-147.1526146269176
 20
-5.513116018069795
 30
0.0
 11
-147.1526146269176
 21
-6.513112203372529
 31
0.0
  0
LINE
  5
4DE
  8
0
  6
CONTINUOUS
 62
     3
 10
-150.1526146269176
 20
-7.513112203372529
 30
0.0
 11
-148.1526146269176
 21
-7.513112203372529
 31
0.0
  0
LINE
  5
4DF
  8
0
  6
CONTINUOUS
 62
     3
 10
-197.6569633818004
 20
64.73688684295317
 30
0.0
 11
-197.6569633818004
 21
10.73689018081326
 31
0.0
  0
LINE
  5
4E0
  8
0
  6
CONTINUOUS
 62
     3
 10
-181.6569633818004
 20
61.98688684295315
 30
0.0
 11
-181.6569633818004
 21
13.53688703368802
 31
0.0
  0
LINE
  5
4E1
  8
0
  6
CONTINUOUS
 62
     3
 10
-177.6569633818004
 20
61.98688684295315
 30
0.0
 11
-177.6569633818004
 21
13.48688779662747
 31
0.0
  0
LINE
  5
4E2
  8
0
  6
CONTINUOUS
 62
     3
 10
-168.1569633818004
 20
72.73689065765043
 30
0.0
 11
-168.1569633818004
 21
2.73688791583676
 31
0.0
  0
LINE
  5
4E3
  8
0
  6
CONTINUOUS
 62
     3
 10
-168.1569633818004
 20
72.73689065765043
 30
0.0
 11
-161.9330101347301
 21
72.73689065765043
 31
0.0
  0
LINE
  5
4E4
  8
0
  6
CONTINUOUS
 62
     3
 10
-168.1569633818004
 20
2.73688791583676
 30
0.0
 11
-161.9330101347301
 21
2.73688791583676
 31
0.0
  0
LINE
  5
4E5
  8
0
  6
CONTINUOUS
 62
     3
 10
-161.9330101347301
 20
72.73689065765043
 30
0.0
 11
-161.9330101347301
 21
71.82384286712309
 31
0.0
  0
LINE
  5
4E6
  8
0
  6
CONTINUOUS
 62
     3
 10
-161.9330101347301
 20
3.649935736166427
 30
0.0
 11
-161.9330101347301
 21
2.73688791583676
 31
0.0
  0
LINE
  5
4E7
  8
0
  6
CONTINUOUS
 62
     3
 10
-180.6569633818004
 20
12.48688779662747
 30
0.0
 11
-178.6569633818004
 21
12.48688779662747
 31
0.0
  0
LINE
  5
4E8
  8
0
  6
CONTINUOUS
 62
     3
 10
-180.6569633818004
 20
62.98688684295315
 30
0.0
 11
-178.6569633818004
 21
62.98688684295315
 31
0.0
  0
LINE
  5
4E9
  8
0
  6
CONTINUOUS
 62
     3
 10
-196.6569633818004
 20
13.53688703368802
 30
0.0
 11
-181.6569633818004
 21
13.53688703368802
 31
0.0
  0
LINE
  5
4EA
  8
0
  6
CONTINUOUS
 62
     3
 10
-196.6569633818004
 20
61.93688760589261
 30
0.0
 11
-181.6569633818004
 21
61.93688760589261
 31
0.0
  0
LINE
  5
4EB
  8
0
  6
CONTINUOUS
 62
     3
 10
-196.1569633818004
 20
66.23688684295317
 30
0.0
 11
-176.6569633818004
 21
66.23688684295317
 31
0.0
  0
LINE
  5
4EC
  8
0
  6
CONTINUOUS
 62
     3
 10
-196.1569633818004
 20
9.236887796627471
 30
0.0
 11
-176.6569633818004
 21
9.236887796627471
 31
0.0
  0
LINE
  5
4ED
  8
0
  6
CONTINUOUS
 62
     3
 10
-174.1569633818004
 20
87.23689065765043
 30
0.0
 11
-174.1569633818004
 21
68.73689065765043
 31
0.0
  0
LINE
  5
4EE
  8
0
  6
CONTINUOUS
 62
     3
 10
-173.1569633818004
 20
-12.76311124969821
 30
0.0
 11
-165.1526146269176
 21
-12.76311124969821
 31
0.0
  0
LINE
  5
4EF
  8
0
  6
CONTINUOUS
 62
     3
 10
-173.1569633818004
 20
88.23689065765043
 30
0.0
 11
-165.1526146269176
 21
88.23689065765043
 31
0.0
  0
LINE
  5
4F0
  8
0
  6
CONTINUOUS
 62
     3
 10
-174.1569633818004
 20
6.73688803504605
 30
0.0
 11
-174.1569633818004
 21
-11.76311220337253
 31
0.0
  0
LINE
  5
4F1
  8
0
  6
CONTINUOUS
 62
     3
 10
-196.1569529826817
 20
9.236877436411433
 30
0.0
 11
-197.6569526784557
 21
10.73688092540591
 31
0.0
  0
LINE
  5
4F2
  8
0
  6
CONTINUOUS
 62
     3
 10
-197.6569545329309
 20
64.73686811897292
 30
0.0
 11
-196.1569510439364
 21
66.23686781474694
 31
0.0
  0
LINE
  5
4F3
  8
0
  6
CONTINUOUS
 62
     3
 10
-174.1569393075794
 20
-11.76308966522798
 30
0.0
 11
-173.1569372344644
 21
-12.76308979958581
 31
0.0
  0
LINE
  5
4F4
  8
0
  6
CONTINUOUS
 62
     3
 10
-174.1569275233611
 20
87.23684255383537
 30
0.0
 11
-173.1569254502461
 21
88.2368426881932
 31
0.0
  0
LINE
  5
4F5
  8
0
  6
CONTINUOUS
 62
     3
 10
-196.6569603464328
 20
61.93688020555614
 30
0.0
 11
-197.6569614080223
 21
62.93688126714564
 31
0.0
  0
LINE
  5
4F6
  8
0
  6
CONTINUOUS
 62
     3
 10
-196.6569387672467
 20
13.53688061467086
 30
0.0
 11
-197.6569398288362
 21
12.53687955308136
 31
0.0
  0
LINE
  5
4F7
  8
0
  6
CONTINUOUS
 62
     3
 10
-196.6569633818004
 20
61.93688760589261
 30
0.0
 11
-196.6569633818004
 21
54.820222719418
 31
0.0
  0
LINE
  5
4F8
  8
0
  6
CONTINUOUS
 62
     3
 10
-177.6569633818004
 20
15.23688779662747
 30
0.0
 11
-168.1569633818004
 21
15.23688779662747
 31
0.0
  0
LINE
  5
4F9
  8
0
  6
CONTINUOUS
 62
     3
 10
-177.6569633818004
 20
60.23688684295315
 30
0.0
 11
-168.1569633818004
 21
60.23688684295315
 31
0.0
  0
LINE
  5
4FA
  8
0
  6
CONTINUOUS
 62
     3
 10
-165.1526146269176
 20
-6.463112966311982
 30
0.0
 11
-165.1526146269176
 21
-12.76311124969821
 31
0.0
  0
LINE
  5
4FB
  8
0
  6
CONTINUOUS
 62
     3
 10
-164.1525681535969
 20
-13.26308454176511
 30
0.0
 11
-165.1525711539435
 21
-12.26308533463894
 31
0.0
  0
LINE
  5
4FC
  8
0
  6
CONTINUOUS
 62
     3
 10
-165.1525840951673
 20
87.73686335723383
 30
0.0
 11
-164.1525830335778
 21
88.73686441882333
 31
0.0
  0
LINE
  5
4FD
  8
0
  6
CONTINUOUS
 62
     3
 10
-165.1526146269176
 20
-7.263112203372529
 30
0.0
 11
-162.1526146269176
 21
-7.263112203372529
 31
0.0
  0
LINE
  5
4FE
  8
0
  6
CONTINUOUS
 62
     3
 10
-165.1526146269176
 20
82.73689065765043
 30
0.0
 11
-150.1569786405895
 21
82.73689065765043
 31
0.0
  0
LINE
  5
4FF
  8
0
  6
CONTINUOUS
 62
     3
 10
-162.1526146269176
 20
-3.763112203372529
 30
0.0
 11
-162.1526146269176
 21
-13.26311124969821
 31
0.0
  0
LINE
  5
500
  8
0
  6
CONTINUOUS
 62
     3
 10
-156.1526146269176
 20
-3.763112203372529
 30
0.0
 11
-156.1526146269176
 21
-13.26311124969821
 31
0.0
  0
LINE
  5
501
  8
0
  6
CONTINUOUS
 62
     3
 10
-162.1526146269176
 20
-3.763112203372529
 30
0.0
 11
-156.1526146269176
 21
-3.763112203372529
 31
0.0
  0
LINE
  5
502
  8
0
  6
CONTINUOUS
 62
     3
 10
-156.1526146269176
 20
-7.263112203372529
 30
0.0
 11
-150.1569786405895
 21
-7.263112203372529
 31
0.0
  0
LINE
  5
503
  8
0
  6
CONTINUOUS
 62
     3
 10
-190.7547874784801
 20
105.4145050392549
 30
0.0
 11
-190.7547874784801
 21
67.6102846701016
 31
0.0
  0
LINE
  5
504
  8
0
  6
CONTINUOUS
 62
     3
 10
-186.5547905302379
 20
100.7508677084317
 30
0.0
 11
-186.5547905302379
 21
67.6102846701016
 31
0.0
  0
LINE
  5
505
  8
0
  6
CONTINUOUS
 62
     3
 10
-196.6569633818004
 20
20.82022462676663
 30
0.0
 11
-196.6569633818004
 21
13.53688703368802
 31
0.0
  0
ARC
  5
506
  8
0
  6
CONTINUOUS
 62
     3
 10
-132.5547905302379
 20
71.73689065765043
 30
0.0
 40
13.0
 50
0.0
 51
35.23441875810288
  0
ARC
  5
507
  8
0
  6
CONTINUOUS
 62
     3
 10
-124.0547981596325
 20
77.82267556975981
 30
0.0
 40
1.5
 50
109.4712394129729
 51
179.9999640278213
  0
ARC
  5
508
  8
0
  6
CONTINUOUS
 62
     3
 10
-141.0547905302379
 20
77.82267556975981
 30
0.0
 40
1.5
 50
0.0
 51
70.52877925636179
  0
ARC
  5
509
  8
0
  6
CONTINUOUS
 62
     3
 10
-132.5547905302379
 20
71.73689065765043
 30
0.0
 40
13.0
 50
144.7655999112318
 51
215.2343827859242
  0
ARC
  5
50A
  8
0
  6
CONTINUOUS
 62
     3
 10
-132.5547905302379
 20
71.73689065765043
 30
0.0
 40
13.0
 50
324.7655812418971
 51
0.0
  0
ARC
  5
50B
  8
0
  6
CONTINUOUS
 62
     3
 10
-132.5547905302379
 20
37.73688684295315
 30
0.0
 40
45.0
 50
48.1896859342567
 51
73.20854933570293
  0
ARC
  5
50C
  8
0
  6
CONTINUOUS
 62
     3
 10
-132.5547905302379
 20
37.73688684295315
 30
0.0
 40
45.0
 50
106.7914693336318
 51
131.8103293199834
  0
ARC
  5
50D
  8
0
  6
CONTINUOUS
 62
     3
 10
-132.5547905302379
 20
37.73688684295315
 30
0.0
 40
45.0
 50
228.1896706800166
 51
253.2085306663683
  0
ARC
  5
50E
  8
0
  6
CONTINUOUS
 62
     3
 10
-132.5547905302379
 20
37.73688684295315
 30
0.0
 40
45.0
 50
286.7914506642971
 51
311.8103140657433
  0
ARC
  5
50F
  8
0
  6
CONTINUOUS
 62
     3
 10
-147.1569786405895
 20
88.73689065765043
 30
0.0
 40
3.0
 50
179.9999776881997
 51
270.000028004002
  0
ARC
  5
510
  8
0
  6
CONTINUOUS
 62
     3
 10
-115.9526176786754
 20
-6.263112203372529
 30
0.0
 40
1.0
 50
270.0000179860893
 51
0.0
  0
ARC
  5
511
  8
0
  6
CONTINUOUS
 62
     3
 10
-148.1526146269176
 20
-6.513112203372529
 30
0.0
 40
1.0
 50
270.0000179860893
 51
0.0
  0
ARC
  5
512
  8
0
  6
CONTINUOUS
 62
     3
 10
-180.6569633818004
 20
61.98688684295315
 30
0.0
 40
1.0
 50
89.99998201391067
 51
179.9999640278213
  0
ARC
  5
513
  8
0
  6
CONTINUOUS
 62
     3
 10
-178.6569633818004
 20
61.98688684295315
 30
0.0
 40
1.0
 50
0.0
 51
89.99998201391067
  0
ARC
  5
514
  8
0
  6
CONTINUOUS
 62
     3
 10
-178.6569633818004
 20
13.48688779662747
 30
0.0
 40
1.0
 50
270.0000179860893
 51
0.0
  0
ARC
  5
515
  8
0
  6
CONTINUOUS
 62
     3
 10
-180.6569633818004
 20
13.48688779662747
 30
0.0
 40
1.0
 50
179.9999776881997
 51
270.000028004002
  0
ARC
  5
516
  8
0
  6
CONTINUOUS
 62
     3
 10
-176.6569633818004
 20
68.73689065765043
 30
0.0
 40
2.5
 50
270.0000179860893
 51
0.0
  0
ARC
  5
517
  8
0
  6
CONTINUOUS
 62
     3
 10
-176.6569633818004
 20
6.73688803504605
 30
0.0
 40
2.5
 50
0.0
 51
89.99998201391067
  0
ARC
  5
518
  8
0
  6
CONTINUOUS
 62
     3
 10
-159.1526146269176
 20
-13.26311124969821
 30
0.0
 40
4.0
 50
179.9999776881997
 51
0.0000100179126691
  0
LINE
  5
519
  8
0
  6
CONTINUOUS
 62
     3
 10
-64.5547943449352
 20
143.2368753988614
 30
0.0
 11
-64.5547943449352
 21
141.2368906576504
 31
0.0
  0
LINE
  5
51A
  8
0
  6
CONTINUOUS
 62
     3
 10
-65.55479781174074
 20
144.2368702111145
 30
0.0
 11
-64.55479868890836
 21
143.2368672107679
 31
0.0
  0
LINE
  5
51B
  8
0
  6
CONTINUOUS
 62
     3
 10
-64.55481072954152
 20
-67.76309649211467
 30
0.0
 11
-66.5548066149884
 21
-69.76309423201988
 31
0.0
  0
LINE
  5
51C
  8
0
  6
CONTINUOUS
 62
     3
 10
46.96417222927818
 20
-0.8576728592050671
 30
0.0
 11
107.9517441427579
 21
34.35351431206404
 31
0.0
  0
LINE
  5
51D
  8
0
  6
CONTINUOUS
 62
     3
 10
64.46417404721967
 20
-31.16856848923349
 30
0.0
 11
125.4517591751991
 21
4.042626311429686
 31
0.0
  0
LINE
  5
51E
  8
0
  6
CONTINUOUS
 62
     3
 10
172.1720639554341
 20
4.042641703780774
 30
0.0
 11
233.1596490834135
 21
-31.16855309688241
 31
0.0
  0
LINE
  5
51F
  8
0
  6
CONTINUOUS
 62
     3
 10
189.6720743564439
 20
34.35355220012129
 30
0.0
 11
250.6596594844233
 21
-0.8576426005418938
 31
0.0
  0
LINE
  5
520
  8
0
  6
CONTINUOUS
 62
     3
 10
46.96417663766067
 20
-0.857667115548665
 30
0.0
 11
64.46417681647438
 21
-31.16855240035248
 31
0.0
  0
LINE
  5
521
  8
0
  6
CONTINUOUS
 62
     3
 10
233.1596683492834
 20
-31.16856608408976
 30
0.0
 11
250.6596704354459
 21
-0.8576774956612638
 31
0.0
  0
LINE
  5
522
  8
0
  6
CONTINUOUS
 62
     3
 10
43.49120941841113
 20
8.68421888440595
 30
0.0
 11
45.06189805910265
 21
9.591056293733132
 31
0.0
  0
LINE
  5
523
  8
0
  6
CONTINUOUS
 62
     3
 10
70.99121489760535
 20
-38.94718544699559
 30
0.0
 11
72.56190023467195
 21
-38.04034994501693
 31
0.0
  0
LINE
  5
524
  8
0
  6
CONTINUOUS
 62
     3
 10
225.0619101925337
 20
-38.04031840867343
 30
0.0
 11
226.6326252622245
 21
-38.94717107678876
 31
0.0
  0
LINE
  5
525
  8
0
  6
CONTINUOUS
 62
     3
 10
252.561912368103
 20
9.591087830076631
 30
0.0
 11
254.1326274377938
 21
8.684235161961297
 31
0.0
  0
LINE
  5
526
  8
0
  6
CONTINUOUS
 62
     3
 10
250.6596525677563
 20
-0.8576742139747324
 30
0.0
 11
254.132616311072
 21
8.684214907690276
 31
0.0
  0
LINE
  5
527
  8
0
  6
CONTINUOUS
 62
     3
 10
43.49120262790655
 20
8.684225468544483
 30
0.0
 11
46.96416637122218
 21
-0.8576636531205253
 31
0.0
  0
LINE
  5
528
  8
0
  6
CONTINUOUS
 62
     3
 10
226.6325517252475
 20
-38.94712816914021
 30
0.0
 11
233.159588585609
 21
-31.16850951047296
 31
0.0
  0
LINE
  5
529
  8
0
  6
CONTINUOUS
 62
     3
 10
64.46415785625311
 20
-31.16854728355143
 30
0.0
 11
70.99119471661459
 21
-38.94716594221869
 31
0.0
  0
LINE
  5
52A
  8
0
  6
CONTINUOUS
 62
     3
 10
96.76063506523167
 20
27.89233110074487
 30
0.0
 11
102.0106337837316
 21
18.799067827841
 31
0.0
  0
LINE
  5
52B
  8
0
  6
CONTINUOUS
 62
     3
 10
183.3632085254366
 20
-2.418562656822687
 30
0.0
 11
188.6132091512853
 21
6.674703919705863
 31
0.0
  0
LINE
  5
52C
  8
0
  6
CONTINUOUS
 62
     3
 10
52.21417617365296
 20
-9.950939806046321
 30
0.0
 11
60.98444136153921
 21
-4.887425398382661
 31
0.0
  0
LINE
  5
52D
  8
0
  6
CONTINUOUS
 62
     3
 10
59.21418096739387
 20
-22.07529747215914
 30
0.0
 11
67.98444285165522
 21
-17.01178497184399
 31
0.0
  0
LINE
  5
52E
  8
0
  6
CONTINUOUS
 62
     3
 10
109.0106365255455
 20
6.674709088844921
 30
0.0
 11
114.2606333366965
 21
-2.418550880434267
 31
0.0
  0
LINE
  5
52F
  8
0
  6
CONTINUOUS
 62
     3
 10
195.6132099857504
 20
18.79905935507726
 30
0.0
 11
200.8632106115991
 21
27.89232593160581
 31
0.0
  0
LINE
  5
530
  8
0
  6
CONTINUOUS
 62
     3
 10
-80.55479815963247
 20
145.2368906576504
 30
0.0
 11
-80.55479815963247
 21
60.23688684295315
 31
0.0
  0
LINE
  5
531
  8
0
  6
CONTINUOUS
 62
     3
 10
-87.55479815963247
 20
87.73689065765043
 30
0.0
 11
-87.55479815963247
 21
60.23688684295315
 31
0.0
  0
LINE
  5
532
  8
0
  6
CONTINUOUS
 62
     3
 10
-80.55479815963247
 20
87.73689065765043
 30
0.0
 11
-65.5547943449352
 21
87.73689065765043
 31
0.0
  0
LINE
  5
533
  8
0
  6
CONTINUOUS
 62
     3
 10
-87.55479815963247
 20
69.73689065765043
 30
0.0
 11
-80.55479815963247
 21
69.73689065765043
 31
0.0
  0
LINE
  5
534
  8
0
  6
CONTINUOUS
 62
     3
 10
-73.55479815963247
 20
145.2368906576504
 30
0.0
 11
-73.55479815963247
 21
141.2368906576504
 31
0.0
  0
LINE
  5
535
  8
0
  6
CONTINUOUS
 62
     3
 10
-101.8172798490856
 20
-13.26311124969821
 30
0.0
 11
-87.55479815963247
 21
-13.26311124969821
 31
0.0
  0
LINE
  5
536
  8
0
  6
CONTINUOUS
 62
     3
 10
-87.55479815963247
 20
58.77075753997464
 30
0.0
 11
-87.55479815963247
 21
-13.26311124969821
 31
0.0
  0
LINE
  5
537
  8
0
  6
CONTINUOUS
 62
     3
 10
-87.55479815963247
 20
-3.263112203372529
 30
0.0
 11
-76.05479815963247
 21
-3.263112203372529
 31
0.0
  0
LINE
  5
538
  8
0
  6
CONTINUOUS
 62
     3
 10
-76.05479815963247
 20
-18.26311124969821
 30
0.0
 11
-64.5547943449352
 21
-18.26311124969821
 31
0.0
  0
LINE
  5
539
  8
0
  6
CONTINUOUS
 62
     3
 10
-91.05479815963247
 20
-13.26311124969821
 30
0.0
 11
-91.05479815963247
 21
-14.76311124969821
 31
0.0
  0
LINE
  5
53A
  8
0
  6
CONTINUOUS
 62
     3
 10
-76.05479815963247
 20
85.15356241058012
 30
0.0
 11
-76.05479815963247
 21
-18.26311124969821
 31
0.0
  0
LINE
  5
53B
  8
0
  6
CONTINUOUS
 62
     3
 10
-79.55479815963247
 20
91.23689065765043
 30
0.0
 11
-64.0547943449352
 21
91.23689065765043
 31
0.0
  0
LINE
  5
53C
  8
0
  6
CONTINUOUS
 62
     3
 10
-79.55479815963247
 20
141.2368906576504
 30
0.0
 11
-64.0547943449352
 21
141.2368906576504
 31
0.0
  0
LINE
  5
53D
  8
0
  6
CONTINUOUS
 62
     3
 10
-79.55479815963247
 20
141.2368906576504
 30
0.0
 11
-79.55479815963247
 21
91.23689065765043
 31
0.0
  0
LINE
  5
53E
  8
0
  6
CONTINUOUS
 62
     3
 10
-64.0547943449352
 20
141.2368906576504
 30
0.0
 11
-64.0547943449352
 21
136.2368906576504
 31
0.0
  0
LINE
  5
53F
  8
0
  6
CONTINUOUS
 62
     3
 10
-64.5547943449352
 20
89.49129281829497
 30
0.0
 11
-64.5547943449352
 21
-67.76310171295503
 31
0.0
  0
LINE
  5
540
  8
0
  6
CONTINUOUS
 62
     3
 10
-73.55479815963247
 20
91.23689065765043
 30
0.0
 11
-73.55479815963247
 21
87.73689065765043
 31
0.0
  0
LINE
  5
541
  8
0
  6
CONTINUOUS
 62
     3
 10
-79.55479815963247
 20
106.2368906576504
 30
0.0
 11
-57.5547943449352
 21
106.2368906576504
 31
0.0
  0
LINE
  5
542
  8
0
  6
CONTINUOUS
 62
     3
 10
-79.55479815963247
 20
96.23689065765043
 30
0.0
 11
-57.5547943449352
 21
96.23689065765043
 31
0.0
  0
LINE
  5
543
  8
0
  6
CONTINUOUS
 62
     3
 10
-79.55479815963247
 20
126.2368906576504
 30
0.0
 11
-57.5547943449352
 21
126.2368906576504
 31
0.0
  0
LINE
  5
544
  8
0
  6
CONTINUOUS
 62
     3
 10
-79.55479815963247
 20
136.2368906576504
 30
0.0
 11
-57.5547943449352
 21
136.2368906576504
 31
0.0
  0
LINE
  5
545
  8
0
  6
CONTINUOUS
 62
     3
 10
-57.5547943449352
 20
109.2368906576504
 30
0.0
 11
-57.5547943449352
 21
93.23689065765043
 31
0.0
  0
LINE
  5
546
  8
0
  6
CONTINUOUS
 62
     3
 10
-57.5547943449352
 20
139.2368906576504
 30
0.0
 11
-57.5547943449352
 21
123.2368906576504
 31
0.0
  0
LINE
  5
547
  8
0
  6
CONTINUOUS
 62
     3
 10
-47.5547943449352
 20
139.2368906576504
 30
0.0
 11
-47.5547943449352
 21
123.2368906576504
 31
0.0
  0
LINE
  5
548
  8
0
  6
CONTINUOUS
 62
     3
 10
-47.5547943449352
 20
109.2368906576504
 30
0.0
 11
-47.5547943449352
 21
93.23689065765043
 31
0.0
  0
LINE
  5
549
  8
0
  6
CONTINUOUS
 62
     3
 10
-57.5547943449352
 20
93.23689065765043
 30
0.0
 11
-47.5547943449352
 21
93.23689065765043
 31
0.0
  0
LINE
  5
54A
  8
0
  6
CONTINUOUS
 62
     3
 10
-57.5547943449352
 20
109.2368906576504
 30
0.0
 11
-47.5547943449352
 21
109.2368906576504
 31
0.0
  0
LINE
  5
54B
  8
0
  6
CONTINUOUS
 62
     3
 10
-57.5547943449352
 20
123.2368906576504
 30
0.0
 11
-47.5547943449352
 21
123.2368906576504
 31
0.0
  0
LINE
  5
54C
  8
0
  6
CONTINUOUS
 62
     3
 10
-57.5547943449352
 20
139.2368906576504
 30
0.0
 11
-47.5547943449352
 21
139.2368906576504
 31
0.0
  0
LINE
  5
54D
  8
0
  6
CONTINUOUS
 62
     3
 10
-75.55479815963247
 20
136.2368906576504
 30
0.0
 11
-75.55479815963247
 21
126.2368906576504
 31
0.0
  0
LINE
  5
54E
  8
0
  6
CONTINUOUS
 62
     3
 10
-75.55479815963247
 20
106.2368906576504
 30
0.0
 11
-75.55479815963247
 21
96.23689065765043
 31
0.0
  0
LINE
  5
54F
  8
0
  6
CONTINUOUS
 62
     3
 10
-64.0547943449352
 20
126.2368906576504
 30
0.0
 11
-64.0547943449352
 21
106.2368906576504
 31
0.0
  0
LINE
  5
550
  8
0
  6
CONTINUOUS
 62
     3
 10
-64.0547943449352
 20
96.23689065765043
 30
0.0
 11
-64.0547943449352
 21
91.23689065765043
 31
0.0
  0
LINE
  5
551
  8
0
  6
CONTINUOUS
 62
     3
 10
-102.5547981596325
 20
71.27790628265043
 30
0.0
 11
-102.5547981596325
 21
4.195868505941817
 31
0.0
  0
LINE
  5
552
  8
0
  6
CONTINUOUS
 62
     3
 10
-99.95261767867544
 20
79.73689065765043
 30
0.0
 11
-99.95261767867544
 21
-11.26310648132663
 31
0.0
  0
LINE
  5
553
  8
0
  6
CONTINUOUS
 62
     3
 10
-101.4445228910778
 20
71.73689065765043
 30
0.0
 11
-99.95261767867544
 21
71.73689065765043
 31
0.0
  0
LINE
  5
554
  8
0
  6
CONTINUOUS
 62
     3
 10
-101.4445228910778
 20
3.736887938188502
 30
0.0
 11
-99.95261767867544
 21
3.736887938188502
 31
0.0
  0
LINE
  5
555
  8
0
  6
CONTINUOUS
 62
     3
 10
-101.4445228910778
 20
71.73689065765043
 30
0.0
 11
-101.4445228910778
 21
3.736887938188502
 31
0.0
  0
LINE
  5
556
  8
0
  6
CONTINUOUS
 62
     3
 10
-99.95262118642233
 20
-11.26310690633987
 30
0.0
 11
-101.9526160603465
 21
-13.26310548918069
 31
0.0
  0
LINE
  5
557
  8
0
  6
CONTINUOUS
 62
     3
 10
131.3119086885121
 20
145.2368906576504
 30
0.0
 11
166.3119086885121
 21
145.2368906576504
 31
0.0
  0
LINE
  5
558
  8
0
  6
CONTINUOUS
 62
     3
 10
131.3119086885121
 20
145.2368906576504
 30
0.0
 11
131.3119086885121
 21
74.81451211761137
 31
0.0
  0
LINE
  5
559
  8
0
  6
CONTINUOUS
 62
     3
 10
166.3119086885121
 20
145.2368906576504
 30
0.0
 11
166.3119086885121
 21
74.81451211761137
 31
0.0
  0
LINE
  5
55A
  8
0
  6
CONTINUOUS
 62
     3
 10
121.3119010591175
 20
143.4736155111661
 30
0.0
 11
121.3119010591175
 21
141.6599405844082
 31
0.0
  0
LINE
  5
55B
  8
0
  6
CONTINUOUS
 62
     3
 10
176.3119086885121
 20
143.4736155111661
 30
0.0
 11
176.3119086885121
 21
141.6599405844082
 31
0.0
  0
LINE
  5
55C
  8
0
  6
CONTINUOUS
 62
     3
 10
121.3118945332479
 20
143.4736063160746
 30
0.0
 11
131.3118945316836
 21
145.2368761738309
 31
0.0
  0
LINE
  5
55D
  8
0
  6
CONTINUOUS
 62
     3
 10
166.3119000082582
 20
145.2368611080639
 30
0.0
 11
176.3119000066939
 21
143.4735912503076
 31
0.0
  0
LINE
  5
55E
  8
0
  6
CONTINUOUS
 62
     3
 10
131.3119086885121
 20
87.73689065765043
 30
0.0
 11
141.8119086885121
 21
87.73689065765043
 31
0.0
  0
LINE
  5
55F
  8
0
  6
CONTINUOUS
 62
     3
 10
141.8119086885121
 20
145.2368906576504
 30
0.0
 11
141.8119086885121
 21
135.1098764974942
 31
0.0
  0
LINE
  5
560
  8
0
  6
CONTINUOUS
 62
     3
 10
155.8119086885121
 20
145.2368906576504
 30
0.0
 11
155.8119086885121
 21
135.1098764974942
 31
0.0
  0
LINE
  5
561
  8
0
  6
CONTINUOUS
 62
     3
 10
155.8119086885121
 20
87.73689065765043
 30
0.0
 11
166.3119086885121
 21
87.73689065765043
 31
0.0
  0
LINE
  5
562
  8
0
  6
CONTINUOUS
 62
     3
 10
-87.55479815963247
 20
60.23688684295315
 30
0.0
 11
-80.55479815963247
 21
60.23688684295315
 31
0.0
  0
LINE
  5
563
  8
0
  6
CONTINUOUS
 62
     3
 10
-80.55479815963247
 20
68.14658914397856
 30
0.0
 11
-76.05479815963247
 21
68.14658914397856
 31
0.0
  0
LINE
  5
564
  8
0
  6
CONTINUOUS
 62
     3
 10
171.5660245326743
 20
60.2368791760024
 30
0.0
 11
176.3119063593057
 21
62.97691502342572
 31
0.0
  0
LINE
  5
565
  8
0
  6
CONTINUOUS
 62
     3
 10
121.3119167713274
 20
62.97693041577681
 30
0.0
 11
126.0577985979588
 21
60.23689456835349
 31
0.0
  0
LINE
  5
566
  8
0
  6
CONTINUOUS
 62
     3
 10
156.9204597139027
 20
1.301161869274566
 30
0.0
 11
156.9204597139027
 21
6.781252964245269
 31
0.0
  0
LINE
  5
567
  8
0
  6
CONTINUOUS
 62
     3
 10
140.7034034394886
 20
1.301177128063628
 30
0.0
 11
140.7034034394886
 21
6.781239612804839
 31
0.0
  0
LINE
  5
568
  8
0
  6
CONTINUOUS
 62
     3
 10
179.6745521865754
 20
46.19249575321795
 30
0.0
 11
184.420460442206
 21
48.93254685942942
 31
0.0
  0
LINE
  5
569
  8
0
  6
CONTINUOUS
 62
     3
 10
113.2034147981614
 20
48.9325762145444
 30
0.0
 11
117.9492834102931
 21
46.19254799651516
 31
0.0
  0
LINE
  5
56A
  8
0
  6
CONTINUOUS
 62
     3
 10
136.2263394346684
 20
-1.28366408637531
 30
0.0
 11
140.7034053025474
 21
1.301170812046749
 31
0.0
  0
LINE
  5
56B
  8
0
  6
CONTINUOUS
 62
     3
 10
108.726333512872
 20
46.34773338224035
 30
0.0
 11
113.2034125952507
 21
48.93257591005649
 31
0.0
  0
LINE
  5
56C
  8
0
  6
CONTINUOUS
 62
     3
 10
121.3119010591175
 20
68.14658914397856
 30
0.0
 11
121.3119010591175
 21
62.97692285369534
 31
0.0
  0
LINE
  5
56D
  8
0
  6
CONTINUOUS
 62
     3
 10
176.3119086885121
 20
68.14658914397856
 30
0.0
 11
176.3119086885121
 21
62.97691903899808
 31
0.0
  0
LINE
  5
56E
  8
0
  6
CONTINUOUS
 62
     3
 10
156.9204574715847
 20
1.301163316215607
 30
0.0
 11
161.3974903032146
 21
-1.283652508721261
 31
0.0
  0
LINE
  5
56F
  8
0
  6
CONTINUOUS
 62
     3
 10
184.420459647154
 20
48.93256955496567
 30
0.0
 11
188.8974792642842
 21
46.34776135942288
 31
0.0
  0
LINE
  5
570
  8
0
  6
CONTINUOUS
 62
     3
 10
55.67828072382156
 20
-7.950936757283316
 30
0.0
 11
62.67828537298431
 21
-20.07529879990408
 31
0.0
  0
LINE
  5
571
  8
0
  6
CONTINUOUS
 62
     3
 10
234.9455712368666
 20
-20.07529266189327
 30
0.0
 11
241.9455797007271
 21
-7.950924012023151
 31
0.0
  0
LINE
  5
572
  8
0
  6
CONTINUOUS
 62
     3
 10
141.8119086885121
 20
141.2368906576504
 30
0.0
 11
155.8119086885121
 21
141.2368906576504
 31
0.0
  0
LINE
  5
573
  8
0
  6
CONTINUOUS
 62
     3
 10
141.8119086885121
 20
91.23689065765043
 30
0.0
 11
155.8119086885121
 21
91.23689065765043
 31
0.0
  0
LINE
  5
574
  8
0
  6
CONTINUOUS
 62
     3
 10
141.8119086885121
 20
127.3639048178067
 30
0.0
 11
141.8119086885121
 21
105.1098764974942
 31
0.0
  0
LINE
  5
575
  8
0
  6
CONTINUOUS
 62
     3
 10
155.8119086885121
 20
127.3639048178067
 30
0.0
 11
155.8119086885121
 21
105.1098764974942
 31
0.0
  0
LINE
  5
576
  8
0
  6
CONTINUOUS
 62
     3
 10
155.8119086885121
 20
97.36390481780668
 30
0.0
 11
155.8119086885121
 21
87.73689065765043
 31
0.0
  0
LINE
  5
577
  8
0
  6
CONTINUOUS
 62
     3
 10
141.8119086885121
 20
97.36390481780668
 30
0.0
 11
141.8119086885121
 21
87.73689065765043
 31
0.0
  0
LINE
  5
578
  8
0
  6
CONTINUOUS
 62
     3
 10
229.6394270407988
 20
-17.01178776777384
 30
0.0
 11
238.4096525851861
 21
-22.07527928725527
 31
0.0
  0
LINE
  5
579
  8
0
  6
CONTINUOUS
 62
     3
 10
236.6394304382633
 20
-4.887424890687598
 30
0.0
 11
245.4096559826506
 21
-9.950916410169029
 31
0.0
  0
LINE
  5
57A
  8
0
  6
CONTINUOUS
 62
     3
 10
-106.0547981596325
 20
145.2368906576504
 30
0.0
 11
-106.0547981596325
 21
138.2368906576504
 31
0.0
  0
LINE
  5
57B
  8
0
  6
CONTINUOUS
 62
     3
 10
-90.05479815963247
 20
145.2368906576504
 30
0.0
 11
-90.05479815963247
 21
138.2368906576504
 31
0.0
  0
LINE
  5
57C
  8
0
  6
CONTINUOUS
 62
     3
 10
-106.0547981596325
 20
138.2368906576504
 30
0.0
 11
-102.0031700468395
 21
138.2368906576504
 31
0.0
  0
LINE
  5
57D
  8
0
  6
CONTINUOUS
 62
     3
 10
-106.0547976137219
 20
138.2368954329164
 30
0.0
 11
-101.0547880888067
 21
135.3501385359438
 31
0.0
  0
LINE
  5
57E
  8
0
  6
CONTINUOUS
 62
     3
 10
-95.05479804439096
 20
135.3501414902841
 30
0.0
 11
-90.0547988433029
 21
138.2368924267923
 31
0.0
  0
LINE
  5
57F
  8
0
  6
CONTINUOUS
 62
     3
 10
-101.0547981596325
 20
135.3501413900723
 30
0.0
 11
-101.0547981596325
 21
127.3501413900723
 31
0.0
  0
LINE
  5
580
  8
0
  6
CONTINUOUS
 62
     3
 10
-95.05479815963247
 20
135.3501413900723
 30
0.0
 11
-95.05479815963247
 21
127.3501413900723
 31
0.0
  0
LINE
  5
581
  8
0
  6
CONTINUOUS
 62
     3
 10
-95.05479815963247
 20
135.3501413900723
 30
0.0
 11
-101.0547981596325
 21
135.3501413900723
 31
0.0
  0
LINE
  5
582
  8
0
  6
CONTINUOUS
 62
     3
 10
-95.05479815963247
 20
127.3501413900723
 30
0.0
 11
-101.0547981596325
 21
127.3501413900723
 31
0.0
  0
LINE
  5
583
  8
0
  6
CONTINUOUS
 62
     3
 10
-94.76927569869497
 20
138.2368906576504
 30
0.0
 11
-90.05479815963247
 21
138.2368906576504
 31
0.0
  0
LINE
  5
584
  8
0
  6
CONTINUOUS
 62
     3
 10
-95.65479663375356
 20
144.8501413900723
 30
0.0
 11
-100.4547996855114
 21
144.8501413900723
 31
0.0
  0
LINE
  5
585
  8
0
  6
CONTINUOUS
 62
     3
 10
-102.0047951078747
 20
137.7270334799161
 30
0.0
 11
-102.0047951078747
 21
136.0407847006192
 31
0.0
  0
LINE
  5
586
  8
0
  6
CONTINUOUS
 62
     3
 10
-94.10480121139028
 20
137.7270334799161
 30
0.0
 11
-94.10480121139028
 21
136.0407847006192
 31
0.0
  0
LINE
  5
587
  8
0
  6
CONTINUOUS
 62
     3
 10
-94.75479510787466
 20
142.5501383383145
 30
0.0
 11
-101.3548012113903
 21
142.5501383383145
 31
0.0
  0
LINE
  5
588
  8
0
  6
CONTINUOUS
 62
     3
 10
-94.66221240523794
 20
138.3501413900723
 30
0.0
 11
-101.4474144316051
 21
138.3501413900723
 31
0.0
  0
LINE
  5
589
  8
0
  6
CONTINUOUS
 62
     3
 10
-96.05479815963247
 20
137.5862101156582
 30
0.0
 11
-96.05479815963247
 21
136.1140726644864
 31
0.0
  0
LINE
  5
58A
  8
0
  6
CONTINUOUS
 62
     3
 10
-100.0547981596325
 20
137.5862101156582
 30
0.0
 11
-100.0547981596325
 21
136.1140726644864
 31
0.0
  0
LINE
  5
58B
  8
0
  6
CONTINUOUS
 62
     3
 10
-101.3547983842819
 20
142.5501431997197
 30
0.0
 11
-100.4547984311731
 21
144.8501435951308
 31
0.0
  0
LINE
  5
58C
  8
0
  6
CONTINUOUS
 62
     3
 10
-95.65479932197661
 20
144.85014014623
 30
0.0
 11
-94.7547993688678
 21
142.5501397508188
 31
0.0
  0
LINE
  5
58D
  8
0
  6
CONTINUOUS
 62
     3
 10
-96.05479815963247
 20
145.2368906576504
 30
0.0
 11
-65.5547943449352
 21
145.2368906576504
 31
0.0
  0
LINE
  5
58E
  8
0
  6
CONTINUOUS
 62
     3
 10
-37.47330232840426
 20
-49.6076661387816
 30
0.0
 11
8.859060989616808
 21
-22.8576666603223
 31
0.0
  0
LINE
  5
58F
  8
0
  6
CONTINUOUS
 62
     3
 10
-19.97330102153489
 20
-79.91855325421167
 30
0.0
 11
26.35906229648617
 21
-53.16855377575239
 31
0.0
  0
LINE
  5
590
  8
0
  6
CONTINUOUS
 62
     3
 10
6.314833219187221
 20
-36.45093488866333
 30
0.0
 11
14.10906245627291
 21
-31.95093503767495
 31
0.0
  0
LINE
  5
591
  8
0
  6
CONTINUOUS
 62
     3
 10
13.31483445376716
 20
-48.57529020482549
 30
0.0
 11
21.10906327789974
 21
-44.07529059225568
 31
0.0
  0
LINE
  5
592
  8
0
  6
CONTINUOUS
 62
     3
 10
-1.247344000417797
 20
-37.35285785967356
 30
0.0
 11
4.814833308594189
 21
-33.85285854512695
 31
0.0
  0
LINE
  5
593
  8
0
  6
CONTINUOUS
 62
     3
 10
8.752657055348209
 20
-54.67336586290848
 30
0.0
 11
14.81483436436019
 21
-51.17336654836187
 31
0.0
  0
LINE
  5
594
  8
0
  6
CONTINUOUS
 62
     3
 10
26.35906221159706
 20
-53.16855359244521
 30
0.0
 11
43.3921719996701
 21
-82.67076110983672
 31
0.0
  0
LINE
  5
595
  8
0
  6
CONTINUOUS
 62
     3
 10
4.814832078302004
 20
-33.85285595226462
 30
0.0
 11
6.314832257115938
 21
-36.45093211698706
 31
0.0
  0
LINE
  5
596
  8
0
  6
CONTINUOUS
 62
     3
 10
-1.247344813477525
 20
-37.35285589265992
 30
0.0
 11
8.75265637861537
 21
-54.6733636574762
 31
0.0
  0
LINE
  5
597
  8
0
  6
CONTINUOUS
 62
     3
 10
13.31483309158097
 20
-48.57528755235846
 30
0.0
 11
14.8148332703949
 21
-51.1733637170809
 31
0.0
  0
LINE
  5
598
  8
0
  6
CONTINUOUS
 62
     3
 10
12.50265682565021
 20
-61.16855406928231
 30
0.0
 11
17.50265742169665
 21
-69.82880795169044
 31
0.0
  0
LINE
  5
599
  8
0
  6
CONTINUOUS
 62
     3
 10
-9.997344902884379
 20
-22.19741325025801
 30
0.0
 11
-4.997345260512361
 21
-30.85766548085381
 31
0.0
  0
LINE
  5
59A
  8
0
  6
CONTINUOUS
 62
     3
 10
-42.47330312656288
 20
-40.94741243734403
 30
0.0
 11
-14.97330175565628
 21
-88.57880548696411
 31
0.0
  0
LINE
  5
59B
  8
0
  6
CONTINUOUS
 62
     3
 10
-14.97329801593321
 20
-88.57880582531774
 30
0.0
 11
17.5026562782715
 21
-69.82880694290483
 31
0.0
  0
LINE
  5
59C
  8
0
  6
CONTINUOUS
 62
     3
 10
-42.47330203038103
 20
-40.94741166032701
 30
0.0
 11
-9.997346084363869
 21
-22.19741182423984
 31
0.0
  0
LINE
  5
59D
  8
0
  6
CONTINUOUS
 62
     3
 10
20.10906337388786
 20
-42.34323954305971
 30
0.0
 11
21.10906158574829
 21
-44.07528701591666
 31
0.0
  0
LINE
  5
59E
  8
0
  6
CONTINUOUS
 62
     3
 10
14.10906075128327
 20
-31.95093158054526
 30
0.0
 11
15.10906277784142
 21
-33.68298566065157
 31
0.0
  0
LINE
  5
59F
  8
0
  6
CONTINUOUS
 62
     3
 10
0.0186821483260928
 20
-37.54567878654767
 30
0.0
 11
9.21868210064224
 21
-53.48054394800384
 31
0.0
  0
LINE
  5
5A0
  8
0
  6
CONTINUOUS
 62
     3
 10
0.0186810421160999
 20
-37.54567758702727
 30
0.0
 11
5.214832903282627
 21
-34.54567824267833
 31
0.0
  0
LINE
  5
5A1
  8
0
  6
CONTINUOUS
 62
     3
 10
8.35265746065977
 20
-53.9805461653571
 30
0.0
 11
14.41483476967176
 21
-50.48054685081048
 31
0.0
  0
LINE
  5
5A2
  8
0
  6
CONTINUOUS
 62
     3
 10
29.19751974045334
 20
-22.08490792930489
 30
0.0
 11
37.19751974045334
 21
-35.94131414115792
 31
0.0
  0
LINE
  5
5A3
  8
0
  6
CONTINUOUS
 62
     3
 10
20.5372658580452
 20
-27.08490792930489
 30
0.0
 11
29.19751974045334
 21
-22.08490792930489
 31
0.0
  0
LINE
  5
5A4
  8
0
  6
CONTINUOUS
 62
     3
 10
20.5372658580452
 20
-27.08490792930489
 30
0.0
 11
28.5372658580452
 21
-40.94131414115792
 31
0.0
  0
LINE
  5
5A5
  8
0
  6
CONTINUOUS
 62
     3
 10
28.5372658580452
 20
-40.94131414115792
 30
0.0
 11
37.19751974045334
 21
-35.94131414115792
 31
0.0
  0
LINE
  5
5A6
  8
0
  6
CONTINUOUS
 62
     3
 10
7.118681928506476
 20
-49.84323797643547
 30
0.0
 11
27.0372658580452
 21
-38.34323797643547
 31
0.0
  0
LINE
  5
5A7
  8
0
  6
CONTINUOUS
 62
     3
 10
6.448808869710547
 20
-38.68298409402733
 30
0.0
 11
11.44880886971055
 21
-47.34323797643547
 31
0.0
  0
LINE
  5
5A8
  8
0
  6
CONTINUOUS
 62
     3
 10
2.118681928506476
 20
-41.18298409402733
 30
0.0
 11
22.0372658580452
 21
-29.68298409402733
 31
0.0
  0
LINE
  5
5A9
  8
0
  6
CONTINUOUS
 62
     3
 10
108.1119017223776
 20
111.7368879081625
 30
0.0
 11
110.9619007448613
 21
106.8005418549718
 31
0.0
  0
LINE
  5
5AA
  8
0
  6
CONTINUOUS
 62
     3
 10
110.9618998779252
 20
106.8005404226498
 30
0.0
 11
116.6619044555619
 21
106.8005380384617
 31
0.0
  0
LINE
  5
5AB
  8
0
  6
CONTINUOUS
 62
     3
 10
116.6618978497587
 20
106.8005382931166
 30
0.0
 11
119.5118997213427
 21
111.7368783247117
 31
0.0
  0
LINE
  5
5AC
  8
0
  6
CONTINUOUS
 62
     3
 10
119.5119065012972
 20
111.7368857540438
 30
0.0
 11
116.6619060810859
 21
116.6732357903531
 31
0.0
  0
LINE
  5
5AD
  8
0
  6
CONTINUOUS
 62
     3
 10
116.6619031539747
 20
116.6732337042114
 30
0.0
 11
110.9619062057325
 21
116.6732346578853
 31
0.0
  0
LINE
  5
5AE
  8
0
  6
CONTINUOUS
 62
     3
 10
110.9619110790517
 20
116.6732412040382
 30
0.0
 11
108.1119039562944
 21
111.7368862592138
 31
0.0
  0
LINE
  5
5AF
  8
0
  6
CONTINUOUS
 62
     3
 10
105.0760205410769
 20
-34.51034619967469
 30
0.0
 11
107.9260213278579
 21
-29.57400315728226
 31
0.0
  0
LINE
  5
5B0
  8
0
  6
CONTINUOUS
 62
     3
 10
107.9260286135999
 20
-29.57400153510922
 30
0.0
 11
105.0760321779566
 21
-24.63765810605115
 31
0.0
  0
LINE
  5
5B1
  8
0
  6
CONTINUOUS
 62
     3
 10
105.0760306977894
 20
-24.63776411224704
 30
0.0
 11
99.37602612015269
 21
-24.63776411224704
 31
0.0
  0
LINE
  5
5B2
  8
0
  6
CONTINUOUS
 62
     3
 10
99.37602941265902
 20
-24.63765575948661
 30
0.0
 11
96.52602603903517
 21
-29.57400176575662
 31
0.0
  0
LINE
  5
5B3
  8
0
  6
CONTINUOUS
 62
     3
 10
96.5260270535349
 20
-29.57399928354549
 30
0.0
 11
99.37602849298639
 21
-34.51034864036124
 31
0.0
  0
LINE
  5
5B4
  8
0
  6
CONTINUOUS
 62
     3
 10
99.37602612015269
 20
-34.51037420441013
 30
0.0
 11
105.0760230683949
 21
-34.51037420441013
 31
0.0
  0
LINE
  5
5B5
  8
0
  6
CONTINUOUS
 62
     3
 10
227.5477790498402
 20
26.11142335723538
 30
0.0
 11
233.2477912568714
 21
26.11142335723538
 31
0.0
  0
LINE
  5
5B6
  8
0
  6
CONTINUOUS
 62
     3
 10
224.6978675576032
 20
31.04783130697901
 30
0.0
 11
227.5478660317243
 21
26.11148923690611
 31
0.0
  0
LINE
  5
5B7
  8
0
  6
CONTINUOUS
 62
     3
 10
227.5477853771621
 20
35.98412830353858
 30
0.0
 11
224.6977848645632
 21
31.04778725270457
 31
0.0
  0
LINE
  5
5B8
  8
0
  6
CONTINUOUS
 62
     3
 10
233.2477912568714
 20
35.98411737273831
 30
0.0
 11
227.5477790498402
 21
35.98411737273831
 31
0.0
  0
LINE
  5
5B9
  8
0
  6
CONTINUOUS
 62
     3
 10
233.2477822438372
 20
26.1114436066256
 30
0.0
 11
236.0977813974508
 21
31.0477853369522
 31
0.0
  0
LINE
  5
5BA
  8
0
  6
CONTINUOUS
 62
     3
 10
236.097809093499
 20
31.04779244410987
 30
0.0
 11
233.2478068046806
 21
35.98414112143213
 31
0.0
  0
LINE
  5
5BB
  8
0
  6
CONTINUOUS
 62
     3
 10
105.9795425406568
 20
4.924706478711315
 30
0.0
 11
98.97954254065678
 21
17.04906191408271
 31
0.0
  0
LINE
  5
5BC
  8
0
  6
CONTINUOUS
 62
     3
 10
74.69263438025075
 20
-13.13879869401818
 30
0.0
 11
93.96519119989614
 21
-2.011782626513295
 31
0.0
  0
LINE
  5
5BD
  8
0
  6
CONTINUOUS
 62
     3
 10
67.69263438025075
 20
-1.014443258646779
 30
0.0
 11
86.96519119989614
 21
10.1125728088581
 31
0.0
  0
LINE
  5
5BE
  8
0
  6
CONTINUOUS
 62
     3
 10
93.6733927238505
 20
13.98555483400459
 30
0.0
 11
102.0106313994996
 21
18.79906191408271
 31
0.0
  0
LINE
  5
5BF
  8
0
  6
CONTINUOUS
 62
     3
 10
100.6733927238505
 20
1.86119939863319
 30
0.0
 11
109.0106313994996
 21
6.674706478711315
 31
0.0
  0
LINE
  5
5C0
  8
0
  6
CONTINUOUS
 62
     3
 10
196.9504210985828
 20
1.86120110789183
 30
0.0
 11
188.6131824229336
 21
6.674708187969955
 31
0.0
  0
LINE
  5
5C1
  8
0
  6
CONTINUOUS
 62
     3
 10
203.9504210985828
 20
13.98555654326323
 30
0.0
 11
195.6131824229336
 21
18.79906362334135
 31
0.0
  0
LINE
  5
5C2
  8
0
  6
CONTINUOUS
 62
     3
 10
198.6442712817765
 20
17.04906362334135
 30
0.0
 11
191.6442712817765
 21
4.924708187969955
 31
0.0
  0
LINE
  5
5C3
  8
0
  6
CONTINUOUS
 62
     3
 10
229.9311827458072
 20
-1.014443456736771
 30
0.0
 11
210.6586292297865
 21
10.11257070341948
 31
0.0
  0
LINE
  5
5C4
  8
0
  6
CONTINUOUS
 62
     3
 10
222.9311827458072
 20
-13.13879889210817
 30
0.0
 11
203.6586292297865
 21
-2.01178473195192
 31
0.0
  0
ARC
  5
5C5
  8
0
  6
CONTINUOUS
 62
     3
 10
148.8119086885121
 20
37.73688684295315
 30
0.0
 40
107.5
 50
0.0
 51
80.63108666148504
  0
ARC
  5
5C6
  8
0
  6
CONTINUOUS
 62
     3
 10
148.8119086885121
 20
37.73688684295315
 30
0.0
 40
105.5
 50
99.54819032261663
 51
200.4517907048872
  0
CIRCLE
  5
5C7
  8
0
  6
CONTINUOUS
 62
     3
 10
101.6478843354847
 20
84.90090738128325
 30
0.0
 40
7.0
  0
CIRCLE
  5
5C8
  8
0
  6
CONTINUOUS
 62
     3
 10
84.38465496536753
 20
55.00011621307034
 30
0.0
 40
7.0
  0
CIRCLE
  5
5C9
  8
0
  6
CONTINUOUS
 62
     3
 10
166.0751380586292
 20
-26.69036115814548
 30
0.0
 40
7.0
  0
CIRCLE
  5
5CA
  8
0
  6
CONTINUOUS
 62
     3
 10
195.9759406709339
 20
84.90090738128325
 30
0.0
 40
7.0
  0
CIRCLE
  5
5CB
  8
0
  6
CONTINUOUS
 62
     3
 10
213.2391547822621
 20
55.00011239837308
 30
0.0
 40
7.0
  0
CIRCLE
  5
5CC
  8
0
  6
CONTINUOUS
 62
     3
 10
166.0751380586292
 20
-26.69036115814548
 30
0.0
 40
9.5
  0
CIRCLE
  5
5CD
  8
0
  6
CONTINUOUS
 62
     3
 10
131.5486793183949
 20
-26.69036115814548
 30
0.0
 40
9.5
  0
ARC
  5
5CE
  8
0
  6
CONTINUOUS
 62
     3
 10
148.8119086885121
 20
37.73688684295315
 30
0.0
 40
56.0
 50
108.2099766808383
 51
191.7900180070439
  0
ARC
  5
5CF
  8
0
  6
CONTINUOUS
 62
     3
 10
148.8119086885121
 20
37.73688684295315
 30
0.0
 40
105.5
 50
219.5481563232515
 51
320.4518284225084
  0
ARC
  5
5D0
  8
0
  6
CONTINUOUS
 62
     3
 10
148.8119086885121
 20
37.73688684295315
 30
0.0
 40
105.5
 50
339.5481750304813
 51
80.45182834671805
  0
ARC
  5
5D1
  8
0
  6
CONTINUOUS
 62
     3
 10
148.8119086885121
 20
37.73688684295315
 30
0.0
 40
56.0
 50
228.2099563418516
 51
311.7900523095705
  0
ARC
  5
5D2
  8
0
  6
CONTINUOUS
 62
     3
 10
148.8119086885121
 20
37.73688684295315
 30
0.0
 40
56.0
 50
348.2099793179496
 51
71.79004198849634
  0
ARC
  5
5D3
  8
0
  6
CONTINUOUS
 62
     3
 10
148.8119086885121
 20
37.73688684295315
 30
0.0
 40
107.5
 50
219.3688911782953
 51
320.6310867372754
  0
ARC
  5
5D4
  8
0
  6
CONTINUOUS
 62
     3
 10
148.8119086885121
 20
37.73688684295315
 30
0.0
 40
107.5
 50
339.3689184232617
 51
0.0
  0
ARC
  5
5D5
  8
0
  6
CONTINUOUS
 62
     3
 10
148.8119086885121
 20
37.73688684295315
 30
0.0
 40
107.5
 50
99.36893200784964
 51
200.631042189465
  0
CIRCLE
  5
5D6
  8
0
  6
CONTINUOUS
 62
     3
 10
84.38465496536753
 20
55.00011621307034
 30
0.0
 40
9.5
  0
CIRCLE
  5
5D7
  8
0
  6
CONTINUOUS
 62
     3
 10
101.6478843354847
 20
84.90090738128325
 30
0.0
 40
9.5
  0
CIRCLE
  5
5D8
  8
0
  6
CONTINUOUS
 62
     3
 10
195.9759406709339
 20
84.90090738128325
 30
0.0
 40
9.5
  0
CIRCLE
  5
5D9
  8
0
  6
CONTINUOUS
 62
     3
 10
213.2391547822621
 20
55.00011239837308
 30
0.0
 40
9.5
  0
ARC
  5
5DA
  8
0
  6
CONTINUOUS
 62
     3
 10
148.8119086885121
 20
37.73688684295315
 30
0.0
 40
41.0
 50
0.0
 51
64.7334935192002
  0
ARC
  5
5DB
  8
0
  6
CONTINUOUS
 62
     3
 10
148.8119086885121
 20
37.73688684295315
 30
0.0
 40
41.0
 50
235.2664979809585
 51
304.7335038402743
  0
ARC
  5
5DC
  8
0
  6
CONTINUOUS
 62
     3
 10
148.8119086885121
 20
37.73688684295315
 30
0.0
 40
41.0
 50
115.2665183199453
 51
184.7334627075585
  0
ARC
  5
5DD
  8
0
  6
CONTINUOUS
 62
     3
 10
148.8119086885121
 20
37.73688684295315
 30
0.0
 40
32.0
 50
0.0
 51
15.32167329901666
  0
ARC
  5
5DE
  8
0
  6
CONTINUOUS
 62
     3
 10
148.8119086885121
 20
37.73688684295315
 30
0.0
 40
32.0
 50
164.6782787759736
 51
255.3217055908345
  0
ARC
  5
5DF
  8
0
  6
CONTINUOUS
 62
     3
 10
148.8119086885121
 20
37.73688684295315
 30
0.0
 40
32.0
 50
44.67826519138563
 51
135.3217568930436
  0
ARC
  5
5E0
  8
0
  6
CONTINUOUS
 62
     3
 10
148.8119086885121
 20
37.73688684295315
 30
0.0
 40
32.0
 50
284.6783403992569
 51
0.0
  0
CIRCLE
  5
5E1
  8
0
  6
CONTINUOUS
 62
     3
 10
148.8119086885121
 20
37.73688684295315
 30
0.0
 40
22.5
  0
CIRCLE
  5
5E2
  8
0
  6
CONTINUOUS
 62
     3
 10
148.8119086885121
 20
37.73688684295315
 30
0.0
 40
27.0
  0
ARC
  5
5E3
  8
0
  6
CONTINUOUS
 62
     3
 10
148.8119086885121
 20
37.73688684295315
 30
0.0
 40
34.0
 50
16.20276428685371
 51
43.79718444883232
  0
ARC
  5
5E4
  8
0
  6
CONTINUOUS
 62
     3
 10
148.8119086885121
 20
37.73688684295315
 30
0.0
 40
34.0
 50
136.2028376355969
 51
163.797184373042
  0
ARC
  5
5E5
  8
0
  6
CONTINUOUS
 62
     3
 10
148.8119086885121
 20
37.73688684295315
 30
0.0
 40
34.0
 50
256.2028172966102
 51
283.7972459963252
  0
CIRCLE
  5
5E6
  8
0
  6
CONTINUOUS
 62
     3
 10
67.83853527542612
 20
-9.013112203372529
 30
0.0
 40
8.0
  0
ARC
  5
5E7
  8
0
  6
CONTINUOUS
 62
     3
 10
-98.05479815963247
 20
138.3501413900723
 30
0.0
 40
3.0
 50
269.9999974955218
 51
311.8103140657433
  0
ARC
  5
5E8
  8
0
  6
CONTINUOUS
 62
     3
 10
-98.05479815963247
 20
135.3501413900723
 30
0.0
 40
3.0
 50
48.18969959463504
 51
131.8102883388484
  0
ARC
  5
5E9
  8
0
  6
CONTINUOUS
 62
     3
 10
-98.05479815963247
 20
138.3501413900723
 30
0.0
 40
3.0
 50
228.1896843403949
 51
269.9999974955218
  0
ARC
  5
5EA
  8
0
  6
CONTINUOUS
 62
     3
 10
-98.05479815963247
 20
142.5501383383145
 30
0.0
 40
3.299999952316284
 50
342.3602936853699
 51
359.9999820139093
  0
ARC
  5
5EB
  8
0
  6
CONTINUOUS
 62
     3
 10
-98.05479815963247
 20
142.5501383383145
 30
0.0
 40
3.299999952316284
 50
180.0000223118003
 51
197.6397098434103
  0
ARC
  5
5EC
  8
0
  6
CONTINUOUS
 62
     3
 10
-92.25883105758169
 20
140.1456125814786
 30
0.0
 40
3.0
 50
152.1068921368366
 51
216.7619955749325
  0
ARC
  5
5ED
  8
0
  6
CONTINUOUS
 62
     3
 10
-103.8507957792614
 20
140.1456125814786
 30
0.0
 40
3.0
 50
323.2380060189292
 51
27.88982925867625
  0
ARC
  5
5EE
  8
0
  6
CONTINUOUS
 62
     3
 10
-95.05479815963247
 20
137.4147928793301
 30
0.0
 40
1.0
 50
110.7154676533174
 51
180.0000186693347
  0
ARC
  5
5EF
  8
0
  6
CONTINUOUS
 62
     3
 10
-95.05479815963247
 20
137.4147928793301
 30
0.0
 40
1.0
 50
18.19487433565256
 51
69.28453052544974
  0
ARC
  5
5F0
  8
0
  6
CONTINUOUS
 62
     3
 10
-101.0547981596325
 20
137.4147928793301
 30
0.0
 40
1.0
 50
359.9999820139093
 51
69.28453052544974
  0
ARC
  5
5F1
  8
0
  6
CONTINUOUS
 62
     3
 10
-101.0547981596325
 20
137.4147928793301
 30
0.0
 40
1.0
 50
110.7154676533174
 51
161.8051187204727
  0
ARC
  5
5F2
  8
0
  6
CONTINUOUS
 62
     3
 10
-101.0547981596325
 20
136.3530405599942
 30
0.0
 40
1.0
 50
269.9999974955218
 51
359.9999820139093
  0
ARC
  5
5F3
  8
0
  6
CONTINUOUS
 62
     3
 10
-95.05479815963247
 20
136.3530405599942
 30
0.0
 40
1.0
 50
180.0000223118003
 51
269.9999974955218
  0
ARC
  5
5F4
  8
0
  6
CONTINUOUS
 62
     3
 10
-98.05479815963247
 20
144.3722513754239
 30
0.0
 40
1.200000047683716
 50
23.46797162019916
 51
156.5320214359261
  0
CIRCLE
  5
5F5
  8
0
  6
CONTINUOUS
 62
     3
 10
-11.40279010299184
 20
-54.76311315704685
 30
0.0
 40
8.0
  0
CIRCLE
  5
5F6
  8
0
  6
CONTINUOUS
 62
     3
 10
113.8119010591175
 20
111.7368906576504
 30
0.0
 40
9.0
  0
CIRCLE
  5
5F7
  8
0
  6
CONTINUOUS
 62
     3
 10
113.8119010591175
 20
111.7368906576504
 30
0.0
 40
2.400000095367432
  0
CIRCLE
  5
5F8
  8
0
  6
CONTINUOUS
 62
     3
 10
113.8119010591175
 20
111.7368906576504
 30
0.0
 40
3.299999952316284
  0
CIRCLE
  5
5F9
  8
0
  6
CONTINUOUS
 62
     3
 10
102.2260245942738
 20
-29.57399954010349
 30
0.0
 40
9.0
  0
CIRCLE
  5
5FA
  8
0
  6
CONTINUOUS
 62
     3
 10
102.2260245942738
 20
-29.57399954010349
 30
0.0
 40
2.400000095367432
  0
CIRCLE
  5
5FB
  8
0
  6
CONTINUOUS
 62
     3
 10
102.2260245942738
 20
-29.57399954010349
 30
0.0
 40
3.299999952316284
  0
CIRCLE
  5
5FC
  8
0
  6
CONTINUOUS
 62
     3
 10
230.3977851533558
 20
31.04777704070706
 30
0.0
 40
9.0
  0
CIRCLE
  5
5FD
  8
0
  6
CONTINUOUS
 62
     3
 10
230.3977851533558
 20
31.04777704070706
 30
0.0
 40
2.400000095367432
  0
CIRCLE
  5
5FE
  8
0
  6
CONTINUOUS
 62
     3
 10
230.3977851533558
 20
31.04777704070706
 30
0.0
 40
3.299999952316284
  0
LINE
  5
5FF
  8
0
  6
CONTINUOUS
 62
     4
 10
-197.4569664335583
 20
62.73688684295315
 30
0.0
 11
-181.3184013700817
 21
62.73688684295315
 31
0.0
  0
LINE
  5
600
  8
0
  6
CONTINUOUS
 62
     4
 10
-197.4569664335583
 20
12.73688779662747
 30
0.0
 11
-181.3184013700817
 21
12.73688779662747
 31
0.0
  0
LINE
  5
601
  8
0
  6
CONTINUOUS
 62
     4
 10
-87.55479815963247
 20
-6.763112203372529
 30
0.0
 11
-76.05479815963247
 21
-6.763112203372529
 31
0.0
  0
LINE
  5
602
  8
0
  6
CONTINUOUS
 62
     4
 10
-91.05479815963247
 20
-14.76311124969821
 30
0.0
 11
-76.05479815963247
 21
-14.76311124969821
 31
0.0
  0
LINE
  5
603
  8
0
  6
CONTINUOUS
 62
     4
 10
-79.55479815963247
 20
127.0868891317715
 30
0.0
 11
-57.5547943449352
 21
127.0868891317715
 31
0.0
  0
LINE
  5
604
  8
0
  6
CONTINUOUS
 62
     4
 10
-79.55479815963247
 20
135.3868845541348
 30
0.0
 11
-57.5547943449352
 21
135.3868845541348
 31
0.0
  0
LINE
  5
605
  8
0
  6
CONTINUOUS
 62
     4
 10
-79.55479815963247
 20
105.3868921835293
 30
0.0
 11
-57.5547943449352
 21
105.3868921835293
 31
0.0
  0
LINE
  5
606
  8
0
  6
CONTINUOUS
 62
     4
 10
-79.55479815963247
 20
97.08688913177153
 30
0.0
 11
-57.5547943449352
 21
97.08688913177153
 31
0.0
  0
LINE
  5
607
  8
0
  6
CONTINUOUS
 62
     4
 10
-100.2547951078747
 20
135.3501413900723
 30
0.0
 11
-100.2547951078747
 21
116.2368906576504
 31
0.0
  0
LINE
  5
608
  8
0
  6
CONTINUOUS
 62
     4
 10
-95.85480121139028
 20
135.3501413900723
 30
0.0
 11
-95.85480121139028
 21
116.2368906576504
 31
0.0
  0
LINE
  5
609
  8
0
  6
CONTINUOUS
 62
     4
 10
-95.05479815963247
 20
129.3501413900723
 30
0.0
 11
-101.0547981596325
 21
129.3501413900723
 31
0.0
  0
LINE
  5
60A
  8
0
  6
CONTINUOUS
 62
     4
 10
-95.44172290328481
 20
141.5501383383145
 30
0.0
 11
-100.7337532377575
 21
141.5501383383145
 31
0.0
  0
LINE
  5
60B
  8
0
  6
CONTINUOUS
 62
     4
 10
7.993036644542542
 20
-23.35766836724603
 30
0.0
 11
13.24303727039131
 21
-32.45093494377458
 31
0.0
  0
LINE
  5
60C
  8
0
  6
CONTINUOUS
 62
     4
 10
7.127011256301728
 20
-23.85766842685068
 30
0.0
 11
12.3770118821505
 21
-32.95093500337923
 31
0.0
  0
LINE
  5
60D
  8
0
  6
CONTINUOUS
 62
     4
 10
19.37701271661552
 20
-45.07529043875063
 30
0.0
 11
24.62701143511543
 21
-54.1685537116545
 31
0.0
  0
LINE
  5
60E
  8
0
  6
CONTINUOUS
 62
     4
 10
20.24303810485634
 20
-44.57529037914598
 30
0.0
 11
25.49303682335625
 21
-53.66855365204985
 31
0.0
  0
LINE
  5
60F
  8
0
  6
CONTINUOUS
 62
     4
 10
6.693682691445929
 20
-49.10711771788066
 30
0.0
 11
26.61226662098466
 21
-37.60711771788066
 31
0.0
  0
LINE
  5
610
  8
0
  6
CONTINUOUS
 62
     4
 10
2.543681165567023
 20
-41.91910435258215
 30
0.0
 11
22.46226509510575
 21
-30.41910435258215
 31
0.0
  0
CIRCLE
  5
611
  8
0
  6
CONTINUOUS
 62
     4
 10
148.8119086885121
 20
-10.76311220337253
 30
0.0
 40
4.0
  0
CIRCLE
  5
612
  8
0
  6
CONTINUOUS
 62
     4
 10
190.8141517305042
 20
61.98688302825589
 30
0.0
 40
4.0
  0
CIRCLE
  5
613
  8
0
  6
CONTINUOUS
 62
     4
 10
106.8096732759144
 20
61.98689447234769
 30
0.0
 40
4.0
  0
LINE
  5
614
  8
0
  6
CONTINUOUS
 62
     3
 10
-165.1526146269176
 20
-6.463112966311982
 30
0.0
 11
-162.1526146269176
 21
-6.463112966311982
 31
0.0
  0
LINE
  5
615
  8
0
  6
CONTINUOUS
 62
     3
 10
-165.1526146269176
 20
81.93688760589262
 30
0.0
 11
-150.1569786405895
 21
81.93688760589262
 31
0.0
  0
LINE
  5
616
  8
0
  6
CONTINUOUS
 62
     3
 10
-156.1526146269176
 20
-6.463112966311982
 30
0.0
 11
-150.1569786405895
 21
-6.463112966311982
 31
0.0
  0
LINE
  5
617
  8
0
  6
CONTINUOUS
 62
     3
 10
-65.5547943449352
 20
145.2368906576504
 30
0.0
 11
-65.5547943449352
 21
141.2368906576504
 31
0.0
  0
LINE
  5
618
  8
0
  6
CONTINUOUS
 62
     3
 10
-66.5547943449352
 20
145.2368906576504
 30
0.0
 11
-66.5547943449352
 21
141.2368906576504
 31
0.0
  0
LINE
  5
619
  8
0
  6
CONTINUOUS
 62
     3
 10
-91.05479815963247
 20
-14.11310972381931
 30
0.0
 11
-76.05479815963247
 21
-14.11310972381931
 31
0.0
  0
LINE
  5
61A
  8
0
  6
CONTINUOUS
 62
     3
 10
-87.55479815963247
 20
-7.413113729251435
 30
0.0
 11
-76.05479815963247
 21
-7.413113729251435
 31
0.0
  0
LINE
  5
61B
  8
0
  6
CONTINUOUS
 62
     3
 10
-65.5547943449352
 20
91.23689065765043
 30
0.0
 11
-65.5547943449352
 21
87.73689065765043
 31
0.0
  0
LINE
  5
61C
  8
0
  6
CONTINUOUS
 62
     3
 10
-66.5547943449352
 20
91.23689065765043
 30
0.0
 11
-66.5547943449352
 21
87.73689065765043
 31
0.0
  0
CIRCLE
  5
61D
  8
0
  6
CONTINUOUS
 62
     3
 10
-98.05479815963247
 20
120.2368906576504
 30
0.0
 40
1.5
  0
LINE
  5
61E
  8
0
  6
DIVIDE
 62
     9
 10
-210.1569633818004
 20
64.73688684295317
 30
0.0
 11
-210.1569633818004
 21
54.820222719418
 31
0.0
  0
LINE
  5
61F
  8
0
  6
DIVIDE
 62
     9
 10
-210.1569263333255
 20
64.73685750104201
 30
0.0
 11
-209.1069694520226
 21
65.78680367332541
 31
0.0
  0
LINE
  5
620
  8
0
  6
DIVIDE
 62
     9
 10
-202.5547905302379
 20
-22.9631081979404
 30
0.0
 11
-202.5547905302379
 21
-34.96311010528903
 31
0.0
  0
LINE
  5
621
  8
0
  6
DIVIDE
 62
     9
 10
-202.5547905302379
 20
-34.96311010528903
 30
0.0
 11
-77.55479815963247
 21
-34.96311010528903
 31
0.0
  0
LINE
  5
622
  8
0
  6
DIVIDE
 62
     9
 10
-202.5547905302379
 20
-22.9631081979404
 30
0.0
 11
-77.55479815963247
 21
-22.9631081979404
 31
0.0
  0
LINE
  5
623
  8
0
  6
DIVIDE
 62
     9
 10
-202.5547905302379
 20
-34.16311086822849
 30
0.0
 11
-166.5547905302379
 21
-34.16311086822849
 31
0.0
  0
LINE
  5
624
  8
0
  6
DIVIDE
 62
     9
 10
-202.5547905302379
 20
-23.76310743500095
 30
0.0
 11
-166.5547905302379
 21
-23.76310743500095
 31
0.0
  0
LINE
  5
625
  8
0
  6
DIVIDE
 62
     9
 10
-77.55479815963247
 20
-37.96311010528903
 30
0.0
 11
-65.5547943449352
 21
-37.96311010528903
 31
0.0
  0
LINE
  5
626
  8
0
  6
DIVIDE
 62
     9
 10
-77.55479815963247
 20
-19.9631081979404
 30
0.0
 11
-65.5547943449352
 21
-19.9631081979404
 31
0.0
  0
LINE
  5
627
  8
0
  6
DIVIDE
 62
     9
 10
-65.5547943449352
 20
-19.9631081979404
 30
0.0
 11
-65.5547943449352
 21
-37.96311010528903
 31
0.0
  0
LINE
  5
628
  8
LAYER0014
  6
CONTINUOUS
 62
     7
 10
-185.1569633818004
 20
159.2816141683926
 30
0.0
 11
-161.3451195097301
 21
159.2816141683926
 31
0.0
  0
LINE
  5
629
  8
LAYER0014
  6
CONTINUOUS
 62
     7
 10
-186.5547905302379
 20
159.2816141683926
 30
0.0
 11
-185.1569633818004
 21
159.2816141683926
 31
0.0
  0
LINE
  5
62A
  8
LAYER0014
  6
CONTINUOUS
 62
     7
 10
-64.5547943449352
 20
161.7687204916348
 30
0.0
 11
-58.53486636641958
 21
161.7687204916348
 31
0.0
  0
LINE
  5
62B
  8
LAYER0014
  6
CONTINUOUS
 62
     7
 10
-65.5547943449352
 20
161.7687204916348
 30
0.0
 11
-64.5547943449352
 21
161.7687204916348
 31
0.0
  0
LINE
  5
62C
  8
LAYER0014
  6
CONTINUOUS
 62
     7
 10
-65.5547943449352
 20
147.7768906576504
 30
0.0
 11
-65.5547943449352
 21
164.0547159750332
 31
0.0
  0
LINE
  5
62D
  8
LAYER0014
  6
CONTINUOUS
 62
     7
 10
-64.5547943449352
 20
145.7768753988614
 30
0.0
 11
-64.5547943449352
 21
164.0547159750332
 31
0.0
  0
LINE
  5
62E
  8
LAYER0014
  6
CONTINUOUS
 62
     7
 10
-19.22623847107825
 20
-53.09168359659078
 30
0.0
 11
-29.93221695297541
 21
-50.80442326132935
 31
0.0
  0
LINE
  5
62F
  8
LAYER0014
  6
CONTINUOUS
 62
     7
 10
-186.5547905302379
 20
159.2816141683926
 30
0.0
 11
-192.9047905302379
 21
159.2816141683926
 31
0.0
  0
INSERT
  5
630
  8
LAYER0014
 62
     7
  2
_OPEN30
 10
-186.5547905302379
 20
159.2816141683926
 30
0.0
 41
2.499995396844351
 42
2.500007167085477
 50
360.0
  0
LINE
  5
631
  8
LAYER0014
  6
CONTINUOUS
 62
     7
 10
-65.5547943449352
 20
161.7687204916348
 30
0.0
 11
-71.9047943449352
 21
161.7687204916348
 31
0.0
  0
INSERT
  5
632
  8
LAYER0014
 62
     7
  2
_OPEN30
 10
-65.5547943449352
 20
161.7687204916348
 30
0.0
 41
2.499995396844351
 42
2.500007167085477
 50
360.0
  0
LINE
  5
633
  8
LAYER0014
  6
CONTINUOUS
 62
     7
 10
-178.8069633818004
 20
159.2816141683926
 30
0.0
 11
-185.1569633818004
 21
159.2816141683926
 31
0.0
  0
INSERT
  5
634
  8
LAYER0014
 62
     7
  2
_OPEN30
 10
-185.1569633818004
 20
159.2816141683926
 30
0.0
 41
2.499995396844351
 42
2.500007167085477
 50
180.0
  0
LINE
  5
635
  8
LAYER0014
  6
CONTINUOUS
 62
     7
 10
-58.2047943449352
 20
161.7687204916348
 30
0.0
 11
-64.5547943449352
 21
161.7687204916348
 31
0.0
  0
INSERT
  5
636
  8
LAYER0014
 62
     7
  2
_OPEN30
 10
-64.5547943449352
 20
161.7687204916348
 30
0.0
 41
2.499995396844351
 42
2.500007167085477
 50
180.0
  0
LINE
  5
637
  8
LAYER0014
  6
CONTINUOUS
 62
     7
 10
-3.579342829290965
 20
-56.43453766938292
 30
0.0
 11
-19.22623847107825
 21
-53.09168359659078
 31
0.0
  0
INSERT
  5
638
  8
LAYER0014
 62
     7
  2
_OPEN30
 10
-3.579342829290965
 20
-56.43453766938292
 30
0.0
 41
2.499995396844351
 42
2.500007167085477
 50
347.940440448379
  0
INSERT
  5
639
  8
LAYER0014
 62
     7
  2
_OPEN30
 10
-19.22623847107825
 20
-53.09168359659078
 30
0.0
 41
2.499995396844351
 42
2.500007167085477
 50
167.9404404483791
  0
TEXT
  5
63A
  8
LAYER0014
 62
     7
 10
-181.5749749846622
 20
160.2792327086322
 30
0.0
 40
4.0
  1
MIN1.3
 50
359.8999999999998
 41
0.998019801980198
  7
DCSTYLE0
 72
     5
 11
-162.3750042279271
 21
160.2457224040069
 31
0.0
  0
TEXT
  5
63B
  8
LAYER0014
 62
     7
 10
-60.81779015990264
 20
163.3707127165654
 30
0.0
 40
4.0
  1
1
 50
359.8999999999998
 41
1.527272727272729
  7
DCSTYLE0
 72
     5
 11
-57.61779503378011
 21
163.3651276657946
 31
0.0
  0
TEXT
  5
63C
  8
LAYER0014
 62
     7
 10
-29.18087581226769
 20
-50.41425253886237
 30
0.0
 40
4.0
  1
φ16
 50
347.9
 41
0.9163636363636372
  7
DCSTYLE0
 72
     5
 11
-19.79415673938506
 21
-52.42659074273907
 31
0.0
  0
INSERT
  5
63D
  8
LAYER0014
  6
CONTINUOUS
  2
DA_IMAGEDIMGROUP_1
 10
0.0
 20
0.0
 30
0.0
  0
INSERT
  5
63E
  8
LAYER0014
  6
CONTINUOUS
  2
DA_IMAGEDIMGROUP_2
 10
0.0
 20
0.0
 30
0.0
  0
INSERT
  5
63F
  8
LAYER0014
  6
CONTINUOUS
  2
DA_IMAGEDIMGROUP_3
 10
0.0
 20
0.0
 30
0.0
  0
INSERT
  5
640
  8
LAYER0014
  6
CONTINUOUS
  2
DA_IMAGEDIMGROUP_4
 10
0.0
 20
0.0
 30
0.0
  0
INSERT
  5
641
  8
LAYER0014
  6
CONTINUOUS
  2
DA_IMAGEDIMGROUP_5
 10
0.0
 20
0.0
 30
0.0
  0
INSERT
  5
642
  8
LAYER0014
  6
CONTINUOUS
  2
DA_IMAGEDIMGROUP_6
 10
0.0
 20
0.0
 30
0.0
  0
INSERT
  5
643
  8
LAYER0014
  6
CONTINUOUS
  2
DA_IMAGEDIMGROUP_7
 10
0.0
 20
0.0
 30
0.0
  0
INSERT
  5
644
  8
LAYER0014
  6
CONTINUOUS
  2
DA_IMAGEDIMGROUP_8
 10
0.0
 20
0.0
 30
0.0
  0
INSERT
  5
645
  8
LAYER0014
  6
CONTINUOUS
  2
DA_IMAGEDIMGROUP_9
 10
0.0
 20
0.0
 30
0.0
  0
INSERT
  5
646
  8
LAYER0014
  6
CONTINUOUS
  2
DA_IMAGEDIMGROUP_10
 10
0.0
 20
0.0
 30
0.0
  0
INSERT
  5
647
  8
LAYER0014
  6
CONTINUOUS
  2
DA_IMAGEDIMGROUP_11
 10
0.0
 20
0.0
 30
0.0
  0
INSERT
  5
648
  8
LAYER0014
  6
CONTINUOUS
  2
DC_GROUP_1
 10
0.0
 20
0.0
 30
0.0
  0
INSERT
  5
649
  8
LAYER0014
  6
CONTINUOUS
  2
DC_GROUP_2
 10
0.0
 20
0.0
 30
0.0
  0
INSERT
  5
64A
  8
LAYER0014
  6
CONTINUOUS
  2
DC_GROUP_3
 10
0.0
 20
0.0
 30
0.0
  0
INSERT
  5
64B
  8
LAYER0014
  6
CONTINUOUS
  2
DA_IMAGEDIMGROUP_12
 10
0.0
 20
0.0
 30
0.0
  0
INSERT
  5
64C
  8
LAYER0014
  6
CONTINUOUS
  2
DC_GROUP_4
 10
0.0
 20
0.0
 30
0.0
  0
INSERT
  5
64D
  8
LAYER0014
  6
CONTINUOUS
  2
DA_IMAGEDIMGROUP_13
 10
0.0
 20
0.0
 30
0.0
  0
INSERT
  5
64E
  8
LAYER0014
  6
CONTINUOUS
  2
DA_IMAGEDIMGROUP_14
 10
0.0
 20
0.0
 30
0.0
  0
INSERT
  5
64F
  8
LAYER0014
  6
CONTINUOUS
  2
DA_IMAGEDIMGROUP_15
 10
0.0
 20
0.0
 30
0.0
  0
INSERT
  5
650
  8
LAYER0014
  6
CONTINUOUS
  2
DA_IMAGEDIMGROUP_16
 10
0.0
 20
0.0
 30
0.0
  0
INSERT
  5
651
  8
LAYER0014
  6
CONTINUOUS
  2
DA_IMAGEDIMGROUP_17
 10
0.0
 20
0.0
 30
0.0
  0
INSERT
  5
652
  8
LAYER0014
  6
CONTINUOUS
  2
DA_IMAGEDIMGROUP_28
 10
0.0
 20
0.0
 30
0.0
  0
LINE
  5
653
  8
0
  6
CONTINUOUS
 62
     4
 10
197.4122387279152
 20
18.91509889055591
 30
0.0
 11
201.6622392345547
 21
26.27631469060283
 31
0.0
  0
LINE
  5
654
  8
0
  6
CONTINUOUS
 62
     4
 10
185.1622372676014
 20
-2.302523121344038
 30
0.0
 11
189.4122377742409
 21
5.058692678702883
 31
0.0
  0
LINE
  5
655
  8
0
  6
CONTINUOUS
 62
     4
 10
95.96160834962495
 20
26.27631655611721
 30
0.0
 11
100.2116088562644
 21
18.91510075607029
 31
0.0
  0
LINE
  5
656
  8
0
  6
CONTINUOUS
 62
     4
 10
108.2116098099388
 20
5.058694544217261
 30
0.0
 11
112.461614131276
 21
-2.302527863079021
 31
0.0
  0
LINE
  5
657
  8
0
  6
CONTINUOUS
 62
     4
 10
48.76321477962654
 20
-0.9736924143825121
 30
0.0
 11
53.01321528626602
 21
-8.334908214429433
 31
0.0
  0
LINE
  5
658
  8
0
  6
CONTINUOUS
 62
     4
 10
232.3606303265268
 20
-29.55254060644198
 30
0.0
 11
236.6106308331663
 21
-22.19132480639506
 31
0.0
  0
LINE
  5
659
  8
0
  6
CONTINUOUS
 62
     4
 10
61.01321623994033
 20
-22.19131442628246
 30
0.0
 11
65.2632129318821
 21
-29.55252361908002
 31
0.0
  0
LINE
  5
65A
  8
0
  6
CONTINUOUS
 62
     4
 10
244.6106317868406
 20
-8.334918594542032
 30
0.0
 11
248.8606322934801
 21
-0.9737027944951109
 31
0.0
  0
LINE
  5
65B
  8
0
  6
CONTINUOUS
 62
     4
 10
94.66257878186195
 20
25.52631697778328
 30
0.0
 11
98.9125811958503
 21
18.16509787411168
 31
0.0
  0
LINE
  5
65C
  8
0
  6
CONTINUOUS
 62
     4
 10
93.36352557765315
 20
24.77631256260555
 30
0.0
 11
97.61352608429263
 21
17.41509676255863
 31
0.0
  0
LINE
  5
65D
  8
0
  6
CONTINUOUS
 62
     4
 10
92.06449791723901
 20
24.02630968064695
 30
0.0
 11
96.31449842387849
 21
16.66509388060003
 31
0.0
  0
LINE
  5
65E
  8
0
  6
CONTINUOUS
 62
     4
 10
90.76545983487779
 20
23.27630959123998
 30
0.0
 11
95.01546034151727
 21
15.91509379119306
 31
0.0
  0
LINE
  5
65F
  8
0
  6
CONTINUOUS
 62
     4
 10
89.4664151452672
 20
22.52630568713529
 30
0.0
 11
93.71641755925555
 21
15.16508658346369
 31
0.0
  0
LINE
  5
660
  8
0
  6
CONTINUOUS
 62
     4
 10
88.16737515555712
 20
21.776308901353
 30
0.0
 11
92.4173756621966
 21
14.41509310130608
 31
0.0
  0
LINE
  5
661
  8
0
  6
CONTINUOUS
 62
     4
 10
106.9125821495246
 20
4.308691662258653
 30
0.0
 11
111.1625788414664
 21
-3.052517530538907
 31
0.0
  0
LINE
  5
662
  8
0
  6
CONTINUOUS
 62
     4
 10
105.6135270379669
 20
3.558690550705606
 30
0.0
 11
109.8635275446064
 21
-3.802525249341315
 31
0.0
  0
LINE
  5
663
  8
0
  6
CONTINUOUS
 62
     4
 10
104.3144993775528
 20
2.808687668746998
 30
0.0
 11
108.5644960694946
 21
-4.552521524050562
 31
0.0
  0
LINE
  5
664
  8
0
  6
CONTINUOUS
 62
     4
 10
103.0154612951916
 20
2.058687579340031
 30
0.0
 11
107.2654618018311
 21
-5.30252822070689
 31
0.0
  0
LINE
  5
665
  8
0
  6
CONTINUOUS
 62
     4
 10
101.7164185129299
 20
1.308680371610663
 30
0.0
 11
105.9664132975228
 21
-6.052525517562216
 31
0.0
  0
LINE
  5
666
  8
0
  6
CONTINUOUS
 62
     4
 10
100.4173766158709
 20
0.5586868894530568
 30
0.0
 11
104.6673752151615
 21
-6.802525606969184
 31
0.0
  0
LINE
  5
667
  8
0
  6
CONTINUOUS
 62
     4
 10
62.31225432230156
 20
-21.44131433687549
 30
0.0
 11
66.56225101424332
 21
-28.80252352967305
 31
0.0
  0
LINE
  5
668
  8
0
  6
CONTINUOUS
 62
     4
 10
63.6112891010381
 20
-20.69131615481739
 30
0.0
 11
67.86128579297986
 21
-28.05252534761495
 31
0.0
  0
LINE
  5
669
  8
0
  6
CONTINUOUS
 62
     4
 10
64.910330487024
 20
-19.94131415806156
 30
0.0
 11
69.16032717896576
 21
-27.30252335085912
 31
0.0
  0
LINE
  5
66A
  8
0
  6
CONTINUOUS
 62
     4
 10
66.20937378035876
 20
-19.19131546493041
 30
0.0
 11
70.45936856495166
 21
-26.55252135410329
 31
0.0
  0
LINE
  5
66B
  8
0
  6
CONTINUOUS
 62
     4
 10
67.50840665174644
 20
-18.44131397924762
 30
0.0
 11
71.7584033436882
 21
-25.80252317204518
 31
0.0
  0
LINE
  5
66C
  8
0
  6
CONTINUOUS
 62
     4
 10
69.19251227716825
 20
-18.35827797668308
 30
0.0
 11
73.05743812242474
 21
-25.05252498998708
 31
0.0
  0
LINE
  5
66D
  8
0
  6
CONTINUOUS
 62
     4
 10
50.06225286198776
 20
-0.2236923249755449
 30
0.0
 11
54.31225336862724
 21
-7.584908125022466
 31
0.0
  0
LINE
  5
66E
  8
0
  6
CONTINUOUS
 62
     4
 10
51.3612876407243
 20
0.5263058570825621
 30
0.0
 11
55.61128814736378
 21
-6.834909942964359
 31
0.0
  0
LINE
  5
66F
  8
0
  6
CONTINUOUS
 62
     4
 10
52.6603290267102
 20
1.276307853838389
 30
0.0
 11
56.91032953334968
 21
-6.084907946208531
 31
0.0
  0
LINE
  5
670
  8
0
  6
CONTINUOUS
 62
     4
 10
53.95937232004496
 20
2.026306546969536
 30
0.0
 11
58.20937282668444
 21
-5.334909253077385
 31
0.0
  0
LINE
  5
671
  8
0
  6
CONTINUOUS
 62
     4
 10
55.2584070987815
 20
2.776304729027643
 30
0.0
 11
59.50840569807212
 21
-4.584907767394597
 31
0.0
  0
LINE
  5
672
  8
0
  6
CONTINUOUS
 62
     4
 10
56.55743806282032
 20
3.526309518335111
 30
0.0
 11
60.43720498955793
 21
-3.193642998607729
 31
0.0
  0
LINE
  5
673
  8
0
  6
CONTINUOUS
 62
     4
 10
198.71125978108
 20
18.16509982329502
 30
0.0
 11
202.9612602877195
 21
25.52631562334194
 31
0.0
  0
LINE
  5
674
  8
0
  6
CONTINUOUS
 62
     4
 10
200.0103281071364
 20
17.41509108234654
 30
0.0
 11
204.2603286137759
 21
24.77630688239346
 31
0.0
  0
LINE
  5
675
  8
0
  6
CONTINUOUS
 62
     4
 10
201.3093623747999
 20
16.66508438569021
 30
0.0
 11
205.5593628814394
 21
24.02630018573713
 31
0.0
  0
LINE
  5
676
  8
0
  6
CONTINUOUS
 62
     4
 10
202.6084080865566
 20
15.91509751078196
 30
0.0
 11
206.858408593196
 21
23.27631331082888
 31
0.0
  0
LINE
  5
677
  8
0
  6
CONTINUOUS
 62
     4
 10
203.9074121105249
 20
15.16509946566715
 30
0.0
 11
208.1574126171644
 21
22.52631526571408
 31
0.0
  0
LINE
  5
678
  8
0
  6
CONTINUOUS
 62
     4
 10
205.2064804365813
 20
14.41509072471867
 30
0.0
 11
209.4564809432208
 21
21.77630652476559
 31
0.0
  0
LINE
  5
679
  8
0
  6
CONTINUOUS
 62
     4
 10
186.4612545060685
 20
-3.052528795854286
 30
0.0
 11
190.711255012708
 21
4.308687004192635
 31
0.0
  0
LINE
  5
67A
  8
0
  6
CONTINUOUS
 62
     4
 10
187.7603228321249
 20
-3.802537536802774
 30
0.0
 11
192.0103233387644
 21
3.558678263244147
 31
0.0
  0
LINE
  5
67B
  8
0
  6
CONTINUOUS
 62
     4
 10
189.0593570997884
 20
-4.552544233459102
 30
0.0
 11
193.3093576064279
 21
2.808671566587819
 31
0.0
  0
LINE
  5
67C
  8
0
  6
CONTINUOUS
 62
     4
 10
190.3584066262428
 20
-5.302524501117986
 30
0.0
 11
194.6084071328822
 21
2.058691298928935
 31
0.0
  0
LINE
  5
67D
  8
0
  6
CONTINUOUS
 62
     4
 10
191.6574068355134
 20
-6.052529153482155
 30
0.0
 11
195.9074073421529
 21
1.308686646564766
 31
0.0
  0
LINE
  5
67E
  8
0
  6
CONTINUOUS
 62
     4
 10
192.9564751615698
 20
-6.802537894430642
 30
0.0
 11
197.2064756682092
 21
0.5586779056162783
 31
0.0
  0
LINE
  5
67F
  8
0
  6
CONTINUOUS
 62
     4
 10
231.0616016439666
 20
-28.80255475367981
 30
0.0
 11
235.3116021506061
 21
-21.44133895363289
 31
0.0
  0
LINE
  5
680
  8
0
  6
CONTINUOUS
 62
     4
 10
229.7625427177112
 20
-28.05256024937613
 30
0.0
 11
234.0125432243507
 21
-20.69134444932921
 31
0.0
  0
LINE
  5
681
  8
0
  6
CONTINUOUS
 62
     4
 10
228.4635122647454
 20
-27.30254694547044
 30
0.0
 11
232.7135127713849
 21
-19.94133114542352
 31
0.0
  0
LINE
  5
682
  8
0
  6
CONTINUOUS
 62
     4
 10
227.1644779970819
 20
-26.55254024881411
 30
0.0
 11
231.4144785037214
 21
-19.19132444876719
 31
0.0
  0
LINE
  5
683
  8
0
  6
CONTINUOUS
 62
     4
 10
225.8654322853253
 20
-25.80255337390587
 30
0.0
 11
230.1154327919647
 21
-18.44133757385895
 31
0.0
  0
LINE
  5
684
  8
0
  6
CONTINUOUS
 62
     4
 10
224.5664074174628
 20
-25.05256091389434
 30
0.0
 11
228.4171158843154
 21
-18.38293911895867
 31
0.0
  0
LINE
  5
685
  8
0
  6
CONTINUOUS
 62
     4
 10
243.3116031042804
 20
-7.584932741779866
 30
0.0
 11
247.5616036109199
 21
-0.2237169417329454
 31
0.0
  0
LINE
  5
686
  8
0
  6
CONTINUOUS
 62
     4
 10
242.012544178025
 20
-6.83493823747618
 30
0.0
 11
246.2625446846645
 21
0.5262775625707405
 31
0.0
  0
LINE
  5
687
  8
0
  6
CONTINUOUS
 62
     4
 10
240.7135137250592
 20
-6.084924933570491
 30
0.0
 11
244.9635142316987
 21
1.27629086647643
 31
0.0
  0
LINE
  5
688
  8
0
  6
CONTINUOUS
 62
     4
 10
239.4144794573957
 20
-5.334918236914163
 30
0.0
 11
243.6644799640352
 21
2.026297563132758
 31
0.0
  0
LINE
  5
689
  8
0
  6
CONTINUOUS
 62
     4
 10
238.1154337456391
 20
-4.584931362005918
 30
0.0
 11
242.3654342522785
 21
2.776284438041003
 31
0.0
  0
LINE
  5
68A
  8
0
  6
CONTINUOUS
 62
     4
 10
237.2894886155685
 20
-3.015540872493929
 30
0.0
 11
241.066409384416
 21
3.526276898052529
 31
0.0
  0
LINE
  5
68B
  8
0
  6
CONTINUOUS
 62
     4
 10
132.3119086885121
 20
89.23689065765043
 30
0.0
 11
140.8119086885121
 21
89.23689065765043
 31
0.0
  0
LINE
  5
68C
  8
0
  6
CONTINUOUS
 62
     4
 10
156.8119086885121
 20
89.23689065765043
 30
0.0
 11
165.3119086885121
 21
89.23689065765043
 31
0.0
  0
LINE
  5
68D
  8
0
  6
CONTINUOUS
 62
     4
 10
132.3119086885121
 20
143.7368906576504
 30
0.0
 11
140.8119086885121
 21
143.7368906576504
 31
0.0
  0
LINE
  5
68E
  8
0
  6
CONTINUOUS
 62
     4
 10
156.8119086885121
 20
143.7368906576504
 30
0.0
 11
165.3119086885121
 21
143.7368906576504
 31
0.0
  0
LINE
  5
68F
  8
0
  6
CONTINUOUS
 62
     4
 10
156.8119086885121
 20
90.73689065765043
 30
0.0
 11
165.3119086885121
 21
90.73689065765043
 31
0.0
  0
LINE
  5
690
  8
0
  6
CONTINUOUS
 62
     4
 10
156.8119086885121
 20
92.23689065765043
 30
0.0
 11
165.3119086885121
 21
92.23689065765043
 31
0.0
  0
LINE
  5
691
  8
0
  6
CONTINUOUS
 62
     4
 10
156.8119086885121
 20
93.73689065765043
 30
0.0
 11
165.3119086885121
 21
93.73689065765043
 31
0.0
  0
LINE
  5
692
  8
0
  6
CONTINUOUS
 62
     4
 10
156.8119086885121
 20
95.23689065765043
 30
0.0
 11
165.3119086885121
 21
95.23689065765043
 31
0.0
  0
LINE
  5
693
  8
0
  6
CONTINUOUS
 62
     4
 10
156.8119086885121
 20
96.73689065765043
 30
0.0
 11
165.3119086885121
 21
96.73689065765043
 31
0.0
  0
LINE
  5
694
  8
0
  6
CONTINUOUS
 62
     4
 10
156.8119086885121
 20
98.23689065765043
 30
0.0
 11
165.3119086885121
 21
98.23689065765043
 31
0.0
  0
LINE
  5
695
  8
0
  6
CONTINUOUS
 62
     4
 10
132.3119086885121
 20
90.73689065765043
 30
0.0
 11
140.8119086885121
 21
90.73689065765043
 31
0.0
  0
LINE
  5
696
  8
0
  6
CONTINUOUS
 62
     4
 10
132.3119086885121
 20
92.23689065765043
 30
0.0
 11
140.8119086885121
 21
92.23689065765043
 31
0.0
  0
LINE
  5
697
  8
0
  6
CONTINUOUS
 62
     4
 10
132.3119086885121
 20
93.73689065765043
 30
0.0
 11
140.8119086885121
 21
93.73689065765043
 31
0.0
  0
LINE
  5
698
  8
0
  6
CONTINUOUS
 62
     4
 10
132.3119086885121
 20
95.23689065765043
 30
0.0
 11
140.8119086885121
 21
95.23689065765043
 31
0.0
  0
LINE
  5
699
  8
0
  6
CONTINUOUS
 62
     4
 10
132.3119086885121
 20
96.73689065765043
 30
0.0
 11
140.8119086885121
 21
96.73689065765043
 31
0.0
  0
LINE
  5
69A
  8
0
  6
CONTINUOUS
 62
     4
 10
132.3119086885121
 20
98.23689065765043
 30
0.0
 11
140.8119086885121
 21
98.23689065765043
 31
0.0
  0
LINE
  5
69B
  8
0
  6
CONTINUOUS
 62
     4
 10
156.8119086885121
 20
142.2368906576504
 30
0.0
 11
165.3119086885121
 21
142.2368906576504
 31
0.0
  0
LINE
  5
69C
  8
0
  6
CONTINUOUS
 62
     4
 10
156.8119086885121
 20
140.7368906576504
 30
0.0
 11
165.3119086885121
 21
140.7368906576504
 31
0.0
  0
LINE
  5
69D
  8
0
  6
CONTINUOUS
 62
     4
 10
156.8119086885121
 20
139.2368906576504
 30
0.0
 11
165.3119086885121
 21
139.2368906576504
 31
0.0
  0
LINE
  5
69E
  8
0
  6
CONTINUOUS
 62
     4
 10
156.8119086885121
 20
137.7368906576504
 30
0.0
 11
165.3119086885121
 21
137.7368906576504
 31
0.0
  0
LINE
  5
69F
  8
0
  6
CONTINUOUS
 62
     4
 10
156.8119086885121
 20
136.2368906576504
 30
0.0
 11
165.3119086885121
 21
136.2368906576504
 31
0.0
  0
LINE
  5
6A0
  8
0
  6
CONTINUOUS
 62
     4
 10
156.8119086885121
 20
134.7368906576504
 30
0.0
 11
165.3119086885121
 21
134.7368906576504
 31
0.0
  0
LINE
  5
6A1
  8
0
  6
CONTINUOUS
 62
     4
 10
132.3119086885121
 20
142.2368906576504
 30
0.0
 11
140.8119086885121
 21
142.2368906576504
 31
0.0
  0
LINE
  5
6A2
  8
0
  6
CONTINUOUS
 62
     4
 10
132.3119086885121
 20
140.7368906576504
 30
0.0
 11
140.8119086885121
 21
140.7368906576504
 31
0.0
  0
LINE
  5
6A3
  8
0
  6
CONTINUOUS
 62
     4
 10
132.3119086885121
 20
139.2368906576504
 30
0.0
 11
140.8119086885121
 21
139.2368906576504
 31
0.0
  0
LINE
  5
6A4
  8
0
  6
CONTINUOUS
 62
     4
 10
132.3119086885121
 20
137.7368906576504
 30
0.0
 11
140.8119086885121
 21
137.7368906576504
 31
0.0
  0
LINE
  5
6A5
  8
0
  6
CONTINUOUS
 62
     4
 10
132.3119086885121
 20
136.2368906576504
 30
0.0
 11
140.8119086885121
 21
136.2368906576504
 31
0.0
  0
LINE
  5
6A6
  8
0
  6
CONTINUOUS
 62
     4
 10
132.3119086885121
 20
134.7368906576504
 30
0.0
 11
140.8119086885121
 21
134.7368906576504
 31
0.0
  0
LINE
  5
6A7
  8
0
  6
CONTINUOUS
 62
     4
 10
30.723758664098
 20
-31.59602941681247
 30
0.0
 11
33.53406902786753
 21
-31.59602941681247
 31
0.0
  0
LINE
  5
6A8
  8
0
  6
CONTINUOUS
 62
     4
 10
28.64529034134409
 20
-32.79604162384372
 30
0.0
 11
34.22689434525034
 21
-32.79604162384372
 31
0.0
  0
LINE
  5
6A9
  8
0
  6
CONTINUOUS
 62
     4
 10
26.56683727737925
 20
-33.99603094269138
 30
0.0
 11
34.91971203323862
 21
-33.99603094269138
 31
0.0
  0
LINE
  5
6AA
  8
0
  6
CONTINUOUS
 62
     4
 10
26.37492939468882
 20
-35.19603933502536
 30
0.0
 11
35.61252972122691
 21
-35.19603933502536
 31
0.0
  0
LINE
  5
6AB
  8
0
  6
CONTINUOUS
 62
     4
 10
27.0677470826771
 20
-36.39602865387302
 30
0.0
 11
34.40990826126597
 21
-36.39602865387302
 31
0.0
  0
LINE
  5
6AC
  8
0
  6
CONTINUOUS
 62
     4
 10
27.76055523392222
 20
-37.5960256021152
 30
0.0
 11
32.33145519730112
 21
-37.5960256021152
 31
0.0
  0
LINE
  5
6AD
  8
0
  6
CONTINUOUS
 62
     4
 10
28.45338055130503
 20
-38.79603780914645
 30
0.0
 11
30.25298687454722
 21
-38.79603780914645
 31
0.0
  0
LINE
  5
6AE
  8
0
  6
CONTINUOUS
 62
     4
 10
34.80342831504726
 20
-36.16882881849408
 30
0.0
 11
35.48879884200124
 21
-34.98173240661872
 31
0.0
  0
LINE
  5
6AF
  8
0
  6
CONTINUOUS
 62
     4
 10
32.72496572995749
 20
-37.36883743491295
 30
0.0
 11
34.7959827653246
 21
-33.78173119831506
 31
0.0
  0
LINE
  5
6B0
  8
0
  6
CONTINUOUS
 62
     4
 10
30.64650178282773
 20
-38.56883315166623
 30
0.0
 11
34.10315722037529
 21
-32.5817311307507
 31
0.0
  0
LINE
  5
6B1
  8
0
  6
CONTINUOUS
 62
     4
 10
28.79154083819128
 20
-39.38174088312859
 30
0.0
 11
33.41034488992472
 21
-31.38173869258178
 31
0.0
  0
LINE
  5
6B2
  8
0
  6
CONTINUOUS
 62
     4
 10
28.0987144080392
 20
-38.18172708999246
 30
0.0
 11
32.4962965095728
 21
-30.56489250438692
 31
0.0
  0
LINE
  5
6B3
  8
0
  6
CONTINUOUS
 62
     4
 10
27.40589451666483
 20
-36.98173248893816
 30
0.0
 11
30.41112244068125
 21
-31.77652575015024
 31
0.0
  0
LINE
  5
6B4
  8
0
  6
CONTINUOUS
 62
     4
 10
26.71307653263932
 20
-35.78173458425918
 30
0.0
 11
28.33265842507984
 21
-32.97653684428762
 31
0.0
  0
ARC
  5
6B5
  8
0
  6
CONTINUOUS
 62
     4
 10
148.8119086885121
 20
37.73688684295315
 30
0.0
 40
60.0
 50
108.4614779064566
 51
127.0923351696621
  0
ARC
  5
6B6
  8
0
  6
CONTINUOUS
 62
     4
 10
148.8119086885121
 20
37.73688684295315
 30
0.0
 40
60.0
 50
348.4614626143212
 51
7.092298533185637
  0
ARC
  5
6B7
  8
0
  6
CONTINUOUS
 62
     4
 10
148.8119086885121
 20
37.73688684295315
 30
0.0
 40
66.0
 50
106.7310221594771
 51
125.5093705276199
  0
ARC
  5
6B8
  8
0
  6
CONTINUOUS
 62
     4
 10
148.8119086885121
 20
37.73688684295315
 30
0.0
 40
72.0
 50
105.3009581321949
 51
127.0242108628804
  0
ARC
  5
6B9
  8
0
  6
CONTINUOUS
 62
     4
 10
148.8119086885121
 20
37.73688684295315
 30
0.0
 40
66.0
 50
346.7310085748892
 51
5.509346697748176
  0
ARC
  5
6BA
  8
0
  6
CONTINUOUS
 62
     4
 10
148.8119086885121
 20
37.73688684295315
 30
0.0
 40
72.0
 50
345.3009445476069
 51
7.024181483479923
  0
ARC
  5
6BB
  8
0
  6
CONTINUOUS
 62
     4
 10
148.8119086885121
 20
37.73688684295315
 30
0.0
 40
72.0
 50
172.9758384665152
 51
194.699022895309
  0
ARC
  5
6BC
  8
0
  6
CONTINUOUS
 62
     4
 10
148.8119086885121
 20
37.73688684295315
 30
0.0
 40
66.0
 50
174.4906651413973
 51
193.2689588680267
  0
ARC
  5
6BD
  8
0
  6
CONTINUOUS
 62
     4
 10
148.8119086885121
 20
37.73688684295315
 30
0.0
 40
60.0
 50
172.9077141597335
 51
191.5385031210473
  0
ARC
  5
6BE
  8
0
  6
CONTINUOUS
 62
     4
 10
148.8119086885121
 20
37.73688684295315
 30
0.0
 40
60.0
 50
142.9077201550966
 51
157.092329174299
  0
ARC
  5
6BF
  8
0
  6
CONTINUOUS
 62
     4
 10
148.8119086885121
 20
37.73688684295315
 30
0.0
 40
66.0
 50
144.4906711367605
 51
155.5093645322568
  0
ARC
  5
6C0
  8
0
  6
CONTINUOUS
 62
     4
 10
148.8119086885121
 20
37.73688684295315
 30
0.0
 40
72.0
 50
142.9758444618783
 51
157.0242048675173
  0
ARC
  5
6C1
  8
0
  6
CONTINUOUS
 62
     4
 10
148.8119086885121
 20
37.73688684295315
 30
0.0
 40
60.0
 50
52.90768008457803
 51
71.53854076287813
  0
ARC
  5
6C2
  8
0
  6
CONTINUOUS
 62
     4
 10
148.8119086885121
 20
37.73688684295315
 30
0.0
 40
66.0
 50
54.49063448133643
 51
73.26899650985754
  0
ARC
  5
6C3
  8
0
  6
CONTINUOUS
 62
     4
 10
148.8119086885121
 20
37.73688684295315
 30
0.0
 40
72.0
 50
52.97581463664349
 51
74.69906053713979
  0
ARC
  5
6C4
  8
0
  6
CONTINUOUS
 62
     4
 10
148.8119086885121
 20
37.73688684295315
 30
0.0
 40
60.0
 50
22.90769632522489
 51
37.09230534442722
  0
ARC
  5
6C5
  8
0
  6
CONTINUOUS
 62
     4
 10
148.8119086885121
 20
37.73688684295315
 30
0.0
 40
66.0
 50
24.49064389179413
 51
35.50934070238506
  0
ARC
  5
6C6
  8
0
  6
CONTINUOUS
 62
     4
 10
148.8119086885121
 20
37.73688684295315
 30
0.0
 40
72.0
 50
22.97581380181743
 51
37.02416737726717
  0
LINE
  5
6C7
  8
0
  6
CONTINUOUS
 62
     2
 10
126.4824284785894
 20
-23.76537195398838
 30
0.0
 11
131.5486854237855
 21
-20.8403741325436
 31
0.0
  0
LINE
  5
6C8
  8
0
  6
CONTINUOUS
 62
     2
 10
131.5487058336843
 20
-20.84036114610795
 30
0.0
 11
136.6149554564421
 21
-23.76537152030402
 31
0.0
  0
LINE
  5
6C9
  8
0
  6
CONTINUOUS
 62
     2
 10
136.6149329805042
 20
-23.76536955047946
 30
0.0
 11
136.6149329805042
 21
-29.61536993194919
 31
0.0
  0
LINE
  5
6CA
  8
0
  6
CONTINUOUS
 62
     2
 10
136.6149290046
 20
-29.61537112815618
 30
0.0
 11
131.5486720594039
 21
-32.54036894960096
 31
0.0
  0
LINE
  5
6CB
  8
0
  6
CONTINUOUS
 62
     2
 10
131.5486794030388
 20
-32.54037298918216
 30
0.0
 11
126.4824280368433
 21
-29.61536575317392
 31
0.0
  0
LINE
  5
6CC
  8
0
  6
CONTINUOUS
 62
     2
 10
126.4824256562855
 20
-29.61535848785739
 30
0.0
 11
126.4824256562855
 21
-23.76535810638767
 31
0.0
  0
LINE
  5
6CD
  8
0
  6
CONTINUOUS
 62
     2
 10
148.8119141803818
 20
135.9368918988886
 30
0.0
 11
144.741581762768
 21
133.5868901375826
 31
0.0
  0
LINE
  5
6CE
  8
0
  6
CONTINUOUS
 62
     2
 10
144.7415961885121
 20
133.586881502377
 30
0.0
 11
144.7415961885121
 21
128.8868921835293
 31
0.0
  0
LINE
  5
6CF
  8
0
  6
CONTINUOUS
 62
     2
 10
144.7415891768172
 20
128.886891129505
 30
0.0
 11
148.8119038976578
 21
126.5368892936841
 31
0.0
  0
LINE
  5
6D0
  8
0
  6
CONTINUOUS
 62
     2
 10
148.8119066945961
 20
126.5368980295545
 30
0.0
 11
152.88223911221
 21
128.8868999309317
 31
0.0
  0
LINE
  5
6D1
  8
0
  6
CONTINUOUS
 62
     2
 10
152.8822211885121
 20
128.8868845541348
 30
0.0
 11
152.8822211885121
 21
133.586881502377
 31
0.0
  0
LINE
  5
6D2
  8
0
  6
CONTINUOUS
 62
     2
 10
152.8822256437537
 20
133.5868705472568
 30
0.0
 11
148.8119120434798
 21
135.9368746242109
 31
0.0
  0
LINE
  5
6D3
  8
0
  6
CONTINUOUS
 62
     2
 10
148.8119175601552
 20
105.9368922972446
 30
0.0
 11
144.7415851425414
 21
103.5868905359386
 31
0.0
  0
LINE
  5
6D4
  8
0
  6
CONTINUOUS
 62
     2
 10
144.7415961885121
 20
103.5868891317715
 30
0.0
 11
144.7415961885121
 21
98.88689218352934
 31
0.0
  0
LINE
  5
6D5
  8
0
  6
CONTINUOUS
 62
     2
 10
144.7415866694568
 20
98.8869002144003
 30
0.0
 11
148.8119013902973
 21
96.53689837857942
 31
0.0
  0
LINE
  5
6D6
  8
0
  6
CONTINUOUS
 62
     2
 10
148.8118981109865
 20
96.53688952558892
 30
0.0
 11
152.8822305286004
 21
98.88689142696617
 31
0.0
  0
LINE
  5
6D7
  8
0
  6
CONTINUOUS
 62
     2
 10
152.8822211885121
 20
98.88688455413481
 30
0.0
 11
152.8822211885121
 21
103.586881502377
 31
0.0
  0
LINE
  5
6D8
  8
0
  6
CONTINUOUS
 62
     2
 10
152.8822280154285
 20
103.5868842589554
 30
0.0
 11
148.8119144151545
 21
105.9368883359095
 31
0.0
  0
LINE
  5
6D9
  8
0
  6
CONTINUOUS
 62
     2
 10
229.7853363299163
 20
-4.31310558464962
 30
0.0
 11
225.7150039123024
 21
-6.663107345955595
 31
0.0
  0
LINE
  5
6DA
  8
0
  6
CONTINUOUS
 62
     2
 10
225.7150153779652
 20
-6.663115636600068
 30
0.0
 11
225.7150153779652
 21
-11.36311449219089
 31
0.0
  0
LINE
  5
6DB
  8
0
  6
CONTINUOUS
 62
     2
 10
225.7150040889113
 20
-11.36311363027731
 30
0.0
 11
229.7853320242442
 21
-13.71312309550363
 31
0.0
  0
LINE
  5
6DC
  8
0
  6
CONTINUOUS
 62
     2
 10
229.7853280853946
 20
-13.71312029786519
 30
0.0
 11
233.8556605030084
 21
-11.36311839648793
 31
0.0
  0
LINE
  5
6DD
  8
0
  6
CONTINUOUS
 62
     2
 10
233.8556403779652
 20
-11.36312212158542
 30
0.0
 11
233.8556403779652
 21
-6.663123265994599
 31
0.0
  0
LINE
  5
6DE
  8
0
  6
CONTINUOUS
 62
     2
 10
233.855660533752
 20
-6.663129199474369
 30
0.0
 11
229.7853337189894
 21
-4.313117493107583
 31
0.0
  0
LINE
  5
6DF
  8
0
  6
CONTINUOUS
 62
     2
 10
67.83854432571991
 20
-4.313110692561153
 30
0.0
 11
63.76821851535954
 21
-6.663108639176912
 31
0.0
  0
LINE
  5
6E0
  8
0
  6
CONTINUOUS
 62
     2
 10
63.76821514603159
 20
-6.66310991455417
 30
0.0
 11
63.76821514603159
 21
-11.36310877014499
 31
0.0
  0
LINE
  5
6E1
  8
0
  6
CONTINUOUS
 62
     2
 10
63.76821695347132
 20
-11.36310756379122
 30
0.0
 11
67.83853167431187
 21
-13.71310939961209
 31
0.0
  0
LINE
  5
6E2
  8
0
  6
CONTINUOUS
 62
     2
 10
67.83854116047871
 20
-13.71311204529512
 30
0.0
 11
71.90886036358563
 21
-11.36311777329875
 31
0.0
  0
LINE
  5
6E3
  8
0
  6
CONTINUOUS
 62
     2
 10
71.90885540482066
 20
-11.36311639953952
 30
0.0
 11
71.90885540482066
 21
-6.663117543948701
 31
0.0
  0
LINE
  5
6E4
  8
0
  6
CONTINUOUS
 62
     2
 10
71.90885841460056
 20
-6.663114978649773
 30
0.0
 11
67.83854481432661
 21
-4.313110901695708
 31
0.0
  0
LINE
  5
6E5
  8
0
  6
CONTINUOUS
 62
     2
 10
89.74895519829977
 20
3.63689722263247
 30
0.0
 11
93.81928257334755
 21
1.286886916978474
 31
0.0
  0
LINE
  5
6E6
  8
0
  6
CONTINUOUS
 62
     2
 10
93.8192865673326
 20
1.286890996262528
 30
0.0
 11
97.88960324916468
 21
3.636889470383622
 31
0.0
  0
LINE
  5
6E7
  8
0
  6
CONTINUOUS
 62
     2
 10
97.88953777786753
 20
3.636882900105903
 30
0.0
 11
97.88953777786753
 21
8.336880071865508
 31
0.0
  0
LINE
  5
6E8
  8
0
  6
CONTINUOUS
 62
     2
 10
97.88961980169017
 20
8.336879838808173
 30
0.0
 11
93.81929214649983
 21
10.68689014446217
 31
0.0
  0
LINE
  5
6E9
  8
0
  6
CONTINUOUS
 62
     2
 10
93.81929735641404
 20
10.68688121122877
 30
0.0
 11
89.74898067458196
 21
8.336882737107672
 31
0.0
  0
LINE
  5
6EA
  8
0
  6
CONTINUOUS
 62
     2
 10
89.74885937210581
 20
8.336885317074248
 30
0.0
 11
89.74885937210581
 21
3.636888145314643
 31
0.0
  0
LINE
  5
6EB
  8
0
  6
CONTINUOUS
 62
     2
 10
203.804577905374
 20
1.286791862731334
 30
0.0
 11
207.8748945872061
 21
3.636790336852428
 31
0.0
  0
LINE
  5
6EC
  8
0
  6
CONTINUOUS
 62
     2
 10
207.8748331478513
 20
8.336884446366312
 30
0.0
 11
203.8045164660192
 21
10.68688292048741
 31
0.0
  0
LINE
  5
6ED
  8
0
  6
CONTINUOUS
 62
     2
 10
199.7342039660192
 20
3.636894994339528
 30
0.0
 11
203.8045206478513
 21
1.286896520218434
 31
0.0
  0
LINE
  5
6EE
  8
0
  6
CONTINUOUS
 62
     2
 10
199.7341193818714
 20
8.336891039120147
 30
0.0
 11
199.7341193818714
 21
3.636878697978446
 31
0.0
  0
LINE
  5
6EF
  8
0
  6
CONTINUOUS
 62
     2
 10
203.8045591990225
 20
10.68681790649647
 30
0.0
 11
199.7342425171904
 21
8.336819432375378
 31
0.0
  0
LINE
  5
6F0
  8
0
  6
CONTINUOUS
 62
     2
 10
207.8747596406605
 20
3.636869861589858
 30
0.0
 11
207.8747596406605
 21
8.33688197921414
 31
0.0
  0
CIRCLE
  5
6F1
  8
0
  6
CONTINUOUS
 62
     2
 10
131.5486793183949
 20
-26.69036115814548
 30
0.0
 40
9.0
  0
CIRCLE
  5
6F2
  8
0
  6
CONTINUOUS
 62
     2
 10
148.8119086885121
 20
131.2368906576504
 30
0.0
 40
8.0
  0
CIRCLE
  5
6F3
  8
0
  6
CONTINUOUS
 62
     2
 10
148.8119086885121
 20
101.2368906576504
 30
0.0
 40
8.0
  0
CIRCLE
  5
6F4
  8
0
  6
CONTINUOUS
 62
     2
 10
229.7853278779652
 20
-9.013117925418427
 30
0.0
 40
8.0
  0
CIRCLE
  5
6F5
  8
0
  6
CONTINUOUS
 62
     2
 10
93.81929394241831
 20
5.986884935604522
 30
0.0
 40
8.0
  0
CIRCLE
  5
6F6
  8
0
  6
CONTINUOUS
 62
     2
 10
203.8045234346058
 20
5.986884935604522
 30
0.0
 40
8.0
  0
LINE
  5
6F7
  8
0
  6
DASHED
 62
     7
 10
139.0619086885121
 20
145.2368906576504
 30
0.0
 11
139.0619086885121
 21
87.73689065765043
 31
0.0
  0
LINE
  5
6F8
  8
0
  6
DASHED
 62
     7
 10
158.5619086885121
 20
145.2368906576504
 30
0.0
 11
158.5619086885121
 21
87.73689065765043
 31
0.0
  0
LINE
  5
6F9
  8
0
  6
CENTER
 62
     7
 10
-125.5547905302379
 20
-44.96802128633806
 30
0.0
 11
-125.5547905302379
 21
-73.24524692354129
 31
0.0
  0
LINE
  5
6FA
  8
0
  6
CENTER
 62
     7
 10
-95.85480121139028
 20
120.2368906576504
 30
0.0
 11
-100.2547951078747
 21
120.2368906576504
 31
0.0
  0
LINE
  5
6FB
  8
0
  6
CONTINUOUS
 62
     5
 10
222.6037129562541
 20
96.88643751669079
 30
0.0
 11
218.8537110489054
 21
103.3816312321216
 31
0.0
  0
LINE
  5
6FC
  8
0
  6
CONTINUOUS
 62
     5
 10
209.6133170107945
 20
89.38643319092094
 30
0.0
 11
222.6036978344067
 21
96.88643319092094
 31
0.0
  0
LINE
  5
6FD
  8
0
  6
CONTINUOUS
 62
     5
 10
209.6133189181431
 20
89.38642988729626
 30
0.0
 11
203.9883151034459
 21
99.12922211225478
 31
0.0
  0
LINE
  5
6FE
  8
0
  6
CONTINUOUS
 62
     5
 10
203.9883151034459
 20
99.12922211225478
 30
0.0
 11
205.9368722269877
 21
100.2542221122548
 31
0.0
  0
LINE
  5
6FF
  8
0
  6
CONTINUOUS
 62
     5
 10
206.4993873488351
 20
99.27994787625371
 30
0.0
 11
205.9368892561837
 21
100.2542231344
 31
0.0
  0
LINE
  5
700
  8
0
  6
CONTINUOUS
 62
     5
 10
206.4993741343363
 20
99.27994024685918
 30
0.0
 11
207.7984122166976
 21
100.0299402468592
 31
0.0
  0
LINE
  5
701
  8
0
  6
CONTINUOUS
 62
     5
 10
208.3609254311963
 20
99.0556693144828
 30
0.0
 11
207.7984254311963
 21
100.0299478762537
 31
0.0
  0
LINE
  5
702
  8
0
  6
CONTINUOUS
 62
     5
 10
210.4099502990588
 20
98.50662360272705
 30
0.0
 11
209.6599502990588
 21
99.80566168508827
 31
0.0
  0
LINE
  5
703
  8
0
  6
CONTINUOUS
 62
     5
 10
208.3609103093489
 20
99.05566498871295
 30
0.0
 11
209.6599483917101
 21
99.80566498871295
 31
0.0
  0
LINE
  5
704
  8
0
  6
CONTINUOUS
 62
     5
 10
205.8633170107945
 20
95.88162360272705
 30
0.0
 11
218.8536978344067
 21
103.381623602727
 31
0.0
  0
LINE
  5
705
  8
0
  6
CONTINUOUS
 62
     5
 10
216.483522544448
 20
92.48691847551018
 30
0.0
 11
218.733522544448
 21
88.58980422842652
 31
0.0
  0
LINE
  5
706
  8
0
  6
CONTINUOUS
 62
     5
 10
218.7335053061537
 20
88.58981629072892
 30
0.0
 11
217.7089925319827
 21
88.86433366350425
 31
0.0
  0
LINE
  5
707
  8
0
  6
CONTINUOUS
 62
     5
 10
218.7335848800743
 20
88.58978869857143
 30
0.0
 11
219.0081061072837
 21
89.61431627482139
 31
0.0
  0
LINE
  5
708
  8
0
  6
CONTINUOUS
 62
     5
 10
216.2090553953384
 20
91.4623888445764
 30
0.0
 11
216.4835766225477
 21
92.48691642082636
 31
0.0
  0
LINE
  5
709
  8
0
  6
CONTINUOUS
 62
     5
 10
217.50802503581
 20
92.21242278577407
 30
0.0
 11
216.483512261639
 21
92.4869401585494
 31
0.0
  0
LINE
  5
70A
  8
0
  6
CONTINUOUS
 62
     5
 10
210.5338929983963
 20
101.2920130358467
 30
0.0
 11
210.8084142256056
 21
102.3165406120967
 31
0.0
  0
LINE
  5
70B
  8
0
  6
CONTINUOUS
 62
     5
 10
210.8083697487667
 20
102.3165753786044
 30
0.0
 11
209.7838569745958
 21
102.5910927513798
 31
0.0
  0
LINE
  5
70C
  8
0
  6
CONTINUOUS
 62
     5
 10
208.2452659773802
 20
100.8367163128563
 30
0.0
 11
210.8083765784844
 21
102.3165289349267
 31
0.0
  0
LINE
  5
70D
  8
0
  6
CONTINUOUS
 62
     5
 10
214.9694632286929
 20
98.86091561782669
 30
0.0
 11
214.202752497914
 21
98.24004564049974
 31
0.0
  0
LINE
  5
70E
  8
0
  6
CONTINUOUS
 62
     5
 10
214.9694865056452
 20
98.86092170518228
 30
0.0
 11
214.3486260133776
 21
99.62762046004687
 31
0.0
  0
ARC
  5
70F
  8
0
  6
CONTINUOUS
 62
     5
 10
214.2900733613636
 20
96.32533822845122
 30
0.0
 40
2.625001907348633
 50
75.00010795499728
 51
9.999953377944937
  0
LINE
  5
710
  8
0
  6
CONTINUOUS
 62
     4
 10
-1.372009705348944
 20
-5.136934671846163
 30
0.0
 11
8.859062032783356
 21
-22.85766830764139
 31
0.0
  0
LINE
  5
711
  8
0
  6
CONTINUOUS
 62
     4
 10
-15.40278922410801
 20
-54.76310728738086
 30
0.0
 11
-13.40278874727085
 21
-51.29900597283618
 31
0.0
  0
LINE
  5
712
  8
0
  6
CONTINUOUS
 62
     4
 10
-13.40278914931753
 20
-51.29900945831638
 30
0.0
 11
-9.402789626154686
 21
-51.29900945831638
 31
0.0
  0
LINE
  5
713
  8
0
  6
CONTINUOUS
 62
     4
 10
-9.402789214089239
 20
-51.29900890787017
 30
0.0
 11
-7.402788737253445
 21
-54.76311471813334
 31
0.0
  0
LINE
  5
714
  8
0
  6
CONTINUOUS
 62
     4
 10
-7.402789757274036
 20
-54.76311299928021
 30
0.0
 11
-9.402792141459827
 21
-58.22721336015057
 31
0.0
  0
LINE
  5
715
  8
0
  6
CONTINUOUS
 62
     4
 10
-9.402792010340477
 20
-58.22720922638278
 30
0.0
 11
-13.40279105666616
 21
-58.22720922638278
 31
0.0
  0
LINE
  5
716
  8
0
  6
CONTINUOUS
 62
     4
 10
-13.40279048854939
 20
-58.22721007657957
 30
0.0
 11
-15.40278953487507
 21
-54.76310804677915
 31
0.0
  0
ARC
  5
717
  8
0
  6
CONTINUOUS
 62
     4
 10
148.8119086885121
 20
37.73688684295315
 30
0.0
 40
41.0
 50
355.2665329098876
 51
0.0
  0
CIRCLE
  5
718
  8
0
  6
CONTINUOUS
 62
     4
 10
-11.40279010299184
 20
-54.76311315704685
 30
0.0
 40
3.299999952316284
  0
CIRCLE
  5
719
  8
0
  6
CONTINUOUS
 62
     4
 10
-11.40279010299184
 20
-54.76311315704685
 30
0.0
 40
0.75
  0
CIRCLE
  5
71A
  8
0
  6
CONTINUOUS
 62
     4
 10
-11.40279010299184
 20
-54.76311315704685
 30
0.0
 40
2.400000095367432
  0
CIRCLE
  5
71B
  8
0
  6
CONTINUOUS
 62
     4
 10
113.8119010591175
 20
111.7368906576504
 30
0.0
 40
0.75
  0
CIRCLE
  5
71C
  8
0
  6
CONTINUOUS
 62
     4
 10
102.2260245942738
 20
-29.57399954010349
 30
0.0
 40
0.75
  0
CIRCLE
  5
71D
  8
0
  6
CONTINUOUS
 62
     4
 10
230.3977851533558
 20
31.04777704070706
 30
0.0
 40
0.75
  0
CIRCLE
  5
71E
  8
0
  6
CONTINUOUS
 62
     3
 10
106.8096732759144
 20
61.98689447234769
 30
0.0
 40
3.25
  0
CIRCLE
  5
71F
  8
0
  6
CONTINUOUS
 62
     3
 10
190.8141517305042
 20
61.98688302825589
 30
0.0
 40
3.25
  0
CIRCLE
  5
720
  8
0
  6
CONTINUOUS
 62
     3
 10
148.8119086885121
 20
-10.76311220337253
 30
0.0
 40
3.25
  0
TEXT
  5
721
  8
0
 62
     5
 10
120.3261888885166
 20
-54.06311239410739
 30
0.0
 40
5.0
  1
NIKKO
 41
1.08791221838731
  7
DCSTYLE0
 72
     5
 11
143.8976202869084
 21
-54.06311239410739
 31
0.0
  0
TEXT
  5
722
  8
0
 62
     5
 10
155.6833395623829
 20
-53.56311239410739
 30
0.0
 40
4.0
  1
COP-8
 41
0.9252337651832082
  7
DCSTYLE0
 72
     5
 11
174.5404848718312
 21
-53.56311239410739
 31
0.0
  0
TEXT
  5
723
  8
0
 62
     5
 10
156.0404827260639
 20
-60.06311620880466
 30
0.0
 40
3.0
  1
0001
 41
1.098591601344901
  7
DCSTYLE0
 72
     5
 11
167.1833403968479
 21
-60.06311620880466
 31
0.0
  0
TEXT
  5
724
  8
0
 62
     5
 10
239.9809848863251
 20
59.4274049800821
 30
0.0
 40
3.0
  1
F MAX  20KN
 50
120.0
 41
1.040540566852501
  7
DCSTYLE0
 72
     5
 11
223.4809844690926
 21
88.00624402763648
 31
0.0
  0
TEXT
  5
725
  8
0
 62
     5
 10
210.0947726565964
 20
103.697670665959
 30
0.0
 40
3.0
  1
ΣS
 50
120.0
 41
1.200000023841859
  7
DCSTYLE0
 72
     5
 11
207.0947725969918
 21
108.8938231919039
 31
0.0
  0
TEXT
  5
726
  8
0
 62
     5
 10
216.7838986117012
 20
88.70689335532381
 30
0.0
 40
3.0
  1
F
 50
120.0
 41
1.085973374983844
  7
DCSTYLE0
 72
     5
 11
215.4652166563637
 21
90.99091750099268
 31
0.0
  0
TEXT
  5
727
  8
0
 62
     5
 10
219.3824923831589
 20
99.24418678088516
 30
0.0
 40
3.0
  1
N min
 50
120.0
 41
1.082812440892061
  7
DCSTYLE0
 72
     5
 11
211.9574927884705
 21
112.1046633250638
 31
0.0
  0
TEXT
  5
728
  8
0
 62
     5
 10
206.9793874969332
 20
110.9193013724072
 30
0.0
 40
1.5
  1
-1
 50
120.0000000000002
 41
1.021621684770321
  7
DCSTYLE0
 72
     5
 11
205.6293874134867
 21
113.2575701071587
 31
0.0
  0
TEXT
  5
729
  8
0
 62
     5
 10
244.3111087876923
 20
61.9274049800821
 30
0.0
 40
3.0
  1
ΣS MAX 31KN
 50
120.0
 41
1.0452488952093
  7
DCSTYLE0
 72
     5
 11
227.8111083704598
 21
90.50624402763648
 31
0.0
  0
TEXT
  5
72A
  8
0
 62
     5
 10
248.6412479478485
 20
64.42740498008212
 30
0.0
 40
3.0
  1
N MAX 3200 AT ΣS MAX
 50
120.0
 41
1.062600011974573
  7
DCSTYLE0
 72
     5
 11
218.2812476057179
 21
117.0124680904609
 31
0.0
  0
CIRCLE
  5
72B
  8
0
  6
CONTINUOUS
 62
     5
 10
214.2900733613636
 20
96.32533822845122
 30
0.0
 40
0.5
  0
INSERT
  5
72C
  8
0
  6
CONTINUOUS
  2
DA_IMAGEDIMGROUP_18
 10
0.0
 20
0.0
 30
0.0
  0
INSERT
  5
72D
  8
0
  6
CONTINUOUS
  2
DA_IMAGEDIMGROUP_19
 10
0.0
 20
0.0
 30
0.0
  0
INSERT
  5
72E
  8
0
  6
CONTINUOUS
  2
DA_IMAGEDIMGROUP_20
 10
0.0
 20
0.0
 30
0.0
  0
INSERT
  5
72F
  8
0
  6
CONTINUOUS
  2
DA_IMAGEDIMGROUP_21
 10
0.0
 20
0.0
 30
0.0
  0
INSERT
  5
730
  8
0
  6
CONTINUOUS
  2
DA_IMAGEDIMGROUP_22
 10
0.0
 20
0.0
 30
0.0
  0
INSERT
  5
731
  8
0
  6
CONTINUOUS
  2
DA_IMAGEDIMGROUP_23
 10
0.0
 20
0.0
 30
0.0
  0
INSERT
  5
732
  8
0
  6
CONTINUOUS
  2
DA_IMAGEDIMGROUP_24
 10
0.0
 20
0.0
 30
0.0
  0
INSERT
  5
733
  8
0
  6
CONTINUOUS
  2
DA_IMAGEDIMGROUP_25
 10
0.0
 20
0.0
 30
0.0
  0
INSERT
  5
734
  8
0
  6
CONTINUOUS
  2
DA_IMAGEDIMGROUP_26
 10
0.0
 20
0.0
 30
0.0
  0
INSERT
  5
735
  8
0
  6
CONTINUOUS
  2
DA_IMAGEDIMGROUP_27
 10
0.0
 20
0.0
 30
0.0
  0
INSERT
  5
736
  8
0
  6
CONTINUOUS
  2
DC_GROUP_5
 10
0.0
 20
0.0
 30
0.0
  0
INSERT
  5
737
  8
0
  6
CONTINUOUS
  2
DA_IMAGEDIMGROUP_29
 10
0.0
 20
0.0
 30
0.0
  0
INSERT
  5
738
  8
0
  6
CONTINUOUS
  2
DA_IMAGEDIMGROUP_30
 10
0.0
 20
0.0
 30
0.0
  0
INSERT
  5
739
  8
0
  6
CONTINUOUS
  2
DA_IMAGEDIMGROUP_31
 10
0.0
 20
0.0
 30
0.0
  0
INSERT
  5
73A
  8
0
  6
CONTINUOUS
  2
DA_IMAGEDIMGROUP_32
 10
0.0
 20
0.0
 30
0.0
  0
INSERT
  5
73B
  8
0
  6
CONTINUOUS
  2
DA_IMAGEDIMGROUP_33
 10
0.0
 20
0.0
 30
0.0
  0
INSERT
  5
73C
  8
0
  6
CONTINUOUS
  2
DC_GROUP_6
 10
0.0
 20
0.0
 30
0.0
  0
POINT
  5
73D
  8
0
  6
CONTINUOUS
 62
     2
 10
-98.05479815963247
 20
120.2368906576504
 30
0.0
  0
POINT
  5
73E
  8
0
  6
CONTINUOUS
 62
     2
 10
-98.05479815963247
 20
120.2368906576504
 30
0.0
  0
POINT
  5
73F
  8
0
  6
CONTINUOUS
 62
     2
 10
-98.05479815963247
 20
120.2368906576504
 30
0.0
  0
POINT
  5
740
  8
0
  6
CONTINUOUS
 62
     2
 10
-98.05479815963247
 20
120.2368906576504
 30
0.0
  0
POINT
  5
741
  8
0
  6
CONTINUOUS
 62
     2
 10
-98.05479815963247
 20
131.7120073873868
 30
0.0
  0
POINT
  5
742
  8
0
  6
CONTINUOUS
 62
     2
 10
-98.05479815963247
 20
120.2368906576504
 30
0.0
  0
VIEWPORT
  5
AF
 67
     1
  8
0
 10
0.0
 20
0.0
 30
0.0
 40
1662.0
 41
1140.0
 68
     1
 69
     1
1001
ACAD
1000
MVIEW
1002
{
1070
    16
1010
0.0
1020
0.0
1030
0.0
1010
0.0
1020
0.0
1030
1.0
1040
0.0
1040
1140.0
1040
0.0
1040
0.0
1040
50.0
1040
0.0
1040
0.0
1070
     0
1070
   100
1070
     0
1070
     3
1070
     0
1070
     0
1070
     0
1070
     0
1040
0.0
1040
0.0
1040
0.0
1040
0.5
1040
0.5
1040
0.0
1040
0.0
1070
     0
1002
{
1002
}
1002
}
  0
ENDSEC
  0
EOF
