  0
SECTION
  2
HEADER
  9
$ACADVER
  1
AC1009
  9
$DWGCODEPAGE
  3
ansi_932
  9
$INSBASE
 10
0.0
 20
0.0
 30
0.0
  9
$EXTMIN
 10
-831.0
 20
-569.9999999999999
 30
0.0
  9
$EXTMAX
 10
831.0
 20
569.9999999999999
 30
0.0
  9
$LIMMIN
 10
-297.0
 20
-210.0
  9
$LIMMAX
 10
297.0
 20
210.0
  9
$ORTHOMODE
 70
     0
  9
$REGENMODE
 70
     1
  9
$FILLMODE
 70
     1
  9
$QTEXTMODE
 70
     0
  9
$MIRRTEXT
 70
     1
  9
$DRAGMODE
 70
     2
  9
$LTSCALE
 40
1.0
  9
$OSMODE
 70
    37
  9
$ATTMODE
 70
     1
  9
$TEXTSIZE
 40
0.2
  9
$TRACEWID
 40
0.05
  9
$TEXTSTYLE
  7
STANDARD
  9
$CLAYER
  8
0
  9
$CELTYPE
  6
BYLAYER
  9
$CECOLOR
 62
   256
  9
$DIMSCALE
 40
1.0
  9
$DIMASZ
 40
2.5
  9
$DIMEXO
 40
0.0625
  9
$DIMDLI
 40
0.38
  9
$DIMRND
 40
0.0
  9
$DIMDLE
 40
0.0
  9
$DIMEXE
 40
0.18
  9
$DIMTP
 40
0.0
  9
$DIMTM
 40
0.0
  9
$DIMTXT
 40
0.18
  9
$DIMCEN
 40
0.09
  9
$DIMTSZ
 40
0.0
  9
$DIMTOL
 70
     0
  9
$DIMLIM
 70
     0
  9
$DIMTIH
 70
     1
  9
$DIMTOH
 70
     1
  9
$DIMSE1
 70
     0
  9
$DIMSE2
 70
     0
  9
$DIMTAD
 70
     3
  9
$DIMZIN
 70
     0
  9
$DIMBLK
  1

  9
$DIMASO
 70
     1
  9
$DIMSHO
 70
     1
  9
$DIMPOST
  1

  9
$DIMAPOST
  1

  9
$DIMALT
 70
     0
  9
$DIMALTD
 70
     2
  9
$DIMALTF
 40
25.4
  9
$DIMLFAC
 40
1.0
  9
$DIMTOFL
 70
     0
  9
$DIMTVP
 40
0.0
  9
$DIMTIX
 70
     0
  9
$DIMSOXD
 70
     0
  9
$DIMSAH
 70
     0
  9
$DIMBLK1
  1

  9
$DIMBLK2
  1

  9
$DIMSTYLE
  2
STANDARD
  9
$DIMCLRD
 70
     0
  9
$DIMCLRE
 70
     0
  9
$DIMCLRT
 70
     0
  9
$DIMTFAC
 40
1.0
  9
$DIMGAP
 40
0.09
  9
$LUNITS
 70
     2
  9
$LUPREC
 70
     4
  9
$SKETCHINC
 40
0.1
  9
$FILLETRAD
 40
0.5
  9
$AUNITS
 70
     0
  9
$AUPREC
 70
     0
  9
$MENU
  1
.
  9
$ELEVATION
 40
0.0
  9
$PELEVATION
 40
0.0
  9
$THICKNESS
 40
0.0
  9
$LIMCHECK
 70
     0
  9
$CHAMFERA
 40
0.5
  9
$CHAMFERB
 40
0.5
  9
$SKPOLY
 70
     0
  9
$TDCREATE
 40
2455597.600593472
  9
$TDUPDATE
 40
2455597.600593484
  9
$TDINDWG
 40
0.0000000116
  9
$TDUSRTIMER
 40
0.0000000116
  9
$USRTIMER
 70
     1
  9
$ANGBASE
 50
0.0
  9
$ANGDIR
 70
     0
  9
$PDMODE
 70
     0
  9
$PDSIZE
 40
1.0
  9
$PLINEWID
 40
0.0
  9
$COORDS
 70
     1
  9
$SPLFRAME
 70
     0
  9
$SPLINETYPE
 70
     6
  9
$SPLINESEGS
 70
     8
  9
$ATTDIA
 70
     0
  9
$ATTREQ
 70
     1
  9
$HANDLING
 70
     1
  9
$HANDSEED
  5
514
  9
$SURFTAB1
 70
     6
  9
$SURFTAB2
 70
     6
  9
$SURFTYPE
 70
     6
  9
$SURFU
 70
     6
  9
$SURFV
 70
     6
  9
$UCSNAME
  2

  9
$UCSORG
 10
0.0
 20
0.0
 30
0.0
  9
$UCSXDIR
 10
1.0
 20
0.0
 30
0.0
  9
$UCSYDIR
 10
0.0
 20
1.0
 30
0.0
  9
$PUCSNAME
  2

  9
$PUCSORG
 10
0.0
 20
0.0
 30
0.0
  9
$PUCSXDIR
 10
1.0
 20
0.0
 30
0.0
  9
$PUCSYDIR
 10
0.0
 20
1.0
 30
0.0
  9
$USERI1
 70
     0
  9
$USERI2
 70
     0
  9
$USERI3
 70
     0
  9
$USERI4
 70
     0
  9
$USERI5
 70
     0
  9
$USERR1
 40
0.0
  9
$USERR2
 40
0.0
  9
$USERR3
 40
0.0
  9
$USERR4
 40
0.0
  9
$USERR5
 40
0.0
  9
$WORLDVIEW
 70
     1
  9
$SHADEDGE
 70
     3
  9
$SHADEDIF
 70
    70
  9
$TILEMODE
 70
     1
  9
$MAXACTVP
 70
    64
  9
$PLIMCHECK
 70
     0
  9
$PEXTMIN
 10
1.000000000000000E+20
 20
1.000000000000000E+20
 30
1.000000000000000E+20
  9
$PEXTMAX
 10
-1.000000000000000E+20
 20
-1.000000000000000E+20
 30
-1.000000000000000E+20
  9
$PLIMMIN
 10
0.0
 20
0.0
  9
$PLIMMAX
 10
12.0
 20
9.0
  9
$UNITMODE
 70
     0
  9
$VISRETAIN
 70
     0
  9
$PLINEGEN
 70
     1
  9
$PSLTSCALE
 70
     0
  0
ENDSEC
  0
SECTION
  2
TABLES
  0
TABLE
  2
VPORT
 70
     1
  0
VPORT
  2
*ACTIVE
 70
     0
 10
0.0
 20
0.0
 11
1.0
 21
1.0
 12
0.0
 22
0.0
 13
0.0
 23
0.0
 14
0.5
 24
0.5
 15
0.5
 25
0.5
 16
0.0
 26
0.0
 36
1.0
 17
-0.0000000000000036
 27
0.0
 37
0.0
 40
387.6
 41
1.457894736842106
 42
50.0
 43
0.0
 44
0.0
 50
0.0
 51
0.0
 71
     0
 72
  1000
 73
     1
 74
     1
 75
     0
 76
     0
 77
     0
 78
     0
  0
ENDTAB
  0
TABLE
  2
LTYPE
 70
    28
  0
LTYPE
  2
CONTINUOUS
 70
     0
  3
Solid line
 72
    65
 73
     0
 40
0.0
  0
LTYPE
  2
HIDDENX2
 70
     0
  3
CADPAC LINETYPE
 72
    65
 73
     2
 40
10.30674846625766
 49
7.730061349693244
 49
-2.576687116564415
  0
LTYPE
  2
HIDDEN
 70
     0
  3
CADPAC LINETYPE
 72
    65
 73
     2
 40
7.730061349693244
 49
5.15337423312883
 49
-2.576687116564415
  0
LTYPE
  2
HIDDEN2
 70
     0
  3
CADPAC LINETYPE
 72
    65
 73
     2
 40
6.441717791411037
 49
3.865030674846622
 49
-2.576687116564415
  0
LTYPE
  2
DASHED
 70
     0
  3
CADPAC LINETYPE
 72
    65
 73
     2
 40
7.214723926380373
 49
5.15337423312883
 49
-2.061349693251543
  0
LTYPE
  2
DASHED2
 70
     0
  3
CADPAC LINETYPE
 72
    65
 73
     2
 40
4.638036809815958
 49
3.092024539877286
 49
-1.546012269938672
  0
LTYPE
  2
DASHEDX2
 70
     0
  3
CADPAC LINETYPE
 72
    65
 73
     2
 40
12.3680981595092
 49
10.30674846625766
 49
-2.061349693251543
  0
LTYPE
  2
DOTX2
 70
     0
  3
CADPAC LINETYPE
 72
    65
 73
     2
 40
4.509202453987768
 49
0.0
 49
-4.509202453987768
  0
LTYPE
  2
DOT
 70
     0
  3
CADPAC LINETYPE
 72
    65
 73
     2
 40
3.607361963190215
 49
0.0
 49
-3.607361963190215
  0
LTYPE
  2
DOT2
 70
     0
  3
CADPAC LINETYPE
 72
    65
 73
     2
 40
2.705521472392661
 49
0.0
 49
-2.705521472392661
  0
LTYPE
  2
CENTERX2
 70
     0
  3
CADPAC LINETYPE
 72
    65
 73
     4
 40
15.46012269938649
 49
6.441717791411037
 49
-3.220858895705518
 49
2.576687116564415
 49
-3.220858895705518
  0
LTYPE
  2
CENTER
 70
     0
  3
CADPAC LINETYPE
 72
    65
 73
     4
 40
11.85276073619631
 49
5.15337423312883
 49
-2.576687116564415
 49
1.546012269938649
 49
-2.576687116564415
  0
LTYPE
  2
CENTER2
 70
     0
  3
CADPAC LINETYPE
 72
    65
 73
     4
 40
8.245398773006126
 49
3.865030674846622
 49
-1.932515337423311
 49
0.515337423312883
 49
-1.932515337423311
  0
LTYPE
  2
DASHDOTX2
 70
     0
  3
CADPAC LINETYPE
 72
    65
 73
     4
 40
24.73619631901846
 49
12.3680981595092
 49
-4.122699386503086
 49
4.122699386503086
 49
-4.122699386503086
  0
LTYPE
  2
DASHDOT
 70
     0
  3
CADPAC LINETYPE
 72
    65
 73
     4
 40
12.36809815950926
 49
6.18404907975463
 49
-2.061349693251543
 49
2.061349693251543
 49
-2.061349693251543
  0
LTYPE
  2
DASHDOT2
 70
     0
  3
CADPAC LINETYPE
 72
    65
 73
     4
 40
7.936196319018441
 49
4.638036809815972
 49
-1.546012269938657
 49
0.2061349693251543
 49
-1.546012269938657
  0
LTYPE
  2
DIVIDEX2
 70
     0
  3
CADPAC LINETYPE
 72
    65
 73
     6
 40
32.98159509202463
 49
12.3680981595092
 49
-4.122699386503086
 49
4.122699386503086
 49
-4.122699386503086
 49
4.122699386503086
 49
-4.122699386503086
  0
LTYPE
  2
DIVIDE
 70
     0
  3
CADPAC LINETYPE
 72
    65
 73
     6
 40
16.49079754601235
 49
6.18404907975463
 49
-2.061349693251543
 49
2.061349693251543
 49
-2.061349693251543
 49
2.061349693251543
 49
-2.061349693251543
  0
LTYPE
  2
DIVIDE2
 70
     0
  3
CADPAC LINETYPE
 72
    65
 73
     6
 40
12.36809815950926
 49
4.638036809815972
 49
-1.546012269938657
 49
1.546012269938657
 49
-1.546012269938657
 49
1.546012269938657
 49
-1.546012269938657
  0
LTYPE
  2
BORDERX2
 70
     0
  3
CADPAC LINETYPE
 72
    65
 73
     6
 40
22.54601226993863
 49
6.441717791411037
 49
-3.220858895705518
 49
6.441717791411037
 49
-3.220858895705518
 49
0.0
 49
-3.220858895705518
  0
LTYPE
  2
BORDER
 70
     0
  3
CADPAC LINETYPE
 72
    65
 73
     6
 40
18.0368098159509
 49
5.15337423312883
 49
-2.576687116564415
 49
5.15337423312883
 49
-2.576687116564415
 49
0.0
 49
-2.576687116564415
  0
LTYPE
  2
BORDER2
 70
     0
  3
CADPAC LINETYPE
 72
    65
 73
     6
 40
13.398773006135
 49
4.122699386503086
 49
-2.576687116564415
 49
1.546012269938672
 49
-2.576687116564415
 49
0.0
 49
-2.576687116564415
  0
LTYPE
  2
PHANTOMX2
 70
     0
  3
CADPAC LINETYPE
 72
    65
 73
     6
 40
19.32515337423311
 49
6.441717791411037
 49
-2.576687116564415
 49
2.576687116564415
 49
-2.576687116564415
 49
2.576687116564415
 49
-2.576687116564415
  0
LTYPE
  2
PHANTOM
 70
     0
  3
CADPAC LINETYPE
 72
    65
 73
     6
 40
15.97546012269937
 49
5.15337423312883
 49
-2.576687116564415
 49
1.546012269938649
 49
-2.576687116564415
 49
1.546012269938649
 49
-2.576687116564415
  0
LTYPE
  2
PHANTOM2
 70
     0
  3
CADPAC LINETYPE
 72
    65
 73
     6
 40
13.6564417177914
 49
3.865030674846622
 49
-2.576687116564415
 49
1.030674846625766
 49
-2.576687116564415
 49
1.030674846625766
 49
-2.576687116564415
  0
LTYPE
  2
ACAD_ISO06W100
 70
     0
  3
CADPAC LINETYPE
 72
    65
 73
     8
 40
27.31288343558288
 49
12.3680981595092
 49
-2.576687116564415
 49
1.546012269938672
 49
-2.576687116564415
 49
1.546012269938672
 49
-2.576687116564415
 49
1.546012269938672
 49
-2.576687116564415
  0
LTYPE
  2
ACAD_ISO13W100
 70
     0
  3
CADPAC LINETYPE
 72
    65
 73
     8
 40
20.61349693251532
 49
5.15337423312883
 49
-2.576687116564415
 49
5.15337423312883
 49
-2.576687116564415
 49
0.0
 49
-2.576687116564415
 49
0.0
 49
-2.576687116564415
  0
LTYPE
  2
ACAD_ISO14W100
 70
     0
  3
CADPAC LINETYPE
 72
    65
 73
     8
 40
15.46012269938649
 49
5.15337423312883
 49
-2.576687116564415
 49
0.0
 49
-2.576687116564415
 49
0.0
 49
-2.576687116564415
 49
0.0
 49
-2.576687116564415
  0
ENDTAB
  0
TABLE
  2
LAYER
 70
     2
  0
LAYER
  2
0
 70
     0
 62
     7
  6
CONTINUOUS
  0
LAYER
  2
ZUWAKU
 70
     0
 62
     7
  6
CONTINUOUS
  0
ENDTAB
  0
TABLE
  2
STYLE
 70
     5
  0
STYLE
  2
STANDARD
 70
     0
 40
0.0
 41
1.0
 50
0.0
 71
     0
 42
0.2
  3
txt
  4

  0
STYLE
  2
FDASTYLE1
 70
     0
 40
0.0
 41
0.7407407407407407
 50
0.0
 71
     0
 42
0.2
  3
txt.shx
  4
bigfont
  0
STYLE
  2
FDASTYLE0
 70
     4
 40
0.0
 41
0.8
 50
0.0
 71
     0
 42
0.2
  3
txt.shx
  4
bigfont
  0
STYLE
  2
FDASTYLE2
 70
     0
 40
0.0
 41
0.8123476848090983
 50
0.0
 71
     0
 42
0.2
  3
MSMINCHO.TTC
  4

  0
STYLE
  2
FDASTYLE3
 70
     0
 40
0.0
 41
0.77
 50
0.0
 71
     0
 42
0.2
  3
MSGOTHIC.TTC
  4

  0
ENDTAB
  0
TABLE
  2
VIEW
 70
     0
  0
ENDTAB
  0
TABLE
  2
UCS
 70
     0
  0
ENDTAB
  0
TABLE
  2
APPID
 70
     2
  0
APPID
  2
ACAD
 70
     0
  0
APPID
  2
DAFUSIONOUT
 70
     0
  0
ENDTAB
  0
TABLE
  2
DIMSTYLE
 70
     1
  0
DIMSTYLE
  2
STANDARD
 70
     0
  3

  4

  5

  6

  7

 40
1.0
 41
0.18
 42
0.0625
 43
0.38
 44
0.18
 45
0.0
 46
0.0
 47
0.0
 48
0.0
140
0.18
141
0.09
142
0.0
143
25.4
144
1.0
145
0.0
146
1.0
147
0.09
 71
     0
 72
     0
 73
     1
 74
     1
 75
     0
 76
     0
 77
     0
 78
     0
170
     0
171
     2
172
     0
173
     0
174
     0
175
     0
176
     0
177
     0
178
     0
  0
ENDTAB
  0
ENDSEC
  0
SECTION
  2
BLOCKS
  0
BLOCK
  8
0
  2
$MODEL_SPACE
 70
     0
 10
0.0
 20
0.0
 30
0.0
  3
$MODEL_SPACE
  1

  0
ENDBLK
  5
21
  8
0
  0
BLOCK
 67
     1
  8
0
  2
$PAPER_SPACE
 70
     0
 10
0.0
 20
0.0
 30
0.0
  3
$PAPER_SPACE
  1

  0
ENDBLK
  5
1D
 67
     1
  8
0
  0
BLOCK
  8
0
  2
DA_IMAGEDIMGROUP_1
 70
     0
 10
0.0
 20
0.0
 30
0.0
  3
DA_IMAGEDIMGROUP_1
  1

  0
LINE
  5
B4
  8
0
  6
CONTINUOUS
 62
     9
 10
-178.1832325210363
 20
58.38468557906134
 30
0.0
 11
-211.3395651510606
 21
58.38468557906134
 31
0.0
  0
LINE
  5
B5
  8
0
  6
CONTINUOUS
 62
     9
 10
-178.3293878915
 20
26.38468557906133
 30
0.0
 11
-211.3395651510606
 21
26.38468557906133
 31
0.0
  0
LINE
  5
B6
  8
0
  6
CONTINUOUS
 62
     9
 10
-209.8395651510606
 20
26.38468557906133
 30
0.0
 11
-209.8395651510606
 21
58.38468557906134
 31
0.0
  0
INSERT
  5
BD
  8
0
 62
     9
  2
_OPEN30
 10
-209.8395651510606
 20
26.38468557906133
 30
0.0
 41
1.999998407630662
 42
2.000005728319971
 50
270.0
  0
INSERT
  5
BE
  8
0
 62
     9
  2
_OPEN30
 10
-209.8395651510606
 20
58.38468557906134
 30
0.0
 41
1.999998407630662
 42
2.000005728319971
 50
90.0
  0
TEXT
  5
C0
  8
0
 62
     7
 10
-210.8395651510606
 20
34.38468557906134
 30
0.0
 40
4.0
  1
φ32Ｈ8
 50
90.0
 41
0.7407407407407407
  7
FDASTYLE1
 72
     5
 11
-210.8395651510606
 21
50.38468557906134
 31
0.0
  0
ENDBLK
  5
4D
  8
0
  0
BLOCK
  8
0
  2
DA_IMAGEDIMGROUP_2
 70
     0
 10
0.0
 20
0.0
 30
0.0
  3
DA_IMAGEDIMGROUP_2
  1

  0
LINE
  5
C1
  8
0
  6
CONTINUOUS
 62
     9
 10
-221.8395651510606
 20
20.88468557906133
 30
0.0
 11
-221.8395651510606
 21
63.88468557906134
 31
0.0
  0
INSERT
  5
C2
  8
0
 62
     9
  2
_OPEN30
 10
-221.8395651510606
 20
20.88468557906133
 30
0.0
 41
1.999998407630662
 42
2.000005728319971
 50
270.0
  0
INSERT
  5
C3
  8
0
 62
     9
  2
_OPEN30
 10
-221.8395651510606
 20
63.88468557906134
 30
0.0
 41
1.999998407630662
 42
2.000005728319971
 50
90.0
  0
LINE
  5
C4
  8
0
  6
CONTINUOUS
 62
     9
 10
-152.437167942044
 20
20.88468557906133
 30
0.0
 11
-223.3395651510606
 21
20.88468557906133
 31
0.0
  0
LINE
  5
C5
  8
0
  6
CONTINUOUS
 62
     9
 10
-152.7918925055523
 20
63.88468557906134
 30
0.0
 11
-223.3395651510606
 21
63.88468557906134
 31
0.0
  0
TEXT
  5
C6
  8
0
 62
     7
 10
-222.8395651510606
 20
34.38468557906134
 30
0.0
 40
4.0
  1
φ43Ｈ7
 50
90.0
 41
0.7407407407407407
  7
FDASTYLE1
 72
     5
 11
-222.8395651510606
 21
50.38468557906134
 31
0.0
  0
ENDBLK
  5
50
  8
0
  0
BLOCK
  8
0
  2
DA_IMAGEDIMGROUP_3
 70
     0
 10
0.0
 20
0.0
 30
0.0
  3
DA_IMAGEDIMGROUP_3
  1

  0
LINE
  5
C7
  8
0
  6
CONTINUOUS
 62
     9
 10
-233.8395651510606
 20
15.38468557906132
 30
0.0
 11
-233.8395651510606
 21
69.38468557906133
 31
0.0
  0
INSERT
  5
C8
  8
0
 62
     9
  2
_OPEN30
 10
-233.8395651510606
 20
15.38468557906132
 30
0.0
 41
1.999998407630662
 42
2.000005728319971
 50
270.0
  0
INSERT
  5
C9
  8
0
 62
     9
  2
_OPEN30
 10
-233.8395651510606
 20
69.38468557906133
 30
0.0
 41
1.999998407630662
 42
2.000005728319971
 50
90.0
  0
LINE
  5
CA
  8
0
  6
CONTINUOUS
 62
     9
 10
-188.9272046175584
 20
15.38468557906132
 30
0.0
 11
-235.3395651510606
 21
15.38468557906132
 31
0.0
  0
LINE
  5
CB
  8
0
  6
CONTINUOUS
 62
     9
 10
-188.7294703745783
 20
69.38468557906133
 30
0.0
 11
-235.3395651510606
 21
69.38468557906133
 31
0.0
  0
TEXT
  5
CC
  8
0
 62
     7
 10
-234.8395651510606
 20
34.38468557906133
 30
0.0
 40
4.0
  1
φ54H7
 50
90.0
 41
0.7692307692307692
  7
FDASTYLE1
 72
     5
 11
-234.8395651510606
 21
50.38468557906133
 31
0.0
  0
ENDBLK
  5
53
  8
0
  0
BLOCK
  8
0
  2
DA_IMAGEDIMGROUP_4
 70
     0
 10
0.0
 20
0.0
 30
0.0
  3
DA_IMAGEDIMGROUP_4
  1

  0
LINE
  5
CD
  8
0
  6
CONTINUOUS
 62
     9
 10
-245.8395651510606
 20
-27.61531442093868
 30
0.0
 11
-245.8395651510606
 21
112.3846855790613
 31
0.0
  0
INSERT
  5
CE
  8
0
 62
     9
  2
_OPEN30
 10
-245.8395651510606
 20
-27.61531442093868
 30
0.0
 41
1.999998407630662
 42
2.000005728319971
 50
270.0
  0
INSERT
  5
CF
  8
0
 62
     9
  2
_OPEN30
 10
-245.8395651510606
 20
112.3846855790613
 30
0.0
 41
1.999998407630662
 42
2.000005728319971
 50
90.0
  0
LINE
  5
D0
  8
0
  6
CONTINUOUS
 62
     9
 10
-193.1272015658006
 20
-27.61531442093868
 30
0.0
 11
-247.3395651510606
 21
-27.61531442093868
 31
0.0
  0
LINE
  5
D1
  8
0
  6
CONTINUOUS
 62
     9
 10
-193.1272015658006
 20
112.3846855790613
 30
0.0
 11
-247.3395651510606
 21
112.3846855790613
 31
0.0
  0
TEXT
  5
D2
  8
0
 62
     7
 10
-246.8395651510606
 20
32.7846855790613
 30
0.0
 40
4.0
  1
φ140H7
 50
90.0
 41
0.7741935483870974
  7
FDASTYLE1
 72
     5
 11
-246.8395651510606
 21
51.98468557906132
 31
0.0
  0
ENDBLK
  5
56
  8
0
  0
BLOCK
  8
0
  2
DA_IMAGEDIMGROUP_5
 70
     0
 10
0.0
 20
0.0
 30
0.0
  3
DA_IMAGEDIMGROUP_5
  1

  0
LINE
  5
D3
  8
0
  6
CONTINUOUS
 62
     9
 10
-259.3395651510606
 20
-40.11531442093867
 30
0.0
 11
-259.3395651510606
 21
124.8846855790614
 31
0.0
  0
INSERT
  5
D4
  8
0
 62
     9
  2
_OPEN30
 10
-259.3395651510606
 20
-40.11531442093867
 30
0.0
 41
1.999998407630662
 42
2.000005728319971
 50
270.0
  0
INSERT
  5
D5
  8
0
 62
     9
  2
_OPEN30
 10
-259.3395651510606
 20
124.8846855790614
 30
0.0
 41
1.999998407630662
 42
2.000005728319971
 50
90.0
  0
LINE
  5
D6
  8
0
  6
CONTINUOUS
 62
     9
 10
-193.1272015658006
 20
-40.11531442093867
 30
0.0
 11
-260.8395651510606
 21
-40.11531442093867
 31
0.0
  0
LINE
  5
D7
  8
0
  6
CONTINUOUS
 62
     9
 10
-193.1272015658006
 20
124.8846855790614
 30
0.0
 11
-260.8395651510606
 21
124.8846855790614
 31
0.0
  0
TEXT
  5
D8
  8
0
 62
     7
 10
-260.3395651510606
 20
35.98468557906136
 30
0.0
 40
4.0
  1
φ165
 50
90.0
 41
0.7619047619047609
  7
FDASTYLE1
 72
     5
 11
-260.3395651510606
 21
48.78468557906135
 31
0.0
  0
ENDBLK
  5
59
  8
0
  0
BLOCK
  8
0
  2
DA_IMAGEDIMGROUP_6
 70
     0
 10
0.0
 20
0.0
 30
0.0
  3
DA_IMAGEDIMGROUP_6
  1

  0
LINE
  5
D9
  8
0
  6
CONTINUOUS
 62
     9
 10
-208.1272015658006
 20
-15.00031464982051
 30
0.0
 11
-223.4673718591012
 21
-15.00031464982051
 31
0.0
  0
LINE
  5
DA
  8
0
  6
CONTINUOUS
 62
     9
 10
-208.1272015658006
 20
-5.000314649820513
 30
0.0
 11
-223.4673718591012
 21
-5.000314649820513
 31
0.0
  0
LINE
  5
DB
  8
0
  6
CONTINUOUS
 62
     9
 10
-221.9673718591012
 20
-15.00031464982051
 30
0.0
 11
-221.9673718591012
 21
-5.000314649820513
 31
0.0
  0
LINE
  5
DC
  8
0
  6
CONTINUOUS
 62
     9
 10
-221.9673718591012
 20
8.53153535017951
 30
0.0
 11
-221.9673718591012
 21
-5.000314649820513
 31
0.0
  0
INSERT
  5
DD
  8
0
 62
     9
  2
_OPEN30
 10
-221.9673718591012
 20
-5.000314649820513
 30
0.0
 41
1.999998407630662
 42
2.000005728319971
 50
270.0
  0
LINE
  5
DE
  8
0
  6
CONTINUOUS
 62
     9
 10
-221.9673718591012
 20
-20.00031464982051
 30
0.0
 11
-221.9673718591012
 21
-15.00031464982051
 31
0.0
  0
INSERT
  5
DF
  8
0
 62
     9
  2
_OPEN30
 10
-221.9673718591012
 20
-15.00031464982051
 30
0.0
 41
1.999998407630662
 42
2.000005728319971
 50
90.0
  0
TEXT
  5
E0
  8
0
 62
     7
 10
-222.9673718591012
 20
-2.068464649820513
 30
0.0
 40
4.0
  1
M10
 50
90.0
 41
0.7999999999999995
  7
FDASTYLE1
 72
     5
 11
-222.9673718591012
 21
7.531535350179482
 31
0.0
  0
ENDBLK
  5
5C
  8
0
  0
BLOCK
  8
0
  2
DA_IMAGEDIMGROUP_7
 70
     0
 10
0.0
 20
0.0
 30
0.0
  3
DA_IMAGEDIMGROUP_7
  1

  0
LINE
  5
E1
  8
0
  6
CONTINUOUS
 62
     9
 10
-147.1272015658006
 20
-64.6202121950969
 30
0.0
 11
-105.6272015658006
 21
-64.6202121950969
 31
0.0
  0
INSERT
  5
E2
  8
0
 62
     9
  2
_OPEN30
 10
-147.1272015658006
 20
-64.6202121950969
 30
0.0
 41
1.999998407630662
 42
2.000005728319971
 50
180.0
  0
INSERT
  5
E3
  8
0
 62
     9
  2
_OPEN30
 10
-105.6272015658006
 20
-64.6202121950969
 30
0.0
 41
1.999998407630662
 42
2.000005728319971
 50
360.0
  0
LINE
  5
E4
  8
0
  6
CONTINUOUS
 62
     9
 10
-147.1272015658006
 20
-60.06505113641767
 30
0.0
 11
-147.1272015658006
 21
-66.1202121950969
 31
0.0
  0
LINE
  5
E5
  8
0
  6
CONTINUOUS
 62
     9
 10
-105.6272015658006
 20
-40.11530935650144
 30
0.0
 11
-105.6272015658006
 21
-66.1202121950969
 31
0.0
  0
TEXT
  5
E6
  8
0
 62
     7
 10
-132.7772015658006
 20
-63.6202121950969
 30
0.0
 40
4.0
  1
41.5
 41
0.8000000000000007
  7
FDASTYLE1
 72
     5
 11
-119.9772015658006
 21
-63.6202121950969
 31
0.0
  0
ENDBLK
  5
5F
  8
0
  0
BLOCK
  8
0
  2
DA_IMAGEDIMGROUP_8
 70
     0
 10
0.0
 20
0.0
 30
0.0
  3
DA_IMAGEDIMGROUP_8
  1

  0
LINE
  5
E7
  8
0
  6
CONTINUOUS
 62
     9
 10
-191.6272015658006
 20
-41.61531442093867
 30
0.0
 11
-191.6272015658006
 21
-79.66995781569277
 31
0.0
  0
LINE
  5
E8
  8
0
  6
CONTINUOUS
 62
     9
 10
-187.6272046175584
 20
-29.11531442093868
 30
0.0
 11
-187.6272046175584
 21
-79.66995781569277
 31
0.0
  0
LINE
  5
E9
  8
0
  6
CONTINUOUS
 62
     9
 10
-191.6272015658006
 20
-78.16995781569277
 30
0.0
 11
-187.6272046175584
 21
-78.16995781569277
 31
0.0
  0
LINE
  5
EA
  8
0
  6
CONTINUOUS
 62
     9
 10
-105.6272015658006
 20
-40.11530935650144
 30
0.0
 11
-105.6272015658006
 21
-79.66995781569277
 31
0.0
  0
LINE
  5
EB
  8
0
  6
CONTINUOUS
 62
     9
 10
-187.6272046175584
 20
-78.16995781569277
 30
0.0
 11
-105.6272015658006
 21
-78.16995781569277
 31
0.0
  0
INSERT
  5
EC
  8
0
 62
     9
  2
_OPEN30
 10
-187.6272046175584
 20
-78.16995781569277
 30
0.0
 41
1.999998407630662
 42
2.000005728319971
 50
180.0
  0
INSERT
  5
ED
  8
0
 62
     9
  2
_OPEN30
 10
-105.6272015658006
 20
-78.16995781569277
 30
0.0
 41
1.999998407630662
 42
2.000005728319971
 50
360.0
  0
LINE
  5
EE
  8
0
  6
CONTINUOUS
 62
     9
 10
-198.7590515658006
 20
-78.16995781569277
 30
0.0
 11
-191.6272015658006
 21
-78.16995781569277
 31
0.0
  0
INSERT
  5
EF
  8
0
 62
     9
  2
_OPEN30
 10
-191.6272015658006
 20
-78.16995781569277
 30
0.0
 41
1.999998407630662
 42
2.000005728319971
 50
360.0
  0
TEXT
  5
F0
  8
0
 62
     7
 10
-197.7590515658006
 20
-77.16995781569277
 30
0.0
 40
4.0
  1
4
 41
0.7999999999999972
  7
FDASTYLE1
 72
     5
 11
-194.5590515658006
 21
-77.16995781569277
 31
0.0
  0
TEXT
  5
F1
  8
0
 62
     7
 10
-149.8272030916795
 20
-77.16995781569277
 30
0.0
 40
4.0
  1
82
 41
0.7999999999999972
  7
FDASTYLE1
 72
     5
 11
-143.4272030916795
 21
-77.16995781569277
 31
0.0
  0
ENDBLK
  5
62
  8
0
  0
BLOCK
  8
0
  2
DA_IMAGEDIMGROUP_9
 70
     0
 10
0.0
 20
0.0
 30
0.0
  3
DA_IMAGEDIMGROUP_9
  1

  0
LINE
  5
F2
  8
0
  6
CONTINUOUS
 62
     9
 10
-187.6272046175584
 20
-29.11531442093868
 30
0.0
 11
-187.6272046175584
 21
-54.93616904984462
 31
0.0
  0
LINE
  5
F3
  8
0
  6
CONTINUOUS
 62
     9
 10
-206.6272015658006
 20
-16.50031464982051
 30
0.0
 11
-206.6272015658006
 21
-54.93616904984462
 31
0.0
  0
LINE
  5
F4
  8
0
  6
CONTINUOUS
 62
     9
 10
-151.6272015658006
 20
19.38468557906133
 30
0.0
 11
-151.6271937464467
 21
-54.93616904984462
 31
0.0
  0
LINE
  5
F5
  8
0
  6
CONTINUOUS
 62
     9
 10
-206.6272015658006
 20
-53.43616904984462
 30
0.0
 11
-187.6272046175584
 21
-53.43616904984462
 31
0.0
  0
INSERT
  5
F6
  8
0
 62
     9
  2
_OPEN30
 10
-206.6272015658006
 20
-53.43616904984462
 30
0.0
 41
1.999998407630662
 42
2.000005728319971
 50
180.0
  0
INSERT
  5
F7
  8
0
 62
     9
  2
_OPEN30
 10
-187.6272046175584
 20
-53.43616904984462
 30
0.0
 41
1.999998407630662
 42
2.000005728319971
 50
360.0
  0
LINE
  5
F8
  8
0
  6
CONTINUOUS
 62
     9
 10
-187.6272046175584
 20
-53.43616904984462
 30
0.0
 11
-151.6271937464467
 21
-53.43616904984462
 31
0.0
  0
INSERT
  5
F9
  8
0
 62
     9
  2
_OPEN30
 10
-187.6272046175584
 20
-53.43616904984462
 30
0.0
 41
1.999998407630662
 42
2.000005728319971
 50
180.0
  0
INSERT
  5
FA
  8
0
 62
     9
  2
_OPEN30
 10
-151.6271937464467
 20
-53.43616904984462
 30
0.0
 41
1.999998407630662
 42
2.000005728319971
 50
360.0
  0
TEXT
  5
FB
  8
0
 62
     7
 10
-200.3272030916795
 20
-52.43616904984462
 30
0.0
 40
4.0
  1
19
 41
0.7999999999999972
  7
FDASTYLE1
 72
     5
 11
-193.9272030916795
 21
-52.43616904984462
 31
0.0
  0
TEXT
  5
FC
  8
0
 62
     7
 10
-177.6271991820026
 20
-52.43616904984462
 30
0.0
 40
4.0
  1
MAX46
 41
0.8
  7
FDASTYLE1
 72
     5
 11
-161.6271991820026
 21
-52.43616904984462
 31
0.0
  0
ENDBLK
  5
65
  8
0
  0
BLOCK
  8
0
  2
DA_IMAGEDIMGROUP_10
 70
     0
 10
0.0
 20
0.0
 30
0.0
  3
DA_IMAGEDIMGROUP_10
  1

  0
LINE
  5
FD
  8
0
  6
CONTINUOUS
 62
     9
 10
-177.6272015658006
 20
33.30991357842805
 30
0.0
 11
-151.6272015658006
 21
33.30991357842805
 31
0.0
  0
INSERT
  5
FE
  8
0
 62
     9
  2
_OPEN30
 10
-177.6272015658006
 20
33.30991357842805
 30
0.0
 41
1.999998407630662
 42
2.000005728319971
 50
180.0
  0
INSERT
  5
FF
  8
0
 62
     9
  2
_OPEN30
 10
-151.6272015658006
 20
33.30991357842805
 30
0.0
 41
1.999998407630662
 42
2.000005728319971
 50
360.0
  0
LINE
  5
100
  8
0
  6
CONTINUOUS
 62
     9
 10
-151.6272015658006
 20
33.30991357842805
 30
0.0
 11
-143.6272015658006
 21
33.30991357842805
 31
0.0
  0
INSERT
  5
101
  8
0
 62
     9
  2
_OPEN30
 10
-151.6272015658006
 20
33.30991357842805
 30
0.0
 41
1.999998407630662
 42
2.000005728319971
 50
180.0
  0
INSERT
  5
102
  8
0
 62
     9
  2
_OPEN30
 10
-143.6272015658006
 20
33.30991357842805
 30
0.0
 41
1.999998407630662
 42
2.000005728319971
 50
360.0
  0
LINE
  5
103
  8
0
  6
CONTINUOUS
 62
     9
 10
-143.6272015658006
 20
33.30991357842805
 30
0.0
 11
-132.6272015658006
 21
33.30991357842805
 31
0.0
  0
INSERT
  5
104
  8
0
 62
     9
  2
_OPEN30
 10
-143.6272015658006
 20
33.30991357842805
 30
0.0
 41
1.999998407630662
 42
2.000005728319971
 50
180.0
  0
INSERT
  5
105
  8
0
 62
     9
  2
_OPEN30
 10
-132.6272015658006
 20
33.30991357842805
 30
0.0
 41
1.999998407630662
 42
2.000005728319971
 50
360.0
  0
TEXT
  5
106
  8
0
 62
     7
 10
-167.8272015658006
 20
34.30991357842805
 30
0.0
 40
4.0
  1
26
 41
0.7999999999999972
  7
FDASTYLE1
 72
     5
 11
-161.4272015658006
 21
34.30991357842805
 31
0.0
  0
TEXT
  5
107
  8
0
 62
     7
 10
-149.2272015658006
 20
34.30991357842805
 30
0.0
 40
4.0
  1
8
 41
0.7999999999999972
  7
FDASTYLE1
 72
     5
 11
-146.0272015658006
 21
34.30991357842805
 31
0.0
  0
TEXT
  5
108
  8
0
 62
     7
 10
-141.3272015658006
 20
34.30991357842805
 30
0.0
 40
4.0
  1
11
 41
0.7999999999999972
  7
FDASTYLE1
 72
     5
 11
-134.9272015658006
 21
34.30991357842805
 31
0.0
  0
ENDBLK
  5
68
  8
0
  0
BLOCK
  8
0
  2
DA_IMAGEDIMGROUP_11
 70
     0
 10
0.0
 20
0.0
 30
0.0
  3
DA_IMAGEDIMGROUP_11
  1

  0
LINE
  5
109
  8
0
  6
CONTINUOUS
 62
     9
 10
136.9895164049187
 20
137.7212877453795
 30
0.0
 11
166.9895155108491
 21
137.7212877453795
 31
0.0
  0
INSERT
  5
10A
  8
0
 62
     9
  2
_OPEN30
 10
136.9895164049187
 20
137.7212877453795
 30
0.0
 41
1.999998407630662
 42
2.000005728319971
 50
180.0
  0
INSERT
  5
10B
  8
0
 62
     9
  2
_OPEN30
 10
166.9895155108491
 20
137.7212877453795
 30
0.0
 41
1.999998407630662
 42
2.000005728319971
 50
360.0
  0
LINE
  5
10C
  8
0
  6
CONTINUOUS
 62
     9
 10
136.9895164049187
 20
137.5301980685566
 30
0.0
 11
136.9895164049187
 21
139.2212877453795
 31
0.0
  0
LINE
  5
10D
  8
0
  6
CONTINUOUS
 62
     9
 10
166.9895155108491
 20
111.0618837179609
 30
0.0
 11
166.9895155108491
 21
139.2212877453795
 31
0.0
  0
TEXT
  5
10E
  8
0
 62
     7
 10
148.7895159578839
 20
138.7212877453795
 30
0.0
 40
4.0
  1
30
 41
0.7999999999999972
  7
FDASTYLE1
 72
     5
 11
155.1895159578839
 21
138.7212877453795
 31
0.0
  0
ENDBLK
  5
6B
  8
0
  0
BLOCK
  8
0
  2
DA_IMAGEDIMGROUP_12
 70
     0
 10
0.0
 20
0.0
 30
0.0
  3
DA_IMAGEDIMGROUP_12
  1

  0
LINE
  5
10F
  8
0
  6
CONTINUOUS
 62
     9
 10
131.4895203835287
 20
146.7212877453795
 30
0.0
 11
142.4895124263089
 21
146.7212877453795
 31
0.0
  0
LINE
  5
110
  8
0
  6
CONTINUOUS
 62
     9
 10
131.4895203835287
 20
131.3846980686013
 30
0.0
 11
131.4895203835287
 21
148.2212877453795
 31
0.0
  0
LINE
  5
111
  8
0
  6
CONTINUOUS
 62
     9
 10
142.4895124263089
 20
131.3846980686013
 30
0.0
 11
142.4895124263089
 21
148.2212877453795
 31
0.0
  0
LINE
  5
112
  8
0
  6
CONTINUOUS
 62
     9
 10
175.6786822807102
 20
146.7212877453795
 30
0.0
 11
142.4895124263089
 21
146.7212877453795
 31
0.0
  0
INSERT
  5
113
  8
0
 62
     9
  2
_OPEN30
 10
142.4895124263089
 20
146.7212877453795
 30
0.0
 41
1.999998407630662
 42
2.000005728319971
 50
180.0
  0
LINE
  5
114
  8
0
  6
CONTINUOUS
 62
     9
 10
126.4895203835287
 20
146.7212877453795
 30
0.0
 11
131.4895203835287
 21
146.7212877453795
 31
0.0
  0
INSERT
  5
115
  8
0
 62
     9
  2
_OPEN30
 10
131.4895203835287
 20
146.7212877453795
 30
0.0
 41
1.999998407630662
 42
2.000005728319971
 50
360.0
  0
TEXT
  5
116
  8
0
 62
     7
 10
161.8786822807102
 20
147.7212877453795
 30
0.0
 40
4.0
  1
11H8
 41
0.8000000000000007
  7
FDASTYLE1
 72
     5
 11
174.6786822807102
 21
147.7212877453795
 31
0.0
  0
ENDBLK
  5
6E
  8
0
  0
BLOCK
  8
0
  2
DA_IMAGEDIMGROUP_13
 70
     0
 10
0.0
 20
0.0
 30
0.0
  3
DA_IMAGEDIMGROUP_13
  1

  0
LINE
  5
117
  8
0
  6
CONTINUOUS
 62
     9
 10
-105.6272015658006
 20
159.5734706649557
 30
0.0
 11
-103.6272061255558
 21
159.5734706649557
 31
0.0
  0
LINE
  5
118
  8
0
  6
CONTINUOUS
 62
     9
 10
-105.6272015658006
 20
122.8325978063649
 30
0.0
 11
-105.6272015658006
 21
161.0734706649557
 31
0.0
  0
LINE
  5
119
  8
0
  6
CONTINUOUS
 62
     9
 10
-103.6272061255558
 20
131.8846932084559
 30
0.0
 11
-103.6272061255558
 21
161.0734706649557
 31
0.0
  0
LINE
  5
11A
  8
0
  6
CONTINUOUS
 62
     9
 10
-145.5195299441059
 20
159.5734706649557
 30
0.0
 11
-105.6272015658006
 21
159.5734706649557
 31
0.0
  0
INSERT
  5
11B
  8
0
 62
     9
  2
_OPEN30
 10
-105.6272015658006
 20
159.5734706649557
 30
0.0
 41
1.999998407630662
 42
2.000005728319971
 50
360.0
  0
LINE
  5
11C
  8
0
  6
CONTINUOUS
 62
     9
 10
-98.62720612555579
 20
159.5734706649557
 30
0.0
 11
-103.6272061255558
 21
159.5734706649557
 31
0.0
  0
INSERT
  5
11D
  8
0
 62
     9
  2
_OPEN30
 10
-103.6272061255558
 20
159.5734706649557
 30
0.0
 41
1.999998407630662
 42
2.000005728319971
 50
180.0
  0
TEXT
  5
11E
  8
0
 62
     7
 10
-144.5195299441059
 20
160.5734706649557
 30
0.0
 40
4.0
  1
2(チャック上面から）
 41
0.6875000000000001
  7
FDASTYLE1
 72
     5
 11
-109.3195299441059
 21
160.5734706649557
 31
0.0
  0
ENDBLK
  5
71
  8
0
  0
BLOCK
  8
0
  2
DA_IMAGEDIMGROUP_14
 70
     0
 10
0.0
 20
0.0
 30
0.0
  3
DA_IMAGEDIMGROUP_14
  1

  0
LINE
  5
11F
  8
0
  6
CONTINUOUS
 62
     9
 10
-76.35681877209309
 20
19.38468557906133
 30
0.0
 11
-76.35681877209309
 21
65.38468557906134
 31
0.0
  0
INSERT
  5
120
  8
0
 62
     9
  2
_OPEN30
 10
-76.35681877209309
 20
19.38468557906133
 30
0.0
 41
1.999998407630662
 42
2.000005728319971
 50
270.0
  0
INSERT
  5
121
  8
0
 62
     9
  2
_OPEN30
 10
-76.35681877209309
 20
65.38468557906134
 30
0.0
 41
1.999998407630662
 42
2.000005728319971
 50
90.0
  0
LINE
  5
122
  8
0
  6
CONTINUOUS
 62
     9
 10
-131.8631432585588
 20
19.38468557906133
 30
0.0
 11
-74.85681877209309
 21
19.38468557906133
 31
0.0
  0
LINE
  5
123
  8
0
  6
CONTINUOUS
 62
     9
 10
-132.0996263008977
 20
65.38468557906134
 30
0.0
 11
-74.85681877209309
 21
65.38468557906134
 31
0.0
  0
TEXT
  5
124
  8
0
 62
     7
 10
-77.35681877209309
 20
27.98468557906134
 30
0.0
 40
4.0
  1
M46×P1.25
 50
90.0
 41
0.7826086956521741
  7
FDASTYLE1
 72
     5
 11
-77.35681877209309
 21
56.78468557906134
 31
0.0
  0
ENDBLK
  5
74
  8
0
  0
BLOCK
  8
0
  2
DA_IMAGEDIMGROUP_15
 70
     0
 10
0.0
 20
0.0
 30
0.0
  3
DA_IMAGEDIMGROUP_15
  1

  0
LINE
  5
125
  8
0
  6
CONTINUOUS
 62
     9
 10
-64.35681877209309
 20
9.384686055898481
 30
0.0
 11
-64.35681877209309
 21
58.81094280285851
 31
0.0
  0
INSERT
  5
126
  8
0
 62
     9
  2
_OPEN30
 10
-64.35681877209309
 20
9.384686055898481
 30
0.0
 41
1.999998407630662
 42
2.000005728319971
 50
270.0
  0
LINE
  5
127
  8
0
  6
CONTINUOUS
 62
     9
 10
-104.1272015658006
 20
9.384686055898481
 30
0.0
 11
-62.85681877209309
 21
9.384686055898481
 31
0.0
  0
TEXT
  5
128
  8
0
 62
     7
 10
-65.85681877209309
 20
34.38468557906133
 30
0.0
 40
4.0
  1
φ66H7
 50
90.0
 41
0.7692307692307692
  7
FDASTYLE1
 72
     5
 11
-65.85681877209309
 21
50.38468557906133
 31
0.0
  0
ENDBLK
  5
77
  8
0
  0
BLOCK
  8
0
  2
DA_IMAGEDIMGROUP_16
 70
     0
 10
0.0
 20
0.0
 30
0.0
  3
DA_IMAGEDIMGROUP_16
  1

  0
LINE
  5
129
  8
0
  6
CONTINUOUS
 62
     9
 10
-102.1272061255558
 20
73.88468557906133
 30
0.0
 11
-74.85681877209309
 21
73.88468557906133
 31
0.0
  0
LINE
  5
12A
  8
0
  6
CONTINUOUS
 62
     9
 10
-83.6689491174191
 20
86.88468557906133
 30
0.0
 11
-74.85681877209309
 21
86.88468557906133
 31
0.0
  0
LINE
  5
12B
  8
0
  6
CONTINUOUS
 62
     9
 10
-83.50046675335717
 20
111.8846855790613
 30
0.0
 11
-74.85681877209309
 21
111.8846855790613
 31
0.0
  0
LINE
  5
12C
  8
0
  6
CONTINUOUS
 62
     9
 10
-76.35681877209309
 20
73.88468557906133
 30
0.0
 11
-76.35681877209309
 21
86.88468557906133
 31
0.0
  0
INSERT
  5
12D
  8
0
 62
     9
  2
_OPEN30
 10
-76.35681877209309
 20
73.88468557906133
 30
0.0
 41
1.999998407630662
 42
2.000005728319971
 50
270.0
  0
INSERT
  5
12E
  8
0
 62
     9
  2
_OPEN30
 10
-76.35681877209309
 20
86.88468557906133
 30
0.0
 41
1.999998407630662
 42
2.000005728319971
 50
90.0
  0
LINE
  5
12F
  8
0
  6
CONTINUOUS
 62
     9
 10
-76.35681877209309
 20
86.88468557906133
 30
0.0
 11
-76.35681877209309
 21
111.8846855790613
 31
0.0
  0
INSERT
  5
130
  8
0
 62
     9
  2
_OPEN30
 10
-76.35681877209309
 20
86.88468557906133
 30
0.0
 41
1.999998407630662
 42
2.000005728319971
 50
270.0
  0
INSERT
  5
131
  8
0
 62
     9
  2
_OPEN30
 10
-76.35681877209309
 20
111.8846855790613
 30
0.0
 41
1.999998407630662
 42
2.000005728319971
 50
90.0
  0
TEXT
  5
132
  8
0
 62
     7
 10
-77.35681877209309
 20
78.78468557906133
 30
0.0
 40
4.0
  1
8
 50
90.0
 41
0.7999999999999972
  7
FDASTYLE1
 72
     5
 11
-77.35681877209309
 21
81.98468557906132
 31
0.0
  0
TEXT
  5
133
  8
0
 62
     7
 10
-77.35681877209309
 20
96.18468557906132
 30
0.0
 40
4.0
  1
25
 50
90.0
 41
0.8000000000000007
  7
FDASTYLE1
 72
     5
 11
-77.35681877209309
 21
102.5846855790613
 31
0.0
  0
ENDBLK
  5
7A
  8
0
  0
BLOCK
  8
0
  2
DA_IMAGEDIMGROUP_17
 70
     0
 10
0.0
 20
0.0
 30
0.0
  3
DA_IMAGEDIMGROUP_17
  1

  0
LINE
  5
134
  8
0
  6
CONTINUOUS
 62
     9
 10
-52.35681877209309
 20
73.88468557906133
 30
0.0
 11
-52.35681877209309
 21
130.8846932084559
 31
0.0
  0
INSERT
  5
135
  8
0
 62
     9
  2
_OPEN30
 10
-52.35681877209309
 20
73.88468557906133
 30
0.0
 41
1.999998407630662
 42
2.000005728319971
 50
270.0
  0
INSERT
  5
136
  8
0
 62
     9
  2
_OPEN30
 10
-52.35681877209309
 20
130.8846932084559
 30
0.0
 41
1.999998407630662
 42
2.000005728319971
 50
90.0
  0
LINE
  5
137
  8
0
  6
CONTINUOUS
 62
     9
 10
-102.1272061255558
 20
73.88468557906133
 30
0.0
 11
-50.85681877209309
 21
73.88468557906133
 31
0.0
  0
LINE
  5
138
  8
0
  6
CONTINUOUS
 62
     9
 10
-102.1272061255558
 20
130.8846932084559
 30
0.0
 11
-50.85681877209309
 21
130.8846932084559
 31
0.0
  0
TEXT
  5
139
  8
0
 62
     7
 10
-53.35681877209309
 20
99.1846893937586
 30
0.0
 40
4.0
  1
57
 50
90.0
 41
0.8000000000000007
  7
FDASTYLE1
 72
     5
 11
-53.35681877209309
 21
105.5846893937586
 31
0.0
  0
ENDBLK
  5
7D
  8
0
  0
BLOCK
  8
0
  2
DA_IMAGEDIMGROUP_18
 70
     0
 10
0.0
 20
0.0
 30
0.0
  3
DA_IMAGEDIMGROUP_18
  1

  0
LINE
  5
13A
  8
0
  6
CONTINUOUS
 62
     9
 10
-191.6272015658006
 20
-90.79585714397526
 30
0.0
 11
-105.6272015658006
 21
-90.79585714397526
 31
0.0
  0
INSERT
  5
13B
  8
0
 62
     9
  2
_OPEN30
 10
-191.6272015658006
 20
-90.79585714397526
 30
0.0
 41
1.999998407630662
 42
2.000005728319971
 50
180.0
  0
INSERT
  5
13C
  8
0
 62
     9
  2
_OPEN30
 10
-105.6272015658006
 20
-90.79585714397526
 30
0.0
 41
1.999998407630662
 42
2.000005728319971
 50
360.0
  0
LINE
  5
13D
  8
0
  6
CONTINUOUS
 62
     9
 10
-191.6272015658006
 20
-41.61531442093867
 30
0.0
 11
-191.6272015658006
 21
-92.29585714397526
 31
0.0
  0
LINE
  5
13E
  8
0
  6
CONTINUOUS
 62
     9
 10
-105.6272015658006
 20
-40.11530935650144
 30
0.0
 11
-105.6272015658006
 21
-92.29585714397526
 31
0.0
  0
TEXT
  5
13F
  8
0
 62
     7
 10
-151.8272015658006
 20
-89.79585714397526
 30
0.0
 40
4.0
  1
86
 41
0.7999999999999972
  7
FDASTYLE1
 72
     5
 11
-145.4272015658006
 21
-89.79585714397526
 31
0.0
  0
ENDBLK
  5
80
  8
0
  0
BLOCK
  8
0
  2
DC_GROUP_1
 70
     0
 10
0.0
 20
0.0
 30
0.0
  3
DC_GROUP_1
  1

  0
LINE
  5
140
  8
0
  6
CONTINUOUS
 62
     7
 10
-147.1272015658006
 20
-40.23019823310987
 30
0.0
 11
-118.0854393773489
 21
-103.6189544480982
 31
0.0
  0
INSERT
  5
141
  8
0
 62
     7
  2
_OPEN30
 10
-147.1272015658006
 20
-40.23019823310987
 30
0.0
 41
1.999998407630662
 42
2.000005728319971
 50
114.6150355524699
  0
LINE
  5
142
  8
0
  6
CONTINUOUS
 62
     7
 10
-118.0854393773489
 20
-103.6189544480982
 30
0.0
 11
-101.1574429130976
 21
-103.6189544480982
 31
0.0
  0
TEXT
  5
143
  8
0
 62
     7
 10
-118.0854393773489
 20
-103.6189544480982
 30
0.0
 40
4.0
  1
M8×16
 41
0.7692307692307692
  7
FDASTYLE1
 72
     5
 11
-102.0854393773489
 21
-103.6189544480982
 31
0.0
  0
ENDBLK
  5
83
  8
0
  0
BLOCK
  8
0
  2
DC_GROUP_2
 70
     0
 10
0.0
 20
0.0
 30
0.0
  3
DC_GROUP_2
  1

  0
LINE
  5
144
  8
0
  6
CONTINUOUS
 62
     7
 10
-103.6272061255558
 20
123.9487293957424
 30
0.0
 11
-74.82218708242459
 21
163.7966491035724
 31
0.0
  0
INSERT
  5
145
  8
0
 62
     7
  2
_OPEN30
 10
-103.6272061255558
 20
123.9487293957424
 30
0.0
 41
1.999998407630662
 42
2.000005728319971
 50
234.1378177844613
  0
LINE
  5
146
  8
0
  6
CONTINUOUS
 62
     7
 10
-74.82218708242459
 20
163.7966491035724
 30
0.0
 11
-31.72423265513758
 21
163.7966491035724
 31
0.0
  0
TEXT
  5
147
  8
0
 62
     7
 10
-74.82218708242459
 20
163.7966491035724
 30
0.0
 40
4.0
  1
セレーションP1.5山60°
 41
0.7179487179487181
  7
FDASTYLE1
 72
     5
 11
-30.02218708242459
 21
163.7966491035724
 31
0.0
  0
ENDBLK
  5
86
  8
0
  0
BLOCK
  8
0
  2
DA_IMAGEDIMGROUP_19
 70
     0
 10
0.0
 20
0.0
 30
0.0
  3
DA_IMAGEDIMGROUP_19
  1

  0
LINE
  5
148
  8
0
  6
CONTINUOUS
 62
     9
 10
-177.6272015658006
 20
70.38468557906133
 30
0.0
 11
-177.6272015658006
 21
161.0734706649557
 31
0.0
  0
LINE
  5
149
  8
0
  6
CONTINUOUS
 62
     9
 10
-187.6272046175584
 20
113.8846855790613
 30
0.0
 11
-187.6272046175584
 21
161.0734706649557
 31
0.0
  0
LINE
  5
14A
  8
0
  6
CONTINUOUS
 62
     9
 10
-187.6272046175584
 20
159.5734706649557
 30
0.0
 11
-177.6272015658006
 21
159.5734706649557
 31
0.0
  0
LINE
  5
14B
  8
0
  6
CONTINUOUS
 62
     9
 10
-207.5590546175584
 20
159.5734706649557
 30
0.0
 11
-187.6272046175584
 21
159.5734706649557
 31
0.0
  0
INSERT
  5
14C
  8
0
 62
     9
  2
_OPEN30
 10
-187.6272046175584
 20
159.5734706649557
 30
0.0
 41
1.999998407630662
 42
2.000005728319971
 50
360.0
  0
LINE
  5
14D
  8
0
  6
CONTINUOUS
 62
     9
 10
-172.6272015658006
 20
159.5734706649557
 30
0.0
 11
-177.6272015658006
 21
159.5734706649557
 31
0.0
  0
INSERT
  5
14E
  8
0
 62
     9
  2
_OPEN30
 10
-177.6272015658006
 20
159.5734706649557
 30
0.0
 41
1.999998407630662
 42
2.000005728319971
 50
180.0
  0
TEXT
  5
14F
  8
0
 62
     7
 10
-206.5590546175584
 20
160.5734706649557
 30
0.0
 40
4.0
  1
MAX20
 41
0.8
  7
FDASTYLE1
 72
     5
 11
-190.5590546175584
 21
160.5734706649557
 31
0.0
  0
ENDBLK
  5
89
  8
0
  0
BLOCK
  8
0
  2
DA_IMAGEDIMGROUP_20
 70
     0
 10
0.0
 20
0.0
 30
0.0
  3
DA_IMAGEDIMGROUP_20
  1

  0
LINE
  5
150
  8
0
  6
CONTINUOUS
 62
     9
 10
-108.1272015658006
 20
25.09962999908148
 30
0.0
 11
-105.6272015658006
 21
25.09962999908148
 31
0.0
  0
LINE
  5
151
  8
0
  6
CONTINUOUS
 62
     9
 10
-92.09535156580057
 20
25.09962999908148
 30
0.0
 11
-105.6272015658006
 21
25.09962999908148
 31
0.0
  0
INSERT
  5
152
  8
0
 62
     9
  2
_OPEN30
 10
-105.6272015658006
 20
25.09962999908148
 30
0.0
 41
1.999998407630662
 42
2.000005728319971
 50
180.0
  0
LINE
  5
153
  8
0
  6
CONTINUOUS
 62
     9
 10
-113.1272015658006
 20
25.09962999908148
 30
0.0
 11
-108.1272015658006
 21
25.09962999908148
 31
0.0
  0
INSERT
  5
154
  8
0
 62
     9
  2
_OPEN30
 10
-108.1272015658006
 20
25.09962999908148
 30
0.0
 41
1.999998407630662
 42
2.000005728319971
 50
360.0
  0
TEXT
  5
155
  8
0
 62
     7
 10
-102.6953515658006
 20
26.09962999908148
 30
0.0
 40
4.0
  1
2.5
 41
0.8000000000000007
  7
FDASTYLE1
 72
     5
 11
-93.09535156580057
 21
26.09962999908148
 31
0.0
  0
ENDBLK
  5
8C
  8
0
  0
BLOCK
  8
0
  2
DA_IMAGEDIMGROUP_21
 70
     0
 10
0.0
 20
0.0
 30
0.0
  3
DA_IMAGEDIMGROUP_21
  1

  0
LINE
  5
156
  8
0
  6
CONTINUOUS
 62
     9
 10
113.9895018315834
 20
128.9731304524834
 30
0.0
 11
113.9895018315834
 21
166.3060445653182
 31
0.0
  0
LINE
  5
157
  8
0
  6
CONTINUOUS
 62
     9
 10
159.9895195341624
 20
128.9731304524834
 30
0.0
 11
159.9895195341624
 21
166.3060445653182
 31
0.0
  0
LINE
  5
158
  8
0
  6
CONTINUOUS
 62
     9
 10
113.9895018315834
 20
164.8060445653182
 30
0.0
 11
159.9895195341624
 21
164.8060445653182
 31
0.0
  0
INSERT
  5
159
  8
0
 62
     9
  2
_OPEN30
 10
113.9895018315834
 20
164.8060445653182
 30
0.0
 41
1.999998407630662
 42
2.000005728319971
 50
180.0
  0
INSERT
  5
15A
  8
0
 62
     9
  2
_OPEN30
 10
159.9895195341624
 20
164.8060445653182
 30
0.0
 41
1.999998407630662
 42
2.000005728319971
 50
360.0
  0
TEXT
  5
15B
  8
0
 62
     7
 10
133.7895106828729
 20
165.8060445653182
 30
0.0
 40
4.0
  1
46
 41
0.7999999999999972
  7
FDASTYLE1
 72
     5
 11
140.1895106828729
 21
165.8060445653182
 31
0.0
  0
ENDBLK
  5
8F
  8
0
  0
BLOCK
  8
0
  2
DC_GROUP_3
 70
     0
 10
0.0
 20
0.0
 30
0.0
  3
DC_GROUP_3
  1

  0
LINE
  5
15C
  8
0
  6
CONTINUOUS
 62
     9
 10
-101.6272061255558
 20
119.8846855790614
 30
0.0
 11
-64.19671383861409
 21
119.8846855790614
 31
0.0
  0
LINE
  5
15D
  8
0
  6
CONTINUOUS
 62
     9
 10
-101.6272061255558
 20
78.88468557906133
 30
0.0
 11
-82.18653383325749
 21
78.88468557906133
 31
0.0
  0
LINE
  5
15E
  8
0
  6
CONTINUOUS
 62
     9
 10
-70.64867100107429
 20
78.88468557906133
 30
0.0
 11
-64.19671383861409
 21
78.88468557906133
 31
0.0
  0
LINE
  5
15F
  8
0
  6
CONTINUOUS
 62
     9
 10
-65.19671383861409
 20
78.88468557906133
 30
0.0
 11
-65.19671383861409
 21
119.8846855790614
 31
0.0
  0
INSERT
  5
160
  8
0
 62
     9
  2
_OPEN30
 10
-65.19671383861409
 20
78.88468557906133
 30
0.0
 41
1.999998407630662
 42
2.000005728319971
 50
270.0
  0
INSERT
  5
161
  8
0
 62
     9
  2
_OPEN30
 10
-65.19671383861409
 20
119.8846855790614
 30
0.0
 41
1.999998407630662
 42
2.000005728319971
 50
90.0
  0
TEXT
  5
162
  8
0
 62
     7
 10
-66.19671383861409
 20
96.18468557906134
 30
0.0
 40
4.0
  1
41
 50
90.0
 41
0.8000000000000007
  7
FDASTYLE1
 72
     5
 11
-66.19671383861409
 21
102.5846855790613
 31
0.0
  0
ENDBLK
  5
92
  8
0
  0
BLOCK
  8
0
  2
DC_GROUP_4
 70
     0
 10
0.0
 20
0.0
 30
0.0
  3
DC_GROUP_4
  1

  0
LINE
  5
163
  8
0
  6
CONTINUOUS
 62
     9
 10
121.4895130521575
 20
130.4827628915073
 30
0.0
 11
121.4895130521575
 21
156.8129882811061
 31
0.0
  0
LINE
  5
164
  8
0
  6
CONTINUOUS
 62
     9
 10
152.4895197576798
 20
130.4827438047176
 30
0.0
 11
152.4895197576798
 21
136.5785209792654
 31
0.0
  0
LINE
  5
165
  8
0
  6
CONTINUOUS
 62
     9
 10
152.4895197576798
 20
143.5243008382635
 30
0.0
 11
152.4895197576798
 21
156.8129882811061
 31
0.0
  0
LINE
  5
166
  8
0
  6
CONTINUOUS
 62
     9
 10
121.4895130521575
 20
155.8129882811061
 30
0.0
 11
152.4895197576798
 21
155.8129882811061
 31
0.0
  0
INSERT
  5
167
  8
0
 62
     9
  2
_OPEN30
 10
121.4895130521575
 20
155.8129882811061
 30
0.0
 41
1.999998407630662
 42
2.000005728319971
 50
180.0
  0
INSERT
  5
168
  8
0
 62
     9
  2
_OPEN30
 10
152.4895197576798
 20
155.8129882811061
 30
0.0
 41
1.999998407630662
 42
2.000005728319971
 50
360.0
  0
TEXT
  5
169
  8
0
 62
     7
 10
133.7895164049187
 20
156.8129882811061
 30
0.0
 40
4.0
  1
31
 41
0.7999999999999972
  7
FDASTYLE1
 72
     5
 11
140.1895164049186
 21
156.8129882811061
 31
0.0
  0
ENDBLK
  5
95
  8
0
  0
BLOCK
  8
0
  2
DC_GROUP_5
 70
     0
 10
0.0
 20
0.0
 30
0.0
  3
DC_GROUP_5
  1

  0
LINE
  5
16A
  8
0
  6
CONTINUOUS
 62
     7
 10
92.7792124860848
 20
0.2425109850855023
 30
0.0
 11
52.40350928159798
 21
-29.9990146469715
 31
0.0
  0
INSERT
  5
16B
  8
0
 62
     7
  2
_OPEN30
 10
92.7792124860848
 20
0.2425109850855023
 30
0.0
 41
1.999998407630662
 42
2.000005728319971
 50
36.83332340538195
  0
LINE
  5
16C
  8
0
  6
CONTINUOUS
 62
     7
 10
52.40350928159798
 20
-29.9990146469715
 30
0.0
 11
23.60350928159798
 21
-29.9990146469715
 31
0.0
  0
TEXT
  5
16D
  8
0
 62
     7
 10
23.60350928159798
 20
-29.9990146469715
 30
0.0
 40
4.0
  1
PCD104.77
 41
0.7999999999999999
  7
FDASTYLE1
 72
     5
 11
52.40350928159798
 21
-29.9990146469715
 31
0.0
  0
ENDBLK
  5
98
  8
0
  0
BLOCK
  8
0
  2
DA_IMAGEDIMGROUP_22
 70
     0
 10
0.0
 20
0.0
 30
0.0
  3
DA_IMAGEDIMGROUP_22
  1

  0
LINE
  5
16E
  8
0
  6
CONTINUOUS
 62
     9
 10
114.9894887449957
 20
-71.79458688356699
 30
0.0
 11
114.9894887449957
 21
-61.3123312081517
 31
0.0
  0
LINE
  5
16F
  8
0
  6
CONTINUOUS
 62
     9
 10
98.98945605861206
 20
-71.7945724541036
 30
0.0
 11
98.98945605861206
 21
-61.31233120815172
 31
0.0
  0
LINE
  5
170
  8
0
  6
CONTINUOUS
 62
     9
 10
98.98945605861208
 20
-62.81233120815173
 30
0.0
 11
114.9894887449957
 21
-62.81233120815166
 31
0.0
  0
INSERT
  5
171
  8
0
 62
     9
  2
_OPEN30
 10
98.98945605861208
 20
-62.81233120815173
 30
0.0
 41
1.999998407630662
 42
2.000005728319971
 50
180.0000000000003
  0
INSERT
  5
172
  8
0
 62
     9
  2
_OPEN30
 10
114.9894887449957
 20
-62.81233120815166
 30
0.0
 41
1.999998407630662
 42
2.000005728319971
 50
0.0000000000002474
  0
TEXT
  5
173
  8
0
 62
     7
 10
102.1894724018039
 20
-61.81233120815172
 30
0.0
 40
4.0
  1
φ16
 50
0.0000000000000032
 41
0.7499999999999996
  7
FDASTYLE1
 72
     5
 11
111.7894724018039
 21
-61.81233120815172
 31
0.0
  0
ENDBLK
  5
9B
  8
0
  0
BLOCK
  8
0
  2
DA_IMAGEDIMGROUP_23
 70
     0
 10
0.0
 20
0.0
 30
0.0
  3
DA_IMAGEDIMGROUP_23
  1

  0
LINE
  5
174
  8
0
  6
CONTINUOUS
 62
     9
 10
153.9895061157877
 20
-71.29457175405032
 30
0.0
 11
168.3508312038171
 21
-71.29457175405032
 31
0.0
  0
LINE
  5
175
  8
0
  6
CONTINUOUS
 62
     9
 10
166.8508312038171
 20
-73.29457286212401
 30
0.0
 11
166.8508312038171
 21
-71.29457175405037
 31
0.0
  0
LINE
  5
176
  8
0
  6
CONTINUOUS
 62
     9
 10
143.9895046333023
 20
-70.29457282870622
 30
0.0
 11
168.350831203817
 21
-70.29457282870615
 31
0.0
  0
LINE
  5
177
  8
0
  6
CONTINUOUS
 62
     9
 10
166.8508312038171
 20
-71.29457175405037
 30
0.0
 11
166.850831203817
 21
-70.29457282870614
 31
0.0
  0
INSERT
  5
17D
  8
0
 62
     9
  2
_DOT
 10
166.8508312038171
 20
-71.29457175405037
 30
0.0
 50
270.0000000000065
  0
LINE
  5
17E
  8
0
  6
CONTINUOUS
 62
     9
 10
166.850831203817
 20
-80.42642286212397
 30
0.0
 11
166.8508312038171
 21
-73.29457286212401
 31
0.0
  0
INSERT
  5
17F
  8
0
 62
     9
  2
_OPEN30
 10
166.8508312038171
 20
-73.29457286212401
 30
0.0
 41
1.999998407630662
 42
2.000005728319971
 50
89.99999999999955
  0
LINE
  5
180
  8
0
  6
CONTINUOUS
 62
     9
 10
166.8508312038171
 20
-62.85957912521074
 30
0.0
 11
166.850831203817
 21
-70.29457282870614
 31
0.0
  0
INSERT
  5
181
  8
0
 62
     9
  2
_OPEN30
 10
166.850831203817
 20
-70.29457282870614
 30
0.0
 41
1.999998407630662
 42
2.000005728319971
 50
269.9999999999992
  0
TEXT
  5
182
  8
0
 62
     7
 10
165.8508312038171
 20
-79.42642286212397
 30
0.0
 40
4.0
  1
2
 50
90.0
 41
0.7999999999999972
  7
FDASTYLE1
 72
     5
 11
165.8508312038171
 21
-76.22642286212398
 31
0.0
  0
TEXT
  5
183
  8
0
 62
     7
 10
165.8508312038171
 20
-67.05957912521073
 30
0.0
 40
4.0
  1
1
 50
90.0
 41
0.7999999999999972
  7
FDASTYLE1
 72
     5
 11
165.8508312038171
 21
-63.85957912521074
 31
0.0
  0
ENDBLK
  5
9E
  8
0
  0
BLOCK
  8
0
  2
DA_IMAGEDIMGROUP_24
 70
     0
 10
0.0
 20
0.0
 30
0.0
  3
DA_IMAGEDIMGROUP_24
  1

  0
LINE
  5
184
  8
0
  6
CONTINUOUS
 62
     9
 10
128.9894811067263
 20
-120.624593858746
 30
0.0
 11
144.9894811067263
 21
-120.6245938587459
 31
0.0
  0
INSERT
  5
185
  8
0
 62
     9
  2
_OPEN30
 10
128.9894811067263
 20
-120.624593858746
 30
0.0
 41
1.999998407630662
 42
2.000005728319971
 50
180.0000000000002
  0
INSERT
  5
186
  8
0
 62
     9
  2
_OPEN30
 10
144.9894811067263
 20
-120.6245938587459
 30
0.0
 41
1.999998407630662
 42
2.000005728319971
 50
0.0000000000001965
  0
LINE
  5
187
  8
0
  6
CONTINUOUS
 62
     9
 10
128.9894811067263
 20
-93.29455592219661
 30
0.0
 11
128.9894811067263
 21
-121.624593858746
 31
0.0
  0
LINE
  5
188
  8
0
  6
CONTINUOUS
 62
     9
 10
144.9894811067263
 20
-93.29455579784759
 30
0.0
 11
144.9894811067263
 21
-121.6245938587459
 31
0.0
  0
TEXT
  5
189
  8
0
 62
     7
 10
133.7894811067264
 20
-119.624593858746
 30
0.0
 40
4.0
  1
16
 50
0.0000000000000032
 41
0.7999999999999972
  7
FDASTYLE1
 72
     5
 11
140.1894811067263
 21
-119.624593858746
 31
0.0
  0
ENDBLK
  5
A1
  8
0
  0
BLOCK
  8
0
  2
DC_GROUP_6
 70
     0
 10
0.0
 20
0.0
 30
0.0
  3
DC_GROUP_6
  1

  0
LINE
  5
18A
  8
0
  6
CONTINUOUS
 62
     6
 10
85.78139949491202
 20
-117.1553842241068
 30
0.0
 11
89.46899058118142
 21
-114.9073796247907
 31
0.0
  0
LINE
  5
18B
  8
0
  6
CONTINUOUS
 62
     6
 10
89.46899058118142
 20
-114.9073796247907
 30
0.0
 11
93.20359871831369
 21
-112.8108274834925
 31
0.0
  0
LINE
  5
18C
  8
0
  6
CONTINUOUS
 62
     6
 10
93.20359871831369
 20
-112.8108274834925
 30
0.0
 11
97.03224095717157
 21
-111.0171802582299
 31
0.0
  0
LINE
  5
18D
  8
0
  6
CONTINUOUS
 62
     6
 10
97.03224095717157
 20
-111.0171802582299
 30
0.0
 11
101.0018815915921
 21
-109.6777827353265
 31
0.0
  0
LINE
  5
18E
  8
0
  6
CONTINUOUS
 62
     6
 10
101.0018815915921
 20
-109.6777827353265
 30
0.0
 11
105.1336783889415
 21
-108.8913112197427
 31
0.0
  0
LINE
  5
18F
  8
0
  6
CONTINUOUS
 62
     6
 10
105.1336783889415
 20
-108.8913112197427
 30
0.0
 11
109.3814713831432
 21
-108.6190534068899
 31
0.0
  0
LINE
  5
190
  8
0
  6
CONTINUOUS
 62
     6
 10
109.3814713831432
 20
-108.6190534068899
 30
0.0
 11
113.6882619182054
 21
-108.8001763345042
 31
0.0
  0
LINE
  5
191
  8
0
  6
CONTINUOUS
 62
     6
 10
113.6882619182054
 20
-108.8001763345042
 30
0.0
 11
117.9970513381357
 21
-109.3738470403215
 31
0.0
  0
LINE
  5
192
  8
0
  6
CONTINUOUS
 62
     6
 10
117.9970513381357
 20
-109.3738470403215
 30
0.0
 11
122.2561275590484
 21
-110.2675649636503
 31
0.0
  0
LINE
  5
193
  8
0
  6
CONTINUOUS
 62
     6
 10
122.2561275590484
 20
-110.2675649636503
 30
0.0
 11
126.4571309590098
 21
-111.3131495631301
 31
0.0
  0
LINE
  5
194
  8
0
  6
CONTINUOUS
 62
     6
 10
126.4571309590098
 20
-111.3131495631301
 30
0.0
 11
130.6129442777794
 21
-112.2955378675552
 31
0.0
  0
LINE
  5
195
  8
0
  6
CONTINUOUS
 62
     6
 10
130.6129442777794
 20
-112.2955378675552
 30
0.0
 11
134.7365960228102
 21
-112.9993451927321
 31
0.0
  0
LINE
  5
196
  8
0
  6
CONTINUOUS
 62
     6
 10
134.7365960228102
 20
-112.9993451927321
 30
0.0
 11
138.8410972311795
 21
-113.2100456879504
 31
0.0
  0
LINE
  5
197
  8
0
  6
CONTINUOUS
 62
     6
 10
138.8410972311795
 20
-113.2100456879504
 30
0.0
 11
142.9371763772562
 21
-112.8253229560644
 31
0.0
  0
LINE
  5
198
  8
0
  6
CONTINUOUS
 62
     6
 10
142.9371763772562
 20
-112.8253229560644
 30
0.0
 11
147.0310351260753
 21
-111.9653959106941
 31
0.0
  0
LINE
  5
199
  8
0
  6
CONTINUOUS
 62
     6
 10
147.0310351260753
 20
-111.9653959106941
 30
0.0
 11
151.1283417162896
 21
-110.7767063957986
 31
0.0
  0
LINE
  5
19A
  8
0
  6
CONTINUOUS
 62
     6
 10
151.1283417162896
 20
-110.7767063957986
 30
0.0
 11
155.234764386552
 21
-109.4056962553365
 31
0.0
  0
LINE
  5
19B
  8
0
  6
CONTINUOUS
 62
     6
 10
155.234764386552
 20
-109.4056962553365
 30
0.0
 11
159.3559713755147
 21
-107.9988073332658
 31
0.0
  0
LINE
  5
19C
  8
0
  6
CONTINUOUS
 62
     6
 10
159.3559713755147
 20
-107.9988073332658
 30
0.0
 11
163.4976309218309
 21
-106.7024814735458
 31
0.0
  0
LINE
  5
19D
  8
0
  6
CONTINUOUS
 62
     6
 10
163.4976309218309
 20
-106.7024814735458
 30
0.0
 11
167.6651325749202
 21
-105.6578970261815
 31
0.0
  0
LINE
  5
19E
  8
0
  6
CONTINUOUS
 62
     6
 10
167.6651325749202
 20
-105.6578970261815
 30
0.0
 11
171.8584210012762
 21
-104.9033969784144
 31
0.0
  0
LINE
  5
19F
  8
0
  6
CONTINUOUS
 62
     6
 10
171.8584210012762
 20
-104.9033969784144
 30
0.0
 11
176.0724835688289
 21
-104.383697768847
 31
0.0
  0
LINE
  5
1A0
  8
0
  6
CONTINUOUS
 62
     6
 10
176.0724835688289
 20
-104.383697768847
 30
0.0
 11
180.302126742279
 21
-104.0400991879291
 31
0.0
  0
LINE
  5
1A1
  8
0
  6
CONTINUOUS
 62
     6
 10
180.302126742279
 20
-104.0400991879291
 30
0.0
 11
184.5421569863274
 21
-103.8139010261109
 31
0.0
  0
LINE
  5
1A2
  8
0
  6
CONTINUOUS
 62
     6
 10
184.5421569863274
 20
-103.8139010261109
 30
0.0
 11
188.7873807656752
 21
-103.6464030738427
 31
0.0
  0
ENDBLK
  5
A4
  8
0
  0
BLOCK
  8
0
  2
DC_GROUP_7
 70
     0
 10
0.0
 20
0.0
 30
0.0
  3
DC_GROUP_7
  1

  0
LINE
  5
1A3
  8
0
  6
CONTINUOUS
 62
     7
 10
-91.66864843440338
 20
115.0305971668922
 30
0.0
 11
-71.47047166072126
 21
146.3266732667733
 31
0.0
  0
INSERT
  5
1A4
  8
0
 62
     7
  2
_OPEN30
 10
-91.66864843440338
 20
115.0305971668922
 30
0.0
 41
1.999998407630662
 42
2.000005728319971
 50
237.1622035196819
  0
LINE
  5
1A5
  8
0
  6
CONTINUOUS
 62
     7
 10
-71.47047166072126
 20
146.3266732667733
 30
0.0
 11
-65.07047166072125
 21
146.3266732667733
 31
0.0
  0
TEXT
  5
1A6
  8
0
 62
     7
 10
-71.47047166072126
 20
146.3266732667733
 30
0.0
 40
4.0
  1
M8
 41
0.8000000000000007
  7
FDASTYLE1
 72
     5
 11
-65.07047166072125
 21
146.3266732667733
 31
0.0
  0
ENDBLK
  5
A7
  8
0
  0
BLOCK
  8
0
  2
DC_GROUP_8
 70
     0
 10
0.0
 20
0.0
 30
0.0
  3
DC_GROUP_8
  1

  0
LINE
  5
1A7
  8
0
  6
CONTINUOUS
 62
     9
 10
-51.02575376368207
 20
42.38468557906133
 30
0.0
 11
-51.02575376368207
 21
73.88468557906133
 31
0.0
  0
INSERT
  5
1A8
  8
0
 62
     9
  2
_OPEN30
 10
-51.02575376368207
 20
42.38468557906133
 30
0.0
 41
1.999998407630662
 42
2.000005728319971
 50
270.0
  0
INSERT
  5
1A9
  8
0
 62
     9
  2
_OPEN30
 10
-51.02575376368207
 20
73.88468557906133
 30
0.0
 41
1.999998407630662
 42
2.000005728319971
 50
90.0
  0
LINE
  5
1AA
  8
0
  6
CONTINUOUS
 62
     9
 10
-99.95141385049583
 20
42.38468557906133
 30
0.0
 11
-82.7903289734442
 21
42.38468557906133
 31
0.0
  0
LINE
  5
1AB
  8
0
  6
CONTINUOUS
 62
     9
 10
-61.92627824019015
 20
42.38468557906133
 30
0.0
 11
-50.02575376368207
 21
42.38468557906133
 31
0.0
  0
TEXT
  5
1AC
  8
0
 62
     7
 10
-52.02575376368207
 20
51.73468557906133
 30
0.0
 40
4.0
  1
31.5
 50
90.0
 41
0.7999999999999994
  7
FDASTYLE1
 72
     5
 11
-52.02575376368207
 21
64.53468557906132
 31
0.0
  0
ENDBLK
  5
AA
  8
0
  0
BLOCK
  8
0
  2
DC_GROUP_9
 70
     0
 10
0.0
 20
0.0
 30
0.0
  3
DC_GROUP_9
  1

  0
LINE
  5
1AD
  8
0
  6
CONTINUOUS
 62
     7
 10
171.8761259903412
 20
20.70711366878496
 30
0.0
 11
214.5400051030223
 21
-16.58489060805725
 31
0.0
  0
INSERT
  5
1AE
  8
0
 62
     7
  2
_OPEN30
 10
171.8761259903412
 20
20.70711366878496
 30
0.0
 41
1.999998407630662
 42
2.000005728319971
 50
138.8436684046451
  0
LINE
  5
1AF
  8
0
  6
CONTINUOUS
 62
     7
 10
214.5400051030223
 20
-16.58489060805725
 30
0.0
 11
257.325063071895
 21
-16.58489060805725
 31
0.0
  0
TEXT
  5
1B0
  8
0
 62
     7
 10
214.5400051030223
 20
-16.58489060805725
 30
0.0
 40
4.0
  1
4-M6×12 PCD76
 41
0.7878787878787884
  7
FDASTYLE1
 72
     5
 11
256.1400051030224
 21
-16.58489060805725
 31
0.0
  0
ENDBLK
  5
AD
  8
0
  0
BLOCK
  8
0
  2
DA_IMAGEDIMGROUP_25
 70
     0
 10
0.0
 20
0.0
 30
0.0
  3
DA_IMAGEDIMGROUP_25
  1

  0
LINE
  5
1B1
  8
0
  6
CONTINUOUS
 62
     9
 10
58.21625744215957
 20
87.36448554999404
 30
0.0
 11
98.37234890582846
 21
64.18035789526884
 31
0.0
  0
LINE
  5
1B2
  8
0
  6
CONTINUOUS
 62
     9
 10
46.0299834057831
 20
41.88468733976553
 30
0.0
 11
47.95615759358063
 21
41.88468733976552
 31
0.0
  0
ARC
  5
1B3
  8
0
  6
CONTINUOUS
 62
     9
 10
136.9895873632844
 20
41.88468733976552
 30
0.0
 40
89.95960395750132
 50
150.0000027410345
 51
180.0
  0
INSERT
  5
1B4
  8
0
 62
     9
  2
_OPEN30
 10
59.08228286986405
 20
86.86448559142477
 30
0.0
 41
1.999998407630662
 42
2.000005728319971
 50
60.63690803433568
  0
INSERT
  5
1B5
  8
0
 62
     9
  2
_OPEN30
 10
47.0299834057831
 20
41.88468733976553
 30
0.0
 41
1.999998407630662
 42
2.000005728319971
 50
269.3630947066986
  0
TEXT
  5
1B6
  8
0
 62
     7
 10
47.88702488299298
 20
60.79031908142522
 30
0.0
 40
4.0
  1
30°
 50
75.00000137051727
 41
0.7500000000000003
  7
FDASTYLE1
 72
     5
 11
50.37168749416934
 21
70.06320707323351
 31
0.0
  0
ENDBLK
  5
B0
  8
0
  0
BLOCK
  8
0
  2
DA_IMAGEDIMGROUP_26
 70
     0
 10
0.0
 20
0.0
 30
0.0
  3
DA_IMAGEDIMGROUP_26
  1

  0
LINE
  5
1B7
  8
0
  6
CONTINUOUS
 62
     9
 10
64.60101776286784
 20
114.2732500140329
 30
0.0
 11
90.87509176395766
 21
87.9991785268504
 31
0.0
  0
LINE
  5
1B8
  8
0
  6
CONTINUOUS
 62
     9
 10
34.61669537111351
 20
41.88468733976553
 30
0.0
 11
47.95615759358063
 21
41.88468733976552
 31
0.0
  0
ARC
  5
1B9
  8
0
  6
CONTINUOUS
 62
     9
 10
136.9895873632844
 20
41.88468733976552
 30
0.0
 40
101.3728919921709
 50
135.0000027410345
 51
180.0
  0
INSERT
  5
1BA
  8
0
 62
     9
  2
_OPEN30
 10
65.30812457788242
 20
113.5661432666744
 30
0.0
 41
1.999998407630662
 42
2.000005728319971
 50
45.56520066345567
  0
INSERT
  5
1BB
  8
0
 62
     9
  2
_OPEN30
 10
35.61669537111351
 20
41.88468733976553
 30
0.0
 41
1.999998407630662
 42
2.000005728319971
 50
269.4348020775786
  0
TEXT
  5
1BC
  8
0
 62
     7
 10
40.57248646135181
 20
76.62647296611516
 30
0.0
 40
4.0
  1
45°
 50
67.50000137051724
 41
0.7500000000000002
  7
FDASTYLE1
 72
     5
 11
44.24624719990403
 21
85.49571656610002
 31
0.0
  0
ENDBLK
  5
B3
  8
0
  0
BLOCK
  8
0
  2
_OPEN30
 70
     0
 10
0.0
 20
0.0
 30
0.0
  3
_OPEN30
  1

  0
LINE
  5
BA
  8
0
  6
BYBLOCK
 62
     0
 10
-1.0
 20
0.267949
 30
0.0
 11
0.0
 21
0.0
 31
0.0
  0
LINE
  5
BB
  8
0
  6
BYBLOCK
 62
     0
 10
0.0
 20
0.0
 30
0.0
 11
-1.0
 21
-0.267949
 31
0.0
  0
LINE
  5
BC
  8
0
  6
BYBLOCK
 62
     0
 10
0.0
 20
0.0
 30
0.0
 11
-1.0
 21
0.0
 31
0.0
  0
ENDBLK
  5
B9
  8
0
  0
BLOCK
  8
0
  2
_DOT
 70
     0
 10
0.0
 20
0.0
 30
0.0
  3
_DOT
  1

  0
POLYLINE
  5
17B
  8
0
  6
BYBLOCK
 62
     0
 66
     1
 10
0.0
 20
0.0
 30
0.0
 70
     1
 40
0.5
 41
0.5
  0
VERTEX
  5
512
  8
0
  6
BYBLOCK
 62
     0
 10
-0.25
 20
0.0
 30
0.0
 42
1.0
  0
VERTEX
  5
513
  8
0
  6
BYBLOCK
 62
     0
 10
0.25
 20
0.0
 30
0.0
 42
1.0
  0
SEQEND
  5
511
  8
0
  6
BYBLOCK
 62
     0
  0
LINE
  5
17C
  8
0
  6
BYBLOCK
 62
     0
 10
-0.5
 20
0.0
 30
0.0
 11
-1.0
 21
0.0
 31
0.0
  0
ENDBLK
  5
17A
  8
0
  0
ENDSEC
  0
SECTION
  2
ENTITIES
  0
LINE
  5
1BD
  8
ZUWAKU
  6
CONTINUOUS
 62
     3
 10
-277.0
 20
-190.0
 30
0.0
 11
-277.0
 21
190.0
 31
0.0
  0
LINE
  5
1BE
  8
ZUWAKU
  6
CONTINUOUS
 62
     3
 10
277.0
 20
-190.0
 30
0.0
 11
277.0
 21
190.0
 31
0.0
  0
LINE
  5
1BF
  8
ZUWAKU
  6
CONTINUOUS
 62
     3
 10
-277.0
 20
-190.0
 30
0.0
 11
277.0
 21
-190.0
 31
0.0
  0
LINE
  5
1C0
  8
ZUWAKU
  6
CONTINUOUS
 62
     3
 10
-277.0
 20
189.9999999999999
 30
0.0
 11
277.0
 21
189.9999999999999
 31
0.0
  0
LINE
  5
1C1
  8
ZUWAKU
  6
CONTINUOUS
 62
     3
 10
97.00000000000001
 20
-190.0
 30
0.0
 11
97.00000000000001
 21
-130.0
 31
0.0
  0
LINE
  5
1C2
  8
ZUWAKU
  6
CONTINUOUS
 62
     3
 10
97.00000000000001
 20
-176.0
 30
0.0
 11
277.0
 21
-176.0
 31
0.0
  0
LINE
  5
1C3
  8
ZUWAKU
  6
CONTINUOUS
 62
     3
 10
146.0
 20
-162.0
 30
0.0
 11
277.0
 21
-162.0
 31
0.0
  0
LINE
  5
1C4
  8
ZUWAKU
  6
CONTINUOUS
 62
     3
 10
146.0
 20
-148.0
 30
0.0
 11
277.0
 21
-148.0
 31
0.0
  0
LINE
  5
1C5
  8
ZUWAKU
  6
CONTINUOUS
 62
     3
 10
146.0
 20
-138.0
 30
0.0
 11
277.0
 21
-138.0
 31
0.0
  0
LINE
  5
1C6
  8
ZUWAKU
  6
CONTINUOUS
 62
     3
 10
146.0
 20
-176.0
 30
0.0
 11
146.0
 21
-130.0
 31
0.0
  0
LINE
  5
1C7
  8
ZUWAKU
  6
CONTINUOUS
 62
     3
 10
255.0
 20
-176.0
 30
0.0
 11
255.0
 21
-130.0
 31
0.0
  0
LINE
  5
1C8
  8
ZUWAKU
  6
CONTINUOUS
 62
     3
 10
171.0
 20
-190.0
 30
0.0
 11
171.0
 21
-176.0
 31
0.0
  0
LINE
  5
1C9
  8
ZUWAKU
  6
CONTINUOUS
 62
     3
 10
97.00000000000001
 20
-130.0
 30
0.0
 11
277.0
 21
-130.0
 31
0.0
  0
LINE
  5
1CA
  8
ZUWAKU
  6
CONTINUOUS
 62
     3
 10
226.0
 20
-176.0
 30
0.0
 11
226.0
 21
-148.0
 31
0.0
  0
LINE
  5
1CB
  8
ZUWAKU
  6
CONTINUOUS
 62
     4
 10
105.0
 20
-172.0
 30
0.0
 11
105.0
 21
-130.0
 31
0.0
  0
LINE
  5
1CC
  8
ZUWAKU
  6
CONTINUOUS
 62
     4
 10
109.0
 20
-172.0
 30
0.0
 11
109.0
 21
-130.0
 31
0.0
  0
LINE
  5
1CD
  8
ZUWAKU
  6
CONTINUOUS
 62
     4
 10
121.5
 20
-176.0
 30
0.0
 11
121.5
 21
-130.0
 31
0.0
  0
LINE
  5
1CE
  8
ZUWAKU
  6
CONTINUOUS
 62
     4
 10
97.00000000000001
 20
-137.0
 30
0.0
 11
146.0
 21
-137.0
 31
0.0
  0
LINE
  5
1CF
  8
ZUWAKU
  6
CONTINUOUS
 62
     4
 10
97.00000000000001
 20
-144.0
 30
0.0
 11
146.0
 21
-144.0
 31
0.0
  0
LINE
  5
1D0
  8
ZUWAKU
  6
CONTINUOUS
 62
     4
 10
97.00000000000001
 20
-165.0
 30
0.0
 11
146.0
 21
-165.0
 31
0.0
  0
LINE
  5
1D1
  8
ZUWAKU
  6
CONTINUOUS
 62
     4
 10
97.00000000000001
 20
-172.0
 30
0.0
 11
146.0
 21
-172.0
 31
0.0
  0
LINE
  5
1D2
  8
ZUWAKU
  6
CONTINUOUS
 62
     4
 10
255.0
 20
-166.0
 30
0.0
 11
277.0
 21
-166.0
 31
0.0
  0
LINE
  5
1D3
  8
ZUWAKU
  6
CONTINUOUS
 62
     4
 10
153.0
 20
-139.5
 30
0.0
 11
153.0
 21
-130.0
 31
0.0
  0
LINE
  5
1D4
  8
ZUWAKU
  6
CONTINUOUS
 62
     4
 10
202.0
 20
-148.0
 30
0.0
 11
202.0
 21
-146.5
 31
0.0
  0
LINE
  5
1D5
  8
ZUWAKU
  6
CONTINUOUS
 62
     4
 10
226.0
 20
-148.0
 30
0.0
 11
226.0
 21
-146.5
 31
0.0
  0
LINE
  5
1D6
  8
ZUWAKU
  6
CONTINUOUS
 62
     4
 10
243.0
 20
-148.0
 30
0.0
 11
243.0
 21
-146.5
 31
0.0
  0
LINE
  5
1D7
  8
ZUWAKU
  6
CONTINUOUS
 62
     4
 10
202.0
 20
-139.5
 30
0.0
 11
202.0
 21
-130.0
 31
0.0
  0
LINE
  5
1D8
  8
ZUWAKU
  6
CONTINUOUS
 62
     4
 10
226.0
 20
-139.5
 30
0.0
 11
226.0
 21
-130.0
 31
0.0
  0
LINE
  5
1D9
  8
ZUWAKU
  6
CONTINUOUS
 62
     4
 10
243.0
 20
-139.5
 30
0.0
 11
243.0
 21
-130.0
 31
0.0
  0
LINE
  5
1DA
  8
ZUWAKU
  6
CONTINUOUS
 62
     4
 10
97.00000000000001
 20
-151.0
 30
0.0
 11
146.0
 21
-151.0
 31
0.0
  0
LINE
  5
1DB
  8
ZUWAKU
  6
CONTINUOUS
 62
     4
 10
97.00000000000001
 20
-158.0
 30
0.0
 11
146.0
 21
-158.0
 31
0.0
  0
LINE
  5
1DC
  8
ZUWAKU
  6
CONTINUOUS
 62
     4
 10
101.0
 20
-130.5
 30
0.0
 11
98.00000000000001
 21
-136.5
 31
0.0
  0
LINE
  5
1DD
  8
ZUWAKU
  6
CONTINUOUS
 62
     4
 10
101.0
 20
-130.5
 30
0.0
 11
104.0
 21
-136.5
 31
0.0
  0
LINE
  5
1DE
  8
ZUWAKU
  6
CONTINUOUS
 62
     4
 10
98.00000000000001
 20
-136.5
 30
0.0
 11
104.0
 21
-136.5
 31
0.0
  0
LINE
  5
1DF
  8
ZUWAKU
  6
CONTINUOUS
 62
     4
 10
101.0
 20
-158.5
 30
0.0
 11
98.00000000000001
 21
-164.5
 31
0.0
  0
LINE
  5
1E0
  8
ZUWAKU
  6
CONTINUOUS
 62
     4
 10
101.0
 20
-158.5
 30
0.0
 11
104.0
 21
-164.5
 31
0.0
  0
LINE
  5
1E1
  8
ZUWAKU
  6
CONTINUOUS
 62
     4
 10
98.00000000000001
 20
-164.5
 30
0.0
 11
104.0
 21
-164.5
 31
0.0
  0
LINE
  5
1E2
  8
ZUWAKU
  6
CONTINUOUS
 62
     4
 10
101.0
 20
-151.5
 30
0.0
 11
98.00000000000001
 21
-157.5
 31
0.0
  0
LINE
  5
1E3
  8
ZUWAKU
  6
CONTINUOUS
 62
     4
 10
101.0
 20
-151.5
 30
0.0
 11
104.0
 21
-157.5
 31
0.0
  0
LINE
  5
1E4
  8
ZUWAKU
  6
CONTINUOUS
 62
     4
 10
98.00000000000001
 20
-157.5
 30
0.0
 11
104.0
 21
-157.5
 31
0.0
  0
LINE
  5
1E5
  8
ZUWAKU
  6
CONTINUOUS
 62
     4
 10
101.0
 20
-144.5
 30
0.0
 11
98.00000000000001
 21
-150.5
 31
0.0
  0
LINE
  5
1E6
  8
ZUWAKU
  6
CONTINUOUS
 62
     4
 10
101.0
 20
-144.5
 30
0.0
 11
104.0
 21
-150.5
 31
0.0
  0
LINE
  5
1E7
  8
ZUWAKU
  6
CONTINUOUS
 62
     4
 10
98.00000000000001
 20
-150.5
 30
0.0
 11
104.0
 21
-150.5
 31
0.0
  0
LINE
  5
1E8
  8
ZUWAKU
  6
CONTINUOUS
 62
     4
 10
101.0
 20
-137.5
 30
0.0
 11
98.00000000000001
 21
-143.5
 31
0.0
  0
LINE
  5
1E9
  8
ZUWAKU
  6
CONTINUOUS
 62
     4
 10
101.0
 20
-137.5
 30
0.0
 11
104.0
 21
-143.5
 31
0.0
  0
LINE
  5
1EA
  8
ZUWAKU
  6
CONTINUOUS
 62
     4
 10
98.00000000000001
 20
-143.5
 30
0.0
 11
104.0
 21
-143.5
 31
0.0
  0
LINE
  5
1EB
  8
ZUWAKU
  6
CONTINUOUS
 62
     4
 10
172.6666666666666
 20
-176.0
 30
0.0
 11
172.6666666666666
 21
-162.0
 31
0.0
  0
LINE
  5
1EC
  8
ZUWAKU
  6
CONTINUOUS
 62
     4
 10
199.3333333333333
 20
-176.0
 30
0.0
 11
199.3333333333333
 21
-161.9509415757253
 31
0.0
  0
LINE
  5
1ED
  8
ZUWAKU
  6
CONTINUOUS
 62
     4
 10
212.6666666666666
 20
-167.5
 30
0.0
 11
212.6666666666666
 21
-161.9509415757253
 31
0.0
  0
LINE
  5
1EE
  8
ZUWAKU
  6
CONTINUOUS
 62
     4
 10
226.0
 20
-155.0
 30
0.0
 11
255.0
 21
-155.0
 31
0.0
  0
LINE
  5
1EF
  8
ZUWAKU
  6
CONTINUOUS
 62
     4
 10
146.0
 20
-166.0
 30
0.0
 11
226.0
 21
-166.0
 31
0.0
  0
TEXT
  5
1F1
  8
ZUWAKU
 62
     7
 10
148.3132301474747
 20
-130.821188728956
 30
0.0
 40
2.6656
  1
符号
 41
0.8
  7
FDASTYLE0
  0
TEXT
  5
1F2
  8
ZUWAKU
 62
     7
 10
162.4141311219058
 20
-135.8245525019963
 30
0.0
 40
4.0
  1
品       名
 41
0.765957446808511
  7
FDASTYLE1
 72
     5
 11
191.2141311219058
 21
-135.8245525019963
 31
0.0
  0
TEXT
  5
1F3
  8
ZUWAKU
 62
     7
 10
207.2331564413096
 20
-135.8245525019963
 30
0.0
 40
4.0
  1
材  料
 41
0.7272727272727279
  7
FDASTYLE1
 72
     5
 11
220.0331564413096
 21
-135.8245525019963
 31
0.0
  0
TEXT
  5
1F4
  8
ZUWAKU
 62
     7
 10
229.516061684855
 20
-135.8245525019963
 30
0.0
 40
4.0
  1
個 数
 41
0.7058823529411761
  7
FDASTYLE1
 72
     5
 11
239.116061684855
 21
-135.8245525019963
 31
0.0
  0
TEXT
  5
1F5
  8
ZUWAKU
 62
     7
 10
245.721810952888
 20
-133.5649080050572
 30
0.0
 40
2.5
  1
単重量
 41
0.6666666666666666
  7
FDASTYLE1
 72
     5
 11
251.721810952888
 21
-133.5649080050572
 31
0.0
  0
TEXT
  5
1F6
  8
ZUWAKU
 62
     7
 10
244.7089516236359
 20
-137.3631304897525
 30
0.0
 40
2.5
  1
(kg)
 41
0.8
  7
FDASTYLE1
 72
     5
 11
252.7089516236359
 21
-137.3631304897525
 31
0.0
  0
TEXT
  5
1F7
  8
ZUWAKU
 62
     7
 10
259.1421970654778
 20
-135.8245525019963
 30
0.0
 40
4.0
  1
記  事
 41
0.7272727272727279
  7
FDASTYLE1
 72
     5
 11
271.9421970654778
 21
-135.8245525019963
 31
0.0
  0
TEXT
  5
1F8
  8
ZUWAKU
 62
     7
 10
258.8450794551645
 20
-165.4873041997729
 30
0.0
 40
3.0
  1
コード番号
 41
0.6666666666666666
  7
FDASTYLE1
 72
     5
 11
270.8450794551645
 21
-165.4873041997729
 31
0.0
  0
TEXT
  5
1F9
  8
ZUWAKU
 62
     7
 10
101.9119920158317
 20
-175.1879010540338
 30
0.0
 40
2.5
  1
訂 正 来 歴
 41
0.717948717948718
  7
FDASTYLE1
 72
     5
 11
115.9119920158317
 21
-175.1879010540338
 31
0.0
  0
TEXT
  5
1FA
  8
ZUWAKU
 62
     7
 10
125.890334846765
 20
-175.2166697391651
 30
0.0
 40
2.5
  1
工 事 番 号
 41
0.717948717948718
  7
FDASTYLE1
 72
     5
 11
139.890334846765
 21
-175.2166697391651
 31
0.0
  0
TEXT
  5
1FB
  8
ZUWAKU
 62
     7
 10
99.96483784660289
 20
-165.9634530565915
 30
0.0
 40
2.0825
  1
記号
 41
0.8
  7
FDASTYLE0
  0
TEXT
  5
1FC
  8
ZUWAKU
 62
     7
 10
105.9042249067618
 20
-165.9634530565915
 30
0.0
 40
2.0825
  1
理由
 41
0.8
  7
FDASTYLE0
  0
TEXT
  5
1FD
  8
ZUWAKU
 62
     7
 10
111.6193667909843
 20
-169.8786046700178
 30
0.0
 40
3.0
  1
日 付
 41
0.7058823529411754
  7
FDASTYLE1
 72
     5
 11
118.8193667909843
 21
-169.8786046700178
 31
0.0
  0
TEXT
  5
1FE
  8
ZUWAKU
 62
     7
 10
153.4481689819652
 20
-165.7187911464244
 30
0.0
 40
3.0
  1
承   認
 41
0.7407407407407408
  7
FDASTYLE1
 72
     5
 11
165.4481689819652
 21
-165.7187911464244
 31
0.0
  0
TEXT
  5
1FF
  8
ZUWAKU
 62
     7
 10
179.863228033234
 20
-165.4873041997729
 30
0.0
 40
3.0
  1
検   図
 41
0.7407407407407408
  7
FDASTYLE1
 72
     5
 11
191.863228033234
 21
-165.4873041997729
 31
0.0
  0
TEXT
  5
200
  8
ZUWAKU
 62
     7
 10
201.4771920983751
 20
-165.4873041997729
 30
0.0
 40
3.0
  1
担  当
 41
0.7272727272727269
  7
FDASTYLE1
 72
     5
 11
211.0771920983751
 21
-165.4873041997729
 31
0.0
  0
TEXT
  5
201
  8
ZUWAKU
 62
     7
 10
214.6770574841112
 20
-165.4873041997729
 30
0.0
 40
3.0
  1
製  図
 41
0.7272727272727269
  7
FDASTYLE1
 72
     5
 11
224.2770574841112
 21
-165.4873041997729
 31
0.0
  0
TEXT
  5
202
  8
ZUWAKU
 62
     7
 10
226.9462372304199
 20
-153.2184960272417
 30
0.0
 40
3.0
  1
作図
 41
0.6666666666666683
  7
FDASTYLE1
 72
     5
 11
231.7462372304199
 21
-153.2184960272417
 31
0.0
  0
TEXT
  5
203
  8
ZUWAKU
 62
     7
 10
228.1036719636776
 20
-160.2371566401815
 30
0.0
 40
4.0
  1
第 三 角 法
 41
0.7179487179487182
  7
FDASTYLE1
 72
     5
 11
250.5036719636776
 21
-160.2371566401815
 31
0.0
  0
TEXT
  5
204
  8
ZUWAKU
 62
     7
 10
227.409211123723
 20
-166.413251986379
 30
0.0
 40
3.0
  1
尺度
 41
0.6666666666666683
  7
FDASTYLE1
 72
     5
 11
232.209211123723
 21
-166.413251986379
 31
0.0
  0
TEXT
  5
206
  8
ZUWAKU
 62
     3
 10
105.379154370034
 20
-185.9272077185017
 30
0.0
 40
7.0
  1
株式会社 野村製作所
 41
0.5763738641280831
  7
FDASTYLE2
 72
     5
 11
161.379154370034
 21
-185.9272077185017
 31
0.0
  0
TEXT
  5
208
  8
ZUWAKU
 62
     3
 10
183.6118217934165
 20
-187.1216685584563
 30
0.0
 40
8.0
  1
２－
 41
0.8244023083264632
  7
FDASTYLE3
 72
     5
 11
199.6118217934165
 21
-187.1216685584563
 31
0.0
  0
TEXT
  5
209
  8
ZUWAKU
 62
     3
 10
200.5237794178233
 20
-187.1216685584563
 30
0.0
 40
8.0
  1
C806024
 41
1.55417406749556
  7
FDASTYLE3
 72
     5
 11
256.5237794178233
 21
-187.1216685584563
 31
0.0
  0
TEXT
  5
20A
  8
ZUWAKU
 62
     6
 10
165.7570051766932
 20
-145.3589000228561
 30
0.0
 40
5.0
  1
外　形　図
 41
0.5833333333333334
  7
FDASTYLE1
 72
     5
 11
183.2570051766932
 21
-145.3589000228561
 31
0.0
  0
TEXT
  5
20B
  8
ZUWAKU
 62
     6
 10
155.3545934631717
 20
-157.829135039116
 30
0.0
 40
6.0
  1
GO2-6Ｓ型チャック
 41
0.6311475409836065
  7
FDASTYLE1
 72
     5
 11
201.5545934631717
 21
-157.829135039116
 31
0.0
  0
TEXT
  5
20C
  8
ZUWAKU
 62
     4
 10
239.3011788906399
 20
-172.297487439201
 30
0.0
 40
3.0
  1
1/1
 41
0.7000000000000013
  7
FDASTYLE1
 72
     5
 11
245.6011788906399
 21
-172.297487439201
 31
0.0
  0
LINE
  5
20D
  8
0
  6
CENTER
 62
     7
 10
-195.207859524785
 20
42.38468557906133
 30
0.0
 11
-100.9514138504958
 21
42.38468557906133
 31
0.0
  0
LINE
  5
20E
  8
0
  6
CENTER
 62
     7
 10
-146.5309720125779
 20
61.38468557906134
 30
0.0
 11
-128.9798932161912
 21
61.38468557906134
 31
0.0
  0
LINE
  5
20F
  8
0
  6
CENTER
 62
     7
 10
-124.3457964504337
 20
4.384685579061323
 30
0.0
 11
-103.3666563908338
 21
4.384685579061323
 31
0.0
  0
LINE
  5
210
  8
0
  6
CENTER
 62
     7
 10
-209.0815036588001
 20
-10.00031464982051
 30
0.0
 11
-102.2634162327252
 21
-10.00031464982051
 31
0.0
  0
LINE
  5
211
  8
0
  6
CENTER
 62
     7
 10
-124.1272063937767
 20
133.5296711107984
 30
0.0
 11
-124.1272063937767
 21
103.6990044053007
 31
0.0
  0
LINE
  5
212
  8
0
  6
CENTER
 62
     7
 10
99.23837433353293
 20
63.68035793669957
 30
0.0
 11
108.9658174246715
 21
58.06421666998612
 31
0.0
  0
LINE
  5
213
  8
0
  6
CENTER
 62
     7
 10
165.1493448982981
 20
58.14276834382321
 30
0.0
 11
174.3333675219582
 21
63.44516569201787
 31
0.0
  0
LINE
  5
214
  8
0
  6
CENTER
 62
     7
 10
75.35184581754797
 20
100.3846913183754
 30
0.0
 11
103.7738552368912
 21
100.3846913183754
 31
0.0
  0
LINE
  5
215
  8
0
  6
CENTER
 62
     7
 10
127.305011230893
 20
85.88469154189285
 30
0.0
 11
146.9234798844983
 21
85.88469154189282
 31
0.0
  0
LINE
  5
216
  8
0
  6
CENTER
 62
     7
 10
127.305011230893
 20
110.8846984262291
 30
0.0
 11
146.6120747118941
 21
110.8846984262291
 31
0.0
  0
LINE
  5
217
  8
0
  6
CENTER
 62
     7
 10
166.9895155108491
 20
110.0618837179608
 30
0.0
 11
166.9895155108491
 21
90.13594665921218
 31
0.0
  0
ARC
  5
218
  8
0
  6
CENTER
 62
     7
 10
136.9895164049187
 20
41.88468733976552
 30
0.0
 40
52.38499676033865
 50
32.32965453610749
 51
56.96483225497784
  0
LINE
  5
219
  8
0
  6
CENTER
 62
     7
 10
133.7478477037468
 20
61.38469703382395
 30
0.0
 11
140.4045707262077
 21
61.38469703382395
 31
0.0
  0
LINE
  5
21A
  8
0
  6
CENTER
 62
     7
 10
155.9895164049187
 20
46.18659183516165
 30
0.0
 11
155.9895164049187
 21
37.5482883136074
 31
0.0
  0
LINE
  5
21B
  8
0
  6
CENTER
 62
     7
 10
157.1705773154646
 20
100.3846913183755
 30
0.0
 11
176.9722722753983
 21
100.3846913183754
 31
0.0
  0
LINE
  5
21C
  8
0
  6
CENTER
 62
     7
 10
201.3032673453132
 20
-13.1153166388512
 30
0.0
 11
153.2626308349625
 21
-13.11531663885117
 31
0.0
  0
LINE
  5
21D
  8
0
  6
CENTER
 62
     7
 10
121.7228424119636
 20
29.32731240581228
 30
0.0
 11
118.3944809007331
 21
35.09220364922018
 31
0.0
  0
LINE
  5
21E
  8
0
  6
CENTER
 62
     7
 10
155.4978545246021
 20
34.94204465649148
 30
0.0
 11
152.1694930133716
 21
29.17715341308357
 31
0.0
  0
LINE
  5
21F
  8
0
  6
CENTER
 62
     7
 10
117.9895164049187
 20
46.18659183516165
 30
0.0
 11
117.9895164049187
 21
37.5482883136074
 31
0.0
  0
ARC
  5
220
  8
0
  6
CENTER
 62
     7
 10
136.9894809257358
 20
41.88462060590565
 30
0.0
 40
37.99999999999999
 50
142.1591861703579
 51
158.4709471344321
  0
ARC
  5
221
  8
0
  6
CENTER
 62
     7
 10
136.9894809257358
 20
41.88462060590565
 30
0.0
 40
37.99999999999999
 50
22.15918617035787
 51
38.47094713443212
  0
LINE
  5
222
  8
0
  6
CENTER
 62
     7
 10
155.9896065110594
 20
9.253614151950213
 30
0.0
 11
155.9896065110594
 21
13.8844175986659
 31
0.0
  0
LINE
  5
223
  8
0
  6
CENTER
 62
     7
 10
158.3969906906177
 20
11.1344243488918
 30
0.0
 11
153.7494241304122
 21
11.13442434889177
 31
0.0
  0
LINE
  5
224
  8
0
  6
CENTER
 62
     7
 10
115.5821931848305
 20
11.13442434889178
 30
0.0
 11
120.229759745036
 21
11.1344243488918
 31
0.0
  0
LINE
  5
225
  8
0
  6
CENTER
 62
     7
 10
117.9895773643889
 20
9.25361415195027
 30
0.0
 11
117.9895773643889
 21
13.8844175986659
 31
0.0
  0
LINE
  5
226
  8
0
  6
CENTER
 62
     7
 10
146.6740616325709
 20
-27.11551602510876
 30
0.0
 11
127.3669981515697
 21
-27.11551602510878
 31
0.0
  0
LINE
  5
227
  8
0
  6
CENTER
 62
     7
 10
146.6740616325709
 20
-2.115509140772563
 30
0.0
 11
127.0555929789656
 21
-2.115509140772577
 31
0.0
  0
LINE
  5
228
  8
0
  6
CENTER
 62
     7
 10
116.8083814863897
 20
-16.61531663885117
 30
0.0
 11
97.00668652645592
 21
-16.61531663885113
 31
0.0
  0
LINE
  5
229
  8
0
  6
CENTER
 62
     7
 10
106.9894432910052
 20
-26.29250903843661
 30
0.0
 11
106.9894432910052
 21
-6.366571979687951
 31
0.0
  0
LINE
  5
22A
  8
0
  6
CENTER
 62
     7
 10
-118.7556240943058
 20
111.8846855790613
 30
0.0
 11
-85.00046675335717
 21
111.8846855790613
 31
0.0
  0
LINE
  5
22B
  8
0
  6
CENTER
 62
     7
 10
-118.7556240943058
 20
86.88468557906133
 30
0.0
 11
-85.1689491174191
 21
86.88468557906133
 31
0.0
  0
LINE
  5
22C
  8
0
  6
CENTER
 62
     7
 10
136.9895164049187
 20
136.0301980685566
 30
0.0
 11
136.9895164049187
 21
-44.12249083583778
 31
0.0
  0
LINE
  5
22D
  8
0
  6
CENTER
 62
     7
 10
48.95615759358063
 20
41.88468733976552
 30
0.0
 11
225.0228580501194
 21
41.88468733976552
 31
0.0
  0
LINE
  5
22E
  8
0
  6
CENTER
 62
     7
 10
106.9894821131477
 20
-112.1833286604489
 30
0.0
 11
106.9894824455103
 21
-69.4181984392939
 31
0.0
  0
LINE
  5
22F
  8
0
  6
CENTER
 62
     7
 10
142.097609649753
 20
-91.79455582032261
 30
0.0
 11
131.7401001878426
 21
-91.79455590081923
 31
0.0
  0
LINE
  5
230
  8
0
  6
CENTER
 62
     7
 10
136.9894739966636
 20
-114.8267723748249
 30
0.0
 11
136.9894769681373
 21
-52.71412744130352
 31
0.0
  0
LINE
  5
231
  8
0
  6
CENTER
 62
     7
 10
116.2811543018453
 20
29.92870846529517
 30
0.0
 11
124.1498102392128
 21
34.47167858697872
 31
0.0
  0
LINE
  5
232
  8
0
  6
CENTER
 62
     7
 10
152.4894861954066
 20
-90.79457286212403
 30
0.0
 11
186.9894809707196
 21
-90.79457313025158
 31
0.0
  0
LINE
  5
233
  8
0
  6
CENTER
 62
     7
 10
91.58219857897224
 20
87.29207177949189
 30
0.0
 11
108.0774631318498
 21
70.79680880488371
 31
0.0
  0
ARC
  5
234
  8
0
  6
CENTER
 62
     7
 10
136.9895188227663
 20
41.88470570514197
 30
0.0
 40
52.38499676033865
 50
122.4611594243825
 51
147.5808587447587
  0
LINE
  5
235
  8
0
  6
CENTER
 62
     7
 10
181.4210558625883
 20
86.31629350457769
 30
0.0
 11
165.954159640908
 21
70.84939876277235
 31
0.0
  0
ARC
  5
236
  8
0
  6
CENTER
 62
     7
 10
136.9895188227663
 20
41.88466897438906
 30
0.0
 40
52.38499676033865
 50
212.4191412552413
 51
237.5388405756175
  0
ARC
  5
237
  8
0
  6
CENTER
 62
     7
 10
136.9895164049187
 20
41.88468733976552
 30
0.0
 40
52.38499676033865
 50
303.0351677450222
 51
327.6703454638925
  0
LINE
  5
238
  8
0
  6
CENTER
 62
     7
 10
91.58219857897224
 20
-3.522697099960855
 30
0.0
 11
108.0774631318498
 21
12.97256587464733
 31
0.0
  0
LINE
  5
239
  8
0
  6
CENTER
 62
     7
 10
181.4210558625883
 20
-2.54691882504665
 30
0.0
 11
165.954159640908
 21
12.91997591675868
 31
0.0
  0
LINE
  5
23A
  8
0
  6
CENTER
 62
     7
 10
99.23837433353293
 20
20.08901674283147
 30
0.0
 11
108.9658174246715
 21
25.70515800954491
 31
0.0
  0
ARC
  5
23B
  8
0
  6
CENTER
 62
     7
 10
136.9894809257358
 20
41.88475407362539
 30
0.0
 40
37.99999999999999
 50
201.5290528655679
 51
217.8408138296421
  0
LINE
  5
23C
  8
0
  6
CENTER
 62
     7
 10
165.1493448982981
 20
25.62660633570783
 30
0.0
 11
174.3333675219582
 21
20.32420898751316
 31
0.0
  0
ARC
  5
23D
  8
0
  6
CENTER
 62
     7
 10
136.9894809257358
 20
41.88475407362539
 30
0.0
 40
37.99999999999999
 50
321.5290528655679
 51
337.8408138296421
  0
LINE
  5
23E
  8
0
  6
CENTER
 62
     7
 10
157.697878507992
 20
29.92870846529517
 30
0.0
 11
149.8292225706245
 21
34.47167858697872
 31
0.0
  0
LINE
  5
23F
  8
0
  6
DASHED2
 62
     7
 10
-107.6272015658006
 20
123.4155424189907
 30
0.0
 11
-105.6272015658006
 21
121.4155424189907
 31
0.0
  0
LINE
  5
240
  8
0
  6
DASHED2
 62
     7
 10
-109.7673742704607
 20
123.4155424189907
 30
0.0
 11
-107.6272015658006
 21
123.4155424189907
 31
0.0
  0
LINE
  5
241
  8
0
  6
DASHED2
 62
     7
 10
-105.6272015658006
 20
121.4155424189907
 30
0.0
 11
-105.6272015658006
 21
119.2498624180155
 31
0.0
  0
LINE
  5
242
  8
0
  6
DASHED2
 62
     7
 10
87.48950643604208
 20
102.7847118462145
 30
0.0
 11
87.48950643604208
 21
97.98467079053638
 31
0.0
  0
LINE
  5
243
  8
0
  6
DASHED2
 62
     7
 10
93.98949861293268
 20
103.7772693422687
 30
0.0
 11
93.98949861293268
 21
96.99205607402486
 31
0.0
  0
LINE
  5
244
  8
0
  6
DASHED2
 62
     7
 10
96.98949852352571
 20
94.38469149718937
 30
0.0
 11
102.4958460156738
 21
94.38469149718937
 31
0.0
  0
LINE
  5
245
  8
0
  6
DASHED2
 62
     7
 10
96.98949852352571
 20
106.3846911395615
 30
0.0
 11
102.8181721759358
 21
106.3846911395615
 31
0.0
  0
LINE
  5
246
  8
0
  6
DASHED2
 62
     7
 10
69.53582693265136
 20
89.38468783150383
 30
0.0
 11
96.98949852352571
 21
89.38468783150383
 31
0.0
  0
LINE
  5
247
  8
0
  6
DASHED2
 62
     7
 10
96.98949852352571
 20
114.0390488216001
 30
0.0
 11
96.98949852352571
 21
89.38468783150383
 31
0.0
  0
LINE
  5
248
  8
0
  6
DASHED2
 62
     7
 10
94.61260650451887
 20
96.43468304376087
 30
0.0
 11
96.29885904825888
 21
96.43468304376087
 31
0.0
  0
LINE
  5
249
  8
0
  6
DASHED2
 62
     7
 10
94.61260650451887
 20
104.33469959299
 30
0.0
 11
96.29885904825888
 21
104.33469959299
 31
0.0
  0
LINE
  5
24A
  8
0
  6
DASHED2
 62
     7
 10
89.78950560455731
 20
103.6846751982997
 30
0.0
 11
89.78950560455731
 21
97.08470743845113
 31
0.0
  0
LINE
  5
24B
  8
0
  6
DASHED2
 62
     7
 10
94.75343749397412
 20
102.3846950734679
 30
0.0
 11
96.22557108657584
 21
102.3846950734679
 31
0.0
  0
LINE
  5
24C
  8
0
  6
DASHED2
 62
     7
 10
94.75343749397412
 20
98.38468756328292
 30
0.0
 11
96.22557108657584
 21
98.38468756328292
 31
0.0
  0
LINE
  5
24D
  8
0
  6
DASHED2
 62
     7
 10
89.78950997883119
 20
97.08469725068112
 30
0.0
 11
87.48950965196532
 21
97.98469717696783
 31
0.0
  0
LINE
  5
24E
  8
0
  6
DASHED2
 62
     7
 10
87.4895144212946
 20
102.7846973326218
 30
0.0
 11
89.78951474816036
 21
103.6846972589085
 31
0.0
  0
LINE
  5
24F
  8
0
  6
DASHED2
 62
     7
 10
90.78950176005783
 20
102.9977893850303
 30
0.0
 11
90.78950176005783
 21
97.70573250539236
 31
0.0
  0
LINE
  5
250
  8
0
  6
DASHED2
 62
     7
 10
96.98949852352571
 20
102.8846874291725
 30
0.0
 11
102.445011361427
 21
102.8846874291725
 31
0.0
  0
LINE
  5
251
  8
0
  6
DASHED2
 62
     7
 10
96.98949852352571
 20
97.88469520757839
 30
0.0
 11
102.4958460156738
 21
97.88469520757839
 31
0.0
  0
LINE
  5
252
  8
0
  6
DASHED2
 62
     7
 10
96.98949852352571
 20
103.3846912289685
 30
0.0
 11
102.445011361427
 21
103.3846912289685
 31
0.0
  0
ARC
  5
253
  8
0
  6
DASHED2
 62
     7
 10
93.98949861293268
 20
100.3846913183754
 30
0.0
 40
2.999999910593036
 50
0.0
 51
41.81031315512688
  0
ARC
  5
254
  8
0
  6
DASHED2
 62
     7
 10
96.98949852352571
 20
100.3846913183754
 30
0.0
 40
2.999999910593036
 50
138.1896986840186
 51
221.8102840131373
  0
ARC
  5
255
  8
0
  6
DASHED2
 62
     7
 10
93.98949861293268
 20
100.3846913183754
 30
0.0
 40
2.999999910593036
 50
318.1896868448731
 51
360.0
  0
ARC
  5
256
  8
0
  6
DASHED2
 62
     7
 10
89.78950560455731
 20
100.3846913183754
 30
0.0
 40
3.299999973177911
 50
72.3602944823007
 51
89.99998201391065
  0
ARC
  5
257
  8
0
  6
DASHED2
 62
     7
 10
89.78950560455731
 20
100.3846913183754
 30
0.0
 40
3.299999973177911
 50
270.0000179860894
 51
287.6397055176993
  0
ARC
  5
258
  8
0
  6
DASHED2
 62
     7
 10
92.19403510442994
 20
106.1806544329958
 30
0.0
 40
2.999999910593036
 50
242.1068914535913
 51
306.7619948916872
  0
ARC
  5
259
  8
0
  6
DASHED2
 62
     7
 10
92.19403510442994
 20
94.58870531557217
 30
0.0
 40
2.999999910593036
 50
53.23800510831277
 51
117.8898300556071
  0
ARC
  5
25A
  8
0
  6
DASHED2
 62
     7
 10
94.92484709579931
 20
103.3846912289685
 30
0.0
 40
1.0
 50
200.7154669700721
 51
270.0000179860894
  0
ARC
  5
25B
  8
0
  6
DASHED2
 62
     7
 10
94.92484709579931
 20
103.3846912289685
 30
0.0
 40
1.0
 50
108.1948751325834
 51
159.2845330299279
  0
ARC
  5
25C
  8
0
  6
DASHED2
 62
     7
 10
94.92484709579931
 20
97.3846914077824
 30
0.0
 40
1.0
 50
89.99998201391065
 51
159.2845330299279
  0
ARC
  5
25D
  8
0
  6
DASHED2
 62
     7
 10
95.98660701288686
 20
103.3846912289685
 30
0.0
 40
1.0
 50
0.0
 51
71.80513670656207
  0
ARC
  5
25E
  8
0
  6
DASHED2
 62
     7
 10
95.98660701288686
 20
97.3846914077824
 30
0.0
 40
1.0
 50
0.0
 51
89.99998201391065
  0
ARC
  5
25F
  8
0
  6
DASHED2
 62
     7
 10
95.98660701288686
 20
103.3846912289685
 30
0.0
 40
1.0
 50
270.0000179860894
 51
360.0
  0
ARC
  5
260
  8
0
  6
DASHED2
 62
     7
 10
95.98660701288686
 20
97.3846914077824
 30
0.0
 40
1.0
 50
288.194863293438
 51
360.0
  0
ARC
  5
261
  8
0
  6
DASHED2
 62
     7
 10
87.96738880705398
 20
100.3846913183754
 30
0.0
 40
1.200000071525572
 50
113.46797241713
 51
246.5320171102151
  0
ARC
  5
262
  8
0
  6
DASHED2
 62
     7
 10
94.92484709579931
 20
97.3846914077824
 30
0.0
 40
1.0
 50
200.7154669700721
 51
251.8051248674166
  0
LINE
  5
263
  8
0
  6
DASHED2
 62
     7
 10
116.9895018315874
 20
-28.11532338907702
 30
0.0
 11
118.9895018315874
 21
-28.11532338907702
 31
0.0
  0
LINE
  5
264
  8
0
  6
DASHED2
 62
     7
 10
156.9895309782579
 20
-28.11532338907707
 30
0.0
 11
154.9895309782579
 21
-28.11532338907707
 31
0.0
  0
LINE
  5
265
  8
0
  6
DASHED2
 62
     7
 10
156.9895309782579
 20
-28.11532338907707
 30
0.0
 11
156.9895309782579
 21
-25.11532338907707
 31
0.0
  0
LINE
  5
266
  8
0
  6
DASHED2
 62
     7
 10
116.2045723321284
 20
18.88499127873459
 30
0.0
 11
113.9895132756789
 21
18.8849912787346
 31
0.0
  0
LINE
  5
267
  8
0
  6
DASHED2
 62
     7
 10
159.9895309782579
 20
-25.11532338907707
 30
0.0
 11
155.9895197576838
 21
-25.11532338907707
 31
0.0
  0
LINE
  5
268
  8
0
  6
DASHED2
 62
     7
 10
155.9895197576838
 20
-25.11532338907707
 30
0.0
 11
155.9895197576838
 21
-1.115323389077066
 31
0.0
  0
LINE
  5
269
  8
0
  6
DASHED2
 62
     7
 10
159.9895309782579
 20
-37.34440405943802
 30
0.0
 11
159.9895309782579
 21
27.74256572327637
 31
0.0
  0
LINE
  5
26A
  8
0
  6
DASHED2
 62
     7
 10
159.9895309782579
 20
-1.115323389077066
 30
0.0
 11
155.9895197576838
 21
-1.115323389077066
 31
0.0
  0
ARC
  5
26B
  8
0
  6
DASHED2
 62
     7
 10
136.9895164049226
 20
41.88468910046294
 30
0.0
 40
31.0
 50
300.000007155384
 51
312.1042818621088
  0
LINE
  5
26C
  8
0
  6
DASHED2
 62
     7
 10
113.9895132756789
 20
-37.34440738162928
 30
0.0
 11
113.9895132756789
 21
27.74254711120242
 31
0.0
  0
ARC
  5
26D
  8
0
  6
DASHED2
 62
     7
 10
136.9895164049226
 20
41.88468910046294
 30
0.0
 40
31.0
 50
227.8957181378911
 51
239.9999928446161
  0
LINE
  5
26E
  8
0
  6
DASHED2
 62
     7
 10
176.989522842224
 20
-18.11533170392469
 30
0.0
 11
182.989522842224
 21
-18.11533170392469
 31
0.0
  0
LINE
  5
26F
  8
0
  6
DASHED2
 62
     7
 10
156.9895310676648
 20
-15.11531654944419
 30
0.0
 11
176.989522842224
 21
-15.11531654944419
 31
0.0
  0
LINE
  5
270
  8
0
  6
DASHED2
 62
     7
 10
156.9895310676648
 20
-16.11532414903616
 30
0.0
 11
176.989522842224
 21
-16.11532414903616
 31
0.0
  0
LINE
  5
271
  8
0
  6
DASHED2
 62
     7
 10
176.989522842224
 20
-18.61532405962921
 30
0.0
 11
193.0787305884627
 21
-18.61532405962922
 31
0.0
  0
LINE
  5
272
  8
0
  6
DASHED2
 62
     7
 10
176.989522842224
 20
-18.61532405962921
 30
0.0
 11
176.989522842224
 21
-7.615332106256023
 31
0.0
  0
LINE
  5
273
  8
0
  6
DASHED2
 62
     7
 10
182.989522842224
 20
-18.11533170392469
 30
0.0
 11
182.989522842224
 21
-8.115324461960544
 31
0.0
  0
LINE
  5
274
  8
0
  6
DASHED2
 62
     7
 10
176.989522842224
 20
-7.615332106256023
 30
0.0
 11
202.9895129739269
 21
-7.615332106256037
 31
0.0
  0
LINE
  5
275
  8
0
  6
DASHED2
 62
     7
 10
176.989522842224
 20
-8.115324461960544
 30
0.0
 11
182.989522842224
 21
-8.115324461960544
 31
0.0
  0
LINE
  5
276
  8
0
  6
DASHED2
 62
     7
 10
156.9895310676648
 20
-11.11531672825813
 30
0.0
 11
176.989522842224
 21
-11.11531672825813
 31
0.0
  0
LINE
  5
277
  8
0
  6
DASHED2
 62
     7
 10
156.9895310676648
 20
-10.11533201684907
 30
0.0
 11
176.989522842224
 21
-10.11533201684907
 31
0.0
  0
LINE
  5
278
  8
0
  6
DASHED2
 62
     7
 10
156.9895310676648
 20
-16.11532414903616
 30
0.0
 11
156.9895310676648
 21
-10.11533201684907
 31
0.0
  0
CIRCLE
  5
279
  8
0
  6
DASHED2
 62
     7
 10
155.9895664574368
 20
-27.36538337270421
 30
0.0
 40
1.25
  0
CIRCLE
  5
27A
  8
0
  6
DASHED2
 62
     7
 10
117.9895373107663
 20
-27.36538337270422
 30
0.0
 40
1.25
  0
LINE
  5
27B
  8
0
  6
DASHED2
 62
     7
 10
72.98947199791923
 20
45.2847489877186
 30
0.0
 11
54.48947199791922
 21
45.2847489877186
 31
0.0
  0
LINE
  5
27C
  8
0
  6
DASHED2
 62
     7
 10
72.98947199791921
 20
38.48474898771856
 30
0.0
 11
54.48947199791922
 21
38.48474898771858
 31
0.0
  0
LINE
  5
27D
  8
0
  6
DASHED2
 62
     7
 10
70.48947199791923
 20
37.88474898771858
 30
0.0
 11
54.4894719979192
 21
37.88474898771858
 31
0.0
  0
LINE
  5
27E
  8
0
  6
DASHED2
 62
     7
 10
70.48947199791923
 20
45.88474898771858
 30
0.0
 11
70.48947199791923
 21
37.88474898771858
 31
0.0
  0
LINE
  5
27F
  8
0
  6
DASHED2
 62
     7
 10
72.98947199791923
 20
45.2847489877186
 30
0.0
 11
72.98947199791921
 21
38.48474898771856
 31
0.0
  0
LINE
  5
280
  8
0
  6
DASHED2
 62
     7
 10
72.98947199791923
 20
45.2847489877186
 30
0.0
 11
75.13793825558807
 21
41.88474898771838
 31
0.0
  0
LINE
  5
281
  8
0
  6
DASHED2
 62
     7
 10
72.98947199791921
 20
38.48474898771856
 30
0.0
 11
75.13793825558804
 21
41.88474898771877
 31
0.0
  0
LINE
  5
282
  8
0
  6
DASHED2
 62
     7
 10
156.9895710318804
 20
11.88448433251895
 30
0.0
 11
154.9895710318804
 21
11.88448433251896
 31
0.0
  0
LINE
  5
283
  8
0
  6
DASHED2
 62
     7
 10
116.9895418852099
 20
11.88448433251901
 30
0.0
 11
118.9895418852099
 21
11.88448433251902
 31
0.0
  0
LINE
  5
284
  8
0
  6
DASHED2
 62
     7
 10
154.9895710318804
 20
-28.11551566748102
 30
0.0
 11
154.9895710318804
 21
11.88448433251896
 31
0.0
  0
CIRCLE
  5
285
  8
0
  6
DASHED2
 62
     7
 10
155.9896065110594
 20
11.13442434889178
 30
0.0
 40
1.249999999999999
  0
LINE
  5
286
  8
0
  6
DASHED2
 62
     7
 10
156.9895710318804
 20
-1.115515667481024
 30
0.0
 11
156.9895710318804
 21
11.88448433251895
 31
0.0
  0
LINE
  5
287
  8
0
  6
DASHED2
 62
     7
 10
118.9895418852099
 20
-28.11551566748101
 30
0.0
 11
118.9895418852099
 21
11.88448433251902
 31
0.0
  0
LINE
  5
288
  8
0
  6
DASHED2
 62
     7
 10
116.9895418852099
 20
-28.11551566748101
 30
0.0
 11
116.9895418852099
 21
11.88448433251901
 31
0.0
  0
CIRCLE
  5
289
  8
0
  6
DASHED2
 62
     7
 10
117.9895773643889
 20
11.13442434889177
 30
0.0
 40
1.249999999999999
  0
LINE
  5
28A
  8
0
  6
DASHED2
 62
     7
 10
128.9894809257358
 20
129.8846980686013
 30
0.0
 11
128.9894809257358
 21
119.8846905584163
 31
0.0
  0
LINE
  5
28B
  8
0
  6
DASHED2
 62
     7
 10
128.9894809257358
 20
119.8846905584163
 30
0.0
 11
131.4895203835286
 21
119.8846905584163
 31
0.0
  0
LINE
  5
28C
  8
0
  6
DASHED2
 62
     7
 10
142.4894029391311
 20
119.8846905584163
 30
0.0
 11
144.9894809257358
 21
119.8846905584163
 31
0.0
  0
LINE
  5
28D
  8
0
  6
DASHED2
 62
     7
 10
144.9894809257358
 20
129.8846980686013
 30
0.0
 11
144.9894809257358
 21
119.8846905584163
 31
0.0
  0
LINE
  5
28E
  8
0
  6
DASHED2
 62
     7
 10
96.98949852352571
 20
97.3846914077824
 30
0.0
 11
102.445011361427
 21
97.3846914077824
 31
0.0
  0
LINE
  5
28F
  8
0
  6
DASHED2
 62
     7
 10
140.9895047992309
 20
-83.29455701915013
 30
0.0
 11
132.9895070526874
 21
-83.29455708132454
 31
0.0
  0
LINE
  5
290
  8
0
  6
DASHED2
 62
     7
 10
114.989488690593
 20
-81.29458848807111
 30
0.0
 11
111.4286367938667
 21
-81.29458846039684
 31
0.0
  0
LINE
  5
291
  8
0
  6
DASHED2
 62
     7
 10
114.9894886828212
 20
-81.29458222339905
 30
0.0
 11
114.9894887449957
 21
-73.29458688356699
 31
0.0
  0
LINE
  5
292
  8
0
  6
DASHED2
 62
     7
 10
114.9894886828212
 20
-81.29458222339905
 30
0.0
 11
111.2565210714703
 21
-83.44981207868867
 31
0.0
  0
LINE
  5
293
  8
0
  6
DASHED2
 62
     7
 10
104.43946404506
 20
-96.18131955968354
 30
0.0
 11
104.4394641383217
 21
-84.18132038262854
 31
0.0
  0
LINE
  5
294
  8
0
  6
DASHED2
 62
     7
 10
109.5395090285767
 20
-96.18131959932005
 30
0.0
 11
109.5395091218385
 21
-84.18132042226519
 31
0.0
  0
LINE
  5
295
  8
0
  6
DASHED2
 62
     7
 10
98.98945599643739
 20
-81.29458836372186
 30
0.0
 11
98.98945605861195
 21
-73.29458675921769
 31
0.0
  0
LINE
  5
296
  8
0
  6
DASHED2
 62
     7
 10
102.507735881293
 20
-81.2945883910652
 30
0.0
 11
98.98945599643739
 21
-81.29458836372186
 31
0.0
  0
LINE
  5
297
  8
0
  6
DASHED2
 62
     7
 10
102.6537231125156
 20
-83.41017792624402
 30
0.0
 11
98.98945995502494
 21
-81.29461437215362
 31
0.0
  0
LINE
  5
298
  8
0
  6
DASHED2
 62
     7
 10
132.9895070643452
 20
-84.79455701642931
 30
0.0
 11
132.9895069516541
 21
-70.29457290253843
 31
0.0
  0
LINE
  5
299
  8
0
  6
DASHED2
 62
     7
 10
133.5894821474885
 20
-84.79455701176643
 30
0.0
 11
133.5894820347973
 21
-70.29457289787551
 31
0.0
  0
LINE
  5
29A
  8
0
  6
DASHED2
 62
     7
 10
140.3894696462661
 20
-84.79455695891828
 30
0.0
 11
140.3894695335748
 21
-70.29457284502732
 31
0.0
  0
LINE
  5
29B
  8
0
  6
DASHED2
 62
     7
 10
140.9894447294093
 20
-84.79455695425533
 30
0.0
 11
140.9894446167182
 21
-70.29457284036445
 31
0.0
  0
LINE
  5
29C
  8
0
  6
DASHED2
 62
     7
 10
104.43946404506
 20
-96.18131955968354
 30
0.0
 11
109.5395090285767
 21
-96.18131959932005
 31
0.0
  0
LINE
  5
29D
  8
0
  6
DASHED2
 62
     7
 10
104.9894821385193
 20
-108.9187584174567
 30
0.0
 11
104.9894822375123
 21
-96.181319567844
 31
0.0
  0
LINE
  5
29E
  8
0
  6
DASHED2
 62
     7
 10
108.9894821406533
 20
-108.6441775440518
 30
0.0
 11
108.9894822375123
 21
-96.18131959115947
 31
0.0
  0
LINE
  5
29F
  8
0
  6
DASHED2
 62
     7
 10
156.989486317965
 20
-92.79457283100568
 30
0.0
 11
176.9894780925243
 21
-92.79457283100568
 31
0.0
  0
LINE
  5
2A0
  8
0
  6
DASHED2
 62
     7
 10
156.9894863179651
 20
-93.79458043059765
 30
0.0
 11
176.9894780925243
 21
-93.79458043059765
 31
0.0
  0
LINE
  5
2A1
  8
0
  6
DASHED2
 62
     7
 10
156.9894863179651
 20
-93.79458043059765
 30
0.0
 11
156.989486317965
 21
-87.79458829841056
 31
0.0
  0
LINE
  5
2A2
  8
0
  6
DASHED2
 62
     7
 10
156.989486317965
 20
-88.79457300981962
 30
0.0
 11
176.9894780925243
 21
-88.79457300981962
 31
0.0
  0
LINE
  5
2A3
  8
0
  6
DASHED2
 62
     7
 10
156.989486317965
 20
-87.79458829841056
 30
0.0
 11
176.9894780925243
 21
-87.79458829841056
 31
0.0
  0
LINE
  5
2A4
  8
0
  6
DASHED2
 62
     7
 10
176.9894780925243
 20
-95.79458798548617
 30
0.0
 11
182.9894780925243
 21
-95.79458798548617
 31
0.0
  0
LINE
  5
2A5
  8
0
  6
DASHED2
 62
     7
 10
176.9894780925243
 20
-96.2945803411907
 30
0.0
 11
186.03743379644
 21
-96.2945803411907
 31
0.0
  0
LINE
  5
2A6
  8
0
  6
DASHED2
 62
     7
 10
176.9894780925243
 20
-96.2945803411907
 30
0.0
 11
176.9894780925243
 21
-85.29458838781751
 31
0.0
  0
LINE
  5
2A7
  8
0
  6
DASHED2
 62
     7
 10
182.9894780925243
 20
-95.79458798548617
 30
0.0
 11
182.9894780925243
 21
-85.79458074352203
 31
0.0
  0
LINE
  5
2A8
  8
0
  6
DASHED2
 62
     7
 10
176.9894780925243
 20
-85.29458838781751
 30
0.0
 11
186.03743379644
 21
-85.29458838781751
 31
0.0
  0
LINE
  5
2A9
  8
0
  6
DASHED2
 62
     7
 10
176.9894780925243
 20
-85.79458074352203
 30
0.0
 11
182.9894780925243
 21
-85.79458074352203
 31
0.0
  0
LINE
  5
2AA
  8
0
  6
DASHED2
 62
     7
 10
155.9894750079841
 20
-95.7945558849423
 30
0.0
 11
155.9894750079841
 21
-85.79455584074012
 31
0.0
  0
LINE
  5
2AB
  8
0
  6
DASHED2
 62
     7
 10
70.48947161520054
 20
45.88470788534045
 30
0.0
 11
54.48947161520064
 21
45.88470635445798
 31
0.0
  0
LINE
  5
2AC
  8
0
  6
DASHED2
 62
     7
 10
157.7744604777089
 20
18.88499127873459
 30
0.0
 11
159.9895195341584
 21
18.8849912787346
 31
0.0
  0
LINE
  5
2AD
  8
0
  6
CONTINUOUS
 62
     3
 10
-191.6272015658006
 20
-40.11531442093867
 30
0.0
 11
-107.6272015658006
 21
-40.11531442093867
 31
0.0
  0
LINE
  5
2AE
  8
0
  6
CONTINUOUS
 62
     3
 10
-191.6272015658006
 20
-27.61531442093868
 30
0.0
 11
-187.6272046175584
 21
-27.61531442093868
 31
0.0
  0
LINE
  5
2AF
  8
0
  6
CONTINUOUS
 62
     3
 10
-191.6272015658006
 20
112.3846855790613
 30
0.0
 11
-187.6272046175584
 21
112.3846855790613
 31
0.0
  0
LINE
  5
2B0
  8
0
  6
CONTINUOUS
 62
     3
 10
-187.4272046175584
 20
15.38468557906132
 30
0.0
 11
-156.6272015658006
 21
15.38468557906132
 31
0.0
  0
LINE
  5
2B1
  8
0
  6
CONTINUOUS
 62
     3
 10
-108.1272015658006
 20
72.26778799605351
 30
0.0
 11
-108.1272015658006
 21
9.384686055898481
 31
0.0
  0
LINE
  5
2B2
  8
0
  6
CONTINUOUS
 62
     3
 10
-108.1272015658006
 20
9.384686055898481
 30
0.0
 11
-105.6272015658006
 21
9.384686055898481
 31
0.0
  0
LINE
  5
2B3
  8
0
  6
CONTINUOUS
 62
     3
 10
-108.1272015658006
 20
72.26778799605351
 30
0.0
 11
-105.6272015658006
 21
72.26778799605351
 31
0.0
  0
LINE
  5
2B4
  8
0
  6
CONTINUOUS
 62
     3
 10
-154.6271979895221
 20
69.38468557906133
 30
0.0
 11
-133.1271937991861
 21
69.38468557906133
 31
0.0
  0
LINE
  5
2B5
  8
0
  6
CONTINUOUS
 62
     3
 10
-137.6272015658006
 20
73.88468557906133
 30
0.0
 11
-103.6272061255558
 21
73.88468557906133
 31
0.0
  0
LINE
  5
2B6
  8
0
  6
CONTINUOUS
 62
     3
 10
-177.6272015658006
 20
68.88468557906133
 30
0.0
 11
-177.6272015658006
 21
15.88468557906133
 31
0.0
  0
LINE
  5
2B7
  8
0
  6
CONTINUOUS
 62
     3
 10
-177.6271348325552
 20
68.88463452860667
 30
0.0
 11
-177.1271434897365
 21
69.38463349993087
 31
0.0
  0
LINE
  5
2B8
  8
0
  6
CONTINUOUS
 62
     3
 10
-177.6271963244095
 20
15.88468435961947
 30
0.0
 11
-177.1271957936147
 21
15.38468382882472
 31
0.0
  0
LINE
  5
2B9
  8
0
  6
CONTINUOUS
 62
     3
 10
-177.1271773733925
 20
26.38468557906133
 30
0.0
 11
-152.1272015658006
 21
26.38468557906133
 31
0.0
  0
LINE
  5
2BA
  8
0
  6
CONTINUOUS
 62
     3
 10
-177.1271957936147
 20
58.38468557906134
 30
0.0
 11
-152.1271927004282
 21
58.38468557906134
 31
0.0
  0
LINE
  5
2BB
  8
0
  6
CONTINUOUS
 62
     3
 10
-151.6272015658006
 20
63.88468557906134
 30
0.0
 11
-151.6272015658006
 21
20.88468557906133
 31
0.0
  0
LINE
  5
2BC
  8
0
  6
CONTINUOUS
 62
     3
 10
-144.6272015658006
 20
65.63468557906134
 30
0.0
 11
-144.6272015658006
 21
19.13468557906133
 31
0.0
  0
LINE
  5
2BD
  8
0
  6
CONTINUOUS
 62
     3
 10
-143.1272015658006
 20
65.63468557906134
 30
0.0
 11
-143.1272015658006
 21
64.68468100142462
 31
0.0
  0
LINE
  5
2BE
  8
0
  6
CONTINUOUS
 62
     3
 10
-151.6272015658006
 20
63.88468557906134
 30
0.0
 11
-144.6272015658006
 21
63.88468557906134
 31
0.0
  0
LINE
  5
2BF
  8
0
  6
CONTINUOUS
 62
     3
 10
-151.6272015658006
 20
20.88468557906133
 30
0.0
 11
-144.6272015658006
 21
20.88468557906133
 31
0.0
  0
LINE
  5
2C0
  8
0
  6
CONTINUOUS
 62
     3
 10
-144.6272015658006
 20
65.63468557906134
 30
0.0
 11
-143.1272015658006
 21
65.63468557906134
 31
0.0
  0
LINE
  5
2C1
  8
0
  6
CONTINUOUS
 62
     3
 10
-144.6272015658006
 20
19.13468557906133
 30
0.0
 11
-143.1272015658006
 21
19.13468557906133
 31
0.0
  0
LINE
  5
2C2
  8
0
  6
CONTINUOUS
 62
     3
 10
-152.1272015658006
 20
58.38468557906134
 30
0.0
 11
-152.1272015658006
 21
52.38468557906133
 31
0.0
  0
LINE
  5
2C3
  8
0
  6
CONTINUOUS
 62
     3
 10
-177.1272015658006
 20
58.38468557906134
 30
0.0
 11
-177.1272015658006
 21
52.38468557906133
 31
0.0
  0
LINE
  5
2C4
  8
0
  6
CONTINUOUS
 62
     3
 10
-177.1272015658006
 20
32.38468557906133
 30
0.0
 11
-177.1272015658006
 21
26.38468557906133
 31
0.0
  0
LINE
  5
2C5
  8
0
  6
CONTINUOUS
 62
     3
 10
-152.1272015658006
 20
32.38468557906133
 30
0.0
 11
-152.1272015658006
 21
26.38468557906133
 31
0.0
  0
LINE
  5
2C6
  8
0
  6
CONTINUOUS
 62
     3
 10
-152.1271927004282
 20
58.38466367918608
 30
0.0
 11
-151.627193139012
 21
58.88466517935939
 31
0.0
  0
LINE
  5
2C7
  8
0
  6
CONTINUOUS
 62
     3
 10
-177.1271957936147
 20
58.38468313403263
 30
0.0
 11
-177.6271963244095
 21
58.88468366482738
 31
0.0
  0
LINE
  5
2C8
  8
0
  6
CONTINUOUS
 62
     3
 10
-177.1271773733925
 20
26.38467414486484
 30
0.0
 11
-177.6271790843003
 21
25.88467479418312
 31
0.0
  0
LINE
  5
2C9
  8
0
  6
CONTINUOUS
 62
     3
 10
-152.1271928442471
 20
26.38468405789734
 30
0.0
 11
-151.6271937464467
 21
25.88468209410819
 31
0.0
  0
LINE
  5
2CA
  8
0
  6
CONTINUOUS
 62
     3
 10
-143.6272015658006
 20
19.38468557906133
 30
0.0
 11
-132.6272015658006
 21
19.38468557906133
 31
0.0
  0
LINE
  5
2CB
  8
0
  6
CONTINUOUS
 62
     3
 10
-143.6272015658006
 20
65.38468557906134
 30
0.0
 11
-132.6272015658006
 21
65.38468557906134
 31
0.0
  0
LINE
  5
2CC
  8
0
  6
CONTINUOUS
 62
     3
 10
-156.6272015658006
 20
15.38468557906132
 30
0.0
 11
-108.1272015658006
 21
15.38468557906132
 31
0.0
  0
LINE
  5
2CD
  8
0
  6
CONTINUOUS
 62
     3
 10
-143.6272015658006
 20
65.38468557906134
 30
0.0
 11
-143.6272015658006
 21
19.38468557906133
 31
0.0
  0
LINE
  5
2CE
  8
0
  6
CONTINUOUS
 62
     3
 10
-143.6272015658006
 20
26.38468557906133
 30
0.0
 11
-132.6272015658006
 21
26.38468557906133
 31
0.0
  0
LINE
  5
2CF
  8
0
  6
CONTINUOUS
 62
     3
 10
-143.1272015658006
 20
20.08468634200078
 30
0.0
 11
-143.1272015658006
 21
19.13468557906133
 31
0.0
  0
LINE
  5
2D0
  8
0
  6
CONTINUOUS
 62
     3
 10
-143.6272015658006
 20
58.38468557906134
 30
0.0
 11
-132.6272015658006
 21
58.38468557906134
 31
0.0
  0
LINE
  5
2D1
  8
0
  6
CONTINUOUS
 62
     3
 10
-187.6272046175584
 20
69.38468557906133
 30
0.0
 11
-154.6271979895221
 21
69.38468557906133
 31
0.0
  0
LINE
  5
2D2
  8
0
  6
CONTINUOUS
 62
     3
 10
-143.6272015658006
 20
59.38468557906134
 30
0.0
 11
-132.6272015658006
 21
59.38468557906134
 31
0.0
  0
LINE
  5
2D3
  8
0
  6
CONTINUOUS
 62
     3
 10
-143.6272015658006
 20
63.38468557906134
 30
0.0
 11
-132.6272015658006
 21
63.38468557906134
 31
0.0
  0
LINE
  5
2D4
  8
0
  6
CONTINUOUS
 62
     3
 10
-139.6272015658006
 20
63.38468557906134
 30
0.0
 11
-139.6272015658006
 21
59.38468557906134
 31
0.0
  0
LINE
  5
2D5
  8
0
  6
CONTINUOUS
 62
     3
 10
-135.6272015658006
 20
63.38468557906134
 30
0.0
 11
-135.6272015658006
 21
59.38468557906134
 31
0.0
  0
LINE
  5
2D6
  8
0
  6
CONTINUOUS
 62
     3
 10
-137.6272061255558
 20
130.8846932084559
 30
0.0
 11
-137.6272061255558
 21
108.8699872976152
 31
0.0
  0
LINE
  5
2D7
  8
0
  6
CONTINUOUS
 62
     3
 10
-137.6272061255558
 20
108.8699872976152
 30
0.0
 11
-137.6272061255558
 21
69.38468557906133
 31
0.0
  0
LINE
  5
2D8
  8
0
  6
CONTINUOUS
 62
     3
 10
-115.6272061255558
 20
115.8846855790613
 30
0.0
 11
-115.6272061255558
 21
107.8846855790613
 31
0.0
  0
LINE
  5
2D9
  8
0
  6
CONTINUOUS
 62
     3
 10
-115.6272061255558
 20
90.88468557906133
 30
0.0
 11
-115.6272061255558
 21
82.88468557906133
 31
0.0
  0
LINE
  5
2DA
  8
0
  6
CONTINUOUS
 62
     3
 10
-95.62720994025305
 20
118.3846855790614
 30
0.0
 11
-95.62720994025305
 21
105.3846855790613
 31
0.0
  0
LINE
  5
2DB
  8
0
  6
CONTINUOUS
 62
     3
 10
-117.1272061255558
 20
119.8846855790614
 30
0.0
 11
-102.6272061255558
 21
119.8846855790614
 31
0.0
  0
LINE
  5
2DC
  8
0
  6
CONTINUOUS
 62
     3
 10
-117.1272061255558
 20
119.8846855790614
 30
0.0
 11
-117.1272061255558
 21
78.88468557906133
 31
0.0
  0
LINE
  5
2DD
  8
0
  6
CONTINUOUS
 62
     3
 10
-117.1272061255558
 20
82.88468557906133
 30
0.0
 11
-95.62720994025305
 21
82.88468557906133
 31
0.0
  0
LINE
  5
2DE
  8
0
  6
CONTINUOUS
 62
     3
 10
-117.1272061255558
 20
90.88468557906133
 30
0.0
 11
-95.62720994025305
 21
90.88468557906133
 31
0.0
  0
LINE
  5
2DF
  8
0
  6
CONTINUOUS
 62
     3
 10
-117.1272061255558
 20
115.8846855790613
 30
0.0
 11
-95.62720994025305
 21
115.8846855790613
 31
0.0
  0
LINE
  5
2E0
  8
0
  6
CONTINUOUS
 62
     3
 10
-117.1272061255558
 20
107.8846855790613
 30
0.0
 11
-95.62720994025305
 21
107.8846855790613
 31
0.0
  0
LINE
  5
2E1
  8
0
  6
CONTINUOUS
 62
     3
 10
-117.1272061255558
 20
78.88468557906133
 30
0.0
 11
-102.6272061255558
 21
78.88468557906133
 31
0.0
  0
LINE
  5
2E2
  8
0
  6
CONTINUOUS
 62
     3
 10
-102.6272061255558
 20
82.88468557906133
 30
0.0
 11
-102.6272061255558
 21
78.88468557906133
 31
0.0
  0
LINE
  5
2E3
  8
0
  6
CONTINUOUS
 62
     3
 10
-102.6272061255558
 20
107.8846855790613
 30
0.0
 11
-102.6272061255558
 21
90.88468557906133
 31
0.0
  0
LINE
  5
2E4
  8
0
  6
CONTINUOUS
 62
     3
 10
-95.62720994025305
 20
93.38468557906133
 30
0.0
 11
-95.62720994025305
 21
80.38468557906133
 31
0.0
  0
LINE
  5
2E5
  8
0
  6
CONTINUOUS
 62
     3
 10
-102.6272061255558
 20
119.8846855790614
 30
0.0
 11
-102.6272061255558
 21
115.8846855790613
 31
0.0
  0
LINE
  5
2E6
  8
0
  6
CONTINUOUS
 62
     3
 10
-126.1272063937767
 20
123.1209984452722
 30
0.0
 11
-126.1272063937767
 21
121.6488609941004
 31
0.0
  0
LINE
  5
2E7
  8
0
  6
CONTINUOUS
 62
     3
 10
-122.1272063937767
 20
123.1209984452722
 30
0.0
 11
-122.1272063937767
 21
121.6488609941004
 31
0.0
  0
LINE
  5
2E8
  8
0
  6
CONTINUOUS
 62
     3
 10
-120.7346282687767
 20
123.8849144608972
 30
0.0
 11
-127.5198455539329
 21
123.8849144608972
 31
0.0
  0
LINE
  5
2E9
  8
0
  6
CONTINUOUS
 62
     3
 10
-121.5141692844017
 20
127.084919038534
 30
0.0
 11
-126.8061614719017
 21
127.084919038534
 31
0.0
  0
LINE
  5
2EA
  8
0
  6
CONTINUOUS
 62
     3
 10
-121.1272063937767
 20
120.884853425741
 30
0.0
 11
-127.1272063937767
 21
120.884853425741
 31
0.0
  0
LINE
  5
2EB
  8
0
  6
CONTINUOUS
 62
     3
 10
-128.077218600808
 20
123.2618370683191
 30
0.0
 11
-128.077218600808
 21
121.5755882890222
 31
0.0
  0
ARC
  5
2EC
  8
0
  6
CONTINUOUS
 62
     3
 10
-127.1272063937767
 20
121.8878136308191
 30
0.0
 40
1.0
 50
198.1988974307593
 51
359.9999710095899
  0
ARC
  5
2ED
  8
0
  6
CONTINUOUS
 62
     3
 10
-127.1272063937767
 20
122.9495812089441
 30
0.0
 40
1.0
 50
110.7154403325608
 51
161.8050913997161
  0
ARC
  5
2EE
  8
0
  6
CONTINUOUS
 62
     3
 10
-127.1272063937767
 20
122.9495812089441
 30
0.0
 40
1.0
 50
359.9999710095899
 51
429.2845236952606
  0
ARC
  5
2EF
  8
0
  6
CONTINUOUS
 62
     3
 10
-121.1272063937767
 20
122.9495812089441
 30
0.0
 40
1.0
 50
110.7154403325608
 51
179.9999776881997
  0
ARC
  5
2F0
  8
0
  6
CONTINUOUS
 62
     3
 10
-129.9232269015892
 20
125.6804085404871
 30
0.0
 40
3.0
 50
323.2379957736454
 51
387.8898190133925
  0
ARC
  5
2F1
  8
0
  6
CONTINUOUS
 62
     3
 10
-118.3312469211204
 20
125.680378022909
 30
0.0
 40
3.0
 50
152.1068511557016
 51
216.7619682541759
  0
ARC
  5
2F2
  8
0
  6
CONTINUOUS
 62
     3
 10
-124.1272063937767
 20
123.8849144608972
 30
0.0
 40
3.0
 50
228.1896706800166
 51
269.9999701747652
  0
ARC
  5
2F3
  8
0
  6
CONTINUOUS
 62
     3
 10
-124.1272063937767
 20
120.8849144608972
 30
0.0
 40
3.0
 50
48.18968934935128
 51
131.81027467847
  0
ARC
  5
2F4
  8
0
  6
CONTINUOUS
 62
     3
 10
-124.1272063937767
 20
123.8849144608972
 30
0.0
 40
3.0
 50
269.9999906653327
 51
311.8103038204595
  0
ARC
  5
2F5
  8
0
  6
CONTINUOUS
 62
     3
 10
-121.1272063937767
 20
121.8878136308191
 30
0.0
 40
1.0
 50
179.9999776881997
 51
341.8082382956906
  0
ARC
  5
2F6
  8
0
  6
CONTINUOUS
 62
     3
 10
-121.1272063937767
 20
122.9495812089441
 30
0.0
 40
1.0
 50
18.1948640903688
 51
69.28452369526056
  0
LINE
  5
2F7
  8
0
  6
CONTINUOUS
 62
     3
 10
-120.1771941867454
 20
123.2618370683191
 30
0.0
 11
-120.1771941867454
 21
121.5756188066004
 31
0.0
  0
LINE
  5
2F8
  8
0
  6
CONTINUOUS
 62
     3
 10
-121.7272430148704
 20
130.3849068315027
 30
0.0
 11
-126.5272308078392
 21
130.3849068315027
 31
0.0
  0
ARC
  5
2F9
  8
0
  6
CONTINUOUS
 62
     3
 10
-124.1272063937767
 20
129.9070320756433
 30
0.0
 40
1.200000047683716
 50
23.46796137491541
 51
156.5320077755478
  0
LINE
  5
2FA
  8
0
  6
CONTINUOUS
 62
     3
 10
-121.7271235195321
 20
130.3849925512874
 30
0.0
 11
-120.8271234192106
 21
128.0849923030888
 31
0.0
  0
LINE
  5
2FB
  8
0
  6
CONTINUOUS
 62
     3
 10
-127.4271573419946
 20
128.0849224202981
 30
0.0
 11
-126.5271575360984
 21
130.3849228157093
 31
0.0
  0
LINE
  5
2FC
  8
0
  6
CONTINUOUS
 62
     3
 10
-120.8272186008079
 20
128.0849190385339
 30
0.0
 11
-127.4271941867454
 21
128.0849190385339
 31
0.0
  0
LINE
  5
2FD
  8
0
  6
CONTINUOUS
 62
     3
 10
-127.1272063937767
 20
113.7716637284753
 30
0.0
 11
-121.1272063937767
 21
113.7716637284753
 31
0.0
  0
LINE
  5
2FE
  8
0
  6
CONTINUOUS
 62
     3
 10
-126.6771941867454
 20
110.7716713578699
 30
0.0
 11
-121.5771575656517
 21
110.7716713578699
 31
0.0
  0
LINE
  5
2FF
  8
0
  6
CONTINUOUS
 62
     3
 10
-127.1271453586204
 20
113.7716637284753
 30
0.0
 11
-127.1271453586204
 21
120.8849144608972
 31
0.0
  0
LINE
  5
300
  8
0
  6
CONTINUOUS
 62
     3
 10
-121.1272063937767
 20
113.7716637284753
 30
0.0
 11
-121.1272063937767
 21
120.8849144608972
 31
0.0
  0
LINE
  5
301
  8
0
  6
CONTINUOUS
 62
     3
 10
-126.6771941867454
 20
110.7716713578699
 30
0.0
 11
-126.6771941867454
 21
120.8849144608972
 31
0.0
  0
LINE
  5
302
  8
0
  6
CONTINUOUS
 62
     3
 10
-121.5771575656517
 20
110.7716713578699
 30
0.0
 11
-121.5771575656517
 21
120.8849144608972
 31
0.0
  0
LINE
  5
303
  8
0
  6
CONTINUOUS
 62
     3
 10
-117.6272061255558
 20
120.8849449784754
 30
0.0
 11
-132.1272063937767
 21
120.8849449784754
 31
0.0
  0
ARC
  5
304
  8
0
  6
CONTINUOUS
 62
     3
 10
-124.1272063937767
 20
128.0849190385339
 30
0.0
 40
3.299999952316284
 50
179.9999776881997
 51
197.6396788801879
  0
ARC
  5
305
  8
0
  6
CONTINUOUS
 62
     3
 10
-124.1272063937767
 20
128.0849190385339
 30
0.0
 40
3.299999952316284
 50
342.3602834400861
 51
359.9999710095899
  0
LINE
  5
306
  8
0
  6
CONTINUOUS
 62
     3
 10
-132.1272063937767
 20
120.8849449784754
 30
0.0
 11
-132.1272063937767
 21
130.8846932084558
 31
0.0
  0
LINE
  5
307
  8
0
  6
CONTINUOUS
 62
     3
 10
-137.6272061255558
 20
130.8846932084559
 30
0.0
 11
-125.1054135148448
 21
130.8846932084559
 31
0.0
  0
LINE
  5
308
  8
0
  6
CONTINUOUS
 62
     3
 10
-123.1697971281438
 20
130.8846932084559
 30
0.0
 11
-103.6272061255558
 21
130.8846932084559
 31
0.0
  0
LINE
  5
309
  8
0
  6
CONTINUOUS
 62
     3
 10
-191.6272015658006
 20
124.8846855790614
 30
0.0
 11
-137.6272061255558
 21
124.8846855790614
 31
0.0
  0
LINE
  5
30A
  8
0
  6
CONTINUOUS
 62
     3
 10
-105.6272015658006
 20
73.88468557906133
 30
0.0
 11
-105.6272015658006
 21
-38.11531442093867
 31
0.0
  0
LINE
  5
30B
  8
0
  6
CONTINUOUS
 62
     3
 10
-191.6272015658006
 20
124.8846855790614
 30
0.0
 11
-191.6272015658006
 21
-5.000314649820513
 31
0.0
  0
LINE
  5
30C
  8
0
  6
CONTINUOUS
 62
     3
 10
-191.6272015658006
 20
-15.00031464982051
 30
0.0
 11
-191.6272015658006
 21
-40.11531442093867
 31
0.0
  0
LINE
  5
30D
  8
0
  6
CONTINUOUS
 62
     3
 10
-187.6272046175584
 20
112.3846855790613
 30
0.0
 11
-187.6272046175584
 21
-5.000314649820513
 31
0.0
  0
LINE
  5
30E
  8
0
  6
CONTINUOUS
 62
     3
 10
-187.6272046175584
 20
-15.00031464982051
 30
0.0
 11
-187.6272046175584
 21
-27.61531442093868
 31
0.0
  0
LINE
  5
30F
  8
0
  6
CONTINUOUS
 62
     3
 10
-133.1271937991861
 20
69.38468557906133
 30
0.0
 11
-132.6272015658006
 21
68.88469334567587
 31
0.0
  0
LINE
  5
310
  8
0
  6
CONTINUOUS
 62
     3
 10
-132.6272002908191
 20
15.88467896482296
 30
0.0
 11
-133.1272008216138
 21
15.3846784340282
 31
0.0
  0
LINE
  5
311
  8
0
  6
CONTINUOUS
 62
     3
 10
-132.6272015658006
 20
68.88469334567587
 30
0.0
 11
-132.6272015658006
 21
15.88467768984144
 31
0.0
  0
LINE
  5
312
  8
0
  6
CONTINUOUS
 62
     3
 10
-87.62720994025305
 20
118.3846855790614
 30
0.0
 11
-87.62720994025305
 21
105.3846855790613
 31
0.0
  0
LINE
  5
313
  8
0
  6
CONTINUOUS
 62
     3
 10
-87.62720994025305
 20
93.38468557906133
 30
0.0
 11
-87.62720994025305
 21
80.38468557906133
 31
0.0
  0
LINE
  5
314
  8
0
  6
CONTINUOUS
 62
     3
 10
150.9894800273112
 20
129.8846781961715
 30
0.0
 11
159.9895092896981
 21
127.4731278809298
 31
0.0
  0
LINE
  5
315
  8
0
  6
CONTINUOUS
 62
     3
 10
113.9894985014564
 20
127.4731402639843
 30
0.0
 11
122.9894835472698
 21
129.8846787314323
 31
0.0
  0
LINE
  5
316
  8
0
  6
CONTINUOUS
 62
     3
 10
113.9895018315834
 20
127.4731304524834
 30
0.0
 11
113.9895018315834
 21
121.1137861595846
 31
0.0
  0
LINE
  5
317
  8
0
  6
CONTINUOUS
 62
     3
 10
159.9895631286892
 20
-43.70381835032896
 30
0.0
 11
159.9895630792656
 21
-37.34447414303457
 31
0.0
  0
LINE
  5
318
  8
0
  6
CONTINUOUS
 62
     3
 10
131.4895203835287
 20
129.8846980686013
 30
0.0
 11
131.4895203835286
 21
119.3488064421313
 31
0.0
  0
LINE
  5
319
  8
0
  6
CONTINUOUS
 62
     3
 10
142.4895124263089
 20
129.8846980686013
 30
0.0
 11
142.4895124263088
 21
119.3488064421314
 31
0.0
  0
LINE
  5
31A
  8
0
  6
CONTINUOUS
 62
     3
 10
131.4895203835286
 20
77.88468796561428
 30
0.0
 11
142.4895124263088
 21
77.88468796561422
 31
0.0
  0
LINE
  5
31B
  8
0
  6
CONTINUOUS
 62
     3
 10
159.9895195341624
 20
127.4731304524834
 30
0.0
 11
159.9895195341624
 21
121.1137861595846
 31
0.0
  0
LINE
  5
31C
  8
0
  6
CONTINUOUS
 62
     3
 10
121.4895130521575
 20
129.4827815766731
 30
0.0
 11
121.4895130521575
 21
63.99238565259165
 31
0.0
  0
LINE
  5
31D
  8
0
  6
CONTINUOUS
 62
     3
 10
152.4895319975327
 20
-45.71343517348139
 30
0.0
 11
152.4895314885539
 21
19.77693135208345
 31
0.0
  0
LINE
  5
31E
  8
0
  6
CONTINUOUS
 62
     3
 10
131.4895203835286
 20
118.8846905584163
 30
0.0
 11
142.4895124263088
 21
118.8846905584163
 31
0.0
  0
LINE
  5
31F
  8
0
  6
CONTINUOUS
 62
     3
 10
152.4895197576798
 20
129.4827815766731
 30
0.0
 11
152.4895197576798
 21
63.99238565259171
 31
0.0
  0
LINE
  5
320
  8
0
  6
CONTINUOUS
 62
     3
 10
142.4895124263088
 20
82.42058352599052
 30
0.0
 11
142.4895124263088
 21
72.88469806860131
 31
0.0
  0
LINE
  5
321
  8
0
  6
CONTINUOUS
 62
     3
 10
131.4895203835286
 20
82.42058352599064
 30
0.0
 11
131.4895203835286
 21
72.88469806860131
 31
0.0
  0
LINE
  5
322
  8
0
  6
CONTINUOUS
 62
     3
 10
159.9895671089607
 20
-43.70382142728181
 30
0.0
 11
150.9895760827261
 21
-46.11536134809343
 31
0.0
  0
LINE
  5
323
  8
0
  6
CONTINUOUS
 62
     3
 10
170.9895103982738
 20
100.3847089047339
 30
0.0
 11
168.9895118883903
 21
103.848806812416
 31
0.0
  0
LINE
  5
324
  8
0
  6
CONTINUOUS
 62
     3
 10
168.9895160217629
 20
103.8487927084964
 30
0.0
 11
164.9895199556693
 21
103.8487922316596
 31
0.0
  0
LINE
  5
325
  8
0
  6
CONTINUOUS
 62
     3
 10
164.9895135267314
 20
96.92058843815283
 30
0.0
 11
168.9895095928251
 21
96.92059034549999
 31
0.0
  0
LINE
  5
326
  8
0
  6
CONTINUOUS
 62
     3
 10
168.9895105939858
 20
96.92059823079367
 30
0.0
 11
170.98950910387
 21
100.3846993314495
 31
0.0
  0
LINE
  5
327
  8
0
  6
CONTINUOUS
 62
     3
 10
162.9895197459574
 20
100.384660892633
 30
0.0
 11
164.9895029970299
 21
96.92059367123528
 31
0.0
  0
LINE
  5
328
  8
0
  6
CONTINUOUS
 62
     3
 10
164.989513847299
 20
103.8488006876352
 30
0.0
 11
162.9895158142518
 21
100.3846991101424
 31
0.0
  0
LINE
  5
329
  8
0
  6
CONTINUOUS
 62
     3
 10
131.4895203835286
 20
77.88439041923643
 30
0.0
 11
142.4895124263088
 21
77.88439041923643
 31
0.0
  0
ARC
  5
32A
  8
0
  6
CONTINUOUS
 62
     3
 10
136.9895164049187
 20
41.88468733976552
 30
0.0
 40
82.49999754130847
 50
340.829018207419
 51
439.1709834622331
  0
CIRCLE
  5
32B
  8
0
  6
CONTINUOUS
 62
     3
 10
166.9895155108491
 20
100.3846913183754
 30
0.0
 40
2.400000143051142
  0
CIRCLE
  5
32C
  8
0
  6
CONTINUOUS
 62
     3
 10
166.9895155108491
 20
100.3846913183754
 30
0.0
 40
0.7499999776482585
  0
CIRCLE
  5
32D
  8
0
  6
CONTINUOUS
 62
     3
 10
166.9895155108491
 20
100.3846913183754
 30
0.0
 40
3.29999997317791
  0
CIRCLE
  5
32E
  8
0
  6
CONTINUOUS
 62
     3
 10
166.9895155108491
 20
100.3846913183754
 30
0.0
 40
7.999999999999997
  0
CIRCLE
  5
32F
  8
0
  6
CONTINUOUS
 62
     3
 10
136.9895164049187
 20
41.88469703382394
 30
0.0
 40
27.0
  0
CIRCLE
  5
330
  8
0
  6
CONTINUOUS
 62
     3
 10
136.9895164049187
 20
41.88469703382394
 30
0.0
 40
23.0
  0
CIRCLE
  5
331
  8
0
  6
CONTINUOUS
 62
     3
 10
136.9895164049187
 20
61.38469703382395
 30
0.0
 40
2.0
  0
CIRCLE
  5
332
  8
0
  6
CONTINUOUS
 62
     3
 10
155.9895164049187
 20
41.88469703382394
 30
0.0
 40
2.25
  0
LINE
  5
333
  8
0
  6
CONTINUOUS
 62
     3
 10
135.0030480174401
 20
122.1207440252131
 30
0.0
 11
135.0030480174401
 21
120.6486065740413
 31
0.0
  0
LINE
  5
334
  8
0
  6
CONTINUOUS
 62
     3
 10
139.0030480174401
 20
122.1207440252131
 30
0.0
 11
139.0030480174401
 21
120.6486065740413
 31
0.0
  0
LINE
  5
335
  8
0
  6
CONTINUOUS
 62
     3
 10
140.3956261424401
 20
122.8846600408381
 30
0.0
 11
133.6104088572838
 21
122.8846600408381
 31
0.0
  0
LINE
  5
336
  8
0
  6
CONTINUOUS
 62
     3
 10
139.6160851268151
 20
126.0846646184749
 30
0.0
 11
134.3240929393151
 21
126.0846646184749
 31
0.0
  0
LINE
  5
337
  8
0
  6
CONTINUOUS
 62
     3
 10
133.0530358104088
 20
122.26158264826
 30
0.0
 11
133.0530358104088
 21
120.5753338689631
 31
0.0
  0
ARC
  5
338
  8
0
  6
CONTINUOUS
 62
     3
 10
134.0030480174401
 20
121.949326788885
 30
0.0
 40
1.0
 50
110.7154403325608
 51
161.8050913997161
  0
ARC
  5
339
  8
0
  6
CONTINUOUS
 62
     3
 10
134.0030480174401
 20
121.949326788885
 30
0.0
 40
1.0
 50
359.9999710095899
 51
429.2845236952606
  0
ARC
  5
33A
  8
0
  6
CONTINUOUS
 62
     3
 10
140.0030480174401
 20
121.949326788885
 30
0.0
 40
1.0
 50
110.7154403325608
 51
179.9999776881997
  0
ARC
  5
33B
  8
0
  6
CONTINUOUS
 62
     3
 10
131.2070275096276
 20
124.680154120428
 30
0.0
 40
3.0
 50
323.2379957736454
 51
387.8898190133925
  0
ARC
  5
33C
  8
0
  6
CONTINUOUS
 62
     3
 10
142.7990074900963
 20
124.6801236028499
 30
0.0
 40
3.0
 50
152.1068511557016
 51
216.7619682541759
  0
ARC
  5
33D
  8
0
  6
CONTINUOUS
 62
     3
 10
137.0030480174401
 20
119.8846600408381
 30
0.0
 40
3.0
 50
48.18968934935128
 51
131.81027467847
  0
ARC
  5
33E
  8
0
  6
CONTINUOUS
 62
     3
 10
140.0030480174401
 20
121.949326788885
 30
0.0
 40
1.0
 50
18.1948640903688
 51
69.28452369526056
  0
LINE
  5
33F
  8
0
  6
CONTINUOUS
 62
     3
 10
140.9530602244713
 20
122.26158264826
 30
0.0
 11
140.9530602244713
 21
120.5753643865413
 31
0.0
  0
LINE
  5
340
  8
0
  6
CONTINUOUS
 62
     3
 10
140.3030358104088
 20
127.0846646184749
 30
0.0
 11
133.7030602244713
 21
127.0846646184749
 31
0.0
  0
ARC
  5
341
  8
0
  6
CONTINUOUS
 62
     3
 10
137.0030480174401
 20
127.0846646184749
 30
0.0
 40
3.299999952316284
 50
179.9999776881997
 51
197.6396788801879
  0
ARC
  5
342
  8
0
  6
CONTINUOUS
 62
     3
 10
137.0030480174401
 20
127.0846646184749
 30
0.0
 40
3.299999952316284
 50
342.3602834400861
 51
359.9999710095899
  0
LINE
  5
343
  8
0
  6
CONTINUOUS
 62
     3
 10
139.4030113963463
 20
129.3846524114436
 30
0.0
 11
134.6030236033776
 21
129.3846524114436
 31
0.0
  0
ARC
  5
344
  8
0
  6
CONTINUOUS
 62
     3
 10
137.0030480174401
 20
128.9067776555842
 30
0.0
 40
1.200000047683716
 50
23.46796137491541
 51
156.5320077755478
  0
ARC
  5
345
  8
0
  6
CONTINUOUS
 62
     3
 10
134.0030480174401
 20
120.88755921076
 30
0.0
 40
1.0
 50
198.1988974307593
 51
359.9999710095899
  0
ARC
  5
346
  8
0
  6
CONTINUOUS
 62
     3
 10
137.0030480174401
 20
122.8846600408381
 30
0.0
 40
3.0
 50
228.1896706800166
 51
269.9999701747652
  0
ARC
  5
347
  8
0
  6
CONTINUOUS
 62
     3
 10
137.0030480174401
 20
122.8846600408381
 30
0.0
 40
3.0
 50
269.9999906653327
 51
311.8103038204595
  0
ARC
  5
348
  8
0
  6
CONTINUOUS
 62
     3
 10
140.0030480174401
 20
120.88755921076
 30
0.0
 40
1.0
 50
179.9999776881997
 51
341.8082382956906
  0
LINE
  5
349
  8
0
  6
CONTINUOUS
 62
     3
 10
139.4031308916847
 20
129.3847381312283
 30
0.0
 11
140.3031309920061
 21
127.0847378830298
 31
0.0
  0
LINE
  5
34A
  8
0
  6
CONTINUOUS
 62
     3
 10
133.7030970692222
 20
127.084668000239
 30
0.0
 11
134.6030968751184
 21
129.3846683956502
 31
0.0
  0
LINE
  5
34B
  8
0
  6
CONTINUOUS
 62
     3
 10
122.989513007454
 20
129.8846980686013
 30
0.0
 11
136.3075828635715
 21
129.8846980686013
 31
0.0
  0
LINE
  5
34C
  8
0
  6
CONTINUOUS
 62
     3
 10
137.6985131713086
 20
129.8846980686013
 30
0.0
 11
150.9895198023833
 21
129.8846980686013
 31
0.0
  0
CIRCLE
  5
34D
  8
0
  6
CONTINUOUS
 62
     3
 10
120.1020080613776
 20
32.13467985168001
 30
0.0
 40
2.0
  0
CIRCLE
  5
34E
  8
0
  6
CONTINUOUS
 62
     3
 10
153.8770201740161
 20
32.13467721062372
 30
0.0
 40
2.0
  0
CIRCLE
  5
34F
  8
0
  6
CONTINUOUS
 62
     3
 10
117.9895164049187
 20
41.88469703382394
 30
0.0
 40
2.25
  0
LINE
  5
350
  8
0
  6
CONTINUOUS
 62
     3
 10
131.4895203835286
 20
119.3488064421313
 30
0.0
 11
131.4895203835286
 21
114.3488064421313
 31
0.0
  0
LINE
  5
351
  8
0
  6
CONTINUOUS
 62
     3
 10
131.4895203835286
 20
107.4205904103269
 30
0.0
 11
131.4895203835286
 21
89.34879955779506
 31
0.0
  0
LINE
  5
352
  8
0
  6
CONTINUOUS
 62
     3
 10
142.4895124263088
 20
119.3488064421314
 30
0.0
 11
142.4895124263088
 21
114.3488064421314
 31
0.0
  0
LINE
  5
353
  8
0
  6
CONTINUOUS
 62
     3
 10
142.4895124263088
 20
107.4205904103267
 30
0.0
 11
142.4895124263088
 21
89.34879955779512
 31
0.0
  0
LINE
  5
354
  8
0
  6
CONTINUOUS
 62
     3
 10
140.926037053055
 20
-38.49240024713974
 30
0.0
 11
140.926037053055
 21
-36.80615146784287
 31
0.0
  0
ARC
  5
355
  8
0
  6
CONTINUOUS
 62
     3
 10
139.9760248460238
 20
-38.18014438776474
 30
0.0
 40
0.9999999999999999
 50
290.7154403325607
 51
341.8050913997161
  0
ARC
  5
356
  8
0
  6
CONTINUOUS
 62
     3
 10
142.7720453538363
 20
-40.91097171930772
 30
0.0
 40
3.0
 50
143.2379957736454
 51
207.8898190133925
  0
ARC
  5
357
  8
0
  6
CONTINUOUS
 62
     3
 10
136.9760248460238
 20
-43.31548221735457
 30
0.0
 40
3.299999952316284
 50
359.9999776881996
 51
377.6396788801879
  0
LINE
  5
358
  8
0
  6
CONTINUOUS
 62
     3
 10
134.9760248460238
 20
-38.35156162409285
 30
0.0
 11
134.9760248460238
 21
-36.87942417292101
 31
0.0
  0
ARC
  5
359
  8
0
  6
CONTINUOUS
 62
     3
 10
133.9760248460238
 20
-38.18014438776474
 30
0.0
 40
0.9999999999999999
 50
290.7154403325607
 51
359.9999776881996
  0
ARC
  5
35A
  8
0
  6
CONTINUOUS
 62
     3
 10
131.1800653733675
 20
-40.91094120172957
 30
0.0
 40
3.0
 50
332.1068511557015
 51
396.7619682541758
  0
ARC
  5
35B
  8
0
  6
CONTINUOUS
 62
     3
 10
133.9760248460238
 20
-38.18014438776474
 30
0.0
 40
0.9999999999999999
 50
198.1948640903688
 51
249.2845236952606
  0
LINE
  5
35C
  8
0
  6
CONTINUOUS
 62
     3
 10
133.0260126389925
 20
-38.49240024713973
 30
0.0
 11
133.0260126389925
 21
-36.80618198542099
 31
0.0
  0
ARC
  5
35D
  8
0
  6
CONTINUOUS
 62
     3
 10
136.9760248460238
 20
-43.31548221735457
 30
0.0
 40
3.299999952316284
 50
162.3602834400861
 51
179.9999710095899
  0
ARC
  5
35E
  8
0
  6
CONTINUOUS
 62
     3
 10
133.9760248460238
 20
-37.11837680963974
 30
0.0
 40
0.9999999999999999
 50
359.9999776881996
 51
521.8082382956906
  0
LINE
  5
35F
  8
0
  6
CONTINUOUS
 62
     3
 10
134.5759419717792
 20
-45.61555573010804
 30
0.0
 11
133.6759418714577
 21
-43.3155554819095
 31
0.0
  0
LINE
  5
360
  8
0
  6
CONTINUOUS
 62
     3
 10
138.9760248460238
 20
-38.35156162409285
 30
0.0
 11
138.9760248460238
 21
-36.87942417292101
 31
0.0
  0
ARC
  5
361
  8
0
  6
CONTINUOUS
 62
     3
 10
139.9760248460238
 20
-38.18014438776474
 30
0.0
 40
0.9999999999999999
 50
179.9999710095899
 51
249.2845236952606
  0
LINE
  5
362
  8
0
  6
CONTINUOUS
 62
     3
 10
150.9895598560098
 20
-46.11551566748108
 30
0.0
 11
137.6714899998923
 21
-46.11551566748106
 31
0.0
  0
LINE
  5
363
  8
0
  6
CONTINUOUS
 62
     3
 10
142.4895524799352
 20
-46.11551566748105
 30
0.0
 11
142.4895524799352
 21
-35.57962404101106
 31
0.0
  0
LINE
  5
364
  8
0
  6
CONTINUOUS
 62
     3
 10
133.5834467210238
 20
-39.11547763971788
 30
0.0
 11
140.36866400618
 21
-39.11547763971788
 31
0.0
  0
LINE
  5
365
  8
0
  6
CONTINUOUS
 62
     3
 10
133.676037053055
 20
-43.31548221735457
 30
0.0
 11
140.2760126389925
 21
-43.31548221735457
 31
0.0
  0
ARC
  5
366
  8
0
  6
CONTINUOUS
 62
     3
 10
139.9760248460238
 20
-37.11837680963974
 30
0.0
 40
0.9999999999999999
 50
18.19889743075924
 51
179.9999710095899
  0
LINE
  5
367
  8
0
  6
CONTINUOUS
 62
     3
 10
140.2759757942417
 20
-43.31548559911875
 30
0.0
 11
139.3759759883455
 21
-45.61548599452993
 31
0.0
  0
LINE
  5
368
  8
0
  6
CONTINUOUS
 62
     3
 10
142.4895524799352
 20
-35.11550815729598
 30
0.0
 11
131.489560437155
 21
-35.11550815729601
 31
0.0
  0
LINE
  5
369
  8
0
  6
CONTINUOUS
 62
     3
 10
134.3629877366488
 20
-42.31548221735459
 30
0.0
 11
139.6549799241488
 21
-42.3154822173546
 31
0.0
  0
ARC
  5
36A
  8
0
  6
CONTINUOUS
 62
     3
 10
136.9760248460238
 20
-36.11547763971788
 30
0.0
 40
3.0
 50
228.1896893493513
 51
311.81027467847
  0
LINE
  5
36B
  8
0
  6
CONTINUOUS
 62
     3
 10
134.5760614671175
 20
-45.61547001032335
 30
0.0
 11
139.3760492600863
 21
-45.61547001032334
 31
0.0
  0
ARC
  5
36C
  8
0
  6
CONTINUOUS
 62
     3
 10
136.9760248460238
 20
-45.13759525446397
 30
0.0
 40
1.200000047683716
 50
203.4679613749154
 51
336.5320077755478
  0
ARC
  5
36D
  8
0
  6
CONTINUOUS
 62
     3
 10
136.9760248460238
 20
-39.11547763971788
 30
0.0
 40
3.0
 50
89.99999066533265
 51
131.8103038204595
  0
ARC
  5
36E
  8
0
  6
CONTINUOUS
 62
     3
 10
136.9760248460238
 20
-39.11547763971788
 30
0.0
 40
3.0
 50
48.18967068001659
 51
89.99997017476514
  0
LINE
  5
36F
  8
0
  6
CONTINUOUS
 62
     3
 10
131.489560437155
 20
-46.11551566748102
 30
0.0
 11
131.489560437155
 21
-35.5796240410111
 31
0.0
  0
LINE
  5
370
  8
0
  6
CONTINUOUS
 62
     3
 10
142.4895524799352
 20
-35.57962404101106
 30
0.0
 11
142.4895524799352
 21
-30.579624041011
 31
0.0
  0
LINE
  5
371
  8
0
  6
CONTINUOUS
 62
     3
 10
131.489560437155
 20
-35.5796240410111
 30
0.0
 11
131.489560437155
 21
-30.57962404101115
 31
0.0
  0
LINE
  5
372
  8
0
  6
CONTINUOUS
 62
     3
 10
142.4895524799352
 20
-23.65140800920661
 30
0.0
 11
142.4895524799352
 21
-5.579617156674789
 31
0.0
  0
LINE
  5
373
  8
0
  6
CONTINUOUS
 62
     3
 10
131.489560437155
 20
-23.65140800920644
 30
0.0
 11
131.489560437155
 21
-5.579617156674846
 31
0.0
  0
LINE
  5
374
  8
0
  6
CONTINUOUS
 62
     3
 10
142.4895524799352
 20
5.884494435505996
 30
0.0
 11
131.489560437155
 21
5.884494435506081
 31
0.0
  0
LINE
  5
375
  8
0
  6
CONTINUOUS
 62
     3
 10
142.4895524799352
 20
5.884791981883875
 30
0.0
 11
131.489560437155
 21
5.884791981883861
 31
0.0
  0
LINE
  5
376
  8
0
  6
CONTINUOUS
 62
     3
 10
131.489560437155
 20
1.348598875129749
 30
0.0
 11
131.489560437155
 21
10.88448433251896
 31
0.0
  0
LINE
  5
377
  8
0
  6
CONTINUOUS
 62
     3
 10
142.4895524799352
 20
1.34859887512965
 30
0.0
 11
142.4895524799352
 21
10.88448433251895
 31
0.0
  0
LINE
  5
378
  8
0
  6
CONTINUOUS
 62
     3
 10
110.989439055897
 20
-16.61528621310872
 30
0.0
 11
108.9894558048244
 21
-13.15121899171102
 31
0.0
  0
LINE
  5
379
  8
0
  6
CONTINUOUS
 62
     3
 10
108.9894449545554
 20
-20.079426008111
 30
0.0
 11
110.9894429876025
 21
-16.61532443061816
 31
0.0
  0
LINE
  5
37A
  8
0
  6
CONTINUOUS
 62
     3
 10
104.9894427800915
 20
-20.07941802897219
 30
0.0
 11
108.989438846185
 21
-20.0794175521354
 31
0.0
  0
LINE
  5
37B
  8
0
  6
CONTINUOUS
 62
     3
 10
108.9894452751229
 20
-13.1512137586286
 30
0.0
 11
104.9894492090293
 21
-13.15121566597573
 31
0.0
  0
CIRCLE
  5
37C
  8
0
  6
CONTINUOUS
 62
     3
 10
106.9894432910052
 20
-16.61531663885114
 30
0.0
 40
2.400000143051142
  0
CIRCLE
  5
37D
  8
0
  6
CONTINUOUS
 62
     3
 10
106.9894432910052
 20
-16.61531663885114
 30
0.0
 40
3.299999973177909
  0
CIRCLE
  5
37E
  8
0
  6
CONTINUOUS
 62
     3
 10
106.9894432910052
 20
-16.61531663885114
 30
0.0
 40
7.999999999999996
  0
CIRCLE
  5
37F
  8
0
  6
CONTINUOUS
 62
     3
 10
106.9894432910052
 20
-16.61531663885114
 30
0.0
 40
0.7499999776482584
  0
LINE
  5
380
  8
0
  6
CONTINUOUS
 62
     3
 10
104.9894482078685
 20
-13.15122355126943
 30
0.0
 11
102.9894496979843
 21
-16.61532465192528
 31
0.0
  0
LINE
  5
381
  8
0
  6
CONTINUOUS
 62
     3
 10
102.9894484035805
 20
-16.61533422520967
 30
0.0
 11
104.9894469134641
 21
-20.07943213289173
 31
0.0
  0
LINE
  5
382
  8
0
  6
CONTINUOUS
 62
     3
 10
122.9895690040855
 20
-46.11535959330593
 30
0.0
 11
113.9895506468942
 21
-43.70381224052684
 31
0.0
  0
LINE
  5
383
  8
0
  6
CONTINUOUS
 62
     3
 10
-95.62720994025305
 20
93.38468557906133
 30
0.0
 11
-87.62720994025305
 21
93.38468557906133
 31
0.0
  0
LINE
  5
384
  8
0
  6
CONTINUOUS
 62
     3
 10
-95.62720994025305
 20
118.3846855790614
 30
0.0
 11
-87.62720994025305
 21
118.3846855790614
 31
0.0
  0
LINE
  5
385
  8
0
  6
CONTINUOUS
 62
     3
 10
-95.62720994025305
 20
105.3846855790613
 30
0.0
 11
-87.62720994025305
 21
105.3846855790613
 31
0.0
  0
LINE
  5
386
  8
0
  6
CONTINUOUS
 62
     3
 10
-95.62720994025305
 20
80.38468557906133
 30
0.0
 11
-87.62720994025305
 21
80.38468557906133
 31
0.0
  0
LINE
  5
387
  8
0
  6
CONTINUOUS
 62
     3
 10
113.9895639267169
 20
-43.7037900976041
 30
0.0
 11
113.9895638772935
 21
-37.34447450053793
 31
0.0
  0
LINE
  5
388
  8
0
  6
CONTINUOUS
 62
     3
 10
121.4895639754872
 20
-45.7134354144073
 30
0.0
 11
121.4895634665084
 21
19.7769257589867
 31
0.0
  0
ARC
  5
389
  8
0
  6
CONTINUOUS
 62
     3
 10
136.9895164049187
 20
41.88468733976552
 30
0.0
 40
82.49999754130847
 50
100.8290215467233
 51
199.1709799713481
  0
LINE
  5
38A
  8
0
  6
CONTINUOUS
 62
     3
 10
136.2805596921553
 20
-46.11551566748105
 30
0.0
 11
122.9895530610805
 21
-46.11551566748105
 31
0.0
  0
LINE
  5
38B
  8
0
  6
CONTINUOUS
 62
     3
 10
-125.6272063937767
 20
106.6776956629612
 30
0.0
 11
-125.6272063937767
 21
110.7716713578699
 31
0.0
  0
LINE
  5
38C
  8
0
  6
CONTINUOUS
 62
     3
 10
-122.6272063937767
 20
106.4069055486284
 30
0.0
 11
-122.6272063937767
 21
110.7716713578699
 31
0.0
  0
LINE
  5
38D
  8
0
  6
CONTINUOUS
 62
     3
 10
152.4895061157877
 20
-71.29457175405032
 30
0.0
 11
142.489504641074
 21
-71.29457183176835
 31
0.0
  0
LINE
  5
38E
  8
0
  6
CONTINUOUS
 62
     3
 10
152.4894748932345
 20
-105.294555739559
 30
0.0
 11
152.4894748194023
 21
-95.79455591214365
 31
0.0
  0
LINE
  5
38F
  8
0
  6
CONTINUOUS
 62
     3
 10
121.4894453591981
 20
-105.2945559804854
 30
0.0
 11
121.489445285366
 21
-95.79455615307008
 31
0.0
  0
LINE
  5
390
  8
0
  6
CONTINUOUS
 62
     3
 10
131.4895070787236
 20
-78.29455635562549
 30
0.0
 11
131.4895070165491
 21
-70.294558609082
 31
0.0
  0
LINE
  5
391
  8
0
  6
CONTINUOUS
 62
     3
 10
152.4894747572278
 20
-85.79455586794153
 30
0.0
 11
152.4894746445366
 21
-71.29457175405058
 31
0.0
  0
LINE
  5
392
  8
0
  6
CONTINUOUS
 62
     3
 10
121.4894452231914
 20
-85.79455610886781
 30
0.0
 11
121.4894451105003
 21
-71.29457199497692
 31
0.0
  0
LINE
  5
393
  8
0
  6
CONTINUOUS
 62
     3
 10
131.4895070787236
 20
-78.29455635562549
 30
0.0
 11
128.2394767017531
 21
-78.29455638088409
 31
0.0
  0
LINE
  5
394
  8
0
  6
CONTINUOUS
 62
     3
 10
145.7395036555987
 20
-85.29457215449544
 30
0.0
 11
128.239476756156
 21
-85.29457229050234
 31
0.0
  0
LINE
  5
395
  8
0
  6
CONTINUOUS
 62
     3
 10
142.4894446139973
 20
-78.29455627013597
 30
0.0
 11
142.4894445518228
 21
-70.29455852359263
 31
0.0
  0
LINE
  5
396
  8
0
  6
CONTINUOUS
 62
     3
 10
142.4895046954767
 20
-78.29455627013552
 30
0.0
 11
145.7395036011961
 21
-78.29455624487717
 31
0.0
  0
LINE
  5
397
  8
0
  6
CONTINUOUS
 62
     3
 10
145.2394741094419
 20
-84.79455692122487
 30
0.0
 11
128.7394762538011
 21
-84.79455704945978
 31
0.0
  0
LINE
  5
398
  8
0
  6
CONTINUOUS
 62
     3
 10
128.7394762538011
 20
-84.79455704945978
 30
0.0
 11
128.7394762032843
 21
-78.29455637699829
 31
0.0
  0
LINE
  5
399
  8
0
  6
CONTINUOUS
 62
     3
 10
145.2394741094419
 20
-84.79455692122487
 30
0.0
 11
145.2394740589252
 21
-78.29455624876324
 31
0.0
  0
LINE
  5
39A
  8
0
  6
CONTINUOUS
 62
     3
 10
142.4895046333023
 20
-70.29457282870621
 30
0.0
 11
140.9895046981975
 21
-70.29457284036398
 31
0.0
  0
LINE
  5
39B
  8
0
  6
CONTINUOUS
 62
     3
 10
140.9895046981975
 20
-70.29457284036398
 30
0.0
 11
131.4895070165493
 21
-70.29457291419607
 31
0.0
  0
LINE
  5
39C
  8
0
  6
CONTINUOUS
 62
     3
 10
121.4894759791868
 20
-85.7945561088676
 30
0.0
 11
113.9894759460352
 21
-85.79455616715622
 31
0.0
  0
LINE
  5
39D
  8
0
  6
CONTINUOUS
 62
     3
 10
159.9894715717288
 20
-85.79455580965293
 30
0.0
 11
152.4895062284789
 21
-85.79455586794119
 31
0.0
  0
LINE
  5
39E
  8
0
  6
CONTINUOUS
 62
     3
 10
159.9894861896992
 20
-95.79455621135837
 30
0.0
 11
159.9894862052427
 21
-93.79457107983667
 31
0.0
  0
LINE
  5
39F
  8
0
  6
CONTINUOUS
 62
     3
 10
113.9894905640057
 20
-95.79455585385513
 30
0.0
 11
113.9894906417238
 21
-85.79455580965282
 31
0.0
  0
LINE
  5
3A0
  8
0
  6
CONTINUOUS
 62
     3
 10
121.489445285366
 20
-95.79455615307008
 30
0.0
 11
113.9894760237533
 21
-95.7945562113584
 31
0.0
  0
LINE
  5
3A1
  8
0
  6
CONTINUOUS
 62
     3
 10
159.9894716494468
 20
-95.79455585385507
 30
0.0
 11
152.4894748194023
 21
-95.79455591214365
 31
0.0
  0
LINE
  5
3A2
  8
0
  6
CONTINUOUS
 62
     3
 10
128.239476756156
 20
-85.29457229050234
 30
0.0
 11
128.2394767017531
 21
-78.29455638088409
 31
0.0
  0
LINE
  5
3A3
  8
0
  6
CONTINUOUS
 62
     3
 10
145.7394750453705
 20
-85.29457215449564
 30
0.0
 11
145.7394749909678
 21
-78.29455624487733
 31
0.0
  0
LINE
  5
3A4
  8
0
  6
CONTINUOUS
 62
     3
 10
152.4894748932345
 20
-105.294555739559
 30
0.0
 11
121.4894453591981
 21
-105.2945559804854
 31
0.0
  0
LINE
  5
3A5
  8
0
  6
CONTINUOUS
 62
     3
 10
86.98948110672627
 20
-73.29457235307022
 30
0.0
 11
107.1573939809239
 21
-73.29457250981152
 31
0.0
  0
LINE
  5
3A6
  8
0
  6
CONTINUOUS
 62
     3
 10
143.4894749717334
 20
-63.29455691131645
 30
0.0
 11
130.4895065285728
 21
-63.29455701234966
 31
0.0
  0
LINE
  5
3A7
  8
0
  6
CONTINUOUS
 62
     3
 10
130.4894764878331
 20
-63.29455701234997
 30
0.0
 11
130.4894764256586
 21
-55.29455354376087
 31
0.0
  0
LINE
  5
3A8
  8
0
  6
CONTINUOUS
 62
     3
 10
107.1573939809239
 20
-73.29457250981152
 30
0.0
 11
121.4894560821212
 21
-73.2945726211976
 31
0.0
  0
LINE
  5
3A9
  8
0
  6
CONTINUOUS
 62
     3
 10
143.4894749717334
 20
-63.29455691131645
 30
0.0
 11
143.489474909559
 21
-55.29455344272729
 31
0.0
  0
LINE
  5
3AA
  8
0
  6
CONTINUOUS
 62
     3
 10
159.9894862674171
 20
-85.79458620789596
 30
0.0
 11
159.9894862052427
 21
-93.79457107983667
 31
0.0
  0
LINE
  5
3AB
  8
0
  6
CONTINUOUS
 62
     3
 10
132.9895069516541
 20
-70.29457290253843
 30
0.0
 11
132.9895068972512
 21
-63.29455699292018
 31
0.0
  0
LINE
  5
3AC
  8
0
  6
CONTINUOUS
 62
     3
 10
140.9894446167182
 20
-70.29457284036445
 30
0.0
 11
140.9894445623153
 21
-63.29455693074621
 31
0.0
  0
LINE
  5
3AD
  8
0
  6
CONTINUOUS
 62
     3
 10
131.4895070243211
 20
-71.2945719172583
 30
0.0
 11
121.4894758664957
 21
-71.29457199497666
 31
0.0
  0
LINE
  5
3AE
  8
0
  6
CONTINUOUS
 62
     3
 10
133.5253934961549
 20
-89.79454973585764
 30
0.0
 11
136.9894960027925
 21
-87.79455116636916
 31
0.0
  0
CIRCLE
  5
3AF
  8
0
  6
CONTINUOUS
 62
     3
 10
136.9894811067263
 20
-91.7945558600221
 30
0.0
 40
3.299999952316284
  0
CIRCLE
  5
3B0
  8
0
  6
CONTINUOUS
 62
     3
 10
136.9894811067263
 20
-91.7945558600221
 30
0.0
 40
2.400000095367432
  0
CIRCLE
  5
3B1
  8
0
  6
CONTINUOUS
 62
     3
 10
136.9894811067263
 20
-91.7945558600221
 30
0.0
 40
0.75
  0
LINE
  5
3B2
  8
0
  6
CONTINUOUS
 62
     3
 10
136.9894725926662
 20
-87.79454606406198
 30
0.0
 11
140.4535729535366
 21
-89.79454844824784
 31
0.0
  0
LINE
  5
3B3
  8
0
  6
CONTINUOUS
 62
     3
 10
133.5253697786013
 20
-93.79455586002214
 30
0.0
 11
133.5253697786013
 21
-89.7945558600221
 31
0.0
  0
LINE
  5
3B4
  8
0
  6
CONTINUOUS
 62
     3
 10
136.9894647440871
 20
-95.79453806663862
 30
0.0
 11
133.5253634295425
 21
-93.79453758980148
 31
0.0
  0
LINE
  5
3B5
  8
0
  6
CONTINUOUS
 62
     3
 10
140.4535735392348
 20
-93.7945496133196
 30
0.0
 11
136.9894715094344
 21
-95.79454865964532
 31
0.0
  0
LINE
  5
3B6
  8
0
  6
CONTINUOUS
 62
     3
 10
140.4535924348513
 20
-89.7945558600221
 30
0.0
 11
140.4535924348513
 21
-93.79455586002212
 31
0.0
  0
ARC
  5
3B7
  8
0
  6
CONTINUOUS
 62
     3
 10
136.9894811067263
 20
-91.7945558600221
 30
0.0
 40
8.0
 50
179.9999949910437
 51
360.0
  0
LINE
  5
3B8
  8
0
  6
CONTINUOUS
 62
     3
 10
128.9894811067262
 20
-91.79455592219652
 30
0.0
 11
128.9894811067263
 21
-85.29457228467345
 31
0.0
  0
LINE
  5
3B9
  8
0
  6
CONTINUOUS
 62
     3
 10
144.9894811067263
 20
-91.79455579784759
 30
0.0
 11
144.9894811067263
 21
-85.29457216032455
 31
0.0
  0
LINE
  5
3BA
  8
0
  6
CONTINUOUS
 62
     3
 10
152.4894863314133
 20
-73.29457286212403
 30
0.0
 11
186.9894811067263
 21
-73.29457313025158
 31
0.0
  0
LINE
  5
3BB
  8
0
  6
CONTINUOUS
 62
     3
 10
-132.6272015658006
 20
64.49237448286992
 30
0.0
 11
-128.1272015658006
 21
64.49237448286992
 31
0.0
  0
CIRCLE
  5
3BC
  8
0
  6
CONTINUOUS
 62
     3
 10
99.94774680742877
 20
78.92649420518605
 30
0.0
 40
5.499999955296517
  0
CIRCLE
  5
3BD
  8
0
  6
CONTINUOUS
 62
     3
 10
99.94774680742877
 20
78.92649420518605
 30
0.0
 40
8.500000223517411
  0
CIRCLE
  5
3BE
  8
0
  6
CONTINUOUS
 62
     3
 10
174.0312860024086
 20
78.92649420518605
 30
0.0
 40
5.499999955296517
  0
CIRCLE
  5
3BF
  8
0
  6
CONTINUOUS
 62
     3
 10
174.0312860024086
 20
78.92649420518605
 30
0.0
 40
8.500000223517411
  0
LINE
  5
3C0
  8
0
  6
CONTINUOUS
 62
     3
 10
-107.6272015658006
 20
-40.11531442093867
 30
0.0
 11
-105.6272015658006
 21
-38.11531442093867
 31
0.0
  0
ARC
  5
3C1
  8
0
  6
CONTINUOUS
 62
     3
 10
136.9895164049187
 20
41.88468733976552
 30
0.0
 40
82.49999754130847
 50
199.1709799713481
 51
259.1710147781251
  0
ARC
  5
3C2
  8
0
  6
CONTINUOUS
 62
     3
 10
136.9895164049187
 20
41.88468733976552
 30
0.0
 40
82.49999754130847
 50
279.8658358641433
 51
340.829018207419
  0
CIRCLE
  5
3C3
  8
0
  6
CONTINUOUS
 62
     3
 10
99.94774680742877
 20
4.842880474344991
 30
0.0
 40
5.499999955296517
  0
CIRCLE
  5
3C4
  8
0
  6
CONTINUOUS
 62
     3
 10
99.94774680742877
 20
4.842880474344991
 30
0.0
 40
8.500000223517411
  0
CIRCLE
  5
3C5
  8
0
  6
CONTINUOUS
 62
     3
 10
174.0312860024086
 20
4.842880474344991
 30
0.0
 40
5.499999955296517
  0
CIRCLE
  5
3C6
  8
0
  6
CONTINUOUS
 62
     3
 10
174.0312860024086
 20
4.842880474344991
 30
0.0
 40
8.500000223517411
  0
LINE
  5
3C7
  8
0
  6
DIVIDE
 62
     9
 10
-185.1272015658006
 20
69.38468557906133
 30
0.0
 11
-183.7984051790818
 21
69.38468557906133
 31
0.0
  0
LINE
  5
3C8
  8
0
  6
DIVIDE
 62
     9
 10
-119.6272015658006
 20
68.88468557906133
 30
0.0
 11
-119.6272015658006
 21
46.33757406783086
 31
0.0
  0
LINE
  5
3C9
  8
0
  6
DIVIDE
 62
     9
 10
-120.1272050414092
 20
69.38468855539172
 30
0.0
 11
-119.6272045106145
 21
68.88468802459697
 31
0.0
  0
LINE
  5
3CA
  8
0
  6
DIVIDE
 62
     9
 10
-125.0349774447068
 20
69.38468557906133
 30
0.0
 11
-120.1272015658006
 21
69.38468557906133
 31
0.0
  0
LINE
  5
3CB
  8
0
  6
CENTER
 62
     9
 10
152.9452121932634
 20
-27.36538337270423
 30
0.0
 11
159.0339207216102
 21
-27.36538337270423
 31
0.0
  0
LINE
  5
3CC
  8
0
  6
CENTER
 62
     9
 10
155.9895664574368
 20
-29.90973763687758
 30
0.0
 11
155.9895664574368
 21
-23.82102910853087
 31
0.0
  0
LINE
  5
3CD
  8
0
  6
CENTER
 62
     9
 10
117.9895373107663
 20
-29.90973763687756
 30
0.0
 11
117.9895373107663
 21
-23.82102910853087
 31
0.0
  0
LINE
  5
3CE
  8
0
  6
CENTER
 62
     9
 10
121.0338915749397
 20
-27.36538337270422
 30
0.0
 11
114.945183046593
 21
-27.36538337270422
 31
0.0
  0
LINE
  5
3CF
  8
0
  6
CONTINUOUS
 62
     4
 10
-143.6272015658006
 20
20.08468634200078
 30
0.0
 11
-132.6272015658006
 21
20.08468634200078
 31
0.0
  0
LINE
  5
3D0
  8
0
  6
CONTINUOUS
 62
     4
 10
-117.6272015658006
 20
1.384687486409955
 30
0.0
 11
-105.6272015658006
 21
1.384687486409955
 31
0.0
  0
LINE
  5
3D1
  8
0
  6
CONTINUOUS
 62
     4
 10
-117.6272015658006
 20
7.384686055898481
 30
0.0
 11
-105.6272015658006
 21
7.384686055898481
 31
0.0
  0
LINE
  5
3D2
  8
0
  6
CONTINUOUS
 62
     4
 10
-206.6272015658006
 20
-14.10031312394161
 30
0.0
 11
-171.6272015658006
 21
-14.10031312394161
 31
0.0
  0
LINE
  5
3D3
  8
0
  6
CONTINUOUS
 62
     4
 10
-206.6272015658006
 20
-5.90031617569942
 30
0.0
 11
-171.6272015658006
 21
-5.90031617569942
 31
0.0
  0
LINE
  5
3D4
  8
0
  6
CONTINUOUS
 62
     4
 10
-143.6272015658006
 20
62.88468557906134
 30
0.0
 11
-132.6272015658006
 21
62.88468557906134
 31
0.0
  0
LINE
  5
3D5
  8
0
  6
CONTINUOUS
 62
     4
 10
-143.6272015658006
 20
59.88468557906134
 30
0.0
 11
-132.6272015658006
 21
59.88468557906134
 31
0.0
  0
LINE
  5
3D6
  8
0
  6
CONTINUOUS
 62
     4
 10
-117.1272061255558
 20
115.1846886308191
 30
0.0
 11
-95.62720994025305
 21
115.1846886308191
 31
0.0
  0
LINE
  5
3D7
  8
0
  6
CONTINUOUS
 62
     4
 10
-117.1272061255558
 20
108.5846825273035
 30
0.0
 11
-95.62720994025305
 21
108.5846825273035
 31
0.0
  0
LINE
  5
3D8
  8
0
  6
CONTINUOUS
 62
     4
 10
-117.1272061255558
 20
83.58469015669805
 30
0.0
 11
-95.62720994025305
 21
83.58469015669805
 31
0.0
  0
LINE
  5
3D9
  8
0
  6
CONTINUOUS
 62
     4
 10
-117.1272061255558
 20
90.18468100142461
 30
0.0
 11
-95.62720994025305
 21
90.18468100142461
 31
0.0
  0
LINE
  5
3DA
  8
0
  6
CONTINUOUS
 62
     4
 10
-103.6272061255558
 20
130.8846932084559
 30
0.0
 11
-103.6272061255558
 21
119.8846855790614
 31
0.0
  0
LINE
  5
3DB
  8
0
  6
CONTINUOUS
 62
     4
 10
-103.6272061255558
 20
78.88468557906133
 30
0.0
 11
-103.6272061255558
 21
73.88468557906133
 31
0.0
  0
LINE
  5
3DC
  8
0
  6
CONTINUOUS
 62
     4
 10
-104.6272061255558
 20
130.8846932084559
 30
0.0
 11
-104.6272061255558
 21
119.8846855790614
 31
0.0
  0
LINE
  5
3DD
  8
0
  6
CONTINUOUS
 62
     4
 10
-104.6272061255558
 20
78.88468557906133
 30
0.0
 11
-104.6272061255558
 21
73.88468557906133
 31
0.0
  0
LINE
  5
3DE
  8
0
  6
CONTINUOUS
 62
     4
 10
-143.6272015658006
 20
64.68468481612186
 30
0.0
 11
-132.6272015658006
 21
64.68468481612186
 31
0.0
  0
LINE
  5
3DF
  8
0
  6
CONTINUOUS
 62
     4
 10
-151.1272015658006
 20
-24.11531442093868
 30
0.0
 11
-151.1272015658006
 21
-40.11531442093867
 31
0.0
  0
LINE
  5
3E0
  8
0
  6
CONTINUOUS
 62
     4
 10
-143.1272015658006
 20
-24.11531442093868
 30
0.0
 11
-143.1272015658006
 21
-40.11531442093867
 31
0.0
  0
ARC
  5
3E1
  8
0
  6
CONTINUOUS
 62
     4
 10
136.9895164049187
 20
41.88468733976552
 30
0.0
 40
44.99999865889554
 50
290.1479075829158
 51
310.0319900053613
  0
ARC
  5
3E2
  8
0
  6
CONTINUOUS
 62
     4
 10
136.9895164049187
 20
41.88468733976552
 30
0.0
 40
50.9999984800816
 50
287.1046421584989
 51
305.693449341084
  0
ARC
  5
3E3
  8
0
  6
CONTINUOUS
 62
     4
 10
136.9895164049187
 20
41.88468733976552
 30
0.0
 40
44.99999865889554
 50
110.8649600036815
 51
130.0319900053612
  0
ARC
  5
3E4
  8
0
  6
CONTINUOUS
 62
     4
 10
136.9895164049187
 20
41.88468733976552
 30
0.0
 40
50.9999984800816
 50
108.6370069379367
 51
125.693449341084
  0
ARC
  5
3E5
  8
0
  6
CONTINUOUS
 62
     4
 10
136.9895164049187
 20
41.88468733976552
 30
0.0
 40
50.9999984800816
 50
324.3064930133422
 51
395.6935069866578
  0
ARC
  5
3E6
  8
0
  6
CONTINUOUS
 62
     4
 10
136.9895164049187
 20
41.88468733976552
 30
0.0
 40
44.99999865889554
 50
319.967952349065
 51
400.032047650935
  0
ARC
  5
3E7
  8
0
  6
CONTINUOUS
 62
     4
 10
136.9895164049187
 20
41.88468733976552
 30
0.0
 40
44.99999865889554
 50
49.96800999463875
 51
69.14942938366689
  0
ARC
  5
3E8
  8
0
  6
CONTINUOUS
 62
     4
 10
136.9895164049187
 20
41.88468733976552
 30
0.0
 40
50.9999984800816
 50
144.3064930133423
 51
215.6935069866578
  0
ARC
  5
3E9
  8
0
  6
CONTINUOUS
 62
     4
 10
136.9895164049187
 20
41.88468733976552
 30
0.0
 40
44.99999865889554
 50
139.9679523490651
 51
220.0320476509349
  0
ARC
  5
3EA
  8
0
  6
CONTINUOUS
 62
     4
 10
136.9895164049187
 20
41.88468733976552
 30
0.0
 40
44.99999865889554
 50
229.9680099946388
 51
249.8521771249442
  0
ARC
  5
3EB
  8
0
  6
CONTINUOUS
 62
     4
 10
136.9895164049187
 20
41.88468733976552
 30
0.0
 40
50.9999984800816
 50
234.3065506589161
 51
252.306760533969
  0
ARC
  5
3EC
  8
0
  6
CONTINUOUS
 62
     4
 10
136.9895164049187
 20
41.88468733976552
 30
0.0
 40
50.9999984800816
 50
54.30655065891598
 51
71.57561502969296
  0
CIRCLE
  5
3ED
  8
0
  6
CONTINUOUS
 62
     4
 10
136.9895164049187
 20
41.88469703382394
 30
0.0
 40
22.39999961853027
  0
CIRCLE
  5
3EE
  8
0
  6
CONTINUOUS
 62
     4
 10
136.9895164049187
 20
61.38469703382395
 30
0.0
 40
1.5
  0
CIRCLE
  5
3EF
  8
0
  6
CONTINUOUS
 62
     4
 10
120.1020080613776
 20
32.13467985168001
 30
0.0
 40
1.5
  0
CIRCLE
  5
3F0
  8
0
  6
CONTINUOUS
 62
     4
 10
153.8770201740161
 20
32.13467721062372
 30
0.0
 40
1.5
  0
ARC
  5
3F1
  8
0
  6
CONTINUOUS
 62
     4
 10
136.9895148801041
 20
41.88468469870924
 30
0.0
 40
38.99999865889553
 50
214.7665246643904
 51
246.5820955051852
  0
ARC
  5
3F2
  8
0
  6
CONTINUOUS
 62
     4
 10
136.9895148801041
 20
41.88468469870924
 30
0.0
 40
38.99999865889553
 50
293.4180092119744
 51
325.1591345821441
  0
CIRCLE
  5
3F3
  8
0
  6
CONTINUOUS
 62
     4
 10
104.0805510611674
 20
60.8846820576198
 30
0.0
 40
3.0
  0
CIRCLE
  5
3F4
  8
0
  6
CONTINUOUS
 62
     4
 10
169.8984817486699
 20
60.88455915412523
 30
0.0
 40
2.999999999999999
  0
ARC
  5
3F5
  8
0
  6
CONTINUOUS
 62
     4
 10
136.9895148801041
 20
41.88468469870924
 30
0.0
 40
38.99999865889552
 50
335.193220588791
 51
384.5622755573315
  0
ARC
  5
3F6
  8
0
  6
CONTINUOUS
 62
     4
 10
136.9895148801041
 20
41.88468469870924
 30
0.0
 40
38.99999865889552
 50
34.93471642956379
 51
65.17576174096102
  0
ARC
  5
3F7
  8
0
  6
CONTINUOUS
 62
     4
 10
136.9895164049187
 20
41.88468733976552
 30
0.0
 40
38.99999865889554
 50
114.4921029259844
 51
144.9379922183853
  0
ARC
  5
3F8
  8
0
  6
CONTINUOUS
 62
     4
 10
136.9895164049187
 20
41.88468733976552
 30
0.0
 40
38.99999865889554
 50
155.6048784805481
 51
205.0956100541167
  0
LINE
  5
3F9
  8
0
  6
CONTINUOUS
 62
     4
 10
130.4894790362826
 20
128.3845688632467
 30
0.0
 11
122.9895020254247
 21
128.3845693086774
 31
0.0
  0
LINE
  5
3FA
  8
0
  6
CONTINUOUS
 62
     4
 10
130.4895018353794
 20
126.8845688834371
 30
0.0
 11
122.9895019363382
 21
126.8845693288692
 31
0.0
  0
LINE
  5
3FB
  8
0
  6
CONTINUOUS
 62
     4
 10
130.489501746293
 20
125.3845689036289
 30
0.0
 11
122.9895018472518
 21
125.384569349061
 31
0.0
  0
LINE
  5
3FC
  8
0
  6
CONTINUOUS
 62
     4
 10
130.4895016572066
 20
123.8845689238206
 30
0.0
 11
122.9895017581654
 21
123.8845693692527
 31
0.0
  0
LINE
  5
3FD
  8
0
  6
CONTINUOUS
 62
     4
 10
130.4894786799369
 20
122.3845689440137
 30
0.0
 11
122.989501669079
 21
122.3845693894445
 31
0.0
  0
LINE
  5
3FE
  8
0
  6
CONTINUOUS
 62
     4
 10
130.4895014790337
 20
120.8845689642041
 30
0.0
 11
122.9895015799925
 21
120.8845694096362
 31
0.0
  0
LINE
  5
3FF
  8
0
  6
CONTINUOUS
 62
     4
 10
150.9895090106469
 20
123.8845677063057
 30
0.0
 11
143.4895091116057
 21
123.8845681517378
 31
0.0
  0
LINE
  5
400
  8
0
  6
CONTINUOUS
 62
     4
 10
150.9895092779062
 20
128.3845676457304
 30
0.0
 11
143.4894750465901
 21
128.3845680911646
 31
0.0
  0
LINE
  5
401
  8
0
  6
CONTINUOUS
 62
     4
 10
150.9895091888198
 20
126.8845676659222
 30
0.0
 11
143.4895092897786
 21
126.8845681113543
 31
0.0
  0
LINE
  5
402
  8
0
  6
CONTINUOUS
 62
     4
 10
150.9895090997334
 20
125.384567686114
 30
0.0
 11
143.4895092006922
 21
125.384568131546
 31
0.0
  0
LINE
  5
403
  8
0
  6
CONTINUOUS
 62
     4
 10
150.9895089215606
 20
122.3845677264975
 30
0.0
 11
143.4894746902444
 21
122.3845681719317
 31
0.0
  0
LINE
  5
404
  8
0
  6
CONTINUOUS
 62
     4
 10
150.9895088324741
 20
120.8845677466893
 30
0.0
 11
143.4895089334329
 21
120.8845681921213
 31
0.0
  0
LINE
  5
405
  8
0
  6
CONTINUOUS
 62
     4
 10
130.4894988955289
 20
77.38459167066164
 30
0.0
 11
122.9894989964877
 21
77.38459211609371
 31
0.0
  0
LINE
  5
406
  8
0
  6
CONTINUOUS
 62
     4
 10
130.4894989846153
 20
78.88459165046989
 30
0.0
 11
122.9894990855741
 21
78.88459209590197
 31
0.0
  0
LINE
  5
407
  8
0
  6
CONTINUOUS
 62
     4
 10
130.4894761855185
 20
80.3845916302795
 30
0.0
 11
122.9894991746605
 21
80.38459207571022
 31
0.0
  0
LINE
  5
408
  8
0
  6
CONTINUOUS
 62
     4
 10
130.4894991627882
 20
81.88459161008639
 30
0.0
 11
122.989499263747
 21
81.88459205551847
 31
0.0
  0
LINE
  5
409
  8
0
  6
CONTINUOUS
 62
     4
 10
130.4894758291728
 20
74.38459171104653
 30
0.0
 11
122.9894988183149
 21
74.38459215647724
 31
0.0
  0
LINE
  5
40A
  8
0
  6
CONTINUOUS
 62
     4
 10
130.4894988064425
 20
75.88459169085341
 30
0.0
 11
122.9894989074013
 21
75.88459213628549
 31
0.0
  0
LINE
  5
40B
  8
0
  6
CONTINUOUS
 62
     4
 10
150.9895063380557
 20
78.88459043295508
 30
0.0
 11
143.4895064390145
 21
78.88459087838716
 31
0.0
  0
LINE
  5
40C
  8
0
  6
CONTINUOUS
 62
     4
 10
150.9895064271421
 20
80.38459041276333
 30
0.0
 11
143.489472195826
 21
80.38459085819743
 31
0.0
  0
LINE
  5
40D
  8
0
  6
CONTINUOUS
 62
     4
 10
150.9895065162285
 20
81.88459039257153
 30
0.0
 11
143.4895066171874
 21
81.88459083800363
 31
0.0
  0
LINE
  5
40E
  8
0
  6
CONTINUOUS
 62
     4
 10
150.9895060707964
 20
74.38459049353035
 30
0.0
 11
143.4894718394803
 21
74.38459093896445
 31
0.0
  0
LINE
  5
40F
  8
0
  6
CONTINUOUS
 62
     4
 10
150.9895061598829
 20
75.88459047333861
 30
0.0
 11
143.4895062608417
 21
75.88459091877066
 31
0.0
  0
LINE
  5
410
  8
0
  6
CONTINUOUS
 62
     4
 10
150.9895062489693
 20
77.38459045314683
 30
0.0
 11
143.4895063499281
 21
77.38459089857891
 31
0.0
  0
LINE
  5
411
  8
0
  6
CONTINUOUS
 62
     4
 10
143.4895938271813
 20
-44.61538646212642
 30
0.0
 11
150.9895708380392
 21
-44.61538690755714
 31
0.0
  0
LINE
  5
412
  8
0
  6
CONTINUOUS
 62
     4
 10
143.4895710280844
 20
-43.11538648231678
 30
0.0
 11
150.9895709271256
 21
-43.1153869277489
 31
0.0
  0
LINE
  5
413
  8
0
  6
CONTINUOUS
 62
     4
 10
143.4895711171708
 20
-41.61538650250857
 30
0.0
 11
150.989571016212
 21
-41.61538694794068
 31
0.0
  0
LINE
  5
414
  8
0
  6
CONTINUOUS
 62
     4
 10
143.4895712062572
 20
-40.11538652270033
 30
0.0
 11
150.9895711052984
 21
-40.11538696813244
 31
0.0
  0
LINE
  5
415
  8
0
  6
CONTINUOUS
 62
     4
 10
143.489594183527
 20
-38.61538654289342
 30
0.0
 11
150.9895711943848
 21
-38.6153869883242
 31
0.0
  0
LINE
  5
416
  8
0
  6
CONTINUOUS
 62
     4
 10
143.4895713844301
 20
-37.11538656308383
 30
0.0
 11
150.9895712834713
 21
-37.11538700851592
 31
0.0
  0
LINE
  5
417
  8
0
  6
CONTINUOUS
 62
     4
 10
122.9895638528169
 20
-40.11538530518543
 30
0.0
 11
130.4895637518581
 21
-40.11538575061755
 31
0.0
  0
LINE
  5
418
  8
0
  6
CONTINUOUS
 62
     4
 10
122.989563674644
 20
-43.11538526480192
 30
0.0
 11
130.4895635736852
 21
-43.11538571023401
 31
0.0
  0
LINE
  5
419
  8
0
  6
CONTINUOUS
 62
     4
 10
122.9895637637304
 20
-41.61538528499368
 30
0.0
 11
130.4895636627716
 21
-41.61538573042576
 31
0.0
  0
LINE
  5
41A
  8
0
  6
CONTINUOUS
 62
     4
 10
122.9895639419033
 20
-38.61538532537716
 30
0.0
 11
130.4895981732194
 21
-38.6153857708114
 31
0.0
  0
LINE
  5
41B
  8
0
  6
CONTINUOUS
 62
     4
 10
122.9895640309897
 20
-37.115385345569
 30
0.0
 11
130.4895639300309
 21
-37.11538579100103
 31
0.0
  0
LINE
  5
41C
  8
0
  6
CONTINUOUS
 62
     4
 10
122.9895665254081
 20
4.884591968165207
 30
0.0
 11
130.4895664244493
 21
4.884591522733086
 31
0.0
  0
LINE
  5
41D
  8
0
  6
CONTINUOUS
 62
     4
 10
122.9895664363217
 20
3.384591988356927
 30
0.0
 11
130.4896006676379
 21
3.384591542922831
 31
0.0
  0
LINE
  5
41E
  8
0
  6
CONTINUOUS
 62
     4
 10
122.9895663472353
 20
1.884592008548747
 30
0.0
 11
130.4895662462765
 21
1.88459156311664
 31
0.0
  0
LINE
  5
41F
  8
0
  6
CONTINUOUS
 62
     4
 10
122.9895667926674
 20
9.384591907589932
 30
0.0
 11
130.4896010239836
 21
9.384591462155822
 31
0.0
  0
LINE
  5
420
  8
0
  6
CONTINUOUS
 62
     4
 10
122.989566703581
 20
7.884591927781681
 30
0.0
 11
130.4895666026222
 21
7.884591482349631
 31
0.0
  0
LINE
  5
421
  8
0
  6
CONTINUOUS
 62
     4
 10
122.9895666144945
 20
6.384591947973444
 30
0.0
 11
130.4895665135358
 21
6.38459150254138
 31
0.0
  0
LINE
  5
422
  8
0
  6
CONTINUOUS
 62
     4
 10
143.4895739679349
 20
6.384590730458637
 30
0.0
 11
150.9895738669761
 21
6.38459028502653
 31
0.0
  0
LINE
  5
423
  8
0
  6
CONTINUOUS
 62
     4
 10
143.4895738788485
 20
4.884590750650386
 30
0.0
 11
150.9895737778897
 21
4.884590305218278
 31
0.0
  0
LINE
  5
424
  8
0
  6
CONTINUOUS
 62
     4
 10
143.4895966779453
 20
3.384590770840756
 30
0.0
 11
150.9895736888033
 21
3.384590325410041
 31
0.0
  0
LINE
  5
425
  8
0
  6
CONTINUOUS
 62
     4
 10
143.4895737006757
 20
1.884590791033897
 30
0.0
 11
150.9895735997169
 21
1.88459034560179
 31
0.0
  0
LINE
  5
426
  8
0
  6
CONTINUOUS
 62
     4
 10
143.4895970342911
 20
9.384590690073747
 30
0.0
 11
150.989574045149
 21
9.384590244643018
 31
0.0
  0
LINE
  5
427
  8
0
  6
CONTINUOUS
 62
     4
 10
143.4895740570213
 20
7.884590710266831
 30
0.0
 11
150.9895739560626
 21
7.884590264834767
 31
0.0
  0
LINE
  5
428
  8
0
  6
CONTINUOUS
 62
     4
 10
122.9895635855576
 20
-44.61538524461011
 30
0.0
 11
130.4895978168738
 21
-44.61538569004433
 31
0.0
  0
LINE
  5
429
  8
0
  6
CONTINUOUS
 62
     4
 10
131.4895070320928
 20
-72.29455661520649
 30
0.0
 11
121.4894758742673
 21
-72.29455669292486
 31
0.0
  0
LINE
  5
42A
  8
0
  6
CONTINUOUS
 62
     4
 10
152.4895061235594
 20
-72.29455645199845
 30
0.0
 11
142.4895046488458
 21
-72.29455652971649
 31
0.0
  0
LINE
  5
42B
  8
0
  6
CONTINUOUS
 62
     4
 10
133.5894820347973
 20
-70.29457289787551
 30
0.0
 11
133.5894819803945
 21
-63.29455698825734
 31
0.0
  0
LINE
  5
42C
  8
0
  6
CONTINUOUS
 62
     4
 10
140.3894695335748
 20
-70.29457284502732
 30
0.0
 11
140.389469479172
 21
-63.29455693540906
 31
0.0
  0
CIRCLE
  5
42D
  8
0
  6
CONTINUOUS
 62
     4
 10
104.0805510611674
 20
22.88469262191124
 30
0.0
 40
3.0
  0
CIRCLE
  5
42E
  8
0
  6
CONTINUOUS
 62
     4
 10
169.8984817486699
 20
22.88481552540581
 30
0.0
 40
2.999999999999999
  0
LINE
  5
42F
  8
0
  6
CONTINUOUS
 62
     3
 10
-117.6272015658006
 20
7.384686055898481
 30
0.0
 11
-117.6272015658006
 21
1.384687486409955
 31
0.0
  0
LINE
  5
430
  8
0
  6
CONTINUOUS
 62
     3
 10
-120.6272015658006
 20
6.884686055898481
 30
0.0
 11
-120.6272015658006
 21
1.884687486409955
 31
0.0
  0
LINE
  5
431
  8
0
  6
CONTINUOUS
 62
     3
 10
-116.6272015658006
 20
-1.250314649820513
 30
0.0
 11
-116.6272015658006
 21
-18.75031464982051
 31
0.0
  0
LINE
  5
432
  8
0
  6
CONTINUOUS
 62
     3
 10
-120.6272015658006
 20
6.884686055898481
 30
0.0
 11
-105.6272015658006
 21
6.884686055898481
 31
0.0
  0
LINE
  5
433
  8
0
  6
CONTINUOUS
 62
     3
 10
-120.6272015658006
 20
1.884687486409955
 30
0.0
 11
-105.6272015658006
 21
1.884687486409955
 31
0.0
  0
LINE
  5
434
  8
0
  6
CONTINUOUS
 62
     3
 10
-187.6272046175584
 20
-15.50031464982051
 30
0.0
 11
-116.6272015658006
 21
-15.50031464982051
 31
0.0
  0
LINE
  5
435
  8
0
  6
CONTINUOUS
 62
     3
 10
-187.6272046175584
 20
-4.500314649820513
 30
0.0
 11
-116.6272015658006
 21
-4.500314649820513
 31
0.0
  0
LINE
  5
436
  8
0
  6
CONTINUOUS
 62
     3
 10
-116.6272015658006
 20
-18.75031464982051
 30
0.0
 11
-105.6272015658006
 21
-18.75031464982051
 31
0.0
  0
LINE
  5
437
  8
0
  6
CONTINUOUS
 62
     3
 10
-116.6272015658006
 20
-1.250314649820513
 30
0.0
 11
-105.6272015658006
 21
-1.250314649820513
 31
0.0
  0
LINE
  5
438
  8
0
  6
CONTINUOUS
 62
     3
 10
-122.0705832079964
 20
4.384685408558124
 30
0.0
 11
-120.6272064947948
 21
6.884686867391036
 31
0.0
  0
LINE
  5
439
  8
0
  6
CONTINUOUS
 62
     3
 10
-122.0705981743463
 20
4.384682152407702
 30
0.0
 11
-120.6272214611447
 21
1.88468069357479
 31
0.0
  0
LINE
  5
43A
  8
0
  6
CONTINUOUS
 62
     3
 10
-206.6272015658006
 20
-5.000314649820513
 30
0.0
 11
-206.6272015658006
 21
-15.00031464982051
 31
0.0
  0
LINE
  5
43B
  8
0
  6
CONTINUOUS
 62
     3
 10
-171.6272015658006
 20
-5.000314649820513
 30
0.0
 11
-171.6272015658006
 21
-15.00031464982051
 31
0.0
  0
LINE
  5
43C
  8
0
  6
CONTINUOUS
 62
     3
 10
-206.6272015658006
 20
-15.00031464982051
 30
0.0
 11
-116.6272015658006
 21
-15.00031464982051
 31
0.0
  0
LINE
  5
43D
  8
0
  6
CONTINUOUS
 62
     3
 10
-206.6272015658006
 20
-5.000314649820513
 30
0.0
 11
-116.6272015658006
 21
-5.000314649820513
 31
0.0
  0
LINE
  5
43E
  8
0
  6
CONTINUOUS
 62
     3
 10
-116.6272015658006
 20
-18.00031464982051
 30
0.0
 11
-106.6272015658006
 21
-18.00031464982051
 31
0.0
  0
LINE
  5
43F
  8
0
  6
CONTINUOUS
 62
     3
 10
-116.6272015658006
 20
-2.000314649820513
 30
0.0
 11
-106.6272015658006
 21
-2.000314649820513
 31
0.0
  0
LINE
  5
440
  8
0
  6
CONTINUOUS
 62
     3
 10
-106.6272015658006
 20
-2.000314649820513
 30
0.0
 11
-106.6272015658006
 21
-18.00031464982051
 31
0.0
  0
LINE
  5
441
  8
0
  6
CONTINUOUS
 62
     3
 10
-110.6272061255558
 20
130.8846932084559
 30
0.0
 11
-110.6272061255558
 21
119.8846855790614
 31
0.0
  0
LINE
  5
442
  8
0
  6
CONTINUOUS
 62
     3
 10
-110.6272061255558
 20
78.88468557906133
 30
0.0
 11
-110.6272061255558
 21
73.88468557906133
 31
0.0
  0
LINE
  5
443
  8
0
  6
CONTINUOUS
 62
     3
 10
-117.6272061255558
 20
83.88468557906133
 30
0.0
 11
-117.6272061255558
 21
73.88468557906133
 31
0.0
  0
LINE
  5
444
  8
0
  6
CONTINUOUS
 62
     3
 10
-117.6272061255558
 20
130.8846932084559
 30
0.0
 11
-117.6272061255558
 21
83.88468557906133
 31
0.0
  0
LINE
  5
445
  8
0
  6
CONTINUOUS
 62
     3
 10
-118.1272061255558
 20
65.38438340078969
 30
0.0
 11
-128.1272061255558
 21
65.38438340078969
 31
0.0
  0
LINE
  5
446
  8
0
  6
CONTINUOUS
 62
     3
 10
-128.1272061255558
 20
73.88468557906133
 30
0.0
 11
-128.1272061255558
 21
56.52682120279228
 31
0.0
  0
LINE
  5
447
  8
0
  6
CONTINUOUS
 62
     3
 10
-118.1272061255558
 20
73.88468557906133
 30
0.0
 11
-118.1272061255558
 21
56.52682120279228
 31
0.0
  0
LINE
  5
448
  8
0
  6
CONTINUOUS
 62
     3
 10
-128.1272015658006
 20
56.52682120279228
 30
0.0
 11
-118.1272015658006
 21
56.52682120279228
 31
0.0
  0
LINE
  5
449
  8
0
  6
CONTINUOUS
 62
     3
 10
-143.7272015658006
 20
-21.61531442093868
 30
0.0
 11
-147.1272015658008
 21
-19.46684816326982
 31
0.0
  0
LINE
  5
44A
  8
0
  6
CONTINUOUS
 62
     3
 10
-151.1272015658006
 20
-24.11531442093868
 30
0.0
 11
-143.1272015658006
 21
-24.11531442093868
 31
0.0
  0
LINE
  5
44B
  8
0
  6
CONTINUOUS
 62
     3
 10
-143.7272015658006
 20
-21.61531442093868
 30
0.0
 11
-143.7272015658006
 21
-40.11531442093867
 31
0.0
  0
LINE
  5
44C
  8
0
  6
CONTINUOUS
 62
     3
 10
-150.5272015658006
 20
-21.61531442093868
 30
0.0
 11
-143.7272015658006
 21
-21.61531442093868
 31
0.0
  0
LINE
  5
44D
  8
0
  6
CONTINUOUS
 62
     3
 10
-150.5272015658006
 20
-21.61531442093868
 30
0.0
 11
-147.1272015658004
 21
-19.46684816326982
 31
0.0
  0
LINE
  5
44E
  8
0
  6
CONTINUOUS
 62
     3
 10
-150.5272015658006
 20
-21.61531442093868
 30
0.0
 11
-150.5272015658006
 21
-40.11531442093867
 31
0.0
  0
LINE
  5
44F
  8
0
  6
CONTINUOUS
 62
     3
 10
121.4895130521575
 20
72.88469806860131
 30
0.0
 11
152.4895197576798
 21
72.88469806860131
 31
0.0
  0
ARC
  5
450
  8
0
  6
CONTINUOUS
 62
     3
 10
136.9895164049187
 20
41.88468557906133
 30
0.0
 40
31.0
 50
59.99999284461611
 51
120.000007155384
  0
LINE
  5
451
  8
0
  6
CONTINUOUS
 62
     3
 10
152.4895197576838
 20
10.88467661092293
 30
0.0
 11
121.4895130521615
 21
10.88467661092296
 31
0.0
  0
LINE
  5
452
  8
0
  6
CONTINUOUS
 62
     3
 10
152.4895567616773
 20
10.88461251812613
 30
0.0
 11
121.489550056155
 21
10.88461251812616
 31
0.0
  0
ARC
  5
453
  8
0
  6
CONTINUOUS
 62
     3
 10
136.9895534089161
 20
41.8846250076661
 30
0.0
 40
31.0
 50
239.9999928446161
 51
300.000007155384
  0
ARC
  5
454
  8
0
  6
CONTINUOUS
 62
     3
 10
136.9895164049187
 20
41.88468557906133
 30
0.0
 40
33.0
 50
118.0146345757617
 51
241.985464680258
  0
ARC
  5
455
  8
0
  6
CONTINUOUS
 62
     3
 10
136.9895164049187
 20
41.88468557906133
 30
0.0
 40
33.0
 50
298.0146577539727
 51
421.9853654242385
  0
CIRCLE
  5
456
  8
0
  6
CONTINUOUS
 62
     3
 10
136.9895164049187
 20
41.88469703382394
 30
0.0
 40
16.0
  0
CIRCLE
  5
457
  8
0
  6
CONTINUOUS
 62
     3
 10
104.0805510611674
 20
60.8846820576198
 30
0.0
 40
2.5
  0
CIRCLE
  5
458
  8
0
  6
CONTINUOUS
 62
     3
 10
169.8984817486699
 20
60.88455915412523
 30
0.0
 40
2.499999999999999
  0
LINE
  5
459
  8
0
  6
CONTINUOUS
 62
     3
 10
131.4895203835286
 20
119.8846905584163
 30
0.0
 11
142.4894029391311
 21
119.8846905584163
 31
0.0
  0
LINE
  5
45A
  8
0
  6
CONTINUOUS
 62
     3
 10
142.4895524799352
 20
-36.11550815729599
 30
0.0
 11
131.4896699243327
 21
-36.11550815729599
 31
0.0
  0
LINE
  5
45B
  8
0
  6
CONTINUOUS
 62
     3
 10
130.4894764256587
 20
-55.29455318228365
 30
0.0
 11
143.489474909559
 21
-55.29455380420458
 31
0.0
  0
LINE
  5
45C
  8
0
  6
CONTINUOUS
 62
     3
 10
123.4894453747418
 20
-105.2945559649418
 30
0.0
 11
123.489445118272
 21
-72.29455667738145
 31
0.0
  0
LINE
  5
45D
  8
0
  6
CONTINUOUS
 62
     3
 10
150.4895035306291
 20
-105.2945572566267
 30
0.0
 11
150.489506944544
 21
-72.29455796906659
 31
0.0
  0
LINE
  5
45E
  8
0
  6
CONTINUOUS
 62
     3
 10
-108.1272015658006
 20
64.49238402954498
 30
0.0
 11
-118.1272015658006
 21
64.49238402954498
 31
0.0
  0
ARC
  5
45F
  8
0
  6
CONTINUOUS
 62
     3
 10
136.9895164049187
 20
41.88468733976552
 30
0.0
 40
80.49999754130847
 50
101.1014401367075
 51
258.8985967505556
  0
ARC
  5
460
  8
0
  6
CONTINUOUS
 62
     3
 10
136.9895164049187
 20
41.88468733976552
 30
0.0
 40
80.49999754130847
 50
281.1014032494443
 51
438.8985598632926
  0
CIRCLE
  5
461
  8
0
  6
CONTINUOUS
 62
     3
 10
104.0805510611674
 20
22.88469262191124
 30
0.0
 40
2.5
  0
CIRCLE
  5
462
  8
0
  6
CONTINUOUS
 62
     3
 10
169.8984817486699
 20
22.88481552540581
 30
0.0
 40
2.499999999999999
  0
LINE
  5
463
  8
0
  6
CENTER
 62
     7
 10
-147.1272015658006
 20
-18.08778254311918
 30
0.0
 11
-147.1272015658006
 21
-58.56505113641767
 31
0.0
  0
TEXT
  5
464
  8
0
 62
     7
 10
-206.44958554298
 20
154.7918889394061
 30
0.0
 40
4.0
  1
MIN 0
 41
0.8
  7
FDASTYLE1
 72
     5
 11
-190.44958554298
 21
154.7918889394061
 31
0.0
  0
TEXT
  5
465
  8
0
 62
     7
 10
-177.6238816974814
 20
-58.39666557163747
 30
0.0
 40
4.0
  1
MIN26
 41
0.8
  7
FDASTYLE1
 72
     5
 11
-161.6238816974814
 21
-58.39666557163747
 31
0.0
  0
TEXT
  5
466
  8
0
 62
     7
 10
-70.78864016516889
 20
74.86941908716096
 30
0.0
 40
4.0
  1
MIN
 50
90.0
 41
0.7999999999999995
  7
FDASTYLE1
 72
     5
 11
-70.78864016516889
 21
84.46941908716096
 31
0.0
  0
TEXT
  5
467
  8
0
 62
     7
 10
-46.30279112318398
 20
47.35134054578717
 30
0.0
 40
4.0
  1
MAX39.5
 50
90.0
 41
0.8000000000000002
  7
FDASTYLE1
 72
     5
 11
-46.30279112318398
 21
69.75134054578717
 31
0.0
  0
TEXT
  5
468
  8
0
 62
     7
 10
-41.78187049055375
 20
47.14628722511158
 30
0.0
 40
4.0
  1
MIN23.5
 50
90.0
 41
0.8000000000000002
  7
FDASTYLE1
 72
     5
 11
-41.78187049055375
 21
69.54628722511158
 31
0.0
  0
INSERT
  5
469
  8
0
  6
CONTINUOUS
  2
DA_IMAGEDIMGROUP_1
 10
0.0
 20
0.0
 30
0.0
  0
INSERT
  5
46A
  8
0
  6
CONTINUOUS
  2
DA_IMAGEDIMGROUP_2
 10
0.0
 20
0.0
 30
0.0
  0
INSERT
  5
46B
  8
0
  6
CONTINUOUS
  2
DA_IMAGEDIMGROUP_3
 10
0.0
 20
0.0
 30
0.0
  0
INSERT
  5
46C
  8
0
  6
CONTINUOUS
  2
DA_IMAGEDIMGROUP_4
 10
0.0
 20
0.0
 30
0.0
  0
INSERT
  5
46D
  8
0
  6
CONTINUOUS
  2
DA_IMAGEDIMGROUP_5
 10
0.0
 20
0.0
 30
0.0
  0
INSERT
  5
46E
  8
0
  6
CONTINUOUS
  2
DA_IMAGEDIMGROUP_6
 10
0.0
 20
0.0
 30
0.0
  0
INSERT
  5
46F
  8
0
  6
CONTINUOUS
  2
DA_IMAGEDIMGROUP_7
 10
0.0
 20
0.0
 30
0.0
  0
INSERT
  5
470
  8
0
  6
CONTINUOUS
  2
DA_IMAGEDIMGROUP_8
 10
0.0
 20
0.0
 30
0.0
  0
INSERT
  5
471
  8
0
  6
CONTINUOUS
  2
DA_IMAGEDIMGROUP_9
 10
0.0
 20
0.0
 30
0.0
  0
INSERT
  5
472
  8
0
  6
CONTINUOUS
  2
DA_IMAGEDIMGROUP_10
 10
0.0
 20
0.0
 30
0.0
  0
INSERT
  5
473
  8
0
  6
CONTINUOUS
  2
DA_IMAGEDIMGROUP_11
 10
0.0
 20
0.0
 30
0.0
  0
INSERT
  5
474
  8
0
  6
CONTINUOUS
  2
DA_IMAGEDIMGROUP_12
 10
0.0
 20
0.0
 30
0.0
  0
INSERT
  5
475
  8
0
  6
CONTINUOUS
  2
DA_IMAGEDIMGROUP_13
 10
0.0
 20
0.0
 30
0.0
  0
INSERT
  5
476
  8
0
  6
CONTINUOUS
  2
DA_IMAGEDIMGROUP_14
 10
0.0
 20
0.0
 30
0.0
  0
INSERT
  5
477
  8
0
  6
CONTINUOUS
  2
DA_IMAGEDIMGROUP_15
 10
0.0
 20
0.0
 30
0.0
  0
INSERT
  5
478
  8
0
  6
CONTINUOUS
  2
DA_IMAGEDIMGROUP_16
 10
0.0
 20
0.0
 30
0.0
  0
INSERT
  5
479
  8
0
  6
CONTINUOUS
  2
DA_IMAGEDIMGROUP_17
 10
0.0
 20
0.0
 30
0.0
  0
INSERT
  5
47A
  8
0
  6
CONTINUOUS
  2
DA_IMAGEDIMGROUP_18
 10
0.0
 20
0.0
 30
0.0
  0
INSERT
  5
47B
  8
0
  6
CONTINUOUS
  2
DC_GROUP_1
 10
0.0
 20
0.0
 30
0.0
  0
INSERT
  5
47C
  8
0
  6
CONTINUOUS
  2
DC_GROUP_2
 10
0.0
 20
0.0
 30
0.0
  0
INSERT
  5
47D
  8
0
  6
CONTINUOUS
  2
DA_IMAGEDIMGROUP_19
 10
0.0
 20
0.0
 30
0.0
  0
INSERT
  5
47E
  8
0
  6
CONTINUOUS
  2
DA_IMAGEDIMGROUP_20
 10
0.0
 20
0.0
 30
0.0
  0
INSERT
  5
47F
  8
0
  6
CONTINUOUS
  2
DA_IMAGEDIMGROUP_21
 10
0.0
 20
0.0
 30
0.0
  0
INSERT
  5
480
  8
0
  6
CONTINUOUS
  2
DC_GROUP_3
 10
0.0
 20
0.0
 30
0.0
  0
INSERT
  5
481
  8
0
  6
CONTINUOUS
  2
DC_GROUP_4
 10
0.0
 20
0.0
 30
0.0
  0
INSERT
  5
482
  8
0
  6
CONTINUOUS
  2
DC_GROUP_5
 10
0.0
 20
0.0
 30
0.0
  0
INSERT
  5
483
  8
0
  6
CONTINUOUS
  2
DA_IMAGEDIMGROUP_22
 10
0.0
 20
0.0
 30
0.0
  0
INSERT
  5
484
  8
0
  6
CONTINUOUS
  2
DA_IMAGEDIMGROUP_23
 10
0.0
 20
0.0
 30
0.0
  0
INSERT
  5
485
  8
0
  6
CONTINUOUS
  2
DA_IMAGEDIMGROUP_24
 10
0.0
 20
0.0
 30
0.0
  0
INSERT
  5
486
  8
0
  6
CONTINUOUS
  2
DC_GROUP_6
 10
0.0
 20
0.0
 30
0.0
  0
INSERT
  5
487
  8
0
  6
CONTINUOUS
  2
DC_GROUP_7
 10
0.0
 20
0.0
 30
0.0
  0
INSERT
  5
488
  8
0
  6
CONTINUOUS
  2
DC_GROUP_8
 10
0.0
 20
0.0
 30
0.0
  0
INSERT
  5
489
  8
0
  6
CONTINUOUS
  2
DC_GROUP_9
 10
0.0
 20
0.0
 30
0.0
  0
INSERT
  5
48A
  8
0
  6
CONTINUOUS
  2
DA_IMAGEDIMGROUP_25
 10
0.0
 20
0.0
 30
0.0
  0
INSERT
  5
48B
  8
0
  6
CONTINUOUS
  2
DA_IMAGEDIMGROUP_26
 10
0.0
 20
0.0
 30
0.0
  0
LINE
  5
48C
  8
0
  6
CONTINUOUS
 62
     2
 10
140.0205984679057
 20
109.1346908489888
 30
0.0
 11
140.0205984679057
 21
112.6346945593779
 31
0.0
  0
LINE
  5
48D
  8
0
  6
CONTINUOUS
 62
     2
 10
136.9895136240913
 20
107.3846873131403
 30
0.0
 11
140.0206158157161
 21
109.1346945774548
 31
0.0
  0
LINE
  5
48E
  8
0
  6
CONTINUOUS
 62
     2
 10
133.9584250157741
 20
109.1347091464511
 30
0.0
 11
136.9895267901646
 21
107.3847011519764
 31
0.0
  0
LINE
  5
48F
  8
0
  6
CONTINUOUS
 62
     2
 10
133.9584228978402
 20
112.6346945593779
 30
0.0
 11
133.9584228978402
 21
109.1346908489888
 31
0.0
  0
LINE
  5
490
  8
0
  6
CONTINUOUS
 62
     2
 10
140.020581139806
 20
112.634653427998
 30
0.0
 11
136.989489902138
 21
114.3846567435078
 31
0.0
  0
LINE
  5
491
  8
0
  6
CONTINUOUS
 62
     2
 10
136.989541146833
 20
114.3847072247968
 30
0.0
 11
133.9584383293566
 21
112.6347010035681
 31
0.0
  0
LINE
  5
492
  8
0
  6
CONTINUOUS
 62
     2
 10
140.0205984679057
 20
84.13469540874404
 30
0.0
 11
140.0205984679057
 21
87.6346876750416
 31
0.0
  0
LINE
  5
493
  8
0
  6
CONTINUOUS
 62
     2
 10
136.9894873709073
 20
82.38467598121513
 30
0.0
 11
140.0205697407833
 21
84.13467180144021
 31
0.0
  0
LINE
  5
494
  8
0
  6
CONTINUOUS
 62
     2
 10
133.9584196156621
 20
84.13467625491988
 30
0.0
 11
136.9895114791797
 21
82.38467398249243
 31
0.0
  0
LINE
  5
495
  8
0
  6
CONTINUOUS
 62
     2
 10
133.9584228978402
 20
87.63468767504163
 30
0.0
 11
133.9584228978402
 21
84.13469540874407
 31
0.0
  0
LINE
  5
496
  8
0
  6
CONTINUOUS
 62
     2
 10
140.020595662369
 20
87.63467023696767
 30
0.0
 11
136.989504424701
 21
89.38467355247757
 31
0.0
  0
LINE
  5
497
  8
0
  6
CONTINUOUS
 62
     2
 10
136.9894962952021
 20
89.38469002469354
 30
0.0
 11
133.9584033886023
 21
87.63468952550612
 31
0.0
  0
CIRCLE
  5
498
  8
0
  6
CONTINUOUS
 62
     2
 10
136.9895164049187
 20
110.8846984262291
 30
0.0
 40
6.50000004470348
  0
CIRCLE
  5
499
  8
0
  6
CONTINUOUS
 62
     2
 10
136.9895164049187
 20
85.88469154189282
 30
0.0
 40
6.50000004470348
  0
LINE
  5
49A
  8
0
  6
CONTINUOUS
 62
     2
 10
133.9584743955581
 20
-25.36550844786858
 30
0.0
 11
133.9584743955581
 21
-28.86551215825761
 31
0.0
  0
LINE
  5
49B
  8
0
  6
CONTINUOUS
 62
     2
 10
140.0206499656237
 20
-3.865505273921375
 30
0.0
 11
140.0206499656237
 21
-0.3655130076238073
 31
0.0
  0
LINE
  5
49C
  8
0
  6
CONTINUOUS
 62
     2
 10
133.9584743955581
 20
-0.3655130076237931
 30
0.0
 11
133.9584743955581
 21
-3.865505273921361
 31
0.0
  0
LINE
  5
49D
  8
0
  6
CONTINUOUS
 62
     2
 10
140.0206499656237
 20
-28.86551215825762
 30
0.0
 11
140.0206499656237
 21
-25.36550844786855
 31
0.0
  0
LINE
  5
49E
  8
0
  6
CONTINUOUS
 62
     2
 10
136.9895317166309
 20
-30.61552482367652
 30
0.0
 11
140.0206345341072
 21
-28.86551860244787
 31
0.0
  0
CIRCLE
  5
49F
  8
0
  6
CONTINUOUS
 62
     2
 10
136.9895564585451
 20
-27.11551602510879
 30
0.0
 40
6.500000044703479
  0
LINE
  5
4A0
  8
0
  6
CONTINUOUS
 62
     2
 10
136.9895592393725
 20
-23.61550491201999
 30
0.0
 11
133.9584570477477
 21
-25.36551217633454
 31
0.0
  0
LINE
  5
4A1
  8
0
  6
CONTINUOUS
 62
     2
 10
133.9584917236578
 20
-28.86547102687772
 30
0.0
 11
136.9895829613258
 21
-30.61547434238751
 31
0.0
  0
LINE
  5
4A2
  8
0
  6
CONTINUOUS
 62
     2
 10
140.0206478476897
 20
-25.36552674533079
 30
0.0
 11
136.9895460732992
 21
-23.61551875085616
 31
0.0
  0
LINE
  5
4A3
  8
0
  6
CONTINUOUS
 62
     2
 10
140.0206532478017
 20
-0.3654938537996237
 30
0.0
 11
136.9895613842841
 21
1.384508418627856
 31
0.0
  0
LINE
  5
4A4
  8
0
  6
CONTINUOUS
 62
     2
 10
136.9895765682617
 20
-5.615507623573269
 30
0.0
 11
140.0206694748616
 21
-3.865507124385832
 31
0.0
  0
CIRCLE
  5
4A5
  8
0
  6
CONTINUOUS
 62
     2
 10
136.9895564585451
 20
-2.115509140772549
 30
0.0
 40
6.500000044703479
  0
LINE
  5
4A6
  8
0
  6
CONTINUOUS
 62
     2
 10
136.9895854925566
 20
1.384506419905147
 30
0.0
 11
133.9585031226806
 21
-0.365489400319948
 31
0.0
  0
LINE
  5
4A7
  8
0
  6
CONTINUOUS
 62
     2
 10
133.9584772010949
 20
-3.865487835847407
 30
0.0
 11
136.9895684387629
 21
-5.615491151357293
 31
0.0
  0
TEXT
  5
4A8
  8
0
 62
     5
 10
69.48949256574909
 20
70.67037192090673
 30
0.0
 40
5.000000089406965
  1
NIKKO
 50
-90.0
 41
0.7674421258331633
  7
FDASTYLE1
 72
     5
 11
69.48949256574909
 21
47.09893991369624
 31
0.0
  0
TEXT
  5
4A9
  8
0
 62
     5
 10
69.98961815500354
 20
39.31324958457827
 30
0.0
 40
4.0
  1
GO2-6S
 50
-90.0
 41
0.7692310296153828
  7
FDASTYLE1
 72
     5
 11
69.98961815500354
 21
16.45610385364013
 31
0.0
  0
TEXT
  5
4AA
  8
0
 62
     5
 10
63.48961721623041
 20
38.95610640173862
 30
0.0
 40
2.999999910593036
  1
0001
 50
-90.0
 41
0.7647060960222283
  7
FDASTYLE1
 72
     5
 11
63.48961721623041
 21
27.81324864580515
 31
0.0
  0
TEXT
  5
4AB
  8
0
 62
     5
 10
62.98949019646452
 20
70.31340656851944
 30
0.0
 40
4.0
  1
N
 50
-90.0
 41
0.7143749679811293
  7
FDASTYLE1
 72
     5
 11
62.98949019646452
 21
67.45590669659492
 31
0.0
  0
TEXT
  5
4AC
  8
0
 62
     5
 10
63.119491499124
 20
62.31340308164782
 30
0.0
 40
4.0
  1
M
 50
-90.0
 41
0.7143750126846129
  7
FDASTYLE1
 72
     5
 11
63.119491499124
 21
59.45590303090937
 31
0.0
  0
TEXT
  5
4AD
  8
0
 62
     5
 10
63.01949302798309
 20
66.31341059183286
 30
0.0
 40
4.0
  1
O
 50
-90.0
 41
0.7143750126846129
  7
FDASTYLE1
 72
     5
 11
63.01949302798309
 21
63.45591054109441
 31
0.0
  0
TEXT
  5
4AE
  8
0
 62
     5
 10
63.01949302798309
 20
58.3134070155543
 30
0.0
 40
4.0
  1
U
 50
-90.0
 41
0.7143750126846129
  7
FDASTYLE1
 72
     5
 11
63.01949302798309
 21
55.45590696481585
 31
0.0
  0
TEXT
  5
4AF
  8
0
 62
     5
 10
63.01949302798309
 20
54.3134109494607
 30
0.0
 40
4.0
  1
R
 50
-90.0
 41
0.7143750126846129
  7
FDASTYLE1
 72
     5
 11
63.01949302798309
 21
51.45591089872225
 31
0.0
  0
TEXT
  5
4B0
  8
0
 62
     5
 10
62.91961580985887
 20
50.31340801371941
 30
0.0
 40
4.0
  1
A
 50
-90.0
 41
0.7143750126846129
  7
FDASTYLE1
 72
     5
 11
62.91961580985887
 21
47.45590796298096
 31
0.0
  0
TEXT
  5
4B1
  8
0
 62
     5
 10
212.2879105781792
 20
15.02613360220776
 30
0.0
 40
2.5
  1
N MAX 4000 AT ΣS MAX
 50
89.90000000000003
 41
1.470197415201258
  7
FDASTYLE3
 72
     5
 11
212.3752436139585
 21
65.06422641611222
 31
0.0
  0
TEXT
  5
4B2
  8
0
 62
     5
 10
208.2879104255474
 20
15.02613369032981
 30
0.0
 40
2.5
  1
ΣS MAX 20KN
 50
89.90000000000002
 41
1.406498962759448
  7
FDASTYLE3
 72
     5
 11
208.3353740325869
 21
42.22074971546233
 31
0.0
  0
TEXT
  5
4B3
  8
0
 62
     5
 10
204.2879106858686
 20
15.02613354003331
 30
0.0
 40
2.5
  1
F MAX  18KN
 50
89.90000000000002
 41
1.535553780065157
  7
FDASTYLE3
 72
     5
 11
204.3353742929081
 21
42.22074956516583
 31
0.0
  0
TEXT
  5
4B4
  8
0
 62
     5
 10
199.0880641812714
 20
48.25771997431866
 30
0.0
 40
2.5
  1
F
 50
89.89999999999994
 41
1.467648253018949
  7
FDASTYLE3
 72
     5
 11
199.0919000696418
 21
50.4555198857696
 31
0.0
  0
TEXT
  5
4B5
  8
0
 62
     5
 10
206.6074441160932
 20
56.05170440319029
 30
0.0
 40
2.5
  1
N min
 50
89.90000000000008
 41
1.560037819098645
  7
FDASTYLE3
 72
     5
 11
206.6290425546212
 21
68.42668555499222
 31
0.0
  0
TEXT
  5
4B6
  8
0
 62
     5
 10
200.7904998303544
 20
64.51599532764682
 30
0.0
 40
2.5
  1
ΣS
 50
89.90000000000005
 41
1.113986578763098
  7
FDASTYLE3
 72
     5
 11
200.7997059600507
 21
69.79071374422432
 31
0.0
  0
TEXT
  5
4B7
  8
0
 62
     5
 10
204.829421240982
 20
69.64654789970359
 30
0.0
 40
1.25
  1
-1
 50
89.89999999999974
 41
1.720841505331474
  7
FDASTYLE3
 72
     5
 11
204.8333482302734
 21
71.89654474097898
 31
0.0
  0
LINE
  5
4B8
  8
0
  6
CONTINUOUS
 62
     5
 10
200.2198985915526
 20
50.71387627335486
 30
0.0
 11
200.9699047363188
 21
51.46388256766035
 31
0.0
  0
LINE
  5
4B9
  8
0
  6
CONTINUOUS
 62
     5
 10
195.7198700712818
 20
62.33890592154648
 30
0.0
 11
195.7198700625386
 21
63.46389827700821
 31
0.0
  0
LINE
  5
4BA
  8
0
  6
CONTINUOUS
 62
     5
 10
195.7198557661673
 20
62.3389059215464
 30
0.0
 11
197.2198557459755
 21
62.33890593320409
 31
0.0
  0
LINE
  5
4BB
  8
0
  6
CONTINUOUS
 62
     5
 10
197.2198700598334
 20
61.21390594834804
 30
0.0
 11
197.2198700510901
 21
62.3389059332042
 31
0.0
  0
LINE
  5
4BC
  8
0
  6
CONTINUOUS
 62
     5
 10
200.9698657586326
 20
46.96392964363834
 30
0.0
 11
200.21986496129
 21
47.71393044412397
 31
0.0
  0
LINE
  5
4BD
  8
0
  6
CONTINUOUS
 62
     5
 10
200.9699065336335
 20
46.96386548093264
 30
0.0
 11
201.7199126783998
 21
47.71387177523819
 31
0.0
  0
LINE
  5
4BE
  8
0
  6
CONTINUOUS
 62
     5
 10
200.9698824828951
 20
51.46390610873891
 30
0.0
 11
200.9698825178683
 21
46.9639061693142
 31
0.0
  0
LINE
  5
4BF
  8
0
  6
CONTINUOUS
 62
     5
 10
201.7198638680061
 20
50.71393093923902
 30
0.0
 11
200.9698698141592
 21
51.46392499622898
 31
0.0
  0
LINE
  5
4C0
  8
0
  6
CONTINUOUS
 62
     5
 10
193.4698643707804
 20
63.46390588891605
 30
0.0
 11
195.7198633868184
 21
63.46390590640262
 31
0.0
  0
LINE
  5
4C1
  8
0
  6
CONTINUOUS
 62
     5
 10
202.8456665993136
 20
57.74096906345228
 30
0.0
 11
202.691335018236
 21
58.71537990834875
 31
0.0
  0
LINE
  5
4C2
  8
0
  6
CONTINUOUS
 62
     5
 10
202.8456490652967
 20
57.74097849767891
 30
0.0
 11
201.8712231064246
 21
57.58664469025611
 31
0.0
  0
LINE
  5
4C3
  8
0
  6
CONTINUOUS
 62
     5
 10
200.2198812756309
 20
62.06415633632393
 30
0.0
 11
200.9698874203972
 21
62.81416263062941
 31
0.0
  0
LINE
  5
4C4
  8
0
  6
CONTINUOUS
 62
     5
 10
200.9698752327387
 20
62.81421545796349
 30
0.0
 11
200.2198744353962
 21
63.56421625844909
 31
0.0
  0
LINE
  5
4C5
  8
0
  6
CONTINUOUS
 62
     5
 10
193.4698577824931
 20
52.21390985505144
 30
0.0
 11
208.4698566269012
 21
52.2139099716286
 31
0.0
  0
ARC
  5
4C6
  8
0
  6
CONTINUOUS
 62
     5
 10
200.9894940056483
 20
55.88480140774283
 30
0.0
 40
2.625001907348632
 50
45.0001079549973
 51
339.9999533779449
  0
LINE
  5
4C7
  8
0
  6
CONTINUOUS
 62
     5
 10
193.4698673192362
 20
52.21390604035429
 30
0.0
 11
193.4698672318033
 21
63.46390588891606
 31
0.0
  0
LINE
  5
4C8
  8
0
  6
CONTINUOUS
 62
     5
 10
198.7198671902764
 20
59.71390598019748
 30
0.0
 11
198.7198671786187
 21
61.21390596000573
 31
0.0
  0
LINE
  5
4C9
  8
0
  6
CONTINUOUS
 62
     5
 10
197.2198519400216
 20
61.2139059483479
 30
0.0
 11
198.7198643175958
 21
61.21390596000573
 31
0.0
  0
LINE
  5
4CA
  8
0
  6
CONTINUOUS
 62
     5
 10
193.4698643999247
 20
59.71390593939546
 30
0.0
 11
208.4698565686126
 21
59.71390605597262
 31
0.0
  0
LINE
  5
4CB
  8
0
  6
CONTINUOUS
 62
     5
 10
208.469877607736
 20
52.21390615693159
 30
0.0
 11
208.4698775494473
 21
59.71390605597273
 31
0.0
  0
LINE
  5
4CC
  8
0
  6
CONTINUOUS
 62
     5
 10
198.010230487502
 20
62.81416380648437
 30
0.0
 11
200.9698566454769
 21
62.81416382948603
 31
0.0
  0
LINE
  5
4CD
  8
0
  6
DASHED2
 62
     7
 10
103.9894824061618
 20
-92.18131955618635
 30
0.0
 11
103.9894824683364
 21
-84.18132037913136
 31
0.0
  0
LINE
  5
4CE
  8
0
  6
DASHED2
 62
     7
 10
109.9894277871473
 20
-92.18131960281689
 30
0.0
 11
109.9894278493218
 21
-84.18132042576202
 31
0.0
  0
LINE
  5
4CF
  8
0
  6
DASHED2
 62
     7
 10
103.9895168006103
 20
-84.18132037913171
 30
0.0
 11
109.9895194020522
 21
-84.18132042576262
 31
0.0
  0
LINE
  5
4D0
  8
0
  6
DASHED2
 62
     7
 10
110.9394705513017
 20
-81.80442844613435
 30
0.0
 11
110.9394705381965
 21
-83.49067810615243
 31
0.0
  0
LINE
  5
4D1
  8
0
  6
DASHED2
 62
     7
 10
103.0394741355758
 20
-81.80442838473707
 30
0.0
 11
103.0394741224706
 21
-83.49067804475514
 31
0.0
  0
LINE
  5
4D2
  8
0
  6
DASHED2
 62
     7
 10
103.5968757734079
 20
-81.18132050587064
 30
0.0
 11
110.3820975333833
 21
-81.18132055860417
 31
0.0
  0
LINE
  5
4D3
  8
0
  6
DASHED2
 62
     7
 10
104.989512960028
 20
-81.94525366540626
 30
0.0
 11
104.9895129485869
 21
-83.41739009921409
 31
0.0
  0
LINE
  5
4D4
  8
0
  6
DASHED2
 62
     7
 10
108.9894889451171
 20
-81.94525369649331
 30
0.0
 11
108.989488933676
 21
-83.41739013030109
 31
0.0
  0
LINE
  5
4D5
  8
0
  6
DASHED2
 62
     7
 10
103.9895167384358
 20
-92.18131955618655
 30
0.0
 11
109.9895193398777
 21
-92.1813196028175
 31
0.0
  0
ARC
  5
4D6
  8
0
  6
DASHED2
 62
     7
 10
106.9895022262742
 20
-81.18131087211428
 30
0.0
 40
2.999999910593036
 50
228.1896978491926
 51
270.0000110043194
  0
ARC
  5
4D7
  8
0
  6
DASHED2
 62
     7
 10
106.9895058686442
 20
-84.18131709147738
 30
0.0
 40
2.999999910593036
 50
48.18972699118209
 51
131.8103123203009
  0
ARC
  5
4D8
  8
0
  6
DASHED2
 62
     7
 10
106.9895022262742
 20
-81.18131087211428
 30
0.0
 40
2.999999910593036
 50
270.0000283071635
 51
311.8103346321012
  0
ARC
  5
4D9
  8
0
  6
DASHED2
 62
     7
 10
106.9894831039148
 20
-76.98132479716102
 30
0.0
 40
3.299999973177911
 50
342.3603227894642
 51
360.0000239814525
  0
ARC
  5
4DA
  8
0
  6
DASHED2
 62
     7
 10
112.7854663084443
 20
-79.38586300068239
 30
0.0
 40
2.999999910593036
 50
152.1101809487124
 51
216.7620058960067
  0
ARC
  5
4DB
  8
0
  6
DASHED2
 62
     7
 10
103.9894638635066
 20
-82.11668170993596
 30
0.0
 40
1.0
 50
0.0000239814524708
 51
69.28456133709138
  0
ARC
  5
4DC
  8
0
  6
DASHED2
 62
     7
 10
103.9894638635066
 20
-82.11668170993596
 30
0.0
 40
1.0
 50
110.7154779743916
 51
161.805135871736
  0
ARC
  5
4DD
  8
0
  6
DASHED2
 62
     7
 10
109.9894791632557
 20
-82.11667938063276
 30
0.0
 40
1.0
 50
110.7154779743916
 51
180.0000289904088
  0
ARC
  5
4DE
  8
0
  6
DASHED2
 62
     7
 10
109.9894791632557
 20
-82.11667938063276
 30
0.0
 40
1.0
 50
18.19491026993607
 51
69.28456133709138
  0
ARC
  5
4DF
  8
0
  6
DASHED2
 62
     7
 10
103.989482701637
 20
-83.17842275721102
 30
0.0
 40
1.0
 50
198.1948742977574
 51
270.0000110043194
  0
ARC
  5
4E0
  8
0
  6
DASHED2
 62
     7
 10
109.9894980013862
 20
-83.17842042790781
 30
0.0
 40
1.0
 50
180.0000289904088
 51
270.0000110043194
  0
ARC
  5
4E1
  8
0
  6
DASHED2
 62
     7
 10
103.989482701637
 20
-83.17842275721102
 30
0.0
 40
1.0
 50
270.0000283071635
 51
360.0000239814525
  0
ARC
  5
4E2
  8
0
  6
DASHED2
 62
     7
 10
109.9894980013862
 20
-83.17842042790781
 30
0.0
 40
1.0
 50
270.0000283071635
 51
341.8051650137256
  0
LINE
  5
4E3
  8
0
  6
DASHED2
 62
     7
 10
104.5894905270744
 20
-74.68132270214625
 30
0.0
 11
109.3894828807503
 21
-74.68132273945102
 31
0.0
  0
LINE
  5
4E4
  8
0
  6
DASHED2
 62
     7
 10
104.5894319689409
 20
-74.68129332576204
 30
0.0
 11
103.6894318946506
 21
-76.9812934929333
 31
0.0
  0
ARC
  5
4E5
  8
0
  6
DASHED2
 62
     7
 10
106.9894831039148
 20
-76.98132479716102
 30
0.0
 40
3.299999973177911
 50
180.0000289904088
 51
197.6397165220187
  0
ARC
  5
4E6
  8
0
  6
DASHED2
 62
     7
 10
106.9894693749472
 20
-75.15921855266261
 30
0.0
 40
1.200000071525572
 50
23.46799389410434
 51
156.5320385871894
  0
LINE
  5
4E7
  8
0
  6
DASHED2
 62
     7
 10
103.6894985590002
 20
-76.98133899884329
 30
0.0
 11
110.2895091453478
 21
-76.98133905013725
 31
0.0
  0
LINE
  5
4E8
  8
0
  6
DASHED2
 62
     7
 10
110.2894515912663
 20
-76.98133663026131
 30
0.0
 11
109.3894517782304
 21
-74.681336228175
 31
0.0
  0
LINE
  5
4E9
  8
0
  6
DASHED2
 62
     7
 10
104.3764186875255
 20
-77.98132370212996
 30
0.0
 11
109.6684440246751
 21
-77.98132374325873
 31
0.0
  0
ARC
  5
4EA
  8
0
  6
DASHED2
 62
     7
 10
101.1934961269554
 20
-79.38586194752766
 30
0.0
 40
2.999999910593036
 50
323.2380334154763
 51
387.8931505139506
  0
LINE
  5
4EB
  8
0
  6
CONTINUOUS
 62
     6
 10
-83.25976076794183
 20
-107.9314710852049
 30
0.0
 11
-67.25975361538468
 21
-107.9314710852049
 31
0.0
  0
LINE
  5
4EC
  8
0
  6
CONTINUOUS
 62
     6
 10
-83.25976076794183
 20
-115.9314689394378
 30
0.0
 11
61.55217034113096
 21
-115.9314689394378
 31
0.0
  0
LINE
  5
4ED
  8
0
  6
CONTINUOUS
 62
     6
 10
-83.25976076794183
 20
-123.9314725157164
 30
0.0
 11
61.55217034113096
 21
-123.9314725157164
 31
0.0
  0
LINE
  5
4EE
  8
0
  6
CONTINUOUS
 62
     6
 10
-83.25976076794183
 20
-131.9314703699492
 30
0.0
 11
61.55217034113096
 21
-131.9314703699492
 31
0.0
  0
LINE
  5
4EF
  8
0
  6
CONTINUOUS
 62
     6
 10
-83.25976076794183
 20
-139.9314682241821
 30
0.0
 11
61.55217034113096
 21
-139.9314682241821
 31
0.0
  0
LINE
  5
4F0
  8
0
  6
CONTINUOUS
 62
     6
 10
-83.25976076794183
 20
-147.9314660784149
 30
0.0
 11
61.55217034113096
 21
-147.9314660784149
 31
0.0
  0
LINE
  5
4F1
  8
0
  6
CONTINUOUS
 62
     6
 10
-83.25976076794183
 20
-155.9314639326478
 30
0.0
 11
61.55217034113096
 21
-155.9314639326478
 31
0.0
  0
LINE
  5
4F2
  8
0
  6
CONTINUOUS
 62
     6
 10
-83.25976076794183
 20
-163.9314675089264
 30
0.0
 11
61.55217034113096
 21
-163.9314675089264
 31
0.0
  0
LINE
  5
4F3
  8
0
  6
CONTINUOUS
 62
     6
 10
-83.25976076794183
 20
-171.9314596411135
 30
0.0
 11
61.55217034113096
 21
-171.9314596411135
 31
0.0
  0
LINE
  5
4F4
  8
0
  6
CONTINUOUS
 62
     6
 10
-83.25976076794183
 20
-179.9314632173921
 30
0.0
 11
61.55217034113096
 21
-179.9314632173921
 31
0.0
  0
TEXT
  5
4F5
  8
0
 62
     6
 10
-80.68832527385972
 20
-114.2648163692692
 30
0.0
 40
4.0
  1
爪ﾉｽﾄﾛｰｸ
 41
0.7781458564086068
  7
FDASTYLE1
 72
     5
 11
-53.83118177809569
 21
-114.2648163692692
 31
0.0
  0
TEXT
  5
4F6
  8
0
 62
     6
 10
-80.68832527385972
 20
-122.264814223502
 30
0.0
 40
4.0
  1
ピストンストローク
 41
0.6659390021124504
  7
FDASTYLE1
 72
     5
 11
-45.83118195690962
 21
-122.264814223502
 31
0.0
  0
TEXT
  5
4F7
  8
0
 62
     6
 10
-80.68832527385972
 20
-130.2648120777349
 30
0.0
 40
4.0
  1
推奨シリンダー
 41
0.6638419481832335
  7
FDASTYLE1
 72
     5
 11
-53.83118177809569
 21
-130.2648120777349
 31
0.0
  0
TEXT
  5
4F8
  8
0
 62
     6
 10
-80.68832527385972
 20
-138.2648156540135
 30
0.0
 40
4.0
  1
許容シリンダー力
 41
0.6650247692388752
  7
FDASTYLE1
 72
     5
 11
-49.83118186750266
 21
-138.2648156540135
 31
0.0
  0
TEXT
  5
4F9
  8
0
 62
     6
 10
-80.68832527385972
 20
-146.2648135082463
 30
0.0
 40
4.0
  1
最大静的把握力
 41
0.6638419481832335
  7
FDASTYLE1
 72
     5
 11
-53.83118177809569
 21
-146.2648135082463
 31
0.0
  0
TEXT
  5
4FA
  8
0
 62
     6
 10
-80.68832527385972
 20
-154.2648170845249
 30
0.0
 40
4.0
  1
最高使用回転速度
 41
0.6650247692388752
  7
FDASTYLE1
 72
     5
 11
-49.83118186750266
 21
-154.2648170845249
 31
0.0
  0
TEXT
  5
4FB
  8
0
 62
     6
 10
-80.68832527385972
 20
-162.2648034946663
 30
0.0
 40
4.0
  1
慣性モーメント
 41
0.6638419481832335
  7
FDASTYLE1
 72
     5
 11
-53.83118177809569
 21
-162.2648034946663
 31
0.0
  0
TEXT
  5
4FC
  8
0
 62
     6
 10
-80.68832527385972
 20
-170.2648070709449
 30
0.0
 40
4.0
  1
質　量
 41
0.650685089833454
  7
FDASTYLE1
 72
     5
 11
-69.83118142046783
 21
-170.2648070709449
 31
0.0
  0
TEXT
  5
4FD
  8
0
 62
     6
 10
-80.68832527385972
 20
-178.2648106472234
 30
0.0
 40
4.0
  1
アンバランス量
 41
0.6638419481832335
  7
FDASTYLE1
 72
     5
 11
-53.83118177809569
 21
-178.2648106472234
 31
0.0
  0
TEXT
  5
4FE
  8
0
 62
     6
 10
30.50730816151961
 20
-130.0455146752128
 30
0.0
 40
4.0
  1
 36TS 型
 41
0.7781458564086069
  7
FDASTYLE1
 72
     5
 11
57.36445165728365
 21
-130.0455146752128
 31
0.0
  0
TEXT
  5
4FF
  8
0
 62
     6
 10
38.7596768425818
 20
-121.7692106768708
 30
0.0
 40
4.0
  1
20 mm
 41
0.7674420517061209
  7
FDASTYLE1
 72
     5
 11
57.61682051715977
 21
-121.7692106768708
 31
0.0
  0
TEXT
  5
500
  8
0
 62
     6
 10
10.72022226440434
 20
-113.9894829729338
 30
0.0
 40
4.0
  1
(直径ﾆﾃ) 32 mm
 41
0.7677904243924568
  7
FDASTYLE1
 72
     5
 11
57.57736531313354
 21
-113.9894829729338
 31
0.0
  0
TEXT
  5
501
  8
0
 62
     6
 10
10.48942927201492
 20
-178.0481167755076
 30
0.0
 40
4.0
  1
外周ﾆﾃ   3 g以内
 41
0.7481753365973297
  7
FDASTYLE1
 72
     5
 11
57.34657232074413
 21
-178.0481167755076
 31
0.0
  0
TEXT
  5
502
  8
0
 62
     6
 10
39.2288845922702
 20
-169.9373343939367
 30
0.0
 40
4.0
  1
13 kg
 41
0.7674420517061209
  7
FDASTYLE1
 72
     5
 11
58.08602826684816
 21
-169.9373343939367
 31
0.0
  0
TEXT
  5
503
  8
0
 62
     6
 10
18.70363190807198
 20
-161.9920679070913
 30
0.0
 40
4.0
  1
0.046 kg・m
 41
0.7780322016175856
  7
FDASTYLE1
 72
     5
 11
57.56077513561512
 21
-161.9920679070913
 31
0.0
  0
TEXT
  5
504
  8
0
 62
     6
 10
27.13363577671133
 20
-153.8813026916577
 30
0.0
 40
4.0
  1
4000 min
 41
0.7714287558624076
  7
FDASTYLE1
 72
     5
 11
57.99077918306839
 21
-153.8813026916577
 31
0.0
  0
TEXT
  5
505
  8
0
 62
     6
 10
30.7776061576145
 20
-145.9360190386751
 30
0.0
 40
4.0
  1
20   kN
 41
0.7704919893009594
  7
FDASTYLE1
 72
     5
 11
57.63474965337853
 21
-145.9360190386751
 31
0.0
  0
TEXT
  5
506
  8
0
 62
     6
 10
30.78837504767442
 20
-137.9907639959211
 30
0.0
 40
4.0
  1
18.6 kN
 41
0.7704919893009594
  7
FDASTYLE1
 72
     5
 11
57.64551854343845
 21
-137.9907639959211
 31
0.0
  0
TEXT
  5
507
  8
0
 62
     6
 10
59.41791702205388
 20
-159.4920678623878
 30
0.0
 40
2.0
  1
2
 41
0.7142860080514559
  7
FDASTYLE1
 72
     5
 11
60.84648903815679
 21
-159.4920678623878
 31
0.0
  0
TEXT
  5
508
  8
0
 62
     6
 10
-80.68832527385972
 20
-106.2648099319678
 30
0.0
 40
4.0
  1
仕　様
 41
0.650685089833454
  7
FDASTYLE1
 72
     5
 11
-69.83118142046783
 21
-106.2648099319678
 31
0.0
  0
TEXT
  5
509
  8
0
 62
     6
 10
-37.83366308958149
 20
-137.9307377692821
 30
0.0
 40
2.999999910593036
  1
36TS 型引側使用圧  2.1 MPa
 41
0.7483732750179843
  7
FDASTYLE1
 72
     5
 11
21.30919323584056
 21
-137.9307377692821
 31
0.0
  0
TEXT
  5
50A
  8
0
 62
     6
 10
58.37368641032197
 20
-151.3292708354535
 30
0.0
 40
2.0
  1
-1
 41
0.7500002224697043
  7
FDASTYLE1
 72
     5
 11
61.8022583817214
 21
-151.3292708354535
 31
0.0
  0
VIEWPORT
  5
47
 67
     1
  8
0
 10
0.0
 20
0.0
 30
0.0
 40
1662.0
 41
1140.0
 68
     1
 69
     1
1001
ACAD
1000
MVIEW
1002
{
1070
    16
1010
0.0
1020
0.0
1030
0.0
1020
0.0
1030
0.0
1010
0.0
1020
0.0
1030
1.0
1020
0.0
1030
1.0
1040
0.0
1040
1140.0
1040
0.0
1040
0.0
1040
50.0
1040
0.0
1040
0.0
1070
     0
1070
   100
1070
     0
1070
     1
1070
     0
1070
     0
1070
     0
1070
     0
1040
0.0
1040
0.0
1040
0.0
1040
0.5
1040
0.5
1040
0.0
1040
0.0
1070
     0
1002
{
1002
}
1002
}
  0
ENDSEC
  0
EOF
