  0
SECTION
  2
HEADER
  9
$ACADVER
  1
AC1009
  9
$DWGCODEPAGE
  3
ansi_932
  9
$INSBASE
 10
0.0
 20
0.0
 30
0.0
  9
$EXTMIN
 10
-831.0
 20
-569.9999999999999
 30
0.0
  9
$EXTMAX
 10
831.0
 20
569.9999999999999
 30
0.0
  9
$LIMMIN
 10
-297.0
 20
-210.0
  9
$LIMMAX
 10
297.0
 20
210.0
  9
$ORTHOMODE
 70
     0
  9
$REGENMODE
 70
     1
  9
$FILLMODE
 70
     1
  9
$QTEXTMODE
 70
     0
  9
$MIRRTEXT
 70
     1
  9
$DRAGMODE
 70
     2
  9
$LTSCALE
 40
1.0
  9
$OSMODE
 70
    37
  9
$ATTMODE
 70
     1
  9
$TEXTSIZE
 40
0.2
  9
$TRACEWID
 40
0.05
  9
$TEXTSTYLE
  7
STANDARD
  9
$CLAYER
  8
0
  9
$CELTYPE
  6
BYLAYER
  9
$CECOLOR
 62
   256
  9
$DIMSCALE
 40
1.0
  9
$DIMASZ
 40
2.5
  9
$DIMEXO
 40
0.0625
  9
$DIMDLI
 40
0.38
  9
$DIMRND
 40
0.0
  9
$DIMDLE
 40
0.0
  9
$DIMEXE
 40
0.18
  9
$DIMTP
 40
0.0
  9
$DIMTM
 40
0.0
  9
$DIMTXT
 40
0.18
  9
$DIMCEN
 40
0.09
  9
$DIMTSZ
 40
0.0
  9
$DIMTOL
 70
     0
  9
$DIMLIM
 70
     0
  9
$DIMTIH
 70
     1
  9
$DIMTOH
 70
     1
  9
$DIMSE1
 70
     0
  9
$DIMSE2
 70
     0
  9
$DIMTAD
 70
     3
  9
$DIMZIN
 70
     0
  9
$DIMBLK
  1

  9
$DIMASO
 70
     1
  9
$DIMSHO
 70
     1
  9
$DIMPOST
  1

  9
$DIMAPOST
  1

  9
$DIMALT
 70
     0
  9
$DIMALTD
 70
     2
  9
$DIMALTF
 40
25.4
  9
$DIMLFAC
 40
1.0
  9
$DIMTOFL
 70
     0
  9
$DIMTVP
 40
0.0
  9
$DIMTIX
 70
     0
  9
$DIMSOXD
 70
     0
  9
$DIMSAH
 70
     0
  9
$DIMBLK1
  1

  9
$DIMBLK2
  1

  9
$DIMSTYLE
  2
STANDARD
  9
$DIMCLRD
 70
     0
  9
$DIMCLRE
 70
     0
  9
$DIMCLRT
 70
     0
  9
$DIMTFAC
 40
1.0
  9
$DIMGAP
 40
0.09
  9
$LUNITS
 70
     2
  9
$LUPREC
 70
     4
  9
$SKETCHINC
 40
0.1
  9
$FILLETRAD
 40
0.5
  9
$AUNITS
 70
     0
  9
$AUPREC
 70
     0
  9
$MENU
  1
.
  9
$ELEVATION
 40
0.0
  9
$PELEVATION
 40
0.0
  9
$THICKNESS
 40
0.0
  9
$LIMCHECK
 70
     0
  9
$CHAMFERA
 40
0.5
  9
$CHAMFERB
 40
0.5
  9
$SKPOLY
 70
     0
  9
$TDCREATE
 40
2456330.398701875
  9
$TDUPDATE
 40
2456330.398701887
  9
$TDINDWG
 40
0.0000000116
  9
$TDUSRTIMER
 40
0.0000000116
  9
$USRTIMER
 70
     1
  9
$ANGBASE
 50
0.0
  9
$ANGDIR
 70
     0
  9
$PDMODE
 70
     0
  9
$PDSIZE
 40
1.0
  9
$PLINEWID
 40
0.0
  9
$COORDS
 70
     1
  9
$SPLFRAME
 70
     0
  9
$SPLINETYPE
 70
     6
  9
$SPLINESEGS
 70
     8
  9
$ATTDIA
 70
     0
  9
$ATTREQ
 70
     1
  9
$HANDLING
 70
     1
  9
$HANDSEED
  5
56E
  9
$SURFTAB1
 70
     6
  9
$SURFTAB2
 70
     6
  9
$SURFTYPE
 70
     6
  9
$SURFU
 70
     6
  9
$SURFV
 70
     6
  9
$UCSNAME
  2

  9
$UCSORG
 10
0.0
 20
0.0
 30
0.0
  9
$UCSXDIR
 10
1.0
 20
0.0
 30
0.0
  9
$UCSYDIR
 10
0.0
 20
1.0
 30
0.0
  9
$PUCSNAME
  2

  9
$PUCSORG
 10
0.0
 20
0.0
 30
0.0
  9
$PUCSXDIR
 10
1.0
 20
0.0
 30
0.0
  9
$PUCSYDIR
 10
0.0
 20
1.0
 30
0.0
  9
$USERI1
 70
     0
  9
$USERI2
 70
     0
  9
$USERI3
 70
     0
  9
$USERI4
 70
     0
  9
$USERI5
 70
     0
  9
$USERR1
 40
0.0
  9
$USERR2
 40
0.0
  9
$USERR3
 40
0.0
  9
$USERR4
 40
0.0
  9
$USERR5
 40
0.0
  9
$WORLDVIEW
 70
     1
  9
$SHADEDGE
 70
     3
  9
$SHADEDIF
 70
    70
  9
$TILEMODE
 70
     1
  9
$MAXACTVP
 70
    64
  9
$PLIMCHECK
 70
     0
  9
$PEXTMIN
 10
1.000000000000000E+20
 20
1.000000000000000E+20
 30
1.000000000000000E+20
  9
$PEXTMAX
 10
-1.000000000000000E+20
 20
-1.000000000000000E+20
 30
-1.000000000000000E+20
  9
$PLIMMIN
 10
0.0
 20
0.0
  9
$PLIMMAX
 10
12.0
 20
9.0
  9
$UNITMODE
 70
     0
  9
$VISRETAIN
 70
     0
  9
$PLINEGEN
 70
     1
  9
$PSLTSCALE
 70
     0
  0
ENDSEC
  0
SECTION
  2
TABLES
  0
TABLE
  2
VPORT
 70
     1
  0
VPORT
  2
*ACTIVE
 70
     0
 10
0.0
 20
0.0
 11
1.0
 21
1.0
 12
0.0
 22
0.0
 13
0.0
 23
0.0
 14
0.5
 24
0.5
 15
0.5
 25
0.5
 16
0.0
 26
0.0
 36
1.0
 17
-0.0000000000000036
 27
0.0
 37
0.0
 40
387.6
 41
1.457894736842106
 42
50.0
 43
0.0
 44
0.0
 50
0.0
 51
0.0
 71
     0
 72
  1000
 73
     1
 74
     1
 75
     0
 76
     0
 77
     0
 78
     0
  0
ENDTAB
  0
TABLE
  2
LTYPE
 70
    28
  0
LTYPE
  2
CONTINUOUS
 70
     0
  3
Solid line
 72
    65
 73
     0
 40
0.0
  0
LTYPE
  2
HIDDENX2
 70
     0
  3
CADPAC LINETYPE
 72
    65
 73
     2
 40
10.30674846625766
 49
7.730061349693244
 49
-2.576687116564415
  0
LTYPE
  2
HIDDEN
 70
     0
  3
CADPAC LINETYPE
 72
    65
 73
     2
 40
7.730061349693244
 49
5.15337423312883
 49
-2.576687116564415
  0
LTYPE
  2
HIDDEN2
 70
     0
  3
CADPAC LINETYPE
 72
    65
 73
     2
 40
6.441717791411037
 49
3.865030674846622
 49
-2.576687116564415
  0
LTYPE
  2
DASHED
 70
     0
  3
CADPAC LINETYPE
 72
    65
 73
     2
 40
7.214723926380373
 49
5.15337423312883
 49
-2.061349693251543
  0
LTYPE
  2
DASHED2
 70
     0
  3
CADPAC LINETYPE
 72
    65
 73
     2
 40
4.638036809815958
 49
3.092024539877286
 49
-1.546012269938672
  0
LTYPE
  2
DASHEDX2
 70
     0
  3
CADPAC LINETYPE
 72
    65
 73
     2
 40
12.3680981595092
 49
10.30674846625766
 49
-2.061349693251543
  0
LTYPE
  2
DOTX2
 70
     0
  3
CADPAC LINETYPE
 72
    65
 73
     2
 40
4.509202453987768
 49
0.0
 49
-4.509202453987768
  0
LTYPE
  2
DOT
 70
     0
  3
CADPAC LINETYPE
 72
    65
 73
     2
 40
3.607361963190215
 49
0.0
 49
-3.607361963190215
  0
LTYPE
  2
DOT2
 70
     0
  3
CADPAC LINETYPE
 72
    65
 73
     2
 40
2.705521472392661
 49
0.0
 49
-2.705521472392661
  0
LTYPE
  2
CENTERX2
 70
     0
  3
CADPAC LINETYPE
 72
    65
 73
     4
 40
15.46012269938649
 49
6.441717791411037
 49
-3.220858895705518
 49
2.576687116564415
 49
-3.220858895705518
  0
LTYPE
  2
CENTER
 70
     0
  3
CADPAC LINETYPE
 72
    65
 73
     4
 40
11.85276073619631
 49
5.15337423312883
 49
-2.576687116564415
 49
1.546012269938649
 49
-2.576687116564415
  0
LTYPE
  2
CENTER2
 70
     0
  3
CADPAC LINETYPE
 72
    65
 73
     4
 40
8.245398773006126
 49
3.865030674846622
 49
-1.932515337423311
 49
0.515337423312883
 49
-1.932515337423311
  0
LTYPE
  2
DASHDOTX2
 70
     0
  3
CADPAC LINETYPE
 72
    65
 73
     4
 40
24.73619631901846
 49
12.3680981595092
 49
-4.122699386503086
 49
4.122699386503086
 49
-4.122699386503086
  0
LTYPE
  2
DASHDOT
 70
     0
  3
CADPAC LINETYPE
 72
    65
 73
     4
 40
12.36809815950926
 49
6.18404907975463
 49
-2.061349693251543
 49
2.061349693251543
 49
-2.061349693251543
  0
LTYPE
  2
DASHDOT2
 70
     0
  3
CADPAC LINETYPE
 72
    65
 73
     4
 40
7.936196319018441
 49
4.638036809815972
 49
-1.546012269938657
 49
0.2061349693251543
 49
-1.546012269938657
  0
LTYPE
  2
DIVIDEX2
 70
     0
  3
CADPAC LINETYPE
 72
    65
 73
     6
 40
32.98159509202463
 49
12.3680981595092
 49
-4.122699386503086
 49
4.122699386503086
 49
-4.122699386503086
 49
4.122699386503086
 49
-4.122699386503086
  0
LTYPE
  2
DIVIDE
 70
     0
  3
CADPAC LINETYPE
 72
    65
 73
     6
 40
16.49079754601235
 49
6.18404907975463
 49
-2.061349693251543
 49
2.061349693251543
 49
-2.061349693251543
 49
2.061349693251543
 49
-2.061349693251543
  0
LTYPE
  2
DIVIDE2
 70
     0
  3
CADPAC LINETYPE
 72
    65
 73
     6
 40
12.36809815950926
 49
4.638036809815972
 49
-1.546012269938657
 49
1.546012269938657
 49
-1.546012269938657
 49
1.546012269938657
 49
-1.546012269938657
  0
LTYPE
  2
BORDERX2
 70
     0
  3
CADPAC LINETYPE
 72
    65
 73
     6
 40
22.54601226993863
 49
6.441717791411037
 49
-3.220858895705518
 49
6.441717791411037
 49
-3.220858895705518
 49
0.0
 49
-3.220858895705518
  0
LTYPE
  2
BORDER
 70
     0
  3
CADPAC LINETYPE
 72
    65
 73
     6
 40
18.0368098159509
 49
5.15337423312883
 49
-2.576687116564415
 49
5.15337423312883
 49
-2.576687116564415
 49
0.0
 49
-2.576687116564415
  0
LTYPE
  2
BORDER2
 70
     0
  3
CADPAC LINETYPE
 72
    65
 73
     6
 40
13.398773006135
 49
4.122699386503086
 49
-2.576687116564415
 49
1.546012269938672
 49
-2.576687116564415
 49
0.0
 49
-2.576687116564415
  0
LTYPE
  2
PHANTOMX2
 70
     0
  3
CADPAC LINETYPE
 72
    65
 73
     6
 40
19.32515337423311
 49
6.441717791411037
 49
-2.576687116564415
 49
2.576687116564415
 49
-2.576687116564415
 49
2.576687116564415
 49
-2.576687116564415
  0
LTYPE
  2
PHANTOM
 70
     0
  3
CADPAC LINETYPE
 72
    65
 73
     6
 40
15.97546012269937
 49
5.15337423312883
 49
-2.576687116564415
 49
1.546012269938649
 49
-2.576687116564415
 49
1.546012269938649
 49
-2.576687116564415
  0
LTYPE
  2
PHANTOM2
 70
     0
  3
CADPAC LINETYPE
 72
    65
 73
     6
 40
13.6564417177914
 49
3.865030674846622
 49
-2.576687116564415
 49
1.030674846625766
 49
-2.576687116564415
 49
1.030674846625766
 49
-2.576687116564415
  0
LTYPE
  2
ACAD_ISO06W100
 70
     0
  3
CADPAC LINETYPE
 72
    65
 73
     8
 40
27.31288343558288
 49
12.3680981595092
 49
-2.576687116564415
 49
1.546012269938672
 49
-2.576687116564415
 49
1.546012269938672
 49
-2.576687116564415
 49
1.546012269938672
 49
-2.576687116564415
  0
LTYPE
  2
ACAD_ISO13W100
 70
     0
  3
CADPAC LINETYPE
 72
    65
 73
     8
 40
20.61349693251532
 49
5.15337423312883
 49
-2.576687116564415
 49
5.15337423312883
 49
-2.576687116564415
 49
0.0
 49
-2.576687116564415
 49
0.0
 49
-2.576687116564415
  0
LTYPE
  2
ACAD_ISO14W100
 70
     0
  3
CADPAC LINETYPE
 72
    65
 73
     8
 40
15.46012269938649
 49
5.15337423312883
 49
-2.576687116564415
 49
0.0
 49
-2.576687116564415
 49
0.0
 49
-2.576687116564415
 49
0.0
 49
-2.576687116564415
  0
ENDTAB
  0
TABLE
  2
LAYER
 70
     3
  0
LAYER
  2
0
 70
     0
 62
     7
  6
CONTINUOUS
  0
LAYER
  2
LAYER0014
 70
     0
 62
     7
  6
CONTINUOUS
  0
LAYER
  2
ZUWAKU
 70
     0
 62
     7
  6
CONTINUOUS
  0
ENDTAB
  0
TABLE
  2
STYLE
 70
     5
  0
STYLE
  2
STANDARD
 70
     0
 40
0.0
 41
1.0
 50
0.0
 71
     0
 42
0.2
  3
txt
  4

  0
STYLE
  2
FDASTYLE1
 70
     0
 40
0.0
 41
0.8000000000000002
 50
0.0
 71
     0
 42
0.2
  3
txt.shx
  4
bigfont
  0
STYLE
  2
FDASTYLE0
 70
     4
 40
0.0
 41
0.8
 50
0.0
 71
     0
 42
0.2
  3
txt.shx
  4
bigfont
  0
STYLE
  2
FDASTYLE2
 70
     0
 40
0.0
 41
0.8123476848090983
 50
0.0
 71
     0
 42
0.2
  3
MSMINCHO.TTC
  4

  0
STYLE
  2
FDASTYLE3
 70
     0
 40
0.0
 41
0.77
 50
0.0
 71
     0
 42
0.2
  3
MSGOTHIC.TTC
  4

  0
ENDTAB
  0
TABLE
  2
VIEW
 70
     0
  0
ENDTAB
  0
TABLE
  2
UCS
 70
     0
  0
ENDTAB
  0
TABLE
  2
APPID
 70
     2
  0
APPID
  2
ACAD
 70
     0
  0
APPID
  2
DAFUSIONOUT
 70
     0
  0
ENDTAB
  0
TABLE
  2
DIMSTYLE
 70
     1
  0
DIMSTYLE
  2
STANDARD
 70
     0
  3

  4

  5

  6

  7

 40
1.0
 41
0.18
 42
0.0625
 43
0.38
 44
0.18
 45
0.0
 46
0.0
 47
0.0
 48
0.0
140
0.18
141
0.09
142
0.0
143
25.4
144
1.0
145
0.0
146
1.0
147
0.09
 71
     0
 72
     0
 73
     1
 74
     1
 75
     0
 76
     0
 77
     0
 78
     0
170
     0
171
     2
172
     0
173
     0
174
     0
175
     0
176
     0
177
     0
178
     0
  0
ENDTAB
  0
ENDSEC
  0
SECTION
  2
BLOCKS
  0
BLOCK
  8
0
  2
$MODEL_SPACE
 70
     0
 10
0.0
 20
0.0
 30
0.0
  3
$MODEL_SPACE
  1

  0
ENDBLK
  5
21
  8
0
  0
BLOCK
 67
     1
  8
0
  2
$PAPER_SPACE
 70
     0
 10
0.0
 20
0.0
 30
0.0
  3
$PAPER_SPACE
  1

  0
ENDBLK
  5
1D
 67
     1
  8
0
  0
BLOCK
  8
0
  2
DC_GROUP_1
 70
     0
 10
0.0
 20
0.0
 30
0.0
  3
DC_GROUP_1
  1

  0
LINE
  5
B5
  8
LAYER0014
  6
CONTINUOUS
 62
     7
 10
-89.95371766556866
 20
126.7774380850439
 30
0.0
 11
-64.42132575845983
 21
156.5699855076288
 31
0.0
  0
INSERT
  5
BC
  8
LAYER0014
 62
     7
  2
_OPEN30
 10
-89.95371766556866
 20
126.7774380850439
 30
0.0
 41
1.50000139391263
 42
1.499998500689492
 50
229.4032259488253
  0
LINE
  5
BD
  8
LAYER0014
  6
CONTINUOUS
 62
     7
 10
-64.42129657077942
 20
156.5699865673811
 30
0.0
 11
-53.60777539010282
 21
156.5699865673811
 31
0.0
  0
TEXT
  5
BF
  8
LAYER0014
 62
     7
 10
-64.24649188327942
 20
158.1699865673811
 30
0.0
 40
4.0
  1
M10
 41
0.8000000000000002
  7
FDASTYLE1
 72
     5
 11
-54.64649188327942
 21
158.1699865673811
 31
0.0
  0
ENDBLK
  5
4E
  8
0
  0
BLOCK
  8
0
  2
DA_IMAGEDIMGROUP_1
 70
     0
 10
0.0
 20
0.0
 30
0.0
  3
DA_IMAGEDIMGROUP_1
  1

  0
LINE
  5
C0
  8
LAYER0014
  6
CONTINUOUS
 62
     7
 10
-250.1618080491904
 20
-61.43001343261889
 30
0.0
 11
-250.1618080491904
 21
128.5699865673811
 31
0.0
  0
INSERT
  5
C1
  8
LAYER0014
 62
     7
  2
_OPEN30
 10
-250.1618080491904
 20
-61.43001343261889
 30
0.0
 41
1.50000139391263
 42
1.499998500689492
 50
270.0
  0
INSERT
  5
C2
  8
LAYER0014
 62
     7
  2
_OPEN30
 10
-250.1618080491904
 20
128.5699865673811
 30
0.0
 41
1.50000139391263
 42
1.499998500689492
 50
90.0
  0
LINE
  5
C3
  8
LAYER0014
  6
CONTINUOUS
 62
     7
 10
-207.5880143311201
 20
-61.43001343261889
 30
0.0
 11
-251.6618080491904
 21
-61.43001343261889
 31
0.0
  0
LINE
  5
C4
  8
LAYER0014
  6
CONTINUOUS
 62
     7
 10
-207.7189064138437
 20
128.5699865673811
 30
0.0
 11
-251.6618080491904
 21
128.5699865673811
 31
0.0
  0
TEXT
  5
C5
  8
LAYER0014
 62
     7
 10
-251.1618080491904
 20
23.96998656738113
 30
0.0
 40
4.0
  1
φ190H7
 50
90.0
 41
0.7741935483870963
  7
FDASTYLE1
 72
     5
 11
-251.1618080491904
 21
43.16998656738112
 31
0.0
  0
ENDBLK
  5
51
  8
0
  0
BLOCK
  8
0
  2
DA_IMAGEDIMGROUP_2
 70
     0
 10
0.0
 20
0.0
 30
0.0
  3
DA_IMAGEDIMGROUP_2
  1

  0
LINE
  5
C6
  8
LAYER0014
  6
CONTINUOUS
 62
     7
 10
-262.1003746020915
 20
-73.93001343261889
 30
0.0
 11
-262.1003746020915
 21
141.0699865673811
 31
0.0
  0
INSERT
  5
C7
  8
LAYER0014
 62
     7
  2
_OPEN30
 10
-262.1003746020915
 20
-73.93001343261889
 30
0.0
 41
1.50000139391263
 42
1.499998500689492
 50
270.0
  0
INSERT
  5
C8
  8
LAYER0014
 62
     7
  2
_OPEN30
 10
-262.1003746020915
 20
141.0699865673811
 30
0.0
 41
1.50000139391263
 42
1.499998500689492
 50
90.0
  0
LINE
  5
C9
  8
LAYER0014
  6
CONTINUOUS
 62
     7
 10
-208.1113209848419
 20
-73.93001343261889
 30
0.0
 11
-263.6003746020915
 21
-73.93001343261889
 31
0.0
  0
LINE
  5
CA
  8
LAYER0014
  6
CONTINUOUS
 62
     7
 10
-208.1113209848419
 20
141.0699865673811
 30
0.0
 11
-263.6003746020915
 21
141.0699865673811
 31
0.0
  0
TEXT
  5
CB
  8
LAYER0014
 62
     7
 10
-263.1003746020915
 20
27.16998656738114
 30
0.0
 40
4.0
  1
φ215
 50
90.0
 41
0.7619047619047592
  7
FDASTYLE1
 72
     5
 11
-263.1003746020915
 21
39.9699865673811
 31
0.0
  0
ENDBLK
  5
54
  8
0
  0
BLOCK
  8
0
  2
DA_IMAGEDIMGROUP_3
 70
     0
 10
0.0
 20
0.0
 30
0.0
  3
DA_IMAGEDIMGROUP_3
  1

  0
LINE
  5
CC
  8
LAYER0014
  6
CONTINUOUS
 62
     7
 10
-238.6737534416819
 20
-3.4300134326189
 30
0.0
 11
-238.6737534416819
 21
70.56998656738109
 31
0.0
  0
INSERT
  5
CD
  8
LAYER0014
 62
     7
  2
_OPEN30
 10
-238.6737534416819
 20
-3.4300134326189
 30
0.0
 41
1.50000139391263
 42
1.499998500689492
 50
270.0
  0
INSERT
  5
CE
  8
LAYER0014
 62
     7
  2
_OPEN30
 10
-238.6737534416819
 20
70.56998656738109
 30
0.0
 41
1.50000139391263
 42
1.499998500689492
 50
90.0
  0
LINE
  5
CF
  8
LAYER0014
  6
CONTINUOUS
 62
     7
 10
-203.1113209848419
 20
-3.4300134326189
 30
0.0
 11
-240.1737534416819
 21
-3.4300134326189
 31
0.0
  0
LINE
  5
D0
  8
LAYER0014
  6
CONTINUOUS
 62
     7
 10
-203.1113209848419
 20
70.56998656738109
 30
0.0
 11
-240.1737534416819
 21
70.56998656738109
 31
0.0
  0
TEXT
  5
D1
  8
LAYER0014
 62
     7
 10
-239.6737534416819
 20
25.5699865673811
 30
0.0
 40
4.0
  1
φ74H7
 50
90.0
 41
0.7692307692307692
  7
FDASTYLE1
 72
     5
 11
-239.6737534416819
 21
41.5699865673811
 31
0.0
  0
ENDBLK
  5
57
  8
0
  0
BLOCK
  8
0
  2
DA_IMAGEDIMGROUP_4
 70
     0
 10
0.0
 20
0.0
 30
0.0
  3
DA_IMAGEDIMGROUP_4
  1

  0
LINE
  5
D2
  8
LAYER0014
  6
CONTINUOUS
 62
     7
 10
-220.8779835824982
 20
-27.10501648437671
 30
0.0
 11
-235.4212965707794
 21
-27.10501648437671
 31
0.0
  0
LINE
  5
D3
  8
LAYER0014
  6
CONTINUOUS
 62
     7
 10
-220.8779835824982
 20
-39.10501648437671
 30
0.0
 11
-235.4212965707794
 21
-39.10501648437671
 31
0.0
  0
LINE
  5
D4
  8
LAYER0014
  6
CONTINUOUS
 62
     7
 10
-234.4212965707794
 20
-27.10501648437671
 30
0.0
 11
-234.4212965707794
 21
-39.10501648437671
 31
0.0
  0
INSERT
  5
D5
  8
LAYER0014
 62
     7
  2
_OPEN30
 10
-234.4212965707794
 20
-27.10501648437671
 30
0.0
 41
1.50000139391263
 42
1.499998500689492
 50
90.0
  0
INSERT
  5
D6
  8
LAYER0014
 62
     7
  2
_OPEN30
 10
-234.4212965707794
 20
-39.10501648437671
 30
0.0
 41
1.50000139391263
 42
1.499998500689492
 50
270.0
  0
TEXT
  5
D7
  8
LAYER0014
 62
     7
 10
-236.0212965707794
 20
-37.90501648437672
 30
0.0
 40
4.0
  1
M12
 50
90.0
 41
0.8000000000000019
  7
FDASTYLE1
 72
     5
 11
-236.0212965707794
 21
-28.3050164843767
 31
0.0
  0
ENDBLK
  5
5A
  8
0
  0
BLOCK
  8
0
  2
DC_GROUP_2
 70
     0
 10
0.0
 20
0.0
 30
0.0
  3
DC_GROUP_2
  1

  0
LINE
  5
D8
  8
LAYER0014
  6
CONTINUOUS
 62
     7
 10
-152.0995116902524
 20
-74.28793245828669
 30
0.0
 11
-144.4212964264535
 21
-83.4299964569294
 31
0.0
  0
INSERT
  5
D9
  8
LAYER0014
 62
     7
  2
_OPEN30
 10
-152.0995116902524
 20
-74.28793245828669
 30
0.0
 41
1.50000139391263
 42
1.499998500689492
 50
130.0261490863506
  0
LINE
  5
DA
  8
LAYER0014
  6
CONTINUOUS
 62
     7
 10
-144.4212965707794
 20
-83.43001343261891
 30
0.0
 11
-127.3231365609067
 21
-83.43001343261891
 31
0.0
  0
TEXT
  5
DB
  8
LAYER0014
 62
     7
 10
-144.13043353367
 20
-81.83001343261893
 30
0.0
 40
4.0
  1
M8×16
 41
0.7692307692307692
  7
FDASTYLE1
 72
     5
 11
-128.13043353367
 21
-81.83001343261893
 31
0.0
  0
ENDBLK
  5
5D
  8
0
  0
BLOCK
  8
0
  2
DA_IMAGEDIMGROUP_5
 70
     0
 10
0.0
 20
0.0
 30
0.0
  3
DA_IMAGEDIMGROUP_5
  1

  0
LINE
  5
DC
  8
0
  6
CONTINUOUS
 62
     9
 10
-105.5713265751984
 20
139.1359853114861
 30
0.0
 11
-105.5713265751984
 21
163.3442281770904
 31
0.0
  0
LINE
  5
DD
  8
0
  6
CONTINUOUS
 62
     9
 10
-103.5713209848419
 20
142.5699865673811
 30
0.0
 11
-103.5713209848419
 21
163.3442281770904
 31
0.0
  0
LINE
  5
DE
  8
0
  6
CONTINUOUS
 62
     9
 10
-105.5713265751984
 20
161.8442281770904
 30
0.0
 11
-103.5713209848419
 21
161.8442281770904
 31
0.0
  0
LINE
  5
DF
  8
0
  6
CONTINUOUS
 62
     9
 10
-145.1950701554789
 20
161.8442281770904
 30
0.0
 11
-105.5713265751984
 21
161.8442281770904
 31
0.0
  0
INSERT
  5
E0
  8
0
 62
     9
  2
_OPEN30
 10
-105.5713265751984
 20
161.8442281770904
 30
0.0
 41
1.50000139391263
 42
1.499998500689492
 50
360.0
  0
LINE
  5
E1
  8
0
  6
CONTINUOUS
 62
     9
 10
-98.57132098484192
 20
161.8442281770904
 30
0.0
 11
-103.5713209848419
 21
161.8442281770904
 31
0.0
  0
INSERT
  5
E2
  8
0
 62
     9
  2
_OPEN30
 10
-103.5713209848419
 20
161.8442281770904
 30
0.0
 41
1.50000139391263
 42
1.499998500689492
 50
180.0
  0
TEXT
  5
E3
  8
0
 62
     7
 10
-144.1950701554789
 20
162.8442281770904
 30
0.0
 40
4.0
  1
2(チャック上面から）
 41
0.6874999999999999
  7
FDASTYLE1
 72
     5
 11
-108.9950701554789
 21
162.8442281770904
 31
0.0
  0
ENDBLK
  5
60
  8
0
  0
BLOCK
  8
0
  2
DA_IMAGEDIMGROUP_6
 70
     0
 10
0.0
 20
0.0
 30
0.0
  3
DA_IMAGEDIMGROUP_6
  1

  0
LINE
  5
E4
  8
0
  6
CONTINUOUS
 62
     9
 10
-77.70993377684691
 20
1.069986090543939
 30
0.0
 11
-77.70993377684691
 21
66.06998656738109
 31
0.0
  0
INSERT
  5
E5
  8
0
 62
     9
  2
_OPEN30
 10
-77.70993377684691
 20
1.069986090543939
 30
0.0
 41
1.50000139391263
 42
1.499998500689492
 50
270.0
  0
LINE
  5
E6
  8
0
  6
CONTINUOUS
 62
     9
 10
-131.571313172342
 20
1.069986090543942
 30
0.0
 11
-76.20993377684691
 21
1.069986090543939
 31
0.0
  0
TEXT
  5
E7
  8
0
 62
     7
 10
-78.70993377684691
 20
19.38235649377089
 30
0.0
 40
4.0
  1
M65×P1.25
 50
90.0
 41
0.7826086956521743
  7
FDASTYLE1
 72
     5
 11
-78.70993377684691
 21
48.1823564937709
 31
0.0
  0
ENDBLK
  5
63
  8
0
  0
BLOCK
  8
0
  2
DA_IMAGEDIMGROUP_7
 70
     0
 10
0.0
 20
0.0
 30
0.0
  3
DA_IMAGEDIMGROUP_7
  1

  0
LINE
  5
E8
  8
0
  6
CONTINUOUS
 62
     9
 10
-65.70993377684691
 20
-6.430013432618901
 30
0.0
 11
-65.70993377684691
 21
65.65956336268043
 31
0.0
  0
INSERT
  5
E9
  8
0
 62
     9
  2
_OPEN30
 10
-65.70993377684691
 20
-6.430013432618901
 30
0.0
 41
1.50000139391263
 42
1.499998500689492
 50
270.0
  0
LINE
  5
EA
  8
0
  6
CONTINUOUS
 62
     9
 10
-104.0713209848419
 20
-6.4300134326189
 30
0.0
 11
-64.20993377684691
 21
-6.430013432618901
 31
0.0
  0
TEXT
  5
EB
  8
0
 62
     7
 10
-66.70993377684691
 20
23.69688900124993
 30
0.0
 40
4.0
  1
φ80
 50
90.0
 41
0.7499999999999998
  7
FDASTYLE1
 72
     5
 11
-66.70993377684691
 21
33.29688900124992
 31
0.0
  0
TEXT
  5
EC
  8
0
 62
     7
 10
-66.70993377684691
 20
34.29688900124992
 30
0.0
 40
4.0
  1
H7
 50
90.0
 41
0.7999999999999998
  7
FDASTYLE1
 72
     5
 11
-66.70993377684691
 21
40.69688900124992
 31
0.0
  0
TEXT
  5
ED
  8
0
 62
     7
 10
-68.90993377684691
 20
41.69688900124992
 30
0.0
 40
2.2
  1
+0.030
 50
90.0
 41
0.8000000000000002
  7
FDASTYLE1
 72
     5
 11
-68.90993377684691
 21
52.25688900124992
 31
0.0
  0
TEXT
  5
EE
  8
0
 62
     7
 10
-66.50993377684691
 20
41.69688900124992
 30
0.0
 40
2.2
  1
 0
 50
90.0
 41
0.8000000000000006
  7
FDASTYLE1
 72
     5
 11
-66.50993377684691
 21
45.21688900124993
 31
0.0
  0
ENDBLK
  5
66
  8
0
  0
BLOCK
  8
0
  2
DA_IMAGEDIMGROUP_8
 70
     0
 10
0.0
 20
0.0
 30
0.0
  3
DA_IMAGEDIMGROUP_8
  1

  0
LINE
  5
EF
  8
0
  6
CONTINUOUS
 62
     9
 10
-53.70993377684691
 20
75.06998656738109
 30
0.0
 11
-53.70993377684691
 21
91.06998656738115
 31
0.0
  0
LINE
  5
F0
  8
0
  6
CONTINUOUS
 62
     9
 10
-102.0713209848419
 20
75.06998656738109
 30
0.0
 11
-52.20993377684691
 21
75.06998656738109
 31
0.0
  0
LINE
  5
F1
  8
0
  6
CONTINUOUS
 62
     9
 10
-79.80521604004873
 20
91.06998656738115
 30
0.0
 11
-52.20993377684691
 21
91.06998656738115
 31
0.0
  0
LINE
  5
F2
  8
0
  6
CONTINUOUS
 62
     9
 10
-79.80521604004873
 20
121.0699941967757
 30
0.0
 11
-52.20993377684691
 21
121.0699941967757
 31
0.0
  0
LINE
  5
F3
  8
0
  6
CONTINUOUS
 62
     9
 10
-53.70993377684691
 20
91.06998656738115
 30
0.0
 11
-53.70993377684691
 21
121.0699941967757
 31
0.0
  0
INSERT
  5
F4
  8
0
 62
     9
  2
_OPEN30
 10
-53.70993377684691
 20
91.06998656738115
 30
0.0
 41
1.50000139391263
 42
1.499998500689492
 50
270.0
  0
INSERT
  5
F5
  8
0
 62
     9
  2
_OPEN30
 10
-53.70993377684691
 20
121.0699941967757
 30
0.0
 41
1.50000139391263
 42
1.499998500689492
 50
90.0
  0
LINE
  5
F6
  8
0
  6
CONTINUOUS
 62
     9
 10
-53.70993377684691
 20
55.1381365673811
 30
0.0
 11
-53.70993377684691
 21
75.06998656738109
 31
0.0
  0
INSERT
  5
F7
  8
0
 62
     9
  2
_OPEN30
 10
-53.70993377684691
 20
75.06998656738109
 30
0.0
 41
1.50000139391263
 42
1.499998500689492
 50
90.0
  0
TEXT
  5
F8
  8
0
 62
     7
 10
-54.70993377684691
 20
56.1381365673811
 30
0.0
 40
4.0
  1
MIN10
 50
90.0
 41
0.8
  7
FDASTYLE1
 72
     5
 11
-54.70993377684691
 21
72.1381365673811
 31
0.0
  0
TEXT
  5
F9
  8
0
 62
     7
 10
-54.70993377684691
 20
102.8699903820784
 30
0.0
 40
4.0
  1
30
 50
90.0
 41
0.8000000000000007
  7
FDASTYLE1
 72
     5
 11
-54.70993377684691
 21
109.2699903820784
 31
0.0
  0
ENDBLK
  5
69
  8
0
  0
BLOCK
  8
0
  2
DA_IMAGEDIMGROUP_9
 70
     0
 10
0.0
 20
0.0
 30
0.0
  3
DA_IMAGEDIMGROUP_9
  1

  0
LINE
  5
FA
  8
0
  6
CONTINUOUS
 62
     9
 10
-41.70993377684691
 20
82.06999419677563
 30
0.0
 11
-41.70993377684691
 21
130.0699865673811
 31
0.0
  0
INSERT
  5
FB
  8
0
 62
     9
  2
_OPEN30
 10
-41.70993377684691
 20
82.06999419677563
 30
0.0
 41
1.50000139391263
 42
1.499998500689492
 50
270.0
  0
INSERT
  5
FC
  8
0
 62
     9
  2
_OPEN30
 10
-41.70993377684691
 20
130.0699865673811
 30
0.0
 41
1.50000139391263
 42
1.499998500689492
 50
90.0
  0
LINE
  5
FD
  8
0
  6
CONTINUOUS
 62
     9
 10
-101.0713209848419
 20
82.06999419677563
 30
0.0
 11
-40.20993377684691
 21
82.06999419677563
 31
0.0
  0
LINE
  5
FE
  8
0
  6
CONTINUOUS
 62
     9
 10
-101.0713209848419
 20
130.0699865673811
 30
0.0
 11
-40.20993377684691
 21
130.0699865673811
 31
0.0
  0
TEXT
  5
FF
  8
0
 62
     7
 10
-42.70993377684691
 20
102.8699903820784
 30
0.0
 40
4.0
  1
48
 50
90.0
 41
0.8000000000000007
  7
FDASTYLE1
 72
     5
 11
-42.70993377684691
 21
109.2699903820784
 31
0.0
  0
ENDBLK
  5
6C
  8
0
  0
BLOCK
  8
0
  2
DA_IMAGEDIMGROUP_10
 70
     0
 10
0.0
 20
0.0
 30
0.0
  3
DA_IMAGEDIMGROUP_10
  1

  0
LINE
  5
100
  8
0
  6
CONTINUOUS
 62
     9
 10
-108.0713209848419
 20
7.818384804936148
 30
0.0
 11
-105.5713209848419
 21
7.818384804936148
 31
0.0
  0
LINE
  5
101
  8
0
  6
CONTINUOUS
 62
     9
 10
-85.27354598484192
 20
7.818384804936148
 30
0.0
 11
-105.5713209848419
 21
7.818384804936148
 31
0.0
  0
INSERT
  5
102
  8
0
 62
     9
  2
_OPEN30
 10
-105.5713209848419
 20
7.818384804936148
 30
0.0
 41
1.50000139391263
 42
1.499998500689492
 50
180.0
  0
LINE
  5
103
  8
0
  6
CONTINUOUS
 62
     9
 10
-115.5713209848419
 20
7.818384804936148
 30
0.0
 11
-108.0713209848419
 21
7.818384804936148
 31
0.0
  0
INSERT
  5
104
  8
0
 62
     9
  2
_OPEN30
 10
-108.0713209848419
 20
7.818384804936148
 30
0.0
 41
1.50000139391263
 42
1.499998500689492
 50
360.0
  0
TEXT
  5
105
  8
0
 62
     7
 10
-101.1735459848419
 20
9.318384804936148
 30
0.0
 40
4.0
  1
2.5
 41
0.7999999999999995
  7
FDASTYLE1
 72
     5
 11
-91.57354598484193
 21
9.318384804936148
 31
0.0
  0
ENDBLK
  5
6F
  8
0
  0
BLOCK
  8
0
  2
DA_IMAGEDIMGROUP_11
 70
     0
 10
0.0
 20
0.0
 30
0.0
  3
DA_IMAGEDIMGROUP_11
  1

  0
LINE
  5
106
  8
0
  6
CONTINUOUS
 62
     9
 10
-217.5867048793016
 20
8.5699865673811
 30
0.0
 11
-217.5867048793016
 21
58.57000000232769
 31
0.0
  0
INSERT
  5
107
  8
0
 62
     9
  2
_OPEN30
 10
-217.5867048793016
 20
8.5699865673811
 30
0.0
 41
1.50000139391263
 42
1.499998500689492
 50
270.0
  0
INSERT
  5
108
  8
0
 62
     9
  2
_OPEN30
 10
-217.5867048793016
 20
58.57000000232769
 30
0.0
 41
1.50000139391263
 42
1.499998500689492
 50
90.0
  0
LINE
  5
109
  8
0
  6
CONTINUOUS
 62
     9
 10
-189.1643170785919
 20
8.5699865673811
 30
0.0
 11
-219.0867048793016
 21
8.5699865673811
 31
0.0
  0
LINE
  5
10A
  8
0
  6
CONTINUOUS
 62
     9
 10
-189.1642900410506
 20
58.57000000232769
 30
0.0
 11
-219.0867048793016
 21
58.57000000232769
 31
0.0
  0
TEXT
  5
10B
  8
0
 62
     7
 10
-218.5867048793016
 20
24.74999328485438
 30
0.0
 40
4.0
  1
φ50
 50
90.0
 41
0.7500000000000018
  7
FDASTYLE1
 72
     5
 11
-218.5867048793016
 21
34.34999328485441
 31
0.0
  0
TEXT
  5
10C
  8
0
 62
     7
 10
-220.7867048793016
 20
35.34999328485441
 30
0.0
 40
2.2
  1
+0.5
 50
90.0
 41
0.7999999999999991
  7
FDASTYLE1
 72
     5
 11
-220.7867048793016
 21
42.3899932848544
 31
0.0
  0
TEXT
  5
10D
  8
0
 62
     7
 10
-218.3867048793016
 20
35.34999328485441
 30
0.0
 40
2.2
  1
 0
 50
90.0
 41
0.8000000000000023
  7
FDASTYLE1
 72
     5
 11
-218.3867048793016
 21
38.86999328485442
 31
0.0
  0
ENDBLK
  5
72
  8
0
  0
BLOCK
  8
0
  2
DC_GROUP_3
 70
     0
 10
0.0
 20
0.0
 30
0.0
  3
DC_GROUP_3
  1

  0
LINE
  5
10E
  8
0
  6
CONTINUOUS
 62
     5
 10
208.6315092208543
 20
88.32001966223943
 30
0.0
 11
210.8815111431028
 21
84.42289992327626
 31
0.0
  0
LINE
  5
10F
  8
0
  6
CONTINUOUS
 62
     5
 10
209.6560002959926
 20
88.04552269180904
 30
0.0
 11
208.6314875257869
 21
88.32004017768141
 31
0.0
  0
LINE
  5
110
  8
0
  6
CONTINUOUS
 62
     5
 10
208.3570326336154
 20
87.29548007826413
 30
0.0
 11
208.6315538960321
 21
88.3200076336088
 31
0.0
  0
LINE
  5
111
  8
0
  6
CONTINUOUS
 62
     5
 10
210.8815890365775
 20
84.42287212640208
 30
0.0
 11
211.1561102989943
 21
85.44739968174675
 31
0.0
  0
LINE
  5
112
  8
0
  6
CONTINUOUS
 62
     5
 10
210.8814996477235
 20
84.42292953559151
 30
0.0
 11
209.8569721386597
 21
84.69745097073071
 31
0.0
  0
LINE
  5
113
  8
0
  6
CONTINUOUS
 62
     5
 10
201.7612928442937
 20
85.21953983295971
 30
0.0
 11
214.7516754560452
 21
92.71953670371586
 31
0.0
  0
LINE
  5
114
  8
0
  6
CONTINUOUS
 62
     5
 10
207.1174329930483
 20
94.69400015919742
 30
0.0
 11
206.3507222094145
 21
94.07313025647564
 31
0.0
  0
LINE
  5
115
  8
0
  6
CONTINUOUS
 62
     5
 10
207.117452312611
 20
94.69401855153156
 30
0.0
 11
206.49659188918
 21
95.46071733772688
 31
0.0
  0
LINE
  5
116
  8
0
  6
CONTINUOUS
 62
     5
 10
214.7516814672493
 20
92.71954155079443
 30
0.0
 11
211.0016825550343
 21
99.21473368257644
 31
0.0
  0
LINE
  5
117
  8
0
  6
CONTINUOUS
 62
     5
 10
198.0112972784958
 20
91.71472426122485
 30
0.0
 11
211.0016798902473
 21
99.21472113198099
 31
0.0
  0
LINE
  5
118
  8
0
  6
CONTINUOUS
 62
     5
 10
201.7612926315504
 20
85.219534479394
 30
0.0
 11
196.1362954553203
 21
94.96232061230133
 31
0.0
  0
LINE
  5
119
  8
0
  6
CONTINUOUS
 62
     5
 10
196.1362969325981
 20
94.96232091460361
 30
0.0
 11
198.0848543243608
 21
96.08732044521703
 31
0.0
  0
LINE
  5
11A
  8
0
  6
CONTINUOUS
 62
     5
 10
198.6473654014037
 20
95.11303836929331
 30
0.0
 11
198.0848694507926
 21
96.0873104579244
 31
0.0
  0
LINE
  5
11B
  8
0
  6
CONTINUOUS
 62
     5
 10
198.647354328086
 20
95.11304133638255
 30
0.0
 11
199.9463925892612
 21
95.86304102345817
 31
0.0
  0
LINE
  5
11C
  8
0
  6
CONTINUOUS
 62
     5
 10
200.508884206156
 20
94.88875927490365
 30
0.0
 11
199.9463844408493
 21
95.86303797078502
 31
0.0
  0
LINE
  5
11D
  8
0
  6
CONTINUOUS
 62
     5
 10
200.5089105758565
 20
94.8887612849522
 30
0.0
 11
201.8079488370317
 21
95.63876097202781
 31
0.0
  0
LINE
  5
11E
  8
0
  6
CONTINUOUS
 62
     5
 10
202.5579174927129
 20
94.33971828467743
 30
0.0
 11
201.8079179248466
 21
95.63875633937592
 31
0.0
  0
LINE
  5
11F
  8
0
  6
CONTINUOUS
 62
     5
 10
202.6818791502874
 20
97.12511395092663
 30
0.0
 11
202.9564004127042
 21
98.14964150627129
 31
0.0
  0
LINE
  5
120
  8
0
  6
CONTINUOUS
 62
     5
 10
200.3932503557152
 20
96.66981753050511
 30
0.0
 11
202.9563613241521
 21
98.14962954353139
 31
0.0
  0
LINE
  5
121
  8
0
  6
CONTINUOUS
 62
     5
 10
202.9563570585498
 20
98.14965891716857
 30
0.0
 11
201.9318442883443
 21
98.42417640304093
 31
0.0
  0
ARC
  5
122
  8
0
  6
CONTINUOUS
 62
     5
 10
206.4380375615935
 20
92.15843413818193
 30
0.0
 40
2.625001907348633
 50
75.00008446424582
 51
369.9999367173826
  0
TEXT
  5
123
  8
0
 62
     5
 10
208.6054657592624
 20
84.60532417038576
 30
0.0
 40
2.5
  1
F
 50
119.9999866787419
 41
0.8791213035583564
  7
FDASTYLE1
 72
     5
 11
207.5065645723438
 21
86.5086778806042
 31
0.0
  0
TEXT
  5
124
  8
0
 62
     5
 10
211.2202154550298
 20
95.11466150693981
 30
0.0
 40
2.5
  1
N min
 50
119.9999866787419
 41
0.7983872809842209
  7
FDASTYLE1
 72
     5
 11
205.0327179467454
 21
105.8317273173646
 31
0.0
  0
TEXT
  5
125
  8
0
 62
     5
 10
203.2109422396506
 20
105.4294431693717
 30
0.0
 40
1.25
  1
-1
 50
119.9999866787419
 41
0.7826089106345572
  7
FDASTYLE1
 72
     5
 11
202.0859425585794
 21
107.378000821735
 31
0.0
  0
TEXT
  5
126
  8
0
 62
     5
 10
201.9506969296567
 20
99.53662208952989
 30
0.0
 40
2.5
  1
ΣS
 50
119.9999866787419
 41
0.9590411728078684
  7
FDASTYLE1
 72
     5
 11
199.3133347665052
 21
104.1046698068138
 31
0.0
  0
ENDBLK
  5
75
  8
0
  0
BLOCK
  8
0
  2
DA_IMAGEDIMGROUP_12
 70
     0
 10
0.0
 20
0.0
 30
0.0
  3
DA_IMAGEDIMGROUP_12
  1

  0
LINE
  5
127
  8
0
  6
CONTINUOUS
 62
     9
 10
-11.85495909848567
 20
1.922622546718912
 30
0.0
 11
-4.06073046442566
 21
6.422622546718912
 31
0.0
  0
LINE
  5
128
  8
0
  6
CONTINUOUS
 62
     9
 10
-2.854959098485665
 20
-13.66583472140098
 30
0.0
 11
4.93926953557434
 21
-9.165834721400984
 31
0.0
  0
LINE
  5
129
  8
0
  6
CONTINUOUS
 62
     9
 10
-5.359768570102347
 20
5.672622546718912
 30
0.0
 11
3.640231429897654
 21
-9.915834721400984
 31
0.0
  0
INSERT
  5
12A
  8
0
 62
     9
  2
_OPEN30
 10
-5.359768570102347
 20
5.672622546718912
 30
0.0
 41
1.50000139391263
 42
1.499998500689492
 50
120.0
  0
INSERT
  5
12B
  8
0
 62
     9
  2
_OPEN30
 10
3.640231429897654
 20
-9.915834721400984
 30
0.0
 41
1.50000139391263
 42
1.499998500689492
 50
300.0
  0
TEXT
  5
12C
  8
0
 62
     7
 10
-2.393743166317909
 20
2.53531585082427
 30
0.0
 40
4.0
  1
φ18
 50
-59.99999999999999
 41
0.7500000000000001
  7
FDASTYLE1
 72
     5
 11
2.406256833682093
 21
-5.778528025506342
 31
0.0
  0
ENDBLK
  5
78
  8
0
  0
BLOCK
  8
0
  2
DA_IMAGEDIMGROUP_13
 70
     0
 10
0.0
 20
0.0
 30
0.0
  3
DA_IMAGEDIMGROUP_13
  1

  0
LINE
  5
12D
  8
0
  6
CONTINUOUS
 62
     9
 10
30.76355817430522
 20
-74.89481471300655
 30
0.0
 11
32.49560898187406
 21
-73.89481471300655
 31
0.0
  0
LINE
  5
12E
  8
0
  6
CONTINUOUS
 62
     9
 10
23.82805360340655
 20
-58.88216842008399
 30
0.0
 11
33.24560898187406
 21
-75.19385281868324
 31
0.0
  0
LINE
  5
12F
  8
0
  6
CONTINUOUS
 62
     9
 10
18.1940856144405
 20
-47.12383435618904
 30
0.0
 11
34.11164099290801
 21
-74.69384900398597
 31
0.0
  0
LINE
  5
130
  8
0
  6
CONTINUOUS
 62
     9
 10
32.49560898187406
 20
-73.89481471300655
 30
0.0
 11
33.36164099290801
 21
-73.39481089830935
 31
0.0
  0
INSERT
  5
136
  8
0
 62
     9
  2
_DOT
 10
32.49560898187406
 20
-73.89481471300655
 30
0.0
 41
2.5
 42
2.5
 50
209.9999999999962
  0
LINE
  5
137
  8
0
  6
CONTINUOUS
 62
     9
 10
24.58813219110765
 20
-78.46019856676634
 30
0.0
 11
30.76355817430522
 21
-74.89481471300655
 31
0.0
  0
INSERT
  5
138
  8
0
 62
     9
  2
_OPEN30
 10
30.76355817430522
 20
-74.89481471300655
 30
0.0
 41
1.50000139391263
 42
1.499998500689492
 50
30.00000000000041
  0
LINE
  5
139
  8
0
  6
CONTINUOUS
 62
     9
 10
39.95278192850947
 20
-69.58941390487365
 30
0.0
 11
33.36164099290801
 21
-73.39481089830935
 31
0.0
  0
INSERT
  5
13A
  8
0
 62
     9
  2
_OPEN30
 10
33.36164099290801
 20
-73.39481089830935
 30
0.0
 41
1.50000139391263
 42
1.499998500689492
 50
209.9999999999963
  0
TEXT
  5
13B
  8
0
 62
     7
 10
24.95415759489206
 20
-77.09417316298188
 30
0.0
 40
4.0
  1
2
 50
30.00000000000001
 41
0.7999999999999992
  7
FDASTYLE1
 72
     5
 11
27.72543888700226
 21
-75.49417316298188
 31
0.0
  0
TEXT
  5
13C
  8
0
 62
     7
 10
35.81547523261472
 20
-70.82338850108896
 30
0.0
 40
4.0
  1
1
 50
30.00000000000001
 41
0.8000000000000025
  7
FDASTYLE1
 72
     5
 11
38.58675652472493
 21
-69.22338850108895
 31
0.0
  0
ENDBLK
  5
7B
  8
0
  0
BLOCK
  8
0
  2
DC_GROUP_4
 70
     0
 10
0.0
 20
0.0
 30
0.0
  3
DC_GROUP_4
  1

  0
LINE
  5
13D
  8
0
  6
CONTINUOUS
 62
     7
 10
165.4283922341284
 20
-37.76060753319186
 30
0.0
 11
202.7434002035389
 21
-73.60458525431292
 31
0.0
  0
INSERT
  5
13E
  8
0
 62
     7
  2
_OPEN30
 10
165.4283922341284
 20
-37.76060753319186
 30
0.0
 41
1.50000139391263
 42
1.499998500689492
 50
136.1519086543446
  0
LINE
  5
13F
  8
0
  6
CONTINUOUS
 62
     7
 10
202.7434002035389
 20
-73.60458525431292
 30
0.0
 11
232.6171090606631
 21
-73.60458525431292
 31
0.0
  0
TEXT
  5
140
  8
0
 62
     7
 10
202.7434002035389
 20
-73.60458525431292
 30
0.0
 40
4.0
  1
PCD133.35
 41
0.8000000000000003
  7
FDASTYLE1
 72
     5
 11
231.5434002035389
 21
-73.60458525431292
 31
0.0
  0
ENDBLK
  5
7E
  8
0
  0
BLOCK
  8
0
  2
DA_IMAGEDIMGROUP_14
 70
     0
 10
0.0
 20
0.0
 30
0.0
  3
DA_IMAGEDIMGROUP_14
  1

  0
LINE
  5
141
  8
0
  6
CONTINUOUS
 62
     9
 10
233.2765033316478
 20
125.8866251697063
 30
0.0
 11
200.1270112558154
 21
92.7371358881669
 31
0.0
  0
ARC
  5
142
  8
0
  6
CONTINUOUS
 62
     9
 10
140.9598618121303
 20
33.56999143189904
 30
0.0
 40
129.0554409671369
 50
14.99999847069181
 51
44.99999758516359
  0
INSERT
  5
143
  8
0
 62
     9
  2
_OPEN30
 10
265.6178461569604
 20
66.97199410099414
 30
0.0
 41
1.50000139391263
 42
1.499998500689492
 50
285.3329706312837
  0
INSERT
  5
144
  8
0
 62
     9
  2
_OPEN30
 10
232.2158431151645
 20
124.82596504263
 30
0.0
 41
1.50000139391263
 42
1.499998500689492
 50
134.6670254245693
  0
TEXT
  5
145
  8
0
 62
     7
 10
254.2591288431916
 20
93.4407860776372
 30
0.0
 40
4.0
  1
30°
 50
119.9999980279277
 41
0.7499999999999997
  7
FDASTYLE1
 72
     5
 11
249.459129129347
 21
101.7546301191797
 31
0.0
  0
ENDBLK
  5
81
  8
0
  0
BLOCK
  8
0
  2
DC_GROUP_5
 70
     0
 10
0.0
 20
0.0
 30
0.0
  3
DC_GROUP_5
  1

  0
LINE
  5
146
  8
LAYER0014
  6
CONTINUOUS
 62
     7
 10
-103.5417922837152
 20
133.9387295451867
 30
0.0
 11
-74.42130164306593
 21
166.5699934264246
 31
0.0
  0
INSERT
  5
147
  8
LAYER0014
 62
     7
  2
_OPEN30
 10
-103.5417922837152
 20
133.9387295451867
 30
0.0
 41
1.50000139391263
 42
1.499998500689492
 50
228.2539347968636
  0
LINE
  5
148
  8
LAYER0014
  6
CONTINUOUS
 62
     7
 10
-74.42129657077942
 20
166.5699865673811
 30
0.0
 11
-27.79220721531066
 21
166.5699865673811
 31
0.0
  0
TEXT
  5
149
  8
LAYER0014
 62
     7
 10
-74.34573504734192
 20
168.1699865673811
 30
0.0
 40
4.0
  1
セレーションP1.5山60°
 41
0.7179487179487181
  7
FDASTYLE1
 72
     5
 11
-29.54573504734191
 21
168.1699865673811
 31
0.0
  0
ENDBLK
  5
84
  8
0
  0
BLOCK
  8
0
  2
DA_IMAGEDIMGROUP_15
 70
     0
 10
0.0
 20
0.0
 30
0.0
  3
DA_IMAGEDIMGROUP_15
  1

  0
LINE
  5
14A
  8
0
  6
CONTINUOUS
 62
     9
 10
-29.70993377684691
 20
33.5699865673811
 30
0.0
 11
-29.70993377684691
 21
75.06998656738109
 31
0.0
  0
INSERT
  5
14B
  8
0
 62
     9
  2
_OPEN30
 10
-29.70993377684691
 20
33.5699865673811
 30
0.0
 41
1.50000139391263
 42
1.499998500689492
 50
270.0
  0
INSERT
  5
14C
  8
0
 62
     9
  2
_OPEN30
 10
-29.70993377684691
 20
75.06998656738109
 30
0.0
 41
1.50000139391263
 42
1.499998500689492
 50
90.0
  0
LINE
  5
14D
  8
0
  6
CONTINUOUS
 62
     9
 10
-29.70993377684691
 20
75.06998656738109
 30
0.0
 11
-29.70993377684691
 21
141.0699865673811
 31
0.0
  0
INSERT
  5
14E
  8
0
 62
     9
  2
_OPEN30
 10
-29.70993377684691
 20
75.06998656738109
 30
0.0
 41
1.50000139391263
 42
1.499998500689492
 50
270.0
  0
INSERT
  5
14F
  8
0
 62
     9
  2
_OPEN30
 10
-29.70993377684691
 20
141.0699865673811
 30
0.0
 41
1.50000139391263
 42
1.499998500689492
 50
90.0
  0
LINE
  5
150
  8
0
  6
CONTINUOUS
 62
     9
 10
-62.73091879606216
 20
33.5699865673811
 30
0.0
 11
-28.20993377684691
 21
33.5699865673811
 31
0.0
  0
LINE
  5
151
  8
0
  6
CONTINUOUS
 62
     9
 10
-102.0713209848419
 20
75.06998656738109
 30
0.0
 11
-28.20993377684691
 21
75.06998656738109
 31
0.0
  0
LINE
  5
152
  8
0
  6
CONTINUOUS
 62
     9
 10
-102.0713209848419
 20
141.0699865673811
 30
0.0
 11
-28.20993377684691
 21
141.0699865673811
 31
0.0
  0
TEXT
  5
153
  8
0
 62
     7
 10
-30.70993377684691
 20
43.11998656738109
 30
0.0
 40
4.0
  1
MAX51.9
 50
90.0
 41
0.8000000000000002
  7
FDASTYLE1
 72
     5
 11
-30.70993377684691
 21
65.5199865673811
 31
0.0
  0
TEXT
  5
154
  8
0
 62
     7
 10
-30.70993377684691
 20
104.8699865673811
 30
0.0
 40
4.0
  1
66
 50
90.0
 41
0.8000000000000007
  7
FDASTYLE1
 72
     5
 11
-30.70993377684691
 21
111.2699865673811
 31
0.0
  0
ENDBLK
  5
87
  8
0
  0
BLOCK
  8
0
  2
DC_GROUP_6
 70
     0
 10
0.0
 20
0.0
 30
0.0
  3
DC_GROUP_6
  1

  0
LINE
  5
155
  8
0
  6
CONTINUOUS
 62
     6
 10
-65.2037037037037
 20
-11.76132692149565
 30
0.0
 11
-61.27251929885574
 21
-14.18242673417251
 31
0.0
  0
LINE
  5
156
  8
0
  6
CONTINUOUS
 62
     6
 10
-61.27251929885574
 20
-14.18242673417251
 30
0.0
 11
-57.5343580116126
 21
-16.75511160497814
 31
0.0
  0
LINE
  5
157
  8
0
  6
CONTINUOUS
 62
     6
 10
-57.5343580116126
 20
-16.75511160497814
 30
0.0
 11
-54.18224295957873
 21
-19.63096659204149
 31
0.0
  0
LINE
  5
158
  8
0
  6
CONTINUOUS
 62
     6
 10
-54.18224295957873
 20
-19.63096659204149
 30
0.0
 11
-51.39072152945039
 21
-22.94745048771677
 31
0.0
  0
LINE
  5
159
  8
0
  6
CONTINUOUS
 62
     6
 10
-51.39072152945039
 20
-22.94745048771677
 30
0.0
 11
-49.13800680685654
 21
-26.69190783279373
 31
0.0
  0
LINE
  5
15A
  8
0
  6
CONTINUOUS
 62
     6
 10
-49.13800680685654
 20
-26.69190783279373
 30
0.0
 11
-47.28388671820301
 21
-30.76113707373889
 31
0.0
  0
LINE
  5
15B
  8
0
  6
CONTINUOUS
 62
     6
 10
-47.28388671820301
 20
-30.76113707373889
 30
0.0
 11
-45.68651475627007
 21
-35.05068699366882
 31
0.0
  0
LINE
  5
15C
  8
0
  6
CONTINUOUS
 62
     6
 10
-45.68651475627007
 20
-35.05068699366882
 30
0.0
 11
-44.20404441383835
 21
-39.45610637569985
 31
0.0
  0
LINE
  5
15D
  8
0
  6
CONTINUOUS
 62
     6
 10
-44.20404441383835
 20
-39.45610637569985
 30
0.0
 11
-42.69462918368828
 21
-43.87294400294866
 31
0.0
  0
LINE
  5
15E
  8
0
  6
CONTINUOUS
 62
     6
 10
-42.69462918368828
 20
-43.87294400294866
 30
0.0
 11
-41.03135820064523
 21
-48.20635698496824
 31
0.0
  0
LINE
  5
15F
  8
0
  6
CONTINUOUS
 62
     6
 10
-41.03135820064523
 20
-48.20635698496824
 30
0.0
 11
-39.16724802701486
 21
-52.41292096505356
 31
0.0
  0
LINE
  5
160
  8
0
  6
CONTINUOUS
 62
     6
 10
-39.16724802701486
 20
-52.41292096505356
 30
0.0
 11
-37.08194067127374
 21
-56.46634014231006
 31
0.0
  0
LINE
  5
161
  8
0
  6
CONTINUOUS
 62
     6
 10
-37.08194067127374
 20
-56.46634014231006
 30
0.0
 11
-34.75509634397679
 21
-60.34033042551778
 31
0.0
  0
LINE
  5
162
  8
0
  6
CONTINUOUS
 62
     6
 10
-34.75509634397679
 20
-60.34033042551778
 30
0.0
 11
-32.16637525567899
 21
-64.00860772345664
 31
0.0
  0
LINE
  5
163
  8
0
  6
CONTINUOUS
 62
     6
 10
-32.16637525567899
 20
-64.00860772345664
 30
0.0
 11
-29.29543761693549
 21
-67.44488794490678
 31
0.0
  0
LINE
  5
164
  8
0
  6
CONTINUOUS
 62
     6
 10
-29.29543761693549
 20
-67.44488794490678
 30
0.0
 11
-26.1219436383011
 21
-70.6228869986482
 31
0.0
  0
LINE
  5
165
  8
0
  6
CONTINUOUS
 62
     6
 10
-26.1219436383011
 20
-70.6228869986482
 30
0.0
 11
-22.64821855987418
 21
-73.53624330970661
 31
0.0
  0
LINE
  5
166
  8
0
  6
CONTINUOUS
 62
     6
 10
-22.64821855987418
 20
-73.53624330970661
 30
0.0
 11
-18.99644480277766
 21
-76.28394952872372
 31
0.0
  0
LINE
  5
167
  8
0
  6
CONTINUOUS
 62
     6
 10
-18.99644480277766
 20
-76.28394952872372
 30
0.0
 11
-15.32827716887181
 21
-78.9996944511214
 31
0.0
  0
LINE
  5
168
  8
0
  6
CONTINUOUS
 62
     6
 10
-15.32827716887181
 20
-78.9996944511214
 30
0.0
 11
-11.80539455042799
 21
-81.8171880477463
 31
0.0
  0
LINE
  5
169
  8
0
  6
CONTINUOUS
 62
     6
 10
-11.80539455042799
 20
-81.8171880477463
 30
0.0
 11
-8.589475839717807
 21
-84.87014028944441
 31
0.0
  0
LINE
  5
16A
  8
0
  6
CONTINUOUS
 62
     6
 10
-8.589475839717807
 20
-84.87014028944441
 30
0.0
 11
-5.84118472686805
 21
-88.29143831612896
 31
0.0
  0
LINE
  5
16B
  8
0
  6
CONTINUOUS
 62
     6
 10
-5.84118472686805
 20
-88.29143831612896
 30
0.0
 11
-3.610907658246219
 21
-92.12458851942586
 31
0.0
  0
LINE
  5
16C
  8
0
  6
CONTINUOUS
 62
     6
 10
-3.610907658246219
 20
-92.12458851942586
 30
0.0
 11
-1.741300875686534
 21
-96.24472999694626
 31
0.0
  0
LINE
  5
16D
  8
0
  6
CONTINUOUS
 62
     6
 10
-1.741300875686534
 20
-96.24472999694626
 30
0.0
 11
3.189543422523252
 21
-108.6899343467836
 31
0.0
  0
ENDBLK
  5
8A
  8
0
  0
BLOCK
  8
0
  2
DA_IMAGEDIMGROUP_16
 70
     0
 10
0.0
 20
0.0
 30
0.0
  3
DA_IMAGEDIMGROUP_16
  1

  0
LINE
  5
16E
  8
0
  6
CONTINUOUS
 62
     9
 10
-4.139595218310057
 20
-59.44084072778318
 30
0.0
 11
-43.14246840173223
 21
-81.95916005940094
 31
0.0
  0
LINE
  5
16F
  8
0
  6
CONTINUOUS
 62
     9
 10
-12.13959521831009
 20
-45.58443426723218
 30
0.0
 11
-51.14246840173226
 21
-68.10275359884992
 31
0.0
  0
LINE
  5
170
  8
0
  6
CONTINUOUS
 62
     9
 10
-41.84343029605558
 20
-81.20916005940093
 30
0.0
 11
-49.84343029605561
 21
-67.35275359884992
 31
0.0
  0
INSERT
  5
171
  8
0
 62
     9
  2
_OPEN30
 10
-41.84343029605558
 20
-81.20916005940093
 30
0.0
 41
1.50000139391263
 42
1.499998500689492
 50
300.0000000000001
  0
INSERT
  5
172
  8
0
 62
     9
  2
_OPEN30
 10
-49.84343029605561
 20
-67.35275359884992
 30
0.0
 41
1.50000139391263
 42
1.499998500689492
 50
120.0000000000001
  0
TEXT
  5
173
  8
0
 62
     7
 10
-46.57740489227117
 20
-71.0096755370152
 30
0.0
 40
4.0
  1
16
 50
-59.99999999999989
 41
0.8000000000000025
  7
FDASTYLE1
 72
     5
 11
-43.37740489227115
 21
-76.55223812123562
 31
0.0
  0
ENDBLK
  5
8D
  8
0
  0
BLOCK
  8
0
  2
DA_IMAGEDIMGROUP_17
 70
     0
 10
0.0
 20
0.0
 30
0.0
  3
DA_IMAGEDIMGROUP_17
  1

  0
LINE
  5
174
  8
0
  6
CONTINUOUS
 62
     9
 10
140.9598271123747
 20
149.5195058066257
 30
0.0
 11
180.9598271123747
 21
149.5195058066257
 31
0.0
  0
INSERT
  5
175
  8
0
 62
     9
  2
_OPEN30
 10
140.9598271123747
 20
149.5195058066257
 30
0.0
 41
1.50000139391263
 42
1.499998500689492
 50
180.0
  0
INSERT
  5
176
  8
0
 62
     9
  2
_OPEN30
 10
180.9598271123747
 20
149.5195058066257
 30
0.0
 41
1.50000139391263
 42
1.499998500689492
 50
360.0
  0
LINE
  5
177
  8
0
  6
CONTINUOUS
 62
     9
 10
140.9598271123747
 20
146.7748815869124
 30
0.0
 11
140.9598271123747
 21
151.0195058066257
 31
0.0
  0
LINE
  5
178
  8
0
  6
CONTINUOUS
 62
     9
 10
180.9598271123747
 20
119.5204794262679
 30
0.0
 11
180.9598271123747
 21
151.0195058066257
 31
0.0
  0
TEXT
  5
179
  8
0
 62
     7
 10
157.7598271123748
 20
150.5195058066257
 30
0.0
 40
4.0
  1
40
 41
0.7999999999999972
  7
FDASTYLE1
 72
     5
 11
164.1598271123747
 21
150.5195058066257
 31
0.0
  0
ENDBLK
  5
90
  8
0
  0
BLOCK
  8
0
  2
DA_IMAGEDIMGROUP_18
 70
     0
 10
0.0
 20
0.0
 30
0.0
  3
DA_IMAGEDIMGROUP_18
  1

  0
LINE
  5
17A
  8
0
  6
CONTINUOUS
 62
     9
 10
133.9598271123747
 20
161.5195058066257
 30
0.0
 11
147.9598271123747
 21
161.5195058066257
 31
0.0
  0
LINE
  5
17B
  8
0
  6
CONTINUOUS
 62
     9
 10
133.9598271123747
 20
142.5699865673811
 30
0.0
 11
133.9598271123747
 21
163.0195058066257
 31
0.0
  0
LINE
  5
17C
  8
0
  6
CONTINUOUS
 62
     9
 10
147.9598271123747
 20
142.5699865673811
 30
0.0
 11
147.9598271123747
 21
163.0195058066257
 31
0.0
  0
LINE
  5
17D
  8
0
  6
CONTINUOUS
 62
     9
 10
166.8788436451474
 20
161.5195058066257
 30
0.0
 11
147.9598271123747
 21
161.5195058066257
 31
0.0
  0
INSERT
  5
17E
  8
0
 62
     9
  2
_OPEN30
 10
147.9598271123747
 20
161.5195058066257
 30
0.0
 41
1.50000139391263
 42
1.499998500689492
 50
180.0
  0
LINE
  5
17F
  8
0
  6
CONTINUOUS
 62
     9
 10
128.9598271123747
 20
161.5195058066257
 30
0.0
 11
133.9598271123747
 21
161.5195058066257
 31
0.0
  0
INSERT
  5
180
  8
0
 62
     9
  2
_OPEN30
 10
133.9598271123747
 20
161.5195058066257
 30
0.0
 41
1.50000139391263
 42
1.499998500689492
 50
360.0
  0
TEXT
  5
181
  8
0
 62
     7
 10
153.0788436451474
 20
162.5195058066257
 30
0.0
 40
4.0
  1
14H8
 41
0.8000000000000007
  7
FDASTYLE1
 72
     5
 11
165.8788436451474
 21
162.5195058066257
 31
0.0
  0
ENDBLK
  5
93
  8
0
  0
BLOCK
  8
0
  2
DA_IMAGEDIMGROUP_19
 70
     0
 10
0.0
 20
0.0
 30
0.0
  3
DA_IMAGEDIMGROUP_19
  1

  0
LINE
  5
182
  8
LAYER0014
  6
CONTINUOUS
 62
     7
 10
-152.5713209848419
 20
-100.4265016474683
 30
0.0
 11
-105.5713209848419
 21
-100.4265016474683
 31
0.0
  0
INSERT
  5
183
  8
LAYER0014
 62
     7
  2
_OPEN30
 10
-152.5713209848419
 20
-100.4265016474683
 30
0.0
 41
1.50000139391263
 42
1.499998500689492
 50
180.0
  0
INSERT
  5
184
  8
LAYER0014
 62
     7
  2
_OPEN30
 10
-105.5713209848419
 20
-100.4265016474683
 30
0.0
 41
1.50000139391263
 42
1.499998500689492
 50
360.0
  0
LINE
  5
185
  8
LAYER0014
  6
CONTINUOUS
 62
     7
 10
-152.5713209848419
 20
-80.15026550781423
 30
0.0
 11
-152.5713209848419
 21
-101.9265016474683
 31
0.0
  0
LINE
  5
186
  8
LAYER0014
  6
CONTINUOUS
 62
     7
 10
-105.5713209848419
 20
-74.47001343261891
 30
0.0
 11
-105.5713209848419
 21
-101.9265016474683
 31
0.0
  0
TEXT
  5
187
  8
LAYER0014
 62
     7
 10
-132.2713209848419
 20
-99.42650164746826
 30
0.0
 40
4.0
  1
47
 41
0.7999999999999989
  7
FDASTYLE1
 72
     5
 11
-125.8713209848419
 21
-99.42650164746826
 31
0.0
  0
ENDBLK
  5
96
  8
0
  0
BLOCK
  8
0
  2
DA_IMAGEDIMGROUP_20
 70
     0
 10
0.0
 20
0.0
 30
0.0
  3
DA_IMAGEDIMGROUP_20
  1

  0
LINE
  5
188
  8
LAYER0014
  6
CONTINUOUS
 62
     7
 10
-218.5713209848419
 20
-100.4265016474683
 30
0.0
 11
-200.5713209848419
 21
-100.4265016474683
 31
0.0
  0
INSERT
  5
189
  8
LAYER0014
 62
     7
  2
_OPEN30
 10
-218.5713209848419
 20
-100.4265016474683
 30
0.0
 41
1.50000139391263
 42
1.499998500689492
 50
180.0
  0
INSERT
  5
18A
  8
LAYER0014
 62
     7
  2
_OPEN30
 10
-200.5713209848419
 20
-100.4265016474683
 30
0.0
 41
1.50000139391263
 42
1.499998500689492
 50
360.0
  0
LINE
  5
18B
  8
LAYER0014
  6
CONTINUOUS
 62
     7
 10
-218.5713209848419
 20
-41.64501648437673
 30
0.0
 11
-218.5713209848419
 21
-101.9265016474683
 31
0.0
  0
LINE
  5
18C
  8
LAYER0014
  6
CONTINUOUS
 62
     7
 10
-200.5713209848419
 20
-63.97001343261891
 30
0.0
 11
-200.5713209848419
 21
-101.9265016474683
 31
0.0
  0
TEXT
  5
18D
  8
LAYER0014
 62
     7
 10
-212.7713209848419
 20
-99.42650164746826
 30
0.0
 40
4.0
  1
18
 41
0.7999999999999972
  7
FDASTYLE1
 72
     5
 11
-206.3713209848419
 21
-99.42650164746826
 31
0.0
  0
ENDBLK
  5
99
  8
0
  0
BLOCK
  8
0
  2
DA_IMAGEDIMGROUP_21
 70
     0
 10
0.0
 20
0.0
 30
0.0
  3
DA_IMAGEDIMGROUP_21
  1

  0
LINE
  5
18E
  8
LAYER0014
  6
CONTINUOUS
 62
     7
 10
-205.5713209848419
 20
-128.757787945078
 30
0.0
 11
-105.5713209848419
 21
-128.757787945078
 31
0.0
  0
INSERT
  5
18F
  8
LAYER0014
 62
     7
  2
_OPEN30
 10
-205.5713209848419
 20
-128.757787945078
 30
0.0
 41
1.50000139391263
 42
1.499998500689492
 50
180.0
  0
INSERT
  5
190
  8
LAYER0014
 62
     7
  2
_OPEN30
 10
-105.5713209848419
 20
-128.757787945078
 30
0.0
 41
1.50000139391263
 42
1.499998500689492
 50
360.0
  0
LINE
  5
191
  8
LAYER0014
  6
CONTINUOUS
 62
     7
 10
-205.5713209848419
 20
-76.47001343261891
 30
0.0
 11
-205.5713209848419
 21
-130.257787945078
 31
0.0
  0
LINE
  5
192
  8
LAYER0014
  6
CONTINUOUS
 62
     7
 10
-105.5713209848419
 20
-74.47001343261891
 30
0.0
 11
-105.5713209848419
 21
-130.257787945078
 31
0.0
  0
TEXT
  5
193
  8
LAYER0014
 62
     7
 10
-160.3713209848419
 20
-127.757787945078
 30
0.0
 40
4.0
  1
100
 41
0.8000000000000019
  7
FDASTYLE1
 72
     5
 11
-150.7713209848419
 21
-127.757787945078
 31
0.0
  0
ENDBLK
  5
9C
  8
0
  0
BLOCK
  8
0
  2
DA_IMAGEDIMGROUP_22
 70
     0
 10
0.0
 20
0.0
 30
0.0
  3
DA_IMAGEDIMGROUP_22
  1

  0
LINE
  5
194
  8
0
  6
CONTINUOUS
 62
     9
 10
-205.5713209848419
 20
-75.43001343261889
 30
0.0
 11
-205.5713209848419
 21
-115.7499795028237
 31
0.0
  0
LINE
  5
195
  8
0
  6
CONTINUOUS
 62
     9
 10
-200.5713209848419
 20
-62.93001343261889
 30
0.0
 11
-200.5713209848419
 21
-115.7499795028237
 31
0.0
  0
LINE
  5
196
  8
0
  6
CONTINUOUS
 62
     9
 10
-205.5713209848419
 20
-114.2499795028237
 30
0.0
 11
-200.5713209848419
 21
-114.2499795028237
 31
0.0
  0
LINE
  5
197
  8
0
  6
CONTINUOUS
 62
     9
 10
-105.5713209848419
 20
-73.43001343261889
 30
0.0
 11
-105.5713209848419
 21
-115.7499795028237
 31
0.0
  0
LINE
  5
198
  8
0
  6
CONTINUOUS
 62
     9
 10
-200.5713209848419
 20
-114.2499795028237
 30
0.0
 11
-105.5713209848419
 21
-114.2499795028237
 31
0.0
  0
INSERT
  5
199
  8
0
 62
     9
  2
_OPEN30
 10
-200.5713209848419
 20
-114.2499795028237
 30
0.0
 41
1.50000139391263
 42
1.499998500689492
 50
180.0
  0
INSERT
  5
19A
  8
0
 62
     9
  2
_OPEN30
 10
-105.5713209848419
 20
-114.2499795028237
 30
0.0
 41
1.50000139391263
 42
1.499998500689492
 50
360.0
  0
LINE
  5
19B
  8
0
  6
CONTINUOUS
 62
     9
 10
-214.7538673830391
 20
-114.2499795028237
 30
0.0
 11
-205.5713209848419
 21
-114.2499795028237
 31
0.0
  0
INSERT
  5
19C
  8
0
 62
     9
  2
_OPEN30
 10
-205.5713209848419
 20
-114.2499795028237
 30
0.0
 41
1.50000139391263
 42
1.499998500689492
 50
360.0
  0
TEXT
  5
19D
  8
0
 62
     7
 10
-213.7538673830391
 20
-113.2499795028237
 30
0.0
 40
4.0
  1
5
 41
0.7999999999999972
  7
FDASTYLE1
 72
     5
 11
-210.5538673830391
 21
-113.2499795028237
 31
0.0
  0
TEXT
  5
19E
  8
0
 62
     7
 10
-156.2713209848419
 20
-113.2499795028237
 30
0.0
 40
4.0
  1
95
 41
0.7999999999999972
  7
FDASTYLE1
 72
     5
 11
-149.8713209848419
 21
-113.2499795028237
 31
0.0
  0
ENDBLK
  5
9F
  8
0
  0
BLOCK
  8
0
  2
DC_GROUP_7
 70
     0
 10
0.0
 20
0.0
 30
0.0
  3
DC_GROUP_7
  1

  0
LINE
  5
19F
  8
0
  6
CONTINUOUS
 62
     7
 10
144.4531161753142
 20
-13.37858509482379
 30
0.0
 11
208.8772136108564
 21
-58.93659331575903
 31
0.0
  0
INSERT
  5
1A0
  8
0
 62
     7
  2
_OPEN30
 10
144.4531161753142
 20
-13.37858509482379
 30
0.0
 41
1.50000139391263
 42
1.499998500689492
 50
144.7336584992694
  0
LINE
  5
1A1
  8
0
  6
CONTINUOUS
 62
     7
 10
208.8772136108564
 20
-58.93659331575903
 30
0.0
 11
251.4870238126721
 21
-58.93659331575903
 31
0.0
  0
TEXT
  5
1A2
  8
0
 62
     7
 10
208.8772136108564
 20
-58.93659331575903
 30
0.0
 40
4.0
  1
3-M8×16 PCD90
 41
0.7878787878787879
  7
FDASTYLE1
 72
     5
 11
250.4772136108564
 21
-58.93659331575903
 31
0.0
  0
ENDBLK
  5
A2
  8
0
  0
BLOCK
  8
0
  2
DA_IMAGEDIMGROUP_23
 70
     0
 10
0.0
 20
0.0
 30
0.0
  3
DA_IMAGEDIMGROUP_23
  1

  0
LINE
  5
1A3
  8
0
  6
CONTINUOUS
 62
     9
 10
-200.5713209848419
 20
161.5579850088932
 30
0.0
 11
-188.6643170785919
 21
161.5579850088932
 31
0.0
  0
LINE
  5
1A4
  8
0
  6
CONTINUOUS
 62
     9
 10
-200.5713209848419
 20
129.5699865673811
 30
0.0
 11
-200.5713209848419
 21
162.5579850088932
 31
0.0
  0
LINE
  5
1A5
  8
0
  6
CONTINUOUS
 62
     9
 10
-188.6643170785919
 20
71.06998656738109
 30
0.0
 11
-188.6643170785919
 21
162.5579850088932
 31
0.0
  0
LINE
  5
1A6
  8
0
  6
CONTINUOUS
 62
     9
 10
-222.2282979463174
 20
161.5579850088932
 30
0.0
 11
-200.5713209848419
 21
161.5579850088932
 31
0.0
  0
INSERT
  5
1A7
  8
0
 62
     9
  2
_OPEN30
 10
-200.5713209848419
 20
161.5579850088932
 30
0.0
 41
1.50000139391263
 42
1.499998500689492
 50
360.0
  0
LINE
  5
1A8
  8
0
  6
CONTINUOUS
 62
     9
 10
-183.6643170785919
 20
161.5579850088932
 30
0.0
 11
-188.6643170785919
 21
161.5579850088932
 31
0.0
  0
INSERT
  5
1A9
  8
0
 62
     9
  2
_OPEN30
 10
-188.6643170785919
 20
161.5579850088932
 30
0.0
 41
1.50000139391263
 42
1.499998500689492
 50
180.0
  0
TEXT
  5
1AA
  8
0
 62
     7
 10
-221.2282979463174
 20
162.5579850088932
 30
0.0
 40
4.0
  1
MAX25
 41
0.8
  7
FDASTYLE1
 72
     5
 11
-205.2282979463174
 21
162.5579850088932
 31
0.0
  0
ENDBLK
  5
A5
  8
0
  0
BLOCK
  8
0
  2
DA_IMAGEDIMGROUP_24
 70
     0
 10
0.0
 20
0.0
 30
0.0
  3
DA_IMAGEDIMGROUP_24
  1

  0
LINE
  5
1AB
  8
0
  6
CONTINUOUS
 62
     9
 10
-155.6643094491974
 20
2.3199865673811
 30
0.0
 11
-228.7726286808063
 21
2.3199865673811
 31
0.0
  0
LINE
  5
1AC
  8
0
  6
CONTINUOUS
 62
     9
 10
-155.6643094491974
 20
64.81998656738109
 30
0.0
 11
-228.7726286808063
 21
64.81998656738109
 31
0.0
  0
LINE
  5
1AD
  8
0
  6
CONTINUOUS
 62
     9
 10
-227.7726286808063
 20
2.3199865673811
 30
0.0
 11
-227.7726286808063
 21
64.81998656738109
 31
0.0
  0
INSERT
  5
1AE
  8
0
 62
     9
  2
_OPEN30
 10
-227.7726286808063
 20
2.3199865673811
 30
0.0
 41
1.50000139391263
 42
1.499998500689492
 50
270.0
  0
INSERT
  5
1AF
  8
0
 62
     9
  2
_OPEN30
 10
-227.7726286808063
 20
64.81998656738109
 30
0.0
 41
1.50000139391263
 42
1.499998500689492
 50
90.0
  0
TEXT
  5
1B0
  8
0
 62
     7
 10
-228.7726286808063
 20
22.36998656738111
 30
0.0
 40
4.0
  1
φ62.5H7
 50
90.0
 41
0.777777777777777
  7
FDASTYLE1
 72
     5
 11
-228.7726286808063
 21
44.76998656738108
 31
0.0
  0
ENDBLK
  5
A8
  8
0
  0
BLOCK
  8
0
  2
DA_IMAGEDIMGROUP_25
 70
     0
 10
0.0
 20
0.0
 30
0.0
  3
DA_IMAGEDIMGROUP_25
  1

  0
LINE
  5
1B1
  8
0
  6
CONTINUOUS
 62
     9
 10
-188.6643170785919
 20
18.66135760333708
 30
0.0
 11
-155.6643094491974
 21
18.66135760333708
 31
0.0
  0
INSERT
  5
1B2
  8
0
 62
     9
  2
_OPEN30
 10
-188.6643170785919
 20
18.66135760333708
 30
0.0
 41
1.50000139391263
 42
1.499998500689492
 50
180.0
  0
INSERT
  5
1B3
  8
0
 62
     9
  2
_OPEN30
 10
-155.6643094491974
 20
18.66135760333708
 30
0.0
 41
1.50000139391263
 42
1.499998500689492
 50
360.0
  0
LINE
  5
1B4
  8
0
  6
CONTINUOUS
 62
     9
 10
-155.6643094491974
 20
18.66135760333708
 30
0.0
 11
-143.6643094491974
 21
18.66135760333708
 31
0.0
  0
INSERT
  5
1B5
  8
0
 62
     9
  2
_OPEN30
 10
-155.6643094491974
 20
18.66135760333708
 30
0.0
 41
1.50000139391263
 42
1.499998500689492
 50
180.0
  0
INSERT
  5
1B6
  8
0
 62
     9
  2
_OPEN30
 10
-143.6643094491974
 20
18.66135760333708
 30
0.0
 41
1.50000139391263
 42
1.499998500689492
 50
360.0
  0
LINE
  5
1B7
  8
0
  6
CONTINUOUS
 62
     9
 10
-143.6643094491974
 20
18.66135760333708
 30
0.0
 11
-134.6643094491974
 21
18.66135760333708
 31
0.0
  0
INSERT
  5
1B8
  8
0
 62
     9
  2
_OPEN30
 10
-143.6643094491974
 20
18.66135760333708
 30
0.0
 41
1.50000139391263
 42
1.499998500689492
 50
180.0
  0
INSERT
  5
1B9
  8
0
 62
     9
  2
_OPEN30
 10
-134.6643094491974
 20
18.66135760333708
 30
0.0
 41
1.50000139391263
 42
1.499998500689492
 50
360.0
  0
TEXT
  5
1BA
  8
0
 62
     7
 10
-175.3643132638946
 20
19.66135760333708
 30
0.0
 40
4.0
  1
33
 41
0.7999999999999972
  7
FDASTYLE1
 72
     5
 11
-168.9643132638946
 21
19.66135760333708
 31
0.0
  0
TEXT
  5
1BB
  8
0
 62
     7
 10
-152.8643094491974
 20
19.66135760333708
 30
0.0
 40
4.0
  1
12
 41
0.7999999999999972
  7
FDASTYLE1
 72
     5
 11
-146.4643094491974
 21
19.66135760333708
 31
0.0
  0
TEXT
  5
1BC
  8
0
 62
     7
 10
-140.7643094491974
 20
19.66135760333708
 30
0.0
 40
4.0
  1
9
 41
0.7999999999999972
  7
FDASTYLE1
 72
     5
 11
-137.5643094491974
 21
19.66135760333708
 31
0.0
  0
ENDBLK
  5
AB
  8
0
  0
BLOCK
  8
0
  2
DA_IMAGEDIMGROUP_26
 70
     0
 10
0.0
 20
0.0
 30
0.0
  3
DA_IMAGEDIMGROUP_26
  1

  0
LINE
  5
1BD
  8
0
  6
CONTINUOUS
 62
     9
 10
-200.5713209848419
 20
-62.43001343261889
 30
0.0
 11
-200.5713209848419
 21
-101.4427136509048
 31
0.0
  0
LINE
  5
1BE
  8
0
  6
CONTINUOUS
 62
     9
 10
-155.6643094491974
 20
1.0699865673811
 30
0.0
 11
-155.6643094491974
 21
-101.4427136509048
 31
0.0
  0
LINE
  5
1BF
  8
0
  6
CONTINUOUS
 62
     9
 10
-200.5713209848419
 20
-100.4427136509048
 30
0.0
 11
-155.6643094491974
 21
-100.4427136509048
 31
0.0
  0
INSERT
  5
1C0
  8
0
 62
     9
  2
_OPEN30
 10
-200.5713209848419
 20
-100.4427136509048
 30
0.0
 41
1.50000139391263
 42
1.499998500689492
 50
180.0
  0
INSERT
  5
1C1
  8
0
 62
     9
  2
_OPEN30
 10
-155.6643094491974
 20
-100.4427136509048
 30
0.0
 41
1.50000139391263
 42
1.499998500689492
 50
360.0
  0
TEXT
  5
1C2
  8
0
 62
     7
 10
-185.9067121729237
 20
-99.44271365090481
 30
0.0
 40
4.0
  1
MAX58
 41
0.8
  7
FDASTYLE1
 72
     5
 11
-169.9067121729237
 21
-99.44271365090481
 31
0.0
  0
ENDBLK
  5
AE
  8
0
  0
BLOCK
  8
0
  2
DA_IMAGEDIMGROUP_27
 70
     0
 10
0.0
 20
0.0
 30
0.0
  3
DA_IMAGEDIMGROUP_27
  1

  0
LINE
  5
1C3
  8
0
  6
CONTINUOUS
 62
     9
 10
244.3895129765947
 20
93.28509739200479
 30
0.0
 11
239.7516899566954
 21
90.60744931884385
 31
0.0
  0
ARC
  5
1C4
  8
0
  6
CONTINUOUS
 62
     9
 10
140.9598956216371
 20
33.5699865673811
 30
0.0
 40
118.4302315454091
 50
0.0
 51
29.99999725896547
  0
INSERT
  5
1C5
  8
0
 62
     9
  2
_OPEN30
 10
259.3901271670462
 20
33.5699865673811
 30
0.0
 41
1.50000139391263
 42
1.499998500689492
 50
270.3628454361232
  0
INSERT
  5
1C6
  8
0
 62
     9
  2
_OPEN30
 10
243.5234875488902
 20
92.78509743343551
 30
0.0
 41
1.50000139391263
 42
1.499998500689492
 50
119.637151822842
  0
TEXT
  5
1C7
  8
0
 62
     7
 10
253.7365178947126
 20
66.65068712653545
 30
0.0
 40
4.0
  1
30°
 50
108.6886459315892
 41
0.7500000000000027
  7
FDASTYLE1
 72
     5
 11
250.6604352111663
 21
75.74451554607292
 31
0.0
  0
ENDBLK
  5
B1
  8
0
  0
BLOCK
  8
0
  2
DA_IMAGEDIMGROUP_28
 70
     0
 10
0.0
 20
0.0
 30
0.0
  3
DA_IMAGEDIMGROUP_28
  1

  0
LINE
  5
1C8
  8
0
  6
CONTINUOUS
 62
     9
 10
271.0052422019091
 20
33.5699865673811
 30
0.0
 11
255.1195859308877
 21
33.5699865673811
 31
0.0
  0
LINE
  5
1C9
  8
0
  6
CONTINUOUS
 62
     9
 10
266.5740535999868
 20
67.22820908579467
 30
0.0
 11
221.3007058638585
 21
55.09725341641767
 31
0.0
  0
ARC
  5
1CA
  8
0
  6
CONTINUOUS
 62
     9
 10
140.9598436575002
 20
33.5699865673811
 30
0.0
 40
129.0453985444089
 50
0.0
 51
14.9999984706918
  0
INSERT
  5
1CB
  8
0
 62
     9
  2
_OPEN30
 10
270.0052422019091
 20
33.5699865673811
 30
0.0
 41
1.50000139391263
 42
1.499998500689492
 50
270.3329980727718
  0
INSERT
  5
1CC
  8
0
 62
     9
  2
_OPEN30
 10
265.6081277667895
 20
66.96939006647413
 30
0.0
 41
1.50000139391263
 42
1.499998500689492
 50
104.6670003979208
  0
TEXT
  5
1CD
  8
0
 62
     7
 10
268.5363219491117
 20
45.52432783348598
 30
0.0
 40
4.0
  1
15°
 50
97.4999992353459
 41
0.7500000000000014
  7
FDASTYLE1
 72
     5
 11
267.2832706308222
 21
55.04219851939747
 31
0.0
  0
ENDBLK
  5
B4
  8
0
  0
BLOCK
  8
0
  2
_OPEN30
 70
     0
 10
0.0
 20
0.0
 30
0.0
  3
_OPEN30
  1

  0
LINE
  5
B9
  8
0
  6
BYBLOCK
 62
     0
 10
-1.0
 20
0.267949
 30
0.0
 11
0.0
 21
0.0
 31
0.0
  0
LINE
  5
BA
  8
0
  6
BYBLOCK
 62
     0
 10
0.0
 20
0.0
 30
0.0
 11
-1.0
 21
-0.267949
 31
0.0
  0
LINE
  5
BB
  8
0
  6
BYBLOCK
 62
     0
 10
0.0
 20
0.0
 30
0.0
 11
-1.0
 21
0.0
 31
0.0
  0
ENDBLK
  5
B8
  8
0
  0
BLOCK
  8
0
  2
_DOT
 70
     0
 10
0.0
 20
0.0
 30
0.0
  3
_DOT
  1

  0
POLYLINE
  5
134
  8
0
  6
BYBLOCK
 62
     0
 66
     1
 10
0.0
 20
0.0
 30
0.0
 70
     1
 40
0.5
 41
0.5
  0
VERTEX
  5
56C
  8
0
  6
BYBLOCK
 62
     0
 10
-0.25
 20
0.0
 30
0.0
 42
1.0
  0
VERTEX
  5
56D
  8
0
  6
BYBLOCK
 62
     0
 10
0.25
 20
0.0
 30
0.0
 42
1.0
  0
SEQEND
  5
56B
  8
0
  6
BYBLOCK
 62
     0
  0
LINE
  5
135
  8
0
  6
BYBLOCK
 62
     0
 10
-0.5
 20
0.0
 30
0.0
 11
-1.0
 21
0.0
 31
0.0
  0
ENDBLK
  5
133
  8
0
  0
ENDSEC
  0
SECTION
  2
ENTITIES
  0
LINE
  5
1CE
  8
ZUWAKU
  6
CONTINUOUS
 62
     3
 10
-277.0
 20
-190.0
 30
0.0
 11
-277.0
 21
190.0
 31
0.0
  0
LINE
  5
1CF
  8
ZUWAKU
  6
CONTINUOUS
 62
     3
 10
277.0
 20
-190.0
 30
0.0
 11
277.0
 21
190.0
 31
0.0
  0
LINE
  5
1D0
  8
ZUWAKU
  6
CONTINUOUS
 62
     3
 10
-277.0
 20
-190.0
 30
0.0
 11
277.0
 21
-190.0
 31
0.0
  0
LINE
  5
1D1
  8
ZUWAKU
  6
CONTINUOUS
 62
     3
 10
-277.0
 20
189.9999999999999
 30
0.0
 11
277.0
 21
189.9999999999999
 31
0.0
  0
LINE
  5
1D2
  8
ZUWAKU
  6
CONTINUOUS
 62
     3
 10
97.00000000000001
 20
-190.0
 30
0.0
 11
97.00000000000001
 21
-130.0
 31
0.0
  0
LINE
  5
1D3
  8
ZUWAKU
  6
CONTINUOUS
 62
     3
 10
97.00000000000001
 20
-176.0
 30
0.0
 11
277.0
 21
-176.0
 31
0.0
  0
LINE
  5
1D4
  8
ZUWAKU
  6
CONTINUOUS
 62
     3
 10
146.0
 20
-162.0
 30
0.0
 11
277.0
 21
-162.0
 31
0.0
  0
LINE
  5
1D5
  8
ZUWAKU
  6
CONTINUOUS
 62
     3
 10
146.0
 20
-148.0
 30
0.0
 11
277.0
 21
-148.0
 31
0.0
  0
LINE
  5
1D6
  8
ZUWAKU
  6
CONTINUOUS
 62
     3
 10
146.0
 20
-138.0
 30
0.0
 11
277.0
 21
-138.0
 31
0.0
  0
LINE
  5
1D7
  8
ZUWAKU
  6
CONTINUOUS
 62
     3
 10
146.0
 20
-176.0
 30
0.0
 11
146.0
 21
-130.0
 31
0.0
  0
LINE
  5
1D8
  8
ZUWAKU
  6
CONTINUOUS
 62
     3
 10
255.0
 20
-176.0
 30
0.0
 11
255.0
 21
-130.0
 31
0.0
  0
LINE
  5
1D9
  8
ZUWAKU
  6
CONTINUOUS
 62
     3
 10
171.0
 20
-190.0
 30
0.0
 11
171.0
 21
-176.0
 31
0.0
  0
LINE
  5
1DA
  8
ZUWAKU
  6
CONTINUOUS
 62
     3
 10
97.00000000000001
 20
-130.0
 30
0.0
 11
277.0
 21
-130.0
 31
0.0
  0
LINE
  5
1DB
  8
ZUWAKU
  6
CONTINUOUS
 62
     3
 10
226.0
 20
-176.0
 30
0.0
 11
226.0
 21
-148.0
 31
0.0
  0
LINE
  5
1DC
  8
ZUWAKU
  6
CONTINUOUS
 62
     4
 10
105.0
 20
-172.0
 30
0.0
 11
105.0
 21
-130.0
 31
0.0
  0
LINE
  5
1DD
  8
ZUWAKU
  6
CONTINUOUS
 62
     4
 10
109.0
 20
-172.0
 30
0.0
 11
109.0
 21
-130.0
 31
0.0
  0
LINE
  5
1DE
  8
ZUWAKU
  6
CONTINUOUS
 62
     4
 10
121.5
 20
-176.0
 30
0.0
 11
121.5
 21
-130.0
 31
0.0
  0
LINE
  5
1DF
  8
ZUWAKU
  6
CONTINUOUS
 62
     4
 10
97.00000000000001
 20
-137.0
 30
0.0
 11
146.0
 21
-137.0
 31
0.0
  0
LINE
  5
1E0
  8
ZUWAKU
  6
CONTINUOUS
 62
     4
 10
97.00000000000001
 20
-144.0
 30
0.0
 11
146.0
 21
-144.0
 31
0.0
  0
LINE
  5
1E1
  8
ZUWAKU
  6
CONTINUOUS
 62
     4
 10
97.00000000000001
 20
-165.0
 30
0.0
 11
146.0
 21
-165.0
 31
0.0
  0
LINE
  5
1E2
  8
ZUWAKU
  6
CONTINUOUS
 62
     4
 10
97.00000000000001
 20
-172.0
 30
0.0
 11
146.0
 21
-172.0
 31
0.0
  0
LINE
  5
1E3
  8
ZUWAKU
  6
CONTINUOUS
 62
     4
 10
255.0
 20
-166.0
 30
0.0
 11
277.0
 21
-166.0
 31
0.0
  0
LINE
  5
1E4
  8
ZUWAKU
  6
CONTINUOUS
 62
     4
 10
153.0
 20
-139.5
 30
0.0
 11
153.0
 21
-130.0
 31
0.0
  0
LINE
  5
1E5
  8
ZUWAKU
  6
CONTINUOUS
 62
     4
 10
202.0
 20
-148.0
 30
0.0
 11
202.0
 21
-146.5
 31
0.0
  0
LINE
  5
1E6
  8
ZUWAKU
  6
CONTINUOUS
 62
     4
 10
226.0
 20
-148.0
 30
0.0
 11
226.0
 21
-146.5
 31
0.0
  0
LINE
  5
1E7
  8
ZUWAKU
  6
CONTINUOUS
 62
     4
 10
243.0
 20
-148.0
 30
0.0
 11
243.0
 21
-146.5
 31
0.0
  0
LINE
  5
1E8
  8
ZUWAKU
  6
CONTINUOUS
 62
     4
 10
202.0
 20
-139.5
 30
0.0
 11
202.0
 21
-130.0
 31
0.0
  0
LINE
  5
1E9
  8
ZUWAKU
  6
CONTINUOUS
 62
     4
 10
226.0
 20
-139.5
 30
0.0
 11
226.0
 21
-130.0
 31
0.0
  0
LINE
  5
1EA
  8
ZUWAKU
  6
CONTINUOUS
 62
     4
 10
243.0
 20
-139.5
 30
0.0
 11
243.0
 21
-130.0
 31
0.0
  0
LINE
  5
1EB
  8
ZUWAKU
  6
CONTINUOUS
 62
     4
 10
97.00000000000001
 20
-151.0
 30
0.0
 11
146.0
 21
-151.0
 31
0.0
  0
LINE
  5
1EC
  8
ZUWAKU
  6
CONTINUOUS
 62
     4
 10
97.00000000000001
 20
-158.0
 30
0.0
 11
146.0
 21
-158.0
 31
0.0
  0
LINE
  5
1ED
  8
ZUWAKU
  6
CONTINUOUS
 62
     4
 10
101.0
 20
-130.5
 30
0.0
 11
98.00000000000001
 21
-136.5
 31
0.0
  0
LINE
  5
1EE
  8
ZUWAKU
  6
CONTINUOUS
 62
     4
 10
101.0
 20
-130.5
 30
0.0
 11
104.0
 21
-136.5
 31
0.0
  0
LINE
  5
1EF
  8
ZUWAKU
  6
CONTINUOUS
 62
     4
 10
98.00000000000001
 20
-136.5
 30
0.0
 11
104.0
 21
-136.5
 31
0.0
  0
LINE
  5
1F0
  8
ZUWAKU
  6
CONTINUOUS
 62
     4
 10
101.0
 20
-158.5
 30
0.0
 11
98.00000000000001
 21
-164.5
 31
0.0
  0
LINE
  5
1F1
  8
ZUWAKU
  6
CONTINUOUS
 62
     4
 10
101.0
 20
-158.5
 30
0.0
 11
104.0
 21
-164.5
 31
0.0
  0
LINE
  5
1F2
  8
ZUWAKU
  6
CONTINUOUS
 62
     4
 10
98.00000000000001
 20
-164.5
 30
0.0
 11
104.0
 21
-164.5
 31
0.0
  0
LINE
  5
1F3
  8
ZUWAKU
  6
CONTINUOUS
 62
     4
 10
101.0
 20
-151.5
 30
0.0
 11
98.00000000000001
 21
-157.5
 31
0.0
  0
LINE
  5
1F4
  8
ZUWAKU
  6
CONTINUOUS
 62
     4
 10
101.0
 20
-151.5
 30
0.0
 11
104.0
 21
-157.5
 31
0.0
  0
LINE
  5
1F5
  8
ZUWAKU
  6
CONTINUOUS
 62
     4
 10
98.00000000000001
 20
-157.5
 30
0.0
 11
104.0
 21
-157.5
 31
0.0
  0
LINE
  5
1F6
  8
ZUWAKU
  6
CONTINUOUS
 62
     4
 10
101.0
 20
-144.5
 30
0.0
 11
98.00000000000001
 21
-150.5
 31
0.0
  0
LINE
  5
1F7
  8
ZUWAKU
  6
CONTINUOUS
 62
     4
 10
101.0
 20
-144.5
 30
0.0
 11
104.0
 21
-150.5
 31
0.0
  0
LINE
  5
1F8
  8
ZUWAKU
  6
CONTINUOUS
 62
     4
 10
98.00000000000001
 20
-150.5
 30
0.0
 11
104.0
 21
-150.5
 31
0.0
  0
LINE
  5
1F9
  8
ZUWAKU
  6
CONTINUOUS
 62
     4
 10
101.0
 20
-137.5
 30
0.0
 11
98.00000000000001
 21
-143.5
 31
0.0
  0
LINE
  5
1FA
  8
ZUWAKU
  6
CONTINUOUS
 62
     4
 10
101.0
 20
-137.5
 30
0.0
 11
104.0
 21
-143.5
 31
0.0
  0
LINE
  5
1FB
  8
ZUWAKU
  6
CONTINUOUS
 62
     4
 10
98.00000000000001
 20
-143.5
 30
0.0
 11
104.0
 21
-143.5
 31
0.0
  0
LINE
  5
1FC
  8
ZUWAKU
  6
CONTINUOUS
 62
     4
 10
172.6666666666666
 20
-176.0
 30
0.0
 11
172.6666666666666
 21
-162.0
 31
0.0
  0
LINE
  5
1FD
  8
ZUWAKU
  6
CONTINUOUS
 62
     4
 10
199.3333333333333
 20
-176.0
 30
0.0
 11
199.3333333333333
 21
-161.9509415757253
 31
0.0
  0
LINE
  5
1FE
  8
ZUWAKU
  6
CONTINUOUS
 62
     4
 10
212.6666666666666
 20
-167.5
 30
0.0
 11
212.6666666666666
 21
-161.9509415757253
 31
0.0
  0
LINE
  5
1FF
  8
ZUWAKU
  6
CONTINUOUS
 62
     4
 10
226.0
 20
-155.0
 30
0.0
 11
255.0
 21
-155.0
 31
0.0
  0
LINE
  5
200
  8
ZUWAKU
  6
CONTINUOUS
 62
     4
 10
146.0
 20
-166.0
 30
0.0
 11
226.0
 21
-166.0
 31
0.0
  0
TEXT
  5
202
  8
ZUWAKU
 62
     7
 10
148.3132301474747
 20
-130.821188728956
 30
0.0
 40
2.6656
  1
符号
 41
0.8
  7
FDASTYLE0
  0
TEXT
  5
203
  8
ZUWAKU
 62
     7
 10
162.4141311219058
 20
-135.8245525019963
 30
0.0
 40
4.0
  1
品       名
 41
0.765957446808511
  7
FDASTYLE1
 72
     5
 11
191.2141311219058
 21
-135.8245525019963
 31
0.0
  0
TEXT
  5
204
  8
ZUWAKU
 62
     7
 10
207.2331564413096
 20
-135.8245525019963
 30
0.0
 40
4.0
  1
材  料
 41
0.7272727272727279
  7
FDASTYLE1
 72
     5
 11
220.0331564413096
 21
-135.8245525019963
 31
0.0
  0
TEXT
  5
205
  8
ZUWAKU
 62
     7
 10
229.516061684855
 20
-135.8245525019963
 30
0.0
 40
4.0
  1
個 数
 41
0.7058823529411761
  7
FDASTYLE1
 72
     5
 11
239.116061684855
 21
-135.8245525019963
 31
0.0
  0
TEXT
  5
206
  8
ZUWAKU
 62
     7
 10
245.721810952888
 20
-133.5649080050572
 30
0.0
 40
2.5
  1
単重量
 41
0.6666666666666666
  7
FDASTYLE1
 72
     5
 11
251.721810952888
 21
-133.5649080050572
 31
0.0
  0
TEXT
  5
207
  8
ZUWAKU
 62
     7
 10
244.7089516236359
 20
-137.3631304897525
 30
0.0
 40
2.5
  1
(kg)
 41
0.8
  7
FDASTYLE1
 72
     5
 11
252.7089516236359
 21
-137.3631304897525
 31
0.0
  0
TEXT
  5
208
  8
ZUWAKU
 62
     7
 10
259.1421970654778
 20
-135.8245525019963
 30
0.0
 40
4.0
  1
記  事
 41
0.7272727272727279
  7
FDASTYLE1
 72
     5
 11
271.9421970654778
 21
-135.8245525019963
 31
0.0
  0
TEXT
  5
209
  8
ZUWAKU
 62
     7
 10
258.8450794551645
 20
-165.4873041997729
 30
0.0
 40
3.0
  1
コード番号
 41
0.6666666666666666
  7
FDASTYLE1
 72
     5
 11
270.8450794551645
 21
-165.4873041997729
 31
0.0
  0
TEXT
  5
20A
  8
ZUWAKU
 62
     7
 10
101.9119920158317
 20
-175.1879010540338
 30
0.0
 40
2.5
  1
訂 正 来 歴
 41
0.717948717948718
  7
FDASTYLE1
 72
     5
 11
115.9119920158317
 21
-175.1879010540338
 31
0.0
  0
TEXT
  5
20B
  8
ZUWAKU
 62
     7
 10
125.890334846765
 20
-175.2166697391651
 30
0.0
 40
2.5
  1
工 事 番 号
 41
0.717948717948718
  7
FDASTYLE1
 72
     5
 11
139.890334846765
 21
-175.2166697391651
 31
0.0
  0
TEXT
  5
20C
  8
ZUWAKU
 62
     7
 10
99.96483784660289
 20
-165.9634530565915
 30
0.0
 40
2.0825
  1
記号
 41
0.8
  7
FDASTYLE0
  0
TEXT
  5
20D
  8
ZUWAKU
 62
     7
 10
105.9042249067618
 20
-165.9634530565915
 30
0.0
 40
2.0825
  1
理由
 41
0.8
  7
FDASTYLE0
  0
TEXT
  5
20E
  8
ZUWAKU
 62
     7
 10
111.6193667909843
 20
-169.8786046700178
 30
0.0
 40
3.0
  1
日 付
 41
0.7058823529411754
  7
FDASTYLE1
 72
     5
 11
118.8193667909843
 21
-169.8786046700178
 31
0.0
  0
TEXT
  5
20F
  8
ZUWAKU
 62
     7
 10
153.4481689819652
 20
-165.7187911464244
 30
0.0
 40
3.0
  1
承   認
 41
0.7407407407407408
  7
FDASTYLE1
 72
     5
 11
165.4481689819652
 21
-165.7187911464244
 31
0.0
  0
TEXT
  5
210
  8
ZUWAKU
 62
     7
 10
179.863228033234
 20
-165.4873041997729
 30
0.0
 40
3.0
  1
検   図
 41
0.7407407407407408
  7
FDASTYLE1
 72
     5
 11
191.863228033234
 21
-165.4873041997729
 31
0.0
  0
TEXT
  5
211
  8
ZUWAKU
 62
     7
 10
201.4771920983751
 20
-165.4873041997729
 30
0.0
 40
3.0
  1
担  当
 41
0.7272727272727269
  7
FDASTYLE1
 72
     5
 11
211.0771920983751
 21
-165.4873041997729
 31
0.0
  0
TEXT
  5
212
  8
ZUWAKU
 62
     7
 10
214.6770574841112
 20
-165.4873041997729
 30
0.0
 40
3.0
  1
製  図
 41
0.7272727272727269
  7
FDASTYLE1
 72
     5
 11
224.2770574841112
 21
-165.4873041997729
 31
0.0
  0
TEXT
  5
213
  8
ZUWAKU
 62
     7
 10
226.9462372304199
 20
-153.2184960272417
 30
0.0
 40
3.0
  1
作図
 41
0.6666666666666683
  7
FDASTYLE1
 72
     5
 11
231.7462372304199
 21
-153.2184960272417
 31
0.0
  0
TEXT
  5
214
  8
ZUWAKU
 62
     7
 10
228.1036719636776
 20
-160.2371566401815
 30
0.0
 40
4.0
  1
第 三 角 法
 41
0.7179487179487182
  7
FDASTYLE1
 72
     5
 11
250.5036719636776
 21
-160.2371566401815
 31
0.0
  0
TEXT
  5
215
  8
ZUWAKU
 62
     7
 10
227.409211123723
 20
-166.413251986379
 30
0.0
 40
3.0
  1
尺度
 41
0.6666666666666683
  7
FDASTYLE1
 72
     5
 11
232.209211123723
 21
-166.413251986379
 31
0.0
  0
TEXT
  5
217
  8
ZUWAKU
 62
     3
 10
105.379154370034
 20
-185.9272077185017
 30
0.0
 40
7.0
  1
株式会社 野村製作所
 41
0.5763738641280831
  7
FDASTYLE2
 72
     5
 11
161.379154370034
 21
-185.9272077185017
 31
0.0
  0
TEXT
  5
219
  8
ZUWAKU
 62
     3
 10
183.6118217934165
 20
-187.1216685584563
 30
0.0
 40
8.0
  1
２－
 41
0.8244023083264632
  7
FDASTYLE3
 72
     5
 11
199.6118217934165
 21
-187.1216685584563
 31
0.0
  0
TEXT
  5
21A
  8
ZUWAKU
 62
     3
 10
200.5237794178233
 20
-187.1216685584563
 30
0.0
 40
8.0
  1
C708060
 41
1.555901311402534
  7
FDASTYLE3
 72
     5
 11
256.5237794178233
 21
-187.1216685584563
 31
0.0
  0
TEXT
  5
21B
  8
ZUWAKU
 62
     6
 10
165.7570051766932
 20
-145.3589000228561
 30
0.0
 40
5.0
  1
外　形　図
 41
0.5833333333333334
  7
FDASTYLE1
 72
     5
 11
183.2570051766932
 21
-145.3589000228561
 31
0.0
  0
TEXT
  5
21C
  8
ZUWAKU
 62
     6
 10
155.3545934631717
 20
-157.829135039116
 30
0.0
 40
6.0
  1
GO3-8Ｓ型チャック
 41
0.6311475409836065
  7
FDASTYLE1
 72
     5
 11
201.5545934631717
 21
-157.829135039116
 31
0.0
  0
TEXT
  5
21D
  8
ZUWAKU
 62
     4
 10
239.3011788906399
 20
-172.297487439201
 30
0.0
 40
3.0
  1
1/1
 41
0.7000000000000013
  7
FDASTYLE1
 72
     5
 11
245.6011788906399
 21
-172.297487439201
 31
0.0
  0
LINE
  5
21E
  8
0
  6
CONTINUOUS
 62
     6
 10
-59.03952752768659
 20
-118.8953838537674
 30
0.0
 11
-44.51952752768661
 21
-118.8953838537674
 31
0.0
  0
LINE
  5
21F
  8
0
  6
CONTINUOUS
 62
     6
 10
-59.03952752768659
 20
-126.1553838537674
 30
0.0
 11
72.37729925453996
 21
-126.1553838537674
 31
0.0
  0
LINE
  5
220
  8
0
  6
CONTINUOUS
 62
     6
 10
-59.03952752768659
 20
-133.4153838537674
 30
0.0
 11
72.37729925453996
 21
-133.4153838537674
 31
0.0
  0
LINE
  5
221
  8
0
  6
CONTINUOUS
 62
     6
 10
-59.03952752768659
 20
-140.6753838537675
 30
0.0
 11
72.37729925453996
 21
-140.6753838537675
 31
0.0
  0
LINE
  5
222
  8
0
  6
CONTINUOUS
 62
     6
 10
-59.03952752768659
 20
-147.9353838537675
 30
0.0
 11
72.37729925453996
 21
-147.9353838537675
 31
0.0
  0
LINE
  5
223
  8
0
  6
CONTINUOUS
 62
     6
 10
-59.03952752768659
 20
-155.1953838537675
 30
0.0
 11
72.37729925453996
 21
-155.1953838537675
 31
0.0
  0
LINE
  5
224
  8
0
  6
CONTINUOUS
 62
     6
 10
-59.03952752768659
 20
-162.4553838537674
 30
0.0
 11
72.37729925453996
 21
-162.4553838537674
 31
0.0
  0
LINE
  5
225
  8
0
  6
CONTINUOUS
 62
     6
 10
-59.03952752768659
 20
-169.7153838537674
 30
0.0
 11
72.37729925453996
 21
-169.7153838537674
 31
0.0
  0
LINE
  5
226
  8
0
  6
CONTINUOUS
 62
     6
 10
-59.03952752768659
 20
-176.9753838537674
 30
0.0
 11
72.37729925453996
 21
-176.9753838537674
 31
0.0
  0
LINE
  5
227
  8
0
  6
CONTINUOUS
 62
     6
 10
-59.03952752768659
 20
-184.2353838537674
 30
0.0
 11
72.37729925453996
 21
-184.2353838537674
 31
0.0
  0
TEXT
  5
228
  8
0
 62
     6
 10
-56.70595663487577
 20
-117.3829023169022
 30
0.0
 40
3.630000000000001
  1
仕 様
 41
0.7364342407849107
  7
FDASTYLE1
 72
     5
 11
-46.85309856474065
 21
-117.3829023169022
 31
0.0
  0
TEXT
  5
229
  8
0
 62
     6
 10
-56.70595663487577
 20
-124.6429023169022
 30
0.0
 40
3.630000000000001
  1
爪ﾉｽﾄﾛｰｸ
 41
0.7781458578201026
  7
FDASTYLE1
 72
     5
 11
-32.33309885322713
 21
-124.6429023169022
 31
0.0
  0
TEXT
  5
22A
  8
0
 62
     6
 10
-56.70595663487577
 20
-131.9029023169022
 30
0.0
 40
3.630000000000001
  1
ピストンストローク
 41
0.6659390033058885
  7
FDASTYLE1
 72
     5
 11
-25.07309899747037
 21
-131.9029023169022
 31
0.0
  0
TEXT
  5
22B
  8
0
 62
     6
 10
-56.70595663487577
 20
-139.1628838537674
 30
0.0
 40
3.630000000000001
  1
推奨シリンダー
 41
0.6638419493776757
  7
FDASTYLE1
 72
     5
 11
-32.33309885322713
 21
-139.1628838537674
 31
0.0
  0
TEXT
  5
22C
  8
0
 62
     6
 10
-56.70595663487577
 20
-146.4228838537674
 30
0.0
 40
3.630000000000001
  1
許容シリンダー力
 41
0.6650247704327611
  7
FDASTYLE1
 72
     5
 11
-28.70309892534875
 21
-146.4228838537674
 31
0.0
  0
TEXT
  5
22D
  8
0
 62
     6
 10
-56.70595663487577
 20
-153.6828838537675
 30
0.0
 40
3.630000000000001
  1
最大静的把握力
 41
0.6638419493776757
  7
FDASTYLE1
 72
     5
 11
-32.33309885322713
 21
-153.6828838537675
 31
0.0
  0
TEXT
  5
22E
  8
0
 62
     6
 10
-56.70595663487577
 20
-160.9428838537675
 30
0.0
 40
3.630000000000001
  1
最高使用回転速度
 41
0.6650247704327611
  7
FDASTYLE1
 72
     5
 11
-28.70309892534875
 21
-160.9428838537675
 31
0.0
  0
TEXT
  5
22F
  8
0
 62
     6
 10
-56.70595663487577
 20
-168.2028838537675
 30
0.0
 40
3.630000000000001
  1
慣性モーメント
 41
0.6638419493776757
  7
FDASTYLE1
 72
     5
 11
-32.33309885322713
 21
-168.2028838537675
 31
0.0
  0
TEXT
  5
230
  8
0
 62
     6
 10
-56.70595663487577
 20
-175.4628838537674
 30
0.0
 40
3.630000000000001
  1
質 量
 41
0.7364342407849107
  7
FDASTYLE1
 72
     5
 11
-46.85309856474065
 21
-175.4628838537674
 31
0.0
  0
TEXT
  5
231
  8
0
 62
     6
 10
-56.70595663487577
 20
-182.7228838537675
 30
0.0
 40
3.630000000000001
  1
アンバランス量
 41
0.6638419493776757
  7
FDASTYLE1
 72
     5
 11
-32.33309885322713
 21
-182.7228838537675
 31
0.0
  0
TEXT
  5
232
  8
0
 62
     6
 10
33.49225411951874
 20
-167.9553855322342
 30
0.0
 40
3.630000000000001
  1
 0.17 kg・m
 41
0.7780322029908396
  7
FDASTYLE1
 72
     5
 11
68.75511168480252
 21
-167.9553855322342
 31
0.0
  0
TEXT
  5
233
  8
0
 62
     6
 10
69.53296796992757
 20
-165.6866354601126
 30
0.0
 40
1.815
  1
2
 41
0.7142860094706244
  7
FDASTYLE1
 72
     5
 11
70.82939707711675
 21
-165.6866354601126
 31
0.0
  0
TEXT
  5
234
  8
0
 62
     6
 10
41.14249093592502
 20
-160.5948537634354
 30
0.0
 40
3.630000000000001
  1
3000 min
 41
0.7714287571680386
  7
FDASTYLE1
 72
     5
 11
69.14534864545203
 21
-160.5948537634354
 31
0.0
  0
TEXT
  5
235
  8
0
 62
     6
 10
69.92320493057704
 20
-158.3261036913138
 30
0.0
 40
1.815
  1
-1
 41
0.7500002238278898
  7
FDASTYLE1
 72
     5
 11
73.03463400170541
 21
-158.3261036913138
 31
0.0
  0
TEXT
  5
236
  8
0
 62
     6
 10
44.44938607752655
 20
-153.3845195959549
 30
0.0
 40
3.630000000000001
  1
40.5 kN
 41
0.7704919906091379
  7
FDASTYLE1
 72
     5
 11
68.82224385917517
 21
-153.3845195959549
 31
0.0
  0
TEXT
  5
237
  8
0
 62
     6
 10
44.45917153895234
 20
-146.1742038916092
 30
0.0
 40
3.630000000000001
  1
  39 kN
 41
0.7704919906091379
  7
FDASTYLE1
 72
     5
 11
68.83202932060097
 21
-146.1742038916092
 31
0.0
  0
TEXT
  5
238
  8
0
 62
     6
 10
44.20412179530003
 20
-138.9638697241288
 30
0.0
 40
3.630000000000001
  1
　　66TS型
 41
0.7436710353193854
  7
FDASTYLE1
 72
     5
 11
68.57697957694866
 21
-138.9638697241288
 31
0.0
  0
TEXT
  5
239
  8
0
 62
     6
 10
51.69313851893283
 20
-131.4531403540116
 30
0.0
 40
3.630000000000001
  1
25 mm
 41
0.7674420530224361
  7
FDASTYLE1
 72
     5
 11
68.80599644482471
 21
-131.4531403540116
 31
0.0
  0
TEXT
  5
23A
  8
0
 62
     6
 10
26.24732003748748
 20
-124.393040714119
 30
0.0
 40
3.630000000000001
  1
(直径ﾆﾃ) ４０ mm
 41
0.7481753379241801
  7
FDASTYLE1
 72
     5
 11
68.77017745852803
 21
-124.393040714119
 31
0.0
  0
TEXT
  5
23B
  8
0
 62
     6
 10
52.11893533289767
 20
-175.1657196997147
 30
0.0
 40
3.630000000000001
  1
22 kg
 41
0.7674420530224361
  7
FDASTYLE1
 72
     5
 11
69.23179325878955
 21
-175.1657196997147
 31
0.0
  0
TEXT
  5
23C
  8
0
 62
     6
 10
26.03787423670626
 20
-182.5262514685136
 30
0.0
 40
3.630000000000001
  1
外周ﾆﾃ   4 g以内
 41
0.7481753379241801
  7
FDASTYLE1
 72
     5
 11
68.5607316577468
 21
-182.5262514685136
 31
0.0
  0
TEXT
  5
23D
  8
0
 62
     6
 10
-17.81531493425037
 20
-146.1197191809159
 30
0.0
 40
2.7225
  1
66TS型引側使用圧  2.8 MPa
 41
0.7468644658949735
  7
FDASTYLE1
 72
     5
 11
33.13432742834423
 21
-146.1197191809159
 31
0.0
  0
LINE
  5
23E
  8
0
  6
CONTINUOUS
 62
     3
 10
-134.6643094491974
 20
68.06998656738109
 30
0.0
 11
-119.0713209848419
 21
68.06998656738109
 31
0.0
  0
LINE
  5
23F
  8
0
  6
CONTINUOUS
 62
     3
 10
-140.0713209848419
 20
141.0699865673811
 30
0.0
 11
-128.7757887582794
 21
141.0699865673811
 31
0.0
  0
LINE
  5
240
  8
0
  6
CONTINUOUS
 62
     3
 10
-200.5713209848419
 20
128.5699865673811
 30
0.0
 11
-200.5713209848419
 21
-61.43001343261889
 31
0.0
  0
LINE
  5
241
  8
0
  6
CONTINUOUS
 62
     3
 10
-140.0713209848419
 20
141.0699865673811
 30
0.0
 11
-140.0713209848419
 21
70.56998656738109
 31
0.0
  0
LINE
  5
242
  8
0
  6
CONTINUOUS
 62
     3
 10
-108.0713209848419
 20
69.53872130859203
 30
0.0
 11
-108.0713209848419
 21
-6.4300134326189
 31
0.0
  0
LINE
  5
243
  8
0
  6
CONTINUOUS
 62
     3
 10
-108.0713209848419
 20
69.53872130859203
 30
0.0
 11
-105.5713209848419
 21
69.53872130859203
 31
0.0
  0
LINE
  5
244
  8
0
  6
CONTINUOUS
 62
     3
 10
-200.5713209848419
 20
70.56998656738109
 30
0.0
 11
-188.1741699242672
 21
70.56998656738109
 31
0.0
  0
LINE
  5
245
  8
0
  6
CONTINUOUS
 62
     3
 10
-205.5713209848419
 20
141.0699865673811
 30
0.0
 11
-140.0713209848419
 21
141.0699865673811
 31
0.0
  0
LINE
  5
246
  8
0
  6
CONTINUOUS
 62
     3
 10
-140.0713209848419
 20
75.06998656738109
 30
0.0
 11
-103.5713209848419
 21
75.06998656738109
 31
0.0
  0
LINE
  5
247
  8
0
  6
CONTINUOUS
 62
     3
 10
-119.5713209848419
 20
66.16983245361156
 30
0.0
 11
-108.0713209848419
 21
66.16983245361156
 31
0.0
  0
LINE
  5
248
  8
0
  6
CONTINUOUS
 62
     3
 10
-205.5713209848419
 20
128.5699865673811
 30
0.0
 11
-200.5713209848419
 21
128.5699865673811
 31
0.0
  0
LINE
  5
249
  8
0
  6
CONTINUOUS
 62
     3
 10
-135.5713209848419
 20
75.06998656738109
 30
0.0
 11
-135.5713209848419
 21
70.56998656738109
 31
0.0
  0
LINE
  5
24A
  8
0
  6
CONTINUOUS
 62
     3
 10
-119.5713209848419
 20
58.32377456176586
 30
0.0
 11
-119.5713209848419
 21
68.06998656738109
 31
0.0
  0
LINE
  5
24B
  8
0
  6
CONTINUOUS
 62
     3
 10
-134.6643094491974
 20
58.32377456176586
 30
0.0
 11
-119.5713209848419
 21
58.32377456176586
 31
0.0
  0
LINE
  5
24C
  8
0
  6
CONTINUOUS
 62
     3
 10
-205.5713209848419
 20
141.0699865673811
 30
0.0
 11
-205.5713209848419
 21
-73.93001343261889
 31
0.0
  0
LINE
  5
24D
  8
0
  6
CONTINUOUS
 62
     3
 10
-111.5713209848419
 20
141.0699865673811
 30
0.0
 11
-111.5713209848419
 21
130.0699865673811
 31
0.0
  0
LINE
  5
24E
  8
0
  6
CONTINUOUS
 62
     3
 10
-118.5713209848419
 20
141.0699865673811
 30
0.0
 11
-118.5713209848419
 21
75.06998656738109
 31
0.0
  0
LINE
  5
24F
  8
0
  6
CONTINUOUS
 62
     3
 10
-117.5713209848419
 20
130.0699865673811
 30
0.0
 11
-102.5713209848419
 21
130.0699865673811
 31
0.0
  0
LINE
  5
250
  8
0
  6
CONTINUOUS
 62
     3
 10
-117.5713209848419
 20
82.06999419677563
 30
0.0
 11
-102.5713209848419
 21
82.06999419677563
 31
0.0
  0
LINE
  5
251
  8
0
  6
CONTINUOUS
 62
     3
 10
-117.5713209848419
 20
130.0699865673811
 30
0.0
 11
-117.5713209848419
 21
82.06999419677563
 31
0.0
  0
LINE
  5
252
  8
0
  6
CONTINUOUS
 62
     3
 10
-94.57132098484192
 20
129.0699865673811
 30
0.0
 11
-94.57132098484192
 21
113.0699865673812
 31
0.0
  0
LINE
  5
253
  8
0
  6
CONTINUOUS
 62
     3
 10
-84.57132098484192
 20
129.0699865673811
 30
0.0
 11
-84.57132098484192
 21
113.0699865673812
 31
0.0
  0
LINE
  5
254
  8
0
  6
CONTINUOUS
 62
     3
 10
-94.57132098484192
 20
83.06998656738109
 30
0.0
 11
-84.57132098484192
 21
83.06998656738109
 31
0.0
  0
LINE
  5
255
  8
0
  6
CONTINUOUS
 62
     3
 10
-94.57132098484192
 20
99.06999419677568
 30
0.0
 11
-84.57132098484192
 21
99.06999419677568
 31
0.0
  0
LINE
  5
256
  8
0
  6
CONTINUOUS
 62
     3
 10
-94.57132098484192
 20
129.0699865673811
 30
0.0
 11
-84.57132098484192
 21
129.0699865673811
 31
0.0
  0
LINE
  5
257
  8
0
  6
CONTINUOUS
 62
     3
 10
-94.57132098484192
 20
113.0699865673812
 30
0.0
 11
-84.57132098484192
 21
113.0699865673812
 31
0.0
  0
LINE
  5
258
  8
0
  6
CONTINUOUS
 62
     3
 10
-117.5713209848419
 20
96.06998656738115
 30
0.0
 11
-94.57132098484192
 21
96.06998656738115
 31
0.0
  0
LINE
  5
259
  8
0
  6
CONTINUOUS
 62
     3
 10
-117.5713209848419
 20
86.06999419677563
 30
0.0
 11
-94.57132098484192
 21
86.06999419677563
 31
0.0
  0
LINE
  5
25A
  8
0
  6
CONTINUOUS
 62
     3
 10
-117.5713209848419
 20
126.0699865673812
 30
0.0
 11
-94.57132098484192
 21
126.0699865673812
 31
0.0
  0
LINE
  5
25B
  8
0
  6
CONTINUOUS
 62
     3
 10
-117.5713209848419
 20
116.0699865673812
 30
0.0
 11
-94.57132098484192
 21
116.0699865673812
 31
0.0
  0
LINE
  5
25C
  8
0
  6
CONTINUOUS
 62
     3
 10
-114.5713209848419
 20
126.0699865673812
 30
0.0
 11
-114.5713209848419
 21
116.0699865673812
 31
0.0
  0
LINE
  5
25D
  8
0
  6
CONTINUOUS
 62
     3
 10
-102.5713209848419
 20
86.06999419677563
 30
0.0
 11
-102.5713209848419
 21
82.06999419677563
 31
0.0
  0
LINE
  5
25E
  8
0
  6
CONTINUOUS
 62
     3
 10
-94.57132098484192
 20
99.06999419677568
 30
0.0
 11
-94.57132098484192
 21
83.06998656738109
 31
0.0
  0
LINE
  5
25F
  8
0
  6
CONTINUOUS
 62
     3
 10
-84.57132098484192
 20
99.06999419677568
 30
0.0
 11
-84.57132098484192
 21
83.06998656738109
 31
0.0
  0
LINE
  5
260
  8
0
  6
CONTINUOUS
 62
     3
 10
-102.5713209848419
 20
116.0699865673812
 30
0.0
 11
-102.5713209848419
 21
96.06998656738115
 31
0.0
  0
LINE
  5
261
  8
0
  6
CONTINUOUS
 62
     3
 10
-102.5713209848419
 20
130.0699865673811
 30
0.0
 11
-102.5713209848419
 21
126.0699865673812
 31
0.0
  0
LINE
  5
262
  8
0
  6
CONTINUOUS
 62
     3
 10
-114.5713209848419
 20
96.06998656738115
 30
0.0
 11
-114.5713209848419
 21
86.06999419677563
 31
0.0
  0
LINE
  5
263
  8
0
  6
CONTINUOUS
 62
     3
 10
-111.5713209848419
 20
82.06999419677563
 30
0.0
 11
-111.5713209848419
 21
75.06998656738109
 31
0.0
  0
LINE
  5
264
  8
0
  6
CONTINUOUS
 62
     3
 10
-205.5713209848419
 20
-73.93001343261889
 30
0.0
 11
-107.5713209848419
 21
-73.93001343261889
 31
0.0
  0
LINE
  5
265
  8
0
  6
CONTINUOUS
 62
     3
 10
-205.5713209848419
 20
-61.43001343261889
 30
0.0
 11
-200.5713209848419
 21
-61.43001343261889
 31
0.0
  0
LINE
  5
266
  8
0
  6
CONTINUOUS
 62
     3
 10
-200.5713209848419
 20
-3.4300134326189
 30
0.0
 11
-108.0713209848419
 21
-3.4300134326189
 31
0.0
  0
LINE
  5
267
  8
0
  6
CONTINUOUS
 62
     3
 10
-108.0713209848419
 20
-6.4300134326189
 30
0.0
 11
-105.5713209848419
 21
-6.4300134326189
 31
0.0
  0
LINE
  5
268
  8
0
  6
CONTINUOUS
 62
     3
 10
-127.389993415458
 20
-11.43004358450194
 30
0.0
 11
-125.5713439066659
 21
-14.58003650284477
 31
0.0
  0
LINE
  5
269
  8
0
  6
CONTINUOUS
 62
     3
 10
-127.3900087443982
 20
-11.43000671626428
 30
0.0
 11
-125.5713516062107
 21
-8.280000583422726
 31
0.0
  0
LINE
  5
26A
  8
0
  6
CONTINUOUS
 62
     3
 10
-120.5713209848419
 20
-7.4300134326189
 30
0.0
 11
-120.5713209848419
 21
-15.4300134326189
 31
0.0
  0
LINE
  5
26B
  8
0
  6
CONTINUOUS
 62
     3
 10
-125.5713209848419
 20
-8.280013814088626
 30
0.0
 11
-125.5713209848419
 21
-14.58001495849781
 31
0.0
  0
LINE
  5
26C
  8
0
  6
CONTINUOUS
 62
     3
 10
-125.5713209848419
 20
-14.58001495849781
 30
0.0
 11
-105.5713209848419
 21
-14.58001495849781
 31
0.0
  0
LINE
  5
26D
  8
0
  6
CONTINUOUS
 62
     3
 10
-125.5713209848419
 20
-8.280013814088626
 30
0.0
 11
-105.5713209848419
 21
-8.280013814088626
 31
0.0
  0
LINE
  5
26E
  8
0
  6
CONTINUOUS
 62
     3
 10
-105.5713209848419
 20
75.06998656738109
 30
0.0
 11
-105.5713209848419
 21
-71.93001343261889
 31
0.0
  0
LINE
  5
26F
  8
0
  6
CONTINUOUS
 62
     3
 10
-124.3668532114044
 20
141.0699865673811
 30
0.0
 11
-103.5713209848419
 21
141.0699865673811
 31
0.0
  0
LINE
  5
270
  8
0
  6
CONTINUOUS
 62
     3
 10
-155.5713209848419
 20
-51.9300134326189
 30
0.0
 11
-149.5713209848419
 21
-51.9300134326189
 31
0.0
  0
LINE
  5
271
  8
0
  6
CONTINUOUS
 62
     3
 10
-149.5713209848419
 20
-51.9300134326189
 30
0.0
 11
-149.5713209848419
 21
-73.93001343261889
 31
0.0
  0
LINE
  5
272
  8
0
  6
CONTINUOUS
 62
     3
 10
-155.5713209848419
 20
-51.9300134326189
 30
0.0
 11
-155.5713209848419
 21
-73.93001343261889
 31
0.0
  0
LINE
  5
273
  8
0
  6
CONTINUOUS
 62
     3
 10
-152.571347056146
 20
-50.19796014696053
 30
0.0
 11
-149.5713386982972
 21
-51.93001581102303
 31
0.0
  0
LINE
  5
274
  8
0
  6
CONTINUOUS
 62
     3
 10
-107.5713502775635
 20
-73.9300017842364
 30
0.0
 11
-105.5713481543845
 21
-71.92999966105739
 31
0.0
  0
LINE
  5
275
  8
0
  6
CONTINUOUS
 62
     3
 10
-155.571353231826
 20
-51.93001177718939
 30
0.0
 11
-152.5713448739772
 21
-50.19795611312689
 31
0.0
  0
LINE
  5
276
  8
0
  6
CONTINUOUS
 62
     3
 10
-129.1213698129669
 20
120.9569647167952
 30
0.0
 11
-124.0213331918732
 21
120.9569647167952
 31
0.0
  0
LINE
  5
277
  8
0
  6
CONTINUOUS
 62
     3
 10
-128.0713820199982
 20
117.0004801509367
 30
0.0
 11
-128.0713820199982
 21
120.9569647167952
 31
0.0
  0
LINE
  5
278
  8
0
  6
CONTINUOUS
 62
     3
 10
-125.0713820199982
 20
116.7631734471908
 30
0.0
 11
-125.0713820199982
 21
120.9569647167952
 31
0.0
  0
LINE
  5
279
  8
0
  6
CONTINUOUS
 62
     3
 10
-128.5713820199982
 20
133.3062918041975
 30
0.0
 11
-128.5713820199982
 21
131.8341543530257
 31
0.0
  0
LINE
  5
27A
  8
0
  6
CONTINUOUS
 62
     3
 10
-124.5713820199982
 20
133.3062918041975
 30
0.0
 11
-124.5713820199982
 21
131.8341543530257
 31
0.0
  0
LINE
  5
27B
  8
0
  6
CONTINUOUS
 62
     3
 10
-123.1788038949982
 20
134.0702078198225
 30
0.0
 11
-129.9640211801544
 21
134.0702078198225
 31
0.0
  0
LINE
  5
27C
  8
0
  6
CONTINUOUS
 62
     3
 10
-122.6213698129669
 20
133.4471304272444
 30
0.0
 11
-122.6213698129669
 21
131.7609121655257
 31
0.0
  0
LINE
  5
27D
  8
0
  6
CONTINUOUS
 62
     3
 10
-123.2713942270294
 20
138.2702123974593
 30
0.0
 11
-129.8713698129669
 21
138.2702123974593
 31
0.0
  0
LINE
  5
27E
  8
0
  6
CONTINUOUS
 62
     3
 10
-124.1712991457536
 20
140.5702859102127
 30
0.0
 11
-123.2712990454321
 21
138.2702856620142
 31
0.0
  0
LINE
  5
27F
  8
0
  6
CONTINUOUS
 62
     3
 10
-123.9583449106232
 20
137.2702123974593
 30
0.0
 11
-129.2503370981232
 21
137.2702123974593
 31
0.0
  0
LINE
  5
280
  8
0
  6
CONTINUOUS
 62
     3
 10
-129.8713329682161
 20
138.2702157792234
 30
0.0
 11
-128.9713331623199
 21
140.5702161746346
 31
0.0
  0
LINE
  5
281
  8
0
  6
CONTINUOUS
 62
     3
 10
-129.1213698129669
 20
120.9569647167952
 30
0.0
 11
-129.1213698129669
 21
131.0702078198225
 31
0.0
  0
LINE
  5
282
  8
0
  6
CONTINUOUS
 62
     3
 10
-129.5713820199982
 20
123.9569570874007
 30
0.0
 11
-123.5713820199982
 21
123.9569570874007
 31
0.0
  0
LINE
  5
283
  8
0
  6
CONTINUOUS
 62
     3
 10
-124.0213331918732
 20
120.9569647167952
 30
0.0
 11
-124.0213331918732
 21
131.0702078198225
 31
0.0
  0
LINE
  5
284
  8
0
  6
CONTINUOUS
 62
     3
 10
-134.5713820199982
 20
131.0702383374007
 30
0.0
 11
-134.5713820199982
 21
141.0699865673811
 31
0.0
  0
LINE
  5
285
  8
0
  6
CONTINUOUS
 62
     3
 10
-123.5713820199982
 20
131.0701467846663
 30
0.0
 11
-129.5713820199982
 21
131.0701467846663
 31
0.0
  0
LINE
  5
286
  8
0
  6
CONTINUOUS
 62
     3
 10
-130.5213942270294
 20
133.4471304272444
 30
0.0
 11
-130.5213942270294
 21
131.7608816479475
 31
0.0
  0
LINE
  5
287
  8
0
  6
CONTINUOUS
 62
     3
 10
-118.5713820199982
 20
131.0702383374007
 30
0.0
 11
-134.5713820199982
 21
131.0702383374007
 31
0.0
  0
LINE
  5
288
  8
0
  6
CONTINUOUS
 62
     3
 10
-124.1714186410919
 20
140.570200190428
 30
0.0
 11
-128.9714064340607
 21
140.570200190428
 31
0.0
  0
ARC
  5
289
  8
0
  6
CONTINUOUS
 62
     3
 10
-126.5713820199982
 20
140.0923254345686
 30
0.0
 40
1.200000047683716
 50
23.46796137491541
 51
156.5320077755478
  0
ARC
  5
28A
  8
0
  6
CONTINUOUS
 62
     3
 10
-123.5713820199982
 20
132.0731069897444
 30
0.0
 40
1.0
 50
179.9999776881997
 51
341.8082382956906
  0
ARC
  5
28B
  8
0
  6
CONTINUOUS
 62
     3
 10
-129.5713820199982
 20
132.0731069897444
 30
0.0
 40
1.0
 50
198.1988974307593
 51
359.9999710095899
  0
ARC
  5
28C
  8
0
  6
CONTINUOUS
 62
     3
 10
-129.5713820199982
 20
133.1348745678694
 30
0.0
 40
1.0
 50
110.7154403325608
 51
161.8050913997161
  0
ARC
  5
28D
  8
0
  6
CONTINUOUS
 62
     3
 10
-129.5713820199982
 20
133.1348745678694
 30
0.0
 40
1.0
 50
359.9999710095899
 51
429.2845236952606
  0
ARC
  5
28E
  8
0
  6
CONTINUOUS
 62
     3
 10
-123.5713820199982
 20
133.1348745678694
 30
0.0
 40
1.0
 50
18.1948640903688
 51
69.28452369526056
  0
ARC
  5
28F
  8
0
  6
CONTINUOUS
 62
     3
 10
-123.5713820199982
 20
133.1348745678694
 30
0.0
 40
1.0
 50
110.7154403325608
 51
179.9999776881997
  0
ARC
  5
290
  8
0
  6
CONTINUOUS
 62
     3
 10
-132.3674025278107
 20
135.8657018994124
 30
0.0
 40
3.0
 50
323.2379957736454
 51
387.8898190133925
  0
ARC
  5
291
  8
0
  6
CONTINUOUS
 62
     3
 10
-120.7754225473419
 20
135.8656713818343
 30
0.0
 40
3.0
 50
152.1068511557016
 51
216.7619682541759
  0
ARC
  5
292
  8
0
  6
CONTINUOUS
 62
     3
 10
-126.5713820199982
 20
138.2702123974593
 30
0.0
 40
3.299999952316284
 50
179.9999776881997
 51
197.6396788801879
  0
ARC
  5
293
  8
0
  6
CONTINUOUS
 62
     3
 10
-126.5713820199982
 20
138.2702123974593
 30
0.0
 40
3.299999952316284
 50
342.3602834400861
 51
359.9999710095899
  0
ARC
  5
294
  8
0
  6
CONTINUOUS
 62
     3
 10
-126.5713820199982
 20
134.0702078198225
 30
0.0
 40
3.0
 50
228.1896706800166
 51
269.9999701747652
  0
ARC
  5
295
  8
0
  6
CONTINUOUS
 62
     3
 10
-126.5713820199982
 20
131.0702078198225
 30
0.0
 40
3.0
 50
48.18968934935128
 51
131.81027467847
  0
ARC
  5
296
  8
0
  6
CONTINUOUS
 62
     3
 10
-126.5713820199982
 20
134.0702078198225
 30
0.0
 40
3.0
 50
269.9999906653327
 51
311.8103038204595
  0
LINE
  5
297
  8
0
  6
CONTINUOUS
 62
     3
 10
-156.6642813416783
 20
58.56996328836762
 30
0.0
 11
-155.6642806173008
 21
59.56997547676214
 31
0.0
  0
LINE
  5
298
  8
0
  6
CONTINUOUS
 62
     3
 10
-155.6643094491974
 20
65.06998656738109
 30
0.0
 11
-153.6643094491974
 21
65.06998656738109
 31
0.0
  0
LINE
  5
299
  8
0
  6
CONTINUOUS
 62
     3
 10
-156.6643170785919
 20
58.56998656738109
 30
0.0
 11
-156.6643170785919
 21
50.81998656738109
 31
0.0
  0
LINE
  5
29A
  8
0
  6
CONTINUOUS
 62
     3
 10
-153.6643094491974
 20
64.81998656738109
 30
0.0
 11
-145.6643094491974
 21
64.81998656738109
 31
0.0
  0
LINE
  5
29B
  8
0
  6
CONTINUOUS
 62
     3
 10
-145.6643094491974
 20
66.56998656738109
 30
0.0
 11
-143.6643094491974
 21
66.56998656738109
 31
0.0
  0
LINE
  5
29C
  8
0
  6
CONTINUOUS
 62
     3
 10
-187.6643170785919
 20
8.5699865673811
 30
0.0
 11
-187.6643170785919
 21
16.3199865673811
 31
0.0
  0
LINE
  5
29D
  8
0
  6
CONTINUOUS
 62
     3
 10
-187.6642905467943
 20
8.569976858189556
 30
0.0
 11
-188.6642954016042
 21
7.569979589820512
 31
0.0
  0
LINE
  5
29E
  8
0
  6
CONTINUOUS
 62
     3
 10
-143.6643094491974
 20
9.569986090543942
 30
0.0
 11
-134.6643094491974
 21
9.569986090543942
 31
0.0
  0
LINE
  5
29F
  8
0
  6
CONTINUOUS
 62
     3
 10
-155.6643094491974
 20
2.0699865673811
 30
0.0
 11
-153.6643094491974
 21
2.0699865673811
 31
0.0
  0
LINE
  5
2A0
  8
0
  6
CONTINUOUS
 62
     3
 10
-156.6642914569556
 20
8.570002783240533
 30
0.0
 11
-155.6642907325781
 21
7.569990594846011
 31
0.0
  0
LINE
  5
2A1
  8
0
  6
CONTINUOUS
 62
     3
 10
-145.6643094491974
 20
0.5699865673811004
 30
0.0
 11
-143.6643094491974
 21
0.5699865673811004
 31
0.0
  0
LINE
  5
2A2
  8
0
  6
CONTINUOUS
 62
     3
 10
-143.6643094491974
 20
1.0699865673811
 30
0.0
 11
-134.6643094491974
 21
1.0699865673811
 31
0.0
  0
LINE
  5
2A3
  8
0
  6
CONTINUOUS
 62
     3
 10
-153.6643094491974
 20
2.3199865673811
 30
0.0
 11
-145.6643094491974
 21
2.3199865673811
 31
0.0
  0
LINE
  5
2A4
  8
0
  6
CONTINUOUS
 62
     3
 10
-156.6643170785919
 20
8.5699865673811
 30
0.0
 11
-156.6643170785919
 21
16.3199865673811
 31
0.0
  0
LINE
  5
2A5
  8
0
  6
CONTINUOUS
 62
     3
 10
-187.6643170785919
 20
58.56998656738109
 30
0.0
 11
-187.6643170785919
 21
50.81998656738109
 31
0.0
  0
LINE
  5
2A6
  8
0
  6
CONTINUOUS
 62
     3
 10
-188.6643170785919
 20
70.06998656738109
 30
0.0
 11
-188.6643170785919
 21
-2.929975285646243
 31
0.0
  0
LINE
  5
2A7
  8
0
  6
CONTINUOUS
 62
     3
 10
-187.6642900410506
 20
58.57000000232769
 30
0.0
 11
-188.6642948958606
 21
59.56999727069673
 31
0.0
  0
LINE
  5
2A8
  8
0
  6
CONTINUOUS
 62
     3
 10
-187.6643170785919
 20
58.56998656738109
 30
0.0
 11
-156.6643170785919
 21
58.56998656738109
 31
0.0
  0
LINE
  5
2A9
  8
0
  6
CONTINUOUS
 62
     3
 10
-188.6643082071696
 20
70.06995375626742
 30
0.0
 11
-188.1642892580294
 21
70.56995744790278
 31
0.0
  0
LINE
  5
2AA
  8
0
  6
CONTINUOUS
 62
     3
 10
-188.1642892580294
 20
70.56998656738109
 30
0.0
 11
-135.1643349906462
 21
70.56998656738109
 31
0.0
  0
LINE
  5
2AB
  8
0
  6
CONTINUOUS
 62
     3
 10
-135.1643349906462
 20
70.56998656738109
 30
0.0
 11
-134.6643252446167
 21
70.06997298589899
 31
0.0
  0
LINE
  5
2AC
  8
0
  6
CONTINUOUS
 62
     3
 10
-143.6643094491974
 20
57.56998656738109
 30
0.0
 11
-134.6643094491974
 21
57.56998656738109
 31
0.0
  0
LINE
  5
2AD
  8
0
  6
CONTINUOUS
 62
     3
 10
-143.6643094491974
 20
66.06998656738109
 30
0.0
 11
-134.6643094491974
 21
66.06998656738109
 31
0.0
  0
LINE
  5
2AE
  8
0
  6
CONTINUOUS
 62
     3
 10
-155.6643094491974
 20
65.06998656738109
 30
0.0
 11
-155.6643094491974
 21
2.0699865673811
 31
0.0
  0
LINE
  5
2AF
  8
0
  6
CONTINUOUS
 62
     3
 10
-153.6643094491974
 20
65.06998656738109
 30
0.0
 11
-153.6643094491974
 21
2.0699865673811
 31
0.0
  0
LINE
  5
2B0
  8
0
  6
CONTINUOUS
 62
     3
 10
-143.6643094491974
 20
66.56998656738109
 30
0.0
 11
-143.6643094491974
 21
0.5699865673811004
 31
0.0
  0
LINE
  5
2B1
  8
0
  6
CONTINUOUS
 62
     3
 10
-134.6643094491974
 20
70.06998656738109
 30
0.0
 11
-134.6643094491974
 21
-2.929990544435306
 31
0.0
  0
LINE
  5
2B2
  8
0
  6
CONTINUOUS
 62
     3
 10
-187.6643170785919
 20
8.5699865673811
 30
0.0
 11
-156.6642752412821
 21
8.5699865673811
 31
0.0
  0
LINE
  5
2B3
  8
0
  6
CONTINUOUS
 62
     3
 10
-145.6643094491974
 20
66.56998656738109
 30
0.0
 11
-145.6643094491974
 21
25.56313993174054
 31
0.0
  0
LINE
  5
2B4
  8
0
  6
CONTINUOUS
 62
     3
 10
-145.6643094491974
 20
17.44285628749573
 30
0.0
 11
-145.6643094491974
 21
0.5699865673811004
 31
0.0
  0
LINE
  5
2B5
  8
0
  6
CONTINUOUS
 62
     3
 10
-10.77835285714446
 20
-30.94211416302983
 30
0.0
 11
3.078053603406602
 21
-22.94211416302983
 31
0.0
  0
LINE
  5
2B6
  8
0
  6
CONTINUOUS
 62
     3
 10
-10.84055711263341
 20
-44.83443426723216
 30
0.0
 11
-3.912327453359978
 21
-40.83441900844309
 31
0.0
  0
LINE
  5
2B7
  8
0
  6
CONTINUOUS
 62
     3
 10
-27.2818736347254
 20
-43.35717767249093
 30
0.0
 11
3.462028199622182
 21
-25.60717767249093
 31
0.0
  0
LINE
  5
2B8
  8
0
  6
CONTINUOUS
 62
     3
 10
1.149850373131073
 20
-35.6023682008742
 30
0.0
 11
2.649850373131073
 21
-38.20044441222751
 31
0.0
  0
LINE
  5
2B9
  8
0
  6
CONTINUOUS
 62
     3
 10
2.649850373131073
 20
-38.20044441222751
 30
0.0
 11
10.4440856144405
 21
-33.70044059753025
 31
0.0
  0
LINE
  5
2BA
  8
0
  6
CONTINUOUS
 62
     3
 10
-4.912327453359978
 20
-39.1023682008742
 30
0.0
 11
1.149850373131073
 21
-35.6023682008742
 31
0.0
  0
LINE
  5
2BB
  8
0
  6
CONTINUOUS
 62
     3
 10
9.649850373131073
 20
-50.32480006520967
 30
0.0
 11
17.4440856144405
 21
-45.82479625051241
 31
0.0
  0
LINE
  5
2BC
  8
0
  6
CONTINUOUS
 62
     3
 10
10.4440856144405
 20
-33.70044059753025
 30
0.0
 11
13.9440856144405
 21
-39.76261842402136
 31
0.0
  0
LINE
  5
2BD
  8
0
  6
CONTINUOUS
 62
     3
 10
-28.63475931769546
 20
-32.0139109327543
 30
0.0
 11
-24.63475931769546
 21
-38.94211416302983
 31
0.0
  0
LINE
  5
2BE
  8
0
  6
CONTINUOUS
 62
     3
 10
-14.77835285714446
 20
-24.0139109327543
 30
0.0
 11
-10.77835285714446
 21
-30.94211416302983
 31
0.0
  0
LINE
  5
2BF
  8
0
  6
CONTINUOUS
 62
     3
 10
3.078053603406602
 20
-22.94211416302983
 30
0.0
 11
9.578053603406602
 21
-34.20044441222751
 31
0.0
  0
LINE
  5
2C0
  8
0
  6
CONTINUOUS
 62
     3
 10
-18.6539972041623
 20
10.6989019883477
 30
0.0
 11
1.346002795837705
 21
-23.94211416302983
 31
0.0
  0
LINE
  5
2C1
  8
0
  6
CONTINUOUS
 62
     3
 10
-28.5318736347254
 20
-41.19211416302983
 30
0.0
 11
-24.63475931769546
 21
-38.94211416302983
 31
0.0
  0
LINE
  5
2C2
  8
0
  6
CONTINUOUS
 62
     3
 10
-28.63475931769546
 20
-32.0139109327543
 30
0.0
 11
-14.77835285714446
 21
-24.0139109327543
 31
0.0
  0
LINE
  5
2C3
  8
0
  6
CONTINUOUS
 62
     3
 10
16.87228223746655
 20
-28.83441900844309
 30
0.0
 11
25.53253957893566
 21
-23.83441710109446
 31
0.0
  0
LINE
  5
2C4
  8
0
  6
CONTINUOUS
 62
     3
 10
-3.796302049575559
 20
-39.03538090276641
 30
0.0
 11
1.399850373131073
 21
-36.03538090276641
 31
0.0
  0
LINE
  5
2C5
  8
0
  6
CONTINUOUS
 62
     3
 10
13.9440856144405
 20
-39.76261842402136
 30
0.0
 11
17.4440856144405
 21
-45.82479625051241
 31
0.0
  0
LINE
  5
2C6
  8
0
  6
CONTINUOUS
 62
     3
 10
-10.30465149956865
 20
-53.76261443035475
 30
0.0
 11
-10.30465093631904
 21
-49.76261445225742
 31
0.0
  0
LINE
  5
2C7
  8
0
  6
CONTINUOUS
 62
     3
 10
-10.3046635842648
 20
-49.76262908581396
 30
0.0
 11
-6.840561969127066
 21
-47.76262908581396
 31
0.0
  0
LINE
  5
2C8
  8
0
  6
CONTINUOUS
 62
     3
 10
-6.840544806668277
 20
-47.7626465637357
 30
0.0
 11
-3.376443984639877
 21
-49.76264805105291
 31
0.0
  0
LINE
  5
2C9
  8
0
  6
CONTINUOUS
 62
     3
 10
-3.376451270975394
 20
-49.76262522613536
 30
0.0
 11
-3.376453962874564
 21
-53.76262533200082
 31
0.0
  0
LINE
  5
2CA
  8
0
  6
CONTINUOUS
 62
     3
 10
-3.376450641002066
 20
-53.76264590920135
 30
0.0
 11
-6.840552256139802
 21
-55.76264590920135
 31
0.0
  0
LINE
  5
2CB
  8
0
  6
CONTINUOUS
 62
     3
 10
-6.840556294145017
 20
-55.76262642176624
 30
0.0
 11
-10.30465729070789
 21
-53.76262558582073
 31
0.0
  0
LINE
  5
2CC
  8
0
  6
CONTINUOUS
 62
     3
 10
16.4440856144405
 20
-44.09274544294351
 30
0.0
 11
23.37228223746655
 21
-40.09274925764078
 31
0.0
  0
LINE
  5
2CD
  8
0
  6
CONTINUOUS
 62
     3
 10
11.4440856144405
 20
-35.43249140509914
 30
0.0
 11
18.37228223746655
 21
-31.43249521979641
 31
0.0
  0
CIRCLE
  5
2CE
  8
0
  6
CONTINUOUS
 62
     3
 10
-6.840557112633405
 20
-51.76263749750768
 30
0.0
 40
3.299999952316284
  0
CIRCLE
  5
2CF
  8
0
  6
CONTINUOUS
 62
     3
 10
-6.840557112633405
 20
-51.76263749750768
 30
0.0
 40
0.75
  0
CIRCLE
  5
2D0
  8
0
  6
CONTINUOUS
 62
     3
 10
-6.840557112633405
 20
-51.76263749750768
 30
0.0
 40
2.400000095367432
  0
LINE
  5
2D1
  8
0
  6
CONTINUOUS
 62
     3
 10
9.221647142855545
 20
-65.58313031440736
 30
0.0
 11
23.0780536034066
 21
-57.58313031440736
 31
0.0
  0
LINE
  5
2D2
  8
0
  6
CONTINUOUS
 62
     3
 10
9.221647142855545
 20
-65.58313031440736
 30
0.0
 11
13.2216471428556
 21
-72.51133354468294
 31
0.0
  0
LINE
  5
2D3
  8
0
  6
CONTINUOUS
 62
     3
 10
-2.840557112633405
 20
-58.69084072778315
 30
0.0
 11
4.087672546640022
 21
-54.69082546899409
 31
0.0
  0
LINE
  5
2D4
  8
0
  6
CONTINUOUS
 62
     3
 10
-4.634759317695455
 20
-73.5831303144073
 30
0.0
 11
-0.6347593176953978
 21
-80.51133354468288
 31
0.0
  0
LINE
  5
2D5
  8
0
  6
CONTINUOUS
 62
     3
 10
-9.7818736347254
 20
-73.66806680494619
 30
0.0
 11
20.96202819962218
 21
-55.91806680494625
 31
0.0
  0
LINE
  5
2D6
  8
0
  6
CONTINUOUS
 62
     3
 10
21.34600279583771
 20
-58.58313031440736
 30
0.0
 11
40.29791058012194
 21
-91.40879749714763
 31
0.0
  0
LINE
  5
2D7
  8
0
  6
CONTINUOUS
 62
     3
 10
5.087672546640022
 20
-56.42287627656299
 30
0.0
 11
11.14985037313107
 21
-52.92287627656299
 31
0.0
  0
LINE
  5
2D8
  8
0
  6
CONTINUOUS
 62
     3
 10
-0.6347593176953978
 20
-80.51133354468288
 30
0.0
 11
13.2216471428556
 21
-72.51133354468294
 31
0.0
  0
LINE
  5
2D9
  8
0
  6
CONTINUOUS
 62
     3
 10
-8.5318736347254
 20
-75.8331303144073
 30
0.0
 11
-4.634759317695455
 21
-73.5831303144073
 31
0.0
  0
LINE
  5
2DA
  8
0
  6
CONTINUOUS
 62
     3
 10
24.87228223746655
 20
-42.69082546899409
 30
0.0
 11
33.53253957893566
 21
-37.69082356164546
 31
0.0
  0
LINE
  5
2DB
  8
0
  6
CONTINUOUS
 62
     3
 10
5.703697950424441
 20
-55.48986357467078
 30
0.0
 11
10.89985037313107
 21
-52.48986357467078
 31
0.0
  0
LINE
  5
2DC
  8
0
  6
CONTINUOUS
 62
     3
 10
147.9598271123747
 20
87.1970007275374
 30
0.0
 11
147.9598271123747
 21
75.06998656738109
 31
0.0
  0
LINE
  5
2DD
  8
0
  6
CONTINUOUS
 62
     3
 10
120.9598271123748
 20
75.06998656738109
 30
0.0
 11
140.9598271123747
 21
75.06998656738109
 31
0.0
  0
LINE
  5
2DE
  8
0
  6
CONTINUOUS
 62
     3
 10
55.58562268871785
 20
-18.03021896226742
 30
0.0
 11
56.86055752541026
 21
-17.29413497789242
 31
0.0
  0
LINE
  5
2DF
  8
0
  6
CONTINUOUS
 62
     3
 10
91.01745921663925
 20
12.81866651432178
 30
0.0
 11
101.5197613628904
 21
18.88217359439991
 31
0.0
  0
LINE
  5
2E0
  8
0
  6
CONTINUOUS
 62
     3
 10
51.36208573899668
 20
-26.24218184097149
 30
0.0
 11
65.32848943821111
 21
-18.17867476089337
 31
0.0
  0
LINE
  5
2E1
  8
0
  6
CONTINUOUS
 62
     3
 10
36.29862787134218
 20
5.475445028707007
 30
0.0
 11
37.07553468020225
 21
5.923992391988257
 31
0.0
  0
LINE
  5
2E2
  8
0
  6
CONTINUOUS
 62
     3
 10
36.29861896158465
 20
5.475422823997768
 30
0.0
 11
39.11208338304161
 21
-5.024569254161499
 31
0.0
  0
LINE
  5
2E3
  8
0
  6
CONTINUOUS
 62
     3
 10
51.93675463470615
 20
-21.63799175564996
 30
0.0
 11
49.49492605060047
 21
-22.00856468731522
 31
0.0
  0
LINE
  5
2E4
  8
0
  6
CONTINUOUS
 62
     3
 10
52.48868844978526
 20
-12.94778781236742
 30
0.0
 11
53.94899627454899
 21
-12.10467868150804
 31
0.0
  0
LINE
  5
2E5
  8
0
  6
CONTINUOUS
 62
     3
 10
47.09490531168441
 20
-17.85169697661727
 30
0.0
 11
49.49489920816879
 21
-22.0086082685742
 31
0.0
  0
LINE
  5
2E6
  8
0
  6
CONTINUOUS
 62
     3
 10
56.43868539802745
 20
-19.78938309367036
 30
0.0
 11
57.89899322279118
 21
-18.94627396281098
 31
0.0
  0
LINE
  5
2E7
  8
0
  6
CONTINUOUS
 62
     3
 10
49.84624165604575
 20
-16.01717581997978
 30
0.0
 11
52.49225300858481
 21
-20.60020183772426
 31
0.0
  0
LINE
  5
2E8
  8
0
  6
CONTINUOUS
 62
     3
 10
48.63675618479712
 20
-15.92228551651565
 30
0.0
 11
51.93674397776587
 21
-21.63803193570707
 31
0.0
  0
LINE
  5
2E9
  8
0
  6
CONTINUOUS
 62
     3
 10
47.09480793936265
 20
-17.8516271009597
 30
0.0
 11
48.63666652164713
 21
-15.92220403212955
 31
0.0
  0
LINE
  5
2EA
  8
0
  6
CONTINUOUS
 62
     3
 10
53.58563794750691
 20
-14.56614383830161
 30
0.0
 11
54.86057278419932
 21
-13.83005985392661
 31
0.0
  0
LINE
  5
2EB
  8
0
  6
CONTINUOUS
 62
     3
 10
56.61208573899668
 20
-35.33544841750004
 30
0.0
 11
48.96428910813731
 21
-22.08907632464648
 31
0.0
  0
LINE
  5
2EC
  8
0
  6
CONTINUOUS
 62
     3
 10
98.01745921663925
 20
0.6943110789503848
 30
0.0
 11
108.5197613628904
 21
6.75781815902851
 31
0.0
  0
LINE
  5
2ED
  8
0
  6
CONTINUOUS
 62
     3
 10
60.02233962140483
 20
-21.24218184097149
 30
0.0
 11
53.02233962140483
 21
-9.117826405600091
 31
0.0
  0
LINE
  5
2EE
  8
0
  6
CONTINUOUS
 62
     3
 10
103.3236090334455
 20
3.75781815902851
 30
0.0
 11
96.32360903344554
 21
15.88217359439991
 31
0.0
  0
LINE
  5
2EF
  8
0
  6
CONTINUOUS
 62
     3
 10
52.22777822099189
 20
-13.74209383475532
 30
0.0
 11
55.62037160478096
 21
-19.6182378394336
 31
0.0
  0
LINE
  5
2F0
  8
0
  6
CONTINUOUS
 62
     3
 10
53.02212818942527
 20
-9.117948475912591
 30
0.0
 11
60.02212818942527
 21
-21.24230391128399
 31
0.0
  0
LINE
  5
2F1
  8
0
  6
CONTINUOUS
 62
     3
 10
115.0197613628904
 20
-4.500511888102075
 30
0.0
 11
105.0197613628904
 21
12.81999587671421
 31
0.0
  0
LINE
  5
2F2
  8
0
  6
CONTINUOUS
 62
     3
 10
72.03669756941483
 20
-14.30568892104962
 30
0.0
 11
91.30925108543553
 21
-3.178674760893365
 31
0.0
  0
LINE
  5
2F3
  8
0
  6
CONTINUOUS
 62
     3
 10
65.03669756941483
 20
-2.181333485678216
 30
0.0
 11
84.30925108543553
 21
8.945680674478034
 31
0.0
  0
LINE
  5
2F4
  8
0
  6
CONTINUOUS
 62
     3
 10
44.36208573899668
 20
-14.11782640560009
 30
0.0
 11
58.32848943821111
 21
-6.054319325521966
 31
0.0
  0
LINE
  5
2F5
  8
0
  6
CONTINUOUS
 62
     3
 10
133.9598271123747
 20
117.1970007275374
 30
0.0
 11
133.9598271123747
 21
94.9429724072249
 31
0.0
  0
LINE
  5
2F6
  8
0
  6
CONTINUOUS
 62
     3
 10
147.9598271123747
 20
117.1970007275374
 30
0.0
 11
147.9598271123747
 21
94.9429724072249
 31
0.0
  0
LINE
  5
2F7
  8
0
  6
CONTINUOUS
 62
     3
 10
147.9598271123747
 20
141.0699865673811
 30
0.0
 11
147.9598271123747
 21
124.9429724072249
 31
0.0
  0
LINE
  5
2F8
  8
0
  6
CONTINUOUS
 62
     3
 10
133.9598271123747
 20
87.1970007275374
 30
0.0
 11
133.9598271123747
 21
75.06998656738109
 31
0.0
  0
LINE
  5
2F9
  8
0
  6
CONTINUOUS
 62
     3
 10
133.9598271123747
 20
141.0699865673811
 30
0.0
 11
133.9598271123747
 21
124.9429724072249
 31
0.0
  0
LINE
  5
2FA
  8
0
  6
CONTINUOUS
 62
     3
 10
133.9598271123747
 20
131.0699865673811
 30
0.0
 11
147.9598271123747
 21
131.0699865673811
 31
0.0
  0
LINE
  5
2FB
  8
0
  6
CONTINUOUS
 62
     3
 10
123.4598271123747
 20
141.0699865673811
 30
0.0
 11
138.7554203740935
 21
141.0699865673811
 31
0.0
  0
LINE
  5
2FC
  8
0
  6
CONTINUOUS
 62
     3
 10
133.9598271123747
 20
81.06998656738109
 30
0.0
 11
147.9598271123747
 21
81.06998656738109
 31
0.0
  0
LINE
  5
2FD
  8
0
  6
CONTINUOUS
 62
     3
 10
46.75982133469981
 20
-18.27082620593533
 30
0.0
 11
39.11208573899668
 21
-5.024559829071542
 31
0.0
  0
LINE
  5
2FE
  8
0
  6
CONTINUOUS
 62
     3
 10
105.0197613628904
 20
12.81999587671421
 30
0.0
 11
95.01976136289042
 21
30.14050364153049
 31
0.0
  0
LINE
  5
2FF
  8
0
  6
CONTINUOUS
 62
     3
 10
143.1643559209685
 20
141.0699865673811
 30
0.0
 11
158.4598271123747
 21
141.0699865673811
 31
0.0
  0
LINE
  5
300
  8
0
  6
CONTINUOUS
 62
     3
 10
147.9598271123747
 20
131.0702383374007
 30
0.0
 11
133.9598271123747
 21
131.0702383374007
 31
0.0
  0
LINE
  5
301
  8
0
  6
CONTINUOUS
 62
     3
 10
138.9598271123747
 20
133.3062918041975
 30
0.0
 11
138.9598271123747
 21
131.8341543530257
 31
0.0
  0
LINE
  5
302
  8
0
  6
CONTINUOUS
 62
     3
 10
144.3524052373747
 20
134.0702078198225
 30
0.0
 11
137.5671879522185
 21
134.0702078198225
 31
0.0
  0
LINE
  5
303
  8
0
  6
CONTINUOUS
 62
     3
 10
144.9097782842497
 20
133.4471304272444
 30
0.0
 11
144.9097782842497
 21
131.7609121655257
 31
0.0
  0
LINE
  5
304
  8
0
  6
CONTINUOUS
 62
     3
 10
144.2597538701872
 20
138.2702123974593
 30
0.0
 11
137.6597782842497
 21
138.2702123974593
 31
0.0
  0
LINE
  5
305
  8
0
  6
CONTINUOUS
 62
     3
 10
143.3599000450665
 20
140.5702948155501
 30
0.0
 11
144.2599001453879
 21
138.2702945673515
 31
0.0
  0
LINE
  5
306
  8
0
  6
CONTINUOUS
 62
     3
 10
143.5728642217497
 20
137.2702123974593
 30
0.0
 11
138.2808720342497
 21
137.2702123974593
 31
0.0
  0
LINE
  5
307
  8
0
  6
CONTINUOUS
 62
     3
 10
137.0098149053435
 20
133.4471304272444
 30
0.0
 11
137.0098149053435
 21
131.7608816479475
 31
0.0
  0
LINE
  5
308
  8
0
  6
CONTINUOUS
 62
     3
 10
143.359790491281
 20
140.570200190428
 30
0.0
 11
138.5598026983122
 21
140.570200190428
 31
0.0
  0
LINE
  5
309
  8
0
  6
CONTINUOUS
 62
     3
 10
137.6598292426795
 20
138.2702177344415
 30
0.0
 11
138.5598290485756
 21
140.5702181298527
 31
0.0
  0
LINE
  5
30A
  8
0
  6
CONTINUOUS
 62
     3
 10
142.9598271123747
 20
133.3062918041975
 30
0.0
 11
142.9598271123747
 21
131.8341543530257
 31
0.0
  0
LINE
  5
30B
  8
0
  6
CONTINUOUS
 62
     3
 10
112.9598271123748
 20
138.2565252636702
 30
0.0
 11
112.9598271123748
 21
137.3594305371077
 31
0.0
  0
LINE
  5
30C
  8
0
  6
CONTINUOUS
 62
     3
 10
168.9598271123747
 20
138.2565252636702
 30
0.0
 11
168.9598271123747
 21
137.3594305371077
 31
0.0
  0
LINE
  5
30D
  8
0
  6
CONTINUOUS
 62
     3
 10
160.9598271123747
 20
140.4001104687483
 30
0.0
 11
160.9598271123747
 21
64.69875167358227
 31
0.0
  0
LINE
  5
30E
  8
0
  6
CONTINUOUS
 62
     3
 10
168.9598178184685
 20
138.2565340708385
 30
0.0
 11
158.4597962625928
 21
141.0700063908259
 31
0.0
  0
LINE
  5
30F
  8
0
  6
CONTINUOUS
 62
     3
 10
120.9598271123748
 20
140.4001104687483
 30
0.0
 11
120.9598271123748
 21
64.69875167358227
 31
0.0
  0
LINE
  5
310
  8
0
  6
CONTINUOUS
 62
     3
 10
112.9597877389785
 20
138.2565274941496
 30
0.0
 11
123.4598092948542
 21
141.0699998141369
 31
0.0
  0
LINE
  5
311
  8
0
  6
CONTINUOUS
 62
     3
 10
140.9598271123747
 20
75.06998656738109
 30
0.0
 11
160.9598271123747
 21
75.06998656738109
 31
0.0
  0
LINE
  5
312
  8
0
  6
CONTINUOUS
 62
     3
 10
186.6598287545373
 20
106.5700008990268
 30
0.0
 11
183.8098316394014
 21
101.6336581494613
 31
0.0
  0
LINE
  5
313
  8
0
  6
CONTINUOUS
 62
     3
 10
183.809885214584
 20
101.633633891945
 30
0.0
 11
178.1098730075527
 21
101.6336315077536
 31
0.0
  0
LINE
  5
314
  8
0
  6
CONTINUOUS
 62
     3
 10
178.1098832796767
 20
101.6336620548807
 30
0.0
 11
175.259873778689
 21
106.5700153009691
 31
0.0
  0
LINE
  5
315
  8
0
  6
CONTINUOUS
 62
     3
 10
175.2598298347891
 20
106.5699860418333
 30
0.0
 11
178.1098340696951
 21
111.5063426853937
 31
0.0
  0
LINE
  5
316
  8
0
  6
CONTINUOUS
 62
     3
 10
178.1098950881946
 20
111.5063255860224
 30
0.0
 11
183.8098462600696
 21
111.5063265396886
 31
0.0
  0
LINE
  5
317
  8
0
  6
CONTINUOUS
 62
     3
 10
183.8098228575806
 20
111.5063304983048
 30
0.0
 11
186.6598299803379
 21
106.5699755534804
 31
0.0
  0
LINE
  5
318
  8
0
  6
CONTINUOUS
 62
     3
 10
223.4774326640642
 20
-37.16559297187664
 30
0.0
 11
157.9181373267481
 21
0.6850845183577334
 31
0.0
  0
LINE
  5
319
  8
0
  6
CONTINUOUS
 62
     3
 10
243.4774326640642
 20
-2.524577442244073
 30
0.0
 11
177.9181373267481
 21
35.3261000479903
 31
0.0
  0
LINE
  5
31A
  8
0
  6
CONTINUOUS
 62
     3
 10
58.44220223288968
 20
-37.1655814681802
 30
0.0
 11
124.0014975702058
 21
0.6850960220541751
 31
0.0
  0
LINE
  5
31B
  8
0
  6
CONTINUOUS
 62
     3
 10
38.44220223288968
 20
-2.524565938547632
 30
0.0
 11
104.0014975702058
 21
35.32611155168674
 31
0.0
  0
LINE
  5
31C
  8
0
  6
CONTINUOUS
 62
     3
 10
176.8998735340635
 20
12.81998437301777
 30
0.0
 11
166.8998735340635
 21
-4.500523391798517
 31
0.0
  0
LINE
  5
31D
  8
0
  6
CONTINUOUS
 62
     3
 10
232.9552847536604
 20
-22.08919354433269
 30
0.0
 11
225.3075491579572
 21
-35.33545992119648
 31
0.0
  0
LINE
  5
31E
  8
0
  6
CONTINUOUS
 62
     3
 10
230.5575491579572
 20
-26.24219334466793
 30
0.0
 11
216.5911454587428
 21
-18.17868626458981
 31
0.0
  0
LINE
  5
31F
  8
0
  6
CONTINUOUS
 62
     3
 10
209.8829373275391
 20
-14.30570042474606
 30
0.0
 11
190.6103838115184
 21
-3.178686264589807
 31
0.0
  0
LINE
  5
320
  8
0
  6
CONTINUOUS
 62
     3
 10
216.8829373275391
 20
-2.181344989374658
 30
0.0
 11
197.6103838115184
 21
8.945669170781592
 31
0.0
  0
LINE
  5
321
  8
0
  6
CONTINUOUS
 62
     3
 10
186.8998735340635
 20
30.14049213783405
 30
0.0
 11
176.8998735340635
 21
12.81998437301777
 31
0.0
  0
LINE
  5
322
  8
0
  6
CONTINUOUS
 62
     3
 10
221.8975067075286
 20
-21.24231541498043
 30
0.0
 11
228.8975067075286
 21
-9.117959979609033
 31
0.0
  0
LINE
  5
323
  8
0
  6
CONTINUOUS
 62
     3
 10
226.2993090685401
 20
-19.61817005613771
 30
0.0
 11
229.6919024523292
 21
-13.74202605145943
 31
0.0
  0
LINE
  5
324
  8
0
  6
CONTINUOUS
 62
     3
 10
185.5960258635084
 20
15.88216209070347
 30
0.0
 11
178.5960258635084
 21
3.757806655332068
 31
0.0
  0
LINE
  5
325
  8
0
  6
CONTINUOUS
 62
     3
 10
228.8972952755491
 20
-9.117837909296533
 30
0.0
 11
221.8972952755491
 21
-21.24219334466793
 31
0.0
  0
LINE
  5
326
  8
0
  6
CONTINUOUS
 62
     3
 10
190.9021756803147
 20
12.81865501062534
 30
0.0
 11
180.3998735340635
 21
18.88216209070347
 31
0.0
  0
LINE
  5
327
  8
0
  6
CONTINUOUS
 62
     3
 10
242.8075491579572
 20
-5.024571332767984
 30
0.0
 11
235.1597525270979
 21
-18.27094342562155
 31
0.0
  0
LINE
  5
328
  8
0
  6
CONTINUOUS
 62
     3
 10
245.6210070256117
 20
5.475433525010566
 30
0.0
 11
244.8441002167517
 21
5.923980888291816
 31
0.0
  0
LINE
  5
329
  8
0
  6
CONTINUOUS
 62
     3
 10
226.3340274670251
 20
-18.03020403696642
 30
0.0
 11
225.0590926303327
 21
-17.29412005259142
 31
0.0
  0
LINE
  5
32A
  8
0
  6
CONTINUOUS
 62
     3
 10
232.4247995981211
 20
-22.00868532852642
 30
0.0
 11
229.9829106698023
 21
-21.63810357023053
 31
0.0
  0
LINE
  5
32B
  8
0
  6
CONTINUOUS
 62
     3
 10
229.9829214367662
 20
-21.63799058140862
 30
0.0
 11
233.2829092297349
 21
-15.9222441622172
 31
0.0
  0
LINE
  5
32C
  8
0
  6
CONTINUOUS
 62
     3
 10
229.4603561315332
 20
-20.5431002779445
 30
0.0
 11
232.1063674840722
 21
-15.96007426020001
 31
0.0
  0
LINE
  5
32D
  8
0
  6
CONTINUOUS
 62
     3
 10
233.2828626248872
 20
-15.92225901260131
 30
0.0
 11
234.8247405531208
 21
-17.85170577456334
 31
0.0
  0
LINE
  5
32E
  8
0
  6
CONTINUOUS
 62
     3
 10
229.4309617059577
 20
-12.94777288706641
 30
0.0
 11
227.970653881194
 21
-12.10466375620704
 31
0.0
  0
LINE
  5
32F
  8
0
  6
CONTINUOUS
 62
     3
 10
232.4247662063632
 20
-22.00856691427575
 30
0.0
 11
234.8247601028476
 21
-17.85165562231882
 31
0.0
  0
LINE
  5
330
  8
0
  6
CONTINUOUS
 62
     3
 10
225.4809647577155
 20
-19.78936816836936
 30
0.0
 11
224.0206569329518
 21
-18.94625903750998
 31
0.0
  0
LINE
  5
331
  8
0
  6
CONTINUOUS
 62
     3
 10
217.6210263647978
 20
-43.0219609451709
 30
0.0
 11
225.3075324423141
 21
-35.33545486765465
 31
0.0
  0
LINE
  5
332
  8
0
  6
CONTINUOUS
 62
     3
 10
217.6210070256117
 20
-43.02198821647503
 30
0.0
 11
216.8441002167517
 21
-42.57344085319378
 31
0.0
  0
LINE
  5
333
  8
0
  6
CONTINUOUS
 62
     3
 10
237.5575491579572
 20
-14.11783790929653
 30
0.0
 11
223.5911454587428
 21
-6.054330829218408
 31
0.0
  0
LINE
  5
334
  8
0
  6
CONTINUOUS
 62
     3
 10
245.6210455512953
 20
5.475413603625974
 30
0.0
 11
242.8075811298383
 21
-5.024578474533293
 31
0.0
  0
LINE
  5
335
  8
0
  6
CONTINUOUS
 62
     3
 10
183.9021756803147
 20
0.6942995752539432
 30
0.0
 11
173.3998735340635
 21
6.757806655332068
 31
0.0
  0
LINE
  5
336
  8
0
  6
CONTINUOUS
 62
     3
 10
228.3340122082361
 20
-14.5661289130006
 30
0.0
 11
227.0590773715437
 21
-13.8300449286256
 31
0.0
  0
CIRCLE
  5
337
  8
0
  6
CONTINUOUS
 62
     3
 10
140.9598271123747
 20
33.5699865673811
 30
0.0
 40
37.0
  0
ARC
  5
338
  8
0
  6
CONTINUOUS
 62
     3
 10
140.9598271123747
 20
33.5699865673811
 30
0.0
 40
105.5
 50
340.9278920258441
 51
439.072109643808
  0
ARC
  5
339
  8
0
  6
CONTINUOUS
 62
     3
 10
140.9598271123747
 20
33.5699865673811
 30
0.0
 40
107.5
 50
100.7221495767801
 51
199.2778451111021
  0
CIRCLE
  5
33A
  8
0
  6
CONTINUOUS
 62
     3
 10
140.9598271123747
 20
33.5699865673811
 30
0.0
 40
32.5
  0
ARC
  5
33B
  8
0
  6
CONTINUOUS
 62
     3
 10
140.9598271123747
 20
33.5699865673811
 30
0.0
 40
40.0
 50
120.0000033393042
 51
180.0000050089563
  0
ARC
  5
33C
  8
0
  6
CONTINUOUS
 62
     3
 10
53.92412154596852
 20
-16.68015076172046
 30
0.0
 40
3.0
 50
348.1896706042263
 51
389.9999700989748
  0
ARC
  5
33D
  8
0
  6
CONTINUOUS
 62
     3
 10
56.52220504206227
 20
-15.18015076172046
 30
0.0
 40
3.0
 50
168.1896926886555
 51
251.8102780177743
  0
ARC
  5
33E
  8
0
  6
CONTINUOUS
 62
     3
 10
49.47117965143727
 20
-12.55841042053394
 30
0.0
 40
3.0
 50
272.1068513072823
 51
336.7619684057566
  0
ARC
  5
33F
  8
0
  6
CONTINUOUS
 62
     3
 10
50.28679244440602
 20
-18.78015686523609
 30
0.0
 40
3.299999952316284
 50
102.3602816567484
 51
119.9999760185475
  0
ARC
  5
340
  8
0
  6
CONTINUOUS
 62
     3
 10
140.9598271123747
 20
33.5699865673811
 30
0.0
 40
40.0
 50
239.9999966606958
 51
300.0000051605371
  0
ARC
  5
341
  8
0
  6
CONTINUOUS
 62
     3
 10
140.9598271123747
 20
33.5699865673811
 30
0.0
 40
40.0
 50
359.9999977689328
 51
420.0000016696521
  0
ARC
  5
342
  8
0
  6
CONTINUOUS
 62
     3
 10
140.9598271123747
 20
33.5699865673811
 30
0.0
 40
107.5
 50
340.7221513601177
 51
360.0
  0
ARC
  5
343
  8
0
  6
CONTINUOUS
 62
     3
 10
140.9598271123747
 20
33.5699865673811
 30
0.0
 40
107.5
 50
0.0
 51
79.27784860198709
  0
CIRCLE
  5
344
  8
0
  6
CONTINUOUS
 62
     3
 10
140.9598271123747
 20
33.5699865673811
 30
0.0
 40
24.0
  0
ARC
  5
345
  8
0
  6
CONTINUOUS
 62
     3
 10
55.26713912409352
 20
-22.59737564575367
 30
0.0
 40
3.0
 50
83.23799911294965
 51
147.889824060244
  0
ARC
  5
346
  8
0
  6
CONTINUOUS
 62
     3
 10
50.28679244440602
 20
-18.78015686523609
 30
0.0
 40
3.299999952316284
 50
299.9999778397804
 51
317.6396790317687
  0
ARC
  5
347
  8
0
  6
CONTINUOUS
 62
     3
 10
57.15361373346852
 20
-18.27967621338062
 30
0.0
 40
1.0
 50
318.1988973549689
 51
479.9999760185476
  0
ARC
  5
348
  8
0
  6
CONTINUOUS
 62
     3
 10
54.15361373346852
 20
-13.08352257263355
 30
0.0
 40
1.0
 50
299.9999778397804
 51
461.8082384472713
  0
ARC
  5
349
  8
0
  6
CONTINUOUS
 62
     3
 10
53.23411910456227
 20
-13.61440636169605
 30
0.0
 40
1.0
 50
230.7154336539523
 51
299.9999778397804
  0
ARC
  5
34A
  8
0
  6
CONTINUOUS
 62
     3
 10
56.23411910456227
 20
-18.81056000244312
 30
0.0
 40
1.0
 50
230.7154336539523
 51
281.8050915512968
  0
ARC
  5
34B
  8
0
  6
CONTINUOUS
 62
     3
 10
53.23411910456227
 20
-13.61440636169605
 30
0.0
 40
1.0
 50
138.1948623070311
 51
189.2845270345648
  0
ARC
  5
34C
  8
0
  6
CONTINUOUS
 62
     3
 10
53.92412154596852
 20
-16.68015076172046
 30
0.0
 40
3.0
 50
29.9999905895423
 51
71.81030715976377
  0
ARC
  5
34D
  8
0
  6
CONTINUOUS
 62
     3
 10
56.23411910456227
 20
-18.81056000244312
 30
0.0
 40
1.0
 50
119.9999760185475
 51
189.2845270345648
  0
ARC
  5
34E
  8
0
  6
CONTINUOUS
 62
     3
 10
48.70878951471852
 20
-19.69121338379078
 30
0.0
 40
1.200000047683716
 50
143.4679595915778
 51
276.532011114852
  0
CIRCLE
  5
34F
  8
0
  6
CONTINUOUS
 62
     3
 10
140.9598271123747
 20
-11.4300134326189
 30
0.0
 40
3.150000095367432
  0
CIRCLE
  5
350
  8
0
  6
CONTINUOUS
 62
     3
 10
93.81346480768727
 20
80.71633361327953
 30
0.0
 40
7.0
  0
CIRCLE
  5
351
  8
0
  6
CONTINUOUS
 62
     3
 10
76.55675094049977
 20
50.82674621093578
 30
0.0
 40
7.0
  0
CIRCLE
  5
352
  8
0
  6
CONTINUOUS
 62
     3
 10
188.1061894170622
 20
80.71633361327953
 30
0.0
 40
7.0
  0
CIRCLE
  5
353
  8
0
  6
CONTINUOUS
 62
     3
 10
205.3629032842497
 20
50.82674621093578
 30
0.0
 40
7.0
  0
CIRCLE
  5
354
  8
0
  6
CONTINUOUS
 62
     3
 10
158.2166020147185
 20
-30.83312012207203
 30
0.0
 40
7.0
  0
CIRCLE
  5
355
  8
0
  6
CONTINUOUS
 62
     3
 10
123.703052210031
 20
-30.83312012207203
 30
0.0
 40
10.0
  0
CIRCLE
  5
356
  8
0
  6
CONTINUOUS
 62
     3
 10
158.2166020147185
 20
-30.83312012207203
 30
0.0
 40
10.0
  0
CIRCLE
  5
357
  8
0
  6
CONTINUOUS
 62
     3
 10
205.3629032842497
 20
50.82674621093578
 30
0.0
 40
10.0
  0
CIRCLE
  5
358
  8
0
  6
CONTINUOUS
 62
     3
 10
93.81346480768727
 20
80.71633361327953
 30
0.0
 40
10.0
  0
ARC
  5
359
  8
0
  6
CONTINUOUS
 62
     3
 10
140.9598271123747
 20
33.5699865673811
 30
0.0
 40
105.5
 50
100.9278953651484
 51
199.072106152923
  0
CIRCLE
  5
35A
  8
0
  6
CONTINUOUS
 62
     3
 10
76.55675094049977
 20
50.82674621093578
 30
0.0
 40
10.0
  0
CIRCLE
  5
35B
  8
0
  6
CONTINUOUS
 62
     3
 10
179.9309574834685
 20
56.06997893798656
 30
0.0
 40
3.150000095367432
  0
CIRCLE
  5
35C
  8
0
  6
CONTINUOUS
 62
     3
 10
101.988696741281
 20
56.07000182617016
 30
0.0
 40
3.150000095367432
  0
CIRCLE
  5
35D
  8
0
  6
CONTINUOUS
 62
     3
 10
188.1061894170622
 20
80.71633361327953
 30
0.0
 40
10.0
  0
ARC
  5
35E
  8
0
  6
CONTINUOUS
 62
     3
 10
140.9598271123747
 20
33.5699865673811
 30
0.0
 40
41.5
 50
181.1886254915443
 51
238.8113798205735
  0
ARC
  5
35F
  8
0
  6
CONTINUOUS
 62
     3
 10
225.3975102178435
 20
-15.18009735595874
 30
0.0
 40
3.0
 50
288.1896860100471
 51
371.8102747542604
  0
ARC
  5
360
  8
0
  6
CONTINUOUS
 62
     3
 10
143.9598271123747
 20
133.1348745678694
 30
0.0
 40
1.0
 50
110.7154403325608
 51
179.9999776881997
  0
ARC
  5
361
  8
0
  6
CONTINUOUS
 62
     3
 10
140.9598271123747
 20
134.0702078198225
 30
0.0
 40
3.0
 50
269.9999906653327
 51
311.8103038204595
  0
ARC
  5
362
  8
0
  6
CONTINUOUS
 62
     3
 10
140.9598271123747
 20
131.0702078198225
 30
0.0
 40
3.0
 50
48.18968934935128
 51
131.81027467847
  0
ARC
  5
363
  8
0
  6
CONTINUOUS
 62
     3
 10
140.9598271123747
 20
134.0702078198225
 30
0.0
 40
3.0
 50
228.1896706800166
 51
269.9999701747652
  0
ARC
  5
364
  8
0
  6
CONTINUOUS
 62
     3
 10
140.9598271123747
 20
138.2702123974593
 30
0.0
 40
3.299999952316284
 50
342.3602834400861
 51
359.9999710095899
  0
ARC
  5
365
  8
0
  6
CONTINUOUS
 62
     3
 10
140.9598271123747
 20
138.2702123974593
 30
0.0
 40
3.299999952316284
 50
179.9999776881997
 51
197.6396788801879
  0
ARC
  5
366
  8
0
  6
CONTINUOUS
 62
     3
 10
146.755786585031
 20
135.8656713818343
 30
0.0
 40
3.0
 50
152.1068511557016
 51
216.7619682541759
  0
ARC
  5
367
  8
0
  6
CONTINUOUS
 62
     3
 10
135.1638066045622
 20
135.8657018994124
 30
0.0
 40
3.0
 50
323.2379957736454
 51
387.8898190133925
  0
ARC
  5
368
  8
0
  6
CONTINUOUS
 62
     3
 10
140.9598271123747
 20
140.0923254345686
 30
0.0
 40
1.200000047683716
 50
23.46796137491541
 51
156.5320077755478
  0
ARC
  5
369
  8
0
  6
CONTINUOUS
 62
     3
 10
137.9598271123747
 20
132.0731069897444
 30
0.0
 40
1.0
 50
198.1988974307593
 51
359.9999710095899
  0
ARC
  5
36A
  8
0
  6
CONTINUOUS
 62
     3
 10
137.9598271123747
 20
133.1348745678694
 30
0.0
 40
1.0
 50
110.7154403325608
 51
161.8050913997161
  0
ARC
  5
36B
  8
0
  6
CONTINUOUS
 62
     3
 10
137.9598271123747
 20
133.1348745678694
 30
0.0
 40
1.0
 50
359.9999710095899
 51
429.2845236952606
  0
ARC
  5
36C
  8
0
  6
CONTINUOUS
 62
     3
 10
143.9598271123747
 20
133.1348745678694
 30
0.0
 40
1.0
 50
18.1948640903688
 51
69.28452369526056
  0
ARC
  5
36D
  8
0
  6
CONTINUOUS
 62
     3
 10
143.9598271123747
 20
132.0731069897444
 30
0.0
 40
1.0
 50
179.9999776881997
 51
341.8082382956906
  0
ARC
  5
36E
  8
0
  6
CONTINUOUS
 62
     3
 10
140.9598271123747
 20
33.5699865673811
 30
0.0
 40
41.5
 50
61.18862533996358
 51
118.8113728388036
  0
CIRCLE
  5
36F
  8
0
  6
CONTINUOUS
 62
     3
 10
180.9598271123747
 20
106.5699865673812
 30
0.0
 40
3.299999952316284
  0
CIRCLE
  5
370
  8
0
  6
CONTINUOUS
 62
     3
 10
180.9598271123747
 20
106.5699865673812
 30
0.0
 40
2.400000095367432
  0
CIRCLE
  5
371
  8
0
  6
CONTINUOUS
 62
     3
 10
180.9598271123747
 20
106.5699865673812
 30
0.0
 40
0.75
  0
CIRCLE
  5
372
  8
0
  6
CONTINUOUS
 62
     3
 10
180.9598271123747
 20
106.5699865673812
 30
0.0
 40
9.0
  0
ARC
  5
373
  8
0
  6
CONTINUOUS
 62
     3
 10
140.9598271123747
 20
33.5699865673811
 30
0.0
 40
41.5
 50
301.1886220006593
 51
358.811377610349
  0
ARC
  5
374
  8
0
  6
CONTINUOUS
 62
     3
 10
233.2109257451872
 20
-19.69115997802906
 30
0.0
 40
1.200000047683716
 50
263.4679597431585
 51
396.5320078513382
  0
ARC
  5
375
  8
0
  6
CONTINUOUS
 62
     3
 10
228.6855351201872
 20
-13.61435486328296
 30
0.0
 40
1.0
 50
239.9999693399391
 51
309.2845237710509
  0
ARC
  5
376
  8
0
  6
CONTINUOUS
 62
     3
 10
227.9955937139372
 20
-16.68009735595874
 30
0.0
 40
3.0
 50
149.9999973439411
 51
191.8103036688788
  0
ARC
  5
377
  8
0
  6
CONTINUOUS
 62
     3
 10
225.6855351201872
 20
-18.8105065966814
 30
0.0
 40
1.0
 50
258.1948624586119
 51
309.2845237710509
  0
ARC
  5
378
  8
0
  6
CONTINUOUS
 62
     3
 10
228.6855351201872
 20
-13.61435486328296
 30
0.0
 40
1.0
 50
350.7154404083511
 51
401.8050914755064
  0
ARC
  5
379
  8
0
  6
CONTINUOUS
 62
     3
 10
225.6855351201872
 20
-18.8105065966814
 30
0.0
 40
1.0
 50
350.7154404083511
 51
419.9999743488954
  0
ARC
  5
37A
  8
0
  6
CONTINUOUS
 62
     3
 10
224.766040491281
 20
-18.2796228076189
 30
0.0
 40
1.0
 50
59.99997434889543
 51
221.8082349563863
  0
ARC
  5
37B
  8
0
  6
CONTINUOUS
 62
     3
 10
231.6329228154997
 20
-18.78010345947437
 30
0.0
 40
3.299999952316284
 50
59.99997434889543
 51
77.63967554088372
  0
ARC
  5
37C
  8
0
  6
CONTINUOUS
 62
     3
 10
227.766040491281
 20
-13.08347107422046
 30
0.0
 40
1.0
 50
78.19889727917851
 51
239.9999793578518
  0
ARC
  5
37D
  8
0
  6
CONTINUOUS
 62
     3
 10
232.4485356084685
 20
-12.55837418090992
 30
0.0
 40
3.0
 50
203.2379924343412
 51
267.8898173816356
  0
ARC
  5
37E
  8
0
  6
CONTINUOUS
 62
     3
 10
231.6329228154997
 20
-18.78010345947437
 30
0.0
 40
3.299999952316284
 50
222.3602818083292
 51
239.9999693399391
  0
ARC
  5
37F
  8
0
  6
CONTINUOUS
 62
     3
 10
226.652515100656
 20
-22.59730698120288
 30
0.0
 40
3.0
 50
32.10685123149195
 51
96.76196491487166
  0
ARC
  5
380
  8
0
  6
CONTINUOUS
 62
     3
 10
227.9955937139372
 20
-16.68009735595874
 30
0.0
 40
3.0
 50
108.1896705284359
 51
149.9999700231844
  0
LINE
  5
381
  8
0
  6
CONTINUOUS
 62
     3
 10
16.87228223746655
 20
-28.83441900844309
 30
0.0
 11
24.87228223746655
 21
-42.69082546899409
 31
0.0
  0
LINE
  5
382
  8
0
  6
CONTINUOUS
 62
     3
 10
-4.912327453359978
 20
-39.1023682008742
 30
0.0
 11
5.087672546640022
 21
-56.42287627656299
 31
0.0
  0
LINE
  5
383
  8
0
  6
CONTINUOUS
 62
     3
 10
-28.5318736347254
 20
-41.19211416302983
 30
0.0
 11
-8.5318736347254
 21
-75.8331303144073
 31
0.0
  0
LINE
  5
384
  8
0
  6
CONTINUOUS
 62
     3
 10
9.649850373131073
 20
-50.32480006520967
 30
0.0
 11
11.14985037313107
 21
-52.92287627656299
 31
0.0
  0
LINE
  5
385
  8
0
  6
CONTINUOUS
 62
     3
 10
16.5780536034066
 20
-46.32480006520967
 30
0.0
 11
23.0780536034066
 21
-57.58313031440736
 31
0.0
  0
LINE
  5
386
  8
0
  6
CONTINUOUS
 62
     3
 10
-3.796302049575559
 20
-39.03538090276641
 30
0.0
 11
5.703697950424441
 21
-55.48986357467078
 31
0.0
  0
LINE
  5
387
  8
0
  6
CONTINUOUS
 62
     3
 10
25.53253957893566
 20
-23.83441710109446
 30
0.0
 11
33.53253957893566
 21
-37.69082356164546
 31
0.0
  0
ARC
  5
388
  8
0
  6
CONTINUOUS
 62
     3
 10
-6.840557112633405
 20
-51.76263749750768
 30
0.0
 40
8.0
 50
119.9999949910437
 51
300.0
  0
LINE
  5
389
  8
0
  6
CONTINUOUS
 62
     3
 10
64.29862195604684
 20
-43.02200410354303
 30
0.0
 11
56.61209429934453
 21
-35.33547644684072
 31
0.0
  0
ARC
  5
38A
  8
0
  6
CONTINUOUS
 62
     3
 10
140.9598271123747
 20
33.5699865673811
 30
0.0
 40
107.5
 50
220.72215655855
 51
319.2778486777775
  0
ARC
  5
38B
  8
0
  6
CONTINUOUS
 62
     3
 10
140.9598271123747
 20
33.5699865673811
 30
0.0
 40
105.5
 50
220.9278955167291
 51
319.0721063045037
  0
LINE
  5
38C
  8
0
  6
CONTINUOUS
 62
     3
 10
64.2986677379823
 20
-43.02205199236451
 30
0.0
 11
65.07557459673151
 21
-42.57350471549377
 31
0.0
  0
LINE
  5
38D
  8
0
  6
CONTINUOUS
 62
     3
 10
54.88990561470746
 20
36.64743494151436
 30
0.0
 11
60.58990239518624
 21
36.64743641387702
 31
0.0
  0
LINE
  5
38E
  8
0
  6
CONTINUOUS
 62
     3
 10
60.58989661522031
 20
36.64749494010435
 30
0.0
 11
63.43990478350622
 21
31.71114075902955
 31
0.0
  0
LINE
  5
38F
  8
0
  6
CONTINUOUS
 62
     3
 10
63.4398731928562
 20
31.71113438138634
 30
0.0
 11
60.5898706301837
 21
26.77477712945981
 31
0.0
  0
LINE
  5
390
  8
0
  6
CONTINUOUS
 62
     3
 10
60.58991794128855
 20
26.77475370249398
 30
0.0
 11
54.88990556837211
 21
26.7747514490356
 31
0.0
  0
LINE
  5
391
  8
0
  6
CONTINUOUS
 62
     3
 10
54.88988986761234
 20
26.77481284229197
 30
0.0
 11
52.03991345577566
 21
31.7111148806335
 31
0.0
  0
LINE
  5
392
  8
0
  6
CONTINUOUS
 62
     3
 10
52.03992172875798
 20
31.71109263417544
 30
0.0
 11
54.88992695169424
 21
36.647448675862
 31
0.0
  0
CIRCLE
  5
393
  8
0
  6
CONTINUOUS
 62
     3
 10
57.7399188473579
 20
31.7110958836114
 30
0.0
 40
3.299999952316284
  0
CIRCLE
  5
394
  8
0
  6
CONTINUOUS
 62
     3
 10
57.7399188473579
 20
31.7110958836114
 30
0.0
 40
2.400000095367431
  0
CIRCLE
  5
395
  8
0
  6
CONTINUOUS
 62
     3
 10
57.7399188473579
 20
31.7110958836114
 30
0.0
 40
0.7499999999999999
  0
CIRCLE
  5
396
  8
0
  6
CONTINUOUS
 62
     3
 10
57.7399188473579
 20
31.7110958836114
 30
0.0
 40
8.999999999999998
  0
LINE
  5
397
  8
0
  6
CONTINUOUS
 62
     3
 10
-188.6643082071696
 20
-2.929980621505223
 30
0.0
 11
-188.1642892580294
 21
-3.429984313140579
 31
0.0
  0
LINE
  5
398
  8
0
  6
CONTINUOUS
 62
     3
 10
-135.1643349906462
 20
-3.430013432618893
 30
0.0
 11
-134.6643252446167
 21
-2.929999851136785
 31
0.0
  0
LINE
  5
399
  8
0
  6
CONTINUOUS
 62
     3
 10
-138.6643094491974
 20
64.56998656738109
 30
0.0
 11
-138.6643094491974
 21
58.56998656738109
 31
0.0
  0
LINE
  5
39A
  8
0
  6
CONTINUOUS
 62
     3
 10
-143.6643094491974
 20
58.56998656738109
 30
0.0
 11
-134.6643094491974
 21
58.56998656738109
 31
0.0
  0
LINE
  5
39B
  8
0
  6
CONTINUOUS
 62
     3
 10
-143.6643094491974
 20
64.56998656738109
 30
0.0
 11
-134.6643094491974
 21
64.56998656738109
 31
0.0
  0
LINE
  5
39C
  8
0
  6
DASHED2
 62
     7
 10
-105.5713209848419
 20
137.6360113476546
 30
0.0
 11
-105.5713209848419
 21
134.4751684521468
 31
0.0
  0
LINE
  5
39D
  8
0
  6
DASHED2
 62
     7
 10
-107.5713502775635
 20
139.6360090138512
 30
0.0
 11
-105.5713265751984
 21
137.6359853114861
 31
0.0
  0
LINE
  5
39E
  8
0
  6
DASHED2
 62
     7
 10
-119.5713209848419
 20
139.6360113476546
 30
0.0
 11
-107.5713209848419
 21
139.6360113476546
 31
0.0
  0
LINE
  5
39F
  8
0
  6
DASHED2
 62
     7
 10
-46.10963666039465
 20
-25.93722853330792
 30
0.0
 11
-35.20730957278148
 21
-19.64276705448106
 31
0.0
  0
LINE
  5
3A0
  8
0
  6
DASHED2
 62
     7
 10
-44.48107454214495
 20
-29.61577990946137
 30
0.0
 11
-33.20731310345173
 21
-23.10687070805227
 31
0.0
  0
LINE
  5
3A1
  8
0
  6
DASHED2
 62
     7
 10
-31.88188464003645
 20
-23.87210214425136
 30
0.0
 11
-35.20733162344994
 21
-18.11225901110265
 31
0.0
  0
LINE
  5
3A2
  8
0
  6
DASHED2
 62
     7
 10
-33.2072613844556
 20
-23.10683196958462
 30
0.0
 11
-35.20726513954811
 21
-19.64272385043591
 31
0.0
  0
LINE
  5
3A3
  8
0
  6
DASHED2
 62
     7
 10
-35.20730923811073
 20
-19.64276763414779
 30
0.0
 11
-35.20730922621591
 21
-18.11225775163251
 31
0.0
  0
LINE
  5
3A4
  8
0
  6
DASHED2
 62
     7
 10
-33.20731280631572
 20
-23.1068712227069
 30
0.0
 11
-31.88185236136696
 21
-23.87212615366332
 31
0.0
  0
LINE
  5
3A5
  8
0
  6
DASHED2
 62
     7
 10
-35.20731026848456
 20
-18.11227311080472
 30
0.0
 11
-30.87718998585951
 21
-15.61227700000768
 31
0.0
  0
LINE
  5
3A6
  8
0
  6
DASHED2
 62
     7
 10
2.953717772172922
 20
-50.72671240976456
 30
0.0
 11
15.9440856144405
 21
-43.22672003915909
 31
0.0
  0
LINE
  5
3A7
  8
0
  6
DASHED2
 62
     7
 10
-1.546282227827078
 20
-42.93248377570461
 30
0.0
 11
11.4440856144405
 21
-35.43249140509914
 31
0.0
  0
LINE
  5
3A8
  8
0
  6
DASHED2
 62
     7
 10
1.051774161777757
 20
-41.43249521979641
 30
0.0
 11
6.051774161777757
 21
-50.09274925764078
 31
0.0
  0
LINE
  5
3A9
  8
0
  6
DASHED2
 62
     7
 10
-1.046282227827078
 20
-43.79850917948903
 30
0.0
 11
11.9440856144405
 21
-36.29851680888356
 31
0.0
  0
LINE
  5
3AA
  8
0
  6
DASHED2
 62
     7
 10
3.453717772172922
 20
-51.59273781354898
 30
0.0
 11
16.4440856144405
 21
-44.09274544294351
 31
0.0
  0
LINE
  5
3AB
  8
0
  6
DASHED2
 62
     7
 10
-19.90785666559095
 20
-6.537217712591824
 30
0.0
 11
-22.61201887458805
 21
-8.098466491888699
 31
0.0
  0
LINE
  5
3AC
  8
0
  6
DASHED2
 62
     7
 10
-15.87527573335343
 20
-14.13214330020446
 30
0.0
 11
-18.0509174492313
 21
-15.38825063052673
 31
0.0
  0
LINE
  5
3AD
  8
0
  6
DASHED2
 62
     7
 10
-18.7689219735878
 20
-9.12020099298786
 30
0.0
 11
-20.94456368946567
 21
-10.37630832331013
 31
0.0
  0
LINE
  5
3AE
  8
0
  6
DASHED2
 62
     7
 10
-18.90286305219195
 20
-7.400430529663877
 30
0.0
 11
-14.45288136273883
 21
-15.10802490854792
 31
0.0
  0
LINE
  5
3AF
  8
0
  6
DASHED2
 62
     7
 10
-14.32662573356596
 20
-6.726699969501281
 30
0.0
 11
-11.55620947380033
 21
-11.52520168953026
 31
0.0
  0
LINE
  5
3B0
  8
0
  6
DASHED2
 62
     7
 10
-13.73791760636085
 20
-5.746380822593322
 30
0.0
 11
-10.94965985476757
 21
-5.175805794449216
 31
0.0
  0
LINE
  5
3B1
  8
0
  6
DASHED2
 62
     7
 10
-10.43789411114273
 20
-11.46213578051402
 30
0.0
 11
-8.54962770433395
 21
-9.33271554107216
 31
0.0
  0
LINE
  5
3B2
  8
0
  6
DASHED2
 62
     7
 10
-14.2078444585597
 20
-16.40992845893277
 30
0.0
 11
-16.9120066675568
 21
-17.97117723822964
 31
0.0
  0
LINE
  5
3B3
  8
0
  6
DASHED2
 62
     7
 10
-13.73794407978154
 20
-5.746326503339615
 30
0.0
 11
-10.43795628681279
 21
-11.46207302511857
 31
0.0
  0
LINE
  5
3B4
  8
0
  6
DASHED2
 62
     7
 10
-10.94965931818263
 20
-5.175768221125564
 30
0.0
 11
-8.549665421698258
 21
-9.332679587691699
 31
0.0
  0
LINE
  5
3B5
  8
0
  6
DASHED2
 62
     7
 10
-22.68028291751603
 20
-4.327381074263142
 30
0.0
 11
-10.55593387178335
 21
2.672615111039592
 31
0.0
  0
LINE
  5
3B6
  8
0
  6
DASHED2
 62
     7
 10
-13.68028291751603
 20
-19.91583834238304
 30
0.0
 11
-1.555933871783346
 21
-12.9158421570803
 31
0.0
  0
ARC
  5
3B7
  8
0
  6
DASHED2
 62
     7
 10
-20.63491385976085
 20
-8.400430529663877
 30
0.0
 40
2.0
 50
171.317810121285
 51
210.0000025044782
  0
ARC
  5
3B8
  8
0
  6
DASHED2
 62
     7
 10
-10.35589937572826
 20
-7.604199764229064
 30
0.0
 40
1.5
 50
327.8181533672117
 51
452.1818467464739
  0
ARC
  5
3B9
  8
0
  6
DASHED2
 62
     7
 10
-8.842502972290284
 20
-16.89186106291317
 30
0.0
 40
5.649999618530273
 50
115.991093037421
 51
165.059253143289
  0
ARC
  5
3BA
  8
0
  6
DASHED2
 62
     7
 10
-17.64252128283716
 20
-1.649782241509568
 30
0.0
 40
5.649999618530273
 50
254.9407452628493
 51
304.008906222491
  0
ARC
  5
3BB
  8
0
  6
DASHED2
 62
     7
 10
-16.18493217030773
 20
-16.10802490854792
 30
0.0
 40
2.0
 50
210.0000025044782
 51
248.6821846423876
  0
ARC
  5
3BC
  8
0
  6
DASHED2
 62
     7
 10
-16.18493217030773
 20
-16.10802490854792
 30
0.0
 40
2.0
 50
351.3178426783691
 51
441.0931422044376
  0
ARC
  5
3BD
  8
0
  6
DASHED2
 62
     7
 10
-20.63491385976085
 20
-8.400430529663877
 30
0.0
 40
2.0
 50
338.9068835224574
 51
428.6821693881475
  0
ARC
  5
3BE
  8
0
  6
DASHED2
 62
     7
 10
-20.63491385976085
 20
-8.400430529663877
 30
0.0
 40
2.0
 50
210.0000025044782
 51
261.093171119056
  0
ARC
  5
3BF
  8
0
  6
DASHED2
 62
     7
 10
-14.94583005143614
 20
-10.2541974754107
 30
0.0
 40
6.0
 50
210.0000025044782
 51
238.8342403121447
  0
ARC
  5
3C0
  8
0
  6
DASHED2
 62
     7
 10
-21.87403988896109
 20
-14.25420129010797
 30
0.0
 40
6.0
 50
1.165787008611907
 51
58.83422847299929
  0
ARC
  5
3C1
  8
0
  6
DASHED2
 62
     7
 10
-14.94583005143614
 20
-10.2541974754107
 30
0.0
 40
6.0
 50
181.1657646968116
 51
210.0000025044782
  0
ARC
  5
3C2
  8
0
  6
DASHED2
 62
     7
 10
-16.18493217030773
 20
-16.10802490854792
 30
0.0
 40
2.0
 50
158.9068338899003
 51
210.0000025044782
  0
ARC
  5
3C3
  8
0
  6
DASHED2
 62
     7
 10
-12.08795018329716
 20
-8.604199764229064
 30
0.0
 40
3.299999952316284
 50
283.4828180863029
 51
299.9999776881996
  0
ARC
  5
3C4
  8
0
  6
DASHED2
 62
     7
 10
-12.08795018329716
 20
-8.604199764229064
 30
0.0
 40
3.299999952316284
 50
120.0000179901276
 51
136.5171783849169
  0
LINE
  5
3C5
  8
0
  6
DASHED2
 62
     7
 10
-27.55173268830328
 20
-21.37212234343974
 30
0.0
 11
-18.80420786961845
 21
-16.52329012667042
 31
0.0
  0
LINE
  5
3C6
  8
0
  6
DASHED2
 62
     7
 10
-22.6803071064714
 20
-4.327368920480749
 30
0.0
 11
-22.6803071064714
 21
-9.809706707843189
 31
0.0
  0
LINE
  5
3C7
  8
0
  6
DASHED2
 62
     7
 10
-22.70423075433985
 20
-9.768269734232716
 30
0.0
 11
-18.42812828249266
 21
-17.17469647384286
 31
0.0
  0
LINE
  5
3C8
  8
0
  6
DASHED2
 62
     7
 10
-27.15174514706747
 20
-22.06494406606896
 30
0.0
 11
-18.40421031915458
 21
-17.21610630109387
 31
0.0
  0
LINE
  5
3C9
  8
0
  6
DASHED2
 62
     7
 10
-13.6803073746923
 20
-19.91585215302553
 30
0.0
 11
-18.42812828249266
 21
-17.17469647384286
 31
0.0
  0
LINE
  5
3CA
  8
0
  6
DASHED2
 62
     7
 10
-13.6803073746923
 20
-19.91582572402842
 30
0.0
 11
-15.33028969297477
 21
-17.05797251717291
 31
0.0
  0
LINE
  5
3CB
  8
0
  6
DASHED2
 62
     7
 10
-21.03030190000602
 20
-7.18526177083197
 30
0.0
 11
-22.6803071064714
 21
-4.327368920480749
 31
0.0
  0
LINE
  5
3CC
  8
0
  6
DASHED2
 62
     7
 10
-15.87533877788872
 20
-78.05215594943365
 30
0.0
 11
-9.4068736347254
 21
-74.31758585778459
 31
0.0
  0
LINE
  5
3CD
  8
0
  6
DASHED2
 62
     7
 10
91.97212716791475
 20
-23.58070785799156
 30
0.0
 11
97.16827959062138
 21
-20.58070785799156
 31
0.0
  0
ARC
  5
3CE
  8
0
  6
DASHED2
 62
     7
 10
74.15149004017275
 20
-32.71447382408454
 30
0.0
 40
1.5
 50
120.0
 51
299.9999999999999
  0
CIRCLE
  5
3CF
  8
0
  6
DASHED2
 62
     7
 10
78.04861020306979
 20
-30.4644704489716
 30
0.0
 40
1.5
  0
LINE
  5
3D0
  8
0
  6
DASHED2
 62
     7
 10
74.90149004017275
 20
-34.0135119297612
 30
0.0
 11
83.12873782567176
 21
-29.26350820611359
 31
0.0
  0
LINE
  5
3D1
  8
0
  6
DASHED2
 62
     7
 10
82.37886042817814
 20
-27.96468245420712
 30
0.0
 11
106.6275717341425
 21
-13.96468245420711
 31
0.0
  0
LINE
  5
3D2
  8
0
  6
DASHED2
 62
     7
 10
91.97212716791475
 20
-23.58070785799156
 30
0.0
 11
97.16827959062138
 21
-20.58070785799156
 31
0.0
  0
LINE
  5
3D3
  8
0
  6
DASHED2
 62
     7
 10
73.40149004017275
 20
-31.41543571840789
 30
0.0
 11
115.8367348256102
 21
-6.915435718407885
 31
0.0
  0
LINE
  5
3D4
  8
0
  6
DASHED2
 62
     7
 10
107.3774491316361
 20
-15.26350820611359
 30
0.0
 11
117.3367348256102
 21
-9.513511929761201
 31
0.0
  0
CIRCLE
  5
3D5
  8
0
  6
DASHED2
 62
     7
 10
112.6896205085802
 20
-10.46447382408454
 30
0.0
 40
1.5
  0
ARC
  5
3D6
  8
0
  6
DASHED2
 62
     7
 10
116.5867348256102
 20
-8.214473824084543
 30
0.0
 40
1.5
 50
300.0000000000011
 51
479.9999999999999
  0
LINE
  5
3D7
  8
0
  6
DASHED2
 62
     7
 10
50.90177461858175
 20
7.555214547628744
 30
0.0
 11
93.33701940401929
 21
32.05521454762876
 31
0.0
  0
CIRCLE
  5
3D8
  8
0
  6
DASHED2
 62
     7
 10
88.68990508698929
 20
31.10425265330539
 30
0.0
 40
1.5
  0
LINE
  5
3D9
  8
0
  6
DASHED2
 62
     7
 10
74.08350447230535
 20
24.403294134095
 30
0.0
 11
91.83701940401929
 21
34.65329075898207
 31
0.0
  0
ARC
  5
3DA
  8
0
  6
DASHED2
 62
     7
 10
92.58701940401923
 20
33.35425265330539
 30
0.0
 40
1.5
 50
300.0000000000011
 51
479.9999999999989
  0
LINE
  5
3DB
  8
0
  6
DASHED2
 62
     7
 10
49.40177461858175
 20
10.15329075898206
 30
0.0
 11
74.08350447230535
 21
24.403294134095
 31
0.0
  0
CIRCLE
  5
3DC
  8
0
  6
DASHED2
 62
     7
 10
54.04889478147882
 20
11.10425602841834
 30
0.0
 40
1.5
  0
ARC
  5
3DD
  8
0
  6
DASHED2
 62
     7
 10
50.15177461858175
 20
8.854252653305402
 30
0.0
 40
1.5
 50
120.0
 51
299.9999999999999
  0
LINE
  5
3DE
  8
0
  6
DASHED2
 62
     7
 10
125.0818968930588
 20
-7.928693683632254
 30
0.0
 11
122.6144591489182
 21
-3.654966146267562
 31
0.0
  0
LINE
  5
3DF
  8
0
  6
DASHED2
 62
     7
 10
65.07547820117708
 20
-42.57341566849555
 30
0.0
 11
134.0134148619111
 21
-2.772079380043387
 31
0.0
  0
LINE
  5
3E0
  8
0
  6
DASHED2
 62
     7
 10
37.07547820117711
 20
5.924006943433007
 30
0.0
 11
106.0134082546617
 21
45.7253394171879
 31
0.0
  0
LINE
  5
3E1
  8
0
  6
DASHED2
 62
     7
 10
99.54933463719945
 20
36.29500139093161
 30
0.0
 11
97.08189689305883
 21
40.5687289282963
 31
0.0
  0
ARC
  5
3E2
  8
0
  6
DASHED2
 62
     7
 10
140.959773323622
 20
33.57001762233204
 30
0.0
 40
41.49999999999999
 50
176.235119436871
 51
181.1886253399636
  0
ARC
  5
3E3
  8
0
  6
DASHED2
 62
     7
 10
140.959773323622
 20
33.57001762233204
 30
0.0
 40
41.49999999999999
 50
238.7100947937906
 51
243.7648855720853
  0
LINE
  5
3E4
  8
0
  6
DASHED2
 62
     7
 10
9.48959633528672
 20
-70.04723192954518
 30
0.0
 11
11.48959633528673
 21
-73.51133354468294
 31
0.0
  0
LINE
  5
3E5
  8
0
  6
DASHED2
 62
     7
 10
2.994405806903423
 20
-73.79723192954518
 30
0.0
 11
4.994405806903442
 21
-77.26133354468294
 31
0.0
  0
LINE
  5
3E6
  8
0
  6
DASHED2
 62
     7
 10
2.994405806903423
 20
-73.79723192954518
 30
0.0
 11
9.48959633528672
 21
-70.04723192954518
 31
0.0
  0
LINE
  5
3E7
  8
0
  6
DASHED2
 62
     7
 10
4.14396243213551
 20
-74.28832241062442
 30
0.0
 11
9.340114854842142
 21
-71.28832241062442
 31
0.0
  0
LINE
  5
3E8
  8
0
  6
DASHED2
 62
     7
 10
4.14396243213551
 20
-74.28832241062442
 30
0.0
 11
9.340114854842142
 21
-71.28832241062442
 31
0.0
  0
LINE
  5
3E9
  8
0
  6
DASHED2
 62
     7
 10
235.7109445875524
 20
84.34861290526409
 30
0.0
 11
217.570985914492
 21
73.8755040393733
 31
0.0
  0
LINE
  5
3EA
  8
0
  6
DASHED2
 62
     7
 10
236.010944562694
 20
83.82899764864139
 30
0.0
 11
222.201113028156
 21
75.85588857559698
 31
0.0
  0
LINE
  5
3EB
  8
0
  6
DASHED2
 62
     7
 10
232.310944245721
 20
90.23758545364181
 30
0.0
 11
214.170986196221
 21
79.76447694776373
 31
0.0
  0
LINE
  5
3EC
  8
0
  6
DASHED2
 62
     7
 10
232.0109442705795
 20
90.75720071026451
 30
0.0
 11
218.2011133596017
 21
82.78409199723278
 31
0.0
  0
LINE
  5
3ED
  8
0
  6
DASHED2
 62
     7
 10
222.201113028156
 20
75.85588857559698
 30
0.0
 11
218.2011133596017
 21
82.78409199723278
 31
0.0
  0
LINE
  5
3EE
  8
0
  6
DASHED2
 62
     7
 10
217.570985914492
 20
73.8755040393733
 30
0.0
 11
214.170986196221
 21
79.76447694776373
 31
0.0
  0
LINE
  5
3EF
  8
0
  6
DASHED2
 62
     7
 10
214.170986196221
 20
79.76447694776373
 30
0.0
 11
214.170986196221
 21
75.83849522571178
 31
0.0
  0
LINE
  5
3F0
  8
0
  6
DASHED2
 62
     7
 10
217.570985914492
 20
73.8755040393733
 30
0.0
 11
214.1709861962209
 21
75.83849522571175
 31
0.0
  0
LINE
  5
3F1
  8
0
  6
DASHED2
 62
     7
 10
-30.87721710282529
 20
-15.61225453009319
 30
0.0
 11
-22.30423310803219
 21
-10.46108585365107
 31
0.0
  0
LINE
  5
3F2
  8
0
  6
DASHED2
 62
     7
 10
-31.27720493963182
 20
-14.91943251653168
 30
0.0
 11
-22.70423075433985
 21
-9.768269734232716
 31
0.0
  0
LINE
  5
3F3
  8
0
  6
DASHED2
 62
     7
 10
-27.1517491178824
 20
-22.06492986393755
 30
0.0
 11
-31.27719531451459
 21
-14.91944744747877
 31
0.0
  0
LINE
  5
3F4
  8
0
  6
DASHED2
 62
     7
 10
-31.88186328507107
 20
-23.87211624395354
 30
0.0
 11
-27.55174300244602
 21
-21.3721201331565
 31
0.0
  0
LINE
  5
3F5
  8
0
  6
DASHED2
 62
     7
 10
-40.24692014307124
 20
-49.97652536035594
 30
0.0
 11
-27.6568736347254
 21
-42.70765861965259
 31
0.0
  0
LINE
  5
3F6
  8
0
  6
DASHED2
 62
     7
 10
84.37886042817813
 20
-31.42878406934488
 30
0.0
 11
82.37886042817814
 21
-27.96468245420712
 31
0.0
  0
LINE
  5
3F7
  8
0
  6
DASHED2
 62
     7
 10
106.6274491316361
 20
-13.96447010043694
 30
0.0
 11
108.6275717341424
 21
-17.4287840693449
 31
0.0
  0
LINE
  5
3F8
  8
0
  6
CENTER
 62
     7
 10
4.242001071095057
 20
-68.45813031440738
 30
0.0
 11
23.23200826235383
 21
-101.3497876057658
 31
0.0
  0
LINE
  5
3F9
  8
0
  6
CENTER
 62
     7
 10
-209.8379835824981
 20
33.5699865673811
 30
0.0
 11
-102.6861270641905
 21
33.5699865673811
 31
0.0
  0
LINE
  5
3FA
  8
0
  6
CENTER
 62
     7
 10
-120.9114699106232
 20
121.0699941967757
 30
0.0
 11
-81.30521604004873
 21
121.0699941967757
 31
0.0
  0
LINE
  5
3FB
  8
0
  6
CENTER
 62
     7
 10
-120.9114699106232
 20
91.06998656738115
 30
0.0
 11
-81.30521604004873
 21
91.06998656738115
 31
0.0
  0
LINE
  5
3FC
  8
0
  6
CENTER
 62
     7
 10
-129.3230738463099
 20
-11.4300134326189
 30
0.0
 11
-103.0187087990272
 21
-11.4300134326189
 31
0.0
  0
LINE
  5
3FD
  8
0
  6
CENTER
 62
     7
 10
-225.1837477426544
 20
-33.10501648437671
 30
0.0
 11
-136.387806894885
 21
-33.10501648437671
 31
0.0
  0
LINE
  5
3FE
  8
0
  6
CENTER
 62
     7
 10
-152.5713209848419
 20
-47.57227112304859
 30
0.0
 11
-152.5713209848419
 21
-77.61026550781421
 31
0.0
  0
LINE
  5
3FF
  8
0
  6
CENTER
 62
     7
 10
-126.5713820199982
 20
115.2206798728429
 30
0.0
 11
-126.5713820199982
 21
143.8940832470686
 31
0.0
  0
LINE
  5
400
  8
0
  6
CENTER
 62
     7
 10
-11.37245932291312
 20
-43.91315261436958
 30
0.0
 11
-2.075437943028712
 21
-60.01606600338346
 31
0.0
  0
LINE
  5
401
  8
0
  6
CENTER
 62
     7
 10
44.41620697508949
 20
-22.16953190305274
 30
0.0
 11
140.9598961018079
 21
33.56998684460782
 31
0.0
  0
LINE
  5
402
  8
0
  6
CENTER
 62
     7
 10
128.8317753545622
 20
91.06998656738115
 30
0.0
 11
153.0189091436247
 21
91.06998656738115
 31
0.0
  0
LINE
  5
403
  8
0
  6
CENTER
 62
     7
 10
140.9598271123747
 20
145.2748815869124
 30
0.0
 11
140.9598271123747
 21
-76.620168120183
 31
0.0
  0
LINE
  5
404
  8
0
  6
CENTER
 62
     7
 10
27.400031467654
 20
33.5699865673811
 30
0.0
 11
254.1195859308877
 21
33.5699865673811
 31
0.0
  0
LINE
  5
405
  8
0
  6
CENTER
 62
     7
 10
128.8317753545622
 20
121.0699865673812
 30
0.0
 11
153.4028202764372
 21
121.0699865673812
 31
0.0
  0
LINE
  5
406
  8
0
  6
CENTER
 62
     7
 10
192.5045505970595
 20
106.5699865673812
 30
0.0
 11
169.6919438115935
 21
106.5699865673812
 31
0.0
  0
LINE
  5
407
  8
0
  6
CENTER
 62
     7
 10
113.9598271123748
 20
39.2290327404768
 30
0.0
 11
113.9598271123748
 21
27.5699865673811
 31
0.0
  0
LINE
  5
408
  8
0
  6
CENTER
 62
     7
 10
167.9598271123747
 20
39.2290327404768
 30
0.0
 11
167.9598271123747
 21
27.5699865673811
 31
0.0
  0
LINE
  5
409
  8
0
  6
CENTER
 62
     7
 10
97.22739628873271
 20
-5.683231284447494
 30
0.0
 11
85.13381413541239
 21
15.26346707465532
 31
0.0
  0
LINE
  5
40A
  8
0
  6
CENTER
 62
     7
 10
71.24663464150828
 20
-20.68323128444749
 30
0.0
 11
58.96109692178172
 21
0.595943862499233
 31
0.0
  0
LINE
  5
40B
  8
0
  6
CENTER
 62
     7
 10
96.34055474543456
 20
59.33098240738921
 30
0.0
 11
108.3883236324134
 21
52.37520056584584
 31
0.0
  0
LINE
  5
40C
  8
0
  6
CENTER
 62
     7
 10
119.8207792930363
 20
-45.32201741092681
 30
0.0
 11
127.5853514961956
 21
-16.34424302928924
 31
0.0
  0
LINE
  5
40D
  8
0
  6
CENTER
 62
     7
 10
154.3342732059325
 20
-16.34423711249324
 30
0.0
 11
162.0988454090918
 21
-45.32201149413081
 31
0.0
  0
LINE
  5
40E
  8
0
  6
CENTER
 62
     7
 10
190.3910798363024
 20
46.81504496824313
 30
0.0
 11
220.3347800306612
 21
54.83843439709712
 31
0.0
  0
LINE
  5
40F
  8
0
  6
CENTER
 62
     7
 10
61.58486138827468
 20
54.83842293135389
 30
0.0
 11
91.5285615826335
 21
46.8150335024999
 31
0.0
  0
LINE
  5
410
  8
0
  6
CENTER
 62
     7
 10
82.85331557324636
 20
91.67649405282073
 30
0.0
 11
104.7736272626232
 21
69.75618421118783
 31
0.0
  0
LINE
  5
411
  8
0
  6
CENTER
 62
     7
 10
177.1460393499553
 20
69.75616591945767
 30
0.0
 11
199.0663510393321
 21
91.67647576109057
 31
0.0
  0
LINE
  5
412
  8
0
  6
CENTER
 62
     7
 10
173.7011975486118
 20
52.4731839600769
 30
0.0
 11
238.8856645289909
 21
90.10744936027457
 31
0.0
  0
LINE
  5
413
  8
0
  6
CENTER
 62
     7
 10
240.1828937569196
 20
-23.71649204384662
 30
0.0
 11
140.9598146703763
 21
33.56997304747315
 31
0.0
  0
LINE
  5
414
  8
0
  6
CENTER
 62
     7
 10
180.9598271123747
 20
118.5204794262679
 30
0.0
 11
180.9598271123747
 21
94.69243834960771
 31
0.0
  0
LINE
  5
415
  8
0
  6
CENTER
 62
     7
 10
222.8010825308363
 20
0.323211534179471
 30
0.0
 11
210.5155295523206
 21
-20.9559900417647
 31
0.0
  0
LINE
  5
416
  8
0
  6
CENTER
 62
     7
 10
196.8203208836118
 20
15.32321153417947
 30
0.0
 11
184.7267387302915
 21
-5.62348682492334
 31
0.0
  0
ARC
  5
417
  8
0
  6
CENTER
 62
     7
 10
140.9598271123747
 20
33.5699865673811
 30
0.0
 40
66.67500305175781
 50
1.650218953478332
 51
28.34977761247949
  0
ARC
  5
418
  8
0
  6
CENTER
 62
     7
 10
140.9598271123747
 20
33.5699865673811
 30
0.0
 40
45.0
 50
139.2370808724834
 51
160.5020415702394
  0
ARC
  5
419
  8
0
  6
CENTER
 62
     7
 10
140.9598271123747
 20
33.5699865673811
 30
0.0
 40
66.67500305175781
 50
31.65021893453074
 51
58.34978015485284
  0
ARC
  5
41A
  8
0
  6
CENTER
 62
     7
 10
140.9598271123747
 20
33.5699865673811
 30
0.0
 40
66.67500305175781
 50
121.650245344671
 51
148.3497963197094
  0
ARC
  5
41B
  8
0
  6
CENTER
 62
     7
 10
140.9598271123747
 20
33.5699865673811
 30
0.0
 40
66.67500305175781
 50
151.6502393493079
 51
178.3498039847246
  0
ARC
  5
41C
  8
0
  6
CENTER
 62
     7
 10
140.9598271123747
 20
33.5699865673811
 30
0.0
 40
66.67500305175781
 50
242.0826989235511
 51
267.9172542515315
  0
ARC
  5
41D
  8
0
  6
CENTER
 62
     7
 10
140.9598271123747
 20
33.5699865673811
 30
0.0
 40
66.67500305175781
 50
272.0827270791338
 51
297.9172824071142
  0
ARC
  5
41E
  8
0
  6
CENTER
 62
     7
 10
140.9598271123747
 20
33.5699865673811
 30
0.0
 40
45.0
 50
258.5216391990728
 51
281.4783421315925
  0
ARC
  5
41F
  8
0
  6
CENTER
 62
     7
 10
140.9598271123747
 20
33.5699865673811
 30
0.0
 40
45.0
 50
19.61500726788161
 51
41.83039732638131
  0
LINE
  5
420
  8
0
  6
CENTER
 62
     7
 10
125.3401923929399
 20
-75.37589217800743
 30
0.0
 11
93.23737867223682
 21
-19.77218774783034
 31
0.0
  0
LINE
  5
421
  8
0
  6
CENTER
 62
     7
 10
100.2801650284904
 20
-31.97065154371453
 30
0.0
 11
93.23737867223682
 21
-19.77218774783034
 31
0.0
  0
LINE
  5
422
  8
0
  6
CENTER
 62
     7
 10
96.23181391862867
 20
106.5699865673812
 30
0.0
 11
56.84992613560307
 21
106.5699865673812
 31
0.0
  0
LINE
  5
423
  8
0
  6
CENTER
 62
     7
 10
51.96755710501552
 20
41.7091197010152
 30
0.0
 11
63.37386049774852
 21
21.95282269825638
 31
0.0
  0
LINE
  5
424
  8
0
  6
CENTER
 62
     7
 10
47.39048844381748
 20
25.73584945416804
 30
0.0
 11
68.02617733862428
 21
37.64986999249812
 31
0.0
  0
LINE
  5
425
  8
0
  6
CENTER
 62
     7
 10
-32.94970508441645
 20
-66.83676110732836
 30
0.0
 11
32.24681196139989
 21
-29.19553444070027
 31
0.0
  0
LINE
  5
426
  8
0
  6
CENTER
 62
     7
 10
-3.332542931741848
 20
-3.549263030678842
 30
0.0
 11
-47.27241415409879
 21
-28.91795950906408
 31
0.0
  0
LINE
  5
427
  8
0
  6
CENTER
 62
     7
 10
136.2561742914816
 20
61.57005717616875
 30
0.0
 11
145.1668614912442
 21
61.57005717616875
 31
0.0
  0
LINE
  5
428
  8
0
  6
CENTER
 62
     7
 10
119.0626854469674
 20
15.49662092511934
 30
0.0
 11
114.6073418470861
 21
23.21350240529059
 31
0.0
  0
LINE
  5
429
  8
0
  6
CENTER
 62
     7
 10
167.5601961022762
 20
23.64334093161039
 30
0.0
 11
163.1048525023949
 21
15.92645945143914
 31
0.0
  0
LINE
  5
42A
  8
0
  6
CENTER
 62
     7
 10
-146.4280423593536
 20
61.56998656738109
 30
0.0
 11
-131.9814328622833
 21
61.56998656738109
 31
0.0
  0
LINE
  5
42B
  8
0
  6
DASHED
 62
     7
 10
82.95982711237477
 20
114.5699865673812
 30
0.0
 11
94.54021041315602
 21
114.5699865673812
 31
0.0
  0
LINE
  5
42C
  8
0
  6
DASHED
 62
     7
 10
82.95982711237477
 20
98.56998656738115
 30
0.0
 11
94.54021041315602
 21
98.56998656738115
 31
0.0
  0
LINE
  5
42D
  8
0
  6
DASHED
 62
     7
 10
82.94588116954807
 20
109.9201319562578
 30
0.0
 11
89.71017070410787
 21
109.802060849551
 31
0.0
  0
LINE
  5
42E
  8
0
  6
DASHED
 62
     7
 10
82.94587432130581
 20
103.219879264951
 30
0.0
 11
89.66592010648535
 21
103.3371780941809
 31
0.0
  0
LINE
  5
42F
  8
0
  6
DASHED
 62
     7
 10
82.95982711237477
 20
124.0810356166547
 30
0.0
 11
82.95982711237477
 21
95.56998656738115
 31
0.0
  0
LINE
  5
430
  8
0
  6
DASHED
 62
     7
 10
53.14041012501372
 20
95.56998656738115
 30
0.0
 11
82.95982711237477
 21
95.56998656738115
 31
0.0
  0
LINE
  5
431
  8
0
  6
DASHED
 62
     7
 10
79.39854781549977
 20
100.869989619139
 30
0.0
 11
82.52110640924977
 21
100.869989619139
 31
0.0
  0
LINE
  5
432
  8
0
  6
DASHED
 62
     7
 10
79.39854781549977
 20
112.2699835156233
 30
0.0
 11
82.52110640924977
 21
112.2699835156233
 31
0.0
  0
LINE
  5
433
  8
0
  6
DASHED
 62
     7
 10
73.65980200315309
 20
103.2699095892619
 30
0.0
 11
70.95984139541972
 21
104.1698963454162
 31
0.0
  0
LINE
  5
434
  8
0
  6
DASHED
 62
     7
 10
73.65985534480953
 20
109.8699153209966
 30
0.0
 11
70.9598368340414
 21
108.9699092638332
 31
0.0
  0
LINE
  5
435
  8
0
  6
DASHED
 62
     7
 10
74.65983931940602
 20
109.315317377928
 30
0.0
 11
74.65983931940602
 21
103.7745077465804
 31
0.0
  0
LINE
  5
436
  8
0
  6
DASHED
 62
     7
 10
78.95982711237477
 20
111.0199835156233
 30
0.0
 11
78.95982711237477
 21
102.119989619139
 31
0.0
  0
LINE
  5
437
  8
0
  6
DASHED
 62
     7
 10
79.70372359674977
 20
109.4636480664046
 30
0.0
 11
82.21593062799977
 21
109.4636480664046
 31
0.0
  0
LINE
  5
438
  8
0
  6
DASHED
 62
     7
 10
79.70372359674977
 20
103.6763250683577
 30
0.0
 11
82.21593062799977
 21
103.6763250683577
 31
0.0
  0
LINE
  5
439
  8
0
  6
DASHED
 62
     7
 10
73.65983931940602
 20
109.869989619139
 30
0.0
 11
73.65983931940602
 21
103.2699835156233
 31
0.0
  0
LINE
  5
43A
  8
0
  6
DASHED
 62
     7
 10
82.95983629917882
 20
102.4199980455519
 30
0.0
 11
89.67988208435835
 21
102.5372968747817
 31
0.0
  0
LINE
  5
43B
  8
0
  6
DASHED
 62
     7
 10
82.95984314742108
 20
110.7200131756569
 30
0.0
 11
89.72413268198088
 21
110.6019420689501
 31
0.0
  0
LINE
  5
43C
  8
0
  6
DASHED
 62
     7
 10
70.95982711237477
 20
108.9699880932601
 30
0.0
 11
70.95982711237477
 21
104.1699850415022
 31
0.0
  0
ARC
  5
43D
  8
0
  6
DASHED
 62
     7
 10
73.65983931940602
 20
106.5699865673812
 30
0.0
 40
3.299999952316284
 50
73.48282241201396
 51
89.99998201391065
  0
ARC
  5
43E
  8
0
  6
DASHED
 62
     7
 10
73.65983931940602
 20
106.5699865673812
 30
0.0
 40
3.299999952316284
 50
270.0000179860894
 51
286.5171775879861
  0
ARC
  5
43F
  8
0
  6
DASHED
 62
     7
 10
80.95982711237477
 20
102.119989619139
 30
0.0
 40
2.0
 50
0.0
 51
51.09316519948327
  0
ARC
  5
440
  8
0
  6
DASHED
 62
     7
 10
76.95982711237477
 20
106.5699865673812
 30
0.0
 40
6.0
 50
0.0
 51
28.83423780766662
  0
ARC
  5
441
  8
0
  6
DASHED
 62
     7
 10
84.95982711237477
 20
106.5699865673812
 30
0.0
 40
6.0
 50
151.1657740314789
 51
208.8342086656771
  0
ARC
  5
442
  8
0
  6
DASHED
 62
     7
 10
76.95982711237477
 20
106.5699865673812
 30
0.0
 40
6.0
 50
331.1657621923334
 51
360.0
  0
ARC
  5
443
  8
0
  6
DASHED
 62
     7
 10
80.95982711237477
 20
111.0199835156233
 30
0.0
 40
2.0
 50
308.9068348005167
 51
360.0
  0
ARC
  5
444
  8
0
  6
DASHED
 62
     7
 10
80.95982711237477
 20
111.0199835156233
 30
0.0
 40
2.0
 50
141.3178297012361
 51
231.0931121518317
  0
ARC
  5
445
  8
0
  6
DASHED
 62
     7
 10
80.95982711237477
 20
102.119989619139
 30
0.0
 40
2.0
 50
128.906856884946
 51
218.6821529959199
  0
ARC
  5
446
  8
0
  6
DASHED
 62
     7
 10
80.95982711237477
 20
102.119989619139
 30
0.0
 40
2.0
 50
321.3178110319014
 51
360.0
  0
ARC
  5
447
  8
0
  6
DASHED
 62
     7
 10
74.99303023737477
 20
115.369989619139
 30
0.0
 40
5.650000095367432
 50
265.9910930942637
 51
315.0592540539054
  0
ARC
  5
448
  8
0
  6
DASHED
 62
     7
 10
74.99303023737477
 20
97.76998351562334
 30
0.0
 40
5.650000095367432
 50
44.94074594609464
 51
94.00890690573628
  0
ARC
  5
449
  8
0
  6
DASHED
 62
     7
 10
71.65983931940602
 20
106.5699865673812
 30
0.0
 40
1.5
 50
117.818154050457
 51
242.1818423070773
  0
ARC
  5
44A
  8
0
  6
DASHED
 62
     7
 10
80.95982711237477
 20
111.0199835156233
 30
0.0
 40
2.0
 50
0.0
 51
38.68218896809859
  0
LINE
  5
44B
  8
0
  6
DASHED2
 62
     7
 10
104.0391144660225
 20
-45.48134295260253
 30
0.0
 11
102.5391144660225
 21
-42.88326674124921
 31
0.0
  0
LINE
  5
44C
  8
0
  6
DASHED2
 62
     7
 10
102.5391144660225
 20
-42.88326674124921
 30
0.0
 11
102.9721271679148
 21
-42.63326674124921
 31
0.0
  0
LINE
  5
44D
  8
0
  6
DASHED2
 62
     7
 10
105.7400763603459
 20
-51.42749537530916
 30
0.0
 11
102.7400763603459
 21
-46.23134295260253
 31
0.0
  0
LINE
  5
44E
  8
0
  6
DASHED2
 62
     7
 10
104.4721271679148
 20
-45.23134295260253
 30
0.0
 11
91.97212716791475
 21
-23.58070785799156
 31
0.0
  0
LINE
  5
44F
  8
0
  6
DASHED2
 62
     7
 10
108.975456624694
 20
-42.63134447848143
 30
0.0
 11
96.47545662469403
 21
-20.98070938387047
 31
0.0
  0
LINE
  5
450
  8
0
  6
DASHED2
 62
     7
 10
109.6682795906214
 20
-42.23134295260253
 30
0.0
 11
97.16827959062138
 21
-20.58070785799156
 31
0.0
  0
LINE
  5
451
  8
0
  6
DASHED2
 62
     7
 10
130.5654903168793
 20
-73.42637366695466
 30
0.0
 11
111.8333431000825
 21
-40.98134295260253
 31
0.0
  0
LINE
  5
452
  8
0
  6
DASHED2
 62
     7
 10
116.530788023688
 20
-71.11755622604386
 30
0.0
 11
102.3070636584536
 21
-46.48134295260253
 31
0.0
  0
LINE
  5
453
  8
0
  6
DASHED2
 62
     7
 10
105.7400763603459
 20
-51.42749537530916
 30
0.0
 11
114.4003303981903
 21
-46.42749537530916
 31
0.0
  0
LINE
  5
454
  8
0
  6
DASHED2
 62
     7
 10
114.4003303981903
 20
-46.42749537530916
 30
0.0
 11
111.4003303981903
 21
-41.23134295260253
 31
0.0
  0
LINE
  5
455
  8
0
  6
DASHED2
 62
     7
 10
105.1649501338421
 20
-44.83134142672361
 30
0.0
 11
92.6649501338421
 21
-23.18070633211266
 31
0.0
  0
LINE
  5
456
  8
0
  6
DASHED2
 62
     7
 10
102.3070636584536
 20
-46.48134295260253
 30
0.0
 11
111.8333431000825
 21
-40.98134295260253
 31
0.0
  0
LINE
  5
457
  8
0
  6
DASHED2
 62
     7
 10
16.2109497302433
 20
-96.18895750523538
 30
0.0
 11
14.7109497302433
 21
-93.59088129388206
 31
0.0
  0
LINE
  5
458
  8
0
  6
DASHED2
 62
     7
 10
14.7109497302433
 20
-93.59088129388206
 30
0.0
 11
15.14396243213551
 21
-93.34088129388206
 31
0.0
  0
LINE
  5
459
  8
0
  6
DASHED2
 62
     7
 10
14.47889892267439
 20
-97.18895750523539
 30
0.0
 11
24.00517836430323
 21
-91.68895750523539
 31
0.0
  0
LINE
  5
45A
  8
0
  6
DASHED2
 62
     7
 10
17.91191162456661
 20
-102.135109927942
 30
0.0
 11
14.91191162456661
 21
-96.93895750523538
 31
0.0
  0
LINE
  5
45B
  8
0
  6
DASHED2
 62
     7
 10
16.64396243213551
 20
-95.93895750523538
 30
0.0
 11
4.14396243213551
 21
-74.28832241062442
 31
0.0
  0
LINE
  5
45C
  8
0
  6
DASHED2
 62
     7
 10
21.14729188891479
 20
-93.33895903111429
 30
0.0
 11
8.647291888914793
 21
-71.68832393650332
 31
0.0
  0
LINE
  5
45D
  8
0
  6
DASHED2
 62
     7
 10
21.84011485484214
 20
-92.93895750523538
 30
0.0
 11
9.340114854842142
 21
-71.28832241062442
 31
0.0
  0
LINE
  5
45E
  8
0
  6
DASHED2
 62
     7
 10
27.92288197170813
 20
-98.47461920225656
 30
0.0
 11
24.00517836430323
 21
-91.68895750523539
 31
0.0
  0
LINE
  5
45F
  8
0
  6
DASHED2
 62
     7
 10
18.39660253007931
 20
-103.9746192022566
 30
0.0
 11
14.4788989226744
 21
-97.18895750523538
 31
0.0
  0
LINE
  5
460
  8
0
  6
DASHED2
 62
     7
 10
17.91191162456661
 20
-102.135109927942
 30
0.0
 11
26.57216566241102
 21
-97.13510992794201
 31
0.0
  0
LINE
  5
461
  8
0
  6
DASHED2
 62
     7
 10
26.57216566241102
 20
-97.13510992794201
 30
0.0
 11
23.57216566241101
 21
-91.93895750523538
 31
0.0
  0
LINE
  5
462
  8
0
  6
DASHED2
 62
     7
 10
17.33678539806286
 20
-95.53895597935647
 30
0.0
 11
4.836785398062858
 21
-73.88832088474551
 31
0.0
  0
LINE
  5
463
  8
0
  6
DASHED2
 62
     7
 10
110.1012922925136
 20
-41.98134295260256
 30
0.0
 11
108.6012922925136
 21
-39.38326674124923
 31
0.0
  0
LINE
  5
464
  8
0
  6
DASHED2
 62
     7
 10
108.6012922925136
 20
-39.38326674124923
 30
0.0
 11
108.1682795906214
 21
-39.63326674124923
 31
0.0
  0
LINE
  5
465
  8
0
  6
DASHED2
 62
     7
 10
22.2731275567343
 20
-92.68895750523541
 30
0.0
 11
20.7731275567343
 21
-90.09088129388211
 31
0.0
  0
LINE
  5
466
  8
0
  6
DASHED2
 62
     7
 10
20.7731275567343
 20
-90.09088129388211
 30
0.0
 11
20.34011485484209
 21
-90.34088129388209
 31
0.0
  0
LINE
  5
467
  8
0
  6
CONTINUOUS
 62
     4
 10
-104.5713209848419
 20
141.0699865673811
 30
0.0
 11
-104.5713209848419
 21
130.0699865673811
 31
0.0
  0
LINE
  5
468
  8
0
  6
CONTINUOUS
 62
     4
 10
-103.5713209848419
 20
141.0699865673811
 30
0.0
 11
-103.5713209848419
 21
130.0699865673811
 31
0.0
  0
LINE
  5
469
  8
0
  6
CONTINUOUS
 62
     4
 10
-117.5713209848419
 20
125.0699865673812
 30
0.0
 11
-94.57132098484192
 21
125.0699865673812
 31
0.0
  0
LINE
  5
46A
  8
0
  6
CONTINUOUS
 62
     4
 10
-117.5713209848419
 20
117.0699865673812
 30
0.0
 11
-94.57132098484192
 21
117.0699865673812
 31
0.0
  0
LINE
  5
46B
  8
0
  6
CONTINUOUS
 62
     4
 10
-117.5713209848419
 20
95.06998656738115
 30
0.0
 11
-94.57132098484192
 21
95.06998656738115
 31
0.0
  0
LINE
  5
46C
  8
0
  6
CONTINUOUS
 62
     4
 10
-117.5713209848419
 20
87.06999419677568
 30
0.0
 11
-94.57132098484192
 21
87.06999419677568
 31
0.0
  0
LINE
  5
46D
  8
0
  6
CONTINUOUS
 62
     4
 10
-104.5713209848419
 20
82.06999419677563
 30
0.0
 11
-104.5713209848419
 21
75.06998656738109
 31
0.0
  0
LINE
  5
46E
  8
0
  6
CONTINUOUS
 62
     4
 10
-103.5713209848419
 20
82.06999419677563
 30
0.0
 11
-103.5713209848419
 21
75.06998656738109
 31
0.0
  0
LINE
  5
46F
  8
0
  6
CONTINUOUS
 62
     4
 10
-120.5713209848419
 20
-7.4300134326189
 30
0.0
 11
-105.5713209848419
 21
-7.4300134326189
 31
0.0
  0
LINE
  5
470
  8
0
  6
CONTINUOUS
 62
     4
 10
-120.5713209848419
 20
-15.4300134326189
 30
0.0
 11
-105.5713209848419
 21
-15.4300134326189
 31
0.0
  0
LINE
  5
471
  8
0
  6
CONTINUOUS
 62
     4
 10
-156.5713209848419
 20
-57.93001343261889
 30
0.0
 11
-148.5713209848419
 21
-57.93001343261889
 31
0.0
  0
LINE
  5
472
  8
0
  6
CONTINUOUS
 62
     4
 10
-148.5713209848419
 20
-57.93001343261889
 30
0.0
 11
-148.5713209848419
 21
-73.93001343261889
 31
0.0
  0
LINE
  5
473
  8
0
  6
CONTINUOUS
 62
     4
 10
-156.5713209848419
 20
-57.93001343261889
 30
0.0
 11
-156.5713209848419
 21
-73.93001343261889
 31
0.0
  0
LINE
  5
474
  8
0
  6
CONTINUOUS
 62
     4
 10
-129.5713209848419
 20
123.9569570874007
 30
0.0
 11
-129.5713209848419
 21
131.0702078198225
 31
0.0
  0
LINE
  5
475
  8
0
  6
CONTINUOUS
 62
     4
 10
-123.5713820199982
 20
123.9569570874007
 30
0.0
 11
-123.5713820199982
 21
131.0702078198225
 31
0.0
  0
LINE
  5
476
  8
0
  6
CONTINUOUS
 62
     4
 10
-143.6643094491974
 20
1.869985804441647
 30
0.0
 11
-134.6643094491974
 21
1.869985804441647
 31
0.0
  0
LINE
  5
477
  8
0
  6
CONTINUOUS
 62
     4
 10
-143.6643094491974
 20
65.26998733032055
 30
0.0
 11
-134.6643094491974
 21
65.26998733032055
 31
0.0
  0
LINE
  5
478
  8
0
  6
CONTINUOUS
 62
     4
 10
2.212028199622182
 20
-23.44211416302983
 30
0.0
 11
8.712028199622182
 21
-34.70044441222751
 31
0.0
  0
LINE
  5
479
  8
0
  6
CONTINUOUS
 62
     4
 10
15.9440856144405
 20
-43.22672003915909
 30
0.0
 11
22.87228223746655
 21
-39.22672385385636
 31
0.0
  0
LINE
  5
47A
  8
0
  6
CONTINUOUS
 62
     4
 10
11.9440856144405
 20
-36.29851680888356
 30
0.0
 11
18.87228223746655
 21
-32.29852062358083
 31
0.0
  0
LINE
  5
47B
  8
0
  6
CONTINUOUS
 62
     4
 10
121.9598271123748
 20
79.56998656738109
 30
0.0
 11
132.9598271123747
 21
79.56998656738109
 31
0.0
  0
LINE
  5
47C
  8
0
  6
CONTINUOUS
 62
     4
 10
121.9598271123748
 20
76.56998656738109
 30
0.0
 11
132.9598271123747
 21
76.56998656738109
 31
0.0
  0
LINE
  5
47D
  8
0
  6
CONTINUOUS
 62
     4
 10
121.9598271123748
 20
78.06998656738109
 30
0.0
 11
132.9598271123747
 21
78.06998656738109
 31
0.0
  0
LINE
  5
47E
  8
0
  6
CONTINUOUS
 62
     4
 10
148.9598271123747
 20
84.06998656738109
 30
0.0
 11
159.9598271123747
 21
84.06998656738109
 31
0.0
  0
LINE
  5
47F
  8
0
  6
CONTINUOUS
 62
     4
 10
148.9598271123747
 20
79.56998656738109
 30
0.0
 11
159.9598271123747
 21
79.56998656738109
 31
0.0
  0
LINE
  5
480
  8
0
  6
CONTINUOUS
 62
     4
 10
148.9598271123747
 20
138.0699865673811
 30
0.0
 11
159.9598271123747
 21
138.0699865673811
 31
0.0
  0
LINE
  5
481
  8
0
  6
CONTINUOUS
 62
     4
 10
148.9598271123747
 20
136.5699865673811
 30
0.0
 11
159.9598271123747
 21
136.5699865673811
 31
0.0
  0
LINE
  5
482
  8
0
  6
CONTINUOUS
 62
     4
 10
148.9598271123747
 20
135.0699865673811
 30
0.0
 11
159.9598271123747
 21
135.0699865673811
 31
0.0
  0
LINE
  5
483
  8
0
  6
CONTINUOUS
 62
     4
 10
148.9598271123747
 20
78.06998656738109
 30
0.0
 11
159.9598271123747
 21
78.06998656738109
 31
0.0
  0
LINE
  5
484
  8
0
  6
CONTINUOUS
 62
     4
 10
148.9598271123747
 20
133.5699865673811
 30
0.0
 11
159.9598271123747
 21
133.5699865673811
 31
0.0
  0
LINE
  5
485
  8
0
  6
CONTINUOUS
 62
     4
 10
148.9598271123747
 20
81.06998656738109
 30
0.0
 11
159.9598271123747
 21
81.06998656738109
 31
0.0
  0
LINE
  5
486
  8
0
  6
CONTINUOUS
 62
     4
 10
148.9598271123747
 20
132.0699865673811
 30
0.0
 11
159.9598271123747
 21
132.0699865673811
 31
0.0
  0
LINE
  5
487
  8
0
  6
CONTINUOUS
 62
     4
 10
148.9598271123747
 20
82.56998656738109
 30
0.0
 11
159.9598271123747
 21
82.56998656738109
 31
0.0
  0
LINE
  5
488
  8
0
  6
CONTINUOUS
 62
     4
 10
121.9598271123748
 20
132.0699865673811
 30
0.0
 11
132.9598271123747
 21
132.0699865673811
 31
0.0
  0
LINE
  5
489
  8
0
  6
CONTINUOUS
 62
     4
 10
121.9598271123748
 20
81.06998656738109
 30
0.0
 11
132.9598271123747
 21
81.06998656738109
 31
0.0
  0
LINE
  5
48A
  8
0
  6
CONTINUOUS
 62
     4
 10
121.9598271123748
 20
84.06998656738109
 30
0.0
 11
132.9598271123747
 21
84.06998656738109
 31
0.0
  0
LINE
  5
48B
  8
0
  6
CONTINUOUS
 62
     4
 10
148.9598271123747
 20
76.56998656738109
 30
0.0
 11
159.9598271123747
 21
76.56998656738109
 31
0.0
  0
LINE
  5
48C
  8
0
  6
CONTINUOUS
 62
     4
 10
148.9598271123747
 20
139.5699865673811
 30
0.0
 11
159.9598271123747
 21
139.5699865673811
 31
0.0
  0
LINE
  5
48D
  8
0
  6
CONTINUOUS
 62
     4
 10
121.9598271123748
 20
139.5699865673811
 30
0.0
 11
132.9598271123747
 21
139.5699865673811
 31
0.0
  0
LINE
  5
48E
  8
0
  6
CONTINUOUS
 62
     4
 10
121.9598271123748
 20
138.0699865673811
 30
0.0
 11
132.9598271123747
 21
138.0699865673811
 31
0.0
  0
LINE
  5
48F
  8
0
  6
CONTINUOUS
 62
     4
 10
121.9598271123748
 20
136.5699865673811
 30
0.0
 11
132.9598271123747
 21
136.5699865673811
 31
0.0
  0
LINE
  5
490
  8
0
  6
CONTINUOUS
 62
     4
 10
121.9598271123748
 20
135.0699865673811
 30
0.0
 11
132.9598271123747
 21
135.0699865673811
 31
0.0
  0
LINE
  5
491
  8
0
  6
CONTINUOUS
 62
     4
 10
121.9598271123748
 20
133.5699865673811
 30
0.0
 11
132.9598271123747
 21
133.5699865673811
 31
0.0
  0
LINE
  5
492
  8
0
  6
CONTINUOUS
 62
     4
 10
121.9598271123748
 20
82.56998656738109
 30
0.0
 11
132.9598271123747
 21
82.56998656738109
 31
0.0
  0
LINE
  5
493
  8
0
  6
CONTINUOUS
 62
     4
 10
49.05823806844157
 20
-10.25180101735928
 30
0.0
 11
43.55823806844157
 21
-0.7255217467103208
 31
0.0
  0
LINE
  5
494
  8
0
  6
CONTINUOUS
 62
     4
 10
59.96016190371913
 20
-35.13448649986126
 30
0.0
 11
54.46016190371913
 21
-25.6082072292123
 31
0.0
  0
LINE
  5
495
  8
0
  6
CONTINUOUS
 62
     4
 10
51.65631423316401
 20
-8.751801017359277
 30
0.0
 11
46.15631423316401
 21
0.7744782532896792
 31
0.0
  0
LINE
  5
496
  8
0
  6
CONTINUOUS
 62
     4
 10
99.7207232805292
 20
18.99819898264072
 30
0.0
 11
94.2207232805292
 21
28.52447825328968
 31
0.0
  0
LINE
  5
497
  8
0
  6
CONTINUOUS
 62
     4
 10
45.1611238213579
 20
-12.50180101735928
 30
0.0
 11
39.6611238213579
 21
-2.975521746710321
 31
0.0
  0
LINE
  5
498
  8
0
  6
CONTINUOUS
 62
     4
 10
58.6611238213579
 20
-35.88448649986126
 30
0.0
 11
53.1611238213579
 21
-26.3582072292123
 31
0.0
  0
LINE
  5
499
  8
0
  6
CONTINUOUS
 62
     4
 10
65.15631423316401
 20
-32.13448649986126
 30
0.0
 11
59.65631423316401
 21
-22.6082072292123
 31
0.0
  0
LINE
  5
49A
  8
0
  6
CONTINUOUS
 62
     4
 10
109.3236090334455
 20
-6.634486499861261
 30
0.0
 11
103.8236090334455
 21
2.891792770787696
 31
0.0
  0
LINE
  5
49B
  8
0
  6
CONTINUOUS
 62
     4
 10
106.7255328687231
 20
-8.134486499861261
 30
0.0
 11
101.2255328687231
 21
1.391792770787696
 31
0.0
  0
LINE
  5
49C
  8
0
  6
CONTINUOUS
 62
     4
 10
61.25919998608035
 20
-34.38448649986126
 30
0.0
 11
55.75919998608035
 21
-24.8582072292123
 31
0.0
  0
LINE
  5
49D
  8
0
  6
CONTINUOUS
 62
     4
 10
94.52457095108431
 20
15.99819898264072
 30
0.0
 11
89.02457095108431
 21
25.52447825328968
 31
0.0
  0
LINE
  5
49E
  8
0
  6
CONTINUOUS
 62
     4
 10
62.55823806844157
 20
-33.63448649986126
 30
0.0
 11
57.05823806844157
 21
-24.1082072292123
 31
0.0
  0
LINE
  5
49F
  8
0
  6
CONTINUOUS
 62
     4
 10
46.46016190371913
 20
-11.75180101735928
 30
0.0
 11
40.96016190371913
 21
-2.225521746710321
 31
0.0
  0
LINE
  5
4A0
  8
0
  6
CONTINUOUS
 62
     4
 10
63.85727615080279
 20
-32.88448649986126
 30
0.0
 11
58.35727615080279
 21
-23.3582072292123
 31
0.0
  0
LINE
  5
4A1
  8
0
  6
CONTINUOUS
 62
     4
 10
108.0245709510843
 20
-7.384486499861261
 30
0.0
 11
102.5245709510843
 21
2.141792770787696
 31
0.0
  0
LINE
  5
4A2
  8
0
  6
CONTINUOUS
 62
     4
 10
47.75919998608035
 20
-11.00180101735928
 30
0.0
 11
42.25919998608035
 21
-1.475521746710321
 31
0.0
  0
LINE
  5
4A3
  8
0
  6
CONTINUOUS
 62
     4
 10
97.12264711580676
 20
17.49819898264072
 30
0.0
 11
91.62264711580676
 21
27.02447825328968
 31
0.0
  0
LINE
  5
4A4
  8
0
  6
CONTINUOUS
 62
     4
 10
93.22553286872309
 20
15.24819898264072
 30
0.0
 11
87.72553286872309
 21
24.77447825328968
 31
0.0
  0
LINE
  5
4A5
  8
0
  6
CONTINUOUS
 62
     4
 10
113.2207232805292
 20
-4.384486499861261
 30
0.0
 11
107.7207232805292
 21
5.141792770787696
 31
0.0
  0
LINE
  5
4A6
  8
0
  6
CONTINUOUS
 62
     4
 10
111.921685198168
 20
-5.134486499861261
 30
0.0
 11
106.421685198168
 21
4.391792770787696
 31
0.0
  0
LINE
  5
4A7
  8
0
  6
CONTINUOUS
 62
     4
 10
98.42168519816798
 20
18.24819898264072
 30
0.0
 11
92.92168519816798
 21
27.77447825328968
 31
0.0
  0
LINE
  5
4A8
  8
0
  6
CONTINUOUS
 62
     4
 10
50.35727615080279
 20
-9.501801017359277
 30
0.0
 11
44.85727615080279
 21
0.0244782532896792
 31
0.0
  0
LINE
  5
4A9
  8
0
  6
CONTINUOUS
 62
     4
 10
95.82360903344554
 20
16.74819898264072
 30
0.0
 11
90.32360903344554
 21
26.27447825328968
 31
0.0
  0
LINE
  5
4AA
  8
0
  6
CONTINUOUS
 62
     4
 10
110.6226471158068
 20
-5.884486499861261
 30
0.0
 11
105.1226471158068
 21
3.641792770787696
 31
0.0
  0
LINE
  5
4AB
  8
0
  6
CONTINUOUS
 62
     4
 10
190.2969877811472
 20
27.02446674959324
 30
0.0
 11
184.7969877811472
 21
17.49818747894428
 31
0.0
  0
LINE
  5
4AC
  8
0
  6
CONTINUOUS
 62
     4
 10
178.0960258635084
 20
2.891781267091254
 30
0.0
 11
172.5960258635084
 21
-6.634498003557702
 31
0.0
  0
LINE
  5
4AD
  8
0
  6
CONTINUOUS
 62
     4
 10
223.5623587461511
 20
-23.35821873290875
 30
0.0
 11
218.0623587461511
 21
-32.8844980035577
 31
0.0
  0
LINE
  5
4AE
  8
0
  6
CONTINUOUS
 62
     4
 10
175.4979496987859
 20
4.391781267091254
 30
0.0
 11
169.9979496987859
 21
-5.134498003557702
 31
0.0
  0
LINE
  5
4AF
  8
0
  6
CONTINUOUS
 62
     4
 10
188.9979496987859
 20
27.77446674959324
 30
0.0
 11
183.4979496987859
 21
18.24818747894428
 31
0.0
  0
LINE
  5
4B0
  8
0
  6
CONTINUOUS
 62
     4
 10
187.6989116164247
 20
28.52446674959324
 30
0.0
 11
182.1989116164247
 21
18.99818747894428
 31
0.0
  0
LINE
  5
4B1
  8
0
  6
CONTINUOUS
 62
     4
 10
180.6941020282308
 20
1.391781267091254
 30
0.0
 11
175.1941020282308
 21
-8.134498003557702
 31
0.0
  0
LINE
  5
4B2
  8
0
  6
CONTINUOUS
 62
     4
 10
176.7969877811472
 20
3.641781267091254
 30
0.0
 11
171.2969877811472
 21
-5.884498003557702
 31
0.0
  0
LINE
  5
4B3
  8
0
  6
CONTINUOUS
 62
     4
 10
226.1604349108736
 20
-24.85821873290875
 30
0.0
 11
220.6604349108736
 21
-34.3844980035577
 31
0.0
  0
LINE
  5
4B4
  8
0
  6
CONTINUOUS
 62
     4
 10
192.8950639458696
 20
25.52446674959324
 30
0.0
 11
187.3950639458696
 21
15.99818747894428
 31
0.0
  0
LINE
  5
4B5
  8
0
  6
CONTINUOUS
 62
     4
 10
237.0623587461511
 20
0.0244667495932376
 30
0.0
 11
231.5623587461511
 21
-9.501812521055719
 31
0.0
  0
LINE
  5
4B6
  8
0
  6
CONTINUOUS
 62
     4
 10
227.4594729932348
 20
-25.60821873290875
 30
0.0
 11
221.9594729932348
 21
-35.1344980035577
 31
0.0
  0
LINE
  5
4B7
  8
0
  6
CONTINUOUS
 62
     4
 10
238.3613968285123
 20
-0.7255332504067624
 30
0.0
 11
232.8613968285123
 21
-10.25181252105572
 31
0.0
  0
LINE
  5
4B8
  8
0
  6
CONTINUOUS
 62
     4
 10
179.3950639458696
 20
2.141781267091254
 30
0.0
 11
173.8950639458696
 21
-7.384498003557702
 31
0.0
  0
LINE
  5
4B9
  8
0
  6
CONTINUOUS
 62
     4
 10
239.6604349108736
 20
-1.475533250406762
 30
0.0
 11
234.1604349108736
 21
-11.00181252105572
 31
0.0
  0
LINE
  5
4BA
  8
0
  6
CONTINUOUS
 62
     4
 10
194.1941020282308
 20
24.77446674959324
 30
0.0
 11
188.6941020282308
 21
15.24818747894428
 31
0.0
  0
LINE
  5
4BB
  8
0
  6
CONTINUOUS
 62
     4
 10
191.5960258635084
 20
26.27446674959324
 30
0.0
 11
186.0960258635084
 21
16.74818747894428
 31
0.0
  0
LINE
  5
4BC
  8
0
  6
CONTINUOUS
 62
     4
 10
235.7633206637899
 20
0.7744667495932376
 30
0.0
 11
230.2633206637899
 21
-8.751812521055719
 31
0.0
  0
LINE
  5
4BD
  8
0
  6
CONTINUOUS
 62
     4
 10
242.258511075596
 20
-2.975533250406762
 30
0.0
 11
236.758511075596
 21
-12.50181252105572
 31
0.0
  0
LINE
  5
4BE
  8
0
  6
CONTINUOUS
 62
     4
 10
228.758511075596
 20
-26.35821873290875
 30
0.0
 11
223.258511075596
 21
-35.8844980035577
 31
0.0
  0
LINE
  5
4BF
  8
0
  6
CONTINUOUS
 62
     4
 10
174.1989116164247
 20
5.141781267091254
 30
0.0
 11
168.6989116164247
 21
-4.384498003557702
 31
0.0
  0
LINE
  5
4C0
  8
0
  6
CONTINUOUS
 62
     4
 10
222.2633206637899
 20
-22.60821873290875
 30
0.0
 11
216.7633206637899
 21
-32.1344980035577
 31
0.0
  0
LINE
  5
4C1
  8
0
  6
CONTINUOUS
 62
     4
 10
240.9594729932348
 20
-2.225533250406762
 30
0.0
 11
235.4594729932348
 21
-11.75181252105572
 31
0.0
  0
LINE
  5
4C2
  8
0
  6
CONTINUOUS
 62
     4
 10
224.8613968285123
 20
-24.10821873290875
 30
0.0
 11
219.3613968285123
 21
-33.6344980035577
 31
0.0
  0
CIRCLE
  5
4C3
  8
0
  6
CONTINUOUS
 62
     4
 10
140.9598271123747
 20
33.5699865673811
 30
0.0
 40
31.70000076293945
  0
CIRCLE
  5
4C4
  8
0
  6
CONTINUOUS
 62
     4
 10
140.9598271123747
 20
-11.4300134326189
 30
0.0
 40
4.0
  0
ARC
  5
4C5
  8
0
  6
CONTINUOUS
 62
     4
 10
140.9598271123747
 20
33.5699865673811
 30
0.0
 40
42.0
 50
120.79078898103
 51
143.9217983411684
  0
ARC
  5
4C6
  8
0
  6
CONTINUOUS
 62
     4
 10
140.9598271123747
 20
33.5699865673811
 30
0.0
 40
42.0
 50
240.7907823024215
 51
264.726408437355
  0
ARC
  5
4C7
  8
0
  6
CONTINUOUS
 62
     4
 10
140.9598271123747
 20
33.5699865673811
 30
0.0
 40
42.0
 50
0.7907863354168239
 51
23.92179158676962
  0
ARC
  5
4C8
  8
0
  6
CONTINUOUS
 62
     4
 10
140.9598271123747
 20
33.5699865673811
 30
0.0
 40
48.0
 50
356.6100960064263
 51
384.3146913885854
  0
ARC
  5
4C9
  8
0
  6
CONTINUOUS
 62
     4
 10
140.9598271123747
 20
33.5699865673811
 30
0.0
 40
54.0
 50
353.4624596764866
 51
426.5375377242974
  0
ARC
  5
4CA
  8
0
  6
CONTINUOUS
 62
     4
 10
140.9598271123747
 20
33.5699865673811
 30
0.0
 40
60.0
 50
350.997873853173
 51
366.5091967460052
  0
ARC
  5
4CB
  8
0
  6
CONTINUOUS
 62
     4
 10
140.9598271123747
 20
33.5699865673811
 30
0.0
 40
66.0
 50
349.0114772576149
 51
361.1656285578101
  0
ARC
  5
4CC
  8
0
  6
CONTINUOUS
 62
     4
 10
140.9598271123747
 20
33.5699865673811
 30
0.0
 40
72.0
 50
347.3742015126138
 51
366.563479247547
  0
ARC
  5
4CD
  8
0
  6
CONTINUOUS
 62
     4
 10
140.9598271123747
 20
33.5699865673811
 30
0.0
 40
48.0
 50
236.6100918133484
 51
265.0672212165603
  0
ARC
  5
4CE
  8
0
  6
CONTINUOUS
 62
     4
 10
140.9598271123747
 20
33.5699865673811
 30
0.0
 40
54.0
 50
233.4624537758614
 51
306.5375412151823
  0
ARC
  5
4CF
  8
0
  6
CONTINUOUS
 62
     4
 10
140.9598271123747
 20
33.5699865673811
 30
0.0
 40
60.0
 50
230.9978756365107
 51
247.073422527431
  0
ARC
  5
4D0
  8
0
  6
CONTINUOUS
 62
     4
 10
140.9598271123747
 20
33.5699865673811
 30
0.0
 40
66.0
 50
229.0114790409525
 51
241.1620713857034
  0
ARC
  5
4D1
  8
0
  6
CONTINUOUS
 62
     4
 10
140.9598271123747
 20
33.5699865673811
 30
0.0
 40
72.0
 50
227.3742007346305
 51
247.0340874680009
  0
ARC
  5
4D2
  8
0
  6
CONTINUOUS
 62
     4
 10
140.9598271123747
 20
33.5699865673811
 30
0.0
 40
48.0
 50
116.6100984919569
 51
144.3146981429842
  0
ARC
  5
4D3
  8
0
  6
CONTINUOUS
 62
     4
 10
140.9598271123747
 20
33.5699865673811
 30
0.0
 40
54.0
 50
113.4624604544698
 51
186.5375342334123
  0
ARC
  5
4D4
  8
0
  6
CONTINUOUS
 62
     4
 10
140.9598271123747
 20
33.5699865673811
 30
0.0
 40
60.0
 50
110.99787548493
 51
126.5092145994614
  0
ARC
  5
4D5
  8
0
  6
CONTINUOUS
 62
     4
 10
140.9598271123747
 20
33.5699865673811
 30
0.0
 40
66.0
 50
109.0114788893718
 51
120.6637611228461
  0
ARC
  5
4D6
  8
0
  6
CONTINUOUS
 62
     4
 10
140.9598271123747
 20
33.5699865673811
 30
0.0
 40
72.0
 50
107.3742005830497
 51
126.5635009429847
  0
ARC
  5
4D7
  8
0
  6
CONTINUOUS
 62
     4
 10
140.9598271123747
 20
33.5699865673811
 30
0.0
 40
42.0
 50
275.2735728933104
 51
299.2092126886221
  0
ARC
  5
4D8
  8
0
  6
CONTINUOUS
 62
     4
 10
140.9598271123747
 20
33.5699865673811
 30
0.0
 40
48.0
 50
274.9327601141051
 51
303.3899031776953
  0
ARC
  5
4D9
  8
0
  6
CONTINUOUS
 62
     4
 10
140.9598271123747
 20
33.5699865673811
 30
0.0
 40
60.0
 50
262.9265374778407
 51
277.0734438528246
  0
ARC
  5
4DA
  8
0
  6
CONTINUOUS
 62
     4
 10
140.9598271123747
 20
33.5699865673811
 30
0.0
 40
66.0
 50
298.7658582794074
 51
310.9885227802803
  0
ARC
  5
4DB
  8
0
  6
CONTINUOUS
 62
     4
 10
140.9598271123747
 20
33.5699865673811
 30
0.0
 40
72.0
 50
262.9658725372709
 51
277.0341087933945
  0
ARC
  5
4DC
  8
0
  6
CONTINUOUS
 62
     4
 10
140.9598271123747
 20
33.5699865673811
 30
0.0
 40
72.0
 50
292.9658870324752
 51
312.6257976715078
  0
ARC
  5
4DD
  8
0
  6
CONTINUOUS
 62
     4
 10
140.9598271123747
 20
33.5699865673811
 30
0.0
 40
60.0
 50
292.9265588032343
 51
309.0021261847222
  0
CIRCLE
  5
4DE
  8
0
  6
CONTINUOUS
 62
     4
 10
101.988696741281
 20
56.07000182617016
 30
0.0
 40
4.0
  0
CIRCLE
  5
4DF
  8
0
  6
CONTINUOUS
 62
     4
 10
179.9309574834685
 20
56.06997893798656
 30
0.0
 40
4.0
  0
ARC
  5
4E0
  8
0
  6
CONTINUOUS
 62
     4
 10
140.9598271123747
 20
33.5699865673811
 30
0.0
 40
72.0
 50
143.2894184466736
 51
156.5634949476215
  0
ARC
  5
4E1
  8
0
  6
CONTINUOUS
 62
     4
 10
140.9598271123747
 20
33.5699865673811
 30
0.0
 40
72.0
 50
173.4365347260326
 51
192.6258009350216
  0
ARC
  5
4E2
  8
0
  6
CONTINUOUS
 62
     4
 10
140.9598271123747
 20
33.5699865673811
 30
0.0
 40
66.0
 50
179.1927859320876
 51
190.9885226286995
  0
ARC
  5
4E3
  8
0
  6
CONTINUOUS
 62
     4
 10
140.9598271123747
 20
33.5699865673811
 30
0.0
 40
60.0
 50
173.4908210695558
 51
189.0021260331414
  0
ARC
  5
4E4
  8
0
  6
CONTINUOUS
 62
     4
 10
140.9598271123747
 20
33.5699865673811
 30
0.0
 40
48.0
 50
155.685296544898
 51
183.3899098563037
  0
ARC
  5
4E5
  8
0
  6
CONTINUOUS
 62
     4
 10
140.9598271123747
 20
33.5699865673811
 30
0.0
 40
42.0
 50
156.0781963467138
 51
179.2092193672306
  0
ARC
  5
4E6
  8
0
  6
CONTINUOUS
 62
     4
 10
140.9598271123747
 20
33.5699865673811
 30
0.0
 40
60.0
 50
143.490827064919
 51
156.5092222644766
  0
ARC
  5
4E7
  8
0
  6
CONTINUOUS
 62
     4
 10
140.9598271123747
 20
33.5699865673811
 30
0.0
 40
66.0
 50
58.53804748913507
 51
70.98851928939534
  0
ARC
  5
4E8
  8
0
  6
CONTINUOUS
 62
     4
 10
140.9598271123747
 20
33.5699865673811
 30
0.0
 40
72.0
 50
23.43652201416584
 51
36.71059339247188
  0
ARC
  5
4E9
  8
0
  6
CONTINUOUS
 62
     4
 10
140.9598271123747
 20
33.5699865673811
 30
0.0
 40
60.0
 50
23.49080323504722
 51
36.5091950195103
  0
ARC
  5
4EA
  8
0
  6
CONTINUOUS
 62
     4
 10
140.9598271123747
 20
33.5699865673811
 30
0.0
 40
60.0
 50
53.4908006547787
 51
69.00212269383722
  0
ARC
  5
4EB
  8
0
  6
CONTINUOUS
 62
     4
 10
140.9598271123747
 20
33.5699865673811
 30
0.0
 40
72.0
 50
53.43651772635002
 51
72.62579759571744
  0
ARC
  5
4EC
  8
0
  6
CONTINUOUS
 62
     4
 10
140.9598271123747
 20
33.5699865673811
 30
0.0
 40
48.0
 50
35.68528979049918
 51
63.38990651699948
  0
ARC
  5
4ED
  8
0
  6
CONTINUOUS
 62
     4
 10
140.9598271123747
 20
33.5699865673811
 30
0.0
 40
42.0
 50
36.07818959231499
 51
59.20921602792637
  0
LINE
  5
4EE
  8
0
  6
CONTINUOUS
 62
     4
 10
15.71202819962218
 20
-46.82480006520967
 30
0.0
 11
22.21202819962218
 21
-58.08313031440736
 31
0.0
  0
CIRCLE
  5
4EF
  8
0
  6
CONTINUOUS
 62
     4
 10
140.959773323622
 20
61.57005717616875
 30
0.0
 40
3.0
  0
CIRCLE
  5
4F0
  8
0
  6
CONTINUOUS
 62
     4
 10
116.7108859308972
 20
19.5700571761688
 30
0.0
 40
3.0
  0
CIRCLE
  5
4F1
  8
0
  6
CONTINUOUS
 62
     4
 10
165.208396586206
 20
19.56990468056093
 30
0.0
 40
2.999999999999999
  0
LINE
  5
4F2
  8
0
  6
CONTINUOUS
 62
     4
 10
-143.6643094491974
 20
64.06998656738109
 30
0.0
 11
-134.6643094491974
 21
64.06998656738109
 31
0.0
  0
LINE
  5
4F3
  8
0
  6
CONTINUOUS
 62
     4
 10
-143.6643094491974
 20
59.06998656738109
 30
0.0
 11
-134.6643094491974
 21
59.06998656738109
 31
0.0
  0
LINE
  5
4F4
  8
0
  6
DIVIDE
 62
     9
 10
-218.3379835824981
 20
-27.95501495849781
 30
0.0
 11
-182.5713209848419
 21
-27.95501495849781
 31
0.0
  0
LINE
  5
4F5
  8
0
  6
DIVIDE
 62
     9
 10
-218.3379835824981
 20
-38.25501801025562
 30
0.0
 11
-182.5713209848419
 21
-38.25501801025562
 31
0.0
  0
LINE
  5
4F6
  8
0
  6
DIVIDE
 62
     9
 10
-218.3379835824981
 20
-27.10501648437671
 30
0.0
 11
-139.0737918017701
 21
-27.10501648437671
 31
0.0
  0
LINE
  5
4F7
  8
0
  6
DIVIDE
 62
     9
 10
-218.3379835824981
 20
-39.10501648437671
 30
0.0
 11
-139.0737918017701
 21
-39.10501648437671
 31
0.0
  0
LINE
  5
4F8
  8
0
  6
DIVIDE
 62
     9
 10
-182.5713209848419
 20
-27.10501648437671
 30
0.0
 11
-182.5713209848419
 21
-39.10501648437671
 31
0.0
  0
LINE
  5
4F9
  8
0
  6
DIVIDE
 62
     9
 10
-218.5713209848419
 20
-27.10501648437671
 30
0.0
 11
-218.5713209848419
 21
-39.10501648437671
 31
0.0
  0
LINE
  5
4FA
  8
0
  6
DIVIDE
 62
     9
 10
-121.5338024301544
 20
70.06998656738109
 30
0.0
 11
-121.5338024301544
 21
50.63407729614086
 31
0.0
  0
LINE
  5
4FB
  8
0
  6
DIVIDE
 62
     9
 10
-121.5338205090137
 20
70.06997845116315
 30
0.0
 11
-122.0338102502154
 21
70.56996819236487
 31
0.0
  0
TEXT
  5
4FC
  8
0
 62
     7
 10
-221.2758579876088
 20
156.6624328590311
 30
0.0
 40
4.0
  1
MIN 0
 41
0.8
  7
FDASTYLE1
 72
     5
 11
-205.2758579876088
 21
156.6624328590311
 31
0.0
  0
TEXT
  5
4FD
  8
0
 62
     7
 10
-25.05525879617087
 20
42.89088708198019
 30
0.0
 40
4.0
  1
MIN31.9
 50
90.0
 41
0.7999999999999999
  7
FDASTYLE1
 72
     5
 11
-25.05525879617087
 21
65.29088708198019
 31
0.0
  0
TEXT
  5
4FE
  8
0
 62
     7
 10
-185.816172414872
 20
-105.163583426009
 30
0.0
 40
4.0
  1
MIN33
 41
0.8
  7
FDASTYLE1
 72
     5
 11
-169.816172414872
 21
-105.163583426009
 31
0.0
  0
INSERT
  5
4FF
  8
LAYER0014
  6
CONTINUOUS
  2
DC_GROUP_1
 10
0.0
 20
0.0
 30
0.0
  0
INSERT
  5
500
  8
LAYER0014
  6
CONTINUOUS
  2
DA_IMAGEDIMGROUP_1
 10
0.0
 20
0.0
 30
0.0
  0
INSERT
  5
501
  8
LAYER0014
  6
CONTINUOUS
  2
DA_IMAGEDIMGROUP_2
 10
0.0
 20
0.0
 30
0.0
  0
INSERT
  5
502
  8
LAYER0014
  6
CONTINUOUS
  2
DA_IMAGEDIMGROUP_3
 10
0.0
 20
0.0
 30
0.0
  0
INSERT
  5
503
  8
LAYER0014
  6
CONTINUOUS
  2
DA_IMAGEDIMGROUP_4
 10
0.0
 20
0.0
 30
0.0
  0
INSERT
  5
504
  8
LAYER0014
  6
CONTINUOUS
  2
DC_GROUP_2
 10
0.0
 20
0.0
 30
0.0
  0
INSERT
  5
505
  8
LAYER0014
  6
CONTINUOUS
  2
DC_GROUP_5
 10
0.0
 20
0.0
 30
0.0
  0
INSERT
  5
506
  8
LAYER0014
  6
CONTINUOUS
  2
DA_IMAGEDIMGROUP_19
 10
0.0
 20
0.0
 30
0.0
  0
INSERT
  5
507
  8
LAYER0014
  6
CONTINUOUS
  2
DA_IMAGEDIMGROUP_20
 10
0.0
 20
0.0
 30
0.0
  0
INSERT
  5
508
  8
LAYER0014
  6
CONTINUOUS
  2
DA_IMAGEDIMGROUP_21
 10
0.0
 20
0.0
 30
0.0
  0
INSERT
  5
509
  8
0
  6
CONTINUOUS
  2
DA_IMAGEDIMGROUP_5
 10
0.0
 20
0.0
 30
0.0
  0
INSERT
  5
50A
  8
0
  6
CONTINUOUS
  2
DA_IMAGEDIMGROUP_6
 10
0.0
 20
0.0
 30
0.0
  0
INSERT
  5
50B
  8
0
  6
CONTINUOUS
  2
DA_IMAGEDIMGROUP_7
 10
0.0
 20
0.0
 30
0.0
  0
INSERT
  5
50C
  8
0
  6
CONTINUOUS
  2
DA_IMAGEDIMGROUP_8
 10
0.0
 20
0.0
 30
0.0
  0
INSERT
  5
50D
  8
0
  6
CONTINUOUS
  2
DA_IMAGEDIMGROUP_9
 10
0.0
 20
0.0
 30
0.0
  0
INSERT
  5
50E
  8
0
  6
CONTINUOUS
  2
DA_IMAGEDIMGROUP_10
 10
0.0
 20
0.0
 30
0.0
  0
INSERT
  5
50F
  8
0
  6
CONTINUOUS
  2
DA_IMAGEDIMGROUP_11
 10
0.0
 20
0.0
 30
0.0
  0
INSERT
  5
510
  8
0
  6
CONTINUOUS
  2
DC_GROUP_3
 10
0.0
 20
0.0
 30
0.0
  0
INSERT
  5
511
  8
0
  6
CONTINUOUS
  2
DA_IMAGEDIMGROUP_12
 10
0.0
 20
0.0
 30
0.0
  0
INSERT
  5
512
  8
0
  6
CONTINUOUS
  2
DA_IMAGEDIMGROUP_13
 10
0.0
 20
0.0
 30
0.0
  0
INSERT
  5
513
  8
0
  6
CONTINUOUS
  2
DC_GROUP_4
 10
0.0
 20
0.0
 30
0.0
  0
INSERT
  5
514
  8
0
  6
CONTINUOUS
  2
DA_IMAGEDIMGROUP_14
 10
0.0
 20
0.0
 30
0.0
  0
INSERT
  5
515
  8
0
  6
CONTINUOUS
  2
DA_IMAGEDIMGROUP_15
 10
0.0
 20
0.0
 30
0.0
  0
INSERT
  5
516
  8
0
  6
CONTINUOUS
  2
DC_GROUP_6
 10
0.0
 20
0.0
 30
0.0
  0
INSERT
  5
517
  8
0
  6
CONTINUOUS
  2
DA_IMAGEDIMGROUP_16
 10
0.0
 20
0.0
 30
0.0
  0
INSERT
  5
518
  8
0
  6
CONTINUOUS
  2
DA_IMAGEDIMGROUP_17
 10
0.0
 20
0.0
 30
0.0
  0
INSERT
  5
519
  8
0
  6
CONTINUOUS
  2
DA_IMAGEDIMGROUP_18
 10
0.0
 20
0.0
 30
0.0
  0
INSERT
  5
51A
  8
0
  6
CONTINUOUS
  2
DA_IMAGEDIMGROUP_22
 10
0.0
 20
0.0
 30
0.0
  0
INSERT
  5
51B
  8
0
  6
CONTINUOUS
  2
DC_GROUP_7
 10
0.0
 20
0.0
 30
0.0
  0
INSERT
  5
51C
  8
0
  6
CONTINUOUS
  2
DA_IMAGEDIMGROUP_23
 10
0.0
 20
0.0
 30
0.0
  0
INSERT
  5
51D
  8
0
  6
CONTINUOUS
  2
DA_IMAGEDIMGROUP_24
 10
0.0
 20
0.0
 30
0.0
  0
INSERT
  5
51E
  8
0
  6
CONTINUOUS
  2
DA_IMAGEDIMGROUP_25
 10
0.0
 20
0.0
 30
0.0
  0
INSERT
  5
51F
  8
0
  6
CONTINUOUS
  2
DA_IMAGEDIMGROUP_26
 10
0.0
 20
0.0
 30
0.0
  0
INSERT
  5
520
  8
0
  6
CONTINUOUS
  2
DA_IMAGEDIMGROUP_27
 10
0.0
 20
0.0
 30
0.0
  0
INSERT
  5
521
  8
0
  6
CONTINUOUS
  2
DA_IMAGEDIMGROUP_28
 10
0.0
 20
0.0
 30
0.0
  0
LINE
  5
522
  8
0
  6
CONTINUOUS
 62
     2
 10
87.09304327822858
 20
2.469998129359418
 30
0.0
 11
91.16337065327636
 21
0.1199878237054222
 31
0.0
  0
LINE
  5
523
  8
0
  6
CONTINUOUS
 62
     2
 10
91.16337288186944
 20
0.1200141206715202
 30
0.0
 11
95.23364992020535
 21
2.46998970660902
 31
0.0
  0
LINE
  5
524
  8
0
  6
CONTINUOUS
 62
     2
 10
95.23363082331227
 20
2.469975218656735
 30
0.0
 11
95.23363082331227
 21
7.169972345712857
 31
0.0
  0
LINE
  5
525
  8
0
  6
CONTINUOUS
 62
     2
 10
95.23371042485152
 20
7.169965348055165
 30
0.0
 11
91.16338276966118
 21
9.51997565370916
 31
0.0
  0
LINE
  5
526
  8
0
  6
CONTINUOUS
 62
     2
 10
91.16333742020535
 20
9.519977632756898
 30
0.0
 11
87.09306038186944
 21
7.170002046819398
 31
0.0
  0
LINE
  5
527
  8
0
  6
CONTINUOUS
 62
     2
 10
87.09300582331227
 20
7.169983551386075
 30
0.0
 11
87.09300582331227
 21
2.469982848051266
 31
0.0
  0
LINE
  5
528
  8
0
  6
CONTINUOUS
 62
     2
 10
65.18261123464501
 20
-14.87998587932848
 30
0.0
 11
69.25288827298093
 21
-12.53001029339098
 31
0.0
  0
LINE
  5
529
  8
0
  6
CONTINUOUS
 62
     2
 10
61.11226030973077
 20
-12.52998434829383
 30
0.0
 11
65.18258768477855
 21
-14.87999465394783
 31
0.0
  0
LINE
  5
52A
  8
0
  6
CONTINUOUS
 62
     2
 10
69.25291793268727
 20
-12.53000999939136
 30
0.0
 11
69.25291793268727
 21
-7.830014004823489
 31
0.0
  0
LINE
  5
52B
  8
0
  6
CONTINUOUS
 62
     2
 10
69.25292656228405
 20
-7.830018678172884
 30
0.0
 11
65.18259890709371
 21
-5.480008372518888
 31
0.0
  0
LINE
  5
52C
  8
0
  6
CONTINUOUS
 62
     2
 10
65.18257577298093
 20
-5.480022367243102
 30
0.0
 11
61.11229873464501
 21
-7.829997953180602
 31
0.0
  0
LINE
  5
52D
  8
0
  6
CONTINUOUS
 62
     2
 10
61.11223189753102
 20
-7.830014958497806
 30
0.0
 11
61.11223189753102
 21
-12.53001190673999
 31
0.0
  0
LINE
  5
52E
  8
0
  6
CONTINUOUS
 62
     2
 10
118.6368290654998
 20
-33.75811554443531
 30
0.0
 11
118.6368290654998
 21
-27.90811707031421
 31
0.0
  0
LINE
  5
52F
  8
0
  6
CONTINUOUS
 62
     2
 10
123.703030535288
 20
-36.68308762987758
 30
0.0
 11
118.6368055980772
 21
-33.75809565268023
 31
0.0
  0
LINE
  5
530
  8
0
  6
CONTINUOUS
 62
     2
 10
118.6367973106032
 20
-27.90814723213803
 30
0.0
 11
123.7030806848131
 21
-24.98313415193147
 31
0.0
  0
LINE
  5
531
  8
0
  6
CONTINUOUS
 62
     2
 10
123.7030788860563
 20
-24.98311962396142
 30
0.0
 11
128.7693020798385
 21
-27.90811473933022
 31
0.0
  0
LINE
  5
532
  8
0
  6
CONTINUOUS
 62
     2
 10
128.7693363897185
 20
-27.90812851440601
 30
0.0
 11
128.7693363897185
 21
-33.7581269885271
 31
0.0
  0
LINE
  5
533
  8
0
  6
CONTINUOUS
 62
     2
 10
128.7693100289932
 20
-33.75812174772759
 30
0.0
 11
123.7030795128109
 21
-36.68310431041059
 31
0.0
  0
LINE
  5
534
  8
0
  6
CONTINUOUS
 62
     2
 10
145.0301473259157
 20
123.4199604401144
 30
0.0
 11
140.9598205111531
 21
125.7699721464812
 31
0.0
  0
LINE
  5
535
  8
0
  6
CONTINUOUS
 62
     2
 10
145.0301396123747
 20
118.7199804638655
 30
0.0
 11
145.0301396123747
 21
123.4199774121077
 31
0.0
  0
LINE
  5
536
  8
0
  6
CONTINUOUS
 62
     2
 10
140.9598050753909
 20
116.3700102493528
 30
0.0
 11
145.0301374930047
 21
118.7200121507301
 31
0.0
  0
LINE
  5
537
  8
0
  6
CONTINUOUS
 62
     2
 10
136.8894743122789
 20
118.7199853952913
 30
0.0
 11
140.9598022476118
 21
116.369975930065
 31
0.0
  0
LINE
  5
538
  8
0
  6
CONTINUOUS
 62
     2
 10
136.8895146123747
 20
123.4199850415022
 30
0.0
 11
136.8895146123747
 21
118.7199880932601
 31
0.0
  0
LINE
  5
539
  8
0
  6
CONTINUOUS
 62
     2
 10
140.9598244848664
 20
125.7699838524474
 30
0.0
 11
136.8894920672526
 21
123.4199820911415
 31
0.0
  0
LINE
  5
53A
  8
0
  6
CONTINUOUS
 62
     2
 10
140.9597985746083
 20
95.7699739474826
 30
0.0
 11
136.8895190150221
 21
93.42000270369836
 31
0.0
  0
LINE
  5
53B
  8
0
  6
CONTINUOUS
 62
     2
 10
136.8895146123747
 20
93.41998504150224
 30
0.0
 11
136.8895146123747
 21
88.71998809326006
 31
0.0
  0
LINE
  5
53C
  8
0
  6
CONTINUOUS
 62
     2
 10
140.9598480562096
 20
86.37000398586288
 30
0.0
 11
145.0301276157958
 21
88.71997536971658
 31
0.0
  0
LINE
  5
53D
  8
0
  6
CONTINUOUS
 62
     2
 10
145.0301396123747
 20
88.71998046386553
 30
0.0
 11
145.0301396123747
 21
93.41997741210771
 31
0.0
  0
LINE
  5
53E
  8
0
  6
CONTINUOUS
 62
     2
 10
145.0301156392004
 20
93.41997619614968
 30
0.0
 11
140.9598416823926
 21
95.76995738486558
 31
0.0
  0
LINE
  5
53F
  8
0
  6
CONTINUOUS
 62
     2
 10
136.8894433316152
 20
88.71997568060733
 30
0.0
 11
140.9597712669481
 21
86.36996621538101
 31
0.0
  0
LINE
  5
540
  8
0
  6
CONTINUOUS
 62
     2
 10
216.7370695398847
 20
-14.88001013328753
 30
0.0
 11
220.8073465782206
 21
-12.53003454735003
 31
0.0
  0
LINE
  5
541
  8
0
  6
CONTINUOUS
 62
     2
 10
212.6666937659781
 20
-12.5299912795093
 30
0.0
 11
216.7370236623089
 21
-14.87999738302492
 31
0.0
  0
LINE
  5
542
  8
0
  6
CONTINUOUS
 62
     2
 10
212.666675256906
 20
-7.830014958497806
 30
0.0
 11
212.666675256906
 21
-12.53002716552906
 31
0.0
  0
LINE
  5
543
  8
0
  6
CONTINUOUS
 62
     2
 10
216.7370340782206
 20
-5.480046621202156
 30
0.0
 11
212.6667570398847
 21
-7.830022207139656
 31
0.0
  0
LINE
  5
544
  8
0
  6
CONTINUOUS
 62
     2
 10
220.807300256906
 20
-12.5300061846941
 30
0.0
 11
220.807300256906
 21
-7.830009236451907
 31
0.0
  0
LINE
  5
545
  8
0
  6
CONTINUOUS
 62
     2
 10
220.8073361623089
 20
-7.830009456877043
 30
0.0
 11
216.737059123973
 21
-5.480033870939543
 31
0.0
  0
LINE
  5
546
  8
0
  6
CONTINUOUS
 62
     2
 10
190.7563322709599
 20
0.1199468345891077
 30
0.0
 11
194.8266093092959
 21
2.469922420526608
 31
0.0
  0
LINE
  5
547
  8
0
  6
CONTINUOUS
 62
     2
 10
186.6859321187537
 20
2.470008720490704
 30
0.0
 11
190.7562620150845
 21
0.1200026169750785
 31
0.0
  0
LINE
  5
548
  8
0
  6
CONTINUOUS
 62
     2
 10
186.6859013311247
 20
7.169981763246732
 30
0.0
 11
186.6859013311247
 21
2.469984755399899
 31
0.0
  0
LINE
  5
549
  8
0
  6
CONTINUOUS
 62
     2
 10
190.7563191497126
 20
9.519993722247499
 30
0.0
 11
186.6859892533818
 21
7.169987618731874
 31
0.0
  0
LINE
  5
54A
  8
0
  6
CONTINUOUS
 62
     2
 10
194.8265745150845
 20
7.169990543122957
 30
0.0
 11
190.7562974767486
 21
9.519966129060457
 31
0.0
  0
LINE
  5
54B
  8
0
  6
CONTINUOUS
 62
     2
 10
194.8265263311247
 20
2.469991431120114
 30
0.0
 11
194.8265263311247
 21
7.169988140943723
 31
0.0
  0
CIRCLE
  5
54C
  8
0
  6
CONTINUOUS
 62
     2
 10
91.16337935846852
 20
4.8199865673811
 30
0.0
 40
8.0
  0
CIRCLE
  5
54D
  8
0
  6
CONTINUOUS
 62
     2
 10
65.18260543268727
 20
-10.1800134326189
 30
0.0
 40
8.0
  0
CIRCLE
  5
54E
  8
0
  6
CONTINUOUS
 62
     2
 10
123.703052210031
 20
-30.83312012207203
 30
0.0
 40
9.0
  0
CIRCLE
  5
54F
  8
0
  6
CONTINUOUS
 62
     2
 10
140.9598271123747
 20
121.0699865673812
 30
0.0
 40
8.0
  0
CIRCLE
  5
550
  8
0
  6
CONTINUOUS
 62
     2
 10
140.9598271123747
 20
91.06998656738115
 30
0.0
 40
8.0
  0
CIRCLE
  5
551
  8
0
  6
CONTINUOUS
 62
     2
 10
216.7370487920622
 20
-10.1800134326189
 30
0.0
 40
8.0
  0
CIRCLE
  5
552
  8
0
  6
CONTINUOUS
 62
     2
 10
190.756274866281
 20
4.8199865673811
 30
0.0
 40
8.0
  0
LINE
  5
553
  8
0
  6
DASHED2
 62
     3
 10
133.9598271123747
 20
131.0702383374007
 30
0.0
 11
132.9598271123747
 21
131.0702383374007
 31
0.0
  0
LINE
  5
554
  8
0
  6
DASHED2
 62
     3
 10
148.9598271123747
 20
131.0702383374007
 30
0.0
 11
148.9598271123747
 21
141.0699865673811
 31
0.0
  0
LINE
  5
555
  8
0
  6
DASHED2
 62
     3
 10
132.9598271123747
 20
131.0702383374007
 30
0.0
 11
132.9598271123747
 21
141.0699865673811
 31
0.0
  0
LINE
  5
556
  8
0
  6
DASHED2
 62
     3
 10
148.9598271123747
 20
131.0702383374007
 30
0.0
 11
147.9598271123747
 21
131.0702383374007
 31
0.0
  0
LINE
  5
557
  8
0
  6
DASHED2
 62
     3
 10
131.2098271123747
 20
141.0699865673811
 30
0.0
 11
131.2098271123747
 21
123.543833002928
 31
0.0
  0
LINE
  5
558
  8
0
  6
DASHED2
 62
     3
 10
150.7098271123747
 20
141.0699865673811
 30
0.0
 11
150.7098271123747
 21
123.543833002928
 31
0.0
  0
TEXT
  5
559
  8
0
 62
     5
 10
231.9654296402882
 20
54.84369873417901
 30
0.0
 40
2.900000095367432
  1
F MAX   39KN
 50
120.0
 41
0.7991007117639062
  7
FDASTYLE1
 72
     5
 11
214.2665722732494
 21
85.49901892980482
 31
0.0
  0
TEXT
  5
55A
  8
0
 62
     5
 10
112.1741118900161
 20
-57.9300134326189
 30
0.0
 40
5.0
  1
NIKKO
 41
0.7674421159044375
  7
FDASTYLE1
 72
     5
 11
135.7455432884078
 21
-57.9300134326189
 31
0.0
  0
TEXT
  5
55B
  8
0
 62
     5
 10
143.5312549344878
 20
-57.4300134326189
 30
0.0
 40
4.0
  1
 GO3-8S
 41
0.7704920544480066
  7
FDASTYLE1
 72
     5
 11
170.3884007207732
 21
-57.4300134326189
 31
0.0
  0
TEXT
  5
55C
  8
0
 62
     5
 10
143.8883980981688
 20
-63.93001343261889
 30
0.0
 40
3.0
  1
 0001
 41
0.7674420500137306
  7
FDASTYLE1
 72
     5
 11
158.0312556497435
 21
-63.93001343261889
 31
0.0
  0
TEXT
  5
55D
  8
0
 62
     5
 10
236.2955688004444
 20
57.34369873417901
 30
0.0
 40
2.900000095367432
  1
ΣS MAX  40KN
 50
120.0
 41
0.8042452940648105
  7
FDASTYLE1
 72
     5
 11
218.5967114334057
 21
87.99901892980482
 31
0.0
  0
TEXT
  5
55E
  8
0
 62
     5
 10
240.6256469254444
 20
59.84369873417901
 30
0.0
 40
2.900000095367432
  1
N MAX 3000 AT ΣS MAX
 50
120.0
 41
0.8037156797587191
  7
FDASTYLE1
 72
     5
 11
210.8397653465221
 21
111.4343589771023
 31
0.0
  0
LINE
  5
55F
  8
0
  6
CONTINUOUS
 62
     3
 10
-119.0713209848419
 20
75.06998656738109
 30
0.0
 11
-119.0713209848419
 21
68.06998656738109
 31
0.0
  0
CIRCLE
  5
560
  8
0
  6
CONTINUOUS
 62
     3
 10
140.959773323622
 20
61.57005717616875
 30
0.0
 40
2.5
  0
CIRCLE
  5
561
  8
0
  6
CONTINUOUS
 62
     3
 10
113.959773323622
 20
33.57005717616875
 30
0.0
 40
2.65
  0
CIRCLE
  5
562
  8
0
  6
CONTINUOUS
 62
     3
 10
116.7108859308972
 20
19.5700571761688
 30
0.0
 40
2.5
  0
CIRCLE
  5
563
  8
0
  6
CONTINUOUS
 62
     3
 10
165.208396586206
 20
19.56990468056093
 30
0.0
 40
2.499999999999999
  0
CIRCLE
  5
564
  8
0
  6
CONTINUOUS
 62
     3
 10
167.959773323622
 20
33.57005717616875
 30
0.0
 40
2.65
  0
VIEWPORT
  5
48
 67
     1
  8
0
 10
0.0
 20
0.0
 30
0.0
 40
1662.0
 41
1140.0
 68
     1
 69
     1
1001
ACAD
1000
MVIEW
1002
{
1070
    16
1010
0.0
1020
0.0
1030
0.0
1020
0.0
1030
0.0
1010
0.0
1020
0.0
1030
1.0
1020
0.0
1030
1.0
1040
0.0
1040
1140.0
1040
0.0
1040
0.0
1040
50.0
1040
0.0
1040
0.0
1070
     0
1070
   100
1070
     0
1070
     1
1070
     0
1070
     0
1070
     0
1070
     0
1040
0.0
1040
0.0
1040
0.0
1040
0.5
1040
0.5
1040
0.0
1040
0.0
1070
     0
1002
{
1002
}
1002
}
  0
ENDSEC
  0
EOF
