  0
SECTION
  2
HEADER
  9
$ACADVER
  1
AC1009
  9
$DWGCODEPAGE
  3
ansi_932
  9
$INSBASE
 10
0.0
 20
0.0
 30
0.0
  9
$EXTMIN
 10
-831.0
 20
-569.9999999999999
 30
0.0
  9
$EXTMAX
 10
831.0
 20
569.9999999999999
 30
0.0
  9
$LIMMIN
 10
-297.0
 20
-210.0
  9
$LIMMAX
 10
297.0
 20
210.0
  9
$ORTHOMODE
 70
     0
  9
$REGENMODE
 70
     1
  9
$FILLMODE
 70
     1
  9
$QTEXTMODE
 70
     0
  9
$MIRRTEXT
 70
     1
  9
$DRAGMODE
 70
     2
  9
$LTSCALE
 40
0.25
  9
$OSMODE
 70
    37
  9
$ATTMODE
 70
     1
  9
$TEXTSIZE
 40
0.2
  9
$TRACEWID
 40
0.05
  9
$TEXTSTYLE
  7
STANDARD
  9
$CLAYER
  8
0
  9
$CELTYPE
  6
BYLAYER
  9
$CECOLOR
 62
   256
  9
$DIMSCALE
 40
1.0
  9
$DIMASZ
 40
2.499996185302734
  9
$DIMEXO
 40
1.0
  9
$DIMDLI
 40
10.0
  9
$DIMRND
 40
0.0
  9
$DIMDLE
 40
0.0
  9
$DIMEXE
 40
1.0
  9
$DIMTP
 40
0.0
  9
$DIMTM
 40
0.0
  9
$DIMTXT
 40
4.0
  9
$DIMCEN
 40
0.0
  9
$DIMTSZ
 40
0.0
  9
$DIMTOL
 70
     0
  9
$DIMLIM
 70
     0
  9
$DIMTIH
 70
     0
  9
$DIMTOH
 70
     0
  9
$DIMSE1
 70
     0
  9
$DIMSE2
 70
     0
  9
$DIMTAD
 70
     1
  9
$DIMZIN
 70
     8
  9
$DIMBLK
  1

  9
$DIMASO
 70
     1
  9
$DIMSHO
 70
     1
  9
$DIMPOST
  1

  9
$DIMAPOST
  1

  9
$DIMALT
 70
     0
  9
$DIMALTD
 70
     2
  9
$DIMALTF
 40
0.0393700787401575
  9
$DIMLFAC
 40
1.0
  9
$DIMTOFL
 70
     0
  9
$DIMTVP
 40
0.0
  9
$DIMTIX
 70
     0
  9
$DIMSOXD
 70
     0
  9
$DIMSAH
 70
     0
  9
$DIMBLK1
  1

  9
$DIMBLK2
  1

  9
$DIMSTYLE
  2
STANDARD
  9
$DIMCLRD
 70
     0
  9
$DIMCLRE
 70
     0
  9
$DIMCLRT
 70
     0
  9
$DIMTFAC
 40
0.65
  9
$DIMGAP
 40
0.09
  9
$LUNITS
 70
     2
  9
$LUPREC
 70
     4
  9
$SKETCHINC
 40
0.1
  9
$FILLETRAD
 40
0.5
  9
$AUNITS
 70
     0
  9
$AUPREC
 70
     0
  9
$MENU
  1
.
  9
$ELEVATION
 40
0.0
  9
$PELEVATION
 40
0.0
  9
$THICKNESS
 40
0.0
  9
$LIMCHECK
 70
     0
  9
$CHAMFERA
 40
0.0
  9
$CHAMFERB
 40
0.0
  9
$SKPOLY
 70
     0
  9
$TDCREATE
 40
2459766.384166921
  9
$TDUPDATE
 40
2459766.38416728
  9
$TDINDWG
 40
0.0000000116
  9
$TDUSRTIMER
 40
0.0000000116
  9
$USRTIMER
 70
     1
  9
$ANGBASE
 50
0.0
  9
$ANGDIR
 70
     0
  9
$PDMODE
 70
     0
  9
$PDSIZE
 40
1.0
  9
$PLINEWID
 40
0.0
  9
$COORDS
 70
     1
  9
$SPLFRAME
 70
     0
  9
$SPLINETYPE
 70
     6
  9
$SPLINESEGS
 70
     8
  9
$ATTDIA
 70
     0
  9
$ATTREQ
 70
     1
  9
$HANDLING
 70
     1
  9
$HANDSEED
  5
431
  9
$SURFTAB1
 70
     6
  9
$SURFTAB2
 70
     6
  9
$SURFTYPE
 70
     6
  9
$SURFU
 70
     6
  9
$SURFV
 70
     6
  9
$UCSNAME
  2

  9
$UCSORG
 10
0.0
 20
0.0
 30
0.0
  9
$UCSXDIR
 10
1.0
 20
0.0
 30
0.0
  9
$UCSYDIR
 10
0.0
 20
1.0
 30
0.0
  9
$PUCSNAME
  2

  9
$PUCSORG
 10
0.0
 20
0.0
 30
0.0
  9
$PUCSXDIR
 10
1.0
 20
0.0
 30
0.0
  9
$PUCSYDIR
 10
0.0
 20
1.0
 30
0.0
  9
$USERI1
 70
     0
  9
$USERI2
 70
     0
  9
$USERI3
 70
     0
  9
$USERI4
 70
     0
  9
$USERI5
 70
     0
  9
$USERR1
 40
0.0
  9
$USERR2
 40
0.0
  9
$USERR3
 40
0.0
  9
$USERR4
 40
0.0
  9
$USERR5
 40
0.0
  9
$WORLDVIEW
 70
     1
  9
$SHADEDGE
 70
     3
  9
$SHADEDIF
 70
    70
  9
$TILEMODE
 70
     1
  9
$MAXACTVP
 70
    64
  9
$PLIMCHECK
 70
     0
  9
$PEXTMIN
 10
1.000000000000000E+20
 20
1.000000000000000E+20
 30
1.000000000000000E+20
  9
$PEXTMAX
 10
-1.000000000000000E+20
 20
-1.000000000000000E+20
 30
-1.000000000000000E+20
  9
$PLIMMIN
 10
0.0
 20
0.0
  9
$PLIMMAX
 10
12.0
 20
9.0
  9
$UNITMODE
 70
     0
  9
$VISRETAIN
 70
     0
  9
$PLINEGEN
 70
     1
  9
$PSLTSCALE
 70
     0
  0
ENDSEC
  0
SECTION
  2
TABLES
  0
TABLE
  2
VPORT
 70
     1
  0
VPORT
  2
*ACTIVE
 70
     0
 10
0.0
 20
0.0
 11
1.0
 21
1.0
 12
0.0
 22
0.0
 13
0.0
 23
0.0
 14
0.5
 24
0.5
 15
0.5
 25
0.5
 16
0.0
 26
0.0
 36
1.0
 17
-0.0000000000000036
 27
0.0
 37
0.0
 40
387.6
 41
1.457894736842106
 42
50.0
 43
0.0
 44
0.0
 50
0.0
 51
0.0
 71
     0
 72
  1000
 73
     1
 74
     1
 75
     0
 76
     0
 77
     0
 78
     0
  0
ENDTAB
  0
TABLE
  2
LTYPE
 70
    67
  0
LTYPE
  2
CONTINUOUS
 70
     0
  3
Solid line
 72
    65
 73
     0
 40
0.0
  0
LTYPE
  2
HIDDENX2
 70
     0
  3
Hidden (2x) ____ ____ ____ ____ ____ ____ ____ 
 72
    65
 73
     2
 40
19.05
 49
12.7
 49
-6.35
  0
LTYPE
  2
HIDDEN
 70
     0
  3
Hidden __ __ __ __ __ __ __ __ __ __ __ __ __ __
 72
    65
 73
     2
 40
9.524999999999999
 49
6.35
 49
-3.175
  0
LTYPE
  2
HIDDEN2
 70
     0
  3
Hidden (.5x) _ _ _ _ _ _ _ _ _ _ _ _ _ _ _ _ _ 
 72
    65
 73
     2
 40
4.762499999999999
 49
3.175
 49
-1.5875
  0
LTYPE
  2
DASHED
 70
     0
  3
Dashed __ __ __ __ __ __ __ __ __ __ __ __ __ _
 72
    65
 73
     2
 40
19.05
 49
12.7
 49
-6.35
  0
LTYPE
  2
DASHED2
 70
     0
  3
Dashed (.5x) _ _ _ _ _ _ _ _ _ _ _ _ _ _ _ _ _ 
 72
    65
 73
     2
 40
9.524999999999999
 49
6.35
 49
-3.175
  0
LTYPE
  2
DASHEDX2
 70
     0
  3
Dashed (2x) ____  ____  ____  ____  ____  ___
 72
    65
 73
     2
 40
38.09999999999999
 49
25.4
 49
-12.7
  0
LTYPE
  2
DOTX2
 70
     0
  3
Dot (2x) .  .  .  .  .  .  .  .  .  .  .  .  .  .
 72
    65
 73
     2
 40
12.7
 49
0.0
 49
-12.7
  0
LTYPE
  2
DOT
 70
     0
  3
Dot . . . . . . . . . . . . . . . . . . . . . . . .
 72
    65
 73
     2
 40
6.35
 49
0.0
 49
-6.35
  0
LTYPE
  2
DOT2
 70
     0
  3
Dot (.5x) ........................................
 72
    65
 73
     2
 40
3.175
 49
0.0
 49
-3.175
  0
LTYPE
  2
CENTERX2
 70
     0
  3
Center (2x) ________  __  ________  __  _____
 72
    65
 73
     4
 40
101.6
 49
63.5
 49
-12.7
 49
12.7
 49
-12.7
  0
LTYPE
  2
CENTER
 70
     0
  3
Center ____ _ ____ _ ____ _ ____ _ ____ _ ____
 72
    65
 73
     4
 40
50.8
 49
31.75
 49
-6.35
 49
6.35
 49
-6.35
  0
LTYPE
  2
CENTER2
 70
     0
  3
Center (.5x) ___ _ ___ _ ___ _ ___ _ ___ _ ___
 72
    65
 73
     4
 40
28.575
 49
19.05
 49
-3.175
 49
3.175
 49
-3.175
  0
LTYPE
  2
DASHDOTX2
 70
     0
  3
Dash dot (2x) ____  .  ____  .  ____  .  ___
 72
    65
 73
     4
 40
50.8
 49
25.4
 49
-12.7
 49
0.0
 49
-12.7
  0
LTYPE
  2
DASHDOT
 70
     0
  3
Dash dot __ . __ . __ . __ . __ . __ . __ . __
 72
    65
 73
     4
 40
25.4
 49
12.7
 49
-6.35
 49
0.0
 49
-6.35
  0
LTYPE
  2
DASHDOT2
 70
     0
  3
Dash dot (.5x) _._._._._._._._._._._._._._._.
 72
    65
 73
     4
 40
12.7
 49
6.35
 49
-3.175
 49
0.0
 49
-3.175
  0
LTYPE
  2
DIVIDEX2
 70
     0
  3
Divide (2x) ________  .  .  ________  .  .  _
 72
    65
 73
     6
 40
63.5
 49
25.4
 49
-12.7
 49
0.0
 49
-12.7
 49
0.0
 49
-12.7
  0
LTYPE
  2
DIVIDE
 70
     0
  3
Divide ____ . . ____ . . ____ . . ____ . . ____
 72
    65
 73
     6
 40
31.75
 49
12.7
 49
-6.35
 49
0.0
 49
-6.35
 49
0.0
 49
-6.35
  0
LTYPE
  2
DIVIDE2
 70
     0
  3
Divide (.5x) __..__..__..__..__..__..__..__.._
 72
    65
 73
     6
 40
15.875
 49
6.35
 49
-3.175
 49
0.0
 49
-3.175
 49
0.0
 49
-3.175
  0
LTYPE
  2
BORDERX2
 70
     0
  3
Border (2x) ____  ____  .  ____  ____  .  ___
 72
    65
 73
     6
 40
88.89999999999999
 49
25.4
 49
-12.7
 49
25.4
 49
-12.7
 49
0.0
 49
-12.7
  0
LTYPE
  2
BORDER
 70
     0
  3
Border __ __ . __ __ . __ __ . __ __ . __ __ .
 72
    65
 73
     6
 40
44.45
 49
12.7
 49
-6.35
 49
12.7
 49
-6.35
 49
0.0
 49
-6.35
  0
LTYPE
  2
BORDER2
 70
     0
  3
Border (.5x) __.__.__.__.__.__.__.__.__.__.__.
 72
    65
 73
     6
 40
22.225
 49
6.35
 49
-3.175
 49
6.35
 49
-3.175
 49
0.0
 49
-3.175
  0
LTYPE
  2
PHANTOMX2
 70
     0
  3
Phantom (2x) ____________    ____    ____   _
 72
    65
 73
     6
 40
127.0
 49
63.5
 49
-12.7
 49
12.7
 49
-12.7
 49
12.7
 49
-12.7
  0
LTYPE
  2
PHANTOM
 70
     0
  3
Phantom ______  __  __  ______  __  __  ______ 
 72
    65
 73
     6
 40
63.5
 49
31.75
 49
-6.35
 49
6.35
 49
-6.35
 49
6.35
 49
-6.35
  0
LTYPE
  2
PHANTOM2
 70
     0
  3
Phantom (.5x) ___ _ _ ___ _ _ ___ _ _ ___ _ _
 72
    65
 73
     6
 40
31.75
 49
15.875
 49
-3.175
 49
3.175
 49
-3.175
 49
3.175
 49
-3.175
  0
LTYPE
  2
ACAD_ISO06W100
 70
     0
  3
ISO long-dash triple-dot ____ ... ____ ... ____
 72
    65
 73
     8
 40
36.0
 49
24.0
 49
-3.0
 49
0.0
 49
-3.0
 49
0.0
 49
-3.0
 49
0.0
 49
-3.0
  0
LTYPE
  2
ACAD_ISO13W100
 70
     0
  3
ISO double-dash double-dot __ __ . . __ __ . . _
 72
    65
 73
     8
 40
36.0
 49
12.0
 49
-3.0
 49
12.0
 49
-3.0
 49
0.0
 49
-3.0
 49
0.0
 49
-3.0
  0
LTYPE
  2
ACAD_ISO14W100
 70
     0
  3
ISO dash triple-dot __ . . . __ . . . __ . . . _
 72
    65
 73
     8
 40
24.0
 49
12.0
 49
-3.0
 49
0.0
 49
-3.0
 49
0.0
 49
-3.0
 49
0.0
 49
-3.0
  0
LTYPE
  2
ACAD_ISO02W100
 70
     0
  3
ISO dash __ __ __ __ __ __ __ __ __ __ __ __ __
 72
    65
 73
     2
 40
15.0
 49
12.0
 49
-3.0
  0
LTYPE
  2
ACAD_ISO03W100
 70
     0
  3
ISO dash space __    __    __    __    __    __
 72
    65
 73
     2
 40
30.0
 49
12.0
 49
-18.0
  0
LTYPE
  2
ACAD_ISO04W100
 70
     0
  3
ISO long-dash dot ____ . ____ . ____ . ____ . _
 72
    65
 73
     4
 40
30.0
 49
24.0
 49
-3.0
 49
0.0
 49
-3.0
  0
LTYPE
  2
ACAD_ISO05W100
 70
     0
  3
ISO long-dash double-dot ____ .. ____ .. ____ . 
 72
    65
 73
     6
 40
33.0
 49
24.0
 49
-3.0
 49
0.0
 49
-3.0
 49
0.0
 49
-3.0
  0
LTYPE
  2
ACAD_ISO07W100
 70
     0
  3
ISO dot . . . . . . . . . . . . . . . . . . . . 
 72
    65
 73
     2
 40
3.0
 49
0.0
 49
-3.0
  0
LTYPE
  2
ACAD_ISO08W100
 70
     0
  3
ISO long-dash short-dash ____ __ ____ __ ____ _
 72
    65
 73
     4
 40
36.0
 49
24.0
 49
-3.0
 49
6.0
 49
-3.0
  0
LTYPE
  2
ACAD_ISO09W100
 70
     0
  3
ISO long-dash double-short-dash ____ __ __ ____
 72
    65
 73
     6
 40
45.0
 49
24.0
 49
-3.0
 49
6.0
 49
-3.0
 49
6.0
 49
-3.0
  0
LTYPE
  2
ACAD_ISO10W100
 70
     0
  3
ISO dash dot __ . __ . __ . __ . __ . __ . __ . 
 72
    65
 73
     4
 40
18.0
 49
12.0
 49
-3.0
 49
0.0
 49
-3.0
  0
LTYPE
  2
ACAD_ISO11W100
 70
     0
  3
ISO double-dash dot __ __ . __ __ . __ __ . __ _
 72
    65
 73
     6
 40
33.0
 49
12.0
 49
-3.0
 49
12.0
 49
-3.0
 49
0.0
 49
-3.0
  0
LTYPE
  2
ACAD_ISO12W100
 70
     0
  3
ISO dash double-dot __ . . __ . . __ . . __ . . 
 72
    65
 73
     6
 40
21.0
 49
12.0
 49
-3.0
 49
0.0
 49
-3.0
 49
0.0
 49
-3.0
  0
LTYPE
  2
ACAD_ISO15W100
 70
     0
  3
ISO double-dash triple-dot __ __ . . . __ __ . .
 72
    65
 73
    10
 40
39.0
 49
12.0
 49
-3.0
 49
12.0
 49
-3.0
 49
0.0
 49
-3.0
 49
0.0
 49
-3.0
 49
0.0
 49
-3.0
  0
LTYPE
  2
JIS_02_0_7
 70
     0
  3
HIDDEN0.75 _ _ _ _ _ _ _ _ _ _ _ _ _ _ _ _ _ 
 72
    65
 73
     2
 40
1.35
 49
0.75
 49
-0.6
  0
LTYPE
  2
JIS_02_1_0
 70
     0
  3
HIDDEN01 _ _ _ _ _ _ _ _ _ _ _ _ _ _ _ _ _ 
 72
    65
 73
     2
 40
2.0
 49
1.0
 49
-1.0
  0
LTYPE
  2
JIS_02_1_2
 70
     0
  3
HIDDEN01.25  _ _ _ _ _ _ _ _ _ _ _ _ _ _ _ _ _ 
 72
    65
 73
     2
 40
2.5
 49
1.25
 49
-1.25
  0
LTYPE
  2
JIS_02_2_0
 70
     0
  3
HIDDEN02 __ __ __ __ __ __ __ __ __ __ __ 
 72
    65
 73
     2
 40
3.0
 49
2.0
 49
-1.0
  0
LTYPE
  2
JIS_02_4_0
 70
     0
  3
HIDDEN04 ____ ____ ____ ____ ____ ____ ____ 
 72
    65
 73
     2
 40
5.5
 49
4.0
 49
-1.5
  0
LTYPE
  2
JIS_08_11
 70
     0
  3
1SASEN11 ___ _ ___ _ ___ _ ___ _ ___ _ ___
 72
    65
 73
     4
 40
12.8
 49
11.0
 49
-0.6
 49
0.6
 49
-0.6
  0
LTYPE
  2
JIS_08_15
 70
     0
  3
1SASEN15 ____ _ ____ _ ____ _ ____ _ ____ 
 72
    65
 73
     4
 40
17.25
 49
15.0
 49
-0.75
 49
0.75
 49
-0.75
  0
LTYPE
  2
JIS_08_25
 70
     0
  3
1SASEN25 ________  __  ________  __  _____
 72
    65
 73
     4
 40
28.0
 49
25.0
 49
-1.125
 49
0.75
 49
-1.125
  0
LTYPE
  2
JIS_08_37
 70
     0
  3
1SASEN37 ________  __  ________  __  _____
 72
    65
 73
     4
 40
40.5
 49
37.5
 49
-1.125
 49
0.75
 49
-1.125
  0
LTYPE
  2
JIS_08_50
 70
     0
  3
1SASEN50 _______________  __  ____________
 72
    65
 73
     4
 40
53.0
 49
50.0
 49
-1.125
 49
0.75
 49
-1.125
  0
LTYPE
  2
JIS_09_08
 70
     0
  3
2SASEN8 __ _ _ __ _ _ __ _ _ __ _ _ __ _ _ 
 72
    65
 73
     6
 40
10.75
 49
8.0
 49
-0.55
 49
0.55
 49
-0.55
 49
0.55
 49
-0.55
  0
LTYPE
  2
JIS_09_15
 70
     0
  3
2SASEN15 ___ _ _ ___ _ _ ___ _ _ ___ _ _ ___ 
 72
    65
 73
     6
 40
18.9
 49
15.0
 49
-0.9
 49
0.6
 49
-0.9
 49
0.6
 49
-0.9
  0
LTYPE
  2
JIS_09_29
 70
     0
  3
2SASEN29 ______　__  __  ______　__  __  ___
 72
    65
 73
     6
 40
34.0
 49
29.0
 49
-1.2
 49
0.7
 49
-1.2
 49
0.7
 49
-1.2
  0
LTYPE
  2
JIS_09_50
 70
     0
  3
2SASEN50 ____________　__  __  _____________
 72
    65
 73
     6
 40
55.0
 49
50.0
 49
-1.2
 49
0.7
 49
-1.2
 49
0.7
 49
-1.2
  0
LTYPE
  2
SXF_破線
 70
     0
  3
02 dashed -- -- -- -- -- --
 72
    65
 73
     2
 40
7.5
 49
6.0
 49
-1.5
  0
LTYPE
  2
SXF_跳び破線
 70
     0
  3
03 dashed_spaced --  --  --  --
 72
    65
 73
     2
 40
12.0
 49
6.0
 49
-6.0
  0
LTYPE
  2
SXF_一点長鎖線
 70
     0
  3
04 long_dashed_dotted ---- . ---- . ----
 72
    65
 73
     4
 40
15.25
 49
12.0
 49
-1.5
 49
0.25
 49
-1.5
  0
LTYPE
  2
SXF_二点長鎖線
 70
     0
  3
05 long_dashed_double-dotted ---- . . ---- 
 72
    65
 73
     6
 40
17.0
 49
12.0
 49
-1.5
 49
0.25
 49
-1.5
 49
0.25
 49
-1.5
  0
LTYPE
  2
SXF_三点長鎖線
 70
     0
  3
06 long_dashed_triplicate-dotted ---- ... ---- 
 72
    65
 73
     8
 40
18.75
 49
12.0
 49
-1.5
 49
0.25
 49
-1.5
 49
0.25
 49
-1.5
 49
0.25
 49
-1.5
  0
LTYPE
  2
SXF_点線
 70
     0
  3
07 dotted . . . . . . . . . . . . 
 72
    65
 73
     2
 40
1.75
 49
0.25
 49
-1.5
  0
LTYPE
  2
SXF_一点鎖線
 70
     0
  3
08 chain ---- - --- - --- - ---
 72
    65
 73
     4
 40
18.5
 49
12.0
 49
-1.5
 49
3.5
 49
-1.5
  0
LTYPE
  2
SXF_二点鎖線
 70
     0
  3
09 chain_double_dash ---- - - ---- - - ----
 72
    65
 73
     6
 40
23.5
 49
12.0
 49
-1.5
 49
3.5
 49
-1.5
 49
3.5
 49
-1.5
  0
LTYPE
  2
SXF_一点短鎖線
 70
     0
  3
10 dashed_dotted -- . -- . -- . --
 72
    65
 73
     4
 40
9.25
 49
6.0
 49
-1.5
 49
0.25
 49
-1.5
  0
LTYPE
  2
SXF_一点二短鎖線
 70
     0
  3
11 double-dashed_dotted -- -- . -- --
 72
    65
 73
     6
 40
16.75
 49
6.0
 49
-1.5
 49
6.0
 49
-1.5
 49
0.25
 49
-1.5
  0
LTYPE
  2
SXF_二点短鎖線
 70
     0
  3
12 dashed_double_dotted -- . . -- . . --
 72
    65
 73
     6
 40
11.0
 49
6.0
 49
-1.5
 49
0.25
 49
-1.5
 49
0.25
 49
-1.5
  0
LTYPE
  2
SXF_二点二短鎖線
 70
     0
  3
13 double-dashed_double-dotted -- -- . . -- --
 72
    65
 73
     8
 40
18.5
 49
6.0
 49
-1.5
 49
6.0
 49
-1.5
 49
0.25
 49
-1.5
 49
0.25
 49
-1.5
  0
LTYPE
  2
SXF_三点短鎖線
 70
     0
  3
14 dashed triplicate-dotted -- . . . -- . . . --
 72
    65
 73
     8
 40
12.75
 49
6.0
 49
-1.5
 49
0.25
 49
-1.5
 49
0.25
 49
-1.5
 49
0.25
 49
-1.5
  0
LTYPE
  2
SXF_三点二短鎖線
 70
     0
  3
15 double-dashed triplicate-dotted -- -- . . . -- -- 
 72
    65
 73
    10
 40
20.25
 49
6.0
 49
-1.5
 49
6.0
 49
-1.5
 49
0.25
 49
-1.5
 49
0.25
 49
-1.5
 49
0.25
 49
-1.5
  0
ENDTAB
  0
TABLE
  2
LAYER
 70
     3
  0
LAYER
  2
0
 70
     0
 62
     7
  6
CONTINUOUS
  0
LAYER
  2
LAYER0014
 70
     0
 62
     7
  6
CONTINUOUS
  0
LAYER
  2
ZUWAKU
 70
     0
 62
     7
  6
CONTINUOUS
  0
ENDTAB
  0
TABLE
  2
STYLE
 70
     5
  0
STYLE
  2
STANDARD
 70
     0
 40
0.0
 41
1.0
 50
0.0
 71
     0
 42
0.2
  3
txt.shx
  4
bigfont.shx
  0
STYLE
  2
DCSTYLE1
 70
     0
 40
0.0
 41
0.8
 50
0.0
 71
     0
 42
0.2
  3
txt.shx
  4
bigfont
  0
STYLE
  2
DCSTYLE0
 70
     4
 40
0.0
 41
0.8
 50
0.0
 71
     0
 42
0.2
  3
txt.shx
  4
bigfont
  0
STYLE
  2
DCSTYLE2
 70
     0
 40
0.0
 41
0.8
 50
0.0
 71
     0
 42
0.2
  3
ＭＳ 明朝
  4

  0
STYLE
  2
DCSTYLE3
 70
     0
 40
0.0
 41
1.0
 50
0.0
 71
     0
 42
0.2
  3
ＭＳ ゴシック
  4

  0
ENDTAB
  0
TABLE
  2
VIEW
 70
     0
  0
ENDTAB
  0
TABLE
  2
UCS
 70
     0
  0
ENDTAB
  0
TABLE
  2
APPID
 70
     2
  0
APPID
  2
ACAD
 70
     0
  0
APPID
  2
DAFUSIONOUT
 70
     0
  0
ENDTAB
  0
TABLE
  2
DIMSTYLE
 70
     1
  0
DIMSTYLE
  2
STANDARD
 70
     0
  3

  4

  5

  6

  7

 40
1.0
 41
0.18
 42
0.0625
 43
0.38
 44
0.18
 45
0.0
 46
0.0
 47
0.0
 48
0.0
140
0.18
141
0.09
142
0.0
143
25.4
144
1.0
145
0.0
146
1.0
147
0.09
 71
     0
 72
     0
 73
     1
 74
     1
 75
     0
 76
     0
 77
     0
 78
     0
170
     0
171
     2
172
     0
173
     0
174
     0
175
     0
176
     0
177
     0
178
     0
  0
ENDTAB
  0
ENDSEC
  0
SECTION
  2
BLOCKS
  0
BLOCK
  8
0
  2
$MODEL_SPACE
 70
     0
 10
0.0
 20
0.0
 30
0.0
  3
$MODEL_SPACE
  1

  0
ENDBLK
  5
21
  8
0
  0
BLOCK
 67
     1
  8
0
  2
$PAPER_SPACE
 70
     0
 10
0.0
 20
0.0
 30
0.0
  3
$PAPER_SPACE
  1

  0
ENDBLK
  5
1D
 67
     1
  8
0
  0
BLOCK
  8
0
  2
DC_IMAGEDIMGROUP_1
 70
     0
 10
0.0
 20
0.0
 30
0.0
  3
DC_IMAGEDIMGROUP_1
  1

  0
LINE
  5
126
  8
LAYER0014
  6
CONTINUOUS
 62
     7
 10
-246.179319187449
 20
-27.78884983486745
 30
0.0
 11
-246.179319187449
 21
74.21115016513255
 31
0.0
  0
INSERT
  5
12D
  8
LAYER0014
 62
     7
  2
_OPEN30
 10
-246.179319187449
 20
-27.78884983486745
 30
0.0
 41
2.499995396844351
 42
2.500007167085477
 50
270.0
  0
INSERT
  5
12E
  8
LAYER0014
 62
     7
  2
_OPEN30
 10
-246.179319187449
 20
74.21115016513255
 30
0.0
 41
2.499995396844351
 42
2.500007167085477
 50
90.0
  0
LINE
  5
12F
  8
LAYER0014
  6
CONTINUOUS
 62
     7
 10
-209.1208484951207
 20
-27.78884983486745
 30
0.0
 11
-247.179319187449
 21
-27.78884983486745
 31
0.0
  0
LINE
  5
130
  8
LAYER0014
  6
CONTINUOUS
 62
     7
 10
-211.48593028223
 20
74.21115016513255
 30
0.0
 11
-247.179319187449
 21
74.21115016513255
 31
0.0
  0
TEXT
  5
132
  8
LAYER0014
 62
     7
 10
-247.1960743397616
 20
13.61116478676497
 30
0.0
 40
4.0
  1
φ102H7
 50
89.89999999999999
 41
0.8615384615384619
  7
DCSTYLE1
 72
     5
 11
-247.1625640351364
 21
32.8111355435001
 31
0.0
  0
ENDBLK
  5
B6
  8
0
  0
BLOCK
  8
0
  2
DC_IMAGEDIMGROUP_2
 70
     0
 10
0.0
 20
0.0
 30
0.0
  3
DC_IMAGEDIMGROUP_2
  1

  0
LINE
  5
133
  8
LAYER0014
  6
CONTINUOUS
 62
     7
 10
-256.5379450840137
 20
-104.2888498348674
 30
0.0
 11
-256.5379450840137
 21
150.7111501651326
 31
0.0
  0
INSERT
  5
134
  8
LAYER0014
 62
     7
  2
_OPEN30
 10
-256.5379450840137
 20
-104.2888498348674
 30
0.0
 41
2.499995396844351
 42
2.500007167085477
 50
270.0
  0
INSERT
  5
135
  8
LAYER0014
 62
     7
  2
_OPEN30
 10
-256.5379450840137
 20
150.7111501651326
 30
0.0
 41
2.499995396844351
 42
2.500007167085477
 50
90.0
  0
LINE
  5
136
  8
LAYER0014
  6
CONTINUOUS
 62
     7
 10
-214.8208607021519
 20
-104.2888498348674
 30
0.0
 11
-257.5379450840137
 21
-104.2888498348674
 31
0.0
  0
LINE
  5
137
  8
LAYER0014
  6
CONTINUOUS
 62
     7
 10
-214.8208607021519
 20
150.7111501651326
 30
0.0
 11
-257.5379450840137
 21
150.7111501651326
 31
0.0
  0
TEXT
  5
138
  8
LAYER0014
 62
     7
 10
-257.5547002363263
 20
13.61116478676497
 30
0.0
 40
4.0
  1
φ255H7
 50
89.90000000000008
 41
0.8615384615384621
  7
DCSTYLE1
 72
     5
 11
-257.5211899317011
 21
32.81113554350011
 31
0.0
  0
ENDBLK
  5
B9
  8
0
  0
BLOCK
  8
0
  2
DC_IMAGEDIMGROUP_3
 70
     0
 10
0.0
 20
0.0
 30
0.0
  3
DC_IMAGEDIMGROUP_3
  1

  0
LINE
  5
139
  8
LAYER0014
  6
CONTINUOUS
 62
     7
 10
-192.2808607021519
 20
6.369902606538798
 30
0.0
 11
-160.2808607021519
 21
6.369902606538798
 31
0.0
  0
INSERT
  5
13A
  8
LAYER0014
 62
     7
  2
_OPEN30
 10
-192.2808607021519
 20
6.369902606538798
 30
0.0
 41
2.499995396844351
 42
2.500007167085477
 50
180.0
  0
INSERT
  5
13B
  8
LAYER0014
 62
     7
  2
_OPEN30
 10
-160.2808607021519
 20
6.369902606538798
 30
0.0
 41
2.499995396844351
 42
2.500007167085477
 50
360.0
  0
TEXT
  5
13C
  8
LAYER0014
 62
     7
 10
-179.4808607021519
 20
7.369902606538798
 30
0.0
 40
4.0
  1
32
 41
0.9081081081081049
  7
DCSTYLE1
 72
     5
 11
-173.0808607021519
 21
7.369902606538798
 31
0.0
  0
ENDBLK
  5
BC
  8
0
  0
BLOCK
  8
0
  2
DC_IMAGEDIMGROUP_4
 70
     0
 10
0.0
 20
0.0
 30
0.0
  3
DC_IMAGEDIMGROUP_4
  1

  0
LINE
  5
13D
  8
LAYER0014
  6
CONTINUOUS
 62
     7
 10
-231.6208484951207
 20
-37.46385288662526
 30
0.0
 11
-240.0751111904332
 21
-37.46385288662526
 31
0.0
  0
LINE
  5
13E
  8
LAYER0014
  6
CONTINUOUS
 62
     7
 10
-231.6208484951207
 20
-49.46385288662526
 30
0.0
 11
-240.0751111904332
 21
-49.46385288662526
 31
0.0
  0
LINE
  5
13F
  8
LAYER0014
  6
CONTINUOUS
 62
     7
 10
-237.7891004482457
 20
-37.46385288662526
 30
0.0
 11
-237.7891004482457
 21
-49.46385288662526
 31
0.0
  0
INSERT
  5
140
  8
LAYER0014
 62
     7
  2
_OPEN30
 10
-237.7891004482457
 20
-37.46385288662526
 30
0.0
 41
2.499995396844351
 42
2.500007167085477
 50
90.0
  0
INSERT
  5
141
  8
LAYER0014
 62
     7
  2
_OPEN30
 10
-237.7891004482457
 20
-49.46385288662526
 30
0.0
 41
2.499995396844351
 42
2.500007167085477
 50
270.0
  0
TEXT
  5
142
  8
LAYER0014
 62
     7
 10
-239.3974755874632
 20
-48.26105305042362
 30
0.0
 40
4.0
  1
M12
 50
89.90000000000008
 41
0.8262295081967233
  7
DCSTYLE1
 72
     5
 11
-239.3807204351506
 21
-38.66106767205603
 31
0.0
  0
ENDBLK
  5
BF
  8
0
  0
BLOCK
  8
0
  2
DC_IMAGEDIMGROUP_5
 70
     0
 10
0.0
 20
0.0
 30
0.0
  3
DC_IMAGEDIMGROUP_5
  1

  0
LINE
  5
143
  8
LAYER0014
  6
CONTINUOUS
 62
     7
 10
-142.2808607021519
 20
6.369902606538798
 30
0.0
 11
-132.2808454433629
 21
6.369902606538798
 31
0.0
  0
INSERT
  5
144
  8
LAYER0014
 62
     7
  2
_OPEN30
 10
-142.2808607021519
 20
6.369902606538798
 30
0.0
 41
2.499995396844351
 42
2.500007167085477
 50
180.0
  0
INSERT
  5
145
  8
LAYER0014
 62
     7
  2
_OPEN30
 10
-132.2808454433629
 20
6.369902606538798
 30
0.0
 41
2.499995396844351
 42
2.500007167085477
 50
360.0
  0
TEXT
  5
146
  8
LAYER0014
 62
     7
 10
-140.4808481988799
 20
7.375487657309673
 30
0.0
 40
4.0
  1
10
 50
359.9
 41
0.9081081081081027
  7
DCSTYLE1
 72
     5
 11
-134.0808579466349
 21
7.364317555767923
 31
0.0
  0
ENDBLK
  5
C2
  8
0
  0
BLOCK
  8
0
  2
DC_IMAGEDIMGROUP_6
 70
     0
 10
0.0
 20
0.0
 30
0.0
  3
DC_IMAGEDIMGROUP_6
  1

  0
LINE
  5
147
  8
LAYER0014
  6
CONTINUOUS
 62
     7
 10
-142.2808607021519
 20
6.369902606538798
 30
0.0
 11
-160.2808607021519
 21
6.369902606538798
 31
0.0
  0
INSERT
  5
148
  8
LAYER0014
 62
     7
  2
_OPEN30
 10
-142.2808607021519
 20
6.369902606538798
 30
0.0
 41
2.499995396844351
 42
2.500007167085477
 50
360.0
  0
INSERT
  5
149
  8
LAYER0014
 62
     7
  2
_OPEN30
 10
-160.2808607021519
 20
6.369902606538798
 30
0.0
 41
2.499995396844351
 42
2.500007167085477
 50
180.0
  0
TEXT
  5
14A
  8
LAYER0014
 62
     7
 10
-154.4808607021519
 20
7.369902606538798
 30
0.0
 40
4.0
  1
18
 41
0.9081081081081049
  7
DCSTYLE1
 72
     5
 11
-148.0808607021519
 21
7.369902606538798
 31
0.0
  0
ENDBLK
  5
C5
  8
0
  0
BLOCK
  8
0
  2
DC_IMAGEDIMGROUP_7
 70
     0
 10
0.0
 20
0.0
 30
0.0
  3
DC_IMAGEDIMGROUP_7
  1

  0
LINE
  5
14B
  8
LAYER0014
  6
CONTINUOUS
 62
     7
 10
-129.2808454433629
 20
6.369902606538798
 30
0.0
 11
-132.2808454433629
 21
6.369902606538798
 31
0.0
  0
LINE
  5
14C
  8
LAYER0014
  6
CONTINUOUS
 62
     7
 10
-121.7780591884801
 20
6.369902606538798
 30
0.0
 11
-129.2808454433629
 21
6.369902606538798
 31
0.0
  0
INSERT
  5
14D
  8
LAYER0014
 62
     7
  2
_OPEN30
 10
-129.2808454433629
 20
6.369902606538798
 30
0.0
 41
2.499995396844351
 42
2.500007167085477
 50
180.0
  0
LINE
  5
14E
  8
LAYER0014
  6
CONTINUOUS
 62
     7
 10
-137.2808454433629
 20
6.369902606538798
 30
0.0
 11
-132.2808454433629
 21
6.369902606538798
 31
0.0
  0
INSERT
  5
14F
  8
LAYER0014
 62
     7
  2
_OPEN30
 10
-132.2808454433629
 20
6.369902606538798
 30
0.0
 41
2.499995396844351
 42
2.500007167085477
 50
360.0
  0
TEXT
  5
150
  8
LAYER0014
 62
     7
 10
-125.97805918848
 20
7.369902606538798
 30
0.0
 40
4.0
  1
3
 41
0.9882352941176479
  7
DCSTYLE1
 72
     5
 11
-122.77805918848
 21
7.369902606538798
 31
0.0
  0
ENDBLK
  5
C8
  8
0
  0
BLOCK
  8
0
  2
DC_GROUP_1
 70
     0
 10
0.0
 20
0.0
 30
0.0
  3
DC_GROUP_1
  1

  0
LINE
  5
151
  8
LAYER0014
  6
CONTINUOUS
 62
     7
 10
-81.67566172007594
 20
143.937418631899
 30
0.0
 11
-61.52109394068146
 21
168.9680885842141
 31
0.0
  0
INSERT
  5
152
  8
LAYER0014
 62
     7
  2
_OPEN30
 10
-81.67566172007594
 20
143.937418631899
 30
0.0
 41
2.499995396844351
 42
2.500007167085477
 50
231.1591597473411
  0
LINE
  5
153
  8
LAYER0014
  6
CONTINUOUS
 62
     7
 10
-61.52109126245467
 20
168.9680776553669
 30
0.0
 11
-50.091422835941
 21
168.9680776553669
 31
0.0
  0
TEXT
  5
154
  8
LAYER0014
 62
     7
 10
-61.19601039087264
 20
170.5680776553669
 30
0.0
 40
4.0
  1
M12
 41
0.8262295081967216
  7
DCSTYLE1
 72
     5
 11
-51.59601039087264
 21
170.5680776553669
 31
0.0
  0
ENDBLK
  5
CB
  8
0
  0
BLOCK
  8
0
  2
DC_IMAGEDIMGROUP_8
 70
     0
 10
0.0
 20
0.0
 30
0.0
  3
DC_IMAGEDIMGROUP_8
  1

  0
LINE
  5
155
  8
LAYER0014
  6
CONTINUOUS
 62
     7
 10
-64.96809458887068
 20
138.2111501651326
 30
0.0
 11
-58.52890757715193
 21
138.2111501651326
 31
0.0
  0
LINE
  5
156
  8
LAYER0014
  6
CONTINUOUS
 62
     7
 10
-64.96809458887068
 20
103.2111501651326
 30
0.0
 11
-58.52890757715193
 21
103.2111501651326
 31
0.0
  0
LINE
  5
157
  8
LAYER0014
  6
CONTINUOUS
 62
     7
 10
-59.52890757715193
 20
138.2111501651326
 30
0.0
 11
-59.52890757715193
 21
103.2111501651326
 31
0.0
  0
INSERT
  5
158
  8
LAYER0014
 62
     7
  2
_OPEN30
 10
-59.52890757715193
 20
138.2111501651326
 30
0.0
 41
2.499995396844351
 42
2.500007167085477
 50
90.0
  0
INSERT
  5
159
  8
LAYER0014
 62
     7
  2
_OPEN30
 10
-59.52890757715193
 20
103.2111501651326
 30
0.0
 41
2.499995396844351
 42
2.500007167085477
 50
270.0
  0
TEXT
  5
15A
  8
LAYER0014
 62
     7
 10
-60.52890757715193
 20
117.5111501651325
 30
0.0
 40
4.0
  1
35
 50
90.0
 41
0.9081081081081089
  7
DCSTYLE1
 72
     5
 11
-60.52890757715193
 21
123.9111501651326
 31
0.0
  0
ENDBLK
  5
CE
  8
0
  0
BLOCK
  8
0
  2
DC_IMAGEDIMGROUP_9
 70
     0
 10
0.0
 20
0.0
 30
0.0
  3
DC_IMAGEDIMGROUP_9
  1

  0
LINE
  5
15B
  8
LAYER0014
  6
CONTINUOUS
 62
     7
 10
-267.7421730945837
 20
-116.7888498348674
 30
0.0
 11
-267.7421730945837
 21
163.2111501651326
 31
0.0
  0
INSERT
  5
15C
  8
LAYER0014
 62
     7
  2
_OPEN30
 10
-267.7421730945837
 20
-116.7888498348674
 30
0.0
 41
2.499995396844351
 42
2.500007167085477
 50
270.0
  0
INSERT
  5
15D
  8
LAYER0014
 62
     7
  2
_OPEN30
 10
-267.7421730945837
 20
163.2111501651326
 30
0.0
 41
2.499995396844351
 42
2.500007167085477
 50
90.0
  0
LINE
  5
15E
  8
LAYER0014
  6
CONTINUOUS
 62
     7
 10
-214.8208607021519
 20
-116.7888498348674
 30
0.0
 11
-268.7421730945837
 21
-116.7888498348674
 31
0.0
  0
LINE
  5
15F
  8
LAYER0014
  6
CONTINUOUS
 62
     7
 10
-214.8208607021519
 20
163.2111501651326
 30
0.0
 11
-268.7421730945837
 21
163.2111501651326
 31
0.0
  0
TEXT
  5
160
  8
LAYER0014
 62
     7
 10
-268.7533431961255
 20
16.81115991288753
 30
0.0
 40
4.0
  1
φ280
 50
89.89999999999999
 41
0.8959999999999968
  7
DCSTYLE1
 72
     5
 11
-268.731002993042
 21
29.61114041737757
 31
0.0
  0
ENDBLK
  5
D1
  8
0
  0
BLOCK
  8
0
  2
DC_IMAGEDIMGROUP_10
 70
     0
 10
0.0
 20
0.0
 30
0.0
  3
DC_IMAGEDIMGROUP_10
  1

  0
LINE
  5
161
  8
LAYER0014
  6
CONTINUOUS
 62
     7
 10
-69.44507361268411
 20
-21.78884983486745
 30
0.0
 11
-69.44507361268411
 21
48.21115016513255
 31
0.0
  0
INSERT
  5
162
  8
LAYER0014
 62
     7
  2
_OPEN30
 10
-69.44507361268411
 20
-21.78884983486745
 30
0.0
 41
2.499995396844351
 42
2.500007167085477
 50
270.0
  0
LINE
  5
163
  8
LAYER0014
  6
CONTINUOUS
 62
     7
 10
-130.7757117763707
 20
-21.78884983486745
 30
0.0
 11
-68.44507361268411
 21
-21.78884983486745
 31
0.0
  0
TEXT
  5
164
  8
LAYER0014
 62
     7
 10
-71.0450736126841
 20
8.836063952974339
 30
0.0
 40
4.0
  1
M90×P1.25
 50
90.0
 41
0.8894117647058822
  7
DCSTYLE1
 72
     5
 11
-71.0450736126841
 21
37.63606395297434
 31
0.0
  0
ENDBLK
  5
D4
  8
0
  0
BLOCK
  8
0
  2
DC_IMAGEDIMGROUP_11
 70
     0
 10
0.0
 20
0.0
 30
0.0
  3
DC_IMAGEDIMGROUP_11
  1

  0
LINE
  5
165
  8
LAYER0014
  6
CONTINUOUS
 62
     7
 10
-93.54086375390975
 20
-29.28884983486745
 30
0.0
 11
-57.24290827905623
 21
-29.28884983486745
 31
0.0
  0
LINE
  5
166
  8
LAYER0014
  6
CONTINUOUS
 62
     7
 10
-59.52890757715193
 20
-29.28884983486745
 30
0.0
 11
-59.52890757715193
 21
48.21115016513255
 31
0.0
  0
INSERT
  5
167
  8
LAYER0014
 62
     7
  2
_OPEN30
 10
-59.52890757715193
 20
-29.28884983486745
 30
0.0
 41
2.499995396844351
 42
2.500007167085477
 50
270.0
  0
TEXT
  5
168
  8
LAYER0014
 62
     7
 10
-61.12890757715194
 20
14.16939677768137
 30
0.0
 40
4.0
  1
φ105H7
 50
90.0
 41
0.8615384615384619
  7
DCSTYLE1
 72
     5
 11
-61.12890757715194
 21
33.36939677768137
 31
0.0
  0
ENDBLK
  5
D7
  8
0
  0
BLOCK
  8
0
  2
DC_IMAGEDIMGROUP_12
 70
     0
 10
0.0
 20
0.0
 30
0.0
  3
DC_IMAGEDIMGROUP_12
  1

  0
LINE
  5
169
  8
LAYER0014
  6
CONTINUOUS
 62
     7
 10
-58.17417979394881
 20
23.21115016513255
 30
0.0
 11
-48.17624262964217
 21
23.21115016513255
 31
0.0
  0
LINE
  5
16A
  8
LAYER0014
  6
CONTINUOUS
 62
     7
 10
-94.54086375390975
 20
83.21115016513255
 30
0.0
 11
-48.17624262964217
 21
83.21115016513255
 31
0.0
  0
LINE
  5
16B
  8
LAYER0014
  6
CONTINUOUS
 62
     7
 10
-50.46224192773787
 20
23.21115016513255
 30
0.0
 11
-50.46224192773787
 21
83.21115016513255
 31
0.0
  0
INSERT
  5
16C
  8
LAYER0014
 62
     7
  2
_OPEN30
 10
-50.46224192773787
 20
23.21115016513255
 30
0.0
 41
2.499995396844351
 42
2.500007167085477
 50
270.0
  0
INSERT
  5
16D
  8
LAYER0014
 62
     7
  2
_OPEN30
 10
-50.46224192773787
 20
83.21115016513255
 30
0.0
 41
2.499995396844351
 42
2.500007167085477
 50
90.0
  0
TEXT
  5
16E
  8
LAYER0014
 62
     7
 10
-51.46224192773787
 20
42.01115016513255
 30
0.0
 40
4.0
  1
MAX72.5
 50
90.0
 41
0.9116279069767443
  7
DCSTYLE1
 72
     5
 11
-51.46224192773787
 21
64.41115016513255
 31
0.0
  0
ENDBLK
  5
DA
  8
0
  0
BLOCK
  8
0
  2
DC_IMAGEDIMGROUP_13
 70
     0
 10
0.0
 20
0.0
 30
0.0
  3
DC_IMAGEDIMGROUP_13
  1

  0
LINE
  5
16F
  8
LAYER0014
  6
CONTINUOUS
 62
     7
 10
-94.54086375390975
 20
83.21115016513255
 30
0.0
 11
-48.17624262964217
 21
83.21115016513255
 31
0.0
  0
LINE
  5
170
  8
LAYER0014
  6
CONTINUOUS
 62
     7
 10
-94.54086375390975
 20
163.2111501651326
 30
0.0
 11
-48.17624262964217
 21
163.2111501651326
 31
0.0
  0
LINE
  5
171
  8
LAYER0014
  6
CONTINUOUS
 62
     7
 10
-50.46224192773787
 20
83.21115016513255
 30
0.0
 11
-50.46224192773787
 21
163.2111501651326
 31
0.0
  0
INSERT
  5
172
  8
LAYER0014
 62
     7
  2
_OPEN30
 10
-50.46224192773787
 20
83.21115016513255
 30
0.0
 41
2.499995396844351
 42
2.500007167085477
 50
270.0
  0
INSERT
  5
173
  8
LAYER0014
 62
     7
  2
_OPEN30
 10
-50.46224192773787
 20
163.2111501651326
 30
0.0
 41
2.499995396844351
 42
2.500007167085477
 50
90.0
  0
TEXT
  5
174
  8
LAYER0014
 62
     7
 10
-51.46224192773787
 20
120.0111501651325
 30
0.0
 40
4.0
  1
80
 50
90.0
 41
0.9081081081081089
  7
DCSTYLE1
 72
     5
 11
-51.46224192773787
 21
126.4111501651326
 31
0.0
  0
ENDBLK
  5
DD
  8
0
  0
BLOCK
  8
0
  2
DC_IMAGEDIMGROUP_14
 70
     0
 10
0.0
 20
0.0
 30
0.0
  3
DC_IMAGEDIMGROUP_14
  1

  0
LINE
  5
175
  8
LAYER0014
  6
CONTINUOUS
 62
     7
 10
-64.96809458887068
 20
103.2111501651326
 30
0.0
 11
-57.24290827905623
 21
103.2111501651326
 31
0.0
  0
LINE
  5
176
  8
LAYER0014
  6
CONTINUOUS
 62
     7
 10
-94.54086375390975
 20
83.21115016513255
 30
0.0
 11
-57.24290827905623
 21
83.21115016513255
 31
0.0
  0
LINE
  5
177
  8
LAYER0014
  6
CONTINUOUS
 62
     7
 10
-59.52890757715193
 20
103.2111501651326
 30
0.0
 11
-59.52890757715193
 21
83.21115016513255
 31
0.0
  0
INSERT
  5
178
  8
LAYER0014
 62
     7
  2
_OPEN30
 10
-59.52890757715193
 20
103.2111501651326
 30
0.0
 41
2.499995396844351
 42
2.500007167085477
 50
90.0
  0
INSERT
  5
179
  8
LAYER0014
 62
     7
  2
_OPEN30
 10
-59.52890757715193
 20
83.21115016513255
 30
0.0
 41
2.499995396844351
 42
2.500007167085477
 50
270.0
  0
TEXT
  5
17A
  8
LAYER0014
 62
     7
 10
-60.54287020407912
 20
85.21116234982625
 30
0.0
 40
4.0
  1
MIN13
 50
89.90000000000002
 41
0.9230769230769226
  7
DCSTYLE1
 72
     5
 11
-60.51494495022474
 21
101.2111379804388
 31
0.0
  0
ENDBLK
  5
E0
  8
0
  0
BLOCK
  8
0
  2
DC_IMAGEDIMGROUP_15
 70
     0
 10
0.0
 20
0.0
 30
0.0
  3
DC_IMAGEDIMGROUP_15
  1

  0
LINE
  5
17B
  8
LAYER0014
  6
CONTINUOUS
 62
     7
 10
-97.08086375390974
 20
165.7511501651325
 30
0.0
 11
-97.08086375390974
 21
176.5486135440388
 31
0.0
  0
LINE
  5
17C
  8
LAYER0014
  6
CONTINUOUS
 62
     7
 10
-96.08086375390974
 20
162.7511501651325
 30
0.0
 11
-96.08086375390974
 21
176.5486135440388
 31
0.0
  0
LINE
  5
17D
  8
LAYER0014
  6
CONTINUOUS
 62
     7
 10
-97.08086375390974
 20
174.2626180606404
 30
0.0
 11
-96.08086375390974
 21
174.2626180606404
 31
0.0
  0
LINE
  5
17E
  8
LAYER0014
  6
CONTINUOUS
 62
     7
 10
-97.08086375390974
 20
174.2626180606404
 30
0.0
 11
-103.4308637539097
 21
174.2626180606404
 31
0.0
  0
INSERT
  5
17F
  8
LAYER0014
 62
     7
  2
_OPEN30
 10
-97.08086375390974
 20
174.2626180606404
 30
0.0
 41
2.499995396844351
 42
2.500007167085477
 50
360.0
  0
LINE
  5
180
  8
LAYER0014
  6
CONTINUOUS
 62
     7
 10
-89.73086375390974
 20
174.2626180606404
 30
0.0
 11
-96.08086375390974
 21
174.2626180606404
 31
0.0
  0
INSERT
  5
181
  8
LAYER0014
 62
     7
  2
_OPEN30
 10
-96.08086375390974
 20
174.2626180606404
 30
0.0
 41
2.499995396844351
 42
2.500007167085477
 50
180.0
  0
TEXT
  5
182
  8
LAYER0014
 62
     7
 10
-92.4490191089684
 20
175.865408149087
 30
0.0
 40
4.0
  1
1
 50
359.9000000000003
 41
1.527272727272725
  7
DCSTYLE1
 72
     5
 11
-89.24902398284588
 21
175.8598230983162
 31
0.0
  0
ENDBLK
  5
E3
  8
0
  0
BLOCK
  8
0
  2
DC_GROUP_2
 70
     0
 10
0.0
 20
0.0
 30
0.0
  3
DC_GROUP_2
  1

  0
LINE
  5
183
  8
LAYER0014
  6
CONTINUOUS
 62
     7
 10
-97.09285396904977
 20
155.4929673546636
 30
0.0
 11
-75.1808897658915
 21
177.7092763800757
 31
0.0
  0
INSERT
  5
184
  8
LAYER0014
 62
     7
  2
_OPEN30
 10
-97.09285396904977
 20
155.4929673546636
 30
0.0
 41
2.499995396844351
 42
2.500007167085477
 50
225.3951524970939
  0
LINE
  5
185
  8
LAYER0014
  6
CONTINUOUS
 62
     7
 10
-75.18089274560896
 20
177.7092733340779
 30
0.0
 11
-28.55121974145857
 21
177.7092733340779
 31
0.0
  0
TEXT
  5
186
  8
LAYER0014
 62
     7
 10
-74.26787547265974
 20
179.3092733340779
 30
0.0
 40
4.0
  1
ｾﾚｰｼｮﾝP1.5山60ﾟ
 41
0.9333333333333335
  7
DCSTYLE1
 72
     5
 11
-29.46787547265973
 21
179.3092733340779
 31
0.0
  0
ENDBLK
  5
E6
  8
0
  0
BLOCK
  8
0
  2
DC_IMAGEDIMGROUP_16
 70
     0
 10
0.0
 20
0.0
 30
0.0
  3
DC_IMAGEDIMGROUP_16
  1

  0
LINE
  5
187
  8
LAYER0014
  6
CONTINUOUS
 62
     7
 10
-206.5808484951207
 20
-141.4929056210003
 30
0.0
 11
-160.2808607021519
 21
-141.4929056210003
 31
0.0
  0
INSERT
  5
188
  8
LAYER0014
 62
     7
  2
_OPEN30
 10
-206.5808484951207
 20
-141.4929056210003
 30
0.0
 41
2.499995396844351
 42
2.500007167085477
 50
180.0
  0
INSERT
  5
189
  8
LAYER0014
 62
     7
  2
_OPEN30
 10
-160.2808607021519
 20
-141.4929056210003
 30
0.0
 41
2.499995396844351
 42
2.500007167085477
 50
360.0
  0
LINE
  5
18A
  8
LAYER0014
  6
CONTINUOUS
 62
     7
 10
-206.5808484951207
 20
-106.8288498348675
 30
0.0
 11
-206.5808484951207
 21
-142.4929056210003
 31
0.0
  0
LINE
  5
18B
  8
LAYER0014
  6
CONTINUOUS
 62
     7
 10
-160.2808607021519
 20
-21.41847872697653
 30
0.0
 11
-160.2808607021519
 21
-142.4929056210003
 31
0.0
  0
TEXT
  5
18C
  8
LAYER0014
 62
     7
 10
-195.4683255210758
 20
-140.4929056210003
 30
0.0
 40
4.0
  1
MAX64.3
 41
0.9116279069767432
  7
DCSTYLE1
 72
     5
 11
-173.0683255210758
 21
-140.4929056210003
 31
0.0
  0
ENDBLK
  5
E9
  8
0
  0
BLOCK
  8
0
  2
DC_IMAGEDIMGROUP_17
 70
     0
 10
0.0
 20
0.0
 30
0.0
  3
DC_IMAGEDIMGROUP_17
  1

  0
LINE
  5
18D
  8
LAYER0014
  6
CONTINUOUS
 62
     7
 10
-212.2808607021519
 20
-151.8402261776409
 30
0.0
 11
-206.5808484951207
 21
-151.8402261776409
 31
0.0
  0
LINE
  5
18E
  8
LAYER0014
  6
CONTINUOUS
 62
     7
 10
-212.2808607021519
 20
-119.3288498348675
 30
0.0
 11
-212.2808607021519
 21
-152.8402261776409
 31
0.0
  0
LINE
  5
18F
  8
LAYER0014
  6
CONTINUOUS
 62
     7
 10
-206.5808484951207
 20
-106.8288498348675
 30
0.0
 11
-206.5808484951207
 21
-152.8402261776409
 31
0.0
  0
LINE
  5
190
  8
LAYER0014
  6
CONTINUOUS
 62
     7
 10
-226.6014519524265
 20
-151.8402261776409
 30
0.0
 11
-212.2808607021519
 21
-151.8402261776409
 31
0.0
  0
INSERT
  5
191
  8
LAYER0014
 62
     7
  2
_OPEN30
 10
-212.2808607021519
 20
-151.8402261776409
 30
0.0
 41
2.499995396844351
 42
2.500007167085477
 50
360.0
  0
LINE
  5
192
  8
LAYER0014
  6
CONTINUOUS
 62
     7
 10
-201.5808484951207
 20
-151.8402261776409
 30
0.0
 11
-206.5808484951207
 21
-151.8402261776409
 31
0.0
  0
INSERT
  5
193
  8
LAYER0014
 62
     7
  2
_OPEN30
 10
-206.5808484951207
 20
-151.8402261776409
 30
0.0
 41
2.499995396844351
 42
2.500007167085477
 50
180.0
  0
TEXT
  5
194
  8
LAYER0014
 62
     7
 10
-225.601437330794
 20
-150.8234710253283
 30
0.0
 40
4.0
  1
5.7
 50
359.9000000000001
 41
1.072340425531915
  7
DCSTYLE1
 72
     5
 11
-216.0014519524264
 21
-150.8402261776409
 31
0.0
  0
ENDBLK
  5
EC
  8
0
  0
BLOCK
  8
0
  2
DC_IMAGEDIMGROUP_18
 70
     0
 10
0.0
 20
0.0
 30
0.0
  3
DC_IMAGEDIMGROUP_18
  1

  0
LINE
  5
195
  8
LAYER0014
  6
CONTINUOUS
 62
     7
 10
-206.5808484951207
 20
-151.8402261776409
 30
0.0
 11
-96.08086375390974
 21
-151.8402261776409
 31
0.0
  0
INSERT
  5
196
  8
LAYER0014
 62
     7
  2
_OPEN30
 10
-206.5808484951207
 20
-151.8402261776409
 30
0.0
 41
2.499995396844351
 42
2.500007167085477
 50
180.0
  0
INSERT
  5
197
  8
LAYER0014
 62
     7
  2
_OPEN30
 10
-96.08086375390974
 20
-151.8402261776409
 30
0.0
 41
2.499995396844351
 42
2.500007167085477
 50
360.0
  0
LINE
  5
198
  8
LAYER0014
  6
CONTINUOUS
 62
     7
 10
-206.5808484951207
 20
-106.8288498348675
 30
0.0
 11
-206.5808484951207
 21
-152.8402261776409
 31
0.0
  0
LINE
  5
199
  8
LAYER0014
  6
CONTINUOUS
 62
     7
 10
-96.08086375390974
 20
-116.3288498348675
 30
0.0
 11
-96.08086375390974
 21
-152.8402261776409
 31
0.0
  0
TEXT
  5
19A
  8
LAYER0014
 62
     7
 10
-159.3308561245152
 20
-150.8402261776409
 30
0.0
 40
4.0
  1
110.5
 41
0.9655172413793105
  7
DCSTYLE1
 72
     5
 11
-143.3308561245152
 21
-150.8402261776409
 31
0.0
  0
ENDBLK
  5
EF
  8
0
  0
BLOCK
  8
0
  2
DC_IMAGEDIMGROUP_19
 70
     0
 10
0.0
 20
0.0
 30
0.0
  3
DC_IMAGEDIMGROUP_19
  1

  0
LINE
  5
19B
  8
LAYER0014
  6
CONTINUOUS
 62
     7
 10
-212.2808607021519
 20
-161.8832101864299
 30
0.0
 11
-96.08086375390974
 21
-161.8832101864299
 31
0.0
  0
INSERT
  5
19C
  8
LAYER0014
 62
     7
  2
_OPEN30
 10
-212.2808607021519
 20
-161.8832101864299
 30
0.0
 41
2.499995396844351
 42
2.500007167085477
 50
180.0
  0
INSERT
  5
19D
  8
LAYER0014
 62
     7
  2
_OPEN30
 10
-96.08086375390974
 20
-161.8832101864299
 30
0.0
 41
2.499995396844351
 42
2.500007167085477
 50
360.0
  0
LINE
  5
19E
  8
LAYER0014
  6
CONTINUOUS
 62
     7
 10
-212.2808607021519
 20
-119.3288498348675
 30
0.0
 11
-212.2808607021519
 21
-162.8832101864299
 31
0.0
  0
LINE
  5
19F
  8
LAYER0014
  6
CONTINUOUS
 62
     7
 10
-96.08086375390974
 20
-116.3288498348675
 30
0.0
 11
-96.08086375390974
 21
-162.8832101864299
 31
0.0
  0
TEXT
  5
1A0
  8
LAYER0014
 62
     7
 10
-162.1808622280308
 20
-160.8832101864299
 30
0.0
 40
4.0
  1
116.2
 41
0.9655172413793105
  7
DCSTYLE1
 72
     5
 11
-146.1808622280308
 21
-160.8832101864299
 31
0.0
  0
ENDBLK
  5
F2
  8
0
  0
BLOCK
  8
0
  2
DC_IMAGEDIMGROUP_20
 70
     0
 10
0.0
 20
0.0
 30
0.0
  3
DC_IMAGEDIMGROUP_20
  1

  0
LINE
  5
1A1
  8
LAYER0014
  6
CONTINUOUS
 62
     7
 10
-98.58086375390974
 20
-3.368752483793234
 30
0.0
 11
-96.08086375390974
 21
-3.368752483793234
 31
0.0
  0
LINE
  5
1A2
  8
LAYER0014
  6
CONTINUOUS
 62
     7
 10
-82.54901375390975
 20
-3.368752483793234
 30
0.0
 11
-96.08086375390974
 21
-3.368752483793234
 31
0.0
  0
INSERT
  5
1A3
  8
LAYER0014
 62
     7
  2
_OPEN30
 10
-96.08086375390974
 20
-3.368752483793234
 30
0.0
 41
2.499995396844351
 42
2.500007167085477
 50
180.0
  0
LINE
  5
1A4
  8
LAYER0014
  6
CONTINUOUS
 62
     7
 10
-103.5808637539097
 20
-3.368752483793233
 30
0.0
 11
-98.58086375390974
 21
-3.368752483793234
 31
0.0
  0
INSERT
  5
1A5
  8
LAYER0014
 62
     7
  2
_OPEN30
 10
-98.58086375390974
 20
-3.368752483793234
 30
0.0
 41
2.499995396844351
 42
2.500007167085477
 50
360.0
  0
TEXT
  5
1A6
  8
LAYER0014
 62
     7
 10
-93.14901375390974
 20
-2.368752483793234
 30
0.0
 40
4.0
  1
2.5
 50
359.9
 41
1.072340425531915
  7
DCSTYLE1
 72
     5
 11
-83.54902837554218
 21
-2.385507636105859
 31
0.0
  0
ENDBLK
  5
F5
  8
0
  0
BLOCK
  8
0
  2
DC_IMAGEDIMGROUP_21
 70
     0
 10
0.0
 20
0.0
 30
0.0
  3
DC_IMAGEDIMGROUP_21
  1

  0
LINE
  5
1A7
  8
LAYER0014
  6
CONTINUOUS
 62
     7
 10
-229.0808484951207
 20
-141.4929056210003
 30
0.0
 11
-206.5808484951207
 21
-141.4929056210003
 31
0.0
  0
INSERT
  5
1A8
  8
LAYER0014
 62
     7
  2
_OPEN30
 10
-229.0808484951207
 20
-141.4929056210003
 30
0.0
 41
2.499995396844351
 42
2.500007167085477
 50
180.0
  0
INSERT
  5
1A9
  8
LAYER0014
 62
     7
  2
_OPEN30
 10
-206.5808484951207
 20
-141.4929056210003
 30
0.0
 41
2.499995396844351
 42
2.500007167085477
 50
360.0
  0
LINE
  5
1AA
  8
LAYER0014
  6
CONTINUOUS
 62
     7
 10
-229.0808484951207
 20
-52.00385288662527
 30
0.0
 11
-229.0808484951207
 21
-142.4929056210003
 31
0.0
  0
LINE
  5
1AB
  8
LAYER0014
  6
CONTINUOUS
 62
     7
 10
-206.5808484951207
 20
-106.8288498348675
 30
0.0
 11
-206.5808484951207
 21
-142.4929056210003
 31
0.0
  0
TEXT
  5
1AC
  8
LAYER0014
 62
     7
 10
-226.1836045615429
 20
-140.4817355194585
 30
0.0
 40
4.0
  1
22.5
 50
359.9
 41
1.002985074626866
  7
DCSTYLE1
 72
     5
 11
-213.3836240570528
 21
-140.504075722542
 31
0.0
  0
ENDBLK
  5
F8
  8
0
  0
BLOCK
  8
0
  2
DC_IMAGEDIMGROUP_22
 70
     0
 10
0.0
 20
0.0
 30
0.0
  3
DC_IMAGEDIMGROUP_22
  1

  0
LINE
  5
1AD
  8
0
  6
CONTINUOUS
 62
     9
 10
-234.4113564342087
 20
-20.53884983486745
 30
0.0
 11
-234.4113564342087
 21
66.96115016513254
 31
0.0
  0
INSERT
  5
1AE
  8
0
 62
     9
  2
_OPEN30
 10
-234.4113564342087
 20
-20.53884983486745
 30
0.0
 41
2.499995396844351
 42
2.500007167085477
 50
270.0
  0
INSERT
  5
1AF
  8
0
 62
     9
  2
_OPEN30
 10
-234.4113564342087
 20
66.96115016513254
 30
0.0
 41
2.499995396844351
 42
2.500007167085477
 50
90.0
  0
LINE
  5
1B0
  8
0
  6
CONTINUOUS
 62
     9
 10
-162.2808607021519
 20
-20.53884983486745
 30
0.0
 11
-235.4113564342087
 21
-20.53884983486745
 31
0.0
  0
LINE
  5
1B1
  8
0
  6
CONTINUOUS
 62
     9
 10
-162.2808607021519
 20
66.96115016513254
 30
0.0
 11
-235.4113564342087
 21
66.96115016513254
 31
0.0
  0
TEXT
  5
1B2
  8
0
 62
     7
 10
-235.4113564342087
 20
12.01115016513256
 30
0.0
 40
4.0
  1
φ87.5Ｈ7
 50
90.0
 41
0.956097560975609
  7
DCSTYLE1
 72
     5
 11
-235.4113564342087
 21
34.41115016513254
 31
0.0
  0
ENDBLK
  5
FB
  8
0
  0
BLOCK
  8
0
  2
DC_IMAGEDIMGROUP_23
 70
     0
 10
0.0
 20
0.0
 30
0.0
  3
DC_IMAGEDIMGROUP_23
  1

  0
LINE
  5
1B3
  8
0
  6
CONTINUOUS
 62
     9
 10
-223.5418914857816
 20
-11.78884983486745
 30
0.0
 11
-223.5418914857816
 21
58.21115016513255
 31
0.0
  0
INSERT
  5
1B4
  8
0
 62
     9
  2
_OPEN30
 10
-223.5418914857816
 20
-11.78884983486745
 30
0.0
 41
2.499995396844351
 42
2.500007167085477
 50
270.0
  0
INSERT
  5
1B5
  8
0
 62
     9
  2
_OPEN30
 10
-223.5418914857816
 20
58.21115016513255
 30
0.0
 41
2.499995396844351
 42
2.500007167085477
 50
90.0
  0
LINE
  5
1B6
  8
0
  6
CONTINUOUS
 62
     9
 10
-192.2808607021519
 20
-11.78884983486745
 30
0.0
 11
-224.5418914857816
 21
-11.78884983486745
 31
0.0
  0
LINE
  5
1B7
  8
0
  6
CONTINUOUS
 62
     9
 10
-192.2808607021519
 20
58.21115016513255
 30
0.0
 11
-224.5418914857816
 21
58.21115016513255
 31
0.0
  0
TEXT
  5
1B8
  8
0
 62
     7
 10
-224.5418914857816
 20
14.39115016513255
 30
0.0
 40
4.0
  1
φ70
 50
90.0
 41
0.9163636363636387
  7
DCSTYLE1
 72
     5
 11
-224.5418914857816
 21
23.99115016513257
 31
0.0
  0
TEXT
  5
1B9
  8
0
 62
     7
 10
-226.7418914857816
 20
24.99115016513257
 30
0.0
 40
2.2
  1
+0.5
 50
90.0
 41
0.9205479452054779
  7
DCSTYLE1
 72
     5
 11
-226.7418914857816
 21
32.03115016513256
 31
0.0
  0
TEXT
  5
1BA
  8
0
 62
     7
 10
-224.3418914857816
 20
24.99115016513257
 30
0.0
 40
2.2
  1
　0
 50
90.0
 41
0.9600000000000027
  7
DCSTYLE1
 72
     5
 11
-224.3418914857816
 21
28.51115016513258
 31
0.0
  0
ENDBLK
  5
FE
  8
0
  0
BLOCK
  8
0
  2
DC_GROUP_3
 70
     0
 10
0.0
 20
0.0
 30
0.0
  3
DC_GROUP_3
  1

  0
LINE
  5
1BB
  8
0
  6
DIVIDE
 62
     7
 10
-188.7334543050442
 20
-34.78277563982073
 30
0.0
 11
-187.8748353603758
 21
-35.71995538130368
 31
0.0
  0
LINE
  5
1BC
  8
0
  6
DIVIDE
 62
     7
 10
-187.8748353603758
 20
-35.71995538130368
 30
0.0
 11
-187.0788992702079
 21
-36.67077593002199
 31
0.0
  0
LINE
  5
1BD
  8
0
  6
DIVIDE
 62
     7
 10
-187.0788992702079
 20
-36.67077593002199
 30
0.0
 11
-186.4083288890411
 21
-37.64887809321104
 31
0.0
  0
LINE
  5
1BE
  8
0
  6
DIVIDE
 62
     7
 10
-186.4083288890411
 20
-37.64887809321104
 30
0.0
 11
-185.9258070713758
 21
-38.66790267810617
 31
0.0
  0
LINE
  5
1BF
  8
0
  6
DIVIDE
 62
     7
 10
-185.9258070713758
 20
-38.66790267810617
 30
0.0
 11
-185.693354788405
 21
-39.74135429510311
 31
0.0
  0
LINE
  5
1C0
  8
0
  6
DIVIDE
 62
     7
 10
-185.693354788405
 20
-39.74135429510311
 30
0.0
 11
-185.7184819259449
 21
-40.87152071702549
 31
0.0
  0
LINE
  5
1C1
  8
0
  6
DIVIDE
 62
     7
 10
-185.7184819259449
 20
-40.87152071702549
 30
0.0
 11
-185.9143786637768
 21
-42.04128139240598
 31
0.0
  0
LINE
  5
1C2
  8
0
  6
DIVIDE
 62
     7
 10
-185.9143786637768
 20
-42.04128139240598
 30
0.0
 11
-186.1848533272668
 21
-43.23158524984044
 31
0.0
  0
LINE
  5
1C3
  8
0
  6
DIVIDE
 62
     7
 10
-186.1848533272668
 20
-43.23158524984044
 30
0.0
 11
-186.4337142417813
 21
-44.42338121792469
 31
0.0
  0
LINE
  5
1C4
  8
0
  6
DIVIDE
 62
     7
 10
-186.4337142417813
 20
-44.42338121792469
 30
0.0
 11
-186.5647697326865
 21
-45.59761822525459
 31
0.0
  0
LINE
  5
1C5
  8
0
  6
DIVIDE
 62
     7
 10
-186.5647697326865
 20
-45.59761822525459
 30
0.0
 11
-186.4840266491055
 21
-46.73566236267985
 31
0.0
  0
LINE
  5
1C6
  8
0
  6
DIVIDE
 62
     7
 10
-186.4840266491055
 20
-46.73566236267985
 30
0.0
 11
-186.1663584829335
 21
-47.83194692754644
 31
0.0
  0
LINE
  5
1C7
  8
0
  6
DIVIDE
 62
     7
 10
-186.1663584829335
 20
-47.83194692754644
 30
0.0
 11
-185.6675293588792
 21
-48.89625393408325
 31
0.0
  0
LINE
  5
1C8
  8
0
  6
DIVIDE
 62
     7
 10
-185.6675293588792
 20
-48.89625393408325
 30
0.0
 11
-185.0479262629034
 21
-49.9392425684002
 31
0.0
  0
LINE
  5
1C9
  8
0
  6
DIVIDE
 62
     7
 10
-185.0479262629034
 20
-49.9392425684002
 30
0.0
 11
-184.3679361809669
 21
-50.97157201660721
 31
0.0
  0
ENDBLK
  5
101
  8
0
  0
BLOCK
  8
0
  2
DC_IMAGEDIMGROUP_24
 70
     0
 10
0.0
 20
0.0
 30
0.0
  3
DC_IMAGEDIMGROUP_24
  1

  0
LINE
  5
1CA
  8
0
  6
CONTINUOUS
 62
     9
 10
-206.5808484951207
 20
-141.4929056210003
 30
0.0
 11
-206.5808484951207
 21
-127.7178017327758
 31
0.0
  0
LINE
  5
1CB
  8
0
  6
CONTINUOUS
 62
     9
 10
-151.5808637539097
 20
-123.5251016659221
 30
0.0
 11
-151.5808637539097
 21
-129.7178017327758
 31
0.0
  0
LINE
  5
1CC
  8
0
  6
CONTINUOUS
 62
     9
 10
-206.5808484951207
 20
-128.7178017327758
 30
0.0
 11
-151.5808637539097
 21
-128.7178017327758
 31
0.0
  0
INSERT
  5
1CD
  8
0
 62
     9
  2
_OPEN30
 10
-206.5808484951207
 20
-128.7178017327758
 30
0.0
 41
2.499995396844351
 42
2.500007167085477
 50
180.0
  0
INSERT
  5
1CE
  8
0
 62
     9
  2
_OPEN30
 10
-151.5808637539097
 20
-128.7178017327758
 30
0.0
 41
2.499995396844351
 42
2.500007167085477
 50
360.0
  0
TEXT
  5
1CF
  8
0
 62
     7
 10
-182.2808561245152
 20
-127.7178017327758
 30
0.0
 40
4.0
  1
55
 41
0.9081081081081049
  7
DCSTYLE1
 72
     5
 11
-175.8808561245152
 21
-127.7178017327758
 31
0.0
  0
ENDBLK
  5
104
  8
0
  0
BLOCK
  8
0
  2
DC_GROUP_4
 70
     0
 10
0.0
 20
0.0
 30
0.0
  3
DC_GROUP_4
  1

  0
LINE
  5
1D0
  8
0
  6
CONTINUOUS
 62
     7
 10
-151.5482297577173
 20
-116.7888498348674
 30
0.0
 11
-137.5759950042413
 21
-135.1763923648491
 31
0.0
  0
INSERT
  5
1D1
  8
0
 62
     7
  2
_OPEN30
 10
-151.5482297577173
 20
-116.7888498348674
 30
0.0
 41
2.499995396844351
 42
2.500007167085477
 50
127.2302956438795
  0
LINE
  5
1D2
  8
0
  6
CONTINUOUS
 62
     7
 10
-137.5759950042413
 20
-135.1763923648491
 30
0.0
 11
-118.3759950042413
 21
-135.1763923648491
 31
0.0
  0
TEXT
  5
1D3
  8
0
 62
     7
 10
-137.5759950042413
 20
-135.1763923648491
 30
0.0
 40
4.0
  1
M12×25
 41
0.847058823529412
  7
DCSTYLE1
 72
     5
 11
-118.3759950042413
 21
-135.1763923648491
 31
0.0
  0
ENDBLK
  5
107
  8
0
  0
BLOCK
  8
0
  2
DC_GROUP_5
 70
     0
 10
0.0
 20
0.0
 30
0.0
  3
DC_GROUP_5
  1

  0
LINE
  5
1D4
  8
0
  6
CONTINUOUS
 62
     5
 10
228.5242358758836
 20
36.79022734048446
 30
0.0
 11
228.5242349287705
 21
32.29022161843857
 31
0.0
  0
LINE
  5
1D5
  8
0
  6
CONTINUOUS
 62
     5
 10
229.2742227151087
 20
36.04026045888549
 30
0.0
 11
228.5242273451244
 21
36.79025595491224
 31
0.0
  0
LINE
  5
1D6
  8
0
  6
CONTINUOUS
 62
     5
 10
227.7742623922288
 20
36.04018829977742
 30
0.0
 11
228.5242685514084
 21
36.79019458579602
 31
0.0
  0
LINE
  5
1D7
  8
0
  6
CONTINUOUS
 62
     5
 10
228.5242884880635
 20
32.29015859890233
 30
0.0
 11
229.274294647243
 21
33.04016488492092
 31
0.0
  0
LINE
  5
1D8
  8
0
  6
CONTINUOUS
 62
     5
 10
228.524239779637
 20
32.29025301114605
 30
0.0
 11
227.77423362006
 21
33.0402592967672
 31
0.0
  0
LINE
  5
1D9
  8
0
  6
CONTINUOUS
 62
     5
 10
221.0242139241402
 20
37.54024107835636
 30
0.0
 11
236.0242139241402
 21
37.54023792131693
 31
0.0
  0
LINE
  5
1DA
  8
0
  6
CONTINUOUS
 62
     5
 10
230.3999975367863
 20
43.06729462051583
 30
0.0
 11
229.4255715586835
 21
42.91296088042071
 31
0.0
  0
LINE
  5
1DB
  8
0
  6
CONTINUOUS
 62
     5
 10
230.4000234641856
 20
43.06730088896375
 30
0.0
 11
230.2456919346783
 21
44.04171173733425
 31
0.0
  0
LINE
  5
1DC
  8
0
  6
CONTINUOUS
 62
     5
 10
236.024221553535
 20
37.54023911340822
 30
0.0
 11
236.0242231320549
 21
45.04024006708254
 31
0.0
  0
LINE
  5
1DD
  8
0
  6
CONTINUOUS
 62
     5
 10
221.024214548984
 20
45.04023368738061
 30
0.0
 11
236.024214548984
 21
45.04023053034118
 31
0.0
  0
LINE
  5
1DE
  8
0
  6
CONTINUOUS
 62
     5
 10
221.0242110631163
 20
37.54023654840396
 30
0.0
 11
221.0242134308957
 21
48.79023559472964
 31
0.0
  0
LINE
  5
1DF
  8
0
  6
CONTINUOUS
 62
     5
 10
221.024214861407
 20
48.79023511789219
 30
0.0
 11
223.274214861407
 21
48.79023464433627
 31
0.0
  0
LINE
  5
1E0
  8
0
  6
CONTINUOUS
 62
     5
 10
223.274222730859
 20
47.66522606126572
 30
0.0
 11
223.2742229676353
 21
48.79021843187119
 31
0.0
  0
LINE
  5
1E1
  8
0
  6
CONTINUOUS
 62
     5
 10
223.274214624629
 20
47.66523416749911
 30
0.0
 11
224.774214624629
 21
47.66523385179517
 31
0.0
  0
LINE
  5
1E2
  8
0
  6
CONTINUOUS
 62
     5
 10
224.7742058047825
 20
46.54023528230845
 30
0.0
 11
224.7742060415604
 21
47.66523528230845
 31
0.0
  0
LINE
  5
1E3
  8
0
  6
CONTINUOUS
 62
     5
 10
224.774229646638
 20
46.54022383821164
 30
0.0
 11
226.274229646638
 21
46.5402235225077
 31
0.0
  0
LINE
  5
1E4
  8
0
  6
CONTINUOUS
 62
     5
 10
226.2742002438698
 20
45.04023520502419
 30
0.0
 11
226.2742005595737
 21
46.54023496660561
 31
0.0
  0
LINE
  5
1E5
  8
0
  6
CONTINUOUS
 62
     5
 10
227.7742519915695
 20
47.39047784999823
 30
0.0
 11
228.524258150749
 21
48.14048413601682
 31
0.0
  0
LINE
  5
1E6
  8
0
  6
CONTINUOUS
 62
     5
 10
225.5645930567947
 20
48.14049394316574
 30
0.0
 11
228.5242183176991
 21
48.1404933202555
 31
0.0
  0
LINE
  5
1E7
  8
0
  6
CONTINUOUS
 62
     5
 10
228.5242293103973
 20
48.14052089137322
 30
0.0
 11
227.774233940413
 21
48.89051638739997
 31
0.0
  0
ARC
  5
1E8
  8
0
  6
CONTINUOUS
 62
     5
 10
228.5438408373439
 20
41.21112768120705
 30
0.0
 40
2.625001907348633
 50
45.00008572650154
 51
339.9999379796384
  0
TEXT
  5
1E9
  8
0
 62
     5
 10
226.6443338557208
 20
33.58622833600714
 30
0.0
 40
2.5
  1
F
 50
89.9999879409974
 41
1.085973374983846
  7
DCSTYLE1
 72
     5
 11
226.6443343182909
 21
35.78403159490297
 31
0.0
  0
TEXT
  5
1EA
  8
0
 62
     5
 10
234.163442122625
 20
41.38020687507861
 30
0.0
 40
2.5
  1
N min
 50
89.9999879409977
 41
1.0828125
  7
DCSTYLE1
 72
     5
 11
234.1634447271825
 21
53.75520687507834
 31
0.0
  0
TEXT
  5
1EB
  8
0
 62
     5
 10
232.3845985816858
 20
54.31770657891887
 30
0.0
 40
1.25
  1
-1
 50
89.99998794099801
 41
1.021621743408409
  7
DCSTYLE1
 72
     5
 11
232.3845990552418
 21
56.56770684713972
 31
0.0
  0
TEXT
  5
1EC
  8
0
 62
     5
 10
228.3467836191017
 20
49.8444963340177
 30
0.0
 40
2.5
  1
ΣS
 50
89.99998794099753
 41
1.265934348106385
  7
DCSTYLE1
 72
     5
 11
228.3467847292696
 21
55.11922278446085
 31
0.0
  0
ENDBLK
  5
10A
  8
0
  0
BLOCK
  8
0
  2
DC_IMAGEDIMGROUP_25
 70
     0
 10
0.0
 20
0.0
 30
0.0
  3
DC_IMAGEDIMGROUP_25
  1

  0
LINE
  5
1ED
  8
LAYER0014
  6
CONTINUOUS
 62
     7
 10
91.04381031976578
 20
165.751127681207
 30
0.0
 11
91.04381031976578
 21
173.8348306841367
 31
0.0
  0
LINE
  5
1EE
  8
LAYER0014
  6
CONTINUOUS
 62
     7
 10
136.0438103197658
 20
165.751127681207
 30
0.0
 11
136.0438103197658
 21
173.8348306841367
 31
0.0
  0
LINE
  5
1EF
  8
LAYER0014
  6
CONTINUOUS
 62
     7
 10
91.04381031976578
 20
171.5488352007383
 30
0.0
 11
136.0438103197658
 21
171.5488352007383
 31
0.0
  0
INSERT
  5
1F0
  8
LAYER0014
 62
     7
  2
_OPEN30
 10
91.04381031976578
 20
171.5488352007383
 30
0.0
 41
2.499995396844351
 42
2.500007167085477
 50
180.0
  0
INSERT
  5
1F1
  8
LAYER0014
 62
     7
  2
_OPEN30
 10
136.0438103197658
 20
171.5488352007383
 30
0.0
 41
2.499995396844351
 42
2.500007167085477
 50
360.0
  0
TEXT
  5
1F2
  8
LAYER0014
 62
     7
 10
110.3466077190287
 20
173.1544178145705
 30
0.0
 40
4.0
  1
45
 50
359.9
 41
0.9081081081081088
  7
DCSTYLE1
 72
     5
 11
116.7465979712737
 21
173.1432477130287
 31
0.0
  0
ENDBLK
  5
10D
  8
0
  0
BLOCK
  8
0
  2
DC_IMAGEDIMGROUP_26
 70
     0
 10
0.0
 20
0.0
 30
0.0
  3
DC_IMAGEDIMGROUP_26
  1

  0
LINE
  5
1F3
  8
LAYER0014
  6
CONTINUOUS
 62
     7
 10
-41.49953042459057
 20
23.21115771908287
 30
0.0
 11
-33.69575086989551
 21
23.2112541626216
 31
0.0
  0
LINE
  5
1F4
  8
LAYER0014
  6
CONTINUOUS
 62
     7
 10
52.87791679901345
 20
-37.45481152436239
 30
0.0
 11
3.466146328767593
 21
-86.86653617852173
 31
0.0
  0
ARC
  5
1F5
  8
LAYER0014
  6
CONTINUOUS
 62
     7
 10
113.5438637255275
 20
23.21112768120705
 30
0.0
 40
153.3873596191406
 50
179.9999813306653
 51
224.999985997999
  0
INSERT
  5
1F6
  8
LAYER0014
 62
     7
  2
_OPEN30
 10
-39.843495893605
 20
23.21117766115274
 30
0.0
 41
2.499995396844351
 42
2.500007167085477
 50
90.46690125996221
  0
INSERT
  5
1F7
  8
LAYER0014
 62
     7
  2
_OPEN30
 10
5.082595084667858
 20
-85.25008794791472
 30
0.0
 41
2.499995396844351
 42
2.500007167085477
 50
314.5330660687028
  0
TEXT
  5
1F8
  8
LAYER0014
 62
     7
 10
-28.52626579663499
 20
-30.44073331607182
 30
0.0
 40
4.0
  1
45ﾟ
 50
292.5000000000001
 41
0.9163636363636368
  7
DCSTYLE1
 72
     5
 11
-24.85250484593013
 21
-39.30997682818018
 31
0.0
  0
ENDBLK
  5
110
  8
0
  0
BLOCK
  8
0
  2
DC_GROUP_6
 70
     0
 10
0.0
 20
0.0
 30
0.0
  3
DC_GROUP_6
  1

  0
LINE
  5
1F9
  8
LAYER0014
  6
CONTINUOUS
 62
     7
 10
61.54331971679647
 20
-33.29932320993655
 30
0.0
 11
19.20266220120908
 21
-104.2703278414051
 31
0.0
  0
INSERT
  5
1FA
  8
LAYER0014
 62
     7
  2
_OPEN30
 10
61.54331971679647
 20
-33.29932320993655
 30
0.0
 41
2.499995396844351
 42
2.500007167085477
 50
59.18008114291054
  0
LINE
  5
1FB
  8
LAYER0014
  6
CONTINUOUS
 62
     7
 10
19.20266194330094
 20
-104.2703252606875
 30
0.0
 11
-11.42700724615219
 21
-104.2703252606875
 31
0.0
  0
TEXT
  5
1FC
  8
LAYER0014
 62
     7
 10
-10.40382609380844
 20
-102.670332890082
 30
0.0
 40
4.0
  1
PCD133.35
 41
0.8894117647058822
  7
DCSTYLE1
 72
     5
 11
18.39617390619156
 21
-102.670332890082
 31
0.0
  0
ENDBLK
  5
113
  8
0
  0
BLOCK
  8
0
  2
DC_IMAGEDIMGROUP_27
 70
     0
 10
0.0
 20
0.0
 30
0.0
  3
DC_IMAGEDIMGROUP_27
  1

  0
LINE
  5
1FD
  8
LAYER0014
  6
CONTINUOUS
 62
     7
 10
173.4858160303531
 20
-11.39636801219586
 30
0.0
 11
248.5998011187731
 21
-54.7634349769846
 31
0.0
  0
LINE
  5
1FE
  8
LAYER0014
  6
CONTINUOUS
 62
     7
 10
265.4338469408596
 20
23.21112768120705
 30
0.0
 11
269.4930290697658
 21
23.21112768120705
 31
0.0
  0
ARC
  5
1FF
  8
LAYER0014
  6
CONTINUOUS
 62
     7
 10
113.5438637255275
 20
23.21112768120705
 30
0.0
 40
153.6631622314453
 50
330.0000059953631
 51
0.0
  0
INSERT
  5
200
  8
LAYER0014
 62
     7
  2
_OPEN30
 10
246.6200738833743
 20
-53.62043950957764
 30
0.0
 41
2.499995396844351
 42
2.500007167085477
 50
240.466087872557
  0
INSERT
  5
201
  8
LAYER0014
 62
     7
  2
_OPEN30
 10
267.2070259569728
 20
23.21112768120701
 30
0.0
 41
2.499995396844351
 42
2.500007167085477
 50
89.5339181228066
  0
TEXT
  5
202
  8
LAYER0014
 62
     7
 10
259.1832589337503
 20
-20.78214850080474
 30
0.0
 40
4.0
  1
30ﾟ
 50
74.99999999999996
 41
0.9163636363636388
  7
DCSTYLE1
 72
     5
 11
261.6679217667345
 21
-11.50926056842966
 31
0.0
  0
ENDBLK
  5
116
  8
0
  0
BLOCK
  8
0
  2
DC_GROUP_7
 70
     0
 10
0.0
 20
0.0
 30
0.0
  3
DC_GROUP_7
  1

  0
LINE
  5
203
  8
LAYER0014
  6
CONTINUOUS
 62
     7
 10
168.4030645078747
 20
-10.31438578540244
 30
0.0
 11
209.5340199060798
 21
-104.2703390316414
 31
0.0
  0
INSERT
  5
204
  8
LAYER0014
 62
     7
  2
_OPEN30
 10
168.4030645078747
 20
-10.31438578540244
 30
0.0
 41
2.499995396844351
 42
2.500007167085477
 50
113.6422881839971
  0
LINE
  5
205
  8
LAYER0014
  6
CONTINUOUS
 62
     7
 10
209.5340141771877
 20
-104.270332890082
 30
0.0
 11
256.1636833666408
 21
-104.270332890082
 31
0.0
  0
TEXT
  5
206
  8
LAYER0014
 62
     7
 10
209.9372429369533
 20
-102.670332890082
 30
0.0
 40
4.0
  1
4-M8×１６ PCD120
 41
0.825263157894737
  7
DCSTYLE1
 72
     5
 11
254.7372429369533
 21
-102.670332890082
 31
0.0
  0
ENDBLK
  5
119
  8
0
  0
BLOCK
  8
0
  2
DC_IMAGEDIMGROUP_28
 70
     0
 10
0.0
 20
0.0
 30
0.0
  3
DC_IMAGEDIMGROUP_28
  1

  0
LINE
  5
207
  8
LAYER0014
  6
CONTINUOUS
 62
     7
 10
103.5438103197658
 20
-127.9724706818246
 30
0.0
 11
123.5438103197658
 21
-127.9724706818246
 31
0.0
  0
INSERT
  5
208
  8
LAYER0014
 62
     7
  2
_OPEN30
 10
103.5438103197658
 20
-127.9724706818246
 30
0.0
 41
2.499995396844351
 42
2.500007167085477
 50
180.0
  0
INSERT
  5
209
  8
LAYER0014
 62
     7
  2
_OPEN30
 10
123.5438103197658
 20
-127.9724706818246
 30
0.0
 41
2.499995396844351
 42
2.500007167085477
 50
360.0
  0
LINE
  5
20A
  8
LAYER0014
  6
CONTINUOUS
 62
     7
 10
103.5438103197658
 20
-118.2062238001199
 30
0.0
 11
103.5438103197658
 21
-128.9724706818246
 31
0.0
  0
LINE
  5
20B
  8
LAYER0014
  6
CONTINUOUS
 62
     7
 10
123.5438103197658
 20
-118.3382001093321
 30
0.0
 11
123.5438103197658
 21
-128.9724706818246
 31
0.0
  0
TEXT
  5
20C
  8
LAYER0014
 62
     7
 10
107.1438200675207
 20
-126.9613005802829
 30
0.0
 40
4.0
  1
20H8
 50
359.9
 41
0.8506329113924057
  7
DCSTYLE1
 72
     5
 11
119.9438005720108
 21
-126.9836407833664
 31
0.0
  0
ENDBLK
  5
11C
  8
0
  0
BLOCK
  8
0
  2
DC_IMAGEDIMGROUP_29
 70
     0
 10
0.0
 20
0.0
 30
0.0
  3
DC_IMAGEDIMGROUP_29
  1

  0
LINE
  5
20D
  8
0
  6
CONTINUOUS
 62
     9
 10
-80.15603372341772
 20
4.037162870684956
 30
0.0
 11
-80.15603372341772
 21
69.21115016513255
 31
0.0
  0
INSERT
  5
20E
  8
0
 62
     9
  2
_OPEN30
 10
-80.15603372341772
 20
69.21115016513255
 30
0.0
 41
2.499995396844351
 42
2.500007167085477
 50
90.0
  0
LINE
  5
20F
  8
0
  6
CONTINUOUS
 62
     9
 10
-128.2808454433629
 20
69.21115016513255
 30
0.0
 11
-79.15603372341772
 21
69.21115016513255
 31
0.0
  0
TEXT
  5
210
  8
0
 62
     7
 10
-81.15603372341772
 20
18.41115016513255
 30
0.0
 40
4.0
  1
φ91
 50
90.0
 41
1.028571428571428
  7
DCSTYLE1
 72
     5
 11
-81.15603372341772
 21
28.01115016513254
 31
0.0
  0
ENDBLK
  5
11F
  8
0
  0
BLOCK
  8
0
  2
DC_IMAGEDIMGROUP_30
 70
     0
 10
0.0
 20
0.0
 30
0.0
  3
DC_IMAGEDIMGROUP_30
  1

  0
LINE
  5
211
  8
0
  6
CONTINUOUS
 62
     9
 10
74.04375908159625
 20
29.87714330620705
 30
0.0
 11
74.04375908159625
 21
39.77895563407925
 31
0.0
  0
LINE
  5
212
  8
0
  6
CONTINUOUS
 62
     9
 10
153.0437588389815
 20
29.87714330620705
 30
0.0
 11
153.0437588389815
 21
39.77895563407925
 31
0.0
  0
LINE
  5
213
  8
0
  6
CONTINUOUS
 62
     9
 10
74.04375908159625
 20
38.77895563407925
 30
0.0
 11
153.0437588389815
 21
38.77895563407925
 31
0.0
  0
INSERT
  5
214
  8
0
 62
     9
  2
_OPEN30
 10
74.04375908159625
 20
38.77895563407925
 30
0.0
 41
2.499995396844351
 42
2.500007167085477
 50
180.0
  0
INSERT
  5
215
  8
0
 62
     9
  2
_OPEN30
 10
153.0437588389815
 20
38.77895563407925
 30
0.0
 41
2.499995396844351
 42
2.500007167085477
 50
360.0
  0
TEXT
  5
216
  8
0
 62
     7
 10
105.5437589602889
 20
39.77895563407925
 30
0.0
 40
4.0
  1
PCD79
 41
0.8484848484848485
  7
DCSTYLE1
 72
     5
 11
121.5437589602889
 21
39.77895563407925
 31
0.0
  0
ENDBLK
  5
122
  8
0
  0
BLOCK
  8
0
  2
DC_GROUP_8
 70
     0
 10
0.0
 20
0.0
 30
0.0
  3
DC_GROUP_8
  1

  0
LINE
  5
217
  8
0
  6
CONTINUOUS
 62
     7
 10
154.7349748864439
 20
25.80916319100197
 30
0.0
 11
222.1751079701609
 21
142.1162151550845
 31
0.0
  0
INSERT
  5
218
  8
0
 62
     7
  2
_OPEN30
 10
154.7349748864439
 20
25.80916319100197
 30
0.0
 41
2.499995396844351
 42
2.500007167085477
 50
239.8928866409795
  0
LINE
  5
219
  8
0
  6
CONTINUOUS
 62
     7
 10
222.1751079701609
 20
142.1162151550845
 30
0.0
 11
241.3751079701609
 21
142.1162151550845
 31
0.0
  0
TEXT
  5
21A
  8
0
 62
     7
 10
222.1751079701609
 20
142.1162151550845
 30
0.0
 40
4.0
  1
2-φ6.2
 41
0.9081081081081076
  7
DCSTYLE1
 72
     5
 11
241.3751079701609
 21
142.1162151550845
 31
0.0
  0
ENDBLK
  5
125
  8
0
  0
BLOCK
  8
0
  2
_OPEN30
 70
     0
 10
0.0
 20
0.0
 30
0.0
  3
_OPEN30
  1

  0
LINE
  5
12A
  8
0
  6
BYBLOCK
 62
     0
 10
-1.0
 20
0.267949
 30
0.0
 11
0.0
 21
0.0
 31
0.0
  0
LINE
  5
12B
  8
0
  6
BYBLOCK
 62
     0
 10
0.0
 20
0.0
 30
0.0
 11
-1.0
 21
-0.267949
 31
0.0
  0
LINE
  5
12C
  8
0
  6
BYBLOCK
 62
     0
 10
0.0
 20
0.0
 30
0.0
 11
-1.0
 21
0.0
 31
0.0
  0
ENDBLK
  5
129
  8
0
  0
ENDSEC
  0
SECTION
  2
ENTITIES
  0
LINE
  5
21B
  8
ZUWAKU
  6
CONTINUOUS
 62
     3
 10
-277.0
 20
-190.0
 30
0.0
 11
-277.0
 21
190.0
 31
0.0
  0
LINE
  5
21C
  8
ZUWAKU
  6
CONTINUOUS
 62
     3
 10
277.0
 20
-190.0
 30
0.0
 11
277.0
 21
190.0
 31
0.0
  0
LINE
  5
21D
  8
ZUWAKU
  6
CONTINUOUS
 62
     3
 10
-277.0
 20
-190.0
 30
0.0
 11
277.0
 21
-190.0
 31
0.0
  0
LINE
  5
21E
  8
ZUWAKU
  6
CONTINUOUS
 62
     3
 10
-277.0
 20
189.9999999999999
 30
0.0
 11
277.0
 21
189.9999999999999
 31
0.0
  0
LINE
  5
21F
  8
ZUWAKU
  6
CONTINUOUS
 62
     3
 10
97.00000000000001
 20
-190.0
 30
0.0
 11
97.00000000000001
 21
-130.0
 31
0.0
  0
LINE
  5
220
  8
ZUWAKU
  6
CONTINUOUS
 62
     3
 10
97.00000000000001
 20
-176.0
 30
0.0
 11
277.0
 21
-176.0
 31
0.0
  0
LINE
  5
221
  8
ZUWAKU
  6
CONTINUOUS
 62
     3
 10
146.0
 20
-162.0
 30
0.0
 11
277.0
 21
-162.0
 31
0.0
  0
LINE
  5
222
  8
ZUWAKU
  6
CONTINUOUS
 62
     3
 10
146.0
 20
-148.0
 30
0.0
 11
277.0
 21
-148.0
 31
0.0
  0
LINE
  5
223
  8
ZUWAKU
  6
CONTINUOUS
 62
     3
 10
146.0
 20
-138.0
 30
0.0
 11
277.0
 21
-138.0
 31
0.0
  0
LINE
  5
224
  8
ZUWAKU
  6
CONTINUOUS
 62
     3
 10
146.0
 20
-176.0
 30
0.0
 11
146.0
 21
-130.0
 31
0.0
  0
LINE
  5
225
  8
ZUWAKU
  6
CONTINUOUS
 62
     3
 10
255.0
 20
-176.0
 30
0.0
 11
255.0
 21
-130.0
 31
0.0
  0
LINE
  5
226
  8
ZUWAKU
  6
CONTINUOUS
 62
     3
 10
171.0
 20
-190.0
 30
0.0
 11
171.0
 21
-176.0
 31
0.0
  0
LINE
  5
227
  8
ZUWAKU
  6
CONTINUOUS
 62
     3
 10
262.0
 20
-188.0
 30
0.0
 11
272.0
 21
-188.0
 31
0.0
  0
LINE
  5
228
  8
ZUWAKU
  6
CONTINUOUS
 62
     3
 10
267.0
 20
-178.0
 30
0.0
 11
262.0
 21
-188.0
 31
0.0
  0
LINE
  5
229
  8
ZUWAKU
  6
CONTINUOUS
 62
     3
 10
267.0
 20
-178.0
 30
0.0
 11
272.0
 21
-188.0
 31
0.0
  0
LINE
  5
22A
  8
ZUWAKU
  6
CONTINUOUS
 62
     3
 10
97.00000000000001
 20
-130.0
 30
0.0
 11
277.0
 21
-130.0
 31
0.0
  0
LINE
  5
22B
  8
ZUWAKU
  6
CONTINUOUS
 62
     3
 10
226.0
 20
-176.0
 30
0.0
 11
226.0
 21
-148.0
 31
0.0
  0
LINE
  5
22C
  8
ZUWAKU
  6
CONTINUOUS
 62
     4
 10
105.0
 20
-172.0
 30
0.0
 11
105.0
 21
-130.0
 31
0.0
  0
LINE
  5
22D
  8
ZUWAKU
  6
CONTINUOUS
 62
     4
 10
109.0
 20
-172.0
 30
0.0
 11
109.0
 21
-130.0
 31
0.0
  0
LINE
  5
22E
  8
ZUWAKU
  6
CONTINUOUS
 62
     4
 10
121.5
 20
-176.0
 30
0.0
 11
121.5
 21
-130.0
 31
0.0
  0
LINE
  5
22F
  8
ZUWAKU
  6
CONTINUOUS
 62
     4
 10
97.00000000000001
 20
-137.0
 30
0.0
 11
146.0
 21
-137.0
 31
0.0
  0
LINE
  5
230
  8
ZUWAKU
  6
CONTINUOUS
 62
     4
 10
97.00000000000001
 20
-144.0
 30
0.0
 11
146.0
 21
-144.0
 31
0.0
  0
LINE
  5
231
  8
ZUWAKU
  6
CONTINUOUS
 62
     4
 10
97.00000000000001
 20
-165.0
 30
0.0
 11
146.0
 21
-165.0
 31
0.0
  0
LINE
  5
232
  8
ZUWAKU
  6
CONTINUOUS
 62
     4
 10
97.00000000000001
 20
-172.0
 30
0.0
 11
146.0
 21
-172.0
 31
0.0
  0
LINE
  5
233
  8
ZUWAKU
  6
CONTINUOUS
 62
     4
 10
255.0
 20
-166.0
 30
0.0
 11
277.0
 21
-166.0
 31
0.0
  0
LINE
  5
234
  8
ZUWAKU
  6
CONTINUOUS
 62
     4
 10
153.0
 20
-139.5
 30
0.0
 11
153.0
 21
-130.0
 31
0.0
  0
LINE
  5
235
  8
ZUWAKU
  6
CONTINUOUS
 62
     4
 10
202.0
 20
-148.0
 30
0.0
 11
202.0
 21
-146.5
 31
0.0
  0
LINE
  5
236
  8
ZUWAKU
  6
CONTINUOUS
 62
     4
 10
226.0
 20
-148.0
 30
0.0
 11
226.0
 21
-146.5
 31
0.0
  0
LINE
  5
237
  8
ZUWAKU
  6
CONTINUOUS
 62
     4
 10
243.0
 20
-148.0
 30
0.0
 11
243.0
 21
-146.5
 31
0.0
  0
LINE
  5
238
  8
ZUWAKU
  6
CONTINUOUS
 62
     4
 10
202.0
 20
-139.5
 30
0.0
 11
202.0
 21
-130.0
 31
0.0
  0
LINE
  5
239
  8
ZUWAKU
  6
CONTINUOUS
 62
     4
 10
226.0
 20
-139.5
 30
0.0
 11
226.0
 21
-130.0
 31
0.0
  0
LINE
  5
23A
  8
ZUWAKU
  6
CONTINUOUS
 62
     4
 10
243.0
 20
-139.5
 30
0.0
 11
243.0
 21
-130.0
 31
0.0
  0
LINE
  5
23B
  8
ZUWAKU
  6
CONTINUOUS
 62
     4
 10
97.00000000000001
 20
-151.0
 30
0.0
 11
146.0
 21
-151.0
 31
0.0
  0
LINE
  5
23C
  8
ZUWAKU
  6
CONTINUOUS
 62
     4
 10
97.00000000000001
 20
-158.0
 30
0.0
 11
146.0
 21
-158.0
 31
0.0
  0
LINE
  5
23D
  8
ZUWAKU
  6
CONTINUOUS
 62
     4
 10
101.0
 20
-130.5
 30
0.0
 11
98.00000000000001
 21
-136.5
 31
0.0
  0
LINE
  5
23E
  8
ZUWAKU
  6
CONTINUOUS
 62
     4
 10
101.0
 20
-130.5
 30
0.0
 11
104.0
 21
-136.5
 31
0.0
  0
LINE
  5
23F
  8
ZUWAKU
  6
CONTINUOUS
 62
     4
 10
98.00000000000001
 20
-136.5
 30
0.0
 11
104.0
 21
-136.5
 31
0.0
  0
LINE
  5
240
  8
ZUWAKU
  6
CONTINUOUS
 62
     4
 10
101.0
 20
-158.5
 30
0.0
 11
98.00000000000001
 21
-164.5
 31
0.0
  0
LINE
  5
241
  8
ZUWAKU
  6
CONTINUOUS
 62
     4
 10
101.0
 20
-158.5
 30
0.0
 11
104.0
 21
-164.5
 31
0.0
  0
LINE
  5
242
  8
ZUWAKU
  6
CONTINUOUS
 62
     4
 10
98.00000000000001
 20
-164.5
 30
0.0
 11
104.0
 21
-164.5
 31
0.0
  0
LINE
  5
243
  8
ZUWAKU
  6
CONTINUOUS
 62
     4
 10
101.0
 20
-151.5
 30
0.0
 11
98.00000000000001
 21
-157.5
 31
0.0
  0
LINE
  5
244
  8
ZUWAKU
  6
CONTINUOUS
 62
     4
 10
101.0
 20
-151.5
 30
0.0
 11
104.0
 21
-157.5
 31
0.0
  0
LINE
  5
245
  8
ZUWAKU
  6
CONTINUOUS
 62
     4
 10
98.00000000000001
 20
-157.5
 30
0.0
 11
104.0
 21
-157.5
 31
0.0
  0
LINE
  5
246
  8
ZUWAKU
  6
CONTINUOUS
 62
     4
 10
101.0
 20
-144.5
 30
0.0
 11
98.00000000000001
 21
-150.5
 31
0.0
  0
LINE
  5
247
  8
ZUWAKU
  6
CONTINUOUS
 62
     4
 10
101.0
 20
-144.5
 30
0.0
 11
104.0
 21
-150.5
 31
0.0
  0
LINE
  5
248
  8
ZUWAKU
  6
CONTINUOUS
 62
     4
 10
98.00000000000001
 20
-150.5
 30
0.0
 11
104.0
 21
-150.5
 31
0.0
  0
LINE
  5
249
  8
ZUWAKU
  6
CONTINUOUS
 62
     4
 10
101.0
 20
-137.5
 30
0.0
 11
98.00000000000001
 21
-143.5
 31
0.0
  0
LINE
  5
24A
  8
ZUWAKU
  6
CONTINUOUS
 62
     4
 10
101.0
 20
-137.5
 30
0.0
 11
104.0
 21
-143.5
 31
0.0
  0
LINE
  5
24B
  8
ZUWAKU
  6
CONTINUOUS
 62
     4
 10
98.00000000000001
 20
-143.5
 30
0.0
 11
104.0
 21
-143.5
 31
0.0
  0
LINE
  5
24C
  8
ZUWAKU
  6
CONTINUOUS
 62
     4
 10
172.6666666666666
 20
-176.0
 30
0.0
 11
172.6666666666666
 21
-162.0
 31
0.0
  0
LINE
  5
24D
  8
ZUWAKU
  6
CONTINUOUS
 62
     4
 10
199.3333333333333
 20
-176.0
 30
0.0
 11
199.3333333333333
 21
-161.9509415757253
 31
0.0
  0
LINE
  5
24E
  8
ZUWAKU
  6
CONTINUOUS
 62
     4
 10
212.6666666666666
 20
-167.5
 30
0.0
 11
212.6666666666666
 21
-161.9509415757253
 31
0.0
  0
LINE
  5
24F
  8
ZUWAKU
  6
CONTINUOUS
 62
     4
 10
226.0
 20
-155.0
 30
0.0
 11
255.0
 21
-155.0
 31
0.0
  0
LINE
  5
250
  8
ZUWAKU
  6
CONTINUOUS
 62
     4
 10
146.0
 20
-166.0
 30
0.0
 11
226.0
 21
-166.0
 31
0.0
  0
TEXT
  5
252
  8
ZUWAKU
 62
     7
 10
149.5932301474747
 20
-130.8211887289559
 30
0.0
 40
2.6656
  1
符号
 41
0.8
  7
DCSTYLE0
  0
TEXT
  5
253
  8
ZUWAKU
 62
     7
 10
162.4141311219058
 20
-135.8245525019963
 30
0.0
 40
4.0
  1
品       名
 41
0.8400000000000003
  7
DCSTYLE1
 72
     5
 11
191.2141311219058
 21
-135.8245525019963
 31
0.0
  0
TEXT
  5
254
  8
ZUWAKU
 62
     7
 10
207.2331564413096
 20
-135.8245525019963
 30
0.0
 40
4.0
  1
材  料
 41
0.8960000000000009
  7
DCSTYLE1
 72
     5
 11
220.0331564413096
 21
-135.8245525019963
 31
0.0
  0
TEXT
  5
255
  8
ZUWAKU
 62
     7
 10
229.516061684855
 20
-135.8245525019963
 30
0.0
 40
4.0
  1
個 数
 41
0.9333333333333329
  7
DCSTYLE1
 72
     5
 11
239.116061684855
 21
-135.8245525019963
 31
0.0
  0
TEXT
  5
256
  8
ZUWAKU
 62
     7
 10
245.721810952888
 20
-133.5649080050572
 30
0.0
 40
2.5
  1
単重量
 41
0.9882352941176471
  7
DCSTYLE1
 72
     5
 11
251.721810952888
 21
-133.5649080050572
 31
0.0
  0
TEXT
  5
257
  8
ZUWAKU
 62
     7
 10
244.7089516236359
 20
-137.3631304897525
 30
0.0
 40
2.5
  1
(kg)
 41
1.12
  7
DCSTYLE1
 72
     5
 11
252.7089516236359
 21
-137.3631304897525
 31
0.0
  0
TEXT
  5
258
  8
ZUWAKU
 62
     7
 10
259.1421970654778
 20
-135.8245525019963
 30
0.0
 40
4.0
  1
記  事
 41
0.8960000000000009
  7
DCSTYLE1
 72
     5
 11
271.9421970654778
 21
-135.8245525019963
 31
0.0
  0
TEXT
  5
259
  8
ZUWAKU
 62
     7
 10
258.8450794551645
 20
-165.4873041997729
 30
0.0
 40
3.0
  1
コード番号
 41
0.9655172413793105
  7
DCSTYLE1
 72
     5
 11
270.8450794551645
 21
-165.4873041997729
 31
0.0
  0
TEXT
  5
25A
  8
ZUWAKU
 62
     7
 10
101.9119920158317
 20
-175.1879010540338
 30
0.0
 40
2.5
  1
訂 正 来 歴
 41
0.8909090909090911
  7
DCSTYLE1
 72
     5
 11
115.9119920158317
 21
-175.1879010540338
 31
0.0
  0
TEXT
  5
25B
  8
ZUWAKU
 62
     7
 10
125.890334846765
 20
-175.2166697391651
 30
0.0
 40
2.5
  1
工 事 番 号
 41
0.8909090909090911
  7
DCSTYLE1
 72
     5
 11
139.890334846765
 21
-175.2166697391651
 31
0.0
  0
TEXT
  5
25C
  8
ZUWAKU
 62
     7
 10
100.9648378466029
 20
-165.9634530565915
 30
0.0
 40
2.0825
  1
記号
 41
0.8
  7
DCSTYLE0
  0
TEXT
  5
25D
  8
ZUWAKU
 62
     7
 10
106.9042249067618
 20
-165.9634530565915
 30
0.0
 40
2.0825
  1
理由
 41
0.8
  7
DCSTYLE0
  0
TEXT
  5
25E
  8
ZUWAKU
 62
     7
 10
111.6193667909843
 20
-169.8786046700178
 30
0.0
 40
3.0
  1
日 付
 41
0.9333333333333319
  7
DCSTYLE1
 72
     5
 11
118.8193667909843
 21
-169.8786046700178
 31
0.0
  0
TEXT
  5
25F
  8
ZUWAKU
 62
     7
 10
153.4481689819652
 20
-165.7187911464244
 30
0.0
 40
3.0
  1
承   認
 41
0.875
  7
DCSTYLE1
 72
     5
 11
165.4481689819652
 21
-165.7187911464244
 31
0.0
  0
TEXT
  5
260
  8
ZUWAKU
 62
     7
 10
179.863228033234
 20
-165.4873041997729
 30
0.0
 40
3.0
  1
検   図
 41
0.875
  7
DCSTYLE1
 72
     5
 11
191.863228033234
 21
-165.4873041997729
 31
0.0
  0
TEXT
  5
261
  8
ZUWAKU
 62
     7
 10
201.4771920983751
 20
-165.4873041997729
 30
0.0
 40
3.0
  1
担  当
 41
0.8959999999999996
  7
DCSTYLE1
 72
     5
 11
211.0771920983751
 21
-165.4873041997729
 31
0.0
  0
TEXT
  5
262
  8
ZUWAKU
 62
     7
 10
214.6770574841112
 20
-165.4873041997729
 30
0.0
 40
3.0
  1
製  図
 41
0.8959999999999996
  7
DCSTYLE1
 72
     5
 11
224.2770574841112
 21
-165.4873041997729
 31
0.0
  0
TEXT
  5
263
  8
ZUWAKU
 62
     7
 10
226.9462372304199
 20
-153.2184960272417
 30
0.0
 40
3.0
  1
作図
 41
1.018181818181821
  7
DCSTYLE1
 72
     5
 11
231.7462372304199
 21
-153.2184960272417
 31
0.0
  0
TEXT
  5
264
  8
ZUWAKU
 62
     7
 10
228.1036719636776
 20
-160.2371566401815
 30
0.0
 40
4.0
  1
第 三 角 法
 41
0.8909090909090912
  7
DCSTYLE1
 72
     5
 11
250.5036719636776
 21
-160.2371566401815
 31
0.0
  0
TEXT
  5
265
  8
ZUWAKU
 62
     7
 10
227.409211123723
 20
-166.413251986379
 30
0.0
 40
3.0
  1
尺度
 41
1.018181818181821
  7
DCSTYLE1
 72
     5
 11
232.209211123723
 21
-166.413251986379
 31
0.0
  0
TEXT
  5
267
  8
ZUWAKU
 62
     3
 10
105.379154370034
 20
-185.9272077185016
 30
0.0
 40
7.0
  1
株式会社 野村製作所
 41
0.5756623947008424
  7
DCSTYLE2
 72
     5
 11
161.379154370034
 21
-185.9272077185016
 31
0.0
  0
TEXT
  5
269
  8
ZUWAKU
 62
     3
 10
177.8624671645867
 20
-187.1216685584563
 30
0.0
 40
8.0
  1
２－
 41
0.7689423076923078
  7
DCSTYLE3
 72
     5
 11
193.8624671645867
 21
-187.1216685584563
 31
0.0
  0
TEXT
  5
26A
  8
ZUWAKU
 62
     3
 10
194.7744247889935
 20
-187.1216685584563
 30
0.0
 40
8.0
  1
9312028
 41
1.537884615384616
  7
DCSTYLE3
 72
     5
 11
250.7744247889935
 21
-187.1216685584563
 31
0.0
  0
TEXT
  5
26B
  8
ZUWAKU
 62
     6
 10
231.3155727792442
 20
-146.0216474852281
 30
0.0
 40
4.0
  1
一式
 41
0.8909090909090901
  7
DCSTYLE1
 72
     5
 11
236.9155727792442
 21
-146.0216474852281
 31
0.0
  0
TEXT
  5
26C
  8
ZUWAKU
 62
     6
 10
162.2812187032356
 20
-145.8589000228561
 30
0.0
 40
6.0
  1
外 形 図
 41
0.7903225806451614
  7
DCSTYLE1
 72
     5
 11
183.2812187032356
 21
-145.8589000228561
 31
0.0
  0
TEXT
  5
26D
  8
ZUWAKU
 62
     6
 10
149.274786315161
 20
-154.2619116635389
 30
0.0
 40
5.0
  1
日鋼プレシジォン
 41
0.8340425531914895
  7
DCSTYLE1
 72
     5
 11
177.274786315161
 21
-154.2619116635389
 31
0.0
  0
TEXT
  5
26E
  8
ZUWAKU
 62
     6
 10
172.5966285499721
 20
-160.4523460920329
 30
0.0
 40
5.0
  1
ＧＯ2－１2型ﾁｬｯｸ
 41
0.8125628140703519
  7
DCSTYLE1
 72
     5
 11
211.0966285499721
 21
-160.4523460920329
 31
0.0
  0
TEXT
  5
26F
  8
ZUWAKU
 62
     4
 10
236.744629548433
 20
-172.297487439201
 30
0.0
 40
3.0
  1
1/1
 41
0.8320754716981147
  7
DCSTYLE1
 72
     5
 11
243.044629548433
 21
-172.297487439201
 31
0.0
  0
TEXT
  5
270
  8
0
 62
     7
 10
258.6457793482528
 20
-142.5993325480958
 30
0.0
 40
3.0
  1
標　準
 41
0.9882352941176457
  7
DCSTYLE1
 72
     5
 11
265.8457793482528
 21
-142.5993325480958
 31
0.0
  0
TEXT
  5
271
  8
0
 62
     7
 10
-231.1697706142613
 20
168.9476766543904
 30
0.0
 40
4.0
  1
MIN-2.7
 41
0.9259842519685042
  7
DCSTYLE1
 72
     5
 11
-208.7697706142613
 21
168.9476766543904
 31
0.0
  0
TEXT
  5
272
  8
0
 62
     7
 10
-195.367622280189
 20
-146.2864488447443
 30
0.0
 40
4.0
  1
MIN29.3
 41
0.9719008264462813
  7
DCSTYLE1
 72
     5
 11
-172.967622280189
 21
-146.2864488447443
 31
0.0
  0
TEXT
  5
273
  8
0
 62
     7
 10
-44.96962718164412
 20
41.97009410434153
 30
0.0
 40
4.0
  1
MIN47.5
 50
90.0
 41
0.971900826446281
  7
DCSTYLE1
 72
     5
 11
-44.96962718164412
 21
64.37009410434153
 31
0.0
  0
LINE
  5
274
  8
0
  6
CENTER
 62
     7
 10
-215.7931782802688
 20
23.21115016513255
 30
0.0
 11
-92.02872830791453
 21
23.21115016513255
 31
0.0
  0
LINE
  5
275
  8
0
  6
CENTER
 62
     7
 10
-122.1030500332066
 20
-36.78884983486745
 30
0.0
 11
-90.64200572168318
 21
-36.78884983486745
 31
0.0
  0
LINE
  5
276
  8
0
  6
CENTER
 62
     7
 10
-235.4668043056676
 20
-43.46385288662526
 30
0.0
 11
-183.3584782837962
 21
-43.46385288662526
 31
0.0
  0
LINE
  5
277
  8
0
  6
CENTER
 62
     7
 10
-119.1914441982457
 20
138.2111501651326
 30
0.0
 11
-67.50809458887068
 21
138.2111501651326
 31
0.0
  0
LINE
  5
278
  8
0
  6
CENTER
 62
     7
 10
-119.4247663418004
 20
103.2111501651326
 30
0.0
 11
-67.50809458887068
 21
103.2111501651326
 31
0.0
  0
LINE
  5
279
  8
0
  6
CENTER
 62
     7
 10
-32.55568138920346
 20
23.21115016513255
 30
0.0
 11
262.8938365666258
 21
23.21115016513255
 31
0.0
  0
LINE
  5
27A
  8
0
  6
CENTER
 62
     7
 10
-146.2989728847691
 20
62.71115016513254
 30
0.0
 11
-128.5581739345738
 21
62.71115016513254
 31
0.0
  0
LINE
  5
27B
  8
0
  6
CENTER
 62
     7
 10
109.4023635127486
 20
62.71112768120704
 30
0.0
 11
118.081500665147
 21
62.71112768120704
 31
0.0
  0
LINE
  5
27C
  8
0
  6
CENTER
 62
     7
 10
74.04375908159625
 20
28.87714330620705
 30
0.0
 11
74.04375908159625
 21
17.21112768120705
 31
0.0
  0
LINE
  5
27D
  8
0
  6
CENTER
 62
     7
 10
153.0437588389815
 20
28.87714330620705
 30
0.0
 11
153.0437588389815
 21
17.21112768120705
 31
0.0
  0
LINE
  5
27E
  8
0
  6
CENTER
 62
     7
 10
149.8225371727597
 20
7.047725824505896
 30
0.0
 11
145.4829685965605
 21
-0.4686274324004458
 31
0.0
  0
LINE
  5
27F
  8
0
  6
CENTER
 62
     7
 10
81.40653027378906
 20
-0.1254704620917906
 30
0.0
 11
77.06696169758986
 21
7.39088279481458
 31
0.0
  0
LINE
  5
280
  8
0
  6
CENTER
 62
     7
 10
-151.5808637539097
 20
-77.72380161709401
 30
0.0
 11
-151.5808637539097
 21
-122.5251016659221
 31
0.0
  0
LINE
  5
281
  8
0
  6
CENTER
 62
     7
 10
55.08378514307475
 20
81.67121607564016
 30
0.0
 11
78.64804252407845
 21
58.1069606809547
 31
0.0
  0
LINE
  5
282
  8
0
  6
CENTER
 62
     7
 10
54.67397124557289
 20
-35.65876023502412
 30
0.0
 11
78.262839690362
 21
-12.0698937786278
 31
0.0
  0
LINE
  5
283
  8
0
  6
CENTER
 62
     7
 10
55.80159637265393
 20
56.54863954815349
 30
0.0
 11
67.46923310622884
 21
49.81232708345809
 31
0.0
  0
LINE
  5
284
  8
0
  6
CENTER
 62
     7
 10
21.08305592523453
 20
123.211127681207
 30
0.0
 11
61.21803517328141
 21
123.211127681207
 31
0.0
  0
LINE
  5
285
  8
0
  6
CENTER
 62
     7
 10
97.34721608148453
 20
138.211127681207
 30
0.0
 11
129.6470207689845
 21
138.211127681207
 31
0.0
  0
LINE
  5
286
  8
0
  6
CENTER
 62
     7
 10
97.34721608148453
 20
103.211127681207
 30
0.0
 11
129.7803825853908
 21
103.211127681207
 31
0.0
  0
LINE
  5
287
  8
0
  6
CENTER
 62
     7
 10
97.34514088617203
 20
-91.78887231879295
 30
0.0
 11
129.6470207689845
 21
-91.78887231879295
 31
0.0
  0
LINE
  5
288
  8
0
  6
CENTER
 62
     7
 10
97.34514088617203
 20
-56.78887231879295
 30
0.0
 11
129.6470207689845
 21
-56.78887231879295
 31
0.0
  0
ARC
  5
289
  8
0
  6
CENTER
 62
     7
 10
113.5438103197658
 20
23.21112768120705
 30
0.0
 40
66.67500305175781
 50
121.2175392003724
 51
148.0169748618329
  0
ARC
  5
28A
  8
0
  6
CENTER
 62
     7
 10
113.5438103197658
 20
23.21112768120705
 30
0.0
 40
66.67500305175781
 50
212.2577626673416
 51
239.1701559972959
  0
ARC
  5
28B
  8
0
  6
CENTER
 62
     7
 10
113.5438103197658
 20
23.21112768120705
 30
0.0
 40
60.0
 50
203.2891642116029
 51
217.2158516273672
  0
ARC
  5
28C
  8
0
  6
CENTER
 62
     7
 10
113.5438103197658
 20
23.21112768120705
 30
0.0
 40
60.0
 50
143.7867381805206
 51
156.1449136345265
  0
LINE
  5
28D
  8
0
  6
CENTER
 62
     7
 10
160.8367824030902
 20
-4.093446681046288
 30
0.0
 11
171.286121557645
 21
-10.1263747882526
 31
0.0
  0
LINE
  5
28E
  8
0
  6
CENTER
 62
     7
 10
159.6816219779074
 20
49.84877858855592
 30
0.0
 11
171.2861198322433
 21
56.54863780835379
 31
0.0
  0
ARC
  5
28F
  8
0
  6
CENTER
 62
     7
 10
113.5438103197658
 20
23.21112768120705
 30
0.0
 40
60.0
 50
24.26257192257635
 51
36.6836209754395
  0
ARC
  5
290
  8
0
  6
CENTER
 62
     7
 10
113.5438103197658
 20
23.21112768120705
 30
0.0
 40
60.0
 50
323.2944985135544
 51
336.5507413905794
  0
LINE
  5
291
  8
0
  6
CENTER
 62
     7
 10
148.564611278785
 20
-11.80960218022616
 30
0.0
 11
172.5784926186075
 21
-35.82348149583001
 31
0.0
  0
LINE
  5
292
  8
0
  6
CENTER
 62
     7
 10
149.0294450247293
 20
58.69670559056115
 30
0.0
 11
172.0039000423986
 21
81.67115867162877
 31
0.0
  0
ARC
  5
293
  8
0
  6
CENTER
 62
     7
 10
113.5438103197658
 20
23.21112768120705
 30
0.0
 40
66.67500305175781
 50
301.134574713757
 51
327.7313791531109
  0
ARC
  5
294
  8
0
  6
CENTER
 62
     7
 10
113.5438103197658
 20
23.21112768120705
 30
0.0
 40
66.67500305175781
 50
32.04414326472205
 51
58.78247263877315
  0
LINE
  5
295
  8
0
  6
CENTER
 62
     7
 10
55.80159464725222
 20
-10.1263765280523
 30
0.0
 11
67.08511123969795
 21
-3.611835905737206
 31
0.0
  0
LINE
  5
296
  8
0
  6
CENTER
 62
     7
 10
75.26550960249195
 20
1.111118769299118
 30
0.0
 11
82.63584901973091
 21
5.366385745730808
 31
0.0
  0
LINE
  5
297
  8
0
  6
CENTER
 62
     7
 10
151.8221208061503
 20
1.111118769299118
 30
0.0
 11
144.4517813889113
 21
5.366385745730808
 31
0.0
  0
LINE
  5
298
  8
0
  6
CENTER
 62
     7
 10
113.5438152043211
 20
168.5889853613522
 30
0.0
 11
113.5438152043211
 21
45.59481743227322
 31
0.0
  0
LINE
  5
299
  8
0
  6
CENTER
 62
     7
 10
113.5438152043211
 20
35.92069100903018
 30
0.0
 11
113.5438152043211
 21
-119.39401058303
 31
0.0
  0
LINE
  5
29A
  8
0
  6
CONTINUOUS
 62
     3
 10
-212.2808607021519
 20
163.2111501651326
 30
0.0
 11
-212.2808607021519
 21
-116.7888498348674
 31
0.0
  0
LINE
  5
29B
  8
0
  6
CONTINUOUS
 62
     3
 10
-96.08086375390974
 20
160.2111501651326
 30
0.0
 11
-96.08086375390974
 21
152.3685750918904
 31
0.0
  0
LINE
  5
29C
  8
0
  6
CONTINUOUS
 62
     3
 10
-212.2808607021519
 20
-116.7888498348674
 30
0.0
 11
-99.0808790126988
 21
-116.7888498348674
 31
0.0
  0
LINE
  5
29D
  8
0
  6
CONTINUOUS
 62
     3
 10
-212.2808607021519
 20
163.2111501651326
 30
0.0
 11
-140.0808637539097
 21
163.2111501651326
 31
0.0
  0
LINE
  5
29E
  8
0
  6
CONTINUOUS
 62
     3
 10
-97.08084375603278
 20
161.2111554781589
 30
0.0
 11
-96.08085348403631
 21
160.2111652061624
 31
0.0
  0
LINE
  5
29F
  8
0
  6
CONTINUOUS
 62
     3
 10
-96.08087910931977
 20
-113.788857278234
 30
0.0
 11
-99.08088229408827
 21
-116.7888604630025
 31
0.0
  0
LINE
  5
2A0
  8
0
  6
CONTINUOUS
 62
     3
 10
-206.5808484951207
 20
150.7111501651326
 30
0.0
 11
-206.5808484951207
 21
-104.2888498348674
 31
0.0
  0
LINE
  5
2A1
  8
0
  6
CONTINUOUS
 62
     3
 10
-212.2808607021519
 20
150.7111501651326
 30
0.0
 11
-206.5808484951207
 21
150.7111501651326
 31
0.0
  0
LINE
  5
2A2
  8
0
  6
CONTINUOUS
 62
     3
 10
-212.2808607021519
 20
-104.2888498348674
 30
0.0
 11
-206.5808484951207
 21
-104.2888498348674
 31
0.0
  0
LINE
  5
2A3
  8
0
  6
CONTINUOUS
 62
     3
 10
-98.58086375390974
 20
-29.28884983486745
 30
0.0
 11
-96.08086375390974
 21
-29.28884983486745
 31
0.0
  0
LINE
  5
2A4
  8
0
  6
CONTINUOUS
 62
     3
 10
-98.58086375390974
 20
70.6453161197224
 30
0.0
 11
-98.58086375390974
 21
-29.28884983486745
 31
0.0
  0
LINE
  5
2A5
  8
0
  6
CONTINUOUS
 62
     3
 10
-98.58086375390974
 20
70.6453161197224
 30
0.0
 11
-96.08086375390974
 21
70.6453161197224
 31
0.0
  0
LINE
  5
2A6
  8
0
  6
CONTINUOUS
 62
     3
 10
-114.0808637539097
 20
68.97959041171458
 30
0.0
 11
-98.58086375390974
 21
68.97959041171458
 31
0.0
  0
LINE
  5
2A7
  8
0
  6
CONTINUOUS
 62
     3
 10
-114.0808637539097
 20
81.5664358096638
 30
0.0
 11
-114.0808637539097
 21
62.51445674472239
 31
0.0
  0
LINE
  5
2A8
  8
0
  6
CONTINUOUS
 62
     3
 10
-140.0808637539097
 20
163.2111501651326
 30
0.0
 11
-97.08086375390974
 21
163.2111501651326
 31
0.0
  0
LINE
  5
2A9
  8
0
  6
CONTINUOUS
 62
     3
 10
-206.5808484951207
 20
74.21115016513255
 30
0.0
 11
-130.2808301845738
 21
74.21115016513255
 31
0.0
  0
LINE
  5
2AA
  8
0
  6
CONTINUOUS
 62
     3
 10
-140.0808637539097
 20
163.2111501651326
 30
0.0
 11
-140.0808637539097
 21
74.21115016513255
 31
0.0
  0
LINE
  5
2AB
  8
0
  6
CONTINUOUS
 62
     3
 10
-140.0808637539097
 20
83.21115016513255
 30
0.0
 11
-97.08086375390974
 21
83.21115016513255
 31
0.0
  0
LINE
  5
2AC
  8
0
  6
CONTINUOUS
 62
     3
 10
-108.0808637539097
 20
163.2111501651326
 30
0.0
 11
-108.0808637539097
 21
151.2111501651326
 31
0.0
  0
LINE
  5
2AD
  8
0
  6
CONTINUOUS
 62
     3
 10
-117.0808637539097
 20
163.2111501651326
 30
0.0
 11
-117.0808637539097
 21
83.21115016513255
 31
0.0
  0
LINE
  5
2AE
  8
0
  6
CONTINUOUS
 62
     3
 10
-116.0808637539097
 20
90.21115016513255
 30
0.0
 11
-95.58086375390974
 21
90.21115016513255
 31
0.0
  0
LINE
  5
2AF
  8
0
  6
CONTINUOUS
 62
     3
 10
-116.0808637539097
 20
151.2111501651326
 30
0.0
 11
-95.58086375390974
 21
151.2111501651326
 31
0.0
  0
LINE
  5
2B0
  8
0
  6
CONTINUOUS
 62
     3
 10
-116.0808637539097
 20
151.2111501651326
 30
0.0
 11
-116.0808637539097
 21
90.21115016513255
 31
0.0
  0
LINE
  5
2B1
  8
0
  6
CONTINUOUS
 62
     3
 10
-95.58086375390974
 20
151.2111501651326
 30
0.0
 11
-95.58086375390974
 21
144.2111501651326
 31
0.0
  0
LINE
  5
2B2
  8
0
  6
CONTINUOUS
 62
     3
 10
-95.58086375390974
 20
132.2111501651326
 30
0.0
 11
-95.58086375390974
 21
109.2111501651326
 31
0.0
  0
LINE
  5
2B3
  8
0
  6
CONTINUOUS
 62
     3
 10
-95.58086375390974
 20
97.21115016513255
 30
0.0
 11
-95.58086375390974
 21
90.21115016513255
 31
0.0
  0
LINE
  5
2B4
  8
0
  6
CONTINUOUS
 62
     3
 10
-96.08086375390974
 20
88.90190028720286
 30
0.0
 11
-96.08086375390974
 21
-113.7888498348674
 31
0.0
  0
LINE
  5
2B5
  8
0
  6
CONTINUOUS
 62
     3
 10
-108.0808637539097
 20
90.21115016513255
 30
0.0
 11
-108.0808637539097
 21
83.21115016513255
 31
0.0
  0
LINE
  5
2B6
  8
0
  6
CONTINUOUS
 62
     3
 10
-110.0808637539097
 20
109.2111501651326
 30
0.0
 11
-110.0808637539097
 21
97.21115016513255
 31
0.0
  0
LINE
  5
2B7
  8
0
  6
CONTINUOUS
 62
     3
 10
-110.0808637539097
 20
144.2111501651326
 30
0.0
 11
-110.0808637539097
 21
132.2111501651326
 31
0.0
  0
LINE
  5
2B8
  8
0
  6
CONTINUOUS
 62
     3
 10
-192.2808607021519
 20
73.21115016513255
 30
0.0
 11
-192.2808607021519
 21
-26.78884983486745
 31
0.0
  0
LINE
  5
2B9
  8
0
  6
CONTINUOUS
 62
     3
 10
-129.2808454433629
 20
73.21115016513255
 30
0.0
 11
-129.2808454433629
 21
-26.78884983486745
 31
0.0
  0
LINE
  5
2BA
  8
0
  6
CONTINUOUS
 62
     3
 10
-192.2808514893735
 20
73.21115107242537
 30
0.0
 11
-191.280850427784
 21
74.21115213401487
 31
0.0
  0
LINE
  5
2BB
  8
0
  6
CONTINUOUS
 62
     3
 10
-130.2808180396036
 20
74.21114134442183
 30
0.0
 11
-129.2808169780141
 21
73.21114028283233
 31
0.0
  0
LINE
  5
2BC
  8
0
  6
CONTINUOUS
 62
     3
 10
-129.2808223728106
 20
-26.78884179579785
 30
0.0
 11
-130.2808234344001
 21
-27.78884285738735
 31
0.0
  0
LINE
  5
2BD
  8
0
  6
CONTINUOUS
 62
     3
 10
-192.2808514893735
 20
-26.7888256114083
 30
0.0
 11
-191.280850427784
 21
-27.7888266729978
 31
0.0
  0
LINE
  5
2BE
  8
0
  6
CONTINUOUS
 62
     3
 10
-160.2808607021519
 20
67.21115016513255
 30
0.0
 11
-160.2808607021519
 21
-20.78884983486745
 31
0.0
  0
LINE
  5
2BF
  8
0
  6
CONTINUOUS
 62
     3
 10
-144.2808607021519
 20
68.71115016513255
 30
0.0
 11
-144.2808607021519
 21
43.21115016513255
 31
0.0
  0
LINE
  5
2C0
  8
0
  6
CONTINUOUS
 62
     3
 10
-158.2808607021519
 20
67.21115016513255
 30
0.0
 11
-158.2808607021519
 21
43.21115016513255
 31
0.0
  0
LINE
  5
2C1
  8
0
  6
CONTINUOUS
 62
     3
 10
-142.2808607021519
 20
68.71115016513255
 30
0.0
 11
-142.2808607021519
 21
-22.28884983486745
 31
0.0
  0
LINE
  5
2C2
  8
0
  6
CONTINUOUS
 62
     3
 10
-160.2808607021519
 20
-20.78884983486745
 30
0.0
 11
-158.2808607021519
 21
-20.78884983486745
 31
0.0
  0
LINE
  5
2C3
  8
0
  6
CONTINUOUS
 62
     3
 10
-160.2808607021519
 20
67.21115016513255
 30
0.0
 11
-158.2808607021519
 21
67.21115016513255
 31
0.0
  0
LINE
  5
2C4
  8
0
  6
CONTINUOUS
 62
     3
 10
-144.2808607021519
 20
-22.28884983486745
 30
0.0
 11
-142.2808607021519
 21
-22.28884983486745
 31
0.0
  0
LINE
  5
2C5
  8
0
  6
CONTINUOUS
 62
     3
 10
-144.2808607021519
 20
68.71115016513255
 30
0.0
 11
-142.2808607021519
 21
68.71115016513255
 31
0.0
  0
LINE
  5
2C6
  8
0
  6
CONTINUOUS
 62
     3
 10
-142.2808607021519
 20
68.21115016513255
 30
0.0
 11
-132.2808454433629
 21
68.21115016513255
 31
0.0
  0
LINE
  5
2C7
  8
0
  6
CONTINUOUS
 62
     3
 10
-142.2808607021519
 20
-21.78884983486745
 30
0.0
 11
-132.2808454433629
 21
-21.78884983486745
 31
0.0
  0
LINE
  5
2C8
  8
0
  6
CONTINUOUS
 62
     3
 10
-206.5808484951207
 20
-27.78884983486745
 30
0.0
 11
-98.58086375390974
 21
-27.78884983486745
 31
0.0
  0
LINE
  5
2C9
  8
0
  6
CONTINUOUS
 62
     3
 10
-158.2808607021519
 20
3.211150165132548
 30
0.0
 11
-158.2808607021519
 21
-20.78884983486745
 31
0.0
  0
LINE
  5
2CA
  8
0
  6
CONTINUOUS
 62
     3
 10
-144.2808607021519
 20
3.211150165132548
 30
0.0
 11
-144.2808607021519
 21
-22.28884983486745
 31
0.0
  0
LINE
  5
2CB
  8
0
  6
CONTINUOUS
 62
     3
 10
-127.9315870205113
 20
62.51445674472239
 30
0.0
 11
-114.0808637539097
 21
62.51445674472239
 31
0.0
  0
LINE
  5
2CC
  8
0
  6
CONTINUOUS
 62
     3
 10
-132.2808454433629
 20
69.21115016513255
 30
0.0
 11
-132.2808454433629
 21
-22.78884983486745
 31
0.0
  0
LINE
  5
2CD
  8
0
  6
CONTINUOUS
 62
     3
 10
-132.2808454433629
 20
69.21115016513255
 30
0.0
 11
-129.2808454433629
 21
69.21115016513255
 31
0.0
  0
LINE
  5
2CE
  8
0
  6
CONTINUOUS
 62
     3
 10
-132.2808454433629
 20
-22.78884983486745
 30
0.0
 11
-129.2808454433629
 21
-22.78884983486745
 31
0.0
  0
LINE
  5
2CF
  8
0
  6
CONTINUOUS
 62
     3
 10
-85.08086375390974
 20
147.2111501651326
 30
0.0
 11
-85.08086375390974
 21
129.2111501651326
 31
0.0
  0
LINE
  5
2D0
  8
0
  6
CONTINUOUS
 62
     3
 10
-85.08086375390974
 20
112.2111501651326
 30
0.0
 11
-85.08086375390974
 21
94.21115016513255
 31
0.0
  0
LINE
  5
2D1
  8
0
  6
CONTINUOUS
 62
     3
 10
-73.08086375390974
 20
147.2111501651326
 30
0.0
 11
-73.08086375390974
 21
129.2111501651326
 31
0.0
  0
LINE
  5
2D2
  8
0
  6
CONTINUOUS
 62
     3
 10
-73.08086375390974
 20
112.2111501651326
 30
0.0
 11
-73.08086375390974
 21
94.21115016513255
 31
0.0
  0
LINE
  5
2D3
  8
0
  6
CONTINUOUS
 62
     3
 10
-85.08086375390974
 20
112.2111501651326
 30
0.0
 11
-73.08086375390974
 21
112.2111501651326
 31
0.0
  0
LINE
  5
2D4
  8
0
  6
CONTINUOUS
 62
     3
 10
-85.08086375390974
 20
94.21115016513255
 30
0.0
 11
-73.08086375390974
 21
94.21115016513255
 31
0.0
  0
LINE
  5
2D5
  8
0
  6
CONTINUOUS
 62
     3
 10
-85.08086375390974
 20
129.2111501651326
 30
0.0
 11
-73.08086375390974
 21
129.2111501651326
 31
0.0
  0
LINE
  5
2D6
  8
0
  6
CONTINUOUS
 62
     3
 10
-85.08086375390974
 20
147.2111501651326
 30
0.0
 11
-73.08086375390974
 21
147.2111501651326
 31
0.0
  0
CIRCLE
  5
2D7
  8
0
  6
CONTINUOUS
 62
     3
 10
113.5438152043211
 20
23.21115016513255
 30
0.0
 40
45.0
  0
LINE
  5
2D8
  8
0
  6
CONTINUOUS
 62
     3
 10
-116.0808637539097
 20
132.2111501651326
 30
0.0
 11
-85.08086375390974
 21
132.2111501651326
 31
0.0
  0
LINE
  5
2D9
  8
0
  6
CONTINUOUS
 62
     3
 10
-116.0808637539097
 20
144.2111501651326
 30
0.0
 11
-85.08086375390974
 21
144.2111501651326
 31
0.0
  0
LINE
  5
2DA
  8
0
  6
CONTINUOUS
 62
     3
 10
-116.0808637539097
 20
109.2111501651326
 30
0.0
 11
-85.08086375390974
 21
109.2111501651326
 31
0.0
  0
LINE
  5
2DB
  8
0
  6
CONTINUOUS
 62
     3
 10
-116.0808637539097
 20
97.21115016513255
 30
0.0
 11
-85.08086375390974
 21
97.21115016513255
 31
0.0
  0
LINE
  5
2DC
  8
0
  6
CONTINUOUS
 62
     3
 10
-191.2808607021519
 20
58.21115016513255
 30
0.0
 11
-161.2808607021519
 21
58.21115016513255
 31
0.0
  0
LINE
  5
2DD
  8
0
  6
CONTINUOUS
 62
     3
 10
-191.2808607021519
 20
-11.78884983486745
 30
0.0
 11
-161.2808607021519
 21
-11.78884983486745
 31
0.0
  0
LINE
  5
2DE
  8
0
  6
CONTINUOUS
 62
     3
 10
-161.2808411961236
 20
58.21112748175989
 30
0.0
 11
-160.2808381957769
 21
59.21112668888604
 31
0.0
  0
LINE
  5
2DF
  8
0
  6
CONTINUOUS
 62
     3
 10
-191.2808612693492
 20
58.2111617600786
 30
0.0
 11
-192.2808603921816
 21
59.21116476042521
 31
0.0
  0
LINE
  5
2E0
  8
0
  6
CONTINUOUS
 62
     3
 10
-158.2808607021519
 20
66.96115016513254
 30
0.0
 11
-144.2808607021519
 21
66.96115016513254
 31
0.0
  0
LINE
  5
2E1
  8
0
  6
CONTINUOUS
 62
     3
 10
-158.2808607021519
 20
-20.53884983486745
 30
0.0
 11
-144.2808607021519
 21
-20.53884983486745
 31
0.0
  0
LINE
  5
2E2
  8
0
  6
CONTINUOUS
 62
     3
 10
-191.2808453397896
 20
-11.78887847242817
 30
0.0
 11
-192.2808394049656
 21
-12.78886495124511
 31
0.0
  0
LINE
  5
2E3
  8
0
  6
CONTINUOUS
 62
     3
 10
-161.2808411961236
 20
-11.78882715149479
 30
0.0
 11
-160.2808381957769
 21
-12.78882635862094
 31
0.0
  0
LINE
  5
2E4
  8
0
  6
CONTINUOUS
 62
     3
 10
-137.2808607021519
 20
65.71115016513254
 30
0.0
 11
-137.2808607021519
 21
59.71115016513254
 31
0.0
  0
LINE
  5
2E5
  8
0
  6
CONTINUOUS
 62
     3
 10
-142.2808607021519
 20
58.21115016513254
 30
0.0
 11
-132.2808607021519
 21
58.21115016513254
 31
0.0
  0
LINE
  5
2E6
  8
0
  6
CONTINUOUS
 62
     3
 10
-142.2808607021519
 20
65.71115016513254
 30
0.0
 11
-132.2808607021519
 21
65.71115016513254
 31
0.0
  0
LINE
  5
2E7
  8
0
  6
CONTINUOUS
 62
     3
 10
-142.2808607021519
 20
59.71115016513254
 30
0.0
 11
-132.2808607021519
 21
59.71115016513254
 31
0.0
  0
LINE
  5
2E8
  8
0
  6
CONTINUOUS
 62
     3
 10
-133.2808607021519
 20
65.71115016513254
 30
0.0
 11
-133.2808607021519
 21
59.71115016513254
 31
0.0
  0
LINE
  5
2E9
  8
0
  6
CONTINUOUS
 62
     3
 10
-142.2808454433629
 20
-10.03884792751882
 30
0.0
 11
-132.2808607021519
 21
-10.03884792751882
 31
0.0
  0
CIRCLE
  5
2EA
  8
0
  6
CONTINUOUS
 62
     3
 10
74.04375908159625
 20
23.21112768120705
 30
0.0
 40
3.099999904632568
  0
CIRCLE
  5
2EB
  8
0
  6
CONTINUOUS
 62
     3
 10
153.0437590815962
 20
23.21112768120705
 30
0.0
 40
3.099999904632568
  0
LINE
  5
2EC
  8
0
  6
CONTINUOUS
 62
     3
 10
103.5438103197658
 20
163.211127681207
 30
0.0
 11
103.5438103197658
 21
83.21112768120705
 31
0.0
  0
LINE
  5
2ED
  8
0
  6
CONTINUOUS
 62
     3
 10
123.5438103197658
 20
163.211127681207
 30
0.0
 11
123.5438103197658
 21
83.21112768120705
 31
0.0
  0
LINE
  5
2EE
  8
0
  6
CONTINUOUS
 62
     3
 10
136.0438103197658
 20
163.211127681207
 30
0.0
 11
136.0438103197658
 21
68.97956792778908
 31
0.0
  0
LINE
  5
2EF
  8
0
  6
CONTINUOUS
 62
     3
 10
91.04381031976578
 20
163.211127681207
 30
0.0
 11
91.04381031976578
 21
68.97956792778908
 31
0.0
  0
LINE
  5
2F0
  8
0
  6
CONTINUOUS
 62
     3
 10
91.04381031976578
 20
163.211127681207
 30
0.0
 11
136.0438103197658
 21
163.211127681207
 31
0.0
  0
LINE
  5
2F1
  8
0
  6
CONTINUOUS
 62
     3
 10
81.04381031976578
 20
161.4478525347227
 30
0.0
 11
81.04381031976578
 21
159.3865732378477
 31
0.0
  0
LINE
  5
2F2
  8
0
  6
CONTINUOUS
 62
     3
 10
146.0438103197658
 20
161.4478830523008
 30
0.0
 11
146.0438103197658
 21
159.3865732378477
 31
0.0
  0
LINE
  5
2F3
  8
0
  6
CONTINUOUS
 62
     3
 10
81.04382178927432
 20
161.4478354850512
 30
0.0
 11
91.04379173376316
 21
163.2111000434857
 31
0.0
  0
LINE
  5
2F4
  8
0
  6
CONTINUOUS
 62
     3
 10
136.0438313581818
 20
163.2111215285081
 30
0.0
 11
146.0438313566174
 21
161.4478516707518
 31
0.0
  0
LINE
  5
2F5
  8
0
  6
CONTINUOUS
 62
     3
 10
91.04381031976578
 20
83.21112768120705
 30
0.0
 11
136.0438103197658
 21
83.21112768120705
 31
0.0
  0
LINE
  5
2F6
  8
0
  6
CONTINUOUS
 62
     3
 10
103.5438103197658
 20
151.211127681207
 30
0.0
 11
123.5438103197658
 21
151.211127681207
 31
0.0
  0
LINE
  5
2F7
  8
0
  6
CONTINUOUS
 62
     3
 10
103.5438103197658
 20
90.21112768120705
 30
0.0
 11
123.5438103197658
 21
90.21112768120705
 31
0.0
  0
LINE
  5
2F8
  8
0
  6
CONTINUOUS
 62
     3
 10
91.04381031976578
 20
-36.78887231879295
 30
0.0
 11
136.0438103197658
 21
-36.78887231879295
 31
0.0
  0
LINE
  5
2F9
  8
0
  6
CONTINUOUS
 62
     3
 10
103.5438103197658
 20
-43.78887231879295
 30
0.0
 11
123.5438103197658
 21
-43.78887231879295
 31
0.0
  0
CIRCLE
  5
2FA
  8
0
  6
CONTINUOUS
 62
     3
 10
66.39744801507828
 20
70.35747472710548
 30
0.0
 40
7.0
  0
ARC
  5
2FB
  8
0
  6
CONTINUOUS
 62
     3
 10
113.5438103197658
 20
23.21112768120705
 30
0.0
 40
52.5
 50
115.3769488184461
 51
244.6230338787099
  0
CIRCLE
  5
2FC
  8
0
  6
CONTINUOUS
 62
     3
 10
61.58229298578141
 20
53.21114293999611
 30
0.0
 40
3.150000095367432
  0
CIRCLE
  5
2FD
  8
0
  6
CONTINUOUS
 62
     3
 10
66.39744801507828
 20
70.35747472710548
 30
0.0
 40
10.0
  0
CIRCLE
  5
2FE
  8
0
  6
CONTINUOUS
 62
     3
 10
61.58229298578141
 20
-6.78887613349022
 30
0.0
 40
3.150000095367432
  0
CIRCLE
  5
2FF
  8
0
  6
CONTINUOUS
 62
     3
 10
66.39744801507828
 20
-23.93521936469139
 30
0.0
 40
10.0
  0
CIRCLE
  5
300
  8
0
  6
CONTINUOUS
 62
     3
 10
160.6901726244533
 20
70.35747472710548
 30
0.0
 40
7.0
  0
CIRCLE
  5
301
  8
0
  6
CONTINUOUS
 62
     3
 10
165.5053581713283
 20
53.21112005181251
 30
0.0
 40
3.150000095367432
  0
CIRCLE
  5
302
  8
0
  6
CONTINUOUS
 62
     3
 10
160.6901726244533
 20
70.35747472710548
 30
0.0
 40
10.0
  0
CIRCLE
  5
303
  8
0
  6
CONTINUOUS
 62
     3
 10
165.5053581713283
 20
-6.788853245306626
 30
0.0
 40
3.150000095367432
  0
CIRCLE
  5
304
  8
0
  6
CONTINUOUS
 62
     3
 10
160.6901726244533
 20
-23.93521554999413
 30
0.0
 40
7.0
  0
CIRCLE
  5
305
  8
0
  6
CONTINUOUS
 62
     3
 10
160.6901726244533
 20
-23.93521554999413
 30
0.0
 40
10.0
  0
LINE
  5
306
  8
0
  6
CONTINUOUS
 62
     3
 10
91.04381031976578
 20
-116.788872318793
 30
0.0
 11
136.0438103197658
 21
-116.788872318793
 31
0.0
  0
LINE
  5
307
  8
0
  6
CONTINUOUS
 62
     3
 10
81.04381031976578
 20
-112.9643178754336
 30
0.0
 11
81.04381031976578
 21
-115.0255971723086
 31
0.0
  0
LINE
  5
308
  8
0
  6
CONTINUOUS
 62
     3
 10
146.0438103197658
 20
-112.9643178754336
 30
0.0
 11
146.0438103197658
 21
-115.0256048017031
 31
0.0
  0
LINE
  5
309
  8
0
  6
CONTINUOUS
 62
     3
 10
136.0438415951076
 20
-116.7888479662774
 30
0.0
 11
146.0438115395964
 21
-115.025583407843
 31
0.0
  0
LINE
  5
30A
  8
0
  6
CONTINUOUS
 62
     3
 10
81.04377752391025
 20
-115.0255791639588
 30
0.0
 11
91.04377752234592
 21
-116.7888490217151
 31
0.0
  0
LINE
  5
30B
  8
0
  6
CONTINUOUS
 62
     3
 10
103.5438103197658
 20
-104.788872318793
 30
0.0
 11
123.5438103197658
 21
-104.788872318793
 31
0.0
  0
LINE
  5
30C
  8
0
  6
CONTINUOUS
 62
     3
 10
123.5438103197658
 20
-36.78887231879295
 30
0.0
 11
123.5438103197658
 21
-116.788872318793
 31
0.0
  0
LINE
  5
30D
  8
0
  6
CONTINUOUS
 62
     3
 10
103.5438103197658
 20
-36.78887231879295
 30
0.0
 11
103.5438103197658
 21
-116.788872318793
 31
0.0
  0
LINE
  5
30E
  8
0
  6
CONTINUOUS
 62
     3
 10
91.04381031976578
 20
-22.55731256537499
 30
0.0
 11
91.04381031976578
 21
-116.788872318793
 31
0.0
  0
LINE
  5
30F
  8
0
  6
CONTINUOUS
 62
     3
 10
136.0438103197658
 20
-22.55731256537499
 30
0.0
 11
136.0438103197658
 21
-116.788872318793
 31
0.0
  0
ARC
  5
310
  8
0
  6
CONTINUOUS
 62
     3
 10
113.5438103197658
 20
23.21112768120705
 30
0.0
 40
137.0
 50
99.45273159877654
 51
260.5472374380011
  0
CIRCLE
  5
311
  8
0
  6
CONTINUOUS
 62
     3
 10
113.5438103197658
 20
23.21112768120705
 30
0.0
 40
51.0
  0
ARC
  5
312
  8
0
  6
CONTINUOUS
 62
     3
 10
113.5438103197658
 20
23.21112768120705
 30
0.0
 40
52.5
 50
295.3769301491114
 51
64.6230698508886
  0
ARC
  5
313
  8
0
  6
CONTINUOUS
 62
     3
 10
113.5438103197658
 20
23.21112768120705
 30
0.0
 40
140.0
 50
279.2483604996642
 51
80.75163950033577
  0
ARC
  5
314
  8
0
  6
CONTINUOUS
 62
     3
 10
113.5438103197658
 20
23.21112768120705
 30
0.0
 40
140.0
 50
99.24837916899891
 51
260.7515966979679
  0
ARC
  5
315
  8
0
  6
CONTINUOUS
 62
     3
 10
113.5438103197658
 20
23.21112768120705
 30
0.0
 40
137.0
 50
279.4527129294419
 51
80.54728707055814
  0
LINE
  5
316
  8
0
  6
CONTINUOUS
 62
     4
 10
-97.08086375390974
 20
163.2111501651326
 30
0.0
 11
-97.08086375390974
 21
151.2111501651326
 31
0.0
  0
LINE
  5
317
  8
0
  6
CONTINUOUS
 62
     4
 10
-98.08086375390974
 20
163.2111501651326
 30
0.0
 11
-98.08086375390974
 21
151.2111501651326
 31
0.0
  0
LINE
  5
318
  8
0
  6
CONTINUOUS
 62
     4
 10
-97.08086375390974
 20
90.21115016513255
 30
0.0
 11
-97.08086375390974
 21
83.21115016513255
 31
0.0
  0
LINE
  5
319
  8
0
  6
CONTINUOUS
 62
     4
 10
-98.08086375390974
 20
90.21115016513255
 30
0.0
 11
-98.08086375390974
 21
83.21115016513255
 31
0.0
  0
LINE
  5
31A
  8
0
  6
CONTINUOUS
 62
     4
 10
-142.2808607021519
 20
-20.98885059780691
 30
0.0
 11
-132.2808454433629
 21
-20.98885059780691
 31
0.0
  0
LINE
  5
31B
  8
0
  6
CONTINUOUS
 62
     4
 10
-142.2808607021519
 20
67.41114711337474
 30
0.0
 11
-132.2808454433629
 21
67.41114711337474
 31
0.0
  0
CIRCLE
  5
31C
  8
0
  6
CONTINUOUS
 62
     4
 10
113.5438152043211
 20
23.21115016513255
 30
0.0
 40
44.20000076293945
  0
LINE
  5
31D
  8
0
  6
CONTINUOUS
 62
     4
 10
-116.0808637539097
 20
98.11115169101146
 30
0.0
 11
-85.08086375390974
 21
98.11115169101146
 31
0.0
  0
LINE
  5
31E
  8
0
  6
CONTINUOUS
 62
     4
 10
-116.0808637539097
 20
108.3111486392536
 30
0.0
 11
-85.08086375390974
 21
108.3111486392536
 31
0.0
  0
LINE
  5
31F
  8
0
  6
CONTINUOUS
 62
     4
 10
-116.0808637539097
 20
133.1111440616169
 30
0.0
 11
-85.08086375390974
 21
133.1111440616169
 31
0.0
  0
LINE
  5
320
  8
0
  6
CONTINUOUS
 62
     4
 10
-116.0808637539097
 20
143.3111562686482
 30
0.0
 11
-85.08086375390974
 21
143.3111562686482
 31
0.0
  0
LINE
  5
321
  8
0
  6
CONTINUOUS
 62
     4
 10
-161.2808607021519
 20
58.21115016513255
 30
0.0
 11
-161.2808607021519
 21
45.31378459506419
 31
0.0
  0
LINE
  5
322
  8
0
  6
CONTINUOUS
 62
     4
 10
-191.2808607021519
 20
58.21115016513255
 30
0.0
 11
-191.2808607021519
 21
45.59447383456614
 31
0.0
  0
LINE
  5
323
  8
0
  6
CONTINUOUS
 62
     4
 10
-191.2808607021519
 20
-0.0087118191203821
 30
0.0
 11
-191.2808607021519
 21
-11.78884983486745
 31
0.0
  0
LINE
  5
324
  8
0
  6
CONTINUOUS
 62
     4
 10
-161.2808607021519
 20
0.5526666598835241
 30
0.0
 11
-161.2808607021519
 21
-11.78884983486745
 31
0.0
  0
LINE
  5
325
  8
0
  6
CONTINUOUS
 62
     4
 10
-142.2808607021519
 20
65.21115016513254
 30
0.0
 11
-132.2808607021519
 21
65.21115016513254
 31
0.0
  0
LINE
  5
326
  8
0
  6
CONTINUOUS
 62
     4
 10
-142.2808607021519
 20
60.21115016513254
 30
0.0
 11
-132.2808607021519
 21
60.21115016513254
 31
0.0
  0
CIRCLE
  5
327
  8
0
  6
CONTINUOUS
 62
     4
 10
113.5437590815962
 20
62.71112768120704
 30
0.0
 40
2.5
  0
CIRCLE
  5
328
  8
0
  6
CONTINUOUS
 62
     4
 10
147.7518393883358
 20
3.461172054763487
 30
0.0
 40
2.5
  0
CIRCLE
  5
329
  8
0
  6
CONTINUOUS
 62
     4
 10
79.3358324893652
 20
3.46108330765059
 30
0.0
 40
2.499999999999999
  0
LINE
  5
32A
  8
0
  6
CONTINUOUS
 62
     4
 10
92.04381031976578
 20
84.71112768120705
 30
0.0
 11
102.5438103197658
 21
84.71112768120705
 31
0.0
  0
LINE
  5
32B
  8
0
  6
CONTINUOUS
 62
     4
 10
124.5438103197658
 20
84.71112768120705
 30
0.0
 11
135.0438103197658
 21
84.71112768120705
 31
0.0
  0
LINE
  5
32C
  8
0
  6
CONTINUOUS
 62
     4
 10
92.04381031976578
 20
161.711127681207
 30
0.0
 11
102.5438103197658
 21
161.711127681207
 31
0.0
  0
LINE
  5
32D
  8
0
  6
CONTINUOUS
 62
     4
 10
124.5438103197658
 20
161.711127681207
 30
0.0
 11
135.0438103197658
 21
161.711127681207
 31
0.0
  0
LINE
  5
32E
  8
0
  6
CONTINUOUS
 62
     4
 10
124.5438103197658
 20
86.21112768120705
 30
0.0
 11
135.0438103197658
 21
86.21112768120705
 31
0.0
  0
LINE
  5
32F
  8
0
  6
CONTINUOUS
 62
     4
 10
124.5438103197658
 20
87.71112768120705
 30
0.0
 11
135.0438103197658
 21
87.71112768120705
 31
0.0
  0
LINE
  5
330
  8
0
  6
CONTINUOUS
 62
     4
 10
124.5438103197658
 20
89.21112768120705
 30
0.0
 11
135.0438103197658
 21
89.21112768120705
 31
0.0
  0
LINE
  5
331
  8
0
  6
CONTINUOUS
 62
     4
 10
124.5438103197658
 20
90.71112768120705
 30
0.0
 11
135.0438103197658
 21
90.71112768120705
 31
0.0
  0
LINE
  5
332
  8
0
  6
CONTINUOUS
 62
     4
 10
124.5438103197658
 20
92.21112768120705
 30
0.0
 11
135.0438103197658
 21
92.21112768120705
 31
0.0
  0
LINE
  5
333
  8
0
  6
CONTINUOUS
 62
     4
 10
92.04381031976578
 20
86.21112768120705
 30
0.0
 11
102.5438103197658
 21
86.21112768120705
 31
0.0
  0
LINE
  5
334
  8
0
  6
CONTINUOUS
 62
     4
 10
92.04381031976578
 20
87.71112768120705
 30
0.0
 11
102.5438103197658
 21
87.71112768120705
 31
0.0
  0
LINE
  5
335
  8
0
  6
CONTINUOUS
 62
     4
 10
92.04381031976578
 20
89.21112768120705
 30
0.0
 11
102.5438103197658
 21
89.21112768120705
 31
0.0
  0
LINE
  5
336
  8
0
  6
CONTINUOUS
 62
     4
 10
92.04381031976578
 20
90.71112768120705
 30
0.0
 11
102.5438103197658
 21
90.71112768120705
 31
0.0
  0
LINE
  5
337
  8
0
  6
CONTINUOUS
 62
     4
 10
92.04381031976578
 20
92.21112768120705
 30
0.0
 11
102.5438103197658
 21
92.21112768120705
 31
0.0
  0
LINE
  5
338
  8
0
  6
CONTINUOUS
 62
     4
 10
92.04381031976578
 20
160.211127681207
 30
0.0
 11
102.5438103197658
 21
160.211127681207
 31
0.0
  0
LINE
  5
339
  8
0
  6
CONTINUOUS
 62
     4
 10
92.04381031976578
 20
158.711127681207
 30
0.0
 11
102.5438103197658
 21
158.711127681207
 31
0.0
  0
LINE
  5
33A
  8
0
  6
CONTINUOUS
 62
     4
 10
92.04381031976578
 20
157.211127681207
 30
0.0
 11
102.5438103197658
 21
157.211127681207
 31
0.0
  0
LINE
  5
33B
  8
0
  6
CONTINUOUS
 62
     4
 10
92.04381031976578
 20
155.711127681207
 30
0.0
 11
102.5438103197658
 21
155.711127681207
 31
0.0
  0
LINE
  5
33C
  8
0
  6
CONTINUOUS
 62
     4
 10
92.04381031976578
 20
154.211127681207
 30
0.0
 11
102.5438103197658
 21
154.211127681207
 31
0.0
  0
LINE
  5
33D
  8
0
  6
CONTINUOUS
 62
     4
 10
124.5438103197658
 20
160.211127681207
 30
0.0
 11
135.0438103197658
 21
160.211127681207
 31
0.0
  0
LINE
  5
33E
  8
0
  6
CONTINUOUS
 62
     4
 10
124.5438103197658
 20
158.711127681207
 30
0.0
 11
135.0438103197658
 21
158.711127681207
 31
0.0
  0
LINE
  5
33F
  8
0
  6
CONTINUOUS
 62
     4
 10
124.5438103197658
 20
157.211127681207
 30
0.0
 11
135.0438103197658
 21
157.211127681207
 31
0.0
  0
LINE
  5
340
  8
0
  6
CONTINUOUS
 62
     4
 10
124.5438103197658
 20
155.711127681207
 30
0.0
 11
135.0438103197658
 21
155.711127681207
 31
0.0
  0
LINE
  5
341
  8
0
  6
CONTINUOUS
 62
     4
 10
124.5438103197658
 20
154.211127681207
 30
0.0
 11
135.0438103197658
 21
154.211127681207
 31
0.0
  0
ARC
  5
342
  8
0
  6
CONTINUOUS
 62
     4
 10
113.5438103197658
 20
23.21112768120705
 30
0.0
 40
57.0
 50
114.9010758785929
 51
129.2199800772561
  0
ARC
  5
343
  8
0
  6
CONTINUOUS
 62
     4
 10
113.5438103197658
 20
23.21112768120705
 30
0.0
 40
63.0
 50
292.3926907271386
 51
305.3552764509881
  0
ARC
  5
344
  8
0
  6
CONTINUOUS
 62
     4
 10
113.5438103197658
 20
23.21112768120705
 30
0.0
 40
63.0
 50
112.3927025662841
 51
125.3552814599444
  0
ARC
  5
345
  8
0
  6
CONTINUOUS
 62
     4
 10
113.5438103197658
 20
23.21112768120705
 30
0.0
 40
69.0
 50
110.3544238537905
 51
125.4753015440399
  0
ARC
  5
346
  8
0
  6
CONTINUOUS
 62
     4
 10
113.5438103197658
 20
23.21112768120705
 30
0.0
 40
75.0
 50
108.6629411662152
 51
128.5684483323285
  0
ARC
  5
347
  8
0
  6
CONTINUOUS
 62
     4
 10
113.5438103197658
 20
23.21112768120705
 30
0.0
 40
81.0
 50
107.2353018560883
 51
252.7646740108785
  0
ARC
  5
348
  8
0
  6
CONTINUOUS
 62
     4
 10
113.5438103197658
 20
23.21112768120705
 30
0.0
 40
87.0
 50
106.0134151645189
 51
253.9865675326371
  0
ARC
  5
349
  8
0
  6
CONTINUOUS
 62
     4
 10
113.5438103197658
 20
23.21112768120705
 30
0.0
 40
93.0
 50
104.9552685979222
 51
255.0447277596121
  0
ARC
  5
34A
  8
0
  6
CONTINUOUS
 62
     4
 10
113.5438103197658
 20
23.21112768120705
 30
0.0
 40
99.0
 50
104.0296823427371
 51
255.9703003544189
  0
CIRCLE
  5
34B
  8
0
  6
CONTINUOUS
 62
     4
 10
61.58229298578141
 20
53.21114293999611
 30
0.0
 40
4.0
  0
ARC
  5
34C
  8
0
  6
CONTINUOUS
 62
     4
 10
113.5438103197658
 20
23.21112768120705
 30
0.0
 40
75.0
 50
141.4315933320518
 51
218.5683893651042
  0
ARC
  5
34D
  8
0
  6
CONTINUOUS
 62
     4
 10
113.5438103197658
 20
23.21112768120705
 30
0.0
 40
69.0
 50
144.5247401203405
 51
215.4752425768155
  0
ARC
  5
34E
  8
0
  6
CONTINUOUS
 62
     4
 10
113.5438103197658
 20
23.21112768120705
 30
0.0
 40
57.0
 50
140.7800615871243
 51
145.4824692457597
  0
ARC
  5
34F
  8
0
  6
CONTINUOUS
 62
     4
 10
113.5438103197658
 20
23.21112768120705
 30
0.0
 40
57.0
 50
154.5175391025009
 51
205.4824299342767
  0
ARC
  5
350
  8
0
  6
CONTINUOUS
 62
     4
 10
113.5438103197658
 20
23.21112768120705
 30
0.0
 40
63.0
 50
154.4563815886726
 51
205.7030450444681
  0
ARC
  5
351
  8
0
  6
CONTINUOUS
 62
     4
 10
113.5438103197658
 20
23.21112768120705
 30
0.0
 40
63.0
 50
54.64473037920108
 51
67.60731610305058
  0
ARC
  5
352
  8
0
  6
CONTINUOUS
 62
     4
 10
113.5438103197658
 20
23.21112768120705
 30
0.0
 40
57.0
 50
50.78003517698403
 51
65.09893596055257
  0
ARC
  5
353
  8
0
  6
CONTINUOUS
 62
     4
 10
113.5438103197658
 20
23.21112768120705
 30
0.0
 40
57.0
 50
294.9010640394474
 51
309.2199682381105
  0
ARC
  5
354
  8
0
  6
CONTINUOUS
 62
     4
 10
113.5438103197658
 20
23.21112768120705
 30
0.0
 40
105.0
 50
103.361655690964
 51
256.786972413099
  0
CIRCLE
  5
355
  8
0
  6
CONTINUOUS
 62
     4
 10
61.58229298578141
 20
-6.78887613349022
 30
0.0
 40
4.0
  0
ARC
  5
356
  8
0
  6
CONTINUOUS
 62
     4
 10
113.5438103197658
 20
23.21112768120705
 30
0.0
 40
63.0
 50
234.6447185400556
 51
247.6072974337159
  0
ARC
  5
357
  8
0
  6
CONTINUOUS
 62
     4
 10
113.5438103197658
 20
23.21112768120705
 30
0.0
 40
57.0
 50
214.517517093862
 51
219.2199520732541
  0
ARC
  5
358
  8
0
  6
CONTINUOUS
 62
     4
 10
113.5438103197658
 20
23.21112768120705
 30
0.0
 40
57.0
 50
230.7800199227439
 51
245.098924121407
  0
ARC
  5
359
  8
0
  6
CONTINUOUS
 62
     4
 10
113.5438103197658
 20
23.21112768120705
 30
0.0
 40
69.0
 50
234.5246984559601
 51
249.6455624858311
  0
ARC
  5
35A
  8
0
  6
CONTINUOUS
 62
     4
 10
113.5438103197658
 20
23.21112768120705
 30
0.0
 40
75.0
 50
231.4315516676715
 51
251.3370451734064
  0
CIRCLE
  5
35B
  8
0
  6
CONTINUOUS
 62
     4
 10
165.5053581713283
 20
53.21112005181251
 30
0.0
 40
4.0
  0
ARC
  5
35C
  8
0
  6
CONTINUOUS
 62
     4
 10
113.5438103197658
 20
23.21112768120705
 30
0.0
 40
57.0
 50
34.51752210281834
 51
39.21996391239954
  0
CIRCLE
  5
35D
  8
0
  6
CONTINUOUS
 62
     4
 10
165.5053581713283
 20
-6.788853245306626
 30
0.0
 40
4.0
  0
ARC
  5
35E
  8
0
  6
CONTINUOUS
 62
     4
 10
113.5438103197658
 20
23.21112768120705
 30
0.0
 40
75.0
 50
321.4315780778117
 51
38.56842875237744
  0
ARC
  5
35F
  8
0
  6
CONTINUOUS
 62
     4
 10
113.5438103197658
 20
23.21112768120705
 30
0.0
 40
69.0
 50
324.5247282811949
 51
35.4752785489942
  0
ARC
  5
360
  8
0
  6
CONTINUOUS
 62
     4
 10
113.5438103197658
 20
23.21112768120705
 30
0.0
 40
63.0
 50
334.296953134299
 51
25.39788596641587
  0
ARC
  5
361
  8
0
  6
CONTINUOUS
 62
     4
 10
113.5438103197658
 20
23.21112768120705
 30
0.0
 40
57.0
 50
320.7800429177896
 51
325.4824881424654
  0
ARC
  5
362
  8
0
  6
CONTINUOUS
 62
     4
 10
113.5438103197658
 20
23.21112768120705
 30
0.0
 40
57.0
 50
334.5175562916594
 51
25.48245736871897
  0
ARC
  5
363
  8
0
  6
CONTINUOUS
 62
     4
 10
113.5438103197658
 20
23.21112768120705
 30
0.0
 40
75.0
 50
51.43157033700614
 51
71.33707750311945
  0
ARC
  5
364
  8
0
  6
CONTINUOUS
 62
     4
 10
113.5438103197658
 20
23.21112768120705
 30
0.0
 40
69.0
 50
54.52472395548396
 51
69.64559481554413
  0
ARC
  5
365
  8
0
  6
CONTINUOUS
 62
     4
 10
113.5438103197658
 20
23.21112768120705
 30
0.0
 40
69.0
 50
290.3544051844559
 51
305.4752794596106
  0
ARC
  5
366
  8
0
  6
CONTINUOUS
 62
     4
 10
113.5438103197658
 20
23.21112768120705
 30
0.0
 40
75.0
 50
288.6629224968806
 51
308.568436493183
  0
ARC
  5
367
  8
0
  6
CONTINUOUS
 62
     4
 10
113.5438103197658
 20
23.21112768120705
 30
0.0
 40
105.0
 50
283.212977954344
 51
76.78702204565602
  0
ARC
  5
368
  8
0
  6
CONTINUOUS
 62
     4
 10
113.5438103197658
 20
23.21112768120705
 30
0.0
 40
99.0
 50
284.0296636734024
 51
75.87499371597337
  0
ARC
  5
369
  8
0
  6
CONTINUOUS
 62
     4
 10
113.5438103197658
 20
23.21112768120705
 30
0.0
 40
93.0
 50
284.9552499285875
 51
75.04475007141248
  0
ARC
  5
36A
  8
0
  6
CONTINUOUS
 62
     4
 10
113.5438103197658
 20
23.21112768120705
 30
0.0
 40
87.0
 50
286.0133964951842
 51
73.98660350481576
  0
ARC
  5
36B
  8
0
  6
CONTINUOUS
 62
     4
 10
113.5438103197658
 20
23.21112768120705
 30
0.0
 40
81.0
 50
287.2352831867537
 51
72.76471681324634
  0
LINE
  5
36C
  8
0
  6
DASHED2
 62
     7
 10
-117.0808637539097
 20
-33.63884830898854
 30
0.0
 11
-96.08086375390974
 21
-33.63884830898854
 31
0.0
  0
LINE
  5
36D
  8
0
  6
DASHED2
 62
     7
 10
-117.0808637539097
 20
-39.93885136074636
 30
0.0
 11
-96.08086375390974
 21
-39.93885136074636
 31
0.0
  0
LINE
  5
36E
  8
0
  6
DASHED2
 62
     7
 10
-112.0808637539097
 20
-32.78884983486745
 30
0.0
 11
-96.08086375390974
 21
-32.78884983486745
 31
0.0
  0
LINE
  5
36F
  8
0
  6
DASHED2
 62
     7
 10
-112.0808637539097
 20
-40.78884983486745
 30
0.0
 11
-96.08086375390974
 21
-40.78884983486745
 31
0.0
  0
LINE
  5
370
  8
0
  6
DASHED2
 62
     7
 10
-112.0808637539097
 20
-32.78884983486745
 30
0.0
 11
-112.0808637539097
 21
-40.78884983486745
 31
0.0
  0
LINE
  5
371
  8
0
  6
DASHED2
 62
     7
 10
-117.0808637539097
 20
-33.63884830898854
 30
0.0
 11
-117.0808637539097
 21
-39.93885136074636
 31
0.0
  0
LINE
  5
372
  8
0
  6
DASHED2
 62
     7
 10
-118.8995524782239
 20
-36.78884161068385
 30
0.0
 11
-117.0808953400364
 21
-33.63883547784229
 31
0.0
  0
LINE
  5
373
  8
0
  6
DASHED2
 62
     7
 10
-118.8995396829434
 20
-36.78885838628577
 30
0.0
 11
-117.0808825447559
 21
-39.93886451912732
 31
0.0
  0
LINE
  5
374
  8
0
  6
DASHED2
 62
     7
 10
-156.580858729369
 20
-81.78884840779065
 30
0.0
 11
-151.5808624189525
 21
-78.90209914021253
 31
0.0
  0
LINE
  5
375
  8
0
  6
DASHED2
 62
     7
 10
-156.5808637539097
 20
-81.78884983486745
 30
0.0
 11
-146.5808637539097
 21
-81.78884983486745
 31
0.0
  0
LINE
  5
376
  8
0
  6
DASHED2
 62
     7
 10
-146.5808708798598
 20
-81.78885521244587
 30
0.0
 11
-151.5808737975257
 21
-78.90210213017048
 31
0.0
  0
LINE
  5
377
  8
0
  6
DASHED2
 62
     7
 10
-157.5808637539097
 20
-88.78884983486745
 30
0.0
 11
-145.5808637539097
 21
-88.78884983486745
 31
0.0
  0
LINE
  5
378
  8
0
  6
DASHED2
 62
     7
 10
-145.5808637539097
 20
-88.78884983486745
 30
0.0
 11
-145.5808637539097
 21
-116.6602182430706
 31
0.0
  0
LINE
  5
379
  8
0
  6
DASHED2
 62
     7
 10
-157.5808637539097
 20
-88.78884983486745
 30
0.0
 11
-157.5808637539097
 21
-116.6602182430706
 31
0.0
  0
LINE
  5
37A
  8
0
  6
DASHED2
 62
     7
 10
-146.5808637539097
 20
-81.78884983486745
 30
0.0
 11
-146.5808637539097
 21
-116.6602182430706
 31
0.0
  0
LINE
  5
37B
  8
0
  6
DASHED2
 62
     7
 10
-156.5808637539097
 20
-81.78884983486745
 30
0.0
 11
-156.5808637539097
 21
-116.6602182430706
 31
0.0
  0
LINE
  5
37C
  8
0
  6
DASHED2
 62
     7
 10
8.543834230768084
 20
28.21112265666445
 30
0.0
 11
11.43058349834621
 21
23.21112634624798
 31
0.0
  0
LINE
  5
37D
  8
0
  6
DASHED2
 62
     7
 10
8.543832803691288
 20
28.21112768120522
 30
0.0
 11
8.543832803691288
 21
18.21112768120522
 31
0.0
  0
LINE
  5
37E
  8
0
  6
DASHED2
 62
     7
 10
8.54382742611287
 20
18.21113480715532
 30
0.0
 11
11.43058050838826
 21
23.21113772482115
 31
0.0
  0
LINE
  5
37F
  8
0
  6
DASHED2
 62
     7
 10
1.543832803691288
 20
29.21112768120521
 30
0.0
 11
1.543832803691288
 21
17.21112768120522
 31
0.0
  0
LINE
  5
380
  8
0
  6
DASHED2
 62
     7
 10
1.543832803691288
 20
17.21112768120522
 30
0.0
 11
-26.32753560451184
 21
17.21112768120521
 31
0.0
  0
LINE
  5
381
  8
0
  6
DASHED2
 62
     7
 10
1.543832803691288
 20
29.21112768120521
 30
0.0
 11
-26.32753560451184
 21
29.21112768120521
 31
0.0
  0
LINE
  5
382
  8
0
  6
DASHED2
 62
     7
 10
8.543832803691288
 20
18.21112768120522
 30
0.0
 11
-26.32753560451184
 21
18.21112768120521
 31
0.0
  0
LINE
  5
383
  8
0
  6
DASHED2
 62
     7
 10
8.543832803691288
 20
28.21112768120522
 30
0.0
 11
-26.32753560451184
 21
28.21112768120521
 31
0.0
  0
LINE
  5
384
  8
0
  6
DIVIDE
 62
     9
 10
-229.0808484951207
 20
-48.61385441250417
 30
0.0
 11
-186.4840266491055
 21
-48.61385441250417
 31
0.0
  0
LINE
  5
385
  8
0
  6
DIVIDE
 62
     9
 10
-229.0808484951207
 20
-38.31385136074636
 30
0.0
 11
-185.693354788405
 21
-38.31385136074636
 31
0.0
  0
LINE
  5
386
  8
0
  6
DIVIDE
 62
     9
 10
-229.0808484951207
 20
-49.46385288662526
 30
0.0
 11
-185.0479262629034
 21
-49.46385288662526
 31
0.0
  0
LINE
  5
387
  8
0
  6
DIVIDE
 62
     9
 10
-229.0808484951207
 20
-37.46385288662526
 30
0.0
 11
-187.0788992702079
 21
-37.46385288662526
 31
0.0
  0
LINE
  5
388
  8
0
  6
DIVIDE
 62
     9
 10
-229.0808484951207
 20
-37.46385288662526
 30
0.0
 11
-229.0808484951207
 21
-49.46385288662526
 31
0.0
  0
LINE
  5
389
  8
0
  6
DIVIDE
 62
     9
 10
-209.2808607021519
 20
73.21115016513255
 30
0.0
 11
-209.2808607021519
 21
30.86476230197337
 31
0.0
  0
LINE
  5
38A
  8
0
  6
DIVIDE
 62
     9
 10
-111.2808454433629
 20
73.21115016513255
 30
0.0
 11
-111.2808454433629
 21
30.86476230197337
 31
0.0
  0
LINE
  5
38B
  8
0
  6
DIVIDE
 62
     9
 10
-208.2808576852125
 20
74.21114134442183
 30
0.0
 11
-209.280858746802
 21
73.21114028283233
 31
0.0
  0
LINE
  5
38C
  8
0
  6
DIVIDE
 62
     9
 10
-112.2808272536743
 20
74.21115618011225
 30
0.0
 11
-111.2808261920848
 21
73.21115511852275
 31
0.0
  0
LINE
  5
38D
  8
0
  6
DIVIDE
 62
     9
 10
-122.7431562343785
 20
74.21115016513255
 30
0.0
 11
-112.2808454433629
 21
74.21115016513255
 31
0.0
  0
LINE
  5
38E
  8
LAYER0014
  6
CONTINUOUS
 62
     7
 10
-206.5808484951207
 20
174.2626180606404
 30
0.0
 11
-232.6555576002672
 21
174.2626180606404
 31
0.0
  0
LINE
  5
38F
  8
LAYER0014
  6
CONTINUOUS
 62
     7
 10
-192.2808607021519
 20
75.75115016513256
 30
0.0
 11
-192.2808607021519
 21
176.5486135440388
 31
0.0
  0
LINE
  5
390
  8
LAYER0014
  6
CONTINUOUS
 62
     7
 10
-206.5808484951207
 20
153.2511501651325
 30
0.0
 11
-206.5808484951207
 21
176.5486135440388
 31
0.0
  0
LINE
  5
391
  8
LAYER0014
  6
CONTINUOUS
 62
     7
 10
-192.2808607021519
 20
174.2626180606404
 30
0.0
 11
-206.5808484951207
 21
174.2626180606404
 31
0.0
  0
INSERT
  5
392
  8
LAYER0014
 62
     7
  2
_OPEN30
 10
-192.2808607021519
 20
174.2626180606404
 30
0.0
 41
2.499995396844351
 42
2.500007167085477
 50
360.0
  0
INSERT
  5
393
  8
LAYER0014
 62
     7
  2
_OPEN30
 10
-206.5808484951207
 20
174.2626180606404
 30
0.0
 41
2.499995396844351
 42
2.500007167085477
 50
180.0
  0
TEXT
  5
394
  8
LAYER0014
 62
     7
 10
-231.2434034267613
 20
175.8626180606404
 30
0.0
 40
4.0
  1
MAX32.3
 41
0.9116279069767432
  7
DCSTYLE1
 72
     5
 11
-208.8434034267613
 21
175.8626180606404
 31
0.0
  0
LINE
  5
395
  8
LAYER0014
  6
CONTINUOUS
 62
     7
 10
-129.2808454433629
 20
6.369902606538798
 30
0.0
 11
-123.2352064052769
 21
6.369902606538798
 31
0.0
  0
LINE
  5
396
  8
LAYER0014
  6
CONTINUOUS
 62
     7
 10
-96.08086375390974
 20
174.2626180606404
 30
0.0
 11
-89.7089536586949
 21
174.2626180606404
 31
0.0
  0
LINE
  5
397
  8
LAYER0014
  6
CONTINUOUS
 62
     7
 10
-96.08086375390974
 20
-3.368752483793234
 30
0.0
 11
-82.85922984277693
 21
-3.368752483793234
 31
0.0
  0
INSERT
  5
398
  8
LAYER0014
  6
CONTINUOUS
  2
DC_IMAGEDIMGROUP_1
 10
0.0
 20
0.0
 30
0.0
  0
INSERT
  5
399
  8
LAYER0014
  6
CONTINUOUS
  2
DC_IMAGEDIMGROUP_2
 10
0.0
 20
0.0
 30
0.0
  0
INSERT
  5
39A
  8
LAYER0014
  6
CONTINUOUS
  2
DC_IMAGEDIMGROUP_3
 10
0.0
 20
0.0
 30
0.0
  0
INSERT
  5
39B
  8
LAYER0014
  6
CONTINUOUS
  2
DC_IMAGEDIMGROUP_4
 10
0.0
 20
0.0
 30
0.0
  0
INSERT
  5
39C
  8
LAYER0014
  6
CONTINUOUS
  2
DC_IMAGEDIMGROUP_5
 10
0.0
 20
0.0
 30
0.0
  0
INSERT
  5
39D
  8
LAYER0014
  6
CONTINUOUS
  2
DC_IMAGEDIMGROUP_6
 10
0.0
 20
0.0
 30
0.0
  0
INSERT
  5
39E
  8
LAYER0014
  6
CONTINUOUS
  2
DC_IMAGEDIMGROUP_7
 10
0.0
 20
0.0
 30
0.0
  0
INSERT
  5
39F
  8
LAYER0014
  6
CONTINUOUS
  2
DC_GROUP_1
 10
0.0
 20
0.0
 30
0.0
  0
INSERT
  5
3A0
  8
LAYER0014
  6
CONTINUOUS
  2
DC_IMAGEDIMGROUP_8
 10
0.0
 20
0.0
 30
0.0
  0
INSERT
  5
3A1
  8
LAYER0014
  6
CONTINUOUS
  2
DC_IMAGEDIMGROUP_9
 10
0.0
 20
0.0
 30
0.0
  0
INSERT
  5
3A2
  8
LAYER0014
  6
CONTINUOUS
  2
DC_IMAGEDIMGROUP_10
 10
0.0
 20
0.0
 30
0.0
  0
INSERT
  5
3A3
  8
LAYER0014
  6
CONTINUOUS
  2
DC_IMAGEDIMGROUP_11
 10
0.0
 20
0.0
 30
0.0
  0
INSERT
  5
3A4
  8
LAYER0014
  6
CONTINUOUS
  2
DC_IMAGEDIMGROUP_12
 10
0.0
 20
0.0
 30
0.0
  0
INSERT
  5
3A5
  8
LAYER0014
  6
CONTINUOUS
  2
DC_IMAGEDIMGROUP_13
 10
0.0
 20
0.0
 30
0.0
  0
INSERT
  5
3A6
  8
LAYER0014
  6
CONTINUOUS
  2
DC_IMAGEDIMGROUP_14
 10
0.0
 20
0.0
 30
0.0
  0
INSERT
  5
3A7
  8
LAYER0014
  6
CONTINUOUS
  2
DC_IMAGEDIMGROUP_15
 10
0.0
 20
0.0
 30
0.0
  0
INSERT
  5
3A8
  8
LAYER0014
  6
CONTINUOUS
  2
DC_GROUP_2
 10
0.0
 20
0.0
 30
0.0
  0
INSERT
  5
3A9
  8
LAYER0014
  6
CONTINUOUS
  2
DC_IMAGEDIMGROUP_16
 10
0.0
 20
0.0
 30
0.0
  0
INSERT
  5
3AA
  8
LAYER0014
  6
CONTINUOUS
  2
DC_IMAGEDIMGROUP_17
 10
0.0
 20
0.0
 30
0.0
  0
INSERT
  5
3AB
  8
LAYER0014
  6
CONTINUOUS
  2
DC_IMAGEDIMGROUP_18
 10
0.0
 20
0.0
 30
0.0
  0
INSERT
  5
3AC
  8
LAYER0014
  6
CONTINUOUS
  2
DC_IMAGEDIMGROUP_19
 10
0.0
 20
0.0
 30
0.0
  0
INSERT
  5
3AD
  8
LAYER0014
  6
CONTINUOUS
  2
DC_IMAGEDIMGROUP_20
 10
0.0
 20
0.0
 30
0.0
  0
INSERT
  5
3AE
  8
LAYER0014
  6
CONTINUOUS
  2
DC_IMAGEDIMGROUP_21
 10
0.0
 20
0.0
 30
0.0
  0
INSERT
  5
3AF
  8
LAYER0014
  6
CONTINUOUS
  2
DC_IMAGEDIMGROUP_25
 10
0.0
 20
0.0
 30
0.0
  0
INSERT
  5
3B0
  8
LAYER0014
  6
CONTINUOUS
  2
DC_IMAGEDIMGROUP_26
 10
0.0
 20
0.0
 30
0.0
  0
INSERT
  5
3B1
  8
LAYER0014
  6
CONTINUOUS
  2
DC_GROUP_6
 10
0.0
 20
0.0
 30
0.0
  0
INSERT
  5
3B2
  8
LAYER0014
  6
CONTINUOUS
  2
DC_IMAGEDIMGROUP_27
 10
0.0
 20
0.0
 30
0.0
  0
INSERT
  5
3B3
  8
LAYER0014
  6
CONTINUOUS
  2
DC_GROUP_7
 10
0.0
 20
0.0
 30
0.0
  0
INSERT
  5
3B4
  8
LAYER0014
  6
CONTINUOUS
  2
DC_IMAGEDIMGROUP_28
 10
0.0
 20
0.0
 30
0.0
  0
INSERT
  5
3B5
  8
0
  6
CONTINUOUS
  2
DC_IMAGEDIMGROUP_22
 10
0.0
 20
0.0
 30
0.0
  0
INSERT
  5
3B6
  8
0
  6
CONTINUOUS
  2
DC_IMAGEDIMGROUP_23
 10
0.0
 20
0.0
 30
0.0
  0
INSERT
  5
3B7
  8
0
  6
CONTINUOUS
  2
DC_GROUP_3
 10
0.0
 20
0.0
 30
0.0
  0
INSERT
  5
3B8
  8
0
  6
CONTINUOUS
  2
DC_IMAGEDIMGROUP_24
 10
0.0
 20
0.0
 30
0.0
  0
INSERT
  5
3B9
  8
0
  6
CONTINUOUS
  2
DC_GROUP_4
 10
0.0
 20
0.0
 30
0.0
  0
INSERT
  5
3BA
  8
0
  6
CONTINUOUS
  2
DC_GROUP_5
 10
0.0
 20
0.0
 30
0.0
  0
INSERT
  5
3BB
  8
0
  6
CONTINUOUS
  2
DC_IMAGEDIMGROUP_29
 10
0.0
 20
0.0
 30
0.0
  0
INSERT
  5
3BC
  8
0
  6
CONTINUOUS
  2
DC_IMAGEDIMGROUP_30
 10
0.0
 20
0.0
 30
0.0
  0
INSERT
  5
3BD
  8
0
  6
CONTINUOUS
  2
DC_GROUP_8
 10
0.0
 20
0.0
 30
0.0
  0
CIRCLE
  5
3BE
  8
0
  6
CONTINUOUS
 62
     3
 10
113.5437590815962
 20
62.71112768120704
 30
0.0
 40
3.0
  0
CIRCLE
  5
3BF
  8
0
  6
CONTINUOUS
 62
     3
 10
113.5437590815962
 20
62.71112768120704
 30
0.0
 40
3.0
  0
CIRCLE
  5
3C0
  8
0
  6
CONTINUOUS
 62
     3
 10
113.5438103197658
 20
23.21112768120705
 30
0.0
 40
35.0
  0
CIRCLE
  5
3C1
  8
0
  6
CONTINUOUS
 62
     3
 10
147.7518393883358
 20
3.461172054763487
 30
0.0
 40
3.0
  0
CIRCLE
  5
3C2
  8
0
  6
CONTINUOUS
 62
     3
 10
147.7518393883358
 20
3.461172054763487
 30
0.0
 40
3.0
  0
CIRCLE
  5
3C3
  8
0
  6
CONTINUOUS
 62
     3
 10
79.3358324893652
 20
3.46108330765059
 30
0.0
 40
2.999999999999999
  0
CIRCLE
  5
3C4
  8
0
  6
CONTINUOUS
 62
     3
 10
79.3358324893652
 20
3.46108330765059
 30
0.0
 40
2.999999999999999
  0
TEXT
  5
3C5
  8
0
 62
     6
 10
-75.3925288367696
 20
-177.0658761166677
 30
0.0
 40
4.0
  1
アンバランス量
 41
1.146341517204192
  7
DCSTYLE1
 72
     5
 11
-48.53538471941425
 21
-177.0658761166677
 31
0.0
  0
TEXT
  5
3C6
  8
0
 62
     6
 10
-75.3925288367696
 20
-169.0658761166677
 30
0.0
 40
4.0
  1
質 量
 41
1.055555678076214
  7
DCSTYLE1
 72
     5
 11
-64.53538471941425
 21
-169.0658761166677
 31
0.0
  0
TEXT
  5
3C7
  8
0
 62
     6
 10
-75.3925288367696
 20
-161.0658761166677
 30
0.0
 40
4.0
  1
慣性モーメント
 41
1.146341517204192
  7
DCSTYLE1
 72
     5
 11
-48.53538471941425
 21
-161.0658761166677
 31
0.0
  0
TEXT
  5
3C8
  8
0
 62
     6
 10
-75.3925288367696
 20
-153.0658761166677
 30
0.0
 40
4.0
  1
最高使用回転速度
 41
1.148936217135571
  7
DCSTYLE1
 72
     5
 11
-44.53538471941425
 21
-153.0658761166677
 31
0.0
  0
TEXT
  5
3C9
  8
0
 62
     6
 10
-75.3925288367696
 20
-145.0658761166677
 30
0.0
 40
4.0
  1
最大静的把握力
 41
1.146341517204192
  7
DCSTYLE1
 72
     5
 11
-48.53538471941425
 21
-145.0658761166677
 31
0.0
  0
TEXT
  5
3CA
  8
0
 62
     6
 10
-75.3925288367696
 20
-137.0658761166677
 30
0.0
 40
4.0
  1
許容シリンダ力
 41
1.146341517204192
  7
DCSTYLE1
 72
     5
 11
-48.53538471941425
 21
-137.0658761166677
 31
0.0
  0
TEXT
  5
3CB
  8
0
 62
     6
 10
-75.3925288367696
 20
-129.0658913754568
 30
0.0
 40
4.0
  1
ピストンストローク
 41
1.150943437837205
  7
DCSTYLE1
 72
     5
 11
-40.53538471941425
 21
-129.0658913754568
 31
0.0
  0
TEXT
  5
3CC
  8
0
 62
     6
 10
-75.3925288367696
 20
-121.0658913754568
 30
0.0
 40
4.0
  1
爪ﾉｽﾄﾛｰｸ
 41
1.146341517204192
  7
DCSTYLE1
 72
     5
 11
-48.53538471941425
 21
-121.0658913754568
 31
0.0
  0
TEXT
  5
3CD
  8
0
 62
     6
 10
-75.3925288367696
 20
-113.0658913754568
 30
0.0
 40
4.0
  1
仕 様
 41
1.055555678076214
  7
DCSTYLE1
 72
     5
 11
-64.53538471941425
 21
-113.0658913754568
 31
0.0
  0
TEXT
  5
3CE
  8
0
 62
     6
 10
44.05548446889446
 20
-128.5702859067068
 30
0.0
 40
4.0
  1
35 mm
 41
0.8461539027018425
  7
DCSTYLE1
 72
     5
 11
62.91262858624981
 21
-128.5702859067068
 31
0.0
  0
TEXT
  5
3CF
  8
0
 62
     6
 10
36.08418625112103
 20
-136.7918435238943
 30
0.0
 40
4.0
  1
  22 kN
 41
1.021739178377649
  7
DCSTYLE1
 72
     5
 11
62.94133036847637
 21
-136.7918435238943
 31
0.0
  0
TEXT
  5
3D0
  8
0
 62
     6
 10
36.0734135460429
 20
-144.7370949887381
 30
0.0
 40
4.0
  1
25.1 kN
 41
1.119047671556473
  7
DCSTYLE1
 72
     5
 11
62.93055766339825
 21
-144.7370949887381
 31
0.0
  0
TEXT
  5
3D1
  8
0
 62
     6
 10
32.42944687123821
 20
-152.6823617123709
 30
0.0
 40
4.0
  1
2000 min
 41
1.051948094909841
  7
DCSTYLE1
 72
     5
 11
63.28659098859356
 21
-152.6823617123709
 31
0.0
  0
TEXT
  5
3D2
  8
0
 62
     6
 10
63.71372496600674
 20
-158.29314046136
 30
0.0
 40
2.0
  1
2
 41
0.8823533303597394
  7
DCSTYLE1
 72
     5
 11
65.14229702468441
 21
-158.29314046136
 31
0.0
  0
TEXT
  5
3D3
  8
0
 62
     6
 10
44.52469223256634
 20
-168.7384072445974
 30
0.0
 40
4.0
  1
44 kg
 41
1.064516200173286
  7
DCSTYLE1
 72
     5
 11
63.38183634992168
 21
-168.7384072445974
 31
0.0
  0
TEXT
  5
3D4
  8
0
 62
     6
 10
16.01602524037884
 20
-120.7905617856131
 30
0.0
 40
4.0
  1
(直径ﾆﾃ) 50 mm
 41
1.033613473176956
  7
DCSTYLE1
 72
     5
 11
62.87316935773418
 21
-120.7905617856131
 31
0.0
  0
TEXT
  5
3D5
  8
0
 62
     6
 10
23.9994389366679
 20
-160.7931405209646
 30
0.0
 40
4.0
  1
 0.58 kg・m
 41
1.062500034458935
  7
DCSTYLE1
 72
     5
 11
62.85658305402325
 21
-160.7931405209646
 31
0.0
  0
TEXT
  5
3D6
  8
0
 62
     6
 10
15.78523605580853
 20
-176.8491860531912
 30
0.0
 40
4.0
  1
外周ﾆﾃ   9 g以内
 41
1.078947397439103
  7
DCSTYLE1
 72
     5
 11
62.64238017316387
 21
-176.8491860531912
 31
0.0
  0
TEXT
  5
3D7
  8
0
 62
     6
 10
64.14373290057705
 20
-150.1823616527662
 30
0.0
 40
2.0
  1
-1
 41
0.9729731517869074
  7
DCSTYLE1
 72
     5
 11
67.57230495925472
 21
-150.1823616527662
 31
0.0
  0
LINE
  5
3D8
  8
0
  6
CONTINUOUS
 62
     6
 10
-77.96395677809193
 20
-178.7325326108084
 30
0.0
 11
66.84797864671276
 21
-178.7325326108084
 31
0.0
  0
LINE
  5
3D9
  8
0
  6
CONTINUOUS
 62
     6
 10
-77.96395677809193
 20
-170.7325326108084
 30
0.0
 11
66.84797864671276
 21
-170.7325326108084
 31
0.0
  0
LINE
  5
3DA
  8
0
  6
CONTINUOUS
 62
     6
 10
-77.96395677809193
 20
-162.7325326108084
 30
0.0
 11
66.84797864671276
 21
-162.7325326108084
 31
0.0
  0
LINE
  5
3DB
  8
0
  6
CONTINUOUS
 62
     6
 10
-77.96395677809193
 20
-154.7325326108084
 30
0.0
 11
66.84797864671276
 21
-154.7325326108084
 31
0.0
  0
LINE
  5
3DC
  8
0
  6
CONTINUOUS
 62
     6
 10
-77.96395677809193
 20
-146.7325326108084
 30
0.0
 11
66.84797864671276
 21
-146.7325326108084
 31
0.0
  0
LINE
  5
3DD
  8
0
  6
CONTINUOUS
 62
     6
 10
-77.96395677809193
 20
-138.7325326108084
 30
0.0
 11
66.84797864671276
 21
-138.7325326108084
 31
0.0
  0
LINE
  5
3DE
  8
0
  6
CONTINUOUS
 62
     6
 10
-77.96395677809193
 20
-130.7325478695974
 30
0.0
 11
66.84797864671276
 21
-130.7325478695974
 31
0.0
  0
LINE
  5
3DF
  8
0
  6
CONTINUOUS
 62
     6
 10
-77.96395677809193
 20
-122.7325478695974
 30
0.0
 11
66.84797864671276
 21
-122.7325478695974
 31
0.0
  0
LINE
  5
3E0
  8
0
  6
CONTINUOUS
 62
     6
 10
-77.96395677809193
 20
-114.7325478695974
 30
0.0
 11
-61.96395677809193
 21
-114.7325478695974
 31
0.0
  0
LINE
  5
3E1
  8
0
  6
DASHED
 62
     2
 10
38.54381031976578
 20
133.211127681207
 30
0.0
 11
56.96779103265641
 21
133.211127681207
 31
0.0
  0
LINE
  5
3E2
  8
0
  6
DASHED
 62
     2
 10
38.54381031976578
 20
113.211127681207
 30
0.0
 11
56.96779103265641
 21
113.211127681207
 31
0.0
  0
LINE
  5
3E3
  8
0
  6
DASHED
 62
     2
 10
38.54381031976578
 20
141.4270395464414
 30
0.0
 11
38.54381031976578
 21
111.211127681207
 31
0.0
  0
LINE
  5
3E4
  8
0
  6
DASHED
 62
     2
 10
4.658556413515782
 20
111.211127681207
 30
0.0
 11
38.54381031976578
 21
111.211127681207
 31
0.0
  0
LINE
  5
3E5
  8
0
  6
DASHED
 62
     2
 10
26.54381031976578
 20
125.611129207086
 30
0.0
 11
26.54381031976578
 21
120.8111261553281
 31
0.0
  0
LINE
  5
3E6
  8
0
  6
DASHED
 62
     2
 10
29.24382252679703
 20
126.5111307329649
 30
0.0
 11
29.24382252679703
 21
119.9111246294492
 31
0.0
  0
LINE
  5
3E7
  8
0
  6
DASHED
 62
     2
 10
34.98256154046891
 20
117.5111307329649
 30
0.0
 11
38.10505909906266
 21
117.5111307329649
 31
0.0
  0
LINE
  5
3E8
  8
0
  6
DASHED
 62
     2
 10
34.98256154046891
 20
128.9111322588438
 30
0.0
 11
38.10505909906266
 21
128.9111322588438
 31
0.0
  0
LINE
  5
3E9
  8
0
  6
DASHED
 62
     2
 10
29.24378102965289
 20
119.9110767698603
 30
0.0
 11
26.54379147040214
 21
120.8110731765192
 31
0.0
  0
LINE
  5
3EA
  8
0
  6
DASHED
 62
     2
 10
29.24382641718336
 20
126.5110777517362
 30
0.0
 11
26.5438368579326
 21
125.6110813450773
 31
0.0
  0
LINE
  5
3EB
  8
0
  6
DASHED
 62
     2
 10
30.24382252679703
 20
125.9564584917539
 30
0.0
 11
30.24382252679703
 21
120.4156488604063
 31
0.0
  0
LINE
  5
3EC
  8
0
  6
DASHED
 62
     2
 10
34.54381031976578
 20
127.6611246294492
 30
0.0
 11
34.54381031976578
 21
118.7611307329649
 31
0.0
  0
LINE
  5
3ED
  8
0
  6
DASHED
 62
     2
 10
35.28770680414078
 20
126.1047891802305
 30
0.0
 11
37.79991383539078
 21
126.1047891802305
 31
0.0
  0
LINE
  5
3EE
  8
0
  6
DASHED
 62
     2
 10
35.28770680414078
 20
120.3174661821836
 30
0.0
 11
37.79991383539078
 21
120.3174661821836
 31
0.0
  0
LINE
  5
3EF
  8
0
  6
DASHED
 62
     2
 10
38.54379397705667
 20
127.361151752293
 30
0.0
 11
45.01750887344529
 21
127.2481526444909
 31
0.0
  0
LINE
  5
3F0
  8
0
  6
DASHED
 62
     2
 10
38.54385973425191
 20
119.0611461585241
 30
0.0
 11
44.80511309482348
 21
119.170436736622
 31
0.0
  0
LINE
  5
3F1
  8
0
  6
DASHED
 62
     2
 10
38.52983173288105
 20
126.5612552764286
 30
0.0
 11
45.00354662926968
 21
126.4482561686265
 31
0.0
  0
LINE
  5
3F2
  8
0
  6
DASHED
 62
     2
 10
38.52986711029698
 20
119.8610344735507
 30
0.0
 11
44.79112047086855
 21
119.9703250516486
 31
0.0
  0
ARC
  5
3F3
  8
0
  6
DASHED
 62
     2
 10
29.24382252679703
 20
123.211127681207
 30
0.0
 40
3.299999952316284
 50
73.48282241201396
 51
89.99998201391067
  0
ARC
  5
3F4
  8
0
  6
DASHED
 62
     2
 10
29.24382252679703
 20
123.211127681207
 30
0.0
 40
3.299999952316284
 50
270.0000179860893
 51
286.5171775879861
  0
ARC
  5
3F5
  8
0
  6
DASHED
 62
     2
 10
36.54381031976578
 20
127.6611246294492
 30
0.0
 40
2.0
 50
0.0
 51
38.68218896809859
  0
ARC
  5
3F6
  8
0
  6
DASHED
 62
     2
 10
36.54381031976578
 20
118.7611307329649
 30
0.0
 40
2.0
 50
0.0
 51
51.09316519948327
  0
ARC
  5
3F7
  8
0
  6
DASHED
 62
     2
 10
32.54381031976578
 20
123.211127681207
 30
0.0
 40
6.0
 50
0.0
 51
28.83423780766662
  0
ARC
  5
3F8
  8
0
  6
DASHED
 62
     2
 10
40.54381031976578
 20
123.211127681207
 30
0.0
 40
6.0
 50
151.1657740314789
 51
208.8342086656771
  0
ARC
  5
3F9
  8
0
  6
DASHED
 62
     2
 10
32.54381031976578
 20
123.211127681207
 30
0.0
 40
6.0
 50
331.1657621923334
 51
0.0
  0
ARC
  5
3FA
  8
0
  6
DASHED
 62
     2
 10
36.54381031976578
 20
127.6611246294492
 30
0.0
 40
2.0
 50
308.9068348005167
 51
0.0
  0
ARC
  5
3FB
  8
0
  6
DASHED
 62
     2
 10
36.54381031976578
 20
127.6611246294492
 30
0.0
 40
2.0
 50
141.3178297012361
 51
231.0931121518317
  0
ARC
  5
3FC
  8
0
  6
DASHED
 62
     2
 10
36.54381031976578
 20
118.7611307329649
 30
0.0
 40
2.0
 50
128.906856884946
 51
218.6821529959199
  0
ARC
  5
3FD
  8
0
  6
DASHED
 62
     2
 10
36.54381031976578
 20
118.7611307329649
 30
0.0
 40
2.0
 50
321.3178110319014
 51
0.0
  0
ARC
  5
3FE
  8
0
  6
DASHED
 62
     2
 10
30.57701344476578
 20
132.0111459917539
 30
0.0
 40
5.650000095367432
 50
265.9910930942638
 51
315.0592540539054
  0
ARC
  5
3FF
  8
0
  6
DASHED
 62
     2
 10
30.57701344476578
 20
114.4111246294492
 30
0.0
 40
5.650000095367432
 50
44.94074594609464
 51
94.00890690573628
  0
ARC
  5
400
  8
0
  6
DASHED
 62
     2
 10
27.24382252679703
 20
123.211127681207
 30
0.0
 40
1.5
 50
117.818154050457
 51
242.1818423070773
  0
LINE
  5
401
  8
0
  6
CONTINUOUS
 62
     2
 10
108.4775931499065
 20
106.1361440277674
 30
0.0
 11
113.5438236660887
 21
109.0611265904504
 31
0.0
  0
LINE
  5
402
  8
0
  6
CONTINUOUS
 62
     2
 10
113.5438056852527
 20
109.0612004888331
 30
0.0
 11
118.6100553080105
 21
106.136190114637
 31
0.0
  0
LINE
  5
403
  8
0
  6
CONTINUOUS
 62
     2
 10
118.6100639818752
 20
106.1361231035703
 30
0.0
 11
118.6100639818752
 21
100.2861246294492
 31
0.0
  0
LINE
  5
404
  8
0
  6
CONTINUOUS
 62
     2
 10
118.6100275349276
 20
100.2861220840792
 30
0.0
 11
113.5437705897315
 21
97.36112426263438
 31
0.0
  0
LINE
  5
405
  8
0
  6
CONTINUOUS
 62
     2
 10
113.5437624142242
 20
97.36112716193796
 30
0.0
 11
108.4775110480287
 21
100.2861343979462
 31
0.0
  0
LINE
  5
406
  8
0
  6
CONTINUOUS
 62
     2
 10
108.4775566576564
 20
100.2861322588438
 30
0.0
 11
108.4775566576564
 21
106.1361307329649
 31
0.0
  0
LINE
  5
407
  8
0
  6
CONTINUOUS
 62
     2
 10
108.4775664382692
 20
141.1361310936213
 30
0.0
 11
113.5438233834653
 21
144.0611289150661
 31
0.0
  0
LINE
  5
408
  8
0
  6
CONTINUOUS
 62
     2
 10
113.5438795612263
 20
144.0611792988653
 30
0.0
 11
118.6101291839842
 21
141.1361689246692
 31
0.0
  0
LINE
  5
409
  8
0
  6
CONTINUOUS
 62
     2
 10
118.6100639818752
 20
141.1361154741758
 30
0.0
 11
118.6100639818752
 21
135.2861398882383
 31
0.0
  0
LINE
  5
40A
  8
0
  6
CONTINUOUS
 62
     2
 10
118.6100660790619
 20
135.2861181938829
 30
0.0
 11
113.5438091338659
 21
132.3611203724381
 31
0.0
  0
LINE
  5
40B
  8
0
  6
CONTINUOUS
 62
     2
 10
113.5437619568066
 20
132.3611361352237
 30
0.0
 11
108.4775370195958
 21
135.286128112421
 31
0.0
  0
LINE
  5
40C
  8
0
  6
CONTINUOUS
 62
     2
 10
108.4775566576564
 20
135.2861398882383
 30
0.0
 11
108.4775566576564
 21
141.1361459917539
 31
0.0
  0
LINE
  5
40D
  8
0
  6
CONTINUOUS
 62
     2
 10
61.33122276701198
 20
-21.01021832619105
 30
0.0
 11
66.39747971220805
 21
-18.08522050474627
 31
0.0
  0
LINE
  5
40E
  8
0
  6
CONTINUOUS
 62
     2
 10
66.39749903194803
 20
-18.08520968840546
 30
0.0
 11
71.46374865470585
 21
-21.01022006260152
 31
0.0
  0
LINE
  5
40F
  8
0
  6
CONTINUOUS
 62
     2
 10
71.46370167718766
 20
-21.01022775702538
 30
0.0
 11
71.46370167718766
 21
-26.86022623114647
 31
0.0
  0
LINE
  5
410
  8
0
  6
CONTINUOUS
 62
     2
 10
71.46371096373338
 20
-26.86021140416912
 30
0.0
 11
66.3974540185373
 21
-29.7852092256139
 31
0.0
  0
LINE
  5
411
  8
0
  6
CONTINUOUS
 62
     2
 10
66.39747034437573
 20
-29.78523824411988
 30
0.0
 11
61.33124540716494
 21
-26.86024626692253
 31
0.0
  0
LINE
  5
412
  8
0
  6
CONTINUOUS
 62
     2
 10
61.33122487054703
 20
-26.86021860175194
 30
0.0
 11
61.33122487054703
 21
-21.01021822028221
 31
0.0
  0
LINE
  5
413
  8
0
  6
CONTINUOUS
 62
     2
 10
108.4775730726142
 20
-53.86386446356616
 30
0.0
 11
113.5438300178103
 21
-50.93886664212138
 31
0.0
  0
LINE
  5
414
  8
0
  6
CONTINUOUS
 62
     2
 10
113.5438565159878
 20
-50.93885798974742
 30
0.0
 11
118.6101061387456
 21
-53.86386836394348
 31
0.0
  0
LINE
  5
415
  8
0
  6
CONTINUOUS
 62
     2
 10
118.6100639818752
 20
-53.86388071112694
 30
0.0
 11
118.6100639818752
 21
-59.71387537055077
 31
0.0
  0
LINE
  5
416
  8
0
  6
CONTINUOUS
 62
     2
 10
118.6100822501331
 20
-59.71389388143822
 30
0.0
 11
113.543825304937
 21
-62.638891702883
 31
0.0
  0
LINE
  5
417
  8
0
  6
CONTINUOUS
 62
     2
 10
113.5437737898488
 20
-62.63886290029538
 30
0.0
 11
108.4775224236533
 21
-59.71385566428714
 31
0.0
  0
LINE
  5
418
  8
0
  6
CONTINUOUS
 62
     2
 10
108.4775566576564
 20
-59.71386774115624
 30
0.0
 11
108.4775566576564
 21
-53.86386926703514
 31
0.0
  0
LINE
  5
419
  8
0
  6
CONTINUOUS
 62
     2
 10
108.4775714478924
 20
-88.86386348455514
 30
0.0
 11
113.5438283930885
 21
-85.93886566311036
 31
0.0
  0
LINE
  5
41A
  8
0
  6
CONTINUOUS
 62
     2
 10
113.5438007243186
 20
-85.93886651195291
 30
0.0
 11
118.6100239181008
 21
-88.86386162732171
 31
0.0
  0
LINE
  5
41B
  8
0
  6
CONTINUOUS
 62
     2
 10
118.6100639818752
 20
-88.86387689642967
 30
0.0
 11
118.6100639818752
 21
-94.71387537055077
 31
0.0
  0
LINE
  5
41C
  8
0
  6
CONTINUOUS
 62
     2
 10
118.6100427523261
 20
-94.71388833942862
 30
0.0
 11
113.5437858071301
 21
-97.6388861608734
 31
0.0
  0
LINE
  5
41D
  8
0
  6
CONTINUOUS
 62
     2
 10
113.5437790156448
 20
-97.63886361452339
 30
0.0
 11
108.4775276494493
 21
-94.71385637851515
 31
0.0
  0
LINE
  5
41E
  8
0
  6
CONTINUOUS
 62
     2
 10
108.4775566576564
 20
-94.71386774115624
 30
0.0
 11
108.4775566576564
 21
-88.86386926703514
 31
0.0
  0
CIRCLE
  5
41F
  8
0
  6
CONTINUOUS
 62
     2
 10
113.5438103197658
 20
103.211127681207
 30
0.0
 40
9.0
  0
CIRCLE
  5
420
  8
0
  6
CONTINUOUS
 62
     2
 10
113.5438103197658
 20
138.211127681207
 30
0.0
 40
9.0
  0
CIRCLE
  5
421
  8
0
  6
CONTINUOUS
 62
     2
 10
66.39744801507828
 20
-23.93521936469139
 30
0.0
 40
9.0
  0
CIRCLE
  5
422
  8
0
  6
CONTINUOUS
 62
     2
 10
113.5438103197658
 20
-56.78887231879295
 30
0.0
 40
9.0
  0
CIRCLE
  5
423
  8
0
  6
CONTINUOUS
 62
     2
 10
113.5438103197658
 20
-91.78887231879295
 30
0.0
 40
9.0
  0
TEXT
  5
424
  8
0
 62
     5
 10
-6.956189680234216
 20
51.99683527417122
 30
0.0
 40
5.0
  1
NIKKO
 50
270.0
 41
1.08791221838731
  7
DCSTYLE1
 72
     5
 11
-6.956189680234216
 21
28.42540387577949
 31
0.0
  0
TEXT
  5
425
  8
0
 62
     5
 10
-6.456189680234216
 20
20.63970558113991
 30
0.0
 40
4.0
  1
 GO2-12
 50
270.0
 41
0.9591837780816215
  7
DCSTYLE1
 72
     5
 11
-6.456189680234216
 21
-6.217440205145493
 31
0.0
  0
TEXT
  5
426
  8
0
 62
     5
 10
-12.95618968023422
 20
20.28256241745888
 30
0.0
 40
3.0
  1
 0001
 50
270.0
 41
1.076086987619815
  7
DCSTYLE1
 72
     5
 11
-12.95618968023422
 21
6.13970486588417
 31
0.0
  0
TEXT
  5
427
  8
0
 62
     5
 10
231.9938408850276
 20
-3.868092375326768
 30
0.0
 40
2.900000095367432
  1
F MAX   22KN
 50
90.0
 41
1.054848850532507
  7
DCSTYLE1
 72
     5
 11
231.9938408850276
 21
31.52962235875069
 31
0.0
  0
TEXT
  5
428
  8
0
 62
     5
 10
236.9938256262386
 20
-3.868092375326768
 30
0.0
 40
2.900000095367432
  1
ΣS MAX  25KN
 50
90.0
 41
1.059207730080162
  7
DCSTYLE1
 72
     5
 11
236.9938256262386
 21
31.52962235875069
 31
0.0
  0
TEXT
  5
429
  8
0
 62
     5
 10
241.9938256262386
 20
-3.868090467978135
 30
0.0
 40
2.900000095367432
  1
N MAX 2000 AT ΣS MAX
 50
90.0
 41
1.078454297564628
  7
DCSTYLE1
 72
     5
 11
241.9938256262386
 21
55.70367268986641
 31
0.0
  0
VIEWPORT
  5
B3
 67
     1
  8
0
 10
0.0
 20
0.0
 30
0.0
 40
1662.0
 41
1140.0
 68
     1
 69
     1
1001
ACAD
1000
MVIEW
1002
{
1070
    16
1010
0.0
1020
0.0
1030
0.0
1010
0.0
1020
0.0
1030
1.0
1040
0.0
1040
1140.0
1040
0.0
1040
0.0
1040
50.0
1040
0.0
1040
0.0
1070
     0
1070
   100
1070
     0
1070
     3
1070
     0
1070
     0
1070
     0
1070
     0
1040
0.0
1040
0.0
1040
0.0
1040
0.5
1040
0.5
1040
0.0
1040
0.0
1070
     0
1002
{
1002
}
1002
}
  0
ENDSEC
  0
EOF
