  0
SECTION
  2
HEADER
  9
$ACADVER
  1
AC1009
  9
$DWGCODEPAGE
  3
ansi_932
  9
$INSBASE
 10
0.0
 20
0.0
 30
0.0
  9
$EXTMIN
 10
-1662.0
 20
-1140.0
 30
0.0
  9
$EXTMAX
 10
1662.0
 20
1140.0
 30
0.0
  9
$LIMMIN
 10
-594.0
 20
-420.0
  9
$LIMMAX
 10
594.0
 20
420.0
  9
$ORTHOMODE
 70
     0
  9
$REGENMODE
 70
     1
  9
$FILLMODE
 70
     1
  9
$QTEXTMODE
 70
     0
  9
$MIRRTEXT
 70
     1
  9
$DRAGMODE
 70
     2
  9
$LTSCALE
 40
2.0
  9
$OSMODE
 70
    37
  9
$ATTMODE
 70
     1
  9
$TEXTSIZE
 40
0.2
  9
$TRACEWID
 40
0.05
  9
$TEXTSTYLE
  7
STANDARD
  9
$CLAYER
  8
0
  9
$CELTYPE
  6
BYLAYER
  9
$CECOLOR
 62
   256
  9
$DIMSCALE
 40
1.0
  9
$DIMASZ
 40
5.0
  9
$DIMEXO
 40
0.0625
  9
$DIMDLI
 40
0.38
  9
$DIMRND
 40
0.0
  9
$DIMDLE
 40
0.0
  9
$DIMEXE
 40
0.18
  9
$DIMTP
 40
0.0
  9
$DIMTM
 40
0.0
  9
$DIMTXT
 40
0.18
  9
$DIMCEN
 40
0.09
  9
$DIMTSZ
 40
0.0
  9
$DIMTOL
 70
     0
  9
$DIMLIM
 70
     0
  9
$DIMTIH
 70
     1
  9
$DIMTOH
 70
     1
  9
$DIMSE1
 70
     0
  9
$DIMSE2
 70
     0
  9
$DIMTAD
 70
     3
  9
$DIMZIN
 70
     0
  9
$DIMBLK
  1

  9
$DIMASO
 70
     1
  9
$DIMSHO
 70
     1
  9
$DIMPOST
  1

  9
$DIMAPOST
  1

  9
$DIMALT
 70
     0
  9
$DIMALTD
 70
     2
  9
$DIMALTF
 40
25.4
  9
$DIMLFAC
 40
1.0
  9
$DIMTOFL
 70
     0
  9
$DIMTVP
 40
0.0
  9
$DIMTIX
 70
     0
  9
$DIMSOXD
 70
     0
  9
$DIMSAH
 70
     0
  9
$DIMBLK1
  1

  9
$DIMBLK2
  1

  9
$DIMSTYLE
  2
STANDARD
  9
$DIMCLRD
 70
     0
  9
$DIMCLRE
 70
     0
  9
$DIMCLRT
 70
     0
  9
$DIMTFAC
 40
1.0
  9
$DIMGAP
 40
0.09
  9
$LUNITS
 70
     2
  9
$LUPREC
 70
     4
  9
$SKETCHINC
 40
0.1
  9
$FILLETRAD
 40
0.5
  9
$AUNITS
 70
     0
  9
$AUPREC
 70
     0
  9
$MENU
  1
.
  9
$ELEVATION
 40
0.0
  9
$PELEVATION
 40
0.0
  9
$THICKNESS
 40
0.0
  9
$LIMCHECK
 70
     0
  9
$CHAMFERA
 40
0.5
  9
$CHAMFERB
 40
0.5
  9
$SKPOLY
 70
     0
  9
$TDCREATE
 40
2456329.440601852
  9
$TDUPDATE
 40
2456329.440601863
  9
$TDINDWG
 40
0.0000000116
  9
$TDUSRTIMER
 40
0.0000000116
  9
$USRTIMER
 70
     1
  9
$ANGBASE
 50
0.0
  9
$ANGDIR
 70
     0
  9
$PDMODE
 70
     0
  9
$PDSIZE
 40
1.0
  9
$PLINEWID
 40
0.0
  9
$COORDS
 70
     1
  9
$SPLFRAME
 70
     0
  9
$SPLINETYPE
 70
     6
  9
$SPLINESEGS
 70
     8
  9
$ATTDIA
 70
     0
  9
$ATTREQ
 70
     1
  9
$HANDLING
 70
     1
  9
$HANDSEED
  5
3B6
  9
$SURFTAB1
 70
     6
  9
$SURFTAB2
 70
     6
  9
$SURFTYPE
 70
     6
  9
$SURFU
 70
     6
  9
$SURFV
 70
     6
  9
$UCSNAME
  2

  9
$UCSORG
 10
0.0
 20
0.0
 30
0.0
  9
$UCSXDIR
 10
1.0
 20
0.0
 30
0.0
  9
$UCSYDIR
 10
0.0
 20
1.0
 30
0.0
  9
$PUCSNAME
  2

  9
$PUCSORG
 10
0.0
 20
0.0
 30
0.0
  9
$PUCSXDIR
 10
1.0
 20
0.0
 30
0.0
  9
$PUCSYDIR
 10
0.0
 20
1.0
 30
0.0
  9
$USERI1
 70
     0
  9
$USERI2
 70
     0
  9
$USERI3
 70
     0
  9
$USERI4
 70
     0
  9
$USERI5
 70
     0
  9
$USERR1
 40
0.0
  9
$USERR2
 40
0.0
  9
$USERR3
 40
0.0
  9
$USERR4
 40
0.0
  9
$USERR5
 40
0.0
  9
$WORLDVIEW
 70
     1
  9
$SHADEDGE
 70
     3
  9
$SHADEDIF
 70
    70
  9
$TILEMODE
 70
     1
  9
$MAXACTVP
 70
    64
  9
$PLIMCHECK
 70
     0
  9
$PEXTMIN
 10
1.000000000000000E+20
 20
1.000000000000000E+20
 30
1.000000000000000E+20
  9
$PEXTMAX
 10
-1.000000000000000E+20
 20
-1.000000000000000E+20
 30
-1.000000000000000E+20
  9
$PLIMMIN
 10
0.0
 20
0.0
  9
$PLIMMAX
 10
12.0
 20
9.0
  9
$UNITMODE
 70
     0
  9
$VISRETAIN
 70
     0
  9
$PLINEGEN
 70
     1
  9
$PSLTSCALE
 70
     0
  0
ENDSEC
  0
SECTION
  2
TABLES
  0
TABLE
  2
VPORT
 70
     1
  0
VPORT
  2
*ACTIVE
 70
     0
 10
0.0
 20
0.0
 11
1.0
 21
1.0
 12
0.0
 22
0.0
 13
0.0
 23
0.0
 14
0.5
 24
0.5
 15
0.5
 25
0.5
 16
0.0
 26
0.0
 36
1.0
 17
-0.0000000000000036
 27
0.0
 37
0.0
 40
775.1999999999999
 41
1.457894736842106
 42
50.0
 43
0.0
 44
0.0
 50
0.0
 51
0.0
 71
     0
 72
  1000
 73
     1
 74
     1
 75
     0
 76
     0
 77
     0
 78
     0
  0
ENDTAB
  0
TABLE
  2
LTYPE
 70
    28
  0
LTYPE
  2
CONTINUOUS
 70
     0
  3
Solid line
 72
    65
 73
     0
 40
0.0
  0
LTYPE
  2
HIDDENX2
 70
     0
  3
CADPAC LINETYPE
 72
    65
 73
     2
 40
9.893992932862261
 49
7.420494699646696
 49
-2.473498233215565
  0
LTYPE
  2
HIDDEN
 70
     0
  3
CADPAC LINETYPE
 72
    65
 73
     2
 40
7.420494699646696
 49
4.946996466431131
 49
-2.473498233215565
  0
LTYPE
  2
HIDDEN2
 70
     0
  3
CADPAC LINETYPE
 72
    65
 73
     2
 40
6.183745583038913
 49
3.710247349823348
 49
-2.473498233215565
  0
LTYPE
  2
DASHED
 70
     0
  3
CADPAC LINETYPE
 72
    65
 73
     2
 40
6.925795053003583
 49
4.946996466431131
 49
-1.978798586572452
  0
LTYPE
  2
DASHED2
 70
     0
  3
CADPAC LINETYPE
 72
    65
 73
     2
 40
4.452296819787989
 49
2.968197879858678
 49
-1.484098939929311
  0
LTYPE
  2
DASHEDX2
 70
     0
  3
CADPAC LINETYPE
 72
    65
 73
     2
 40
11.87279151943466
 49
9.893992932862204
 49
-1.978798586572452
  0
LTYPE
  2
DOTX2
 70
     0
  3
CADPAC LINETYPE
 72
    65
 73
     2
 40
4.328621908127204
 49
0.0
 49
-4.328621908127204
  0
LTYPE
  2
DOT
 70
     0
  3
CADPAC LINETYPE
 72
    65
 73
     2
 40
3.462897526501763
 49
0.0
 49
-3.462897526501763
  0
LTYPE
  2
DOT2
 70
     0
  3
CADPAC LINETYPE
 72
    65
 73
     2
 40
2.597173144876322
 49
0.0
 49
-2.597173144876322
  0
LTYPE
  2
CENTERX2
 70
     0
  3
CADPAC LINETYPE
 72
    65
 73
     4
 40
14.84098939929339
 49
6.183745583038913
 49
-3.091872791519457
 49
2.473498233215565
 49
-3.091872791519457
  0
LTYPE
  2
CENTER
 70
     0
  3
CADPAC LINETYPE
 72
    65
 73
     4
 40
11.3780918727916
 49
4.946996466431131
 49
-2.473498233215565
 49
1.484098939929339
 49
-2.473498233215565
  0
LTYPE
  2
CENTER2
 70
     0
  3
CADPAC LINETYPE
 72
    65
 73
     4
 40
7.915194346289809
 49
3.710247349823348
 49
-1.855123674911674
 49
0.4946996466431131
 49
-1.855123674911674
  0
LTYPE
  2
DASHDOTX2
 70
     0
  3
CADPAC LINETYPE
 72
    65
 73
     4
 40
23.7455830388692
 49
11.87279151943466
 49
-3.957597173144848
 49
3.957597173144848
 49
-3.957597173144848
  0
LTYPE
  2
DASHDOT
 70
     0
  3
CADPAC LINETYPE
 72
    65
 73
     4
 40
11.87279151943466
 49
5.9363957597173
 49
-1.978798586572452
 49
1.978798586572452
 49
-1.978798586572452
  0
LTYPE
  2
DASHDOT2
 70
     0
  3
CADPAC LINETYPE
 72
    65
 73
     4
 40
7.618374558303898
 49
4.452296819787975
 49
-1.484098939929339
 49
0.1978798586572452
 49
-1.484098939929339
  0
LTYPE
  2
DIVIDEX2
 70
     0
  3
CADPAC LINETYPE
 72
    65
 73
     6
 40
31.6607773851589
 49
11.87279151943466
 49
-3.957597173144848
 49
3.957597173144848
 49
-3.957597173144848
 49
3.957597173144848
 49
-3.957597173144848
  0
LTYPE
  2
DIVIDE
 70
     0
  3
CADPAC LINETYPE
 72
    65
 73
     6
 40
15.83038869257956
 49
5.9363957597173
 49
-1.978798586572452
 49
1.978798586572452
 49
-1.978798586572452
 49
1.978798586572452
 49
-1.978798586572452
  0
LTYPE
  2
DIVIDE2
 70
     0
  3
CADPAC LINETYPE
 72
    65
 73
     6
 40
11.87279151943467
 49
4.452296819787975
 49
-1.484098939929339
 49
1.484098939929339
 49
-1.484098939929339
 49
1.484098939929339
 49
-1.484098939929339
  0
LTYPE
  2
BORDERX2
 70
     0
  3
CADPAC LINETYPE
 72
    65
 73
     6
 40
21.6431095406362
 49
6.183745583038913
 49
-3.091872791519457
 49
6.183745583038913
 49
-3.091872791519457
 49
0.0
 49
-3.091872791519457
  0
LTYPE
  2
BORDER
 70
     0
  3
CADPAC LINETYPE
 72
    65
 73
     6
 40
17.31448763250896
 49
4.946996466431131
 49
-2.473498233215565
 49
4.946996466431131
 49
-2.473498233215565
 49
0.0
 49
-2.473498233215565
  0
LTYPE
  2
BORDER2
 70
     0
  3
CADPAC LINETYPE
 72
    65
 73
     6
 40
12.86219081272091
 49
3.957597173144848
 49
-2.473498233215594
 49
1.484098939929311
 49
-2.473498233215594
 49
0.0
 49
-2.473498233215565
  0
LTYPE
  2
PHANTOMX2
 70
     0
  3
CADPAC LINETYPE
 72
    65
 73
     6
 40
18.55123674911674
 49
6.183745583038913
 49
-2.473498233215565
 49
2.473498233215565
 49
-2.473498233215565
 49
2.473498233215565
 49
-2.473498233215565
  0
LTYPE
  2
PHANTOM
 70
     0
  3
CADPAC LINETYPE
 72
    65
 73
     6
 40
15.33568904593651
 49
4.946996466431131
 49
-2.473498233215565
 49
1.484098939929339
 49
-2.473498233215565
 49
1.484098939929339
 49
-2.473498233215565
  0
LTYPE
  2
PHANTOM2
 70
     0
  3
CADPAC LINETYPE
 72
    65
 73
     6
 40
13.1095406360425
 49
3.710247349823348
 49
-2.473498233215565
 49
0.9893992932862261
 49
-2.473498233215565
 49
0.9893992932862261
 49
-2.473498233215565
  0
LTYPE
  2
ACAD_ISO06W100
 70
     0
  3
CADPAC LINETYPE
 72
    65
 73
     8
 40
26.21908127208496
 49
11.87279151943466
 49
-2.473498233215594
 49
1.484098939929311
 49
-2.473498233215594
 49
1.484098939929311
 49
-2.473498233215594
 49
1.484098939929311
 49
-2.473498233215594
  0
LTYPE
  2
ACAD_ISO13W100
 70
     0
  3
CADPAC LINETYPE
 72
    65
 73
     8
 40
19.78798586572452
 49
4.946996466431131
 49
-2.473498233215565
 49
4.946996466431131
 49
-2.473498233215565
 49
0.0
 49
-2.473498233215565
 49
0.0
 49
-2.473498233215565
  0
LTYPE
  2
ACAD_ISO14W100
 70
     0
  3
CADPAC LINETYPE
 72
    65
 73
     8
 40
14.84098939929339
 49
4.946996466431131
 49
-2.473498233215565
 49
0.0
 49
-2.473498233215565
 49
0.0
 49
-2.473498233215565
 49
0.0
 49
-2.473498233215565
  0
ENDTAB
  0
TABLE
  2
LAYER
 70
     3
  0
LAYER
  2
0
 70
     0
 62
     7
  6
CONTINUOUS
  0
LAYER
  2
LAYER0014
 70
     0
 62
     7
  6
CONTINUOUS
  0
LAYER
  2
ZUWAKU
 70
     0
 62
     7
  6
CONTINUOUS
  0
ENDTAB
  0
TABLE
  2
STYLE
 70
     5
  0
STYLE
  2
STANDARD
 70
     0
 40
0.0
 41
1.0
 50
0.0
 71
     0
 42
0.2
  3
txt
  4

  0
STYLE
  2
FDASTYLE1
 70
     0
 40
0.0
 41
0.7692307692307695
 50
0.0
 71
     0
 42
0.2
  3
txt.shx
  4
bigfont
  0
STYLE
  2
FDASTYLE0
 70
     4
 40
0.0
 41
0.8
 50
0.0
 71
     0
 42
0.2
  3
txt.shx
  4
bigfont
  0
STYLE
  2
FDASTYLE2
 70
     0
 40
0.0
 41
0.8123476848090983
 50
0.0
 71
     0
 42
0.2
  3
MSMINCHO.TTC
  4

  0
STYLE
  2
FDASTYLE3
 70
     0
 40
0.0
 41
0.77
 50
0.0
 71
     0
 42
0.2
  3
MSGOTHIC.TTC
  4

  0
ENDTAB
  0
TABLE
  2
VIEW
 70
     0
  0
ENDTAB
  0
TABLE
  2
UCS
 70
     0
  0
ENDTAB
  0
TABLE
  2
APPID
 70
     2
  0
APPID
  2
ACAD
 70
     0
  0
APPID
  2
DAFUSIONOUT
 70
     0
  0
ENDTAB
  0
TABLE
  2
DIMSTYLE
 70
     1
  0
DIMSTYLE
  2
STANDARD
 70
     0
  3

  4

  5

  6

  7

 40
1.0
 41
0.18
 42
0.0625
 43
0.38
 44
0.18
 45
0.0
 46
0.0
 47
0.0
 48
0.0
140
0.18
141
0.09
142
0.0
143
25.4
144
1.0
145
0.0
146
1.0
147
0.09
 71
     0
 72
     0
 73
     1
 74
     1
 75
     0
 76
     0
 77
     0
 78
     0
170
     0
171
     2
172
     0
173
     0
174
     0
175
     0
176
     0
177
     0
178
     0
  0
ENDTAB
  0
ENDSEC
  0
SECTION
  2
BLOCKS
  0
BLOCK
  8
0
  2
$MODEL_SPACE
 70
     0
 10
0.0
 20
0.0
 30
0.0
  3
$MODEL_SPACE
  1

  0
ENDBLK
  5
21
  8
0
  0
BLOCK
 67
     1
  8
0
  2
$PAPER_SPACE
 70
     0
 10
0.0
 20
0.0
 30
0.0
  3
$PAPER_SPACE
  1

  0
ENDBLK
  5
1D
 67
     1
  8
0
  0
BLOCK
  8
0
  2
DA_IMAGEDIMGROUP_1
 70
     0
 10
0.0
 20
0.0
 30
0.0
  3
DA_IMAGEDIMGROUP_1
  1

  0
LINE
  5
A9
  8
LAYER0014
  6
CONTINUOUS
 62
     7
 10
-274.6522821365646
 20
143.75898989415
 30
0.0
 11
-339.681496003752
 21
143.75898989415
 31
0.0
  0
LINE
  5
AA
  8
LAYER0014
  6
CONTINUOUS
 62
     7
 10
-274.6522821365646
 20
53.25898607945275
 30
0.0
 11
-339.681496003752
 21
53.25898607945275
 31
0.0
  0
LINE
  5
AB
  8
LAYER0014
  6
CONTINUOUS
 62
     7
 10
-335.1095050369552
 20
143.75898989415
 30
0.0
 11
-335.1095050369552
 21
53.25898607945275
 31
0.0
  0
INSERT
  5
B2
  8
LAYER0014
 62
     7
  2
_OPEN30
 10
-335.1095050369552
 20
143.75898989415
 30
0.0
 41
3.00000278782526
 42
2.999997001378984
 50
90.0
  0
INSERT
  5
B3
  8
LAYER0014
 62
     7
  2
_OPEN30
 10
-335.1095050369552
 20
53.25898607945275
 30
0.0
 41
3.00000278782526
 42
2.999997001378984
 50
270.0
  0
TEXT
  5
B5
  8
LAYER0014
 62
     7
 10
-337.1374302908095
 20
74.46901235618878
 30
0.0
 40
8.0
  1
φ90.5
 50
89.90000000000001
 41
0.7692307692307695
  7
FDASTYLE1
 72
     5
 11
-337.0815797831008
 21
106.468963617414
 31
0.0
  0
TEXT
  5
B6
  8
LAYER0014
 62
     7
 10
-341.4780824247875
 20
108.4766400160505
 30
0.0
 40
4.4
  1
+0.5
 50
89.90000000000001
 41
0.7999999999999991
  7
FDASTYLE1
 72
     5
 11
-341.4535082013957
 21
122.5566185709896
 31
0.0
  0
TEXT
  5
B7
  8
LAYER0014
 62
     7
 10
-336.6780897356037
 20
108.4682624398942
 30
0.0
 40
4.4
  1
 0
 50
89.90000000000001
 41
0.8000000000000015
  7
FDASTYLE1
 72
     5
 11
-336.6658026239078
 21
115.5082517173638
 31
0.0
  0
ENDBLK
  5
4E
  8
0
  0
BLOCK
  8
0
  2
DA_IMAGEDIMGROUP_2
 70
     0
 10
0.0
 20
0.0
 30
0.0
  3
DA_IMAGEDIMGROUP_2
  1

  0
LINE
  5
B8
  8
LAYER0014
  6
CONTINUOUS
 62
     7
 10
-159.9347088943771
 20
28.50898607945275
 30
0.0
 11
-79.01748690951376
 21
28.50898607945275
 31
0.0
  0
LINE
  5
B9
  8
LAYER0014
  6
CONTINUOUS
 62
     7
 10
-83.58948550570517
 20
28.50898607945275
 30
0.0
 11
-83.58948550570517
 21
143.75898989415
 31
0.0
  0
INSERT
  5
BA
  8
LAYER0014
 62
     7
  2
_OPEN30
 10
-83.58948550570517
 20
28.50898607945275
 30
0.0
 41
3.00000278782526
 42
2.999997001378984
 50
270.0
  0
TEXT
  5
BB
  8
LAYER0014
 62
     7
 10
-86.78948550570517
 20
77.86677588200402
 30
0.0
 40
8.0
  1
φ140H7
 50
90.0
 41
0.7741935483870969
  7
FDASTYLE1
 72
     5
 11
-86.78948550570517
 21
116.266775882004
 31
0.0
  0
ENDBLK
  5
51
  8
0
  0
BLOCK
  8
0
  2
DA_IMAGEDIMGROUP_3
 70
     0
 10
0.0
 20
0.0
 30
0.0
  3
DA_IMAGEDIMGROUP_3
  1

  0
LINE
  5
BC
  8
LAYER0014
  6
CONTINUOUS
 62
     7
 10
-238.6522821365645
 20
153.0589929459079
 30
0.0
 11
-366.9690631424239
 21
153.0589929459079
 31
0.0
  0
LINE
  5
BD
  8
LAYER0014
  6
CONTINUOUS
 62
     7
 10
-238.6522821365645
 20
43.95898684239221
 30
0.0
 11
-366.9690631424239
 21
43.95898684239221
 31
0.0
  0
LINE
  5
BE
  8
LAYER0014
  6
CONTINUOUS
 62
     7
 10
-362.397072175627
 20
153.0589929459079
 30
0.0
 11
-362.397072175627
 21
43.95898684239221
 31
0.0
  0
INSERT
  5
BF
  8
LAYER0014
 62
     7
  2
_OPEN30
 10
-362.397072175627
 20
153.0589929459079
 30
0.0
 41
3.00000278782526
 42
2.999997001378984
 50
90.0
  0
INSERT
  5
C0
  8
LAYER0014
 62
     7
  2
_OPEN30
 10
-362.397072175627
 20
43.95898684239221
 30
0.0
 41
3.00000278782526
 42
2.999997001378984
 50
270.0
  0
TEXT
  5
C1
  8
LAYER0014
 62
     7
 10
-364.4417525817941
 20
72.90902888516983
 30
0.0
 40
8.0
  1
φ109.1Ｈ7
 50
89.90000000000001
 41
0.7619047619047625
  7
FDASTYLE1
 72
     5
 11
-364.35239176946
 21
124.1089509031302
 31
0.0
  0
ENDBLK
  5
54
  8
0
  0
BLOCK
  8
0
  2
DA_IMAGEDIMGROUP_4
 70
     0
 10
0.0
 20
0.0
 30
0.0
  3
DA_IMAGEDIMGROUP_4
  1

  0
LINE
  5
C2
  8
LAYER0014
  6
CONTINUOUS
 62
     7
 10
-294.0147088943771
 20
166.00898989415
 30
0.0
 11
-396.0362018142989
 21
166.00898989415
 31
0.0
  0
LINE
  5
C3
  8
LAYER0014
  6
CONTINUOUS
 62
     7
 10
-294.0147088943771
 20
31.00898607945275
 30
0.0
 11
-396.0362018142989
 21
31.00898607945275
 31
0.0
  0
LINE
  5
C4
  8
LAYER0014
  6
CONTINUOUS
 62
     7
 10
-391.464210847502
 20
166.00898989415
 30
0.0
 11
-391.464210847502
 21
31.00898607945275
 31
0.0
  0
INSERT
  5
C5
  8
LAYER0014
 62
     7
  2
_OPEN30
 10
-391.464210847502
 20
166.00898989415
 30
0.0
 41
3.00000278782526
 42
2.999997001378984
 50
90.0
  0
INSERT
  5
C6
  8
LAYER0014
 62
     7
  2
_OPEN30
 10
-391.464210847502
 20
31.00898607945275
 30
0.0
 41
3.00000278782526
 42
2.999997001378984
 50
270.0
  0
TEXT
  5
C7
  8
LAYER0014
 62
     7
 10
-393.4977211521273
 20
79.30901723006627
 30
0.0
 40
8.0
  1
φ135H7
 50
89.90000000000001
 41
0.7741935483870963
  7
FDASTYLE1
 72
     5
 11
-393.4307005428768
 21
117.7089587435365
 31
0.0
  0
ENDBLK
  5
57
  8
0
  0
BLOCK
  8
0
  2
DA_IMAGEDIMGROUP_5
 70
     0
 10
0.0
 20
0.0
 30
0.0
  3
DA_IMAGEDIMGROUP_5
  1

  0
LINE
  5
C8
  8
LAYER0014
  6
CONTINUOUS
 62
     7
 10
-299.7147211014083
 20
258.5090051529391
 30
0.0
 11
-423.9169696365645
 21
258.5090051529391
 31
0.0
  0
LINE
  5
C9
  8
LAYER0014
  6
CONTINUOUS
 62
     7
 10
-299.7147211014083
 20
-61.49101010584998
 30
0.0
 11
-423.9169696365645
 21
-61.49101010584998
 31
0.0
  0
LINE
  5
CA
  8
LAYER0014
  6
CONTINUOUS
 62
     7
 10
-419.3449786697677
 20
258.50898989415
 30
0.0
 11
-419.3449786697677
 21
-61.49101010584998
 31
0.0
  0
INSERT
  5
CB
  8
LAYER0014
 62
     7
  2
_OPEN30
 10
-419.3449786697677
 20
258.50898989415
 30
0.0
 41
3.00000278782526
 42
2.999997001378984
 50
90.0
  0
INSERT
  5
CC
  8
LAYER0014
 62
     7
  2
_OPEN30
 10
-419.3449786697677
 20
-61.49101010584998
 30
0.0
 41
3.00000278782526
 42
2.999997001378984
 50
270.0
  0
TEXT
  5
CD
  8
LAYER0014
 62
     7
 10
-421.378488974393
 20
79.30901913741494
 30
0.0
 40
8.0
  1
φ320H7
 50
89.90000000000001
 41
0.7741935483870963
  7
FDASTYLE1
 72
     5
 11
-421.3114683651425
 21
117.7089606508852
 31
0.0
  0
ENDBLK
  5
5A
  8
0
  0
BLOCK
  8
0
  2
DA_IMAGEDIMGROUP_6
 70
     0
 10
0.0
 20
0.0
 30
0.0
  3
DA_IMAGEDIMGROUP_6
  1

  0
LINE
  5
CE
  8
LAYER0014
  6
CONTINUOUS
 62
     7
 10
-299.7147211014083
 20
273.5090051529391
 30
0.0
 11
-452.3909381424239
 21
273.5090051529391
 31
0.0
  0
LINE
  5
CF
  8
LAYER0014
  6
CONTINUOUS
 62
     7
 10
-299.7147211014083
 20
-76.49101010584998
 30
0.0
 11
-452.3909381424239
 21
-76.49101010584998
 31
0.0
  0
LINE
  5
D0
  8
LAYER0014
  6
CONTINUOUS
 62
     7
 10
-447.818947175627
 20
273.5090051529391
 30
0.0
 11
-447.818947175627
 21
-76.49101010584998
 31
0.0
  0
INSERT
  5
D1
  8
LAYER0014
 62
     7
  2
_OPEN30
 10
-447.818947175627
 20
273.5090051529391
 30
0.0
 41
3.00000278782526
 42
2.999997001378984
 50
90.0
  0
INSERT
  5
D2
  8
LAYER0014
 62
     7
  2
_OPEN30
 10
-447.818947175627
 20
-76.49101010584998
 30
0.0
 41
3.00000278782526
 42
2.999997001378984
 50
270.0
  0
TEXT
  5
D3
  8
LAYER0014
 62
     7
 10
-449.8412873787106
 20
85.70901701905449
 30
0.0
 40
8.0
  1
φ350
 50
89.90000000000001
 41
0.7619047619047625
  7
FDASTYLE1
 72
     5
 11
-449.7966069725435
 21
111.3089780280347
 31
0.0
  0
ENDBLK
  5
5D
  8
0
  0
BLOCK
  8
0
  2
DA_IMAGEDIMGROUP_7
 70
     0
 10
0.0
 20
0.0
 30
0.0
  3
DA_IMAGEDIMGROUP_7
  1

  0
LINE
  5
D4
  8
LAYER0014
  6
CONTINUOUS
 62
     7
 10
-81.9407284866622
 20
98.50898989415002
 30
0.0
 11
-51.1367343460372
 21
98.50898989415002
 31
0.0
  0
LINE
  5
D5
  8
LAYER0014
  6
CONTINUOUS
 62
     7
 10
-55.70873294222861
 20
98.50898989415002
 30
0.0
 11
-55.70873294222861
 21
180.50898989415
 31
0.0
  0
INSERT
  5
D6
  8
LAYER0014
 62
     7
  2
_OPEN30
 10
-55.70873294222861
 20
98.50898989415002
 30
0.0
 41
3.00000278782526
 42
2.999997001378984
 50
270.0
  0
INSERT
  5
D7
  8
LAYER0014
 62
     7
  2
_OPEN30
 10
-55.70873294222861
 20
180.50898989415
 30
0.0
 41
3.00000278782526
 42
2.999997001378984
 50
90.0
  0
TEXT
  5
D8
  8
LAYER0014
 62
     7
 10
-57.70873294222861
 20
113.90898989415
 30
0.0
 40
8.0
  1
MAX 94.5
 50
90.0
 41
0.7999999999999998
  7
FDASTYLE1
 72
     5
 11
-57.70873294222861
 21
165.10898989415
 31
0.0
  0
ENDBLK
  5
60
  8
0
  0
BLOCK
  8
0
  2
DA_IMAGEDIMGROUP_8
 70
     0
 10
0.0
 20
0.0
 30
0.0
  3
DA_IMAGEDIMGROUP_8
  1

  0
LINE
  5
D9
  8
LAYER0014
  6
CONTINUOUS
 62
     7
 10
-161.4264996658614
 20
180.50898989415
 30
0.0
 11
-51.1367343460372
 21
180.50898989415
 31
0.0
  0
LINE
  5
DA
  8
LAYER0014
  6
CONTINUOUS
 62
     7
 10
-160.9347088943771
 20
273.5090051529391
 30
0.0
 11
-51.1367343460372
 21
273.5090051529391
 31
0.0
  0
LINE
  5
DB
  8
LAYER0014
  6
CONTINUOUS
 62
     7
 10
-55.70873294222861
 20
180.50898989415
 30
0.0
 11
-55.70873294222861
 21
273.5090051529391
 31
0.0
  0
INSERT
  5
DC
  8
LAYER0014
 62
     7
  2
_OPEN30
 10
-55.70873294222861
 20
180.50898989415
 30
0.0
 41
3.00000278782526
 42
2.999997001378984
 50
270.0
  0
INSERT
  5
DD
  8
LAYER0014
 62
     7
  2
_OPEN30
 10
-55.70873294222861
 20
273.5090051529391
 30
0.0
 41
3.00000278782526
 42
2.999997001378984
 50
90.0
  0
TEXT
  5
DE
  8
LAYER0014
 62
     7
 10
-57.71990304377035
 20
220.6090072712995
 30
0.0
 40
8.0
  1
93
 50
89.90000000000001
 41
0.8000000000000007
  7
FDASTYLE1
 72
     5
 11
-57.69756284068686
 21
233.4089877757896
 31
0.0
  0
ENDBLK
  5
63
  8
0
  0
BLOCK
  8
0
  2
DA_IMAGEDIMGROUP_9
 70
     0
 10
0.0
 20
0.0
 30
0.0
  3
DA_IMAGEDIMGROUP_9
  1

  0
LINE
  5
DF
  8
LAYER0014
  6
CONTINUOUS
 62
     7
 10
-197.5722821365646
 20
42.50898607945275
 30
0.0
 11
-104.216751435881
 21
42.50898607945275
 31
0.0
  0
LINE
  5
E0
  8
LAYER0014
  6
CONTINUOUS
 62
     7
 10
-108.7887500320724
 20
143.75898989415
 30
0.0
 11
-108.7887500320724
 21
42.50898607945275
 31
0.0
  0
INSERT
  5
E1
  8
LAYER0014
 62
     7
  2
_OPEN30
 10
-108.7887500320724
 20
42.50898607945275
 30
0.0
 41
3.00000278782526
 42
2.999997001378984
 50
270.0
  0
TEXT
  5
E2
  8
LAYER0014
 62
     7
 10
-112.0374148881007
 20
70.62890212339906
 30
0.0
 40
8.0
  1
M112×P1.5
 50
89.90000000000001
 41
0.7826086956521737
  7
FDASTYLE1
 72
     5
 11
-111.9368839742249
 21
128.2288143936044
 31
0.0
  0
ENDBLK
  5
66
  8
0
  0
BLOCK
  8
0
  2
DA_IMAGEDIMGROUP_10
 70
     0
 10
0.0
 20
0.0
 30
0.0
  3
DA_IMAGEDIMGROUP_10
  1

  0
LINE
  5
E3
  8
LAYER0014
  6
CONTINUOUS
 62
     7
 10
-273.1122821365645
 20
70.62735995030236
 30
0.0
 11
-236.1122821365645
 21
70.62735995030236
 31
0.0
  0
INSERT
  5
E4
  8
LAYER0014
 62
     7
  2
_OPEN30
 10
-273.1122821365645
 20
70.62735995030236
 30
0.0
 41
3.00000278782526
 42
2.999997001378984
 50
180.0
  0
INSERT
  5
E5
  8
LAYER0014
 62
     7
  2
_OPEN30
 10
-236.1122821365645
 20
70.62735995030236
 30
0.0
 41
3.00000278782526
 42
2.999997001378984
 50
360.0
  0
TEXT
  5
E6
  8
LAYER0014
 62
     7
 10
-261.0122821365645
 20
72.62735995030236
 30
0.0
 40
8.0
  1
37
 41
0.7999999999999989
  7
FDASTYLE1
 72
     5
 11
-248.2122821365645
 21
72.62735995030236
 31
0.0
  0
ENDBLK
  5
69
  8
0
  0
BLOCK
  8
0
  2
DA_IMAGEDIMGROUP_11
 70
     0
 10
0.0
 20
0.0
 30
0.0
  3
DA_IMAGEDIMGROUP_11
  1

  0
LINE
  5
E7
  8
LAYER0014
  6
CONTINUOUS
 62
     7
 10
-236.1122821365645
 20
70.62735995030236
 30
0.0
 11
-214.1122821365645
 21
70.62735995030236
 31
0.0
  0
INSERT
  5
E8
  8
LAYER0014
 62
     7
  2
_OPEN30
 10
-236.1122821365645
 20
70.62735995030236
 30
0.0
 41
3.00000278782526
 42
2.999997001378984
 50
180.0
  0
INSERT
  5
E9
  8
LAYER0014
 62
     7
  2
_OPEN30
 10
-214.1122821365645
 20
70.62735995030236
 30
0.0
 41
3.00000278782526
 42
2.999997001378984
 50
360.0
  0
TEXT
  5
EA
  8
LAYER0014
 62
     7
 10
-231.5122821365646
 20
72.62735995030236
 30
0.0
 40
8.0
  1
22
 41
0.8000000000000007
  7
FDASTYLE1
 72
     5
 11
-218.7122821365645
 21
72.62735995030236
 31
0.0
  0
ENDBLK
  5
6C
  8
0
  0
BLOCK
  8
0
  2
DA_IMAGEDIMGROUP_12
 70
     0
 10
0.0
 20
0.0
 30
0.0
  3
DA_IMAGEDIMGROUP_12
  1

  0
LINE
  5
EB
  8
LAYER0014
  6
CONTINUOUS
 62
     7
 10
-322.0147088943771
 20
-8.966016209365606
 30
0.0
 11
-349.9327777420333
 21
-8.966016209365606
 31
0.0
  0
LINE
  5
EC
  8
LAYER0014
  6
CONTINUOUS
 62
     7
 10
-322.0147088943771
 20
-28.96601620936561
 30
0.0
 11
-349.9327777420333
 21
-28.96601620936561
 31
0.0
  0
LINE
  5
ED
  8
LAYER0014
  6
CONTINUOUS
 62
     7
 10
-345.3607867752364
 20
-8.966016209365606
 30
0.0
 11
-345.3607867752364
 21
-28.96601620936561
 31
0.0
  0
LINE
  5
EE
  8
LAYER0014
  6
CONTINUOUS
 62
     7
 10
-345.3607867752364
 20
22.5840953121852
 30
0.0
 11
-345.3607867752364
 21
-8.966016209365606
 31
0.0
  0
INSERT
  5
EF
  8
LAYER0014
 62
     7
  2
_OPEN30
 10
-345.3607867752364
 20
-8.966016209365606
 30
0.0
 41
3.00000278782526
 42
2.999997001378984
 50
270.0
  0
LINE
  5
F0
  8
LAYER0014
  6
CONTINUOUS
 62
     7
 10
-345.3607867752364
 20
-38.96601620936561
 30
0.0
 11
-345.3607867752364
 21
-28.96601620936561
 31
0.0
  0
INSERT
  5
F1
  8
LAYER0014
 62
     7
  2
_OPEN30
 10
-345.3607867752364
 20
-28.96601620936561
 30
0.0
 41
3.00000278782526
 42
2.999997001378984
 50
90.0
  0
TEXT
  5
F2
  8
LAYER0014
 62
     7
 10
-347.3607867752364
 20
-0.2159086878148635
 30
0.0
 40
8.0
  1
M20
 50
89.90000000000001
 41
0.7999999999999995
  7
FDASTYLE1
 72
     5
 11
-347.3272764706112
 21
18.98406206892025
 31
0.0
  0
ENDBLK
  5
6F
  8
0
  0
BLOCK
  8
0
  2
DA_IMAGEDIMGROUP_13
 70
     0
 10
0.0
 20
0.0
 30
0.0
  3
DA_IMAGEDIMGROUP_13
  1

  0
LINE
  5
F3
  8
LAYER0014
  6
CONTINUOUS
 62
     7
 10
-291.474708894377
 20
-116.1647280780551
 30
0.0
 11
-236.1122821365645
 21
-116.1647280780551
 31
0.0
  0
INSERT
  5
F4
  8
LAYER0014
 62
     7
  2
_OPEN30
 10
-291.474708894377
 20
-116.1647280780551
 30
0.0
 41
3.00000278782526
 42
2.999997001378984
 50
180.0
  0
INSERT
  5
F5
  8
LAYER0014
 62
     7
  2
_OPEN30
 10
-236.1122821365645
 20
-116.1647280780551
 30
0.0
 41
3.00000278782526
 42
2.999997001378984
 50
360.0
  0
TEXT
  5
F6
  8
LAYER0014
 62
     7
 10
-286.1934955154708
 20
-114.1647280780551
 30
0.0
 40
8.0
  1
MAX77.9
 41
0.7999999999999997
  7
FDASTYLE1
 72
     5
 11
-241.3934955154708
 21
-114.1647280780551
 31
0.0
  0
LINE
  5
F7
  8
LAYER0014
  6
CONTINUOUS
 62
     7
 10
-291.474708894377
 20
-113.5214361312406
 30
0.0
 11
-291.474708894377
 21
-118.1647280780551
 31
0.0
  0
LINE
  5
F8
  8
LAYER0014
  6
CONTINUOUS
 62
     7
 10
-236.1122821365645
 20
41.76002077793908
 30
0.0
 11
-236.1122821365645
 21
-118.1647280780551
 31
0.0
  0
ENDBLK
  5
72
  8
0
  0
BLOCK
  8
0
  2
DA_IMAGEDIMGROUP_14
 70
     0
 10
0.0
 20
0.0
 30
0.0
  3
DA_IMAGEDIMGROUP_14
  1

  0
LINE
  5
F9
  8
LAYER0014
  6
CONTINUOUS
 62
     7
 10
-162.474708894377
 20
-77.16093869471717
 30
0.0
 11
-162.474708894377
 21
-173.7332281234281
 31
0.0
  0
LINE
  5
FA
  8
LAYER0014
  6
CONTINUOUS
 62
     7
 10
-297.1747211014083
 20
-79.86368222499061
 30
0.0
 11
-297.1747211014083
 21
-173.7332281234281
 31
0.0
  0
LINE
  5
FB
  8
LAYER0014
  6
CONTINUOUS
 62
     7
 10
-162.474708894377
 20
-169.1612218978422
 30
0.0
 11
-297.1747211014083
 21
-169.1612218978422
 31
0.0
  0
INSERT
  5
FC
  8
LAYER0014
 62
     7
  2
_OPEN30
 10
-162.474708894377
 20
-169.1612218978422
 30
0.0
 41
3.00000278782526
 42
2.999997001378984
 50
360.0
  0
INSERT
  5
FD
  8
LAYER0014
 62
     7
  2
_OPEN30
 10
-297.1747211014083
 20
-169.1612218978422
 30
0.0
 41
3.00000278782526
 42
2.999997001378984
 50
180.0
  0
TEXT
  5
FE
  8
LAYER0014
 62
     7
 10
-247.7675749978927
 20
-167.1612218978422
 30
0.0
 40
8.0
  1
134.7
 41
0.7584543186539031
  7
FDASTYLE1
 72
     5
 11
-211.8818549978927
 21
-167.1612218978422
 31
0.0
  0
ENDBLK
  5
75
  8
0
  0
BLOCK
  8
0
  2
DC_GROUP_1
 70
     0
 10
0.0
 20
0.0
 30
0.0
  3
DC_GROUP_1
  1

  0
LINE
  5
FF
  8
LAYER0014
  6
CONTINUOUS
 62
     7
 10
-163.2096908653587
 20
265.8648176831907
 30
0.0
 11
-123.2969202098941
 21
316.7426315794587
 31
0.0
  0
INSERT
  5
100
  8
LAYER0014
 62
     7
  2
_OPEN30
 10
-163.2096908653587
 20
265.8648176831907
 30
0.0
 41
3.00000278782526
 42
2.999997001378984
 50
231.8864253393768
  0
LINE
  5
101
  8
LAYER0014
  6
CONTINUOUS
 62
     7
 10
-123.2969211136153
 20
316.742617213486
 30
0.0
 11
-30.03757892001181
 21
316.742617213486
 31
0.0
  0
TEXT
  5
102
  8
LAYER0014
 62
     7
 10
-121.9811175857833
 20
319.9426172134859
 30
0.0
 40
8.0
  1
ｾﾚｰｼｮﾝP1.5山60ﾟ
 41
0.7887323943661972
  7
FDASTYLE1
 72
     5
 11
-32.38111758578329
 21
319.9426172134859
 31
0.0
  0
ENDBLK
  5
78
  8
0
  0
BLOCK
  8
0
  2
DC_GROUP_2
 70
     0
 10
0.0
 20
0.0
 30
0.0
  3
DC_GROUP_2
  1

  0
LINE
  5
103
  8
LAYER0014
  6
CONTINUOUS
 62
     7
 10
-141.7492158780653
 20
251.772140382769
 30
0.0
 11
-110.5508265732972
 21
293.1809411398976
 31
0.0
  0
INSERT
  5
104
  8
LAYER0014
 62
     7
  2
_OPEN30
 10
-141.7492158780653
 20
251.772140382769
 30
0.0
 41
3.00000278782526
 42
2.999997001378984
 50
233.0047484734897
  0
LINE
  5
105
  8
LAYER0014
  6
CONTINUOUS
 62
     7
 10
-110.5508273636153
 20
293.1809411880954
 30
0.0
 11
-87.69149051058798
 21
293.1809411880954
 31
0.0
  0
TEXT
  5
106
  8
LAYER0014
 62
     7
 10
-109.4163363968185
 20
296.3809411880953
 30
0.0
 40
8.0
  1
M16
 41
0.8000000000000002
  7
FDASTYLE1
 72
     5
 11
-90.21633639681845
 21
296.3809411880953
 31
0.0
  0
ENDBLK
  5
7B
  8
0
  0
BLOCK
  8
0
  2
DC_GROUP_3
 70
     0
 10
0.0
 20
0.0
 30
0.0
  3
DC_GROUP_3
  1

  0
LINE
  5
107
  8
LAYER0014
  6
CONTINUOUS
 62
     7
 10
-241.2803575354833
 20
-76.67893070886323
 30
0.0
 11
-213.4604423696958
 21
-113.5214773334901
 31
0.0
  0
INSERT
  5
108
  8
LAYER0014
 62
     7
  2
_OPEN30
 10
-241.2803575354833
 20
-76.67893070886323
 30
0.0
 41
3.00000278782526
 42
2.999997001378984
 50
127.0565608940498
  0
LINE
  5
109
  8
LAYER0014
  6
CONTINUOUS
 62
     7
 10
-213.4604419266036
 20
-113.5214666488187
 30
0.0
 11
-173.3221770636749
 21
-113.5214666488187
 31
0.0
  0
TEXT
  5
10A
  8
LAYER0014
 62
     7
 10
-211.5806964432052
 20
-110.3214666488187
 30
0.0
 40
8.0
  1
M12×23
 41
0.7741935483870969
  7
FDASTYLE1
 72
     5
 11
-173.1806964432052
 21
-110.3214666488187
 31
0.0
  0
ENDBLK
  5
7E
  8
0
  0
BLOCK
  8
0
  2
DA_IMAGEDIMGROUP_15
 70
     0
 10
0.0
 20
0.0
 30
0.0
  3
DA_IMAGEDIMGROUP_15
  1

  0
LINE
  5
10B
  8
LAYER0014
  6
CONTINUOUS
 62
     7
 10
-121.9213269363692
 20
244.50898989415
 30
0.0
 11
-81.58948550570517
 21
244.50898989415
 31
0.0
  0
LINE
  5
10C
  8
LAYER0014
  6
CONTINUOUS
 62
     7
 10
-83.58948550570517
 20
199.50898989415
 30
0.0
 11
-83.58948550570517
 21
244.50898989415
 31
0.0
  0
INSERT
  5
10D
  8
LAYER0014
 62
     7
  2
_OPEN30
 10
-83.58948550570517
 20
199.50898989415
 30
0.0
 41
3.00000278782526
 42
2.999997001378984
 50
270.0
  0
INSERT
  5
10E
  8
LAYER0014
 62
     7
  2
_OPEN30
 10
-83.58948550570517
 20
244.50898989415
 30
0.0
 41
3.00000278782526
 42
2.999997001378984
 50
90.0
  0
TEXT
  5
10F
  8
LAYER0014
 62
     7
 10
-85.58948550570517
 20
215.60898989415
 30
0.0
 40
8.0
  1
45
 50
90.0
 41
0.8000000000000007
  7
FDASTYLE1
 72
     5
 11
-85.58948550570517
 21
228.40898989415
 31
0.0
  0
ENDBLK
  5
81
  8
0
  0
BLOCK
  8
0
  2
DA_IMAGEDIMGROUP_16
 70
     0
 10
0.0
 20
0.0
 30
0.0
  3
DA_IMAGEDIMGROUP_16
  1

  0
LINE
  5
110
  8
0
  6
CONTINUOUS
 62
     9
 10
-297.1747211014083
 20
-78.49101010584998
 30
0.0
 11
-297.1747211014083
 21
-149.5578486810963
 31
0.0
  0
LINE
  5
111
  8
0
  6
CONTINUOUS
 62
     9
 10
-291.474708894377
 20
-63.49101010584998
 30
0.0
 11
-291.474708894377
 21
-149.5578486810963
 31
0.0
  0
LINE
  5
112
  8
0
  6
CONTINUOUS
 62
     9
 10
-297.1747211014083
 20
-147.5578486810963
 30
0.0
 11
-291.474708894377
 21
-147.5578486810963
 31
0.0
  0
LINE
  5
113
  8
0
  6
CONTINUOUS
 62
     9
 10
-162.474708894377
 20
-75.49096432948279
 30
0.0
 11
-162.474708894377
 21
-149.5578486810963
 31
0.0
  0
LINE
  5
114
  8
0
  6
CONTINUOUS
 62
     9
 10
-324.2384211014083
 20
-147.5578486810963
 30
0.0
 11
-297.1747211014083
 21
-147.5578486810963
 31
0.0
  0
INSERT
  5
115
  8
0
 62
     9
  2
_OPEN30
 10
-297.1747211014083
 20
-147.5578486810963
 30
0.0
 41
3.00000278782526
 42
2.999997001378984
 50
360.0
  0
LINE
  5
116
  8
0
  6
CONTINUOUS
 62
     9
 10
-291.474708894377
 20
-147.5578486810963
 30
0.0
 11
-162.474708894377
 21
-147.5578486810963
 31
0.0
  0
INSERT
  5
117
  8
0
 62
     9
  2
_OPEN30
 10
-291.474708894377
 20
-147.5578486810963
 30
0.0
 41
3.00000278782526
 42
2.999997001378984
 50
180.0
  0
INSERT
  5
118
  8
0
 62
     9
  2
_OPEN30
 10
-162.474708894377
 20
-147.5578486810963
 30
0.0
 41
3.00000278782526
 42
2.999997001378984
 50
360.0
  0
TEXT
  5
119
  8
0
 62
     7
 10
-322.2384211014083
 20
-145.5578486810963
 30
0.0
 40
8.0
  1
5.7
 41
0.7999999999999995
  7
FDASTYLE1
 72
     5
 11
-303.0384211014083
 21
-145.5578486810963
 31
0.0
  0
TEXT
  5
11A
  8
0
 62
     7
 10
-236.574708894377
 20
-145.5578486810963
 30
0.0
 40
8.0
  1
129
 41
0.7999999999999995
  7
FDASTYLE1
 72
     5
 11
-217.3747088943771
 21
-145.5578486810963
 31
0.0
  0
ENDBLK
  5
84
  8
0
  0
BLOCK
  8
0
  2
DA_IMAGEDIMGROUP_17
 70
     0
 10
0.0
 20
0.0
 30
0.0
  3
DA_IMAGEDIMGROUP_17
  1

  0
LINE
  5
11B
  8
0
  6
CONTINUOUS
 62
     9
 10
-241.474708894377
 20
-82.95363278784045
 30
0.0
 11
-241.474708894377
 21
-97.40190372835453
 31
0.0
  0
LINE
  5
11C
  8
0
  6
CONTINUOUS
 62
     9
 10
-291.474708894377
 20
-63.49101010584998
 30
0.0
 11
-291.474708894377
 21
-97.40190372835453
 31
0.0
  0
LINE
  5
11D
  8
0
  6
CONTINUOUS
 62
     9
 10
-291.474708894377
 20
-95.40190372835453
 30
0.0
 11
-241.474708894377
 21
-95.40190372835453
 31
0.0
  0
INSERT
  5
11E
  8
0
 62
     9
  2
_OPEN30
 10
-291.474708894377
 20
-95.40190372835453
 30
0.0
 41
3.00000278782526
 42
2.999997001378984
 50
180.0
  0
INSERT
  5
11F
  8
0
 62
     9
  2
_OPEN30
 10
-241.474708894377
 20
-95.40190372835453
 30
0.0
 41
3.00000278782526
 42
2.999997001378984
 50
360.0
  0
TEXT
  5
120
  8
0
 62
     7
 10
-272.874708894377
 20
-93.40190372835453
 30
0.0
 40
8.0
  1
50
 41
0.7999999999999972
  7
FDASTYLE1
 72
     5
 11
-260.0747088943771
 21
-93.40190372835453
 31
0.0
  0
ENDBLK
  5
87
  8
0
  0
BLOCK
  8
0
  2
DA_IMAGEDIMGROUP_18
 70
     0
 10
0.0
 20
0.0
 30
0.0
  3
DA_IMAGEDIMGROUP_18
  1

  0
LINE
  5
121
  8
0
  6
CONTINUOUS
 62
     9
 10
-291.474708894377
 20
-63.49101010584998
 30
0.0
 11
-291.474708894377
 21
-97.20171864741647
 31
0.0
  0
LINE
  5
122
  8
0
  6
CONTINUOUS
 62
     9
 10
-319.474708894377
 20
-30.96601620936561
 30
0.0
 11
-319.474708894377
 21
-97.20171864741647
 31
0.0
  0
LINE
  5
123
  8
0
  6
CONTINUOUS
 62
     9
 10
-319.474708894377
 20
-95.20171864741647
 30
0.0
 11
-291.474708894377
 21
-95.20171864741647
 31
0.0
  0
INSERT
  5
124
  8
0
 62
     9
  2
_OPEN30
 10
-319.474708894377
 20
-95.20171864741647
 30
0.0
 41
3.00000278782526
 42
2.999997001378984
 50
180.0
  0
INSERT
  5
125
  8
0
 62
     9
  2
_OPEN30
 10
-291.474708894377
 20
-95.20171864741647
 30
0.0
 41
3.00000278782526
 42
2.999997001378984
 50
360.0
  0
TEXT
  5
126
  8
0
 62
     7
 10
-311.874708894377
 20
-93.20171864741647
 30
0.0
 40
8.0
  1
28
 41
0.7999999999999972
  7
FDASTYLE1
 72
     5
 11
-299.0747088943771
 21
-93.20171864741647
 31
0.0
  0
ENDBLK
  5
8A
  8
0
  0
BLOCK
  8
0
  2
DA_IMAGEDIMGROUP_19
 70
     0
 10
0.0
 20
0.0
 30
0.0
  3
DA_IMAGEDIMGROUP_19
  1

  0
LINE
  5
127
  8
LAYER0014
  6
CONTINUOUS
 62
     7
 10
176.9809402760816
 20
224.5634391958969
 30
0.0
 11
145.8766367401967
 21
278.4374598191466
 31
0.0
  0
LINE
  5
128
  8
LAYER0014
  6
CONTINUOUS
 62
     7
 10
169.3292079807387
 20
144.9450470922805
 30
0.0
 11
69.82997999173944
 21
202.390691803152
 31
0.0
  0
ARC
  5
129
  8
LAYER0014
  6
CONTINUOUS
 62
     7
 10
249.7584454024981
 20
98.50898226475549
 30
0.0
 40
203.1915283203125
 50
120.0000306600609
 51
150.0000110043195
  0
INSERT
  5
12A
  8
LAYER0014
 62
     7
  2
_OPEN30
 10
148.1625870779855
 20
274.4779532580812
 30
0.0
 41
3.00000278782526
 42
2.999997001378984
 50
30.42299976089378
  0
INSERT
  5
12B
  8
LAYER0014
 62
     7
  2
_OPEN30
 10
73.7894005306799
 20
200.1047126280162
 30
0.0
 41
3.00000278782526
 42
2.999997001378984
 50
239.5770419034867
  0
TEXT
  5
12C
  8
LAYER0014
 62
     7
 10
97.02931698221659
 20
237.6615307865483
 30
0.0
 40
8.0
  1
30ﾟ
 50
45.0
 41
0.7999999999999997
  7
FDASTYLE1
 72
     5
 11
110.6057671809983
 21
251.23798098533
 31
0.0
  0
ENDBLK
  5
8D
  8
0
  0
BLOCK
  8
0
  2
DA_IMAGEDIMGROUP_20
 70
     0
 10
0.0
 20
0.0
 30
0.0
  3
DA_IMAGEDIMGROUP_20
  1

  0
LINE
  5
12D
  8
LAYER0014
  6
CONTINUOUS
 62
     7
 10
85.91947426355198
 20
193.1014736952185
 30
0.0
 11
69.82994050701603
 21
202.3907223704668
 31
0.0
  0
LINE
  5
12E
  8
LAYER0014
  6
CONTINUOUS
 62
     7
 10
55.10575253140438
 20
98.50957735752893
 30
0.0
 11
41.99489559781063
 21
98.50957735752893
 31
0.0
  0
ARC
  5
12F
  8
LAYER0014
  6
CONTINUOUS
 62
     7
 10
249.7584454024981
 20
98.50898989415002
 30
0.0
 40
203.1915130615234
 50
150.0000110043195
 51
179.9999640278213
  0
INSERT
  5
130
  8
LAYER0014
 62
     7
  2
_OPEN30
 10
73.78941374518033
 20
200.1047126280188
 30
0.0
 41
3.00000278782526
 42
2.999997001378984
 50
60.42298013691489
  0
INSERT
  5
131
  8
LAYER0014
 62
     7
  2
_OPEN30
 10
46.56693234101473
 20
98.50911746447856
 30
0.0
 41
3.00000278782526
 42
2.999997001378984
 50
269.5769948952251
  0
TEXT
  5
132
  8
LAYER0014
 62
     7
 10
47.90014536477769
 20
142.6639184447605
 30
0.0
 40
8.0
  1
30ﾟ
 50
74.89999999999999
 41
0.7999999999999994
  7
FDASTYLE1
 72
     5
 11
52.90183193071654
 21
161.2009929576416
 31
0.0
  0
ENDBLK
  5
90
  8
0
  0
BLOCK
  8
0
  2
DC_GROUP_4
 70
     0
 10
0.0
 20
0.0
 30
0.0
  3
DC_GROUP_4
  1

  0
LINE
  5
133
  8
LAYER0014
  6
CONTINUOUS
 62
     7
 10
183.1874120421367
 20
-13.22934423002908
 30
0.0
 11
135.0161934928725
 21
-83.790005614256
 31
0.0
  0
INSERT
  5
134
  8
LAYER0014
 62
     7
  2
_OPEN30
 10
183.1874120421367
 20
-13.22934423002908
 30
0.0
 41
3.00000278782526
 42
2.999997001378984
 50
55.67894841694225
  0
LINE
  5
135
  8
LAYER0014
  6
CONTINUOUS
 62
     7
 10
135.0161881978007
 20
-83.79000891912646
 30
0.0
 11
71.51681380815222
 21
-83.79000891912646
 31
0.0
  0
TEXT
  5
136
  8
LAYER0014
 62
     7
 10
73.34538741655067
 20
-80.59000128973194
 30
0.0
 40
8.0
  1
PCD234.95
 41
0.7999999999999999
  7
FDASTYLE1
 72
     5
 11
130.9453874165507
 21
-80.59000128973194
 31
0.0
  0
ENDBLK
  5
93
  8
0
  0
BLOCK
  8
0
  2
DC_GROUP_5
 70
     0
 10
0.0
 20
0.0
 30
0.0
  3
DC_GROUP_5
  1

  0
LINE
  5
137
  8
0
  6
CONTINUOUS
 62
     5
 10
299.534095643959
 20
242.9458643210492
 30
0.0
 11
304.725058488615
 21
239.948860114272
 31
0.0
  0
LINE
  5
138
  8
0
  6
CONTINUOUS
 62
     5
 10
300.8987080383114
 20
243.3115307915792
 30
0.0
 11
299.5340569544167
 21
242.9458735376307
 31
0.0
  0
LINE
  5
139
  8
0
  6
CONTINUOUS
 62
     5
 10
299.89981793433
 20
241.581209544743
 30
0.0
 11
299.5341551898923
 21
242.9458801991517
 31
0.0
  0
LINE
  5
13A
  8
0
  6
CONTINUOUS
 62
     5
 10
304.725166855028
 20
239.9488799263773
 30
0.0
 11
304.3595041105904
 21
241.313550580786
 31
0.0
  0
LINE
  5
13B
  8
0
  6
CONTINUOUS
 62
     5
 10
304.72502550636
 20
239.9488866175078
 30
0.0
 11
303.3603547903052
 21
239.5832241031364
 31
0.0
  0
LINE
  5
13C
  8
0
  6
CONTINUOUS
 62
     5
 10
293.6739068587744
 20
234.7937532407004
 30
0.0
 11
303.6639081784213
 21
252.0969407207466
 31
0.0
  0
LINE
  5
13D
  8
0
  6
CONTINUOUS
 62
     5
 10
293.5424669417789
 20
249.2901674664958
 30
0.0
 11
293.0715304554705
 21
248.0633360572611
 31
0.0
  0
LINE
  5
13E
  8
0
  6
CONTINUOUS
 62
     5
 10
293.54247697848
 20
249.2902015497281
 30
0.0
 11
292.3156644943381
 21
249.7611305096519
 31
0.0
  0
LINE
  5
13F
  8
0
  6
CONTINUOUS
 62
     5
 10
303.6639118844649
 20
252.0969503155367
 30
0.0
 11
295.0123170443348
 21
257.0919516105074
 31
0.0
  0
LINE
  5
140
  8
0
  6
CONTINUOUS
 62
     5
 10
285.0223210094337
 20
239.7887478780262
 30
0.0
 11
295.0123223290805
 21
257.0919353580723
 31
0.0
  0
LINE
  5
141
  8
0
  6
CONTINUOUS
 62
     5
 10
293.6739101788413
 20
234.7937469234302
 30
0.0
 11
280.6965206689137
 21
242.2862472780182
 31
0.0
  0
LINE
  5
142
  8
0
  6
CONTINUOUS
 62
     5
 10
280.696522171688
 20
242.2862486106051
 30
0.0
 11
282.195022369635
 21
244.881726732612
 31
0.0
  0
LINE
  5
143
  8
0
  6
CONTINUOUS
 62
     5
 10
283.4927767303528
 20
244.1324802682237
 30
0.0
 11
282.1950464702056
 21
244.8817252860198
 31
0.0
  0
LINE
  5
144
  8
0
  6
CONTINUOUS
 62
     5
 10
283.492761980692
 20
244.132476316065
 30
0.0
 11
284.4917621126567
 21
245.8627950640696
 31
0.0
  0
LINE
  5
145
  8
0
  6
CONTINUOUS
 62
     5
 10
285.789493807175
 20
245.1135360168535
 30
0.0
 11
284.4917547461715
 21
245.862786115827
 31
0.0
  0
LINE
  5
146
  8
0
  6
CONTINUOUS
 62
     5
 10
285.7895228871388
 20
245.1135558977632
 30
0.0
 11
286.7885230191035
 21
246.8438746457678
 31
0.0
  0
LINE
  5
147
  8
0
  6
CONTINUOUS
 62
     5
 10
288.518808918808
 20
245.8448487410916
 30
0.0
 11
286.7884904458302
 21
246.8438487142695
 31
0.0
  0
LINE
  5
148
  8
0
  6
CONTINUOUS
 62
     5
 10
286.8067302138085
 20
249.1404886304181
 30
0.0
 11
286.4410674693709
 21
250.5051592848269
 31
0.0
  0
LINE
  5
149
  8
0
  6
CONTINUOUS
 62
     5
 10
284.4699196619846
 20
247.0910560682668
 30
0.0
 11
286.4410303461243
 21
250.5051194522741
 31
0.0
  0
LINE
  5
14A
  8
0
  6
CONTINUOUS
 62
     5
 10
286.4410058627078
 20
250.505150495217
 30
0.0
 11
285.0763547788131
 21
250.1394932412686
 31
0.0
  0
ARC
  5
14B
  8
0
  6
CONTINUOUS
 62
     5
 10
294.4474407638263
 20
245.9127984879
 30
0.0
 40
3.496502585649523
 50
105.0000943826532
 51
399.9999466357901
  0
TEXT
  5
14C
  8
0
 62
     5
 10
301.9780413017082
 20
238.6434480650301
 30
0.0
 40
3.330000042915344
  1
F
 50
149.9999965971494
 41
0.8791213035583562
  7
FDASTYLE1
 72
     5
 11
299.4427745542753
 21
240.1071852048906
 31
0.0
  0
TEXT
  5
14D
  8
0
 62
     5
 10
297.9950536955101
 20
252.5078736193524
 30
0.0
 40
3.330000042915344
  1
N min
 50
149.9999965971494
 41
0.7983872809842194
  7
FDASTYLE1
 72
     5
 11
283.7199242577441
 21
260.7496245733813
 31
0.0
  0
TEXT
  5
14E
  8
0
 62
     5
 10
281.8863435148768
 20
259.0722686241604
 30
0.0
 40
1.665000021457672
  1
-1
 50
149.9999965971494
 41
0.7826089106345723
  7
FDASTYLE1
 72
     5
 11
279.2908651258779
 21
260.5707689762554
 31
0.0
  0
TEXT
  5
14F
  8
0
 62
     5
 10
284.357213016908
 20
251.4353061021493
 30
0.0
 40
3.330000042915344
  1
ΣS
 50
149.9999965971494
 41
0.9590411728078715
  7
FDASTYLE1
 72
     5
 11
278.2725744044727
 21
254.9482743247903
 31
0.0
  0
ENDBLK
  5
96
  8
0
  0
BLOCK
  8
0
  2
DA_IMAGEDIMGROUP_21
 70
     0
 10
0.0
 20
0.0
 30
0.0
  3
DA_IMAGEDIMGROUP_21
  1

  0
LINE
  5
150
  8
LAYER0014
  6
CONTINUOUS
 62
     7
 10
249.7571026290606
 20
289.4969946548922
 30
0.0
 11
249.7571026290606
 21
306.2724939224704
 31
0.0
  0
LINE
  5
151
  8
LAYER0014
  6
CONTINUOUS
 62
     7
 10
176.9809673311324
 20
224.5633879818191
 30
0.0
 11
145.8766670611294
 21
278.4374461834945
 31
0.0
  0
ARC
  5
152
  8
LAYER0014
  6
CONTINUOUS
 62
     7
 10
249.7583233321856
 20
98.50921114659143
 30
0.0
 40
203.1912689208984
 50
89.99998201391065
 51
120.0000306600609
  0
INSERT
  5
153
  8
LAYER0014
 62
     7
  2
_OPEN30
 10
249.7583871172733
 20
301.7004800674799
 30
0.0
 41
3.00000278782526
 42
2.999997001378984
 50
0.4229516547181132
  0
INSERT
  5
154
  8
LAYER0014
 62
     7
  2
_OPEN30
 10
148.1625947075003
 20
274.4779574935043
 30
0.0
 41
3.00000278782526
 42
2.999997001378984
 50
209.5770610192548
  0
TEXT
  5
155
  8
LAYER0014
 62
     7
 10
187.0685053177621
 20
295.4008170932634
 30
0.0
 40
8.0
  1
30ﾟ
 50
14.9
 41
0.7999999999999989
  7
FDASTYLE1
 72
     5
 11
205.6229260407316
 21
300.3377667218336
 31
0.0
  0
ENDBLK
  5
99
  8
0
  0
BLOCK
  8
0
  2
DA_IMAGEDIMGROUP_22
 70
     0
 10
0.0
 20
0.0
 30
0.0
  3
DA_IMAGEDIMGROUP_22
  1

  0
LINE
  5
156
  8
LAYER0014
  6
CONTINUOUS
 62
     7
 10
239.2583233321856
 20
-81.57101010584998
 30
0.0
 11
239.2583233321856
 21
-118.0934423568265
 31
0.0
  0
LINE
  5
157
  8
LAYER0014
  6
CONTINUOUS
 62
     7
 10
260.2583233321856
 20
-81.57101010584998
 30
0.0
 11
260.2583233321856
 21
-118.0934423568265
 31
0.0
  0
LINE
  5
158
  8
LAYER0014
  6
CONTINUOUS
 62
     7
 10
239.2583233321856
 20
-113.5214361312406
 30
0.0
 11
260.2583233321856
 21
-113.5214361312406
 31
0.0
  0
LINE
  5
159
  8
LAYER0014
  6
CONTINUOUS
 62
     7
 10
307.7962625136284
 20
-113.5214361312406
 30
0.0
 11
260.2583233321856
 21
-113.5214361312406
 31
0.0
  0
INSERT
  5
15A
  8
LAYER0014
 62
     7
  2
_OPEN30
 10
260.2583233321856
 20
-113.5214361312406
 30
0.0
 41
3.00000278782526
 42
2.999997001378984
 50
180.0
  0
LINE
  5
15B
  8
LAYER0014
  6
CONTINUOUS
 62
     7
 10
229.2583233321856
 20
-113.5214361312406
 30
0.0
 11
239.2583233321856
 21
-113.5214361312406
 31
0.0
  0
INSERT
  5
15C
  8
LAYER0014
 62
     7
  2
_OPEN30
 10
239.2583233321856
 20
-113.5214361312406
 30
0.0
 41
3.00000278782526
 42
2.999997001378984
 50
360.0
  0
TEXT
  5
15D
  8
LAYER0014
 62
     7
 10
280.1962625136283
 20
-111.5214361312406
 30
0.0
 40
8.0
  1
21H8
 50
-0.1000000000000078
 41
0.8000000000000007
  7
FDASTYLE1
 72
     5
 11
305.7962235226085
 21
-111.5661165374076
 31
0.0
  0
ENDBLK
  5
9C
  8
0
  0
BLOCK
  8
0
  2
DA_IMAGEDIMGROUP_23
 70
     0
 10
0.0
 20
0.0
 30
0.0
  3
DA_IMAGEDIMGROUP_23
  1

  0
LINE
  5
15E
  8
LAYER0014
  6
CONTINUOUS
 62
     7
 10
224.7583233321856
 20
-81.57101010584998
 30
0.0
 11
224.7583233321856
 21
-145.9133428695218
 31
0.0
  0
LINE
  5
15F
  8
LAYER0014
  6
CONTINUOUS
 62
     7
 10
274.7583233321856
 20
-81.57101010584998
 30
0.0
 11
274.7583233321856
 21
-145.9133428695218
 31
0.0
  0
LINE
  5
160
  8
LAYER0014
  6
CONTINUOUS
 62
     7
 10
224.7583233321856
 20
-141.3413366439359
 30
0.0
 11
274.7583233321856
 21
-141.3413366439359
 31
0.0
  0
INSERT
  5
161
  8
LAYER0014
 62
     7
  2
_OPEN30
 10
224.7583233321856
 20
-141.3413366439359
 30
0.0
 41
3.00000278782526
 42
2.999997001378984
 50
180.0
  0
INSERT
  5
162
  8
LAYER0014
 62
     7
  2
_OPEN30
 10
274.7583233321856
 20
-141.3413366439359
 30
0.0
 41
3.00000278782526
 42
2.999997001378984
 50
360.0
  0
TEXT
  5
163
  8
LAYER0014
 62
     7
 10
243.3583330799406
 20
-139.3301665423942
 30
0.0
 40
8.0
  1
50
 50
-0.1000000000000078
 41
0.7999999999999989
  7
FDASTYLE1
 72
     5
 11
256.1583135844306
 21
-139.3525067454777
 31
0.0
  0
ENDBLK
  5
9F
  8
0
  0
BLOCK
  8
0
  2
DC_GROUP_6
 70
     0
 10
0.0
 20
0.0
 30
0.0
  3
DC_GROUP_6
  1

  0
LINE
  5
164
  8
LAYER0014
  6
CONTINUOUS
 62
     7
 10
317.7804441174575
 20
54.57981216394567
 30
0.0
 11
344.9191472282226
 21
-84.50609459729255
 31
0.0
  0
INSERT
  5
165
  8
LAYER0014
 62
     7
  2
_OPEN30
 10
317.7804441174575
 20
54.57981216394567
 30
0.0
 41
3.00000278782526
 42
2.999997001378984
 50
101.0409360517847
  0
LINE
  5
166
  8
LAYER0014
  6
CONTINUOUS
 62
     7
 10
344.9191557428565
 20
-84.50609519307706
 30
0.0
 11
446.1400419733253
 21
-84.50609519307706
 31
0.0
  0
TEXT
  5
167
  8
LAYER0014
 62
     7
 10
348.3114897272315
 20
-81.30609519307707
 30
0.0
 40
8.0
  1
4-M10×20 PCD156
 41
0.7894736842105263
  7
FDASTYLE1
 72
     5
 11
444.3114897272315
 21
-81.30609519307707
 31
0.0
  0
ENDBLK
  5
A2
  8
0
  0
BLOCK
  8
0
  2
DA_IMAGEDIMGROUP_24
 70
     0
 10
0.0
 20
0.0
 30
0.0
  3
DA_IMAGEDIMGROUP_24
  1

  0
LINE
  5
168
  8
0
  6
CONTINUOUS
 62
     9
 10
299.7583233321856
 20
106.4723001358492
 30
0.0
 11
299.7583233321856
 21
115.8713900161117
 31
0.0
  0
LINE
  5
169
  8
0
  6
CONTINUOUS
 62
     9
 10
199.7583233321856
 20
106.8519311783297
 30
0.0
 11
199.7583233321856
 21
115.8713900161117
 31
0.0
  0
LINE
  5
16A
  8
0
  6
CONTINUOUS
 62
     9
 10
199.7583233321856
 20
113.8713900161117
 30
0.0
 11
299.7583233321856
 21
113.8713900161117
 31
0.0
  0
INSERT
  5
16B
  8
0
 62
     9
  2
_OPEN30
 10
199.7583233321856
 20
113.8713900161117
 30
0.0
 41
3.00000278782526
 42
2.999997001378984
 50
180.0
  0
INSERT
  5
16C
  8
0
 62
     9
  2
_OPEN30
 10
299.7583233321856
 20
113.8713900161117
 30
0.0
 41
3.00000278782526
 42
2.999997001378984
 50
360.0
  0
TEXT
  5
16D
  8
0
 62
     7
 10
230.5583233321856
 20
115.8713900161117
 30
0.0
 40
8.0
  1
PCD100
 41
0.7999999999999995
  7
FDASTYLE1
 72
     5
 11
268.9583233321856
 21
115.8713900161117
 31
0.0
  0
ENDBLK
  5
A5
  8
0
  0
BLOCK
  8
0
  2
DC_GROUP_7
 70
     0
 10
0.0
 20
0.0
 30
0.0
  3
DC_GROUP_7
  1

  0
LINE
  5
16E
  8
0
  6
CONTINUOUS
 62
     7
 10
301.3514210066634
 20
101.1683204881709
 30
0.0
 11
404.0298192096889
 21
228.4951303642338
 31
0.0
  0
INSERT
  5
16F
  8
0
 62
     7
  2
_OPEN30
 10
301.3514210066634
 20
101.1683204881709
 30
0.0
 41
3.00000278782526
 42
2.999997001378984
 50
231.1167341031158
  0
LINE
  5
170
  8
0
  6
CONTINUOUS
 62
     7
 10
404.0298192096889
 20
228.4951303642338
 30
0.0
 11
442.429819209689
 21
228.4951303642338
 31
0.0
  0
TEXT
  5
171
  8
0
 62
     7
 10
404.0298192096889
 20
228.4951303642338
 30
0.0
 40
8.0
  1
2-φ6.2
 41
0.7741935483870974
  7
FDASTYLE1
 72
     5
 11
442.429819209689
 21
228.4951303642338
 31
0.0
  0
ENDBLK
  5
A8
  8
0
  0
BLOCK
  8
0
  2
_OPEN30
 70
     0
 10
0.0
 20
0.0
 30
0.0
  3
_OPEN30
  1

  0
LINE
  5
AF
  8
0
  6
BYBLOCK
 62
     0
 10
-1.0
 20
0.267949
 30
0.0
 11
0.0
 21
0.0
 31
0.0
  0
LINE
  5
B0
  8
0
  6
BYBLOCK
 62
     0
 10
0.0
 20
0.0
 30
0.0
 11
-1.0
 21
-0.267949
 31
0.0
  0
LINE
  5
B1
  8
0
  6
BYBLOCK
 62
     0
 10
0.0
 20
0.0
 30
0.0
 11
-1.0
 21
0.0
 31
0.0
  0
ENDBLK
  5
AE
  8
0
  0
BLOCK
  8
0
  2
_DOTBLANK
 70
     0
 10
0.0
 20
0.0
 30
0.0
  3
_DOTBLANK
  1

  0
CIRCLE
  5
332
  8
0
  6
BYBLOCK
 62
     0
 10
0.0
 20
0.0
 30
0.0
 40
0.5
  0
LINE
  5
333
  8
0
  6
BYBLOCK
 62
     0
 10
-0.5
 20
0.0
 30
0.0
 11
-1.0
 21
0.0
 31
0.0
  0
ENDBLK
  5
331
  8
0
  0
ENDSEC
  0
SECTION
  2
ENTITIES
  0
LINE
  5
172
  8
ZUWAKU
  6
CONTINUOUS
 62
     3
 10
-554.0
 20
-379.9999999999999
 30
0.0
 11
-554.0
 21
379.9999999999999
 31
0.0
  0
LINE
  5
173
  8
ZUWAKU
  6
CONTINUOUS
 62
     3
 10
554.0
 20
-379.9999999999999
 30
0.0
 11
554.0
 21
379.9999999999999
 31
0.0
  0
LINE
  5
174
  8
ZUWAKU
  6
CONTINUOUS
 62
     3
 10
-554.0
 20
-379.9999999999999
 30
0.0
 11
554.0
 21
-379.9999999999999
 31
0.0
  0
LINE
  5
175
  8
ZUWAKU
  6
CONTINUOUS
 62
     3
 10
-554.0
 20
379.9999999999998
 30
0.0
 11
554.0
 21
379.9999999999998
 31
0.0
  0
LINE
  5
176
  8
ZUWAKU
  6
CONTINUOUS
 62
     3
 10
194.0
 20
-379.9999999999999
 30
0.0
 11
194.0
 21
-259.9999999999999
 31
0.0
  0
LINE
  5
177
  8
ZUWAKU
  6
CONTINUOUS
 62
     3
 10
194.0
 20
-351.9999999999999
 30
0.0
 11
554.0
 21
-351.9999999999999
 31
0.0
  0
LINE
  5
178
  8
ZUWAKU
  6
CONTINUOUS
 62
     3
 10
292.0
 20
-323.9999999999999
 30
0.0
 11
554.0
 21
-323.9999999999999
 31
0.0
  0
LINE
  5
179
  8
ZUWAKU
  6
CONTINUOUS
 62
     3
 10
292.0
 20
-295.9999999999999
 30
0.0
 11
554.0
 21
-295.9999999999999
 31
0.0
  0
LINE
  5
17A
  8
ZUWAKU
  6
CONTINUOUS
 62
     3
 10
292.0
 20
-275.9999999999999
 30
0.0
 11
554.0
 21
-275.9999999999999
 31
0.0
  0
LINE
  5
17B
  8
ZUWAKU
  6
CONTINUOUS
 62
     3
 10
292.0
 20
-351.9999999999999
 30
0.0
 11
292.0
 21
-259.9999999999999
 31
0.0
  0
LINE
  5
17C
  8
ZUWAKU
  6
CONTINUOUS
 62
     3
 10
510.0
 20
-351.9999999999999
 30
0.0
 11
510.0
 21
-259.9999999999999
 31
0.0
  0
LINE
  5
17D
  8
ZUWAKU
  6
CONTINUOUS
 62
     3
 10
342.0
 20
-379.9999999999999
 30
0.0
 11
342.0
 21
-351.9999999999999
 31
0.0
  0
LINE
  5
17E
  8
ZUWAKU
  6
CONTINUOUS
 62
     3
 10
524.0
 20
-375.9999999999999
 30
0.0
 11
544.0
 21
-375.9999999999999
 31
0.0
  0
LINE
  5
17F
  8
ZUWAKU
  6
CONTINUOUS
 62
     3
 10
534.0
 20
-355.9999999999999
 30
0.0
 11
524.0
 21
-375.9999999999999
 31
0.0
  0
LINE
  5
180
  8
ZUWAKU
  6
CONTINUOUS
 62
     3
 10
534.0
 20
-355.9999999999999
 30
0.0
 11
544.0
 21
-375.9999999999999
 31
0.0
  0
LINE
  5
181
  8
ZUWAKU
  6
CONTINUOUS
 62
     3
 10
194.0
 20
-259.9999999999999
 30
0.0
 11
554.0
 21
-259.9999999999999
 31
0.0
  0
LINE
  5
182
  8
ZUWAKU
  6
CONTINUOUS
 62
     3
 10
451.9999999999999
 20
-351.9999999999999
 30
0.0
 11
451.9999999999999
 21
-295.9999999999999
 31
0.0
  0
LINE
  5
183
  8
ZUWAKU
  6
CONTINUOUS
 62
     4
 10
210.0
 20
-343.9999999999999
 30
0.0
 11
210.0
 21
-259.9999999999999
 31
0.0
  0
LINE
  5
184
  8
ZUWAKU
  6
CONTINUOUS
 62
     4
 10
218.0
 20
-343.9999999999999
 30
0.0
 11
218.0
 21
-259.9999999999999
 31
0.0
  0
LINE
  5
185
  8
ZUWAKU
  6
CONTINUOUS
 62
     4
 10
243.0
 20
-351.9999999999999
 30
0.0
 11
243.0
 21
-259.9999999999999
 31
0.0
  0
LINE
  5
186
  8
ZUWAKU
  6
CONTINUOUS
 62
     4
 10
194.0
 20
-273.9999999999999
 30
0.0
 11
292.0
 21
-273.9999999999999
 31
0.0
  0
LINE
  5
187
  8
ZUWAKU
  6
CONTINUOUS
 62
     4
 10
194.0
 20
-287.9999999999999
 30
0.0
 11
292.0
 21
-287.9999999999999
 31
0.0
  0
LINE
  5
188
  8
ZUWAKU
  6
CONTINUOUS
 62
     4
 10
194.0
 20
-329.9999999999999
 30
0.0
 11
292.0
 21
-329.9999999999999
 31
0.0
  0
LINE
  5
189
  8
ZUWAKU
  6
CONTINUOUS
 62
     4
 10
194.0
 20
-343.9999999999999
 30
0.0
 11
292.0
 21
-343.9999999999999
 31
0.0
  0
LINE
  5
18A
  8
ZUWAKU
  6
CONTINUOUS
 62
     4
 10
510.0
 20
-331.9999999999999
 30
0.0
 11
554.0
 21
-331.9999999999999
 31
0.0
  0
LINE
  5
18B
  8
ZUWAKU
  6
CONTINUOUS
 62
     4
 10
306.0
 20
-278.9999999999999
 30
0.0
 11
306.0
 21
-259.9999999999999
 31
0.0
  0
LINE
  5
18C
  8
ZUWAKU
  6
CONTINUOUS
 62
     4
 10
404.0
 20
-295.9999999999999
 30
0.0
 11
404.0
 21
-292.9999999999999
 31
0.0
  0
LINE
  5
18D
  8
ZUWAKU
  6
CONTINUOUS
 62
     4
 10
452.0
 20
-295.9999999999999
 30
0.0
 11
452.0
 21
-292.9999999999999
 31
0.0
  0
LINE
  5
18E
  8
ZUWAKU
  6
CONTINUOUS
 62
     4
 10
486.0
 20
-295.9999999999999
 30
0.0
 11
486.0
 21
-292.9999999999999
 31
0.0
  0
LINE
  5
18F
  8
ZUWAKU
  6
CONTINUOUS
 62
     4
 10
404.0
 20
-278.9999999999999
 30
0.0
 11
404.0
 21
-259.9999999999999
 31
0.0
  0
LINE
  5
190
  8
ZUWAKU
  6
CONTINUOUS
 62
     4
 10
452.0
 20
-278.9999999999999
 30
0.0
 11
452.0
 21
-259.9999999999999
 31
0.0
  0
LINE
  5
191
  8
ZUWAKU
  6
CONTINUOUS
 62
     4
 10
486.0
 20
-278.9999999999999
 30
0.0
 11
486.0
 21
-259.9999999999999
 31
0.0
  0
LINE
  5
192
  8
ZUWAKU
  6
CONTINUOUS
 62
     4
 10
194.0
 20
-301.9999999999999
 30
0.0
 11
292.0
 21
-301.9999999999999
 31
0.0
  0
LINE
  5
193
  8
ZUWAKU
  6
CONTINUOUS
 62
     4
 10
194.0
 20
-315.9999999999999
 30
0.0
 11
292.0
 21
-315.9999999999999
 31
0.0
  0
LINE
  5
194
  8
ZUWAKU
  6
CONTINUOUS
 62
     4
 10
202.0
 20
-260.9999999999999
 30
0.0
 11
196.0
 21
-272.9999999999999
 31
0.0
  0
LINE
  5
195
  8
ZUWAKU
  6
CONTINUOUS
 62
     4
 10
202.0
 20
-260.9999999999999
 30
0.0
 11
208.0
 21
-272.9999999999999
 31
0.0
  0
LINE
  5
196
  8
ZUWAKU
  6
CONTINUOUS
 62
     4
 10
196.0
 20
-272.9999999999999
 30
0.0
 11
208.0
 21
-272.9999999999999
 31
0.0
  0
LINE
  5
197
  8
ZUWAKU
  6
CONTINUOUS
 62
     4
 10
202.0
 20
-316.9999999999999
 30
0.0
 11
196.0
 21
-328.9999999999999
 31
0.0
  0
LINE
  5
198
  8
ZUWAKU
  6
CONTINUOUS
 62
     4
 10
202.0
 20
-316.9999999999999
 30
0.0
 11
208.0
 21
-328.9999999999999
 31
0.0
  0
LINE
  5
199
  8
ZUWAKU
  6
CONTINUOUS
 62
     4
 10
196.0
 20
-328.9999999999999
 30
0.0
 11
208.0
 21
-328.9999999999999
 31
0.0
  0
LINE
  5
19A
  8
ZUWAKU
  6
CONTINUOUS
 62
     4
 10
202.0
 20
-302.9999999999999
 30
0.0
 11
196.0
 21
-314.9999999999999
 31
0.0
  0
LINE
  5
19B
  8
ZUWAKU
  6
CONTINUOUS
 62
     4
 10
202.0
 20
-302.9999999999999
 30
0.0
 11
208.0
 21
-314.9999999999999
 31
0.0
  0
LINE
  5
19C
  8
ZUWAKU
  6
CONTINUOUS
 62
     4
 10
196.0
 20
-314.9999999999999
 30
0.0
 11
208.0
 21
-314.9999999999999
 31
0.0
  0
LINE
  5
19D
  8
ZUWAKU
  6
CONTINUOUS
 62
     4
 10
202.0
 20
-288.9999999999999
 30
0.0
 11
196.0
 21
-300.9999999999999
 31
0.0
  0
LINE
  5
19E
  8
ZUWAKU
  6
CONTINUOUS
 62
     4
 10
202.0
 20
-288.9999999999999
 30
0.0
 11
208.0
 21
-300.9999999999999
 31
0.0
  0
LINE
  5
19F
  8
ZUWAKU
  6
CONTINUOUS
 62
     4
 10
196.0
 20
-300.9999999999999
 30
0.0
 11
208.0
 21
-300.9999999999999
 31
0.0
  0
LINE
  5
1A0
  8
ZUWAKU
  6
CONTINUOUS
 62
     4
 10
202.0
 20
-274.9999999999999
 30
0.0
 11
196.0
 21
-286.9999999999999
 31
0.0
  0
LINE
  5
1A1
  8
ZUWAKU
  6
CONTINUOUS
 62
     4
 10
202.0
 20
-274.9999999999999
 30
0.0
 11
208.0
 21
-286.9999999999999
 31
0.0
  0
LINE
  5
1A2
  8
ZUWAKU
  6
CONTINUOUS
 62
     4
 10
196.0
 20
-286.9999999999999
 30
0.0
 11
208.0
 21
-286.9999999999999
 31
0.0
  0
LINE
  5
1A3
  8
ZUWAKU
  6
CONTINUOUS
 62
     4
 10
345.3333333333333
 20
-351.9999999999999
 30
0.0
 11
345.3333333333333
 21
-323.9999999999999
 31
0.0
  0
LINE
  5
1A4
  8
ZUWAKU
  6
CONTINUOUS
 62
     4
 10
398.6666666666666
 20
-351.9999999999999
 30
0.0
 11
398.6666666666666
 21
-323.9018831514505
 31
0.0
  0
LINE
  5
1A5
  8
ZUWAKU
  6
CONTINUOUS
 62
     4
 10
425.3333333333333
 20
-334.9999999999999
 30
0.0
 11
425.3333333333333
 21
-323.9018831514505
 31
0.0
  0
LINE
  5
1A6
  8
ZUWAKU
  6
CONTINUOUS
 62
     4
 10
451.9999999999999
 20
-309.9999999999999
 30
0.0
 11
509.9999999999999
 21
-309.9999999999999
 31
0.0
  0
LINE
  5
1A7
  8
ZUWAKU
  6
CONTINUOUS
 62
     4
 10
292.0
 20
-331.9999999999999
 30
0.0
 11
451.9999999999999
 21
-331.9999999999999
 31
0.0
  0
TEXT
  5
1A9
  8
ZUWAKU
 62
     7
 10
296.6264602949494
 20
-261.6423774579119
 30
0.0
 40
5.3312
  1
符号
 41
0.8
  7
FDASTYLE0
  0
TEXT
  5
1AA
  8
ZUWAKU
 62
     7
 10
324.8282622438117
 20
-271.6491050039925
 30
0.0
 40
8.0
  1
品       名
 41
0.765957446808511
  7
FDASTYLE1
 72
     5
 11
382.4282622438117
 21
-271.6491050039925
 31
0.0
  0
TEXT
  5
1AB
  8
ZUWAKU
 62
     7
 10
414.4663128826192
 20
-271.6491050039925
 30
0.0
 40
8.0
  1
材  料
 41
0.7272727272727279
  7
FDASTYLE1
 72
     5
 11
440.0663128826192
 21
-271.6491050039925
 31
0.0
  0
TEXT
  5
1AC
  8
ZUWAKU
 62
     7
 10
459.03212336971
 20
-271.6491050039925
 30
0.0
 40
8.0
  1
個 数
 41
0.7058823529411761
  7
FDASTYLE1
 72
     5
 11
478.23212336971
 21
-271.6491050039925
 31
0.0
  0
TEXT
  5
1AD
  8
ZUWAKU
 62
     7
 10
491.443621905776
 20
-267.1298160101144
 30
0.0
 40
5.0
  1
単重量
 41
0.6666666666666666
  7
FDASTYLE1
 72
     5
 11
503.443621905776
 21
-267.1298160101144
 31
0.0
  0
TEXT
  5
1AE
  8
ZUWAKU
 62
     7
 10
489.4179032472719
 20
-274.7262609795049
 30
0.0
 40
5.0
  1
(kg)
 41
0.8
  7
FDASTYLE1
 72
     5
 11
505.4179032472719
 21
-274.7262609795049
 31
0.0
  0
TEXT
  5
1AF
  8
ZUWAKU
 62
     7
 10
518.2843941309557
 20
-271.6491050039925
 30
0.0
 40
8.0
  1
記  事
 41
0.7272727272727279
  7
FDASTYLE1
 72
     5
 11
543.8843941309557
 21
-271.6491050039925
 31
0.0
  0
TEXT
  5
1B0
  8
ZUWAKU
 62
     7
 10
517.6901589103291
 20
-330.9746083995458
 30
0.0
 40
6.0
  1
コード番号
 41
0.6666666666666666
  7
FDASTYLE1
 72
     5
 11
541.6901589103291
 21
-330.9746083995458
 31
0.0
  0
TEXT
  5
1B1
  8
ZUWAKU
 62
     7
 10
203.8239840316633
 20
-350.3758021080676
 30
0.0
 40
5.0
  1
訂 正 来 歴
 41
0.717948717948718
  7
FDASTYLE1
 72
     5
 11
231.8239840316633
 21
-350.3758021080676
 31
0.0
  0
TEXT
  5
1B2
  8
ZUWAKU
 62
     7
 10
251.7806696935299
 20
-350.4333394783303
 30
0.0
 40
5.0
  1
工 事 番 号
 41
0.717948717948718
  7
FDASTYLE1
 72
     5
 11
279.7806696935299
 21
-350.4333394783303
 31
0.0
  0
TEXT
  5
1B3
  8
ZUWAKU
 62
     7
 10
199.9296756932058
 20
-331.926906113183
 30
0.0
 40
4.165
  1
記号
 41
0.8
  7
FDASTYLE0
  0
TEXT
  5
1B4
  8
ZUWAKU
 62
     7
 10
211.8084498135237
 20
-331.926906113183
 30
0.0
 40
4.165
  1
理由
 41
0.8
  7
FDASTYLE0
  0
TEXT
  5
1B5
  8
ZUWAKU
 62
     7
 10
223.2387335819686
 20
-339.7572093400356
 30
0.0
 40
6.0
  1
日 付
 41
0.7058823529411754
  7
FDASTYLE1
 72
     5
 11
237.6387335819686
 21
-339.7572093400356
 31
0.0
  0
TEXT
  5
1B6
  8
ZUWAKU
 62
     7
 10
513.0948878217283
 20
-284.7050618140164
 30
0.0
 40
6.0
  1
標　準
 41
0.5833333333333345
  7
FDASTYLE1
 72
     5
 11
525.6948878217283
 21
-284.7050618140164
 31
0.0
  0
TEXT
  5
1B7
  8
ZUWAKU
 62
     7
 10
306.8963379639305
 20
-331.4375822928488
 30
0.0
 40
6.0
  1
承   認
 41
0.7407407407407408
  7
FDASTYLE1
 72
     5
 11
330.8963379639305
 21
-331.4375822928488
 31
0.0
  0
TEXT
  5
1B8
  8
ZUWAKU
 62
     7
 10
359.726456066468
 20
-330.9746083995458
 30
0.0
 40
6.0
  1
検   図
 41
0.7407407407407408
  7
FDASTYLE1
 72
     5
 11
383.726456066468
 21
-330.9746083995458
 31
0.0
  0
TEXT
  5
1B9
  8
ZUWAKU
 62
     7
 10
402.9543841967501
 20
-330.9746083995458
 30
0.0
 40
6.0
  1
担  当
 41
0.7272727272727269
  7
FDASTYLE1
 72
     5
 11
422.1543841967501
 21
-330.9746083995458
 31
0.0
  0
TEXT
  5
1BA
  8
ZUWAKU
 62
     7
 10
429.3541149682224
 20
-330.9746083995458
 30
0.0
 40
6.0
  1
製  図
 41
0.7272727272727269
  7
FDASTYLE1
 72
     5
 11
448.5541149682224
 21
-330.9746083995458
 31
0.0
  0
TEXT
  5
1BB
  8
ZUWAKU
 62
     7
 10
453.8924744608398
 20
-306.4369920544834
 30
0.0
 40
6.0
  1
作図
 41
0.6666666666666683
  7
FDASTYLE1
 72
     5
 11
463.4924744608398
 21
-306.4369920544834
 31
0.0
  0
TEXT
  5
1BC
  8
ZUWAKU
 62
     7
 10
456.2073439273551
 20
-320.4743132803631
 30
0.0
 40
8.0
  1
第 三 角 法
 41
0.7179487179487182
  7
FDASTYLE1
 72
     5
 11
501.0073439273551
 21
-320.4743132803631
 31
0.0
  0
TEXT
  5
1BD
  8
ZUWAKU
 62
     7
 10
454.818422247446
 20
-332.826503972758
 30
0.0
 40
6.0
  1
尺度
 41
0.6666666666666683
  7
FDASTYLE1
 72
     5
 11
464.418422247446
 21
-332.826503972758
 31
0.0
  0
TEXT
  5
1BF
  8
ZUWAKU
 62
     3
 10
210.7583087400681
 20
-371.8544154370033
 30
0.0
 40
14.0
  1
株式会社 野村製作所
 41
0.5763738641280831
  7
FDASTYLE2
 72
     5
 11
322.7583087400681
 21
-371.8544154370033
 31
0.0
  0
TEXT
  5
1C1
  8
ZUWAKU
 62
     3
 10
352.0845273336484
 20
-374.2433371169125
 30
0.0
 40
16.0
  1
２－
 41
0.8244023083264632
  7
FDASTYLE3
 72
     5
 11
384.0845273336484
 21
-374.2433371169125
 31
0.0
  0
TEXT
  5
1C2
  8
ZUWAKU
 62
     3
 10
385.908442582462
 20
-374.2433371169125
 30
0.0
 40
16.0
  1
9314022
 41
1.563197856185797
  7
FDASTYLE3
 72
     5
 11
497.908442582462
 21
-374.2433371169125
 31
0.0
  0
TEXT
  5
1C3
  8
ZUWAKU
 62
     6
 10
462.768624547992
 20
-290.2356392984342
 30
0.0
 40
8.0
  1
一式
 41
0.5833333333333328
  7
FDASTYLE1
 72
     5
 11
473.968624547992
 21
-290.2356392984342
 31
0.0
  0
TEXT
  5
1C4
  8
ZUWAKU
 62
     6
 10
327.4473600718466
 20
-290.204241348737
 30
0.0
 40
10.0
  1
外　形　図
 41
0.5833333333333334
  7
FDASTYLE1
 72
     5
 11
362.4473600718466
 21
-290.204241348737
 31
0.0
  0
TEXT
  5
1C5
  8
ZUWAKU
 62
     4
 10
478.6023577812798
 20
-344.594974878402
 30
0.0
 40
6.0
  1
1/2
 41
0.7000000000000013
  7
FDASTYLE1
 72
     5
 11
491.2023577812798
 21
-344.594974878402
 31
0.0
  0
TEXT
  5
1C6
  8
0
 62
     6
 10
306.4110294586656
 20
-308.2423833446773
 30
0.0
 40
10.0
  1
日鋼プレシジォン
 41
0.5833333333333334
  7
FDASTYLE1
 72
     5
 11
362.4110294586656
 21
-308.2423833446773
 31
0.0
  0
TEXT
  5
1C7
  8
0
 62
     6
 10
356.3385613081492
 20
-319.6814543941912
 30
0.0
 40
10.0
  1
ＧO2-14型チャック
 41
0.6311475409836066
  7
FDASTYLE1
 72
     5
 11
433.3385613081492
 21
-319.6814543941912
 31
0.0
  0
TEXT
  5
1C8
  8
0
 62
     6
 10
31.92304982955901
 20
-339.8319409058999
 30
0.0
 40
8.0
  1
外周ﾆﾃ  16 g以内
 41
0.7481753531516472
  7
FDASTYLE1
 72
     5
 11
125.6373380642697
 21
-339.8319409058999
 31
0.0
  0
TEXT
  5
1C9
  8
0
 62
     6
 10
89.40196218307463
 20
-323.6103832887124
 30
0.0
 40
8.0
  1
80 kg
 41
0.7674420691942423
  7
FDASTYLE1
 72
     5
 11
127.1162504177853
 21
-323.6103832887124
 31
0.0
  0
TEXT
  5
1CA
  8
0
 62
     6
 10
48.35145559127776
 20
-307.7198498414468
 30
0.0
 40
8.0
  1
 1.75 kg・m
 41
0.7780322189036011
  7
FDASTYLE1
 72
     5
 11
126.0657438259885
 21
-307.7198498414468
 31
0.0
  0
TEXT
  5
1CB
  8
0
 62
     6
 10
127.7800276499554
 20
-302.7198497222375
 30
0.0
 40
4.0
  1
2
 41
0.7142860293388367
  7
FDASTYLE1
 72
     5
 11
130.6371717673108
 21
-302.7198497222375
 31
0.0
  0
TEXT
  5
1CC
  8
0
 62
     6
 10
65.21147146041838
 20
-291.4982922242593
 30
0.0
 40
8.0
  1
1800 min
 41
0.7714287730626143
  7
FDASTYLE1
 72
     5
 11
126.9257596951291
 21
-291.4982922242593
 31
0.0
  0
TEXT
  5
1CD
  8
0
 62
     6
 10
128.6400435190961
 20
-286.49829210505
 30
0.0
 40
4.0
  1
-1
 41
0.75000024121258
  7
FDASTYLE1
 72
     5
 11
135.4971876364514
 21
-286.49829210505
 31
0.0
  0
TEXT
  5
1CE
  8
0
 62
     6
 10
72.49940481002776
 20
-275.6077587769937
 30
0.0
 40
8.0
  1
34.3 kN
 41
0.7704920065688554
  7
FDASTYLE1
 72
     5
 11
126.2136930447385
 21
-275.6077587769937
 31
0.0
  0
TEXT
  5
1CF
  8
0
 62
     6
 10
72.52095022018401
 20
-259.7172558473062
 30
0.0
 40
8.0
  1
26.7 kN
 41
0.7704920065688554
  7
FDASTYLE1
 72
     5
 11
126.2352384548947
 21
-259.7172558473062
 31
0.0
  0
TEXT
  5
1D0
  8
0
 62
     6
 10
88.46354665573088
 20
-243.2741406129312
 30
0.0
 40
8.0
  1
45 mm
 41
0.7674420691942423
  7
FDASTYLE1
 72
     5
 11
126.1778348904416
 21
-243.2741406129312
 31
0.0
  0
TEXT
  5
1D1
  8
0
 62
     6
 10
32.38462819869963
 20
-227.7146923707437
 30
0.0
 40
8.0
  1
(直径ﾆﾃ) 50 mm
 41
0.767790441367099
  7
FDASTYLE1
 72
     5
 11
126.0989164334103
 21
-227.7146923707437
 31
0.0
  0
TEXT
  5
1D2
  8
0
 62
     6
 10
-150.4324799555972
 20
-212.2653515504312
 30
0.0
 40
8.0
  1
仕 様
 41
0.7364342569567148
  7
FDASTYLE1
 72
     5
 11
-128.7181917208866
 21
-212.2653515504312
 31
0.0
  0
TEXT
  5
1D3
  8
0
 62
     6
 10
-150.4324799555972
 20
-228.2653515504312
 30
0.0
 40
8.0
  1
爪ﾉｽﾄﾛｰｸ
 41
0.7781458739383595
  7
FDASTYLE1
 72
     5
 11
-96.71819172088655
 21
-228.2653515504312
 31
0.0
  0
TEXT
  5
1D4
  8
0
 62
     6
 10
-150.4324799555972
 20
-244.2653515504312
 30
0.0
 40
8.0
  1
ピストンストローク
 41
0.6659390169707117
  7
FDASTYLE1
 72
     5
 11
-80.71819172088655
 21
-244.2653515504312
 31
0.0
  0
TEXT
  5
1D5
  8
0
 62
     6
 10
-150.4324799555972
 20
-260.265321032853
 30
0.0
 40
8.0
  1
許容シリンダ力
 41
0.663841963128279
  7
FDASTYLE1
 72
     5
 11
-96.71819172088655
 21
-260.265321032853
 31
0.0
  0
TEXT
  5
1D6
  8
0
 62
     6
 10
-150.4324799555972
 20
-276.265321032853
 30
0.0
 40
8.0
  1
最大静的把握力
 41
0.663841963128279
  7
FDASTYLE1
 72
     5
 11
-96.71819172088655
 21
-276.265321032853
 31
0.0
  0
TEXT
  5
1D7
  8
0
 62
     6
 10
-150.4324799555972
 20
-292.265321032853
 30
0.0
 40
8.0
  1
最高使用回転速度
 41
0.665024784134981
  7
FDASTYLE1
 72
     5
 11
-88.71819172088655
 21
-292.265321032853
 31
0.0
  0
TEXT
  5
1D8
  8
0
 62
     6
 10
-150.4324799555972
 20
-308.265321032853
 30
0.0
 40
8.0
  1
慣性モーメント
 41
0.663841963128279
  7
FDASTYLE1
 72
     5
 11
-96.71819172088655
 21
-308.265321032853
 31
0.0
  0
TEXT
  5
1D9
  8
0
 62
     6
 10
-150.4324799555972
 20
-324.265321032853
 30
0.0
 40
8.0
  1
質 量
 41
0.7364342569567148
  7
FDASTYLE1
 72
     5
 11
-128.7181917208866
 21
-324.265321032853
 31
0.0
  0
TEXT
  5
1DA
  8
0
 62
     6
 10
-150.4324799555972
 20
-340.265321032853
 30
0.0
 40
8.0
  1
アンバランス量
 41
0.663841963128279
  7
FDASTYLE1
 72
     5
 11
-96.71819172088655
 21
-340.265321032853
 31
0.0
  0
LINE
  5
1DB
  8
0
  6
CENTER
 62
     7
 10
-310.7880023514083
 20
98.50898989415002
 30
0.0
 11
-146.2180713211349
 21
98.50898989415002
 31
0.0
  0
LINE
  5
1DC
  8
0
  6
CENTER
 62
     7
 10
-191.2715533767989
 20
244.50898989415
 30
0.0
 11
-124.4613269363692
 21
244.50898989415
 31
0.0
  0
LINE
  5
1DD
  8
0
  6
CENTER
 62
     7
 10
-191.2715533767989
 20
199.50898989415
 30
0.0
 11
-124.751808503752
 21
199.50898989415
 31
0.0
  0
LINE
  5
1DE
  8
0
  6
CENTER
 62
     7
 10
-217.430763581877
 20
148.50898989415
 30
0.0
 11
-195.8654101883224
 21
148.50898989415
 31
0.0
  0
LINE
  5
1DF
  8
0
  6
CENTER
 62
     7
 10
-326.8508002440483
 20
-18.96601620936561
 30
0.0
 11
-248.7936328445724
 21
-18.96601620936561
 31
0.0
  0
LINE
  5
1E0
  8
0
  6
CENTER
 62
     7
 10
-194.1343888081088
 20
20.50898607945275
 30
0.0
 11
-158.6907110871511
 21
20.50898607945275
 31
0.0
  0
LINE
  5
1E1
  8
0
  6
CENTER
 62
     7
 10
249.7583233321856
 20
284.4169946548922
 30
0.0
 11
249.7583233321856
 21
127.9428466317379
 31
0.0
  0
LINE
  5
1E2
  8
0
  6
CENTER
 62
     7
 10
249.7583233321856
 20
111.2329919006818
 30
0.0
 11
249.7583233321856
 21
-85.05470029139691
 31
0.0
  0
LINE
  5
1E3
  8
0
  6
CONTINUOUS
 62
     3
 10
-162.474708894377
 20
270.5090051529391
 30
0.0
 11
-162.474708894377
 21
259.1363244888766
 31
0.0
  0
LINE
  5
1E4
  8
0
  6
CONTINUOUS
 62
     3
 10
-297.1747211014083
 20
273.5090051529391
 30
0.0
 11
-297.1747211014083
 21
-76.49101010584998
 31
0.0
  0
LINE
  5
1E5
  8
0
  6
CONTINUOUS
 62
     3
 10
-297.1747211014083
 20
258.5090051529391
 30
0.0
 11
-291.474708894377
 21
258.5090051529391
 31
0.0
  0
LINE
  5
1E6
  8
0
  6
CONTINUOUS
 62
     3
 10
-297.1747211014083
 20
-61.49101010584998
 30
0.0
 11
-291.474708894377
 21
-61.49101010584998
 31
0.0
  0
LINE
  5
1E7
  8
0
  6
CONTINUOUS
 62
     3
 10
-297.1747211014083
 20
273.5090051529391
 30
0.0
 11
-163.474708894377
 21
273.5090051529391
 31
0.0
  0
LINE
  5
1E8
  8
0
  6
CONTINUOUS
 62
     3
 10
-297.1747211014083
 20
-76.49101010584998
 30
0.0
 11
-165.4747546707442
 21
-76.49101010584998
 31
0.0
  0
LINE
  5
1E9
  8
0
  6
CONTINUOUS
 62
     3
 10
-291.474708894377
 20
258.50898989415
 30
0.0
 11
-291.474708894377
 21
-61.49101010584998
 31
0.0
  0
LINE
  5
1EA
  8
0
  6
CONTINUOUS
 62
     3
 10
-182.474708894377
 20
179.2897210953219
 30
0.0
 11
-182.474708894377
 21
154.2969842789157
 31
0.0
  0
LINE
  5
1EB
  8
0
  6
CONTINUOUS
 62
     3
 10
-209.474708894377
 20
180.50898989415
 30
0.0
 11
-163.474708894377
 21
180.50898989415
 31
0.0
  0
LINE
  5
1EC
  8
0
  6
CONTINUOUS
 62
     3
 10
-209.474708894377
 20
273.5090051529391
 30
0.0
 11
-209.474708894377
 21
166.00898989415
 31
0.0
  0
LINE
  5
1ED
  8
0
  6
CONTINUOUS
 62
     3
 10
-175.474708894377
 20
273.5090051529391
 30
0.0
 11
-175.474708894377
 21
258.50898989415
 31
0.0
  0
LINE
  5
1EE
  8
0
  6
CONTINUOUS
 62
     3
 10
-187.2747119461349
 20
273.5090051529391
 30
0.0
 11
-187.2747119461349
 21
180.50898989415
 31
0.0
  0
LINE
  5
1EF
  8
0
  6
CONTINUOUS
 62
     3
 10
-160.974708894377
 20
258.50898989415
 30
0.0
 11
-160.974708894377
 21
252.50898989415
 31
0.0
  0
LINE
  5
1F0
  8
0
  6
CONTINUOUS
 62
     3
 10
-186.474708894377
 20
258.5090051529391
 30
0.0
 11
-160.974708894377
 21
258.5090051529391
 31
0.0
  0
LINE
  5
1F1
  8
0
  6
CONTINUOUS
 62
     3
 10
-186.474708894377
 20
185.50898989415
 30
0.0
 11
-160.974708894377
 21
185.50898989415
 31
0.0
  0
LINE
  5
1F2
  8
0
  6
CONTINUOUS
 62
     3
 10
-160.974708894377
 20
236.50898989415
 30
0.0
 11
-160.974708894377
 21
207.50898989415
 31
0.0
  0
LINE
  5
1F3
  8
0
  6
CONTINUOUS
 62
     3
 10
-186.474708894377
 20
258.5090051529391
 30
0.0
 11
-186.474708894377
 21
185.50898989415
 31
0.0
  0
LINE
  5
1F4
  8
0
  6
CONTINUOUS
 62
     3
 10
-162.474708894377
 20
184.4539361832125
 30
0.0
 11
-162.474708894377
 21
-73.49096432948279
 31
0.0
  0
LINE
  5
1F5
  8
0
  6
CONTINUOUS
 62
     3
 10
-175.474708894377
 20
185.50898989415
 30
0.0
 11
-175.474708894377
 21
180.50898989415
 31
0.0
  0
LINE
  5
1F6
  8
0
  6
CONTINUOUS
 62
     3
 10
-186.474708894377
 20
191.50898989415
 30
0.0
 11
-147.474708894377
 21
191.50898989415
 31
0.0
  0
LINE
  5
1F7
  8
0
  6
CONTINUOUS
 62
     3
 10
-186.474708894377
 20
207.50898989415
 30
0.0
 11
-147.474708894377
 21
207.50898989415
 31
0.0
  0
LINE
  5
1F8
  8
0
  6
CONTINUOUS
 62
     3
 10
-186.474708894377
 20
252.50898989415
 30
0.0
 11
-147.474708894377
 21
252.50898989415
 31
0.0
  0
LINE
  5
1F9
  8
0
  6
CONTINUOUS
 62
     3
 10
-186.474708894377
 20
236.50898989415
 30
0.0
 11
-147.474708894377
 21
236.50898989415
 31
0.0
  0
LINE
  5
1FA
  8
0
  6
CONTINUOUS
 62
     3
 10
-147.474708894377
 20
232.50898989415
 30
0.0
 11
-131.474708894377
 21
232.50898989415
 31
0.0
  0
LINE
  5
1FB
  8
0
  6
CONTINUOUS
 62
     3
 10
-147.474708894377
 20
256.5090051529391
 30
0.0
 11
-131.474708894377
 21
256.5090051529391
 31
0.0
  0
LINE
  5
1FC
  8
0
  6
CONTINUOUS
 62
     3
 10
-147.474708894377
 20
187.50898989415
 30
0.0
 11
-131.474708894377
 21
187.50898989415
 31
0.0
  0
LINE
  5
1FD
  8
0
  6
CONTINUOUS
 62
     3
 10
-147.474708894377
 20
211.50898989415
 30
0.0
 11
-131.474708894377
 21
211.50898989415
 31
0.0
  0
LINE
  5
1FE
  8
0
  6
CONTINUOUS
 62
     3
 10
-147.474708894377
 20
256.50898989415
 30
0.0
 11
-147.474708894377
 21
232.50898989415
 31
0.0
  0
LINE
  5
1FF
  8
0
  6
CONTINUOUS
 62
     3
 10
-182.474708894377
 20
252.50898989415
 30
0.0
 11
-182.474708894377
 21
236.50898989415
 31
0.0
  0
LINE
  5
200
  8
0
  6
CONTINUOUS
 62
     3
 10
-131.474708894377
 20
256.50898989415
 30
0.0
 11
-131.474708894377
 21
232.50898989415
 31
0.0
  0
LINE
  5
201
  8
0
  6
CONTINUOUS
 62
     3
 10
-182.474708894377
 20
207.50898989415
 30
0.0
 11
-182.474708894377
 21
191.50898989415
 31
0.0
  0
LINE
  5
202
  8
0
  6
CONTINUOUS
 62
     3
 10
-147.474708894377
 20
211.50898989415
 30
0.0
 11
-147.474708894377
 21
187.50898989415
 31
0.0
  0
LINE
  5
203
  8
0
  6
CONTINUOUS
 62
     3
 10
-131.474708894377
 20
211.50898989415
 30
0.0
 11
-131.474708894377
 21
187.50898989415
 31
0.0
  0
LINE
  5
204
  8
0
  6
CONTINUOUS
 62
     3
 10
-160.974708894377
 20
191.50898989415
 30
0.0
 11
-160.974708894377
 21
185.50898989415
 31
0.0
  0
LINE
  5
205
  8
0
  6
CONTINUOUS
 62
     3
 10
-273.1122821365645
 20
165.00898989415
 30
0.0
 11
-273.1122821365645
 21
32.00898607945275
 31
0.0
  0
LINE
  5
206
  8
0
  6
CONTINUOUS
 62
     3
 10
-198.1122821365645
 20
165.00898989415
 30
0.0
 11
-198.1122821365645
 21
32.00898607945275
 31
0.0
  0
LINE
  5
207
  8
0
  6
CONTINUOUS
 62
     3
 10
-291.474708894377
 20
166.00898989415
 30
0.0
 11
-199.1122668777755
 21
166.00898989415
 31
0.0
  0
LINE
  5
208
  8
0
  6
CONTINUOUS
 62
     3
 10
-272.1122821365645
 20
53.25898607945275
 30
0.0
 11
-237.1122821365645
 21
53.25898607945275
 31
0.0
  0
LINE
  5
209
  8
0
  6
CONTINUOUS
 62
     3
 10
-272.1122821365645
 20
143.75898989415
 30
0.0
 11
-237.1122821365645
 21
143.75898989415
 31
0.0
  0
LINE
  5
20A
  8
0
  6
CONTINUOUS
 62
     3
 10
-236.1122821365645
 20
43.95898684239221
 30
0.0
 11
-216.1122821365645
 21
43.95898684239221
 31
0.0
  0
LINE
  5
20B
  8
0
  6
CONTINUOUS
 62
     3
 10
-236.1122821365645
 20
153.0589929459079
 30
0.0
 11
-216.1122821365645
 21
153.0589929459079
 31
0.0
  0
LINE
  5
20C
  8
0
  6
CONTINUOUS
 62
     3
 10
-216.1122821365645
 20
155.00898989415
 30
0.0
 11
-214.1122821365645
 21
155.00898989415
 31
0.0
  0
LINE
  5
20D
  8
0
  6
CONTINUOUS
 62
     3
 10
-216.1122821365645
 20
42.00898607945275
 30
0.0
 11
-214.1122821365645
 21
42.00898607945275
 31
0.0
  0
LINE
  5
20E
  8
0
  6
CONTINUOUS
 62
     3
 10
-236.1122821365645
 20
153.0589929459079
 30
0.0
 11
-236.1122821365645
 21
43.95898684239221
 31
0.0
  0
LINE
  5
20F
  8
0
  6
CONTINUOUS
 62
     3
 10
-216.1122821365645
 20
155.00898989415
 30
0.0
 11
-216.1122821365645
 21
42.00898607945275
 31
0.0
  0
LINE
  5
210
  8
0
  6
CONTINUOUS
 62
     3
 10
-200.1122821365645
 20
42.00898607945275
 30
0.0
 11
-198.1122821365645
 21
42.00898607945275
 31
0.0
  0
LINE
  5
211
  8
0
  6
CONTINUOUS
 62
     3
 10
-200.1122821365645
 20
155.00898989415
 30
0.0
 11
-198.1122821365645
 21
155.00898989415
 31
0.0
  0
LINE
  5
212
  8
0
  6
CONTINUOUS
 62
     3
 10
-214.1122821365645
 20
42.50898607945275
 30
0.0
 11
-200.1122821365645
 21
42.50898607945275
 31
0.0
  0
LINE
  5
213
  8
0
  6
CONTINUOUS
 62
     3
 10
-214.1122821365645
 20
154.50898989415
 30
0.0
 11
-200.1122821365645
 21
154.50898989415
 31
0.0
  0
LINE
  5
214
  8
0
  6
CONTINUOUS
 62
     3
 10
-237.1122821365645
 20
143.75898989415
 30
0.0
 11
-237.1122821365645
 21
130.50898989415
 31
0.0
  0
LINE
  5
215
  8
0
  6
CONTINUOUS
 62
     3
 10
-272.1122821365645
 20
143.75898989415
 30
0.0
 11
-272.1122821365645
 21
130.50898989415
 31
0.0
  0
LINE
  5
216
  8
0
  6
CONTINUOUS
 62
     3
 10
-237.1122821365645
 20
66.50898607945275
 30
0.0
 11
-237.1122821365645
 21
53.25898607945275
 31
0.0
  0
LINE
  5
217
  8
0
  6
CONTINUOUS
 62
     3
 10
-272.1122821365645
 20
66.50898607945275
 30
0.0
 11
-272.1122821365645
 21
53.25898607945275
 31
0.0
  0
LINE
  5
218
  8
0
  6
CONTINUOUS
 62
     3
 10
-199.1122640068656
 20
166.008997056416
 30
0.0
 11
-198.1122629452761
 21
165.0089959948265
 31
0.0
  0
LINE
  5
219
  8
0
  6
CONTINUOUS
 62
     3
 10
-198.1122548530814
 20
32.00894921236197
 30
0.0
 11
-199.1122559146709
 21
31.00894815077247
 31
0.0
  0
LINE
  5
21A
  8
0
  6
CONTINUOUS
 62
     3
 10
-273.1122373659566
 20
32.00900316032714
 30
0.0
 11
-272.1122363043671
 21
31.00900209873764
 31
0.0
  0
LINE
  5
21B
  8
0
  6
CONTINUOUS
 62
     3
 10
-273.1121942075845
 20
165.008906980684
 30
0.0
 11
-272.112193145995
 21
166.0089080422735
 31
0.0
  0
LINE
  5
21C
  8
0
  6
CONTINUOUS
 62
     3
 10
-272.1123555656311
 20
143.7589613681116
 30
0.0
 11
-273.1123744131044
 21
144.758987886485
 31
0.0
  0
LINE
  5
21D
  8
0
  6
CONTINUOUS
 62
     3
 10
-237.1121986925775
 20
143.7589258685516
 30
0.0
 11
-236.1121992325845
 21
144.7589177421446
 31
0.0
  0
LINE
  5
21E
  8
0
  6
CONTINUOUS
 62
     3
 10
-237.1121345945687
 20
53.25915433994798
 30
0.0
 11
-236.1121315942221
 21
52.25915513282182
 31
0.0
  0
LINE
  5
21F
  8
0
  6
CONTINUOUS
 62
     3
 10
-272.112212288703
 20
53.25890860806105
 30
0.0
 11
-273.1122171435129
 21
52.25891133969201
 31
0.0
  0
LINE
  5
220
  8
0
  6
CONTINUOUS
 62
     3
 10
-214.1122821365645
 20
155.00898989415
 30
0.0
 11
-214.1122821365645
 21
42.00898607945275
 31
0.0
  0
LINE
  5
221
  8
0
  6
CONTINUOUS
 62
     3
 10
-200.1122821365645
 20
155.00898989415
 30
0.0
 11
-200.1122821365645
 21
42.00898607945275
 31
0.0
  0
LINE
  5
222
  8
0
  6
CONTINUOUS
 62
     3
 10
-214.1122821365645
 20
53.25898607945275
 30
0.0
 11
-200.1122821365645
 21
53.25898607945275
 31
0.0
  0
LINE
  5
223
  8
0
  6
CONTINUOUS
 62
     3
 10
-214.1122821365645
 20
143.75898989415
 30
0.0
 11
-200.1122821365645
 21
143.75898989415
 31
0.0
  0
LINE
  5
224
  8
0
  6
CONTINUOUS
 62
     3
 10
-291.474708894377
 20
31.00898607945275
 30
0.0
 11
-164.974708894377
 21
31.00898607945275
 31
0.0
  0
LINE
  5
225
  8
0
  6
CONTINUOUS
 62
     3
 10
-164.974708894377
 20
28.50898607945275
 30
0.0
 11
-162.474708894377
 21
28.50898607945275
 31
0.0
  0
LINE
  5
226
  8
0
  6
CONTINUOUS
 62
     3
 10
-164.974708894377
 20
163.7959924576266
 30
0.0
 11
-164.974708894377
 21
28.50898607945275
 31
0.0
  0
LINE
  5
227
  8
0
  6
CONTINUOUS
 62
     3
 10
-164.974708894377
 20
163.7959924576266
 30
0.0
 11
-162.474708894377
 21
163.7959924576266
 31
0.0
  0
LINE
  5
228
  8
0
  6
CONTINUOUS
 62
     3
 10
-182.474708894377
 20
161.1079889175875
 30
0.0
 11
-164.974708894377
 21
161.1079889175875
 31
0.0
  0
LINE
  5
229
  8
0
  6
CONTINUOUS
 62
     3
 10
-196.595543244963
 20
154.2969842789157
 30
0.0
 11
-182.474708894377
 21
154.2969842789157
 31
0.0
  0
LINE
  5
22A
  8
0
  6
CONTINUOUS
 62
     3
 10
-188.474708894377
 20
24.8089853165133
 30
0.0
 11
-188.474708894377
 21
16.20898684239221
 31
0.0
  0
LINE
  5
22B
  8
0
  6
CONTINUOUS
 62
     3
 10
-188.474708894377
 20
24.8089853165133
 30
0.0
 11
-162.474708894377
 21
24.8089853165133
 31
0.0
  0
LINE
  5
22C
  8
0
  6
CONTINUOUS
 62
     3
 10
-188.474708894377
 20
16.20898684239221
 30
0.0
 11
-162.474708894377
 21
16.20898684239221
 31
0.0
  0
LINE
  5
22D
  8
0
  6
CONTINUOUS
 62
     3
 10
-190.9573614585177
 20
20.50898762016543
 30
0.0
 11
-188.4747599967971
 21
16.20899634329673
 31
0.0
  0
LINE
  5
22E
  8
0
  6
CONTINUOUS
 62
     3
 10
-190.9573930849213
 20
20.50900004298767
 30
0.0
 11
-188.4747878085029
 21
24.80899792710572
 31
0.0
  0
LINE
  5
22F
  8
0
  6
CONTINUOUS
 62
     3
 10
-163.4746940754305
 20
271.5090955671171
 30
0.0
 11
-162.474693013841
 21
270.5090945055276
 31
0.0
  0
LINE
  5
230
  8
0
  6
CONTINUOUS
 62
     3
 10
-165.4747555413712
 20
-76.49099873140683
 30
0.0
 11
-162.4747199878236
 21
-73.49096317785923
 31
0.0
  0
LINE
  5
231
  8
0
  6
CONTINUOUS
 62
     3
 10
-214.1122821365645
 20
145.50898989415
 30
0.0
 11
-200.1122821365645
 21
145.50898989415
 31
0.0
  0
LINE
  5
232
  8
0
  6
CONTINUOUS
 62
     3
 10
-214.1122821365645
 20
151.50898989415
 30
0.0
 11
-200.1122821365645
 21
151.50898989415
 31
0.0
  0
LINE
  5
233
  8
0
  6
CONTINUOUS
 62
     3
 10
-208.1122821365645
 20
151.50898989415
 30
0.0
 11
-208.1122821365645
 21
145.50898989415
 31
0.0
  0
LINE
  5
234
  8
0
  6
CONTINUOUS
 62
     3
 10
-202.1122821365645
 20
151.50898989415
 30
0.0
 11
-202.1122821365645
 21
145.50898989415
 31
0.0
  0
CIRCLE
  5
235
  8
0
  6
CONTINUOUS
 62
     3
 10
132.2833477462481
 20
98.50898989415002
 30
0.0
 40
10.5
  0
CIRCLE
  5
236
  8
0
  6
CONTINUOUS
 62
     3
 10
132.2833477462481
 20
98.50898989415002
 30
0.0
 40
16.0
  0
ARC
  5
237
  8
0
  6
CONTINUOUS
 62
     3
 10
249.7583233321856
 20
98.50898989415002
 30
0.0
 40
172.0
 50
98.35749710498664
 51
261.642471931791
  0
ARC
  5
238
  8
0
  6
CONTINUOUS
 62
     3
 10
249.7583233321856
 20
98.50898989415002
 30
0.0
 40
175.0
 50
98.21322984933764
 51
261.7867528478184
  0
LINE
  5
239
  8
0
  6
CONTINUOUS
 62
     3
 10
224.7583233321856
 20
273.50898989415
 30
0.0
 11
274.7583233321856
 21
273.50898989415
 31
0.0
  0
LINE
  5
23A
  8
0
  6
CONTINUOUS
 62
     3
 10
224.7583233321856
 20
273.50898989415
 30
0.0
 11
224.7583233321856
 21
161.2086664078219
 31
0.0
  0
LINE
  5
23B
  8
0
  6
CONTINUOUS
 62
     3
 10
274.7583233321856
 20
273.50898989415
 30
0.0
 11
274.7583233321856
 21
161.2086664078219
 31
0.0
  0
LINE
  5
23C
  8
0
  6
CONTINUOUS
 62
     3
 10
287.7583233321856
 20
271.216738307236
 30
0.0
 11
287.7583233321856
 21
269.3334680435641
 31
0.0
  0
LINE
  5
23D
  8
0
  6
CONTINUOUS
 62
     3
 10
211.7583233321856
 20
271.216738307236
 30
0.0
 11
211.7583233321856
 21
269.3334680435641
 31
0.0
  0
LINE
  5
23E
  8
0
  6
CONTINUOUS
 62
     3
 10
211.7582903943348
 20
271.2167168178698
 30
0.0
 11
224.7583054192746
 21
273.5089702826139
 31
0.0
  0
LINE
  5
23F
  8
0
  6
CONTINUOUS
 62
     3
 10
274.7583186143256
 20
273.5089423874983
 30
0.0
 11
287.7583336392654
 21
271.2166889227541
 31
0.0
  0
LINE
  5
240
  8
0
  6
CONTINUOUS
 62
     3
 10
224.7583233321856
 20
180.50898989415
 30
0.0
 11
274.7583233321856
 21
180.50898989415
 31
0.0
  0
LINE
  5
241
  8
0
  6
CONTINUOUS
 62
     3
 10
239.2583233321856
 20
273.50898989415
 30
0.0
 11
239.2583233321856
 21
250.3184686539157
 31
0.0
  0
LINE
  5
242
  8
0
  6
CONTINUOUS
 62
     3
 10
260.2583233321856
 20
273.50898989415
 30
0.0
 11
260.2583233321856
 21
250.3184686539157
 31
0.0
  0
LINE
  5
243
  8
0
  6
CONTINUOUS
 62
     3
 10
239.2583233321856
 20
185.50898989415
 30
0.0
 11
260.2583233321856
 21
185.50898989415
 31
0.0
  0
LINE
  5
244
  8
0
  6
CONTINUOUS
 62
     3
 10
239.2583233321856
 20
258.50898989415
 30
0.0
 11
260.2583233321856
 21
258.50898989415
 31
0.0
  0
LINE
  5
245
  8
0
  6
CONTINUOUS
 62
     3
 10
239.2583233321856
 20
193.6995111343844
 30
0.0
 11
239.2583233321856
 21
180.50898989415
 31
0.0
  0
LINE
  5
246
  8
0
  6
CONTINUOUS
 62
     3
 10
239.2583233321856
 20
238.6995111343844
 30
0.0
 11
239.2583233321856
 21
205.3184686539157
 31
0.0
  0
LINE
  5
247
  8
0
  6
CONTINUOUS
 62
     3
 10
260.2583233321856
 20
238.6995111343844
 30
0.0
 11
260.2583233321856
 21
205.3184686539157
 31
0.0
  0
LINE
  5
248
  8
0
  6
CONTINUOUS
 62
     3
 10
260.2583233321856
 20
193.6995111343844
 30
0.0
 11
260.2583233321856
 21
180.50898989415
 31
0.0
  0
LINE
  5
249
  8
0
  6
CONTINUOUS
 62
     3
 10
224.7583233321856
 20
-76.49102536463904
 30
0.0
 11
274.7583233321856
 21
-76.49102536463904
 31
0.0
  0
LINE
  5
24A
  8
0
  6
CONTINUOUS
 62
     3
 10
224.7583233321856
 20
35.80931338047814
 30
0.0
 11
224.7583233321856
 21
-76.49101010584998
 31
0.0
  0
LINE
  5
24B
  8
0
  6
CONTINUOUS
 62
     3
 10
274.7583233321856
 20
35.80931338047814
 30
0.0
 11
274.7583233321856
 21
-76.49101010584998
 31
0.0
  0
LINE
  5
24C
  8
0
  6
CONTINUOUS
 62
     3
 10
287.7583233321856
 20
-72.31548825526404
 30
0.0
 11
287.7583233321856
 21
-74.19875851893592
 31
0.0
  0
LINE
  5
24D
  8
0
  6
CONTINUOUS
 62
     3
 10
211.7583233321856
 20
-72.31548825526404
 30
0.0
 11
211.7583233321856
 21
-74.19875851893592
 31
0.0
  0
LINE
  5
24E
  8
0
  6
CONTINUOUS
 62
     3
 10
211.7583368260538
 20
-74.1987451208275
 30
0.0
 11
224.7583518509936
 21
-76.49099858557163
 31
0.0
  0
LINE
  5
24F
  8
0
  6
CONTINUOUS
 62
     3
 10
274.7582774819284
 20
-76.49100074440283
 30
0.0
 11
287.7582925068681
 21
-74.19874727965869
 31
0.0
  0
LINE
  5
250
  8
0
  6
CONTINUOUS
 62
     3
 10
224.7583233321856
 20
16.50898989415002
 30
0.0
 11
274.7583233321856
 21
16.50898989415002
 31
0.0
  0
LINE
  5
251
  8
0
  6
CONTINUOUS
 62
     3
 10
260.2583233321856
 20
16.50898989415002
 30
0.0
 11
260.2583233321856
 21
3.318468653915645
 31
0.0
  0
LINE
  5
252
  8
0
  6
CONTINUOUS
 62
     3
 10
239.2583233321856
 20
16.50898989415002
 30
0.0
 11
239.2583233321856
 21
3.318468653915645
 31
0.0
  0
LINE
  5
253
  8
0
  6
CONTINUOUS
 62
     3
 10
239.2583233321856
 20
11.50898989415002
 30
0.0
 11
260.2583233321856
 21
11.50898989415002
 31
0.0
  0
LINE
  5
254
  8
0
  6
CONTINUOUS
 62
     3
 10
239.2583233321856
 20
-61.49102536463904
 30
0.0
 11
260.2583233321856
 21
-61.49102536463904
 31
0.0
  0
LINE
  5
255
  8
0
  6
CONTINUOUS
 62
     3
 10
239.2583233321856
 20
-53.30048886561561
 30
0.0
 11
239.2583233321856
 21
-76.49101010584998
 31
0.0
  0
LINE
  5
256
  8
0
  6
CONTINUOUS
 62
     3
 10
260.2583233321856
 20
-53.30048886561561
 30
0.0
 11
260.2583233321856
 21
-76.49101010584998
 31
0.0
  0
LINE
  5
257
  8
0
  6
CONTINUOUS
 62
     3
 10
260.2583233321856
 20
-8.300488865615606
 30
0.0
 11
260.2583233321856
 21
-41.68153134608436
 31
0.0
  0
LINE
  5
258
  8
0
  6
CONTINUOUS
 62
     3
 10
239.2583233321856
 20
-8.300488865615606
 30
0.0
 11
239.2583233321856
 21
-41.68153134608436
 31
0.0
  0
ARC
  5
259
  8
0
  6
CONTINUOUS
 62
     3
 10
249.7583233321856
 20
98.50898989415002
 30
0.0
 40
175.0
 50
278.2132111800029
 51
441.7867888199971
  0
CIRCLE
  5
25A
  8
0
  6
CONTINUOUS
 62
     3
 10
191.0208355392169
 20
200.24531801915
 30
0.0
 40
10.5
  0
CIRCLE
  5
25B
  8
0
  6
CONTINUOUS
 62
     3
 10
308.4958721603106
 20
-3.227353489639043
 30
0.0
 40
10.5
  0
CIRCLE
  5
25C
  8
0
  6
CONTINUOUS
 62
     3
 10
367.2332989181231
 20
98.50898989415002
 30
0.0
 40
10.5
  0
CIRCLE
  5
25D
  8
0
  6
CONTINUOUS
 62
     3
 10
308.4958721603106
 20
200.24531801915
 30
0.0
 40
10.5
  0
CIRCLE
  5
25E
  8
0
  6
CONTINUOUS
 62
     3
 10
191.0208355392169
 20
-3.227353489639043
 30
0.0
 40
16.0
  0
CIRCLE
  5
25F
  8
0
  6
CONTINUOUS
 62
     3
 10
308.4958721603106
 20
-3.227353489639043
 30
0.0
 40
16.0
  0
CIRCLE
  5
260
  8
0
  6
CONTINUOUS
 62
     3
 10
367.2332989181231
 20
98.50898989415002
 30
0.0
 40
16.0
  0
ARC
  5
261
  8
0
  6
CONTINUOUS
 62
     3
 10
249.7583233321856
 20
98.50898989415002
 30
0.0
 40
70.0
 50
110.9248539325133
 51
249.075142425021
  0
CIRCLE
  5
262
  8
0
  6
CONTINUOUS
 62
     3
 10
249.7583233321856
 20
98.50898989415002
 30
0.0
 40
45.25
  0
CIRCLE
  5
263
  8
0
  6
CONTINUOUS
 62
     3
 10
249.7583233321856
 20
98.50898989415002
 30
0.0
 40
56.0
  0
CIRCLE
  5
264
  8
0
  6
CONTINUOUS
 62
     3
 10
299.7583233321856
 20
98.50898989415002
 30
0.0
 40
3.099999904632568
  0
CIRCLE
  5
265
  8
0
  6
CONTINUOUS
 62
     3
 10
199.7583233321856
 20
98.50898989415002
 30
0.0
 40
3.099999904632568
  0
CIRCLE
  5
266
  8
0
  6
CONTINUOUS
 62
     3
 10
249.7583233321856
 20
98.50898989415002
 30
0.0
 40
67.5
  0
ARC
  5
267
  8
0
  6
CONTINUOUS
 62
     3
 10
249.7583233321856
 20
98.50898989415002
 30
0.0
 40
70.0
 50
290.9248352631787
 51
429.0751647368213
  0
CIRCLE
  5
268
  8
0
  6
CONTINUOUS
 62
     3
 10
191.0208965743731
 20
200.2453790543063
 30
0.0
 40
16.0
  0
CIRCLE
  5
269
  8
0
  6
CONTINUOUS
 62
     3
 10
308.4958721603106
 20
200.2452875015719
 30
0.0
 40
16.0
  0
CIRCLE
  5
26A
  8
0
  6
CONTINUOUS
 62
     3
 10
182.2083965743731
 20
137.5090432999118
 30
0.0
 40
4.0
  0
CIRCLE
  5
26B
  8
0
  6
CONTINUOUS
 62
     3
 10
317.3083721603106
 20
137.5089441177829
 30
0.0
 40
4.0
  0
ARC
  5
26C
  8
0
  6
CONTINUOUS
 62
     3
 10
249.7583233321856
 20
98.50898989415002
 30
0.0
 40
172.0
 50
278.357478435652
 51
441.642521564348
  0
CIRCLE
  5
26D
  8
0
  6
CONTINUOUS
 62
     3
 10
182.2083355392169
 20
59.50898989415002
 30
0.0
 40
4.0
  0
CIRCLE
  5
26E
  8
0
  6
CONTINUOUS
 62
     3
 10
317.3083111251544
 20
59.50900515293908
 30
0.0
 40
4.0
  0
CIRCLE
  5
26F
  8
0
  6
CONTINUOUS
 62
     3
 10
249.7583233321856
 20
148.50898989415
 30
0.0
 40
3.0
  0
CIRCLE
  5
270
  8
0
  6
CONTINUOUS
 62
     3
 10
206.4570538009356
 20
73.50898989415002
 30
0.0
 40
3.0
  0
CIRCLE
  5
271
  8
0
  6
CONTINUOUS
 62
     3
 10
293.0595928634356
 20
73.50898989415002
 30
0.0
 40
3.0
  0
LINE
  5
272
  8
0
  6
CENTER
 62
     7
 10
60.18573727261514
 20
98.50898989415002
 30
0.0
 11
439.8043133224198
 21
98.50898989415002
 31
0.0
  0
LINE
  5
273
  8
0
  6
CENTER
 62
     7
 10
-241.474708894377
 20
-40.61528009010685
 30
0.0
 11
-241.474708894377
 21
-80.95363278784045
 31
0.0
  0
LINE
  5
274
  8
0
  6
CENTER
 62
     7
 10
135.0063702071856
 20
226.00898989415
 30
0.0
 11
179.9618145431231
 21
226.00898989415
 31
0.0
  0
ARC
  5
275
  8
0
  6
CENTER
 62
     7
 10
249.7583233321856
 20
98.50898989415002
 30
0.0
 40
117.4749984741211
 50
168.7014377820295
 51
191.235693514384
  0
LINE
  5
276
  8
0
  6
CENTER
 62
     7
 10
179.5209139691805
 20
-23.14600186992955
 30
0.0
 11
202.5209167109942
 21
16.69116598914791
 31
0.0
  0
LINE
  5
277
  8
0
  6
CENTER
 62
     7
 10
179.5209511505936
 20
220.1639358957413
 30
0.0
 11
202.5209538924073
 21
180.3267680366639
 31
0.0
  0
LINE
  5
278
  8
0
  6
CENTER
 62
     7
 10
296.9959712582212
 20
16.69126035696301
 30
0.0
 11
319.9959740000349
 21
-23.14590750211444
 31
0.0
  0
LINE
  5
279
  8
0
  6
CENTER
 62
     7
 10
309.4124324995439
 20
132.9502226023419
 30
0.0
 11
327.2328195485108
 21
143.2388267254214
 31
0.0
  0
LINE
  5
27A
  8
0
  6
CENTER
 62
     7
 10
296.9959340768082
 20
180.3266736688487
 30
0.0
 11
319.1642716804171
 21
218.7233554512454
 31
0.0
  0
LINE
  5
27B
  8
0
  6
CENTER
 62
     7
 10
199.7583233321856
 20
104.8519311783297
 30
0.0
 11
199.7583233321856
 21
91.2173105118258
 31
0.0
  0
LINE
  5
27C
  8
0
  6
CENTER
 62
     7
 10
299.7583233321856
 20
104.4723001358492
 30
0.0
 11
299.7583233321856
 21
90.85547121739221
 31
0.0
  0
LINE
  5
27D
  8
0
  6
CENTER
 62
     7
 10
171.9305755060861
 20
53.57504422800268
 30
0.0
 11
190.2212930259349
 21
64.13519374505306
 31
0.0
  0
LINE
  5
27E
  8
0
  6
CENTER
 62
     7
 10
309.2756483974412
 20
64.14668116462273
 30
0.0
 11
327.2413949423539
 21
53.77415370670171
 31
0.0
  0
LINE
  5
27F
  8
0
  6
CENTER
 62
     7
 10
172.3670821743594
 20
143.190975710921
 30
0.0
 11
189.8586924724963
 21
133.0921909124649
 31
0.0
  0
LINE
  5
280
  8
0
  6
CENTER
 62
     7
 10
231.9711529220294
 20
244.50898989415
 30
0.0
 11
267.6563946212481
 21
244.50898989415
 31
0.0
  0
LINE
  5
281
  8
0
  6
CENTER
 62
     7
 10
231.5915142501544
 20
199.50898989415
 30
0.0
 11
268.0360332931231
 21
199.50898989415
 31
0.0
  0
LINE
  5
282
  8
0
  6
CENTER
 62
     7
 10
232.0114971603106
 20
-47.49101010584998
 30
0.0
 11
267.5143047774981
 21
-47.49101010584998
 31
0.0
  0
LINE
  5
283
  8
0
  6
CENTER
 62
     7
 10
232.0114971603106
 20
-2.491010105849981
 30
0.0
 11
267.5143047774981
 21
-2.491010105849981
 31
0.0
  0
LINE
  5
284
  8
0
  6
CENTER
 62
     7
 10
202.233554236215
 20
71.07052808015662
 30
0.0
 11
210.3329060633138
 21
75.74669052116217
 31
0.0
  0
LINE
  5
285
  8
0
  6
CENTER
 62
     7
 10
244.9678417648028
 20
148.50898989415
 30
0.0
 11
254.4292828048419
 21
148.50898989415
 31
0.0
  0
LINE
  5
286
  8
0
  6
CENTER
 62
     7
 10
208.8522974571978
 20
69.36030551855394
 30
0.0
 11
204.1215693077838
 21
77.55416688307007
 31
0.0
  0
LINE
  5
287
  8
0
  6
CENTER
 62
     7
 10
295.4548395594429
 20
77.65767625130904
 30
0.0
 11
290.7241114100288
 21
69.46381488679292
 31
0.0
  0
LINE
  5
288
  8
0
  6
CENTER
 62
     7
 10
297.2830970877457
 20
71.07053026858414
 30
0.0
 11
289.1837584751465
 21
75.7466850801956
 31
0.0
  0
ARC
  5
289
  8
0
  6
CENTER
 62
     7
 10
249.7583233321856
 20
98.50898989415002
 30
0.0
 40
117.4749984741211
 50
0.0
 51
11.2145866359869
  0
ARC
  5
28A
  8
0
  6
CENTER
 62
     7
 10
249.7583233321856
 20
98.50898989415002
 30
0.0
 40
78.0
 50
202.5467363092009
 51
217.4299234163338
  0
ARC
  5
28B
  8
0
  6
CENTER
 62
     7
 10
249.7583233321856
 20
98.50898989415002
 30
0.0
 40
117.4749984741211
 50
48.76424486233275
 51
71.23569017507977
  0
ARC
  5
28C
  8
0
  6
CENTER
 62
     7
 10
249.7583233321856
 20
98.50898989415002
 30
0.0
 40
117.4749984741211
 50
108.7642397017957
 51
131.2356918447319
  0
ARC
  5
28D
  8
0
  6
CENTER
 62
     7
 10
249.7583233321856
 20
98.50898989415002
 30
0.0
 40
117.4749984741211
 50
228.7642535137548
 51
251.235705656691
  0
ARC
  5
28E
  8
0
  6
CENTER
 62
     7
 10
249.7583233321856
 20
98.50898989415002
 30
0.0
 40
117.4749984741211
 50
288.7642825041635
 51
311.2357380621943
  0
ARC
  5
28F
  8
0
  6
CENTER
 62
     7
 10
249.7583233321856
 20
98.50898989415002
 30
0.0
 40
117.4749984741211
 50
348.7642747823056
 51
360.0
  0
ARC
  5
290
  8
0
  6
CENTER
 62
     7
 10
249.7583233321856
 20
98.50898989415002
 30
0.0
 40
78.0
 50
21.9130705179093
 51
38.08683552909443
  0
ARC
  5
291
  8
0
  6
CENTER
 62
     7
 10
249.7583233321856
 20
98.50898989415002
 30
0.0
 40
78.0
 50
141.913094347781
 51
158.0868593589662
  0
ARC
  5
292
  8
0
  6
CENTER
 62
     7
 10
249.7583233321856
 20
98.50898989415002
 30
0.0
 40
78.0
 50
321.7813213293568
 51
337.5315702157715
  0
LINE
  5
293
  8
0
  6
DASHED2
 62
     7
 10
-247.474708894377
 20
-53.49101010584998
 30
0.0
 11
-235.474708894377
 21
-53.49101010584998
 31
0.0
  0
LINE
  5
294
  8
0
  6
DASHED2
 62
     7
 10
-247.474708894377
 20
-53.49101010584998
 30
0.0
 11
-247.474708894377
 21
-76.49101010584998
 31
0.0
  0
LINE
  5
295
  8
0
  6
DASHED2
 62
     7
 10
-235.474708894377
 20
-53.49101010584998
 30
0.0
 11
-235.474708894377
 21
-76.49101010584998
 31
0.0
  0
LINE
  5
296
  8
0
  6
DASHED2
 62
     7
 10
401.7583233321856
 20
104.50898989415
 30
0.0
 11
401.7583233321856
 21
92.50898989415002
 31
0.0
  0
LINE
  5
297
  8
0
  6
DASHED2
 62
     7
 10
401.7583233321856
 20
104.50898989415
 30
0.0
 11
424.6554180587481
 21
104.50898989415
 31
0.0
  0
LINE
  5
298
  8
0
  6
DASHED2
 62
     7
 10
401.7583233321856
 20
92.50898989415002
 30
0.0
 11
424.6554180587481
 21
92.50898989415002
 31
0.0
  0
LINE
  5
299
  8
0
  6
DASHED
 62
     7
 10
-246.474708894377
 20
-46.49101010584998
 30
0.0
 11
-236.474708894377
 21
-46.49101010584998
 31
0.0
  0
LINE
  5
29A
  8
0
  6
DASHED
 62
     7
 10
-246.474708894377
 20
-46.49101010584998
 30
0.0
 11
-246.474708894377
 21
-76.49101010584998
 31
0.0
  0
LINE
  5
29B
  8
0
  6
DASHED
 62
     7
 10
-236.474708894377
 20
-46.49101010584998
 30
0.0
 11
-236.474708894377
 21
-76.49101010584998
 31
0.0
  0
LINE
  5
29C
  8
0
  6
DASHED
 62
     7
 10
-246.47471265292
 20
-46.49100477064492
 30
0.0
 11
-241.4747159983762
 21
-43.60425567513046
 31
0.0
  0
LINE
  5
29D
  8
0
  6
DASHED
 62
     7
 10
-241.4747326678501
 20
-43.60427994801337
 30
0.0
 11
-236.4747360133063
 21
-46.49102904352783
 31
0.0
  0
LINE
  5
29E
  8
0
  6
DASHED
 62
     7
 10
394.7583233321856
 20
103.50898989415
 30
0.0
 11
394.7583233321856
 21
93.50898989415002
 31
0.0
  0
LINE
  5
29F
  8
0
  6
DASHED
 62
     7
 10
394.7583233321856
 20
103.50898989415
 30
0.0
 11
424.6869121993731
 21
103.50898989415
 31
0.0
  0
LINE
  5
2A0
  8
0
  6
DASHED
 62
     7
 10
394.7583233321856
 20
93.50898989415002
 30
0.0
 11
424.6869121993731
 21
93.50898989415002
 31
0.0
  0
LINE
  5
2A1
  8
0
  6
DASHED
 62
     7
 10
391.8716128864944
 20
98.5090161760367
 30
0.0
 11
394.7583624981998
 21
93.50901986562023
 31
0.0
  0
LINE
  5
2A2
  8
0
  6
DASHED
 62
     7
 10
391.8716479104514
 20
98.5089818779765
 30
0.0
 11
394.758382263366
 21
103.5089517593955
 31
0.0
  0
LINE
  5
2A3
  8
0
  6
CONTINUOUS
 62
     4
 10
-164.474708894377
 20
273.5090051529391
 30
0.0
 11
-164.474708894377
 21
258.50898989415
 31
0.0
  0
LINE
  5
2A4
  8
0
  6
CONTINUOUS
 62
     4
 10
-163.474708894377
 20
273.5090051529391
 30
0.0
 11
-163.474708894377
 21
258.50898989415
 31
0.0
  0
LINE
  5
2A5
  8
0
  6
CONTINUOUS
 62
     4
 10
-164.474708894377
 20
185.50898989415
 30
0.0
 11
-164.474708894377
 21
180.50898989415
 31
0.0
  0
LINE
  5
2A6
  8
0
  6
CONTINUOUS
 62
     4
 10
-163.474708894377
 20
185.50898989415
 30
0.0
 11
-163.474708894377
 21
180.50898989415
 31
0.0
  0
LINE
  5
2A7
  8
0
  6
CONTINUOUS
 62
     4
 10
-186.474708894377
 20
206.50898989415
 30
0.0
 11
-147.474708894377
 21
206.50898989415
 31
0.0
  0
LINE
  5
2A8
  8
0
  6
CONTINUOUS
 62
     4
 10
-186.474708894377
 20
192.50898989415
 30
0.0
 11
-147.474708894377
 21
192.50898989415
 31
0.0
  0
LINE
  5
2A9
  8
0
  6
CONTINUOUS
 62
     4
 10
-186.474708894377
 20
251.50898989415
 30
0.0
 11
-147.474708894377
 21
251.50898989415
 31
0.0
  0
LINE
  5
2AA
  8
0
  6
CONTINUOUS
 62
     4
 10
-186.474708894377
 20
237.50898989415
 30
0.0
 11
-147.474708894377
 21
237.50898989415
 31
0.0
  0
LINE
  5
2AB
  8
0
  6
CONTINUOUS
 62
     4
 10
-214.1122821365645
 20
43.3089853165133
 30
0.0
 11
-200.1122821365645
 21
43.3089853165133
 31
0.0
  0
LINE
  5
2AC
  8
0
  6
CONTINUOUS
 62
     4
 10
-214.1122821365645
 20
153.7089868423922
 30
0.0
 11
-200.1122821365645
 21
153.7089868423922
 31
0.0
  0
LINE
  5
2AD
  8
0
  6
CONTINUOUS
 62
     4
 10
-182.474708894377
 20
25.50898607945275
 30
0.0
 11
-182.474708894377
 21
15.50898607945275
 31
0.0
  0
LINE
  5
2AE
  8
0
  6
CONTINUOUS
 62
     4
 10
-182.474708894377
 20
25.50898607945275
 30
0.0
 11
-162.474708894377
 21
25.50898607945275
 31
0.0
  0
LINE
  5
2AF
  8
0
  6
CONTINUOUS
 62
     4
 10
-182.474708894377
 20
15.50898607945275
 30
0.0
 11
-162.474708894377
 21
15.50898607945275
 31
0.0
  0
LINE
  5
2B0
  8
0
  6
CONTINUOUS
 62
     4
 10
-214.1122821365645
 20
151.00898989415
 30
0.0
 11
-200.1122821365645
 21
151.00898989415
 31
0.0
  0
LINE
  5
2B1
  8
0
  6
CONTINUOUS
 62
     4
 10
-214.1122821365645
 20
146.00898989415
 30
0.0
 11
-200.1122821365645
 21
146.00898989415
 31
0.0
  0
ARC
  5
2B2
  8
0
  6
CONTINUOUS
 62
     4
 10
249.7583233321856
 20
98.50898989415002
 30
0.0
 40
123.0
 50
188.172398295234
 51
231.8275660357488
  0
ARC
  5
2B3
  8
0
  6
CONTINUOUS
 62
     4
 10
249.7583233321856
 20
98.50898989415002
 30
0.0
 40
117.0
 50
192.2445297576389
 51
226.8061748824955
  0
ARC
  5
2B4
  8
0
  6
CONTINUOUS
 62
     4
 10
249.7583233321856
 20
98.50898989415002
 30
0.0
 40
111.0
 50
188.4345409555791
 51
231.5654233754037
  0
ARC
  5
2B5
  8
0
  6
CONTINUOUS
 62
     4
 10
249.7583233321856
 20
98.50898989415002
 30
0.0
 40
111.0
 50
128.4345219830829
 51
171.565459044421
  0
ARC
  5
2B6
  8
0
  6
CONTINUOUS
 62
     4
 10
249.7583233321856
 20
98.50898989415002
 30
0.0
 40
117.0
 50
132.6526965503211
 51
167.7172758245224
  0
ARC
  5
2B7
  8
0
  6
CONTINUOUS
 62
     4
 10
249.7583233321856
 20
98.50898989415002
 30
0.0
 40
123.0
 50
128.1723929831162
 51
171.827601704766
  0
LINE
  5
2B8
  8
0
  6
CONTINUOUS
 62
     4
 10
225.7583233321856
 20
183.50898989415
 30
0.0
 11
238.2583233321856
 21
183.50898989415
 31
0.0
  0
LINE
  5
2B9
  8
0
  6
CONTINUOUS
 62
     4
 10
261.2583233321856
 20
183.50898989415
 30
0.0
 11
273.7583233321856
 21
183.50898989415
 31
0.0
  0
LINE
  5
2BA
  8
0
  6
CONTINUOUS
 62
     4
 10
261.2583233321856
 20
270.50898989415
 30
0.0
 11
273.7583233321856
 21
270.50898989415
 31
0.0
  0
LINE
  5
2BB
  8
0
  6
CONTINUOUS
 62
     4
 10
225.7583233321856
 20
270.50898989415
 30
0.0
 11
238.2583233321856
 21
270.50898989415
 31
0.0
  0
LINE
  5
2BC
  8
0
  6
CONTINUOUS
 62
     4
 10
225.7583233321856
 20
186.50898989415
 30
0.0
 11
238.2583233321856
 21
186.50898989415
 31
0.0
  0
LINE
  5
2BD
  8
0
  6
CONTINUOUS
 62
     4
 10
225.7583233321856
 20
189.50898989415
 30
0.0
 11
238.2583233321856
 21
189.50898989415
 31
0.0
  0
LINE
  5
2BE
  8
0
  6
CONTINUOUS
 62
     4
 10
225.7583233321856
 20
192.50898989415
 30
0.0
 11
238.2583233321856
 21
192.50898989415
 31
0.0
  0
LINE
  5
2BF
  8
0
  6
CONTINUOUS
 62
     4
 10
225.7583233321856
 20
195.50898989415
 30
0.0
 11
236.7005840743731
 21
195.50898989415
 31
0.0
  0
LINE
  5
2C0
  8
0
  6
CONTINUOUS
 62
     4
 10
261.2583233321856
 20
186.50898989415
 30
0.0
 11
273.7583233321856
 21
186.50898989415
 31
0.0
  0
LINE
  5
2C1
  8
0
  6
CONTINUOUS
 62
     4
 10
261.2583233321856
 20
189.50898989415
 30
0.0
 11
273.7583233321856
 21
189.50898989415
 31
0.0
  0
LINE
  5
2C2
  8
0
  6
CONTINUOUS
 62
     4
 10
261.2583233321856
 20
192.50898989415
 30
0.0
 11
273.7583233321856
 21
192.50898989415
 31
0.0
  0
LINE
  5
2C3
  8
0
  6
CONTINUOUS
 62
     4
 10
262.6072002853106
 20
195.50898989415
 30
0.0
 11
273.7583233321856
 21
195.50898989415
 31
0.0
  0
LINE
  5
2C4
  8
0
  6
CONTINUOUS
 62
     4
 10
261.2583233321856
 20
267.50898989415
 30
0.0
 11
273.7583233321856
 21
267.50898989415
 31
0.0
  0
LINE
  5
2C5
  8
0
  6
CONTINUOUS
 62
     4
 10
261.2583233321856
 20
264.50898989415
 30
0.0
 11
273.7583233321856
 21
264.50898989415
 31
0.0
  0
LINE
  5
2C6
  8
0
  6
CONTINUOUS
 62
     4
 10
261.2583233321856
 20
261.50898989415
 30
0.0
 11
273.7583233321856
 21
261.50898989415
 31
0.0
  0
LINE
  5
2C7
  8
0
  6
CONTINUOUS
 62
     4
 10
261.2583233321856
 20
258.50898989415
 30
0.0
 11
273.7583233321856
 21
258.50898989415
 31
0.0
  0
LINE
  5
2C8
  8
0
  6
CONTINUOUS
 62
     4
 10
225.7583233321856
 20
267.50898989415
 30
0.0
 11
238.2583233321856
 21
267.50898989415
 31
0.0
  0
LINE
  5
2C9
  8
0
  6
CONTINUOUS
 62
     4
 10
225.7583233321856
 20
264.50898989415
 30
0.0
 11
238.2583233321856
 21
264.50898989415
 31
0.0
  0
LINE
  5
2CA
  8
0
  6
CONTINUOUS
 62
     4
 10
225.7583233321856
 20
261.50898989415
 30
0.0
 11
238.2583233321856
 21
261.50898989415
 31
0.0
  0
LINE
  5
2CB
  8
0
  6
CONTINUOUS
 62
     4
 10
225.7583233321856
 20
258.50898989415
 30
0.0
 11
238.2583233321856
 21
258.50898989415
 31
0.0
  0
LINE
  5
2CC
  8
0
  6
CONTINUOUS
 62
     4
 10
225.7583233321856
 20
255.50898989415
 30
0.0
 11
238.2583233321856
 21
255.50898989415
 31
0.0
  0
LINE
  5
2CD
  8
0
  6
CONTINUOUS
 62
     4
 10
261.2583233321856
 20
255.50898989415
 30
0.0
 11
273.7583233321856
 21
255.50898989415
 31
0.0
  0
ARC
  5
2CE
  8
0
  6
CONTINUOUS
 62
     4
 10
249.7583233321856
 20
98.50898989415002
 30
0.0
 40
123.0
 50
102.6803989627686
 51
111.8275453936006
  0
ARC
  5
2CF
  8
0
  6
CONTINUOUS
 62
     4
 10
249.7583233321856
 20
98.50898989415002
 30
0.0
 40
117.0
 50
103.3423808971262
 51
107.8924821674595
  0
ARC
  5
2D0
  8
0
  6
CONTINUOUS
 62
     4
 10
249.7583233321856
 20
98.50898989415002
 30
0.0
 40
111.0
 50
104.0780537424391
 51
111.5654027332555
  0
ARC
  5
2D1
  8
0
  6
CONTINUOUS
 62
     4
 10
249.7583233321856
 20
98.50898989415002
 30
0.0
 40
105.0
 50
104.9006134241838
 51
113.3020398014338
  0
ARC
  5
2D2
  8
0
  6
CONTINUOUS
 62
     4
 10
249.7583233321856
 20
98.50898989415002
 30
0.0
 40
99.0
 50
105.8266368114757
 51
254.1733595460586
  0
ARC
  5
2D3
  8
0
  6
CONTINUOUS
 62
     4
 10
249.7583233321856
 20
98.50898989415002
 30
0.0
 40
93.0
 50
106.877290660553
 51
253.1226852064139
  0
ARC
  5
2D4
  8
0
  6
CONTINUOUS
 62
     4
 10
249.7583233321856
 20
98.50898989415002
 30
0.0
 40
87.0
 50
108.0800323318788
 51
251.919943535088
  0
ARC
  5
2D5
  8
0
  6
CONTINUOUS
 62
     4
 10
249.7583233321856
 20
98.50898989415002
 30
0.0
 40
81.0
 50
109.4712394129729
 51
145.4398352049605
  0
ARC
  5
2D6
  8
0
  6
CONTINUOUS
 62
     4
 10
249.7583233321856
 20
98.50898989415002
 30
0.0
 40
123.0
 50
282.6803802934339
 51
291.8275813657792
  0
ARC
  5
2D7
  8
0
  6
CONTINUOUS
 62
     4
 10
249.7583233321856
 20
98.50898989415002
 30
0.0
 40
117.0
 50
283.3423622277915
 51
287.4949738091867
  0
ARC
  5
2D8
  8
0
  6
CONTINUOUS
 62
     4
 10
249.7583233321856
 20
98.50898989415002
 30
0.0
 40
111.0
 50
284.0780350731045
 51
291.5654455356233
  0
ARC
  5
2D9
  8
0
  6
CONTINUOUS
 62
     4
 10
249.7583233321856
 20
98.50898989415002
 30
0.0
 40
105.0
 50
284.9005947548491
 51
293.3020826038016
  0
ARC
  5
2DA
  8
0
  6
CONTINUOUS
 62
     4
 10
249.7583233321856
 20
98.50898989415002
 30
0.0
 40
81.0
 50
289.4712207436382
 51
325.4398848375175
  0
ARC
  5
2DB
  8
0
  6
CONTINUOUS
 62
     4
 10
249.7583233321856
 20
98.50898989415002
 30
0.0
 40
75.0
 50
291.1001935399296
 51
325.2608894850335
  0
ARC
  5
2DC
  8
0
  6
CONTINUOUS
 62
     4
 10
249.7583233321856
 20
98.50898989415002
 30
0.0
 40
75.0
 50
111.1002122092642
 51
145.2608432675711
  0
ARC
  5
2DD
  8
0
  6
CONTINUOUS
 62
     4
 10
249.7583233321856
 20
98.50898989415002
 30
0.0
 40
75.0
 50
214.7391020909156
 51
248.8997877907358
  0
ARC
  5
2DE
  8
0
  6
CONTINUOUS
 62
     4
 10
249.7583233321856
 20
98.50898989415002
 30
0.0
 40
81.0
 50
214.5601101535262
 51
250.5287605870271
  0
ARC
  5
2DF
  8
0
  6
CONTINUOUS
 62
     4
 10
249.7583233321856
 20
98.50898989415002
 30
0.0
 40
105.0
 50
246.6979123872421
 51
255.0993865758163
  0
ARC
  5
2E0
  8
0
  6
CONTINUOUS
 62
     4
 10
249.7583233321856
 20
98.50898989415002
 30
0.0
 40
111.0
 50
248.4345426252312
 51
255.9219462575609
  0
ARC
  5
2E1
  8
0
  6
CONTINUOUS
 62
     4
 10
249.7583233321856
 20
98.50898989415002
 30
0.0
 40
117.0
 50
252.3416020757752
 51
256.6576191028738
  0
ARC
  5
2E2
  8
0
  6
CONTINUOUS
 62
     4
 10
249.7583233321856
 20
98.50898989415002
 30
0.0
 40
123.0
 50
248.1723999648861
 51
257.3196010372314
  0
ARC
  5
2E3
  8
0
  6
CONTINUOUS
 62
     4
 10
249.7583233321856
 20
98.50898989415002
 30
0.0
 40
75.0
 50
334.7391378736184
 51
385.2608279754358
  0
ARC
  5
2E4
  8
0
  6
CONTINUOUS
 62
     4
 10
249.7583233321856
 20
98.50898989415002
 30
0.0
 40
81.0
 50
334.5601425211344
 51
385.4398216203725
  0
CIRCLE
  5
2E5
  8
0
  6
CONTINUOUS
 62
     4
 10
249.7583233321856
 20
98.50898989415002
 30
0.0
 40
55.20000076293945
  0
ARC
  5
2E6
  8
0
  6
CONTINUOUS
 62
     4
 10
249.7583233321856
 20
98.50898989415002
 30
0.0
 40
87.0
 50
288.0800136625442
 51
431.9199863374558
  0
ARC
  5
2E7
  8
0
  6
CONTINUOUS
 62
     4
 10
249.7583233321856
 20
98.50898989415002
 30
0.0
 40
93.0
 50
286.8772719912183
 51
433.1227280087817
  0
ARC
  5
2E8
  8
0
  6
CONTINUOUS
 62
     4
 10
249.7583233321856
 20
98.50898989415002
 30
0.0
 40
99.0
 50
285.8266181421411
 51
434.1733818578589
  0
ARC
  5
2E9
  8
0
  6
CONTINUOUS
 62
     4
 10
249.7583233321856
 20
98.50898989415002
 30
0.0
 40
105.0
 50
306.6979243021779
 51
353.3020736012832
  0
ARC
  5
2EA
  8
0
  6
CONTINUOUS
 62
     4
 10
249.7583233321856
 20
98.50898989415002
 30
0.0
 40
111.0
 50
308.4345682005454
 51
351.5654420826336
  0
ARC
  5
2EB
  8
0
  6
CONTINUOUS
 62
     4
 10
249.7583233321856
 20
98.50898989415002
 30
0.0
 40
117.0
 50
313.0957522524451
 51
347.5453079966063
  0
ARC
  5
2EC
  8
0
  6
CONTINUOUS
 62
     4
 10
249.7583233321856
 20
98.50898989415002
 30
0.0
 40
123.0
 50
308.1724221251057
 51
351.8275804741105
  0
CIRCLE
  5
2ED
  8
0
  6
CONTINUOUS
 62
     4
 10
317.3083721603106
 20
137.5089441177829
 30
0.0
 40
5.0
  0
CIRCLE
  5
2EE
  8
0
  6
CONTINUOUS
 62
     4
 10
182.2083965743731
 20
137.5090432999118
 30
0.0
 40
5.0
  0
ARC
  5
2EF
  8
0
  6
CONTINUOUS
 62
     4
 10
249.7583233321856
 20
98.50898989415002
 30
0.0
 40
105.0
 50
186.69791071759
 51
233.3020536133928
  0
ARC
  5
2F0
  8
0
  6
CONTINUOUS
 62
     4
 10
249.7583233321856
 20
98.50898989415002
 30
0.0
 40
81.0
 50
154.5601048414084
 51
205.4398232142342
  0
ARC
  5
2F1
  8
0
  6
CONTINUOUS
 62
     4
 10
249.7583233321856
 20
98.50898989415002
 30
0.0
 40
75.0
 50
154.7390967787978
 51
205.2608312768448
  0
ARC
  5
2F2
  8
0
  6
CONTINUOUS
 62
     4
 10
249.7583233321856
 20
98.50898989415002
 30
0.0
 40
105.0
 50
126.6978917450938
 51
173.30208928241
  0
ARC
  5
2F3
  8
0
  6
CONTINUOUS
 62
     4
 10
249.7583233321856
 20
98.50898989415002
 30
0.0
 40
123.0
 50
68.17239131346406
 51
77.3196197065661
  0
ARC
  5
2F4
  8
0
  6
CONTINUOUS
 62
     4
 10
249.7583233321856
 20
98.50898989415002
 30
0.0
 40
117.0
 50
72.22713311424214
 51
76.65763777220846
  0
ARC
  5
2F5
  8
0
  6
CONTINUOUS
 62
     4
 10
249.7583233321856
 20
98.50898989415002
 30
0.0
 40
111.0
 50
68.43452714361999
 51
75.92196492689556
  0
ARC
  5
2F6
  8
0
  6
CONTINUOUS
 62
     4
 10
249.7583233321856
 20
98.50898989415002
 30
0.0
 40
105.0
 50
66.69791056600923
 51
75.09940524515092
  0
ARC
  5
2F7
  8
0
  6
CONTINUOUS
 62
     4
 10
249.7583233321856
 20
98.50898989415002
 30
0.0
 40
81.0
 50
34.56009467191503
 51
70.52877925636179
  0
ARC
  5
2F8
  8
0
  6
CONTINUOUS
 62
     4
 10
249.7583233321856
 20
98.50898989415002
 30
0.0
 40
75.0
 50
34.73908660930438
 51
68.89980646007042
  0
ARC
  5
2F9
  8
0
  6
CONTINUOUS
 62
     4
 10
249.7583233321856
 20
98.50898989415002
 30
0.0
 40
105.0
 50
6.697925544943216
 51
53.30203471668705
  0
ARC
  5
2FA
  8
0
  6
CONTINUOUS
 62
     4
 10
249.7583233321856
 20
98.50898989415002
 30
0.0
 40
111.0
 50
8.434558771140081
 51
51.56541130888712
  0
ARC
  5
2FB
  8
0
  6
CONTINUOUS
 62
     4
 10
249.7583233321856
 20
98.50898989415002
 30
0.0
 40
117.0
 50
12.49640567620225
 51
47.45552256075037
  0
ARC
  5
2FC
  8
0
  6
CONTINUOUS
 62
     4
 10
249.7583233321856
 20
98.50898989415002
 30
0.0
 40
123.0
 50
8.172420379663222
 51
51.8275573843268
  0
CIRCLE
  5
2FD
  8
0
  6
CONTINUOUS
 62
     4
 10
317.3083111251544
 20
59.50900515293908
 30
0.0
 40
5.0
  0
CIRCLE
  5
2FE
  8
0
  6
CONTINUOUS
 62
     4
 10
182.2083355392169
 20
59.50898989415002
 30
0.0
 40
5.0
  0
CIRCLE
  5
2FF
  8
0
  6
CONTINUOUS
 62
     4
 10
249.7583233321856
 20
148.50898989415
 30
0.0
 40
2.5
  0
CIRCLE
  5
300
  8
0
  6
CONTINUOUS
 62
     4
 10
206.4570538009356
 20
73.50898989415002
 30
0.0
 40
2.5
  0
CIRCLE
  5
301
  8
0
  6
CONTINUOUS
 62
     4
 10
293.0595928634356
 20
73.50898989415002
 30
0.0
 40
2.5
  0
LINE
  5
302
  8
0
  6
DIVIDE
 62
     9
 10
-294.6122821365645
 20
166.00898989415
 30
0.0
 11
-293.191994050627
 21
166.00898989415
 31
0.0
  0
LINE
  5
303
  8
0
  6
DIVIDE
 62
     9
 10
-319.474708894377
 20
-8.966016209365606
 30
0.0
 11
-319.474708894377
 21
-28.96601620936561
 31
0.0
  0
LINE
  5
304
  8
0
  6
DIVIDE
 62
     9
 10
-319.474708894377
 20
-8.966016209365606
 30
0.0
 11
-252.3539203201583
 21
-8.966016209365606
 31
0.0
  0
LINE
  5
305
  8
0
  6
DIVIDE
 62
     9
 10
-319.474708894377
 20
-28.96601620936561
 30
0.0
 11
-254.430763581877
 21
-28.96601620936561
 31
0.0
  0
LINE
  5
306
  8
0
  6
DIVIDE
 62
     9
 10
-319.474708894377
 20
-27.46601620936561
 30
0.0
 11
-267.474708894377
 21
-27.46601620936561
 31
0.0
  0
LINE
  5
307
  8
0
  6
DIVIDE
 62
     9
 10
-319.474708894377
 20
-10.46601620936561
 30
0.0
 11
-267.474708894377
 21
-10.46601620936561
 31
0.0
  0
LINE
  5
308
  8
0
  6
DIVIDE
 62
     9
 10
-267.474708894377
 20
-8.966016209365606
 30
0.0
 11
-267.474708894377
 21
-28.96601620936561
 31
0.0
  0
LINE
  5
309
  8
0
  6
DIVIDE
 62
     9
 10
-295.6122821365645
 20
165.008974635361
 30
0.0
 11
-295.6122821365645
 21
108.7458978531344
 31
0.0
  0
LINE
  5
30A
  8
0
  6
DIVIDE
 62
     9
 10
-175.6122821365645
 20
165.00898989415
 30
0.0
 11
-175.6122821365645
 21
108.7458978531344
 31
0.0
  0
LINE
  5
30B
  8
0
  6
DIVIDE
 62
     9
 10
-294.6121187536198
 20
166.0087979036829
 30
0.0
 11
-295.6121122287684
 21
165.0087891713587
 31
0.0
  0
LINE
  5
30C
  8
0
  6
DIVIDE
 62
     9
 10
-176.6122697924827
 20
166.0089781746282
 30
0.0
 11
-175.6122687308932
 21
165.0089771130387
 31
0.0
  0
LINE
  5
30D
  8
0
  6
DIVIDE
 62
     9
 10
-187.707619050627
 20
166.00898989415
 30
0.0
 11
-176.6122821365645
 21
166.00898989415
 31
0.0
  0
TEXT
  5
30E
  8
0
 62
     7
 10
-286.6831218337919
 20
-125.6026106458339
 30
0.0
 40
8.0
  1
MIN32.9
 41
0.8000000000000002
  7
FDASTYLE1
 72
     5
 11
-241.8831218337919
 21
-125.6026106458339
 31
0.0
  0
TEXT
  5
30F
  8
0
 62
     7
 10
-45.82951915978137
 20
113.4200417350633
 30
0.0
 40
8.0
  1
MIN 69.5
 50
90.0
 41
0.8
  7
FDASTYLE1
 72
     5
 11
-45.82951915978137
 21
164.6200417350633
 31
0.0
  0
TEXT
  5
310
  8
0
 62
     7
 10
-341.9156324290123
 20
287.6711741827136
 30
0.0
 40
8.0
  1
MIN-4.1
 41
0.8000000000000002
  7
FDASTYLE1
 72
     5
 11
-297.1156324290123
 21
287.6711741827136
 31
0.0
  0
LINE
  5
311
  8
LAYER0014
  6
CONTINUOUS
 62
     7
 10
-83.58948550570517
 20
180.50898989415
 30
0.0
 11
-83.58948550570517
 21
167.8089898941501
 31
0.0
  0
INSERT
  5
312
  8
LAYER0014
 62
     7
  2
_OPEN30
 10
-83.58948550570517
 20
180.50898989415
 30
0.0
 41
3.00000278782526
 42
2.999997001378984
 50
90.0
  0
LINE
  5
313
  8
LAYER0014
  6
CONTINUOUS
 62
     7
 10
-163.474708894377
 20
297.4816614029391
 30
0.0
 11
-176.174708894377
 21
297.4816614029391
 31
0.0
  0
INSERT
  5
314
  8
LAYER0014
 62
     7
  2
_OPEN30
 10
-163.474708894377
 20
297.4816614029391
 30
0.0
 41
3.00000278782526
 42
2.999997001378984
 50
360.0
  0
LINE
  5
315
  8
LAYER0014
  6
CONTINUOUS
 62
     7
 10
-164.974708894377
 20
57.62045534825158
 30
0.0
 11
-177.674708894377
 21
57.62045534825158
 31
0.0
  0
INSERT
  5
316
  8
LAYER0014
 62
     7
  2
_OPEN30
 10
-164.974708894377
 20
57.62045534825158
 30
0.0
 41
3.00000278782526
 42
2.999997001378984
 50
360.0
  0
LINE
  5
317
  8
LAYER0014
  6
CONTINUOUS
 62
     7
 10
-214.1122821365645
 20
70.62735995030236
 30
0.0
 11
-226.8122821365645
 21
70.62735995030236
 31
0.0
  0
INSERT
  5
318
  8
LAYER0014
 62
     7
  2
_OPEN30
 10
-214.1122821365645
 20
70.62735995030236
 30
0.0
 41
3.00000278782526
 42
2.999997001378984
 50
360.0
  0
LINE
  5
319
  8
LAYER0014
  6
CONTINUOUS
 62
     7
 10
-83.58948550570517
 20
212.20898989415
 30
0.0
 11
-83.58948550570517
 21
199.50898989415
 31
0.0
  0
INSERT
  5
31A
  8
LAYER0014
 62
     7
  2
_OPEN30
 10
-83.58948550570517
 20
199.50898989415
 30
0.0
 41
3.00000278782526
 42
2.999997001378984
 50
270.0
  0
LINE
  5
31B
  8
LAYER0014
  6
CONTINUOUS
 62
     7
 10
-149.7747088943771
 20
297.4816614029391
 30
0.0
 11
-162.474708894377
 21
297.4816614029391
 31
0.0
  0
INSERT
  5
31C
  8
LAYER0014
 62
     7
  2
_OPEN30
 10
-162.474708894377
 20
297.4816614029391
 30
0.0
 41
3.00000278782526
 42
2.999997001378984
 50
180.0
  0
LINE
  5
31D
  8
LAYER0014
  6
CONTINUOUS
 62
     7
 10
-149.7747088943771
 20
57.62045534825158
 30
0.0
 11
-162.474708894377
 21
57.62045534825158
 31
0.0
  0
INSERT
  5
31E
  8
LAYER0014
 62
     7
  2
_OPEN30
 10
-162.474708894377
 20
57.62045534825158
 30
0.0
 41
3.00000278782526
 42
2.999997001378984
 50
180.0
  0
LINE
  5
31F
  8
LAYER0014
  6
CONTINUOUS
 62
     7
 10
-185.4122821365646
 20
70.62735995030236
 30
0.0
 11
-198.1122821365645
 21
70.62735995030236
 31
0.0
  0
INSERT
  5
320
  8
LAYER0014
 62
     7
  2
_OPEN30
 10
-198.1122821365645
 20
70.62735995030236
 30
0.0
 41
3.00000278782526
 42
2.999997001378984
 50
180.0
  0
LINE
  5
321
  8
LAYER0014
  6
CONTINUOUS
 62
     7
 10
-83.58948550570517
 20
180.50898989415
 30
0.0
 11
-83.58948550570517
 21
199.50898989415
 31
0.0
  0
LINE
  5
322
  8
LAYER0014
  6
CONTINUOUS
 62
     7
 10
-122.211808503752
 20
199.50898989415
 30
0.0
 11
-79.01748690951376
 21
199.50898989415
 31
0.0
  0
LINE
  5
323
  8
LAYER0014
  6
CONTINUOUS
 62
     7
 10
-162.474708894377
 20
297.4816614029391
 30
0.0
 11
-151.7440875564864
 21
297.4816614029391
 31
0.0
  0
LINE
  5
324
  8
LAYER0014
  6
CONTINUOUS
 62
     7
 10
-163.474708894377
 20
297.4816614029391
 30
0.0
 11
-162.474708894377
 21
297.4816614029391
 31
0.0
  0
LINE
  5
325
  8
LAYER0014
  6
CONTINUOUS
 62
     7
 10
-163.474708894377
 20
276.0490051529391
 30
0.0
 11
-163.474708894377
 21
302.053652369736
 31
0.0
  0
LINE
  5
326
  8
LAYER0014
  6
CONTINUOUS
 62
     7
 10
-162.474708894377
 20
273.0490051529391
 30
0.0
 11
-162.474708894377
 21
302.053652369736
 31
0.0
  0
LINE
  5
327
  8
LAYER0014
  6
CONTINUOUS
 62
     7
 10
-162.474708894377
 20
57.62045534825158
 30
0.0
 11
-138.7762406279745
 21
57.62045534825158
 31
0.0
  0
LINE
  5
328
  8
LAYER0014
  6
CONTINUOUS
 62
     7
 10
-164.974708894377
 20
57.62045534825158
 30
0.0
 11
-162.474708894377
 21
57.62045534825158
 31
0.0
  0
LINE
  5
329
  8
LAYER0014
  6
CONTINUOUS
 62
     7
 10
-198.1122821365645
 20
70.62735995030236
 30
0.0
 11
-186.734474519377
 21
70.62735995030236
 31
0.0
  0
LINE
  5
32A
  8
LAYER0014
  6
CONTINUOUS
 62
     7
 10
-200.1122821365645
 20
70.62735995030236
 30
0.0
 11
-198.1122821365645
 21
70.62735995030236
 31
0.0
  0
LINE
  5
32B
  8
LAYER0014
  6
CONTINUOUS
 62
     7
 10
-291.474708894377
 20
297.7030969498141
 30
0.0
 11
-345.4180386194822
 21
297.7030969498141
 31
0.0
  0
LINE
  5
32C
  8
LAYER0014
  6
CONTINUOUS
 62
     7
 10
-273.1122821365645
 20
167.54898989415
 30
0.0
 11
-273.1122821365645
 21
302.275087916611
 31
0.0
  0
LINE
  5
32D
  8
LAYER0014
  6
CONTINUOUS
 62
     7
 10
-291.474708894377
 20
261.04898989415
 30
0.0
 11
-291.474708894377
 21
302.275087916611
 31
0.0
  0
LINE
  5
32E
  8
LAYER0014
  6
CONTINUOUS
 62
     7
 10
-214.1122821365645
 20
70.62735995030236
 30
0.0
 11
-201.3622821365645
 21
70.62735995030236
 31
0.0
  0
INSERT
  5
334
  8
LAYER0014
 62
     7
  2
_DOTBLANK
 10
-200.1122821365645
 20
70.62735995030236
 30
0.0
 41
5.0
 42
5.0
 50
360.0
  0
LINE
  5
335
  8
LAYER0014
  6
CONTINUOUS
 62
     7
 10
-273.1122821365645
 20
297.7030969498141
 30
0.0
 11
-291.474708894377
 21
297.7030969498141
 31
0.0
  0
INSERT
  5
336
  8
LAYER0014
 62
     7
  2
_OPEN30
 10
-273.1122821365645
 20
297.7030969498141
 30
0.0
 41
3.00000278782526
 42
2.999997001378984
 50
360.0
  0
INSERT
  5
337
  8
LAYER0014
 62
     7
  2
_OPEN30
 10
-291.474708894377
 20
297.7030969498141
 30
0.0
 41
3.00000278782526
 42
2.999997001378984
 50
180.0
  0
TEXT
  5
338
  8
LAYER0014
 62
     7
 10
-84.62815323697048
 20
177.6489845779482
 30
0.0
 40
8.0
  1
 14
 50
90.0
 41
0.8000000000000019
  7
FDASTYLE1
 72
     5
 11
-84.62815323697048
 21
196.8489845779483
 31
0.0
  0
TEXT
  5
339
  8
LAYER0014
 62
     7
 10
-75.27246951055315
 20
181.579923835894
 30
0.0
 40
6.4
  1
MIN
 50
90.0
 41
0.7600002100000245
  7
FDASTYLE1
 72
     5
 11
-75.27246951055315
 21
198.9513550358939
 31
0.0
  0
TEXT
  5
33A
  8
LAYER0014
 62
     7
 10
-156.3099351434526
 20
300.6856458528003
 30
0.0
 40
8.0
  1
1
 50
-0.1000000000000078
 41
0.7999999999999989
  7
FDASTYLE1
 72
     5
 11
-149.9099448912075
 21
300.6744757512586
 31
0.0
  0
TEXT
  5
33B
  8
LAYER0014
 62
     7
 10
-158.4891672539935
 20
59.21534377146583
 30
0.0
 40
8.0
  1
2.5
 50
-0.1000000000000078
 41
0.8000000000000002
  7
FDASTYLE1
 72
     5
 11
-139.2891964972584
 21
59.18183346684057
 31
0.0
  0
TEXT
  5
33C
  8
LAYER0014
 62
     7
 10
-214.4698665917499
 20
72.43856041185482
 30
0.0
 40
8.0
  1
14
 41
0.8000000000000007
  7
FDASTYLE1
 72
     5
 11
-201.6698665917499
 21
72.43856041185482
 31
0.0
  0
TEXT
  5
33D
  8
LAYER0014
 62
     7
 10
-192.920588234532
 20
72.21107827197488
 30
0.0
 40
8.0
  1
2
 50
-0.1000000000000078
 41
0.7999999999999989
  7
FDASTYLE1
 72
     5
 11
-186.5205979822869
 21
72.19990817043313
 31
0.0
  0
TEXT
  5
33E
  8
LAYER0014
 62
     7
 10
-341.923090991491
 20
299.3406974690606
 30
0.0
 40
8.0
  1
MAX40.9
 41
0.7999999999999992
  7
FDASTYLE1
 72
     5
 11
-297.123090991491
 21
299.3406974690606
 31
0.0
  0
LINE
  5
33F
  8
0
  6
DASHED
 62
     2
 10
117.8492657149981
 20
213.50898989415
 30
0.0
 11
157.7583233321856
 21
213.50898989415
 31
0.0
  0
LINE
  5
340
  8
0
  6
DASHED
 62
     2
 10
157.7583233321856
 20
247.374697291611
 30
0.0
 11
157.7583233321856
 21
213.50898989415
 31
0.0
  0
LINE
  5
341
  8
0
  6
DASHED
 62
     2
 10
157.7583233321856
 20
214.00898989415
 30
0.0
 11
175.0266338790606
 21
214.00898989415
 31
0.0
  0
LINE
  5
342
  8
0
  6
DASHED
 62
     2
 10
157.7583233321856
 20
238.00898989415
 30
0.0
 11
176.5451275314044
 21
238.00898989415
 31
0.0
  0
LINE
  5
343
  8
0
  6
DASHED
 62
     2
 10
145.7583233321856
 20
228.4089837906344
 30
0.0
 11
145.7583233321856
 21
223.6089959976657
 31
0.0
  0
LINE
  5
344
  8
0
  6
DASHED
 62
     2
 10
148.4583355392169
 20
229.3089929459079
 30
0.0
 11
148.4583355392169
 21
222.7089868423922
 31
0.0
  0
LINE
  5
345
  8
0
  6
DASHED
 62
     2
 10
154.1970440353106
 20
220.3089929459079
 30
0.0
 11
157.3196026290606
 21
220.3089929459079
 31
0.0
  0
LINE
  5
346
  8
0
  6
DASHED
 62
     2
 10
154.1970440353106
 20
231.7089868423922
 30
0.0
 11
157.3196026290606
 21
231.7089868423922
 31
0.0
  0
LINE
  5
347
  8
0
  6
DASHED
 62
     2
 10
148.4582550533723
 20
222.708713575947
 30
0.0
 11
145.7582365426042
 21
223.6087196331104
 31
0.0
  0
LINE
  5
348
  8
0
  6
DASHED
 62
     2
 10
148.4584001237499
 20
229.3088130608352
 30
0.0
 11
145.7583816129817
 21
228.4088070036718
 31
0.0
  0
LINE
  5
349
  8
0
  6
DASHED
 62
     2
 10
149.4583355392169
 20
228.7543207046969
 30
0.0
 11
149.4583355392169
 21
223.2135187027438
 31
0.0
  0
LINE
  5
34A
  8
0
  6
DASHED
 62
     2
 10
153.7583233321856
 20
230.4589868423922
 30
0.0
 11
153.7583233321856
 21
221.5589929459079
 31
0.0
  0
LINE
  5
34B
  8
0
  6
DASHED
 62
     2
 10
154.5022198165606
 20
228.9026513931735
 30
0.0
 11
157.0144268478106
 21
228.9026513931735
 31
0.0
  0
LINE
  5
34C
  8
0
  6
DASHED
 62
     2
 10
154.5022198165606
 20
223.1153283951266
 30
0.0
 11
157.0144268478106
 21
223.1153283951266
 31
0.0
  0
ARC
  5
34D
  8
0
  6
DASHED
 62
     2
 10
148.4583355392169
 20
226.00898989415
 30
0.0
 40
3.299999952316284
 50
73.48282241201396
 51
89.99998201391065
  0
ARC
  5
34E
  8
0
  6
DASHED
 62
     2
 10
148.4583355392169
 20
226.00898989415
 30
0.0
 40
3.299999952316284
 50
270.0000179860894
 51
286.5171775879861
  0
ARC
  5
34F
  8
0
  6
DASHED
 62
     2
 10
155.7583233321856
 20
230.4589868423922
 30
0.0
 40
2.0
 50
0.0
 51
38.68218896809859
  0
ARC
  5
350
  8
0
  6
DASHED
 62
     2
 10
155.7583233321856
 20
221.5589929459079
 30
0.0
 40
2.0
 50
0.0
 51
51.09316519948327
  0
ARC
  5
351
  8
0
  6
DASHED
 62
     2
 10
151.7583233321856
 20
226.00898989415
 30
0.0
 40
6.0
 50
0.0
 51
28.83423780766662
  0
ARC
  5
352
  8
0
  6
DASHED
 62
     2
 10
159.7583233321856
 20
226.00898989415
 30
0.0
 40
6.0
 50
151.1657740314789
 51
208.8342086656771
  0
ARC
  5
353
  8
0
  6
DASHED
 62
     2
 10
151.7583233321856
 20
226.00898989415
 30
0.0
 40
6.0
 50
331.1657621923334
 51
360.0
  0
ARC
  5
354
  8
0
  6
DASHED
 62
     2
 10
155.7583233321856
 20
230.4589868423922
 30
0.0
 40
2.0
 50
308.9068348005167
 51
360.0
  0
ARC
  5
355
  8
0
  6
DASHED
 62
     2
 10
155.7583233321856
 20
230.4589868423922
 30
0.0
 40
2.0
 50
141.3178297012361
 51
231.0931121518317
  0
ARC
  5
356
  8
0
  6
DASHED
 62
     2
 10
155.7583233321856
 20
221.5589929459079
 30
0.0
 40
2.0
 50
128.906856884946
 51
218.6821529959199
  0
ARC
  5
357
  8
0
  6
DASHED
 62
     2
 10
155.7583233321856
 20
221.5589929459079
 30
0.0
 40
2.0
 50
321.3178110319014
 51
360.0
  0
ARC
  5
358
  8
0
  6
DASHED
 62
     2
 10
149.7915264571856
 20
234.8089929459079
 30
0.0
 40
5.650000095367432
 50
265.9910930942637
 51
315.0592540539054
  0
ARC
  5
359
  8
0
  6
DASHED
 62
     2
 10
149.7915264571856
 20
217.2089868423922
 30
0.0
 40
5.650000095367432
 50
44.94074594609464
 51
94.00890690573628
  0
ARC
  5
35A
  8
0
  6
DASHED
 62
     2
 10
146.4583355392169
 20
226.00898989415
 30
0.0
 40
1.5
 50
117.818154050457
 51
242.1818423070773
  0
LINE
  5
35B
  8
0
  6
CONTINUOUS
 62
     2
 10
182.4471620264566
 20
1.722610918825396
 30
0.0
 11
191.020784015579
 21
6.672589362817618
 31
0.0
  0
LINE
  5
35C
  8
0
  6
CONTINUOUS
 62
     2
 10
191.0208712843627
 20
6.672685832265344
 30
0.0
 11
199.5944885528147
 21
1.722700012225616
 31
0.0
  0
LINE
  5
35D
  8
0
  6
CONTINUOUS
 62
     2
 10
199.5945049728106
 20
1.722643458603145
 30
0.0
 11
199.5945049728106
 21
-8.177350437881231
 31
0.0
  0
LINE
  5
35E
  8
0
  6
CONTINUOUS
 62
     2
 10
199.5945428146824
 20
-8.177491818188699
 30
0.0
 11
191.0208697378129
 21
-13.12750284504507
 31
0.0
  0
LINE
  5
35F
  8
0
  6
CONTINUOUS
 62
     2
 10
191.0208503936164
 20
-13.12734195066021
 30
0.0
 11
182.4472313549131
 21
-8.177359081039484
 31
0.0
  0
LINE
  5
360
  8
0
  6
CONTINUOUS
 62
     2
 10
182.4471661056231
 20
-8.177350437881231
 30
0.0
 11
182.4471661056231
 21
1.722643458603145
 31
0.0
  0
LINE
  5
361
  8
0
  6
CONTINUOUS
 62
     2
 10
242.7002596625768
 20
248.5839959826803
 30
0.0
 11
249.7583920919512
 21
252.6590006601322
 31
0.0
  0
LINE
  5
362
  8
0
  6
CONTINUOUS
 62
     2
 10
249.7583316283198
 20
252.6590326125392
 30
0.0
 11
256.8164538563287
 21
248.5840097183631
 31
0.0
  0
LINE
  5
363
  8
0
  6
CONTINUOUS
 62
     2
 10
256.8164288009356
 20
248.5839868423922
 30
0.0
 11
256.8164288009356
 21
240.4339776871188
 31
0.0
  0
LINE
  5
364
  8
0
  6
CONTINUOUS
 62
     2
 10
256.8163448557927
 20
240.4340010708842
 30
0.0
 11
249.7582124264183
 21
236.3589961505426
 31
0.0
  0
LINE
  5
365
  8
0
  6
CONTINUOUS
 62
     2
 10
249.7583174493047
 20
236.3589302561581
 30
0.0
 11
242.7001927923993
 21
240.4339482925411
 31
0.0
  0
LINE
  5
366
  8
0
  6
CONTINUOUS
 62
     2
 10
242.7002178634356
 20
240.4339929459079
 30
0.0
 11
242.7002178634356
 21
248.5839868423922
 31
0.0
  0
LINE
  5
367
  8
0
  6
CONTINUOUS
 62
     2
 10
242.7002141214819
 20
203.5839926879266
 30
0.0
 11
249.7583465508562
 21
207.6589973653785
 31
0.0
  0
LINE
  5
368
  8
0
  6
CONTINUOUS
 62
     2
 10
249.7583385987891
 20
207.6590385840722
 30
0.0
 11
256.8164608267979
 21
203.5840156898962
 31
0.0
  0
LINE
  5
369
  8
0
  6
CONTINUOUS
 62
     2
 10
256.8164288009356
 20
203.5839868423922
 30
0.0
 11
256.8164288009356
 21
195.4339929459079
 31
0.0
  0
LINE
  5
36A
  8
0
  6
CONTINUOUS
 62
     2
 10
256.8163145073983
 20
195.4340338379138
 30
0.0
 11
249.7581820780239
 21
191.3590289175722
 31
0.0
  0
LINE
  5
36B
  8
0
  6
CONTINUOUS
 62
     2
 10
249.7583014959309
 20
191.3589685421015
 30
0.0
 11
242.7002296969949
 21
195.4339560608627
 31
0.0
  0
LINE
  5
36C
  8
0
  6
CONTINUOUS
 62
     2
 10
242.7002178634356
 20
195.4339929459079
 30
0.0
 11
242.7002178634356
 21
203.5839868423922
 31
0.0
  0
LINE
  5
36D
  8
0
  6
CONTINUOUS
 62
     2
 10
242.7002005855529
 20
1.584013472588978
 30
0.0
 11
249.7582801568996
 21
5.658987632519185
 31
0.0
  0
LINE
  5
36E
  8
0
  6
CONTINUOUS
 62
     2
 10
249.7583596053773
 20
5.658985187543678
 30
0.0
 11
256.8164818333862
 21
1.583962293367605
 31
0.0
  0
LINE
  5
36F
  8
0
  6
CONTINUOUS
 62
     2
 10
256.8164288009356
 20
1.583971583603145
 30
0.0
 11
256.8164288009356
 21
-6.566022312881231
 31
0.0
  0
LINE
  5
370
  8
0
  6
CONTINUOUS
 62
     2
 10
256.8163387420881
 20
-6.565821672312794
 30
0.0
 11
249.7582591707414
 21
-10.64079607513084
 31
0.0
  0
LINE
  5
371
  8
0
  6
CONTINUOUS
 62
     2
 10
249.7582792261182
 20
-10.64101827221164
 30
0.0
 11
242.7002074271822
 21
-6.566030753450448
 31
0.0
  0
LINE
  5
372
  8
0
  6
CONTINUOUS
 62
     2
 10
242.7002178634356
 20
-6.566007054092168
 30
0.0
 11
242.7002178634356
 21
1.58400210118127
 31
0.0
  0
LINE
  5
373
  8
0
  6
CONTINUOUS
 62
     2
 10
242.7001993194326
 20
-43.41594443832271
 30
0.0
 11
249.7582788907793
 21
-39.3409702783925
 31
0.0
  0
LINE
  5
374
  8
0
  6
CONTINUOUS
 62
     2
 10
249.758309903188
 20
-39.34098493050904
 30
0.0
 11
256.8164321311969
 21
-43.41600782468511
 31
0.0
  0
LINE
  5
375
  8
0
  6
CONTINUOUS
 62
     2
 10
256.8164288009356
 20
-43.41602841639686
 30
0.0
 11
256.8164288009356
 21
-51.56602231288123
 31
0.0
  0
LINE
  5
376
  8
0
  6
CONTINUOUS
 62
     2
 10
256.8163350965269
 20
-51.56583515605742
 30
0.0
 11
249.7582555251801
 21
-55.64080955887546
 31
0.0
  0
LINE
  5
377
  8
0
  6
CONTINUOUS
 62
     2
 10
249.7583142233625
 20
-55.64101380751306
 30
0.0
 11
242.700189566457
 21
-51.56599577113009
 31
0.0
  0
LINE
  5
378
  8
0
  6
CONTINUOUS
 62
     2
 10
242.7002178634356
 20
-51.56600705409217
 30
0.0
 11
242.7002178634356
 21
-43.41599789881873
 31
0.0
  0
CIRCLE
  5
379
  8
0
  6
CONTINUOUS
 62
     2
 10
191.0208355392169
 20
-3.227353489639043
 30
0.0
 40
15.0
  0
CIRCLE
  5
37A
  8
0
  6
CONTINUOUS
 62
     2
 10
249.7583233321856
 20
244.50898989415
 30
0.0
 40
12.0
  0
CIRCLE
  5
37B
  8
0
  6
CONTINUOUS
 62
     2
 10
249.7583233321856
 20
244.50898989415
 30
0.0
 40
11.0
  0
CIRCLE
  5
37C
  8
0
  6
CONTINUOUS
 62
     2
 10
249.7583233321856
 20
199.50898989415
 30
0.0
 40
12.0
  0
CIRCLE
  5
37D
  8
0
  6
CONTINUOUS
 62
     2
 10
249.7583233321856
 20
199.50898989415
 30
0.0
 40
11.0
  0
CIRCLE
  5
37E
  8
0
  6
CONTINUOUS
 62
     2
 10
249.7583233321856
 20
-2.491010105849981
 30
0.0
 40
12.0
  0
CIRCLE
  5
37F
  8
0
  6
CONTINUOUS
 62
     2
 10
249.7583233321856
 20
-2.491010105849981
 30
0.0
 40
11.0
  0
CIRCLE
  5
380
  8
0
  6
CONTINUOUS
 62
     2
 10
249.7583233321856
 20
-47.49101010584998
 30
0.0
 40
12.0
  0
CIRCLE
  5
381
  8
0
  6
CONTINUOUS
 62
     2
 10
249.7583233321856
 20
-47.49101010584998
 30
0.0
 40
11.0
  0
LINE
  5
382
  8
0
  6
CONTINUOUS
 62
     6
 10
-155.5753282088474
 20
-215.5986645387124
 30
0.0
 11
-123.5753358382419
 21
-215.5986645387124
 31
0.0
  0
LINE
  5
383
  8
0
  6
CONTINUOUS
 62
     6
 10
-155.5753282088474
 20
-231.5986645387124
 30
0.0
 11
134.048542640762
 21
-231.5986645387124
 31
0.0
  0
LINE
  5
384
  8
0
  6
CONTINUOUS
 62
     6
 10
-155.5753282088474
 20
-247.5986645387124
 30
0.0
 11
134.048542640762
 21
-247.5986645387124
 31
0.0
  0
LINE
  5
385
  8
0
  6
CONTINUOUS
 62
     6
 10
-155.5753282088474
 20
-263.5986340211343
 30
0.0
 11
134.048542640762
 21
-263.5986340211343
 31
0.0
  0
LINE
  5
386
  8
0
  6
CONTINUOUS
 62
     6
 10
-155.5753282088474
 20
-279.5986340211343
 30
0.0
 11
134.048542640762
 21
-279.5986340211343
 31
0.0
  0
LINE
  5
387
  8
0
  6
CONTINUOUS
 62
     6
 10
-155.5753282088474
 20
-295.5986340211343
 30
0.0
 11
134.048542640762
 21
-295.5986340211343
 31
0.0
  0
LINE
  5
388
  8
0
  6
CONTINUOUS
 62
     6
 10
-155.5753282088474
 20
-311.5986340211343
 30
0.0
 11
134.048542640762
 21
-311.5986340211343
 31
0.0
  0
LINE
  5
389
  8
0
  6
CONTINUOUS
 62
     6
 10
-155.5753282088474
 20
-327.5986340211343
 30
0.0
 11
134.048542640762
 21
-327.5986340211343
 31
0.0
  0
LINE
  5
38A
  8
0
  6
CONTINUOUS
 62
     6
 10
-155.5753282088474
 20
-343.5986340211343
 30
0.0
 11
134.048542640762
 21
-343.5986340211343
 31
0.0
  0
INSERT
  5
38B
  8
LAYER0014
  6
CONTINUOUS
  2
DA_IMAGEDIMGROUP_1
 10
0.0
 20
0.0
 30
0.0
  0
INSERT
  5
38C
  8
LAYER0014
  6
CONTINUOUS
  2
DA_IMAGEDIMGROUP_2
 10
0.0
 20
0.0
 30
0.0
  0
INSERT
  5
38D
  8
LAYER0014
  6
CONTINUOUS
  2
DA_IMAGEDIMGROUP_3
 10
0.0
 20
0.0
 30
0.0
  0
INSERT
  5
38E
  8
LAYER0014
  6
CONTINUOUS
  2
DA_IMAGEDIMGROUP_4
 10
0.0
 20
0.0
 30
0.0
  0
INSERT
  5
38F
  8
LAYER0014
  6
CONTINUOUS
  2
DA_IMAGEDIMGROUP_5
 10
0.0
 20
0.0
 30
0.0
  0
INSERT
  5
390
  8
LAYER0014
  6
CONTINUOUS
  2
DA_IMAGEDIMGROUP_6
 10
0.0
 20
0.0
 30
0.0
  0
INSERT
  5
391
  8
LAYER0014
  6
CONTINUOUS
  2
DA_IMAGEDIMGROUP_7
 10
0.0
 20
0.0
 30
0.0
  0
INSERT
  5
392
  8
LAYER0014
  6
CONTINUOUS
  2
DA_IMAGEDIMGROUP_8
 10
0.0
 20
0.0
 30
0.0
  0
INSERT
  5
393
  8
LAYER0014
  6
CONTINUOUS
  2
DA_IMAGEDIMGROUP_9
 10
0.0
 20
0.0
 30
0.0
  0
INSERT
  5
394
  8
LAYER0014
  6
CONTINUOUS
  2
DA_IMAGEDIMGROUP_10
 10
0.0
 20
0.0
 30
0.0
  0
INSERT
  5
395
  8
LAYER0014
  6
CONTINUOUS
  2
DA_IMAGEDIMGROUP_11
 10
0.0
 20
0.0
 30
0.0
  0
INSERT
  5
396
  8
LAYER0014
  6
CONTINUOUS
  2
DA_IMAGEDIMGROUP_12
 10
0.0
 20
0.0
 30
0.0
  0
INSERT
  5
397
  8
LAYER0014
  6
CONTINUOUS
  2
DA_IMAGEDIMGROUP_13
 10
0.0
 20
0.0
 30
0.0
  0
INSERT
  5
398
  8
LAYER0014
  6
CONTINUOUS
  2
DA_IMAGEDIMGROUP_14
 10
0.0
 20
0.0
 30
0.0
  0
INSERT
  5
399
  8
LAYER0014
  6
CONTINUOUS
  2
DC_GROUP_1
 10
0.0
 20
0.0
 30
0.0
  0
INSERT
  5
39A
  8
LAYER0014
  6
CONTINUOUS
  2
DC_GROUP_2
 10
0.0
 20
0.0
 30
0.0
  0
INSERT
  5
39B
  8
LAYER0014
  6
CONTINUOUS
  2
DC_GROUP_3
 10
0.0
 20
0.0
 30
0.0
  0
INSERT
  5
39C
  8
LAYER0014
  6
CONTINUOUS
  2
DA_IMAGEDIMGROUP_15
 10
0.0
 20
0.0
 30
0.0
  0
INSERT
  5
39D
  8
LAYER0014
  6
CONTINUOUS
  2
DA_IMAGEDIMGROUP_19
 10
0.0
 20
0.0
 30
0.0
  0
INSERT
  5
39E
  8
LAYER0014
  6
CONTINUOUS
  2
DA_IMAGEDIMGROUP_20
 10
0.0
 20
0.0
 30
0.0
  0
INSERT
  5
39F
  8
LAYER0014
  6
CONTINUOUS
  2
DC_GROUP_4
 10
0.0
 20
0.0
 30
0.0
  0
INSERT
  5
3A0
  8
LAYER0014
  6
CONTINUOUS
  2
DA_IMAGEDIMGROUP_21
 10
0.0
 20
0.0
 30
0.0
  0
INSERT
  5
3A1
  8
LAYER0014
  6
CONTINUOUS
  2
DA_IMAGEDIMGROUP_22
 10
0.0
 20
0.0
 30
0.0
  0
INSERT
  5
3A2
  8
LAYER0014
  6
CONTINUOUS
  2
DA_IMAGEDIMGROUP_23
 10
0.0
 20
0.0
 30
0.0
  0
INSERT
  5
3A3
  8
LAYER0014
  6
CONTINUOUS
  2
DC_GROUP_6
 10
0.0
 20
0.0
 30
0.0
  0
INSERT
  5
3A4
  8
0
  6
CONTINUOUS
  2
DA_IMAGEDIMGROUP_16
 10
0.0
 20
0.0
 30
0.0
  0
INSERT
  5
3A5
  8
0
  6
CONTINUOUS
  2
DA_IMAGEDIMGROUP_17
 10
0.0
 20
0.0
 30
0.0
  0
INSERT
  5
3A6
  8
0
  6
CONTINUOUS
  2
DA_IMAGEDIMGROUP_18
 10
0.0
 20
0.0
 30
0.0
  0
INSERT
  5
3A7
  8
0
  6
CONTINUOUS
  2
DC_GROUP_5
 10
0.0
 20
0.0
 30
0.0
  0
INSERT
  5
3A8
  8
0
  6
CONTINUOUS
  2
DA_IMAGEDIMGROUP_24
 10
0.0
 20
0.0
 30
0.0
  0
INSERT
  5
3A9
  8
0
  6
CONTINUOUS
  2
DC_GROUP_7
 10
0.0
 20
0.0
 30
0.0
  0
TEXT
  5
3AA
  8
0
 62
     5
 10
360.1667850154859
 20
206.2969560198272
 30
0.0
 40
3.0
  1
F MAX   26KN
 50
150.0
 41
0.7991006861508767
  7
FDASTYLE1
 72
     5
 11
328.4543874937496
 21
224.6061172656501
 31
0.0
  0
TEXT
  5
3AB
  8
0
 62
     5
 10
362.7467715877515
 20
210.7656449846709
 30
0.0
 40
3.0
  1
ΣS MAX  34KN
 50
150.0
 41
0.8042452669466761
  7
FDASTYLE1
 72
     5
 11
331.0343740660152
 21
229.0748062304938
 31
0.0
  0
TEXT
  5
3AC
  8
0
 62
     5
 10
365.3267886775953
 20
215.2343644670928
 30
0.0
 40
3.0
  1
N MAX 1800 AT ΣS MAX
 50
150.0
 41
0.803715653341933
  7
FDASTYLE1
 72
     5
 11
311.9571446822375
 21
246.0473427943671
 31
0.0
  0
TEXT
  5
3AD
  8
0
 62
     5
 10
148.0737891772592
 20
-25.12015221399921
 30
0.0
 40
8.0
  1
NIKKO
 50
-30.0
 41
0.7674421177096609
  7
FDASTYLE1
 72
     5
 11
180.7353229389327
 21
-43.97729752344745
 31
0.0
  0
TEXT
  5
3AE
  8
0
 62
     5
 10
186.0708567729998
 20
-44.74835313115032
 30
0.0
 40
4.0
  1
  GO2-14
 50
-30.0
 41
0.7714287730626147
  7
FDASTYLE1
 72
     5
 11
212.7939274668671
 21
-60.17692518982801
 31
0.0
  0
TEXT
  5
3AF
  8
0
 62
     5
 10
182.7181491588206
 20
-51.26969930500961
 30
0.0
 40
3.0
  1
   0001
 50
-30.0
 41
0.7704919843299103
  7
FDASTYLE1
 72
     5
 11
200.1623749871042
 21
-61.34112778277374
 31
0.0
  0
VIEWPORT
  5
48
 67
     1
  8
0
 10
0.0
 20
0.0
 30
0.0
 40
3324.0
 41
2280.0
 68
     1
 69
     1
1001
ACAD
1000
MVIEW
1002
{
1070
    16
1010
0.0
1020
0.0
1030
0.0
1020
0.0
1030
0.0
1010
0.0
1020
0.0
1030
1.0
1020
0.0
1030
1.0
1040
0.0
1040
2280.0
1040
0.0
1040
0.0
1040
50.0
1040
0.0
1040
0.0
1070
     0
1070
   100
1070
     0
1070
     1
1070
     0
1070
     0
1070
     0
1070
     0
1040
0.0
1040
0.0
1040
0.0
1040
0.5
1040
0.5
1040
0.0
1040
0.0
1070
     0
1002
{
1002
}
1002
}
  0
ENDSEC
  0
EOF
