  0
SECTION
  2
HEADER
  9
$ACADVER
  1
AC1009
  9
$DWGCODEPAGE
  3
ansi_932
  9
$INSBASE
 10
0.0
 20
0.0
 30
0.0
  9
$EXTMIN
 10
-474.4276062545233
 20
-570.0
 30
0.0
  9
$EXTMAX
 10
1187.572393745477
 20
570.0
 30
0.0
  9
$LIMMIN
 10
-660.5555555555555
 20
-467.2222222222222
  9
$LIMMAX
 10
660.5555555555555
 20
467.2222222222222
  9
$ORTHOMODE
 70
     0
  9
$REGENMODE
 70
     1
  9
$FILLMODE
 70
     1
  9
$QTEXTMODE
 70
     0
  9
$MIRRTEXT
 70
     1
  9
$DRAGMODE
 70
     2
  9
$LTSCALE
 40
1.111111111111111
  9
$OSMODE
 70
    37
  9
$ATTMODE
 70
     1
  9
$TEXTSIZE
 40
0.2
  9
$TRACEWID
 40
0.05
  9
$TEXTSTYLE
  7
STANDARD
  9
$CLAYER
  8
0
  9
$CELTYPE
  6
BYLAYER
  9
$CECOLOR
 62
   256
  9
$DIMSCALE
 40
1.0
  9
$DIMASZ
 40
2.777777777777778
  9
$DIMEXO
 40
0.0625
  9
$DIMDLI
 40
0.38
  9
$DIMRND
 40
0.0
  9
$DIMDLE
 40
0.0
  9
$DIMEXE
 40
0.18
  9
$DIMTP
 40
0.0
  9
$DIMTM
 40
0.0
  9
$DIMTXT
 40
0.18
  9
$DIMCEN
 40
0.09
  9
$DIMTSZ
 40
0.0
  9
$DIMTOL
 70
     0
  9
$DIMLIM
 70
     0
  9
$DIMTIH
 70
     1
  9
$DIMTOH
 70
     1
  9
$DIMSE1
 70
     0
  9
$DIMSE2
 70
     0
  9
$DIMTAD
 70
     3
  9
$DIMZIN
 70
     0
  9
$DIMBLK
  1

  9
$DIMASO
 70
     1
  9
$DIMSHO
 70
     1
  9
$DIMPOST
  1

  9
$DIMAPOST
  1

  9
$DIMALT
 70
     0
  9
$DIMALTD
 70
     2
  9
$DIMALTF
 40
25.4
  9
$DIMLFAC
 40
1.0
  9
$DIMTOFL
 70
     0
  9
$DIMTVP
 40
0.0
  9
$DIMTIX
 70
     0
  9
$DIMSOXD
 70
     0
  9
$DIMSAH
 70
     0
  9
$DIMBLK1
  1

  9
$DIMBLK2
  1

  9
$DIMSTYLE
  2
STANDARD
  9
$DIMCLRD
 70
     0
  9
$DIMCLRE
 70
     0
  9
$DIMCLRT
 70
     0
  9
$DIMTFAC
 40
1.0
  9
$DIMGAP
 40
0.09
  9
$LUNITS
 70
     2
  9
$LUPREC
 70
     4
  9
$SKETCHINC
 40
0.1
  9
$FILLETRAD
 40
0.5
  9
$AUNITS
 70
     0
  9
$AUPREC
 70
     0
  9
$MENU
  1
.
  9
$ELEVATION
 40
0.0
  9
$PELEVATION
 40
0.0
  9
$THICKNESS
 40
0.0
  9
$LIMCHECK
 70
     0
  9
$CHAMFERA
 40
0.5
  9
$CHAMFERB
 40
0.5
  9
$SKPOLY
 70
     0
  9
$TDCREATE
 40
2455483.532214884
  9
$TDUPDATE
 40
2455483.532214896
  9
$TDINDWG
 40
0.0000000116
  9
$TDUSRTIMER
 40
0.0000000116
  9
$USRTIMER
 70
     1
  9
$ANGBASE
 50
0.0
  9
$ANGDIR
 70
     0
  9
$PDMODE
 70
     0
  9
$PDSIZE
 40
1.0
  9
$PLINEWID
 40
0.0
  9
$COORDS
 70
     1
  9
$SPLFRAME
 70
     0
  9
$SPLINETYPE
 70
     6
  9
$SPLINESEGS
 70
     8
  9
$ATTDIA
 70
     0
  9
$ATTREQ
 70
     1
  9
$HANDLING
 70
     1
  9
$HANDSEED
  5
602
  9
$SURFTAB1
 70
     6
  9
$SURFTAB2
 70
     6
  9
$SURFTYPE
 70
     6
  9
$SURFU
 70
     6
  9
$SURFV
 70
     6
  9
$UCSNAME
  2

  9
$UCSORG
 10
0.0
 20
0.0
 30
0.0
  9
$UCSXDIR
 10
1.0
 20
0.0
 30
0.0
  9
$UCSYDIR
 10
0.0
 20
1.0
 30
0.0
  9
$PUCSNAME
  2

  9
$PUCSORG
 10
0.0
 20
0.0
 30
0.0
  9
$PUCSXDIR
 10
1.0
 20
0.0
 30
0.0
  9
$PUCSYDIR
 10
0.0
 20
1.0
 30
0.0
  9
$USERI1
 70
     0
  9
$USERI2
 70
     0
  9
$USERI3
 70
     0
  9
$USERI4
 70
     0
  9
$USERI5
 70
     0
  9
$USERR1
 40
0.0
  9
$USERR2
 40
0.0
  9
$USERR3
 40
0.0
  9
$USERR4
 40
0.0
  9
$USERR5
 40
0.0
  9
$WORLDVIEW
 70
     1
  9
$SHADEDGE
 70
     3
  9
$SHADEDIF
 70
    70
  9
$TILEMODE
 70
     1
  9
$MAXACTVP
 70
    64
  9
$PLIMCHECK
 70
     0
  9
$PEXTMIN
 10
1.000000000000000E+20
 20
1.000000000000000E+20
 30
1.000000000000000E+20
  9
$PEXTMAX
 10
-1.000000000000000E+20
 20
-1.000000000000000E+20
 30
-1.000000000000000E+20
  9
$PLIMMIN
 10
0.0
 20
0.0
  9
$PLIMMAX
 10
12.0
 20
9.0
  9
$UNITMODE
 70
     0
  9
$VISRETAIN
 70
     0
  9
$PLINEGEN
 70
     1
  9
$PSLTSCALE
 70
     0
  0
ENDSEC
  0
SECTION
  2
TABLES
  0
TABLE
  2
VPORT
 70
     1
  0
VPORT
  2
*ACTIVE
 70
     0
 10
0.0
 20
0.0
 11
1.0
 21
1.0
 12
0.0
 22
0.0
 13
0.0
 23
0.0
 14
0.5
 24
0.5
 15
0.5
 25
0.5
 16
0.0
 26
0.0
 36
1.0
 17
356.5723937454767
 27
0.0
 37
0.0
 40
387.6
 41
1.457894736842105
 42
50.0
 43
0.0
 44
0.0
 50
0.0
 51
0.0
 71
     0
 72
  1000
 73
     1
 74
     1
 75
     0
 76
     0
 77
     0
 78
     0
  0
ENDTAB
  0
TABLE
  2
LTYPE
 70
    28
  0
LTYPE
  2
CONTINUOUS
 70
     0
  3
Solid line
 72
    65
 73
     0
 40
0.0
  0
LTYPE
  2
HIDDENX2
 70
     0
  3
CADPAC LINETYPE
 72
    65
 73
     2
 40
18.58563535911603
 49
13.93922651933703
 49
-4.646408839779008
  0
LTYPE
  2
HIDDEN
 70
     0
  3
CADPAC LINETYPE
 72
    65
 73
     2
 40
13.93922651933703
 49
9.292817679558016
 49
-4.646408839779008
  0
LTYPE
  2
HIDDEN2
 70
     0
  3
CADPAC LINETYPE
 72
    65
 73
     2
 40
11.61602209944752
 49
6.969613259668512
 49
-4.646408839779008
  0
LTYPE
  2
DASHED
 70
     0
  3
CADPAC LINETYPE
 72
    65
 73
     2
 40
13.00994475138128
 49
9.292817679558016
 49
-3.717127071823268
  0
LTYPE
  2
DASHED2
 70
     0
  3
CADPAC LINETYPE
 72
    65
 73
     2
 40
8.363535911602174
 49
5.575690607734851
 49
-2.787845303867323
  0
LTYPE
  2
DASHEDX2
 70
     0
  3
CADPAC LINETYPE
 72
    65
 73
     2
 40
22.3027624309393
 49
18.58563535911603
 49
-3.717127071823268
  0
LTYPE
  2
DOTX2
 70
     0
  3
CADPAC LINETYPE
 72
    65
 73
     2
 40
8.131215469613366
 49
0.0
 49
-8.131215469613366
  0
LTYPE
  2
DOT
 70
     0
  3
CADPAC LINETYPE
 72
    65
 73
     2
 40
6.504972375690693
 49
0.0
 49
-6.504972375690693
  0
LTYPE
  2
DOT2
 70
     0
  3
CADPAC LINETYPE
 72
    65
 73
     2
 40
4.87872928176802
 49
0.0
 49
-4.87872928176802
  0
LTYPE
  2
CENTERX2
 70
     0
  3
CADPAC LINETYPE
 72
    65
 73
     4
 40
27.87845303867405
 49
11.61602209944752
 49
-5.80801104972376
 49
4.646408839779008
 49
-5.80801104972376
  0
LTYPE
  2
CENTER
 70
     0
  3
CADPAC LINETYPE
 72
    65
 73
     4
 40
21.37348066298344
 49
9.292817679558016
 49
-4.646408839779008
 49
2.787845303867405
 49
-4.646408839779008
  0
LTYPE
  2
CENTER2
 70
     0
  3
CADPAC LINETYPE
 72
    65
 73
     4
 40
14.86850828729283
 49
6.969613259668512
 49
-3.484806629834256
 49
0.9292817679558016
 49
-3.484806629834256
  0
LTYPE
  2
DASHDOTX2
 70
     0
  3
CADPAC LINETYPE
 72
    65
 73
     4
 40
44.6055248618785
 49
22.3027624309392
 49
-7.434254143646434
 49
7.434254143646434
 49
-7.434254143646434
  0
LTYPE
  2
DASHDOT
 70
     0
  3
CADPAC LINETYPE
 72
    65
 73
     4
 40
22.3027624309394
 49
11.1513812154696
 49
-3.717127071823268
 49
3.717127071823268
 49
-3.717127071823268
  0
LTYPE
  2
DASHDOT2
 70
     0
  3
CADPAC LINETYPE
 72
    65
 73
     4
 40
14.31093922651943
 49
8.363535911602199
 49
-2.787845303867451
 49
0.3717127071823268
 49
-2.787845303867451
  0
LTYPE
  2
DIVIDEX2
 70
     0
  3
CADPAC LINETYPE
 72
    65
 73
     6
 40
59.47403314917137
 49
22.3027624309392
 49
-7.434254143646434
 49
7.434254143646434
 49
-7.434254143646434
 49
7.434254143646434
 49
-7.434254143646434
  0
LTYPE
  2
DIVIDE
 70
     0
  3
CADPAC LINETYPE
 72
    65
 73
     6
 40
29.73701657458594
 49
11.1513812154696
 49
-3.717127071823268
 49
3.717127071823268
 49
-3.717127071823268
 49
3.717127071823268
 49
-3.717127071823268
  0
LTYPE
  2
DIVIDE2
 70
     0
  3
CADPAC LINETYPE
 72
    65
 73
     6
 40
22.30276243093946
 49
8.363535911602199
 49
-2.787845303867451
 49
2.787845303867451
 49
-2.787845303867451
 49
2.787845303867451
 49
-2.787845303867451
  0
LTYPE
  2
BORDERX2
 70
     0
  3
CADPAC LINETYPE
 72
    65
 73
     6
 40
40.65607734806632
 49
11.61602209944752
 49
-5.80801104972376
 49
11.61602209944752
 49
-5.80801104972376
 49
0.0
 49
-5.80801104972376
  0
LTYPE
  2
BORDER
 70
     0
  3
CADPAC LINETYPE
 72
    65
 73
     6
 40
32.52486187845306
 49
9.292817679558016
 49
-4.646408839779008
 49
9.292817679558016
 49
-4.646408839779008
 49
0.0
 49
-4.646408839779008
  0
LTYPE
  2
BORDER2
 70
     0
  3
CADPAC LINETYPE
 72
    65
 73
     6
 40
24.16132596685078
 49
7.434254143646434
 49
-4.646408839779008
 49
2.787845303867323
 49
-4.646408839779008
 49
0.0
 49
-4.646408839779008
  0
LTYPE
  2
PHANTOMX2
 70
     0
  3
CADPAC LINETYPE
 72
    65
 73
     6
 40
34.84806629834256
 49
11.61602209944752
 49
-4.646408839779008
 49
4.646408839779008
 49
-4.646408839779008
 49
4.646408839779008
 49
-4.646408839779008
  0
LTYPE
  2
PHANTOM
 70
     0
  3
CADPAC LINETYPE
 72
    65
 73
     6
 40
28.80773480662985
 49
9.292817679558016
 49
-4.646408839779008
 49
2.787845303867405
 49
-4.646408839779008
 49
2.787845303867405
 49
-4.646408839779008
  0
LTYPE
  2
PHANTOM2
 70
     0
  3
CADPAC LINETYPE
 72
    65
 73
     6
 40
24.62596685082875
 49
6.969613259668512
 49
-4.646408839779008
 49
1.858563535911603
 49
-4.646408839779008
 49
1.858563535911603
 49
-4.646408839779008
  0
LTYPE
  2
ACAD_ISO06W100
 70
     0
  3
CADPAC LINETYPE
 72
    65
 73
     8
 40
49.25193370165719
 49
22.3027624309392
 49
-4.646408839779008
 49
2.787845303867323
 49
-4.646408839779008
 49
2.787845303867323
 49
-4.646408839779008
 49
2.787845303867323
 49
-4.646408839779008
  0
LTYPE
  2
ACAD_ISO13W100
 70
     0
  3
CADPAC LINETYPE
 72
    65
 73
     8
 40
37.17127071823207
 49
9.292817679558016
 49
-4.646408839779008
 49
9.292817679558016
 49
-4.646408839779008
 49
0.0
 49
-4.646408839779008
 49
0.0
 49
-4.646408839779008
  0
LTYPE
  2
ACAD_ISO14W100
 70
     0
  3
CADPAC LINETYPE
 72
    65
 73
     8
 40
27.87845303867405
 49
9.292817679558016
 49
-4.646408839779008
 49
0.0
 49
-4.646408839779008
 49
0.0
 49
-4.646408839779008
 49
0.0
 49
-4.646408839779008
  0
ENDTAB
  0
TABLE
  2
LAYER
 70
     3
  0
LAYER
  2
0
 70
     0
 62
     7
  6
CONTINUOUS
  0
LAYER
  2
LAYER0001
 70
     0
 62
     7
  6
CONTINUOUS
  0
LAYER
  2
LAYER0002
 70
     0
 62
     7
  6
CONTINUOUS
  0
ENDTAB
  0
TABLE
  2
STYLE
 70
     5
  0
STYLE
  2
STANDARD
 70
     0
 40
0.0
 41
1.0
 50
0.0
 71
     0
 42
0.2
  3
txt
  4

  0
STYLE
  2
FDASTYLE1
 70
     0
 40
0.0
 41
0.5442179498218123
 50
0.0
 71
     0
 42
0.2
  3
txt.shx
  4
bigfont
  0
STYLE
  2
FDASTYLE0
 70
     4
 40
0.0
 41
0.8
 50
0.0
 71
     0
 42
0.2
  3
txt.shx
  4
bigfont
  0
STYLE
  2
FDASTYLE2
 70
     0
 40
0.0
 41
0.8123476848090979
 50
0.0
 71
     0
 42
0.2
  3
MSMINCHO.TTC
  4

  0
STYLE
  2
FDASTYLE3
 70
     0
 40
0.0
 41
0.6684336356141793
 50
0.0
 71
     0
 42
0.2
  3
MSGOTHIC.TTC
  4

  0
ENDTAB
  0
TABLE
  2
VIEW
 70
     0
  0
ENDTAB
  0
TABLE
  2
UCS
 70
     0
  0
ENDTAB
  0
TABLE
  2
APPID
 70
     2
  0
APPID
  2
ACAD
 70
     0
  0
APPID
  2
DAFUSIONOUT
 70
     0
  0
ENDTAB
  0
TABLE
  2
DIMSTYLE
 70
     1
  0
DIMSTYLE
  2
STANDARD
 70
     0
  3

  4

  5

  6

  7

 40
1.0
 41
0.18
 42
0.0625
 43
0.38
 44
0.18
 45
0.0
 46
0.0
 47
0.0
 48
0.0
140
0.18
141
0.09
142
0.0
143
25.4
144
1.0
145
0.0
146
1.0
147
0.09
 71
     0
 72
     0
 73
     1
 74
     1
 75
     0
 76
     0
 77
     0
 78
     0
170
     0
171
     2
172
     0
173
     0
174
     0
175
     0
176
     0
177
     0
178
     0
  0
ENDTAB
  0
ENDSEC
  0
SECTION
  2
BLOCKS
  0
BLOCK
  8
0
  2
$MODEL_SPACE
 70
     0
 10
0.0
 20
0.0
 30
0.0
  3
$MODEL_SPACE
  1

  0
ENDBLK
  5
21
  8
0
  0
BLOCK
 67
     1
  8
0
  2
$PAPER_SPACE
 70
     0
 10
0.0
 20
0.0
 30
0.0
  3
$PAPER_SPACE
  1

  0
ENDBLK
  5
1D
 67
     1
  8
0
  0
BLOCK
  8
0
  2
DC_GROUP_1
 70
     0
 10
0.0
 20
0.0
 30
0.0
  3
DC_GROUP_1
  1

  0
LINE
  5
196
  8
0
  6
CONTINUOUS
 62
     5
 10
528.3067018802511
 20
93.20686654574087
 30
0.0
 11
530.5567038024997
 21
89.3097468067777
 31
0.0
  0
LINE
  5
197
  8
0
  6
CONTINUOUS
 62
     5
 10
529.3311929553894
 20
92.93236957531042
 30
0.0
 11
528.3066801851837
 21
93.20688706118283
 31
0.0
  0
LINE
  5
198
  8
0
  6
CONTINUOUS
 62
     5
 10
528.0322252930121
 20
92.18232696176554
 30
0.0
 11
528.306746555429
 21
93.20685451711017
 31
0.0
  0
LINE
  5
199
  8
0
  6
CONTINUOUS
 62
     5
 10
530.5567816959745
 20
89.30971900990355
 30
0.0
 11
530.8313029583912
 21
90.33424656524818
 31
0.0
  0
LINE
  5
19A
  8
0
  6
CONTINUOUS
 62
     5
 10
530.5566923071203
 20
89.30977641909293
 30
0.0
 11
529.5321647980566
 21
89.58429785423216
 31
0.0
  0
LINE
  5
19B
  8
0
  6
CONTINUOUS
 62
     5
 10
521.4364855036905
 20
90.10638671646115
 30
0.0
 11
534.4268681154421
 21
97.60638358721729
 31
0.0
  0
LINE
  5
19C
  8
0
  6
CONTINUOUS
 62
     5
 10
526.7926256524452
 20
99.58084704269891
 30
0.0
 11
526.0259148688112
 21
98.95997713997701
 31
0.0
  0
LINE
  5
19D
  8
0
  6
CONTINUOUS
 62
     5
 10
526.7926449720078
 20
99.580865435033
 30
0.0
 11
526.1717845485769
 21
100.3475642212283
 31
0.0
  0
LINE
  5
19E
  8
0
  6
CONTINUOUS
 62
     5
 10
534.4268741266462
 20
97.60638843429582
 30
0.0
 11
530.6768752144311
 21
104.1015805660779
 31
0.0
  0
LINE
  5
19F
  8
0
  6
CONTINUOUS
 62
     5
 10
517.6864899378926
 20
96.60157114472627
 30
0.0
 11
530.6768725496443
 21
104.1015680154824
 31
0.0
  0
LINE
  5
1A0
  8
0
  6
CONTINUOUS
 62
     5
 10
521.4364852909472
 20
90.10638136289542
 30
0.0
 11
515.8114881147171
 21
99.8491674958028
 31
0.0
  0
LINE
  5
1A1
  8
0
  6
CONTINUOUS
 62
     5
 10
515.811489591995
 20
99.8491677981051
 30
0.0
 11
517.7600469837577
 21
100.9741673287185
 31
0.0
  0
LINE
  5
1A2
  8
0
  6
CONTINUOUS
 62
     5
 10
518.3225580608005
 20
99.99988525279476
 30
0.0
 11
517.7600621101894
 21
100.9741573414259
 31
0.0
  0
LINE
  5
1A3
  8
0
  6
CONTINUOUS
 62
     5
 10
518.3225469874828
 20
99.99988821988401
 30
0.0
 11
519.6215852486581
 21
100.7498879069596
 31
0.0
  0
LINE
  5
1A4
  8
0
  6
CONTINUOUS
 62
     5
 10
520.1840768655528
 20
99.77560615840505
 30
0.0
 11
519.6215771002461
 21
100.7498848542864
 31
0.0
  0
LINE
  5
1A5
  8
0
  6
CONTINUOUS
 62
     5
 10
520.1841032352534
 20
99.77560816845363
 30
0.0
 11
521.4831414964285
 21
100.5256078555292
 31
0.0
  0
LINE
  5
1A6
  8
0
  6
CONTINUOUS
 62
     5
 10
522.2331101521097
 20
99.22656516817881
 30
0.0
 11
521.4831105842434
 21
100.5256032228774
 31
0.0
  0
LINE
  5
1A7
  8
0
  6
CONTINUOUS
 62
     5
 10
522.3570718096843
 20
102.0119608344281
 30
0.0
 11
522.6315930721011
 21
103.0364883897727
 31
0.0
  0
LINE
  5
1A8
  8
0
  6
CONTINUOUS
 62
     5
 10
520.0684430151121
 20
101.5566644140066
 30
0.0
 11
522.631553983549
 21
103.0364764270328
 31
0.0
  0
LINE
  5
1A9
  8
0
  6
CONTINUOUS
 62
     5
 10
522.6315497179467
 20
103.0365058006699
 30
0.0
 11
521.6070369477411
 21
103.3110232865424
 31
0.0
  0
ARC
  5
1AA
  8
0
  6
CONTINUOUS
 62
     5
 10
526.1132302209903
 20
97.04528102168331
 30
0.0
 40
2.625001907348633
 50
75.00008446424575
 51
369.9999367173826
  0
TEXT
  5
1AC
  8
0
 62
     5
 10
528.2806584186593
 20
89.49217105388719
 30
0.0
 40
2.5
  1
F
 50
119.9999866787419
 41
0.5442179498218123
  7
FDASTYLE1
 72
     5
 11
527.6003862553288
 21
90.67043763640331
 31
0.0
  0
TEXT
  5
1AD
  8
0
 62
     5
 10
530.8954081144266
 20
100.0015083904413
 30
0.0
 40
2.5
  1
N min
 50
119.9999866787419
 41
0.6995393319099857
  7
FDASTYLE1
 72
     5
 11
526.5232890506488
 21
107.5742448117139
 31
0.0
  0
TEXT
  5
1AE
  8
0
 62
     5
 10
522.8861348990474
 20
110.3162900528731
 30
0.0
 40
1.25
  1
-1
 50
119.9999866787419
 41
0.6149070012128706
  7
FDASTYLE1
 72
     5
 11
522.1175014570613
 21
111.6476029416184
 31
0.0
  0
TEXT
  5
1AF
  8
0
 62
     5
 10
521.6258895890535
 20
104.4234689730313
 30
0.0
 40
2.5
  1
ΣS
 50
119.9999866787419
 41
0.7846700504791676
  7
FDASTYLE1
 72
     5
 11
519.4680478192023
 21
108.1609625599
 31
0.0
  0
ENDBLK
  5
4E
  8
0
  0
BLOCK
  8
0
  2
DC_GROUP_2
 70
     0
 10
0.0
 20
0.0
 30
0.0
  3
DC_GROUP_2
  1

  0
LINE
  5
1B0
  8
0
  6
CONTINUOUS
 62
     9
 10
579.0349303840246
 20
51.45682963618526
 30
0.0
 11
572.1850380823184
 21
51.45682963618526
 31
0.0
  0
LINE
  5
1B1
  8
0
  6
CONTINUOUS
 62
     9
 10
566.1890178060301
 20
99.39843263390935
 30
0.0
 11
555.9163291888302
 21
93.46749375072943
 31
0.0
  0
ARC
  5
1B2
  8
0
  6
CONTINUOUS
 62
     9
 10
483.1517164435548
 20
51.45682963618526
 30
0.0
 40
94.88321394046992
 50
0.0
 51
29.99999725896548
  0
INSERT
  5
1B3
  8
0
  6
CONTINUOUS
  2
DC_GROUP_3
 10
0.0
 20
0.0
 30
0.0
  0
INSERT
  5
1B4
  8
0
  6
CONTINUOUS
  2
DC_GROUP_4
 10
0.0
 20
0.0
 30
0.0
  0
TEXT
  5
1B5
  8
0
 62
     7
 10
575.0782693304922
 20
71.11914725433914
 30
0.0
 40
4.0
  1
30°
 50
104.9999986294827
 41
0.6093750000000057
  7
FDASTYLE1
 72
     5
 11
573.0594809589113
 21
78.65336874768343
 31
0.0
  0
ENDBLK
  5
51
  8
0
  0
BLOCK
  8
0
  2
DC_GROUP_3
 70
     0
 10
0.0
 20
0.0
 30
0.0
  3
DC_GROUP_3
  1

  0
LINE
  5
1B6
  8
0
  6
CONTINUOUS
 62
     9
 10
578.5497220309874
 20
53.46236485209302
 30
0.0
 11
578.0349303840246
 21
51.45682963618526
 31
0.0
  0
LINE
  5
1B7
  8
0
  6
CONTINUOUS
 62
     9
 10
578.0349303840246
 20
51.45682963618526
 30
0.0
 11
577.4779824862885
 21
53.45106908550822
 31
0.0
  0
LINE
  5
1B8
  8
0
  6
CONTINUOUS
 62
     9
 10
578.0349303840246
 20
51.45682963618526
 30
0.0
 11
578.0138522586379
 21
53.45671696880062
 31
0.0
  0
ENDBLK
  5
54
  8
0
  0
BLOCK
  8
0
  2
DC_GROUP_4
 70
     0
 10
0.0
 20
0.0
 30
0.0
  3
DC_GROUP_4
  1

  0
LINE
  5
1B9
  8
0
  6
CONTINUOUS
 62
     9
 10
565.8377809790181
 20
96.8928966775017
 30
0.0
 11
565.3229923783255
 21
98.89843267534008
 31
0.0
  0
LINE
  5
1BA
  8
0
  6
CONTINUOUS
 62
     9
 10
565.3229923783255
 20
98.89843267534008
 30
0.0
 11
566.7715825594281
 21
97.41898398436031
 31
0.0
  0
LINE
  5
1BB
  8
0
  6
CONTINUOUS
 62
     9
 10
565.3229923783255
 20
98.89843267534008
 30
0.0
 11
566.3046817692232
 21
97.15594033093102
 31
0.0
  0
ENDBLK
  5
57
  8
0
  0
BLOCK
  8
0
  2
DC_GROUP_5
 70
     0
 10
0.0
 20
0.0
 30
0.0
  3
DC_GROUP_5
  1

  0
LINE
  5
1BC
  8
0
  6
CONTINUOUS
 62
     7
 10
242.9183220789005
 20
-28.54318122685391
 30
0.0
 11
255.7656707771458
 21
-42.04935700734991
 31
0.0
  0
LINE
  5
1BD
  8
0
  6
CONTINUOUS
 62
     7
 10
255.7656707771458
 20
-42.04935700734991
 30
0.0
 11
271.7656707771458
 21
-42.04935700734991
 31
0.0
  0
INSERT
  5
1BE
  8
0
  6
CONTINUOUS
  2
DC_GROUP_6
 10
0.0
 20
0.0
 30
0.0
  0
TEXT
  5
1BF
  8
0
 62
     7
 10
255.7656707771458
 20
-42.04935700734991
 30
0.0
 40
4.0
  1
M8×12
 41
0.6213017751479282
  7
FDASTYLE1
 72
     5
 11
268.6887477002227
 21
-42.04935700734991
 31
0.0
  0
ENDBLK
  5
5A
  8
0
  0
BLOCK
  8
0
  2
DC_GROUP_6
 70
     0
 10
0.0
 20
0.0
 30
0.0
  3
DC_GROUP_6
  1

  0
LINE
  5
1C0
  8
0
  6
CONTINUOUS
 62
     7
 10
243.9084589457517
 20
-30.36164511897023
 30
0.0
 11
242.9183220789005
 21
-28.54318122685391
 31
0.0
  0
LINE
  5
1C1
  8
0
  6
CONTINUOUS
 62
     7
 10
242.9183220789005
 20
-28.54318122685391
 30
0.0
 11
244.6850392933094
 21
-29.62294612086546
 31
0.0
  0
LINE
  5
1C2
  8
0
  6
CONTINUOUS
 62
     7
 10
242.9183220789005
 20
-28.54318122685391
 30
0.0
 11
244.2967491195306
 21
-29.99229561991784
 31
0.0
  0
ENDBLK
  5
5D
  8
0
  0
BLOCK
  8
0
  2
DC_GROUP_7
 70
     0
 10
0.0
 20
0.0
 30
0.0
  3
DC_GROUP_7
  1

  0
LINE
  5
1C3
  8
0
  6
CONTINUOUS
 62
     9
 10
242.9183220789005
 20
-32.56097709470011
 30
0.0
 11
242.9183220789005
 21
-40.37817830753481
 31
0.0
  0
LINE
  5
1C4
  8
0
  6
CONTINUOUS
 62
     9
 10
205.9183220789005
 20
-19.54318313420254
 30
0.0
 11
205.9183220789005
 21
-40.37817830753481
 31
0.0
  0
LINE
  5
1C5
  8
0
  6
CONTINUOUS
 62
     9
 10
205.9183220789005
 20
-39.37817830753481
 30
0.0
 11
242.9183220789005
 21
-39.37817830753481
 31
0.0
  0
INSERT
  5
1C6
  8
0
  6
CONTINUOUS
  2
DC_GROUP_8
 10
0.0
 20
0.0
 30
0.0
  0
INSERT
  5
1C7
  8
0
  6
CONTINUOUS
  2
DC_GROUP_9
 10
0.0
 20
0.0
 30
0.0
  0
TEXT
  5
1C8
  8
0
 62
     7
 10
221.2183220789005
 20
-38.37817830753481
 30
0.0
 40
4.0
  1
37
 41
0.6476190476190453
  7
FDASTYLE1
 72
     5
 11
226.3992744598529
 21
-38.37817830753481
 31
0.0
  0
ENDBLK
  5
60
  8
0
  0
BLOCK
  8
0
  2
DC_GROUP_8
 70
     0
 10
0.0
 20
0.0
 30
0.0
  3
DC_GROUP_8
  1

  0
LINE
  5
1C9
  8
0
  6
CONTINUOUS
 62
     9
 10
207.9183204865312
 20
-39.91407784243242
 30
0.0
 11
205.9183220789005
 21
-39.37817830753481
 31
0.0
  0
LINE
  5
1CA
  8
0
  6
CONTINUOUS
 62
     9
 10
205.9183220789005
 20
-39.37817830753481
 30
0.0
 11
207.9183204865312
 21
-38.8422787726372
 31
0.0
  0
LINE
  5
1CB
  8
0
  6
CONTINUOUS
 62
     9
 10
205.9183220789005
 20
-39.37817830753481
 30
0.0
 11
207.9183204865312
 21
-39.37817830753481
 31
0.0
  0
ENDBLK
  5
63
  8
0
  0
BLOCK
  8
0
  2
DC_GROUP_9
 70
     0
 10
0.0
 20
0.0
 30
0.0
  3
DC_GROUP_9
  1

  0
LINE
  5
1CC
  8
0
  6
CONTINUOUS
 62
     9
 10
240.9183236712698
 20
-38.8422787726372
 30
0.0
 11
242.9183220789005
 21
-39.37817830753481
 31
0.0
  0
LINE
  5
1CD
  8
0
  6
CONTINUOUS
 62
     9
 10
242.9183220789005
 20
-39.37817830753481
 30
0.0
 11
240.9183236712698
 21
-39.91407784243242
 31
0.0
  0
LINE
  5
1CE
  8
0
  6
CONTINUOUS
 62
     9
 10
242.9183220789005
 20
-39.37817830753481
 30
0.0
 11
240.9183236712698
 21
-39.37817830753481
 31
0.0
  0
ENDBLK
  5
66
  8
0
  0
BLOCK
  8
0
  2
DC_GROUP_10
 70
     0
 10
0.0
 20
0.0
 30
0.0
  3
DC_GROUP_10
  1

  0
LINE
  5
1CF
  8
0
  6
CONTINUOUS
 62
     9
 10
464.1517457268749
 20
56.72227153071651
 30
0.0
 11
464.1517457268749
 21
60.56855559917991
 31
0.0
  0
LINE
  5
1D0
  8
0
  6
CONTINUOUS
 62
     9
 10
502.1517533562694
 20
56.97152003535518
 30
0.0
 11
502.1517533562694
 21
60.56855559917991
 31
0.0
  0
LINE
  5
1D1
  8
0
  6
CONTINUOUS
 62
     9
 10
464.1517457268749
 20
59.56855559917991
 30
0.0
 11
502.1517533562694
 21
59.56855559917991
 31
0.0
  0
INSERT
  5
1D2
  8
0
  6
CONTINUOUS
  2
DC_GROUP_11
 10
0.0
 20
0.0
 30
0.0
  0
INSERT
  5
1D3
  8
0
  6
CONTINUOUS
  2
DC_GROUP_12
 10
0.0
 20
0.0
 30
0.0
  0
TEXT
  5
1D4
  8
0
 62
     7
 10
475.1517495415722
 20
60.56855559917992
 30
0.0
 40
4.0
  1
PCD38
 41
0.7314285714285717
  7
FDASTYLE1
 72
     5
 11
489.7803209701436
 21
60.56855559917992
 31
0.0
  0
ENDBLK
  5
69
  8
0
  0
BLOCK
  8
0
  2
DC_GROUP_11
 70
     0
 10
0.0
 20
0.0
 30
0.0
  3
DC_GROUP_11
  1

  0
LINE
  5
1D5
  8
0
  6
CONTINUOUS
 62
     9
 10
466.1517441345055
 20
59.0326560642823
 30
0.0
 11
464.1517457268749
 21
59.56855559917991
 31
0.0
  0
LINE
  5
1D6
  8
0
  6
CONTINUOUS
 62
     9
 10
464.1517457268749
 20
59.56855559917991
 30
0.0
 11
466.1517441345055
 21
60.10445513407753
 31
0.0
  0
LINE
  5
1D7
  8
0
  6
CONTINUOUS
 62
     9
 10
464.1517457268749
 20
59.56855559917991
 30
0.0
 11
466.1517441345055
 21
59.56855559917991
 31
0.0
  0
ENDBLK
  5
6C
  8
0
  0
BLOCK
  8
0
  2
DC_GROUP_12
 70
     0
 10
0.0
 20
0.0
 30
0.0
  3
DC_GROUP_12
  1

  0
LINE
  5
1D8
  8
0
  6
CONTINUOUS
 62
     9
 10
500.1517549486387
 20
60.10445513407753
 30
0.0
 11
502.1517533562694
 21
59.56855559917991
 31
0.0
  0
LINE
  5
1D9
  8
0
  6
CONTINUOUS
 62
     9
 10
502.1517533562694
 20
59.56855559917991
 30
0.0
 11
500.1517549486387
 21
59.0326560642823
 31
0.0
  0
LINE
  5
1DA
  8
0
  6
CONTINUOUS
 62
     9
 10
502.1517533562694
 20
59.56855559917991
 30
0.0
 11
500.1517549486387
 21
59.56855559917991
 31
0.0
  0
ENDBLK
  5
6F
  8
0
  0
BLOCK
  8
0
  2
DC_GROUP_13
 70
     0
 10
0.0
 20
0.0
 30
0.0
  3
DC_GROUP_13
  1

  0
LINE
  5
1DB
  8
0
  6
CONTINUOUS
 62
     7
 10
463.2933045294685
 20
52.8659352503666
 30
0.0
 11
432.9576836289996
 21
127.0920036644418
 31
0.0
  0
LINE
  5
1DC
  8
0
  6
CONTINUOUS
 62
     7
 10
432.9576836289996
 20
127.0920036644418
 30
0.0
 11
413.7576836289996
 21
127.0920036644418
 31
0.0
  0
INSERT
  5
1DD
  8
0
  6
CENTERX2
  2
DC_GROUP_14
 10
0.0
 20
0.0
 30
0.0
  0
TEXT
  5
1DE
  8
0
 62
     7
 10
413.7576836289996
 20
127.0920036644418
 30
0.0
 40
4.0
  1
2-φ3.3
 41
0.6243496357960464
  7
FDASTYLE1
 72
     5
 11
429.2415545967415
 21
127.0920036644418
 31
0.0
  0
ENDBLK
  5
72
  8
0
  0
BLOCK
  8
0
  2
DC_GROUP_14
 70
     0
 10
0.0
 20
0.0
 30
0.0
  3
DC_GROUP_14
  1

  0
LINE
  5
1DF
  8
0
  6
CONTINUOUS
 62
     7
 10
463.0327411445617
 20
54.92002596512936
 30
0.0
 11
463.2933045294685
 21
52.8659352503666
 31
0.0
  0
LINE
  5
1E0
  8
0
  6
CONTINUOUS
 62
     7
 10
463.2933045294685
 20
52.8659352503666
 30
0.0
 11
462.0406022362036
 21
54.51454645573844
 31
0.0
  0
LINE
  5
1E1
  8
0
  6
CONTINUOUS
 62
     7
 10
463.2933045294685
 20
52.8659352503666
 30
0.0
 11
462.5366716903827
 21
54.7172862104339
 31
0.0
  0
ENDBLK
  5
75
  8
0
  0
BLOCK
  8
0
  2
DC_GROUP_15
 70
     0
 10
0.0
 20
0.0
 30
0.0
  3
DC_GROUP_15
  1

  0
LINE
  5
1E2
  8
LAYER0001
  6
CONTINUOUS
 62
     7
 10
422.1325104132313
 20
86.68628446354333
 30
0.0
 11
398.5220121433625
 21
100.3178104893159
 31
0.0
  0
LINE
  5
1E3
  8
LAYER0001
  6
CONTINUOUS
 62
     7
 10
392.5783342859318
 20
51.45722255000362
 30
0.0
 11
385.429747097211
 21
51.45722255000362
 31
0.0
  0
ARC
  5
1E4
  8
LAYER0001
  6
CONTINUOUS
 62
     7
 10
483.151728145795
 20
51.45682963618526
 30
0.0
 40
95.43597412109375
 50
149.9999973439411
 51
179.9999640278213
  0
INSERT
  5
1E5
  8
LAYER0001
  6
CONTINUOUS
  2
DC_GROUP_16
 10
0.0
 20
0.0
 30
0.0
  0
INSERT
  5
1E6
  8
LAYER0001
  6
CONTINUOUS
  2
DC_GROUP_17
 10
0.0
 20
0.0
 30
0.0
  0
TEXT
  5
1E7
  8
LAYER0001
 62
     7
 10
388.1724758930481
 20
71.94004037145142
 30
0.0
 40
4.0
  1
30ﾟ
 50
74.89999999999999
 41
0.4499999999999987
  7
FDASTYLE1
 72
     5
 11
389.5792002397184
 21
77.15359257819922
 31
0.0
  0
ENDBLK
  5
78
  8
0
  0
BLOCK
  8
0
  2
DC_GROUP_16
 70
     0
 10
0.0
 20
0.0
 30
0.0
  3
DC_GROUP_16
  1

  0
LINE
  5
1E8
  8
LAYER0001
  6
CONTINUOUS
 62
     7
 10
399.0796519769293
 20
97.66989112240363
 30
0.0
 11
400.5017523340751
 21
99.17482052813487
 31
0.0
  0
LINE
  5
1E9
  8
LAYER0001
  6
CONTINUOUS
 62
     7
 10
400.5017523340751
 20
99.17482052813487
 30
0.0
 11
400.0226449642246
 21
97.16046254848388
 31
0.0
  0
LINE
  5
1EA
  8
LAYER0001
  6
CONTINUOUS
 62
     7
 10
400.5017523340751
 20
99.17482052813487
 30
0.0
 11
399.551148470577
 21
97.41517683544376
 31
0.0
  0
ENDBLK
  5
7B
  8
0
  0
BLOCK
  8
0
  2
DC_GROUP_17
 70
     0
 10
0.0
 20
0.0
 30
0.0
  3
DC_GROUP_17
  1

  0
LINE
  5
1EB
  8
LAYER0001
  6
CONTINUOUS
 62
     7
 10
388.3080151987335
 20
53.44092802235797
 30
0.0
 11
387.7157540247201
 21
51.45688955403513
 31
0.0
  0
LINE
  5
1EC
  8
LAYER0001
  6
CONTINUOUS
 62
     7
 10
387.7157540247201
 20
51.45688955403513
 30
0.0
 11
387.236645049626
 21
53.47124715188438
 31
0.0
  0
LINE
  5
1ED
  8
LAYER0001
  6
CONTINUOUS
 62
     7
 10
387.7157540247201
 20
51.45688955403513
 30
0.0
 11
387.7723301241798
 21
53.45608758712118
 31
0.0
  0
ENDBLK
  5
7E
  8
0
  0
BLOCK
  8
0
  2
DC_GROUP_18
 70
     0
 10
0.0
 20
0.0
 30
0.0
  3
DC_GROUP_18
  1

  0
LINE
  5
1EE
  8
LAYER0001
  6
CONTINUOUS
 62
     7
 10
401.9917513915416
 20
10.94996346189891
 30
0.0
 11
388.2216440082323
 21
2.999789609593222
 31
0.0
  0
LINE
  5
1EF
  8
LAYER0001
  6
CONTINUOUS
 62
     7
 10
407.4917592522706
 20
1.423684273492301
 30
0.0
 11
393.7216462902153
 21
-6.526493820745941
 31
0.0
  0
LINE
  5
1F0
  8
LAYER0001
  6
CONTINUOUS
 62
     7
 10
390.2013749287457
 20
4.142791386414501
 30
0.0
 11
395.7013739452691
 21
-5.383488539885548
 31
0.0
  0
LINE
  5
1F1
  8
LAYER0001
  6
CONTINUOUS
 62
     7
 10
407.5862875190692
 20
-25.96876742152986
 30
0.0
 11
395.7013739452691
 21
-5.383488539885549
 31
0.0
  0
LINE
  5
1F2
  8
LAYER0001
  6
CONTINUOUS
 62
     7
 10
387.7013753594168
 20
8.472918653984715
 30
0.0
 11
390.2013749287457
 21
4.142791386414501
 31
0.0
  0
INSERT
  5
1F3
  8
LAYER0001
  6
CONTINUOUS
  2
DC_GROUP_19
 10
0.0
 20
0.0
 30
0.0
  0
INSERT
  5
1F4
  8
LAYER0001
  6
CONTINUOUS
  2
DC_GROUP_20
 10
0.0
 20
0.0
 30
0.0
  0
TEXT
  5
1F5
  8
LAYER0001
 62
     7
 10
401.5523141612354
 20
-13.51761624917029
 30
0.0
 40
4.0
  1
11H8
 50
-59.99999999999999
 41
0.6952380952380967
  7
FDASTYLE1
 72
     5
 11
407.1142189231401
 21
-23.15111788364864
 31
0.0
  0
ENDBLK
  5
81
  8
0
  0
BLOCK
  8
0
  2
DC_GROUP_19
 70
     0
 10
0.0
 20
0.0
 30
0.0
  3
DC_GROUP_19
  1

  0
LINE
  5
1F6
  8
LAYER0001
  6
CONTINUOUS
 62
     7
 10
396.2372703390685
 20
-7.383487789170776
 30
0.0
 11
395.7013739452691
 21
-5.383488539885549
 31
0.0
  0
LINE
  5
1F7
  8
LAYER0001
  6
CONTINUOUS
 62
     7
 10
395.7013739452691
 20
-5.383488539885549
 30
0.0
 11
397.1654756145638
 21
-6.847588346591733
 31
0.0
  0
LINE
  5
1F8
  8
LAYER0001
  6
CONTINUOUS
 62
     7
 10
395.7013739452691
 20
-5.383488539885549
 30
0.0
 11
396.7013729768162
 21
-7.115538067881255
 31
0.0
  0
ENDBLK
  5
84
  8
0
  0
BLOCK
  8
0
  2
DC_GROUP_20
 70
     0
 10
0.0
 20
0.0
 30
0.0
  3
DC_GROUP_20
  1

  0
LINE
  5
1F9
  8
LAYER0001
  6
CONTINUOUS
 62
     7
 10
389.6654785349464
 20
6.142790635699729
 30
0.0
 11
390.2013749287457
 21
4.142791386414501
 31
0.0
  0
LINE
  5
1FA
  8
LAYER0001
  6
CONTINUOUS
 62
     7
 10
390.2013749287457
 20
4.142791386414501
 30
0.0
 11
388.7372732594511
 21
5.606891193120688
 31
0.0
  0
LINE
  5
1FB
  8
LAYER0001
  6
CONTINUOUS
 62
     7
 10
390.2013749287457
 20
4.142791386414501
 30
0.0
 11
389.2013758971987
 21
5.874840914410209
 31
0.0
  0
ENDBLK
  5
87
  8
0
  0
BLOCK
  8
0
  2
DC_GROUP_21
 70
     0
 10
0.0
 20
0.0
 30
0.0
  3
DC_GROUP_21
  1

  0
LINE
  5
1FC
  8
LAYER0001
  6
CONTINUOUS
 62
     7
 10
397.7417499289738
 20
18.31118360099953
 30
0.0
 11
372.2962193156617
 21
3.62019938805372
 31
0.0
  0
LINE
  5
1FD
  8
LAYER0001
  6
CONTINUOUS
 62
     7
 10
411.7417649622086
 20
-5.937530437401511
 30
0.0
 11
386.2962243724661
 21
-20.62852216154465
 31
0.0
  0
LINE
  5
1FE
  8
LAYER0001
  6
CONTINUOUS
 62
     7
 10
374.2759499106366
 20
4.763194840128961
 30
0.0
 11
388.2759538445429
 21
-19.48552428967554
 31
0.0
  0
INSERT
  5
1FF
  8
LAYER0001
  6
CONTINUOUS
  2
DC_GROUP_22
 10
0.0
 20
0.0
 30
0.0
  0
INSERT
  5
200
  8
LAYER0001
  6
CONTINUOUS
  2
DC_GROUP_23
 10
0.0
 20
0.0
 30
0.0
  0
TEXT
  5
201
  8
LAYER0001
 62
     7
 10
380.5419772903931
 20
-4.089883448284234
 30
0.0
 40
4.0
  1
28
 50
-59.99999999999999
 41
0.6476190476190461
  7
FDASTYLE1
 72
     5
 11
383.1324534808692
 21
-8.57671982598646
 31
0.0
  0
ENDBLK
  5
8A
  8
0
  0
BLOCK
  8
0
  2
DC_GROUP_22
 70
     0
 10
0.0
 20
0.0
 30
0.0
  3
DC_GROUP_22
  1

  0
LINE
  5
202
  8
LAYER0001
  6
CONTINUOUS
 62
     7
 10
374.8118464672788
 20
2.763195634477208
 30
0.0
 11
374.2759499106366
 21
4.763194840128961
 31
0.0
  0
LINE
  5
203
  8
LAYER0001
  6
CONTINUOUS
 62
     7
 10
374.2759499106366
 20
4.763194840128961
 30
0.0
 11
375.7400516991405
 21
3.299095152632075
 31
0.0
  0
LINE
  5
204
  8
LAYER0001
  6
CONTINUOUS
 62
     7
 10
374.2759499106366
 20
4.763194840128961
 30
0.0
 11
375.2759490832096
 21
3.031145393554642
 31
0.0
  0
ENDBLK
  5
8D
  8
0
  0
BLOCK
  8
0
  2
DC_GROUP_23
 70
     0
 10
0.0
 20
0.0
 30
0.0
  3
DC_GROUP_23
  1

  0
LINE
  5
205
  8
LAYER0001
  6
CONTINUOUS
 62
     7
 10
387.7400572879006
 20
-17.48552508402378
 30
0.0
 11
388.2759538445429
 21
-19.48552428967554
 31
0.0
  0
LINE
  5
206
  8
LAYER0001
  6
CONTINUOUS
 62
     7
 10
388.2759538445429
 20
-19.48552428967554
 30
0.0
 11
386.811852056039
 21
-18.02142460217865
 31
0.0
  0
LINE
  5
207
  8
LAYER0001
  6
CONTINUOUS
 62
     7
 10
388.2759538445429
 20
-19.48552428967554
 30
0.0
 11
387.2759546719698
 21
-17.75347484310122
 31
0.0
  0
ENDBLK
  5
90
  8
0
  0
BLOCK
  8
0
  2
DC_GROUP_24
 70
     0
 10
0.0
 20
0.0
 30
0.0
  3
DC_GROUP_24
  1

  0
LINE
  5
208
  8
LAYER0001
  6
CONTINUOUS
 62
     7
 10
477.1930813241155
 20
-7.053891146546562
 30
0.0
 11
452.456527119696
 21
-51.81492076538058
 31
0.0
  0
LINE
  5
209
  8
LAYER0001
  6
CONTINUOUS
 62
     7
 10
452.456530086713
 20
-51.81492176762333
 30
0.0
 11
421.8268608972599
 21
-51.81492176762333
 31
0.0
  0
INSERT
  5
20A
  8
LAYER0001
  6
CONTINUOUS
  2
DC_GROUP_25
 10
0.0
 20
0.0
 30
0.0
  0
TEXT
  5
20B
  8
LAYER0001
 62
     7
 10
423.0885826990177
 20
-50.21492176762333
 30
0.0
 40
4.0
  1
PCD104.77
 41
0.7026455026455017
  7
FDASTYLE1
 72
     5
 11
448.3838207942557
 21
-50.21492176762333
 31
0.0
  0
ENDBLK
  5
93
  8
0
  0
BLOCK
  8
0
  2
DC_GROUP_25
 70
     0
 10
0.0
 20
0.0
 30
0.0
  3
DC_GROUP_25
  1

  0
LINE
  5
20C
  8
LAYER0001
  6
CONTINUOUS
 62
     7
 10
475.7566633437671
 20
-8.545160849772771
 30
0.0
 11
477.1930813241155
 21
-7.053891146546562
 31
0.0
  0
LINE
  5
20D
  8
LAYER0001
  6
CONTINUOUS
 62
     7
 10
477.1930813241155
 20
-7.053891146546562
 30
0.0
 11
476.6947446707259
 21
-9.06357831670941
 31
0.0
  0
LINE
  5
20E
  8
LAYER0001
  6
CONTINUOUS
 62
     7
 10
477.1930813241155
 20
-7.053891146546562
 30
0.0
 11
476.2257040072465
 21
-8.80436958324109
 31
0.0
  0
ENDBLK
  5
96
  8
0
  0
BLOCK
  8
0
  2
DC_GROUP_26
 70
     0
 10
0.0
 20
0.0
 30
0.0
  3
DC_GROUP_26
  1

  0
LINE
  5
20F
  8
LAYER0001
  6
CONTINUOUS
 62
     7
 10
485.1443190226987
 20
10.83638091690443
 30
0.0
 11
520.4894494331043
 21
-51.8149231132644
 31
0.0
  0
LINE
  5
210
  8
LAYER0001
  6
CONTINUOUS
 62
     7
 10
520.4894509241153
 20
-51.81492176762333
 30
0.0
 11
563.9191079065372
 21
-51.81492176762333
 31
0.0
  0
INSERT
  5
211
  8
LAYER0001
  6
CONTINUOUS
  2
DC_GROUP_27
 10
0.0
 20
0.0
 30
0.0
  0
TEXT
  5
212
  8
LAYER0001
 62
     7
 10
521.0573830530216
 20
-50.21492176762333
 30
0.0
 40
4.0
  1
3-M6×13 PCD76
 41
0.6326905417814503
  7
FDASTYLE1
 72
     5
 11
554.4634436590822
 21
-50.21492176762333
 31
0.0
  0
ENDBLK
  5
99
  8
0
  0
BLOCK
  8
0
  2
DC_GROUP_27
 70
     0
 10
0.0
 20
0.0
 30
0.0
  3
DC_GROUP_27
  1

  0
LINE
  5
213
  8
LAYER0001
  6
CONTINUOUS
 62
     7
 10
485.6602854604221
 20
8.831147619462035
 30
0.0
 11
485.1443190226987
 21
10.83638091690443
 31
0.0
  0
LINE
  5
214
  8
LAYER0001
  6
CONTINUOUS
 62
     7
 10
485.1443190226987
 20
10.83638091690443
 30
0.0
 11
486.5937778891415
 21
9.357783291950595
 31
0.0
  0
LINE
  5
215
  8
LAYER0001
  6
CONTINUOUS
 62
     7
 10
485.1443190226987
 20
10.83638091690443
 30
0.0
 11
486.1270316747817
 21
9.094465455706311
 31
0.0
  0
ENDBLK
  5
9C
  8
0
  0
BLOCK
  8
0
  2
DC_GROUP_28
 70
     0
 10
0.0
 20
0.0
 30
0.0
  3
DC_GROUP_28
  1

  0
LINE
  5
216
  8
LAYER0001
  6
CONTINUOUS
 62
     7
 10
392.5783342859318
 20
51.45682963618526
 30
0.0
 11
374.4836716577579
 21
51.45682963618526
 31
0.0
  0
LINE
  5
217
  8
LAYER0001
  6
CONTINUOUS
 62
     7
 10
421.4574436953088
 20
109.456825821488
 30
0.0
 11
374.4836716577579
 21
109.456825821488
 31
0.0
  0
LINE
  5
218
  8
LAYER0001
  6
CONTINUOUS
 62
     7
 10
375.4836716577579
 20
51.45682963618526
 30
0.0
 11
375.4836716577579
 21
109.456825821488
 31
0.0
  0
INSERT
  5
219
  8
LAYER0001
  6
CONTINUOUS
  2
DC_GROUP_29
 10
0.0
 20
0.0
 30
0.0
  0
INSERT
  5
21A
  8
LAYER0001
  6
CONTINUOUS
  2
DC_GROUP_30
 10
0.0
 20
0.0
 30
0.0
  0
TEXT
  5
21B
  8
LAYER0001
 62
     7
 10
373.8836716577579
 20
77.25682582148799
 30
0.0
 40
4.0
  1
58
 50
90.0
 41
0.6476190476190453
  7
FDASTYLE1
 72
     5
 11
373.8836716577579
 21
82.43777820244036
 31
0.0
  0
ENDBLK
  5
9F
  8
0
  0
BLOCK
  8
0
  2
DC_GROUP_29
 70
     0
 10
0.0
 20
0.0
 30
0.0
  3
DC_GROUP_29
  1

  0
LINE
  5
21C
  8
LAYER0001
  6
CONTINUOUS
 62
     7
 10
376.0195711926555
 20
53.45682804381591
 30
0.0
 11
375.4836716577579
 21
51.45682963618526
 31
0.0
  0
LINE
  5
21D
  8
LAYER0001
  6
CONTINUOUS
 62
     7
 10
375.4836716577579
 20
51.45682963618526
 30
0.0
 11
374.9477721228603
 21
53.45682804381592
 31
0.0
  0
LINE
  5
21E
  8
LAYER0001
  6
CONTINUOUS
 62
     7
 10
375.4836716577579
 20
51.45682963618526
 30
0.0
 11
375.4836716577579
 21
53.45682804381592
 31
0.0
  0
ENDBLK
  5
A2
  8
0
  0
BLOCK
  8
0
  2
DC_GROUP_30
 70
     0
 10
0.0
 20
0.0
 30
0.0
  3
DC_GROUP_30
  1

  0
LINE
  5
21F
  8
LAYER0001
  6
CONTINUOUS
 62
     7
 10
374.9477721228603
 20
107.4568274138573
 30
0.0
 11
375.4836716577579
 21
109.456825821488
 31
0.0
  0
LINE
  5
220
  8
LAYER0001
  6
CONTINUOUS
 62
     7
 10
375.4836716577579
 20
109.456825821488
 30
0.0
 11
376.0195711926555
 21
107.4568274138573
 31
0.0
  0
LINE
  5
221
  8
LAYER0001
  6
CONTINUOUS
 62
     7
 10
375.4836716577579
 20
109.456825821488
 30
0.0
 11
375.4836716577579
 21
107.4568274138573
 31
0.0
  0
ENDBLK
  5
A5
  8
0
  0
BLOCK
  8
0
  2
DC_GROUP_31
 70
     0
 10
0.0
 20
0.0
 30
0.0
  3
DC_GROUP_31
  1

  0
LINE
  5
222
  8
LAYER0001
  6
CONTINUOUS
 62
     7
 10
383.6136801638951
 20
-29.10548231725056
 30
0.0
 11
393.8416203061219
 21
-23.20037897528783
 31
0.0
  0
LINE
  5
223
  8
LAYER0001
  6
CONTINUOUS
 62
     7
 10
391.6136941792379
 20
-42.96190313987966
 30
0.0
 11
401.8416293660273
 21
-37.05680265893972
 31
0.0
  0
LINE
  5
224
  8
LAYER0001
  6
CONTINUOUS
 62
     7
 10
392.9755948582764
 20
-23.70037894548551
 30
0.0
 11
400.9756039181818
 21
-37.55680262913739
 31
0.0
  0
INSERT
  5
225
  8
LAYER0001
  6
CONTINUOUS
  2
DC_GROUP_32
 10
0.0
 20
0.0
 30
0.0
  0
INSERT
  5
226
  8
LAYER0001
  6
CONTINUOUS
  2
DC_GROUP_33
 10
0.0
 20
0.0
 30
0.0
  0
TEXT
  5
227
  8
LAYER0001
 62
     7
 10
395.9612365897017
 20
-25.67166712682131
 30
0.0
 40
4.0
  1
φ16
 50
-59.99999999999999
 41
0.6093749999999994
  7
FDASTYLE1
 72
     5
 11
399.8612365897017
 21
-32.42666527633994
 31
0.0
  0
ENDBLK
  5
A8
  8
0
  0
BLOCK
  8
0
  2
DC_GROUP_32
 70
     0
 10
0.0
 20
0.0
 30
0.0
  3
DC_GROUP_32
  1

  0
LINE
  5
228
  8
LAYER0001
  6
CONTINUOUS
 62
     7
 10
393.511491355314
 20
-25.70037816710823
 30
0.0
 11
392.9755948582764
 21
-23.70037894548551
 31
0.0
  0
LINE
  5
229
  8
LAYER0001
  6
CONTINUOUS
 62
     7
 10
392.9755948582764
 20
-23.70037894548551
 30
0.0
 11
394.4396966031467
 21
-25.16447867661603
 31
0.0
  0
LINE
  5
22A
  8
LAYER0001
  6
CONTINUOUS
 62
     7
 10
392.9755948582764
 20
-23.70037894548551
 30
0.0
 11
393.9755939792303
 21
-25.43242842186213
 31
0.0
  0
ENDBLK
  5
AB
  8
0
  0
BLOCK
  8
0
  2
DC_GROUP_33
 70
     0
 10
0.0
 20
0.0
 30
0.0
  3
DC_GROUP_33
  1

  0
LINE
  5
22B
  8
LAYER0001
  6
CONTINUOUS
 62
     7
 10
400.4397074211442
 20
-35.55680340751467
 30
0.0
 11
400.9756039181818
 21
-37.55680262913739
 31
0.0
  0
LINE
  5
22C
  8
LAYER0001
  6
CONTINUOUS
 62
     7
 10
400.9756039181818
 20
-37.55680262913739
 30
0.0
 11
399.5115021733116
 21
-36.09270289800687
 31
0.0
  0
LINE
  5
22D
  8
LAYER0001
  6
CONTINUOUS
 62
     7
 10
400.9756039181818
 20
-37.55680262913739
 30
0.0
 11
399.9756047972279
 21
-35.82475315276077
 31
0.0
  0
ENDBLK
  5
AE
  8
0
  0
BLOCK
  8
0
  2
DC_GROUP_34
 70
     0
 10
0.0
 20
0.0
 30
0.0
  3
DC_GROUP_34
  1

  0
LINE
  5
22E
  8
LAYER0001
  6
CONTINUOUS
 62
     7
 10
455.1516976282169
 20
123.83411372432
 30
0.0
 11
455.1516976282169
 21
157.459381668656
 31
0.0
  0
LINE
  5
22F
  8
LAYER0001
  6
CONTINUOUS
 62
     7
 10
483.1516976282169
 20
148.3470989538122
 30
0.0
 11
483.1516976282169
 21
157.459381668656
 31
0.0
  0
LINE
  5
230
  8
LAYER0001
  6
CONTINUOUS
 62
     7
 10
455.1516976282169
 20
156.459381668656
 30
0.0
 11
483.1516976282169
 21
156.459381668656
 31
0.0
  0
INSERT
  5
231
  8
LAYER0001
  6
BORDER
  2
DC_GROUP_35
 10
0.0
 20
0.0
 30
0.0
  0
INSERT
  5
232
  8
LAYER0001
  6
CONTINUOUS
  2
DC_GROUP_36
 10
0.0
 20
0.0
 30
0.0
  0
TEXT
  5
233
  8
LAYER0001
 62
     7
 10
465.9516976282169
 20
158.059381668656
 30
0.0
 40
4.0
  1
28
 41
0.6476190476190524
  7
FDASTYLE1
 72
     5
 11
471.1326500091693
 21
158.059381668656
 31
0.0
  0
ENDBLK
  5
B1
  8
0
  0
BLOCK
  8
0
  2
DC_GROUP_35
 70
     0
 10
0.0
 20
0.0
 30
0.0
  3
DC_GROUP_35
  1

  0
LINE
  5
234
  8
LAYER0001
  6
CONTINUOUS
 62
     7
 10
457.1516960358475
 20
155.9234821337584
 30
0.0
 11
455.1516976282169
 21
156.459381668656
 31
0.0
  0
LINE
  5
235
  8
LAYER0001
  6
CONTINUOUS
 62
     7
 10
455.1516976282169
 20
156.459381668656
 30
0.0
 11
457.1516960358475
 21
156.9952812035536
 31
0.0
  0
LINE
  5
236
  8
LAYER0001
  6
CONTINUOUS
 62
     7
 10
455.1516976282169
 20
156.459381668656
 30
0.0
 11
457.1516960358475
 21
156.459381668656
 31
0.0
  0
ENDBLK
  5
B4
  8
0
  0
BLOCK
  8
0
  2
DC_GROUP_36
 70
     0
 10
0.0
 20
0.0
 30
0.0
  3
DC_GROUP_36
  1

  0
LINE
  5
237
  8
LAYER0001
  6
CONTINUOUS
 62
     7
 10
481.1516992205862
 20
156.9952812035536
 30
0.0
 11
483.1516976282169
 21
156.459381668656
 31
0.0
  0
LINE
  5
238
  8
LAYER0001
  6
CONTINUOUS
 62
     7
 10
483.1516976282169
 20
156.459381668656
 30
0.0
 11
481.1516992205862
 21
155.9234821337584
 31
0.0
  0
LINE
  5
239
  8
LAYER0001
  6
CONTINUOUS
 62
     7
 10
483.1516976282169
 20
156.459381668656
 30
0.0
 11
481.1516992205862
 21
156.459381668656
 31
0.0
  0
ENDBLK
  5
B7
  8
0
  0
BLOCK
  8
0
  2
DC_GROUP_37
 70
     0
 10
0.0
 20
0.0
 30
0.0
  3
DC_GROUP_37
  1

  0
LINE
  5
23A
  8
LAYER0001
  6
CONTINUOUS
 62
     7
 10
233.1783175012638
 20
72.95681495844883
 30
0.0
 11
167.2112297937442
 21
72.95681495844883
 31
0.0
  0
LINE
  5
23B
  8
LAYER0001
  6
CONTINUOUS
 62
     7
 10
233.1783175012638
 20
29.95681686579746
 30
0.0
 11
167.2112297937442
 21
29.95681686579746
 31
0.0
  0
LINE
  5
23C
  8
LAYER0001
  6
CONTINUOUS
 62
     7
 10
169.4972252771427
 20
72.95681495844883
 30
0.0
 11
169.4972252771427
 21
29.95681686579746
 31
0.0
  0
INSERT
  5
23D
  8
LAYER0001
  6
CONTINUOUS
  2
DC_GROUP_38
 10
0.0
 20
0.0
 30
0.0
  0
INSERT
  5
23E
  8
LAYER0001
  6
CONTINUOUS
  2
DC_GROUP_39
 10
0.0
 20
0.0
 30
0.0
  0
TEXT
  5
23F
  8
LAYER0001
 62
     7
 10
168.4832626502155
 20
43.45682809681684
 30
0.0
 40
4.0
  1
φ43H7
 50
89.90000000000001
 41
0.6213017751479295
  7
FDASTYLE1
 72
     5
 11
168.505817662944
 21
56.37988533692703
 31
0.0
  0
ENDBLK
  5
BA
  8
0
  0
BLOCK
  8
0
  2
DC_GROUP_38
 70
     0
 10
0.0
 20
0.0
 30
0.0
  3
DC_GROUP_38
  1

  0
LINE
  5
240
  8
LAYER0001
  6
CONTINUOUS
 62
     7
 10
168.9613257422451
 20
70.95681655081816
 30
0.0
 11
169.4972252771427
 21
72.95681495844883
 31
0.0
  0
LINE
  5
241
  8
LAYER0001
  6
CONTINUOUS
 62
     7
 10
169.4972252771427
 20
72.95681495844883
 30
0.0
 11
170.0331248120403
 21
70.95681655081816
 31
0.0
  0
LINE
  5
242
  8
LAYER0001
  6
CONTINUOUS
 62
     7
 10
169.4972252771427
 20
72.95681495844883
 30
0.0
 11
169.4972252771427
 21
70.95681655081816
 31
0.0
  0
ENDBLK
  5
BD
  8
0
  0
BLOCK
  8
0
  2
DC_GROUP_39
 70
     0
 10
0.0
 20
0.0
 30
0.0
  3
DC_GROUP_39
  1

  0
LINE
  5
243
  8
LAYER0001
  6
CONTINUOUS
 62
     7
 10
170.0331248120403
 20
31.95681527342812
 30
0.0
 11
169.4972252771427
 21
29.95681686579746
 31
0.0
  0
LINE
  5
244
  8
LAYER0001
  6
CONTINUOUS
 62
     7
 10
169.4972252771427
 20
29.95681686579746
 30
0.0
 11
168.9613257422451
 21
31.95681527342812
 31
0.0
  0
LINE
  5
245
  8
LAYER0001
  6
CONTINUOUS
 62
     7
 10
169.4972252771427
 20
29.95681686579746
 30
0.0
 11
169.4972252771427
 21
31.95681527342812
 31
0.0
  0
ENDBLK
  5
C0
  8
0
  0
BLOCK
  8
0
  2
DC_GROUP_40
 70
     0
 10
0.0
 20
0.0
 30
0.0
  3
DC_GROUP_40
  1

  0
LINE
  5
246
  8
LAYER0001
  6
CONTINUOUS
 62
     7
 10
200.1783251306583
 20
78.45681495844883
 30
0.0
 11
155.702867977338
 21
78.45681495844883
 31
0.0
  0
LINE
  5
247
  8
LAYER0001
  6
CONTINUOUS
 62
     7
 10
203.3783220789005
 20
24.45681686579746
 30
0.0
 11
155.702867977338
 21
24.45681686579746
 31
0.0
  0
LINE
  5
248
  8
LAYER0001
  6
CONTINUOUS
 62
     7
 10
157.9888634607364
 20
78.45681495844883
 30
0.0
 11
157.9888634607364
 21
24.45681686579746
 31
0.0
  0
INSERT
  5
249
  8
LAYER0001
  6
CONTINUOUS
  2
DC_GROUP_41
 10
0.0
 20
0.0
 30
0.0
  0
INSERT
  5
24A
  8
LAYER0001
  6
CONTINUOUS
  2
DC_GROUP_42
 10
0.0
 20
0.0
 30
0.0
  0
TEXT
  5
24B
  8
LAYER0001
 62
     7
 10
156.374903270748
 20
43.45962348322523
 30
0.0
 40
4.0
  1
φ54H7
 50
89.90000000000001
 41
0.6213017751479282
  7
FDASTYLE1
 72
     5
 11
156.3974582834765
 21
56.38268072333539
 31
0.0
  0
ENDBLK
  5
C3
  8
0
  0
BLOCK
  8
0
  2
DC_GROUP_41
 70
     0
 10
0.0
 20
0.0
 30
0.0
  3
DC_GROUP_41
  1

  0
LINE
  5
24C
  8
LAYER0001
  6
CONTINUOUS
 62
     7
 10
157.4529639258388
 20
76.45681655081818
 30
0.0
 11
157.9888634607364
 21
78.45681495844883
 31
0.0
  0
LINE
  5
24D
  8
LAYER0001
  6
CONTINUOUS
 62
     7
 10
157.9888634607364
 20
78.45681495844883
 30
0.0
 11
158.524762995634
 21
76.45681655081818
 31
0.0
  0
LINE
  5
24E
  8
LAYER0001
  6
CONTINUOUS
 62
     7
 10
157.9888634607364
 20
78.45681495844883
 30
0.0
 11
157.9888634607364
 21
76.45681655081818
 31
0.0
  0
ENDBLK
  5
C6
  8
0
  0
BLOCK
  8
0
  2
DC_GROUP_42
 70
     0
 10
0.0
 20
0.0
 30
0.0
  3
DC_GROUP_42
  1

  0
LINE
  5
24F
  8
LAYER0001
  6
CONTINUOUS
 62
     7
 10
158.524762995634
 20
26.45681527342812
 30
0.0
 11
157.9888634607364
 21
24.45681686579746
 31
0.0
  0
LINE
  5
250
  8
LAYER0001
  6
CONTINUOUS
 62
     7
 10
157.9888634607364
 20
24.45681686579746
 30
0.0
 11
157.4529639258388
 21
26.45681527342812
 31
0.0
  0
LINE
  5
251
  8
LAYER0001
  6
CONTINUOUS
 62
     7
 10
157.9888634607364
 20
24.45681686579746
 30
0.0
 11
157.9888634607364
 21
26.45681527342812
 31
0.0
  0
ENDBLK
  5
C9
  8
0
  0
BLOCK
  8
0
  2
DC_GROUP_43
 70
     0
 10
0.0
 20
0.0
 30
0.0
  3
DC_GROUP_43
  1

  0
LINE
  5
252
  8
LAYER0001
  6
CONTINUOUS
 62
     7
 10
199.1783251306583
 20
121.4568149584488
 30
0.0
 11
143.1156029626895
 21
121.4568149584488
 31
0.0
  0
LINE
  5
253
  8
LAYER0001
  6
CONTINUOUS
 62
     7
 10
199.1783251306583
 20
-18.54318313420254
 30
0.0
 11
143.1156029626895
 21
-18.54318313420254
 31
0.0
  0
LINE
  5
254
  8
LAYER0001
  6
CONTINUOUS
 62
     7
 10
145.401598446088
 20
121.4568149584488
 30
0.0
 11
145.401598446088
 21
-18.54318313420254
 31
0.0
  0
INSERT
  5
255
  8
LAYER0001
  6
CONTINUOUS
  2
DC_GROUP_44
 10
0.0
 20
0.0
 30
0.0
  0
INSERT
  5
256
  8
LAYER0001
  6
CONTINUOUS
  2
DC_GROUP_45
 10
0.0
 20
0.0
 30
0.0
  0
TEXT
  5
257
  8
LAYER0001
 62
     7
 10
143.7848457307141
 20
41.85962592016397
 30
0.0
 40
4.0
  1
φ140H7
 50
89.90000000000001
 41
0.6243496357960451
  7
FDASTYLE1
 72
     5
 11
143.811870169928
 21
57.34347330462776
 31
0.0
  0
ENDBLK
  5
CC
  8
0
  0
BLOCK
  8
0
  2
DC_GROUP_44
 70
     0
 10
0.0
 20
0.0
 30
0.0
  3
DC_GROUP_44
  1

  0
LINE
  5
258
  8
LAYER0001
  6
CONTINUOUS
 62
     7
 10
144.8656989111904
 20
119.4568165508181
 30
0.0
 11
145.401598446088
 21
121.4568149584488
 31
0.0
  0
LINE
  5
259
  8
LAYER0001
  6
CONTINUOUS
 62
     7
 10
145.401598446088
 20
121.4568149584488
 30
0.0
 11
145.9374979809856
 21
119.4568165508181
 31
0.0
  0
LINE
  5
25A
  8
LAYER0001
  6
CONTINUOUS
 62
     7
 10
145.401598446088
 20
121.4568149584488
 30
0.0
 11
145.401598446088
 21
119.4568165508181
 31
0.0
  0
ENDBLK
  5
CF
  8
0
  0
BLOCK
  8
0
  2
DC_GROUP_45
 70
     0
 10
0.0
 20
0.0
 30
0.0
  3
DC_GROUP_45
  1

  0
LINE
  5
25B
  8
LAYER0001
  6
CONTINUOUS
 62
     7
 10
145.9374979809856
 20
-16.54318472657188
 30
0.0
 11
145.401598446088
 21
-18.54318313420254
 31
0.0
  0
LINE
  5
25C
  8
LAYER0001
  6
CONTINUOUS
 62
     7
 10
145.401598446088
 20
-18.54318313420254
 30
0.0
 11
144.8656989111904
 21
-16.54318472657188
 31
0.0
  0
LINE
  5
25D
  8
LAYER0001
  6
CONTINUOUS
 62
     7
 10
145.401598446088
 20
-18.54318313420254
 30
0.0
 11
145.401598446088
 21
-16.54318472657188
 31
0.0
  0
ENDBLK
  5
D2
  8
0
  0
BLOCK
  8
0
  2
DC_GROUP_46
 70
     0
 10
0.0
 20
0.0
 30
0.0
  3
DC_GROUP_46
  1

  0
LINE
  5
25E
  8
LAYER0001
  6
CONTINUOUS
 62
     7
 10
199.1783251306583
 20
131.4568149584488
 30
0.0
 11
131.2476067468692
 21
131.4568149584488
 31
0.0
  0
LINE
  5
25F
  8
LAYER0001
  6
CONTINUOUS
 62
     7
 10
199.1783251306583
 20
-28.54318122685391
 30
0.0
 11
131.2476067468692
 21
-28.54318122685391
 31
0.0
  0
LINE
  5
260
  8
LAYER0001
  6
CONTINUOUS
 62
     7
 10
133.5336022302677
 20
131.4568149584488
 30
0.0
 11
133.5336022302677
 21
-28.54318122685391
 31
0.0
  0
INSERT
  5
261
  8
LAYER0001
  6
CONTINUOUS
  2
DC_GROUP_47
 10
0.0
 20
0.0
 30
0.0
  0
INSERT
  5
262
  8
LAYER0001
  6
CONTINUOUS
  2
DC_GROUP_48
 10
0.0
 20
0.0
 30
0.0
  0
TEXT
  5
263
  8
LAYER0001
 62
     7
 10
131.9224345656647
 20
45.05962104628648
 30
0.0
 40
4.0
  1
φ160
 50
89.90000000000001
 41
0.616780045351475
  7
FDASTYLE1
 72
     5
 11
131.9405194919704
 21
55.4215100261118
 31
0.0
  0
ENDBLK
  5
D5
  8
0
  0
BLOCK
  8
0
  2
DC_GROUP_47
 70
     0
 10
0.0
 20
0.0
 30
0.0
  3
DC_GROUP_47
  1

  0
LINE
  5
264
  8
LAYER0001
  6
CONTINUOUS
 62
     7
 10
132.9977026953701
 20
129.4568165508182
 30
0.0
 11
133.5336022302677
 21
131.4568149584488
 31
0.0
  0
LINE
  5
265
  8
LAYER0001
  6
CONTINUOUS
 62
     7
 10
133.5336022302677
 20
131.4568149584488
 30
0.0
 11
134.0695017651653
 21
129.4568165508182
 31
0.0
  0
LINE
  5
266
  8
LAYER0001
  6
CONTINUOUS
 62
     7
 10
133.5336022302677
 20
131.4568149584488
 30
0.0
 11
133.5336022302677
 21
129.4568165508182
 31
0.0
  0
ENDBLK
  5
D8
  8
0
  0
BLOCK
  8
0
  2
DC_GROUP_48
 70
     0
 10
0.0
 20
0.0
 30
0.0
  3
DC_GROUP_48
  1

  0
LINE
  5
267
  8
LAYER0001
  6
CONTINUOUS
 62
     7
 10
134.0695017651653
 20
-26.54318281922325
 30
0.0
 11
133.5336022302677
 21
-28.54318122685391
 31
0.0
  0
LINE
  5
268
  8
LAYER0001
  6
CONTINUOUS
 62
     7
 10
133.5336022302677
 20
-28.54318122685391
 30
0.0
 11
132.9977026953701
 21
-26.54318281922325
 31
0.0
  0
LINE
  5
269
  8
LAYER0001
  6
CONTINUOUS
 62
     7
 10
133.5336022302677
 20
-28.54318122685391
 30
0.0
 11
133.5336022302677
 21
-26.54318281922325
 31
0.0
  0
ENDBLK
  5
DB
  8
0
  0
BLOCK
  8
0
  2
DC_GROUP_49
 70
     0
 10
0.0
 20
0.0
 30
0.0
  3
DC_GROUP_49
  1

  0
LINE
  5
26A
  8
LAYER0001
  6
CONTINUOUS
 62
     7
 10
257.2583175012638
 20
28.45681686579746
 30
0.0
 11
315.2780518457462
 21
28.45681686579746
 31
0.0
  0
LINE
  5
26B
  8
LAYER0001
  6
CONTINUOUS
 62
     7
 10
312.9920525476505
 20
28.45681686579746
 30
0.0
 11
312.9920525476505
 21
71.19014854609532
 31
0.0
  0
INSERT
  5
26C
  8
LAYER0001
  6
CONTINUOUS
  2
DC_GROUP_50
 10
0.0
 20
0.0
 30
0.0
  0
TEXT
  5
26D
  8
LAYER0001
 62
     7
 10
311.3669222561203
 20
37.05963323098018
 30
0.0
 40
4.0
  1
M46×P1.25
 50
89.90000000000001
 41
0.6294896030245745
  7
FDASTYLE1
 72
     5
 11
311.4073531671355
 21
60.22481533964972
 31
0.0
  0
ENDBLK
  5
DE
  8
0
  0
BLOCK
  8
0
  2
DC_GROUP_50
 70
     0
 10
0.0
 20
0.0
 30
0.0
  3
DC_GROUP_50
  1

  0
LINE
  5
26E
  8
LAYER0001
  6
CONTINUOUS
 62
     7
 10
313.5279520825481
 20
30.45681527342812
 30
0.0
 11
312.9920525476505
 21
28.45681686579746
 31
0.0
  0
LINE
  5
26F
  8
LAYER0001
  6
CONTINUOUS
 62
     7
 10
312.9920525476505
 20
28.45681686579746
 30
0.0
 11
312.4561530127529
 21
30.45681527342812
 31
0.0
  0
LINE
  5
270
  8
LAYER0001
  6
CONTINUOUS
 62
     7
 10
312.9920525476505
 20
28.45681686579746
 30
0.0
 11
312.9920525476505
 21
30.45681527342812
 31
0.0
  0
ENDBLK
  5
E1
  8
0
  0
BLOCK
  8
0
  2
DC_GROUP_51
 70
     0
 10
0.0
 20
0.0
 30
0.0
  3
DC_GROUP_51
  1

  0
LINE
  5
271
  8
LAYER0001
  6
CONTINUOUS
 62
     7
 10
283.2583175012638
 20
18.45681686579746
 30
0.0
 11
327.146040432172
 21
18.45681686579746
 31
0.0
  0
LINE
  5
272
  8
LAYER0001
  6
CONTINUOUS
 62
     7
 10
324.8600411340763
 20
18.45681686579746
 30
0.0
 11
324.8600411340763
 21
71.52348442256016
 31
0.0
  0
INSERT
  5
273
  8
LAYER0001
  6
CONTINUOUS
  2
DC_GROUP_52
 10
0.0
 20
0.0
 30
0.0
  0
TEXT
  5
274
  8
LAYER0001
 62
     7
 10
323.2600411340762
 20
43.80524559199375
 30
0.0
 40
4.0
  1
φ66H7
 50
90.0
 41
0.6213017751479282
  7
FDASTYLE1
 72
     5
 11
323.2600411340762
 21
56.72832251507066
 31
0.0
  0
ENDBLK
  5
E4
  8
0
  0
BLOCK
  8
0
  2
DC_GROUP_52
 70
     0
 10
0.0
 20
0.0
 30
0.0
  3
DC_GROUP_52
  1

  0
LINE
  5
275
  8
LAYER0001
  6
CONTINUOUS
 62
     7
 10
325.3959406689739
 20
20.45681527342812
 30
0.0
 11
324.8600411340763
 21
18.45681686579746
 31
0.0
  0
LINE
  5
276
  8
LAYER0001
  6
CONTINUOUS
 62
     7
 10
324.8600411340763
 20
18.45681686579746
 30
0.0
 11
324.3241415991786
 21
20.45681527342812
 31
0.0
  0
LINE
  5
277
  8
LAYER0001
  6
CONTINUOUS
 62
     7
 10
324.8600411340763
 20
18.45681686579746
 30
0.0
 11
324.8600411340763
 21
20.45681527342812
 31
0.0
  0
ENDBLK
  5
E7
  8
0
  0
BLOCK
  8
0
  2
DC_GROUP_53
 70
     0
 10
0.0
 20
0.0
 30
0.0
  3
DC_GROUP_53
  1

  0
LINE
  5
278
  8
LAYER0001
  6
CONTINUOUS
 62
     7
 10
282.2583175012638
 20
82.45681495844883
 30
0.0
 11
339.0140376016666
 21
82.45681495844883
 31
0.0
  0
LINE
  5
279
  8
LAYER0001
  6
CONTINUOUS
 62
     7
 10
282.2583175012638
 20
139.4568225878434
 30
0.0
 11
339.0140376016666
 21
139.4568225878434
 31
0.0
  0
LINE
  5
27A
  8
LAYER0001
  6
CONTINUOUS
 62
     7
 10
336.7280373498966
 20
82.45681495844883
 30
0.0
 11
336.7280373498966
 21
139.4568225878434
 31
0.0
  0
INSERT
  5
27B
  8
LAYER0001
  6
DASHDOT2
  2
DC_GROUP_54
 10
0.0
 20
0.0
 30
0.0
  0
INSERT
  5
27C
  8
LAYER0001
  6
DASHDOT2
  2
DC_GROUP_55
 10
0.0
 20
0.0
 30
0.0
  0
TEXT
  5
27D
  8
LAYER0001
 62
     7
 10
335.7224522991257
 20
107.7568236470236
 30
0.0
 40
4.0
  1
57
 50
89.90000000000001
 41
0.6476190476190452
  7
FDASTYLE1
 72
     5
 11
335.7314947622785
 21
112.9377681369362
 31
0.0
  0
ENDBLK
  5
EA
  8
0
  0
BLOCK
  8
0
  2
DC_GROUP_54
 70
     0
 10
0.0
 20
0.0
 30
0.0
  3
DC_GROUP_54
  1

  0
LINE
  5
27E
  8
LAYER0001
  6
CONTINUOUS
 62
     7
 10
337.2639368847942
 20
84.45681336607949
 30
0.0
 11
336.7280373498966
 21
82.45681495844883
 31
0.0
  0
LINE
  5
27F
  8
LAYER0001
  6
CONTINUOUS
 62
     7
 10
336.7280373498966
 20
82.45681495844883
 30
0.0
 11
336.1921378149989
 21
84.45681336607949
 31
0.0
  0
LINE
  5
280
  8
LAYER0001
  6
CONTINUOUS
 62
     7
 10
336.7280373498966
 20
82.45681495844883
 30
0.0
 11
336.7280373498966
 21
84.45681336607949
 31
0.0
  0
ENDBLK
  5
ED
  8
0
  0
BLOCK
  8
0
  2
DC_GROUP_55
 70
     0
 10
0.0
 20
0.0
 30
0.0
  3
DC_GROUP_55
  1

  0
LINE
  5
281
  8
LAYER0001
  6
CONTINUOUS
 62
     7
 10
336.1921378149989
 20
137.4568241802127
 30
0.0
 11
336.7280373498966
 21
139.4568225878434
 31
0.0
  0
LINE
  5
282
  8
LAYER0001
  6
CONTINUOUS
 62
     7
 10
336.7280373498966
 20
139.4568225878434
 30
0.0
 11
337.2639368847942
 21
137.4568241802127
 31
0.0
  0
LINE
  5
283
  8
LAYER0001
  6
CONTINUOUS
 62
     7
 10
336.7280373498966
 20
139.4568225878434
 30
0.0
 11
336.7280373498966
 21
137.4568241802127
 31
0.0
  0
ENDBLK
  5
F0
  8
0
  0
BLOCK
  8
0
  2
DC_GROUP_56
 70
     0
 10
0.0
 20
0.0
 30
0.0
  3
DC_GROUP_56
  1

  0
LINE
  5
284
  8
LAYER0001
  6
CONTINUOUS
 62
     7
 10
303.8354316064883
 20
100.4568149584488
 30
0.0
 11
313.9920525476505
 21
100.4568149584488
 31
0.0
  0
LINE
  5
285
  8
LAYER0001
  6
CONTINUOUS
 62
     7
 10
282.2583175012638
 20
82.45681495844883
 30
0.0
 11
313.9920525476505
 21
82.45681495844883
 31
0.0
  0
LINE
  5
286
  8
LAYER0001
  6
CONTINUOUS
 62
     7
 10
312.9920525476505
 20
100.4568149584488
 30
0.0
 11
312.9920525476505
 21
82.45681495844883
 31
0.0
  0
INSERT
  5
287
  8
LAYER0001
  6
CONTINUOUS
  2
DC_GROUP_57
 10
0.0
 20
0.0
 30
0.0
  0
INSERT
  5
288
  8
LAYER0001
  6
CONTINUOUS
  2
DC_GROUP_58
 10
0.0
 20
0.0
 30
0.0
  0
TEXT
  5
289
  8
LAYER0001
 62
     7
 10
311.3920525476505
 20
85.05681495844883
 30
0.0
 40
4.0
  1
MIN8
 50
90.0
 41
0.6380952380952394
  7
FDASTYLE1
 72
     5
 11
311.3920525476505
 21
95.26633876797266
 31
0.0
  0
ENDBLK
  5
F3
  8
0
  0
BLOCK
  8
0
  2
DC_GROUP_57
 70
     0
 10
0.0
 20
0.0
 30
0.0
  3
DC_GROUP_57
  1

  0
LINE
  5
28A
  8
LAYER0001
  6
CONTINUOUS
 62
     7
 10
312.4561530127529
 20
98.45681655081813
 30
0.0
 11
312.9920525476505
 21
100.4568149584488
 31
0.0
  0
LINE
  5
28B
  8
LAYER0001
  6
CONTINUOUS
 62
     7
 10
312.9920525476505
 20
100.4568149584488
 30
0.0
 11
313.5279520825481
 21
98.45681655081813
 31
0.0
  0
LINE
  5
28C
  8
LAYER0001
  6
CONTINUOUS
 62
     7
 10
312.9920525476505
 20
100.4568149584488
 30
0.0
 11
312.9920525476505
 21
98.45681655081813
 31
0.0
  0
ENDBLK
  5
F6
  8
0
  0
BLOCK
  8
0
  2
DC_GROUP_58
 70
     0
 10
0.0
 20
0.0
 30
0.0
  3
DC_GROUP_58
  1

  0
LINE
  5
28D
  8
LAYER0001
  6
CONTINUOUS
 62
     7
 10
313.5279520825481
 20
84.45681336607949
 30
0.0
 11
312.9920525476505
 21
82.45681495844883
 31
0.0
  0
LINE
  5
28E
  8
LAYER0001
  6
CONTINUOUS
 62
     7
 10
312.9920525476505
 20
82.45681495844883
 30
0.0
 11
312.4561530127529
 21
84.45681336607949
 31
0.0
  0
LINE
  5
28F
  8
LAYER0001
  6
CONTINUOUS
 62
     7
 10
312.9920525476505
 20
82.45681495844883
 30
0.0
 11
312.9920525476505
 21
84.45681336607949
 31
0.0
  0
ENDBLK
  5
F9
  8
0
  0
BLOCK
  8
0
  2
DC_GROUP_59
 70
     0
 10
0.0
 20
0.0
 30
0.0
  3
DC_GROUP_59
  1

  0
LINE
  5
290
  8
LAYER0001
  6
CONTINUOUS
 62
     7
 10
279.7183175012638
 20
141.9968225878434
 30
0.0
 11
279.7183175012638
 21
158.7453815478043
 31
0.0
  0
LINE
  5
291
  8
LAYER0001
  6
CONTINUOUS
 62
     7
 10
280.7183175012638
 20
135.9968149584489
 30
0.0
 11
280.7183175012638
 21
158.7453815478043
 31
0.0
  0
LINE
  5
292
  8
LAYER0001
  6
CONTINUOUS
 62
     7
 10
279.7183175012638
 20
156.4593708056168
 30
0.0
 11
280.7183175012638
 21
156.4593708056168
 31
0.0
  0
LINE
  5
293
  8
LAYER0001
  6
CONTINUOUS
 62
     7
 10
279.7183175012638
 20
156.4593708056168
 30
0.0
 11
273.3683175012637
 21
156.4593708056168
 31
0.0
  0
LINE
  5
294
  8
LAYER0001
  6
CONTINUOUS
 62
     7
 10
287.0683175012638
 20
156.4593708056168
 30
0.0
 11
280.7183175012638
 21
156.4593708056168
 31
0.0
  0
INSERT
  5
295
  8
LAYER0001
  6
CONTINUOUS
  2
DC_GROUP_60
 10
0.0
 20
0.0
 30
0.0
  0
INSERT
  5
296
  8
LAYER0001
  6
CONTINUOUS
  2
DC_GROUP_61
 10
0.0
 20
0.0
 30
0.0
  0
TEXT
  5
297
  8
LAYER0001
 62
     7
 10
272.7541413337752
 20
158.0618118283903
 30
0.0
 40
4.0
  1
1
 50
-0.1000000000000078
 41
0.1666666666666695
  7
FDASTYLE1
 72
     5
 11
273.4208069850508
 21
158.0606482761464
 31
0.0
  0
ENDBLK
  5
FC
  8
0
  0
BLOCK
  8
0
  2
DC_GROUP_60
 70
     0
 10
0.0
 20
0.0
 30
0.0
  3
DC_GROUP_60
  1

  0
LINE
  5
298
  8
LAYER0001
  6
CONTINUOUS
 62
     7
 10
277.7183190936331
 20
156.9952703405144
 30
0.0
 11
279.7183175012638
 21
156.4593708056168
 31
0.0
  0
LINE
  5
299
  8
LAYER0001
  6
CONTINUOUS
 62
     7
 10
279.7183175012638
 20
156.4593708056168
 30
0.0
 11
277.7183190936331
 21
155.9234712707192
 31
0.0
  0
LINE
  5
29A
  8
LAYER0001
  6
CONTINUOUS
 62
     7
 10
279.7183175012638
 20
156.4593708056168
 30
0.0
 11
277.7183190936331
 21
156.4593708056168
 31
0.0
  0
ENDBLK
  5
FF
  8
0
  0
BLOCK
  8
0
  2
DC_GROUP_61
 70
     0
 10
0.0
 20
0.0
 30
0.0
  3
DC_GROUP_61
  1

  0
LINE
  5
29B
  8
LAYER0001
  6
CONTINUOUS
 62
     7
 10
282.7183159088944
 20
155.9234712707192
 30
0.0
 11
280.7183175012638
 21
156.4593708056168
 31
0.0
  0
LINE
  5
29C
  8
LAYER0001
  6
CONTINUOUS
 62
     7
 10
280.7183175012638
 20
156.4593708056168
 30
0.0
 11
282.7183159088944
 21
156.9952703405144
 31
0.0
  0
LINE
  5
29D
  8
LAYER0001
  6
CONTINUOUS
 62
     7
 10
280.7183175012638
 20
156.4593708056168
 30
0.0
 11
282.7183159088944
 21
156.4593708056168
 31
0.0
  0
ENDBLK
  5
102
  8
0
  0
BLOCK
  8
0
  2
DC_GROUP_62
 70
     0
 10
0.0
 20
0.0
 30
0.0
  3
DC_GROUP_62
  1

  0
LINE
  5
29E
  8
LAYER0001
  6
CONTINUOUS
 62
     7
 10
279.5458962642738
 20
135.9600902923316
 30
0.0
 11
300.4047942254088
 21
156.4593540953988
 31
0.0
  0
LINE
  5
29F
  8
LAYER0001
  6
CONTINUOUS
 62
     7
 10
300.4047913476993
 20
156.4593555468277
 30
0.0
 11
347.0344628617336
 21
156.4593555468277
 31
0.0
  0
INSERT
  5
2A0
  8
LAYER0001
  6
CONTINUOUS
  2
DC_GROUP_63
 10
0.0
 20
0.0
 30
0.0
  0
TEXT
  5
2A1
  8
LAYER0001
 62
     7
 10
301.1240601465274
 20
158.0593555468277
 30
0.0
 40
4.0
  1
ｾﾚｰｼｮﾝP1.5山60ﾟ
 41
0.6332076968855386
  7
FDASTYLE1
 72
     5
 11
337.090257329626
 21
158.0593555468277
 31
0.0
  0
ENDBLK
  5
105
  8
0
  0
BLOCK
  8
0
  2
DC_GROUP_63
 70
     0
 10
0.0
 20
0.0
 30
0.0
  3
DC_GROUP_63
  1

  0
LINE
  5
2A2
  8
LAYER0001
  6
CONTINUOUS
 62
     7
 10
281.3479811000001
 20
136.9797334587746
 30
0.0
 11
279.5458962642738
 21
135.9600902923316
 31
0.0
  0
LINE
  5
2A3
  8
LAYER0001
  6
CONTINUOUS
 62
     7
 10
279.5458962642738
 20
135.9600902923316
 30
0.0
 11
280.5967233040221
 21
137.7441711409936
 31
0.0
  0
LINE
  5
2A4
  8
LAYER0001
  6
CONTINUOUS
 62
     7
 10
279.5458962642738
 20
135.9600902923316
 30
0.0
 11
280.9723522020111
 21
137.3619522998841
 31
0.0
  0
ENDBLK
  5
108
  8
0
  0
BLOCK
  8
0
  2
DC_GROUP_64
 70
     0
 10
0.0
 20
0.0
 30
0.0
  3
DC_GROUP_64
  1

  0
LINE
  5
2A5
  8
LAYER0001
  6
CONTINUOUS
 62
     7
 10
205.9183220789005
 20
-21.08318313420254
 30
0.0
 11
205.9183220789005
 21
-54.05597572148282
 31
0.0
  0
LINE
  5
2A6
  8
LAYER0001
  6
CONTINUOUS
 62
     7
 10
235.7183175012638
 20
27.41681686579746
 30
0.0
 11
235.7183175012638
 21
-54.05597572148282
 31
0.0
  0
LINE
  5
2A7
  8
LAYER0001
  6
CONTINUOUS
 62
     7
 10
205.9183220789005
 20
-51.76997260868985
 30
0.0
 11
235.7183175012638
 21
-51.76997260868985
 31
0.0
  0
INSERT
  5
2A8
  8
LAYER0001
  6
CONTINUOUS
  2
DC_GROUP_65
 10
0.0
 20
0.0
 30
0.0
  0
INSERT
  5
2A9
  8
LAYER0001
  6
CONTINUOUS
  2
DC_GROUP_66
 10
0.0
 20
0.0
 30
0.0
  0
TEXT
  5
2AA
  8
LAYER0001
 62
     7
 10
209.6183236047794
 20
-50.16997260868985
 30
0.0
 40
4.0
  1
MAX39.8
 41
0.6802721088435371
  7
FDASTYLE1
 72
     5
 11
228.6659426523984
 21
-50.16997260868985
 31
0.0
  0
ENDBLK
  5
10B
  8
0
  0
BLOCK
  8
0
  2
DC_GROUP_65
 70
     0
 10
0.0
 20
0.0
 30
0.0
  3
DC_GROUP_65
  1

  0
LINE
  5
2AB
  8
LAYER0001
  6
CONTINUOUS
 62
     7
 10
207.9183204865312
 20
-52.30587214358746
 30
0.0
 11
205.9183220789005
 21
-51.76997260868985
 31
0.0
  0
LINE
  5
2AC
  8
LAYER0001
  6
CONTINUOUS
 62
     7
 10
205.9183220789005
 20
-51.76997260868985
 30
0.0
 11
207.9183204865312
 21
-51.23407307379224
 31
0.0
  0
LINE
  5
2AD
  8
LAYER0001
  6
CONTINUOUS
 62
     7
 10
205.9183220789005
 20
-51.76997260868985
 30
0.0
 11
207.9183204865312
 21
-51.76997260868985
 31
0.0
  0
ENDBLK
  5
10E
  8
0
  0
BLOCK
  8
0
  2
DC_GROUP_66
 70
     0
 10
0.0
 20
0.0
 30
0.0
  3
DC_GROUP_66
  1

  0
LINE
  5
2AE
  8
LAYER0001
  6
CONTINUOUS
 62
     7
 10
233.7183190936331
 20
-51.23407307379224
 30
0.0
 11
235.7183175012638
 21
-51.76997260868985
 31
0.0
  0
LINE
  5
2AF
  8
LAYER0001
  6
CONTINUOUS
 62
     7
 10
235.7183175012638
 20
-51.76997260868985
 30
0.0
 11
233.7183190936331
 21
-52.30587214358746
 31
0.0
  0
LINE
  5
2B0
  8
LAYER0001
  6
CONTINUOUS
 62
     7
 10
235.7183175012638
 20
-51.76997260868985
 30
0.0
 11
233.7183190936331
 21
-51.76997260868985
 31
0.0
  0
ENDBLK
  5
111
  8
0
  0
BLOCK
  8
0
  2
DC_GROUP_67
 70
     0
 10
0.0
 20
0.0
 30
0.0
  3
DC_GROUP_67
  1

  0
LINE
  5
2B1
  8
LAYER0001
  6
CONTINUOUS
 62
     7
 10
201.7183251306583
 20
-31.08318122685391
 30
0.0
 11
201.7183251306583
 21
-68.08178977787929
 31
0.0
  0
LINE
  5
2B2
  8
LAYER0001
  6
CONTINUOUS
 62
     7
 10
205.9183220789005
 20
-21.08318313420254
 30
0.0
 11
205.9183220789005
 21
-68.08178977787929
 31
0.0
  0
LINE
  5
2B3
  8
LAYER0001
  6
CONTINUOUS
 62
     7
 10
201.7183251306583
 20
-65.79578666508633
 30
0.0
 11
205.9183220789005
 21
-65.79578666508633
 31
0.0
  0
LINE
  5
2B4
  8
LAYER0001
  6
CONTINUOUS
 62
     7
 10
201.7183251306583
 20
-65.79578666508633
 30
0.0
 11
195.3683251306583
 21
-65.79578666508633
 31
0.0
  0
LINE
  5
2B5
  8
LAYER0001
  6
CONTINUOUS
 62
     7
 10
212.2683220789005
 20
-65.79578666508633
 30
0.0
 11
205.9183220789005
 21
-65.79578666508633
 31
0.0
  0
INSERT
  5
2B6
  8
LAYER0001
  6
CONTINUOUS
  2
DC_GROUP_68
 10
0.0
 20
0.0
 30
0.0
  0
INSERT
  5
2B7
  8
LAYER0001
  6
CONTINUOUS
  2
DC_GROUP_69
 10
0.0
 20
0.0
 30
0.0
  0
TEXT
  5
2B8
  8
LAYER0001
 62
     7
 10
187.8965583164693
 20
-64.18741152586874
 30
0.0
 40
4.0
  1
4.2
 50
-0.1000000000000078
 41
0.55873015873016
  7
FDASTYLE1
 72
     5
 11
194.6013100092974
 21
-64.19911353700772
 31
0.0
  0
ENDBLK
  5
114
  8
0
  0
BLOCK
  8
0
  2
DC_GROUP_68
 70
     0
 10
0.0
 20
0.0
 30
0.0
  3
DC_GROUP_68
  1

  0
LINE
  5
2B9
  8
LAYER0001
  6
CONTINUOUS
 62
     7
 10
199.7183267230276
 20
-65.25988713018872
 30
0.0
 11
201.7183251306583
 21
-65.79578666508633
 31
0.0
  0
LINE
  5
2BA
  8
LAYER0001
  6
CONTINUOUS
 62
     7
 10
201.7183251306583
 20
-65.79578666508633
 30
0.0
 11
199.7183267230276
 21
-66.33168619998395
 31
0.0
  0
LINE
  5
2BB
  8
LAYER0001
  6
CONTINUOUS
 62
     7
 10
201.7183251306583
 20
-65.79578666508633
 30
0.0
 11
199.7183267230276
 21
-65.79578666508633
 31
0.0
  0
ENDBLK
  5
117
  8
0
  0
BLOCK
  8
0
  2
DC_GROUP_69
 70
     0
 10
0.0
 20
0.0
 30
0.0
  3
DC_GROUP_69
  1

  0
LINE
  5
2BC
  8
LAYER0001
  6
CONTINUOUS
 62
     7
 10
207.9183204865312
 20
-66.33168619998395
 30
0.0
 11
205.9183220789005
 21
-65.79578666508633
 31
0.0
  0
LINE
  5
2BD
  8
LAYER0001
  6
CONTINUOUS
 62
     7
 10
205.9183220789005
 20
-65.79578666508633
 30
0.0
 11
207.9183204865312
 21
-65.25988713018872
 31
0.0
  0
LINE
  5
2BE
  8
LAYER0001
  6
CONTINUOUS
 62
     7
 10
205.9183220789005
 20
-65.79578666508633
 30
0.0
 11
207.9183204865312
 21
-65.79578666508633
 31
0.0
  0
ENDBLK
  5
11A
  8
0
  0
BLOCK
  8
0
  2
DC_GROUP_70
 70
     0
 10
0.0
 20
0.0
 30
0.0
  3
DC_GROUP_70
  1

  0
LINE
  5
2BF
  8
LAYER0001
  6
CONTINUOUS
 62
     7
 10
205.9183220789005
 20
-21.08318313420254
 30
0.0
 11
205.9183220789005
 21
-68.08178977787929
 31
0.0
  0
LINE
  5
2C0
  8
LAYER0001
  6
CONTINUOUS
 62
     7
 10
280.7183175012638
 20
-29.58318122685391
 30
0.0
 11
280.7183175012638
 21
-68.08178977787929
 31
0.0
  0
LINE
  5
2C1
  8
LAYER0001
  6
CONTINUOUS
 62
     7
 10
205.9183220789005
 20
-65.79578666508633
 30
0.0
 11
280.7183175012638
 21
-65.79578666508633
 31
0.0
  0
INSERT
  5
2C2
  8
LAYER0001
  6
CONTINUOUS
  2
DC_GROUP_71
 10
0.0
 20
0.0
 30
0.0
  0
INSERT
  5
2C3
  8
LAYER0001
  6
CONTINUOUS
  2
DC_GROUP_72
 10
0.0
 20
0.0
 30
0.0
  0
TEXT
  5
2C4
  8
LAYER0001
 62
     7
 10
236.9183083459903
 20
-64.19578666508633
 30
0.0
 40
4.0
  1
74.8
 41
0.6095238095238109
  7
FDASTYLE1
 72
     5
 11
246.6706892983713
 21
-64.19578666508633
 31
0.0
  0
ENDBLK
  5
11D
  8
0
  0
BLOCK
  8
0
  2
DC_GROUP_71
 70
     0
 10
0.0
 20
0.0
 30
0.0
  3
DC_GROUP_71
  1

  0
LINE
  5
2C5
  8
LAYER0001
  6
CONTINUOUS
 62
     7
 10
207.9183204865312
 20
-66.33168619998395
 30
0.0
 11
205.9183220789005
 21
-65.79578666508633
 31
0.0
  0
LINE
  5
2C6
  8
LAYER0001
  6
CONTINUOUS
 62
     7
 10
205.9183220789005
 20
-65.79578666508633
 30
0.0
 11
207.9183204865312
 21
-65.25988713018872
 31
0.0
  0
LINE
  5
2C7
  8
LAYER0001
  6
CONTINUOUS
 62
     7
 10
205.9183220789005
 20
-65.79578666508633
 30
0.0
 11
207.9183204865312
 21
-65.79578666508633
 31
0.0
  0
ENDBLK
  5
120
  8
0
  0
BLOCK
  8
0
  2
DC_GROUP_72
 70
     0
 10
0.0
 20
0.0
 30
0.0
  3
DC_GROUP_72
  1

  0
LINE
  5
2C8
  8
LAYER0001
  6
CONTINUOUS
 62
     7
 10
278.7183190936331
 20
-65.25988713018872
 30
0.0
 11
280.7183175012638
 21
-65.79578666508633
 31
0.0
  0
LINE
  5
2C9
  8
LAYER0001
  6
CONTINUOUS
 62
     7
 10
280.7183175012638
 20
-65.79578666508633
 30
0.0
 11
278.7183190936331
 21
-66.33168619998395
 31
0.0
  0
LINE
  5
2CA
  8
LAYER0001
  6
CONTINUOUS
 62
     7
 10
280.7183175012638
 20
-65.79578666508633
 30
0.0
 11
278.7183190936331
 21
-65.79578666508633
 31
0.0
  0
ENDBLK
  5
123
  8
0
  0
BLOCK
  8
0
  2
DC_GROUP_73
 70
     0
 10
0.0
 20
0.0
 30
0.0
  3
DC_GROUP_73
  1

  0
LINE
  5
2CB
  8
LAYER0001
  6
CONTINUOUS
 62
     7
 10
205.9183220789005
 20
123.9968149584488
 30
0.0
 11
205.9183220789005
 21
158.5679065722184
 31
0.0
  0
LINE
  5
2CC
  8
LAYER0001
  6
CONTINUOUS
 62
     7
 10
212.7183251306583
 20
80.49681495844882
 30
0.0
 11
212.7183251306583
 21
158.5679065722184
 31
0.0
  0
LINE
  5
2CD
  8
LAYER0001
  6
CONTINUOUS
 62
     7
 10
205.9183220789005
 20
156.2819110888199
 30
0.0
 11
212.7183251306583
 21
156.2819110888199
 31
0.0
  0
LINE
  5
2CE
  8
LAYER0001
  6
CONTINUOUS
 62
     7
 10
205.9183220789005
 20
156.2819110888199
 30
0.0
 11
199.5683220789005
 21
156.2819110888199
 31
0.0
  0
LINE
  5
2CF
  8
LAYER0001
  6
CONTINUOUS
 62
     7
 10
219.0683251306583
 20
156.2819110888199
 30
0.0
 11
212.7183251306583
 21
156.2819110888199
 31
0.0
  0
INSERT
  5
2D0
  8
LAYER0001
  6
CONTINUOUS
  2
DC_GROUP_74
 10
0.0
 20
0.0
 30
0.0
  0
INSERT
  5
2D1
  8
LAYER0001
  6
CONTINUOUS
  2
DC_GROUP_75
 10
0.0
 20
0.0
 30
0.0
  0
TEXT
  5
2D2
  8
LAYER0001
 62
     7
 10
173.9353345437165
 20
157.9014563295793
 30
0.0
 40
4.0
  1
MAX16.8
 50
-0.1000000000000078
 41
0.6802721088435365
  7
FDASTYLE1
 72
     5
 11
192.9829245801601
 21
157.8682119797527
 31
0.0
  0
ENDBLK
  5
126
  8
0
  0
BLOCK
  8
0
  2
DC_GROUP_74
 70
     0
 10
0.0
 20
0.0
 30
0.0
  3
DC_GROUP_74
  1

  0
LINE
  5
2D3
  8
LAYER0001
  6
CONTINUOUS
 62
     7
 10
203.9183236712698
 20
156.8178106237175
 30
0.0
 11
205.9183220789005
 21
156.2819110888199
 31
0.0
  0
LINE
  5
2D4
  8
LAYER0001
  6
CONTINUOUS
 62
     7
 10
205.9183220789005
 20
156.2819110888199
 30
0.0
 11
203.9183236712698
 21
155.7460115539223
 31
0.0
  0
LINE
  5
2D5
  8
LAYER0001
  6
CONTINUOUS
 62
     7
 10
205.9183220789005
 20
156.2819110888199
 30
0.0
 11
203.9183236712698
 21
156.2819110888199
 31
0.0
  0
ENDBLK
  5
129
  8
0
  0
BLOCK
  8
0
  2
DC_GROUP_75
 70
     0
 10
0.0
 20
0.0
 30
0.0
  3
DC_GROUP_75
  1

  0
LINE
  5
2D6
  8
LAYER0001
  6
CONTINUOUS
 62
     7
 10
214.718323538289
 20
155.7460115539223
 30
0.0
 11
212.7183251306583
 21
156.2819110888199
 31
0.0
  0
LINE
  5
2D7
  8
LAYER0001
  6
CONTINUOUS
 62
     7
 10
212.7183251306583
 20
156.2819110888199
 30
0.0
 11
214.718323538289
 21
156.8178106237175
 31
0.0
  0
LINE
  5
2D8
  8
LAYER0001
  6
CONTINUOUS
 62
     7
 10
212.7183251306583
 20
156.2819110888199
 30
0.0
 11
214.718323538289
 21
156.2819110888199
 31
0.0
  0
ENDBLK
  5
12C
  8
0
  0
BLOCK
  8
0
  2
DC_GROUP_76
 70
     0
 10
0.0
 20
0.0
 30
0.0
  3
DC_GROUP_76
  1

  0
LINE
  5
2D9
  8
LAYER0001
  6
CONTINUOUS
 62
     7
 10
291.1672137702217
 20
129.6953943849926
 30
0.0
 11
307.4871550849152
 21
146.984840615522
 31
0.0
  0
LINE
  5
2DA
  8
LAYER0001
  6
CONTINUOUS
 62
     7
 10
307.4871582910587
 20
146.9848377245621
 30
0.0
 11
315.7168278619815
 21
146.9848377245621
 31
0.0
  0
INSERT
  5
2DB
  8
LAYER0001
  6
CONTINUOUS
  2
DC_GROUP_77
 10
0.0
 20
0.0
 30
0.0
  0
TEXT
  5
2DC
  8
LAYER0001
 62
     7
 10
307.9719071313907
 20
148.5848377245621
 30
0.0
 40
4.0
  1
M8
 41
0.7047619047619023
  7
FDASTYLE1
 72
     5
 11
313.6100023694859
 21
148.5848377245621
 31
0.0
  0
ENDBLK
  5
12F
  8
0
  0
BLOCK
  8
0
  2
DC_GROUP_77
 70
     0
 10
0.0
 20
0.0
 30
0.0
  3
DC_GROUP_77
  1

  0
LINE
  5
2DD
  8
LAYER0001
  6
CONTINUOUS
 62
     7
 10
292.9297674549247
 20
130.781942336336
 30
0.0
 11
291.1672137702217
 21
129.6953943849926
 31
0.0
  0
LINE
  5
2DE
  8
LAYER0001
  6
CONTINUOUS
 62
     7
 10
291.1672137702217
 20
129.6953943849926
 30
0.0
 11
292.1503533803331
 21
131.517650801927
 31
0.0
  0
LINE
  5
2DF
  8
LAYER0001
  6
CONTINUOUS
 62
     7
 10
291.1672137702217
 20
129.6953943849926
 30
0.0
 11
292.5400604176289
 21
131.1497965691315
 31
0.0
  0
ENDBLK
  5
132
  8
0
  0
BLOCK
  8
0
  2
DC_GROUP_78
 70
     0
 10
0.0
 20
0.0
 30
0.0
  3
DC_GROUP_78
  1

  0
LINE
  5
2E0
  8
LAYER0001
  6
CONTINUOUS
 62
     7
 10
205.9183220789005
 20
-21.08318313420254
 30
0.0
 11
205.9183220789005
 21
-54.05597572148282
 31
0.0
  0
LINE
  5
2E1
  8
LAYER0001
  6
CONTINUOUS
 62
     7
 10
189.7183251306583
 20
-7.568181837205472
 30
0.0
 11
189.7183251306583
 21
-54.05597572148282
 31
0.0
  0
LINE
  5
2E2
  8
LAYER0001
  6
CONTINUOUS
 62
     7
 10
205.9183220789005
 20
-51.76997260868985
 30
0.0
 11
189.7183251306583
 21
-51.76997260868985
 31
0.0
  0
LINE
  5
2E3
  8
LAYER0001
  6
CONTINUOUS
 62
     7
 10
172.9864751306583
 20
-51.76997260868985
 30
0.0
 11
189.7183251306583
 21
-51.76997260868985
 31
0.0
  0
LINE
  5
2E4
  8
LAYER0001
  6
CONTINUOUS
 62
     7
 10
210.9183220789005
 20
-51.76997260868985
 30
0.0
 11
205.9183220789005
 21
-51.76997260868985
 31
0.0
  0
INSERT
  5
2E5
  8
LAYER0001
  6
CONTINUOUS
  2
DC_GROUP_79
 10
0.0
 20
0.0
 30
0.0
  0
INSERT
  5
2E6
  8
LAYER0001
  6
CONTINUOUS
  2
DC_GROUP_80
 10
0.0
 20
0.0
 30
0.0
  0
TEXT
  5
2E7
  8
LAYER0001
 62
     7
 10
173.9864751306583
 20
-50.76997260868985
 30
0.0
 40
4.0
  1
16.2
 41
0.5809523809523807
  7
FDASTYLE1
 72
     5
 11
183.2817132258964
 21
-50.76997260868985
 31
0.0
  0
ENDBLK
  5
135
  8
0
  0
BLOCK
  8
0
  2
DC_GROUP_79
 70
     0
 10
0.0
 20
0.0
 30
0.0
  3
DC_GROUP_79
  1

  0
LINE
  5
2E8
  8
LAYER0001
  6
CONTINUOUS
 62
     7
 10
187.7183267230276
 20
-51.23407307379224
 30
0.0
 11
189.7183251306583
 21
-51.76997260868985
 31
0.0
  0
LINE
  5
2E9
  8
LAYER0001
  6
CONTINUOUS
 62
     7
 10
189.7183251306583
 20
-51.76997260868985
 30
0.0
 11
187.7183267230276
 21
-52.30587214358746
 31
0.0
  0
LINE
  5
2EA
  8
LAYER0001
  6
CONTINUOUS
 62
     7
 10
189.7183251306583
 20
-51.76997260868985
 30
0.0
 11
187.7183267230276
 21
-51.76997260868985
 31
0.0
  0
ENDBLK
  5
138
  8
0
  0
BLOCK
  8
0
  2
DC_GROUP_80
 70
     0
 10
0.0
 20
0.0
 30
0.0
  3
DC_GROUP_80
  1

  0
LINE
  5
2EB
  8
LAYER0001
  6
CONTINUOUS
 62
     7
 10
207.9183204865312
 20
-52.30587214358746
 30
0.0
 11
205.9183220789005
 21
-51.76997260868985
 31
0.0
  0
LINE
  5
2EC
  8
LAYER0001
  6
CONTINUOUS
 62
     7
 10
205.9183220789005
 20
-51.76997260868985
 30
0.0
 11
207.9183204865312
 21
-51.23407307379224
 31
0.0
  0
LINE
  5
2ED
  8
LAYER0001
  6
CONTINUOUS
 62
     7
 10
205.9183220789005
 20
-51.76997260868985
 30
0.0
 11
207.9183204865312
 21
-51.76997260868985
 31
0.0
  0
ENDBLK
  5
13B
  8
0
  0
BLOCK
  8
0
  2
DC_GROUP_81
 70
     0
 10
0.0
 20
0.0
 30
0.0
  3
DC_GROUP_81
  1

  0
LINE
  5
2EE
  8
LAYER0001
  6
CONTINUOUS
 62
     7
 10
187.1783251306583
 20
4.071817113752779
 30
0.0
 11
167.3470940515567
 21
4.071817113752779
 31
0.0
  0
LINE
  5
2EF
  8
LAYER0001
  6
CONTINUOUS
 62
     7
 10
187.1783251306583
 20
-5.928183363084379
 30
0.0
 11
167.3470940515567
 21
-5.928183363084379
 31
0.0
  0
LINE
  5
2F0
  8
LAYER0001
  6
CONTINUOUS
 62
     7
 10
169.6330895349552
 20
4.071817113752779
 30
0.0
 11
169.6330895349552
 21
-5.928183363084379
 31
0.0
  0
INSERT
  5
2F1
  8
LAYER0001
  6
CONTINUOUS
  2
DC_GROUP_82
 10
0.0
 20
0.0
 30
0.0
  0
INSERT
  5
2F2
  8
LAYER0001
  6
CONTINUOUS
  2
DC_GROUP_83
 10
0.0
 20
0.0
 30
0.0
  0
TEXT
  5
2F3
  8
LAYER0001
 62
     7
 10
168.0247143957376
 20
-5.725383526882731
 30
0.0
 40
4.0
  1
M10
 50
89.90000000000001
 41
0.7238095238095283
  7
FDASTYLE1
 72
     5
 11
168.0398738192585
 21
2.960317529735593
 31
0.0
  0
ENDBLK
  5
13E
  8
0
  0
BLOCK
  8
0
  2
DC_GROUP_82
 70
     0
 10
0.0
 20
0.0
 30
0.0
  3
DC_GROUP_82
  1

  0
LINE
  5
2F4
  8
LAYER0001
  6
CONTINUOUS
 62
     7
 10
169.0971900000576
 20
2.071818706122117
 30
0.0
 11
169.6330895349552
 21
4.071817113752779
 31
0.0
  0
LINE
  5
2F5
  8
LAYER0001
  6
CONTINUOUS
 62
     7
 10
169.6330895349552
 20
4.071817113752779
 30
0.0
 11
170.1689890698528
 21
2.071818706122117
 31
0.0
  0
LINE
  5
2F6
  8
LAYER0001
  6
CONTINUOUS
 62
     7
 10
169.6330895349552
 20
4.071817113752779
 30
0.0
 11
169.6330895349552
 21
2.071818706122117
 31
0.0
  0
ENDBLK
  5
141
  8
0
  0
BLOCK
  8
0
  2
DC_GROUP_83
 70
     0
 10
0.0
 20
0.0
 30
0.0
  3
DC_GROUP_83
  1

  0
LINE
  5
2F7
  8
LAYER0001
  6
CONTINUOUS
 62
     7
 10
170.1689890698528
 20
-3.928184955453717
 30
0.0
 11
169.6330895349552
 21
-5.928183363084379
 31
0.0
  0
LINE
  5
2F8
  8
LAYER0001
  6
CONTINUOUS
 62
     7
 10
169.6330895349552
 20
-5.928183363084379
 30
0.0
 11
169.0971900000576
 21
-3.928184955453717
 31
0.0
  0
LINE
  5
2F9
  8
LAYER0001
  6
CONTINUOUS
 62
     7
 10
169.6330895349552
 20
-5.928183363084379
 30
0.0
 11
169.6330895349552
 21
-3.928184955453717
 31
0.0
  0
ENDBLK
  5
144
  8
0
  0
BLOCK
  8
0
  2
DC_GROUP_84
 70
     0
 10
0.0
 20
0.0
 30
0.0
  3
DC_GROUP_84
  1

  0
LINE
  5
2FA
  8
LAYER0001
  6
CONTINUOUS
 62
     7
 10
212.7183251306583
 20
43.83616371333164
 30
0.0
 11
235.7183175012638
 21
43.83616371333164
 31
0.0
  0
INSERT
  5
2FB
  8
LAYER0001
  6
CONTINUOUS
  2
DC_GROUP_85
 10
0.0
 20
0.0
 30
0.0
  0
INSERT
  5
2FC
  8
LAYER0001
  6
CONTINUOUS
  2
DC_GROUP_86
 10
0.0
 20
0.0
 30
0.0
  0
TEXT
  5
2FD
  8
LAYER0001
 62
     7
 10
221.0183175012638
 20
45.43616371333164
 30
0.0
 40
4.0
  1
23
 41
0.6476190476190453
  7
FDASTYLE1
 72
     5
 11
226.1992698822162
 21
45.43616371333164
 31
0.0
  0
ENDBLK
  5
147
  8
0
  0
BLOCK
  8
0
  2
DC_GROUP_85
 70
     0
 10
0.0
 20
0.0
 30
0.0
  3
DC_GROUP_85
  1

  0
LINE
  5
2FE
  8
LAYER0001
  6
CONTINUOUS
 62
     7
 10
214.718323538289
 20
43.30026417843403
 30
0.0
 11
212.7183251306583
 21
43.83616371333164
 31
0.0
  0
LINE
  5
2FF
  8
LAYER0001
  6
CONTINUOUS
 62
     7
 10
212.7183251306583
 20
43.83616371333164
 30
0.0
 11
214.718323538289
 21
44.37206324822925
 31
0.0
  0
LINE
  5
300
  8
LAYER0001
  6
CONTINUOUS
 62
     7
 10
212.7183251306583
 20
43.83616371333164
 30
0.0
 11
214.718323538289
 21
43.83616371333164
 31
0.0
  0
ENDBLK
  5
14A
  8
0
  0
BLOCK
  8
0
  2
DC_GROUP_86
 70
     0
 10
0.0
 20
0.0
 30
0.0
  3
DC_GROUP_86
  1

  0
LINE
  5
301
  8
LAYER0001
  6
CONTINUOUS
 62
     7
 10
233.7183190936331
 20
44.37206324822925
 30
0.0
 11
235.7183175012638
 21
43.83616371333164
 31
0.0
  0
LINE
  5
302
  8
LAYER0001
  6
CONTINUOUS
 62
     7
 10
235.7183175012638
 20
43.83616371333164
 30
0.0
 11
233.7183190936331
 21
43.30026417843403
 31
0.0
  0
LINE
  5
303
  8
LAYER0001
  6
CONTINUOUS
 62
     7
 10
235.7183175012638
 20
43.83616371333164
 30
0.0
 11
233.7183190936331
 21
43.83616371333164
 31
0.0
  0
ENDBLK
  5
14D
  8
0
  0
BLOCK
  8
0
  2
DC_GROUP_87
 70
     0
 10
0.0
 20
0.0
 30
0.0
  3
DC_GROUP_87
  1

  0
LINE
  5
304
  8
LAYER0001
  6
CONTINUOUS
 62
     7
 10
235.7183175012638
 20
43.83616371333164
 30
0.0
 11
243.7183175012638
 21
43.83616371333164
 31
0.0
  0
LINE
  5
305
  8
LAYER0001
  6
CONTINUOUS
 62
     7
 10
235.7183175012638
 20
43.83616371333164
 30
0.0
 11
229.3683175012638
 21
43.83616371333164
 31
0.0
  0
LINE
  5
306
  8
LAYER0001
  6
CONTINUOUS
 62
     7
 10
250.0683175012638
 20
43.83616371333164
 30
0.0
 11
243.7183175012638
 21
43.83616371333164
 31
0.0
  0
INSERT
  5
307
  8
LAYER0001
  6
CONTINUOUS
  2
DC_GROUP_88
 10
0.0
 20
0.0
 30
0.0
  0
INSERT
  5
308
  8
LAYER0001
  6
CONTINUOUS
  2
DC_GROUP_89
 10
0.0
 20
0.0
 30
0.0
  0
TEXT
  5
309
  8
LAYER0001
 62
     7
 10
238.1183175012638
 20
45.43616371333164
 30
0.0
 40
4.0
  1
8
 41
0.5333333333333314
  7
FDASTYLE1
 72
     5
 11
240.2516508345971
 21
45.43616371333164
 31
0.0
  0
ENDBLK
  5
150
  8
0
  0
BLOCK
  8
0
  2
DC_GROUP_88
 70
     0
 10
0.0
 20
0.0
 30
0.0
  3
DC_GROUP_88
  1

  0
LINE
  5
30A
  8
LAYER0001
  6
CONTINUOUS
 62
     7
 10
233.7183190936331
 20
44.37206324822925
 30
0.0
 11
235.7183175012638
 21
43.83616371333164
 31
0.0
  0
LINE
  5
30B
  8
LAYER0001
  6
CONTINUOUS
 62
     7
 10
235.7183175012638
 20
43.83616371333164
 30
0.0
 11
233.7183190936331
 21
43.30026417843403
 31
0.0
  0
LINE
  5
30C
  8
LAYER0001
  6
CONTINUOUS
 62
     7
 10
235.7183175012638
 20
43.83616371333164
 30
0.0
 11
233.7183190936331
 21
43.83616371333164
 31
0.0
  0
ENDBLK
  5
153
  8
0
  0
BLOCK
  8
0
  2
DC_GROUP_89
 70
     0
 10
0.0
 20
0.0
 30
0.0
  3
DC_GROUP_89
  1

  0
LINE
  5
30D
  8
LAYER0001
  6
CONTINUOUS
 62
     7
 10
245.7183159088945
 20
43.30026417843403
 30
0.0
 11
243.7183175012638
 21
43.83616371333164
 31
0.0
  0
LINE
  5
30E
  8
LAYER0001
  6
CONTINUOUS
 62
     7
 10
243.7183175012638
 20
43.83616371333164
 30
0.0
 11
245.7183159088945
 21
44.37206324822925
 31
0.0
  0
LINE
  5
30F
  8
LAYER0001
  6
CONTINUOUS
 62
     7
 10
243.7183175012638
 20
43.83616371333164
 30
0.0
 11
245.7183159088945
 21
43.83616371333164
 31
0.0
  0
ENDBLK
  5
156
  8
0
  0
BLOCK
  8
0
  2
DC_GROUP_90
 70
     0
 10
0.0
 20
0.0
 30
0.0
  3
DC_GROUP_90
  1

  0
LINE
  5
310
  8
LAYER0001
  6
CONTINUOUS
 62
     7
 10
243.7183175012638
 20
43.83616371333164
 30
0.0
 11
254.7183175012638
 21
43.83616371333164
 31
0.0
  0
INSERT
  5
311
  8
LAYER0001
  6
CONTINUOUS
  2
DC_GROUP_91
 10
0.0
 20
0.0
 30
0.0
  0
INSERT
  5
312
  8
LAYER0001
  6
CONTINUOUS
  2
DC_GROUP_92
 10
0.0
 20
0.0
 30
0.0
  0
TEXT
  5
313
  8
LAYER0001
 62
     7
 10
246.0183175012638
 20
45.43616371333164
 30
0.0
 40
4.0
  1
11
 41
0.4761904761904781
  7
FDASTYLE1
 72
     5
 11
249.8278413107876
 21
45.43616371333164
 31
0.0
  0
ENDBLK
  5
159
  8
0
  0
BLOCK
  8
0
  2
DC_GROUP_91
 70
     0
 10
0.0
 20
0.0
 30
0.0
  3
DC_GROUP_91
  1

  0
LINE
  5
314
  8
LAYER0001
  6
CONTINUOUS
 62
     7
 10
245.7183159088945
 20
43.30026417843403
 30
0.0
 11
243.7183175012638
 21
43.83616371333164
 31
0.0
  0
LINE
  5
315
  8
LAYER0001
  6
CONTINUOUS
 62
     7
 10
243.7183175012638
 20
43.83616371333164
 30
0.0
 11
245.7183159088945
 21
44.37206324822925
 31
0.0
  0
LINE
  5
316
  8
LAYER0001
  6
CONTINUOUS
 62
     7
 10
243.7183175012638
 20
43.83616371333164
 30
0.0
 11
245.7183159088945
 21
43.83616371333164
 31
0.0
  0
ENDBLK
  5
15C
  8
0
  0
BLOCK
  8
0
  2
DC_GROUP_92
 70
     0
 10
0.0
 20
0.0
 30
0.0
  3
DC_GROUP_92
  1

  0
LINE
  5
317
  8
LAYER0001
  6
CONTINUOUS
 62
     7
 10
252.7183190936331
 20
44.37206324822925
 30
0.0
 11
254.7183175012638
 21
43.83616371333164
 31
0.0
  0
LINE
  5
318
  8
LAYER0001
  6
CONTINUOUS
 62
     7
 10
254.7183175012638
 20
43.83616371333164
 30
0.0
 11
252.7183190936331
 21
43.30026417843403
 31
0.0
  0
LINE
  5
319
  8
LAYER0001
  6
CONTINUOUS
 62
     7
 10
254.7183175012638
 20
43.83616371333164
 30
0.0
 11
252.7183190936331
 21
43.83616371333164
 31
0.0
  0
ENDBLK
  5
15F
  8
0
  0
BLOCK
  8
0
  2
DC_GROUP_93
 70
     0
 10
0.0
 20
0.0
 30
0.0
  3
DC_GROUP_93
  1

  0
LINE
  5
31A
  8
LAYER0001
  6
CONTINUOUS
 62
     7
 10
210.6783251306583
 20
67.4568187731461
 30
0.0
 11
180.365221492963
 21
67.4568187731461
 31
0.0
  0
LINE
  5
31B
  8
LAYER0001
  6
CONTINUOUS
 62
     7
 10
210.6783251306583
 20
35.45681686579746
 30
0.0
 11
180.365221492963
 21
35.45681686579746
 31
0.0
  0
LINE
  5
31C
  8
LAYER0001
  6
CONTINUOUS
 62
     7
 10
181.365221492963
 20
67.4568187731461
 30
0.0
 11
181.365221492963
 21
35.45681686579746
 31
0.0
  0
INSERT
  5
31D
  8
LAYER0001
  6
CONTINUOUS
  2
DC_GROUP_94
 10
0.0
 20
0.0
 30
0.0
  0
INSERT
  5
31E
  8
LAYER0001
  6
CONTINUOUS
  2
DC_GROUP_95
 10
0.0
 20
0.0
 30
0.0
  0
TEXT
  5
31F
  8
LAYER0001
 62
     7
 10
179.765221492963
 20
43.45681877314609
 30
0.0
 40
4.0
  1
φ32H8
 50
90.0
 41
0.6213017751479295
  7
FDASTYLE1
 72
     5
 11
179.765221492963
 21
56.37989569622302
 31
0.0
  0
ENDBLK
  5
162
  8
0
  0
BLOCK
  8
0
  2
DC_GROUP_94
 70
     0
 10
0.0
 20
0.0
 30
0.0
  3
DC_GROUP_94
  1

  0
LINE
  5
320
  8
LAYER0001
  6
CONTINUOUS
 62
     7
 10
180.8293219580654
 20
65.45682036551543
 30
0.0
 11
181.365221492963
 21
67.4568187731461
 31
0.0
  0
LINE
  5
321
  8
LAYER0001
  6
CONTINUOUS
 62
     7
 10
181.365221492963
 20
67.4568187731461
 30
0.0
 11
181.9011210278606
 21
65.45682036551543
 31
0.0
  0
LINE
  5
322
  8
LAYER0001
  6
CONTINUOUS
 62
     7
 10
181.365221492963
 20
67.4568187731461
 30
0.0
 11
181.365221492963
 21
65.45682036551543
 31
0.0
  0
ENDBLK
  5
165
  8
0
  0
BLOCK
  8
0
  2
DC_GROUP_95
 70
     0
 10
0.0
 20
0.0
 30
0.0
  3
DC_GROUP_95
  1

  0
LINE
  5
323
  8
LAYER0001
  6
CONTINUOUS
 62
     7
 10
181.9011210278606
 20
37.45681527342812
 30
0.0
 11
181.365221492963
 21
35.45681686579746
 31
0.0
  0
LINE
  5
324
  8
LAYER0001
  6
CONTINUOUS
 62
     7
 10
181.365221492963
 20
35.45681686579746
 30
0.0
 11
180.8293219580654
 21
37.45681527342812
 31
0.0
  0
LINE
  5
325
  8
LAYER0001
  6
CONTINUOUS
 62
     7
 10
181.365221492963
 20
35.45681686579746
 30
0.0
 11
181.365221492963
 21
37.45681527342812
 31
0.0
  0
ENDBLK
  5
168
  8
0
  0
BLOCK
  8
0
  2
DC_GROUP_96
 70
     0
 10
0.0
 20
0.0
 30
0.0
  3
DC_GROUP_96
  1

  0
LINE
  5
326
  8
LAYER0001
  6
CONTINUOUS
 62
     7
 10
278.2183175012638
 20
15.91681686579746
 30
0.0
 11
278.2183175012638
 21
-52.76997260868985
 31
0.0
  0
LINE
  5
327
  8
LAYER0001
  6
CONTINUOUS
 62
     7
 10
280.7183175012638
 20
15.91681686579746
 30
0.0
 11
280.7183175012638
 21
-52.76997260868985
 31
0.0
  0
LINE
  5
328
  8
LAYER0001
  6
CONTINUOUS
 62
     7
 10
278.2183175012638
 20
-51.76997260868985
 30
0.0
 11
280.7183175012638
 21
-51.76997260868985
 31
0.0
  0
LINE
  5
329
  8
LAYER0001
  6
CONTINUOUS
 62
     7
 10
278.2183175012638
 20
-51.76997260868985
 30
0.0
 11
271.8683175012637
 21
-51.76997260868985
 31
0.0
  0
LINE
  5
32A
  8
LAYER0001
  6
CONTINUOUS
 62
     7
 10
287.0683175012638
 20
-51.76997260868985
 30
0.0
 11
280.7183175012638
 21
-51.76997260868985
 31
0.0
  0
INSERT
  5
32B
  8
LAYER0001
  6
CONTINUOUS
  2
DC_GROUP_97
 10
0.0
 20
0.0
 30
0.0
  0
INSERT
  5
32C
  8
LAYER0001
  6
CONTINUOUS
  2
DC_GROUP_98
 10
0.0
 20
0.0
 30
0.0
  0
TEXT
  5
32D
  8
LAYER0001
 62
     7
 10
285.2219941064884
 20
-50.16997260868985
 30
0.0
 40
4.0
  1
2.5
 41
0.5587301587301568
  7
FDASTYLE1
 72
     5
 11
291.9267560112502
 21
-50.16997260868985
 31
0.0
  0
ENDBLK
  5
16B
  8
0
  0
BLOCK
  8
0
  2
DC_GROUP_97
 70
     0
 10
0.0
 20
0.0
 30
0.0
  3
DC_GROUP_97
  1

  0
LINE
  5
32E
  8
LAYER0001
  6
CONTINUOUS
 62
     7
 10
276.2183190936331
 20
-51.23407307379224
 30
0.0
 11
278.2183175012638
 21
-51.76997260868985
 31
0.0
  0
LINE
  5
32F
  8
LAYER0001
  6
CONTINUOUS
 62
     7
 10
278.2183175012638
 20
-51.76997260868985
 30
0.0
 11
276.2183190936331
 21
-52.30587214358746
 31
0.0
  0
LINE
  5
330
  8
LAYER0001
  6
CONTINUOUS
 62
     7
 10
278.2183175012638
 20
-51.76997260868985
 30
0.0
 11
276.2183190936331
 21
-51.76997260868985
 31
0.0
  0
ENDBLK
  5
16E
  8
0
  0
BLOCK
  8
0
  2
DC_GROUP_98
 70
     0
 10
0.0
 20
0.0
 30
0.0
  3
DC_GROUP_98
  1

  0
LINE
  5
331
  8
LAYER0001
  6
CONTINUOUS
 62
     7
 10
282.7183159088944
 20
-52.30587214358746
 30
0.0
 11
280.7183175012638
 21
-51.76997260868985
 31
0.0
  0
LINE
  5
332
  8
LAYER0001
  6
CONTINUOUS
 62
     7
 10
280.7183175012638
 20
-51.76997260868985
 30
0.0
 11
282.7183159088944
 21
-51.23407307379224
 31
0.0
  0
LINE
  5
333
  8
LAYER0001
  6
CONTINUOUS
 62
     7
 10
280.7183175012638
 20
-51.76997260868985
 30
0.0
 11
282.7183159088944
 21
-51.76997260868985
 31
0.0
  0
ENDBLK
  5
171
  8
0
  0
BLOCK
  8
0
  2
DC_GROUP_99
 70
     0
 10
0.0
 20
0.0
 30
0.0
  3
DC_GROUP_99
  1

  0
LINE
  5
334
  8
LAYER0001
  6
CONTINUOUS
 62
     7
 10
303.8354316064883
 20
100.4568149584488
 30
0.0
 11
313.9920525476505
 21
100.4568149584488
 31
0.0
  0
LINE
  5
335
  8
LAYER0001
  6
CONTINUOUS
 62
     7
 10
303.654618770795
 20
125.4568149584488
 30
0.0
 11
313.9920525476505
 21
125.4568149584488
 31
0.0
  0
LINE
  5
336
  8
LAYER0001
  6
CONTINUOUS
 62
     7
 10
312.9920525476505
 20
100.4568149584488
 30
0.0
 11
312.9920525476505
 21
125.4568149584488
 31
0.0
  0
INSERT
  5
337
  8
LAYER0001
  6
CONTINUOUS
  2
DC_GROUP_100
 10
0.0
 20
0.0
 30
0.0
  0
INSERT
  5
338
  8
LAYER0001
  6
CONTINUOUS
  2
DC_GROUP_101
 10
0.0
 20
0.0
 30
0.0
  0
TEXT
  5
339
  8
LAYER0001
 62
     7
 10
311.9920525476505
 20
109.7568149584488
 30
0.0
 40
4.0
  1
25
 50
90.0
 41
0.6476190476190453
  7
FDASTYLE1
 72
     5
 11
311.9920525476505
 21
114.9377673394012
 31
0.0
  0
ENDBLK
  5
174
  8
0
  0
BLOCK
  8
0
  2
DC_GROUP_100
 70
     0
 10
0.0
 20
0.0
 30
0.0
  3
DC_GROUP_100
  1

  0
LINE
  5
33A
  8
LAYER0001
  6
CONTINUOUS
 62
     7
 10
313.5279520825481
 20
102.4568133660795
 30
0.0
 11
312.9920525476505
 21
100.4568149584488
 31
0.0
  0
LINE
  5
33B
  8
LAYER0001
  6
CONTINUOUS
 62
     7
 10
312.9920525476505
 20
100.4568149584488
 30
0.0
 11
312.4561530127529
 21
102.4568133660795
 31
0.0
  0
LINE
  5
33C
  8
LAYER0001
  6
CONTINUOUS
 62
     7
 10
312.9920525476505
 20
100.4568149584488
 30
0.0
 11
312.9920525476505
 21
102.4568133660795
 31
0.0
  0
ENDBLK
  5
177
  8
0
  0
BLOCK
  8
0
  2
DC_GROUP_101
 70
     0
 10
0.0
 20
0.0
 30
0.0
  3
DC_GROUP_101
  1

  0
LINE
  5
33D
  8
LAYER0001
  6
CONTINUOUS
 62
     7
 10
312.4561530127529
 20
123.4568165508182
 30
0.0
 11
312.9920525476505
 21
125.4568149584488
 31
0.0
  0
LINE
  5
33E
  8
LAYER0001
  6
CONTINUOUS
 62
     7
 10
312.9920525476505
 20
125.4568149584488
 30
0.0
 11
313.5279520825481
 21
123.4568165508182
 31
0.0
  0
LINE
  5
33F
  8
LAYER0001
  6
CONTINUOUS
 62
     7
 10
312.9920525476505
 20
125.4568149584488
 30
0.0
 11
312.9920525476505
 21
123.4568165508182
 31
0.0
  0
ENDBLK
  5
17A
  8
0
  0
BLOCK
  8
0
  2
DC_GROUP_102
 70
     0
 10
0.0
 20
0.0
 30
0.0
  3
DC_GROUP_102
  1

  0
LINE
  5
340
  8
LAYER0001
  6
CONTINUOUS
 62
     7
 10
283.2583175012638
 20
133.4568149584488
 30
0.0
 11
325.8600411340763
 21
133.4568149584488
 31
0.0
  0
LINE
  5
341
  8
LAYER0001
  6
CONTINUOUS
 62
     7
 10
316.8406730005313
 20
92.45681495844883
 30
0.0
 11
325.8600411340763
 21
92.45681495844883
 31
0.0
  0
LINE
  5
342
  8
LAYER0001
  6
CONTINUOUS
 62
     7
 10
324.8600411340763
 20
133.4568149584488
 30
0.0
 11
324.8600411340763
 21
92.45681495844883
 31
0.0
  0
INSERT
  5
343
  8
LAYER0001
  6
CONTINUOUS
  2
DC_GROUP_103
 10
0.0
 20
0.0
 30
0.0
  0
INSERT
  5
344
  8
LAYER0001
  6
CONTINUOUS
  2
DC_GROUP_104
 10
0.0
 20
0.0
 30
0.0
  0
TEXT
  5
345
  8
LAYER0001
 62
     7
 10
323.8600411340763
 20
109.7568149584488
 30
0.0
 40
4.0
  1
41
 50
90.0
 41
0.5333333333333314
  7
FDASTYLE1
 72
     5
 11
323.8600411340763
 21
114.0234816251155
 31
0.0
  0
ENDBLK
  5
17D
  8
0
  0
BLOCK
  8
0
  2
DC_GROUP_103
 70
     0
 10
0.0
 20
0.0
 30
0.0
  3
DC_GROUP_103
  1

  0
LINE
  5
346
  8
LAYER0001
  6
CONTINUOUS
 62
     7
 10
324.3241415991786
 20
131.4568165508181
 30
0.0
 11
324.8600411340763
 21
133.4568149584488
 31
0.0
  0
LINE
  5
347
  8
LAYER0001
  6
CONTINUOUS
 62
     7
 10
324.8600411340763
 20
133.4568149584488
 30
0.0
 11
325.3959406689739
 21
131.4568165508181
 31
0.0
  0
LINE
  5
348
  8
LAYER0001
  6
CONTINUOUS
 62
     7
 10
324.8600411340763
 20
133.4568149584488
 30
0.0
 11
324.8600411340763
 21
131.4568165508181
 31
0.0
  0
ENDBLK
  5
180
  8
0
  0
BLOCK
  8
0
  2
DC_GROUP_104
 70
     0
 10
0.0
 20
0.0
 30
0.0
  3
DC_GROUP_104
  1

  0
LINE
  5
349
  8
LAYER0001
  6
CONTINUOUS
 62
     7
 10
325.3959406689739
 20
94.45681336607949
 30
0.0
 11
324.8600411340763
 21
92.45681495844883
 31
0.0
  0
LINE
  5
34A
  8
LAYER0001
  6
CONTINUOUS
 62
     7
 10
324.8600411340763
 20
92.45681495844883
 30
0.0
 11
324.3241415991786
 21
94.45681336607949
 31
0.0
  0
LINE
  5
34B
  8
LAYER0001
  6
CONTINUOUS
 62
     7
 10
324.8600411340763
 20
92.45681495844883
 30
0.0
 11
324.8600411340763
 21
94.45681336607949
 31
0.0
  0
ENDBLK
  5
183
  8
0
  0
BLOCK
  8
0
  2
DC_GROUP_105
 70
     0
 10
0.0
 20
0.0
 30
0.0
  3
DC_GROUP_105
  1

  0
LINE
  5
34C
  8
LAYER0001
  6
CONTINUOUS
 62
     7
 10
280.7183175012638
 20
-29.58318122685391
 30
0.0
 11
280.7183175012638
 21
-79.94978599369961
 31
0.0
  0
LINE
  5
34D
  8
LAYER0001
  6
CONTINUOUS
 62
     7
 10
201.7183251306583
 20
-31.08318122685391
 30
0.0
 11
201.7183251306583
 21
-79.94978599369961
 31
0.0
  0
LINE
  5
34E
  8
LAYER0001
  6
CONTINUOUS
 62
     7
 10
280.7183175012638
 20
-77.66378288090664
 30
0.0
 11
201.7183251306583
 21
-77.66378288090664
 31
0.0
  0
INSERT
  5
34F
  8
LAYER0001
  6
CONTINUOUS
  2
DC_GROUP_106
 10
0.0
 20
0.0
 30
0.0
  0
INSERT
  5
350
  8
LAYER0001
  6
CONTINUOUS
  2
DC_GROUP_107
 10
0.0
 20
0.0
 30
0.0
  0
TEXT
  5
351
  8
LAYER0001
 62
     7
 10
238.0183175012638
 20
-76.06378288090664
 30
0.0
 40
4.0
  1
79
 41
0.6285714285714299
  7
FDASTYLE1
 72
     5
 11
243.0468889298352
 21
-76.06378288090664
 31
0.0
  0
ENDBLK
  5
186
  8
0
  0
BLOCK
  8
0
  2
DC_GROUP_106
 70
     0
 10
0.0
 20
0.0
 30
0.0
  3
DC_GROUP_106
  1

  0
LINE
  5
352
  8
LAYER0001
  6
CONTINUOUS
 62
     7
 10
278.7183190936331
 20
-77.12788334600903
 30
0.0
 11
280.7183175012638
 21
-77.66378288090664
 31
0.0
  0
LINE
  5
353
  8
LAYER0001
  6
CONTINUOUS
 62
     7
 10
280.7183175012638
 20
-77.66378288090664
 30
0.0
 11
278.7183190936331
 21
-78.19968241580425
 31
0.0
  0
LINE
  5
354
  8
LAYER0001
  6
CONTINUOUS
 62
     7
 10
280.7183175012638
 20
-77.66378288090664
 30
0.0
 11
278.7183190936331
 21
-77.66378288090664
 31
0.0
  0
ENDBLK
  5
189
  8
0
  0
BLOCK
  8
0
  2
DC_GROUP_107
 70
     0
 10
0.0
 20
0.0
 30
0.0
  3
DC_GROUP_107
  1

  0
LINE
  5
355
  8
LAYER0001
  6
CONTINUOUS
 62
     7
 10
203.718323538289
 20
-78.19968241580425
 30
0.0
 11
201.7183251306583
 21
-77.66378288090664
 31
0.0
  0
LINE
  5
356
  8
LAYER0001
  6
CONTINUOUS
 62
     7
 10
201.7183251306583
 20
-77.66378288090664
 30
0.0
 11
203.718323538289
 21
-77.12788334600903
 31
0.0
  0
LINE
  5
357
  8
LAYER0001
  6
CONTINUOUS
 62
     7
 10
201.7183251306583
 20
-77.66378288090664
 30
0.0
 11
203.718323538289
 21
-77.66378288090664
 31
0.0
  0
ENDBLK
  5
18C
  8
0
  0
BLOCK
  8
0
  2
DC_GROUP_108
 70
     0
 10
0.0
 20
0.0
 30
0.0
  3
DC_GROUP_108
  1

  0
LINE
  5
358
  8
LAYER0001
  6
CONTINUOUS
 62
     7
 10
282.2583175012638
 20
82.45681495844883
 30
0.0
 11
339.0140376016666
 21
82.45681495844883
 31
0.0
  0
LINE
  5
359
  8
LAYER0001
  6
CONTINUOUS
 62
     7
 10
285.1492185013542
 20
51.45681877314609
 30
0.0
 11
305.7689580064586
 21
51.45681877314609
 31
0.0
  0
LINE
  5
35A
  8
LAYER0001
  6
CONTINUOUS
 62
     7
 10
326.6327180974221
 20
51.45681877314609
 30
0.0
 11
339.0140376016666
 21
51.45681877314609
 31
0.0
  0
LINE
  5
35B
  8
LAYER0001
  6
CONTINUOUS
 62
     7
 10
336.7280373498966
 20
51.45681877314609
 30
0.0
 11
336.7280373498966
 21
82.45681495844883
 31
0.0
  0
INSERT
  5
35C
  8
LAYER0001
  6
DASHDOT2
  2
DC_GROUP_109
 10
0.0
 20
0.0
 30
0.0
  0
INSERT
  5
35D
  8
LAYER0001
  6
DASHDOT2
  2
DC_GROUP_110
 10
0.0
 20
0.0
 30
0.0
  0
TEXT
  5
35E
  8
LAYER0001
 62
     7
 10
335.1112846345227
 20
57.35962592016398
 30
0.0
 40
4.0
  1
MAX 39
 50
89.90000000000001
 41
0.7301587301587301
  7
FDASTYLE1
 72
     5
 11
335.1418694363632
 21
74.88340875369207
 31
0.0
  0
ENDBLK
  5
18F
  8
0
  0
BLOCK
  8
0
  2
DC_GROUP_109
 70
     0
 10
0.0
 20
0.0
 30
0.0
  3
DC_GROUP_109
  1

  0
LINE
  5
35F
  8
LAYER0001
  6
CONTINUOUS
 62
     7
 10
337.2639368847942
 20
53.45681718077675
 30
0.0
 11
336.7280373498966
 21
51.45681877314609
 31
0.0
  0
LINE
  5
360
  8
LAYER0001
  6
CONTINUOUS
 62
     7
 10
336.7280373498966
 20
51.45681877314609
 30
0.0
 11
336.1921378149989
 21
53.45681718077675
 31
0.0
  0
LINE
  5
361
  8
LAYER0001
  6
CONTINUOUS
 62
     7
 10
336.7280373498966
 20
51.45681877314609
 30
0.0
 11
336.7280373498966
 21
53.45681718077675
 31
0.0
  0
ENDBLK
  5
192
  8
0
  0
BLOCK
  8
0
  2
DC_GROUP_110
 70
     0
 10
0.0
 20
0.0
 30
0.0
  3
DC_GROUP_110
  1

  0
LINE
  5
362
  8
LAYER0001
  6
CONTINUOUS
 62
     7
 10
336.1921378149989
 20
80.45681655081816
 30
0.0
 11
336.7280373498966
 21
82.45681495844883
 31
0.0
  0
LINE
  5
363
  8
LAYER0001
  6
CONTINUOUS
 62
     7
 10
336.7280373498966
 20
82.45681495844883
 30
0.0
 11
337.2639368847942
 21
80.45681655081816
 31
0.0
  0
LINE
  5
364
  8
LAYER0001
  6
CONTINUOUS
 62
     7
 10
336.7280373498966
 20
82.45681495844883
 30
0.0
 11
336.7280373498966
 21
80.45681655081816
 31
0.0
  0
ENDBLK
  5
195
  8
0
  0
ENDSEC
  0
SECTION
  2
ENTITIES
  0
LINE
  5
365
  8
LAYER0002
  6
CONTINUOUS
 62
     3
 10
79.57239374547669
 20
-190.0
 30
0.0
 11
79.57239374547669
 21
190.0
 31
0.0
  0
LINE
  5
366
  8
LAYER0002
  6
CONTINUOUS
 62
     3
 10
633.5723937454767
 20
-190.0
 30
0.0
 11
633.5723937454767
 21
190.0
 31
0.0
  0
LINE
  5
367
  8
LAYER0002
  6
CONTINUOUS
 62
     3
 10
79.57239374547669
 20
-190.0
 30
0.0
 11
633.5723937454767
 21
-190.0
 31
0.0
  0
LINE
  5
368
  8
LAYER0002
  6
CONTINUOUS
 62
     3
 10
79.57239374547669
 20
189.9999999999999
 30
0.0
 11
633.5723937454767
 21
189.9999999999999
 31
0.0
  0
LINE
  5
369
  8
LAYER0002
  6
CONTINUOUS
 62
     3
 10
453.5723937454767
 20
-190.0
 30
0.0
 11
453.5723937454767
 21
-130.0
 31
0.0
  0
LINE
  5
36A
  8
LAYER0002
  6
CONTINUOUS
 62
     3
 10
453.5723937454767
 20
-176.0
 30
0.0
 11
633.5723937454767
 21
-176.0
 31
0.0
  0
LINE
  5
36B
  8
LAYER0002
  6
CONTINUOUS
 62
     3
 10
502.5723937454767
 20
-162.0
 30
0.0
 11
633.5723937454767
 21
-162.0
 31
0.0
  0
LINE
  5
36C
  8
LAYER0002
  6
CONTINUOUS
 62
     3
 10
502.5723937454767
 20
-148.0
 30
0.0
 11
633.5723937454767
 21
-148.0
 31
0.0
  0
LINE
  5
36D
  8
LAYER0002
  6
CONTINUOUS
 62
     3
 10
502.5723937454767
 20
-138.0
 30
0.0
 11
633.5723937454767
 21
-138.0
 31
0.0
  0
LINE
  5
36E
  8
LAYER0002
  6
CONTINUOUS
 62
     3
 10
502.5723937454767
 20
-176.0
 30
0.0
 11
502.5723937454767
 21
-130.0
 31
0.0
  0
LINE
  5
36F
  8
LAYER0002
  6
CONTINUOUS
 62
     3
 10
611.5723937454767
 20
-176.0
 30
0.0
 11
611.5723937454767
 21
-130.0
 31
0.0
  0
LINE
  5
370
  8
LAYER0002
  6
CONTINUOUS
 62
     3
 10
527.5723937454767
 20
-190.0
 30
0.0
 11
527.5723937454767
 21
-176.0
 31
0.0
  0
LINE
  5
371
  8
LAYER0002
  6
CONTINUOUS
 62
     3
 10
618.5723937454767
 20
-188.0
 30
0.0
 11
628.5723937454767
 21
-188.0
 31
0.0
  0
LINE
  5
372
  8
LAYER0002
  6
CONTINUOUS
 62
     3
 10
623.5723937454767
 20
-178.0
 30
0.0
 11
618.5723937454767
 21
-188.0
 31
0.0
  0
LINE
  5
373
  8
LAYER0002
  6
CONTINUOUS
 62
     3
 10
623.5723937454767
 20
-178.0
 30
0.0
 11
628.5723937454767
 21
-188.0
 31
0.0
  0
LINE
  5
374
  8
LAYER0002
  6
CONTINUOUS
 62
     3
 10
453.5723937454767
 20
-130.0
 30
0.0
 11
633.5723937454767
 21
-130.0
 31
0.0
  0
LINE
  5
375
  8
LAYER0002
  6
CONTINUOUS
 62
     3
 10
582.5723937454767
 20
-176.0
 30
0.0
 11
582.5723937454767
 21
-148.0
 31
0.0
  0
LINE
  5
376
  8
LAYER0002
  6
CONTINUOUS
 62
     4
 10
461.5723937454767
 20
-172.0
 30
0.0
 11
461.5723937454767
 21
-130.0
 31
0.0
  0
LINE
  5
377
  8
LAYER0002
  6
CONTINUOUS
 62
     4
 10
465.5723937454767
 20
-172.0
 30
0.0
 11
465.5723937454767
 21
-130.0
 31
0.0
  0
LINE
  5
378
  8
LAYER0002
  6
CONTINUOUS
 62
     4
 10
478.0723937454767
 20
-176.0
 30
0.0
 11
478.0723937454767
 21
-130.0
 31
0.0
  0
LINE
  5
379
  8
LAYER0002
  6
CONTINUOUS
 62
     4
 10
453.5723937454767
 20
-137.0
 30
0.0
 11
502.5723937454767
 21
-137.0
 31
0.0
  0
LINE
  5
37A
  8
LAYER0002
  6
CONTINUOUS
 62
     4
 10
453.5723937454767
 20
-144.0
 30
0.0
 11
502.5723937454767
 21
-144.0
 31
0.0
  0
LINE
  5
37B
  8
LAYER0002
  6
CONTINUOUS
 62
     4
 10
453.5723937454767
 20
-165.0
 30
0.0
 11
502.5723937454767
 21
-165.0
 31
0.0
  0
LINE
  5
37C
  8
LAYER0002
  6
CONTINUOUS
 62
     4
 10
453.5723937454767
 20
-172.0
 30
0.0
 11
502.5723937454767
 21
-172.0
 31
0.0
  0
LINE
  5
37D
  8
LAYER0002
  6
CONTINUOUS
 62
     4
 10
611.5723937454767
 20
-166.0
 30
0.0
 11
633.5723937454767
 21
-166.0
 31
0.0
  0
LINE
  5
37E
  8
LAYER0002
  6
CONTINUOUS
 62
     4
 10
509.5723937454767
 20
-139.5
 30
0.0
 11
509.5723937454767
 21
-130.0
 31
0.0
  0
LINE
  5
37F
  8
LAYER0002
  6
CONTINUOUS
 62
     4
 10
558.5723937454767
 20
-148.0
 30
0.0
 11
558.5723937454767
 21
-146.5
 31
0.0
  0
LINE
  5
380
  8
LAYER0002
  6
CONTINUOUS
 62
     4
 10
582.5723937454767
 20
-148.0
 30
0.0
 11
582.5723937454767
 21
-146.5
 31
0.0
  0
LINE
  5
381
  8
LAYER0002
  6
CONTINUOUS
 62
     4
 10
599.5723937454767
 20
-148.0
 30
0.0
 11
599.5723937454767
 21
-146.5
 31
0.0
  0
LINE
  5
382
  8
LAYER0002
  6
CONTINUOUS
 62
     4
 10
558.5723937454767
 20
-139.5
 30
0.0
 11
558.5723937454767
 21
-130.0
 31
0.0
  0
LINE
  5
383
  8
LAYER0002
  6
CONTINUOUS
 62
     4
 10
582.5723937454767
 20
-139.5
 30
0.0
 11
582.5723937454767
 21
-130.0
 31
0.0
  0
LINE
  5
384
  8
LAYER0002
  6
CONTINUOUS
 62
     4
 10
599.5723937454767
 20
-139.5
 30
0.0
 11
599.5723937454767
 21
-130.0
 31
0.0
  0
LINE
  5
385
  8
LAYER0002
  6
CONTINUOUS
 62
     4
 10
453.5723937454767
 20
-151.0
 30
0.0
 11
502.5723937454767
 21
-151.0
 31
0.0
  0
LINE
  5
386
  8
LAYER0002
  6
CONTINUOUS
 62
     4
 10
453.5723937454767
 20
-158.0
 30
0.0
 11
502.5723937454767
 21
-158.0
 31
0.0
  0
LINE
  5
387
  8
LAYER0002
  6
CONTINUOUS
 62
     4
 10
457.5723937454767
 20
-130.5
 30
0.0
 11
454.5723937454767
 21
-136.5
 31
0.0
  0
LINE
  5
388
  8
LAYER0002
  6
CONTINUOUS
 62
     4
 10
457.5723937454767
 20
-130.5
 30
0.0
 11
460.5723937454767
 21
-136.5
 31
0.0
  0
LINE
  5
389
  8
LAYER0002
  6
CONTINUOUS
 62
     4
 10
454.5723937454767
 20
-136.5
 30
0.0
 11
460.5723937454767
 21
-136.5
 31
0.0
  0
LINE
  5
38A
  8
LAYER0002
  6
CONTINUOUS
 62
     4
 10
457.5723937454767
 20
-158.5
 30
0.0
 11
454.5723937454767
 21
-164.5
 31
0.0
  0
LINE
  5
38B
  8
LAYER0002
  6
CONTINUOUS
 62
     4
 10
457.5723937454767
 20
-158.5
 30
0.0
 11
460.5723937454767
 21
-164.5
 31
0.0
  0
LINE
  5
38C
  8
LAYER0002
  6
CONTINUOUS
 62
     4
 10
454.5723937454767
 20
-164.5
 30
0.0
 11
460.5723937454767
 21
-164.5
 31
0.0
  0
LINE
  5
38D
  8
LAYER0002
  6
CONTINUOUS
 62
     4
 10
457.5723937454767
 20
-151.5
 30
0.0
 11
454.5723937454767
 21
-157.5
 31
0.0
  0
LINE
  5
38E
  8
LAYER0002
  6
CONTINUOUS
 62
     4
 10
457.5723937454767
 20
-151.5
 30
0.0
 11
460.5723937454767
 21
-157.5
 31
0.0
  0
LINE
  5
38F
  8
LAYER0002
  6
CONTINUOUS
 62
     4
 10
454.5723937454767
 20
-157.5
 30
0.0
 11
460.5723937454767
 21
-157.5
 31
0.0
  0
LINE
  5
390
  8
LAYER0002
  6
CONTINUOUS
 62
     4
 10
457.5723937454767
 20
-144.5
 30
0.0
 11
454.5723937454767
 21
-150.5
 31
0.0
  0
LINE
  5
391
  8
LAYER0002
  6
CONTINUOUS
 62
     4
 10
457.5723937454767
 20
-144.5
 30
0.0
 11
460.5723937454767
 21
-150.5
 31
0.0
  0
LINE
  5
392
  8
LAYER0002
  6
CONTINUOUS
 62
     4
 10
454.5723937454767
 20
-150.5
 30
0.0
 11
460.5723937454767
 21
-150.5
 31
0.0
  0
LINE
  5
393
  8
LAYER0002
  6
CONTINUOUS
 62
     4
 10
457.5723937454767
 20
-137.5
 30
0.0
 11
454.5723937454767
 21
-143.5
 31
0.0
  0
LINE
  5
394
  8
LAYER0002
  6
CONTINUOUS
 62
     4
 10
457.5723937454767
 20
-137.5
 30
0.0
 11
460.5723937454767
 21
-143.5
 31
0.0
  0
LINE
  5
395
  8
LAYER0002
  6
CONTINUOUS
 62
     4
 10
454.5723937454767
 20
-143.5
 30
0.0
 11
460.5723937454767
 21
-143.5
 31
0.0
  0
LINE
  5
396
  8
LAYER0002
  6
CONTINUOUS
 62
     4
 10
529.2390604121433
 20
-176.0
 30
0.0
 11
529.2390604121433
 21
-162.0
 31
0.0
  0
LINE
  5
397
  8
LAYER0002
  6
CONTINUOUS
 62
     4
 10
555.90572707881
 20
-176.0
 30
0.0
 11
555.90572707881
 21
-161.9509415757253
 31
0.0
  0
LINE
  5
398
  8
LAYER0002
  6
CONTINUOUS
 62
     4
 10
569.2390604121433
 20
-167.5
 30
0.0
 11
569.2390604121433
 21
-161.9509415757253
 31
0.0
  0
LINE
  5
399
  8
LAYER0002
  6
CONTINUOUS
 62
     4
 10
582.5723937454767
 20
-155.0
 30
0.0
 11
611.5723937454767
 21
-155.0
 31
0.0
  0
LINE
  5
39A
  8
LAYER0002
  6
CONTINUOUS
 62
     4
 10
502.5723937454767
 20
-166.0
 30
0.0
 11
582.5723937454767
 21
-166.0
 31
0.0
  0
TEXT
  5
39C
  8
LAYER0002
 62
     7
 10
503.5661518929514
 20
-130.821188728956
 30
0.0
 40
2.44248928
  1
符号
 41
0.8
  7
FDASTYLE0
  0
TEXT
  5
39D
  8
LAYER0002
 62
     7
 10
518.9865248673825
 20
-135.8245525019963
 30
0.0
 40
4.0
  1
品       名
 41
0.6192847442281572
  7
FDASTYLE1
 72
     5
 11
542.2716312503612
 21
-135.8245525019963
 31
0.0
  0
TEXT
  5
39E
  8
LAYER0002
 62
     7
 10
563.8055501867863
 20
-135.8245525019963
 30
0.0
 40
4.0
  1
材  料
 41
0.5950413223140509
  7
FDASTYLE1
 72
     5
 11
574.2782774595136
 21
-135.8245525019963
 31
0.0
  0
TEXT
  5
39F
  8
LAYER0002
 62
     7
 10
586.0884554303317
 20
-135.8245525019963
 30
0.0
 40
4.0
  1
個 数
 41
0.5813148788927315
  7
FDASTYLE1
 72
     5
 11
593.9943377832728
 21
-135.8245525019963
 31
0.0
  0
TEXT
  5
3A0
  8
LAYER0002
 62
     7
 10
602.2942046983646
 20
-133.5649080050572
 30
0.0
 40
2.5
  1
単重量
 41
0.6666666666666666
  7
FDASTYLE1
 72
     5
 11
608.2942046983646
 21
-133.5649080050572
 31
0.0
  0
TEXT
  5
3A1
  8
LAYER0002
 62
     7
 10
601.2813453691126
 20
-137.3631304897525
 30
0.0
 40
2.5
  1
(kg)
 41
0.5333333333333371
  7
FDASTYLE1
 72
     5
 11
606.614678702446
 21
-137.3631304897525
 31
0.0
  0
TEXT
  5
3A2
  8
LAYER0002
 62
     7
 10
615.7145908109544
 20
-135.8245525019963
 30
0.0
 40
4.0
  1
記  事
 41
0.5950413223140509
  7
FDASTYLE1
 72
     5
 11
626.1873180836817
 21
-135.8245525019963
 31
0.0
  0
TEXT
  5
3A3
  8
LAYER0002
 62
     7
 10
615.4174732006412
 20
-165.4873041997729
 30
0.0
 40
3.0
  1
コード番号
 41
0.6666666666666666
  7
FDASTYLE1
 72
     5
 11
627.4174732006412
 21
-165.4873041997729
 31
0.0
  0
TEXT
  5
3A4
  8
LAYER0002
 62
     7
 10
458.4843857613084
 20
-175.1879010540338
 30
0.0
 40
2.5
  1
訂 正 来 歴
 41
0.5890861275476669
  7
FDASTYLE1
 72
     5
 11
469.9715652484879
 21
-175.1879010540338
 31
0.0
  0
TEXT
  5
3A5
  8
LAYER0002
 62
     7
 10
482.4627285922417
 20
-175.2166697391651
 30
0.0
 40
2.5
  1
工 事 番 号
 41
0.5890861275476669
  7
FDASTYLE1
 72
     5
 11
493.9499080794212
 21
-175.2166697391651
 31
0.0
  0
TEXT
  5
3A6
  8
LAYER0002
 62
     7
 10
455.5063940920796
 20
-165.9634530565915
 30
0.0
 40
1.90819475
  1
記号
 41
0.8
  7
FDASTYLE0
  0
TEXT
  5
3A7
  8
LAYER0002
 62
     7
 10
461.4457811522385
 20
-165.9634530565915
 30
0.0
 40
1.90819475
  1
理由
 41
0.8
  7
FDASTYLE0
  0
TEXT
  5
3A8
  8
LAYER0002
 62
     7
 10
468.191760536461
 20
-169.8786046700178
 30
0.0
 40
3.0
  1
日 付
 41
0.5813148788927344
  7
FDASTYLE1
 72
     5
 11
474.1211723011669
 21
-169.8786046700178
 31
0.0
  0
TEXT
  5
3A9
  8
LAYER0002
 62
     7
 10
510.0205627274419
 20
-165.7187911464244
 30
0.0
 40
3.0
  1
承   認
 41
0.6035665294924586
  7
FDASTYLE1
 72
     5
 11
519.7983405052197
 21
-165.7187911464244
 31
0.0
  0
TEXT
  5
3AA
  8
LAYER0002
 62
     7
 10
536.4356217787107
 20
-165.4873041997729
 30
0.0
 40
3.0
  1
検   図
 41
0.6035665294924586
  7
FDASTYLE1
 72
     5
 11
546.2133995564885
 21
-165.4873041997729
 31
0.0
  0
TEXT
  5
3AB
  8
LAYER0002
 62
     7
 10
558.0495858438518
 20
-165.4873041997729
 30
0.0
 40
3.0
  1
担  当
 41
0.5950413223140511
  7
FDASTYLE1
 72
     5
 11
565.9041312983973
 21
-165.4873041997729
 31
0.0
  0
TEXT
  5
3AC
  8
LAYER0002
 62
     7
 10
571.2494512295879
 20
-165.4873041997729
 30
0.0
 40
3.0
  1
製  図
 41
0.5950413223140511
  7
FDASTYLE1
 72
     5
 11
579.1039966841333
 21
-165.4873041997729
 31
0.0
  0
TEXT
  5
3AD
  8
LAYER0002
 62
     7
 10
583.5186309758966
 20
-153.2184960272417
 30
0.0
 40
3.0
  1
作図
 41
0.6666666666666762
  7
FDASTYLE1
 72
     5
 11
588.3186309758967
 21
-153.2184960272417
 31
0.0
  0
TEXT
  5
3AE
  8
LAYER0002
 62
     7
 10
584.6760657091543
 20
-160.2371566401815
 30
0.0
 40
4.0
  1
第 三 角 法
 41
0.5890861275476675
  7
FDASTYLE1
 72
     5
 11
603.0555528886415
 21
-160.2371566401815
 31
0.0
  0
TEXT
  5
3AF
  8
LAYER0002
 62
     7
 10
583.9816048691997
 20
-166.413251986379
 30
0.0
 40
3.0
  1
尺度
 41
0.6666666666666762
  7
FDASTYLE1
 72
     5
 11
588.7816048691998
 21
-166.413251986379
 31
0.0
  0
TEXT
  5
3B1
  8
LAYER0002
 62
     3
 10
461.9515481155107
 20
-185.9272077185017
 30
0.0
 40
7.0
  1
株式会社 野村製作所
 41
0.5976394989045255
  7
FDASTYLE2
 72
     5
 11
517.8344271000773
 21
-185.9272077185017
 31
0.0
  0
TEXT
  5
3B3
  8
LAYER0002
 62
     3
 10
533.6311292844923
 20
-187.1216685584563
 30
0.0
 40
8.0
  1
２－
 41
0.7699296059137625
  7
FDASTYLE3
 72
     5
 11
547.5206593751766
 21
-187.1216685584563
 31
0.0
  0
TEXT
  5
3B4
  8
LAYER0002
 62
     3
 10
550.5430869088992
 20
-187.1216685584563
 30
0.0
 40
8.0
  1
9306089
 41
1.376864367143835
  7
FDASTYLE3
 72
     5
 11
605.716795829087
 21
-187.1216685584563
 31
0.0
  0
TEXT
  5
3B5
  8
LAYER0002
 62
     4
 10
590.1032971299989
 20
-145.0216474852281
 30
0.0
 40
3.0
  1
1式
 41
0.520661157024785
  7
FDASTYLE1
 72
     5
 11
593.5396607663624
 21
-145.0216474852281
 31
0.0
  0
TEXT
  5
3B6
  8
LAYER0002
 62
     4
 10
595.8735726361166
 20
-172.297487439201
 30
0.0
 40
3.0
  1
1/1
 41
0.5222222222222273
  7
FDASTYLE1
 72
     5
 11
600.5735726361166
 21
-172.297487439201
 31
0.0
  0
TEXT
  5
3B7
  8
LAYER0002
 62
     6
 10
521.6085333514537
 20
-145.7243747487088
 30
0.0
 40
5.0
  1
外　形　図
 41
0.5833333333333334
  7
FDASTYLE1
 72
     5
 11
539.1085333514537
 21
-145.7243747487088
 31
0.0
  0
TEXT
  5
3B8
  8
LAYER0002
 62
     6
 10
508.9768756015056
 20
-154.3920863201719
 30
0.0
 40
5.0
  1
日鋼プレシジォン
 41
0.5833333333333322
  7
FDASTYLE1
 72
     5
 11
536.9768756015055
 21
-154.3920863201719
 31
0.0
  0
TEXT
  5
3B9
  8
LAYER0002
 62
     6
 10
517.4424132567851
 20
-160.8053724226564
 30
0.0
 40
5.0
  1
  GＯ3-6型 ﾁｬｯｸ
 41
0.5473379371797724
  7
FDASTYLE1
 72
     5
 11
554.1140550478299
 21
-160.8053724226564
 31
0.0
  0
LINE
  5
3BA
  8
0
  6
CONTINUOUS
 62
     3
 10
469.1516899988224
 20
139.4568334508825
 30
0.0
 11
469.1516899988224
 21
74.5436178136755
 31
0.0
  0
LINE
  5
3BB
  8
0
  6
CONTINUOUS
 62
     3
 10
497.1516976282169
 20
139.4568334508825
 30
0.0
 11
497.1516976282169
 21
74.5436178136755
 31
0.0
  0
LINE
  5
3BC
  8
0
  6
CONTINUOUS
 62
     3
 10
504.6516976282169
 20
137.4472051549841
 30
0.0
 11
504.6516976282169
 21
128.5136190343786
 31
0.0
  0
LINE
  5
3BD
  8
0
  6
CONTINUOUS
 62
     3
 10
461.6516747400333
 20
137.4472204137732
 30
0.0
 11
461.6516747400333
 21
128.5136266637732
 31
0.0
  0
LINE
  5
3BE
  8
0
  6
CONTINUOUS
 62
     3
 10
469.1516899988224
 20
139.4568334508825
 30
0.0
 11
497.1516976282169
 21
139.4568334508825
 31
0.0
  0
LINE
  5
3BF
  8
0
  6
CONTINUOUS
 62
     3
 10
469.1516899988224
 20
82.456825821488
 30
0.0
 11
497.1516976282169
 21
82.456825821488
 31
0.0
  0
LINE
  5
3C0
  8
0
  6
CONTINUOUS
 62
     3
 10
477.6516976282169
 20
92.456825821488
 30
0.0
 11
488.6516976282169
 21
92.456825821488
 31
0.0
  0
LINE
  5
3C1
  8
0
  6
CONTINUOUS
 62
     3
 10
477.6516976282169
 20
133.456825821488
 30
0.0
 11
488.6516976282169
 21
133.456825821488
 31
0.0
  0
LINE
  5
3C2
  8
0
  6
CONTINUOUS
 62
     3
 10
477.6516976282169
 20
139.4568334508825
 30
0.0
 11
477.6516976282169
 21
128.9209295202185
 31
0.0
  0
LINE
  5
3C3
  8
0
  6
CONTINUOUS
 62
     3
 10
488.6516976282169
 20
139.4568334508825
 30
0.0
 11
488.6516976282169
 21
128.9209295202185
 31
0.0
  0
LINE
  5
3C4
  8
0
  6
CONTINUOUS
 62
     3
 10
461.6516831794545
 20
137.447198742131
 30
0.0
 11
469.1516690987921
 21
139.4568136979041
 31
0.0
  0
LINE
  5
3C5
  8
0
  6
CONTINUOUS
 62
     3
 10
497.1516661963779
 20
139.4568061377312
 30
0.0
 11
504.6516594851446
 21
137.4471892073258
 31
0.0
  0
LINE
  5
3C6
  8
0
  6
CONTINUOUS
 62
     3
 10
477.6516976282169
 20
121.9927221227575
 30
0.0
 11
477.6516976282169
 21
103.9209295202185
 31
0.0
  0
LINE
  5
3C7
  8
0
  6
CONTINUOUS
 62
     3
 10
488.6516976282169
 20
121.9927221227575
 30
0.0
 11
488.6516976282169
 21
103.9209295202185
 31
0.0
  0
LINE
  5
3C8
  8
0
  6
CONTINUOUS
 62
     3
 10
488.6516976282169
 20
96.99272975215206
 30
0.0
 11
488.6516976282169
 21
82.456825821488
 31
0.0
  0
LINE
  5
3C9
  8
0
  6
CONTINUOUS
 62
     3
 10
477.6516976282169
 20
96.99272975215206
 30
0.0
 11
477.6516976282169
 21
82.456825821488
 31
0.0
  0
LINE
  5
3CA
  8
0
  6
CONTINUOUS
 62
     3
 10
496.1454689492669
 20
27.78908899318878
 30
0.0
 11
552.3619523780683
 21
-4.667509261456075
 31
0.0
  0
LINE
  5
3CB
  8
0
  6
CONTINUOUS
 62
     3
 10
510.1454416858026
 20
52.03781679164979
 30
0.0
 11
566.3619515436033
 21
19.58120327821678
 31
0.0
  0
LINE
  5
3CC
  8
0
  6
CONTINUOUS
 62
     3
 10
399.9414589094033
 20
19.5811778239854
 30
0.0
 11
456.1579456418297
 21
52.03777798597878
 31
0.0
  0
LINE
  5
3CD
  8
0
  6
CONTINUOUS
 62
     3
 10
413.9414660784645
 20
-4.667525690016987
 30
0.0
 11
470.1579495072659
 21
27.78907256462787
 31
0.0
  0
LINE
  5
3CE
  8
0
  6
CONTINUOUS
 62
     3
 10
397.931840816955
 20
27.08118060799939
 30
0.0
 11
405.6685471306685
 21
31.54796958736347
 31
0.0
  0
LINE
  5
3CF
  8
0
  6
CONTINUOUS
 62
     3
 10
419.4318437927543
 20
-10.15791339381929
 30
0.0
 11
427.1685534100927
 21
-5.691122507106684
 31
0.0
  0
LINE
  5
3D0
  8
0
  6
CONTINUOUS
 62
     3
 10
539.1348608576109
 20
-5.691090445625491
 30
0.0
 11
546.8715671713244
 21
-10.15787942498957
 31
0.0
  0
LINE
  5
3D1
  8
0
  6
CONTINUOUS
 62
     3
 10
560.634855761414
 20
31.54799720447943
 30
0.0
 11
568.3715620751275
 21
27.08120822511535
 31
0.0
  0
LINE
  5
3D2
  8
0
  6
CONTINUOUS
 62
     3
 10
552.3619572172293
 20
-4.66751791415129
 30
0.0
 11
566.3619894037411
 21
19.5812458145864
 31
0.0
  0
LINE
  5
3D3
  8
0
  6
CONTINUOUS
 62
     3
 10
399.9414559252416
 20
19.58117814556192
 30
0.0
 11
413.9414575941717
 21
-4.667532725180877
 31
0.0
  0
LINE
  5
3D4
  8
0
  6
CONTINUOUS
 62
     3
 10
566.3619474145739
 20
19.58119251407959
 30
0.0
 11
568.3715667824163
 21
27.08119317227545
 31
0.0
  0
LINE
  5
3D5
  8
0
  6
CONTINUOUS
 62
     3
 10
397.9318371158407
 20
27.08118226091631
 30
0.0
 11
399.9414559900249
 21
19.58118344507773
 31
0.0
  0
LINE
  5
3D6
  8
0
  6
CONTINUOUS
 62
     3
 10
413.9414648947302
 20
-4.667525897379733
 30
0.0
 11
419.4318468792906
 21
-10.15790741913554
 31
0.0
  0
LINE
  5
3D7
  8
0
  6
CONTINUOUS
 62
     3
 10
546.8715616416598
 20
-10.15791075229947
 30
0.0
 11
552.3619058626414
 21
-4.667566994119284
 31
0.0
  0
LINE
  5
3D8
  8
0
  6
CONTINUOUS
 62
     3
 10
502.9984798438077
 20
23.83249413485498
 30
0.0
 11
516.9985120303195
 21
48.08125786359267
 31
0.0
  0
LINE
  5
3D9
  8
0
  6
CONTINUOUS
 62
     3
 10
449.3049106158918
 20
48.08118370591205
 30
0.0
 11
463.3049132384963
 21
23.83247118335692
 31
0.0
  0
LINE
  5
3DA
  8
0
  6
CONTINUOUS
 62
     3
 10
404.1914567487351
 20
12.21996482092391
 30
0.0
 11
413.3158176687451
 21
17.48791647226153
 31
0.0
  0
LINE
  5
3DB
  8
0
  6
CONTINUOUS
 62
     3
 10
409.6914649355078
 20
2.693685405695987
 30
0.0
 11
418.8158192482681
 21
7.961633242336575
 31
0.0
  0
LINE
  5
3DC
  8
0
  6
CONTINUOUS
 62
     3
 10
507.2484883830578
 20
31.19371297589203
 30
0.0
 11
519.8369510944497
 21
23.92576144376369
 31
0.0
  0
LINE
  5
3DD
  8
0
  6
CONTINUOUS
 62
     3
 10
512.7484880552322
 20
40.71999290219208
 30
0.0
 11
525.3369375521245
 21
33.45204899945782
 31
0.0
  0
LINE
  5
3DE
  8
0
  6
CONTINUOUS
 62
     3
 10
551.4157921799251
 20
5.69370587291894
 30
0.0
 11
556.9157928355762
 21
15.2199851435679
 31
0.0
  0
LINE
  5
3DF
  8
0
  6
CONTINUOUS
 62
     3
 10
515.9087512620517
 20
26.19370831670938
 30
0.0
 11
521.4087519177028
 21
35.71998758735833
 31
0.0
  0
LINE
  5
3E0
  8
0
  6
CONTINUOUS
 62
     3
 10
444.8946601011464
 20
35.71996235438166
 30
0.0
 11
450.3946607567975
 21
26.19368308373271
 31
0.0
  0
LINE
  5
3E1
  8
0
  6
CONTINUOUS
 62
     3
 10
409.3876120649506
 20
15.21996461049173
 30
0.0
 11
414.8876127206017
 21
5.693685339842773
 31
0.0
  0
LINE
  5
3E2
  8
0
  6
CONTINUOUS
 62
     3
 10
419.3158182792726
 20
20.95201805716681
 30
0.0
 11
434.9664505612567
 21
29.98791381985495
 31
0.0
  0
LINE
  5
3E3
  8
0
  6
CONTINUOUS
 62
     3
 10
424.8158198587955
 20
11.42573482724185
 30
0.0
 11
440.4664521407797
 21
20.46163058993
 31
0.0
  0
LINE
  5
3E4
  8
0
  6
CONTINUOUS
 62
     3
 10
446.466456054932
 20
23.92573408218379
 30
0.0
 11
459.0549187663239
 21
31.19368561431213
 31
0.0
  0
LINE
  5
3E5
  8
0
  6
CONTINUOUS
 62
     3
 10
440.966454475409
 20
33.45201731210875
 30
0.0
 11
453.5549171868009
 21
40.71996884423709
 31
0.0
  0
LINE
  5
3E6
  8
0
  6
CONTINUOUS
 62
     3
 10
531.3369546807764
 20
29.98793787780994
 30
0.0
 11
546.987573748261
 21
20.95204974451588
 31
0.0
  0
LINE
  5
3E7
  8
0
  6
CONTINUOUS
 62
     3
 10
525.8369417941024
 20
20.46166558090397
 30
0.0
 11
541.4875872905861
 21
11.42576218882175
 31
0.0
  0
LINE
  5
3E8
  8
0
  6
CONTINUOUS
 62
     3
 10
547.4875779902388
 20
7.961666325962028
 30
0.0
 11
556.6119521247485
 21
2.693707045230326
 31
0.0
  0
LINE
  5
3E9
  8
0
  6
CONTINUOUS
 62
     3
 10
552.9875908769129
 20
17.487938622868
 30
0.0
 11
562.111951796923
 21
12.21998697153038
 31
0.0
  0
LINE
  5
3EA
  8
0
  6
CONTINUOUS
 62
     3
 10
457.1516976282169
 20
105.9927221227575
 30
0.0
 11
453.1516976282169
 21
105.9927221227575
 31
0.0
  0
LINE
  5
3EB
  8
0
  6
CONTINUOUS
 62
     3
 10
451.1516911326908
 20
109.4568190331719
 30
0.0
 11
453.1516916095279
 21
112.9209203477166
 31
0.0
  0
LINE
  5
3EC
  8
0
  6
CONTINUOUS
 62
     3
 10
453.1517460977002
 20
105.9927654018945
 30
0.0
 11
451.1517460977007
 21
109.4568690835075
 31
0.0
  0
LINE
  5
3ED
  8
0
  6
CONTINUOUS
 62
     3
 10
459.1517112705374
 20
109.4568185544489
 30
0.0
 11
457.1517088863516
 21
105.9927181935785
 31
0.0
  0
LINE
  5
3EE
  8
0
  6
CONTINUOUS
 62
     3
 10
457.1517343929632
 20
112.9209624268327
 30
0.0
 11
459.1517329624517
 21
109.4568599201951
 31
0.0
  0
LINE
  5
3EF
  8
0
  6
CONTINUOUS
 62
     3
 10
453.1516976282169
 20
112.9209295202185
 30
0.0
 11
457.1516976282169
 21
112.9209295202185
 31
0.0
  0
LINE
  5
3F0
  8
0
  6
CONTINUOUS
 62
     3
 10
377.4139807089453
 20
-23.44726101236881
 30
0.0
 11
384.2896605447033
 21
-35.35628619106626
 31
0.0
  0
LINE
  5
3F1
  8
0
  6
CONTINUOUS
 62
     3
 10
375.3517787502082
 20
-33.87546559190974
 30
0.0
 11
377.1322088025399
 21
-36.95926047890504
 31
0.0
  0
LINE
  5
3F2
  8
0
  6
CONTINUOUS
 62
     3
 10
383.3517978304976
 20
-47.73191069384201
 30
0.0
 11
389.4139895928686
 21
-44.23190303464563
 31
0.0
  0
LINE
  5
3F3
  8
0
  6
CONTINUOUS
 62
     3
 10
375.3517970296545
 20
-33.87548224181883
 30
0.0
 11
381.4139755775258
 21
-30.37548221201652
 31
0.0
  0
LINE
  5
3F4
  8
0
  6
CONTINUOUS
 62
     3
 10
375.3517880365421
 20
-33.8754724573206
 30
0.0
 11
375.3517880365421
 21
-38.18594303837529
 31
0.0
  0
LINE
  5
3F5
  8
0
  6
CONTINUOUS
 62
     3
 10
372.0231167855178
 20
-47.97939942476626
 30
0.0
 11
378.1268052900228
 21
-44.4554336129752
 31
0.0
  0
LINE
  5
3F6
  8
0
  6
CONTINUOUS
 62
     3
 10
369.4165371463204
 20
-43.59532013742052
 30
0.0
 11
375.5767919683102
 21
-40.03869575061073
 31
0.0
  0
LINE
  5
3F7
  8
0
  6
CONTINUOUS
 62
     3
 10
372.2272958020586
 20
-48.38112834376432
 30
0.0
 11
378.3517954916707
 21
-44.84514718997703
 31
0.0
  0
LINE
  5
3F8
  8
0
  6
CONTINUOUS
 62
     3
 10
369.1915496186292
 20
-43.2056226359411
 30
0.0
 11
375.3518060924315
 21
-39.64899729545705
 31
0.0
  0
LINE
  5
3F9
  8
0
  6
CONTINUOUS
 62
     3
 10
379.6875269708863
 20
-45.61632806563091
 30
0.0
 11
383.3517953954352
 21
-47.73189419319544
 31
0.0
  0
LINE
  5
3FA
  8
0
  6
CONTINUOUS
 62
     3
 10
381.5926528309703
 20
-44.68497510082381
 30
0.0
 11
383.3517777965337
 21
-47.73186850013809
 31
0.0
  0
LINE
  5
3FB
  8
0
  6
CONTINUOUS
 62
     3
 10
378.3517925448962
 20
-44.84510874284189
 30
0.0
 11
375.3517940946172
 21
-39.64895971702168
 31
0.0
  0
LINE
  5
3FC
  8
0
  6
CONTINUOUS
 62
     3
 10
386.2790303437346
 20
-39.57549664183864
 30
0.0
 11
383.8790304391021
 21
-35.41857543900767
 31
0.0
  0
LINE
  5
3FD
  8
0
  6
CONTINUOUS
 62
     3
 10
376.9352625230326
 20
-37.63780805409675
 30
0.0
 11
375.4749299210837
 21
-38.48093159057902
 31
0.0
  0
LINE
  5
3FE
  8
0
  6
CONTINUOUS
 62
     3
 10
380.8852542201045
 20
-44.47939342452565
 30
0.0
 11
379.4249199663433
 21
-45.32251791468235
 31
0.0
  0
LINE
  5
3FF
  8
0
  6
CONTINUOUS
 62
     3
 10
384.7371742539955
 20
-41.50492009148894
 30
0.0
 11
381.437180345591
 21
-35.78916376142348
 31
0.0
  0
LINE
  5
400
  8
0
  6
CONTINUOUS
 62
     3
 10
381.1461654378183
 20
-43.68510439419407
 30
0.0
 11
377.753565927554
 21
-37.80895047864175
 31
0.0
  0
LINE
  5
401
  8
0
  6
CONTINUOUS
 62
     3
 10
379.7882891101758
 20
-42.86106397292502
 30
0.0
 11
378.5133807024808
 21
-43.59713278625719
 31
0.0
  0
LINE
  5
402
  8
0
  6
CONTINUOUS
 62
     3
 10
377.7882924309184
 20
-39.39696476991202
 30
0.0
 11
376.5133856750358
 21
-40.13303262956976
 31
0.0
  0
LINE
  5
403
  8
0
  6
CONTINUOUS
 62
     3
 10
381.4371841982691
 20
-35.78917845410734
 30
0.0
 11
383.8790429544813
 21
-35.41860094351051
 31
0.0
  0
LINE
  5
404
  8
0
  6
CONTINUOUS
 62
     3
 10
386.2790729973369
 20
-39.57552480025458
 30
0.0
 11
384.7372156057725
 21
-41.50494637906309
 31
0.0
  0
LINE
  5
405
  8
0
  6
CONTINUOUS
 62
     3
 10
383.5276903936156
 20
-41.41002889395503
 30
0.0
 11
380.8816730036008
 21
-36.8269929653365
 31
0.0
  0
LINE
  5
406
  8
0
  6
CONTINUOUS
 62
     3
 10
386.5383371128153
 20
-39.25110772262167
 30
0.0
 11
394.1132281525313
 21
-52.37120206568841
 31
0.0
  0
LINE
  5
407
  8
0
  6
CONTINUOUS
 62
     3
 10
448.9222277534141
 20
1.672225659873789
 30
0.0
 11
450.9222277534141
 21
-1.791875893089468
 31
0.0
  0
LINE
  5
408
  8
0
  6
CONTINUOUS
 62
     3
 10
448.922235958295
 20
-5.256000907332805
 30
0.0
 11
444.922235958295
 21
-5.256000907332805
 31
0.0
  0
LINE
  5
409
  8
0
  6
CONTINUOUS
 62
     3
 10
450.9221576745581
 20
-1.79185739326465
 30
0.0
 11
448.9221567208838
 21
-5.255958469390748
 31
0.0
  0
LINE
  5
40A
  8
0
  6
CONTINUOUS
 62
     3
 10
444.9222283289005
 20
1.67213830241451
 30
0.0
 11
448.9222283289005
 21
1.67213830241451
 31
0.0
  0
LINE
  5
40B
  8
0
  6
CONTINUOUS
 62
     3
 10
442.9221875426838
 20
-1.791867922988445
 30
0.0
 11
444.9221889731953
 21
1.672232914719075
 31
0.0
  0
LINE
  5
40C
  8
0
  6
CONTINUOUS
 62
     3
 10
444.9222242522151
 20
-5.255979591819937
 30
0.0
 11
442.9222242522151
 21
-1.79187803885668
 31
0.0
  0
LINE
  5
40D
  8
0
  6
CONTINUOUS
 62
     3
 10
549.3811749196216
 20
50.16965874940149
 30
0.0
 11
551.3811749196216
 21
46.70555719643824
 31
0.0
  0
LINE
  5
40E
  8
0
  6
CONTINUOUS
 62
     3
 10
545.3812413056135
 20
43.24148503743106
 30
0.0
 11
543.3812413056135
 21
46.70558659039432
 31
0.0
  0
LINE
  5
40F
  8
0
  6
CONTINUOUS
 62
     3
 10
543.3811703274964
 20
46.70554440888043
 30
0.0
 11
545.3811703274964
 21
50.16964596184369
 31
0.0
  0
LINE
  5
410
  8
0
  6
CONTINUOUS
 62
     3
 10
545.3811745569278
 20
50.16956385859737
 30
0.0
 11
549.3811745569278
 21
50.16956385859737
 31
0.0
  0
LINE
  5
411
  8
0
  6
CONTINUOUS
 62
     3
 10
549.3811745569278
 20
43.24138316401729
 30
0.0
 11
545.3811745569278
 21
43.24138316401729
 31
0.0
  0
LINE
  5
412
  8
0
  6
CONTINUOUS
 62
     3
 10
551.3811738286954
 20
46.70554226311322
 30
0.0
 11
549.3811738286954
 21
43.24144071014996
 31
0.0
  0
ARC
  5
413
  8
0
  6
CONTINUOUS
 62
     3
 10
483.1516976282169
 20
51.45682963618526
 30
0.0
 40
80.0
 50
340.0786724082217
 51
439.9213412142615
  0
ARC
  5
414
  8
0
  6
CONTINUOUS
 62
     3
 10
483.1516976282169
 20
51.45682963618526
 30
0.0
 40
33.0
 50
355.1027582070823
 51
424.8972814554971
  0
CIRCLE
  5
415
  8
0
  6
CONTINUOUS
 62
     3
 10
483.1516976282169
 20
51.45682963618526
 30
0.0
 40
27.0
  0
ARC
  5
416
  8
0
  6
CONTINUOUS
 62
     3
 10
483.1516976282169
 20
51.45682963618526
 30
0.0
 40
33.0
 50
115.1027440440267
 51
184.8972506438554
  0
ARC
  5
417
  8
0
  6
CONTINUOUS
 62
     3
 10
483.1516976282169
 20
51.45682963618526
 30
0.0
 40
33.0
 50
235.1027100446616
 51
304.8973156822333
  0
CIRCLE
  5
418
  8
0
  6
CONTINUOUS
 62
     3
 10
450.2427086755802
 20
70.45682963618526
 30
0.0
 40
2.5
  0
CIRCLE
  5
419
  8
0
  6
CONTINUOUS
 62
     3
 10
516.06066369267
 20
70.45682963618526
 30
0.0
 40
2.5
  0
ARC
  5
41A
  8
0
  6
CONTINUOUS
 62
     3
 10
483.1516976282169
 20
51.45682963618526
 30
0.0
 40
78.5
 50
340.2733293844725
 51
439.7266876531052
  0
ARC
  5
41B
  8
0
  6
CONTINUOUS
 62
     3
 10
483.1516976282169
 20
51.45682963618526
 30
0.0
 40
78.5
 50
100.2733310162294
 51
199.7266568414637
  0
ARC
  5
41C
  8
0
  6
CONTINUOUS
 62
     3
 10
483.1516976282169
 20
51.45682963618526
 30
0.0
 40
78.5
 50
220.2732901866751
 51
319.7267048043686
  0
ARC
  5
41D
  8
0
  6
CONTINUOUS
 62
     3
 10
483.1516976282169
 20
51.45682963618526
 30
0.0
 40
80.0
 50
220.078643455708
 51
319.9213583655248
  0
ARC
  5
41E
  8
0
  6
CONTINUOUS
 62
     3
 10
483.1516976282169
 20
51.45682963618526
 30
0.0
 40
80.0
 50
100.0786774550732
 51
199.9213035724307
  0
CIRCLE
  5
41F
  8
0
  6
CONTINUOUS
 62
     3
 10
483.1516976282169
 20
13.45682820567379
 30
0.0
 40
2.5
  0
CIRCLE
  5
420
  8
0
  6
CONTINUOUS
 62
     3
 10
528.5184426233341
 20
77.64931544551143
 30
0.0
 40
5.5
  0
CIRCLE
  5
421
  8
0
  6
CONTINUOUS
 62
     3
 10
437.7849602624942
 20
77.64933833369503
 30
0.0
 40
5.5
  0
CIRCLE
  5
422
  8
0
  6
CONTINUOUS
 62
     3
 10
437.7849602624942
 20
77.64933833369503
 30
0.0
 40
8.5
  0
CIRCLE
  5
423
  8
0
  6
CONTINUOUS
 62
     3
 10
528.5184426233341
 20
77.64931544551143
 30
0.0
 40
8.5
  0
CIRCLE
  5
424
  8
0
  6
CONTINUOUS
 62
     3
 10
483.1516976282169
 20
-0.928172500045207
 30
0.0
 40
8.5
  0
CIRCLE
  5
425
  8
0
  6
CONTINUOUS
 62
     3
 10
455.1516976282169
 20
109.456825821488
 30
0.0
 40
8.0
  0
CIRCLE
  5
426
  8
0
  6
CONTINUOUS
 62
     3
 10
455.1516976282169
 20
109.456825821488
 30
0.0
 40
2.400000095367432
  0
CIRCLE
  5
427
  8
0
  6
CONTINUOUS
 62
     3
 10
455.1516976282169
 20
109.456825821488
 30
0.0
 40
0.75
  0
CIRCLE
  5
428
  8
0
  6
CONTINUOUS
 62
     3
 10
455.1516976282169
 20
109.456825821488
 30
0.0
 40
3.299999952316284
  0
ARC
  5
429
  8
0
  6
CONTINUOUS
 62
     3
 10
379.4498715326358
 20
-40.74704685917607
 30
0.0
 40
3.0
 50
209.9999889956806
 51
251.8103021508073
  0
ARC
  5
42A
  8
0
  6
CONTINUOUS
 62
     3
 10
376.8517956659366
 20
-42.24704685917607
 30
0.0
 40
3.0
 50
348.1896876796993
 51
431.8102730088179
  0
ARC
  5
42B
  8
0
  6
CONTINUOUS
 62
     3
 10
379.4498715326358
 20
-40.74704685917607
 30
0.0
 40
3.0
 50
168.1896653678989
 51
209.9999716928365
  0
ARC
  5
42C
  8
0
  6
CONTINUOUS
 62
     3
 10
383.0871758386661
 20
-38.64704838505497
 30
0.0
 40
3.299999952316284
 50
282.3602834779813
 51
299.9999710095912
  0
ARC
  5
42D
  8
0
  6
CONTINUOUS
 62
     3
 10
383.0871758386661
 20
-38.64704838505497
 30
0.0
 40
3.299999952316284
 50
119.9999760185474
 51
137.6396772105358
  0
ARC
  5
42E
  8
0
  6
CONTINUOUS
 62
     3
 10
383.9027810022403
 20
-44.86876621952763
 30
0.0
 40
3.0
 50
92.10684948604951
 51
156.7619665845238
  0
ARC
  5
42F
  8
0
  6
CONTINUOUS
 62
     3
 10
378.1068005487491
 20
-34.82982578984013
 30
0.0
 40
3.0
 50
263.2379941039932
 51
327.8898190512877
  0
ARC
  5
430
  8
0
  6
CONTINUOUS
 62
     3
 10
380.1398339197208
 20
-43.81279698124638
 30
0.0
 40
1.0
 50
50.71543866290875
 51
119.9999760185475
  0
ARC
  5
431
  8
0
  6
CONTINUOUS
 62
     3
 10
380.1398339197208
 20
-43.81279698124638
 30
0.0
 40
1.0
 50
318.1948641282641
 51
369.2845220256086
  0
ARC
  5
432
  8
0
  6
CONTINUOUS
 62
     3
 10
377.1398358270694
 20
-38.61664524784794
 30
0.0
 40
1.0
 50
299.9999710095911
 51
369.2845220256086
  0
ARC
  5
433
  8
0
  6
CONTINUOUS
 62
     3
 10
377.1398358270694
 20
-38.61664524784794
 30
0.0
 40
1.0
 50
50.71543866290875
 51
101.8050897300639
  0
ARC
  5
434
  8
0
  6
CONTINUOUS
 62
     3
 10
379.2203373834659
 20
-44.34367314091435
 30
0.0
 40
1.0
 50
209.9999889956806
 51
281.8051257022427
  0
ARC
  5
435
  8
0
  6
CONTINUOUS
 62
     3
 10
376.2203335687686
 20
-39.14751759281865
 30
0.0
 40
1.0
 50
209.9999889956806
 51
299.9999710095913
  0
ARC
  5
436
  8
0
  6
CONTINUOUS
 62
     3
 10
379.2203373834659
 20
-44.34367314091435
 30
0.0
 40
1.0
 50
119.9999760185475
 51
209.9999716928365
  0
ARC
  5
437
  8
0
  6
CONTINUOUS
 62
     3
 10
376.2203335687686
 20
-39.14751759281865
 30
0.0
 40
1.0
 50
138.1948349862745
 51
209.9999716928365
  0
ARC
  5
438
  8
0
  6
CONTINUOUS
 62
     3
 10
384.6651787683536
 20
-37.73598805180302
 30
0.0
 40
1.200000047683716
 50
323.4679614128107
 51
456.5320061058957
  0
CIRCLE
  5
439
  8
0
  6
CONTINUOUS
 62
     3
 10
446.9222283289005
 20
-1.791880042464641
 30
0.0
 40
8.0
  0
CIRCLE
  5
43A
  8
0
  6
CONTINUOUS
 62
     3
 10
446.9222283289005
 20
-1.791880042464641
 30
0.0
 40
2.400000095367432
  0
CIRCLE
  5
43B
  8
0
  6
CONTINUOUS
 62
     3
 10
446.9222283289005
 20
-1.791880042464641
 30
0.0
 40
0.75
  0
CIRCLE
  5
43C
  8
0
  6
CONTINUOUS
 62
     3
 10
446.9222283289005
 20
-1.791880042464641
 30
0.0
 40
3.299999952316284
  0
CIRCLE
  5
43D
  8
0
  6
CONTINUOUS
 62
     3
 10
547.3811745569278
 20
46.70554408320675
 30
0.0
 40
3.299999952316284
  0
CIRCLE
  5
43E
  8
0
  6
CONTINUOUS
 62
     3
 10
547.3811745569278
 20
46.70554408320675
 30
0.0
 40
2.400000095367432
  0
CIRCLE
  5
43F
  8
0
  6
CONTINUOUS
 62
     3
 10
547.3811745569278
 20
46.70554408320675
 30
0.0
 40
8.0
  0
CIRCLE
  5
440
  8
0
  6
CONTINUOUS
 62
     3
 10
547.3811745569278
 20
46.70554408320675
 30
0.0
 40
0.75
  0
LINE
  5
441
  8
0
  6
CONTINUOUS
 62
     3
 10
201.7183251306583
 20
131.4568149584488
 30
0.0
 11
201.7183251306583
 21
4.5718168753342
 31
0.0
  0
LINE
  5
442
  8
0
  6
CONTINUOUS
 62
     3
 10
280.7183175012638
 20
133.4568149584488
 30
0.0
 11
280.7183175012638
 21
129.4568149584488
 31
0.0
  0
LINE
  5
443
  8
0
  6
CONTINUOUS
 62
     3
 10
201.7183251306583
 20
131.4568149584488
 30
0.0
 11
250.7183175012638
 21
131.4568149584488
 31
0.0
  0
LINE
  5
444
  8
0
  6
CONTINUOUS
 62
     3
 10
201.7183251306583
 20
-28.54318122685391
 30
0.0
 11
279.2183175012638
 21
-28.54318122685391
 31
0.0
  0
LINE
  5
445
  8
0
  6
CONTINUOUS
 62
     3
 10
280.7183178984722
 20
-27.04318586802743
 30
0.0
 11
279.2183163060879
 21
-28.54318746041168
 31
0.0
  0
LINE
  5
446
  8
0
  6
CONTINUOUS
 62
     3
 10
205.9183220789005
 20
121.4568149584488
 30
0.0
 11
205.9183220789005
 21
4.5718168753342
 31
0.0
  0
LINE
  5
447
  8
0
  6
CONTINUOUS
 62
     3
 10
201.7183251306583
 20
-18.54318313420254
 30
0.0
 11
205.9183220789005
 21
-18.54318313420254
 31
0.0
  0
LINE
  5
448
  8
0
  6
CONTINUOUS
 62
     3
 10
201.7183251306583
 20
121.4568149584488
 30
0.0
 11
205.9183220789005
 21
121.4568149584488
 31
0.0
  0
LINE
  5
449
  8
0
  6
CONTINUOUS
 62
     3
 10
205.9183220789005
 20
24.45681686579746
 30
0.0
 11
228.7183175012638
 21
24.45681686579746
 31
0.0
  0
LINE
  5
44A
  8
0
  6
CONTINUOUS
 62
     3
 10
278.2183175012638
 20
81.33991737544102
 30
0.0
 11
278.2183175012638
 21
18.45681686579746
 31
0.0
  0
LINE
  5
44B
  8
0
  6
CONTINUOUS
 62
     3
 10
278.2183175012638
 20
18.45681686579746
 30
0.0
 11
280.7183175012638
 21
18.45681686579746
 31
0.0
  0
LINE
  5
44C
  8
0
  6
CONTINUOUS
 62
     3
 10
278.2183175012638
 20
81.33991737544102
 30
0.0
 11
280.7183175012638
 21
81.33991737544102
 31
0.0
  0
LINE
  5
44D
  8
0
  6
CONTINUOUS
 62
     3
 10
266.7183175012638
 20
74.54360695063633
 30
0.0
 11
278.2183175012638
 21
74.54360695063633
 31
0.0
  0
LINE
  5
44E
  8
0
  6
CONTINUOUS
 62
     3
 10
255.8697915002872
 20
67.78930015742344
 30
0.0
 11
266.7183175012638
 21
67.78930015742344
 31
0.0
  0
LINE
  5
44F
  8
0
  6
CONTINUOUS
 62
     3
 10
266.7183175012638
 20
81.04093666255039
 30
0.0
 11
266.7183175012638
 21
67.78930015742344
 31
0.0
  0
LINE
  5
450
  8
0
  6
CONTINUOUS
 62
     3
 10
250.7183175012638
 20
139.4568225878434
 30
0.0
 11
250.7183175012638
 21
101.9568149584488
 31
0.0
  0
LINE
  5
451
  8
0
  6
CONTINUOUS
 62
     3
 10
250.7183175012638
 20
101.9568149584488
 30
0.0
 11
250.7183175012638
 21
78.45681495844883
 31
0.0
  0
LINE
  5
452
  8
0
  6
CONTINUOUS
 62
     3
 10
231.7183175012638
 20
78.45681495844883
 30
0.0
 11
254.2183175012638
 21
78.45681495844883
 31
0.0
  0
LINE
  5
453
  8
0
  6
CONTINUOUS
 62
     3
 10
250.7183175012638
 20
139.4568225878434
 30
0.0
 11
279.7183175012638
 21
139.4568225878434
 31
0.0
  0
LINE
  5
454
  8
0
  6
CONTINUOUS
 62
     3
 10
250.7183175012638
 20
82.45681495844883
 30
0.0
 11
279.7183175012638
 21
82.45681495844883
 31
0.0
  0
LINE
  5
455
  8
0
  6
CONTINUOUS
 62
     3
 10
272.7183175012638
 20
139.4568225878434
 30
0.0
 11
272.7183175012638
 21
133.4568149584488
 31
0.0
  0
LINE
  5
456
  8
0
  6
CONTINUOUS
 62
     3
 10
265.7183175012638
 20
139.4568225878434
 30
0.0
 11
265.7183175012638
 21
82.45681495844883
 31
0.0
  0
LINE
  5
457
  8
0
  6
CONTINUOUS
 62
     3
 10
266.2183175012638
 20
133.4568149584488
 30
0.0
 11
280.7183175012638
 21
133.4568149584488
 31
0.0
  0
LINE
  5
458
  8
0
  6
CONTINUOUS
 62
     3
 10
266.2183175012638
 20
92.45681495844883
 30
0.0
 11
280.7183175012638
 21
92.45681495844883
 31
0.0
  0
LINE
  5
459
  8
0
  6
CONTINUOUS
 62
     3
 10
272.7183175012638
 20
92.45681495844883
 30
0.0
 11
272.7183175012638
 21
82.45681495844883
 31
0.0
  0
LINE
  5
45A
  8
0
  6
CONTINUOUS
 62
     3
 10
280.7183175012638
 20
91.26109047114414
 30
0.0
 11
280.7183175012638
 21
-27.04318122685391
 31
0.0
  0
LINE
  5
45B
  8
0
  6
CONTINUOUS
 62
     3
 10
266.2183175012638
 20
133.4568149584488
 30
0.0
 11
266.2183175012638
 21
92.45681495844883
 31
0.0
  0
LINE
  5
45C
  8
0
  6
CONTINUOUS
 62
     3
 10
280.7183175012638
 20
121.4568149584488
 30
0.0
 11
280.7183175012638
 21
104.4568149584488
 31
0.0
  0
LINE
  5
45D
  8
0
  6
CONTINUOUS
 62
     3
 10
280.7183175012638
 20
96.45681495844883
 30
0.0
 11
280.7183175012638
 21
92.45681495844883
 31
0.0
  0
LINE
  5
45E
  8
0
  6
CONTINUOUS
 62
     3
 10
287.7183175012638
 20
131.9568149584488
 30
0.0
 11
287.7183175012638
 21
118.9568149584488
 31
0.0
  0
LINE
  5
45F
  8
0
  6
CONTINUOUS
 62
     3
 10
287.7183175012638
 20
106.9568149584488
 30
0.0
 11
287.7183175012638
 21
93.95681495844883
 31
0.0
  0
LINE
  5
460
  8
0
  6
CONTINUOUS
 62
     3
 10
295.7183175012638
 20
131.9568149584488
 30
0.0
 11
295.7183175012638
 21
118.9568149584488
 31
0.0
  0
LINE
  5
461
  8
0
  6
CONTINUOUS
 62
     3
 10
295.7183175012638
 20
106.9568149584488
 30
0.0
 11
295.7183175012638
 21
93.95681495844883
 31
0.0
  0
LINE
  5
462
  8
0
  6
CONTINUOUS
 62
     3
 10
287.7183175012638
 20
93.95681495844883
 30
0.0
 11
295.7183175012638
 21
93.95681495844883
 31
0.0
  0
LINE
  5
463
  8
0
  6
CONTINUOUS
 62
     3
 10
287.7183175012638
 20
106.9568149584488
 30
0.0
 11
295.7183175012638
 21
106.9568149584488
 31
0.0
  0
LINE
  5
464
  8
0
  6
CONTINUOUS
 62
     3
 10
287.7183175012638
 20
131.9568149584488
 30
0.0
 11
295.7183175012638
 21
131.9568149584488
 31
0.0
  0
LINE
  5
465
  8
0
  6
CONTINUOUS
 62
     3
 10
287.7183175012638
 20
118.9568149584488
 30
0.0
 11
295.7183175012638
 21
118.9568149584488
 31
0.0
  0
LINE
  5
466
  8
0
  6
CONTINUOUS
 62
     3
 10
266.2183175012638
 20
96.45681495844883
 30
0.0
 11
287.7183175012638
 21
96.45681495844883
 31
0.0
  0
LINE
  5
467
  8
0
  6
CONTINUOUS
 62
     3
 10
266.2183175012638
 20
104.4568149584488
 30
0.0
 11
287.7183175012638
 21
104.4568149584488
 31
0.0
  0
LINE
  5
468
  8
0
  6
CONTINUOUS
 62
     3
 10
266.2183175012638
 20
129.4568149584488
 30
0.0
 11
287.7183175012638
 21
129.4568149584488
 31
0.0
  0
LINE
  5
469
  8
0
  6
CONTINUOUS
 62
     3
 10
266.2183175012638
 20
121.4568149584488
 30
0.0
 11
287.7183175012638
 21
121.4568149584488
 31
0.0
  0
LINE
  5
46A
  8
0
  6
CONTINUOUS
 62
     3
 10
269.7183175012638
 20
129.4568149584488
 30
0.0
 11
269.7183175012638
 21
121.4568149584488
 31
0.0
  0
LINE
  5
46B
  8
0
  6
CONTINUOUS
 62
     3
 10
269.7183175012638
 20
104.4568149584488
 30
0.0
 11
269.7183175012638
 21
96.45681495844883
 31
0.0
  0
LINE
  5
46C
  8
0
  6
CONTINUOUS
 62
     3
 10
212.7183251306583
 20
77.95681495844883
 30
0.0
 11
212.7183251306583
 21
24.95681686579746
 31
0.0
  0
LINE
  5
46D
  8
0
  6
CONTINUOUS
 62
     3
 10
254.7183175012638
 20
77.95681495844883
 30
0.0
 11
254.7183175012638
 21
24.95681686579746
 31
0.0
  0
LINE
  5
46E
  8
0
  6
CONTINUOUS
 62
     3
 10
254.218316740333
 20
78.4568290233276
 30
0.0
 11
254.7183172711277
 21
77.95682849253285
 31
0.0
  0
LINE
  5
46F
  8
0
  6
CONTINUOUS
 62
     3
 10
212.7183818261672
 20
77.95677347509172
 30
0.0
 11
213.2183731689859
 21
78.45677244641593
 31
0.0
  0
LINE
  5
470
  8
0
  6
CONTINUOUS
 62
     3
 10
212.7183239349356
 20
24.95681268926318
 30
0.0
 11
213.2183244657304
 21
24.45681215846843
 31
0.0
  0
LINE
  5
471
  8
0
  6
CONTINUOUS
 62
     3
 10
254.7183226659242
 20
24.95680999186492
 30
0.0
 11
254.2183221351295
 21
24.45680946107017
 31
0.0
  0
LINE
  5
472
  8
0
  6
CONTINUOUS
 62
     3
 10
235.7183175012638
 20
72.95681495844883
 30
0.0
 11
235.7183175012638
 21
29.95681686579746
 31
0.0
  0
LINE
  5
473
  8
0
  6
CONTINUOUS
 62
     3
 10
242.7183175012638
 20
74.70681495844883
 30
0.0
 11
242.7183175012638
 21
28.20681686579746
 31
0.0
  0
LINE
  5
474
  8
0
  6
CONTINUOUS
 62
     3
 10
244.2183175012638
 20
74.70681495844883
 30
0.0
 11
244.2183175012638
 21
74.45681495844883
 31
0.0
  0
LINE
  5
475
  8
0
  6
CONTINUOUS
 62
     3
 10
235.7183175012638
 20
72.95681495844883
 30
0.0
 11
242.7183175012638
 21
72.95681495844883
 31
0.0
  0
LINE
  5
476
  8
0
  6
CONTINUOUS
 62
     3
 10
235.7183175012638
 20
29.95681686579746
 30
0.0
 11
242.7183175012638
 21
29.95681686579746
 31
0.0
  0
LINE
  5
477
  8
0
  6
CONTINUOUS
 62
     3
 10
242.7183175012638
 20
74.70681495844883
 30
0.0
 11
244.2183175012638
 21
74.70681495844883
 31
0.0
  0
LINE
  5
478
  8
0
  6
CONTINUOUS
 62
     3
 10
242.7183175012638
 20
28.20681686579746
 30
0.0
 11
244.2183175012638
 21
28.20681686579746
 31
0.0
  0
LINE
  5
479
  8
0
  6
CONTINUOUS
 62
     3
 10
235.2183175012638
 20
67.4568187731461
 30
0.0
 11
235.2183175012638
 21
58.45681877314609
 31
0.0
  0
LINE
  5
47A
  8
0
  6
CONTINUOUS
 62
     3
 10
213.2183251306583
 20
67.4568187731461
 30
0.0
 11
213.2183251306583
 21
58.45681877314609
 31
0.0
  0
LINE
  5
47B
  8
0
  6
CONTINUOUS
 62
     3
 10
213.2183251306583
 20
44.45681877314609
 30
0.0
 11
213.2183251306583
 21
35.45681686579746
 31
0.0
  0
LINE
  5
47C
  8
0
  6
CONTINUOUS
 62
     3
 10
235.2183175012638
 20
44.45681877314609
 30
0.0
 11
235.2183175012638
 21
35.45681686579746
 31
0.0
  0
LINE
  5
47D
  8
0
  6
CONTINUOUS
 62
     3
 10
243.7183175012638
 20
28.45681686579746
 30
0.0
 11
254.7183175012638
 21
28.45681686579746
 31
0.0
  0
LINE
  5
47E
  8
0
  6
CONTINUOUS
 62
     3
 10
243.7183175012638
 20
74.45681495844883
 30
0.0
 11
254.7183175012638
 21
74.45681495844883
 31
0.0
  0
LINE
  5
47F
  8
0
  6
CONTINUOUS
 62
     3
 10
228.7183175012638
 20
24.45681686579746
 30
0.0
 11
278.2183175012638
 21
24.45681686579746
 31
0.0
  0
LINE
  5
480
  8
0
  6
CONTINUOUS
 62
     3
 10
243.7183175012638
 20
74.45681495844883
 30
0.0
 11
243.7183175012638
 21
28.45681686579746
 31
0.0
  0
LINE
  5
481
  8
0
  6
CONTINUOUS
 62
     3
 10
244.2183175012638
 20
29.15681762873691
 30
0.0
 11
244.2183175012638
 21
28.20681686579746
 31
0.0
  0
LINE
  5
482
  8
0
  6
CONTINUOUS
 62
     3
 10
209.7183251306583
 20
78.45681495844883
 30
0.0
 11
231.7183175012638
 21
78.45681495844883
 31
0.0
  0
LINE
  5
483
  8
0
  6
CONTINUOUS
 62
     3
 10
262.7183175012638
 20
15.95681734263462
 30
0.0
 11
262.7183175012638
 21
10.95681901156467
 31
0.0
  0
LINE
  5
484
  8
0
  6
CONTINUOUS
 62
     3
 10
269.7183175012638
 20
7.821816934938845
 30
0.0
 11
269.7183175012638
 21
-9.678183363084379
 31
0.0
  0
LINE
  5
485
  8
0
  6
CONTINUOUS
 62
     3
 10
262.7183175012638
 20
15.95681734263462
 30
0.0
 11
280.7183175012638
 21
15.95681734263462
 31
0.0
  0
LINE
  5
486
  8
0
  6
CONTINUOUS
 62
     3
 10
262.7183175012638
 20
10.95681901156467
 30
0.0
 11
280.7183175012638
 21
10.95681901156467
 31
0.0
  0
LINE
  5
487
  8
0
  6
CONTINUOUS
 62
     3
 10
205.9183220789005
 20
-6.428183363084379
 30
0.0
 11
269.7183175012638
 21
-6.428183363084379
 31
0.0
  0
LINE
  5
488
  8
0
  6
CONTINUOUS
 62
     3
 10
205.9183220789005
 20
4.5718168753342
 30
0.0
 11
269.7183175012638
 21
4.5718168753342
 31
0.0
  0
LINE
  5
489
  8
0
  6
CONTINUOUS
 62
     3
 10
269.7183175012638
 20
-9.678183363084379
 30
0.0
 11
280.7183175012638
 21
-9.678183363084379
 31
0.0
  0
LINE
  5
48A
  8
0
  6
CONTINUOUS
 62
     3
 10
269.7183175012638
 20
7.821816934938845
 30
0.0
 11
280.7183175012638
 21
7.821816934938845
 31
0.0
  0
LINE
  5
48B
  8
0
  6
CONTINUOUS
 62
     3
 10
261.2749419807565
 20
13.45681626013947
 30
0.0
 11
262.7183186939581
 21
15.95681771897238
 31
0.0
  0
LINE
  5
48C
  8
0
  6
CONTINUOUS
 62
     3
 10
261.2749323048513
 20
13.45681423843984
 30
0.0
 11
262.7183090180529
 21
10.95681277960693
 31
0.0
  0
LINE
  5
48D
  8
0
  6
CONTINUOUS
 62
     3
 10
189.7183251306583
 20
4.071817113752779
 30
0.0
 11
189.7183251306583
 21
-5.928183363084379
 31
0.0
  0
LINE
  5
48E
  8
0
  6
CONTINUOUS
 62
     3
 10
189.7183251306583
 20
-5.928183363084379
 30
0.0
 11
269.7183175012638
 21
-5.928183363084379
 31
0.0
  0
LINE
  5
48F
  8
0
  6
CONTINUOUS
 62
     3
 10
189.7183251306583
 20
4.071817113752779
 30
0.0
 11
269.7183175012638
 21
4.071817113752779
 31
0.0
  0
LINE
  5
490
  8
0
  6
CONTINUOUS
 62
     3
 10
269.7183175012638
 20
-8.928183363084379
 30
0.0
 11
279.7183175012638
 21
-8.928183363084379
 31
0.0
  0
LINE
  5
491
  8
0
  6
CONTINUOUS
 62
     3
 10
269.7183175012638
 20
7.0718168753342
 30
0.0
 11
279.7183175012638
 21
7.0718168753342
 31
0.0
  0
LINE
  5
492
  8
0
  6
CONTINUOUS
 62
     3
 10
279.7183175012638
 20
7.0718168753342
 30
0.0
 11
279.7183175012638
 21
-8.928183363084379
 31
0.0
  0
LINE
  5
493
  8
0
  6
CONTINUOUS
 62
     3
 10
205.9183220789005
 20
78.45681495844883
 30
0.0
 11
209.7183251306583
 21
78.45681495844883
 31
0.0
  0
LINE
  5
494
  8
0
  6
CONTINUOUS
 62
     3
 10
205.9183220789005
 20
-6.428183363084379
 30
0.0
 11
205.9183220789005
 21
-18.54318313420254
 31
0.0
  0
LINE
  5
495
  8
0
  6
CONTINUOUS
 62
     3
 10
201.7183251306583
 20
-6.428183363084379
 30
0.0
 11
201.7183251306583
 21
-28.54318122685391
 31
0.0
  0
LINE
  5
496
  8
0
  6
CONTINUOUS
 62
     3
 10
213.2183251306583
 20
35.45681686579746
 30
0.0
 11
235.2183175012638
 21
35.45681686579746
 31
0.0
  0
LINE
  5
497
  8
0
  6
CONTINUOUS
 62
     3
 10
213.2183251306583
 20
67.4568187731461
 30
0.0
 11
235.2183175012638
 21
67.4568187731461
 31
0.0
  0
LINE
  5
498
  8
0
  6
CONTINUOUS
 62
     3
 10
213.2183239986403
 20
67.4568147200855
 30
0.0
 11
212.7183234678455
 21
67.95681529302715
 31
0.0
  0
LINE
  5
499
  8
0
  6
CONTINUOUS
 62
     3
 10
235.2183163075094
 20
67.45682050338246
 30
0.0
 11
235.7183168383042
 21
67.9568210763241
 31
0.0
  0
LINE
  5
49A
  8
0
  6
CONTINUOUS
 62
     3
 10
235.2183199581582
 20
35.45681623686755
 30
0.0
 11
235.7183204889529
 21
34.9568156639259
 31
0.0
  0
LINE
  5
49B
  8
0
  6
CONTINUOUS
 62
     3
 10
213.2183176505932
 20
35.45681932276602
 30
0.0
 11
212.7183171197985
 21
34.95681874982437
 31
0.0
  0
LINE
  5
49C
  8
0
  6
CONTINUOUS
 62
     3
 10
243.7183175012638
 20
35.45681686579746
 30
0.0
 11
254.7183175012638
 21
35.45681686579746
 31
0.0
  0
LINE
  5
49D
  8
0
  6
CONTINUOUS
 62
     3
 10
243.7183175012638
 20
67.4568187731461
 30
0.0
 11
254.7183175012638
 21
67.4568187731461
 31
0.0
  0
LINE
  5
49E
  8
0
  6
CONTINUOUS
 62
     3
 10
243.7183175012638
 20
68.4568187731461
 30
0.0
 11
251.7183175012638
 21
68.4568187731461
 31
0.0
  0
LINE
  5
49F
  8
0
  6
CONTINUOUS
 62
     3
 10
243.7183175012638
 20
72.45682258784336
 30
0.0
 11
251.7183175012638
 21
72.45682258784336
 31
0.0
  0
LINE
  5
4A0
  8
0
  6
CONTINUOUS
 62
     3
 10
247.7183175012638
 20
72.45682258784336
 30
0.0
 11
247.7183175012638
 21
68.4568187731461
 31
0.0
  0
LINE
  5
4A1
  8
0
  6
CONTINUOUS
 62
     3
 10
251.7183175012638
 20
72.45682258784336
 30
0.0
 11
251.7183175012638
 21
68.4568187731461
 31
0.0
  0
LINE
  5
4A2
  8
0
  6
CONTINUOUS
 62
     3
 10
251.7183175012638
 20
71.9568187731461
 30
0.0
 11
254.7183175012638
 21
71.9568187731461
 31
0.0
  0
LINE
  5
4A3
  8
0
  6
CONTINUOUS
 62
     3
 10
251.7183175012638
 20
68.9568187731461
 30
0.0
 11
254.7183175012638
 21
68.9568187731461
 31
0.0
  0
LINE
  5
4A4
  8
0
  6
CONTINUOUS
 62
     3
 10
247.7183273730899
 20
71.70681241670457
 30
0.0
 11
248.468328169282
 21
72.45681321289669
 31
0.0
  0
LINE
  5
4A5
  8
0
  6
CONTINUOUS
 62
     3
 10
247.7183219782934
 20
69.20681515752733
 30
0.0
 11
248.468317379689
 21
68.45681975613172
 31
0.0
  0
LINE
  5
4A6
  8
0
  6
CONTINUOUS
 62
     3
 10
248.4683175012638
 20
72.45682258784336
 30
0.0
 11
248.4683175012638
 21
68.4568187731461
 31
0.0
  0
LINE
  5
4A7
  8
0
  6
CONTINUOUS
 62
     3
 10
243.7183231267319
 20
71.45681754610371
 30
0.0
 11
244.7183214909231
 21
72.45681591029495
 31
0.0
  0
LINE
  5
4A8
  8
0
  6
CONTINUOUS
 62
     3
 10
243.7183231267319
 20
69.45681542292471
 30
0.0
 11
244.7183241883214
 21
68.45681436133521
 31
0.0
  0
LINE
  5
4A9
  8
0
  6
CONTINUOUS
 62
     3
 10
244.7183175012638
 20
72.45682258784336
 30
0.0
 11
244.7183175012638
 21
68.4568187731461
 31
0.0
  0
CIRCLE
  5
4AA
  8
0
  6
CONTINUOUS
 62
     3
 10
499.606236388496
 20
41.95682963618526
 30
0.0
 40
1.5
  0
CIRCLE
  5
4AB
  8
0
  6
CONTINUOUS
 62
     3
 10
466.6972703240428
 20
41.95682963618526
 30
0.0
 40
1.5
  0
CIRCLE
  5
4AC
  8
0
  6
CONTINUOUS
 62
     3
 10
483.1517533562694
 20
51.45682963618526
 30
0.0
 40
23.0
  0
CIRCLE
  5
4AD
  8
0
  6
CONTINUOUS
 62
     3
 10
483.1517533562694
 20
70.45682963618526
 30
0.0
 40
1.5
  0
ARC
  5
4AE
  8
0
  6
CONTINUOUS
 62
     3
 10
483.1517533562694
 20
51.45682963618526
 30
0.0
 40
16.0
 50
23.26021946376224
 51
158.4040123628865
  0
ARC
  5
4AF
  8
0
  6
CONTINUOUS
 62
     3
 10
483.1517533562694
 20
51.45682963618526
 30
0.0
 40
16.0
 50
158.4040123628865
 51
270.3835567862766
  0
CIRCLE
  5
4B0
  8
0
  6
CONTINUOUS
 62
     3
 10
502.1517533562694
 20
51.45682963618526
 30
0.0
 40
1.649999976158142
  0
ARC
  5
4B1
  8
0
  6
CONTINUOUS
 62
     3
 10
483.1517533562694
 20
51.45682963618526
 30
0.0
 40
16.0
 50
269.9999974955218
 51
383.2602194637622
  0
CIRCLE
  5
4B2
  8
0
  6
CONTINUOUS
 62
     3
 10
464.1517457268749
 20
51.45682963618526
 30
0.0
 40
1.649999976158142
  0
LINE
  5
4B3
  8
0
  6
CENTER
 62
     7
 10
395.1183342859317
 20
51.45682963618526
 30
0.0
 11
571.1850380823184
 21
51.45682963618526
 31
0.0
  0
LINE
  5
4B4
  8
0
  6
CENTER
 62
     7
 10
425.6606102044443
 20
84.64935294373657
 30
0.0
 11
456.3049142674236
 21
66.95685769854788
 31
0.0
  0
LINE
  5
4B5
  8
0
  6
CENTER
 62
     7
 10
483.1517295796321
 20
51.45684336363172
 30
0.0
 11
563.9987915512056
 21
4.779775528126152
 31
0.0
  0
LINE
  5
4B6
  8
0
  6
CENTER
 62
     7
 10
401.260782961612
 20
4.177082369753862
 30
0.0
 11
483.1517012061961
 21
51.45682083889312
 31
0.0
  0
LINE
  5
4B7
  8
0
  6
CENTER
 62
     7
 10
422.9532952234317
 20
109.456825821488
 30
0.0
 11
469.1516899988224
 21
109.456825821488
 31
0.0
  0
LINE
  5
4B8
  8
0
  6
CENTER
 62
     7
 10
473.4671807214786
 20
125.456825821488
 30
0.0
 11
492.7742562219669
 21
125.456825821488
 31
0.0
  0
LINE
  5
4B9
  8
0
  6
CENTER
 62
     7
 10
473.4671807214786
 20
100.456825821488
 30
0.0
 11
493.0856575891544
 21
100.456825821488
 31
0.0
  0
LINE
  5
4BA
  8
0
  6
CENTER
 62
     7
 10
505.3472108656354
 20
64.2714028997915
 30
0.0
 11
555.0503037611256
 21
92.96749379216016
 31
0.0
  0
LINE
  5
4BB
  8
0
  6
CENTER
 62
     7
 10
542.3893603692804
 20
6.059468125747912
 30
0.0
 11
552.1570731730867
 21
22.97764065522676
 31
0.0
  0
LINE
  5
4BC
  8
0
  6
CENTER
 62
     7
 10
414.0740837025666
 20
23.10276498420853
 30
0.0
 11
423.9806886966971
 21
5.944024157309173
 31
0.0
  0
LINE
  5
4BD
  8
0
  6
CENTER
 62
     7
 10
435.728727655891
 20
35.59582225524628
 30
0.0
 11
445.6167283692394
 21
18.46930498348036
 31
0.0
  0
LINE
  5
4BE
  8
0
  6
CENTER
 62
     7
 10
520.7347126012583
 20
18.55251878953629
 30
0.0
 11
530.5024292197622
 21
35.47069792626451
 31
0.0
  0
LINE
  5
4BF
  8
0
  6
CENTER
 62
     7
 10
455.1516976282169
 20
121.29411372432
 30
0.0
 11
455.1516976282169
 21
97.64702662715206
 31
0.0
  0
LINE
  5
4C0
  8
0
  6
CENTER
 62
     7
 10
367.6755619608852
 20
-47.54496240221749
 30
0.0
 11
391.4817737658999
 21
-33.80044112672829
 31
0.0
  0
LINE
  5
4C1
  8
0
  6
CENTER
 62
     7
 10
452.6009464770577
 20
-11.62770917280807
 30
0.0
 11
441.2302933245919
 21
8.066839449023632
 31
0.0
  0
LINE
  5
4C2
  8
0
  6
CENTER
 62
     7
 10
436.6708341510462
 20
-7.71052091738909
 30
0.0
 11
457.1498119351354
 21
4.113022631194895
 31
0.0
  0
LINE
  5
4C3
  8
0
  6
CENTER
 62
     7
 10
552.9942254684052
 20
56.42765207790342
 30
0.0
 11
540.3811654708466
 21
34.58119171532269
 31
0.0
  0
LINE
  5
4C4
  8
0
  6
CENTER
 62
     7
 10
557.6325639298643
 20
40.78689938458081
 30
0.0
 11
537.1535795385257
 21
52.61044674786206
 31
0.0
  0
ARC
  5
4C5
  8
0
  6
CENTER
 62
     7
 10
483.1516976282169
 20
51.45682963618526
 30
0.0
 40
52.3849983215332
 50
14.6416323444935
 51
45.35835395723297
  0
ARC
  5
4C6
  8
0
  6
CENTER
 62
     7
 10
483.1516976282169
 20
51.45682963618526
 30
0.0
 40
38.0
 50
19.43052727349415
 51
40.56945902823233
  0
ARC
  5
4C7
  8
0
  6
CENTER
 62
     7
 10
483.1516976282169
 20
51.45682963618526
 30
0.0
 40
52.3849983215332
 50
134.6416476366288
 51
165.3583607116318
  0
ARC
  5
4C8
  8
0
  6
CENTER
 62
     7
 10
483.1516976282169
 20
51.45682963618526
 30
0.0
 40
38.0
 50
139.4305528109132
 51
160.5694828581041
  0
ARC
  5
4C9
  8
0
  6
CENTER
 62
     7
 10
483.1516976282169
 20
51.45682963618526
 30
0.0
 40
38.0
 50
259.4305119813589
 51
280.5694693493064
  0
ARC
  5
4CA
  8
0
  6
CENTER
 62
     7
 10
483.1516976282169
 20
51.45682963618526
 30
0.0
 40
52.3849983215332
 50
254.6416204674528
 51
285.3583608632125
  0
LINE
  5
4CB
  8
0
  6
CENTER
 62
     7
 10
193.1376671716739
 20
51.45681877314609
 30
0.0
 11
283.6850949861989
 21
51.45681877314609
 31
0.0
  0
LINE
  5
4CC
  8
0
  6
CENTER
 62
     7
 10
264.5898995325138
 20
125.4568149584488
 30
0.0
 11
301.114618770795
 21
125.4568149584488
 31
0.0
  0
LINE
  5
4CD
  8
0
  6
CENTER
 62
     7
 10
264.5898995325138
 20
100.4568149584488
 30
0.0
 11
301.2954316064884
 21
100.4568149584488
 31
0.0
  0
LINE
  5
4CE
  8
0
  6
CENTER
 62
     7
 10
257.0048928186466
 20
13.45681734263462
 30
0.0
 11
285.9382424280216
 21
13.45681734263462
 31
0.0
  0
LINE
  5
4CF
  8
0
  6
CENTER
 62
     7
 10
183.4049096033145
 20
-0.9281833630843792
 30
0.0
 11
288.4849953577091
 21
-0.9281833630843792
 31
0.0
  0
LINE
  5
4D0
  8
0
  6
CENTER
 62
     7
 10
242.3056206628849
 20
70.4568187731461
 30
0.0
 11
256.5495095178653
 21
70.4568187731461
 31
0.0
  0
ARC
  5
4D1
  8
0
  6
CENTER
 62
     7
 10
483.1517533562694
 20
51.45682963618526
 30
0.0
 40
19.0
 50
78.7058202589985
 51
103.14254322239
  0
LINE
  5
4D2
  8
0
  6
CENTER
 62
     7
 10
464.1517457268749
 20
55.72227153071651
 30
0.0
 11
464.1517457268749
 21
46.7492948461462
 31
0.0
  0
LINE
  5
4D3
  8
0
  6
CENTER
 62
     7
 10
502.1517533562694
 20
55.97152003535518
 30
0.0
 11
502.1517533562694
 21
46.7492948461462
 31
0.0
  0
LINE
  5
4D4
  8
0
  6
CENTER
 62
     7
 10
502.2623453782565
 20
40.42331496864188
 30
0.0
 11
497.1697150812963
 21
43.36354611663262
 31
0.0
  0
ARC
  5
4D5
  8
0
  6
CENTER
 62
     7
 10
483.1517533562694
 20
51.45682963618526
 30
0.0
 40
19.0
 50
318.7058169196943
 51
343.1425432981803
  0
LINE
  5
4D6
  8
0
  6
CENTER
 62
     7
 10
464.04117024343
 20
40.42331685452098
 30
0.0
 11
469.1338005403901
 21
43.36354800251172
 31
0.0
  0
ARC
  5
4D7
  8
0
  6
CENTER
 62
     7
 10
483.1517533562694
 20
51.45682963618526
 30
0.0
 40
19.0
 50
198.7058204105792
 51
223.1425433739707
  0
LINE
  5
4D8
  8
0
  6
CENTER
 62
     7
 10
483.1516976282169
 20
145.8070989538122
 30
0.0
 11
483.1516976282169
 21
65.82253631723602
 31
0.0
  0
LINE
  5
4D9
  8
0
  6
CENTER
 62
     7
 10
483.1516976282169
 20
58.59137111198365
 30
0.0
 11
483.1516976282169
 21
-37.14317646733036
 31
0.0
  0
LINE
  5
4DA
  8
0
  6
CENTER
 62
     7
 10
242.9183220789005
 20
-7.435009895998345
 30
0.0
 11
242.9183220789005
 21
-31.56097709470011
 31
0.0
  0
LINE
  5
4DB
  8
0
  6
CONTINUOUS
 62
     7
 10
282.2583175012638
 20
92.45681495844883
 30
0.0
 11
306.8068299219181
 21
92.45681495844883
 31
0.0
  0
LINE
  5
4DC
  8
0
  6
DASHED2
 62
     7
 10
443.1516747400333
 20
120.7388616491247
 30
0.0
 11
443.1516747400333
 21
98.456825821488
 31
0.0
  0
LINE
  5
4DD
  8
0
  6
DASHED2
 62
     7
 10
418.4137444421817
 20
98.456825821488
 30
0.0
 11
443.1516747400333
 21
98.456825821488
 31
0.0
  0
LINE
  5
4DE
  8
0
  6
DASHED2
 62
     7
 10
443.1516747400333
 20
115.456825821488
 30
0.0
 11
453.5372948572208
 21
115.456825821488
 31
0.0
  0
LINE
  5
4DF
  8
0
  6
DASHED2
 62
     7
 10
443.1516747400333
 20
103.456825821488
 30
0.0
 11
453.8487114831974
 21
103.456825821488
 31
0.0
  0
LINE
  5
4E0
  8
0
  6
DASHED2
 62
     7
 10
433.6516747400333
 20
111.8568273473669
 30
0.0
 11
433.6516747400333
 21
107.0568242956091
 31
0.0
  0
LINE
  5
4E1
  8
0
  6
DASHED2
 62
     7
 10
440.7747826501895
 20
105.5068212438513
 30
0.0
 11
442.4610314294864
 21
105.5068212438513
 31
0.0
  0
LINE
  5
4E2
  8
0
  6
DASHED2
 62
     7
 10
440.7747826501895
 20
113.4068227697302
 30
0.0
 11
442.4610314294864
 21
113.4068227697302
 31
0.0
  0
LINE
  5
4E3
  8
0
  6
DASHED2
 62
     7
 10
435.9516777917911
 20
112.7568288732458
 30
0.0
 11
435.9516777917911
 21
106.1568303991247
 31
0.0
  0
LINE
  5
4E4
  8
0
  6
DASHED2
 62
     7
 10
440.1516747400333
 20
112.8494115758825
 30
0.0
 11
440.1516747400333
 21
106.0642095495153
 31
0.0
  0
LINE
  5
4E5
  8
0
  6
DASHED2
 62
     7
 10
440.9156060144474
 20
111.456825821488
 30
0.0
 11
442.3877434656192
 21
111.456825821488
 31
0.0
  0
LINE
  5
4E6
  8
0
  6
DASHED2
 62
     7
 10
440.9156060144474
 20
107.456825821488
 30
0.0
 11
442.3877434656192
 21
107.456825821488
 31
0.0
  0
LINE
  5
4E7
  8
0
  6
DASHED2
 62
     7
 10
435.9516936482528
 20
106.1568423902143
 30
0.0
 11
433.6516897004321
 21
107.056843733396
 31
0.0
  0
LINE
  5
4E8
  8
0
  6
DASHED2
 62
     7
 10
433.6516729771931
 20
111.856833805259
 30
0.0
 11
435.9516733726043
 21
112.7568337583679
 31
0.0
  0
LINE
  5
4E9
  8
0
  6
DASHED2
 62
     7
 10
436.9516777917911
 20
112.0699010778357
 30
0.0
 11
436.9516777917911
 21
106.7778631139685
 31
0.0
  0
LINE
  5
4EA
  8
0
  6
DASHED2
 62
     7
 10
443.1516747400333
 20
111.956825821488
 30
0.0
 11
448.607180111127
 21
111.956825821488
 31
0.0
  0
LINE
  5
4EB
  8
0
  6
DASHED2
 62
     7
 10
443.1516747400333
 20
106.956825821488
 30
0.0
 11
448.6580223962833
 21
106.956825821488
 31
0.0
  0
LINE
  5
4EC
  8
0
  6
DASHED2
 62
     7
 10
443.1516747400333
 20
106.456825821488
 30
0.0
 11
448.7088494226505
 21
106.456825821488
 31
0.0
  0
LINE
  5
4ED
  8
0
  6
DASHED2
 62
     7
 10
443.1516747400333
 20
112.456825821488
 30
0.0
 11
448.607180111127
 21
112.456825821488
 31
0.0
  0
ARC
  5
4EE
  8
0
  6
DASHED2
 62
     7
 10
440.1516747400333
 20
109.456825821488
 30
0.0
 40
3.0
 50
0.0
 51
41.81031315512681
  0
ARC
  5
4EF
  8
0
  6
DASHED2
 62
     7
 10
443.1516747400333
 20
109.456825821488
 30
0.0
 40
3.0
 50
138.1896986840186
 51
221.8102840131373
  0
ARC
  5
4F0
  8
0
  6
DASHED2
 62
     7
 10
440.1516747400333
 20
109.456825821488
 30
0.0
 40
3.0
 50
318.1896868448732
 51
360.0
  0
ARC
  5
4F1
  8
0
  6
DASHED2
 62
     7
 10
435.9516777917911
 20
109.456825821488
 30
0.0
 40
3.299999952316284
 50
72.36029448230075
 51
89.99998201391055
  0
ARC
  5
4F2
  8
0
  6
DASHED2
 62
     7
 10
435.9516777917911
 20
109.456825821488
 30
0.0
 40
3.299999952316284
 50
270.0000179860895
 51
287.6397055176993
  0
ARC
  5
4F3
  8
0
  6
DASHED2
 62
     7
 10
438.356203548627
 20
115.2527929235388
 30
0.0
 40
3.0
 50
242.1068914535913
 51
306.7619948916871
  0
ARC
  5
4F4
  8
0
  6
DASHED2
 62
     7
 10
438.356203548627
 20
103.6608282018591
 30
0.0
 40
3.0
 50
53.23800510831291
 51
117.8898300556072
  0
ARC
  5
4F5
  8
0
  6
DASHED2
 62
     7
 10
441.0870232507755
 20
112.456825821488
 30
0.0
 40
1.0
 50
200.7154669700724
 51
270.0000179860891
  0
ARC
  5
4F6
  8
0
  6
DASHED2
 62
     7
 10
441.0870232507755
 20
112.456825821488
 30
0.0
 40
1.0
 50
108.1948751325835
 51
159.2845330299276
  0
ARC
  5
4F7
  8
0
  6
DASHED2
 62
     7
 10
441.0870232507755
 20
106.456825821488
 30
0.0
 40
1.0
 50
89.99998201391097
 51
159.2845330299276
  0
ARC
  5
4F8
  8
0
  6
DASHED2
 62
     7
 10
441.0870232507755
 20
106.456825821488
 30
0.0
 40
1.0
 50
200.7154669700724
 51
251.8051248674166
  0
ARC
  5
4F9
  8
0
  6
DASHED2
 62
     7
 10
442.1487755701114
 20
112.456825821488
 30
0.0
 40
1.0
 50
0.0
 51
71.80513670656242
  0
ARC
  5
4FA
  8
0
  6
DASHED2
 62
     7
 10
442.1487755701114
 20
106.456825821488
 30
0.0
 40
1.0
 50
0.0
 51
89.99998201391097
  0
ARC
  5
4FB
  8
0
  6
DASHED2
 62
     7
 10
442.1487755701114
 20
112.456825821488
 30
0.0
 40
1.0
 50
270.0000179860891
 51
360.0
  0
ARC
  5
4FC
  8
0
  6
DASHED2
 62
     7
 10
442.1487755701114
 20
106.456825821488
 30
0.0
 40
1.0
 50
288.1948632934378
 51
360.0
  0
ARC
  5
4FD
  8
0
  6
DASHED2
 62
     7
 10
434.1295647546817
 20
109.456825821488
 30
0.0
 40
1.200000047683716
 50
113.4679724171302
 51
246.532017110215
  0
LINE
  5
4FE
  8
0
  6
DASHED2
 62
     7
 10
544.0414317029949
 20
81.99271655930956
 30
0.0
 11
540.0414317029949
 21
88.92091978958509
 31
0.0
  0
LINE
  5
4FF
  8
0
  6
DASHED2
 62
     7
 10
539.4113046840728
 20
80.01233180158023
 30
0.0
 11
536.0113046840728
 21
85.90130454731441
 31
0.0
  0
LINE
  5
500
  8
0
  6
DASHED2
 62
     7
 10
544.0414317029949
 20
81.99271655930956
 30
0.0
 11
554.4337365484082
 21
87.99271655930956
 31
0.0
  0
LINE
  5
501
  8
0
  6
DASHED2
 62
     7
 10
539.4113046840728
 20
80.01233180158023
 30
0.0
 11
554.1337365484083
 21
88.51233180158023
 31
0.0
  0
LINE
  5
502
  8
0
  6
DASHED2
 62
     7
 10
539.4113046840728
 20
80.01233180158023
 30
0.0
 11
536.0113046840729
 21
81.97532271682486
 31
0.0
  0
LINE
  5
503
  8
0
  6
DASHED2
 62
     7
 10
536.0113046840728
 20
85.90130454731441
 30
0.0
 11
536.0113046840728
 21
81.97532271682506
 31
0.0
  0
LINE
  5
504
  8
0
  6
DASHED2
 62
     7
 10
540.0414317029949
 20
88.92091978958509
 30
0.0
 11
550.4337365484082
 21
94.92091978958509
 31
0.0
  0
LINE
  5
505
  8
0
  6
DASHED2
 62
     7
 10
536.0113046840728
 20
85.90130454731441
 30
0.0
 11
550.7337365484082
 21
94.40130454731441
 31
0.0
  0
LINE
  5
506
  8
0
  6
DASHED2
 62
     7
 10
244.2956712296905
 20
70.45681424872373
 30
0.0
 11
243.7183206132354
 21
71.4568148322569
 31
0.0
  0
LINE
  5
507
  8
0
  6
DASHED2
 62
     7
 10
244.2956736906826
 20
70.45681657574562
 30
0.0
 11
243.7183240279019
 21
69.4568176440248
 31
0.0
  0
LINE
  5
508
  8
0
  6
DASHED2
 62
     7
 10
238.9183220789005
 20
-16.54318122685391
 30
0.0
 11
246.9183220789005
 21
-16.54318122685391
 31
0.0
  0
LINE
  5
509
  8
0
  6
DASHED2
 62
     7
 10
239.5183220789005
 20
-11.54318122685391
 30
0.0
 11
246.3183220789005
 21
-11.54318122685391
 31
0.0
  0
LINE
  5
50A
  8
0
  6
DASHED2
 62
     7
 10
238.9183220789005
 20
-16.54318122685391
 30
0.0
 11
238.9183220789005
 21
-28.54318122685391
 31
0.0
  0
LINE
  5
50B
  8
0
  6
DASHED2
 62
     7
 10
239.5183220789005
 20
-11.54318122685391
 30
0.0
 11
239.5183220789005
 21
-28.54318122685391
 31
0.0
  0
LINE
  5
50C
  8
0
  6
DASHED2
 62
     7
 10
239.5183220789005
 20
-11.54318122685391
 30
0.0
 11
242.9183220789004
 21
-9.580190311609243
 31
0.0
  0
LINE
  5
50D
  8
0
  6
DASHED2
 62
     7
 10
246.3183220789005
 20
-11.54318122685391
 30
0.0
 11
242.9183220789006
 21
-9.580190311609243
 31
0.0
  0
LINE
  5
50E
  8
0
  6
DASHED2
 62
     7
 10
246.9183220789005
 20
-16.54318122685391
 30
0.0
 11
246.9183220789005
 21
-28.54318122685391
 31
0.0
  0
LINE
  5
50F
  8
0
  6
DASHED2
 62
     7
 10
246.3183220789005
 20
-11.54318122685391
 30
0.0
 11
246.3183220789005
 21
-28.54318122685391
 31
0.0
  0
LINE
  5
510
  8
0
  6
CONTINUOUS
 62
     4
 10
470.1516899988224
 20
137.9568334508825
 30
0.0
 11
476.6516976282169
 21
137.9568334508825
 31
0.0
  0
LINE
  5
511
  8
0
  6
CONTINUOUS
 62
     4
 10
489.6516976282169
 20
137.9568334508825
 30
0.0
 11
496.1516976282169
 21
137.9568334508825
 31
0.0
  0
LINE
  5
512
  8
0
  6
CONTINUOUS
 62
     4
 10
470.1516899988224
 20
83.956825821488
 30
0.0
 11
476.6516976282169
 21
83.956825821488
 31
0.0
  0
LINE
  5
513
  8
0
  6
CONTINUOUS
 62
     4
 10
489.6516976282169
 20
83.956825821488
 30
0.0
 11
496.1516976282169
 21
83.956825821488
 31
0.0
  0
LINE
  5
514
  8
0
  6
CONTINUOUS
 62
     4
 10
489.6516976282169
 20
136.4568334508825
 30
0.0
 11
496.1516976282169
 21
136.4568334508825
 31
0.0
  0
LINE
  5
515
  8
0
  6
CONTINUOUS
 62
     4
 10
489.6516976282169
 20
134.956825821488
 30
0.0
 11
496.1516976282169
 21
134.956825821488
 31
0.0
  0
LINE
  5
516
  8
0
  6
CONTINUOUS
 62
     4
 10
489.6516976282169
 20
133.456825821488
 30
0.0
 11
496.1516976282169
 21
133.456825821488
 31
0.0
  0
LINE
  5
517
  8
0
  6
CONTINUOUS
 62
     4
 10
489.6516976282169
 20
131.956825821488
 30
0.0
 11
496.1516976282169
 21
131.956825821488
 31
0.0
  0
LINE
  5
518
  8
0
  6
CONTINUOUS
 62
     4
 10
489.6516976282169
 20
130.456825821488
 30
0.0
 11
496.1516976282169
 21
130.456825821488
 31
0.0
  0
LINE
  5
519
  8
0
  6
CONTINUOUS
 62
     4
 10
489.6516976282169
 20
85.456825821488
 30
0.0
 11
496.1516976282169
 21
85.456825821488
 31
0.0
  0
LINE
  5
51A
  8
0
  6
CONTINUOUS
 62
     4
 10
489.6516976282169
 20
86.956825821488
 30
0.0
 11
496.1516976282169
 21
86.956825821488
 31
0.0
  0
LINE
  5
51B
  8
0
  6
CONTINUOUS
 62
     4
 10
489.6516976282169
 20
88.456825821488
 30
0.0
 11
496.1516976282169
 21
88.456825821488
 31
0.0
  0
LINE
  5
51C
  8
0
  6
CONTINUOUS
 62
     4
 10
489.6516976282169
 20
89.956825821488
 30
0.0
 11
496.1516976282169
 21
89.956825821488
 31
0.0
  0
LINE
  5
51D
  8
0
  6
CONTINUOUS
 62
     4
 10
489.6516976282169
 20
91.456825821488
 30
0.0
 11
496.1516976282169
 21
91.456825821488
 31
0.0
  0
LINE
  5
51E
  8
0
  6
CONTINUOUS
 62
     4
 10
470.1516899988224
 20
85.456825821488
 30
0.0
 11
476.6516976282169
 21
85.456825821488
 31
0.0
  0
LINE
  5
51F
  8
0
  6
CONTINUOUS
 62
     4
 10
470.1516899988224
 20
86.956825821488
 30
0.0
 11
476.6516976282169
 21
86.956825821488
 31
0.0
  0
LINE
  5
520
  8
0
  6
CONTINUOUS
 62
     4
 10
470.1516899988224
 20
88.456825821488
 30
0.0
 11
476.6516976282169
 21
88.456825821488
 31
0.0
  0
LINE
  5
521
  8
0
  6
CONTINUOUS
 62
     4
 10
470.1516899988224
 20
89.956825821488
 30
0.0
 11
476.6516976282169
 21
89.956825821488
 31
0.0
  0
LINE
  5
522
  8
0
  6
CONTINUOUS
 62
     4
 10
470.1516899988224
 20
91.456825821488
 30
0.0
 11
476.6516976282169
 21
91.456825821488
 31
0.0
  0
LINE
  5
523
  8
0
  6
CONTINUOUS
 62
     4
 10
470.1516899988224
 20
136.4568334508825
 30
0.0
 11
476.6516976282169
 21
136.4568334508825
 31
0.0
  0
LINE
  5
524
  8
0
  6
CONTINUOUS
 62
     4
 10
470.1516899988224
 20
134.956825821488
 30
0.0
 11
476.6516976282169
 21
134.956825821488
 31
0.0
  0
LINE
  5
525
  8
0
  6
CONTINUOUS
 62
     4
 10
470.1516899988224
 20
133.456825821488
 30
0.0
 11
476.6516976282169
 21
133.456825821488
 31
0.0
  0
LINE
  5
526
  8
0
  6
CONTINUOUS
 62
     4
 10
470.1516899988224
 20
131.956825821488
 30
0.0
 11
476.6516976282169
 21
131.956825821488
 31
0.0
  0
LINE
  5
527
  8
0
  6
CONTINUOUS
 62
     4
 10
470.1516899988224
 20
130.456825821488
 30
0.0
 11
476.6516976282169
 21
130.456825821488
 31
0.0
  0
LINE
  5
528
  8
0
  6
CONTINUOUS
 62
     4
 10
504.7975273855746
 20
23.94850519704403
 30
0.0
 11
508.0475277730047
 21
29.57767022060932
 31
0.0
  0
LINE
  5
529
  8
0
  6
CONTINUOUS
 62
     4
 10
514.5475285478651
 20
40.83600026773991
 30
0.0
 11
517.7975289352953
 21
46.4651652913052
 31
0.0
  0
LINE
  5
52A
  8
0
  6
CONTINUOUS
 62
     4
 10
561.3129033275668
 20
13.83600365633845
 30
0.0
 11
564.562903714997
 21
19.46516867990374
 31
0.0
  0
LINE
  5
52B
  8
0
  6
CONTINUOUS
 62
     4
 10
551.5629021652762
 20
-3.051491414357429
 30
0.0
 11
554.8129025527064
 21
2.577673609207864
 31
0.0
  0
LINE
  5
52C
  8
0
  6
CONTINUOUS
 62
     4
 10
506.0965692826335
 20
23.19851171488642
 30
0.0
 11
509.3465696700637
 21
28.82767673845171
 31
0.0
  0
LINE
  5
52D
  8
0
  6
CONTINUOUS
 62
     4
 10
507.3956073649947
 20
22.44851162547946
 30
0.0
 11
510.6456077524249
 21
28.07767664904475
 31
0.0
  0
LINE
  5
52E
  8
0
  6
CONTINUOUS
 62
     4
 10
508.6946454473559
 20
21.69851153607249
 30
0.0
 11
511.9446458347861
 21
27.32767655963778
 31
0.0
  0
LINE
  5
52F
  8
0
  6
CONTINUOUS
 62
     4
 10
509.9936797150194
 20
20.94850483941616
 30
0.0
 11
513.2436801024496
 21
26.57766986298145
 31
0.0
  0
LINE
  5
530
  8
0
  6
CONTINUOUS
 62
     4
 10
515.8465704449241
 20
40.0860067855823
 30
0.0
 11
519.0965708323543
 21
45.71517180914759
 31
0.0
  0
LINE
  5
531
  8
0
  6
CONTINUOUS
 62
     4
 10
517.1456085272853
 20
39.33600669617533
 30
0.0
 11
520.3956089147155
 21
44.96517171974062
 31
0.0
  0
LINE
  5
532
  8
0
  6
CONTINUOUS
 62
     4
 10
518.4446466096465
 20
38.58600660676837
 30
0.0
 11
521.6946469970767
 21
44.21517163033366
 31
0.0
  0
LINE
  5
533
  8
0
  6
CONTINUOUS
 62
     4
 10
519.74368087731
 20
37.83599991011204
 30
0.0
 11
522.9936812647402
 21
43.46516493367733
 31
0.0
  0
LINE
  5
534
  8
0
  6
CONTINUOUS
 62
     4
 10
521.0427227743689
 20
37.08600642795443
 30
0.0
 11
524.2927231617991
 21
42.71517145151972
 31
0.0
  0
LINE
  5
535
  8
0
  6
CONTINUOUS
 62
     4
 10
560.0138614305079
 20
14.58599713849606
 30
0.0
 11
563.2638618179381
 21
20.21516216206135
 31
0.0
  0
LINE
  5
536
  8
0
  6
CONTINUOUS
 62
     4
 10
558.7148233481466
 20
15.33599722790302
 30
0.0
 11
561.9648237355768
 21
20.96516225146831
 31
0.0
  0
LINE
  5
537
  8
0
  6
CONTINUOUS
 62
     4
 10
557.4157852657854
 20
16.08599731730999
 30
0.0
 11
560.6657856532156
 21
21.71516234087528
 31
0.0
  0
LINE
  5
538
  8
0
  6
CONTINUOUS
 62
     4
 10
556.1167509981219
 20
16.83600401396632
 30
0.0
 11
559.3667513855521
 21
22.46516903753161
 31
0.0
  0
LINE
  5
539
  8
0
  6
CONTINUOUS
 62
     4
 10
554.817709101063
 20
17.58599749612392
 30
0.0
 11
558.0677094884932
 21
23.21516251968922
 31
0.0
  0
LINE
  5
53A
  8
0
  6
CONTINUOUS
 62
     4
 10
550.2638602682173
 20
-2.301497932199823
 30
0.0
 11
553.5138606556475
 21
3.32766709136547
 31
0.0
  0
LINE
  5
53B
  8
0
  6
CONTINUOUS
 62
     4
 10
548.9648221858561
 20
-1.551497842792855
 30
0.0
 11
552.2148225732863
 21
4.077667180772437
 31
0.0
  0
LINE
  5
53C
  8
0
  6
CONTINUOUS
 62
     4
 10
547.6657841034948
 20
-0.8014977533858883
 30
0.0
 11
550.915784490925
 21
4.827667270179404
 31
0.0
  0
LINE
  5
53D
  8
0
  6
CONTINUOUS
 62
     4
 10
546.3667498358313
 20
-0.0514910567295601
 30
0.0
 11
549.6167502232615
 21
5.577673966835732
 31
0.0
  0
LINE
  5
53E
  8
0
  6
CONTINUOUS
 62
     4
 10
545.0677079387724
 20
0.6985024254280461
 30
0.0
 11
548.3177083262026
 21
6.327667448993338
 31
0.0
  0
LINE
  5
53F
  8
0
  6
CONTINUOUS
 62
     4
 10
511.2927216120784
 20
20.19851135725855
 30
0.0
 11
514.5427219995086
 21
25.82767638082385
 31
0.0
  0
CIRCLE
  5
540
  8
0
  6
CONTINUOUS
 62
     4
 10
450.2427086755802
 20
70.45682963618526
 30
0.0
 40
3.0
  0
CIRCLE
  5
541
  8
0
  6
CONTINUOUS
 62
     4
 10
516.06066369267
 20
70.45682963618526
 30
0.0
 40
3.0
  0
ARC
  5
542
  8
0
  6
CONTINUOUS
 62
     4
 10
483.1516976282169
 20
51.45682963618526
 30
0.0
 40
39.0
 50
112.6198814882679
 51
139.4102261679432
  0
ARC
  5
543
  8
0
  6
CONTINUOUS
 62
     4
 10
483.1516976282169
 20
51.45682963618526
 30
0.0
 40
39.0
 50
281.4010448807555
 51
306.5820569730979
  0
ARC
  5
544
  8
0
  6
CONTINUOUS
 62
     4
 10
483.1516976282169
 20
51.45682963618526
 30
0.0
 40
45.0
 50
277.9631511242996
 51
309.8521329816465
  0
ARC
  5
545
  8
0
  6
CONTINUOUS
 62
     4
 10
483.1516976282169
 20
51.45682963618526
 30
0.0
 40
51.0
 50
287.104642158499
 51
312.3067253844307
  0
ARC
  5
546
  8
0
  6
CONTINUOUS
 62
     4
 10
483.1516976282169
 20
51.45682963618526
 30
0.0
 40
45.0
 50
109.4712394129729
 51
142.036830054785
  0
ARC
  5
547
  8
0
  6
CONTINUOUS
 62
     4
 10
483.1516976282169
 20
51.45682963618526
 30
0.0
 40
51.0
 50
107.1046539976443
 51
133.9074023008524
  0
ARC
  5
548
  8
0
  6
CONTINUOUS
 62
     4
 10
483.1516976282169
 20
51.45682963618526
 30
0.0
 40
51.0
 50
347.6933190496941
 51
372.9146369421023
  0
ARC
  5
549
  8
0
  6
CONTINUOUS
 62
     4
 10
483.1516976282169
 20
51.45682963618526
 30
0.0
 40
45.0
 50
350.1479131600256
 51
382.0368215928389
  0
ARC
  5
54A
  8
0
  6
CONTINUOUS
 62
     4
 10
483.1516976282169
 20
51.45682963618526
 30
0.0
 40
39.0
 50
353.4180130742363
 51
379.2463546376193
  0
ARC
  5
54B
  8
0
  6
CONTINUOUS
 62
     4
 10
483.1516976282169
 20
51.45682963618526
 30
0.0
 40
39.0
 50
40.9770881329933
 51
67.38012352068844
  0
ARC
  5
54C
  8
0
  6
CONTINUOUS
 62
     4
 10
483.1516976282169
 20
51.45682963618526
 30
0.0
 40
45.0
 50
37.96316129379301
 51
70.52876559598344
  0
ARC
  5
54D
  8
0
  6
CONTINUOUS
 62
     4
 10
483.1516976282169
 20
51.45682963618526
 30
0.0
 40
51.0
 50
166.627204953745
 51
192.3066808366203
  0
ARC
  5
54E
  8
0
  6
CONTINUOUS
 62
     4
 10
483.1516976282169
 20
51.45682963618526
 30
0.0
 40
45.0
 50
157.9631782934756
 51
189.8520884338361
  0
ARC
  5
54F
  8
0
  6
CONTINUOUS
 62
     4
 10
483.1516976282169
 20
51.45682963618526
 30
0.0
 40
39.0
 50
162.611955306748
 51
186.5819851045308
  0
ARC
  5
550
  8
0
  6
CONTINUOUS
 62
     4
 10
483.1516976282169
 20
51.45682963618526
 30
0.0
 40
39.0
 50
233.4179755839863
 51
258.2635536710947
  0
ARC
  5
551
  8
0
  6
CONTINUOUS
 62
     4
 10
483.1516976282169
 20
51.45682963618526
 30
0.0
 40
45.0
 50
230.1478722546809
 51
262.0368302063657
  0
ARC
  5
552
  8
0
  6
CONTINUOUS
 62
     4
 10
483.1516976282169
 20
51.45682963618526
 30
0.0
 40
51.0
 50
227.6932798518968
 51
252.8953391721665
  0
CIRCLE
  5
553
  8
0
  6
CONTINUOUS
 62
     4
 10
483.1516976282169
 20
13.45682820567379
 30
0.0
 40
3.0
  0
ARC
  5
554
  8
0
  6
CONTINUOUS
 62
     4
 10
483.1516976282169
 20
51.45682963618526
 30
0.0
 40
51.0
 50
46.35595772702671
 51
72.89535784150117
  0
LINE
  5
555
  8
0
  6
CONTINUOUS
 62
     4
 10
279.7183175012638
 20
139.4568225878434
 30
0.0
 11
279.7183175012638
 21
133.4568149584488
 31
0.0
  0
LINE
  5
556
  8
0
  6
CONTINUOUS
 62
     4
 10
278.7183175012638
 20
139.4568225878434
 30
0.0
 11
278.7183175012638
 21
133.4568149584488
 31
0.0
  0
LINE
  5
557
  8
0
  6
CONTINUOUS
 62
     4
 10
278.7183175012638
 20
92.45681495844883
 30
0.0
 11
278.7183175012638
 21
82.45681495844883
 31
0.0
  0
LINE
  5
558
  8
0
  6
CONTINUOUS
 62
     4
 10
279.7183175012638
 20
92.45681495844883
 30
0.0
 11
279.7183175012638
 21
82.45681495844883
 31
0.0
  0
LINE
  5
559
  8
0
  6
CONTINUOUS
 62
     4
 10
266.2183175012638
 20
128.7568180102066
 30
0.0
 11
287.7183175012638
 21
128.7568180102066
 31
0.0
  0
LINE
  5
55A
  8
0
  6
CONTINUOUS
 62
     4
 10
266.2183175012638
 20
122.156811906691
 30
0.0
 11
287.7183175012638
 21
122.156811906691
 31
0.0
  0
LINE
  5
55B
  8
0
  6
CONTINUOUS
 62
     4
 10
266.2183175012638
 20
97.15681953608555
 30
0.0
 11
287.7183175012638
 21
97.15681953608555
 31
0.0
  0
LINE
  5
55C
  8
0
  6
CONTINUOUS
 62
     4
 10
266.2183175012638
 20
103.7568103808121
 30
0.0
 11
287.7183175012638
 21
103.7568103808121
 31
0.0
  0
LINE
  5
55D
  8
0
  6
CONTINUOUS
 62
     4
 10
243.7183175012638
 20
29.15681762873691
 30
0.0
 11
254.7183175012638
 21
29.15681762873691
 31
0.0
  0
LINE
  5
55E
  8
0
  6
CONTINUOUS
 62
     4
 10
243.7183175012638
 20
73.75681038081211
 30
0.0
 11
254.7183175012638
 21
73.75681038081211
 31
0.0
  0
LINE
  5
55F
  8
0
  6
CONTINUOUS
 62
     4
 10
267.7183175012638
 20
16.45681686579746
 30
0.0
 11
267.7183175012638
 21
10.45681901156467
 31
0.0
  0
LINE
  5
560
  8
0
  6
CONTINUOUS
 62
     4
 10
267.7183175012638
 20
10.45681901156467
 30
0.0
 11
280.7183175012638
 21
10.45681901156467
 31
0.0
  0
LINE
  5
561
  8
0
  6
CONTINUOUS
 62
     4
 10
267.7183175012638
 20
16.45681686579746
 30
0.0
 11
280.7183175012638
 21
16.45681686579746
 31
0.0
  0
LINE
  5
562
  8
0
  6
CONTINUOUS
 62
     4
 10
221.7183175012638
 20
4.071817113752779
 30
0.0
 11
221.7183175012638
 21
-5.928183363084379
 31
0.0
  0
LINE
  5
563
  8
0
  6
CONTINUOUS
 62
     4
 10
189.7183251306583
 20
-5.028181837205473
 30
0.0
 11
221.7183175012638
 21
-5.028181837205473
 31
0.0
  0
LINE
  5
564
  8
0
  6
CONTINUOUS
 62
     4
 10
189.7183251306583
 20
3.171815587873873
 30
0.0
 11
221.7183175012638
 21
3.171815587873873
 31
0.0
  0
LINE
  5
565
  8
0
  6
CONTINUOUS
 62
     4
 10
244.2183175012638
 20
71.9568187731461
 30
0.0
 11
247.7183175012638
 21
71.9568187731461
 31
0.0
  0
LINE
  5
566
  8
0
  6
CONTINUOUS
 62
     4
 10
244.2183175012638
 20
68.9568187731461
 30
0.0
 11
247.7183175012638
 21
68.9568187731461
 31
0.0
  0
LINE
  5
567
  8
0
  6
CONTINUOUS
 62
     4
 10
251.7183175012638
 20
72.45682258784336
 30
0.0
 11
254.7183175012638
 21
72.45682258784336
 31
0.0
  0
LINE
  5
568
  8
0
  6
CONTINUOUS
 62
     4
 10
251.7183175012638
 20
68.4568187731461
 30
0.0
 11
254.7183175012638
 21
68.4568187731461
 31
0.0
  0
LINE
  5
569
  8
0
  6
CONTINUOUS
 62
     4
 10
247.9683175012638
 20
71.9568187731461
 30
0.0
 11
251.7183175012638
 21
71.9568187731461
 31
0.0
  0
LINE
  5
56A
  8
0
  6
CONTINUOUS
 62
     4
 10
247.9683175012638
 20
68.9568187731461
 30
0.0
 11
251.7183175012638
 21
68.9568187731461
 31
0.0
  0
CIRCLE
  5
56B
  8
0
  6
CONTINUOUS
 62
     4
 10
466.6972703240428
 20
41.95682963618526
 30
0.0
 40
2.0
  0
CIRCLE
  5
56C
  8
0
  6
CONTINUOUS
 62
     4
 10
483.1517533562694
 20
51.45682963618526
 30
0.0
 40
22.39999961853027
  0
CIRCLE
  5
56D
  8
0
  6
CONTINUOUS
 62
     4
 10
483.1517533562694
 20
70.45682963618526
 30
0.0
 40
2.0
  0
CIRCLE
  5
56E
  8
0
  6
CONTINUOUS
 62
     4
 10
499.606236388496
 20
41.95682963618526
 30
0.0
 40
2.0
  0
LINE
  5
56F
  8
0
  6
CONTINUOUS
 62
     2
 10
483.1516714277411
 20
103.9568211679851
 30
0.0
 11
480.1205817344333
 21
102.2068225239908
 31
0.0
  0
LINE
  5
570
  8
0
  6
CONTINUOUS
 62
     2
 10
486.1827719787675
 20
102.2068252329958
 30
0.0
 11
483.1516839543897
 21
103.9568266933096
 31
0.0
  0
LINE
  5
571
  8
0
  6
CONTINUOUS
 62
     2
 10
480.1206002161075
 20
102.206825821488
 30
0.0
 11
480.1206002161075
 21
98.706825821488
 31
0.0
  0
LINE
  5
572
  8
0
  6
CONTINUOUS
 62
     2
 10
480.1205985467646
 20
98.70681635768085
 30
0.0
 11
483.1516871969912
 21
96.95681594044834
 31
0.0
  0
LINE
  5
573
  8
0
  6
CONTINUOUS
 62
     2
 10
483.1516613567083
 20
96.95682495372182
 30
0.0
 11
486.1827372096678
 21
98.70681701140427
 31
0.0
  0
LINE
  5
574
  8
0
  6
CONTINUOUS
 62
     2
 10
486.1827797815372
 20
98.706825821488
 30
0.0
 11
486.1827797815372
 21
102.206825821488
 31
0.0
  0
LINE
  5
575
  8
0
  6
CONTINUOUS
 62
     2
 10
483.1516921660887
 20
128.9568351022216
 30
0.0
 11
480.1206024727808
 21
127.2068364582273
 31
0.0
  0
LINE
  5
576
  8
0
  6
CONTINUOUS
 62
     2
 10
486.182755548854
 20
127.2068058654598
 30
0.0
 11
483.1516675244761
 21
128.9568073257736
 31
0.0
  0
LINE
  5
577
  8
0
  6
CONTINUOUS
 62
     2
 10
480.1206002161075
 20
127.206825821488
 30
0.0
 11
480.1206002161075
 21
123.706825821488
 31
0.0
  0
LINE
  5
578
  8
0
  6
CONTINUOUS
 62
     2
 10
480.1205952953328
 20
123.7068197505772
 30
0.0
 11
483.1516872491839
 21
121.9568174259956
 31
0.0
  0
LINE
  5
579
  8
0
  6
CONTINUOUS
 62
     2
 10
483.1516791295296
 20
121.9568288309418
 30
0.0
 11
486.1827681969887
 21
123.7068285180175
 31
0.0
  0
LINE
  5
57A
  8
0
  6
CONTINUOUS
 62
     2
 10
486.1827797815372
 20
123.706825821488
 30
0.0
 11
486.1827797815372
 21
127.206825821488
 31
0.0
  0
LINE
  5
57B
  8
0
  6
CONTINUOUS
 62
     2
 10
483.1516938965886
 20
3.771830675998785
 30
0.0
 11
479.0813746934816
 21
1.421836544073244
 31
0.0
  0
LINE
  5
57C
  8
0
  6
CONTINUOUS
 62
     2
 10
479.0813851282169
 20
1.421830265610311
 30
0.0
 11
479.0813851282169
 21
-3.278170974166301
 31
0.0
  0
LINE
  5
57D
  8
0
  6
CONTINUOUS
 62
     2
 10
479.0813649515999
 20
-3.278159549350335
 30
0.0
 11
483.1516928869328
 21
-5.628169014576656
 31
0.0
  0
LINE
  5
57E
  8
0
  6
CONTINUOUS
 62
     2
 10
483.1517077285858
 20
-5.628181677616453
 30
0.0
 11
487.2220269316927
 21
-3.278187405620088
 31
0.0
  0
LINE
  5
57F
  8
0
  6
CONTINUOUS
 62
     2
 10
487.2220101282169
 20
-3.278178603560832
 30
0.0
 11
487.2220101282169
 21
1.421822636215779
 31
0.0
  0
LINE
  5
580
  8
0
  6
CONTINUOUS
 62
     2
 10
487.2220285076096
 20
1.42181521656164
 30
0.0
 11
483.1516950856026
 21
3.771830737634787
 31
0.0
  0
LINE
  5
581
  8
0
  6
CONTINUOUS
 62
     2
 10
547.2375718313351
 20
17.95684296881052
 30
0.0
 11
544.2064821380272
 21
16.20684432481619
 31
0.0
  0
LINE
  5
582
  8
0
  6
CONTINUOUS
 62
     2
 10
550.2686714425799
 20
16.20684179171064
 30
0.0
 11
547.2375834182021
 21
17.95684325202444
 31
0.0
  0
LINE
  5
583
  8
0
  6
CONTINUOUS
 62
     2
 10
544.2065071985294
 20
16.20685061702022
 30
0.0
 11
544.2065071985294
 21
12.70685109385738
 31
0.0
  0
LINE
  5
584
  8
0
  6
CONTINUOUS
 62
     2
 10
544.2064997971315
 20
12.70683588409281
 30
0.0
 11
547.2375884473581
 21
10.9568354668603
 31
0.0
  0
LINE
  5
585
  8
0
  6
CONTINUOUS
 62
     2
 10
547.2375847320986
 20
10.95685033523876
 30
0.0
 11
550.2686737995578
 21
12.70685002231437
 31
0.0
  0
LINE
  5
586
  8
0
  6
CONTINUOUS
 62
     2
 10
550.26867150517
 20
12.70685109385738
 30
0.0
 11
550.26867150517
 21
16.20684870967159
 31
0.0
  0
LINE
  5
587
  8
0
  6
CONTINUOUS
 62
     2
 10
525.5869425033898
 20
30.45685235216195
 30
0.0
 11
522.5558528100819
 21
28.70685370816761
 31
0.0
  0
LINE
  5
588
  8
0
  6
CONTINUOUS
 62
     2
 10
528.6180388823236
 20
28.70684561527594
 30
0.0
 11
525.5869508579458
 21
30.45684707558974
 31
0.0
  0
LINE
  5
589
  8
0
  6
CONTINUOUS
 62
     2
 10
522.5558724329044
 20
28.70685061702022
 30
0.0
 11
522.5558724329044
 21
25.20685061702022
 31
0.0
  0
LINE
  5
58A
  8
0
  6
CONTINUOUS
 62
     2
 10
522.5558533667295
 20
25.2068464937214
 30
0.0
 11
525.5869420169561
 21
23.45684607648889
 31
0.0
  0
LINE
  5
58B
  8
0
  6
CONTINUOUS
 62
     2
 10
525.5869379724359
 20
23.45684449247153
 30
0.0
 11
528.618027039895
 21
25.20684417954715
 31
0.0
  0
LINE
  5
58C
  8
0
  6
CONTINUOUS
 62
     2
 10
528.618036739545
 20
25.20684870967159
 30
0.0
 11
528.618036739545
 21
28.70684870967159
 31
0.0
  0
LINE
  5
58D
  8
0
  6
CONTINUOUS
 62
     2
 10
440.7164472479395
 20
30.45682394087271
 30
0.0
 11
437.6853575546316
 21
28.70682529687838
 31
0.0
  0
LINE
  5
58E
  8
0
  6
CONTINUOUS
 62
     2
 10
443.747537304856
 20
28.70681882222777
 30
0.0
 11
440.7164492804782
 21
30.45682028254157
 31
0.0
  0
LINE
  5
58F
  8
0
  6
CONTINUOUS
 62
     2
 10
437.6853508874942
 20
28.70682391413936
 30
0.0
 11
437.6853508874942
 21
25.20682391413936
 31
0.0
  0
LINE
  5
590
  8
0
  6
CONTINUOUS
 62
     2
 10
437.6853637593918
 20
25.20682705889101
 30
0.0
 11
440.7164524096183
 21
23.4568266416585
 31
0.0
  0
LINE
  5
591
  8
0
  6
CONTINUOUS
 62
     2
 10
440.7164468224333
 20
23.45682611336213
 30
0.0
 11
443.7475358898925
 21
25.20682580043774
 31
0.0
  0
LINE
  5
592
  8
0
  6
CONTINUOUS
 62
     2
 10
443.7475304529239
 20
25.20682200679073
 30
0.0
 11
443.7475304529239
 21
28.70682200679073
 31
0.0
  0
LINE
  5
593
  8
0
  6
CONTINUOUS
 62
     2
 10
419.0658123034961
 20
17.95682371575072
 30
0.0
 11
416.0347259138138
 21
16.20682697910354
 31
0.0
  0
LINE
  5
594
  8
0
  6
CONTINUOUS
 62
     2
 10
422.0969012158141
 20
16.20682270266309
 30
0.0
 11
419.0658164950601
 21
17.95682225562666
 31
0.0
  0
LINE
  5
595
  8
0
  6
CONTINUOUS
 62
     2
 10
416.0347161218692
 20
16.20682391413936
 30
0.0
 11
416.0347161218692
 21
12.70682439097652
 31
0.0
  0
LINE
  5
596
  8
0
  6
CONTINUOUS
 62
     2
 10
416.0347252803213
 20
12.70682715730061
 30
0.0
 11
419.0658106269234
 21
10.95682864741718
 31
0.0
  0
LINE
  5
597
  8
0
  6
CONTINUOUS
 62
     2
 10
419.065807322672
 20
10.95682644118801
 30
0.0
 11
422.0968930865062
 21
12.70682422091534
 31
0.0
  0
LINE
  5
598
  8
0
  6
CONTINUOUS
 62
     2
 10
422.0968956872989
 20
12.70682439097652
 30
0.0
 11
422.0968956872989
 21
16.20682200679073
 31
0.0
  0
CIRCLE
  5
599
  8
0
  6
CONTINUOUS
 62
     2
 10
483.1516976282169
 20
100.456825821488
 30
0.0
 40
6.5
  0
CIRCLE
  5
59A
  8
0
  6
CONTINUOUS
 62
     2
 10
483.1516976282169
 20
125.456825821488
 30
0.0
 40
6.5
  0
CIRCLE
  5
59B
  8
0
  6
CONTINUOUS
 62
     2
 10
483.1516976282169
 20
-0.928172500045207
 30
0.0
 40
8.0
  0
CIRCLE
  5
59C
  8
0
  6
CONTINUOUS
 62
     2
 10
547.2375893518497
 20
14.45685109385738
 30
0.0
 40
6.5
  0
CIRCLE
  5
59D
  8
0
  6
CONTINUOUS
 62
     2
 10
525.5869545862247
 20
26.95684870967159
 30
0.0
 40
6.5
  0
CIRCLE
  5
59E
  8
0
  6
CONTINUOUS
 62
     2
 10
440.7164482996036
 20
26.95682391413936
 30
0.0
 40
6.5
  0
CIRCLE
  5
59F
  8
0
  6
CONTINUOUS
 62
     2
 10
419.0658135339786
 20
14.45682439097652
 30
0.0
 40
6.5
  0
TEXT
  5
5A0
  8
0
 62
     5
 10
454.3659747764636
 20
-16.04317227116337
 30
0.0
 40
5.0
  1
NIKKO
 41
0.635880610320819
  7
FDASTYLE1
 72
     5
 11
470.2629900344841
 21
-16.04317227116337
 31
0.0
  0
TEXT
  5
5A1
  8
0
 62
     5
 10
485.7231101915409
 20
-15.54317227116337
 30
0.0
 40
4.0
  1
GO3-6
 41
0.7528241726104283
  7
FDASTYLE1
 72
     5
 11
500.7795936437494
 21
-15.54317227116337
 31
0.0
  0
TEXT
  5
5A2
  8
0
 62
     5
 10
486.0802533552219
 20
-22.04317227116337
 30
0.0
 40
3.0
  1
0001
 41
0.6190477764350817
  7
FDASTYLE1
 72
     5
 11
493.5088266724429
 21
-22.04317227116337
 31
0.0
  0
TEXT
  5
5A3
  8
0
 62
     5
 10
553.1250300080333
 20
60.75946556439726
 30
0.0
 40
2.5
  1
F MAX  18KN
 50
120.0
 41
0.753793103052728
  7
FDASTYLE1
 72
     5
 11
542.7603748410583
 21
78.71157491652926
 31
0.0
  0
TEXT
  5
5A4
  8
0
 62
     5
 10
556.5891260773692
 20
62.75946556439723
 30
0.0
 40
2.5
  1
ΣS MAX 20KN
 50
120.0
 41
0.6463664611269832
  7
FDASTYLE1
 72
     5
 11
547.5399956215914
 21
78.43301927812321
 31
0.0
  0
TEXT
  5
5A5
  8
0
 62
     5
 10
560.0532374054942
 20
64.75946556439725
 30
0.0
 40
2.5
  1
N MAX 3500 AT ΣS MAX
 50
120.0
 41
0.6445640188692571
  7
FDASTYLE1
 72
     5
 11
543.7779959290455
 21
92.94901070705878
 31
0.0
  0
INSERT
  5
5A6
  8
0
  6
CONTINUOUS
  2
DC_GROUP_1
 10
0.0
 20
0.0
 30
0.0
  0
INSERT
  5
5A7
  8
0
  6
CONTINUOUS
  2
DC_GROUP_2
 10
0.0
 20
0.0
 30
0.0
  0
INSERT
  5
5A8
  8
0
  6
CONTINUOUS
  2
DC_GROUP_5
 10
0.0
 20
0.0
 30
0.0
  0
INSERT
  5
5A9
  8
0
  6
CONTINUOUS
  2
DC_GROUP_7
 10
0.0
 20
0.0
 30
0.0
  0
INSERT
  5
5AA
  8
0
  6
CONTINUOUS
  2
DC_GROUP_10
 10
0.0
 20
0.0
 30
0.0
  0
INSERT
  5
5AB
  8
0
  6
CONTINUOUS
  2
DC_GROUP_13
 10
0.0
 20
0.0
 30
0.0
  0
INSERT
  5
5AC
  8
LAYER0001
  6
CONTINUOUS
  2
DC_GROUP_15
 10
0.0
 20
0.0
 30
0.0
  0
INSERT
  5
5AD
  8
LAYER0001
  6
CONTINUOUS
  2
DC_GROUP_18
 10
0.0
 20
0.0
 30
0.0
  0
INSERT
  5
5AE
  8
LAYER0001
  6
CONTINUOUS
  2
DC_GROUP_21
 10
0.0
 20
0.0
 30
0.0
  0
INSERT
  5
5AF
  8
LAYER0001
  6
CONTINUOUS
  2
DC_GROUP_24
 10
0.0
 20
0.0
 30
0.0
  0
INSERT
  5
5B0
  8
LAYER0001
  6
CONTINUOUS
  2
DC_GROUP_26
 10
0.0
 20
0.0
 30
0.0
  0
INSERT
  5
5B1
  8
LAYER0001
  6
CONTINUOUS
  2
DC_GROUP_28
 10
0.0
 20
0.0
 30
0.0
  0
INSERT
  5
5B2
  8
LAYER0001
  6
CONTINUOUS
  2
DC_GROUP_31
 10
0.0
 20
0.0
 30
0.0
  0
INSERT
  5
5B3
  8
LAYER0001
  6
CONTINUOUS
  2
DC_GROUP_34
 10
0.0
 20
0.0
 30
0.0
  0
INSERT
  5
5B4
  8
LAYER0001
  6
CONTINUOUS
  2
DC_GROUP_37
 10
0.0
 20
0.0
 30
0.0
  0
INSERT
  5
5B5
  8
LAYER0001
  6
CONTINUOUS
  2
DC_GROUP_40
 10
0.0
 20
0.0
 30
0.0
  0
INSERT
  5
5B6
  8
LAYER0001
  6
CONTINUOUS
  2
DC_GROUP_43
 10
0.0
 20
0.0
 30
0.0
  0
INSERT
  5
5B7
  8
LAYER0001
  6
CONTINUOUS
  2
DC_GROUP_46
 10
0.0
 20
0.0
 30
0.0
  0
INSERT
  5
5B8
  8
LAYER0001
  6
CONTINUOUS
  2
DC_GROUP_49
 10
0.0
 20
0.0
 30
0.0
  0
INSERT
  5
5B9
  8
LAYER0001
  6
CONTINUOUS
  2
DC_GROUP_51
 10
0.0
 20
0.0
 30
0.0
  0
INSERT
  5
5BA
  8
LAYER0001
  6
CONTINUOUS
  2
DC_GROUP_53
 10
0.0
 20
0.0
 30
0.0
  0
INSERT
  5
5BB
  8
LAYER0001
  6
CONTINUOUS
  2
DC_GROUP_56
 10
0.0
 20
0.0
 30
0.0
  0
INSERT
  5
5BC
  8
LAYER0001
  6
CONTINUOUS
  2
DC_GROUP_59
 10
0.0
 20
0.0
 30
0.0
  0
INSERT
  5
5BD
  8
LAYER0001
  6
CONTINUOUS
  2
DC_GROUP_62
 10
0.0
 20
0.0
 30
0.0
  0
INSERT
  5
5BE
  8
LAYER0001
  6
CONTINUOUS
  2
DC_GROUP_64
 10
0.0
 20
0.0
 30
0.0
  0
INSERT
  5
5BF
  8
LAYER0001
  6
CONTINUOUS
  2
DC_GROUP_67
 10
0.0
 20
0.0
 30
0.0
  0
INSERT
  5
5C0
  8
LAYER0001
  6
CONTINUOUS
  2
DC_GROUP_70
 10
0.0
 20
0.0
 30
0.0
  0
INSERT
  5
5C1
  8
LAYER0001
  6
CONTINUOUS
  2
DC_GROUP_73
 10
0.0
 20
0.0
 30
0.0
  0
INSERT
  5
5C2
  8
LAYER0001
  6
CONTINUOUS
  2
DC_GROUP_76
 10
0.0
 20
0.0
 30
0.0
  0
INSERT
  5
5C3
  8
LAYER0001
  6
CONTINUOUS
  2
DC_GROUP_78
 10
0.0
 20
0.0
 30
0.0
  0
INSERT
  5
5C4
  8
LAYER0001
  6
CONTINUOUS
  2
DC_GROUP_81
 10
0.0
 20
0.0
 30
0.0
  0
INSERT
  5
5C5
  8
LAYER0001
  6
CONTINUOUS
  2
DC_GROUP_84
 10
0.0
 20
0.0
 30
0.0
  0
INSERT
  5
5C6
  8
LAYER0001
  6
CONTINUOUS
  2
DC_GROUP_87
 10
0.0
 20
0.0
 30
0.0
  0
INSERT
  5
5C7
  8
LAYER0001
  6
CONTINUOUS
  2
DC_GROUP_90
 10
0.0
 20
0.0
 30
0.0
  0
INSERT
  5
5C8
  8
LAYER0001
  6
CONTINUOUS
  2
DC_GROUP_93
 10
0.0
 20
0.0
 30
0.0
  0
INSERT
  5
5C9
  8
LAYER0001
  6
CONTINUOUS
  2
DC_GROUP_96
 10
0.0
 20
0.0
 30
0.0
  0
INSERT
  5
5CA
  8
LAYER0001
  6
CONTINUOUS
  2
DC_GROUP_99
 10
0.0
 20
0.0
 30
0.0
  0
INSERT
  5
5CB
  8
LAYER0001
  6
CONTINUOUS
  2
DC_GROUP_102
 10
0.0
 20
0.0
 30
0.0
  0
INSERT
  5
5CC
  8
LAYER0001
  6
CONTINUOUS
  2
DC_GROUP_105
 10
0.0
 20
0.0
 30
0.0
  0
INSERT
  5
5CD
  8
LAYER0001
  6
CONTINUOUS
  2
DC_GROUP_108
 10
0.0
 20
0.0
 30
0.0
  0
LINE
  5
5CE
  8
0
  6
CONTINUOUS
 62
     6
 10
239.1589585362363
 20
-171.080222784853
 30
0.0
 11
383.9708863316465
 21
-171.080222784853
 31
0.0
  0
LINE
  5
5CF
  8
0
  6
CONTINUOUS
 62
     6
 10
239.1589585362363
 20
-163.080222784853
 30
0.0
 11
383.9708863316465
 21
-163.080222784853
 31
0.0
  0
LINE
  5
5D0
  8
0
  6
CONTINUOUS
 62
     6
 10
239.1589585362363
 20
-155.080222784853
 30
0.0
 11
383.9708863316465
 21
-155.080222784853
 31
0.0
  0
LINE
  5
5D1
  8
0
  6
CONTINUOUS
 62
     6
 10
239.1589585362363
 20
-147.080222784853
 30
0.0
 11
383.9708863316465
 21
-147.080222784853
 31
0.0
  0
LINE
  5
5D2
  8
0
  6
CONTINUOUS
 62
     6
 10
239.1589585362363
 20
-139.080222784853
 30
0.0
 11
383.9708863316465
 21
-139.080222784853
 31
0.0
  0
LINE
  5
5D3
  8
0
  6
CONTINUOUS
 62
     6
 10
239.1589585362363
 20
-131.080222784853
 30
0.0
 11
383.9708863316465
 21
-131.080222784853
 31
0.0
  0
LINE
  5
5D4
  8
0
  6
CONTINUOUS
 62
     6
 10
239.1589585362363
 20
-123.080222784853
 30
0.0
 11
383.9708863316465
 21
-123.080222784853
 31
0.0
  0
LINE
  5
5D5
  8
0
  6
CONTINUOUS
 62
     6
 10
239.1589585362363
 20
-115.080222784853
 30
0.0
 11
383.9708863316465
 21
-115.080222784853
 31
0.0
  0
LINE
  5
5D6
  8
0
  6
CONTINUOUS
 62
     6
 10
239.1589585362363
 20
-107.080222784853
 30
0.0
 11
383.9708863316465
 21
-107.080222784853
 31
0.0
  0
LINE
  5
5D7
  8
0
  6
CONTINUOUS
 62
     6
 10
239.1589585362363
 20
-99.08022278485299
 30
0.0
 11
255.1589585362363
 21
-99.08022278485299
 31
0.0
  0
TEXT
  5
5D8
  8
0
 62
     6
 10
241.7303864775587
 20
-169.4135662907124
 30
0.0
 40
4.0
  1
アンバランス量
 41
0.6638419631282793
  7
FDASTYLE1
 72
     5
 11
264.0354764386689
 21
-169.4135662907124
 31
0.0
  0
TEXT
  5
5D9
  8
0
 62
     6
 10
241.7303864775587
 20
-161.4135662907124
 30
0.0
 40
4.0
  1
質 量
 41
0.6064752704349421
  7
FDASTYLE1
 72
     5
 11
249.9784501554739
 21
-161.4135662907124
 31
0.0
  0
TEXT
  5
5DA
  8
0
 62
     6
 10
241.7303864775587
 20
-153.4135662907124
 30
0.0
 40
4.0
  1
慣性モーメント
 41
0.6638419631282793
  7
FDASTYLE1
 72
     5
 11
264.0354764386689
 21
-153.4135662907124
 31
0.0
  0
TEXT
  5
5DB
  8
0
 62
     6
 10
241.7303864775587
 20
-145.4135662907124
 30
0.0
 40
4.0
  1
最高使用回転速度
 41
0.6650247841349815
  7
FDASTYLE1
 72
     5
 11
267.267338188342
 21
-145.4135662907124
 31
0.0
  0
TEXT
  5
5DC
  8
0
 62
     6
 10
241.7303864775587
 20
-137.4135662907124
 30
0.0
 40
4.0
  1
最大静的把握力
 41
0.6638419631282793
  7
FDASTYLE1
 72
     5
 11
264.0354764386689
 21
-137.4135662907124
 31
0.0
  0
TEXT
  5
5DD
  8
0
 62
     6
 10
241.7303864775587
 20
-129.4135662907124
 30
0.0
 40
4.0
  1
許容シリンダ力
 41
0.6638419631282793
  7
FDASTYLE1
 72
     5
 11
264.0354764386689
 21
-129.4135662907124
 31
0.0
  0
TEXT
  5
5DE
  8
0
 62
     6
 10
241.7303864775587
 20
-121.4135662907124
 30
0.0
 40
4.0
  1
推奨シリンダ
 41
0.6622518130451897
  7
FDASTYLE1
 72
     5
 11
260.8032386932601
 21
-121.4135662907124
 31
0.0
  0
TEXT
  5
5DF
  8
0
 62
     6
 10
241.7303864775587
 20
-113.4135662907124
 30
0.0
 40
4.0
  1
ピストンストローク
 41
0.6659390169707115
  7
FDASTYLE1
 72
     5
 11
270.4989520106934
 21
-113.4135662907124
 31
0.0
  0
TEXT
  5
5E0
  8
0
 62
     6
 10
241.7303864775587
 20
-105.4135662907124
 30
0.0
 40
4.0
  1
爪ﾉｽﾄﾛｰｸ
 41
0.6268397317836794
  7
FDASTYLE1
 72
     5
 11
259.7833707529287
 21
-105.4135662907124
 31
0.0
  0
TEXT
  5
5E1
  8
0
 62
     6
 10
241.7303864775587
 20
-97.41356629071237
 30
0.0
 40
4.0
  1
仕 様
 41
0.6064752704349421
  7
FDASTYLE1
 72
     5
 11
249.9784501554739
 21
-97.41356629071237
 31
0.0
  0
TEXT
  5
5E2
  8
0
 62
     6
 10
333.1389405547071
 20
-105.1382367008686
 30
0.0
 40
4.0
  1
(直径ﾆﾃ) 32 mm
 41
0.6191858398121763
  7
FDASTYLE1
 72
     5
 11
363.850558209391
 21
-105.1382367008686
 31
0.0
  0
TEXT
  5
5E3
  8
0
 62
     6
 10
361.1783921538282
 20
-112.9179608219624
 30
0.0
 40
4.0
  1
20 mm
 41
0.8332228179823205
  7
FDASTYLE1
 72
     5
 11
377.8428485134746
 21
-112.9179608219624
 31
0.0
  0
TEXT
  5
5E4
  8
0
 62
     6
 10
345.4023820465094
 20
-121.1942669743061
 30
0.0
 40
4.0
  1
36TS-TA1型
 41
0.625832000338474
  7
FDASTYLE1
 72
     5
 11
368.4329996589653
 21
-121.1942669743061
 31
0.0
  0
TEXT
  5
5E5
  8
0
 62
     6
 10
353.2070939360547
 20
-129.1395336979389
 30
0.0
 40
4.0
  1
18.7 kN
 41
0.6289730665868214
  7
FDASTYLE1
 72
     5
 11
370.8183398004857
 21
-129.1395336979389
 31
0.0
  0
TEXT
  5
5E6
  8
0
 62
     6
 10
353.1963212309766
 20
-137.0847851627827
 30
0.0
 40
4.0
  1
20.1 kN
 41
0.6446973932514908
  7
FDASTYLE1
 72
     5
 11
371.2478482420183
 21
-137.0847851627827
 31
0.0
  0
TEXT
  5
5E7
  8
0
 62
     6
 10
349.5523545561719
 20
-145.0300518864155
 30
0.0
 40
4.0
  1
3500 min
 41
0.6933675281693734
  7
FDASTYLE1
 72
     5
 11
371.7401154575919
 21
-145.0300518864155
 31
0.0
  0
TEXT
  5
5E8
  8
0
 62
     6
 10
381.2666405855107
 20
-142.5300518268109
 30
0.0
 40
2.0
  1
-1
 41
0.5892859038098806
  7
FDASTYLE1
 72
     5
 11
383.6237842007503
 21
-142.5300518268109
 31
0.0
  0
TEXT
  5
5E9
  8
0
 62
     6
 10
341.1223542509961
 20
-153.1408306950092
 30
0.0
 40
4.0
  1
 0.04 kg・m
 41
0.6254768818636797
  7
FDASTYLE1
 72
     5
 11
366.6418110310343
 21
-153.1408306950092
 31
0.0
  0
TEXT
  5
5EA
  8
0
 62
     6
 10
380.836640280335
 20
-150.6408306354046
 30
0.0
 40
2.0
  1
2
 41
0.4761906862258911
  7
FDASTYLE1
 72
     5
 11
381.7890216527868
 21
-150.6408306354046
 31
0.0
  0
TEXT
  5
5EB
  8
0
 62
     6
 10
361.6475999175
 20
-161.0860974186421
 30
0.0
 40
4.0
  1
12 kg
 41
0.6358805716180853
  7
FDASTYLE1
 72
     5
 11
374.3652113498617
 21
-161.0860974186421
 31
0.0
  0
TEXT
  5
5EC
  8
0
 62
     6
 10
332.9081513701368
 20
-169.1968762272358
 30
0.0
 40
4.0
  1
外周ﾆﾃ   3 g以内
 41
0.6078924744357139
  7
FDASTYLE1
 72
     5
 11
364.0322460612454
 21
-169.1968762272358
 31
0.0
  0
TEXT
  5
5ED
  8
0
 62
     6
 10
280.4324391899992
 20
-129.0475384586811
 30
0.0
 40
3.0
  1
36TS-TA1型 引側使用圧 3.3 MPa
 41
0.6091621897424968
  7
FDASTYLE1
 72
     5
 11
324.6576141653044
 21
-129.0475384586811
 31
0.0
  0
TEXT
  5
5EE
  8
0
 62
     7
 10
614.7367513316008
 20
-142.4339783084668
 30
0.0
 40
3.0
  1
標　準
 41
0.6666666666666604
  7
FDASTYLE1
 72
     5
 11
621.9367513316007
 21
-142.4339783084668
 31
0.0
  0
TEXT
  5
5EF
  8
0
 62
     7
 10
342.3243966028263
 20
57.39797172724765
 30
0.0
 40
4.0
  1
MIN 23
 50
90.0
 41
0.6857142857142856
  7
FDASTYLE1
 72
     5
 11
342.3243966028263
 21
73.85511458439051
 31
0.0
  0
TEXT
  5
5F0
  8
0
 62
     7
 10
209.6150292322208
 20
-57.36633949101407
 30
0.0
 40
4.0
  1
MIN19.8
 41
0.6367346938775508
  7
FDASTYLE1
 72
     5
 11
227.4436006607922
 21
-57.36633949101407
 31
0.0
  0
TEXT
  5
5F1
  8
0
 62
     7
 10
173.9335106775333
 20
151.5393268603043
 30
0.0
 40
4.0
  1
MIN-3.2
 41
0.6693877551020405
  7
FDASTYLE1
 72
     5
 11
192.6763678203904
 21
151.5393268603043
 31
0.0
  0
LINE
  5
5F2
  8
0
  6
DIVIDE
 62
     9
 10
203.2183251306583
 20
78.45681495844883
 30
0.0
 11
204.547121517377
 21
78.45681495844883
 31
0.0
  0
LINE
  5
5F3
  8
0
  6
DIVIDE
 62
     9
 10
202.7183251306583
 20
77.95681495844883
 30
0.0
 11
202.7183251306583
 21
55.40970726191562
 31
0.0
  0
LINE
  5
5F4
  8
0
  6
DIVIDE
 62
     9
 10
264.7183175012638
 20
77.95681495844883
 30
0.0
 11
264.7183175012638
 21
55.40970726191562
 31
0.0
  0
LINE
  5
5F5
  8
0
  6
DIVIDE
 62
     9
 10
203.2183300342249
 20
78.45681014153979
 30
0.0
 11
202.7183295034301
 21
77.95680961074504
 31
0.0
  0
LINE
  5
5F6
  8
0
  6
DIVIDE
 62
     9
 10
264.2183179153341
 20
78.4568195824337
 30
0.0
 11
264.7183184461288
 21
77.95681905163895
 31
0.0
  0
LINE
  5
5F7
  8
0
  6
DIVIDE
 62
     9
 10
259.3105416223575
 20
78.45681495844883
 30
0.0
 11
264.2183175012638
 21
78.45681495844883
 31
0.0
  0
LINE
  5
5F8
  8
LAYER0001
  6
CONTINUOUS
 62
     7
 10
279.7183175012638
 20
156.4593708056168
 30
0.0
 11
273.0084786340763
 21
156.4593708056168
 31
0.0
  0
LINE
  5
5F9
  8
LAYER0001
  6
CONTINUOUS
 62
     7
 10
201.7183251306583
 20
-65.79578666508633
 30
0.0
 11
188.3508934900333
 21
-65.79578666508633
 31
0.0
  0
LINE
  5
5FA
  8
LAYER0001
  6
CONTINUOUS
 62
     7
 10
205.9183220789005
 20
156.2819110888199
 30
0.0
 11
174.3896660730411
 21
156.2819110888199
 31
0.0
  0
LINE
  5
5FB
  8
LAYER0001
  6
CONTINUOUS
 62
     7
 10
280.7183175012638
 20
-51.76997260868985
 30
0.0
 11
294.364992611127
 21
-51.76997260868985
 31
0.0
  0
VIEWPORT
  5
48
 67
     1
  8
0
 10
356.5723937454768
 20
0.0
 30
0.0
 40
1662.0
 41
1140.0
 68
     1
 69
     1
1001
ACAD
1000
MVIEW
1002
{
1070
    16
1010
0.0
1020
0.0
1030
0.0
1020
0.0
1030
0.0
1010
0.0
1020
0.0
1030
1.0
1020
0.0
1030
1.0
1040
0.0
1040
1140.0
1040
356.5723937454768
1040
0.0
1040
50.0
1040
0.0
1040
0.0
1070
     0
1070
   100
1070
     0
1070
     1
1070
     0
1070
     0
1070
     0
1070
     0
1040
0.0
1040
0.0
1040
0.0
1040
0.5
1040
0.5
1040
0.0
1040
0.0
1070
     0
1002
{
1002
}
1002
}
  0
ENDSEC
  0
EOF
