  0
SECTION
  2
HEADER
  9
$ACADVER
  1
AC1009
  9
$DWGCODEPAGE
  3
ansi_932
  9
$INSBASE
 10
0.0
 20
0.0
 30
0.0
  9
$EXTMIN
 10
-831.0
 20
-569.9999999999999
 30
0.0
  9
$EXTMAX
 10
831.0
 20
569.9999999999999
 30
0.0
  9
$LIMMIN
 10
-297.0
 20
-210.0
  9
$LIMMAX
 10
297.0
 20
210.0
  9
$ORTHOMODE
 70
     0
  9
$REGENMODE
 70
     1
  9
$FILLMODE
 70
     1
  9
$QTEXTMODE
 70
     0
  9
$MIRRTEXT
 70
     1
  9
$DRAGMODE
 70
     2
  9
$LTSCALE
 40
1.0
  9
$OSMODE
 70
    37
  9
$ATTMODE
 70
     1
  9
$TEXTSIZE
 40
0.2
  9
$TRACEWID
 40
0.05
  9
$TEXTSTYLE
  7
STANDARD
  9
$CLAYER
  8
0
  9
$CELTYPE
  6
BYLAYER
  9
$CECOLOR
 62
   256
  9
$DIMSCALE
 40
1.0
  9
$DIMASZ
 40
2.5
  9
$DIMEXO
 40
0.0625
  9
$DIMDLI
 40
0.38
  9
$DIMRND
 40
0.0
  9
$DIMDLE
 40
0.0
  9
$DIMEXE
 40
0.18
  9
$DIMTP
 40
0.0
  9
$DIMTM
 40
0.0
  9
$DIMTXT
 40
0.18
  9
$DIMCEN
 40
0.09
  9
$DIMTSZ
 40
0.0
  9
$DIMTOL
 70
     0
  9
$DIMLIM
 70
     0
  9
$DIMTIH
 70
     1
  9
$DIMTOH
 70
     1
  9
$DIMSE1
 70
     0
  9
$DIMSE2
 70
     0
  9
$DIMTAD
 70
     3
  9
$DIMZIN
 70
     0
  9
$DIMBLK
  1

  9
$DIMASO
 70
     1
  9
$DIMSHO
 70
     1
  9
$DIMPOST
  1

  9
$DIMAPOST
  1

  9
$DIMALT
 70
     0
  9
$DIMALTD
 70
     2
  9
$DIMALTF
 40
25.4
  9
$DIMLFAC
 40
1.0
  9
$DIMTOFL
 70
     0
  9
$DIMTVP
 40
0.0
  9
$DIMTIX
 70
     0
  9
$DIMSOXD
 70
     0
  9
$DIMSAH
 70
     0
  9
$DIMBLK1
  1

  9
$DIMBLK2
  1

  9
$DIMSTYLE
  2
STANDARD
  9
$DIMCLRD
 70
     0
  9
$DIMCLRE
 70
     0
  9
$DIMCLRT
 70
     0
  9
$DIMTFAC
 40
1.0
  9
$DIMGAP
 40
0.09
  9
$LUNITS
 70
     2
  9
$LUPREC
 70
     4
  9
$SKETCHINC
 40
0.1
  9
$FILLETRAD
 40
0.5
  9
$AUNITS
 70
     0
  9
$AUPREC
 70
     0
  9
$MENU
  1
.
  9
$ELEVATION
 40
0.0
  9
$PELEVATION
 40
0.0
  9
$THICKNESS
 40
0.0
  9
$LIMCHECK
 70
     0
  9
$CHAMFERA
 40
0.5
  9
$CHAMFERB
 40
0.5
  9
$SKPOLY
 70
     0
  9
$TDCREATE
 40
2454879.43885022
  9
$TDUPDATE
 40
2454879.438850232
  9
$TDINDWG
 40
0.0000000116
  9
$TDUSRTIMER
 40
0.0000000116
  9
$USRTIMER
 70
     1
  9
$ANGBASE
 50
0.0
  9
$ANGDIR
 70
     0
  9
$PDMODE
 70
     0
  9
$PDSIZE
 40
1.0
  9
$PLINEWID
 40
0.0
  9
$COORDS
 70
     1
  9
$SPLFRAME
 70
     0
  9
$SPLINETYPE
 70
     6
  9
$SPLINESEGS
 70
     8
  9
$ATTDIA
 70
     0
  9
$ATTREQ
 70
     1
  9
$HANDLING
 70
     1
  9
$HANDSEED
  5
485
  9
$SURFTAB1
 70
     6
  9
$SURFTAB2
 70
     6
  9
$SURFTYPE
 70
     6
  9
$SURFU
 70
     6
  9
$SURFV
 70
     6
  9
$UCSNAME
  2

  9
$UCSORG
 10
0.0
 20
0.0
 30
0.0
  9
$UCSXDIR
 10
1.0
 20
0.0
 30
0.0
  9
$UCSYDIR
 10
0.0
 20
1.0
 30
0.0
  9
$PUCSNAME
  2

  9
$PUCSORG
 10
0.0
 20
0.0
 30
0.0
  9
$PUCSXDIR
 10
1.0
 20
0.0
 30
0.0
  9
$PUCSYDIR
 10
0.0
 20
1.0
 30
0.0
  9
$USERI1
 70
     0
  9
$USERI2
 70
     0
  9
$USERI3
 70
     0
  9
$USERI4
 70
     0
  9
$USERI5
 70
     0
  9
$USERR1
 40
0.0
  9
$USERR2
 40
0.0
  9
$USERR3
 40
0.0
  9
$USERR4
 40
0.0
  9
$USERR5
 40
0.0
  9
$WORLDVIEW
 70
     1
  9
$SHADEDGE
 70
     3
  9
$SHADEDIF
 70
    70
  9
$TILEMODE
 70
     1
  9
$MAXACTVP
 70
    64
  9
$PLIMCHECK
 70
     0
  9
$PEXTMIN
 10
1.000000000000000E+20
 20
1.000000000000000E+20
 30
1.000000000000000E+20
  9
$PEXTMAX
 10
-1.000000000000000E+20
 20
-1.000000000000000E+20
 30
-1.000000000000000E+20
  9
$PLIMMIN
 10
0.0
 20
0.0
  9
$PLIMMAX
 10
12.0
 20
9.0
  9
$UNITMODE
 70
     0
  9
$VISRETAIN
 70
     0
  9
$PLINEGEN
 70
     1
  9
$PSLTSCALE
 70
     0
  0
ENDSEC
  0
SECTION
  2
TABLES
  0
TABLE
  2
VPORT
 70
     1
  0
VPORT
  2
*ACTIVE
 70
     0
 10
0.0
 20
0.0
 11
1.0
 21
1.0
 12
0.0
 22
0.0
 13
0.0
 23
0.0
 14
0.5
 24
0.5
 15
0.5
 25
0.5
 16
0.0
 26
0.0
 36
1.0
 17
-0.0000000000000036
 27
0.0
 37
0.0
 40
387.6
 41
1.457894736842106
 42
50.0
 43
0.0
 44
0.0
 50
0.0
 51
0.0
 71
     0
 72
  1000
 73
     1
 74
     1
 75
     0
 76
     0
 77
     0
 78
     0
  0
ENDTAB
  0
TABLE
  2
LTYPE
 70
    28
  0
LTYPE
  2
CONTINUOUS
 70
     0
  3
Solid line
 72
    65
 73
     0
 40
0.0
  0
LTYPE
  2
HIDDENX2
 70
     0
  3
CADPAC LINETYPE
 72
    65
 73
     2
 40
9.893992932862261
 49
7.420494699646696
 49
-2.473498233215565
  0
LTYPE
  2
HIDDEN
 70
     0
  3
CADPAC LINETYPE
 72
    65
 73
     2
 40
7.420494699646696
 49
4.946996466431131
 49
-2.473498233215565
  0
LTYPE
  2
HIDDEN2
 70
     0
  3
CADPAC LINETYPE
 72
    65
 73
     2
 40
6.183745583038913
 49
3.710247349823348
 49
-2.473498233215565
  0
LTYPE
  2
DASHED
 70
     0
  3
CADPAC LINETYPE
 72
    65
 73
     2
 40
6.925795053003526
 49
4.946996466431131
 49
-1.978798586572395
  0
LTYPE
  2
DASHED2
 70
     0
  3
CADPAC LINETYPE
 72
    65
 73
     2
 40
4.452296819787989
 49
2.968197879858678
 49
-1.484098939929311
  0
LTYPE
  2
DASHEDX2
 70
     0
  3
CADPAC LINETYPE
 72
    65
 73
     2
 40
11.8727915194346
 49
9.893992932862204
 49
-1.978798586572395
  0
LTYPE
  2
DOTX2
 70
     0
  3
CADPAC LINETYPE
 72
    65
 73
     2
 40
4.328621908127204
 49
0.0
 49
-4.328621908127204
  0
LTYPE
  2
DOT
 70
     0
  3
CADPAC LINETYPE
 72
    65
 73
     2
 40
3.462897526501763
 49
0.0
 49
-3.462897526501763
  0
LTYPE
  2
DOT2
 70
     0
  3
CADPAC LINETYPE
 72
    65
 73
     2
 40
2.597173144876322
 49
0.0
 49
-2.597173144876322
  0
LTYPE
  2
CENTERX2
 70
     0
  3
CADPAC LINETYPE
 72
    65
 73
     4
 40
14.84098939929339
 49
6.183745583038913
 49
-3.091872791519457
 49
2.473498233215565
 49
-3.091872791519457
  0
LTYPE
  2
CENTER
 70
     0
  3
CADPAC LINETYPE
 72
    65
 73
     4
 40
11.3780918727916
 49
4.946996466431131
 49
-2.473498233215565
 49
1.484098939929339
 49
-2.473498233215565
  0
LTYPE
  2
CENTER2
 70
     0
  3
CADPAC LINETYPE
 72
    65
 73
     4
 40
7.915194346289809
 49
3.710247349823348
 49
-1.855123674911674
 49
0.4946996466431131
 49
-1.855123674911674
  0
LTYPE
  2
DASHDOTX2
 70
     0
  3
CADPAC LINETYPE
 72
    65
 73
     4
 40
23.7455830388692
 49
11.87279151943466
 49
-3.957597173144848
 49
3.957597173144848
 49
-3.957597173144848
  0
LTYPE
  2
DASHDOT
 70
     0
  3
CADPAC LINETYPE
 72
    65
 73
     4
 40
11.87279151943449
 49
5.9363957597173
 49
-1.978798586572395
 49
1.978798586572395
 49
-1.978798586572395
  0
LTYPE
  2
DASHDOT2
 70
     0
  3
CADPAC LINETYPE
 72
    65
 73
     4
 40
7.618374558303808
 49
4.452296819787975
 49
-1.484098939929297
 49
0.1978798586572396
 49
-1.484098939929297
  0
LTYPE
  2
DIVIDEX2
 70
     0
  3
CADPAC LINETYPE
 72
    65
 73
     6
 40
31.6607773851589
 49
11.87279151943466
 49
-3.957597173144848
 49
3.957597173144848
 49
-3.957597173144848
 49
3.957597173144848
 49
-3.957597173144848
  0
LTYPE
  2
DIVIDE
 70
     0
  3
CADPAC LINETYPE
 72
    65
 73
     6
 40
15.83038869257928
 49
5.9363957597173
 49
-1.978798586572395
 49
1.978798586572395
 49
-1.978798586572395
 49
1.978798586572395
 49
-1.978798586572395
  0
LTYPE
  2
DIVIDE2
 70
     0
  3
CADPAC LINETYPE
 72
    65
 73
     6
 40
11.87279151943446
 49
4.452296819787975
 49
-1.484098939929297
 49
1.484098939929297
 49
-1.484098939929297
 49
1.484098939929297
 49
-1.484098939929297
  0
LTYPE
  2
BORDERX2
 70
     0
  3
CADPAC LINETYPE
 72
    65
 73
     6
 40
21.6431095406362
 49
6.183745583038913
 49
-3.091872791519457
 49
6.183745583038913
 49
-3.091872791519457
 49
0.0
 49
-3.091872791519457
  0
LTYPE
  2
BORDER
 70
     0
  3
CADPAC LINETYPE
 72
    65
 73
     6
 40
17.31448763250896
 49
4.946996466431131
 49
-2.473498233215565
 49
4.946996466431131
 49
-2.473498233215565
 49
0.0
 49
-2.473498233215565
  0
LTYPE
  2
BORDER2
 70
     0
  3
CADPAC LINETYPE
 72
    65
 73
     6
 40
12.86219081272091
 49
3.957597173144848
 49
-2.473498233215594
 49
1.484098939929311
 49
-2.473498233215594
 49
0.0
 49
-2.473498233215565
  0
LTYPE
  2
PHANTOMX2
 70
     0
  3
CADPAC LINETYPE
 72
    65
 73
     6
 40
18.55123674911674
 49
6.183745583038913
 49
-2.473498233215565
 49
2.473498233215565
 49
-2.473498233215565
 49
2.473498233215565
 49
-2.473498233215565
  0
LTYPE
  2
PHANTOM
 70
     0
  3
CADPAC LINETYPE
 72
    65
 73
     6
 40
15.33568904593651
 49
4.946996466431131
 49
-2.473498233215565
 49
1.484098939929339
 49
-2.473498233215565
 49
1.484098939929339
 49
-2.473498233215565
  0
LTYPE
  2
PHANTOM2
 70
     0
  3
CADPAC LINETYPE
 72
    65
 73
     6
 40
13.1095406360425
 49
3.710247349823348
 49
-2.473498233215565
 49
0.9893992932862261
 49
-2.473498233215565
 49
0.9893992932862261
 49
-2.473498233215565
  0
LTYPE
  2
ACAD_ISO06W100
 70
     0
  3
CADPAC LINETYPE
 72
    65
 73
     8
 40
26.21908127208496
 49
11.87279151943466
 49
-2.473498233215594
 49
1.484098939929311
 49
-2.473498233215594
 49
1.484098939929311
 49
-2.473498233215594
 49
1.484098939929311
 49
-2.473498233215594
  0
LTYPE
  2
ACAD_ISO13W100
 70
     0
  3
CADPAC LINETYPE
 72
    65
 73
     8
 40
19.78798586572452
 49
4.946996466431131
 49
-2.473498233215565
 49
4.946996466431131
 49
-2.473498233215565
 49
0.0
 49
-2.473498233215565
 49
0.0
 49
-2.473498233215565
  0
LTYPE
  2
ACAD_ISO14W100
 70
     0
  3
CADPAC LINETYPE
 72
    65
 73
     8
 40
14.84098939929339
 49
4.946996466431131
 49
-2.473498233215565
 49
0.0
 49
-2.473498233215565
 49
0.0
 49
-2.473498233215565
 49
0.0
 49
-2.473498233215565
  0
ENDTAB
  0
TABLE
  2
LAYER
 70
     3
  0
LAYER
  2
0
 70
     0
 62
     7
  6
CONTINUOUS
  0
LAYER
  2
LAYER0014
 70
     0
 62
     7
  6
CONTINUOUS
  0
LAYER
  2
ZUWAKU
 70
     0
 62
     7
  6
CONTINUOUS
  0
ENDTAB
  0
TABLE
  2
STYLE
 70
     5
  0
STYLE
  2
STANDARD
 70
     0
 40
0.0
 41
1.0
 50
0.0
 71
     0
 42
0.2
  3
txt
  4

  0
STYLE
  2
FDASTYLE1
 70
     0
 40
2.5
 41
0.8791213035583564
 50
0.0
 71
     0
 42
0.2
  3
txt.shx
  4
bigfont
  0
STYLE
  2
FDASTYLE0
 70
     4
 40
2.6656
 41
0.8
 50
0.0
 71
     0
 42
0.2
  3
txt.shx
  4
bigfont
  0
STYLE
  2
FDASTYLE2
 70
     0
 40
7.0
 41
0.8123476848090983
 50
0.0
 71
     0
 42
0.2
  3
MSMINCHO.TTC
  4

  0
STYLE
  2
FDASTYLE3
 70
     0
 40
8.0
 41
0.77
 50
0.0
 71
     0
 42
0.2
  3
MSGOTHIC.TTC
  4

  0
ENDTAB
  0
TABLE
  2
VIEW
 70
     0
  0
ENDTAB
  0
TABLE
  2
UCS
 70
     0
  0
ENDTAB
  0
TABLE
  2
APPID
 70
     2
  0
APPID
  2
ACAD
 70
     0
  0
APPID
  2
DAFUSIONOUT
 70
     0
  0
ENDTAB
  0
TABLE
  2
DIMSTYLE
 70
     1
  0
DIMSTYLE
  2
STANDARD
 70
     0
  3

  4

  5

  6

  7

 40
1.0
 41
0.18
 42
0.0625
 43
0.38
 44
0.18
 45
0.0
 46
0.0
 47
0.0
 48
0.0
140
0.18
141
0.09
142
0.0
143
25.4
144
1.0
145
0.0
146
1.0
147
0.09
 71
     0
 72
     0
 73
     1
 74
     1
 75
     0
 76
     0
 77
     0
 78
     0
170
     0
171
     2
172
     0
173
     0
174
     0
175
     0
176
     0
177
     0
178
     0
  0
ENDTAB
  0
ENDSEC
  0
SECTION
  2
BLOCKS
  0
BLOCK
  8
0
  2
$MODEL_SPACE
 70
     0
 10
0.0
 20
0.0
 30
0.0
  3
$MODEL_SPACE
  1

  0
ENDBLK
  5
21
  8
0
  0
BLOCK
 67
     1
  8
0
  2
$PAPER_SPACE
 70
     0
 10
0.0
 20
0.0
 30
0.0
  3
$PAPER_SPACE
  1

  0
ENDBLK
  5
1D
 67
     1
  8
0
  0
BLOCK
  8
0
  2
DC_GROUP_1
 70
     0
 10
0.0
 20
0.0
 30
0.0
  3
DC_GROUP_1
  1

  0
LINE
  5
C7
  8
0
  6
CONTINUOUS
 62
     5
 10
198.2796195669245
 20
88.1802520655443
 30
0.0
 11
200.5296214891731
 21
84.28313232658113
 31
0.0
  0
LINE
  5
C8
  8
0
  6
CONTINUOUS
 62
     5
 10
199.3041106420627
 20
87.90575509511385
 30
0.0
 11
198.2795978718572
 21
88.18027258098626
 31
0.0
  0
LINE
  5
C9
  8
0
  6
CONTINUOUS
 62
     5
 10
198.0051429796855
 20
87.15571248156897
 30
0.0
 11
198.2796642421023
 21
88.1802400369136
 31
0.0
  0
LINE
  5
CA
  8
0
  6
CONTINUOUS
 62
     5
 10
200.5296993826477
 20
84.28310452970698
 30
0.0
 11
200.8042206450646
 21
85.30763208505161
 31
0.0
  0
LINE
  5
CB
  8
0
  6
CONTINUOUS
 62
     5
 10
200.5296099937937
 20
84.28316193889636
 30
0.0
 11
199.50508248473
 21
84.55768337403559
 31
0.0
  0
LINE
  5
CC
  8
0
  6
CONTINUOUS
 62
     5
 10
191.4094031903639
 20
85.07977223626457
 30
0.0
 11
204.3997858021155
 21
92.57976910702072
 31
0.0
  0
LINE
  5
CD
  8
0
  6
CONTINUOUS
 62
     5
 10
196.7655433391186
 20
94.55423256250234
 30
0.0
 11
195.9988325554847
 21
93.93336265978044
 31
0.0
  0
LINE
  5
CE
  8
0
  6
CONTINUOUS
 62
     5
 10
196.7655626586812
 20
94.55425095483643
 30
0.0
 11
196.1447022352502
 21
95.32094974103173
 31
0.0
  0
LINE
  5
CF
  8
0
  6
CONTINUOUS
 62
     5
 10
204.3997918133195
 20
92.57977395409925
 30
0.0
 11
200.6497929011045
 21
99.07496608588131
 31
0.0
  0
LINE
  5
D0
  8
0
  6
CONTINUOUS
 62
     5
 10
187.659407624566
 20
91.57495666452969
 30
0.0
 11
200.6497902363175
 21
99.07495353528584
 31
0.0
  0
LINE
  5
D1
  8
0
  6
CONTINUOUS
 62
     5
 10
191.4094029776206
 20
85.07976688269885
 30
0.0
 11
185.7844058013905
 21
94.82255301560623
 31
0.0
  0
LINE
  5
D2
  8
0
  6
CONTINUOUS
 62
     5
 10
185.7844072786684
 20
94.82255331790853
 30
0.0
 11
187.7329646704311
 21
95.94755284852195
 31
0.0
  0
LINE
  5
D3
  8
0
  6
CONTINUOUS
 62
     5
 10
188.2954757474739
 20
94.97327077259818
 30
0.0
 11
187.7329797968628
 21
95.94754286122928
 31
0.0
  0
LINE
  5
D4
  8
0
  6
CONTINUOUS
 62
     5
 10
188.2954646741563
 20
94.97327373968744
 30
0.0
 11
189.5945029353314
 21
95.72327342676306
 31
0.0
  0
LINE
  5
D5
  8
0
  6
CONTINUOUS
 62
     5
 10
190.1569945522261
 20
94.74899167820848
 30
0.0
 11
189.5944947869194
 21
95.72327037408985
 31
0.0
  0
LINE
  5
D6
  8
0
  6
CONTINUOUS
 62
     5
 10
190.1570209219267
 20
94.74899368825706
 30
0.0
 11
191.4560591831019
 21
95.49899337533267
 31
0.0
  0
LINE
  5
D7
  8
0
  6
CONTINUOUS
 62
     5
 10
192.2060278387831
 20
94.19995068798224
 30
0.0
 11
191.4560282709168
 21
95.49898874268082
 31
0.0
  0
LINE
  5
D8
  8
0
  6
CONTINUOUS
 62
     5
 10
192.3299894963577
 20
96.98534635423152
 30
0.0
 11
192.6045107587745
 21
98.00987390957614
 31
0.0
  0
LINE
  5
D9
  8
0
  6
CONTINUOUS
 62
     5
 10
190.0413607017854
 20
96.53004993380998
 30
0.0
 11
192.6044716702223
 21
98.00986194683624
 31
0.0
  0
LINE
  5
DA
  8
0
  6
CONTINUOUS
 62
     5
 10
192.6044674046201
 20
98.00989132047337
 30
0.0
 11
191.5799546344145
 21
98.28440880634578
 31
0.0
  0
ARC
  5
DB
  8
0
  6
CONTINUOUS
 62
     5
 10
196.0861479076637
 20
92.01866654148674
 30
0.0
 40
2.625001907348633
 50
75.00008446424582
 51
369.9999367173826
  0
TEXT
  5
DD
  8
0
 62
     5
 10
198.2535761053327
 20
84.46555657369062
 30
0.0
 40
2.5
  1
F
 50
119.9999866787419
 41
0.8791213035583564
  7
FDASTYLE1
 72
     5
 11
197.1546749184141
 21
86.36891028390906
 31
0.0
  0
TEXT
  5
DE
  8
0
 62
     5
 10
200.8683258011
 20
94.9748939102447
 30
0.0
 40
2.5
  1
N min
 50
119.9999866787419
 41
0.7983872809842209
  7
FDASTYLE1
 72
     5
 11
194.6808282928156
 21
105.6919597206694
 31
0.0
  0
TEXT
  5
DF
  8
0
 62
     5
 10
192.8590525857208
 20
105.2896755726765
 30
0.0
 40
1.25
  1
-1
 50
119.9999866787419
 41
0.7826089106345572
  7
FDASTYLE1
 72
     5
 11
191.7340529046496
 21
107.2382332250399
 31
0.0
  0
TEXT
  5
E0
  8
0
 62
     5
 10
191.5988072757268
 20
99.39685449283473
 30
0.0
 40
2.5
  1
ΣS
 50
119.9999866787419
 41
0.9590411728078684
  7
FDASTYLE1
 72
     5
 11
188.9614451125754
 21
103.9649022101187
 31
0.0
  0
ENDBLK
  5
4E
  8
0
  0
BLOCK
  8
0
  2
DA_IMAGEDIMGROUP_1
 70
     0
 10
0.0
 20
0.0
 30
0.0
  3
DA_IMAGEDIMGROUP_1
  1

  0
LINE
  5
E1
  8
LAYER0014
  6
CONTINUOUS
 62
     7
 10
-172.2156776538597
 20
70.43021897068596
 30
0.0
 11
-217.2657655444847
 21
70.43021897068596
 31
0.0
  0
LINE
  5
E2
  8
LAYER0014
  6
CONTINUOUS
 62
     7
 10
-168.8820747485863
 20
-3.569781029314044
 30
0.0
 11
-217.2657655444847
 21
-3.569781029314044
 31
0.0
  0
LINE
  5
E3
  8
LAYER0014
  6
CONTINUOUS
 62
     7
 10
-214.9797548022972
 20
70.43021897068596
 30
0.0
 11
-214.9797548022972
 21
-3.569781029314044
 31
0.0
  0
INSERT
  5
EA
  8
LAYER0014
 62
     7
  2
_OPEN30
 10
-214.9797548022972
 20
70.43021897068596
 30
0.0
 41
1.999998407630662
 42
2.000005728319971
 50
90.0
  0
INSERT
  5
EB
  8
LAYER0014
 62
     7
  2
_OPEN30
 10
-214.9797548022972
 20
-3.569781029314044
 30
0.0
 41
1.999998407630662
 42
2.000005728319971
 50
270.0
  0
TEXT
  5
EC
  8
LAYER0014
 62
     7
 10
-216.5937149922857
 20
25.43302368076509
 30
0.0
 40
4.0
  1
φ74H7
 50
89.90000000000001
 41
0.7692307692307694
  7
FDASTYLE1
 72
     5
 11
-216.5657897384313
 21
41.4329993113777
 31
0.0
  0
ENDBLK
  5
51
  8
0
  0
BLOCK
  8
0
  2
DA_IMAGEDIMGROUP_2
 70
     0
 10
0.0
 20
0.0
 30
0.0
  3
DA_IMAGEDIMGROUP_2
  1

  0
LINE
  5
ED
  8
LAYER0014
  6
CONTINUOUS
 62
     7
 10
-173.0820716968285
 20
128.430218970686
 30
0.0
 11
-228.928912517141
 21
128.430218970686
 31
0.0
  0
LINE
  5
EE
  8
LAYER0014
  6
CONTINUOUS
 62
     7
 10
-173.0820716968285
 20
-61.56978102931404
 30
0.0
 11
-228.928912517141
 21
-61.56978102931404
 31
0.0
  0
LINE
  5
EF
  8
LAYER0014
  6
CONTINUOUS
 62
     7
 10
-226.6429017749535
 20
128.430218970686
 30
0.0
 11
-226.6429017749535
 21
-61.56978102931404
 31
0.0
  0
INSERT
  5
F0
  8
LAYER0014
 62
     7
  2
_OPEN30
 10
-226.6429017749535
 20
128.430218970686
 30
0.0
 41
1.999998407630662
 42
2.000005728319971
 50
90.0
  0
INSERT
  5
F1
  8
LAYER0014
 62
     7
  2
_OPEN30
 10
-226.6429017749535
 20
-61.56978102931404
 30
0.0
 41
1.999998407630662
 42
2.000005728319971
 50
270.0
  0
TEXT
  5
F2
  8
LAYER0014
 62
     7
 10
-228.2596544903274
 20
23.83302611770384
 30
0.0
 40
4.0
  1
φ190H7
 50
89.90000000000001
 41
0.7741935483870963
  7
FDASTYLE1
 72
     5
 11
-228.2261441857021
 21
43.03299687443895
 31
0.0
  0
ENDBLK
  5
54
  8
0
  0
BLOCK
  8
0
  2
DA_IMAGEDIMGROUP_3
 70
     0
 10
0.0
 20
0.0
 30
0.0
  3
DA_IMAGEDIMGROUP_3
  1

  0
LINE
  5
F3
  8
LAYER0014
  6
CONTINUOUS
 62
     7
 10
-173.0820716968285
 20
140.930218970686
 30
0.0
 11
-241.0289491382347
 21
140.930218970686
 31
0.0
  0
LINE
  5
F4
  8
LAYER0014
  6
CONTINUOUS
 62
     7
 10
-173.0820716968285
 20
-74.06978102931404
 30
0.0
 11
-241.0289491382347
 21
-74.06978102931404
 31
0.0
  0
LINE
  5
F5
  8
LAYER0014
  6
CONTINUOUS
 62
     7
 10
-238.7429383960472
 20
140.930218970686
 30
0.0
 11
-238.7429383960472
 21
-74.06978102931404
 31
0.0
  0
INSERT
  5
F6
  8
LAYER0014
 62
     7
  2
_OPEN30
 10
-238.7429383960472
 20
140.930218970686
 30
0.0
 41
1.999998407630662
 42
2.000005728319971
 50
90.0
  0
INSERT
  5
F7
  8
LAYER0014
 62
     7
  2
_OPEN30
 10
-238.7429383960472
 20
-74.06978102931404
 30
0.0
 41
1.999998407630662
 42
2.000005728319971
 50
270.0
  0
TEXT
  5
F8
  8
LAYER0014
 62
     7
 10
-240.3541060606503
 20
27.03302124382635
 30
0.0
 40
4.0
  1
φ215
 50
89.90000000000001
 41
0.7619047619047625
  7
FDASTYLE1
 72
     5
 11
-240.3317658575668
 21
39.83300174831644
 31
0.0
  0
ENDBLK
  5
57
  8
0
  0
BLOCK
  8
0
  2
DA_IMAGEDIMGROUP_4
 70
     0
 10
0.0
 20
0.0
 30
0.0
  3
DA_IMAGEDIMGROUP_4
  1

  0
LINE
  5
F9
  8
LAYER0014
  6
CONTINUOUS
 62
     7
 10
-183.8487342944847
 20
-27.24478408107186
 30
0.0
 11
-205.0955995288597
 21
-27.24478408107186
 31
0.0
  0
LINE
  5
FA
  8
LAYER0014
  6
CONTINUOUS
 62
     7
 10
-183.8487342944847
 20
-39.24478408107186
 30
0.0
 11
-205.0955995288597
 21
-39.24478408107186
 31
0.0
  0
LINE
  5
FB
  8
LAYER0014
  6
CONTINUOUS
 62
     7
 10
-202.8095887866722
 20
-27.24478408107186
 30
0.0
 11
-202.8095887866722
 21
-39.24478408107186
 31
0.0
  0
INSERT
  5
FC
  8
LAYER0014
 62
     7
  2
_OPEN30
 10
-202.8095887866722
 20
-27.24478408107186
 30
0.0
 41
1.999998407630662
 42
2.000005728319971
 50
90.0
  0
INSERT
  5
FD
  8
LAYER0014
 62
     7
  2
_OPEN30
 10
-202.8095887866722
 20
-39.24478408107186
 30
0.0
 41
1.999998407630662
 42
2.000005728319971
 50
270.0
  0
TEXT
  5
FE
  8
LAYER0014
 62
     7
 10
-204.4179639258898
 20
-38.04198424487021
 30
0.0
 40
4.0
  1
M12
 50
89.90000000000001
 41
0.8000000000000016
  7
FDASTYLE1
 72
     5
 11
-204.4012087735772
 21
-28.44199886650263
 31
0.0
  0
ENDBLK
  5
5A
  8
0
  0
BLOCK
  8
0
  2
DA_IMAGEDIMGROUP_5
 70
     0
 10
0.0
 20
0.0
 30
0.0
  3
DA_IMAGEDIMGROUP_5
  1

  0
LINE
  5
FF
  8
LAYER0014
  6
CONTINUOUS
 62
     7
 10
-105.0020716968285
 20
0.9302189706859565
 30
0.0
 11
-44.32358109624255
 21
0.9302189706859565
 31
0.0
  0
LINE
  5
100
  8
LAYER0014
  6
CONTINUOUS
 62
     7
 10
-46.60957657964099
 20
0.9302189706859565
 30
0.0
 11
-46.60957657964099
 21
56.18021897068596
 31
0.0
  0
INSERT
  5
101
  8
LAYER0014
 62
     7
  2
_OPEN30
 10
-46.60957657964099
 20
0.9302189706859565
 30
0.0
 41
1.999998407630662
 42
2.000005728319971
 50
270.0
  0
TEXT
  5
102
  8
LAYER0014
 62
     7
 10
-48.20957657964099
 20
18.6857212900219
 30
0.0
 40
4.0
  1
M65×P1.25
 50
90.0
 41
0.782608695652174
  7
FDASTYLE1
 72
     5
 11
-48.20957657964099
 21
47.48572129002189
 31
0.0
  0
ENDBLK
  5
5D
  8
0
  0
BLOCK
  8
0
  2
DA_IMAGEDIMGROUP_6
 70
     0
 10
0.0
 20
0.0
 30
0.0
  3
DA_IMAGEDIMGROUP_6
  1

  0
LINE
  5
103
  8
LAYER0014
  6
CONTINUOUS
 62
     7
 10
-76.00207169682848
 20
-6.569781029314044
 30
0.0
 11
-32.59025132329333
 21
-6.569781029314044
 31
0.0
  0
LINE
  5
104
  8
LAYER0014
  6
CONTINUOUS
 62
     7
 10
-34.8762544360863
 20
-6.569781029314044
 30
0.0
 11
-34.8762544360863
 21
56.18021897068596
 31
0.0
  0
INSERT
  5
105
  8
LAYER0014
 62
     7
  2
_OPEN30
 10
-34.8762544360863
 20
-6.569781029314044
 30
0.0
 41
1.999998407630662
 42
2.000005728319971
 50
270.0
  0
TEXT
  5
106
  8
LAYER0014
 62
     7
 10
-36.4762544360863
 20
25.08572129002189
 30
0.0
 40
4.0
  1
φ80H7
 50
90.0
 41
0.7692307692307692
  7
FDASTYLE1
 72
     5
 11
-36.4762544360863
 21
41.08572129002189
 31
0.0
  0
ENDBLK
  5
60
  8
0
  0
BLOCK
  8
0
  2
DA_IMAGEDIMGROUP_7
 70
     0
 10
0.0
 20
0.0
 30
0.0
  3
DA_IMAGEDIMGROUP_7
  1

  0
LINE
  5
107
  8
LAYER0014
  6
CONTINUOUS
 62
     7
 10
-77.00207169682848
 20
74.93021897068596
 30
0.0
 11
-20.12358414800036
 21
74.93021897068596
 31
0.0
  0
LINE
  5
108
  8
LAYER0014
  6
CONTINUOUS
 62
     7
 10
-77.00207169682848
 20
140.930218970686
 30
0.0
 11
-20.12358414800036
 21
140.930218970686
 31
0.0
  0
LINE
  5
109
  8
LAYER0014
  6
CONTINUOUS
 62
     7
 10
-22.40959489018786
 20
74.93021897068596
 30
0.0
 11
-22.40959489018786
 21
140.930218970686
 31
0.0
  0
INSERT
  5
10A
  8
LAYER0014
 62
     7
  2
_OPEN30
 10
-22.40959489018786
 20
74.93021897068596
 30
0.0
 41
1.999998407630662
 42
2.000005728319971
 50
270.0
  0
INSERT
  5
10B
  8
LAYER0014
 62
     7
  2
_OPEN30
 10
-22.40959489018786
 20
140.930218970686
 30
0.0
 41
1.999998407630662
 42
2.000005728319971
 50
90.0
  0
TEXT
  5
10C
  8
LAYER0014
 62
     7
 10
-24.01517750402
 20
104.7330163699489
 30
0.0
 40
4.0
  1
66
 50
89.90000000000001
 41
0.8000000000000007
  7
FDASTYLE1
 72
     5
 11
-24.00400740247825
 21
111.1330066221939
 31
0.0
  0
ENDBLK
  5
63
  8
0
  0
BLOCK
  8
0
  2
DA_IMAGEDIMGROUP_8
 70
     0
 10
0.0
 20
0.0
 30
0.0
  3
DA_IMAGEDIMGROUP_8
  1

  0
LINE
  5
10D
  8
LAYER0014
  6
CONTINUOUS
 62
     7
 10
-166.3420747485863
 20
-105.3926357217896
 30
0.0
 11
-128.5420716968285
 21
-105.3926357217896
 31
0.0
  0
INSERT
  5
10E
  8
LAYER0014
 62
     7
  2
_OPEN30
 10
-166.3420747485863
 20
-105.3926357217896
 30
0.0
 41
1.999998407630662
 42
2.000005728319971
 50
180.0
  0
INSERT
  5
10F
  8
LAYER0014
 62
     7
  2
_OPEN30
 10
-128.5420716968285
 20
-105.3926357217896
 30
0.0
 41
1.999998407630662
 42
2.000005728319971
 50
360.0
  0
LINE
  5
110
  8
LAYER0014
  6
CONTINUOUS
 62
     7
 10
-166.3420594897972
 20
-64.10978102931405
 30
0.0
 11
-166.3420751182019
 21
-106.3926357217895
 31
0.0
  0
LINE
  5
111
  8
LAYER0014
  6
CONTINUOUS
 62
     7
 10
-128.5420716968285
 20
-0.6097810293140435
 30
0.0
 11
-128.5420716968285
 21
-106.3926357217896
 31
0.0
  0
TEXT
  5
112
  8
LAYER0014
 62
     7
 10
-160.2420655933129
 20
-103.7926357217896
 30
0.0
 40
4.0
  1
MAX 50.3
 41
0.8000000000000007
  7
FDASTYLE1
 72
     5
 11
-134.6420655933129
 21
-103.7926357217896
 31
0.0
  0
ENDBLK
  5
66
  8
0
  0
BLOCK
  8
0
  2
DA_IMAGEDIMGROUP_9
 70
     0
 10
0.0
 20
0.0
 30
0.0
  3
DA_IMAGEDIMGROUP_9
  1

  0
LINE
  5
113
  8
LAYER0014
  6
CONTINUOUS
 62
     7
 10
-157.5420716968285
 20
21.11728790989494
 30
0.0
 11
-128.5420716968285
 21
21.11728790989494
 31
0.0
  0
INSERT
  5
114
  8
LAYER0014
 62
     7
  2
_OPEN30
 10
-157.5420716968285
 20
21.11728790989494
 30
0.0
 41
1.999998407630662
 42
2.000005728319971
 50
180.0
  0
INSERT
  5
115
  8
LAYER0014
 62
     7
  2
_OPEN30
 10
-128.5420716968285
 20
21.11728790989494
 30
0.0
 41
1.999998407630662
 42
2.000005728319971
 50
360.0
  0
TEXT
  5
116
  8
LAYER0014
 62
     7
 10
-146.2420716968285
 20
22.71728790989494
 30
0.0
 40
4.0
  1
29
 41
0.7999999999999972
  7
FDASTYLE1
 72
     5
 11
-139.8420716968285
 21
22.71728790989494
 31
0.0
  0
ENDBLK
  5
69
  8
0
  0
BLOCK
  8
0
  2
DA_IMAGEDIMGROUP_10
 70
     0
 10
0.0
 20
0.0
 30
0.0
  3
DA_IMAGEDIMGROUP_10
  1

  0
LINE
  5
117
  8
LAYER0014
  6
CONTINUOUS
 62
     7
 10
-128.5420716968285
 20
21.11728790989494
 30
0.0
 11
-116.5420716968285
 21
21.11728790989494
 31
0.0
  0
INSERT
  5
118
  8
LAYER0014
 62
     7
  2
_OPEN30
 10
-128.5420716968285
 20
21.11728790989494
 30
0.0
 41
1.999998407630662
 42
2.000005728319971
 50
180.0
  0
INSERT
  5
119
  8
LAYER0014
 62
     7
  2
_OPEN30
 10
-116.5420716968285
 20
21.11728790989494
 30
0.0
 41
1.999998407630662
 42
2.000005728319971
 50
360.0
  0
TEXT
  5
11A
  8
LAYER0014
 62
     7
 10
-125.7420716968285
 20
22.71728790989494
 30
0.0
 40
4.0
  1
12
 41
0.8000000000000007
  7
FDASTYLE1
 72
     5
 11
-119.3420716968285
 21
22.71728790989494
 31
0.0
  0
ENDBLK
  5
6C
  8
0
  0
BLOCK
  8
0
  2
DA_IMAGEDIMGROUP_11
 70
     0
 10
0.0
 20
0.0
 30
0.0
  3
DA_IMAGEDIMGROUP_11
  1

  0
LINE
  5
11B
  8
LAYER0014
  6
CONTINUOUS
 62
     7
 10
-116.5420716968285
 20
21.11728790989494
 30
0.0
 11
-107.5420716968285
 21
21.11728790989494
 31
0.0
  0
LINE
  5
11C
  8
LAYER0014
  6
CONTINUOUS
 62
     7
 10
-116.5420716968285
 20
21.11728790989494
 30
0.0
 11
-122.8920716968285
 21
21.11728790989494
 31
0.0
  0
INSERT
  5
11D
  8
LAYER0014
 62
     7
  2
_OPEN30
 10
-116.5420716968285
 20
21.11728790989494
 30
0.0
 41
1.999998407630662
 42
2.000005728319971
 50
360.0
  0
LINE
  5
11E
  8
LAYER0014
  6
CONTINUOUS
 62
     7
 10
-101.1920716968285
 20
21.11728790989494
 30
0.0
 11
-107.5420716968285
 21
21.11728790989494
 31
0.0
  0
INSERT
  5
11F
  8
LAYER0014
 62
     7
  2
_OPEN30
 10
-107.5420716968285
 20
21.11728790989494
 30
0.0
 41
1.999998407630662
 42
2.000005728319971
 50
180.0
  0
TEXT
  5
120
  8
LAYER0014
 62
     7
 10
-113.6420716968285
 20
22.71728790989494
 30
0.0
 40
4.0
  1
9
 41
0.7999999999999972
  7
FDASTYLE1
 72
     5
 11
-110.4420716968285
 21
22.71728790989494
 31
0.0
  0
ENDBLK
  5
6F
  8
0
  0
BLOCK
  8
0
  2
DA_IMAGEDIMGROUP_12
 70
     0
 10
0.0
 20
0.0
 30
0.0
  3
DA_IMAGEDIMGROUP_12
  1

  0
LINE
  5
121
  8
LAYER0014
  6
CONTINUOUS
 62
     7
 10
-81.04207169682849
 20
21.11728790989494
 30
0.0
 11
-78.54207169682849
 21
21.11728790989494
 31
0.0
  0
LINE
  5
122
  8
LAYER0014
  6
CONTINUOUS
 62
     7
 10
-94.57392169682848
 20
21.11728790989494
 30
0.0
 11
-81.04207169682849
 21
21.11728790989494
 31
0.0
  0
INSERT
  5
123
  8
LAYER0014
 62
     7
  2
_OPEN30
 10
-81.04207169682849
 20
21.11728790989494
 30
0.0
 41
1.999998407630662
 42
2.000005728319971
 50
360.0
  0
LINE
  5
124
  8
LAYER0014
  6
CONTINUOUS
 62
     7
 10
-73.54207169682849
 20
21.11728790989494
 30
0.0
 11
-78.54207169682849
 21
21.11728790989494
 31
0.0
  0
INSERT
  5
125
  8
LAYER0014
 62
     7
  2
_OPEN30
 10
-78.54207169682849
 20
21.11728790989494
 30
0.0
 41
1.999998407630662
 42
2.000005728319971
 50
180.0
  0
TEXT
  5
126
  8
LAYER0014
 62
     7
 10
-93.57390707519605
 20
22.13404306220757
 30
0.0
 40
4.0
  1
2.5
 50
-0.1000000000000078
 41
0.8000000000000002
  7
FDASTYLE1
 72
     5
 11
-83.97392169682848
 21
22.11728790989494
 31
0.0
  0
ENDBLK
  5
72
  8
0
  0
BLOCK
  8
0
  2
DA_IMAGEDIMGROUP_13
 70
     0
 10
0.0
 20
0.0
 30
0.0
  3
DA_IMAGEDIMGROUP_13
  1

  0
LINE
  5
127
  8
LAYER0014
  6
CONTINUOUS
 62
     7
 10
-51.54220231206286
 20
90.93021897068596
 30
0.0
 11
-45.5337365833031
 21
90.93021897068596
 31
0.0
  0
LINE
  5
128
  8
LAYER0014
  6
CONTINUOUS
 62
     7
 10
-77.00207169682848
 20
74.93021897068596
 30
0.0
 11
-45.5337365833031
 21
74.93021897068596
 31
0.0
  0
LINE
  5
129
  8
LAYER0014
  6
CONTINUOUS
 62
     7
 10
-46.5337365833031
 20
90.93021897068596
 30
0.0
 11
-46.5337365833031
 21
74.93021897068596
 31
0.0
  0
INSERT
  5
12A
  8
LAYER0014
 62
     7
  2
_OPEN30
 10
-46.5337365833031
 20
90.93021897068596
 30
0.0
 41
1.999998407630662
 42
2.000005728319971
 50
90.0
  0
INSERT
  5
12B
  8
LAYER0014
 62
     7
  2
_OPEN30
 10
-46.5337365833031
 20
74.93021897068596
 30
0.0
 41
1.999998407630662
 42
2.000005728319971
 50
270.0
  0
TEXT
  5
12C
  8
LAYER0014
 62
     7
 10
-52.63373670251239
 20
78.13021897068595
 30
0.0
 40
4.0
  1
MIN
 50
90.0
 41
0.8000000000000019
  7
FDASTYLE1
 72
     5
 11
-52.63373670251239
 21
87.73021897068597
 31
0.0
  0
TEXT
  5
12D
  8
LAYER0014
 62
     7
 10
-48.1337365833031
 20
78.13021897068595
 30
0.0
 40
4.0
  1
 10
 50
90.0
 41
0.8000000000000019
  7
FDASTYLE1
 72
     5
 11
-48.1337365833031
 21
87.73021897068597
 31
0.0
  0
ENDBLK
  5
75
  8
0
  0
BLOCK
  8
0
  2
DA_IMAGEDIMGROUP_14
 70
     0
 10
0.0
 20
0.0
 30
0.0
  3
DA_IMAGEDIMGROUP_14
  1

  0
LINE
  5
12E
  8
LAYER0014
  6
CONTINUOUS
 62
     7
 10
-157.5420716968285
 20
72.47021897068596
 30
0.0
 11
-157.5420716968285
 21
163.0419285654125
 31
0.0
  0
LINE
  5
12F
  8
LAYER0014
  6
CONTINUOUS
 62
     7
 10
-166.3420594897972
 20
130.970218970686
 30
0.0
 11
-166.3420594897972
 21
163.0419285654125
 31
0.0
  0
LINE
  5
130
  8
LAYER0014
  6
CONTINUOUS
 62
     7
 10
-157.5420716968285
 20
160.7559330820141
 30
0.0
 11
-166.3420747485863
 21
160.7559330820141
 31
0.0
  0
LINE
  5
131
  8
LAYER0014
  6
CONTINUOUS
 62
     7
 10
-157.5420716968285
 20
160.7559330820141
 30
0.0
 11
-151.1920716968285
 21
160.7559330820141
 31
0.0
  0
INSERT
  5
132
  8
LAYER0014
 62
     7
  2
_OPEN30
 10
-157.5420716968285
 20
160.7559330820141
 30
0.0
 41
1.999998407630662
 42
2.000005728319971
 50
180.0
  0
LINE
  5
133
  8
LAYER0014
  6
CONTINUOUS
 62
     7
 10
-172.6920747485863
 20
160.7559330820141
 30
0.0
 11
-166.3420747485863
 21
160.7559330820141
 31
0.0
  0
INSERT
  5
134
  8
LAYER0014
 62
     7
  2
_OPEN30
 10
-166.3420747485863
 20
160.7559330820141
 30
0.0
 41
1.999998407630662
 42
2.000005728319971
 50
360.0
  0
TEXT
  5
135
  8
LAYER0014
 62
     7
 10
-194.4103761401879
 20
162.3559330820141
 30
0.0
 40
4.0
  1
MAX21.3
 41
0.7999999999999992
  7
FDASTYLE1
 72
     5
 11
-172.0103761401879
 21
162.3559330820141
 31
0.0
  0
ENDBLK
  5
78
  8
0
  0
BLOCK
  8
0
  2
DA_IMAGEDIMGROUP_15
 70
     0
 10
0.0
 20
0.0
 30
0.0
  3
DA_IMAGEDIMGROUP_15
  1

  0
LINE
  5
136
  8
LAYER0014
  6
CONTINUOUS
 62
     7
 10
-79.54207169682849
 20
143.470218970686
 30
0.0
 11
-79.54207169682849
 21
162.7712376474438
 31
0.0
  0
LINE
  5
137
  8
LAYER0014
  6
CONTINUOUS
 62
     7
 10
-78.54207169682849
 20
141.470218970686
 30
0.0
 11
-78.54207169682849
 21
162.7712376474438
 31
0.0
  0
LINE
  5
138
  8
LAYER0014
  6
CONTINUOUS
 62
     7
 10
-79.54207169682849
 20
160.4852421640453
 30
0.0
 11
-78.54207169682849
 21
160.4852421640453
 31
0.0
  0
LINE
  5
139
  8
LAYER0014
  6
CONTINUOUS
 62
     7
 10
-79.54207169682849
 20
160.4852421640453
 30
0.0
 11
-85.89207169682848
 21
160.4852421640453
 31
0.0
  0
INSERT
  5
13A
  8
LAYER0014
 62
     7
  2
_OPEN30
 10
-79.54207169682849
 20
160.4852421640453
 30
0.0
 41
1.999998407630662
 42
2.000005728319971
 50
360.0
  0
LINE
  5
13B
  8
LAYER0014
  6
CONTINUOUS
 62
     7
 10
-72.19207169682849
 20
160.4852421640453
 30
0.0
 11
-78.54207169682849
 21
160.4852421640453
 31
0.0
  0
INSERT
  5
13C
  8
LAYER0014
 62
     7
  2
_OPEN30
 10
-78.54207169682849
 20
160.4852421640453
 30
0.0
 41
1.999998407630662
 42
2.000005728319971
 50
180.0
  0
TEXT
  5
13D
  8
LAYER0014
 62
     7
 10
-75.17664550891838
 20
162.088032252492
 30
0.0
 40
4.0
  1
1
 50
-0.1000000000000078
 41
0.7999999999999989
  7
FDASTYLE1
 72
     5
 11
-71.97665038279587
 21
162.0824472017212
 31
0.0
  0
ENDBLK
  5
7B
  8
0
  0
BLOCK
  8
0
  2
DC_GROUP_2
 70
     0
 10
0.0
 20
0.0
 30
0.0
  3
DC_GROUP_2
  1

  0
LINE
  5
13E
  8
LAYER0014
  6
CONTINUOUS
 62
     7
 10
-79.53475040699385
 20
135.3107686554386
 30
0.0
 11
-60.31550088993953
 21
160.4852766186441
 31
0.0
  0
INSERT
  5
13F
  8
LAYER0014
 62
     7
  2
_OPEN30
 10
-79.53475040699385
 20
135.3107686554386
 30
0.0
 41
1.999998407630662
 42
2.000005728319971
 50
232.6404046011313
  0
LINE
  5
140
  8
LAYER0014
  6
CONTINUOUS
 62
     7
 10
-60.31550156743396
 20
160.4852879404125
 30
0.0
 11
-13.68583237798083
 21
160.4852879404125
 31
0.0
  0
TEXT
  5
141
  8
LAYER0014
 62
     7
 10
-59.7740815845238
 20
162.0852879404125
 30
0.0
 40
4.0
  1
ｾﾚｰｼｮﾝP1.5山60ﾟ
 41
0.7887323943661972
  7
FDASTYLE1
 72
     5
 11
-14.9740815845238
 21
162.0852879404125
 31
0.0
  0
ENDBLK
  5
7E
  8
0
  0
BLOCK
  8
0
  2
DA_IMAGEDIMGROUP_16
 70
     0
 10
0.0
 20
0.0
 30
0.0
  3
DA_IMAGEDIMGROUP_16
  1

  0
LINE
  5
142
  8
LAYER0014
  6
CONTINUOUS
 62
     7
 10
31.81051766988196
 20
-15.52759865149567
 30
0.0
 11
18.3695467851208
 21
-23.28774456500381
 31
0.0
  0
LINE
  5
143
  8
LAYER0014
  6
CONTINUOUS
 62
     7
 10
38.81051765276436
 20
-27.65195396765801
 30
0.0
 11
25.3695467680032
 21
-35.41209988116614
 31
0.0
  0
LINE
  5
144
  8
LAYER0014
  6
CONTINUOUS
 62
     7
 10
20.34928982279706
 20
-22.14474472272936
 30
0.0
 11
17.17429036974929
 21
-16.64548309291519
 31
0.0
  0
INSERT
  5
145
  8
LAYER0014
 62
     7
  2
_OPEN30
 10
20.34928982279706
 20
-22.14474472272936
 30
0.0
 41
1.999998407630662
 42
2.000005728319971
 50
299.9999943014067
  0
LINE
  5
146
  8
LAYER0014
  6
CONTINUOUS
 62
     7
 10
30.52428802414729
 20
-39.76836262237995
 30
0.0
 11
27.34928857109952
 21
-34.26910099256578
 31
0.0
  0
INSERT
  5
147
  8
LAYER0014
 62
     7
  2
_OPEN30
 10
27.34928857109952
 20
-34.26910099256578
 30
0.0
 41
1.999998407630662
 42
2.000005728319971
 50
119.9999943014067
  0
LINE
  5
148
  8
LAYER0014
  6
CONTINUOUS
 62
     7
 10
20.34928982279706
 20
-22.14474472272936
 30
0.0
 11
27.34928857109952
 21
-34.26910099256578
 31
0.0
  0
TEXT
  5
149
  8
LAYER0014
 62
     7
 10
22.03492637110162
 20
-21.86436444118739
 30
0.0
 40
4.0
  1
14H8
 50
-59.99999999999999
 41
0.7999999999999998
  7
FDASTYLE1
 72
     5
 11
28.43492637110161
 21
-32.9494896096282
 31
0.0
  0
ENDBLK
  5
81
  8
0
  0
BLOCK
  8
0
  2
DA_IMAGEDIMGROUP_17
 70
     0
 10
0.0
 20
0.0
 30
0.0
  3
DA_IMAGEDIMGROUP_17
  1

  0
LINE
  5
14A
  8
LAYER0014
  6
CONTINUOUS
 62
     7
 10
26.56051677397924
 20
-6.434337741964702
 30
0.0
 11
1.221191847245166
 21
-21.06400581606678
 31
0.0
  0
LINE
  5
14B
  8
LAYER0014
  6
CONTINUOUS
 62
     7
 10
44.06053379954258
 20
-36.74524511149207
 30
0.0
 11
18.72120703899014
 21
-51.37490612658897
 31
0.0
  0
LINE
  5
14C
  8
LAYER0014
  6
CONTINUOUS
 62
     7
 10
3.200926430938523
 20
-19.92101163051498
 30
0.0
 11
20.70092529845016
 21
-50.2319039569185
 31
0.0
  0
INSERT
  5
14D
  8
LAYER0014
 62
     7
  2
_OPEN30
 10
3.200926430938523
 20
-19.92101163051498
 30
0.0
 41
1.999998407630662
 42
2.000005728319971
 50
119.9999957801861
  0
INSERT
  5
14E
  8
LAYER0014
 62
     7
  2
_OPEN30
 10
20.70092529845016
 20
-50.2319039569185
 30
0.0
 41
1.999998407630662
 42
2.000005728319971
 50
299.9999957801861
  0
TEXT
  5
14F
  8
LAYER0014
 62
     7
 10
11.73657279444146
 20
-31.50516401332689
 30
0.0
 40
4.0
  1
35
 50
-59.99999999999999
 41
0.7999999999999998
  7
FDASTYLE1
 72
     5
 11
14.93657279444146
 21
-37.0477265975473
 31
0.0
  0
ENDBLK
  5
84
  8
0
  0
BLOCK
  8
0
  2
DC_GROUP_3
 70
     0
 10
0.0
 20
0.0
 30
0.0
  3
DC_GROUP_3
  1

  0
LINE
  5
150
  8
LAYER0014
  6
CONTINUOUS
 62
     7
 10
-65.24884365043543
 20
126.1254666240535
 30
0.0
 11
-49.97536620854697
 21
148.7302228644158
 31
0.0
  0
INSERT
  5
156
  8
LAYER0014
 62
     7
  2
_DOTBLANK
 10
-65.80870089802482
 20
125.2968775447617
 30
0.0
 41
2.0
 42
2.0
 50
235.9540739622371
  0
LINE
  5
157
  8
LAYER0014
  6
CONTINUOUS
 62
     7
 10
-49.97536790044177
 20
148.7302220224438
 30
0.0
 11
-38.54569565923083
 21
148.7302220224438
 31
0.0
  0
TEXT
  5
158
  8
LAYER0014
 62
     7
 10
-49.34204041631091
 20
150.3302220224438
 30
0.0
 40
4.0
  1
M10
 41
0.8000000000000002
  7
FDASTYLE1
 72
     5
 11
-39.74204041631091
 21
150.3302220224438
 31
0.0
  0
ENDBLK
  5
87
  8
0
  0
BLOCK
  8
0
  2
DA_IMAGEDIMGROUP_18
 70
     0
 10
0.0
 20
0.0
 30
0.0
  3
DA_IMAGEDIMGROUP_18
  1

  0
LINE
  5
159
  8
LAYER0014
  6
CONTINUOUS
 62
     7
 10
130.6079730492322
 20
151.2702441114996
 30
0.0
 11
130.608054124358
 21
157.7465252396283
 31
0.0
  0
LINE
  5
15A
  8
LAYER0014
  6
CONTINUOUS
 62
     7
 10
70.70539808716367
 20
93.33277356895943
 30
0.0
 11
42.70306476814545
 21
121.3351470151488
 31
0.0
  0
ARC
  5
15B
  8
LAYER0014
  6
CONTINUOUS
 62
     7
 10
130.607952717234
 20
33.43023041477775
 30
0.0
 40
123.3162994384766
 50
89.99996152334315
 51
134.9999866812443
  0
INSERT
  5
15C
  8
LAYER0014
 62
     7
  2
_OPEN30
 10
130.6080355295978
 20
156.7465298532265
 30
0.0
 41
1.999998407630662
 42
2.000005728319971
 50
0.4645858123034548
  0
INSERT
  5
15D
  8
LAYER0014
 62
     7
  2
_OPEN30
 10
43.41018142312069
 20
120.628042248215
 30
0.0
 41
1.999998407630662
 42
2.000005728319971
 50
224.5353623922838
  0
TEXT
  5
15E
  8
LAYER0014
 62
     7
 10
78.36993639517695
 20
147.0009738479375
 30
0.0
 40
4.0
  1
45ﾟ
 50
22.5
 41
0.7999999999999989
  7
FDASTYLE1
 72
     5
 11
87.23917990728529
 21
150.6747347986424
 31
0.0
  0
ENDBLK
  5
8A
  8
0
  0
BLOCK
  8
0
  2
DA_IMAGEDIMGROUP_19
 70
     0
 10
0.0
 20
0.0
 30
0.0
  3
DA_IMAGEDIMGROUP_19
  1

  0
LINE
  5
15F
  8
LAYER0014
  6
CONTINUOUS
 62
     7
 10
70.70538189886655
 20
93.33277987809855
 30
0.0
 11
42.70301729453496
 21
121.335092553175
 31
0.0
  0
LINE
  5
160
  8
LAYER0014
  6
CONTINUOUS
 62
     7
 10
48.77956258597509
 20
55.3560642459296
 30
0.0
 11
10.52759941513
 21
65.60558353447496
 31
0.0
  0
ARC
  5
161
  8
LAYER0014
  6
CONTINUOUS
 62
     7
 10
130.6079679760231
 20
33.43021134129143
 30
0.0
 40
123.3163299560547
 50
135.0000276623794
 51
165.0000353273946
  0
INSERT
  5
162
  8
LAYER0014
 62
     7
  2
_OPEN30
 10
43.41011273400001
 20
120.6279823851762
 30
0.0
 41
1.999998407630662
 42
2.000005728319971
 50
45.46465183635723
  0
INSERT
  5
163
  8
LAYER0014
 62
     7
  2
_OPEN30
 10
11.49352038918258
 20
65.34675266256213
 30
0.0
 41
1.999998407630662
 42
2.000005728319971
 50
254.5354111534166
  0
TEXT
  5
164
  8
LAYER0014
 62
     7
 10
20.02722807154512
 20
91.73140860478627
 30
0.0
 40
4.0
  1
30ﾟ
 50
59.99999999999999
 41
0.8000000000000012
  7
FDASTYLE1
 72
     5
 11
24.82722807154513
 21
100.0452524811169
 31
0.0
  0
ENDBLK
  5
8D
  8
0
  0
BLOCK
  8
0
  2
DC_GROUP_4
 70
     0
 10
0.0
 20
0.0
 30
0.0
  3
DC_GROUP_4
  1

  0
LINE
  5
165
  8
LAYER0014
  6
CONTINUOUS
 62
     7
 10
106.7250609758998
 20
-38.71410473387843
 30
0.0
 11
82.13796351237426
 21
-83.11410715349754
 31
0.0
  0
INSERT
  5
166
  8
LAYER0014
 62
     7
  2
_OPEN30
 10
106.7250609758998
 20
-38.71410473387843
 30
0.0
 41
1.999998407630662
 42
2.000005728319971
 50
61.0239197188054
  0
LINE
  5
167
  8
LAYER0014
  6
CONTINUOUS
 62
     7
 10
82.13796675531995
 20
-83.11410781154061
 30
0.0
 11
51.50829756586683
 21
-83.11410781154061
 31
0.0
  0
TEXT
  5
168
  8
LAYER0014
 62
     7
 10
52.86054976313245
 20
-81.51410781154061
 30
0.0
 40
4.0
  1
PCD133.35
 41
0.7999999999999999
  7
FDASTYLE1
 72
     5
 11
81.66054976313245
 21
-81.51410781154061
 31
0.0
  0
ENDBLK
  5
90
  8
0
  0
BLOCK
  8
0
  2
DC_GROUP_5
 70
     0
 10
0.0
 20
0.0
 30
0.0
  3
DC_GROUP_5
  1

  0
LINE
  5
169
  8
LAYER0014
  6
CONTINUOUS
 62
     7
 10
133.4605511237535
 20
-14.84313704966777
 30
0.0
 11
178.3379755201266
 21
-83.11410370606151
 31
0.0
  0
INSERT
  5
16A
  8
LAYER0014
 62
     7
  2
_OPEN30
 10
133.4605511237535
 20
-14.84313704966777
 30
0.0
 41
1.999998407630662
 42
2.000005728319971
 50
123.3186285852245
  0
LINE
  5
16B
  8
LAYER0014
  6
CONTINUOUS
 62
     7
 10
178.3379789623512
 20
-83.11410018214608
 30
0.0
 11
222.9600797924293
 21
-83.11410018214608
 31
0.0
  0
TEXT
  5
16C
  8
LAYER0014
 62
     7
 10
179.5315061840309
 20
-81.51410781154061
 30
0.0
 40
4.0
  1
3-M8×15 PCD90
 41
0.7878787878787879
  7
FDASTYLE1
 72
     5
 11
221.1315061840309
 21
-81.51410781154061
 31
0.0
  0
ENDBLK
  5
93
  8
0
  0
BLOCK
  8
0
  2
DA_IMAGEDIMGROUP_20
 70
     0
 10
0.0
 20
0.0
 30
0.0
  3
DA_IMAGEDIMGROUP_20
  1

  0
LINE
  5
16D
  8
LAYER0014
  6
CONTINUOUS
 62
     7
 10
-76.00207169682848
 20
130.930218970686
 30
0.0
 11
-33.77122437627185
 21
130.930218970686
 31
0.0
  0
LINE
  5
16E
  8
LAYER0014
  6
CONTINUOUS
 62
     7
 10
-42.84161027104724
 20
80.93021897068596
 30
0.0
 11
-33.77122437627185
 21
80.93021897068596
 31
0.0
  0
LINE
  5
16F
  8
LAYER0014
  6
CONTINUOUS
 62
     7
 10
-34.77122437627185
 20
130.930218970686
 30
0.0
 11
-34.77122437627185
 21
80.93021897068596
 31
0.0
  0
INSERT
  5
170
  8
LAYER0014
 62
     7
  2
_OPEN30
 10
-34.77122437627185
 20
130.930218970686
 30
0.0
 41
1.999998407630662
 42
2.000005728319971
 50
90.0
  0
INSERT
  5
171
  8
LAYER0014
 62
     7
  2
_OPEN30
 10
-34.77122437627185
 20
80.93021897068596
 30
0.0
 41
1.999998407630662
 42
2.000005728319971
 50
270.0
  0
TEXT
  5
172
  8
LAYER0014
 62
     7
 10
-36.37122437627185
 20
102.730218970686
 30
0.0
 40
4.0
  1
50
 50
90.0
 41
0.8000000000000007
  7
FDASTYLE1
 72
     5
 11
-36.37122437627185
 21
109.130218970686
 31
0.0
  0
ENDBLK
  5
96
  8
0
  0
BLOCK
  8
0
  2
DA_IMAGEDIMGROUP_21
 70
     0
 10
0.0
 20
0.0
 30
0.0
  3
DA_IMAGEDIMGROUP_21
  1

  0
LINE
  5
173
  8
LAYER0014
  6
CONTINUOUS
 62
     7
 10
-51.54220231206286
 20
90.93021897068596
 30
0.0
 11
-45.5337365833031
 21
90.93021897068596
 31
0.0
  0
LINE
  5
174
  8
LAYER0014
  6
CONTINUOUS
 62
     7
 10
-51.54220231206286
 20
120.930218970686
 30
0.0
 11
-45.5337365833031
 21
120.930218970686
 31
0.0
  0
LINE
  5
175
  8
LAYER0014
  6
CONTINUOUS
 62
     7
 10
-46.5337365833031
 20
90.93021897068596
 30
0.0
 11
-46.5337365833031
 21
120.930218970686
 31
0.0
  0
INSERT
  5
176
  8
LAYER0014
 62
     7
  2
_OPEN30
 10
-46.5337365833031
 20
90.93021897068596
 30
0.0
 41
1.999998407630662
 42
2.000005728319971
 50
270.0
  0
INSERT
  5
177
  8
LAYER0014
 62
     7
  2
_OPEN30
 10
-46.5337365833031
 20
120.930218970686
 30
0.0
 41
1.999998407630662
 42
2.000005728319971
 50
90.0
  0
TEXT
  5
178
  8
LAYER0014
 62
     7
 10
-48.1337365833031
 20
102.730218970686
 30
0.0
 40
4.0
  1
30
 50
90.0
 41
0.8000000000000007
  7
FDASTYLE1
 72
     5
 11
-48.1337365833031
 21
109.130218970686
 31
0.0
  0
ENDBLK
  5
99
  8
0
  0
BLOCK
  8
0
  2
DA_IMAGEDIMGROUP_22
 70
     0
 10
0.0
 20
0.0
 30
0.0
  3
DA_IMAGEDIMGROUP_22
  1

  0
LINE
  5
179
  8
LAYER0014
  6
CONTINUOUS
 62
     7
 10
-129.0820716968285
 20
64.68021897068596
 30
0.0
 11
-203.9792360034691
 21
64.68021897068596
 31
0.0
  0
LINE
  5
17A
  8
LAYER0014
  6
CONTINUOUS
 62
     7
 10
-129.0820716968285
 20
2.180218970685957
 30
0.0
 11
-203.9792360034691
 21
2.180218970685957
 31
0.0
  0
LINE
  5
17B
  8
LAYER0014
  6
CONTINUOUS
 62
     7
 10
-202.9792360034691
 20
64.68021897068596
 30
0.0
 11
-202.9792360034691
 21
2.180218970685957
 31
0.0
  0
INSERT
  5
17C
  8
LAYER0014
 62
     7
  2
_OPEN30
 10
-202.9792360034691
 20
64.68021897068596
 30
0.0
 41
1.999998407630662
 42
2.000005728319971
 50
90.0
  0
INSERT
  5
17D
  8
LAYER0014
 62
     7
  2
_OPEN30
 10
-202.9792360034691
 20
2.180218970685957
 30
0.0
 41
1.999998407630662
 42
2.000005728319971
 50
270.0
  0
TEXT
  5
17E
  8
LAYER0014
 62
     7
 10
-204.5792360034691
 20
22.23021897068597
 30
0.0
 40
4.0
  1
φ62.5H7
 50
90.0
 41
0.777777777777777
  7
FDASTYLE1
 72
     5
 11
-204.5792360034691
 21
44.63021897068595
 31
0.0
  0
ENDBLK
  5
9C
  8
0
  0
BLOCK
  8
0
  2
DA_IMAGEDIMGROUP_23
 70
     0
 10
0.0
 20
0.0
 30
0.0
  3
DA_IMAGEDIMGROUP_23
  1

  0
LINE
  5
17F
  8
LAYER0014
  6
CONTINUOUS
 62
     7
 10
-159.0820716968285
 20
58.43021897068596
 30
0.0
 11
-191.6544069019066
 21
58.43021897068596
 31
0.0
  0
LINE
  5
180
  8
LAYER0014
  6
CONTINUOUS
 62
     7
 10
-159.0820716968285
 20
8.430218970685957
 30
0.0
 11
-191.6544069019066
 21
8.430218970685957
 31
0.0
  0
LINE
  5
181
  8
LAYER0014
  6
CONTINUOUS
 62
     7
 10
-190.6544069019066
 20
58.43021897068596
 30
0.0
 11
-190.6544069019066
 21
8.430218970685957
 31
0.0
  0
INSERT
  5
182
  8
LAYER0014
 62
     7
  2
_OPEN30
 10
-190.6544069019066
 20
58.43021897068596
 30
0.0
 41
1.999998407630662
 42
2.000005728319971
 50
90.0
  0
INSERT
  5
183
  8
LAYER0014
 62
     7
  2
_OPEN30
 10
-190.6544069019066
 20
8.430218970685957
 30
0.0
 41
1.999998407630662
 42
2.000005728319971
 50
270.0
  0
TEXT
  5
184
  8
LAYER0014
 62
     7
 10
-192.2544069019066
 20
25.43021898260687
 30
0.0
 40
4.0
  1
φ50
 50
90.0
 41
0.7500000000000018
  7
FDASTYLE1
 72
     5
 11
-192.2544069019066
 21
35.0302189826069
 31
0.0
  0
TEXT
  5
185
  8
LAYER0014
 62
     7
 10
-194.4544069019066
 20
36.0302189826069
 30
0.0
 40
2.2
  1
+0.5
 50
90.0
 41
0.7999999999999991
  7
FDASTYLE1
 72
     5
 11
-194.4544069019066
 21
43.07021898260689
 31
0.0
  0
TEXT
  5
186
  8
LAYER0014
 62
     7
 10
-192.0544069019066
 20
36.0302189826069
 30
0.0
 40
2.2
  1
 0
 50
90.0
 41
0.8000000000000023
  7
FDASTYLE1
 72
     5
 11
-192.0544069019066
 21
39.55021898260691
 31
0.0
  0
ENDBLK
  5
9F
  8
0
  0
BLOCK
  8
0
  2
DA_IMAGEDIMGROUP_24
 70
     0
 10
0.0
 20
0.0
 30
0.0
  3
DA_IMAGEDIMGROUP_24
  1

  0
LINE
  5
187
  8
LAYER0014
  6
CONTINUOUS
 62
     7
 10
29.65062532829007
 20
-60.65324046976824
 30
0.0
 11
40.21530913730634
 21
-54.55371731925376
 31
0.0
  0
LINE
  5
188
  8
LAYER0014
  6
CONTINUOUS
 62
     7
 10
38.6506215135928
 20
-76.24169085085353
 30
0.0
 11
49.21530532260907
 21
-70.14216770033906
 31
0.0
  0
LINE
  5
189
  8
LAYER0014
  6
CONTINUOUS
 62
     7
 10
39.34928374906552
 20
-55.05371731925376
 30
0.0
 11
48.34927993436826
 21
-70.64216770033906
 31
0.0
  0
INSERT
  5
18A
  8
LAYER0014
 62
     7
  2
_OPEN30
 10
39.34928374906552
 20
-55.05371731925376
 30
0.0
 41
1.999998407630662
 42
2.000005728319971
 50
120.0000004452921
  0
INSERT
  5
18B
  8
LAYER0014
 62
     7
  2
_OPEN30
 10
48.34927993436826
 20
-70.64216770033906
 30
0.0
 41
1.999998407630662
 42
2.000005728319971
 50
300.0000004452921
  0
TEXT
  5
18C
  8
LAYER0014
 62
     7
 10
42.83492255640435
 20
-57.89101918636358
 30
0.0
 40
4.0
  1
φ18
 50
-59.99999999999999
 41
0.7500000000000009
  7
FDASTYLE1
 72
     5
 11
47.63492255640436
 21
-66.2048630626942
 31
0.0
  0
ENDBLK
  5
A2
  8
0
  0
BLOCK
  8
0
  2
DA_IMAGEDIMGROUP_25
 70
     0
 10
0.0
 20
0.0
 30
0.0
  3
DA_IMAGEDIMGROUP_25
  1

  0
LINE
  5
18D
  8
LAYER0014
  6
CONTINUOUS
 62
     7
 10
90.60795271723401
 20
120.9963496469555
 30
0.0
 11
90.60795271723401
 21
165.1397679208813
 31
0.0
  0
LINE
  5
18E
  8
LAYER0014
  6
CONTINUOUS
 62
     7
 10
130.607952717234
 20
151.2702372812328
 30
0.0
 11
130.607952717234
 21
165.1397679208813
 31
0.0
  0
LINE
  5
18F
  8
LAYER0014
  6
CONTINUOUS
 62
     7
 10
90.60795271723401
 20
164.1397679208813
 30
0.0
 11
130.607952717234
 21
164.1397679208813
 31
0.0
  0
INSERT
  5
190
  8
LAYER0014
 62
     7
  2
_OPEN30
 10
90.60795271723401
 20
164.1397679208813
 30
0.0
 41
1.999998407630662
 42
2.000005728319971
 50
180.0
  0
INSERT
  5
191
  8
LAYER0014
 62
     7
  2
_OPEN30
 10
130.607952717234
 20
164.1397679208813
 30
0.0
 41
1.999998407630662
 42
2.000005728319971
 50
360.0
  0
TEXT
  5
192
  8
LAYER0014
 62
     7
 10
107.407952717234
 20
165.7397679208813
 30
0.0
 40
4.0
  1
40
 41
0.8000000000000007
  7
FDASTYLE1
 72
     5
 11
113.807952717234
 21
165.7397679208813
 31
0.0
  0
ENDBLK
  5
A5
  8
0
  0
BLOCK
  8
0
  2
DA_IMAGEDIMGROUP_26
 70
     0
 10
0.0
 20
0.0
 30
0.0
  3
DA_IMAGEDIMGROUP_26
  1

  0
LINE
  5
193
  8
LAYER0014
  6
CONTINUOUS
 62
     7
 10
52.93815001337659
 20
104.430218970686
 30
0.0
 11
1.327260616709111
 21
104.430218970686
 31
0.0
  0
LINE
  5
194
  8
LAYER0014
  6
CONTINUOUS
 62
     7
 10
12.25128706781995
 20
33.43021897068596
 30
0.0
 11
1.327260616709111
 21
33.43021897068596
 31
0.0
  0
LINE
  5
195
  8
LAYER0014
  6
CONTINUOUS
 62
     7
 10
2.32726085512769
 20
104.430218970686
 30
0.0
 11
2.32726085512769
 21
33.43021897068596
 31
0.0
  0
INSERT
  5
196
  8
LAYER0014
 62
     7
  2
_OPEN30
 10
2.32726085512769
 20
104.430218970686
 30
0.0
 41
1.999998407630662
 42
2.000005728319971
 50
90.0
  0
INSERT
  5
197
  8
LAYER0014
 62
     7
  2
_OPEN30
 10
2.32726085512769
 20
33.43021897068596
 30
0.0
 41
1.999998407630662
 42
2.000005728319971
 50
270.0
  0
TEXT
  5
198
  8
LAYER0014
 62
     7
 10
0.7272608551276909
 20
65.73021897068595
 30
0.0
 40
4.0
  1
71
 50
90.0
 41
0.8000000000000007
  7
FDASTYLE1
 72
     5
 11
0.7272608551276909
 21
72.13021897068596
 31
0.0
  0
ENDBLK
  5
A8
  8
0
  0
BLOCK
  8
0
  2
DA_IMAGEDIMGROUP_27
 70
     0
 10
0.0
 20
0.0
 30
0.0
  3
DA_IMAGEDIMGROUP_27
  1

  0
LINE
  5
199
  8
LAYER0014
  6
CONTINUOUS
 62
     7
 10
-170.5420716968285
 20
-118.864324884817
 30
0.0
 11
-166.3420747485863
 21
-118.864324884817
 31
0.0
  0
LINE
  5
19A
  8
LAYER0014
  6
CONTINUOUS
 62
     7
 10
-170.5420716968285
 20
-76.60978102931405
 30
0.0
 11
-170.5420716968285
 21
-119.864324884817
 31
0.0
  0
LINE
  5
19B
  8
LAYER0014
  6
CONTINUOUS
 62
     7
 10
-166.3420594897972
 20
-64.10978102931405
 30
0.0
 11
-166.3420750272625
 21
-119.864324884817
 31
0.0
  0
LINE
  5
19C
  8
LAYER0014
  6
CONTINUOUS
 62
     7
 10
-170.5420716968285
 20
-118.864324884817
 30
0.0
 11
-184.3763486507386
 21
-118.864324884817
 31
0.0
  0
INSERT
  5
19D
  8
LAYER0014
 62
     7
  2
_OPEN30
 10
-170.5420716968285
 20
-118.864324884817
 30
0.0
 41
1.999998407630662
 42
2.000005728319971
 50
360.0
  0
LINE
  5
19E
  8
LAYER0014
  6
CONTINUOUS
 62
     7
 10
-159.9920747485863
 20
-118.864324884817
 30
0.0
 11
-166.3420747485863
 21
-118.864324884817
 31
0.0
  0
INSERT
  5
19F
  8
LAYER0014
 62
     7
  2
_OPEN30
 10
-166.3420747485863
 20
-118.864324884817
 30
0.0
 41
1.999998407630662
 42
2.000005728319971
 50
180.0
  0
TEXT
  5
1A0
  8
LAYER0014
 62
     7
 10
-185.0299456887518
 20
-117.2559497455994
 30
0.0
 40
4.0
  1
4.2
 50
-0.1000000000000078
 41
0.8000000000000025
  7
FDASTYLE1
 72
     5
 11
-175.4299603103843
 21
-117.2727048979121
 31
0.0
  0
ENDBLK
  5
AB
  8
0
  0
BLOCK
  8
0
  2
DA_IMAGEDIMGROUP_28
 70
     0
 10
0.0
 20
0.0
 30
0.0
  3
DA_IMAGEDIMGROUP_28
  1

  0
LINE
  5
1A1
  8
LAYER0014
  6
CONTINUOUS
 62
     7
 10
-166.3420747485863
 20
-118.864324884817
 30
0.0
 11
-78.54207169682849
 21
-118.864324884817
 31
0.0
  0
INSERT
  5
1A2
  8
LAYER0014
 62
     7
  2
_OPEN30
 10
-166.3420747485863
 20
-118.864324884817
 30
0.0
 41
1.999998407630662
 42
2.000005728319971
 50
180.0
  0
INSERT
  5
1A3
  8
LAYER0014
 62
     7
  2
_OPEN30
 10
-78.54207169682849
 20
-118.864324884817
 30
0.0
 41
1.999998407630662
 42
2.000005728319971
 50
360.0
  0
LINE
  5
1A4
  8
LAYER0014
  6
CONTINUOUS
 62
     7
 10
-166.3420594897972
 20
-64.10978102931405
 30
0.0
 11
-166.3420750272625
 21
-119.864324884817
 31
0.0
  0
LINE
  5
1A5
  8
LAYER0014
  6
CONTINUOUS
 62
     7
 10
-78.54207169682849
 20
-74.60978102931405
 30
0.0
 11
-78.54207169682849
 21
-119.864324884817
 31
0.0
  0
TEXT
  5
1A6
  8
LAYER0014
 62
     7
 10
-128.8420655933129
 20
-117.264324884817
 30
0.0
 40
4.0
  1
87.8
 41
0.8000000000000007
  7
FDASTYLE1
 72
     5
 11
-116.0420655933129
 21
-117.264324884817
 31
0.0
  0
ENDBLK
  5
AE
  8
0
  0
BLOCK
  8
0
  2
DA_IMAGEDIMGROUP_29
 70
     0
 10
0.0
 20
0.0
 30
0.0
  3
DA_IMAGEDIMGROUP_29
  1

  0
LINE
  5
1A7
  8
LAYER0014
  6
CONTINUOUS
 62
     7
 10
-170.5420716968285
 20
-129.8296532733278
 30
0.0
 11
-78.54207169682849
 21
-129.8296532733278
 31
0.0
  0
INSERT
  5
1A8
  8
LAYER0014
 62
     7
  2
_OPEN30
 10
-170.5420716968285
 20
-129.8296532733278
 30
0.0
 41
1.999998407630662
 42
2.000005728319971
 50
180.0
  0
INSERT
  5
1A9
  8
LAYER0014
 62
     7
  2
_OPEN30
 10
-78.54207169682849
 20
-129.8296532733278
 30
0.0
 41
1.999998407630662
 42
2.000005728319971
 50
360.0
  0
LINE
  5
1AA
  8
LAYER0014
  6
CONTINUOUS
 62
     7
 10
-170.5420716968285
 20
-76.60978102931405
 30
0.0
 11
-170.5420716968285
 21
-130.8296532733278
 31
0.0
  0
LINE
  5
1AB
  8
LAYER0014
  6
CONTINUOUS
 62
     7
 10
-78.54207169682849
 20
-74.60978102931405
 30
0.0
 11
-78.54207169682849
 21
-130.8296532733278
 31
0.0
  0
TEXT
  5
1AC
  8
LAYER0014
 62
     7
 10
-127.7420716968285
 20
-128.2296532733278
 30
0.0
 40
4.0
  1
92
 41
0.8000000000000007
  7
FDASTYLE1
 72
     5
 11
-121.3420716968285
 21
-128.2296532733278
 31
0.0
  0
ENDBLK
  5
B1
  8
0
  0
BLOCK
  8
0
  2
DA_IMAGEDIMGROUP_30
 70
     0
 10
0.0
 20
0.0
 30
0.0
  3
DA_IMAGEDIMGROUP_30
  1

  0
LINE
  5
1AD
  8
LAYER0014
  6
CONTINUOUS
 62
     7
 10
249.1312901195778
 20
33.43024376621818
 30
0.0
 11
254.9242826732887
 21
33.43024376621818
 31
0.0
  0
LINE
  5
1AE
  8
LAYER0014
  6
CONTINUOUS
 62
     7
 10
227.9352831049887
 20
89.6221718977036
 30
0.0
 11
238.2690458854248
 21
95.58839442419233
 31
0.0
  0
ARC
  5
1AF
  8
LAYER0014
  6
CONTINUOUS
 62
     7
 10
130.6079679760231
 20
33.43021897068596
 30
0.0
 40
123.3163223266602
 50
0.0000115206110703
 51
30.00001108010981
  0
INSERT
  5
1B0
  8
LAYER0014
 62
     7
  2
_OPEN30
 10
253.9242903026807
 20
33.43024376621889
 30
0.0
 41
1.999998407630662
 42
2.000005728319971
 50
270.4646357233341
  0
INSERT
  5
1B1
  8
LAYER0014
 62
     7
  2
_OPEN30
 10
237.4030238884526
 20
95.08840078651474
 30
0.0
 41
1.999998407630662
 42
2.000005728319971
 50
119.5353868773866
  0
TEXT
  5
1B2
  8
LAYER0014
 62
     7
 10
250.0255435407732
 20
70.39738412681096
 30
0.0
 40
4.0
  1
30ﾟ
 50
-74.99999999999997
 41
0.8000000000000004
  7
FDASTYLE1
 72
     5
 11
252.5102063737574
 21
61.12449619443591
 31
0.0
  0
ENDBLK
  5
B4
  8
0
  0
BLOCK
  8
0
  2
DC_GROUP_6
 70
     0
 10
0.0
 20
0.0
 30
0.0
  3
DC_GROUP_6
  1

  0
LINE
  5
1B3
  8
0
  6
CONTINUOUS
 62
     7
 10
-122.2547887595807
 20
-74.06978102931404
 30
0.0
 11
-107.3116754490371
 21
-89.11241306411111
 31
0.0
  0
INSERT
  5
1B4
  8
0
 62
     7
  2
_OPEN30
 10
-122.2547887595807
 20
-74.06978102931404
 30
0.0
 41
1.999998407630662
 42
2.000005728319971
 50
134.8098435813055
  0
LINE
  5
1B5
  8
0
  6
CONTINUOUS
 62
     7
 10
-107.3116754490371
 20
-89.11241306411111
 30
0.0
 11
-91.31167544903707
 21
-89.11241306411111
 31
0.0
  0
TEXT
  5
1B6
  8
0
 62
     7
 10
-107.3116754490371
 20
-89.11241306411111
 30
0.0
 40
4.0
  1
M8×16
 41
0.7692307692307692
  7
FDASTYLE1
 72
     5
 11
-91.31167544903707
 21
-89.11241306411111
 31
0.0
  0
ENDBLK
  5
B7
  8
0
  0
BLOCK
  8
0
  2
DA_IMAGEDIMGROUP_31
 70
     0
 10
0.0
 20
0.0
 30
0.0
  3
DA_IMAGEDIMGROUP_31
  1

  0
LINE
  5
1B7
  8
0
  6
CONTINUOUS
 62
     9
 10
-166.3420594897972
 20
-62.56978102931404
 30
0.0
 11
-166.3420594897972
 21
-106.3143119475859
 31
0.0
  0
LINE
  5
1B8
  8
0
  6
CONTINUOUS
 62
     9
 10
-181.5420716968285
 20
-40.24478408107186
 30
0.0
 11
-181.5420716968285
 21
-106.3143119475859
 31
0.0
  0
LINE
  5
1B9
  8
0
  6
CONTINUOUS
 62
     9
 10
-181.5420716968285
 20
-105.3143119475859
 30
0.0
 11
-166.3420594897972
 21
-105.3143119475859
 31
0.0
  0
LINE
  5
1BA
  8
0
  6
CONTINUOUS
 62
     9
 10
-198.2739216968285
 20
-105.3143119475859
 30
0.0
 11
-181.5420716968285
 21
-105.3143119475859
 31
0.0
  0
INSERT
  5
1BB
  8
0
 62
     9
  2
_OPEN30
 10
-181.5420716968285
 20
-105.3143119475859
 30
0.0
 41
1.999998407630662
 42
2.000005728319971
 50
360.0
  0
LINE
  5
1BC
  8
0
  6
CONTINUOUS
 62
     9
 10
-161.3420594897972
 20
-105.3143119475859
 30
0.0
 11
-166.3420594897972
 21
-105.3143119475859
 31
0.0
  0
INSERT
  5
1BD
  8
0
 62
     9
  2
_OPEN30
 10
-166.3420594897972
 20
-105.3143119475859
 30
0.0
 41
1.999998407630662
 42
2.000005728319971
 50
180.0
  0
TEXT
  5
1BE
  8
0
 62
     7
 10
-197.2739216968285
 20
-104.3143119475859
 30
0.0
 40
4.0
  1
15.2
 41
0.8000000000000007
  7
FDASTYLE1
 72
     5
 11
-184.4739216968285
 21
-104.3143119475859
 31
0.0
  0
ENDBLK
  5
BA
  8
0
  0
BLOCK
  8
0
  2
DA_IMAGEDIMGROUP_32
 70
     0
 10
0.0
 20
0.0
 30
0.0
  3
DA_IMAGEDIMGROUP_32
  1

  0
LINE
  5
1BF
  8
0
  6
CONTINUOUS
 62
     9
 10
-122.3420594897972
 20
-78.08757689716025
 30
0.0
 11
-122.3420594897972
 21
-91.11949975207813
 31
0.0
  0
LINE
  5
1C0
  8
0
  6
CONTINUOUS
 62
     9
 10
-166.3420594897972
 20
-62.56978102931404
 30
0.0
 11
-166.3420594897972
 21
-91.11949975207813
 31
0.0
  0
LINE
  5
1C1
  8
0
  6
CONTINUOUS
 62
     9
 10
-166.3420594897972
 20
-90.11949975207813
 30
0.0
 11
-122.3420594897972
 21
-90.11949975207813
 31
0.0
  0
INSERT
  5
1C2
  8
0
 62
     9
  2
_OPEN30
 10
-166.3420594897972
 20
-90.11949975207813
 30
0.0
 41
1.999998407630662
 42
2.000005728319971
 50
180.0
  0
INSERT
  5
1C3
  8
0
 62
     9
  2
_OPEN30
 10
-122.3420594897972
 20
-90.11949975207813
 30
0.0
 41
1.999998407630662
 42
2.000005728319971
 50
360.0
  0
TEXT
  5
1C4
  8
0
 62
     7
 10
-147.5420594897972
 20
-89.11949975207813
 30
0.0
 40
4.0
  1
44
 41
0.7999999999999972
  7
FDASTYLE1
 72
     5
 11
-141.1420594897973
 21
-89.11949975207813
 31
0.0
  0
ENDBLK
  5
BD
  8
0
  0
BLOCK
  8
0
  2
DC_GROUP_7
 70
     0
 10
0.0
 20
0.0
 30
0.0
  3
DC_GROUP_7
  1

  0
LINE
  5
1C5
  8
LAYER0014
  6
CONTINUOUS
 62
     7
 10
-77.00207169682848
 20
74.93021897068596
 30
0.0
 11
-20.12358414800036
 21
74.93021897068596
 31
0.0
  0
LINE
  5
1C6
  8
LAYER0014
  6
CONTINUOUS
 62
     7
 10
-68.51131313169641
 20
33.43021897068596
 30
0.0
 11
-54.75897570126082
 21
33.43021897068596
 31
0.0
  0
LINE
  5
1C7
  8
LAYER0014
  6
CONTINUOUS
 62
     7
 10
-31.89285870086819
 20
33.43021897068596
 30
0.0
 11
-20.12358414800036
 21
33.43021897068596
 31
0.0
  0
LINE
  5
1C8
  8
LAYER0014
  6
CONTINUOUS
 62
     7
 10
-22.40959489018786
 20
33.43021897068596
 30
0.0
 11
-22.40959489018786
 21
74.93021897068596
 31
0.0
  0
INSERT
  5
1C9
  8
LAYER0014
 62
     7
  2
_OPEN30
 10
-22.40959489018786
 20
33.43021897068596
 30
0.0
 41
1.999998407630662
 42
2.000005728319971
 50
270.0
  0
INSERT
  5
1CA
  8
LAYER0014
 62
     7
  2
_OPEN30
 10
-22.40959489018786
 20
74.93021897068596
 30
0.0
 41
1.999998407630662
 42
2.000005728319971
 50
90.0
  0
TEXT
  5
1CB
  8
LAYER0014
 62
     7
 10
-24.03193265633262
 20
41.38303099158132
 30
0.0
 40
4.0
  1
MAX 51.5
 50
89.90000000000001
 41
0.8
  7
FDASTYLE1
 72
     5
 11
-23.98725225016563
 21
66.98299200056148
 31
0.0
  0
ENDBLK
  5
C0
  8
0
  0
BLOCK
  8
0
  2
DA_IMAGEDIMGROUP_33
 70
     0
 10
0.0
 20
0.0
 30
0.0
  3
DA_IMAGEDIMGROUP_33
  1

  0
LINE
  5
1CC
  8
0
  6
CONTINUOUS
 62
     9
 10
103.607952717234
 20
40.08926514378166
 30
0.0
 11
103.607952717234
 21
44.46740537160638
 31
0.0
  0
LINE
  5
1CD
  8
0
  6
CONTINUOUS
 62
     9
 10
157.607952717234
 20
40.08926514378166
 30
0.0
 11
157.607952717234
 21
44.46740537160638
 31
0.0
  0
LINE
  5
1CE
  8
0
  6
CONTINUOUS
 62
     9
 10
103.607952717234
 20
43.46740537160638
 30
0.0
 11
157.607952717234
 21
43.46740537160638
 31
0.0
  0
INSERT
  5
1CF
  8
0
 62
     9
  2
_OPEN30
 10
103.607952717234
 20
43.46740537160638
 30
0.0
 41
1.999998407630662
 42
2.000005728319971
 50
180.0
  0
INSERT
  5
1D0
  8
0
 62
     9
  2
_OPEN30
 10
157.607952717234
 20
43.46740537160638
 30
0.0
 41
1.999998407630662
 42
2.000005728319971
 50
360.0
  0
TEXT
  5
1D1
  8
0
 62
     7
 10
122.607952717234
 20
44.46740537160638
 30
0.0
 40
4.0
  1
PCD54
 41
0.8
  7
FDASTYLE1
 72
     5
 11
138.607952717234
 21
44.46740537160638
 31
0.0
  0
ENDBLK
  5
C3
  8
0
  0
BLOCK
  8
0
  2
DC_GROUP_8
 70
     0
 10
0.0
 20
0.0
 30
0.0
  3
DC_GROUP_8
  1

  0
LINE
  5
1D2
  8
0
  6
CONTINUOUS
 62
     7
 10
158.8101337963443
 20
35.79184143268729
 30
0.0
 11
188.3909901263652
 21
139.2314851168405
 31
0.0
  0
INSERT
  5
1D3
  8
0
 62
     7
  2
_OPEN30
 10
158.8101337963443
 20
35.79184143268729
 30
0.0
 41
1.999998407630662
 42
2.000005728319971
 50
254.0409460501457
  0
LINE
  5
1D4
  8
0
  6
CONTINUOUS
 62
     7
 10
188.3909901263652
 20
139.2314851168405
 30
0.0
 11
207.5909901263652
 21
139.2314851168405
 31
0.0
  0
TEXT
  5
1D5
  8
0
 62
     7
 10
188.3909901263652
 20
139.2314851168405
 30
0.0
 40
4.0
  1
2-φ5.3
 41
0.7741935483870963
  7
FDASTYLE1
 72
     5
 11
207.5909901263652
 21
139.2314851168405
 31
0.0
  0
ENDBLK
  5
C6
  8
0
  0
BLOCK
  8
0
  2
_OPEN30
 70
     0
 10
0.0
 20
0.0
 30
0.0
  3
_OPEN30
  1

  0
LINE
  5
E7
  8
0
  6
BYBLOCK
 62
     0
 10
-1.0
 20
0.267949
 30
0.0
 11
0.0
 21
0.0
 31
0.0
  0
LINE
  5
E8
  8
0
  6
BYBLOCK
 62
     0
 10
0.0
 20
0.0
 30
0.0
 11
-1.0
 21
-0.267949
 31
0.0
  0
LINE
  5
E9
  8
0
  6
BYBLOCK
 62
     0
 10
0.0
 20
0.0
 30
0.0
 11
-1.0
 21
0.0
 31
0.0
  0
ENDBLK
  5
E6
  8
0
  0
BLOCK
  8
0
  2
_DOTBLANK
 70
     0
 10
0.0
 20
0.0
 30
0.0
  3
_DOTBLANK
  1

  0
CIRCLE
  5
154
  8
0
  6
BYBLOCK
 62
     0
 10
0.0
 20
0.0
 30
0.0
 40
0.5
  0
LINE
  5
155
  8
0
  6
BYBLOCK
 62
     0
 10
-0.5
 20
0.0
 30
0.0
 11
-1.0
 21
0.0
 31
0.0
  0
ENDBLK
  5
153
  8
0
  0
ENDSEC
  0
SECTION
  2
ENTITIES
  0
LINE
  5
1D6
  8
ZUWAKU
  6
CONTINUOUS
 62
     3
 10
-277.0
 20
-190.0
 30
0.0
 11
-277.0
 21
190.0
 31
0.0
  0
LINE
  5
1D7
  8
ZUWAKU
  6
CONTINUOUS
 62
     3
 10
277.0
 20
-190.0
 30
0.0
 11
277.0
 21
190.0
 31
0.0
  0
LINE
  5
1D8
  8
ZUWAKU
  6
CONTINUOUS
 62
     3
 10
-277.0
 20
-190.0
 30
0.0
 11
277.0
 21
-190.0
 31
0.0
  0
LINE
  5
1D9
  8
ZUWAKU
  6
CONTINUOUS
 62
     3
 10
-277.0
 20
189.9999999999999
 30
0.0
 11
277.0
 21
189.9999999999999
 31
0.0
  0
LINE
  5
1DA
  8
ZUWAKU
  6
CONTINUOUS
 62
     3
 10
97.00000000000001
 20
-190.0
 30
0.0
 11
97.00000000000001
 21
-130.0
 31
0.0
  0
LINE
  5
1DB
  8
ZUWAKU
  6
CONTINUOUS
 62
     3
 10
97.00000000000001
 20
-176.0
 30
0.0
 11
277.0
 21
-176.0
 31
0.0
  0
LINE
  5
1DC
  8
ZUWAKU
  6
CONTINUOUS
 62
     3
 10
146.0
 20
-162.0
 30
0.0
 11
277.0
 21
-162.0
 31
0.0
  0
LINE
  5
1DD
  8
ZUWAKU
  6
CONTINUOUS
 62
     3
 10
146.0
 20
-148.0
 30
0.0
 11
277.0
 21
-148.0
 31
0.0
  0
LINE
  5
1DE
  8
ZUWAKU
  6
CONTINUOUS
 62
     3
 10
146.0
 20
-138.0
 30
0.0
 11
277.0
 21
-138.0
 31
0.0
  0
LINE
  5
1DF
  8
ZUWAKU
  6
CONTINUOUS
 62
     3
 10
146.0
 20
-176.0
 30
0.0
 11
146.0
 21
-130.0
 31
0.0
  0
LINE
  5
1E0
  8
ZUWAKU
  6
CONTINUOUS
 62
     3
 10
255.0
 20
-176.0
 30
0.0
 11
255.0
 21
-130.0
 31
0.0
  0
LINE
  5
1E1
  8
ZUWAKU
  6
CONTINUOUS
 62
     3
 10
171.0
 20
-190.0
 30
0.0
 11
171.0
 21
-176.0
 31
0.0
  0
LINE
  5
1E2
  8
ZUWAKU
  6
CONTINUOUS
 62
     3
 10
262.0
 20
-188.0
 30
0.0
 11
272.0
 21
-188.0
 31
0.0
  0
LINE
  5
1E3
  8
ZUWAKU
  6
CONTINUOUS
 62
     3
 10
267.0
 20
-178.0
 30
0.0
 11
262.0
 21
-188.0
 31
0.0
  0
LINE
  5
1E4
  8
ZUWAKU
  6
CONTINUOUS
 62
     3
 10
267.0
 20
-178.0
 30
0.0
 11
272.0
 21
-188.0
 31
0.0
  0
LINE
  5
1E5
  8
ZUWAKU
  6
CONTINUOUS
 62
     3
 10
97.00000000000001
 20
-130.0
 30
0.0
 11
277.0
 21
-130.0
 31
0.0
  0
LINE
  5
1E6
  8
ZUWAKU
  6
CONTINUOUS
 62
     3
 10
226.0
 20
-176.0
 30
0.0
 11
226.0
 21
-148.0
 31
0.0
  0
LINE
  5
1E7
  8
ZUWAKU
  6
CONTINUOUS
 62
     4
 10
105.0
 20
-172.0
 30
0.0
 11
105.0
 21
-130.0
 31
0.0
  0
LINE
  5
1E8
  8
ZUWAKU
  6
CONTINUOUS
 62
     4
 10
109.0
 20
-172.0
 30
0.0
 11
109.0
 21
-130.0
 31
0.0
  0
LINE
  5
1E9
  8
ZUWAKU
  6
CONTINUOUS
 62
     4
 10
121.5
 20
-176.0
 30
0.0
 11
121.5
 21
-130.0
 31
0.0
  0
LINE
  5
1EA
  8
ZUWAKU
  6
CONTINUOUS
 62
     4
 10
97.00000000000001
 20
-137.0
 30
0.0
 11
146.0
 21
-137.0
 31
0.0
  0
LINE
  5
1EB
  8
ZUWAKU
  6
CONTINUOUS
 62
     4
 10
97.00000000000001
 20
-144.0
 30
0.0
 11
146.0
 21
-144.0
 31
0.0
  0
LINE
  5
1EC
  8
ZUWAKU
  6
CONTINUOUS
 62
     4
 10
97.00000000000001
 20
-165.0
 30
0.0
 11
146.0
 21
-165.0
 31
0.0
  0
LINE
  5
1ED
  8
ZUWAKU
  6
CONTINUOUS
 62
     4
 10
97.00000000000001
 20
-172.0
 30
0.0
 11
146.0
 21
-172.0
 31
0.0
  0
LINE
  5
1EE
  8
ZUWAKU
  6
CONTINUOUS
 62
     4
 10
255.0
 20
-166.0
 30
0.0
 11
277.0
 21
-166.0
 31
0.0
  0
LINE
  5
1EF
  8
ZUWAKU
  6
CONTINUOUS
 62
     4
 10
202.0
 20
-148.0
 30
0.0
 11
202.0
 21
-146.5
 31
0.0
  0
LINE
  5
1F0
  8
ZUWAKU
  6
CONTINUOUS
 62
     4
 10
226.0
 20
-148.0
 30
0.0
 11
226.0
 21
-146.5
 31
0.0
  0
LINE
  5
1F1
  8
ZUWAKU
  6
CONTINUOUS
 62
     4
 10
243.0
 20
-148.0
 30
0.0
 11
243.0
 21
-146.5
 31
0.0
  0
LINE
  5
1F2
  8
ZUWAKU
  6
CONTINUOUS
 62
     4
 10
97.00000000000001
 20
-151.0
 30
0.0
 11
146.0
 21
-151.0
 31
0.0
  0
LINE
  5
1F3
  8
ZUWAKU
  6
CONTINUOUS
 62
     4
 10
97.00000000000001
 20
-158.0
 30
0.0
 11
146.0
 21
-158.0
 31
0.0
  0
LINE
  5
1F4
  8
ZUWAKU
  6
CONTINUOUS
 62
     4
 10
101.0
 20
-130.5
 30
0.0
 11
98.00000000000001
 21
-136.5
 31
0.0
  0
LINE
  5
1F5
  8
ZUWAKU
  6
CONTINUOUS
 62
     4
 10
101.0
 20
-130.5
 30
0.0
 11
104.0
 21
-136.5
 31
0.0
  0
LINE
  5
1F6
  8
ZUWAKU
  6
CONTINUOUS
 62
     4
 10
98.00000000000001
 20
-136.5
 30
0.0
 11
104.0
 21
-136.5
 31
0.0
  0
LINE
  5
1F7
  8
ZUWAKU
  6
CONTINUOUS
 62
     4
 10
101.0
 20
-158.5
 30
0.0
 11
98.00000000000001
 21
-164.5
 31
0.0
  0
LINE
  5
1F8
  8
ZUWAKU
  6
CONTINUOUS
 62
     4
 10
101.0
 20
-158.5
 30
0.0
 11
104.0
 21
-164.5
 31
0.0
  0
LINE
  5
1F9
  8
ZUWAKU
  6
CONTINUOUS
 62
     4
 10
98.00000000000001
 20
-164.5
 30
0.0
 11
104.0
 21
-164.5
 31
0.0
  0
LINE
  5
1FA
  8
ZUWAKU
  6
CONTINUOUS
 62
     4
 10
101.0
 20
-151.5
 30
0.0
 11
98.00000000000001
 21
-157.5
 31
0.0
  0
LINE
  5
1FB
  8
ZUWAKU
  6
CONTINUOUS
 62
     4
 10
101.0
 20
-151.5
 30
0.0
 11
104.0
 21
-157.5
 31
0.0
  0
LINE
  5
1FC
  8
ZUWAKU
  6
CONTINUOUS
 62
     4
 10
98.00000000000001
 20
-157.5
 30
0.0
 11
104.0
 21
-157.5
 31
0.0
  0
LINE
  5
1FD
  8
ZUWAKU
  6
CONTINUOUS
 62
     4
 10
101.0
 20
-144.5
 30
0.0
 11
98.00000000000001
 21
-150.5
 31
0.0
  0
LINE
  5
1FE
  8
ZUWAKU
  6
CONTINUOUS
 62
     4
 10
101.0
 20
-144.5
 30
0.0
 11
104.0
 21
-150.5
 31
0.0
  0
LINE
  5
1FF
  8
ZUWAKU
  6
CONTINUOUS
 62
     4
 10
98.00000000000001
 20
-150.5
 30
0.0
 11
104.0
 21
-150.5
 31
0.0
  0
LINE
  5
200
  8
ZUWAKU
  6
CONTINUOUS
 62
     4
 10
101.0
 20
-137.5
 30
0.0
 11
98.00000000000001
 21
-143.5
 31
0.0
  0
LINE
  5
201
  8
ZUWAKU
  6
CONTINUOUS
 62
     4
 10
101.0
 20
-137.5
 30
0.0
 11
104.0
 21
-143.5
 31
0.0
  0
LINE
  5
202
  8
ZUWAKU
  6
CONTINUOUS
 62
     4
 10
98.00000000000001
 20
-143.5
 30
0.0
 11
104.0
 21
-143.5
 31
0.0
  0
LINE
  5
203
  8
ZUWAKU
  6
CONTINUOUS
 62
     4
 10
172.6666666666666
 20
-176.0
 30
0.0
 11
172.6666666666666
 21
-162.0
 31
0.0
  0
LINE
  5
204
  8
ZUWAKU
  6
CONTINUOUS
 62
     4
 10
199.3333333333333
 20
-176.0
 30
0.0
 11
199.3333333333333
 21
-161.9509415757253
 31
0.0
  0
LINE
  5
205
  8
ZUWAKU
  6
CONTINUOUS
 62
     4
 10
212.6666666666666
 20
-167.5
 30
0.0
 11
212.6666666666666
 21
-161.9509415757253
 31
0.0
  0
LINE
  5
206
  8
ZUWAKU
  6
CONTINUOUS
 62
     4
 10
226.0
 20
-155.0
 30
0.0
 11
255.0
 21
-155.0
 31
0.0
  0
LINE
  5
207
  8
ZUWAKU
  6
CONTINUOUS
 62
     4
 10
146.0
 20
-166.0
 30
0.0
 11
226.0
 21
-166.0
 31
0.0
  0
LINE
  5
208
  8
ZUWAKU
  6
CONTINUOUS
 62
     6
 10
153.0
 20
-139.5
 30
0.0
 11
153.0
 21
-130.0
 31
0.0
  0
LINE
  5
209
  8
ZUWAKU
  6
CONTINUOUS
 62
     6
 10
202.0
 20
-139.5
 30
0.0
 11
202.0
 21
-130.0
 31
0.0
  0
LINE
  5
20A
  8
ZUWAKU
  6
CONTINUOUS
 62
     6
 10
226.0
 20
-139.5
 30
0.0
 11
226.0
 21
-130.0
 31
0.0
  0
LINE
  5
20B
  8
ZUWAKU
  6
CONTINUOUS
 62
     6
 10
243.0
 20
-139.5
 30
0.0
 11
243.0
 21
-130.0
 31
0.0
  0
TEXT
  5
20D
  8
ZUWAKU
 62
     7
 10
148.3132301474747
 20
-130.821188728956
 30
0.0
 40
2.6656
  1
符号
 41
0.8
  7
FDASTYLE0
  0
TEXT
  5
20E
  8
ZUWAKU
 62
     7
 10
162.4141311219058
 20
-135.8245525019963
 30
0.0
 40
4.0
  1
品       名
 41
0.765957446808511
  7
FDASTYLE1
 72
     5
 11
191.2141311219058
 21
-135.8245525019963
 31
0.0
  0
TEXT
  5
20F
  8
ZUWAKU
 62
     7
 10
207.2331564413096
 20
-135.8245525019963
 30
0.0
 40
4.0
  1
材  料
 41
0.7272727272727279
  7
FDASTYLE1
 72
     5
 11
220.0331564413096
 21
-135.8245525019963
 31
0.0
  0
TEXT
  5
210
  8
ZUWAKU
 62
     7
 10
229.516061684855
 20
-135.8245525019963
 30
0.0
 40
4.0
  1
個 数
 41
0.7058823529411761
  7
FDASTYLE1
 72
     5
 11
239.116061684855
 21
-135.8245525019963
 31
0.0
  0
TEXT
  5
211
  8
ZUWAKU
 62
     7
 10
245.721810952888
 20
-133.5649080050572
 30
0.0
 40
2.5
  1
単重量
 41
0.6666666666666666
  7
FDASTYLE1
 72
     5
 11
251.721810952888
 21
-133.5649080050572
 31
0.0
  0
TEXT
  5
212
  8
ZUWAKU
 62
     7
 10
244.7089516236359
 20
-137.3631304897525
 30
0.0
 40
2.5
  1
(kg)
 41
0.8
  7
FDASTYLE1
 72
     5
 11
252.7089516236359
 21
-137.3631304897525
 31
0.0
  0
TEXT
  5
213
  8
ZUWAKU
 62
     7
 10
259.1421970654778
 20
-135.8245525019963
 30
0.0
 40
4.0
  1
記  事
 41
0.7272727272727279
  7
FDASTYLE1
 72
     5
 11
271.9421970654778
 21
-135.8245525019963
 31
0.0
  0
TEXT
  5
214
  8
ZUWAKU
 62
     7
 10
258.8450794551645
 20
-165.4873041997729
 30
0.0
 40
3.0
  1
コード番号
 41
0.6666666666666666
  7
FDASTYLE1
 72
     5
 11
270.8450794551645
 21
-165.4873041997729
 31
0.0
  0
TEXT
  5
215
  8
ZUWAKU
 62
     7
 10
101.9119920158317
 20
-175.1879010540338
 30
0.0
 40
2.5
  1
訂 正 来 歴
 41
0.717948717948718
  7
FDASTYLE1
 72
     5
 11
115.9119920158317
 21
-175.1879010540338
 31
0.0
  0
TEXT
  5
216
  8
ZUWAKU
 62
     7
 10
125.890334846765
 20
-175.2166697391651
 30
0.0
 40
2.5
  1
工 事 番 号
 41
0.717948717948718
  7
FDASTYLE1
 72
     5
 11
139.890334846765
 21
-175.2166697391651
 31
0.0
  0
TEXT
  5
217
  8
ZUWAKU
 62
     7
 10
99.96483784660289
 20
-165.9634530565915
 30
0.0
 40
2.0825
  1
記号
 41
0.8
  7
FDASTYLE0
  0
TEXT
  5
218
  8
ZUWAKU
 62
     7
 10
105.9042249067618
 20
-165.9634530565915
 30
0.0
 40
2.0825
  1
理由
 41
0.8
  7
FDASTYLE0
  0
TEXT
  5
219
  8
ZUWAKU
 62
     7
 10
111.6193667909843
 20
-169.8786046700178
 30
0.0
 40
3.0
  1
日 付
 41
0.7058823529411754
  7
FDASTYLE1
 72
     5
 11
118.8193667909843
 21
-169.8786046700178
 31
0.0
  0
TEXT
  5
21A
  8
ZUWAKU
 62
     7
 10
153.4481689819652
 20
-165.7187911464244
 30
0.0
 40
3.0
  1
承   認
 41
0.7407407407407408
  7
FDASTYLE1
 72
     5
 11
165.4481689819652
 21
-165.7187911464244
 31
0.0
  0
TEXT
  5
21B
  8
ZUWAKU
 62
     7
 10
179.863228033234
 20
-165.4873041997729
 30
0.0
 40
3.0
  1
検   図
 41
0.7407407407407408
  7
FDASTYLE1
 72
     5
 11
191.863228033234
 21
-165.4873041997729
 31
0.0
  0
TEXT
  5
21C
  8
ZUWAKU
 62
     7
 10
201.4771920983751
 20
-165.4873041997729
 30
0.0
 40
3.0
  1
担  当
 41
0.7272727272727269
  7
FDASTYLE1
 72
     5
 11
211.0771920983751
 21
-165.4873041997729
 31
0.0
  0
TEXT
  5
21D
  8
ZUWAKU
 62
     7
 10
214.6770574841112
 20
-165.4873041997729
 30
0.0
 40
3.0
  1
製  図
 41
0.7272727272727269
  7
FDASTYLE1
 72
     5
 11
224.2770574841112
 21
-165.4873041997729
 31
0.0
  0
TEXT
  5
21E
  8
ZUWAKU
 62
     7
 10
226.9462372304199
 20
-153.2184960272417
 30
0.0
 40
3.0
  1
作図
 41
0.6666666666666683
  7
FDASTYLE1
 72
     5
 11
231.7462372304199
 21
-153.2184960272417
 31
0.0
  0
TEXT
  5
21F
  8
ZUWAKU
 62
     7
 10
228.1036719636776
 20
-160.2371566401815
 30
0.0
 40
4.0
  1
第 三 角 法
 41
0.7179487179487182
  7
FDASTYLE1
 72
     5
 11
250.5036719636776
 21
-160.2371566401815
 31
0.0
  0
TEXT
  5
220
  8
ZUWAKU
 62
     7
 10
227.409211123723
 20
-166.413251986379
 30
0.0
 40
3.0
  1
尺度
 41
0.6666666666666683
  7
FDASTYLE1
 72
     5
 11
232.209211123723
 21
-166.413251986379
 31
0.0
  0
TEXT
  5
222
  8
ZUWAKU
 62
     3
 10
105.379154370034
 20
-185.9272077185017
 30
0.0
 40
7.0
  1
株式会社 野村製作所
 41
0.5763738641280831
  7
FDASTYLE2
 72
     5
 11
161.379154370034
 21
-185.9272077185017
 31
0.0
  0
TEXT
  5
224
  8
ZUWAKU
 62
     3
 10
177.0587355390157
 20
-187.1216685584563
 30
0.0
 40
8.0
  1
２－
 41
0.8244023083264632
  7
FDASTYLE3
 72
     5
 11
193.0587355390157
 21
-187.1216685584563
 31
0.0
  0
TEXT
  5
225
  8
ZUWAKU
 62
     3
 10
193.9706931634225
 20
-187.1216685584563
 30
0.0
 40
8.0
  1
9308111
 41
1.629422718808194
  7
FDASTYLE3
 72
     5
 11
249.9706931634225
 21
-187.1216685584563
 31
0.0
  0
TEXT
  5
226
  8
ZUWAKU
 62
     4
 10
233.5309033845222
 20
-145.0216474852281
 30
0.0
 40
3.0
  1
1式
 41
0.6363636363636347
  7
FDASTYLE1
 72
     5
 11
237.7309033845222
 21
-145.0216474852281
 31
0.0
  0
TEXT
  5
227
  8
ZUWAKU
 62
     4
 10
239.3011788906399
 20
-172.297487439201
 30
0.0
 40
3.0
  1
1/1
 41
0.7000000000000013
  7
FDASTYLE1
 72
     5
 11
245.6011788906399
 21
-172.297487439201
 31
0.0
  0
TEXT
  5
228
  8
ZUWAKU
 62
     6
 10
165.036139605977
 20
-145.7243747487088
 30
0.0
 40
5.0
  1
外　形　図
 41
0.5833333333333334
  7
FDASTYLE1
 72
     5
 11
182.536139605977
 21
-145.7243747487088
 31
0.0
  0
TEXT
  5
229
  8
ZUWAKU
 62
     6
 10
152.4044818560289
 20
-154.3920863201719
 30
0.0
 40
5.0
  1
日鋼プレシジォン
 41
0.5833333333333334
  7
FDASTYLE1
 72
     5
 11
180.4044818560289
 21
-154.3920863201719
 31
0.0
  0
TEXT
  5
22A
  8
ZUWAKU
 62
     6
 10
160.8700195113084
 20
-160.8053724226564
 30
0.0
 40
5.0
  1
  GO3-8型 ﾁｬｯｸ
 41
0.6893939393939395
  7
FDASTYLE1
 72
     5
 11
206.3700195113084
 21
-160.8053724226564
 31
0.0
  0
LINE
  5
22B
  8
0
  6
CENTER
 62
     7
 10
31.38490505335375
 20
-23.85624374158026
 30
0.0
 11
130.6079787715066
 21
33.43021825029817
 31
0.0
  0
LINE
  5
22C
  8
0
  6
CENTER
 62
     7
 10
14.79128706781995
 20
33.43021897068596
 30
0.0
 11
246.5913053783668
 21
33.43021897068596
 31
0.0
  0
LINE
  5
22D
  8
0
  6
CENTER
 62
     7
 10
-176.0638329656798
 20
33.43021897068596
 30
0.0
 11
-69.83520829350817
 21
33.43021897068596
 31
0.0
  0
LINE
  5
22E
  8
0
  6
CENTER
 62
     7
 10
-169.5420716968285
 20
70.43021897068596
 30
0.0
 11
-167.7808412280785
 21
70.43021897068596
 31
0.0
  0
LINE
  5
22F
  8
0
  6
CENTER
 62
     7
 10
55.47815001337659
 20
104.430218970686
 30
0.0
 11
104.3388716015114
 21
104.430218970686
 31
0.0
  0
LINE
  5
230
  8
0
  6
CENTER
 62
     7
 10
103.607952717234
 20
39.08926514378166
 30
0.0
 11
103.607952717234
 21
27.43021897068596
 31
0.0
  0
LINE
  5
231
  8
0
  6
CENTER
 62
     7
 10
157.607952717234
 20
39.08926514378166
 30
0.0
 11
157.607952717234
 21
27.43021897068596
 31
0.0
  0
LINE
  5
232
  8
0
  6
CENTER
 62
     7
 10
48.49810662131091
 20
0.6486451821254207
 30
0.0
 11
60.85118121402917
 21
-20.74750470750789
 31
0.0
  0
LINE
  5
233
  8
0
  6
CENTER
 62
     7
 10
200.3928871886581
 20
-20.69880140144412
 30
0.0
 11
212.3263450321354
 21
-0.0294489415173018
 31
0.0
  0
LINE
  5
234
  8
0
  6
CENTER
 62
     7
 10
-96.88220536382067
 20
120.930218970686
 30
0.0
 11
-54.08220231206286
 21
120.930218970686
 31
0.0
  0
LINE
  5
235
  8
0
  6
CENTER
 62
     7
 10
-96.88220536382067
 20
90.93021897068596
 30
0.0
 11
-54.08220231206286
 21
90.93021897068596
 31
0.0
  0
LINE
  5
236
  8
0
  6
CENTER
 62
     7
 10
74.64349148018636
 20
15.36352650147629
 30
0.0
 11
86.85015702072229
 21
-5.779035505870724
 31
0.0
  0
LINE
  5
237
  8
0
  6
CENTER
 62
     7
 10
174.320706310565
 20
-5.857142344240373
 30
0.0
 11
186.4273743187335
 21
15.11221888017056
 31
0.0
  0
LINE
  5
238
  8
0
  6
CENTER
 62
     7
 10
109.4688997778668
 20
-45.46177670755944
 30
0.0
 11
117.2334719810261
 21
-16.48400232592186
 31
0.0
  0
LINE
  5
239
  8
0
  6
CENTER
 62
     7
 10
143.9824207001884
 20
-16.48399589893322
 30
0.0
 11
151.7469938906641
 21
-45.46177396528535
 31
0.0
  0
LINE
  5
23A
  8
0
  6
CENTER
 62
     7
 10
180.0392151925847
 20
46.67528311946055
 30
0.0
 11
209.9829006480853
 21
54.6986685990498
 31
0.0
  0
LINE
  5
23B
  8
0
  6
CENTER
 62
     7
 10
51.23299405601921
 20
54.69866166127483
 30
0.0
 11
81.17669240802076
 21
46.67527272607893
 31
0.0
  0
LINE
  5
23C
  8
0
  6
CENTER
 62
     7
 10
72.50144887091511
 20
91.53672797341372
 30
0.0
 11
94.42175786289346
 21
69.61642082917913
 31
0.0
  0
LINE
  5
23D
  8
0
  6
CENTER
 62
     7
 10
166.794161858031
 20
69.6164075950683
 30
0.0
 11
188.7144735474079
 21
91.53671743670114
 31
0.0
  0
LINE
  5
23E
  8
0
  6
CENTER
 62
     7
 10
-104.001666423391
 20
-11.56978102931404
 30
0.0
 11
-71.99989640385974
 21
-11.56978102931404
 31
0.0
  0
LINE
  5
23F
  8
0
  6
CENTER
 62
     7
 10
-188.1544679370629
 20
-33.24478408107186
 30
0.0
 11
-113.3143495288597
 21
-33.24478408107186
 31
0.0
  0
LINE
  5
240
  8
0
  6
CENTER
 62
     7
 10
-170.0420716968285
 20
69.93021897068596
 30
0.0
 11
-170.0420716968285
 21
39.48519257298088
 31
0.0
  0
LINE
  5
241
  8
0
  6
CENTER
 62
     7
 10
-95.04207169682849
 20
69.93021897068596
 30
0.0
 11
-95.04207169682849
 21
39.48519257298088
 31
0.0
  0
LINE
  5
242
  8
0
  6
CENTER
 62
     7
 10
-169.5420789289867
 20
70.43020059566973
 30
0.0
 11
-170.0420794597814
 21
69.93020006487498
 31
0.0
  0
LINE
  5
243
  8
0
  6
CENTER
 62
     7
 10
-95.54208960406942
 20
70.43021765147594
 30
0.0
 11
-95.04208018033279
 21
69.9302043922892
 31
0.0
  0
LINE
  5
244
  8
0
  6
CENTER
 62
     7
 10
-101.7315858569847
 20
70.43021897068596
 30
0.0
 11
-95.54207169682849
 21
70.43021897068596
 31
0.0
  0
LINE
  5
245
  8
0
  6
CENTER
 62
     7
 10
130.6079958374979
 20
33.43022446304556
 30
0.0
 11
229.5689851456012
 21
-23.70492304085789
 31
0.0
  0
LINE
  5
246
  8
0
  6
CENTER
 62
     7
 10
163.3492868255602
 20
52.33341918046429
 30
0.0
 11
226.5621150017928
 21
88.82935851210769
 31
0.0
  0
LINE
  5
247
  8
0
  6
CENTER
 62
     7
 10
118.4798704418434
 20
120.930218970686
 30
0.0
 11
143.0509611400856
 21
120.930218970686
 31
0.0
  0
LINE
  5
248
  8
0
  6
CENTER
 62
     7
 10
118.4798704418434
 20
90.93021897068596
 30
0.0
 11
142.667034748484
 21
90.93021897068596
 31
0.0
  0
LINE
  5
249
  8
0
  6
CENTER
 62
     7
 10
85.03432835597988
 20
59.74219074446151
 30
0.0
 11
98.03643794208466
 21
52.23542010425345
 31
0.0
  0
LINE
  5
24A
  8
0
  6
CENTER
 62
     7
 10
90.60795271723401
 20
118.4563496469555
 30
0.0
 11
90.60795271723401
 21
91.40884140720939
 31
0.0
  0
LINE
  5
24B
  8
0
  6
CENTER
 62
     7
 10
96.28291719259738
 20
-49.11707110345603
 30
0.0
 11
82.25469224752902
 21
-24.81947319469143
 31
0.0
  0
LINE
  5
24C
  8
0
  6
CENTER
 62
     7
 10
76.9731631216103
 20
-43.72386479783424
 30
0.0
 11
100.3969952495077
 21
-30.20010877061256
 31
0.0
  0
LINE
  5
24D
  8
0
  6
CENTER
 62
     7
 10
218.8597316995081
 20
44.28678961170138
 30
0.0
 11
205.2302952065882
 21
20.67991355113239
 31
0.0
  0
LINE
  5
24E
  8
0
  6
CENTER
 62
     7
 10
224.2427427057117
 20
25.55816214871041
 30
0.0
 11
200.8189072741896
 21
39.08192008328072
 31
0.0
  0
LINE
  5
24F
  8
0
  6
CENTER
 62
     7
 10
8.620776574069907
 20
-83.18712611403336
 30
0.0
 11
38.92169732164217
 21
-65.6928832965268
 31
0.0
  0
LINE
  5
250
  8
0
  6
CENTER
 62
     7
 10
-118.237506267141
 20
60.43021897068596
 30
0.0
 11
-105.4490846362816
 21
60.43021897068596
 31
0.0
  0
LINE
  5
251
  8
0
  6
CENTER
 62
     7
 10
-117.6406434741722
 20
60.43022278538322
 30
0.0
 11
-106.0943788257347
 21
60.43022278538322
 31
0.0
  0
ARC
  5
252
  8
0
  6
CENTER
 62
     7
 10
130.607952717234
 20
33.43021897068596
 30
0.0
 40
66.67500305175781
 50
1.650218953478332
 51
28.34977761247949
  0
ARC
  5
253
  8
0
  6
CENTER
 62
     7
 10
130.607952717234
 20
33.43021897068596
 30
0.0
 40
45.0
 50
139.2370808724834
 51
160.5020415702394
  0
ARC
  5
254
  8
0
  6
CENTER
 62
     7
 10
130.607952717234
 20
33.43021897068596
 30
0.0
 40
66.67500305175781
 50
31.65021893453074
 51
58.34978015485284
  0
ARC
  5
255
  8
0
  6
CENTER
 62
     7
 10
130.607952717234
 20
33.43021897068596
 30
0.0
 40
66.67500305175781
 50
121.650245344671
 51
148.3497963197094
  0
ARC
  5
256
  8
0
  6
CENTER
 62
     7
 10
130.607952717234
 20
33.43021897068596
 30
0.0
 40
66.67500305175781
 50
151.6502393493079
 51
178.3498039847246
  0
ARC
  5
257
  8
0
  6
CENTER
 62
     7
 10
130.607952717234
 20
33.43021897068596
 30
0.0
 40
66.67500305175781
 50
242.0826989235511
 51
267.9172542515315
  0
ARC
  5
258
  8
0
  6
CENTER
 62
     7
 10
130.607952717234
 20
33.43021897068596
 30
0.0
 40
66.67500305175781
 50
272.0827270791338
 51
297.9172824071142
  0
ARC
  5
259
  8
0
  6
CENTER
 62
     7
 10
130.607952717234
 20
33.43021897068596
 30
0.0
 40
45.0
 50
258.5216391990728
 51
281.4783421315925
  0
ARC
  5
25A
  8
0
  6
CENTER
 62
     7
 10
130.607952717234
 20
33.43021897068596
 30
0.0
 40
45.0
 50
19.61500726788161
 51
41.83039732638131
  0
ARC
  5
25B
  8
0
  6
CENTER
 62
     7
 10
130.607952717234
 20
33.43021897068596
 30
0.0
 40
27.0
 50
76.1466030185081
 51
102.6533104325203
  0
ARC
  5
25C
  8
0
  6
CENTER
 62
     7
 10
130.607952717234
 20
33.43021897068596
 30
0.0
 40
27.0
 50
196.1466031700888
 51
222.653310584101
  0
ARC
  5
25D
  8
0
  6
CENTER
 62
     7
 10
130.607952717234
 20
33.43021897068596
 30
0.0
 40
27.0
 50
316.1465996792039
 51
342.6533088007634
  0
LINE
  5
25E
  8
0
  6
CENTER
 62
     7
 10
130.607952717234
 20
148.7302372812328
 30
0.0
 11
130.607952717234
 21
49.72138608966247
 31
0.0
  0
LINE
  5
25F
  8
0
  6
CENTER
 62
     7
 10
130.607952717234
 20
42.03420145705185
 30
0.0
 11
130.607952717234
 21
-81.80312606105233
 31
0.0
  0
LINE
  5
260
  8
0
  6
CONTINUOUS
 62
     7
 10
-77.00207169682848
 20
80.93021897068596
 30
0.0
 11
-58.56313100013791
 21
80.93021897068596
 31
0.0
  0
LINE
  5
261
  8
0
  6
CONTINUOUS
 62
     3
 10
-170.5420716968285
 20
140.930218970686
 30
0.0
 11
-170.5420716968285
 21
-74.06978102931404
 31
0.0
  0
LINE
  5
262
  8
0
  6
CONTINUOUS
 62
     3
 10
-78.54207169682849
 20
138.930218970686
 30
0.0
 11
-78.54207169682849
 21
131.9296238779125
 31
0.0
  0
LINE
  5
263
  8
0
  6
CONTINUOUS
 62
     3
 10
-170.5420716968285
 20
140.930218970686
 30
0.0
 11
-111.5420716968285
 21
140.930218970686
 31
0.0
  0
LINE
  5
264
  8
0
  6
CONTINUOUS
 62
     3
 10
-170.5420716968285
 20
-74.06978102931404
 30
0.0
 11
-80.54207169682849
 21
-74.06978102931404
 31
0.0
  0
LINE
  5
265
  8
0
  6
CONTINUOUS
 62
     3
 10
-79.54208588706541
 20
139.9302258229714
 30
0.0
 11
-78.54208482547591
 21
138.9302247613819
 31
0.0
  0
LINE
  5
266
  8
0
  6
CONTINUOUS
 62
     3
 10
-78.54206324628984
 20
-72.06977265254906
 30
0.0
 11
-80.54206536946884
 21
-74.06977477572806
 31
0.0
  0
LINE
  5
267
  8
0
  6
CONTINUOUS
 62
     3
 10
-166.3420594897972
 20
128.430218970686
 30
0.0
 11
-166.3420594897972
 21
-61.56978102931404
 31
0.0
  0
LINE
  5
268
  8
0
  6
CONTINUOUS
 62
     3
 10
-170.5420716968285
 20
-61.56978102931404
 30
0.0
 11
-166.3420747485863
 21
-61.56978102931404
 31
0.0
  0
LINE
  5
269
  8
0
  6
CONTINUOUS
 62
     3
 10
-170.5420716968285
 20
128.430218970686
 30
0.0
 11
-166.3420747485863
 21
128.430218970686
 31
0.0
  0
LINE
  5
26A
  8
0
  6
CONTINUOUS
 62
     3
 10
-166.3420747485863
 20
-3.569781029314044
 30
0.0
 11
-147.5420716968285
 21
-3.569781029314044
 31
0.0
  0
LINE
  5
26B
  8
0
  6
CONTINUOUS
 62
     3
 10
-81.04207169682849
 20
-6.569781029314044
 30
0.0
 11
-78.54207169682849
 21
-6.569781029314044
 31
0.0
  0
LINE
  5
26C
  8
0
  6
CONTINUOUS
 62
     3
 10
-81.04207169682849
 20
69.39895371189689
 30
0.0
 11
-81.04207169682849
 21
-6.569781029314044
 31
0.0
  0
LINE
  5
26D
  8
0
  6
CONTINUOUS
 62
     3
 10
-111.5420716968285
 20
140.930218970686
 30
0.0
 11
-111.5420716968285
 21
96.43021897068596
 31
0.0
  0
LINE
  5
26E
  8
0
  6
CONTINUOUS
 62
     3
 10
-93.04207169682849
 20
73.46001938572502
 30
0.0
 11
-93.04207169682849
 21
58.18400696507072
 31
0.0
  0
LINE
  5
26F
  8
0
  6
CONTINUOUS
 62
     3
 10
-111.5420716968285
 20
96.43021897068596
 30
0.0
 11
-111.5420716968285
 21
70.43021897068596
 31
0.0
  0
LINE
  5
270
  8
0
  6
CONTINUOUS
 62
     3
 10
-132.5420716968285
 20
70.43021897068596
 30
0.0
 11
-108.0420716968285
 21
70.43021897068596
 31
0.0
  0
LINE
  5
271
  8
0
  6
CONTINUOUS
 62
     3
 10
-157.5420716968285
 20
69.93021897068596
 30
0.0
 11
-157.5420716968285
 21
-3.069781029314044
 31
0.0
  0
LINE
  5
272
  8
0
  6
CONTINUOUS
 62
     3
 10
-107.5420716968285
 20
69.93021897068596
 30
0.0
 11
-107.5420716968285
 21
-3.069781029314044
 31
0.0
  0
LINE
  5
273
  8
0
  6
CONTINUOUS
 62
     3
 10
-108.0420939600508
 20
70.43022108645849
 30
0.0
 11
-107.5420845363141
 21
69.93020782727174
 31
0.0
  0
LINE
  5
274
  8
0
  6
CONTINUOUS
 62
     3
 10
-107.5420562688097
 20
-3.069801904007335
 30
0.0
 11
-108.0420567996045
 21
-3.569802434802085
 31
0.0
  0
LINE
  5
275
  8
0
  6
CONTINUOUS
 62
     3
 10
-157.5420630674282
 20
69.93018070507608
 30
0.0
 11
-157.042044118288
 21
70.43018439671144
 31
0.0
  0
LINE
  5
276
  8
0
  6
CONTINUOUS
 62
     3
 10
-157.5420507602168
 20
-3.069766347060948
 30
0.0
 11
-157.0420318110766
 21
-3.569770038696305
 31
0.0
  0
LINE
  5
277
  8
0
  6
CONTINUOUS
 62
     3
 10
-128.5420716968285
 20
64.93021897068596
 30
0.0
 11
-128.5420716968285
 21
1.930218970685957
 31
0.0
  0
LINE
  5
278
  8
0
  6
CONTINUOUS
 62
     3
 10
-118.5420716968285
 20
66.43021897068596
 30
0.0
 11
-118.5420716968285
 21
0.4302189706859565
 31
0.0
  0
LINE
  5
279
  8
0
  6
CONTINUOUS
 62
     3
 10
-126.5420716968285
 20
64.93021897068596
 30
0.0
 11
-126.5420716968285
 21
1.930218970685957
 31
0.0
  0
LINE
  5
27A
  8
0
  6
CONTINUOUS
 62
     3
 10
-116.5420716968285
 20
66.43021897068596
 30
0.0
 11
-116.5420716968285
 21
0.4302189706859565
 31
0.0
  0
LINE
  5
27B
  8
0
  6
CONTINUOUS
 62
     3
 10
-156.5420716968285
 20
58.43021897068596
 30
0.0
 11
-129.5420716968285
 21
58.43021897068596
 31
0.0
  0
LINE
  5
27C
  8
0
  6
CONTINUOUS
 62
     3
 10
-128.5420716968285
 20
64.93021897068596
 30
0.0
 11
-126.5420716968285
 21
64.93021897068596
 31
0.0
  0
LINE
  5
27D
  8
0
  6
CONTINUOUS
 62
     3
 10
-128.5420716968285
 20
1.930218970685957
 30
0.0
 11
-126.5420716968285
 21
1.930218970685957
 31
0.0
  0
LINE
  5
27E
  8
0
  6
CONTINUOUS
 62
     3
 10
-118.5420716968285
 20
66.43021897068596
 30
0.0
 11
-116.5420716968285
 21
66.43021897068596
 31
0.0
  0
LINE
  5
27F
  8
0
  6
CONTINUOUS
 62
     3
 10
-118.5420716968285
 20
0.4302189706859565
 30
0.0
 11
-116.5420716968285
 21
0.4302189706859565
 31
0.0
  0
LINE
  5
280
  8
0
  6
CONTINUOUS
 62
     3
 10
-156.5420716968285
 20
58.43021897068596
 30
0.0
 11
-156.5420716968285
 21
50.68021897068596
 31
0.0
  0
LINE
  5
281
  8
0
  6
CONTINUOUS
 62
     3
 10
-129.5420716968285
 20
58.43021897068596
 30
0.0
 11
-129.5420716968285
 21
50.68021897068596
 31
0.0
  0
LINE
  5
282
  8
0
  6
CONTINUOUS
 62
     3
 10
-116.5420716968285
 20
65.93021897068596
 30
0.0
 11
-107.5420716968285
 21
65.93021897068596
 31
0.0
  0
LINE
  5
283
  8
0
  6
CONTINUOUS
 62
     3
 10
-116.5420716968285
 20
0.9302189706859565
 30
0.0
 11
-107.5420716968285
 21
0.9302189706859565
 31
0.0
  0
LINE
  5
284
  8
0
  6
CONTINUOUS
 62
     3
 10
-129.5420459106317
 20
58.4301981252577
 30
0.0
 11
-128.5420451862541
 21
59.43021031365223
 31
0.0
  0
LINE
  5
285
  8
0
  6
CONTINUOUS
 62
     3
 10
-156.5420573756884
 20
58.43023095243646
 30
0.0
 11
-157.5420622304984
 21
59.4302282208055
 31
0.0
  0
LINE
  5
286
  8
0
  6
CONTINUOUS
 62
     3
 10
-133.5420716968285
 20
-3.569781029314044
 30
0.0
 11
-81.04207169682849
 21
-3.569781029314044
 31
0.0
  0
LINE
  5
287
  8
0
  6
CONTINUOUS
 62
     3
 10
-147.5420716968285
 20
-3.569781029314044
 30
0.0
 11
-133.5420716968285
 21
-3.569781029314044
 31
0.0
  0
LINE
  5
288
  8
0
  6
CONTINUOUS
 62
     3
 10
46.26023841774992
 20
-35.47523951616799
 30
0.0
 11
111.125681231446
 21
1.974837215866756
 31
0.0
  0
LINE
  5
289
  8
0
  6
CONTINUOUS
 62
     3
 10
28.7602219205624
 20
-5.16434134912285
 30
0.0
 11
93.62566143063356
 21
32.28573347556338
 31
0.0
  0
LINE
  5
28A
  8
0
  6
CONTINUOUS
 62
     3
 10
167.5902556204711
 20
32.28577732420902
 30
0.0
 11
232.4556885232924
 21
-5.164293685780166
 31
0.0
  0
LINE
  5
28B
  8
0
  6
CONTINUOUS
 62
     3
 10
150.0902764853018
 20
1.974875205526843
 30
0.0
 11
214.9557027808733
 21
-35.47519198976531
 31
0.0
  0
LINE
  5
28C
  8
0
  6
CONTINUOUS
 62
     3
 10
234.3579754653654
 20
5.284434700549838
 30
0.0
 11
235.9286641060569
 21
4.377597291222656
 31
0.0
  0
LINE
  5
28D
  8
0
  6
CONTINUOUS
 62
     3
 10
52.78726719437628
 20
-43.25385463505157
 30
0.0
 11
54.3579558350678
 21
-42.34701722572439
 31
0.0
  0
LINE
  5
28E
  8
0
  6
CONTINUOUS
 62
     3
 10
25.2872621920192
 20
4.377548870443746
 30
0.0
 11
26.85795743996053
 21
5.284390094467966
 31
0.0
  0
LINE
  5
28F
  8
0
  6
CONTINUOUS
 62
     3
 10
-81.04207169682849
 20
69.39895371189689
 30
0.0
 11
-78.54207169682849
 21
69.39895371189689
 31
0.0
  0
LINE
  5
290
  8
0
  6
CONTINUOUS
 62
     3
 10
-93.04207169682849
 20
66.03006485691643
 30
0.0
 11
-81.04207169682849
 21
66.03006485691643
 31
0.0
  0
LINE
  5
291
  8
0
  6
CONTINUOUS
 62
     3
 10
-105.6822084155785
 20
58.18400696507072
 30
0.0
 11
-93.04207169682849
 21
58.18400696507072
 31
0.0
  0
LINE
  5
292
  8
0
  6
CONTINUOUS
 62
     3
 10
-111.5420716968285
 20
74.93021897068596
 30
0.0
 11
-79.54207169682849
 21
74.93021897068596
 31
0.0
  0
LINE
  5
293
  8
0
  6
CONTINUOUS
 62
     3
 10
28.76022027049078
 20
-5.164335959509828
 30
0.0
 11
46.2602242640022
 21
-35.47522785156301
 31
0.0
  0
LINE
  5
294
  8
0
  6
CONTINUOUS
 62
     3
 10
214.9557232685332
 20
-35.4752294073264
 30
0.0
 11
232.4557253546957
 21
-5.164340818897898
 31
0.0
  0
LINE
  5
295
  8
0
  6
CONTINUOUS
 62
     3
 10
157.798040015244
 20
-2.475238687918562
 30
0.0
 11
175.2980459161043
 21
27.8356565077593
 31
0.0
  0
LINE
  5
296
  8
0
  6
CONTINUOUS
 62
     3
 10
85.91790053498841
 20
27.83566184398458
 30
0.0
 11
103.4179045284998
 21
-2.475230048068596
 31
0.0
  0
LINE
  5
297
  8
0
  6
CONTINUOUS
 62
     3
 10
-87.54207169682849
 20
140.930218970686
 30
0.0
 11
-87.54207169682849
 21
130.930218970686
 31
0.0
  0
LINE
  5
298
  8
0
  6
CONTINUOUS
 62
     3
 10
-94.54207169682849
 20
140.930218970686
 30
0.0
 11
-94.54207169682849
 21
74.93021897068596
 31
0.0
  0
LINE
  5
299
  8
0
  6
CONTINUOUS
 62
     3
 10
-111.5420716968285
 20
140.930218970686
 30
0.0
 11
-79.54207169682849
 21
140.930218970686
 31
0.0
  0
LINE
  5
29A
  8
0
  6
CONTINUOUS
 62
     3
 10
232.4556876273417
 20
-5.164314003251974
 30
0.0
 11
235.9286513706573
 21
4.377575118413034
 31
0.0
  0
LINE
  5
29B
  8
0
  6
CONTINUOUS
 62
     3
 10
25.28725787823402
 20
4.377549433690803
 30
0.0
 11
28.7602203168463
 21
-5.164336103331351
 31
0.0
  0
LINE
  5
29C
  8
0
  6
CONTINUOUS
 62
     3
 10
46.26024264577649
 20
-35.47521079005571
 30
0.0
 11
52.78727705409773
 21
-43.25382652649557
 31
0.0
  0
LINE
  5
29D
  8
0
  6
CONTINUOUS
 62
     3
 10
34.01022904079406
 20
-14.257604259966
 30
0.0
 11
47.97663122353475
 21
-6.194099091021741
 31
0.0
  0
LINE
  5
29E
  8
0
  6
CONTINUOUS
 62
     3
 10
41.01023764923201
 20
-26.38196853332863
 30
0.0
 11
54.97664643922252
 21
-18.31845954968733
 31
0.0
  0
LINE
  5
29F
  8
0
  6
CONTINUOUS
 62
     3
 10
170.0480092784165
 20
18.74243714488924
 30
0.0
 11
180.550312147494
 21
12.6789304262243
 31
0.0
  0
LINE
  5
2A0
  8
0
  6
CONTINUOUS
 62
     3
 10
163.0480190954516
 20
6.618066638408919
 30
0.0
 11
173.5503219645291
 21
0.5545599197439799
 31
0.0
  0
LINE
  5
2A1
  8
0
  6
CONTINUOUS
 62
     3
 10
168.2441912001321
 20
3.618054982125642
 30
0.0
 11
175.2441920345971
 21
15.74241041749704
 31
0.0
  0
LINE
  5
2A2
  8
0
  6
CONTINUOUS
 62
     3
 10
211.5454776413693
 20
-21.38194902025268
 30
0.0
 11
218.5454784758343
 21
-9.257593584881278
 31
0.0
  0
LINE
  5
2A3
  8
0
  6
CONTINUOUS
 62
     3
 10
42.67047064921684
 20
-9.257604324178004
 30
0.0
 11
49.67047339103073
 21
-21.38196306317408
 31
0.0
  0
LINE
  5
2A4
  8
0
  6
CONTINUOUS
 62
     3
 10
85.97174883139229
 20
15.74239490982816
 30
0.0
 11
92.97174966585732
 21
3.618039474456765
 31
0.0
  0
LINE
  5
2A5
  8
0
  6
CONTINUOUS
 62
     3
 10
-93.54207169682849
 20
130.930218970686
 30
0.0
 11
-78.54207169682849
 21
130.930218970686
 31
0.0
  0
LINE
  5
2A6
  8
0
  6
CONTINUOUS
 62
     3
 10
-93.54207169682849
 20
80.93021897068596
 30
0.0
 11
-78.54207169682849
 21
80.93021897068596
 31
0.0
  0
LINE
  5
2A7
  8
0
  6
CONTINUOUS
 62
     3
 10
-93.54207169682849
 20
130.930218970686
 30
0.0
 11
-93.54207169682849
 21
80.93021897068596
 31
0.0
  0
LINE
  5
2A8
  8
0
  6
CONTINUOUS
 62
     3
 10
-70.54207169682849
 20
128.930218970686
 30
0.0
 11
-70.54207169682849
 21
112.930218970686
 31
0.0
  0
LINE
  5
2A9
  8
0
  6
CONTINUOUS
 62
     3
 10
-60.54207169682849
 20
128.930218970686
 30
0.0
 11
-60.54207169682849
 21
112.930218970686
 31
0.0
  0
LINE
  5
2AA
  8
0
  6
CONTINUOUS
 62
     3
 10
-70.54207169682849
 20
82.93021897068596
 30
0.0
 11
-60.54207169682849
 21
82.93021897068596
 31
0.0
  0
LINE
  5
2AB
  8
0
  6
CONTINUOUS
 62
     3
 10
-70.54207169682849
 20
98.93021897068596
 30
0.0
 11
-60.54207169682849
 21
98.93021897068596
 31
0.0
  0
LINE
  5
2AC
  8
0
  6
CONTINUOUS
 62
     3
 10
-70.54207169682849
 20
128.930218970686
 30
0.0
 11
-60.54207169682849
 21
128.930218970686
 31
0.0
  0
LINE
  5
2AD
  8
0
  6
CONTINUOUS
 62
     3
 10
-70.54207169682849
 20
112.930218970686
 30
0.0
 11
-60.54207169682849
 21
112.930218970686
 31
0.0
  0
LINE
  5
2AE
  8
0
  6
CONTINUOUS
 62
     3
 10
-93.54207169682849
 20
95.93021897068596
 30
0.0
 11
-70.54207169682849
 21
95.93021897068596
 31
0.0
  0
LINE
  5
2AF
  8
0
  6
CONTINUOUS
 62
     3
 10
-93.54207169682849
 20
85.93021897068596
 30
0.0
 11
-70.54207169682849
 21
85.93021897068596
 31
0.0
  0
LINE
  5
2B0
  8
0
  6
CONTINUOUS
 62
     3
 10
-93.54207169682849
 20
125.930218970686
 30
0.0
 11
-70.54207169682849
 21
125.930218970686
 31
0.0
  0
LINE
  5
2B1
  8
0
  6
CONTINUOUS
 62
     3
 10
-93.54207169682849
 20
115.930218970686
 30
0.0
 11
-70.54207169682849
 21
115.930218970686
 31
0.0
  0
LINE
  5
2B2
  8
0
  6
CONTINUOUS
 62
     3
 10
-90.54207169682849
 20
125.930218970686
 30
0.0
 11
-90.54207169682849
 21
115.930218970686
 31
0.0
  0
LINE
  5
2B3
  8
0
  6
CONTINUOUS
 62
     3
 10
-87.54207169682849
 20
80.93021897068596
 30
0.0
 11
-87.54207169682849
 21
74.93021897068596
 31
0.0
  0
LINE
  5
2B4
  8
0
  6
CONTINUOUS
 62
     3
 10
-78.54207169682849
 20
85.93021897068596
 30
0.0
 11
-78.54207169682849
 21
80.93021897068596
 31
0.0
  0
LINE
  5
2B5
  8
0
  6
CONTINUOUS
 62
     3
 10
-70.54207169682849
 20
98.93021897068596
 30
0.0
 11
-70.54207169682849
 21
82.93021897068596
 31
0.0
  0
LINE
  5
2B6
  8
0
  6
CONTINUOUS
 62
     3
 10
-60.54207169682849
 20
98.93021897068596
 30
0.0
 11
-60.54207169682849
 21
82.93021897068596
 31
0.0
  0
LINE
  5
2B7
  8
0
  6
CONTINUOUS
 62
     3
 10
-78.54207169682849
 20
115.930218970686
 30
0.0
 11
-78.54207169682849
 21
95.93021897068596
 31
0.0
  0
LINE
  5
2B8
  8
0
  6
CONTINUOUS
 62
     3
 10
-78.54207169682849
 20
79.97682694187736
 30
0.0
 11
-78.54207169682849
 21
-72.06978102931404
 31
0.0
  0
LINE
  5
2B9
  8
0
  6
CONTINUOUS
 62
     3
 10
-78.54207169682849
 20
130.930218970686
 30
0.0
 11
-78.54207169682849
 21
125.930218970686
 31
0.0
  0
LINE
  5
2BA
  8
0
  6
CONTINUOUS
 62
     3
 10
-90.54207169682849
 20
95.93021897068596
 30
0.0
 11
-90.54207169682849
 21
85.93021897068596
 31
0.0
  0
LINE
  5
2BB
  8
0
  6
CONTINUOUS
 62
     3
 10
54.68484146824682
 20
-2.321112528351677
 30
0.0
 11
73.95739631071098
 21
8.805900968582847
 31
0.0
  0
LINE
  5
2BC
  8
0
  6
CONTINUOUS
 62
     3
 10
61.68484346943495
 20
-14.44548061641135
 30
0.0
 11
80.95741152639874
 21
-3.318459490082745
 31
0.0
  0
LINE
  5
2BD
  8
0
  6
CONTINUOUS
 62
     3
 10
80.66560490361059
 20
12.67888657757865
 30
0.0
 11
91.16790777268813
 21
18.74239329624359
 31
0.0
  0
LINE
  5
2BE
  8
0
  6
CONTINUOUS
 62
     3
 10
87.66561020842363
 20
0.5545203968675025
 30
0.0
 11
98.16791307750117
 21
6.618027115532442
 31
0.0
  0
LINE
  5
2BF
  8
0
  6
CONTINUOUS
 62
     3
 10
187.2585339548933
 20
8.805937187834417
 30
0.0
 11
206.5310887973574
 21
-2.321076309100107
 31
0.0
  0
LINE
  5
2C0
  8
0
  6
CONTINUOUS
 62
     3
 10
213.239297390257
 20
-6.194061918095912
 30
0.0
 11
227.2057020507164
 21
-14.25756851755156
 31
0.0
  0
LINE
  5
2C1
  8
0
  6
CONTINUOUS
 62
     3
 10
206.2392939927925
 20
-18.31842479518215
 30
0.0
 11
220.2057118677515
 21
-26.38193902403188
 31
0.0
  0
LINE
  5
2C2
  8
0
  6
CONTINUOUS
 62
     3
 10
180.2585305574287
 20
-3.318425689251825
 30
0.0
 11
199.5310986143925
 21
-14.44544681558043
 31
0.0
  0
LINE
  5
2C3
  8
0
  6
CONTINUOUS
 62
     3
 10
-93.54207169682849
 20
-7.569781029314044
 30
0.0
 11
-93.54207169682849
 21
-15.56978102931404
 31
0.0
  0
LINE
  5
2C4
  8
0
  6
CONTINUOUS
 62
     3
 10
-98.54207169682849
 20
-8.41978141078377
 30
0.0
 11
-98.54207169682849
 21
-14.71978255519295
 31
0.0
  0
LINE
  5
2C5
  8
0
  6
CONTINUOUS
 62
     3
 10
-98.54207169682849
 20
-14.71978255519295
 30
0.0
 11
-78.54207169682849
 21
-14.71978255519295
 31
0.0
  0
LINE
  5
2C6
  8
0
  6
CONTINUOUS
 62
     3
 10
-98.54207169682849
 20
-8.41978141078377
 30
0.0
 11
-78.54207169682849
 21
-8.41978141078377
 31
0.0
  0
LINE
  5
2C7
  8
0
  6
CONTINUOUS
 62
     3
 10
-93.54207169682849
 20
-7.569781029314044
 30
0.0
 11
-78.54207169682849
 21
-7.569781029314044
 31
0.0
  0
LINE
  5
2C8
  8
0
  6
CONTINUOUS
 62
     3
 10
-93.54207169682849
 20
-15.56978102931404
 30
0.0
 11
-78.54207169682849
 21
-15.56978102931404
 31
0.0
  0
LINE
  5
2C9
  8
0
  6
CONTINUOUS
 62
     3
 10
-100.3607450188476
 20
-11.56978681427333
 30
0.0
 11
-98.54208406596234
 21
-8.419774074182413
 31
0.0
  0
LINE
  5
2CA
  8
0
  6
CONTINUOUS
 62
     3
 10
-100.3607343898079
 20
-11.56980579820558
 30
0.0
 11
-98.5420848810158
 21
-14.71979871654841
 31
0.0
  0
LINE
  5
2CB
  8
0
  6
CONTINUOUS
 62
     3
 10
-166.3420747485863
 20
70.43021897068596
 30
0.0
 11
-132.5420716968285
 21
70.43021897068596
 31
0.0
  0
LINE
  5
2CC
  8
0
  6
CONTINUOUS
 62
     3
 10
208.4285749407598
 20
-43.25376806523124
 30
0.0
 11
214.9556118011213
 21
-35.47514940656399
 31
0.0
  0
LINE
  5
2CD
  8
0
  6
CONTINUOUS
 62
     3
 10
206.8579694750991
 20
-42.34697814545004
 30
0.0
 11
208.4286184722917
 21
-43.25379266659499
 31
0.0
  0
LINE
  5
2CE
  8
0
  6
CONTINUOUS
 62
     3
 10
148.107952717234
 20
140.930218970686
 30
0.0
 11
148.107952717234
 21
66.03006485691643
 31
0.0
  0
LINE
  5
2CF
  8
0
  6
CONTINUOUS
 62
     3
 10
113.107952717234
 20
140.930218970686
 30
0.0
 11
113.107952717234
 21
66.03006485691643
 31
0.0
  0
LINE
  5
2D0
  8
0
  6
CONTINUOUS
 62
     3
 10
103.107952717234
 20
139.1669438242016
 30
0.0
 11
103.107952717234
 21
137.3532688974438
 31
0.0
  0
LINE
  5
2D1
  8
0
  6
CONTINUOUS
 62
     3
 10
158.107952717234
 20
139.1669438242016
 30
0.0
 11
158.107952717234
 21
137.3532688974438
 31
0.0
  0
LINE
  5
2D2
  8
0
  6
CONTINUOUS
 62
     3
 10
113.107952717234
 20
140.930218970686
 30
0.0
 11
148.107952717234
 21
140.930218970686
 31
0.0
  0
LINE
  5
2D3
  8
0
  6
CONTINUOUS
 62
     3
 10
103.1079673577627
 20
139.1669219481233
 30
0.0
 11
113.1079598427116
 21
140.9301904810491
 31
0.0
  0
LINE
  5
2D4
  8
0
  6
CONTINUOUS
 62
     3
 10
148.1079433804978
 20
140.9301848680675
 30
0.0
 11
158.1079433789335
 21
139.1669150103112
 31
0.0
  0
LINE
  5
2D5
  8
0
  6
CONTINUOUS
 62
     3
 10
113.107952717234
 20
74.93021897068596
 30
0.0
 11
148.107952717234
 21
74.93021897068596
 31
0.0
  0
LINE
  5
2D6
  8
0
  6
CONTINUOUS
 62
     3
 10
137.607952717234
 20
140.930218970686
 30
0.0
 11
137.607952717234
 21
124.8032048105297
 31
0.0
  0
LINE
  5
2D7
  8
0
  6
CONTINUOUS
 62
     3
 10
123.607952717234
 20
140.930218970686
 30
0.0
 11
123.607952717234
 21
124.8032048105297
 31
0.0
  0
LINE
  5
2D8
  8
0
  6
CONTINUOUS
 62
     3
 10
123.607952717234
 20
130.930218970686
 30
0.0
 11
137.607952717234
 21
130.930218970686
 31
0.0
  0
LINE
  5
2D9
  8
0
  6
CONTINUOUS
 62
     3
 10
123.607952717234
 20
80.93021897068596
 30
0.0
 11
137.607952717234
 21
80.93021897068596
 31
0.0
  0
LINE
  5
2DA
  8
0
  6
CONTINUOUS
 62
     3
 10
137.607952717234
 20
87.05723313084221
 30
0.0
 11
137.607952717234
 21
74.93021897068596
 31
0.0
  0
LINE
  5
2DB
  8
0
  6
CONTINUOUS
 62
     3
 10
123.607952717234
 20
87.05723313084221
 30
0.0
 11
123.607952717234
 21
74.93021897068596
 31
0.0
  0
LINE
  5
2DC
  8
0
  6
CONTINUOUS
 62
     3
 10
123.607952717234
 20
117.0572331308422
 30
0.0
 11
123.607952717234
 21
94.80320481052971
 31
0.0
  0
LINE
  5
2DD
  8
0
  6
CONTINUOUS
 62
     3
 10
137.607952717234
 20
117.0572331308422
 30
0.0
 11
137.607952717234
 21
94.80320481052971
 31
0.0
  0
LINE
  5
2DE
  8
0
  6
CONTINUOUS
 62
     3
 10
-126.5420716968285
 20
2.180218970685957
 30
0.0
 11
-118.5420716968285
 21
2.180218970685957
 31
0.0
  0
LINE
  5
2DF
  8
0
  6
CONTINUOUS
 62
     3
 10
-126.5420716968285
 20
64.68021897068596
 30
0.0
 11
-118.5420716968285
 21
64.68021897068596
 31
0.0
  0
LINE
  5
2E0
  8
0
  6
CONTINUOUS
 62
     3
 10
-156.5420716968285
 20
8.430218970685957
 30
0.0
 11
-156.5420716968285
 21
16.18021897068596
 31
0.0
  0
LINE
  5
2E1
  8
0
  6
CONTINUOUS
 62
     3
 10
-129.5420716968285
 20
8.430218970685957
 30
0.0
 11
-129.5420716968285
 21
16.18021897068596
 31
0.0
  0
LINE
  5
2E2
  8
0
  6
CONTINUOUS
 62
     3
 10
-156.542052149439
 20
8.430215762356994
 30
0.0
 11
-157.542057004249
 21
7.430218493987951
 31
0.0
  0
LINE
  5
2E3
  8
0
  6
CONTINUOUS
 62
     3
 10
-156.5420716968285
 20
8.430218970685957
 30
0.0
 11
-129.5420716968285
 21
8.430218970685957
 31
0.0
  0
LINE
  5
2E4
  8
0
  6
CONTINUOUS
 62
     3
 10
-129.5420465849667
 20
8.430240498361883
 30
0.0
 11
-128.5420458605892
 21
7.430228309967362
 31
0.0
  0
LINE
  5
2E5
  8
0
  6
CONTINUOUS
 62
     3
 10
87.75795228390217
 20
109.3665632287753
 30
0.0
 11
84.9079527905422
 21
104.4302214984487
 31
0.0
  0
LINE
  5
2E6
  8
0
  6
CONTINUOUS
 62
     3
 10
93.45795119135511
 20
109.3665593027172
 30
0.0
 11
87.75795424311292
 21
109.3665593027172
 31
0.0
  0
LINE
  5
2E7
  8
0
  6
CONTINUOUS
 62
     3
 10
96.30796620286066
 20
104.4302261607693
 30
0.0
 11
93.45796578264941
 21
109.3665761970786
 31
0.0
  0
LINE
  5
2E8
  8
0
  6
CONTINUOUS
 62
     3
 10
93.45794501900019
 20
99.49386327262303
 30
0.0
 11
96.30795070528603
 21
104.4302099114648
 31
0.0
  0
LINE
  5
2E9
  8
0
  6
CONTINUOUS
 62
     3
 10
87.75795424311292
 20
99.49387100926018
 30
0.0
 11
93.45795119135511
 21
99.49387100926018
 31
0.0
  0
LINE
  5
2EA
  8
0
  6
CONTINUOUS
 62
     3
 10
84.90795236745709
 20
104.4302305063227
 30
0.0
 11
87.75794948259301
 21
99.49388775675723
 31
0.0
  0
LINE
  5
2EB
  8
0
  6
CONTINUOUS
 62
     3
 10
86.27014601557386
 20
-41.64716597804451
 30
0.0
 11
91.97014296381605
 21
-41.64716597804451
 31
0.0
  0
LINE
  5
2EC
  8
0
  6
CONTINUOUS
 62
     3
 10
83.42015640007099
 20
-36.71079668333002
 30
0.0
 11
86.27015487419209
 21
-41.64713875340291
 31
0.0
  0
LINE
  5
2ED
  8
0
  6
CONTINUOUS
 62
     3
 10
86.27013986073564
 20
-31.77444708310085
 30
0.0
 11
83.42013553343679
 21
-36.71079474118287
 31
0.0
  0
LINE
  5
2EE
  8
0
  6
CONTINUOUS
 62
     3
 10
91.97015822260511
 20
-31.77453871974373
 30
0.0
 11
86.27016127436292
 21
-31.77453871974373
 31
0.0
  0
LINE
  5
2EF
  8
0
  6
CONTINUOUS
 62
     3
 10
94.82015358651375
 20
-36.7107946066744
 30
0.0
 11
91.97015511239266
 21
-31.7744525366015
 31
0.0
  0
LINE
  5
2F0
  8
0
  6
CONTINUOUS
 62
     3
 10
91.97012936548259
 20
-41.64714582432171
 30
0.0
 11
94.82012919858886
 21
-36.7108044337414
 31
0.0
  0
LINE
  5
2F1
  8
0
  6
CONTINUOUS
 62
     3
 10
217.7957653283536
 20
32.57124507429901
 30
0.0
 11
214.9457668542326
 21
37.50758714437191
 31
0.0
  0
LINE
  5
2F2
  8
0
  6
CONTINUOUS
 62
     3
 10
214.9457476495052
 20
27.63489010049037
 30
0.0
 11
217.7957461236263
 21
32.57123217056326
 31
0.0
  0
LINE
  5
2F3
  8
0
  6
CONTINUOUS
 62
     3
 10
209.2457548412575
 20
27.63487938633537
 30
0.0
 11
214.9457670482887
 21
27.63487938633537
 31
0.0
  0
LINE
  5
2F4
  8
0
  6
CONTINUOUS
 62
     3
 10
206.3958237924579
 20
32.57128393716815
 30
0.0
 11
209.245822266579
 21
27.63494186709525
 31
0.0
  0
LINE
  5
2F5
  8
0
  6
CONTINUOUS
 62
     3
 10
209.2457408040553
 20
37.50758013198905
 30
0.0
 11
206.3957423299342
 21
32.57123806191615
 31
0.0
  0
LINE
  5
2F6
  8
0
  6
CONTINUOUS
 62
     3
 10
214.9457670482887
 20
37.50756958714104
 30
0.0
 11
209.2457701000465
 21
37.50756958714104
 31
0.0
  0
LINE
  5
2F7
  8
0
  6
CONTINUOUS
 62
     3
 10
23.2009173669037
 20
-54.56202089649324
 30
0.0
 11
40.23402334027901
 21
-84.0642218066354
 31
0.0
  0
LINE
  5
2F8
  8
0
  6
CONTINUOUS
 62
     3
 10
16.19258993951104
 20
-68.42324096370109
 30
0.0
 11
27.45092081254779
 21
-61.92324048686393
 31
0.0
  0
LINE
  5
2F9
  8
0
  6
CONTINUOUS
 62
     3
 10
25.19258942843845
 20
-84.01168943743775
 30
0.0
 11
36.45091699785053
 21
-77.51169086794923
 31
0.0
  0
LINE
  5
2FA
  8
0
  6
CONTINUOUS
 62
     3
 10
16.1925903041311
 20
-68.4232360408889
 30
0.0
 11
25.19259137701471
 21
-84.01169302922355
 31
0.0
  0
LINE
  5
2FB
  8
0
  6
CONTINUOUS
 62
     3
 10
32.28488938375807
 20
-72.29591754292321
 30
0.0
 11
29.88489167257643
 21
-68.13899964371692
 31
0.0
  0
LINE
  5
2FC
  8
0
  6
CONTINUOUS
 62
     3
 10
20.92672497391499
 20
-69.50050204447277
 30
0.0
 11
18.2225611616405
 21
-71.06175177744396
 31
0.0
  0
LINE
  5
2FD
  8
0
  6
CONTINUOUS
 62
     3
 10
26.62671810745991
 20
-79.3731795773692
 30
0.0
 11
23.92255429518542
 21
-80.93442931034039
 31
0.0
  0
LINE
  5
2FE
  8
0
  6
CONTINUOUS
 62
     3
 10
27.09662257183726
 20
-68.7095730859858
 30
0.0
 11
29.8848914803263
 21
-68.13899582904443
 31
0.0
  0
LINE
  5
2FF
  8
0
  6
CONTINUOUS
 62
     3
 10
30.39662130698758
 20
-74.42534502766372
 30
0.0
 11
32.2848876589415
 21
-72.2959247651124
 31
0.0
  0
LINE
  5
300
  8
0
  6
CONTINUOUS
 62
     3
 10
26.38168780371046
 20
-78.07127223171662
 30
0.0
 11
21.93169467016554
 21
-70.36365816942222
 31
0.0
  0
LINE
  5
301
  8
0
  6
CONTINUOUS
 62
     3
 10
24.95929344465861
 20
-77.09539064756424
 30
0.0
 11
22.78364350876797
 21
-78.35150274625809
 31
0.0
  0
LINE
  5
302
  8
0
  6
CONTINUOUS
 62
     3
 10
22.06563576033244
 20
-72.08342860855507
 30
0.0
 11
19.88998582444179
 21
-73.33954070724892
 31
0.0
  0
LINE
  5
303
  8
0
  6
CONTINUOUS
 62
     3
 10
9.969604646544269
 20
-77.64472078971605
 30
0.0
 11
18.54258398075666
 21
-72.49355515571264
 31
0.0
  0
LINE
  5
304
  8
0
  6
CONTINUOUS
 62
     3
 10
14.09506528721892
 20
-84.79021082952201
 30
0.0
 11
22.84258873364394
 21
-79.94137961959964
 31
0.0
  0
LINE
  5
305
  8
0
  6
CONTINUOUS
 62
     3
 10
13.69505527259281
 20
-84.09737593673432
 30
0.0
 11
14.04751568612898
 21
-83.89388281844819
 31
0.0
  0
LINE
  5
306
  8
0
  6
CONTINUOUS
 62
     3
 10
-116.5420716968285
 20
9.430218970685957
 30
0.0
 11
-107.5420716968285
 21
9.430218970685957
 31
0.0
  0
LINE
  5
307
  8
0
  6
CONTINUOUS
 62
     3
 10
-116.5420716968285
 20
57.43021897068596
 30
0.0
 11
-107.5420716968285
 21
57.43021897068596
 31
0.0
  0
LINE
  5
308
  8
0
  6
CONTINUOUS
 62
     3
 10
-116.5420716968285
 20
58.43022278538322
 30
0.0
 11
-108.5420716968285
 21
58.43022278538322
 31
0.0
  0
LINE
  5
309
  8
0
  6
CONTINUOUS
 62
     3
 10
-116.5420716968285
 20
62.43022278538322
 30
0.0
 11
-108.5420716968285
 21
62.43022278538322
 31
0.0
  0
LINE
  5
30A
  8
0
  6
CONTINUOUS
 62
     3
 10
-112.5420716968285
 20
62.43022278538322
 30
0.0
 11
-112.5420716968285
 21
58.43022278538322
 31
0.0
  0
LINE
  5
30B
  8
0
  6
CONTINUOUS
 62
     3
 10
-108.5420716968285
 20
62.43022278538322
 30
0.0
 11
-108.5420716968285
 21
58.43022278538322
 31
0.0
  0
LINE
  5
30C
  8
0
  6
CONTINUOUS
 62
     3
 10
-108.5420716968285
 20
61.93022278538322
 30
0.0
 11
-107.5420716968285
 21
61.93022278538322
 31
0.0
  0
LINE
  5
30D
  8
0
  6
CONTINUOUS
 62
     3
 10
-108.5420716968285
 20
58.93022278538322
 30
0.0
 11
-107.5420716968285
 21
58.93022278538322
 31
0.0
  0
LINE
  5
30E
  8
0
  6
CONTINUOUS
 62
     3
 10
-112.5420615767573
 20
61.68021828074419
 30
0.0
 11
-111.7920607805651
 21
62.43021907693631
 31
0.0
  0
LINE
  5
30F
  8
0
  6
CONTINUOUS
 62
     3
 10
-112.5420669715538
 20
59.18022102156695
 30
0.0
 11
-111.7920715701582
 21
58.43022562017134
 31
0.0
  0
LINE
  5
310
  8
0
  6
CONTINUOUS
 62
     3
 10
-111.7920716968285
 20
62.43022278538322
 30
0.0
 11
-111.7920716968285
 21
58.43022278538322
 31
0.0
  0
LINE
  5
311
  8
0
  6
CONTINUOUS
 62
     3
 10
-116.5420658231153
 20
61.43022341014333
 30
0.0
 11
-115.542067458924
 21
62.43022177433457
 31
0.0
  0
LINE
  5
312
  8
0
  6
CONTINUOUS
 62
     3
 10
-116.5420658231153
 20
59.43022128696433
 30
0.0
 11
-115.5420647615258
 21
58.43022022537483
 31
0.0
  0
LINE
  5
313
  8
0
  6
CONTINUOUS
 62
     3
 10
-115.5420716968285
 20
62.43022278538322
 30
0.0
 11
-115.5420716968285
 21
58.43022278538322
 31
0.0
  0
ARC
  5
314
  8
0
  6
CONTINUOUS
 62
     3
 10
130.607952717234
 20
33.43021897068596
 30
0.0
 40
107.5
 50
0.0
 51
80.63108666148504
  0
CIRCLE
  5
315
  8
0
  6
CONTINUOUS
 62
     3
 10
130.607952717234
 20
33.43021897068596
 30
0.0
 40
37.0
  0
CIRCLE
  5
316
  8
0
  6
CONTINUOUS
 62
     3
 10
130.607952717234
 20
33.43021897068596
 30
0.0
 40
32.5
  0
ARC
  5
317
  8
0
  6
CONTINUOUS
 62
     3
 10
130.607952717234
 20
33.43021897068596
 30
0.0
 40
40.0
 50
115.9444965573391
 51
184.0554981305431
  0
ARC
  5
318
  8
0
  6
CONTINUOUS
 62
     3
 10
130.607952717234
 20
33.43021897068596
 30
0.0
 40
107.5
 50
219.3689048386737
 51
320.6310969825591
  0
ARC
  5
319
  8
0
  6
CONTINUOUS
 62
     3
 10
130.607952717234
 20
33.43021897068596
 30
0.0
 40
40.0
 50
235.9444762183523
 51
304.0555426783535
  0
ARC
  5
31A
  8
0
  6
CONTINUOUS
 62
     3
 10
130.607952717234
 20
33.43021897068596
 30
0.0
 40
40.0
 50
355.9445021826582
 51
424.0555221119956
  0
ARC
  5
31B
  8
0
  6
CONTINUOUS
 62
     3
 10
130.607952717234
 20
33.43021897068596
 30
0.0
 40
107.5
 50
339.3689252534508
 51
360.0
  0
CIRCLE
  5
31C
  8
0
  6
CONTINUOUS
 62
     3
 10
130.607952717234
 20
-11.56978102931404
 30
0.0
 40
3.150000095367432
  0
CIRCLE
  5
31D
  8
0
  6
CONTINUOUS
 62
     3
 10
83.46160567133558
 20
80.57656601658439
 30
0.0
 40
7.0
  0
CIRCLE
  5
31E
  8
0
  6
CONTINUOUS
 62
     3
 10
66.20484602778089
 20
50.68697861424064
 30
0.0
 40
7.0
  0
CIRCLE
  5
31F
  8
0
  6
CONTINUOUS
 62
     3
 10
177.7542997631325
 20
80.57656601658439
 30
0.0
 40
7.0
  0
CIRCLE
  5
320
  8
0
  6
CONTINUOUS
 62
     3
 10
195.0110594066871
 20
50.68697861424064
 30
0.0
 40
7.0
  0
CIRCLE
  5
321
  8
0
  6
CONTINUOUS
 62
     3
 10
147.8647123607887
 20
-30.97288771876717
 30
0.0
 40
7.0
  0
CIRCLE
  5
322
  8
0
  6
CONTINUOUS
 62
     3
 10
113.3511930736793
 20
-30.97288771876717
 30
0.0
 40
10.0
  0
CIRCLE
  5
323
  8
0
  6
CONTINUOUS
 62
     3
 10
147.8647123607887
 20
-30.97288771876717
 30
0.0
 40
10.0
  0
ARC
  5
324
  8
0
  6
CONTINUOUS
 62
     3
 10
130.607952717234
 20
33.43021897068596
 30
0.0
 40
105.5
 50
219.5481563232515
 51
320.4518386677922
  0
CIRCLE
  5
325
  8
0
  6
CONTINUOUS
 62
     3
 10
66.20484602778089
 20
50.68697861424064
 30
0.0
 40
10.0
  0
CIRCLE
  5
326
  8
0
  6
CONTINUOUS
 62
     3
 10
83.46160567133558
 20
80.57656601658439
 30
0.0
 40
10.0
  0
CIRCLE
  5
327
  8
0
  6
CONTINUOUS
 62
     3
 10
177.7542997631325
 20
80.57656601658439
 30
0.0
 40
10.0
  0
CIRCLE
  5
328
  8
0
  6
CONTINUOUS
 62
     3
 10
195.0110594066871
 20
50.68697861424064
 30
0.0
 40
10.0
  0
CIRCLE
  5
329
  8
0
  6
CONTINUOUS
 62
     3
 10
169.5790983471168
 20
55.93021134129143
 30
0.0
 40
3.150000095367432
  0
CIRCLE
  5
32A
  8
0
  6
CONTINUOUS
 62
     3
 10
91.63681471674573
 20
55.93023422947502
 30
0.0
 40
3.150000095367432
  0
ARC
  5
32B
  8
0
  6
CONTINUOUS
 62
     3
 10
130.607952717234
 20
33.43021897068596
 30
0.0
 40
107.5
 50
99.36893200784964
 51
200.6310558498434
  0
ARC
  5
32C
  8
0
  6
CONTINUOUS
 62
     3
 10
130.607952717234
 20
33.43021897068596
 30
0.0
 40
105.5
 50
99.54819032261662
 51
200.4517907048872
  0
CIRCLE
  5
32D
  8
0
  6
CONTINUOUS
 62
     3
 10
90.60795271723401
 20
104.430218970686
 30
0.0
 40
9.0
  0
CIRCLE
  5
32E
  8
0
  6
CONTINUOUS
 62
     3
 10
90.60795271723401
 20
104.430218970686
 30
0.0
 40
0.75
  0
CIRCLE
  5
32F
  8
0
  6
CONTINUOUS
 62
     3
 10
90.60795271723401
 20
104.430218970686
 30
0.0
 40
3.299999952316284
  0
CIRCLE
  5
330
  8
0
  6
CONTINUOUS
 62
     3
 10
90.60795271723401
 20
104.430218970686
 30
0.0
 40
2.400000095367432
  0
CIRCLE
  5
331
  8
0
  6
CONTINUOUS
 62
     3
 10
89.12015211908948
 20
-36.7107989431324
 30
0.0
 40
9.0
  0
CIRCLE
  5
332
  8
0
  6
CONTINUOUS
 62
     3
 10
89.12015211908948
 20
-36.7107989431324
 30
0.0
 40
0.75
  0
CIRCLE
  5
333
  8
0
  6
CONTINUOUS
 62
     3
 10
89.12015211908948
 20
-36.7107989431324
 30
0.0
 40
3.299999952316284
  0
CIRCLE
  5
334
  8
0
  6
CONTINUOUS
 62
     3
 10
89.12015211908948
 20
-36.7107989431324
 30
0.0
 40
2.400000095367432
  0
CIRCLE
  5
335
  8
0
  6
CONTINUOUS
 62
     3
 10
212.0957609447731
 20
32.57123497715568
 30
0.0
 40
9.0
  0
CIRCLE
  5
336
  8
0
  6
CONTINUOUS
 62
     3
 10
212.0957609447731
 20
32.57123497715568
 30
0.0
 40
0.75
  0
CIRCLE
  5
337
  8
0
  6
CONTINUOUS
 62
     3
 10
212.0957609447731
 20
32.57123497715568
 30
0.0
 40
3.299999952316284
  0
CIRCLE
  5
338
  8
0
  6
CONTINUOUS
 62
     3
 10
212.0957609447731
 20
32.57123497715568
 30
0.0
 40
2.400000095367432
  0
ARC
  5
339
  8
0
  6
CONTINUOUS
 62
     3
 10
28.74662649958265
 20
-71.56746932277108
 30
0.0
 40
3.299999952316284
 50
283.4828250680728
 51
299.9999846699695
  0
ARC
  5
33A
  8
0
  6
CONTINUOUS
 62
     3
 10
28.74662649958265
 20
-71.56746932277108
 30
0.0
 40
3.299999952316284
 50
120.0000169996826
 51
136.5171766015793
  0
ARC
  5
33B
  8
0
  6
CONTINUOUS
 62
     3
 10
24.64964354365003
 20
-79.0712840200367
 30
0.0
 40
2.0
 50
210.0000026560589
 51
248.6821916241575
  0
ARC
  5
33C
  8
0
  6
CONTINUOUS
 62
     3
 10
20.19963801233899
 20
-71.36365767726326
 30
0.0
 40
2.0
 50
210.0000026560589
 51
261.0931644404476
  0
ARC
  5
33D
  8
0
  6
CONTINUOUS
 62
     3
 10
25.88874113886487
 20
-73.21747084864998
 30
0.0
 40
6.0
 50
210.0000026560589
 51
238.8342336335363
  0
ARC
  5
33E
  8
0
  6
CONTINUOUS
 62
     3
 10
18.96054041712415
 20
-77.21747084864998
 30
0.0
 40
6.0
 50
1.165774019495132
 51
58.83421132173599
  0
ARC
  5
33F
  8
0
  6
CONTINUOUS
 62
     3
 10
25.88874113886487
 20
-73.21747084864998
 30
0.0
 40
6.0
 50
181.1657580182031
 51
210.0000026560589
  0
ARC
  5
340
  8
0
  6
CONTINUOUS
 62
     3
 10
24.64964354365003
 20
-79.0712840200367
 30
0.0
 40
2.0
 50
158.9068372292045
 51
209.9999990135932
  0
ARC
  5
341
  8
0
  6
CONTINUOUS
 62
     3
 10
24.64964354365003
 20
-79.0712840200367
 30
0.0
 40
2.0
 50
351.317829795974
 51
441.0931148078906
  0
ARC
  5
342
  8
0
  6
CONTINUOUS
 62
     3
 10
20.19963801233899
 20
-71.36365767726326
 30
0.0
 40
2.0
 50
338.9068561259103
 51
428.6821556519788
  0
ARC
  5
343
  8
0
  6
CONTINUOUS
 62
     3
 10
20.19963801233899
 20
-71.36365767726326
 30
0.0
 40
2.0
 50
171.3178100454946
 51
209.9999990135932
  0
ARC
  5
344
  8
0
  6
CONTINUOUS
 62
     3
 10
31.99204123346937
 20
-79.85508986720467
 30
0.0
 40
5.650000095367432
 50
115.9910921078569
 51
165.0592530674986
  0
ARC
  5
345
  8
0
  6
CONTINUOUS
 62
     3
 10
23.19204008906019
 20
-64.61304732570076
 30
0.0
 40
5.650000095367432
 50
254.9407486021535
 51
304.0089061467006
  0
ARC
  5
346
  8
0
  6
CONTINUOUS
 62
     3
 10
30.47867453425062
 20
-70.56746932277108
 30
0.0
 40
1.5
 50
327.8181532914213
 51
452.1818449631362
  0
CIRCLE
  5
347
  8
0
  6
CONTINUOUS
 62
     3
 10
130.607952717234
 20
33.43021897068596
 30
0.0
 40
24.0
  0
CIRCLE
  5
348
  8
0
  6
CONTINUOUS
 62
     3
 10
130.607952717234
 20
60.43022278538322
 30
0.0
 40
2.0
  0
CIRCLE
  5
349
  8
0
  6
CONTINUOUS
 62
     3
 10
107.2252622875465
 20
19.93021706333732
 30
0.0
 40
2.0
  0
CIRCLE
  5
34A
  8
0
  6
CONTINUOUS
 62
     3
 10
153.9906431469215
 20
19.93021706333732
 30
0.0
 40
2.0
  0
LINE
  5
34B
  8
0
  6
DASHED
 62
     2
 10
72.60795271723401
 20
112.430218970686
 30
0.0
 11
84.18833601801526
 21
112.430218970686
 31
0.0
  0
LINE
  5
34C
  8
0
  6
DASHED
 62
     2
 10
72.60795271723401
 20
96.43021897068596
 30
0.0
 11
84.18833601801526
 21
96.43021897068596
 31
0.0
  0
LINE
  5
34D
  8
0
  6
DASHED
 62
     2
 10
72.60795271723401
 20
123.9412663339672
 30
0.0
 11
72.60795271723401
 21
93.43021897068596
 31
0.0
  0
LINE
  5
34E
  8
0
  6
DASHED
 62
     2
 10
41.41013777582776
 20
93.43021897068596
 30
0.0
 11
72.60795271723401
 21
93.43021897068596
 31
0.0
  0
LINE
  5
34F
  8
0
  6
DASHED
 62
     2
 10
60.60795271723401
 20
106.8302204965649
 30
0.0
 11
60.60795271723401
 21
102.0302174448071
 31
0.0
  0
LINE
  5
350
  8
0
  6
DASHED
 62
     2
 10
63.30795348017347
 20
107.7302220224438
 30
0.0
 11
63.30795348017347
 21
101.1302159189281
 31
0.0
  0
LINE
  5
351
  8
0
  6
DASHED
 62
     2
 10
69.04670393793714
 20
98.73022202244377
 30
0.0
 11
72.16920149653089
 21
98.73022202244377
 31
0.0
  0
LINE
  5
352
  8
0
  6
DASHED
 62
     2
 10
69.04670393793714
 20
110.1302159189281
 30
0.0
 11
72.16920149653089
 21
110.1302159189281
 31
0.0
  0
LINE
  5
353
  8
0
  6
DASHED
 62
     2
 10
63.30792809423798
 20
101.1301375079068
 30
0.0
 11
60.60793129710788
 21
102.0301363271917
 31
0.0
  0
LINE
  5
354
  8
0
  6
DASHED
 62
     2
 10
63.30797046598337
 20
107.7301441443756
 30
0.0
 11
60.60797366885328
 21
106.8301453250906
 31
0.0
  0
LINE
  5
355
  8
0
  6
DASHED
 62
     2
 10
64.30795348017347
 20
107.1755497812328
 30
0.0
 11
64.30795348017347
 21
101.6347401498852
 31
0.0
  0
LINE
  5
356
  8
0
  6
DASHED
 62
     2
 10
68.60795271723401
 20
108.8802159189281
 30
0.0
 11
68.60795271723401
 21
99.98022202244377
 31
0.0
  0
LINE
  5
357
  8
0
  6
DASHED
 62
     2
 10
69.35184157221448
 20
107.3238804697094
 30
0.0
 11
71.86406386225355
 21
107.3238804697094
 31
0.0
  0
LINE
  5
358
  8
0
  6
DASHED
 62
     2
 10
69.35184157221448
 20
101.5365574716625
 30
0.0
 11
71.86406386225355
 21
101.5365574716625
 31
0.0
  0
LINE
  5
359
  8
0
  6
DASHED
 62
     2
 10
72.60796070406452
 20
108.5802467525392
 30
0.0
 11
79.37225786685697
 21
108.4621755126813
 31
0.0
  0
LINE
  5
35A
  8
0
  6
DASHED
 62
     2
 10
72.60795052335278
 20
100.2802300215433
 30
0.0
 11
79.32799630853232
 21
100.3975288507732
 31
0.0
  0
LINE
  5
35B
  8
0
  6
DASHED
 62
     2
 10
72.59399109795884
 20
107.7803656662914
 30
0.0
 11
79.35829588898393
 21
107.6622942932821
 31
0.0
  0
LINE
  5
35C
  8
0
  6
DASHED
 62
     2
 10
72.59398854547975
 20
101.0801112409425
 30
0.0
 11
79.31403433065928
 21
101.1974100701723
 31
0.0
  0
ARC
  5
35D
  8
0
  6
DASHED
 62
     2
 10
63.30795348017347
 20
104.430218970686
 30
0.0
 40
3.299999952316284
 50
73.48282241201396
 51
89.99998201391065
  0
ARC
  5
35E
  8
0
  6
DASHED
 62
     2
 10
63.30795348017347
 20
104.430218970686
 30
0.0
 40
3.299999952316284
 50
270.0000179860894
 51
286.5171775879861
  0
ARC
  5
35F
  8
0
  6
DASHED
 62
     2
 10
70.60795271723401
 20
108.8802159189281
 30
0.0
 40
2.0
 50
0.0
 51
38.68218896809859
  0
ARC
  5
360
  8
0
  6
DASHED
 62
     2
 10
70.60795271723401
 20
99.98022202244377
 30
0.0
 40
2.0
 50
0.0
 51
51.09316519948327
  0
ARC
  5
361
  8
0
  6
DASHED
 62
     2
 10
66.60795271723401
 20
104.430218970686
 30
0.0
 40
6.0
 50
0.0
 51
28.83423780766662
  0
ARC
  5
362
  8
0
  6
DASHED
 62
     2
 10
74.60795271723401
 20
104.430218970686
 30
0.0
 40
6.0
 50
151.1657740314789
 51
208.8342086656771
  0
ARC
  5
363
  8
0
  6
DASHED
 62
     2
 10
66.60795271723401
 20
104.430218970686
 30
0.0
 40
6.0
 50
331.1657621923334
 51
360.0
  0
ARC
  5
364
  8
0
  6
DASHED
 62
     2
 10
70.60795271723401
 20
108.8802159189281
 30
0.0
 40
2.0
 50
308.9068348005167
 51
360.0
  0
ARC
  5
365
  8
0
  6
DASHED
 62
     2
 10
70.60795271723401
 20
108.8802159189281
 30
0.0
 40
2.0
 50
141.3178297012361
 51
231.0931121518317
  0
ARC
  5
366
  8
0
  6
DASHED
 62
     2
 10
70.60795271723401
 20
99.98022202244377
 30
0.0
 40
2.0
 50
128.906856884946
 51
218.6821529959199
  0
ARC
  5
367
  8
0
  6
DASHED
 62
     2
 10
70.60795271723401
 20
99.98022202244377
 30
0.0
 40
2.0
 50
321.3178110319014
 51
360.0
  0
ARC
  5
368
  8
0
  6
DASHED
 62
     2
 10
64.64114821283948
 20
113.2302220224438
 30
0.0
 40
5.650000095367432
 50
265.9910930942637
 51
315.0592540539054
  0
ARC
  5
369
  8
0
  6
DASHED
 62
     2
 10
64.64114821283948
 20
95.63021591892814
 30
0.0
 40
5.650000095367432
 50
44.94074594609464
 51
94.00890690573628
  0
ARC
  5
36A
  8
0
  6
DASHED
 62
     2
 10
61.3079496654762
 20
104.430218970686
 30
0.0
 40
1.5
 50
117.818154050457
 51
242.1818423070773
  0
LINE
  5
36B
  8
0
  6
CONTINUOUS
 62
     2
 10
80.81149806460832
 20
9.380217897259428
 30
0.0
 11
76.74117555787467
 21
7.030221857988778
 31
0.0
  0
LINE
  5
36C
  8
0
  6
CONTINUOUS
 62
     2
 10
76.7411772045387
 20
7.030218398481367
 30
0.0
 11
76.7411772045387
 21
2.33021858921623
 31
0.0
  0
LINE
  5
36D
  8
0
  6
CONTINUOUS
 62
     2
 10
76.74117217868917
 20
2.330220548114113
 30
0.0
 11
80.8114902031528
 21
-0.0197831950581246
 31
0.0
  0
LINE
  5
36E
  8
0
  6
CONTINUOUS
 62
     2
 10
80.8115066195565
 20
-0.0198115374184624
 30
0.0
 11
84.88182912629014
 21
2.330184641923125
 31
0.0
  0
LINE
  5
36F
  8
0
  6
CONTINUOUS
 62
     2
 10
84.88181746332776
 20
2.330210959821699
 30
0.0
 11
84.88181746332776
 21
7.030210769086835
 31
0.0
  0
LINE
  5
370
  8
0
  6
CONTINUOUS
 62
     2
 10
84.88181635113125
 20
7.030213558366114
 30
0.0
 11
80.8115027508573
 21
9.380217635320179
 31
0.0
  0
LINE
  5
371
  8
0
  6
CONTINUOUS
 62
     2
 10
54.83073558289067
 20
-5.619780815594567
 30
0.0
 11
50.76041307615702
 21
-7.969776854865216
 31
0.0
  0
LINE
  5
372
  8
0
  6
CONTINUOUS
 62
     2
 10
50.76041090815198
 20
-7.969780647844317
 30
0.0
 11
50.76041090815198
 21
-12.66977950343514
 31
0.0
  0
LINE
  5
373
  8
0
  6
CONTINUOUS
 62
     2
 10
50.7604159426366
 20
-12.66977213280686
 30
0.0
 11
54.83072735985405
 21
-15.01977206127637
 31
0.0
  0
LINE
  5
374
  8
0
  6
CONTINUOUS
 62
     2
 10
54.83074223049454
 20
-15.0198078407154
 30
0.0
 11
58.90105812997473
 21
-12.66981547606426
 31
0.0
  0
LINE
  5
375
  8
0
  6
CONTINUOUS
 62
     2
 10
58.90105116694105
 20
-12.66978713282967
 30
0.0
 11
58.90105116694105
 21
-7.969788277238848
 31
0.0
  0
LINE
  5
376
  8
0
  6
CONTINUOUS
 62
     2
 10
58.90105859101328
 20
-7.969776040251162
 30
0.0
 11
54.83074499073933
 21
-5.619771963297097
 31
0.0
  0
LINE
  5
377
  8
0
  6
CONTINUOUS
 62
     2
 10
180.4044124143853
 20
9.380229491186611
 30
0.0
 11
176.3340799967714
 21
7.030227729880636
 31
0.0
  0
LINE
  5
378
  8
0
  6
CONTINUOUS
 62
     2
 10
176.3341032299293
 20
7.030234610944746
 30
0.0
 11
176.3341032299293
 21
2.330235755353925
 31
0.0
  0
LINE
  5
379
  8
0
  6
CONTINUOUS
 62
     2
 10
176.3340740149841
 20
2.330220762431992
 30
0.0
 11
180.4043887358246
 21
-0.0197810733888844
 31
0.0
  0
LINE
  5
37A
  8
0
  6
CONTINUOUS
 62
     2
 10
180.4044505524951
 20
-0.019838412841608
 30
0.0
 11
184.474782970109
 21
2.330163488535646
 31
0.0
  0
LINE
  5
37B
  8
0
  6
CONTINUOUS
 62
     2
 10
184.4747434887184
 20
2.330228125959394
 30
0.0
 11
184.4747434887184
 21
7.030226981550214
 31
0.0
  0
LINE
  5
37C
  8
0
  6
CONTINUOUS
 62
     2
 10
184.4747286239825
 20
7.03019622774903
 30
0.0
 11
180.4044150237085
 21
9.380200304703095
 31
0.0
  0
LINE
  5
37D
  8
0
  6
CONTINUOUS
 62
     2
 10
206.3851545709713
 20
-5.61976085703688
 30
0.0
 11
202.3148353678644
 21
-7.969754988962421
 31
0.0
  0
LINE
  5
37E
  8
0
  6
CONTINUOUS
 62
     2
 10
202.3148618969215
 20
-7.969765389055254
 30
0.0
 11
202.3148618969215
 21
-12.66976424464608
 31
0.0
  0
LINE
  5
37F
  8
0
  6
CONTINUOUS
 62
     2
 10
202.3148478038336
 20
-12.66978850290704
 30
0.0
 11
206.3851625246742
 21
-15.01979033872792
 31
0.0
  0
LINE
  5
380
  8
0
  6
CONTINUOUS
 62
     2
 10
206.3852334007073
 20
-15.0198669354231
 30
0.0
 11
210.4555526038142
 21
-12.66987266342673
 31
0.0
  0
LINE
  5
381
  8
0
  6
CONTINUOUS
 62
     2
 10
210.4555021557106
 20
-12.66977187404061
 30
0.0
 11
210.4555021557106
 21
-7.969773018449786
 31
0.0
  0
LINE
  5
382
  8
0
  6
CONTINUOUS
 62
     2
 10
210.4554934899123
 20
-7.969799891571682
 30
0.0
 11
206.3851798896383
 21
-5.619795814617618
 31
0.0
  0
LINE
  5
383
  8
0
  6
CONTINUOUS
 62
     2
 10
108.284937624839
 20
-28.04788780090118
 30
0.0
 11
113.351194570035
 21
-25.1228899794564
 31
0.0
  0
LINE
  5
384
  8
0
  6
CONTINUOUS
 62
     2
 10
113.3512126661403
 20
-25.12290162098233
 30
0.0
 11
118.4174490744103
 21
-28.04790436576477
 31
0.0
  0
LINE
  5
385
  8
0
  6
CONTINUOUS
 62
     2
 10
118.4174391063942
 20
-28.04789611110115
 30
0.0
 11
118.4174391063942
 21
-33.89789458522225
 31
0.0
  0
LINE
  5
386
  8
0
  6
CONTINUOUS
 62
     2
 10
118.4174353582865
 20
-33.89789739701288
 30
0.0
 11
113.3511850203439
 21
-36.82289140376722
 31
0.0
  0
LINE
  5
387
  8
0
  6
CONTINUOUS
 62
     2
 10
113.3511852896484
 20
-36.82287880372766
 30
0.0
 11
108.2849471379453
 21
-33.89787919712487
 31
0.0
  0
LINE
  5
388
  8
0
  6
CONTINUOUS
 62
     2
 10
108.28493941157
 20
-33.89788314113045
 30
0.0
 11
108.28493941157
 21
-28.04788466700936
 31
0.0
  0
LINE
  5
389
  8
0
  6
CONTINUOUS
 62
     2
 10
130.6079447147196
 20
125.6302024371999
 30
0.0
 11
126.5376255116127
 21
123.2802083052743
 31
0.0
  0
LINE
  5
38A
  8
0
  6
CONTINUOUS
 62
     2
 10
126.5376325878395
 20
123.2802174448071
 30
0.0
 11
126.5376325878395
 21
118.5802204965649
 31
0.0
  0
LINE
  5
38B
  8
0
  6
CONTINUOUS
 62
     2
 10
126.5376253204202
 20
118.5802029915786
 30
0.0
 11
130.6079400412608
 21
116.2302011557577
 31
0.0
  0
LINE
  5
38C
  8
0
  6
CONTINUOUS
 62
     2
 10
130.6079370119376
 20
116.2302384147579
 30
0.0
 11
134.6782694295515
 21
118.5802403161352
 31
0.0
  0
LINE
  5
38D
  8
0
  6
CONTINUOUS
 62
     2
 10
134.678265217234
 20
118.5802128671703
 30
0.0
 11
134.678265217234
 21
123.2802098154125
 31
0.0
  0
LINE
  5
38E
  8
0
  6
CONTINUOUS
 62
     2
 10
134.6782497087277
 20
123.2801816298088
 30
0.0
 11
130.6079361084538
 21
125.6301857067629
 31
0.0
  0
LINE
  5
38F
  8
0
  6
CONTINUOUS
 62
     2
 10
130.6079447566391
 20
95.63020861690259
 30
0.0
 11
126.5376255535322
 21
93.28021448497705
 31
0.0
  0
LINE
  5
390
  8
0
  6
CONTINUOUS
 62
     2
 10
126.5376325878395
 20
93.28021744480705
 30
0.0
 11
126.5376325878395
 21
88.58022049656486
 31
0.0
  0
LINE
  5
391
  8
0
  6
CONTINUOUS
 62
     2
 10
126.5376085764081
 20
88.5802026766842
 30
0.0
 11
130.6079232972487
 21
86.23020084086332
 31
0.0
  0
LINE
  5
392
  8
0
  6
CONTINUOUS
 62
     2
 10
130.6079442654346
 20
86.2302329976865
 30
0.0
 11
134.6782634685415
 21
88.58022726968287
 31
0.0
  0
LINE
  5
393
  8
0
  6
CONTINUOUS
 62
     2
 10
134.678265217234
 20
88.58021286717033
 30
0.0
 11
134.678265217234
 21
93.28020981541252
 31
0.0
  0
LINE
  5
394
  8
0
  6
CONTINUOUS
 62
     2
 10
134.6782553840247
 20
93.2801934341542
 30
0.0
 11
130.6079384801286
 21
95.63019941846144
 31
0.0
  0
CIRCLE
  5
395
  8
0
  6
CONTINUOUS
 62
     2
 10
80.81149733393323
 20
4.680216109663007
 30
0.0
 40
8.0
  0
CIRCLE
  5
396
  8
0
  6
CONTINUOUS
 62
     2
 10
54.83073103754651
 20
-10.31978293666268
 30
0.0
 40
8.0
  0
CIRCLE
  5
397
  8
0
  6
CONTINUOUS
 62
     2
 10
180.4044157299293
 20
4.680232322126386
 30
0.0
 40
8.0
  0
CIRCLE
  5
398
  8
0
  6
CONTINUOUS
 62
     2
 10
206.3851743969215
 20
-10.31976767787361
 30
0.0
 40
8.0
  0
CIRCLE
  5
399
  8
0
  6
CONTINUOUS
 62
     2
 10
113.3511930736793
 20
-30.97288771876717
 30
0.0
 40
9.0
  0
CIRCLE
  5
39A
  8
0
  6
CONTINUOUS
 62
     2
 10
130.607952717234
 20
120.930218970686
 30
0.0
 40
8.0
  0
CIRCLE
  5
39B
  8
0
  6
CONTINUOUS
 62
     2
 10
130.607952717234
 20
90.93021897068596
 30
0.0
 40
8.0
  0
LINE
  5
39C
  8
0
  6
CONTINUOUS
 62
     4
 10
-116.5420716968285
 20
1.730218207746503
 30
0.0
 11
-107.5420716968285
 21
1.730218207746503
 31
0.0
  0
LINE
  5
39D
  8
0
  6
CONTINUOUS
 62
     4
 10
-116.5420716968285
 20
65.13021973362541
 30
0.0
 11
-107.5420716968285
 21
65.13021973362541
 31
0.0
  0
LINE
  5
39E
  8
0
  6
CONTINUOUS
 62
     4
 10
-79.54207169682849
 20
140.930218970686
 30
0.0
 11
-79.54207169682849
 21
130.930218970686
 31
0.0
  0
LINE
  5
39F
  8
0
  6
CONTINUOUS
 62
     4
 10
-80.54207169682849
 20
140.930218970686
 30
0.0
 11
-80.54207169682849
 21
130.930218970686
 31
0.0
  0
LINE
  5
3A0
  8
0
  6
CONTINUOUS
 62
     4
 10
-93.54207169682849
 20
124.930218970686
 30
0.0
 11
-70.54207169682849
 21
124.930218970686
 31
0.0
  0
LINE
  5
3A1
  8
0
  6
CONTINUOUS
 62
     4
 10
-93.54207169682849
 20
116.930218970686
 30
0.0
 11
-70.54207169682849
 21
116.930218970686
 31
0.0
  0
LINE
  5
3A2
  8
0
  6
CONTINUOUS
 62
     4
 10
-93.54207169682849
 20
94.93021897068596
 30
0.0
 11
-70.54207169682849
 21
94.93021897068596
 31
0.0
  0
LINE
  5
3A3
  8
0
  6
CONTINUOUS
 62
     4
 10
-93.54207169682849
 20
86.93021897068596
 30
0.0
 11
-70.54207169682849
 21
86.93021897068596
 31
0.0
  0
LINE
  5
3A4
  8
0
  6
CONTINUOUS
 62
     4
 10
-80.54207169682849
 20
80.93021897068596
 30
0.0
 11
-80.54207169682849
 21
74.93021897068596
 31
0.0
  0
LINE
  5
3A5
  8
0
  6
CONTINUOUS
 62
     4
 10
-79.54207169682849
 20
80.93021897068596
 30
0.0
 11
-79.54207169682849
 21
74.93021897068596
 31
0.0
  0
LINE
  5
3A6
  8
0
  6
CONTINUOUS
 62
     4
 10
159.5970857866053
 20
-2.359200174585993
 30
0.0
 11
163.8470901079425
 21
5.002022232710289
 31
0.0
  0
LINE
  5
3A7
  8
0
  6
CONTINUOUS
 62
     4
 10
171.8470872469191
 20
18.85842183731396
 30
0.0
 11
176.0970877535586
 21
26.21963763736088
 31
0.0
  0
LINE
  5
3A8
  8
0
  6
CONTINUOUS
 62
     4
 10
214.1566852457766
 20
-33.85920392967861
 30
0.0
 11
218.4066819377184
 21
-26.49799473688105
 31
0.0
  0
LINE
  5
3A9
  8
0
  6
CONTINUOUS
 62
     4
 10
226.4066828913927
 20
-12.64158852502803
 30
0.0
 11
230.6566872127299
 21
-5.280366117731745
 31
0.0
  0
LINE
  5
3AA
  8
0
  6
CONTINUOUS
 62
     4
 10
173.1461159294793
 20
18.10843598455179
 30
0.0
 11
177.3961164361188
 21
25.46965178459871
 31
0.0
  0
LINE
  5
3AB
  8
0
  6
CONTINUOUS
 62
     4
 10
174.4451463824451
 20
17.3584226806461
 30
0.0
 11
178.6951468890846
 21
24.71963848069302
 31
0.0
  0
LINE
  5
3AC
  8
0
  6
CONTINUOUS
 62
     4
 10
175.7441920942018
 20
16.60843580573786
 30
0.0
 11
179.9941926008413
 21
23.96965160578478
 31
0.0
  0
LINE
  5
3AD
  8
0
  6
CONTINUOUS
 62
     4
 10
177.0432225471676
 20
15.85842250183217
 30
0.0
 11
181.293223053807
 21
23.21963830187909
 31
0.0
  0
LINE
  5
3AE
  8
0
  6
CONTINUOUS
 62
     4
 10
178.3422814734229
 20
15.10842799752848
 30
0.0
 11
182.5922819800624
 21
22.4696437975754
 31
0.0
  0
LINE
  5
3AF
  8
0
  6
CONTINUOUS
 62
     4
 10
160.8961144691655
 20
-3.109186027348159
 30
0.0
 11
165.146114975805
 21
4.252029772698762
 31
0.0
  0
LINE
  5
3B0
  8
0
  6
CONTINUOUS
 62
     4
 10
162.1951449221313
 20
-3.859199331253848
 30
0.0
 11
166.4451454287708
 21
3.502016468793073
 31
0.0
  0
LINE
  5
3B1
  8
0
  6
CONTINUOUS
 62
     4
 10
163.4941868191903
 20
-4.609192813411454
 30
0.0
 11
167.7441911405275
 21
2.752029593884828
 31
0.0
  0
LINE
  5
3B2
  8
0
  6
CONTINUOUS
 62
     4
 10
164.7932210868538
 20
-5.359199510067782
 30
0.0
 11
169.0432215934932
 21
2.002016289979139
 31
0.0
  0
LINE
  5
3B3
  8
0
  6
CONTINUOUS
 62
     4
 10
166.0922761984114
 20
-6.109200621620829
 30
0.0
 11
170.3422805197486
 21
1.252021785675453
 31
0.0
  0
LINE
  5
3B4
  8
0
  6
CONTINUOUS
 62
     4
 10
212.8576641926118
 20
-33.10920486241773
 30
0.0
 11
217.1076646992513
 21
-25.74798906237081
 31
0.0
  0
LINE
  5
3B5
  8
0
  6
CONTINUOUS
 62
     4
 10
211.5585958665554
 20
-32.35919612146924
 30
0.0
 11
215.8085963731949
 21
-24.99798032142232
 31
0.0
  0
LINE
  5
3B6
  8
0
  6
CONTINUOUS
 62
     4
 10
210.2595918425871
 20
-31.60919807635443
 30
0.0
 11
214.5095847198311
 21
-24.24799549080623
 31
0.0
  0
LINE
  5
3B7
  8
0
  6
CONTINUOUS
 62
     4
 10
208.9605329163317
 20
-30.85920357205075
 30
0.0
 11
213.2105296082735
 21
-23.49799437925319
 31
0.0
  0
LINE
  5
3B8
  8
0
  6
CONTINUOUS
 62
     4
 10
207.6615156778647
 20
-30.1091978975405
 30
0.0
 11
211.9115161845041
 21
-22.74798209749358
 31
0.0
  0
LINE
  5
3B9
  8
0
  6
CONTINUOUS
 62
     4
 10
225.1076656529256
 20
-11.89158285051778
 30
0.0
 11
229.3576661595651
 21
-4.530367050470858
 31
0.0
  0
LINE
  5
3BA
  8
0
  6
CONTINUOUS
 62
     4
 10
223.8085973268692
 20
-11.14157410956929
 30
0.0
 11
228.0585978335087
 21
-3.78035830952237
 31
0.0
  0
LINE
  5
3BB
  8
0
  6
CONTINUOUS
 62
     4
 10
222.5095856735055
 20
-10.39158927895321
 30
0.0
 11
226.7595938095404
 21
-3.030360264407563
 31
0.0
  0
LINE
  5
3BC
  8
0
  6
CONTINUOUS
 62
     4
 10
221.2105305619478
 20
-9.641588167400158
 30
0.0
 11
225.460534883285
 21
-2.280365760103877
 31
0.0
  0
LINE
  5
3BD
  8
0
  6
CONTINUOUS
 62
     4
 10
219.9115171381785
 20
-8.891575885640549
 30
0.0
 11
224.1615176448179
 21
-1.530360085593628
 31
0.0
  0
LINE
  5
3BE
  8
0
  6
CONTINUOUS
 62
     4
 10
114.107952717234
 20
76.43021897068596
 30
0.0
 11
122.607952717234
 21
76.43021897068596
 31
0.0
  0
LINE
  5
3BF
  8
0
  6
CONTINUOUS
 62
     4
 10
138.607952717234
 20
76.43021897068596
 30
0.0
 11
147.107952717234
 21
76.43021897068596
 31
0.0
  0
LINE
  5
3C0
  8
0
  6
CONTINUOUS
 62
     4
 10
138.607952717234
 20
139.430218970686
 30
0.0
 11
147.107952717234
 21
139.430218970686
 31
0.0
  0
LINE
  5
3C1
  8
0
  6
CONTINUOUS
 62
     4
 10
114.107952717234
 20
139.430218970686
 30
0.0
 11
122.607952717234
 21
139.430218970686
 31
0.0
  0
LINE
  5
3C2
  8
0
  6
CONTINUOUS
 62
     4
 10
114.107952717234
 20
137.930218970686
 30
0.0
 11
122.607952717234
 21
137.930218970686
 31
0.0
  0
LINE
  5
3C3
  8
0
  6
CONTINUOUS
 62
     4
 10
114.107952717234
 20
136.430218970686
 30
0.0
 11
122.607952717234
 21
136.430218970686
 31
0.0
  0
LINE
  5
3C4
  8
0
  6
CONTINUOUS
 62
     4
 10
114.107952717234
 20
134.930218970686
 30
0.0
 11
122.607952717234
 21
134.930218970686
 31
0.0
  0
LINE
  5
3C5
  8
0
  6
CONTINUOUS
 62
     4
 10
114.107952717234
 20
133.430218970686
 30
0.0
 11
122.607952717234
 21
133.430218970686
 31
0.0
  0
LINE
  5
3C6
  8
0
  6
CONTINUOUS
 62
     4
 10
114.107952717234
 20
131.930218970686
 30
0.0
 11
122.607952717234
 21
131.930218970686
 31
0.0
  0
LINE
  5
3C7
  8
0
  6
CONTINUOUS
 62
     4
 10
138.607952717234
 20
137.930218970686
 30
0.0
 11
147.107952717234
 21
137.930218970686
 31
0.0
  0
LINE
  5
3C8
  8
0
  6
CONTINUOUS
 62
     4
 10
138.607952717234
 20
136.430218970686
 30
0.0
 11
147.107952717234
 21
136.430218970686
 31
0.0
  0
LINE
  5
3C9
  8
0
  6
CONTINUOUS
 62
     4
 10
138.607952717234
 20
134.930218970686
 30
0.0
 11
147.107952717234
 21
134.930218970686
 31
0.0
  0
LINE
  5
3CA
  8
0
  6
CONTINUOUS
 62
     4
 10
138.607952717234
 20
133.430218970686
 30
0.0
 11
147.107952717234
 21
133.430218970686
 31
0.0
  0
LINE
  5
3CB
  8
0
  6
CONTINUOUS
 62
     4
 10
138.607952717234
 20
131.930218970686
 30
0.0
 11
147.107952717234
 21
131.930218970686
 31
0.0
  0
LINE
  5
3CC
  8
0
  6
CONTINUOUS
 62
     4
 10
138.607952717234
 20
77.93021897068596
 30
0.0
 11
147.107952717234
 21
77.93021897068596
 31
0.0
  0
LINE
  5
3CD
  8
0
  6
CONTINUOUS
 62
     4
 10
138.607952717234
 20
79.43021897068596
 30
0.0
 11
147.107952717234
 21
79.43021897068596
 31
0.0
  0
LINE
  5
3CE
  8
0
  6
CONTINUOUS
 62
     4
 10
138.607952717234
 20
80.93021897068596
 30
0.0
 11
147.107952717234
 21
80.93021897068596
 31
0.0
  0
LINE
  5
3CF
  8
0
  6
CONTINUOUS
 62
     4
 10
138.607952717234
 20
82.43021897068596
 30
0.0
 11
147.107952717234
 21
82.43021897068596
 31
0.0
  0
LINE
  5
3D0
  8
0
  6
CONTINUOUS
 62
     4
 10
138.607952717234
 20
83.93021897068596
 30
0.0
 11
147.107952717234
 21
83.93021897068596
 31
0.0
  0
LINE
  5
3D1
  8
0
  6
CONTINUOUS
 62
     4
 10
114.107952717234
 20
77.93021897068596
 30
0.0
 11
122.607952717234
 21
77.93021897068596
 31
0.0
  0
LINE
  5
3D2
  8
0
  6
CONTINUOUS
 62
     4
 10
114.107952717234
 20
79.43021897068596
 30
0.0
 11
122.607952717234
 21
79.43021897068596
 31
0.0
  0
LINE
  5
3D3
  8
0
  6
CONTINUOUS
 62
     4
 10
114.107952717234
 20
80.93021897068596
 30
0.0
 11
122.607952717234
 21
80.93021897068596
 31
0.0
  0
LINE
  5
3D4
  8
0
  6
CONTINUOUS
 62
     4
 10
114.107952717234
 20
82.43021897068596
 30
0.0
 11
122.607952717234
 21
82.43021897068596
 31
0.0
  0
LINE
  5
3D5
  8
0
  6
CONTINUOUS
 62
     4
 10
114.107952717234
 20
83.93021897068596
 30
0.0
 11
122.607952717234
 21
83.93021897068596
 31
0.0
  0
LINE
  5
3D6
  8
0
  6
CONTINUOUS
 62
     4
 10
30.39662475241966
 20
-74.4253487025089
 30
0.0
 11
27.09662551535911
 21
-68.7095824615694
 31
0.0
  0
LINE
  5
3D7
  8
0
  6
CONTINUOUS
 62
     4
 10
29.25326324357337
 20
-74.44498845946779
 30
0.0
 11
26.48285842789954
 21
-69.6465066473115
 31
0.0
  0
LINE
  5
3D8
  8
0
  6
CONTINUOUS
 62
     4
 10
10.36960621431268
 20
-78.33754346819634
 30
0.0
 11
18.94258554852507
 21
-73.18637783419294
 31
0.0
  0
LINE
  5
3D9
  8
0
  6
CONTINUOUS
 62
     4
 10
13.69506070769836
 20
-84.09738980789857
 30
0.0
 11
22.44258749053284
 21
-79.24855674857432
 31
0.0
  0
LINE
  5
3DA
  8
0
  6
CONTINUOUS
 62
     4
 10
-116.0420716968285
 20
61.93022278538322
 30
0.0
 11
-112.5420716968285
 21
61.93022278538322
 31
0.0
  0
LINE
  5
3DB
  8
0
  6
CONTINUOUS
 62
     4
 10
-116.0420716968285
 20
58.93022278538322
 30
0.0
 11
-112.5420716968285
 21
58.93022278538322
 31
0.0
  0
LINE
  5
3DC
  8
0
  6
CONTINUOUS
 62
     4
 10
-108.5420716968285
 20
62.43022278538322
 30
0.0
 11
-107.5420716968285
 21
62.43022278538322
 31
0.0
  0
LINE
  5
3DD
  8
0
  6
CONTINUOUS
 62
     4
 10
-108.5420716968285
 20
58.43022278538322
 30
0.0
 11
-107.5420716968285
 21
58.43022278538322
 31
0.0
  0
LINE
  5
3DE
  8
0
  6
CONTINUOUS
 62
     4
 10
-112.2920716968285
 20
61.93022278538322
 30
0.0
 11
-108.5420716968285
 21
61.93022278538322
 31
0.0
  0
LINE
  5
3DF
  8
0
  6
CONTINUOUS
 62
     4
 10
-112.2920716968285
 20
58.93022278538322
 30
0.0
 11
-108.5420716968285
 21
58.93022278538322
 31
0.0
  0
CIRCLE
  5
3E0
  8
0
  6
CONTINUOUS
 62
     4
 10
130.607952717234
 20
33.43021897068596
 30
0.0
 40
31.70000076293945
  0
CIRCLE
  5
3E1
  8
0
  6
CONTINUOUS
 62
     4
 10
130.607952717234
 20
-11.56978102931404
 30
0.0
 40
4.0
  0
ARC
  5
3E2
  8
0
  6
CONTINUOUS
 62
     4
 10
130.607952717234
 20
33.43021897068596
 30
0.0
 40
42.0
 50
116.8965702861255
 51
143.9217983411684
  0
ARC
  5
3E3
  8
0
  6
CONTINUOUS
 62
     4
 10
130.607952717234
 20
33.43021897068596
 30
0.0
 40
42.0
 50
236.1342598546303
 51
264.726408437355
  0
ARC
  5
3E4
  8
0
  6
CONTINUOUS
 62
     4
 10
130.607952717234
 20
33.43021897068596
 30
0.0
 40
42.0
 50
356.1342913684649
 51
383.9217915867696
  0
ARC
  5
3E5
  8
0
  6
CONTINUOUS
 62
     4
 10
130.607952717234
 20
33.43021897068596
 30
0.0
 40
48.0
 50
352.6696292468781
 51
384.3146913885854
  0
ARC
  5
3E6
  8
0
  6
CONTINUOUS
 62
     4
 10
130.607952717234
 20
33.43021897068596
 30
0.0
 40
54.0
 50
350.0349256094543
 51
429.3993801563435
  0
ARC
  5
3E7
  8
0
  6
CONTINUOUS
 62
     4
 10
130.607952717234
 20
33.43021897068596
 30
0.0
 40
60.0
 50
347.9588341159419
 51
366.5091967460052
  0
ARC
  5
3E8
  8
0
  6
CONTINUOUS
 62
     4
 10
130.607952717234
 20
33.43021897068596
 30
0.0
 40
66.0
 50
346.278305344248
 51
361.1656285578101
  0
ARC
  5
3E9
  8
0
  6
CONTINUOUS
 62
     4
 10
130.607952717234
 20
33.43021897068596
 30
0.0
 40
72.0
 50
344.8888467915815
 51
366.563479247547
  0
ARC
  5
3EA
  8
0
  6
CONTINUOUS
 62
     4
 10
130.607952717234
 20
33.43021897068596
 30
0.0
 40
48.0
 50
232.669591756628
 51
265.0672212165603
  0
ARC
  5
3EB
  8
0
  6
CONTINUOUS
 62
     4
 10
130.607952717234
 20
33.43021897068596
 30
0.0
 40
54.0
 50
230.0349009258089
 51
309.9651077256131
  0
ARC
  5
3EC
  8
0
  6
CONTINUOUS
 62
     4
 10
130.607952717234
 20
33.43021897068596
 30
0.0
 40
60.0
 50
227.9587966256918
 51
247.073422527431
  0
ARC
  5
3ED
  8
0
  6
CONTINUOUS
 62
     4
 10
130.607952717234
 20
33.43021897068596
 30
0.0
 40
66.0
 50
226.2782832219236
 51
241.1620713857034
  0
ARC
  5
3EE
  8
0
  6
CONTINUOUS
 62
     4
 10
130.607952717234
 20
33.43021897068596
 30
0.0
 40
72.0
 50
224.8888178390679
 51
247.0340874680009
  0
ARC
  5
3EF
  8
0
  6
CONTINUOUS
 62
     4
 10
130.607952717234
 20
33.43021897068596
 30
0.0
 40
48.0
 50
113.3179746327674
 51
144.3146981429842
  0
ARC
  5
3F0
  8
0
  6
CONTINUOUS
 62
     4
 10
130.607952717234
 20
33.43021897068596
 30
0.0
 40
54.0
 50
110.6006385129912
 51
189.9650597627082
  0
ARC
  5
3F1
  8
0
  6
CONTINUOUS
 62
     4
 10
130.607952717234
 20
33.43021897068596
 30
0.0
 40
60.0
 50
108.4614779064565
 51
126.5092145994614
  0
ARC
  5
3F2
  8
0
  6
CONTINUOUS
 62
     4
 10
130.607952717234
 20
33.43021897068596
 30
0.0
 40
66.0
 50
106.7310221594771
 51
120.6637611228461
  0
ARC
  5
3F3
  8
0
  6
CONTINUOUS
 62
     4
 10
130.607952717234
 20
33.43021897068596
 30
0.0
 40
72.0
 50
105.3009581321949
 51
126.5635009429847
  0
ARC
  5
3F4
  8
0
  6
CONTINUOUS
 62
     4
 10
130.607952717234
 20
33.43021897068596
 30
0.0
 40
42.0
 50
275.2735728933104
 51
303.8657522118863
  0
ARC
  5
3F5
  8
0
  6
CONTINUOUS
 62
     4
 10
130.607952717234
 20
33.43021897068596
 30
0.0
 40
48.0
 50
274.9327601141051
 51
307.3304066495103
  0
ARC
  5
3F6
  8
0
  6
CONTINUOUS
 62
     4
 10
130.607952717234
 20
33.43021897068596
 30
0.0
 40
60.0
 50
262.9265374778407
 51
277.0734438528246
  0
ARC
  5
3F7
  8
0
  6
CONTINUOUS
 62
     4
 10
130.607952717234
 20
33.43021897068596
 30
0.0
 40
66.0
 50
298.7658582794074
 51
313.7217220144038
  0
ARC
  5
3F8
  8
0
  6
CONTINUOUS
 62
     4
 10
130.607952717234
 20
33.43021897068596
 30
0.0
 40
72.0
 50
262.9658725372709
 51
277.0341087933945
  0
ARC
  5
3F9
  8
0
  6
CONTINUOUS
 62
     4
 10
130.607952717234
 20
33.43021897068596
 30
0.0
 40
72.0
 50
292.9658870324752
 51
315.1111805670704
  0
ARC
  5
3FA
  8
0
  6
CONTINUOUS
 62
     4
 10
130.607952717234
 20
33.43021897068596
 30
0.0
 40
60.0
 50
292.9265588032343
 51
312.0411949502573
  0
CIRCLE
  5
3FB
  8
0
  6
CONTINUOUS
 62
     4
 10
91.63681471674573
 20
55.93023422947502
 30
0.0
 40
4.0
  0
CIRCLE
  5
3FC
  8
0
  6
CONTINUOUS
 62
     4
 10
169.5790983471168
 20
55.93021134129143
 30
0.0
 40
4.0
  0
ARC
  5
3FD
  8
0
  6
CONTINUOUS
 62
     4
 10
130.607952717234
 20
33.43021897068596
 30
0.0
 40
72.0
 50
143.2894184466736
 51
156.5634949476215
  0
ARC
  5
3FE
  8
0
  6
CONTINUOUS
 62
     4
 10
130.607952717234
 20
33.43021897068596
 30
0.0
 40
72.0
 50
173.4365347260326
 51
195.1111291890709
  0
ARC
  5
3FF
  8
0
  6
CONTINUOUS
 62
     4
 10
130.607952717234
 20
33.43021897068596
 30
0.0
 40
66.0
 50
179.1927859320876
 51
193.7216774665935
  0
ARC
  5
400
  8
0
  6
CONTINUOUS
 62
     4
 10
130.607952717234
 20
33.43021897068596
 30
0.0
 40
60.0
 50
173.4908210695558
 51
192.0411504024469
  0
ARC
  5
401
  8
0
  6
CONTINUOUS
 62
     4
 10
130.607952717234
 20
33.43021897068596
 30
0.0
 40
48.0
 50
155.685296544898
 51
187.3303552715107
  0
ARC
  5
402
  8
0
  6
CONTINUOUS
 62
     4
 10
130.607952717234
 20
33.43021897068596
 30
0.0
 40
42.0
 50
156.0781963467138
 51
183.8657008338868
  0
ARC
  5
403
  8
0
  6
CONTINUOUS
 62
     4
 10
130.607952717234
 20
33.43021897068596
 30
0.0
 40
60.0
 50
143.490827064919
 51
156.5092222644766
  0
ARC
  5
404
  8
0
  6
CONTINUOUS
 62
     4
 10
130.607952717234
 20
33.43021897068596
 30
0.0
 40
66.0
 50
58.53804748913507
 51
73.26899650985754
  0
ARC
  5
405
  8
0
  6
CONTINUOUS
 62
     4
 10
130.607952717234
 20
33.43021897068596
 30
0.0
 40
72.0
 50
23.43652201416584
 51
36.71059339247188
  0
ARC
  5
406
  8
0
  6
CONTINUOUS
 62
     4
 10
130.607952717234
 20
33.43021897068596
 30
0.0
 40
60.0
 50
23.49080323504722
 51
36.5091950195103
  0
ARC
  5
407
  8
0
  6
CONTINUOUS
 62
     4
 10
130.607952717234
 20
33.43021897068596
 30
0.0
 40
60.0
 50
53.4908006547787
 51
71.53854076287813
  0
ARC
  5
408
  8
0
  6
CONTINUOUS
 62
     4
 10
130.607952717234
 20
33.43021897068596
 30
0.0
 40
72.0
 50
53.43651772635002
 51
74.69906053713979
  0
ARC
  5
409
  8
0
  6
CONTINUOUS
 62
     4
 10
130.607952717234
 20
33.43021897068596
 30
0.0
 40
48.0
 50
35.68528979049918
 51
66.68204403656729
  0
ARC
  5
40A
  8
0
  6
CONTINUOUS
 62
     4
 10
130.607952717234
 20
33.43021897068596
 30
0.0
 40
42.0
 50
36.07818959231499
 51
63.10345521339831
  0
CIRCLE
  5
40B
  8
0
  6
CONTINUOUS
 62
     4
 10
130.607952717234
 20
60.43022278538322
 30
0.0
 40
2.5
  0
CIRCLE
  5
40C
  8
0
  6
CONTINUOUS
 62
     4
 10
107.2252622875465
 20
19.93021706333732
 30
0.0
 40
2.5
  0
CIRCLE
  5
40D
  8
0
  6
CONTINUOUS
 62
     4
 10
153.9906431469215
 20
19.93021706333732
 30
0.0
 40
2.5
  0
LINE
  5
40E
  8
0
  6
DIVIDE
 62
     9
 10
-181.5420716968285
 20
-27.24478408107186
 30
0.0
 11
-181.5420716968285
 21
-39.24478408107186
 31
0.0
  0
LINE
  5
40F
  8
0
  6
DIVIDE
 62
     9
 10
-145.5420716968285
 20
-27.24478408107186
 30
0.0
 11
-145.5420716968285
 21
-39.24478408107186
 31
0.0
  0
LINE
  5
410
  8
0
  6
DIVIDE
 62
     9
 10
-181.3087342944847
 20
-39.24478408107186
 30
0.0
 11
-119.8547242847191
 21
-39.24478408107186
 31
0.0
  0
LINE
  5
411
  8
0
  6
DIVIDE
 62
     9
 10
-181.3087342944847
 20
-27.24478408107186
 30
0.0
 11
-117.7388032642113
 21
-27.24478408107186
 31
0.0
  0
LINE
  5
412
  8
0
  6
DIVIDE
 62
     9
 10
-181.3087342944847
 20
-38.39478560695076
 30
0.0
 11
-145.5420716968285
 21
-38.39478560695076
 31
0.0
  0
LINE
  5
413
  8
0
  6
DIVIDE
 62
     9
 10
-181.3087342944847
 20
-28.09478255519295
 30
0.0
 11
-145.5420716968285
 21
-28.09478255519295
 31
0.0
  0
LINE
  5
414
  8
0
  6
DASHED2
 62
     7
 10
-115.9647133905457
 20
60.43021607504355
 30
0.0
 11
-116.5420640070008
 21
61.43021665857671
 31
0.0
  0
LINE
  5
415
  8
0
  6
DASHED2
 62
     7
 10
-115.9647130329178
 20
60.43021957814452
 30
0.0
 11
-116.5420626956986
 21
59.43022064642369
 31
0.0
  0
LINE
  5
416
  8
0
  6
DASHED2
 62
     7
 10
-125.7420594897973
 20
-53.06978102931404
 30
0.0
 11
-118.9420594897972
 21
-53.06978102931404
 31
0.0
  0
LINE
  5
417
  8
0
  6
DASHED2
 62
     7
 10
-126.3420594897972
 20
-58.06978102931404
 30
0.0
 11
-118.3420594897972
 21
-58.06978102931404
 31
0.0
  0
LINE
  5
418
  8
0
  6
DASHED2
 62
     7
 10
-125.742059489797
 20
-53.06978102931393
 30
0.0
 11
-122.3420594897974
 21
-51.10679011406938
 31
0.0
  0
LINE
  5
419
  8
0
  6
DASHED2
 62
     7
 10
-126.3420594897972
 20
-58.06978102931404
 30
0.0
 11
-126.3420594897972
 21
-74.06978102931404
 31
0.0
  0
LINE
  5
41A
  8
0
  6
DASHED2
 62
     7
 10
-125.7420594897973
 20
-53.06978102931404
 30
0.0
 11
-125.7420594897973
 21
-74.06978102931404
 31
0.0
  0
LINE
  5
41B
  8
0
  6
DASHED2
 62
     7
 10
-118.9420594897974
 20
-53.06978102931393
 30
0.0
 11
-122.3420594897971
 21
-51.10679011406938
 31
0.0
  0
LINE
  5
41C
  8
0
  6
DASHED2
 62
     7
 10
-118.9420594897972
 20
-53.06978102931404
 30
0.0
 11
-118.9420594897972
 21
-74.06978102931404
 31
0.0
  0
LINE
  5
41D
  8
0
  6
DASHED2
 62
     7
 10
-118.3420594897972
 20
-58.06978102931404
 30
0.0
 11
-118.3420594897972
 21
-74.06978102931404
 31
0.0
  0
LINE
  5
41E
  8
0
  6
DASHED2
 62
     7
 10
207.2627949066037
 20
73.66013765252012
 30
0.0
 11
203.8627949066037
 21
79.54911039825433
 31
0.0
  0
LINE
  5
41F
  8
0
  6
DASHED2
 62
     7
 10
211.8929219255258
 20
75.64052241024947
 30
0.0
 11
207.8929219255259
 21
82.568725640525
 31
0.0
  0
LINE
  5
420
  8
0
  6
DASHED2
 62
     7
 10
207.2627949066035
 20
73.66013765252026
 30
0.0
 11
203.8627949066038
 21
75.62312856776484
 31
0.0
  0
LINE
  5
421
  8
0
  6
DASHED2
 62
     7
 10
211.8929219255258
 20
75.64052241024947
 30
0.0
 11
225.7493283860769
 21
83.64052241024947
 31
0.0
  0
LINE
  5
422
  8
0
  6
DASHED2
 62
     7
 10
207.2627949066037
 20
73.66013765252012
 30
0.0
 11
225.4493283860769
 21
84.16013765252012
 31
0.0
  0
LINE
  5
423
  8
0
  6
DASHED2
 62
     7
 10
203.8627949066037
 20
79.5491103982541
 30
0.0
 11
203.8627949066037
 21
75.62312856776504
 31
0.0
  0
LINE
  5
424
  8
0
  6
DASHED2
 62
     7
 10
203.8627949066037
 20
79.54911039825433
 30
0.0
 11
222.0493283860769
 21
90.04911039825433
 31
0.0
  0
LINE
  5
425
  8
0
  6
DASHED2
 62
     7
 10
207.8929219255259
 20
82.568725640525
 30
0.0
 11
221.7493283860769
 21
90.568725640525
 31
0.0
  0
LINE
  5
426
  8
0
  6
CENTER
 62
     7
 10
-122.3420594897972
 20
-50.16994985557185
 30
0.0
 11
-122.3420594897972
 21
-77.08757689716025
 31
0.0
  0
ARC
  5
427
  8
0
  6
CONTINUOUS
 62
     5
 10
130.607952717234
 20
33.43021897068596
 30
0.0
 40
105.5
 50
339.5481852757651
 51
440.4518283467181
  0
TEXT
  5
428
  8
0
 62
     7
 10
-194.2846498218285
 20
155.507611548811
 30
0.0
 40
4.0
  1
MIN-3.7
 41
0.8000000000000002
  7
FDASTYLE1
 72
     5
 11
-171.8846498218285
 21
155.507611548811
 31
0.0
  0
TEXT
  5
429
  8
0
 62
     7
 10
-17.17003190190661
 20
41.40420883885002
 30
0.0
 40
4.0
  1
MIN 31.5
 50
90.0
 41
0.8
  7
FDASTYLE1
 72
     5
 11
-17.17003190190661
 21
67.00420883885002
 31
0.0
  0
TEXT
  5
42A
  8
0
 62
     7
 10
-160.1772279468285
 20
-110.6822342383428
 30
0.0
 40
4.0
  1
MIN 25.3
 41
0.7999999999999998
  7
FDASTYLE1
 72
     5
 11
-134.5772279468285
 21
-110.6822342383428
 31
0.0
  0
TEXT
  5
42B
  8
0
 62
     7
 10
258.2624274324651
 20
-141.9015851168168
 30
0.0
 40
3.0
  1
標　準
 41
0.6666666666666656
  7
FDASTYLE1
 72
     5
 11
265.4624274324651
 21
-141.9015851168168
 31
0.0
  0
TEXT
  5
42C
  8
0
 62
     5
 10
101.8222374948753
 20
-58.06978102931404
 30
0.0
 40
5.0
  1
NIKKO
 41
0.7674421159044379
  7
FDASTYLE1
 72
     5
 11
125.393668893267
 21
-58.06978102931404
 31
0.0
  0
TEXT
  5
42D
  8
0
 62
     5
 10
133.179365280558
 20
-57.56978102931404
 30
0.0
 40
4.0
  1
 GO3-8
 41
0.7692310229032535
  7
FDASTYLE1
 72
     5
 11
156.0365108284248
 21
-57.56978102931404
 31
0.0
  0
TEXT
  5
42E
  8
0
 62
     5
 10
133.536508444239
 20
-64.06978102931404
 30
0.0
 40
3.0
  1
 0001
 41
0.7674420500137306
  7
FDASTYLE1
 72
     5
 11
147.6793659958137
 21
-64.06978102931404
 31
0.0
  0
TEXT
  5
42F
  8
0
 62
     5
 10
221.6135552451474
 20
54.70393113748388
 30
0.0
 40
2.900000095367432
  1
F MAX   26KN
 50
120.0
 41
0.7991007117639062
  7
FDASTYLE1
 72
     5
 11
203.9146978781087
 21
85.35925133310968
 31
0.0
  0
TEXT
  5
430
  8
0
 62
     5
 10
225.9436791465146
 20
57.20393113748388
 30
0.0
 40
2.900000095367432
  1
ΣS MAX  27KN
 50
120.0
 41
0.8042452940648105
  7
FDASTYLE1
 72
     5
 11
208.2448217794759
 21
87.85925133310968
 31
0.0
  0
TEXT
  5
431
  8
0
 62
     5
 10
230.2738030478818
 20
59.70393113748389
 30
0.0
 40
2.900000095367432
  1
N MAX 2700 AT ΣS MAX
 50
120.0
 41
0.8037156797587193
  7
FDASTYLE1
 72
     5
 11
200.4879214689595
 21
111.2945913804072
 31
0.0
  0
LINE
  5
432
  8
LAYER0014
  6
CONTINUOUS
 62
     7
 10
-166.3420747485863
 20
160.7559330820141
 30
0.0
 11
-193.9532350269066
 21
160.7559330820141
 31
0.0
  0
LINE
  5
433
  8
LAYER0014
  6
CONTINUOUS
 62
     7
 10
-78.54207169682849
 20
160.4852421640453
 30
0.0
 11
-72.43658768803942
 21
160.4852421640453
 31
0.0
  0
INSERT
  5
434
  8
0
  6
CONTINUOUS
  2
DC_GROUP_1
 10
0.0
 20
0.0
 30
0.0
  0
INSERT
  5
435
  8
0
  6
CONTINUOUS
  2
DC_GROUP_6
 10
0.0
 20
0.0
 30
0.0
  0
INSERT
  5
436
  8
0
  6
CONTINUOUS
  2
DA_IMAGEDIMGROUP_31
 10
0.0
 20
0.0
 30
0.0
  0
INSERT
  5
437
  8
0
  6
CONTINUOUS
  2
DA_IMAGEDIMGROUP_32
 10
0.0
 20
0.0
 30
0.0
  0
INSERT
  5
438
  8
0
  6
CONTINUOUS
  2
DA_IMAGEDIMGROUP_33
 10
0.0
 20
0.0
 30
0.0
  0
INSERT
  5
439
  8
0
  6
CONTINUOUS
  2
DC_GROUP_8
 10
0.0
 20
0.0
 30
0.0
  0
INSERT
  5
43A
  8
LAYER0014
  6
CONTINUOUS
  2
DA_IMAGEDIMGROUP_1
 10
0.0
 20
0.0
 30
0.0
  0
INSERT
  5
43B
  8
LAYER0014
  6
CONTINUOUS
  2
DA_IMAGEDIMGROUP_2
 10
0.0
 20
0.0
 30
0.0
  0
INSERT
  5
43C
  8
LAYER0014
  6
CONTINUOUS
  2
DA_IMAGEDIMGROUP_3
 10
0.0
 20
0.0
 30
0.0
  0
INSERT
  5
43D
  8
LAYER0014
  6
CONTINUOUS
  2
DA_IMAGEDIMGROUP_4
 10
0.0
 20
0.0
 30
0.0
  0
INSERT
  5
43E
  8
LAYER0014
  6
CONTINUOUS
  2
DA_IMAGEDIMGROUP_5
 10
0.0
 20
0.0
 30
0.0
  0
INSERT
  5
43F
  8
LAYER0014
  6
CONTINUOUS
  2
DA_IMAGEDIMGROUP_6
 10
0.0
 20
0.0
 30
0.0
  0
INSERT
  5
440
  8
LAYER0014
  6
CONTINUOUS
  2
DA_IMAGEDIMGROUP_7
 10
0.0
 20
0.0
 30
0.0
  0
INSERT
  5
441
  8
LAYER0014
  6
CONTINUOUS
  2
DA_IMAGEDIMGROUP_8
 10
0.0
 20
0.0
 30
0.0
  0
INSERT
  5
442
  8
LAYER0014
  6
CONTINUOUS
  2
DA_IMAGEDIMGROUP_9
 10
0.0
 20
0.0
 30
0.0
  0
INSERT
  5
443
  8
LAYER0014
  6
CONTINUOUS
  2
DA_IMAGEDIMGROUP_10
 10
0.0
 20
0.0
 30
0.0
  0
INSERT
  5
444
  8
LAYER0014
  6
CONTINUOUS
  2
DA_IMAGEDIMGROUP_11
 10
0.0
 20
0.0
 30
0.0
  0
INSERT
  5
445
  8
LAYER0014
  6
CONTINUOUS
  2
DA_IMAGEDIMGROUP_12
 10
0.0
 20
0.0
 30
0.0
  0
INSERT
  5
446
  8
LAYER0014
  6
CONTINUOUS
  2
DA_IMAGEDIMGROUP_13
 10
0.0
 20
0.0
 30
0.0
  0
INSERT
  5
447
  8
LAYER0014
  6
CONTINUOUS
  2
DA_IMAGEDIMGROUP_14
 10
0.0
 20
0.0
 30
0.0
  0
INSERT
  5
448
  8
LAYER0014
  6
CONTINUOUS
  2
DA_IMAGEDIMGROUP_15
 10
0.0
 20
0.0
 30
0.0
  0
INSERT
  5
449
  8
LAYER0014
  6
CONTINUOUS
  2
DC_GROUP_2
 10
0.0
 20
0.0
 30
0.0
  0
INSERT
  5
44A
  8
LAYER0014
  6
CONTINUOUS
  2
DA_IMAGEDIMGROUP_16
 10
0.0
 20
0.0
 30
0.0
  0
INSERT
  5
44B
  8
LAYER0014
  6
CONTINUOUS
  2
DA_IMAGEDIMGROUP_17
 10
0.0
 20
0.0
 30
0.0
  0
INSERT
  5
44C
  8
LAYER0014
  6
CONTINUOUS
  2
DC_GROUP_3
 10
0.0
 20
0.0
 30
0.0
  0
INSERT
  5
44D
  8
LAYER0014
  6
CONTINUOUS
  2
DA_IMAGEDIMGROUP_18
 10
0.0
 20
0.0
 30
0.0
  0
INSERT
  5
44E
  8
LAYER0014
  6
CONTINUOUS
  2
DA_IMAGEDIMGROUP_19
 10
0.0
 20
0.0
 30
0.0
  0
INSERT
  5
44F
  8
LAYER0014
  6
CONTINUOUS
  2
DC_GROUP_4
 10
0.0
 20
0.0
 30
0.0
  0
INSERT
  5
450
  8
LAYER0014
  6
CONTINUOUS
  2
DC_GROUP_5
 10
0.0
 20
0.0
 30
0.0
  0
INSERT
  5
451
  8
LAYER0014
  6
CONTINUOUS
  2
DA_IMAGEDIMGROUP_20
 10
0.0
 20
0.0
 30
0.0
  0
INSERT
  5
452
  8
LAYER0014
  6
CONTINUOUS
  2
DA_IMAGEDIMGROUP_21
 10
0.0
 20
0.0
 30
0.0
  0
INSERT
  5
453
  8
LAYER0014
  6
CONTINUOUS
  2
DA_IMAGEDIMGROUP_22
 10
0.0
 20
0.0
 30
0.0
  0
INSERT
  5
454
  8
LAYER0014
  6
CONTINUOUS
  2
DA_IMAGEDIMGROUP_23
 10
0.0
 20
0.0
 30
0.0
  0
INSERT
  5
455
  8
LAYER0014
  6
CONTINUOUS
  2
DA_IMAGEDIMGROUP_24
 10
0.0
 20
0.0
 30
0.0
  0
INSERT
  5
456
  8
LAYER0014
  6
CONTINUOUS
  2
DA_IMAGEDIMGROUP_25
 10
0.0
 20
0.0
 30
0.0
  0
INSERT
  5
457
  8
LAYER0014
  6
CONTINUOUS
  2
DA_IMAGEDIMGROUP_26
 10
0.0
 20
0.0
 30
0.0
  0
INSERT
  5
458
  8
LAYER0014
  6
CONTINUOUS
  2
DA_IMAGEDIMGROUP_27
 10
0.0
 20
0.0
 30
0.0
  0
INSERT
  5
459
  8
LAYER0014
  6
CONTINUOUS
  2
DA_IMAGEDIMGROUP_28
 10
0.0
 20
0.0
 30
0.0
  0
INSERT
  5
45A
  8
LAYER0014
  6
CONTINUOUS
  2
DA_IMAGEDIMGROUP_29
 10
0.0
 20
0.0
 30
0.0
  0
INSERT
  5
45B
  8
LAYER0014
  6
CONTINUOUS
  2
DA_IMAGEDIMGROUP_30
 10
0.0
 20
0.0
 30
0.0
  0
INSERT
  5
45C
  8
LAYER0014
  6
CONTINUOUS
  2
DC_GROUP_7
 10
0.0
 20
0.0
 30
0.0
  0
LINE
  5
45D
  8
0
  6
CONTINUOUS
 62
     6
 10
-60.0943940845238
 20
-103.5218455434742
 30
0.0
 11
-44.0943940845238
 21
-103.5218455434742
 31
0.0
  0
LINE
  5
45E
  8
0
  6
CONTINUOUS
 62
     6
 10
-60.0943940845238
 20
-111.5218455434742
 30
0.0
 11
84.71754134028089
 21
-111.5218455434742
 31
0.0
  0
LINE
  5
45F
  8
0
  6
CONTINUOUS
 62
     6
 10
-60.0943940845238
 20
-119.5218455434742
 30
0.0
 11
84.71754134028089
 21
-119.5218455434742
 31
0.0
  0
LINE
  5
460
  8
0
  6
CONTINUOUS
 62
     6
 10
-60.0943940845238
 20
-127.5218379140797
 30
0.0
 11
84.71754134028089
 21
-127.5218379140797
 31
0.0
  0
LINE
  5
461
  8
0
  6
CONTINUOUS
 62
     6
 10
-60.0943940845238
 20
-135.5218379140797
 30
0.0
 11
84.71754134028089
 21
-135.5218379140797
 31
0.0
  0
LINE
  5
462
  8
0
  6
CONTINUOUS
 62
     6
 10
-60.0943940845238
 20
-143.5218379140797
 30
0.0
 11
84.71754134028089
 21
-143.5218379140797
 31
0.0
  0
LINE
  5
463
  8
0
  6
CONTINUOUS
 62
     6
 10
-60.0943940845238
 20
-151.5218379140797
 30
0.0
 11
84.71754134028089
 21
-151.5218379140797
 31
0.0
  0
LINE
  5
464
  8
0
  6
CONTINUOUS
 62
     6
 10
-60.0943940845238
 20
-159.5218379140797
 30
0.0
 11
84.71754134028089
 21
-159.5218379140797
 31
0.0
  0
LINE
  5
465
  8
0
  6
CONTINUOUS
 62
     6
 10
-60.0943940845238
 20
-167.5218379140797
 30
0.0
 11
84.71754134028089
 21
-167.5218379140797
 31
0.0
  0
LINE
  5
466
  8
0
  6
CONTINUOUS
 62
     6
 10
-60.0943940845238
 20
-175.5218379140797
 30
0.0
 11
84.71754134028089
 21
-175.5218379140797
 31
0.0
  0
TEXT
  5
467
  8
0
 62
     6
 10
-14.66829502255786
 20
-133.5211054922047
 30
0.0
 40
3.0
  1
52TS-ＴA1型 引側使用圧  3.5 MPa
 41
0.7484221604129553
  7
FDASTYLE1
 72
     5
 11
56.47456163494718
 21
-133.5211054922047
 31
0.0
  0
TEXT
  5
468
  8
0
 62
     6
 10
33.65479874937665
 20
-173.6384913564625
 30
0.0
 40
4.0
  1
外周ﾆﾃ   4 g以内
 41
0.7481753531516472
  7
FDASTYLE1
 72
     5
 11
80.511942866732
 21
-173.6384913564625
 31
0.0
  0
TEXT
  5
469
  8
0
 62
     6
 10
62.39425492613447
 20
-165.5277125478687
 30
0.0
 40
4.0
  1
21 kg
 41
0.7674420691942423
  7
FDASTYLE1
 72
     5
 11
81.25139904348981
 21
-165.5277125478687
 31
0.0
  0
TEXT
  5
46A
  8
0
 62
     6
 10
41.86900163023603
 20
-157.5824458242359
 30
0.0
 40
4.0
  1
0.163 kg・m
 41
0.7780322189036011
  7
FDASTYLE1
 72
     5
 11
80.72614574759137
 21
-157.5824458242359
 31
0.0
  0
TEXT
  5
46B
  8
0
 62
     6
 10
81.58328765957486
 20
-155.0824457646313
 30
0.0
 40
2.0
  1
2
 41
0.7142860293388367
  7
FDASTYLE1
 72
     5
 11
83.01185971825254
 21
-155.0824457646313
 31
0.0
  0
TEXT
  5
46C
  8
0
 62
     6
 10
50.29900956480634
 20
-149.4716670156422
 30
0.0
 40
4.0
  1
2700 min
 41
0.7714287730626143
  7
FDASTYLE1
 72
     5
 11
81.15615368216169
 21
-149.4716670156422
 31
0.0
  0
TEXT
  5
46D
  8
0
 62
     6
 10
82.01329559414518
 20
-146.9716669560375
 30
0.0
 40
2.0
  1
-1
 41
0.75000024121258
  7
FDASTYLE1
 72
     5
 11
85.44186765282285
 21
-146.9716669560375
 31
0.0
  0
TEXT
  5
46E
  8
0
 62
     6
 10
53.94297623961103
 20
-141.5264002920094
 30
0.0
 40
4.0
  1
27.1 kN
 41
0.7704920065688554
  7
FDASTYLE1
 72
     5
 11
80.80012035696637
 21
-141.5264002920094
 31
0.0
  0
TEXT
  5
46F
  8
0
 62
     6
 10
53.95374894468915
 20
-133.5811488271656
 30
0.0
 40
4.0
  1
  26 kN
 41
0.7704920065688554
  7
FDASTYLE1
 72
     5
 11
80.8108930620445
 21
-133.5811488271656
 31
0.0
  0
TEXT
  5
470
  8
0
 62
     6
 10
45.8221630825629
 20
-125.4698817373219
 30
0.0
 40
4.0
  1
52TS-TA1型
 41
0.7780614058262111
  7
FDASTYLE1
 72
     5
 11
80.67930719991824
 21
-125.4698817373219
 31
0.0
  0
TEXT
  5
471
  8
0
 62
     6
 10
61.92504716246259
 20
-117.3595835805836
 30
0.0
 40
4.0
  1
25 mm
 41
0.7674420691942423
  7
FDASTYLE1
 72
     5
 11
80.78219127981794
 21
-117.3595835805836
 31
0.0
  0
TEXT
  5
472
  8
0
 62
     6
 10
33.88558793394697
 20
-109.5798594594898
 30
0.0
 40
4.0
  1
(直径ﾆﾃ) ４０ mm
 41
0.7481753531516472
  7
FDASTYLE1
 72
     5
 11
80.74273205130231
 21
-109.5798594594898
 31
0.0
  0
TEXT
  5
473
  8
0
 62
     6
 10
-57.52296614320147
 20
-101.8551890493336
 30
0.0
 40
4.0
  1
仕 様
 41
0.7364342569567148
  7
FDASTYLE1
 72
     5
 11
-46.66582202584613
 21
-101.8551890493336
 31
0.0
  0
TEXT
  5
474
  8
0
 62
     6
 10
-57.52296614320147
 20
-109.8551890493336
 30
0.0
 40
4.0
  1
爪ﾉｽﾄﾛｰｸ
 41
0.7781458739383595
  7
FDASTYLE1
 72
     5
 11
-30.66582202584613
 21
-109.8551890493336
 31
0.0
  0
TEXT
  5
475
  8
0
 62
     6
 10
-57.52296614320147
 20
-117.8551890493336
 30
0.0
 40
4.0
  1
ピストンストローク
 41
0.6659390169707117
  7
FDASTYLE1
 72
     5
 11
-22.66582202584613
 21
-117.8551890493336
 31
0.0
  0
TEXT
  5
476
  8
0
 62
     6
 10
-57.52296614320147
 20
-125.855181419939
 30
0.0
 40
4.0
  1
推奨シリンダ
 41
0.662251813045189
  7
FDASTYLE1
 72
     5
 11
-34.66582202584613
 21
-125.855181419939
 31
0.0
  0
TEXT
  5
477
  8
0
 62
     6
 10
-57.52296614320147
 20
-133.855181419939
 30
0.0
 40
4.0
  1
許容シリンダ力
 41
0.663841963128279
  7
FDASTYLE1
 72
     5
 11
-30.66582202584613
 21
-133.855181419939
 31
0.0
  0
TEXT
  5
478
  8
0
 62
     6
 10
-57.52296614320147
 20
-141.855181419939
 30
0.0
 40
4.0
  1
最大静的把握力
 41
0.663841963128279
  7
FDASTYLE1
 72
     5
 11
-30.66582202584613
 21
-141.855181419939
 31
0.0
  0
TEXT
  5
479
  8
0
 62
     6
 10
-57.52296614320147
 20
-149.855181419939
 30
0.0
 40
4.0
  1
最高使用回転速度
 41
0.665024784134981
  7
FDASTYLE1
 72
     5
 11
-26.66582202584613
 21
-149.855181419939
 31
0.0
  0
TEXT
  5
47A
  8
0
 62
     6
 10
-57.52296614320147
 20
-157.855181419939
 30
0.0
 40
4.0
  1
慣性モーメント
 41
0.663841963128279
  7
FDASTYLE1
 72
     5
 11
-30.66582202584613
 21
-157.855181419939
 31
0.0
  0
TEXT
  5
47B
  8
0
 62
     6
 10
-57.52296614320147
 20
-165.855181419939
 30
0.0
 40
4.0
  1
質 量
 41
0.7364342569567148
  7
FDASTYLE1
 72
     5
 11
-46.66582202584613
 21
-165.855181419939
 31
0.0
  0
TEXT
  5
47C
  8
0
 62
     6
 10
-57.52296614320147
 20
-173.855181419939
 30
0.0
 40
4.0
  1
アンバランス量
 41
0.663841963128279
  7
FDASTYLE1
 72
     5
 11
-30.66582202584613
 21
-173.855181419939
 31
0.0
  0
CIRCLE
  5
47D
  8
0
  6
CONTINUOUS
 62
     3
 10
103.607952717234
 20
33.43021897068596
 30
0.0
 40
2.65
  0
CIRCLE
  5
47E
  8
0
  6
CONTINUOUS
 62
     3
 10
157.607952717234
 20
33.43021897068596
 30
0.0
 40
2.65
  0
VIEWPORT
  5
48
 67
     1
  8
0
 10
0.0
 20
0.0
 30
0.0
 40
1662.0
 41
1140.0
 68
     1
 69
     1
1001
ACAD
1000
MVIEW
1002
{
1070
    16
1010
0.0
1020
0.0
1030
0.0
1020
0.0
1030
0.0
1010
0.0
1020
0.0
1030
1.0
1020
0.0
1030
1.0
1040
0.0
1040
1140.0
1040
0.0
1040
0.0
1040
50.0
1040
0.0
1040
0.0
1070
     0
1070
   100
1070
     0
1070
     1
1070
     0
1070
     0
1070
     0
1070
     0
1040
0.0
1040
0.0
1040
0.0
1040
0.5
1040
0.5
1040
0.0
1040
0.0
1070
     0
1002
{
1002
}
1002
}
  0
ENDSEC
  0
EOF
