  0
SECTION
  2
HEADER
  9
$ACADVER
  1
AC1009
  9
$DWGCODEPAGE
  3
ansi_932
  9
$INSBASE
 10
0.0
 20
0.0
 30
0.0
  9
$EXTMIN
 10
-831.0
 20
-569.9999999999999
 30
0.0
  9
$EXTMAX
 10
831.0
 20
569.9999999999999
 30
0.0
  9
$LIMMIN
 10
-297.0
 20
-210.0
  9
$LIMMAX
 10
297.0
 20
210.0
  9
$ORTHOMODE
 70
     0
  9
$REGENMODE
 70
     1
  9
$FILLMODE
 70
     1
  9
$QTEXTMODE
 70
     0
  9
$MIRRTEXT
 70
     1
  9
$DRAGMODE
 70
     2
  9
$LTSCALE
 40
1.0
  9
$OSMODE
 70
    37
  9
$ATTMODE
 70
     1
  9
$TEXTSIZE
 40
0.2
  9
$TRACEWID
 40
0.05
  9
$TEXTSTYLE
  7
STANDARD
  9
$CLAYER
  8
0
  9
$CELTYPE
  6
BYLAYER
  9
$CECOLOR
 62
   256
  9
$DIMSCALE
 40
1.0
  9
$DIMASZ
 40
2.5
  9
$DIMEXO
 40
0.0625
  9
$DIMDLI
 40
0.38
  9
$DIMRND
 40
0.0
  9
$DIMDLE
 40
0.0
  9
$DIMEXE
 40
0.18
  9
$DIMTP
 40
0.0
  9
$DIMTM
 40
0.0
  9
$DIMTXT
 40
0.18
  9
$DIMCEN
 40
0.09
  9
$DIMTSZ
 40
0.0
  9
$DIMTOL
 70
     0
  9
$DIMLIM
 70
     0
  9
$DIMTIH
 70
     1
  9
$DIMTOH
 70
     1
  9
$DIMSE1
 70
     0
  9
$DIMSE2
 70
     0
  9
$DIMTAD
 70
     3
  9
$DIMZIN
 70
     0
  9
$DIMBLK
  1

  9
$DIMASO
 70
     1
  9
$DIMSHO
 70
     1
  9
$DIMPOST
  1

  9
$DIMAPOST
  1

  9
$DIMALT
 70
     0
  9
$DIMALTD
 70
     2
  9
$DIMALTF
 40
25.4
  9
$DIMLFAC
 40
1.0
  9
$DIMTOFL
 70
     0
  9
$DIMTVP
 40
0.0
  9
$DIMTIX
 70
     0
  9
$DIMSOXD
 70
     0
  9
$DIMSAH
 70
     0
  9
$DIMBLK1
  1

  9
$DIMBLK2
  1

  9
$DIMSTYLE
  2
STANDARD
  9
$DIMCLRD
 70
     0
  9
$DIMCLRE
 70
     0
  9
$DIMCLRT
 70
     0
  9
$DIMTFAC
 40
1.0
  9
$DIMGAP
 40
0.09
  9
$LUNITS
 70
     2
  9
$LUPREC
 70
     4
  9
$SKETCHINC
 40
0.1
  9
$FILLETRAD
 40
0.5
  9
$AUNITS
 70
     0
  9
$AUPREC
 70
     0
  9
$MENU
  1
.
  9
$ELEVATION
 40
0.0
  9
$PELEVATION
 40
0.0
  9
$THICKNESS
 40
0.0
  9
$LIMCHECK
 70
     0
  9
$CHAMFERA
 40
0.5
  9
$CHAMFERB
 40
0.5
  9
$SKPOLY
 70
     0
  9
$TDCREATE
 40
2456813.351277952
  9
$TDUPDATE
 40
2456813.351277963
  9
$TDINDWG
 40
0.0000000116
  9
$TDUSRTIMER
 40
0.0000000116
  9
$USRTIMER
 70
     1
  9
$ANGBASE
 50
0.0
  9
$ANGDIR
 70
     0
  9
$PDMODE
 70
     0
  9
$PDSIZE
 40
1.0
  9
$PLINEWID
 40
0.0
  9
$COORDS
 70
     1
  9
$SPLFRAME
 70
     0
  9
$SPLINETYPE
 70
     6
  9
$SPLINESEGS
 70
     8
  9
$ATTDIA
 70
     0
  9
$ATTREQ
 70
     1
  9
$HANDLING
 70
     1
  9
$HANDSEED
  5
4AA
  9
$SURFTAB1
 70
     6
  9
$SURFTAB2
 70
     6
  9
$SURFTYPE
 70
     6
  9
$SURFU
 70
     6
  9
$SURFV
 70
     6
  9
$UCSNAME
  2

  9
$UCSORG
 10
0.0
 20
0.0
 30
0.0
  9
$UCSXDIR
 10
1.0
 20
0.0
 30
0.0
  9
$UCSYDIR
 10
0.0
 20
1.0
 30
0.0
  9
$PUCSNAME
  2

  9
$PUCSORG
 10
0.0
 20
0.0
 30
0.0
  9
$PUCSXDIR
 10
1.0
 20
0.0
 30
0.0
  9
$PUCSYDIR
 10
0.0
 20
1.0
 30
0.0
  9
$USERI1
 70
     0
  9
$USERI2
 70
     0
  9
$USERI3
 70
     0
  9
$USERI4
 70
     0
  9
$USERI5
 70
     0
  9
$USERR1
 40
0.0
  9
$USERR2
 40
0.0
  9
$USERR3
 40
0.0
  9
$USERR4
 40
0.0
  9
$USERR5
 40
0.0
  9
$WORLDVIEW
 70
     1
  9
$SHADEDGE
 70
     3
  9
$SHADEDIF
 70
    70
  9
$TILEMODE
 70
     1
  9
$MAXACTVP
 70
    64
  9
$PLIMCHECK
 70
     0
  9
$PEXTMIN
 10
1.000000000000000E+20
 20
1.000000000000000E+20
 30
1.000000000000000E+20
  9
$PEXTMAX
 10
-1.000000000000000E+20
 20
-1.000000000000000E+20
 30
-1.000000000000000E+20
  9
$PLIMMIN
 10
0.0
 20
0.0
  9
$PLIMMAX
 10
12.0
 20
9.0
  9
$UNITMODE
 70
     0
  9
$VISRETAIN
 70
     0
  9
$PLINEGEN
 70
     1
  9
$PSLTSCALE
 70
     0
  0
ENDSEC
  0
SECTION
  2
TABLES
  0
TABLE
  2
VPORT
 70
     1
  0
VPORT
  2
*ACTIVE
 70
     0
 10
0.0
 20
0.0
 11
1.0
 21
1.0
 12
0.0
 22
0.0
 13
0.0
 23
0.0
 14
0.5
 24
0.5
 15
0.5
 25
0.5
 16
0.0
 26
0.0
 36
1.0
 17
-0.0000000000000036
 27
0.0
 37
0.0
 40
387.6
 41
1.457894736842106
 42
50.0
 43
0.0
 44
0.0
 50
0.0
 51
0.0
 71
     0
 72
  1000
 73
     1
 74
     1
 75
     0
 76
     0
 77
     0
 78
     0
  0
ENDTAB
  0
TABLE
  2
LTYPE
 70
    28
  0
LTYPE
  2
CONTINUOUS
 70
     0
  3
Solid line
 72
    65
 73
     0
 40
0.0
  0
LTYPE
  2
HIDDENX2
 70
     0
  3
CADPAC LINETYPE
 72
    65
 73
     2
 40
10.38318912237321
 49
7.787391841779908
 49
-2.595797280593303
  0
LTYPE
  2
HIDDEN
 70
     0
  3
CADPAC LINETYPE
 72
    65
 73
     2
 40
7.787391841779908
 49
5.191594561186605
 49
-2.595797280593303
  0
LTYPE
  2
HIDDEN2
 70
     0
  3
CADPAC LINETYPE
 72
    65
 73
     2
 40
6.489493201483256
 49
3.893695920889954
 49
-2.595797280593303
  0
LTYPE
  2
DASHED
 70
     0
  3
CADPAC LINETYPE
 72
    65
 73
     2
 40
7.268232385661236
 49
5.191594561186605
 49
-2.076637824474631
  0
LTYPE
  2
DASHED2
 70
     0
  3
CADPAC LINETYPE
 72
    65
 73
     2
 40
4.672435105068018
 49
3.114956736712031
 49
-1.557478368355987
  0
LTYPE
  2
DASHEDX2
 70
     0
  3
CADPAC LINETYPE
 72
    65
 73
     2
 40
12.45982694684795
 49
10.38318912237332
 49
-2.076637824474631
  0
LTYPE
  2
DOTX2
 70
     0
  3
CADPAC LINETYPE
 72
    65
 73
     2
 40
4.542645241038343
 49
0.0
 49
-4.542645241038343
  0
LTYPE
  2
DOT
 70
     0
  3
CADPAC LINETYPE
 72
    65
 73
     2
 40
3.634116192830675
 49
0.0
 49
-3.634116192830675
  0
LTYPE
  2
DOT2
 70
     0
  3
CADPAC LINETYPE
 72
    65
 73
     2
 40
2.725587144623006
 49
0.0
 49
-2.725587144623006
  0
LTYPE
  2
CENTERX2
 70
     0
  3
CADPAC LINETYPE
 72
    65
 73
     4
 40
15.57478368355982
 49
6.489493201483256
 49
-3.244746600741628
 49
2.595797280593303
 49
-3.244746600741628
  0
LTYPE
  2
CENTER
 70
     0
  3
CADPAC LINETYPE
 72
    65
 73
     4
 40
11.94066749072919
 49
5.191594561186605
 49
-2.595797280593303
 49
1.557478368355981
 49
-2.595797280593303
  0
LTYPE
  2
CENTER2
 70
     0
  3
CADPAC LINETYPE
 72
    65
 73
     4
 40
8.306551297898569
 49
3.893695920889954
 49
-1.946847960444977
 49
0.5191594561186605
 49
-1.946847960444977
  0
LTYPE
  2
DASHDOTX2
 70
     0
  3
CADPAC LINETYPE
 72
    65
 73
     4
 40
24.91965389369585
 49
12.4598269468479
 49
-4.153275648949318
 49
4.153275648949318
 49
-4.153275648949318
  0
LTYPE
  2
DASHDOT
 70
     0
  3
CADPAC LINETYPE
 72
    65
 73
     4
 40
12.45982694684784
 49
6.229913473423949
 49
-2.076637824474631
 49
2.076637824474631
 49
-2.076637824474631
  0
LTYPE
  2
DASHDOT2
 70
     0
  3
CADPAC LINETYPE
 72
    65
 73
     4
 40
7.995055624227371
 49
4.672435105067962
 49
-1.557478368355973
 49
0.2076637824474631
 49
-1.557478368355973
  0
LTYPE
  2
DIVIDEX2
 70
     0
  3
CADPAC LINETYPE
 72
    65
 73
     6
 40
33.22620519159449
 49
12.4598269468479
 49
-4.153275648949318
 49
4.153275648949318
 49
-4.153275648949318
 49
4.153275648949318
 49
-4.153275648949318
  0
LTYPE
  2
DIVIDE
 70
     0
  3
CADPAC LINETYPE
 72
    65
 73
     6
 40
16.6131025957971
 49
6.229913473423949
 49
-2.076637824474631
 49
2.076637824474631
 49
-2.076637824474631
 49
2.076637824474631
 49
-2.076637824474631
  0
LTYPE
  2
DIVIDE2
 70
     0
  3
CADPAC LINETYPE
 72
    65
 73
     6
 40
12.45982694684783
 49
4.672435105067962
 49
-1.557478368355973
 49
1.557478368355973
 49
-1.557478368355973
 49
1.557478368355973
 49
-1.557478368355973
  0
LTYPE
  2
BORDERX2
 70
     0
  3
CADPAC LINETYPE
 72
    65
 73
     6
 40
22.7132262051914
 49
6.489493201483256
 49
-3.244746600741628
 49
6.489493201483256
 49
-3.244746600741628
 49
0.0
 49
-3.244746600741628
  0
LTYPE
  2
BORDER
 70
     0
  3
CADPAC LINETYPE
 72
    65
 73
     6
 40
18.17058096415312
 49
5.191594561186605
 49
-2.595797280593303
 49
5.191594561186605
 49
-2.595797280593303
 49
0.0
 49
-2.595797280593303
  0
LTYPE
  2
BORDER2
 70
     0
  3
CADPAC LINETYPE
 72
    65
 73
     6
 40
13.49814585908516
 49
4.153275648949318
 49
-2.595797280593274
 49
1.557478368355987
 49
-2.595797280593274
 49
0.0
 49
-2.595797280593303
  0
LTYPE
  2
PHANTOMX2
 70
     0
  3
CADPAC LINETYPE
 72
    65
 73
     6
 40
19.46847960444977
 49
6.489493201483256
 49
-2.595797280593303
 49
2.595797280593303
 49
-2.595797280593303
 49
2.595797280593303
 49
-2.595797280593303
  0
LTYPE
  2
PHANTOM
 70
     0
  3
CADPAC LINETYPE
 72
    65
 73
     6
 40
16.09394313967848
 49
5.191594561186605
 49
-2.595797280593303
 49
1.557478368355981
 49
-2.595797280593303
 49
1.557478368355981
 49
-2.595797280593303
  0
LTYPE
  2
PHANTOM2
 70
     0
  3
CADPAC LINETYPE
 72
    65
 73
     6
 40
13.7577255871445
 49
3.893695920889954
 49
-2.595797280593303
 49
1.038318912237321
 49
-2.595797280593303
 49
1.038318912237321
 49
-2.595797280593303
  0
LTYPE
  2
ACAD_ISO06W100
 70
     0
  3
CADPAC LINETYPE
 72
    65
 73
     8
 40
27.51545117428896
 49
12.4598269468479
 49
-2.595797280593274
 49
1.557478368355987
 49
-2.595797280593274
 49
1.557478368355987
 49
-2.595797280593274
 49
1.557478368355987
 49
-2.595797280593274
  0
LTYPE
  2
ACAD_ISO13W100
 70
     0
  3
CADPAC LINETYPE
 72
    65
 73
     8
 40
20.76637824474642
 49
5.191594561186605
 49
-2.595797280593303
 49
5.191594561186605
 49
-2.595797280593303
 49
0.0
 49
-2.595797280593303
 49
0.0
 49
-2.595797280593303
  0
LTYPE
  2
ACAD_ISO14W100
 70
     0
  3
CADPAC LINETYPE
 72
    65
 73
     8
 40
15.57478368355982
 49
5.191594561186605
 49
-2.595797280593303
 49
0.0
 49
-2.595797280593303
 49
0.0
 49
-2.595797280593303
 49
0.0
 49
-2.595797280593303
  0
ENDTAB
  0
TABLE
  2
LAYER
 70
     3
  0
LAYER
  2
0
 70
     0
 62
     7
  6
CONTINUOUS
  0
LAYER
  2
LAYER0014
 70
     0
 62
     7
  6
CONTINUOUS
  0
LAYER
  2
ZUWAKU
 70
     0
 62
     7
  6
CONTINUOUS
  0
ENDTAB
  0
TABLE
  2
STYLE
 70
     5
  0
STYLE
  2
STANDARD
 70
     0
 40
0.0
 41
1.0
 50
0.0
 71
     0
 42
0.2
  3
txt
  4

  0
STYLE
  2
FDASTYLE1
 70
     0
 40
0.0
 41
0.8000000000000004
 50
0.0
 71
     0
 42
0.2
  3
txt.shx
  4
bigfont
  0
STYLE
  2
FDASTYLE0
 70
     4
 40
0.0
 41
0.8
 50
0.0
 71
     0
 42
0.2
  3
txt.shx
  4
bigfont
  0
STYLE
  2
FDASTYLE2
 70
     0
 40
0.0
 41
0.8123476848090983
 50
0.0
 71
     0
 42
0.2
  3
MSMINCHO.TTC
  4

  0
STYLE
  2
FDASTYLE3
 70
     0
 40
0.0
 41
0.77
 50
0.0
 71
     0
 42
0.2
  3
MSGOTHIC.TTC
  4

  0
ENDTAB
  0
TABLE
  2
VIEW
 70
     0
  0
ENDTAB
  0
TABLE
  2
UCS
 70
     0
  0
ENDTAB
  0
TABLE
  2
APPID
 70
     2
  0
APPID
  2
ACAD
 70
     0
  0
APPID
  2
DAFUSIONOUT
 70
     0
  0
ENDTAB
  0
TABLE
  2
DIMSTYLE
 70
     1
  0
DIMSTYLE
  2
STANDARD
 70
     0
  3

  4

  5

  6

  7

 40
1.0
 41
0.18
 42
0.0625
 43
0.38
 44
0.18
 45
0.0
 46
0.0
 47
0.0
 48
0.0
140
0.18
141
0.09
142
0.0
143
25.4
144
1.0
145
0.0
146
1.0
147
0.09
 71
     0
 72
     0
 73
     1
 74
     1
 75
     0
 76
     0
 77
     0
 78
     0
170
     0
171
     2
172
     0
173
     0
174
     0
175
     0
176
     0
177
     0
178
     0
  0
ENDTAB
  0
ENDSEC
  0
SECTION
  2
BLOCKS
  0
BLOCK
  8
0
  2
$MODEL_SPACE
 70
     0
 10
0.0
 20
0.0
 30
0.0
  3
$MODEL_SPACE
  1

  0
ENDBLK
  5
21
  8
0
  0
BLOCK
 67
     1
  8
0
  2
$PAPER_SPACE
 70
     0
 10
0.0
 20
0.0
 30
0.0
  3
$PAPER_SPACE
  1

  0
ENDBLK
  5
1D
 67
     1
  8
0
  0
BLOCK
  8
0
  2
DA_IMAGEDIMGROUP_1
 70
     0
 10
0.0
 20
0.0
 30
0.0
  3
DA_IMAGEDIMGROUP_1
  1

  0
LINE
  5
CD
  8
LAYER0014
  6
CONTINUOUS
 62
     7
 10
35.58992786895062
 20
14.82595711802155
 30
0.0
 11
21.35823701879967
 21
6.609290006980068
 31
0.0
  0
LINE
  5
CE
  8
LAYER0014
  6
CONTINUOUS
 62
     7
 10
41.08993074696708
 20
5.299694353262381
 30
0.0
 11
26.85822770981041
 21
-2.916981338968249
 31
0.0
  0
LINE
  5
CF
  8
LAYER0014
  6
CONTINUOUS
 62
     7
 10
23.33796641248749
 20
7.752295233970976
 30
0.0
 11
28.83796158451229
 21
-1.773980392542462
 31
0.0
  0
LINE
  5
D0
  8
LAYER0014
  6
CONTINUOUS
 62
     7
 10
41.93151829094121
 20
-24.45269668510704
 30
0.0
 11
28.83796158451229
 21
-1.773980392542462
 31
0.0
  0
INSERT
  5
D7
  8
LAYER0014
 62
     7
  2
_OPEN30
 10
28.83796158451229
 20
-1.773980392542462
 30
0.0
 41
1.999998407630662
 42
2.000005728319971
 50
119.9999881575215
  0
LINE
  5
D8
  8
LAYER0014
  6
CONTINUOUS
 62
     7
 10
20.83796730748254
 20
12.08242276961868
 30
0.0
 11
23.33796641248749
 21
7.752295233970976
 31
0.0
  0
INSERT
  5
D9
  8
LAYER0014
 62
     7
  2
_OPEN30
 10
23.33796641248749
 20
7.752295233970976
 30
0.0
 41
1.999998407630662
 42
2.000005728319971
 50
299.9999881575215
  0
TEXT
  5
DB
  8
LAYER0014
 62
     7
 10
35.21183101374189
 20
-10.81385063845022
 30
0.0
 40
4.0
  1
11H8
 50
-59.99999999999999
 41
0.8000000000000004
  7
FDASTYLE1
 72
     5
 11
41.6118310137419
 21
-21.89897580689104
 31
0.0
  0
ENDBLK
  5
4E
  8
0
  0
BLOCK
  8
0
  2
DA_IMAGEDIMGROUP_2
 70
     0
 10
0.0
 20
0.0
 30
0.0
  3
DA_IMAGEDIMGROUP_2
  1

  0
LINE
  5
DC
  8
LAYER0014
  6
CONTINUOUS
 62
     7
 10
31.21493316285801
 20
22.40368010018913
 30
0.0
 11
5.821518913470996
 21
7.742786158382153
 31
0.0
  0
LINE
  5
DD
  8
LAYER0014
  6
CONTINUOUS
 62
     7
 10
45.46493995049016
 20
-2.278047510184775
 30
0.0
 11
20.07152395095635
 21
-16.9389450840119
 31
0.0
  0
LINE
  5
DE
  8
LAYER0014
  6
CONTINUOUS
 62
     7
 10
7.801243062807245
 20
8.885796308322817
 30
0.0
 11
22.05125382144671
 21
-15.79594294875762
 31
0.0
  0
INSERT
  5
DF
  8
LAYER0014
 62
     7
  2
_OPEN30
 10
7.801243062807245
 20
8.885796308322817
 30
0.0
 41
1.999998407630662
 42
2.000005728319971
 50
120.0000034028506
  0
INSERT
  5
E0
  8
LAYER0014
 62
     7
  2
_OPEN30
 10
22.05125382144671
 20
-15.79594294875762
 30
0.0
 41
1.999998407630662
 42
2.000005728319971
 50
300.0000034028506
  0
TEXT
  5
E1
  8
LAYER0014
 62
     7
 10
14.71189186119172
 20
0.1162097641763431
 30
0.0
 40
4.0
  1
28
 50
-59.99999999999999
 41
0.7999999999999998
  7
FDASTYLE1
 72
     5
 11
17.91189186119172
 21
-5.426352820044063
 31
0.0
  0
ENDBLK
  5
51
  8
0
  0
BLOCK
  8
0
  2
DA_IMAGEDIMGROUP_3
 70
     0
 10
0.0
 20
0.0
 30
0.0
  3
DA_IMAGEDIMGROUP_3
  1

  0
LINE
  5
E2
  8
LAYER0014
  6
CONTINUOUS
 62
     7
 10
52.53727465219669
 20
86.95040123725724
 30
0.0
 11
24.09378518746267
 21
103.3722396067259
 31
0.0
  0
LINE
  5
E3
  8
LAYER0014
  6
CONTINUOUS
 62
     7
 10
19.73042655388174
 20
52.60493747475169
 30
0.0
 11
10.49074630180654
 21
52.60493747475169
 31
0.0
  0
ARC
  5
E4
  8
LAYER0014
  6
CONTINUOUS
 62
     7
 10
112.0252502385741
 20
52.60499088051341
 30
0.0
 40
99.24850463867188
 50
150.0000110043195
 51
179.9999640278213
  0
INSERT
  5
E5
  8
LAYER0014
 62
     7
  2
_OPEN30
 10
26.07351440295456
 20
102.2292266918218
 30
0.0
 41
1.999998407630662
 42
2.000005728319971
 50
60.57730683514738
  0
INSERT
  5
E6
  8
LAYER0014
 62
     7
  2
_OPEN30
 10
12.7767455999218
 20
52.60505319199558
 30
0.0
 41
1.999998407630662
 42
2.000005728319971
 50
269.4226681969931
  0
TEXT
  5
E7
  8
LAYER0014
 62
     7
 10
13.36338079832718
 20
74.074937913387
 30
0.0
 40
4.0
  1
30ﾟ
 50
74.89999999999999
 41
0.7999999999999994
  7
FDASTYLE1
 72
     5
 11
15.8642240812966
 21
83.34347516982756
 31
0.0
  0
ENDBLK
  5
54
  8
0
  0
BLOCK
  8
0
  2
DA_IMAGEDIMGROUP_4
 70
     0
 10
0.0
 20
0.0
 30
0.0
  3
DA_IMAGEDIMGROUP_4
  1

  0
LINE
  5
E8
  8
LAYER0014
  6
CONTINUOUS
 62
     7
 10
-79.81723769166702
 20
19.60499088051341
 30
0.0
 11
-52.73277937867873
 21
19.60499088051341
 31
0.0
  0
LINE
  5
E9
  8
LAYER0014
  6
CONTINUOUS
 62
     7
 10
-55.0187824914717
 20
19.60499088051341
 30
0.0
 11
-55.0187824914717
 21
61.61416141273997
 31
0.0
  0
INSERT
  5
EA
  8
LAYER0014
 62
     7
  2
_OPEN30
 10
-55.0187824914717
 20
19.60499088051341
 30
0.0
 41
1.999998407630662
 42
2.000005728319971
 50
270.0
  0
TEXT
  5
EB
  8
LAYER0014
 62
     7
 10
-56.6187824914717
 20
33.26345340492746
 30
0.0
 40
4.0
  1
φ66H7
 50
90.0
 41
0.7692307692307695
  7
FDASTYLE1
 72
     5
 11
-56.6187824914717
 21
49.26345340492747
 31
0.0
  0
ENDBLK
  5
57
  8
0
  0
BLOCK
  8
0
  2
DA_IMAGEDIMGROUP_5
 70
     0
 10
0.0
 20
0.0
 30
0.0
  3
DA_IMAGEDIMGROUP_5
  1

  0
LINE
  5
EC
  8
LAYER0014
  6
CONTINUOUS
 62
     7
 10
-84.85723769166701
 20
30.93397037270091
 30
0.0
 11
-82.35723769166701
 21
30.93397037270091
 31
0.0
  0
LINE
  5
ED
  8
LAYER0014
  6
CONTINUOUS
 62
     7
 10
-84.85723769166701
 20
30.93397037270091
 30
0.0
 11
-91.207237691667
 21
30.93397037270091
 31
0.0
  0
INSERT
  5
EE
  8
LAYER0014
 62
     7
  2
_OPEN30
 10
-84.85723769166701
 20
30.93397037270091
 30
0.0
 41
1.999998407630662
 42
2.000005728319971
 50
360.0
  0
LINE
  5
EF
  8
LAYER0014
  6
CONTINUOUS
 62
     7
 10
-76.007237691667
 20
30.93397037270091
 30
0.0
 11
-82.35723769166701
 21
30.93397037270091
 31
0.0
  0
INSERT
  5
F0
  8
LAYER0014
 62
     7
  2
_OPEN30
 10
-82.35723769166701
 20
30.93397037270091
 30
0.0
 41
1.999998407630662
 42
2.000005728319971
 50
180.0
  0
TEXT
  5
F1
  8
LAYER0014
 62
     7
 10
-79.48634703515286
 20
32.54234551191848
 30
0.0
 40
4.0
  1
2.5
 50
-0.1000000000000078
 41
0.8000000000000002
  7
FDASTYLE1
 72
     5
 11
-69.8863616567853
 21
32.52559035960585
 31
0.0
  0
ENDBLK
  5
5A
  8
0
  0
BLOCK
  8
0
  2
DA_IMAGEDIMGROUP_6
 70
     0
 10
0.0
 20
0.0
 30
0.0
  3
DA_IMAGEDIMGROUP_6
  1

  0
LINE
  5
F2
  8
LAYER0014
  6
CONTINUOUS
 62
     7
 10
-133.607237691667
 20
39.52926532509348
 30
0.0
 11
-110.607237691667
 21
39.52926532509348
 31
0.0
  0
INSERT
  5
F3
  8
LAYER0014
 62
     7
  2
_OPEN30
 10
-133.607237691667
 20
39.52926532509348
 30
0.0
 41
1.999998407630662
 42
2.000005728319971
 50
180.0
  0
INSERT
  5
F4
  8
LAYER0014
 62
     7
  2
_OPEN30
 10
-110.607237691667
 20
39.52926532509348
 30
0.0
 41
1.999998407630662
 42
2.000005728319971
 50
360.0
  0
TEXT
  5
F5
  8
LAYER0014
 62
     7
 10
-125.307237691667
 20
41.12926532509349
 30
0.0
 40
4.0
  1
23
 41
0.8000000000000007
  7
FDASTYLE1
 72
     5
 11
-118.907237691667
 21
41.12926532509349
 31
0.0
  0
ENDBLK
  5
5D
  8
0
  0
BLOCK
  8
0
  2
DA_IMAGEDIMGROUP_7
 70
     0
 10
0.0
 20
0.0
 30
0.0
  3
DA_IMAGEDIMGROUP_7
  1

  0
LINE
  5
F6
  8
LAYER0014
  6
CONTINUOUS
 62
     7
 10
-110.607237691667
 20
39.52926532509348
 30
0.0
 11
-103.857237691667
 21
39.52926532509348
 31
0.0
  0
INSERT
  5
FC
  8
LAYER0014
 62
     7
  2
_DOTBLANK
 10
-102.607237691667
 20
39.52926532509348
 30
0.0
 41
2.5
 42
2.5
 50
360.0
  0
LINE
  5
FD
  8
LAYER0014
  6
CONTINUOUS
 62
     7
 10
-110.607237691667
 20
39.52926532509348
 30
0.0
 11
-103.857237691667
 21
39.52926532509348
 31
0.0
  0
INSERT
  5
FE
  8
LAYER0014
 62
     7
  2
_DOTBLANK
 10
-102.607237691667
 20
39.52926532509348
 30
0.0
 41
2.5
 42
2.5
 50
360.0
  0
LINE
  5
FF
  8
LAYER0014
  6
CONTINUOUS
 62
     7
 10
-110.607237691667
 20
39.52926532509348
 30
0.0
 11
-116.957237691667
 21
39.52926532509348
 31
0.0
  0
INSERT
  5
100
  8
LAYER0014
 62
     7
  2
_OPEN30
 10
-110.607237691667
 20
39.52926532509348
 30
0.0
 41
1.999998407630662
 42
2.000005728319971
 50
360.0
  0
TEXT
  5
101
  8
LAYER0014
 62
     7
 10
-108.207237691667
 20
41.12926532509349
 30
0.0
 40
4.0
  1
8
 41
0.7999999999999972
  7
FDASTYLE1
 72
     5
 11
-105.007237691667
 21
41.12926532509349
 31
0.0
  0
ENDBLK
  5
60
  8
0
  0
BLOCK
  8
0
  2
DA_IMAGEDIMGROUP_8
 70
     0
 10
0.0
 20
0.0
 30
0.0
  3
DA_IMAGEDIMGROUP_8
  1

  0
LINE
  5
102
  8
LAYER0014
  6
CONTINUOUS
 62
     7
 10
-102.607237691667
 20
39.52926532509348
 30
0.0
 11
-93.60723769166701
 21
39.52926532509348
 31
0.0
  0
LINE
  5
103
  8
LAYER0014
  6
CONTINUOUS
 62
     7
 10
-102.607237691667
 20
39.52926532509348
 30
0.0
 11
-93.60723769166701
 21
39.52926532509348
 31
0.0
  0
LINE
  5
104
  8
LAYER0014
  6
CONTINUOUS
 62
     7
 10
-87.25723769166702
 20
39.52926532509348
 30
0.0
 11
-93.60723769166701
 21
39.52926532509348
 31
0.0
  0
INSERT
  5
105
  8
LAYER0014
 62
     7
  2
_OPEN30
 10
-93.60723769166701
 20
39.52926532509348
 30
0.0
 41
1.999998407630662
 42
2.000005728319971
 50
180.0
  0
TEXT
  5
106
  8
LAYER0014
 62
     7
 10
-99.707237691667
 20
41.12926532509349
 30
0.0
 40
4.0
  1
9
 41
0.7999999999999972
  7
FDASTYLE1
 72
     5
 11
-96.50723769166702
 21
41.12926532509349
 31
0.0
  0
ENDBLK
  5
63
  8
0
  0
BLOCK
  8
0
  2
DA_IMAGEDIMGROUP_9
 70
     0
 10
0.0
 20
0.0
 30
0.0
  3
DA_IMAGEDIMGROUP_9
  1

  0
LINE
  5
107
  8
LAYER0014
  6
CONTINUOUS
 62
     7
 10
-82.35723769166701
 20
135.523675878072
 30
0.0
 11
-82.35723769166701
 21
159.4488400626423
 31
0.0
  0
LINE
  5
108
  8
LAYER0014
  6
CONTINUOUS
 62
     7
 10
-83.35723769166701
 20
137.6449985099079
 30
0.0
 11
-83.35723769166701
 21
159.4488400626423
 31
0.0
  0
LINE
  5
109
  8
LAYER0014
  6
CONTINUOUS
 62
     7
 10
-82.35723769166701
 20
157.1628445792439
 30
0.0
 11
-83.35723769166701
 21
157.1628445792439
 31
0.0
  0
LINE
  5
10A
  8
LAYER0014
  6
CONTINUOUS
 62
     7
 10
-82.35723769166701
 20
157.1628445792439
 30
0.0
 11
-76.007237691667
 21
157.1628445792439
 31
0.0
  0
INSERT
  5
10B
  8
LAYER0014
 62
     7
  2
_OPEN30
 10
-82.35723769166701
 20
157.1628445792439
 30
0.0
 41
1.999998407630662
 42
2.000005728319971
 50
180.0
  0
LINE
  5
10C
  8
LAYER0014
  6
CONTINUOUS
 62
     7
 10
-89.707237691667
 20
157.1628445792439
 30
0.0
 11
-83.35723769166701
 21
157.1628445792439
 31
0.0
  0
INSERT
  5
10D
  8
LAYER0014
 62
     7
  2
_OPEN30
 10
-83.35723769166701
 20
157.1628445792439
 30
0.0
 41
1.999998407630662
 42
2.000005728319971
 50
360.0
  0
TEXT
  5
10E
  8
LAYER0014
 62
     7
 10
-90.35082289674513
 20
158.7628445792439
 30
0.0
 40
4.0
  1
1
 41
0.7999999999999972
  7
FDASTYLE1
 72
     5
 11
-87.15082289674514
 21
158.7628445792439
 31
0.0
  0
ENDBLK
  5
66
  8
0
  0
BLOCK
  8
0
  2
DC_GROUP_1
 70
     0
 10
0.0
 20
0.0
 30
0.0
  3
DC_GROUP_1
  1

  0
LINE
  5
10F
  8
LAYER0014
  6
CONTINUOUS
 62
     7
 10
-83.1965112693449
 20
131.4109804326335
 30
0.0
 11
-66.53356644689642
 21
156.9103661436502
 31
0.0
  0
INSERT
  5
110
  8
LAYER0014
 62
     7
  2
_OPEN30
 10
-83.1965112693449
 20
131.4109804326335
 30
0.0
 41
1.999998407630662
 42
2.000005728319971
 50
236.8368070131182
  0
LINE
  5
111
  8
LAYER0014
  6
CONTINUOUS
 62
     7
 10
-66.53356825807326
 20
156.9103726554158
 30
0.0
 11
-21.91932303679576
 21
156.9103726554158
 31
0.0
  0
TEXT
  5
112
  8
LAYER0014
 62
     7
 10
-66.02863203981154
 20
158.5103726554158
 30
0.0
 40
4.0
  1
ｾﾚｰｼｮﾝP1.5山60ﾟ
 41
0.7887323943661972
  7
FDASTYLE1
 72
     5
 11
-21.22863203981154
 21
158.5103726554158
 31
0.0
  0
ENDBLK
  5
69
  8
0
  0
BLOCK
  8
0
  2
DC_GROUP_2
 70
     0
 10
0.0
 20
0.0
 30
0.0
  3
DC_GROUP_2
  1

  0
LINE
  5
113
  8
LAYER0014
  6
CONTINUOUS
 62
     7
 10
-98.3266340871587
 20
25.44547649631129
 30
0.0
 11
-75.57224105678596
 21
4.573016987237843
 31
0.0
  0
INSERT
  5
114
  8
LAYER0014
 62
     7
  2
_OPEN30
 10
-98.3266340871587
 20
25.44547649631129
 30
0.0
 41
1.999998407630662
 42
2.000005728319971
 50
137.4700393181463
  0
LINE
  5
115
  8
LAYER0014
  6
CONTINUOUS
 62
     7
 10
-75.57224547364943
 20
4.573016564870095
 30
0.0
 11
-46.33127214987272
 21
4.573016564870095
 31
0.0
  0
TEXT
  5
116
  8
LAYER0014
 62
     7
 10
-75.23007094362013
 20
6.173016564870094
 30
0.0
 40
4.0
  1
M54×Ｐ1.25
 41
0.7659574468085105
  7
FDASTYLE1
 72
     5
 11
-46.43007094362014
 21
6.173016564870094
 31
0.0
  0
ENDBLK
  5
6C
  8
0
  0
BLOCK
  8
0
  2
DC_GROUP_3
 70
     0
 10
0.0
 20
0.0
 30
0.0
  3
DC_GROUP_3
  1

  0
LINE
  5
117
  8
LAYER0014
  6
CONTINUOUS
 62
     7
 10
-72.48029256943276
 20
124.5471666906496
 30
0.0
 11
-60.48028120627599
 21
144.880500279919
 31
0.0
  0
INSERT
  5
118
  8
LAYER0014
 62
     7
  2
_OPEN30
 10
-72.48029256943276
 20
124.5471666906496
 30
0.0
 41
1.999998407630662
 42
2.000005728319971
 50
239.4524048186829
  0
LINE
  5
119
  8
LAYER0014
  6
CONTINUOUS
 62
     7
 10
-60.48028456666701
 20
144.8804959464314
 30
0.0
 11
-52.16598402955763
 21
144.8804959464314
 31
0.0
  0
TEXT
  5
11A
  8
LAYER0014
 62
     7
 10
-59.48026930787795
 20
146.4804959464314
 30
0.0
 40
4.0
  1
M8
 41
0.7999999999999998
  7
FDASTYLE1
 72
     5
 11
-53.08026930787795
 21
146.4804959464314
 31
0.0
  0
ENDBLK
  5
6F
  8
0
  0
BLOCK
  8
0
  2
DA_IMAGEDIMGROUP_10
 70
     0
 10
0.0
 20
0.0
 30
0.0
  3
DA_IMAGEDIMGROUP_10
  1

  0
LINE
  5
11B
  8
LAYER0014
  6
CONTINUOUS
 62
     7
 10
-136.147237691667
 20
73.60499088051341
 30
0.0
 11
-177.5396870324873
 21
73.60499088051341
 31
0.0
  0
LINE
  5
11C
  8
LAYER0014
  6
CONTINUOUS
 62
     7
 10
-136.147237691667
 20
31.60499088051341
 30
0.0
 11
-177.5396870324873
 21
31.60499088051341
 31
0.0
  0
LINE
  5
11D
  8
LAYER0014
  6
CONTINUOUS
 62
     7
 10
-175.2536915490889
 20
73.60499088051341
 30
0.0
 11
-175.2536915490889
 21
31.60499088051341
 31
0.0
  0
INSERT
  5
11E
  8
LAYER0014
 62
     7
  2
_OPEN30
 10
-175.2536915490889
 20
73.60499088051341
 30
0.0
 41
1.999998407630662
 42
2.000005728319971
 50
90.0
  0
INSERT
  5
11F
  8
LAYER0014
 62
     7
  2
_OPEN30
 10
-175.2536915490889
 20
31.60499088051341
 30
0.0
 41
1.999998407630662
 42
2.000005728319971
 50
270.0
  0
TEXT
  5
120
  8
LAYER0014
 62
     7
 10
-176.8676517391605
 20
44.60779554290889
 30
0.0
 40
4.0
  1
φ42
 50
89.90000000000001
 41
0.7500000000000012
  7
FDASTYLE1
 72
     5
 11
-176.8508965868479
 21
54.20778092127647
 31
0.0
  0
TEXT
  5
121
  8
LAYER0014
 62
     7
 10
-179.4491472984566
 20
55.2123172519411
 30
0.0
 40
2.6
  1
+0.3
 50
89.90000000000001
 41
0.7999999999999993
  7
FDASTYLE1
 72
     5
 11
-179.4346261664523
 21
63.53230457985965
 31
0.0
  0
TEXT
  5
122
  8
LAYER0014
 62
     7
 10
-176.6491515630994
 20
55.20743033251659
 30
0.0
 40
2.6
  1
 0
 50
89.90000000000001
 41
0.8
  7
FDASTYLE1
 72
     5
 11
-176.6418909970973
 21
59.36742399647586
 31
0.0
  0
ENDBLK
  5
72
  8
0
  0
BLOCK
  8
0
  2
DA_IMAGEDIMGROUP_11
 70
     0
 10
0.0
 20
0.0
 30
0.0
  3
DA_IMAGEDIMGROUP_11
  1

  0
LINE
  5
123
  8
LAYER0014
  6
CONTINUOUS
 62
     7
 10
-113.147237691667
 20
77.85499088051341
 30
0.0
 11
-189.3828266809248
 21
77.85499088051341
 31
0.0
  0
LINE
  5
124
  8
LAYER0014
  6
CONTINUOUS
 62
     7
 10
-113.147237691667
 20
27.35499088051341
 30
0.0
 11
-189.3828266809248
 21
27.35499088051341
 31
0.0
  0
LINE
  5
125
  8
LAYER0014
  6
CONTINUOUS
 62
     7
 10
-187.0968311975264
 20
77.85499088051341
 30
0.0
 11
-187.0968311975264
 21
27.35499088051341
 31
0.0
  0
INSERT
  5
126
  8
LAYER0014
 62
     7
  2
_OPEN30
 10
-187.0968311975264
 20
77.85499088051341
 30
0.0
 41
1.999998407630662
 42
2.000005728319971
 50
90.0
  0
INSERT
  5
127
  8
LAYER0014
 62
     7
  2
_OPEN30
 10
-187.0968311975264
 20
27.35499088051341
 30
0.0
 41
1.999998407630662
 42
2.000005728319971
 50
270.0
  0
TEXT
  5
128
  8
LAYER0014
 62
     7
 10
-188.7163764382857
 20
41.40780046447003
 30
0.0
 40
4.0
  1
φ50.5H7
 50
89.90000000000001
 41
0.7777777777777772
  7
FDASTYLE1
 72
     5
 11
-188.6772810828896
 21
63.80776634732766
 31
0.0
  0
ENDBLK
  5
75
  8
0
  0
BLOCK
  8
0
  2
DA_IMAGEDIMGROUP_12
 70
     0
 10
0.0
 20
0.0
 30
0.0
  3
DA_IMAGEDIMGROUP_12
  1

  0
LINE
  5
129
  8
LAYER0014
  6
CONTINUOUS
 62
     7
 10
-145.897237691667
 20
83.10499088051341
 30
0.0
 11
-201.4891499231123
 21
83.10499088051341
 31
0.0
  0
LINE
  5
12A
  8
LAYER0014
  6
CONTINUOUS
 62
     7
 10
-145.897237691667
 20
22.10499088051341
 30
0.0
 11
-201.4891499231123
 21
22.10499088051341
 31
0.0
  0
LINE
  5
12B
  8
LAYER0014
  6
CONTINUOUS
 62
     7
 10
-199.2031544397139
 20
83.10499088051341
 30
0.0
 11
-199.2031544397139
 21
22.10499088051341
 31
0.0
  0
INSERT
  5
12C
  8
LAYER0014
 62
     7
  2
_OPEN30
 10
-199.2031544397139
 20
83.10499088051341
 30
0.0
 41
1.999998407630662
 42
2.000005728319971
 50
90.0
  0
INSERT
  5
12D
  8
LAYER0014
 62
     7
  2
_OPEN30
 10
-199.2031544397139
 20
22.10499088051341
 30
0.0
 41
1.999998407630662
 42
2.000005728319971
 50
270.0
  0
TEXT
  5
12E
  8
LAYER0014
 62
     7
 10
-200.8171146297023
 20
44.60779559059255
 30
0.0
 40
4.0
  1
φ61H7
 50
89.90000000000001
 41
0.7692307692307688
  7
FDASTYLE1
 72
     5
 11
-200.789189375848
 21
60.60777122120514
 31
0.0
  0
ENDBLK
  5
78
  8
0
  0
BLOCK
  8
0
  2
DA_IMAGEDIMGROUP_13
 70
     0
 10
0.0
 20
0.0
 30
0.0
  3
DA_IMAGEDIMGROUP_13
  1

  0
LINE
  5
12F
  8
LAYER0014
  6
CONTINUOUS
 62
     7
 10
-206.7435969445967
 20
52.60499088051341
 30
0.0
 11
-213.5954731652998
 21
52.60499088051341
 31
0.0
  0
LINE
  5
130
  8
LAYER0014
  6
CONTINUOUS
 62
     7
 10
-206.3677271936201
 20
105.0049924063923
 30
0.0
 11
-213.5954731652998
 21
105.0049924063923
 31
0.0
  0
LINE
  5
131
  8
LAYER0014
  6
CONTINUOUS
 62
     7
 10
-211.3094776819014
 20
52.60499088051341
 30
0.0
 11
-211.3094776819014
 21
105.0049924063923
 31
0.0
  0
INSERT
  5
132
  8
LAYER0014
 62
     7
  2
_OPEN30
 10
-211.3094776819014
 20
52.60499088051341
 30
0.0
 41
1.999998407630662
 42
2.000005728319971
 50
270.0
  0
INSERT
  5
133
  8
LAYER0014
 62
     7
  2
_OPEN30
 10
-211.3094776819014
 20
105.0049924063923
 30
0.0
 41
1.999998407630662
 42
2.000005728319971
 50
90.0
  0
TEXT
  5
134
  8
LAYER0014
 62
     7
 10
-212.9234378718898
 20
70.80780016822924
 30
0.0
 40
4.0
  1
R52.4
 50
89.90000000000001
 41
0.8000000000000004
  7
FDASTYLE1
 72
     5
 11
-212.8955126180355
 21
86.80777579884185
 31
0.0
  0
ENDBLK
  5
7B
  8
0
  0
BLOCK
  8
0
  2
DA_IMAGEDIMGROUP_14
 70
     0
 10
0.0
 20
0.0
 30
0.0
  3
DA_IMAGEDIMGROUP_14
  1

  0
LINE
  5
135
  8
LAYER0014
  6
CONTINUOUS
 62
     7
 10
-161.897237691667
 20
93.88749210121654
 30
0.0
 11
-225.7018116662764
 21
93.88749210121654
 31
0.0
  0
LINE
  5
136
  8
LAYER0014
  6
CONTINUOUS
 62
     7
 10
-161.897237691667
 20
11.32248965981028
 30
0.0
 11
-225.7018116662764
 21
11.32248965981028
 31
0.0
  0
LINE
  5
137
  8
LAYER0014
  6
CONTINUOUS
 62
     7
 10
-223.4158009240889
 20
93.88749210121654
 30
0.0
 11
-223.4158009240889
 21
11.32248965981028
 31
0.0
  0
INSERT
  5
138
  8
LAYER0014
 62
     7
  2
_OPEN30
 10
-223.4158009240889
 20
93.88749210121654
 30
0.0
 41
1.999998407630662
 42
2.000005728319971
 50
90.0
  0
INSERT
  5
139
  8
LAYER0014
 62
     7
  2
_OPEN30
 10
-223.4158009240889
 20
11.32248965981028
 30
0.0
 41
1.999998407630662
 42
2.000005728319971
 50
270.0
  0
TEXT
  5
13A
  8
LAYER0014
 62
     7
 10
-225.0632714187026
 20
25.40782483385743
 30
0.0
 40
4.0
  1
φ82.565(A2-5テーパー）
 50
89.90000000000001
 41
0.7472527472527468
  7
FDASTYLE1
 72
     5
 11
-224.9683255555977
 21
79.80774197794025
 31
0.0
  0
ENDBLK
  5
7E
  8
0
  0
BLOCK
  8
0
  2
DA_IMAGEDIMGROUP_15
 70
     0
 10
0.0
 20
0.0
 30
0.0
  3
DA_IMAGEDIMGROUP_15
  1

  0
LINE
  5
13B
  8
LAYER0014
  6
CONTINUOUS
 62
     7
 10
-162.897237691667
 20
-29.8950091194866
 30
0.0
 11
-249.3881214807295
 21
-29.8950091194866
 31
0.0
  0
LINE
  5
13C
  8
LAYER0014
  6
CONTINUOUS
 62
     7
 10
-162.897237691667
 20
135.1049985099079
 30
0.0
 11
-249.3881214807295
 21
135.1049985099079
 31
0.0
  0
LINE
  5
13D
  8
LAYER0014
  6
CONTINUOUS
 62
     7
 10
-247.102110738542
 20
-29.8950091194866
 30
0.0
 11
-247.102110738542
 21
135.1049985099079
 31
0.0
  0
INSERT
  5
13E
  8
LAYER0014
 62
     7
  2
_OPEN30
 10
-247.102110738542
 20
-29.8950091194866
 30
0.0
 41
1.999998407630662
 42
2.000005728319971
 50
270.0
  0
INSERT
  5
13F
  8
LAYER0014
 62
     7
  2
_OPEN30
 10
-247.102110738542
 20
135.1049985099079
 30
0.0
 41
1.999998407630662
 42
2.000005728319971
 50
90.0
  0
TEXT
  5
140
  8
LAYER0014
 62
     7
 10
-248.702110738542
 20
46.20499850990793
 30
0.0
 40
4.0
  1
φ165
 50
90.0
 41
0.7619047619047625
  7
FDASTYLE1
 72
     5
 11
-248.702110738542
 21
59.00499850990794
 31
0.0
  0
ENDBLK
  5
81
  8
0
  0
BLOCK
  8
0
  2
DA_IMAGEDIMGROUP_16
 70
     0
 10
0.0
 20
0.0
 30
0.0
  3
DA_IMAGEDIMGROUP_16
  1

  0
LINE
  5
141
  8
LAYER0014
  6
CONTINUOUS
 62
     7
 10
-161.897237691667
 20
113.1449917960408
 30
0.0
 11
-200.6185952486677
 21
113.1449917960408
 31
0.0
  0
LINE
  5
142
  8
LAYER0014
  6
CONTINUOUS
 62
     7
 10
-161.897237691667
 20
96.86499301674388
 30
0.0
 11
-200.2233147389995
 21
96.86499301674388
 31
0.0
  0
LINE
  5
143
  8
LAYER0014
  6
CONTINUOUS
 62
     7
 10
-199.2031544397139
 20
113.1449917960408
 30
0.0
 11
-199.2031544397139
 21
96.86499301674388
 31
0.0
  0
INSERT
  5
144
  8
LAYER0014
 62
     7
  2
_OPEN30
 10
-199.2031544397139
 20
113.1449917960408
 30
0.0
 41
1.999998407630662
 42
2.000005728319971
 50
90.0
  0
INSERT
  5
145
  8
LAYER0014
 62
     7
  2
_OPEN30
 10
-199.2031544397139
 20
96.86499301674388
 30
0.0
 41
1.999998407630662
 42
2.000005728319971
 50
270.0
  0
TEXT
  5
146
  8
LAYER0014
 62
     7
 10
-200.8254922059419
 20
97.0409037448384
 30
0.0
 40
4.0
  1
φ16.28
 50
89.90000000000001
 41
0.7741935483870969
  7
FDASTYLE1
 72
     5
 11
-200.7919819013166
 21
116.2408745015735
 31
0.0
  0
TEXT
  5
147
  8
LAYER0014
 62
     7
 10
-203.3902326129253
 20
117.2454108322382
 30
0.0
 40
2.6
  1
+0.1
 50
89.90000000000001
 41
0.7999999999999986
  7
FDASTYLE1
 72
     5
 11
-203.375711480921
 21
125.5653981601567
 31
0.0
  0
TEXT
  5
148
  8
LAYER0014
 62
     7
 10
-200.5902368775681
 20
117.2405239128136
 30
0.0
 40
2.6
  1
 0
 50
89.90000000000001
 41
0.7999999999999986
  7
FDASTYLE1
 72
     5
 11
-200.5829763115659
 21
121.4005175767729
 31
0.0
  0
ENDBLK
  5
84
  8
0
  0
BLOCK
  8
0
  2
DA_IMAGEDIMGROUP_17
 70
     0
 10
0.0
 20
0.0
 30
0.0
  3
DA_IMAGEDIMGROUP_17
  1

  0
LINE
  5
149
  8
LAYER0014
  6
CONTINUOUS
 62
     7
 10
-175.897237691667
 20
5.219992558980202
 30
0.0
 11
-189.6460102746748
 21
5.219992558980202
 31
0.0
  0
LINE
  5
14A
  8
LAYER0014
  6
CONTINUOUS
 62
     7
 10
-175.897237691667
 20
-4.780007441019798
 30
0.0
 11
-189.6460102746748
 21
-4.780007441019798
 31
0.0
  0
LINE
  5
14B
  8
LAYER0014
  6
CONTINUOUS
 62
     7
 10
-187.3600147912764
 20
5.219992558980202
 30
0.0
 11
-187.3600147912764
 21
-4.780007441019798
 31
0.0
  0
INSERT
  5
14C
  8
LAYER0014
 62
     7
  2
_OPEN30
 10
-187.3600147912764
 20
5.219992558980202
 30
0.0
 41
1.999998407630662
 42
2.000005728319971
 50
90.0
  0
INSERT
  5
14D
  8
LAYER0014
 62
     7
  2
_OPEN30
 10
-187.3600147912764
 20
-4.780007441019798
 30
0.0
 41
1.999998407630662
 42
2.000005728319971
 50
270.0
  0
TEXT
  5
14E
  8
LAYER0014
 62
     7
 10
-188.968389930494
 20
-4.577207604818151
 30
0.0
 40
4.0
  1
M10
 50
89.90000000000001
 41
0.8000000000000017
  7
FDASTYLE1
 72
     5
 11
-188.9516347781814
 21
5.022777773549432
 31
0.0
  0
ENDBLK
  5
87
  8
0
  0
BLOCK
  8
0
  2
DA_IMAGEDIMGROUP_18
 70
     0
 10
0.0
 20
0.0
 30
0.0
  3
DA_IMAGEDIMGROUP_18
  1

  0
LINE
  5
14F
  8
LAYER0014
  6
CONTINUOUS
 62
     7
 10
-173.357237691667
 20
-7.320007441019797
 30
0.0
 11
-173.357237691667
 21
-17.45888622519949
 31
0.0
  0
LINE
  5
150
  8
LAYER0014
  6
CONTINUOUS
 62
     7
 10
-173.357237691667
 20
-15.17288692710378
 30
0.0
 11
-159.357237691667
 21
-15.17288692710378
 31
0.0
  0
INSERT
  5
151
  8
LAYER0014
 62
     7
  2
_OPEN30
 10
-173.357237691667
 20
-15.17288692710378
 30
0.0
 41
1.999998407630662
 42
2.000005728319971
 50
180.0
  0
INSERT
  5
152
  8
LAYER0014
 62
     7
  2
_OPEN30
 10
-159.357237691667
 20
-15.17288692710378
 30
0.0
 41
1.999998407630662
 42
2.000005728319971
 50
360.0
  0
TEXT
  5
153
  8
LAYER0014
 62
     7
 10
-169.557237691667
 20
-13.57288692710378
 30
0.0
 40
4.0
  1
14
 41
0.7999999999999972
  7
FDASTYLE1
 72
     5
 11
-163.157237691667
 21
-13.57288692710378
 31
0.0
  0
ENDBLK
  5
8A
  8
0
  0
BLOCK
  8
0
  2
DA_IMAGEDIMGROUP_19
 70
     0
 10
0.0
 20
0.0
 30
0.0
  3
DA_IMAGEDIMGROUP_19
  1

  0
LINE
  5
154
  8
LAYER0014
  6
CONTINUOUS
 62
     7
 10
-223.1618116662764
 20
11.32262126686594
 30
0.0
 11
-196.9172352502608
 21
11.32262126686594
 31
0.0
  0
LINE
  5
155
  8
LAYER0014
  6
CONTINUOUS
 62
     7
 10
-161.8776297954954
 20
11.00744604042168
 30
0.0
 11
-201.1639033717324
 21
6.096689571833103
 31
0.0
  0
ENDBLK
  5
8D
  8
0
  0
BLOCK
  8
0
  2
DA_IMAGEDIMGROUP_20
 70
     0
 10
0.0
 20
0.0
 30
0.0
  3
DA_IMAGEDIMGROUP_20
  1

  0
LINE
  5
156
  8
LAYER0014
  6
CONTINUOUS
 62
     7
 10
-159.357237691667
 20
144.8144156953873
 30
0.0
 11
-152.857237691667
 21
144.8144156953873
 31
0.0
  0
LINE
  5
157
  8
LAYER0014
  6
CONTINUOUS
 62
     7
 10
-152.857237691667
 20
115.6849917960408
 30
0.0
 11
-152.857237691667
 21
145.8144156953873
 31
0.0
  0
LINE
  5
158
  8
LAYER0014
  6
CONTINUOUS
 62
     7
 10
-173.6890896916671
 20
144.8144156953873
 30
0.0
 11
-159.357237691667
 21
144.8144156953873
 31
0.0
  0
INSERT
  5
159
  8
LAYER0014
 62
     7
  2
_OPEN30
 10
-159.357237691667
 20
144.8144156953873
 30
0.0
 41
1.999998407630662
 42
2.000005728319971
 50
360.0
  0
LINE
  5
15A
  8
LAYER0014
  6
CONTINUOUS
 62
     7
 10
-147.857237691667
 20
144.8144156953873
 30
0.0
 11
-152.857237691667
 21
144.8144156953873
 31
0.0
  0
INSERT
  5
15B
  8
LAYER0014
 62
     7
  2
_OPEN30
 10
-152.857237691667
 20
144.8144156953873
 30
0.0
 41
1.999998407630662
 42
2.000005728319971
 50
180.0
  0
TEXT
  5
15C
  8
LAYER0014
 62
     7
 10
-171.889087691667
 20
145.8144156953873
 30
0.0
 40
4.0
  1
6.5
 41
0.7999999999999995
  7
FDASTYLE1
 72
     5
 11
-162.289087691667
 21
145.8144156953873
 31
0.0
  0
ENDBLK
  5
90
  8
0
  0
BLOCK
  8
0
  2
DA_IMAGEDIMGROUP_21
 70
     0
 10
0.0
 20
0.0
 30
0.0
  3
DA_IMAGEDIMGROUP_21
  1

  0
LINE
  5
15D
  8
LAYER0014
  6
CONTINUOUS
 62
     7
 10
-159.357237691667
 20
-67.01866634604909
 30
0.0
 11
-110.607237691667
 21
-67.01866634604909
 31
0.0
  0
INSERT
  5
15E
  8
LAYER0014
 62
     7
  2
_OPEN30
 10
-159.357237691667
 20
-67.01866634604909
 30
0.0
 41
1.999998407630662
 42
2.000005728319971
 50
180.0
  0
INSERT
  5
15F
  8
LAYER0014
 62
     7
  2
_OPEN30
 10
-110.607237691667
 20
-67.01866634604909
 30
0.0
 41
1.999998407630662
 42
2.000005728319971
 50
360.0
  0
LINE
  5
160
  8
LAYER0014
  6
CONTINUOUS
 62
     7
 10
-159.357237691667
 20
-22.43500911948659
 30
0.0
 11
-159.357237691667
 21
-68.01866634604909
 31
0.0
  0
LINE
  5
161
  8
LAYER0014
  6
CONTINUOUS
 62
     7
 10
-110.607237691667
 20
24.81499088051341
 30
0.0
 11
-110.607237691667
 21
-68.01866634604909
 31
0.0
  0
TEXT
  5
162
  8
LAYER0014
 62
     7
 10
-146.182237691667
 20
-65.41866634604909
 30
0.0
 40
4.0
  1
MAX57.5
 41
0.7999999999999997
  7
FDASTYLE1
 72
     5
 11
-123.782237691667
 21
-65.41866634604909
 31
0.0
  0
ENDBLK
  5
93
  8
0
  0
BLOCK
  8
0
  2
DA_IMAGEDIMGROUP_22
 70
     0
 10
0.0
 20
0.0
 30
0.0
  3
DA_IMAGEDIMGROUP_22
  1

  0
LINE
  5
163
  8
LAYER0014
  6
CONTINUOUS
 62
     7
 10
-159.357237691667
 20
-22.43500911948659
 30
0.0
 11
-159.357237691667
 21
-47.19833858726003
 31
0.0
  0
LINE
  5
164
  8
LAYER0014
  6
CONTINUOUS
 62
     7
 10
-143.357237691667
 20
10.78248584511302
 30
0.0
 11
-143.357237691667
 21
-47.19833858726003
 31
0.0
  0
LINE
  5
165
  8
LAYER0014
  6
CONTINUOUS
 62
     7
 10
-159.357237691667
 20
-44.91233928916433
 30
0.0
 11
-143.357237691667
 21
-44.91233928916433
 31
0.0
  0
INSERT
  5
166
  8
LAYER0014
 62
     7
  2
_OPEN30
 10
-159.357237691667
 20
-44.91233928916433
 30
0.0
 41
1.999998407630662
 42
2.000005728319971
 50
180.0
  0
INSERT
  5
167
  8
LAYER0014
 62
     7
  2
_OPEN30
 10
-143.357237691667
 20
-44.91233928916433
 30
0.0
 41
1.999998407630662
 42
2.000005728319971
 50
360.0
  0
TEXT
  5
168
  8
LAYER0014
 62
     7
 10
-154.557237691667
 20
-43.31233928916433
 30
0.0
 40
4.0
  1
16
 41
0.7999999999999972
  7
FDASTYLE1
 72
     5
 11
-148.157237691667
 21
-43.31233928916433
 31
0.0
  0
ENDBLK
  5
96
  8
0
  0
BLOCK
  8
0
  2
DA_IMAGEDIMGROUP_23
 70
     0
 10
0.0
 20
0.0
 30
0.0
  3
DA_IMAGEDIMGROUP_23
  1

  0
LINE
  5
169
  8
LAYER0014
  6
CONTINUOUS
 62
     7
 10
-160.357237691667
 20
-93.86312587974049
 30
0.0
 11
-82.35723769166701
 21
-93.86312587974049
 31
0.0
  0
INSERT
  5
16A
  8
LAYER0014
 62
     7
  2
_OPEN30
 10
-160.357237691667
 20
-93.86312587974049
 30
0.0
 41
1.999998407630662
 42
2.000005728319971
 50
180.0
  0
INSERT
  5
16B
  8
LAYER0014
 62
     7
  2
_OPEN30
 10
-82.35723769166701
 20
-93.86312587974049
 30
0.0
 41
1.999998407630662
 42
2.000005728319971
 50
360.0
  0
LINE
  5
16C
  8
LAYER0014
  6
CONTINUOUS
 62
     7
 10
-160.357237691667
 20
-32.43500911948659
 30
0.0
 11
-160.357237691667
 21
-94.86312587974049
 31
0.0
  0
LINE
  5
16D
  8
LAYER0014
  6
CONTINUOUS
 62
     7
 10
-82.35723769166701
 20
-30.43500911948659
 30
0.0
 11
-82.35723769166701
 21
-94.86312587974049
 31
0.0
  0
TEXT
  5
16E
  8
LAYER0014
 62
     7
 10
-124.557237691667
 20
-92.2631258797405
 30
0.0
 40
4.0
  1
78
 41
0.8000000000000007
  7
FDASTYLE1
 72
     5
 11
-118.157237691667
 21
-92.2631258797405
 31
0.0
  0
ENDBLK
  5
99
  8
0
  0
BLOCK
  8
0
  2
DA_IMAGEDIMGROUP_24
 70
     0
 10
0.0
 20
0.0
 30
0.0
  3
DA_IMAGEDIMGROUP_24
  1

  0
LINE
  5
16F
  8
LAYER0014
  6
CONTINUOUS
 62
     7
 10
-160.357237691667
 20
-82.01997860190846
 30
0.0
 11
-159.357237691667
 21
-82.01997860190846
 31
0.0
  0
LINE
  5
170
  8
LAYER0014
  6
CONTINUOUS
 62
     7
 10
-160.357237691667
 20
-32.43500911948659
 30
0.0
 11
-160.357237691667
 21
-83.01997860190846
 31
0.0
  0
LINE
  5
171
  8
LAYER0014
  6
CONTINUOUS
 62
     7
 10
-159.357237691667
 20
-22.43500911948659
 30
0.0
 11
-159.357237691667
 21
-83.01997860190846
 31
0.0
  0
LINE
  5
172
  8
LAYER0014
  6
CONTINUOUS
 62
     7
 10
-160.357237691667
 20
-82.01997860190846
 30
0.0
 11
-166.707237691667
 21
-82.01997860190846
 31
0.0
  0
INSERT
  5
173
  8
LAYER0014
 62
     7
  2
_OPEN30
 10
-160.357237691667
 20
-82.01997860190846
 30
0.0
 41
1.999998407630662
 42
2.000005728319971
 50
360.0
  0
TEXT
  5
174
  8
LAYER0014
 62
     7
 10
-167.7711541551241
 20
-80.41718851346175
 30
0.0
 40
4.0
  1
1
 50
-0.1000000000000078
 41
0.8000000000000025
  7
FDASTYLE1
 72
     5
 11
-164.5711590290015
 21
-80.42277356423263
 31
0.0
  0
ENDBLK
  5
9C
  8
0
  0
BLOCK
  8
0
  2
DA_IMAGEDIMGROUP_25
 70
     0
 10
0.0
 20
0.0
 30
0.0
  3
DA_IMAGEDIMGROUP_25
  1

  0
LINE
  5
175
  8
LAYER0014
  6
CONTINUOUS
 62
     7
 10
-159.357237691667
 20
-82.01997860190846
 30
0.0
 11
-82.35723769166701
 21
-82.01997860190846
 31
0.0
  0
INSERT
  5
176
  8
LAYER0014
 62
     7
  2
_OPEN30
 10
-159.357237691667
 20
-82.01997860190846
 30
0.0
 41
1.999998407630662
 42
2.000005728319971
 50
180.0
  0
INSERT
  5
177
  8
LAYER0014
 62
     7
  2
_OPEN30
 10
-82.35723769166701
 20
-82.01997860190846
 30
0.0
 41
1.999998407630662
 42
2.000005728319971
 50
360.0
  0
LINE
  5
178
  8
LAYER0014
  6
CONTINUOUS
 62
     7
 10
-159.357237691667
 20
-22.43500911948659
 30
0.0
 11
-159.357237691667
 21
-83.01997860190846
 31
0.0
  0
LINE
  5
179
  8
LAYER0014
  6
CONTINUOUS
 62
     7
 10
-82.35723769166701
 20
-30.43500911948659
 30
0.0
 11
-82.35723769166701
 21
-83.01997860190846
 31
0.0
  0
TEXT
  5
17A
  8
LAYER0014
 62
     7
 10
-124.057237691667
 20
-80.41997860190847
 30
0.0
 40
4.0
  1
77
 41
0.8000000000000007
  7
FDASTYLE1
 72
     5
 11
-117.657237691667
 21
-80.41997860190847
 31
0.0
  0
ENDBLK
  5
9F
  8
0
  0
BLOCK
  8
0
  2
DA_IMAGEDIMGROUP_26
 70
     0
 10
0.0
 20
0.0
 30
0.0
  3
DA_IMAGEDIMGROUP_26
  1

  0
LINE
  5
17B
  8
LAYER0014
  6
CONTINUOUS
 62
     7
 10
-61.91074355104201
 20
96.10499088051341
 30
0.0
 11
-54.0187824914717
 21
96.10499088051341
 31
0.0
  0
LINE
  5
17C
  8
LAYER0014
  6
CONTINUOUS
 62
     7
 10
-61.61142714479201
 20
121.1049985099079
 30
0.0
 11
-54.0187824914717
 21
121.1049985099079
 31
0.0
  0
LINE
  5
17D
  8
LAYER0014
  6
CONTINUOUS
 62
     7
 10
-55.0187824914717
 20
96.10499088051341
 30
0.0
 11
-55.0187824914717
 21
121.1049985099079
 31
0.0
  0
INSERT
  5
17E
  8
LAYER0014
 62
     7
  2
_OPEN30
 10
-55.0187824914717
 20
96.10499088051341
 30
0.0
 41
1.999998407630662
 42
2.000005728319971
 50
270.0
  0
INSERT
  5
17F
  8
LAYER0014
 62
     7
  2
_OPEN30
 10
-55.0187824914717
 20
121.1049985099079
 30
0.0
 41
1.999998407630662
 42
2.000005728319971
 50
90.0
  0
TEXT
  5
180
  8
LAYER0014
 62
     7
 10
-56.6187824914717
 20
105.4049985099079
 30
0.0
 40
4.0
  1
25
 50
90.0
 41
0.8000000000000007
  7
FDASTYLE1
 72
     5
 11
-56.6187824914717
 21
111.804998509908
 31
0.0
  0
ENDBLK
  5
A2
  8
0
  0
BLOCK
  8
0
  2
DC_GROUP_4
 70
     0
 10
0.0
 20
0.0
 30
0.0
  3
DC_GROUP_4
  1

  0
LINE
  5
181
  8
LAYER0014
  6
CONTINUOUS
 62
     7
 10
116.7926265037275
 20
-7.024331205669178
 30
0.0
 11
135.3985693628168
 21
-45.51939682092604
 31
0.0
  0
INSERT
  5
182
  8
LAYER0014
 62
     7
  2
_OPEN30
 10
116.7926265037275
 20
-7.024331205669178
 30
0.0
 41
1.999998407630662
 42
2.000005728319971
 50
115.7960198324836
  0
LINE
  5
183
  8
LAYER0014
  6
CONTINUOUS
 62
     7
 10
135.3985641423827
 20
-45.51939113852956
 30
0.0
 11
166.0660134337433
 21
-45.51939113852956
 31
0.0
  0
TEXT
  5
184
  8
LAYER0014
 62
     7
 10
136.0401657048827
 20
-43.91939113852956
 30
0.0
 40
4.0
  1
PCD104.77
 41
0.8000000000000003
  7
FDASTYLE1
 72
     5
 11
164.8401657048827
 21
-43.91939113852956
 31
0.0
  0
ENDBLK
  5
A5
  8
0
  0
BLOCK
  8
0
  2
DA_IMAGEDIMGROUP_27
 70
     0
 10
0.0
 20
0.0
 30
0.0
  3
DA_IMAGEDIMGROUP_27
  1

  0
LINE
  5
185
  8
LAYER0014
  6
CONTINUOUS
 62
     7
 10
204.4540365544921
 20
52.60499088051341
 30
0.0
 11
212.5124710027343
 21
52.60499088051341
 31
0.0
  0
LINE
  5
186
  8
LAYER0014
  6
CONTINUOUS
 62
     7
 10
170.9824726991857
 20
86.64404314889765
 30
0.0
 11
199.0497224247536
 21
102.8486686325275
 31
0.0
  0
ARC
  5
187
  8
LAYER0014
  6
CONTINUOUS
 62
     7
 10
112.025090021289
 20
52.60499088051341
 30
0.0
 40
98.20139312744141
 50
0.0
 51
29.99999400463689
  0
INSERT
  5
188
  8
LAYER0014
 62
     7
  2
_OPEN30
 10
210.2264831487304
 20
52.60499088051341
 30
0.0
 41
1.999998407630662
 42
2.000005728319971
 50
270.5834514778164
  0
INSERT
  5
189
  8
LAYER0014
 62
     7
  2
_OPEN30
 10
197.0699962945146
 20
101.7056785452352
 30
0.0
 41
1.999998407630662
 42
2.000005728319971
 50
119.4165425268208
  0
TEXT
  5
18A
  8
LAYER0014
 62
     7
 10
207.1834950538125
 20
83.07192715480248
 30
0.0
 40
4.0
  1
30ﾟ
 50
-74.99999999999997
 41
0.8000000000000026
  7
FDASTYLE1
 72
     5
 11
209.6681578867967
 21
73.7990392224274
 31
0.0
  0
ENDBLK
  5
A8
  8
0
  0
BLOCK
  8
0
  2
DC_GROUP_5
 70
     0
 10
0.0
 20
0.0
 30
0.0
  3
DC_GROUP_5
  1

  0
LINE
  5
18B
  8
LAYER0014
  6
CONTINUOUS
 62
     7
 10
110.7447668274611
 20
11.70093221928521
 30
0.0
 11
79.94871370433155
 21
-45.40008624951492
 31
0.0
  0
INSERT
  5
18C
  8
LAYER0014
 62
     7
  2
_OPEN30
 10
110.7447668274611
 20
11.70093221928521
 30
0.0
 41
1.999998407630662
 42
2.000005728319971
 50
61.6608693488017
  0
LINE
  5
18D
  8
LAYER0014
  6
CONTINUOUS
 62
     7
 10
79.94871215263662
 20
-45.40008648154714
 30
0.0
 11
36.0675202641904
 21
-45.40008648154714
 31
0.0
  0
TEXT
  5
18E
  8
LAYER0014
 62
     7
 10
37.70712584892568
 20
-43.80008648154714
 30
0.0
 40
4.0
  1
3-M6×13 PCD76
 41
0.787878787878788
  7
FDASTYLE1
 72
     5
 11
79.30712584892568
 21
-43.80008648154714
 31
0.0
  0
ENDBLK
  5
AB
  8
0
  0
BLOCK
  8
0
  2
DA_IMAGEDIMGROUP_28
 70
     0
 10
0.0
 20
0.0
 30
0.0
  3
DA_IMAGEDIMGROUP_28
  1

  0
ARC
  5
18F
  8
0
  6
CONTINUOUS
 62
     9
 10
-159.3572666093108
 20
11.32248965981028
 30
0.0
 40
40.18973992632751
 50
180.0
 51
187.1249765314095
  0
ARC
  5
190
  8
0
  6
CONTINUOUS
 62
     9
 10
-159.3572666093108
 20
11.32248965981028
 30
0.0
 40
40.18973992632751
 50
187.1249765314095
 51
193.9916451417928
  0
INSERT
  5
191
  8
0
 62
     9
  2
_OPEN30
 10
-199.2366598733264
 20
6.337593648876116
 30
0.0
 41
1.999998407630662
 42
2.000005728319971
 50
98.5506077509408
  0
ARC
  5
192
  8
0
  6
CONTINUOUS
 62
     9
 10
-159.3572666093108
 20
11.32248965981028
 30
0.0
 40
40.18973992632751
 50
172.8718399748154
 51
180.0
  0
INSERT
  5
193
  8
0
 62
     9
  2
_OPEN30
 10
-199.5470065356383
 20
11.32248965981029
 30
0.0
 41
1.999998407630662
 42
2.000005728319971
 50
268.5743687804683
  0
ENDBLK
  5
AE
  8
0
  0
BLOCK
  8
0
  2
DC_GROUP_6
 70
     0
 10
0.0
 20
0.0
 30
0.0
  3
DC_GROUP_6
  1

  0
LINE
  5
194
  8
LAYER0014
  6
CONTINUOUS
 62
     7
 10
-162.897237691667
 20
-19.8950091194866
 30
0.0
 11
-237.544981832292
 21
-19.8950091194866
 31
0.0
  0
LINE
  5
195
  8
LAYER0014
  6
CONTINUOUS
 62
     7
 10
-162.897237691667
 20
125.1049985099079
 30
0.0
 11
-200.144258637066
 21
125.1049985099079
 31
0.0
  0
LINE
  5
196
  8
LAYER0014
  6
CONTINUOUS
 62
     7
 10
-206.8640273014231
 20
125.1049985099079
 30
0.0
 11
-237.544981832292
 21
125.1049985099079
 31
0.0
  0
LINE
  5
197
  8
LAYER0014
  6
CONTINUOUS
 62
     7
 10
-235.2589710901045
 20
-19.8950091194866
 30
0.0
 11
-235.2589710901045
 21
125.1049985099079
 31
0.0
  0
INSERT
  5
198
  8
LAYER0014
 62
     7
  2
_OPEN30
 10
-235.2589710901045
 20
-19.8950091194866
 30
0.0
 41
1.999998407630662
 42
2.000005728319971
 50
270.0
  0
INSERT
  5
199
  8
LAYER0014
 62
     7
  2
_OPEN30
 10
-235.2589710901045
 20
125.1049985099079
 30
0.0
 41
1.999998407630662
 42
2.000005728319971
 50
90.0
  0
TEXT
  5
19A
  8
LAYER0014
 62
     7
 10
-236.8701387547075
 20
46.20780078304833
 30
0.0
 40
4.0
  1
φ145
 50
89.90000000000001
 41
0.7619047619047625
  7
FDASTYLE1
 72
     5
 11
-236.847798551624
 21
59.00778128753842
 31
0.0
  0
ENDBLK
  5
B1
  8
0
  0
BLOCK
  8
0
  2
DC_GROUP_7
 70
     0
 10
0.0
 20
0.0
 30
0.0
  3
DC_GROUP_7
  1

  0
LINE
  5
19B
  8
LAYER0014
  6
CONTINUOUS
 62
     7
 10
-61.91074355104201
 20
96.10499088051341
 30
0.0
 11
-52.73277937867873
 21
96.10499088051341
 31
0.0
  0
LINE
  5
19C
  8
LAYER0014
  6
CONTINUOUS
 62
     7
 10
-55.0187824914717
 20
84.60499088051341
 30
0.0
 11
-55.0187824914717
 21
96.10499088051341
 31
0.0
  0
LINE
  5
19D
  8
LAYER0014
  6
CONTINUOUS
 62
     7
 10
-80.81723769166702
 20
84.60499088051341
 30
0.0
 11
-60.55634176585399
 21
84.60499088051341
 31
0.0
  0
LINE
  5
19E
  8
LAYER0014
  6
CONTINUOUS
 62
     7
 10
-54.4364041958966
 20
84.60499088051341
 30
0.0
 11
-52.73277937867873
 21
84.60499088051341
 31
0.0
  0
LINE
  5
19F
  8
LAYER0014
  6
CONTINUOUS
 62
     7
 10
-55.0187824914717
 20
79.60499088051341
 30
0.0
 11
-55.0187824914717
 21
84.60499088051341
 31
0.0
  0
INSERT
  5
1A0
  8
LAYER0014
 62
     7
  2
_OPEN30
 10
-55.0187824914717
 20
84.60499088051341
 30
0.0
 41
1.999998407630662
 42
2.000005728319971
 50
90.0
  0
LINE
  5
1A1
  8
LAYER0014
  6
CONTINUOUS
 62
     7
 10
-55.0187824914717
 20
101.1049908805134
 30
0.0
 11
-55.0187824914717
 21
96.10499088051341
 31
0.0
  0
INSERT
  5
1A2
  8
LAYER0014
 62
     7
  2
_OPEN30
 10
-55.0187824914717
 20
96.10499088051341
 30
0.0
 41
1.999998407630662
 42
2.000005728319971
 50
270.0
  0
TEXT
  5
1A3
  8
LAYER0014
 62
     7
 10
-56.02995259301344
 20
81.72741046658551
 30
0.0
 40
4.0
  1
MIN8
 50
89.90000000000001
 41
0.7999999999999998
  7
FDASTYLE1
 72
     5
 11
-56.00761238992995
 21
94.52739097107559
 31
0.0
  0
ENDBLK
  5
B4
  8
0
  0
BLOCK
  8
0
  2
DC_GROUP_8
 70
     0
 10
0.0
 20
0.0
 30
0.0
  3
DC_GROUP_8
  1

  0
LINE
  5
1A4
  8
LAYER0014
  6
CONTINUOUS
 62
     7
 10
-73.62755568483107
 20
52.60499088051341
 30
0.0
 11
-40.76177107789748
 21
52.60499088051341
 31
0.0
  0
LINE
  5
1A5
  8
LAYER0014
  6
CONTINUOUS
 62
     7
 10
-80.81723769166702
 20
84.60499088051341
 30
0.0
 11
-60.55634176585399
 21
84.60499088051341
 31
0.0
  0
LINE
  5
1A6
  8
LAYER0014
  6
CONTINUOUS
 62
     7
 10
-55.86767991790276
 20
84.60499088051341
 30
0.0
 11
-40.76177107789748
 21
84.60499088051341
 31
0.0
  0
LINE
  5
1A7
  8
LAYER0014
  6
CONTINUOUS
 62
     7
 10
-43.04777419069045
 20
52.60499088051341
 30
0.0
 11
-43.04777419069045
 21
84.60499088051341
 31
0.0
  0
INSERT
  5
1A8
  8
LAYER0014
 62
     7
  2
_OPEN30
 10
-43.04777419069045
 20
52.60499088051341
 30
0.0
 41
1.999998407630662
 42
2.000005728319971
 50
270.0
  0
INSERT
  5
1A9
  8
LAYER0014
 62
     7
  2
_OPEN30
 10
-43.04777419069045
 20
84.60499088051341
 30
0.0
 41
1.999998407630662
 42
2.000005728319971
 50
90.0
  0
TEXT
  5
1AA
  8
LAYER0014
 62
     7
 10
-44.67011195683521
 20
55.80780290140876
 30
0.0
 40
4.0
  1
MAX33.05
 50
89.90000000000001
 41
0.7999999999999998
  7
FDASTYLE1
 72
     5
 11
-44.62543155066822
 21
81.40776391038892
 31
0.0
  0
ENDBLK
  5
B7
  8
0
  0
BLOCK
  8
0
  2
DC_GROUP_9
 70
     0
 10
0.0
 20
0.0
 30
0.0
  3
DC_GROUP_9
  1

  0
LINE
  5
1AB
  8
LAYER0014
  6
CONTINUOUS
 62
     7
 10
-80.81723769166702
 20
135.1049985099079
 30
0.0
 11
-40.76177107789748
 21
135.1049985099079
 31
0.0
  0
LINE
  5
1AC
  8
LAYER0014
  6
CONTINUOUS
 62
     7
 10
-80.81723769166702
 20
84.60499088051341
 30
0.0
 11
-60.55634176585399
 21
84.60499088051341
 31
0.0
  0
LINE
  5
1AD
  8
LAYER0014
  6
CONTINUOUS
 62
     7
 10
-55.0187824914717
 20
84.60499088051341
 30
0.0
 11
-40.76177107789748
 21
84.60499088051341
 31
0.0
  0
LINE
  5
1AE
  8
LAYER0014
  6
CONTINUOUS
 62
     7
 10
-43.04777419069045
 20
84.60499088051341
 30
0.0
 11
-43.04777419069045
 21
135.1049985099079
 31
0.0
  0
INSERT
  5
1AF
  8
LAYER0014
 62
     7
  2
_OPEN30
 10
-43.04777419069045
 20
84.60499088051341
 30
0.0
 41
1.999998407630662
 42
2.000005728319971
 50
270.0
  0
INSERT
  5
1B0
  8
LAYER0014
 62
     7
  2
_OPEN30
 10
-43.04777419069045
 20
135.1049985099079
 30
0.0
 41
1.999998407630662
 42
2.000005728319971
 50
90.0
  0
TEXT
  5
1B1
  8
LAYER0014
 62
     7
 10
-44.65894185529346
 20
103.4578007830483
 30
0.0
 40
4.0
  1
50.5
 50
89.90000000000001
 41
0.7999999999999998
  7
FDASTYLE1
 72
     5
 11
-44.63660165220996
 21
116.2577812875384
 31
0.0
  0
ENDBLK
  5
BA
  8
0
  0
BLOCK
  8
0
  2
DA_IMAGEDIMGROUP_29
 70
     0
 10
0.0
 20
0.0
 30
0.0
  3
DA_IMAGEDIMGROUP_29
  1

  0
LINE
  5
1B2
  8
LAYER0014
  6
CONTINUOUS
 62
     7
 10
17.53134797007163
 20
-27.3544333995555
 30
0.0
 11
27.75928769934522
 21
-21.44933029601135
 31
0.0
  0
LINE
  5
1B3
  8
LAYER0014
  6
CONTINUOUS
 62
     7
 10
25.53136007806591
 20
-41.2108509185597
 30
0.0
 11
35.75929485190214
 21
-35.30575067603832
 31
0.0
  0
LINE
  5
1B4
  8
LAYER0014
  6
CONTINUOUS
 62
     7
 10
26.89326266445288
 20
-21.94933002779046
 30
0.0
 11
34.8932698170098
 21
-35.80575040781744
 31
0.0
  0
INSERT
  5
1B5
  8
LAYER0014
 62
     7
  2
_OPEN30
 10
26.89326266445288
 20
-21.94933002779046
 30
0.0
 41
1.999998407630662
 42
2.000005728319971
 50
119.9999972589655
  0
INSERT
  5
1B6
  8
LAYER0014
 62
     7
  2
_OPEN30
 10
34.8932698170098
 20
-35.80575040781744
 30
0.0
 41
1.999998407630662
 42
2.000005728319971
 50
299.9999972589655
  0
TEXT
  5
1B7
  8
LAYER0014
 62
     7
 10
29.87890386666831
 20
-23.92061586784473
 30
0.0
 40
4.0
  1
φ16
 50
-59.99999999999999
 41
0.7500000000000003
  7
FDASTYLE1
 72
     5
 11
34.67890386666831
 21
-32.23445974417535
 31
0.0
  0
ENDBLK
  5
BD
  8
0
  0
BLOCK
  8
0
  2
DA_IMAGEDIMGROUP_30
 70
     0
 10
0.0
 20
0.0
 30
0.0
  3
DA_IMAGEDIMGROUP_30
  1

  0
LINE
  5
1B8
  8
LAYER0014
  6
CONTINUOUS
 62
     7
 10
82.02512967569133
 20
125.0296611380818
 30
0.0
 11
82.02512967569133
 21
153.5471409964802
 31
0.0
  0
LINE
  5
1B9
  8
LAYER0014
  6
CONTINUOUS
 62
     7
 10
112.0251296756913
 20
145.2697047782185
 30
0.0
 11
112.0251296756913
 21
153.5471409964802
 31
0.0
  0
LINE
  5
1BA
  8
LAYER0014
  6
CONTINUOUS
 62
     7
 10
82.02512967569133
 20
152.5471409964802
 30
0.0
 11
112.0251296756913
 21
152.5471409964802
 31
0.0
  0
INSERT
  5
1BB
  8
LAYER0014
 62
     7
  2
_OPEN30
 10
82.02512967569133
 20
152.5471409964802
 30
0.0
 41
1.999998407630662
 42
2.000005728319971
 50
180.0
  0
INSERT
  5
1BC
  8
LAYER0014
 62
     7
  2
_OPEN30
 10
112.0251296756913
 20
152.5471409964802
 30
0.0
 41
1.999998407630662
 42
2.000005728319971
 50
360.0
  0
TEXT
  5
1BD
  8
LAYER0014
 62
     7
 10
93.82512967569133
 20
154.1471409964802
 30
0.0
 40
4.0
  1
30
 41
0.8000000000000007
  7
FDASTYLE1
 72
     5
 11
100.2251296756913
 21
154.1471409964802
 31
0.0
  0
ENDBLK
  5
C0
  8
0
  0
BLOCK
  8
0
  2
DC_GROUP_10
 70
     0
 10
0.0
 20
0.0
 30
0.0
  3
DC_GROUP_10
  1

  0
LINE
  5
1BE
  8
LAYER0014
  6
CONTINUOUS
 62
     7
 10
133.6074532474101
 20
39.02193335642164
 30
0.0
 11
174.4984584680507
 21
-27.17036748998202
 31
0.0
  0
INSERT
  5
1BF
  8
LAYER0014
 62
     7
  2
_OPEN30
 10
133.6074532474101
 20
39.02193335642164
 30
0.0
 41
1.999998407630662
 42
2.000005728319971
 50
121.7061445318063
  0
LINE
  5
1C0
  8
LAYER0014
  6
CONTINUOUS
 62
     7
 10
174.4984586625225
 20
-27.17036106070304
 30
0.0
 11
210.5298002152569
 21
-27.17036106070304
 31
0.0
  0
TEXT
  5
1C1
  8
LAYER0014
 62
     7
 10
176.7017972855694
 20
-25.57036106070304
 30
0.0
 40
4.0
  1
3-M4 PCD48
 41
0.8
  7
FDASTYLE1
 72
     5
 11
208.7017972855694
 21
-25.57036106070304
 31
0.0
  0
ENDBLK
  5
C3
  8
0
  0
BLOCK
  8
0
  2
DA_IMAGEDIMGROUP_31
 70
     0
 10
0.0
 20
0.0
 30
0.0
  3
DA_IMAGEDIMGROUP_31
  1

  0
LINE
  5
1C2
  8
0
  6
CONTINUOUS
 62
     9
 10
21.27042846123037
 20
52.60499088051341
 30
0.0
 11
2.600612594162065
 21
52.60499088051341
 31
0.0
  0
LINE
  5
1C3
  8
0
  6
CONTINUOUS
 62
     9
 10
58.39586333671865
 20
110.6049985099079
 30
0.0
 11
2.600612594162065
 21
110.6049985099079
 31
0.0
  0
LINE
  5
1C4
  8
0
  6
CONTINUOUS
 62
     9
 10
3.600612594162065
 20
52.60499088051341
 30
0.0
 11
3.600612594162065
 21
110.6049985099079
 31
0.0
  0
INSERT
  5
1C5
  8
0
 62
     9
  2
_OPEN30
 10
3.600612594162065
 20
52.60499088051341
 30
0.0
 41
1.999998407630662
 42
2.000005728319971
 50
270.0
  0
INSERT
  5
1C6
  8
0
 62
     9
  2
_OPEN30
 10
3.600612594162065
 20
110.6049985099079
 30
0.0
 41
1.999998407630662
 42
2.000005728319971
 50
90.0
  0
TEXT
  5
1C7
  8
0
 62
     7
 10
2.600612594162065
 20
78.40499469521068
 30
0.0
 40
4.0
  1
58
 50
90.0
 41
0.8000000000000007
  7
FDASTYLE1
 72
     5
 11
2.600612594162065
 21
84.80499469521068
 31
0.0
  0
ENDBLK
  5
C6
  8
0
  0
BLOCK
  8
0
  2
DC_GROUP_11
 70
     0
 10
0.0
 20
0.0
 30
0.0
  3
DC_GROUP_11
  1

  0
LINE
  5
1C8
  8
0
  6
CONTINUOUS
 62
     7
 10
-119.857237691667
 20
-29.8950091194866
 30
0.0
 11
-104.9141243811234
 21
-44.93764115428366
 31
0.0
  0
INSERT
  5
1C9
  8
0
 62
     7
  2
_OPEN30
 10
-119.857237691667
 20
-29.8950091194866
 30
0.0
 41
1.999998407630662
 42
2.000005728319971
 50
134.8098435813055
  0
LINE
  5
1CA
  8
0
  6
CONTINUOUS
 62
     7
 10
-104.9141243811234
 20
-44.93764115428366
 30
0.0
 11
-88.91412438112339
 21
-44.93764115428366
 31
0.0
  0
TEXT
  5
1CB
  8
0
 62
     7
 10
-104.9141243811234
 20
-44.93764115428366
 30
0.0
 40
4.0
  1
M8×16
 41
0.7692307692307692
  7
FDASTYLE1
 72
     5
 11
-88.91412438112339
 21
-44.93764115428366
 31
0.0
  0
ENDBLK
  5
C9
  8
0
  0
BLOCK
  8
0
  2
DA_IMAGEDIMGROUP_32
 70
     0
 10
0.0
 20
0.0
 30
0.0
  3
DA_IMAGEDIMGROUP_32
  1

  0
LINE
  5
1CC
  8
0
  6
CONTINUOUS
 62
     9
 10
-119.857237691667
 20
-34.14715004509745
 30
0.0
 11
-119.857237691667
 21
-55.74242728090054
 31
0.0
  0
LINE
  5
1CD
  8
0
  6
CONTINUOUS
 62
     9
 10
-159.357237691667
 20
-20.8950091194866
 30
0.0
 11
-159.357237691667
 21
-55.74242728090054
 31
0.0
  0
LINE
  5
1CE
  8
0
  6
CONTINUOUS
 62
     9
 10
-159.357237691667
 20
-54.74242728090054
 30
0.0
 11
-119.857237691667
 21
-54.74242728090054
 31
0.0
  0
INSERT
  5
1CF
  8
0
 62
     9
  2
_OPEN30
 10
-159.357237691667
 20
-54.74242728090054
 30
0.0
 41
1.999998407630662
 42
2.000005728319971
 50
180.0
  0
INSERT
  5
1D0
  8
0
 62
     9
  2
_OPEN30
 10
-119.857237691667
 20
-54.74242728090054
 30
0.0
 41
1.999998407630662
 42
2.000005728319971
 50
360.0
  0
TEXT
  5
1D1
  8
0
 62
     7
 10
-146.007237691667
 20
-53.74242728090054
 30
0.0
 40
4.0
  1
39.5
 41
0.8000000000000007
  7
FDASTYLE1
 72
     5
 11
-133.207237691667
 21
-53.74242728090054
 31
0.0
  0
ENDBLK
  5
CC
  8
0
  0
BLOCK
  8
0
  2
_OPEN30
 70
     0
 10
0.0
 20
0.0
 30
0.0
  3
_OPEN30
  1

  0
LINE
  5
D4
  8
0
  6
BYBLOCK
 62
     0
 10
-1.0
 20
0.267949
 30
0.0
 11
0.0
 21
0.0
 31
0.0
  0
LINE
  5
D5
  8
0
  6
BYBLOCK
 62
     0
 10
0.0
 20
0.0
 30
0.0
 11
-1.0
 21
-0.267949
 31
0.0
  0
LINE
  5
D6
  8
0
  6
BYBLOCK
 62
     0
 10
0.0
 20
0.0
 30
0.0
 11
-1.0
 21
0.0
 31
0.0
  0
ENDBLK
  5
D3
  8
0
  0
BLOCK
  8
0
  2
_DOTBLANK
 70
     0
 10
0.0
 20
0.0
 30
0.0
  3
_DOTBLANK
  1

  0
CIRCLE
  5
FA
  8
0
  6
BYBLOCK
 62
     0
 10
0.0
 20
0.0
 30
0.0
 40
0.5
  0
LINE
  5
FB
  8
0
  6
BYBLOCK
 62
     0
 10
-0.5
 20
0.0
 30
0.0
 11
-1.0
 21
0.0
 31
0.0
  0
ENDBLK
  5
F9
  8
0
  0
ENDSEC
  0
SECTION
  2
ENTITIES
  0
LINE
  5
1D2
  8
ZUWAKU
  6
CONTINUOUS
 62
     3
 10
-277.0
 20
-190.0
 30
0.0
 11
-277.0
 21
190.0
 31
0.0
  0
LINE
  5
1D3
  8
ZUWAKU
  6
CONTINUOUS
 62
     3
 10
277.0
 20
-190.0
 30
0.0
 11
277.0
 21
190.0
 31
0.0
  0
LINE
  5
1D4
  8
ZUWAKU
  6
CONTINUOUS
 62
     3
 10
-277.0
 20
-190.0
 30
0.0
 11
277.0
 21
-190.0
 31
0.0
  0
LINE
  5
1D5
  8
ZUWAKU
  6
CONTINUOUS
 62
     3
 10
-277.0
 20
189.9999999999999
 30
0.0
 11
277.0
 21
189.9999999999999
 31
0.0
  0
LINE
  5
1D6
  8
ZUWAKU
  6
CONTINUOUS
 62
     3
 10
97.00000000000001
 20
-190.0
 30
0.0
 11
97.00000000000001
 21
-130.0
 31
0.0
  0
LINE
  5
1D7
  8
ZUWAKU
  6
CONTINUOUS
 62
     3
 10
97.00000000000001
 20
-176.0
 30
0.0
 11
277.0
 21
-176.0
 31
0.0
  0
LINE
  5
1D8
  8
ZUWAKU
  6
CONTINUOUS
 62
     3
 10
146.0
 20
-162.0
 30
0.0
 11
277.0
 21
-162.0
 31
0.0
  0
LINE
  5
1D9
  8
ZUWAKU
  6
CONTINUOUS
 62
     3
 10
146.0
 20
-148.0
 30
0.0
 11
277.0
 21
-148.0
 31
0.0
  0
LINE
  5
1DA
  8
ZUWAKU
  6
CONTINUOUS
 62
     3
 10
146.0
 20
-138.0
 30
0.0
 11
277.0
 21
-138.0
 31
0.0
  0
LINE
  5
1DB
  8
ZUWAKU
  6
CONTINUOUS
 62
     3
 10
146.0
 20
-176.0
 30
0.0
 11
146.0
 21
-130.0
 31
0.0
  0
LINE
  5
1DC
  8
ZUWAKU
  6
CONTINUOUS
 62
     3
 10
255.0
 20
-176.0
 30
0.0
 11
255.0
 21
-130.0
 31
0.0
  0
LINE
  5
1DD
  8
ZUWAKU
  6
CONTINUOUS
 62
     3
 10
171.0
 20
-190.0
 30
0.0
 11
171.0
 21
-176.0
 31
0.0
  0
LINE
  5
1DE
  8
ZUWAKU
  6
CONTINUOUS
 62
     3
 10
262.0
 20
-188.0
 30
0.0
 11
272.0
 21
-188.0
 31
0.0
  0
LINE
  5
1DF
  8
ZUWAKU
  6
CONTINUOUS
 62
     3
 10
267.0
 20
-178.0
 30
0.0
 11
262.0
 21
-188.0
 31
0.0
  0
LINE
  5
1E0
  8
ZUWAKU
  6
CONTINUOUS
 62
     3
 10
267.0
 20
-178.0
 30
0.0
 11
272.0
 21
-188.0
 31
0.0
  0
LINE
  5
1E1
  8
ZUWAKU
  6
CONTINUOUS
 62
     3
 10
97.00000000000001
 20
-130.0
 30
0.0
 11
277.0
 21
-130.0
 31
0.0
  0
LINE
  5
1E2
  8
ZUWAKU
  6
CONTINUOUS
 62
     3
 10
226.0
 20
-176.0
 30
0.0
 11
226.0
 21
-148.0
 31
0.0
  0
LINE
  5
1E3
  8
ZUWAKU
  6
CONTINUOUS
 62
     4
 10
105.0
 20
-172.0
 30
0.0
 11
105.0
 21
-130.0
 31
0.0
  0
LINE
  5
1E4
  8
ZUWAKU
  6
CONTINUOUS
 62
     4
 10
109.0
 20
-172.0
 30
0.0
 11
109.0
 21
-130.0
 31
0.0
  0
LINE
  5
1E5
  8
ZUWAKU
  6
CONTINUOUS
 62
     4
 10
121.5
 20
-176.0
 30
0.0
 11
121.5
 21
-130.0
 31
0.0
  0
LINE
  5
1E6
  8
ZUWAKU
  6
CONTINUOUS
 62
     4
 10
97.00000000000001
 20
-137.0
 30
0.0
 11
146.0
 21
-137.0
 31
0.0
  0
LINE
  5
1E7
  8
ZUWAKU
  6
CONTINUOUS
 62
     4
 10
97.00000000000001
 20
-144.0
 30
0.0
 11
146.0
 21
-144.0
 31
0.0
  0
LINE
  5
1E8
  8
ZUWAKU
  6
CONTINUOUS
 62
     4
 10
97.00000000000001
 20
-165.0
 30
0.0
 11
146.0
 21
-165.0
 31
0.0
  0
LINE
  5
1E9
  8
ZUWAKU
  6
CONTINUOUS
 62
     4
 10
97.00000000000001
 20
-172.0
 30
0.0
 11
146.0
 21
-172.0
 31
0.0
  0
LINE
  5
1EA
  8
ZUWAKU
  6
CONTINUOUS
 62
     4
 10
255.0
 20
-166.0
 30
0.0
 11
277.0
 21
-166.0
 31
0.0
  0
LINE
  5
1EB
  8
ZUWAKU
  6
CONTINUOUS
 62
     4
 10
202.0
 20
-148.0
 30
0.0
 11
202.0
 21
-146.5
 31
0.0
  0
LINE
  5
1EC
  8
ZUWAKU
  6
CONTINUOUS
 62
     4
 10
226.0
 20
-148.0
 30
0.0
 11
226.0
 21
-146.5
 31
0.0
  0
LINE
  5
1ED
  8
ZUWAKU
  6
CONTINUOUS
 62
     4
 10
243.0
 20
-148.0
 30
0.0
 11
243.0
 21
-146.5
 31
0.0
  0
LINE
  5
1EE
  8
ZUWAKU
  6
CONTINUOUS
 62
     4
 10
97.00000000000001
 20
-151.0
 30
0.0
 11
146.0
 21
-151.0
 31
0.0
  0
LINE
  5
1EF
  8
ZUWAKU
  6
CONTINUOUS
 62
     4
 10
97.00000000000001
 20
-158.0
 30
0.0
 11
146.0
 21
-158.0
 31
0.0
  0
LINE
  5
1F0
  8
ZUWAKU
  6
CONTINUOUS
 62
     4
 10
101.0
 20
-130.5
 30
0.0
 11
98.00000000000001
 21
-136.5
 31
0.0
  0
LINE
  5
1F1
  8
ZUWAKU
  6
CONTINUOUS
 62
     4
 10
101.0
 20
-130.5
 30
0.0
 11
104.0
 21
-136.5
 31
0.0
  0
LINE
  5
1F2
  8
ZUWAKU
  6
CONTINUOUS
 62
     4
 10
98.00000000000001
 20
-136.5
 30
0.0
 11
104.0
 21
-136.5
 31
0.0
  0
LINE
  5
1F3
  8
ZUWAKU
  6
CONTINUOUS
 62
     4
 10
101.0
 20
-158.5
 30
0.0
 11
98.00000000000001
 21
-164.5
 31
0.0
  0
LINE
  5
1F4
  8
ZUWAKU
  6
CONTINUOUS
 62
     4
 10
101.0
 20
-158.5
 30
0.0
 11
104.0
 21
-164.5
 31
0.0
  0
LINE
  5
1F5
  8
ZUWAKU
  6
CONTINUOUS
 62
     4
 10
98.00000000000001
 20
-164.5
 30
0.0
 11
104.0
 21
-164.5
 31
0.0
  0
LINE
  5
1F6
  8
ZUWAKU
  6
CONTINUOUS
 62
     4
 10
101.0
 20
-151.5
 30
0.0
 11
98.00000000000001
 21
-157.5
 31
0.0
  0
LINE
  5
1F7
  8
ZUWAKU
  6
CONTINUOUS
 62
     4
 10
101.0
 20
-151.5
 30
0.0
 11
104.0
 21
-157.5
 31
0.0
  0
LINE
  5
1F8
  8
ZUWAKU
  6
CONTINUOUS
 62
     4
 10
98.00000000000001
 20
-157.5
 30
0.0
 11
104.0
 21
-157.5
 31
0.0
  0
LINE
  5
1F9
  8
ZUWAKU
  6
CONTINUOUS
 62
     4
 10
101.0
 20
-144.5
 30
0.0
 11
98.00000000000001
 21
-150.5
 31
0.0
  0
LINE
  5
1FA
  8
ZUWAKU
  6
CONTINUOUS
 62
     4
 10
101.0
 20
-144.5
 30
0.0
 11
104.0
 21
-150.5
 31
0.0
  0
LINE
  5
1FB
  8
ZUWAKU
  6
CONTINUOUS
 62
     4
 10
98.00000000000001
 20
-150.5
 30
0.0
 11
104.0
 21
-150.5
 31
0.0
  0
LINE
  5
1FC
  8
ZUWAKU
  6
CONTINUOUS
 62
     4
 10
101.0
 20
-137.5
 30
0.0
 11
98.00000000000001
 21
-143.5
 31
0.0
  0
LINE
  5
1FD
  8
ZUWAKU
  6
CONTINUOUS
 62
     4
 10
101.0
 20
-137.5
 30
0.0
 11
104.0
 21
-143.5
 31
0.0
  0
LINE
  5
1FE
  8
ZUWAKU
  6
CONTINUOUS
 62
     4
 10
98.00000000000001
 20
-143.5
 30
0.0
 11
104.0
 21
-143.5
 31
0.0
  0
LINE
  5
1FF
  8
ZUWAKU
  6
CONTINUOUS
 62
     4
 10
172.6666666666666
 20
-176.0
 30
0.0
 11
172.6666666666666
 21
-162.0
 31
0.0
  0
LINE
  5
200
  8
ZUWAKU
  6
CONTINUOUS
 62
     4
 10
199.3333333333333
 20
-176.0
 30
0.0
 11
199.3333333333333
 21
-161.9509415757253
 31
0.0
  0
LINE
  5
201
  8
ZUWAKU
  6
CONTINUOUS
 62
     4
 10
212.6666666666666
 20
-167.5
 30
0.0
 11
212.6666666666666
 21
-161.9509415757253
 31
0.0
  0
LINE
  5
202
  8
ZUWAKU
  6
CONTINUOUS
 62
     4
 10
226.0
 20
-155.0
 30
0.0
 11
255.0
 21
-155.0
 31
0.0
  0
LINE
  5
203
  8
ZUWAKU
  6
CONTINUOUS
 62
     4
 10
146.0
 20
-166.0
 30
0.0
 11
226.0
 21
-166.0
 31
0.0
  0
LINE
  5
204
  8
ZUWAKU
  6
CONTINUOUS
 62
     4
 10
153.0
 20
-139.5
 30
0.0
 11
153.0
 21
-130.0
 31
0.0
  0
LINE
  5
205
  8
ZUWAKU
  6
CONTINUOUS
 62
     4
 10
202.0
 20
-139.5
 30
0.0
 11
202.0
 21
-130.0
 31
0.0
  0
LINE
  5
206
  8
ZUWAKU
  6
CONTINUOUS
 62
     4
 10
226.0
 20
-139.5
 30
0.0
 11
226.0
 21
-130.0
 31
0.0
  0
LINE
  5
207
  8
ZUWAKU
  6
CONTINUOUS
 62
     4
 10
243.0
 20
-139.5
 30
0.0
 11
243.0
 21
-130.0
 31
0.0
  0
TEXT
  5
209
  8
ZUWAKU
 62
     7
 10
148.3132301474747
 20
-130.821188728956
 30
0.0
 40
2.6656
  1
符号
 41
0.8
  7
FDASTYLE0
  0
TEXT
  5
20A
  8
ZUWAKU
 62
     7
 10
162.4141311219058
 20
-135.8245525019963
 30
0.0
 40
4.0
  1
品       名
 41
0.765957446808511
  7
FDASTYLE1
 72
     5
 11
191.2141311219058
 21
-135.8245525019963
 31
0.0
  0
TEXT
  5
20B
  8
ZUWAKU
 62
     7
 10
207.2331564413096
 20
-135.8245525019963
 30
0.0
 40
4.0
  1
材  料
 41
0.7272727272727279
  7
FDASTYLE1
 72
     5
 11
220.0331564413096
 21
-135.8245525019963
 31
0.0
  0
TEXT
  5
20C
  8
ZUWAKU
 62
     7
 10
229.516061684855
 20
-135.8245525019963
 30
0.0
 40
4.0
  1
個 数
 41
0.7058823529411761
  7
FDASTYLE1
 72
     5
 11
239.116061684855
 21
-135.8245525019963
 31
0.0
  0
TEXT
  5
20D
  8
ZUWAKU
 62
     7
 10
245.721810952888
 20
-133.5649080050572
 30
0.0
 40
2.5
  1
単重量
 41
0.6666666666666666
  7
FDASTYLE1
 72
     5
 11
251.721810952888
 21
-133.5649080050572
 31
0.0
  0
TEXT
  5
20E
  8
ZUWAKU
 62
     7
 10
244.7089516236359
 20
-137.3631304897525
 30
0.0
 40
2.5
  1
(kg)
 41
0.8
  7
FDASTYLE1
 72
     5
 11
252.7089516236359
 21
-137.3631304897525
 31
0.0
  0
TEXT
  5
20F
  8
ZUWAKU
 62
     7
 10
259.1421970654778
 20
-135.8245525019963
 30
0.0
 40
4.0
  1
記  事
 41
0.7272727272727279
  7
FDASTYLE1
 72
     5
 11
271.9421970654778
 21
-135.8245525019963
 31
0.0
  0
TEXT
  5
210
  8
ZUWAKU
 62
     7
 10
258.8450794551645
 20
-165.4873041997729
 30
0.0
 40
3.0
  1
コード番号
 41
0.6666666666666666
  7
FDASTYLE1
 72
     5
 11
270.8450794551645
 21
-165.4873041997729
 31
0.0
  0
TEXT
  5
211
  8
ZUWAKU
 62
     7
 10
101.9119920158317
 20
-175.1879010540338
 30
0.0
 40
2.5
  1
訂 正 来 歴
 41
0.717948717948718
  7
FDASTYLE1
 72
     5
 11
115.9119920158317
 21
-175.1879010540338
 31
0.0
  0
TEXT
  5
212
  8
ZUWAKU
 62
     7
 10
125.890334846765
 20
-175.2166697391651
 30
0.0
 40
2.5
  1
工 事 番 号
 41
0.717948717948718
  7
FDASTYLE1
 72
     5
 11
139.890334846765
 21
-175.2166697391651
 31
0.0
  0
TEXT
  5
213
  8
ZUWAKU
 62
     7
 10
99.96483784660289
 20
-165.9634530565915
 30
0.0
 40
2.0825
  1
記号
 41
0.8
  7
FDASTYLE0
  0
TEXT
  5
214
  8
ZUWAKU
 62
     7
 10
105.9042249067618
 20
-165.9634530565915
 30
0.0
 40
2.0825
  1
理由
 41
0.8
  7
FDASTYLE0
  0
TEXT
  5
215
  8
ZUWAKU
 62
     7
 10
111.6193667909843
 20
-169.8786046700178
 30
0.0
 40
3.0
  1
日 付
 41
0.7058823529411754
  7
FDASTYLE1
 72
     5
 11
118.8193667909843
 21
-169.8786046700178
 31
0.0
  0
TEXT
  5
216
  8
ZUWAKU
 62
     7
 10
153.4481689819652
 20
-165.7187911464244
 30
0.0
 40
3.0
  1
承   認
 41
0.7407407407407408
  7
FDASTYLE1
 72
     5
 11
165.4481689819652
 21
-165.7187911464244
 31
0.0
  0
TEXT
  5
217
  8
ZUWAKU
 62
     7
 10
179.863228033234
 20
-165.4873041997729
 30
0.0
 40
3.0
  1
検   図
 41
0.7407407407407408
  7
FDASTYLE1
 72
     5
 11
191.863228033234
 21
-165.4873041997729
 31
0.0
  0
TEXT
  5
218
  8
ZUWAKU
 62
     7
 10
201.4771920983751
 20
-165.4873041997729
 30
0.0
 40
3.0
  1
担  当
 41
0.7272727272727269
  7
FDASTYLE1
 72
     5
 11
211.0771920983751
 21
-165.4873041997729
 31
0.0
  0
TEXT
  5
219
  8
ZUWAKU
 62
     7
 10
214.6770574841112
 20
-165.4873041997729
 30
0.0
 40
3.0
  1
製  図
 41
0.7272727272727269
  7
FDASTYLE1
 72
     5
 11
224.2770574841112
 21
-165.4873041997729
 31
0.0
  0
TEXT
  5
21A
  8
ZUWAKU
 62
     7
 10
226.9462372304199
 20
-153.2184960272417
 30
0.0
 40
3.0
  1
作図
 41
0.6666666666666683
  7
FDASTYLE1
 72
     5
 11
231.7462372304199
 21
-153.2184960272417
 31
0.0
  0
TEXT
  5
21B
  8
ZUWAKU
 62
     7
 10
228.1036719636776
 20
-160.2371566401815
 30
0.0
 40
4.0
  1
第 三 角 法
 41
0.7179487179487182
  7
FDASTYLE1
 72
     5
 11
250.5036719636776
 21
-160.2371566401815
 31
0.0
  0
TEXT
  5
21C
  8
ZUWAKU
 62
     7
 10
227.409211123723
 20
-166.413251986379
 30
0.0
 40
3.0
  1
尺度
 41
0.6666666666666683
  7
FDASTYLE1
 72
     5
 11
232.209211123723
 21
-166.413251986379
 31
0.0
  0
TEXT
  5
21E
  8
ZUWAKU
 62
     3
 10
105.379154370034
 20
-185.9272077185017
 30
0.0
 40
7.0
  1
株式会社 野村製作所
 41
0.5763738641280831
  7
FDASTYLE2
 72
     5
 11
161.379154370034
 21
-185.9272077185017
 31
0.0
  0
TEXT
  5
220
  8
ZUWAKU
 62
     3
 10
183.1423426102851
 20
-187.1216685584563
 30
0.0
 40
8.0
  1
２－
 41
0.8244023083264632
  7
FDASTYLE3
 72
     5
 11
199.1423426102851
 21
-187.1216685584563
 31
0.0
  0
TEXT
  5
221
  8
ZUWAKU
 62
     3
 10
200.0543002346919
 20
-187.1216685584563
 30
0.0
 40
8.0
  1
C706100
 41
1.555901311402533
  7
FDASTYLE3
 72
     5
 11
256.0543002346918
 21
-187.1216685584563
 31
0.0
  0
TEXT
  5
222
  8
ZUWAKU
 62
     6
 10
163.7236800359233
 20
-145.1021206743685
 30
0.0
 40
5.0
  1
外　形　図
 41
0.5833333333333334
  7
FDASTYLE1
 72
     5
 11
181.2236800359233
 21
-145.1021206743685
 31
0.0
  0
TEXT
  5
223
  8
ZUWAKU
 62
     4
 10
237.4612965606293
 20
-172.4797619591963
 30
0.0
 40
4.0
  1
1/1
 41
0.7000000000000005
  7
FDASTYLE1
 72
     5
 11
245.8612965606293
 21
-172.4797619591963
 31
0.0
  0
TEXT
  5
224
  8
0
 62
     6
 10
153.751689452146
 20
-154.3880453471329
 30
0.0
 40
5.0
  1
日鋼プレシジォン
 41
0.6666666666666666
  7
FDASTYLE1
 72
     5
 11
185.751689452146
 21
-154.3880453471329
 31
0.0
  0
TEXT
  5
225
  8
0
 62
     6
 10
170.4103460444692
 20
-160.9091595284539
 30
0.0
 40
5.0
  1
HDM3-165A5型チャック
 41
0.65625
  7
FDASTYLE1
 72
     5
 11
222.9103460444692
 21
-160.9091595284539
 31
0.0
  0
TEXT
  5
226
  8
0
 62
     6
 10
-86.2106016271438
 20
-105.2257825549911
 30
0.0
 40
3.899999856948853
  1
  仕   様
 41
0.9023280916229792
  7
FDASTYLE1
 72
     5
 11
-53.98202764919657
 21
-105.2257825549911
 31
0.0
  0
TEXT
  5
227
  8
0
 62
     6
 10
-86.2106016271438
 20
-112.7257825549911
 30
0.0
 40
3.899999856948853
  1
 1.爪ｽﾄﾛ-ｸ            
 41
0.9143941169627068
  7
FDASTYLE1
 72
     5
 11
13.21797460385901
 21
-112.7257825549911
 31
0.0
  0
TEXT
  5
228
  8
0
 62
     6
 10
14.41797335886697
 20
-112.2382825728725
 30
0.0
 40
2.924999892711639
  1
直径ﾆﾃ
 41
0.8957797606707526
  7
FDASTYLE1
 72
     5
 11
27.78940348022918
 21
-112.2382825728725
 31
0.0
  0
TEXT
  5
229
  8
0
 62
     6
 10
28.98940223523717
 20
-112.7257825549911
 30
0.0
 40
3.899999856948853
  1
    5   mm
 41
0.9081806113749069
  7
FDASTYLE1
 72
     5
 11
75.61797669598202
 21
-112.7257825549911
 31
0.0
  0
TEXT
  5
22A
  8
0
 62
     6
 10
-86.2106016271438
 20
-120.2257711108993
 30
0.0
 40
3.899999856948853
  1
 2.ﾋﾟｽﾄﾝｽﾄﾛ-ｸ            17.5   mm
 41
0.9098798219254533
  7
FDASTYLE1
 72
     5
 11
75.61797669598204
 21
-120.2257711108993
 31
0.0
  0
TEXT
  5
22B
  8
0
 62
     6
 10
-86.2106016271438
 20
-127.7257711108993
 30
0.0
 40
3.899999856948853
  1
 3.推奨ｼﾘﾝﾀﾞ　              36TS-TA1型
 41
0.9010215764943601
  7
FDASTYLE1
 72
     5
 11
75.61797669598204
 21
-127.7257711108993
 31
0.0
  0
TEXT
  5
22C
  8
0
 62
     6
 10
-86.2106016271438
 20
-135.2257711108993
 30
0.0
 40
3.899999856948853
  1
 4.許容ｼﾘﾝﾀﾞ推力　              17   ｋN
 41
0.8932629671700616
  7
FDASTYLE1
 72
     5
 11
75.61797669598204
 21
-135.2257711108993
 31
0.0
  0
TEXT
  5
22D
  8
0
 62
     6
 10
-86.2106016271438
 20
-142.7257711108993
 30
0.0
 40
3.899999856948853
  1
 5.最大使用圧力    
 41
0.866074953992472
  7
FDASTYLE1
 72
     5
 11
-25.18202668360132
 21
-142.7257711108993
 31
0.0
  0
TEXT
  5
22E
  8
0
 62
     6
 10
-23.98202792859335
 20
-142.2382711287807
 30
0.0
 40
2.924999892711639
  1
(36TS-TA1型使用時)
 41
0.8874511689217373
  7
FDASTYLE1
 72
     5
 11
25.38940339976291
 21
-142.2382711287807
 31
0.0
  0
TEXT
  5
22F
  8
0
 62
     6
 10
19.38940191337208
 20
-142.7257711108993
 30
0.0
 40
3.899999856948853
  1
    3.0  MＰa
 41
0.9173545099825589
  7
FDASTYLE1
 72
     5
 11
75.61797669598202
 21
-142.7257711108993
 31
0.0
  0
TEXT
  5
230
  8
0
 62
     6
 10
-86.2106016271438
 20
-150.2257711108993
 30
0.0
 40
3.899999856948853
  1
 6.最大静的把握力               58.8   ｋN
 41
0.8856368343666786
  7
FDASTYLE1
 72
     5
 11
75.61797669598204
 21
-150.2257711108993
 31
0.0
  0
TEXT
  5
231
  8
0
 62
     6
 10
-86.2106016271438
 20
-157.7257711108993
 30
0.0
 40
3.899999856948853
  1
 7.最高使用回転速度              6500  min
 41
0.8856368343666786
  7
FDASTYLE1
 72
     5
 11
75.61797669598204
 21
-157.7257711108993
 31
0.0
  0
TEXT
  5
232
  8
0
 62
     6
 10
76.64654705741745
 20
-154.9507710751365
 30
0.0
 40
1.949999928474426
  1
-1
 41
0.8971966190941251
  7
FDASTYLE1
 72
     5
 11
80.76083364405972
 21
-154.9507710751365
 31
0.0
  0
TEXT
  5
233
  8
0
 62
     6
 10
-86.2106016271438
 20
-165.2257711108993
 30
0.0
 40
3.899999856948853
  1
 8.慣性モーメント              0.０４８ ｋg・m
 41
0.8707686541297774
  7
FDASTYLE1
 72
     5
 11
75.61797669598204
 21
-165.2257711108993
 31
0.0
  0
TEXT
  5
234
  8
0
 62
     6
 10
76.64654705741745
 20
-162.4507710751365
 30
0.0
 40
1.949999928474426
  1
2
 41
0.8791213174644367
  7
FDASTYLE1
 72
     5
 11
78.36083356359345
 21
-162.4507710751365
 31
0.0
  0
TEXT
  5
235
  8
0
 62
     6
 10
-86.2106016271438
 20
-172.7257711108993
 30
0.0
 40
3.899999856948853
  1
 9.質 量                     11   ｋg
 41
0.9049516432920066
  7
FDASTYLE1
 72
     5
 11
75.61797669598204
 21
-172.7257711108993
 31
0.0
  0
TEXT
  5
236
  8
0
 62
     6
 10
-11.06223492005086
 20
-180.9414167327097
 30
0.0
 40
4.0625
  1
ﾁｬｯｸ外周ﾆﾃ   　　1 g以内
 41
0.8781870238468527
  7
FDASTYLE1
 72
     5
 11
77.50918351744915
 21
-180.9414167327097
 31
0.0
  0
TEXT
  5
237
  8
0
 62
     6
 10
-85.6530741017574
 20
-180.8395533473229
 30
0.0
 40
4.0625
  1
10.アンバランス量
 41
0.8411937940612021
  7
FDASTYLE1
 72
     5
 11
-37.0816506642574
 21
-180.8395533473229
 31
0.0
  0
LINE
  5
238
  8
0
  6
CONTINUOUS
 62
     3
 10
53.30287378939362
 20
-6.701732038977816
 30
0.0
 11
47.62947649319459
 21
-1.028334742778789
 31
0.0
  0
LINE
  5
239
  8
0
  6
CONTINUOUS
 62
     3
 10
33.36965446241585
 20
23.64772123494557
 30
0.0
 11
31.29305094429462
 21
31.39771505458906
 31
0.0
  0
LINE
  5
23A
  8
0
  6
CONTINUOUS
 62
     3
 10
31.29303803321048
 20
31.3977193807309
 30
0.0
 11
32.16520161613474
 21
31.90126320447711
 31
0.0
  0
LINE
  5
23B
  8
0
  6
CONTINUOUS
 62
     3
 10
53.30288841290245
 20
-6.701735986976424
 30
0.0
 11
54.16520058635147
 21
-6.203879876514243
 31
0.0
  0
LINE
  5
23C
  8
0
  6
CONTINUOUS
 62
     3
 10
33.41463973821298
 20
23.67370420683414
 30
0.0
 11
47.66464286745701
 21
-1.008021835747577
 31
0.0
  0
LINE
  5
23D
  8
0
  6
CONTINUOUS
 62
     3
 10
37.78962885533086
 20
16.0959759216866
 30
0.0
 11
46.91398977534094
 21
21.36392757302422
 31
0.0
  0
LINE
  5
23E
  8
0
  6
CONTINUOUS
 62
     3
 10
43.28963704210365
 20
6.569696506458676
 30
0.0
 11
52.41399796211373
 21
11.8376481577963
 31
0.0
  0
LINE
  5
23F
  8
0
  6
CONTINUOUS
 62
     3
 10
42.98580062695952
 20
19.09598375433409
 30
0.0
 11
48.48579937526175
 21
9.569707787309817
 31
0.0
  0
LINE
  5
240
  8
0
  6
CONTINUOUS
 62
     3
 10
52.91398708224345
 20
24.82802725058098
 30
0.0
 11
68.56462597147741
 21
33.86392682796616
 31
0.0
  0
LINE
  5
241
  8
0
  6
CONTINUOUS
 62
     3
 10
50.91398625934458
 20
21.36391795253115
 30
0.0
 11
49.16398584211207
 21
18.33282930230455
 31
0.0
  0
LINE
  5
242
  8
0
  6
CONTINUOUS
 62
     3
 10
50.91397834557272
 20
15.30174292524003
 30
0.0
 11
49.1639786584971
 21
18.33283199269913
 31
0.0
  0
LINE
  5
243
  8
0
  6
CONTINUOUS
 62
     3
 10
50.9139907781249
 20
15.30174533607981
 30
0.0
 11
54.4139907781249
 21
15.30174533607981
 31
0.0
  0
LINE
  5
244
  8
0
  6
CONTINUOUS
 62
     3
 10
54.41397907934741
 20
15.30175687199442
 30
0.0
 11
56.16397876642303
 21
18.33284593945353
 31
0.0
  0
LINE
  5
245
  8
0
  6
CONTINUOUS
 62
     3
 10
56.16397916496941
 20
18.33283381776624
 30
0.0
 11
54.41398043156794
 21
21.36392123341289
 31
0.0
  0
LINE
  5
246
  8
0
  6
CONTINUOUS
 62
     3
 10
54.4139907781249
 20
21.36395541908762
 30
0.0
 11
50.9139907781249
 21
21.36395541908762
 31
0.0
  0
LINE
  5
247
  8
0
  6
CONTINUOUS
 62
     3
 10
72.56463376408679
 20
33.86392585764582
 30
0.0
 11
70.81463334685428
 21
30.83283720741923
 31
0.0
  0
LINE
  5
248
  8
0
  6
CONTINUOUS
 62
     3
 10
70.81462946540982
 20
30.83284259789132
 30
0.0
 11
72.56463201350788
 21
27.80174857499485
 31
0.0
  0
LINE
  5
249
  8
0
  6
CONTINUOUS
 62
     3
 10
-160.357237691667
 20
-29.8950091194866
 30
0.0
 11
-84.35723769166701
 21
-29.8950091194866
 31
0.0
  0
LINE
  5
24A
  8
0
  6
CONTINUOUS
 62
     3
 10
-84.85723769166701
 20
19.60499088051341
 30
0.0
 11
-82.35723769166701
 21
19.60499088051341
 31
0.0
  0
LINE
  5
24B
  8
0
  6
CONTINUOUS
 62
     3
 10
-110.607237691667
 20
77.85499088051341
 30
0.0
 11
-110.607237691667
 21
27.35499088051341
 31
0.0
  0
LINE
  5
24C
  8
0
  6
CONTINUOUS
 62
     3
 10
-133.607237691667
 20
82.10499088051341
 30
0.0
 11
-133.607237691667
 21
23.10499088051341
 31
0.0
  0
LINE
  5
24D
  8
0
  6
CONTINUOUS
 62
     3
 10
-93.60723769166701
 20
82.10499088051341
 30
0.0
 11
-93.60723769166701
 21
23.10499088051341
 31
0.0
  0
LINE
  5
24E
  8
0
  6
CONTINUOUS
 62
     3
 10
-102.607237691667
 20
25.60499088051341
 30
0.0
 11
-93.60723769166701
 21
25.60499088051341
 31
0.0
  0
LINE
  5
24F
  8
0
  6
CONTINUOUS
 62
     3
 10
-102.607237691667
 20
79.60499088051341
 30
0.0
 11
-93.60723769166701
 21
79.60499088051341
 31
0.0
  0
LINE
  5
250
  8
0
  6
CONTINUOUS
 62
     3
 10
-143.357237691667
 20
83.10499088051341
 30
0.0
 11
-94.60723769166701
 21
83.10499088051341
 31
0.0
  0
LINE
  5
251
  8
0
  6
CONTINUOUS
 62
     3
 10
-102.607237691667
 20
79.85499088051341
 30
0.0
 11
-102.607237691667
 21
25.35499088051341
 31
0.0
  0
LINE
  5
252
  8
0
  6
CONTINUOUS
 62
     3
 10
-103.607237691667
 20
79.85499088051341
 30
0.0
 11
-103.607237691667
 21
25.35499088051341
 31
0.0
  0
LINE
  5
253
  8
0
  6
CONTINUOUS
 62
     3
 10
-103.607237691667
 20
79.85499088051341
 30
0.0
 11
-102.607237691667
 21
79.85499088051341
 31
0.0
  0
LINE
  5
254
  8
0
  6
CONTINUOUS
 62
     3
 10
-103.607237691667
 20
25.35499088051341
 30
0.0
 11
-102.607237691667
 21
25.35499088051341
 31
0.0
  0
LINE
  5
255
  8
0
  6
CONTINUOUS
 62
     3
 10
-143.357237691667
 20
22.10499088051341
 30
0.0
 11
-84.85723769166701
 21
22.10499088051341
 31
0.0
  0
LINE
  5
256
  8
0
  6
CONTINUOUS
 62
     3
 10
-126.357237691667
 20
135.1049985099079
 30
0.0
 11
-126.357237691667
 21
118.0093428819068
 31
0.0
  0
LINE
  5
257
  8
0
  6
CONTINUOUS
 62
     3
 10
-97.35723769166701
 20
135.1049985099079
 30
0.0
 11
-97.35723769166701
 21
84.60499088051341
 31
0.0
  0
LINE
  5
258
  8
0
  6
CONTINUOUS
 62
     3
 10
-101.057188863542
 20
87.40498630287669
 30
0.0
 11
-101.057188863542
 21
83.10499088051341
 31
0.0
  0
LINE
  5
259
  8
0
  6
CONTINUOUS
 62
     3
 10
-107.057188863542
 20
87.40498630287669
 30
0.0
 11
-107.057188863542
 21
83.10499088051341
 31
0.0
  0
LINE
  5
25A
  8
0
  6
CONTINUOUS
 62
     3
 10
-107.0573109338545
 20
17.80499164345286
 30
0.0
 11
-101.0573109338545
 21
17.80499164345286
 31
0.0
  0
LINE
  5
25B
  8
0
  6
CONTINUOUS
 62
     3
 10
-107.0573109338545
 20
87.40498630287669
 30
0.0
 11
-101.0573109338545
 21
87.40498630287669
 31
0.0
  0
LINE
  5
25C
  8
0
  6
CONTINUOUS
 62
     3
 10
-107.057188863542
 20
22.10499088051341
 30
0.0
 11
-107.057188863542
 21
17.80499164345286
 31
0.0
  0
LINE
  5
25D
  8
0
  6
CONTINUOUS
 62
     3
 10
-101.057188863542
 20
22.10499088051341
 30
0.0
 11
-101.057188863542
 21
17.80499164345286
 31
0.0
  0
LINE
  5
25E
  8
0
  6
CONTINUOUS
 62
     3
 10
-101.0573109338545
 20
84.60499088051341
 30
0.0
 11
-83.35723769166701
 21
84.60499088051341
 31
0.0
  0
LINE
  5
25F
  8
0
  6
CONTINUOUS
 62
     3
 10
-83.35723769166701
 20
135.1049985099079
 30
0.0
 11
-83.35723769166701
 21
129.1049985099079
 31
0.0
  0
LINE
  5
260
  8
0
  6
CONTINUOUS
 62
     3
 10
-96.35723769166701
 20
129.1049985099079
 30
0.0
 11
-81.85723769166701
 21
129.1049985099079
 31
0.0
  0
LINE
  5
261
  8
0
  6
CONTINUOUS
 62
     3
 10
-96.35723769166701
 20
88.10499088051341
 30
0.0
 11
-81.85723769166701
 21
88.10499088051341
 31
0.0
  0
LINE
  5
262
  8
0
  6
CONTINUOUS
 62
     3
 10
-81.85723769166701
 20
129.1049985099079
 30
0.0
 11
-81.85723769166701
 21
125.1049985099079
 31
0.0
  0
LINE
  5
263
  8
0
  6
CONTINUOUS
 62
     3
 10
-82.35723769166701
 20
88.10499088051341
 30
0.0
 11
-82.35723769166701
 21
-27.8950091194866
 31
0.0
  0
LINE
  5
264
  8
0
  6
CONTINUOUS
 62
     3
 10
-83.35723769166701
 20
88.10499088051341
 30
0.0
 11
-83.35723769166701
 21
84.60499088051341
 31
0.0
  0
LINE
  5
265
  8
0
  6
CONTINUOUS
 62
     3
 10
-160.357237691667
 20
135.1049985099079
 30
0.0
 11
-83.35723769166701
 21
135.1049985099079
 31
0.0
  0
LINE
  5
266
  8
0
  6
CONTINUOUS
 62
     3
 10
-84.35745339320077
 20
-29.89476532758733
 30
0.0
 11
-82.35740794305842
 21
-27.89472004603619
 31
0.0
  0
LINE
  5
267
  8
0
  6
CONTINUOUS
 62
     3
 10
-83.35734789659294
 20
134.1047094688783
 30
0.0
 11
-82.35737372469451
 21
133.1047353812714
 31
0.0
  0
LINE
  5
268
  8
0
  6
CONTINUOUS
 62
     3
 10
-96.35723769166701
 20
100.1049908805134
 30
0.0
 11
-76.35723769166701
 21
100.1049908805134
 31
0.0
  0
LINE
  5
269
  8
0
  6
CONTINUOUS
 62
     3
 10
-96.35723769166701
 20
92.10499088051341
 30
0.0
 11
-76.35723769166701
 21
92.10499088051341
 31
0.0
  0
LINE
  5
26A
  8
0
  6
CONTINUOUS
 62
     3
 10
-96.35723769166701
 20
125.1049985099079
 30
0.0
 11
-76.35723769166701
 21
125.1049985099079
 31
0.0
  0
LINE
  5
26B
  8
0
  6
CONTINUOUS
 62
     3
 10
-96.35723769166701
 20
117.1049985099079
 30
0.0
 11
-76.35723769166701
 21
117.1049985099079
 31
0.0
  0
LINE
  5
26C
  8
0
  6
CONTINUOUS
 62
     3
 10
-94.35723769166701
 20
125.1049985099079
 30
0.0
 11
-94.35723769166701
 21
117.1049985099079
 31
0.0
  0
LINE
  5
26D
  8
0
  6
CONTINUOUS
 62
     3
 10
-76.35723769166701
 20
127.6049985099079
 30
0.0
 11
-76.35723769166701
 21
114.6049985099079
 31
0.0
  0
LINE
  5
26E
  8
0
  6
CONTINUOUS
 62
     3
 10
-94.35723769166701
 20
100.1049908805134
 30
0.0
 11
-94.35723769166701
 21
92.10499088051341
 31
0.0
  0
LINE
  5
26F
  8
0
  6
CONTINUOUS
 62
     3
 10
-76.35723769166701
 20
102.6049985099079
 30
0.0
 11
-76.35723769166701
 21
89.60499088051341
 31
0.0
  0
LINE
  5
270
  8
0
  6
CONTINUOUS
 62
     3
 10
-68.35723769166701
 20
102.6049985099079
 30
0.0
 11
-68.35723769166701
 21
89.60499088051341
 31
0.0
  0
LINE
  5
271
  8
0
  6
CONTINUOUS
 62
     3
 10
-68.35723769166701
 20
127.6049985099079
 30
0.0
 11
-68.35723769166701
 21
114.6049985099079
 31
0.0
  0
LINE
  5
272
  8
0
  6
CONTINUOUS
 62
     3
 10
-76.35723769166701
 20
89.60499088051341
 30
0.0
 11
-68.35723769166701
 21
89.60499088051341
 31
0.0
  0
LINE
  5
273
  8
0
  6
CONTINUOUS
 62
     3
 10
-76.35723769166701
 20
102.6049985099079
 30
0.0
 11
-68.35723769166701
 21
102.6049985099079
 31
0.0
  0
LINE
  5
274
  8
0
  6
CONTINUOUS
 62
     3
 10
-76.35723769166701
 20
114.6049985099079
 30
0.0
 11
-68.35723769166701
 21
114.6049985099079
 31
0.0
  0
LINE
  5
275
  8
0
  6
CONTINUOUS
 62
     3
 10
-76.35723769166701
 20
127.6049985099079
 30
0.0
 11
-68.35723769166701
 21
127.6049985099079
 31
0.0
  0
LINE
  5
276
  8
0
  6
CONTINUOUS
 62
     3
 10
-90.35723769166701
 20
88.10499088051341
 30
0.0
 11
-90.35723769166701
 21
84.60499088051341
 31
0.0
  0
LINE
  5
277
  8
0
  6
CONTINUOUS
 62
     3
 10
-81.85723769166701
 20
92.10499088051341
 30
0.0
 11
-81.85723769166701
 21
88.10499088051341
 31
0.0
  0
LINE
  5
278
  8
0
  6
CONTINUOUS
 62
     3
 10
-159.357237691667
 20
5.719992558980202
 30
0.0
 11
-93.35723769166701
 21
5.719992558980202
 31
0.0
  0
LINE
  5
279
  8
0
  6
CONTINUOUS
 62
     3
 10
-159.357237691667
 20
-5.280007441019798
 30
0.0
 11
-93.35723769166701
 21
-5.280007441019798
 31
0.0
  0
LINE
  5
27A
  8
0
  6
CONTINUOUS
 62
     3
 10
-93.35723769166701
 20
-8.530007441019798
 30
0.0
 11
-82.35723769166701
 21
-8.530007441019798
 31
0.0
  0
LINE
  5
27B
  8
0
  6
CONTINUOUS
 62
     3
 10
-93.35723769166701
 20
8.969992558980202
 30
0.0
 11
-82.35723769166701
 21
8.969992558980202
 31
0.0
  0
LINE
  5
27C
  8
0
  6
CONTINUOUS
 62
     3
 10
-93.35723769166701
 20
8.969992558980202
 30
0.0
 11
-93.35723769166701
 21
-8.530007441019798
 31
0.0
  0
LINE
  5
27D
  8
0
  6
CONTINUOUS
 62
     3
 10
-102.357237691667
 20
12.05499164345286
 30
0.0
 11
-82.35723769166701
 21
12.05499164345286
 31
0.0
  0
LINE
  5
27E
  8
0
  6
CONTINUOUS
 62
     3
 10
-102.357237691667
 20
17.15499011757395
 30
0.0
 11
-82.35723769166701
 21
17.15499011757395
 31
0.0
  0
LINE
  5
27F
  8
0
  6
CONTINUOUS
 62
     3
 10
-102.357237691667
 20
17.15499011757395
 30
0.0
 11
-102.357237691667
 21
12.05499164345286
 31
0.0
  0
LINE
  5
280
  8
0
  6
CONTINUOUS
 62
     3
 10
-102.3573032629558
 20
17.15502608624313
 30
0.0
 11
-103.8295470868882
 21
14.60502391686071
 31
0.0
  0
LINE
  5
281
  8
0
  6
CONTINUOUS
 62
     3
 10
-102.3573363759081
 20
12.05493940069794
 30
0.0
 11
-103.8295801998404
 21
14.60494157008036
 31
0.0
  0
LINE
  5
282
  8
0
  6
CONTINUOUS
 62
     3
 10
-133.6072209751271
 20
23.10498267031465
 30
0.0
 11
-132.6072199135376
 21
22.10498160872515
 31
0.0
  0
LINE
  5
283
  8
0
  6
CONTINUOUS
 62
     3
 10
-133.6071132432305
 20
82.10487338841716
 30
0.0
 11
-132.6071305575931
 21
83.10487133106557
 31
0.0
  0
LINE
  5
284
  8
0
  6
CONTINUOUS
 62
     3
 10
-93.60723245951225
 20
23.10498267031465
 30
0.0
 11
-94.60723352110175
 21
22.10498160872515
 31
0.0
  0
LINE
  5
285
  8
0
  6
CONTINUOUS
 62
     3
 10
-93.60723515691051
 20
82.10498865873177
 30
0.0
 11
-94.60723621850001
 21
83.10498972032127
 31
0.0
  0
LINE
  5
286
  8
0
  6
CONTINUOUS
 62
     3
 10
-84.85723769166701
 20
72.17914096596263
 30
0.0
 11
-84.85723769166701
 21
19.60499088051341
 31
0.0
  0
LINE
  5
287
  8
0
  6
CONTINUOUS
 62
     3
 10
-83.35723769166701
 20
8.219992558980202
 30
0.0
 11
-83.35723769166701
 21
-7.780007441019798
 31
0.0
  0
LINE
  5
288
  8
0
  6
CONTINUOUS
 62
     3
 10
-173.357237691667
 20
5.219992558980202
 30
0.0
 11
-173.357237691667
 21
-4.780007441019798
 31
0.0
  0
LINE
  5
289
  8
0
  6
CONTINUOUS
 62
     3
 10
-173.357237691667
 20
-4.780007441019798
 30
0.0
 11
-93.35723769166701
 21
-4.780007441019798
 31
0.0
  0
LINE
  5
28A
  8
0
  6
CONTINUOUS
 62
     3
 10
-173.357237691667
 20
5.219992558980202
 30
0.0
 11
-93.35723769166701
 21
5.219992558980202
 31
0.0
  0
LINE
  5
28B
  8
0
  6
CONTINUOUS
 62
     3
 10
-173.357237691667
 20
-3.980007250284935
 30
0.0
 11
-141.357237691667
 21
-3.980007250284935
 31
0.0
  0
LINE
  5
28C
  8
0
  6
CONTINUOUS
 62
     3
 10
-173.357237691667
 20
4.419993321919655
 30
0.0
 11
-141.357237691667
 21
4.419993321919655
 31
0.0
  0
LINE
  5
28D
  8
0
  6
CONTINUOUS
 62
     3
 10
-93.35723769166701
 20
-7.780007441019798
 30
0.0
 11
-83.35723769166701
 21
-7.780007441019798
 31
0.0
  0
LINE
  5
28E
  8
0
  6
CONTINUOUS
 62
     3
 10
-93.35723769166701
 20
8.219992558980202
 30
0.0
 11
-83.35723769166701
 21
8.219992558980202
 31
0.0
  0
LINE
  5
28F
  8
0
  6
CONTINUOUS
 62
     3
 10
-141.357237691667
 20
5.219992558980202
 30
0.0
 11
-141.357237691667
 21
-4.780007441019798
 31
0.0
  0
LINE
  5
290
  8
0
  6
CONTINUOUS
 62
     3
 10
-160.357237691667
 20
135.1049985099079
 30
0.0
 11
-160.357237691667
 21
5.719992558980202
 31
0.0
  0
LINE
  5
291
  8
0
  6
CONTINUOUS
 62
     3
 10
-160.357237691667
 20
-5.280007441019798
 30
0.0
 11
-160.357237691667
 21
-29.8950091194866
 31
0.0
  0
LINE
  5
292
  8
0
  6
CONTINUOUS
 62
     3
 10
-159.357237691667
 20
125.1049985099079
 30
0.0
 11
-159.357237691667
 21
5.719992558980202
 31
0.0
  0
LINE
  5
293
  8
0
  6
CONTINUOUS
 62
     3
 10
-159.357237691667
 20
-5.280007441019798
 30
0.0
 11
-159.357237691667
 21
-19.8950091194866
 31
0.0
  0
LINE
  5
294
  8
0
  6
CONTINUOUS
 62
     3
 10
-160.357237691667
 20
125.1049985099079
 30
0.0
 11
-159.357237691667
 21
125.1049985099079
 31
0.0
  0
LINE
  5
295
  8
0
  6
CONTINUOUS
 62
     3
 10
-160.357237691667
 20
-19.8950091194866
 30
0.0
 11
-159.357237691667
 21
-19.8950091194866
 31
0.0
  0
LINE
  5
296
  8
0
  6
CONTINUOUS
 62
     3
 10
-143.357237691667
 20
91.88749973061107
 30
0.0
 11
-143.357237691667
 21
13.32248584511302
 31
0.0
  0
LINE
  5
297
  8
0
  6
CONTINUOUS
 62
     3
 10
-159.3572494749733
 20
11.32249119975
 30
0.0
 11
-143.357244951228
 21
13.32248707987395
 31
0.0
  0
LINE
  5
298
  8
0
  6
CONTINUOUS
 62
     3
 10
-159.3572313805855
 20
93.88749216798732
 30
0.0
 11
-143.3572419977998
 21
91.88749818047887
 31
0.0
  0
LINE
  5
299
  8
0
  6
CONTINUOUS
 62
     3
 10
-152.857237691667
 20
113.1449917960408
 30
0.0
 11
-152.857237691667
 21
96.86499301674388
 31
0.0
  0
LINE
  5
29A
  8
0
  6
CONTINUOUS
 62
     3
 10
-159.357237691667
 20
113.1449917960408
 30
0.0
 11
-152.857237691667
 21
113.1449917960408
 31
0.0
  0
LINE
  5
29B
  8
0
  6
CONTINUOUS
 62
     3
 10
-159.357237691667
 20
96.86499301674388
 30
0.0
 11
-152.857237691667
 21
96.86499301674388
 31
0.0
  0
LINE
  5
29C
  8
0
  6
CONTINUOUS
 62
     3
 10
-152.8572638864455
 20
110.1049973362173
 30
0.0
 11
-149.9127750100445
 21
105.0049936994732
 31
0.0
  0
LINE
  5
29D
  8
0
  6
CONTINUOUS
 62
     3
 10
-152.8572331745327
 20
99.90500906606007
 30
0.0
 11
-149.9127495433411
 21
105.0050036178363
 31
0.0
  0
LINE
  5
29E
  8
0
  6
CONTINUOUS
 62
     3
 10
-133.607237691667
 20
31.60499088051341
 30
0.0
 11
-110.607237691667
 21
31.60499088051341
 31
0.0
  0
LINE
  5
29F
  8
0
  6
CONTINUOUS
 62
     3
 10
-133.607237691667
 20
73.60499088051341
 30
0.0
 11
-110.607237691667
 21
73.60499088051341
 31
0.0
  0
LINE
  5
2A0
  8
0
  6
CONTINUOUS
 62
     3
 10
-110.607237691667
 20
27.35499088051341
 30
0.0
 11
-103.607237691667
 21
27.35499088051341
 31
0.0
  0
LINE
  5
2A1
  8
0
  6
CONTINUOUS
 62
     3
 10
-110.607237691667
 20
77.85499088051341
 30
0.0
 11
-103.607237691667
 21
77.85499088051341
 31
0.0
  0
LINE
  5
2A2
  8
0
  6
CONTINUOUS
 62
     3
 10
-102.607237691667
 20
31.60499088051341
 30
0.0
 11
-93.60723769166701
 21
31.60499088051341
 31
0.0
  0
LINE
  5
2A3
  8
0
  6
CONTINUOUS
 62
     3
 10
-102.607237691667
 20
73.60499088051341
 30
0.0
 11
-93.60723769166701
 21
73.60499088051341
 31
0.0
  0
LINE
  5
2A4
  8
0
  6
CONTINUOUS
 62
     3
 10
-102.607237691667
 20
74.8049878287556
 30
0.0
 11
-93.60723769166701
 21
74.8049878287556
 31
0.0
  0
LINE
  5
2A5
  8
0
  6
CONTINUOUS
 62
     3
 10
-102.607237691667
 20
78.40499393227123
 30
0.0
 11
-93.60723769166701
 21
78.40499393227123
 31
0.0
  0
LINE
  5
2A6
  8
0
  6
CONTINUOUS
 62
     3
 10
-98.60723769166701
 20
78.40499393227123
 30
0.0
 11
-98.60723769166701
 21
74.8049878287556
 31
0.0
  0
LINE
  5
2A7
  8
0
  6
CONTINUOUS
 62
     3
 10
-94.60723769166701
 20
78.40499393227123
 30
0.0
 11
-94.60723769166701
 21
74.8049878287556
 31
0.0
  0
CIRCLE
  5
2A8
  8
0
  6
CONTINUOUS
 62
     3
 10
52.6639907781249
 20
18.33283511879466
 30
0.0
 40
6.5
  0
CIRCLE
  5
2A9
  8
0
  6
CONTINUOUS
 62
     3
 10
66.65841369072255
 20
78.79754916908763
 30
0.0
 40
5.5
  0
LINE
  5
2AA
  8
0
  6
CONTINUOUS
 62
     3
 10
128.253752623856
 20
26.78098987279912
 30
0.0
 11
176.3940624385981
 21
-1.01284330923415
 31
0.0
  0
LINE
  5
2AB
  8
0
  6
CONTINUOUS
 62
     3
 10
142.5037605126034
 20
51.46270131698241
 30
0.0
 11
190.6440769345944
 21
23.66886432025051
 31
0.0
  0
LINE
  5
2AC
  8
0
  6
CONTINUOUS
 62
     3
 10
97.77512053886709
 20
135.1049985099079
 30
0.0
 11
126.2751205388671
 21
135.1049985099079
 31
0.0
  0
LINE
  5
2AD
  8
0
  6
CONTINUOUS
 62
     3
 10
126.2750826290643
 20
135.104889608521
 30
0.0
 11
134.0250690616371
 21
133.0282872242712
 31
0.0
  0
LINE
  5
2AE
  8
0
  6
CONTINUOUS
 62
     3
 10
97.77512244670116
 20
135.1049622247269
 30
0.0
 11
90.02512816646832
 21
133.0283593005376
 31
0.0
  0
LINE
  5
2AF
  8
0
  6
CONTINUOUS
 62
     3
 10
190.6886419563668
 20
23.64304553842379
 30
0.0
 11
192.7652477807964
 21
31.39304302514022
 31
0.0
  0
LINE
  5
2B0
  8
0
  6
CONTINUOUS
 62
     3
 10
176.3941186532692
 20
-1.012966019108326
 30
0.0
 11
190.6441165373038
 21
23.66875093850552
 31
0.0
  0
LINE
  5
2B1
  8
0
  6
CONTINUOUS
 62
     3
 10
170.7766732033336
 20
-6.71867983441377
 30
0.0
 11
176.4500682803658
 21
-1.045285235613001
 31
0.0
  0
LINE
  5
2B2
  8
0
  6
CONTINUOUS
 62
     3
 10
169.8850548473296
 20
-6.203794738573443
 30
0.0
 11
170.7766105857394
 21
-6.718534912893183
 31
0.0
  0
LINE
  5
2B3
  8
0
  6
CONTINUOUS
 62
     3
 10
191.8850759296405
 20
31.90131209202075
 30
0.0
 11
192.7652804144294
 21
31.39312556994712
 31
0.0
  0
LINE
  5
2B4
  8
0
  6
CONTINUOUS
 62
     3
 10
90.02512053886709
 20
133.0283841300251
 30
0.0
 11
90.02512053886709
 21
132.1175717520954
 31
0.0
  0
LINE
  5
2B5
  8
0
  6
CONTINUOUS
 62
     3
 10
134.0251205388671
 20
133.0283841300251
 30
0.0
 11
134.0251205388671
 21
132.1175717520954
 31
0.0
  0
LINE
  5
2B6
  8
0
  6
CONTINUOUS
 62
     3
 10
137.0347981215913
 20
31.81487971703876
 30
0.0
 11
143.9940944640333
 21
27.79692631477513
 31
0.0
  0
LINE
  5
2B7
  8
0
  6
CONTINUOUS
 62
     3
 10
142.5347830593481
 20
41.34115935418497
 30
0.0
 11
149.4940595800434
 21
37.32321739601724
 31
0.0
  0
LINE
  5
2B8
  8
0
  6
CONTINUOUS
 62
     3
 10
77.14898475018633
 20
48.92371270172884
 30
0.0
 11
81.52398574856419
 21
41.34598972871554
 31
0.0
  0
LINE
  5
2B9
  8
0
  6
CONTINUOUS
 62
     3
 10
132.65981672536
 20
24.2370484350194
 30
0.0
 11
137.0348248762961
 21
31.81478379662524
 31
0.0
  0
LINE
  5
2BA
  8
0
  6
CONTINUOUS
 62
     3
 10
87.02398640421528
 20
31.81971045806659
 30
0.0
 11
91.39898597208149
 21
24.2419899627718
 31
0.0
  0
LINE
  5
2BB
  8
0
  6
CONTINUOUS
 62
     3
 10
142.534814087854
 20
41.34104324552612
 30
0.0
 11
146.9098222387901
 21
48.91877860713196
 31
0.0
  0
LINE
  5
2BC
  8
0
  6
CONTINUOUS
 62
     3
 10
175.5729536308662
 20
9.564764115022108
 30
0.0
 11
181.0729504718196
 21
19.0910367784217
 31
0.0
  0
LINE
  5
2BD
  8
0
  6
CONTINUOUS
 62
     3
 10
140.0659137351389
 20
30.06478358800899
 30
0.0
 11
145.5659220201854
 21
39.59107607315666
 31
0.0
  0
LINE
  5
2BE
  8
0
  6
CONTINUOUS
 62
     3
 10
78.49285431673023
 20
39.59598696473409
 30
0.0
 11
83.99285306503246
 21
30.06971099770981
 31
0.0
  0
LINE
  5
2BF
  8
0
  6
CONTINUOUS
 62
     3
 10
74.56461667113011
 20
37.32802269082588
 30
0.0
 11
81.52392057877636
 21
41.34597823136635
 31
0.0
  0
LINE
  5
2C0
  8
0
  6
CONTINUOUS
 62
     3
 10
80.06463146515272
 20
27.801747090295
 30
0.0
 11
87.02392876554914
 21
31.81969881613843
 31
0.0
  0
LINE
  5
2C1
  8
0
  6
CONTINUOUS
 62
     3
 10
149.994097552279
 20
24.33282137718464
 30
0.0
 11
165.6447144654397
 21
15.29692947382403
 31
0.0
  0
LINE
  5
2C2
  8
0
  6
CONTINUOUS
 62
     3
 10
155.4940626682891
 20
33.85911245842674
 30
0.0
 11
171.1447258321922
 21
24.82319385217573
 31
0.0
  0
LINE
  5
2C3
  8
0
  6
CONTINUOUS
 62
     3
 10
177.14471570594
 20
21.3590965439825
 30
0.0
 11
186.2690621554747
 21
16.09115032408129
 31
0.0
  0
LINE
  5
2C4
  8
0
  6
CONTINUOUS
 62
     3
 10
171.6447043391876
 20
11.8328321656308
 30
0.0
 11
180.7690507887222
 21
6.564885945729593
 31
0.0
  0
LINE
  5
2C5
  8
0
  6
CONTINUOUS
 62
     3
 10
76.06462397530991
 20
27.80174390948553
 30
0.0
 11
77.8146282072406
 21
30.83283916696103
 31
0.0
  0
LINE
  5
2C6
  8
0
  6
CONTINUOUS
 62
     3
 10
77.81469362168052
 20
30.83286324629358
 30
0.0
 11
76.06469381539624
 21
33.86395459141425
 31
0.0
  0
LINE
  5
2C7
  8
0
  6
CONTINUOUS
 62
     3
 10
147.994014997604
 20
33.85903947702348
 30
0.0
 11
146.2440145803715
 21
30.82795082679689
 31
0.0
  0
LINE
  5
2C8
  8
0
  6
CONTINUOUS
 62
     3
 10
146.2440158501232
 20
30.82792853907397
 30
0.0
 11
147.9940155371988
 21
27.79683947161487
 31
0.0
  0
LINE
  5
2C9
  8
0
  6
CONTINUOUS
 62
     3
 10
147.9940536443359
 20
27.79685489418528
 30
0.0
 11
151.4940536443359
 21
27.79685489418528
 31
0.0
  0
LINE
  5
2CA
  8
0
  6
CONTINUOUS
 62
     3
 10
151.4940222380232
 20
27.79685650671575
 30
0.0
 11
153.2440226552557
 21
30.82794515694234
 31
0.0
  0
LINE
  5
2CB
  8
0
  6
CONTINUOUS
 62
     3
 10
153.2441759436542
 20
30.82802475505621
 30
0.0
 11
151.4941770910436
 21
33.85911444836409
 31
0.0
  0
LINE
  5
2CC
  8
0
  6
CONTINUOUS
 62
     3
 10
151.4940536443359
 20
33.85901157143137
 30
0.0
 11
147.9940536443359
 21
33.85901157143137
 31
0.0
  0
LINE
  5
2CD
  8
0
  6
CONTINUOUS
 62
     3
 10
169.6446578871995
 20
21.35908376968103
 30
0.0
 11
167.894657469967
 21
18.32799511945444
 31
0.0
  0
LINE
  5
2CE
  8
0
  6
CONTINUOUS
 62
     3
 10
167.8946740538758
 20
18.32791456009175
 30
0.0
 11
169.6446661115582
 21
15.29683870713227
 31
0.0
  0
LINE
  5
2CF
  8
0
  6
CONTINUOUS
 62
     3
 10
169.6446884099609
 20
15.29685107948802
 30
0.0
 11
173.1446884099609
 21
15.29685107948802
 31
0.0
  0
LINE
  5
2D0
  8
0
  6
CONTINUOUS
 62
     3
 10
173.1446304857089
 20
15.29690115131546
 30
0.0
 11
174.8946301727846
 21
18.32799021877457
 31
0.0
  0
LINE
  5
2D1
  8
0
  6
CONTINUOUS
 62
     3
 10
174.8946640699325
 20
18.32793455509584
 30
0.0
 11
173.1446681975534
 21
21.35901701530514
 31
0.0
  0
LINE
  5
2D2
  8
0
  6
CONTINUOUS
 62
     3
 10
173.1446679120385
 20
21.35900731024497
 30
0.0
 11
173.1425791976948
 21
21.36021132706349
 31
0.0
  0
LINE
  5
2D3
  8
0
  6
CONTINUOUS
 62
     3
 10
169.6446884099609
 20
21.35899631264231
 30
0.0
 11
173.1446884099609
 21
21.35899631264231
 31
0.0
  0
LINE
  5
2D4
  8
0
  6
CONTINUOUS
 62
     3
 10
98.02512053886709
 20
135.1049985099079
 30
0.0
 11
98.02512053886709
 21
79.70203677895091
 31
0.0
  0
LINE
  5
2D5
  8
0
  6
CONTINUOUS
 62
     3
 10
126.0251205388671
 20
135.1049985099079
 30
0.0
 11
126.0251205388671
 21
79.70203677895091
 31
0.0
  0
LINE
  5
2D6
  8
0
  6
CONTINUOUS
 62
     3
 10
117.5251205388671
 20
135.1049985099079
 30
0.0
 11
117.5251205388671
 21
124.5690945792439
 31
0.0
  0
LINE
  5
2D7
  8
0
  6
CONTINUOUS
 62
     3
 10
106.5251205388671
 20
135.1049985099079
 30
0.0
 11
106.5251205388671
 21
124.5690945792439
 31
0.0
  0
LINE
  5
2D8
  8
0
  6
CONTINUOUS
 62
     3
 10
98.02512053886709
 20
84.60499850990794
 30
0.0
 11
106.5251205388671
 21
84.60499850990794
 31
0.0
  0
LINE
  5
2D9
  8
0
  6
CONTINUOUS
 62
     3
 10
117.5251205388671
 20
84.60499850990794
 30
0.0
 11
126.0251205388671
 21
84.60499850990794
 31
0.0
  0
LINE
  5
2DA
  8
0
  6
CONTINUOUS
 62
     3
 10
106.5251205388671
 20
88.10499850990794
 30
0.0
 11
117.5251205388671
 21
88.10499850990794
 31
0.0
  0
LINE
  5
2DB
  8
0
  6
CONTINUOUS
 62
     3
 10
106.5251205388671
 20
129.1049985099079
 30
0.0
 11
117.5251205388671
 21
129.1049985099079
 31
0.0
  0
LINE
  5
2DC
  8
0
  6
CONTINUOUS
 62
     3
 10
106.5251205388671
 20
117.6408871817829
 30
0.0
 11
106.5251205388671
 21
99.56910220863841
 31
0.0
  0
LINE
  5
2DD
  8
0
  6
CONTINUOUS
 62
     3
 10
117.5251205388671
 20
117.6408871817829
 30
0.0
 11
117.5251205388671
 21
99.56910220863841
 31
0.0
  0
LINE
  5
2DE
  8
0
  6
CONTINUOUS
 62
     3
 10
117.5251205388671
 20
92.64089481117748
 30
0.0
 11
117.5251205388671
 21
84.60499850990794
 31
0.0
  0
LINE
  5
2DF
  8
0
  6
CONTINUOUS
 62
     3
 10
106.5251205388671
 20
92.64089481117748
 30
0.0
 11
106.5251205388671
 21
84.60499850990794
 31
0.0
  0
CIRCLE
  5
2E0
  8
0
  6
CONTINUOUS
 62
     3
 10
112.0251205388671
 20
52.60499088051341
 30
0.0
 40
27.0
  0
ARC
  5
2E1
  8
0
  6
CONTINUOUS
 62
     3
 10
112.0251205388671
 20
52.60499088051341
 30
0.0
 40
33.0
 50
115.1027303836484
 51
184.4169380810418
  0
ARC
  5
2E2
  8
0
  6
CONTINUOUS
 62
     3
 10
112.0251205388671
 20
52.60499088051341
 30
0.0
 40
82.5
 50
0.0
 51
80.22979938736845
  0
ARC
  5
2E3
  8
0
  6
CONTINUOUS
 62
     3
 10
112.0251205388671
 20
52.60499088051341
 30
0.0
 40
82.5
 50
339.9464160402281
 51
360.0
  0
CIRCLE
  5
2E4
  8
0
  6
CONTINUOUS
 62
     3
 10
112.0251205388671
 20
52.60499088051341
 30
0.0
 40
30.5
  0
ARC
  5
2E5
  8
0
  6
CONTINUOUS
 62
     3
 10
112.0251205388671
 20
52.60499088051341
 30
0.0
 40
81.0
 50
340.1325352800164
 51
440.0470440157464
  0
CIRCLE
  5
2E6
  8
0
  6
CONTINUOUS
 62
     3
 10
149.7440536443359
 20
30.82794467690012
 30
0.0
 40
6.5
  0
CIRCLE
  5
2E7
  8
0
  6
CONTINUOUS
 62
     3
 10
171.3946884099609
 20
18.32794086220286
 30
0.0
 40
6.5
  0
CIRCLE
  5
2E8
  8
0
  6
CONTINUOUS
 62
     3
 10
112.0251205388671
 20
0.2199925589802021
 30
0.0
 40
8.5
  0
ARC
  5
2E9
  8
0
  6
CONTINUOUS
 62
     3
 10
112.0251205388671
 20
52.60499088051341
 30
0.0
 40
33.0
 50
235.5830089470969
 51
304.4171021571626
  0
ARC
  5
2EA
  8
0
  6
CONTINUOUS
 62
     3
 10
112.0251205388671
 20
52.60499088051341
 30
0.0
 40
33.0
 50
355.5831224232015
 51
424.8972814554971
  0
CIRCLE
  5
2EB
  8
0
  6
CONTINUOUS
 62
     3
 10
157.3918502751952
 20
78.79750339272044
 30
0.0
 40
8.5
  0
ARC
  5
2EC
  8
0
  6
CONTINUOUS
 62
     3
 10
112.0251205388671
 20
52.60499088051341
 30
0.0
 40
32.40000152587891
 50
64.39916941970641
 51
115.6008424194391
  0
ARC
  5
2ED
  8
0
  6
CONTINUOUS
 62
     3
 10
112.0251205388671
 20
52.60499088051341
 30
0.0
 40
32.40000152587891
 50
183.9079013850448
 51
236.092062945938
  0
ARC
  5
2EE
  8
0
  6
CONTINUOUS
 62
     3
 10
112.0251205388671
 20
52.60499088051341
 30
0.0
 40
32.40000152587891
 50
303.9080379130378
 51
356.0921870942131
  0
CIRCLE
  5
2EF
  8
0
  6
CONTINUOUS
 62
     3
 10
157.3918502751952
 20
78.79750339272044
 30
0.0
 40
5.5
  0
CIRCLE
  5
2F0
  8
0
  6
CONTINUOUS
 62
     3
 10
112.0251205388671
 20
52.60499088051341
 30
0.0
 40
21.0
  0
CIRCLE
  5
2F1
  8
0
  6
CONTINUOUS
 62
     3
 10
89.02512053886709
 20
52.60499088051341
 30
0.0
 40
1.600000023841858
  0
CIRCLE
  5
2F2
  8
0
  6
CONTINUOUS
 62
     3
 10
135.0251205388671
 20
52.60499088051341
 30
0.0
 40
1.600000023841858
  0
CIRCLE
  5
2F3
  8
0
  6
CONTINUOUS
 62
     3
 10
112.0251205388671
 20
76.60499088051341
 30
0.0
 40
1.799999952316284
  0
CIRCLE
  5
2F4
  8
0
  6
CONTINUOUS
 62
     3
 10
91.24051360527334
 20
40.60499088051341
 30
0.0
 40
1.799999952316284
  0
CIRCLE
  5
2F5
  8
0
  6
CONTINUOUS
 62
     3
 10
132.8097274724609
 20
40.60499088051341
 30
0.0
 40
1.799999952316284
  0
LINE
  5
2F6
  8
0
  6
CONTINUOUS
 62
     3
 10
47.66464441072741
 20
-1.008039376688721
 30
0.0
 11
95.79651678676883
 21
26.78090702604293
 31
0.0
  0
LINE
  5
2F7
  8
0
  6
CONTINUOUS
 62
     3
 10
33.41462458614845
 20
23.67370643644352
 30
0.0
 11
81.54651017668951
 21
51.46266046856925
 31
0.0
  0
LINE
  5
2F8
  8
0
  6
CONTINUOUS
 62
     3
 10
58.41400187626606
 20
15.3017516500501
 30
0.0
 11
74.0646341582502
 21
24.33764741273824
 31
0.0
  0
LINE
  5
2F9
  8
0
  6
CONTINUOUS
 62
     3
 10
72.56463317314443
 20
27.80174533607981
 30
0.0
 11
76.06463317314443
 21
27.80174533607981
 31
0.0
  0
LINE
  5
2FA
  8
0
  6
CONTINUOUS
 62
     3
 10
76.06464080253896
 20
33.86394016029856
 30
0.0
 11
72.56464080253896
 21
33.86394016029856
 31
0.0
  0
ARC
  5
2FB
  8
0
  6
CONTINUOUS
 62
     3
 10
112.0251205388671
 20
52.60499088051341
 30
0.0
 40
82.5
 50
99.77021928196622
 51
200.0535360347621
  0
ARC
  5
2FC
  8
0
  6
CONTINUOUS
 62
     3
 10
112.0251205388671
 20
52.60499088051341
 30
0.0
 40
82.5
 50
219.9463973329983
 51
320.0535635070996
  0
ARC
  5
2FD
  8
0
  6
CONTINUOUS
 62
     3
 10
112.0251205388671
 20
52.60499088051341
 30
0.0
 40
81.0
 50
220.1325199878811
 51
319.8674442673113
  0
ARC
  5
2FE
  8
0
  6
CONTINUOUS
 62
     3
 10
112.0251205388671
 20
52.60499088051341
 30
0.0
 40
81.0
 50
99.95297465358826
 51
199.8674133798793
  0
CIRCLE
  5
2FF
  8
0
  6
CONTINUOUS
 62
     3
 10
74.31463317314443
 20
30.83283511879466
 30
0.0
 40
6.5
  0
CIRCLE
  5
300
  8
0
  6
CONTINUOUS
 62
     3
 10
66.65841369072255
 20
78.79754916908763
 30
0.0
 40
8.5
  0
LINE
  5
301
  8
0
  6
CONTINUOUS
 62
     3
 10
9.269445665050441
 20
-32.12441464903623
 30
0.0
 11
11.04987571738211
 21
-35.20820953603153
 31
0.0
  0
LINE
  5
302
  8
0
  6
CONTINUOUS
 62
     3
 10
17.26946372932558
 20
-45.98085847252205
 30
0.0
 11
23.33165549169654
 21
-42.48085081332567
 31
0.0
  0
LINE
  5
303
  8
0
  6
CONTINUOUS
 62
     3
 10
9.269464835830931
 20
-32.12443332412378
 30
0.0
 11
15.33164338370226
 21
-28.62443329432147
 31
0.0
  0
LINE
  5
304
  8
0
  6
CONTINUOUS
 62
     3
 10
9.269455313508715
 20
-32.12442119834402
 30
0.0
 11
9.269455313508715
 21
-36.4348917793987
 31
0.0
  0
LINE
  5
305
  8
0
  6
CONTINUOUS
 62
     3
 10
5.940784178741168
 20
-46.22835074548977
 30
0.0
 11
12.04447318653284
 21
-42.70438464312608
 31
0.0
  0
LINE
  5
306
  8
0
  6
CONTINUOUS
 62
     3
 10
6.144963195281989
 20
-46.63007966448783
 30
0.0
 11
12.26946338818071
 21
-43.09409822012791
 31
0.0
  0
LINE
  5
307
  8
0
  6
CONTINUOUS
 62
     3
 10
13.60519363003162
 20
-43.86527818276984
 30
0.0
 11
17.26946205458056
 21
-45.98084431033437
 31
0.0
  0
LINE
  5
308
  8
0
  6
CONTINUOUS
 62
     3
 10
15.51031974581251
 20
-42.93392415795029
 30
0.0
 11
17.2694447113759
 21
-45.98081755726458
 31
0.0
  0
LINE
  5
309
  8
0
  6
CONTINUOUS
 62
     3
 10
12.26945947264316
 20
-43.0940577925178
 30
0.0
 11
9.269461022364155
 21
-37.89790876669759
 31
0.0
  0
LINE
  5
30A
  8
0
  6
CONTINUOUS
 62
     3
 10
20.19669767152989
 20
-37.82444546054652
 30
0.0
 11
17.79669776689737
 21
-33.66752425771555
 31
0.0
  0
LINE
  5
30B
  8
0
  6
CONTINUOUS
 62
     3
 10
10.85292943787481
 20
-35.88675711122324
 30
0.0
 11
9.392596835925971
 21
-36.72988064770551
 31
0.0
  0
LINE
  5
30C
  8
0
  6
CONTINUOUS
 62
     3
 10
14.80292113494674
 20
-42.72834248165214
 30
0.0
 11
13.34258688118557
 21
-43.57146697180884
 31
0.0
  0
LINE
  5
30D
  8
0
  6
CONTINUOUS
 62
     3
 10
18.65484116883776
 20
-39.75386914861543
 30
0.0
 11
15.35484726043323
 21
-34.03811281854997
 31
0.0
  0
LINE
  5
30E
  8
0
  6
CONTINUOUS
 62
     3
 10
15.06383235266053
 20
-41.93405345132056
 30
0.0
 11
11.67123284239624
 21
-36.05789953576824
 31
0.0
  0
LINE
  5
30F
  8
0
  6
CONTINUOUS
 62
     3
 10
13.70595602501798
 20
-41.11001303005151
 30
0.0
 11
12.43104761732302
 21
-41.84608184338368
 31
0.0
  0
LINE
  5
310
  8
0
  6
CONTINUOUS
 62
     3
 10
11.7059593457606
 20
-37.64591382703851
 30
0.0
 11
10.43105258987798
 21
-38.38198168669624
 31
0.0
  0
LINE
  5
311
  8
0
  6
CONTINUOUS
 62
     3
 10
15.35485186298591
 20
-34.03812972906217
 30
0.0
 11
17.79671156207648
 21
-33.66755207537373
 31
0.0
  0
LINE
  5
312
  8
0
  6
CONTINUOUS
 62
     3
 10
20.19674374307543
 20
-37.82447675226326
 30
0.0
 11
18.65488635151097
 21
-39.75389833107176
 31
0.0
  0
LINE
  5
313
  8
0
  6
CONTINUOUS
 62
     3
 10
17.44535730845784
 20
-39.65897795108152
 30
0.0
 11
14.79933991844307
 21
-35.07594202246299
 31
0.0
  0
ARC
  5
314
  8
0
  6
CONTINUOUS
 62
     3
 10
13.36753880960247
 20
-38.99599560019949
 30
0.0
 40
3.0
 50
209.9999889956806
 51
251.8103021508074
  0
ARC
  5
315
  8
0
  6
CONTINUOUS
 62
     3
 10
10.76946294290325
 20
-40.49599560019949
 30
0.0
 40
3.0
 50
348.1896876796992
 51
431.8102730088179
  0
ARC
  5
316
  8
0
  6
CONTINUOUS
 62
     3
 10
13.36753880960247
 20
-38.99599560019949
 30
0.0
 40
3.0
 50
168.1896653678988
 51
209.9999716928365
  0
ARC
  5
317
  8
0
  6
CONTINUOUS
 62
     3
 10
17.00484502298137
 20
-36.89599712607839
 30
0.0
 40
3.299999952316284
 50
282.3602834779813
 51
299.9999710095912
  0
ARC
  5
318
  8
0
  6
CONTINUOUS
 62
     3
 10
17.00484502298137
 20
-36.89599712607839
 30
0.0
 40
3.299999952316284
 50
119.9999760185475
 51
137.6396772105358
  0
ARC
  5
319
  8
0
  6
CONTINUOUS
 62
     3
 10
17.82045018655559
 20
-43.11771496055105
 30
0.0
 40
3.0
 50
92.10684948604947
 51
156.7619665845238
  0
ARC
  5
31A
  8
0
  6
CONTINUOUS
 62
     3
 10
12.02446782571575
 20
-33.07877453086355
 30
0.0
 40
3.0
 50
263.2379941039933
 51
327.8898190512877
  0
ARC
  5
31B
  8
0
  6
CONTINUOUS
 62
     3
 10
14.05750310403606
 20
-42.0617457222698
 30
0.0
 40
1.0
 50
50.71543866290864
 51
119.9999760185475
  0
ARC
  5
31C
  8
0
  6
CONTINUOUS
 62
     3
 10
14.05750310403606
 20
-42.0617457222698
 30
0.0
 40
1.0
 50
318.194864128264
 51
369.2845220256085
  0
ARC
  5
31D
  8
0
  6
CONTINUOUS
 62
     3
 10
11.05750310403606
 20
-36.86559398887136
 30
0.0
 40
1.0
 50
299.9999710095912
 51
369.2845220256085
  0
ARC
  5
31E
  8
0
  6
CONTINUOUS
 62
     3
 10
11.05750310403606
 20
-36.86559398887136
 30
0.0
 40
1.0
 50
50.71543866290864
 51
101.8050897300639
  0
ARC
  5
31F
  8
0
  6
CONTINUOUS
 62
     3
 10
13.13800466043254
 20
-42.59262188193777
 30
0.0
 40
1.0
 50
209.9999889956806
 51
281.8051257022426
  0
ARC
  5
320
  8
0
  6
CONTINUOUS
 62
     3
 10
10.13800084573528
 20
-37.39646633384206
 30
0.0
 40
1.0
 50
209.9999889956806
 51
299.9999710095912
  0
ARC
  5
321
  8
0
  6
CONTINUOUS
 62
     3
 10
13.13800466043254
 20
-42.59262188193777
 30
0.0
 40
1.0
 50
119.9999760185475
 51
209.9999716928365
  0
ARC
  5
322
  8
0
  6
CONTINUOUS
 62
     3
 10
10.13800084573528
 20
-37.39646633384206
 30
0.0
 40
1.0
 50
138.1948349862745
 51
209.9999716928365
  0
ARC
  5
323
  8
0
  6
CONTINUOUS
 62
     3
 10
18.58284413797161
 20
-35.98493679282644
 30
0.0
 40
1.200000047683716
 50
323.4679614128106
 51
456.5320061058957
  0
LINE
  5
324
  8
0
  6
CONTINUOUS
 62
     3
 10
80.02512967569133
 20
114.0691060233357
 30
0.0
 11
84.02512967569133
 21
114.0691060233357
 31
0.0
  0
LINE
  5
325
  8
0
  6
CONTINUOUS
 62
     3
 10
78.79564515298704
 20
1.088324725409557
 30
0.0
 11
80.79564515298704
 21
-2.3757768275537
 31
0.0
  0
LINE
  5
326
  8
0
  6
CONTINUOUS
 62
     3
 10
74.79563748819133
 20
1.088253896260476
 30
0.0
 11
78.79563748819133
 21
1.088253896260476
 31
0.0
  0
LINE
  5
327
  8
0
  6
CONTINUOUS
 62
     3
 10
72.79561233450373
 20
-2.375771580259489
 30
0.0
 11
74.7956137650152
 21
1.088329257448031
 31
0.0
  0
CIRCLE
  5
328
  8
0
  6
CONTINUOUS
 62
     3
 10
76.79564511758586
 20
-2.375777323221946
 30
0.0
 40
2.400000095367432
  0
CIRCLE
  5
329
  8
0
  6
CONTINUOUS
 62
     3
 10
76.79564511758586
 20
-2.375777323221946
 30
0.0
 40
0.75
  0
LINE
  5
32A
  8
0
  6
CONTINUOUS
 62
     3
 10
175.254672420854
 20
46.12167158159712
 30
0.0
 11
173.254672420854
 21
49.58577313456038
 31
0.0
  0
LINE
  5
32B
  8
0
  6
CONTINUOUS
 62
     3
 10
179.2546218631914
 20
46.12160197975657
 30
0.0
 11
175.2546218631914
 21
46.12160197975657
 31
0.0
  0
LINE
  5
32C
  8
0
  6
CONTINUOUS
 62
     3
 10
181.2546064924198
 20
49.58574706164011
 30
0.0
 11
179.2546064924198
 21
46.12164550867686
 31
0.0
  0
CIRCLE
  5
32D
  8
0
  6
CONTINUOUS
 62
     3
 10
177.2546066044023
 20
49.58574764015696
 30
0.0
 40
0.75
  0
LINE
  5
32E
  8
0
  6
CONTINUOUS
 62
     3
 10
11.33164803674056
 20
-21.69620983107669
 30
0.0
 11
18.20732787249865
 21
-33.60523500977414
 31
0.0
  0
LINE
  5
32F
  8
0
  6
CONTINUOUS
 62
     3
 10
3.334204539543734
 20
-41.84427145814403
 30
0.0
 11
9.4944598648202
 21
-38.28764678076161
 31
0.0
  0
LINE
  5
330
  8
0
  6
CONTINUOUS
 62
     3
 10
3.109217011852579
 20
-41.45457395666461
 30
0.0
 11
9.269473988941499
 21
-37.89794832560794
 31
0.0
  0
LINE
  5
331
  8
0
  6
CONTINUOUS
 62
     3
 10
20.45600444061059
 20
-37.50005654132955
 30
0.0
 11
28.03089548032661
 21
-50.62015088439629
 31
0.0
  0
LINE
  5
332
  8
0
  6
CONTINUOUS
 62
     3
 10
78.0251275066572
 20
110.604998504659
 30
0.0
 11
80.02512798349436
 21
114.0690998192037
 31
0.0
  0
LINE
  5
333
  8
0
  6
CONTINUOUS
 62
     3
 10
84.02515745133847
 20
114.0691350412782
 30
0.0
 11
86.025156020827
 21
110.6050325346407
 31
0.0
  0
CIRCLE
  5
334
  8
0
  6
CONTINUOUS
 62
     3
 10
82.02512967569133
 20
110.6050023246052
 30
0.0
 40
8.0
  0
CIRCLE
  5
335
  8
0
  6
CONTINUOUS
 62
     3
 10
82.02512967569133
 20
110.6050023246052
 30
0.0
 40
2.400000095367432
  0
CIRCLE
  5
336
  8
0
  6
CONTINUOUS
 62
     3
 10
82.02512967569133
 20
110.6050023246052
 30
0.0
 40
3.299999952316284
  0
CIRCLE
  5
337
  8
0
  6
CONTINUOUS
 62
     3
 10
82.02512967569133
 20
110.6050023246052
 30
0.0
 40
0.75
  0
LINE
  5
338
  8
0
  6
CONTINUOUS
 62
     3
 10
84.02512967569133
 20
107.1408986258747
 30
0.0
 11
80.02512967569133
 21
107.1408986258747
 31
0.0
  0
LINE
  5
339
  8
0
  6
CONTINUOUS
 62
     3
 10
86.02514498748711
 20
110.6050040858258
 30
0.0
 11
84.02514260330132
 21
107.1409037249554
 31
0.0
  0
LINE
  5
33A
  8
0
  6
CONTINUOUS
 62
     3
 10
80.02518434086356
 20
107.1409450163848
 30
0.0
 11
78.02518529453788
 21
110.6050470461852
 31
0.0
  0
LINE
  5
33B
  8
0
  6
CONTINUOUS
 62
     3
 10
80.79557987607346
 20
-2.375755749488981
 30
0.0
 11
78.79557892239915
 21
-5.83985682561508
 31
0.0
  0
LINE
  5
33C
  8
0
  6
CONTINUOUS
 62
     3
 10
74.79564495541273
 20
-5.839878618935536
 30
0.0
 11
72.79564495541273
 21
-2.375777065972279
 31
0.0
  0
CIRCLE
  5
33D
  8
0
  6
CONTINUOUS
 62
     3
 10
76.79564511758586
 20
-2.375777323221946
 30
0.0
 40
8.0
  0
CIRCLE
  5
33E
  8
0
  6
CONTINUOUS
 62
     3
 10
76.79564511758586
 20
-2.375777323221946
 30
0.0
 40
3.299999952316284
  0
LINE
  5
33F
  8
0
  6
CONTINUOUS
 62
     3
 10
78.79564511758586
 20
-5.839894373392845
 30
0.0
 11
74.79564511758586
 21
-5.839894373392845
 31
0.0
  0
LINE
  5
340
  8
0
  6
CONTINUOUS
 62
     3
 10
173.2546029912209
 20
49.58574920740733
 30
0.0
 11
175.2546029912209
 21
53.04985076037058
 31
0.0
  0
LINE
  5
341
  8
0
  6
CONTINUOUS
 62
     3
 10
179.2546192493609
 20
53.04985292296208
 30
0.0
 11
181.2546192493609
 21
49.58575136999883
 31
0.0
  0
CIRCLE
  5
342
  8
0
  6
CONTINUOUS
 62
     3
 10
177.2546066044023
 20
49.58574764015696
 30
0.0
 40
8.0
  0
CIRCLE
  5
343
  8
0
  6
CONTINUOUS
 62
     3
 10
177.2546066044023
 20
49.58574764015696
 30
0.0
 40
2.400000095367432
  0
CIRCLE
  5
344
  8
0
  6
CONTINUOUS
 62
     3
 10
177.2546066044023
 20
49.58574764015696
 30
0.0
 40
3.299999952316284
  0
LINE
  5
345
  8
0
  6
CONTINUOUS
 62
     3
 10
175.2546218631914
 20
53.04977123024485
 30
0.0
 11
179.2546218631914
 21
53.04977123024485
 31
0.0
  0
LINE
  5
346
  8
0
  6
CONTINUOUS
 62
     3
 10
-96.35723769166701
 20
104.1049908805134
 30
0.0
 11
-81.85723769166701
 21
104.1049908805134
 31
0.0
  0
LINE
  5
347
  8
0
  6
CONTINUOUS
 62
     3
 10
-96.35723769166701
 20
113.1049985099079
 30
0.0
 11
-81.85723769166701
 21
113.1049985099079
 31
0.0
  0
LINE
  5
348
  8
0
  6
CONTINUOUS
 62
     3
 10
-96.35723769166701
 20
129.1049985099079
 30
0.0
 11
-96.35723769166701
 21
113.1049985099079
 31
0.0
  0
LINE
  5
349
  8
0
  6
CONTINUOUS
 62
     3
 10
-96.35723769166701
 20
104.1049908805134
 30
0.0
 11
-96.35723769166701
 21
88.10499088051341
 31
0.0
  0
LINE
  5
34A
  8
0
  6
CONTINUOUS
 62
     3
 10
-81.85723769166701
 20
117.1049985099079
 30
0.0
 11
-81.85723769166701
 21
113.1049985099079
 31
0.0
  0
LINE
  5
34B
  8
0
  6
CONTINUOUS
 62
     3
 10
-81.85723769166701
 20
104.1049908805134
 30
0.0
 11
-81.85723769166701
 21
100.1049908805134
 31
0.0
  0
LINE
  5
34C
  8
0
  6
CONTINUOUS
 62
     3
 10
106.5251205388671
 20
104.1049985099079
 30
0.0
 11
117.5251205388671
 21
104.1049985099079
 31
0.0
  0
LINE
  5
34D
  8
0
  6
CONTINUOUS
 62
     3
 10
106.5251205388671
 20
113.1049985099079
 30
0.0
 11
117.5251205388671
 21
113.1049985099079
 31
0.0
  0
LINE
  5
34E
  8
0
  6
CONTINUOUS
 62
     3
 10
70.17502478336716
 20
22.09172082062543
 30
0.0
 11
64.67502478336716
 21
31.61800026225424
 31
0.0
  0
LINE
  5
34F
  8
0
  6
CONTINUOUS
 62
     3
 10
62.38079614930722
 20
17.59172082062543
 30
0.0
 11
56.88079614930722
 21
27.11800026225424
 31
0.0
  0
LINE
  5
350
  8
0
  6
CONTINUOUS
 62
     3
 10
159.3756545876633
 20
31.61825331100683
 30
0.0
 11
153.8756545876633
 21
22.09197386937801
 31
0.0
  0
LINE
  5
351
  8
0
  6
CONTINUOUS
 62
     3
 10
167.1698832217232
 20
27.11825331100683
 30
0.0
 11
161.6698832217232
 21
17.59197386937801
 31
0.0
  0
LINE
  5
352
  8
0
  6
CONTINUOUS
 62
     3
 10
-90.35723769166701
 20
135.1049985099079
 30
0.0
 11
-90.35723769166701
 21
129.1049985099079
 31
0.0
  0
LINE
  5
353
  8
0
  6
CONTINUOUS
 62
     3
 10
-90.35723769166701
 20
113.1049985099079
 30
0.0
 11
-90.35723769166701
 21
104.1049908805134
 31
0.0
  0
LINE
  5
354
  8
0
  6
CONTINUOUS
 62
     3
 10
-82.35723769166701
 20
132.983675878072
 30
0.0
 11
-82.35723769166701
 21
129.1049985099079
 31
0.0
  0
LINE
  5
355
  8
0
  6
CONTINUOUS
 62
     3
 10
-82.35723769166701
 20
113.1049985099079
 30
0.0
 11
-82.35723769166701
 21
104.1049908805134
 31
0.0
  0
LINE
  5
356
  8
0
  6
DASHED2
 62
     7
 10
72.02512053886709
 20
124.7593411612751
 30
0.0
 11
72.02512053886709
 21
99.60499088051341
 31
0.0
  0
LINE
  5
357
  8
0
  6
DASHED2
 62
     7
 10
44.2220962468749
 20
99.60499088051341
 30
0.0
 11
72.02512053886709
 21
99.60499088051341
 31
0.0
  0
LINE
  5
358
  8
0
  6
DASHED2
 62
     7
 10
62.49811248222646
 20
113.0049924063923
 30
0.0
 11
62.49811248222646
 21
108.204996984029
 31
0.0
  0
LINE
  5
359
  8
0
  6
DASHED2
 62
     7
 10
69.62121276298818
 20
106.6550015616658
 30
0.0
 11
71.30746154228505
 21
106.6550015616658
 31
0.0
  0
LINE
  5
35A
  8
0
  6
DASHED2
 62
     7
 10
69.62121276298818
 20
114.5549954581501
 30
0.0
 11
71.30746154228505
 21
114.5549954581501
 31
0.0
  0
LINE
  5
35B
  8
0
  6
DASHED2
 62
     7
 10
64.79811553398427
 20
113.9050015616658
 30
0.0
 11
64.79811553398427
 21
107.3049954581501
 31
0.0
  0
LINE
  5
35C
  8
0
  6
DASHED2
 62
     7
 10
68.99811248222646
 20
113.9975766349079
 30
0.0
 11
68.99811248222646
 21
107.2123822379353
 31
0.0
  0
LINE
  5
35D
  8
0
  6
DASHED2
 62
     7
 10
69.76204375664052
 20
112.6049985099079
 30
0.0
 11
71.2341812078124
 21
112.6049985099079
 31
0.0
  0
LINE
  5
35E
  8
0
  6
DASHED2
 62
     7
 10
69.76204375664052
 20
108.6049985099079
 30
0.0
 11
71.2341812078124
 21
108.6049985099079
 31
0.0
  0
LINE
  5
35F
  8
0
  6
DASHED2
 62
     7
 10
64.79814225743336
 20
107.3050396538432
 30
0.0
 11
62.49814186202217
 21
108.205039606952
 31
0.0
  0
LINE
  5
360
  8
0
  6
DASHED2
 62
     7
 10
62.49809637488794
 20
113.0050533556973
 30
0.0
 11
64.79809677029913
 21
113.9050533088061
 31
0.0
  0
LINE
  5
361
  8
0
  6
DASHED2
 62
     7
 10
65.79811553398427
 20
113.2180661368611
 30
0.0
 11
65.79811553398427
 21
107.9260434317829
 31
0.0
  0
ARC
  5
362
  8
0
  6
DASHED2
 62
     7
 10
68.99811248222646
 20
110.6049985099079
 30
0.0
 40
3.0
 50
0.0
 51
41.81031315512688
  0
ARC
  5
363
  8
0
  6
DASHED2
 62
     7
 10
71.99811248222646
 20
110.6049985099079
 30
0.0
 40
3.0
 50
138.1896986840186
 51
221.8102840131373
  0
ARC
  5
364
  8
0
  6
DASHED2
 62
     7
 10
68.99811248222646
 20
110.6049985099079
 30
0.0
 40
3.0
 50
318.1896868448731
 51
360.0
  0
ARC
  5
365
  8
0
  6
DASHED2
 62
     7
 10
64.79811553398427
 20
110.6049985099079
 30
0.0
 40
3.299999952316284
 50
72.3602944823007
 51
89.99998201391065
  0
ARC
  5
366
  8
0
  6
DASHED2
 62
     7
 10
64.79811553398427
 20
110.6049985099079
 30
0.0
 40
3.299999952316284
 50
270.0000179860894
 51
287.6397055176993
  0
ARC
  5
367
  8
0
  6
DASHED2
 62
     7
 10
67.20263366142568
 20
116.4009579825642
 30
0.0
 40
3.0
 50
242.1068914535913
 51
306.7619948916872
  0
ARC
  5
368
  8
0
  6
DASHED2
 62
     7
 10
67.20263366142568
 20
104.809000890279
 30
0.0
 40
3.0
 50
53.23800510831277
 51
117.8898300556071
  0
ARC
  5
369
  8
0
  6
DASHED2
 62
     7
 10
69.93346099296865
 20
113.6049985099079
 30
0.0
 40
1.0
 50
200.7154669700721
 51
270.0000179860894
  0
ARC
  5
36A
  8
0
  6
DASHED2
 62
     7
 10
69.93346099296865
 20
113.6049985099079
 30
0.0
 40
1.0
 50
108.1948751325834
 51
159.2845330299279
  0
ARC
  5
36B
  8
0
  6
DASHED2
 62
     7
 10
69.93346099296865
 20
107.6049985099079
 30
0.0
 40
1.0
 50
89.99998201391065
 51
159.2845330299279
  0
ARC
  5
36C
  8
0
  6
DASHED2
 62
     7
 10
69.93346099296865
 20
107.6049985099079
 30
0.0
 40
1.0
 50
200.7154669700721
 51
251.8051248674166
  0
ARC
  5
36D
  8
0
  6
DASHED2
 62
     7
 10
70.99520568291005
 20
113.6049985099079
 30
0.0
 40
1.0
 50
0.0
 51
71.80513670656207
  0
ARC
  5
36E
  8
0
  6
DASHED2
 62
     7
 10
70.99520568291005
 20
107.6049985099079
 30
0.0
 40
1.0
 50
0.0
 51
89.99998201391065
  0
ARC
  5
36F
  8
0
  6
DASHED2
 62
     7
 10
70.99520568291005
 20
113.6049985099079
 30
0.0
 40
1.0
 50
270.0000179860894
 51
360.0
  0
ARC
  5
370
  8
0
  6
DASHED2
 62
     7
 10
70.99520568291005
 20
107.6049985099079
 30
0.0
 40
1.0
 50
288.194863293438
 51
360.0
  0
ARC
  5
371
  8
0
  6
DASHED2
 62
     7
 10
62.97599486748037
 20
110.6049985099079
 30
0.0
 40
1.200000047683716
 50
113.46797241713
 51
246.5320171102151
  0
LINE
  5
372
  8
0
  6
DASHED2
 62
     7
 10
72.02512053886709
 20
116.6049985099079
 30
0.0
 11
79.89100341240224
 21
116.6049985099079
 31
0.0
  0
LINE
  5
373
  8
0
  6
DASHED2
 62
     7
 10
72.02512053886709
 20
104.6049985099079
 30
0.0
 11
80.17751006523427
 21
104.6049985099079
 31
0.0
  0
LINE
  5
374
  8
0
  6
DASHED2
 62
     7
 10
163.5855997022477
 20
86.29947544909038
 30
0.0
 11
181.711495592548
 21
96.76446632065839
 31
0.0
  0
LINE
  5
375
  8
0
  6
DASHED2
 62
     7
 10
167.6157267211699
 20
89.31909069136103
 30
0.0
 11
181.4077248863491
 21
97.28190454469009
 31
0.0
  0
LINE
  5
376
  8
0
  6
DASHED2
 62
     7
 10
171.6157267211699
 20
82.39088746108553
 30
0.0
 11
167.6157267211699
 21
89.31909069136103
 31
0.0
  0
LINE
  5
377
  8
0
  6
DASHED2
 62
     7
 10
166.9855997022477
 20
80.41050270335617
 30
0.0
 11
163.5855997022477
 21
86.29947544909038
 31
0.0
  0
LINE
  5
378
  8
0
  6
DASHED2
 62
     7
 10
163.5855997022477
 20
86.29947544909015
 30
0.0
 11
163.5855997022477
 21
82.37349361860103
 31
0.0
  0
LINE
  5
379
  8
0
  6
DASHED2
 62
     7
 10
166.9855997022477
 20
80.41050270335617
 30
0.0
 11
185.1256213378547
 21
90.88364907777958
 31
0.0
  0
LINE
  5
37A
  8
0
  6
DASHED2
 62
     7
 10
166.9856122268914
 20
80.4104810100396
 30
0.0
 11
163.5856122268917
 21
82.37347192528415
 31
0.0
  0
LINE
  5
37B
  8
0
  6
DASHED2
 62
     7
 10
166.9855997022475
 20
80.41050270335629
 30
0.0
 11
163.5855997022478
 21
82.37349361860083
 31
0.0
  0
LINE
  5
37C
  8
0
  6
DASHED2
 62
     7
 10
171.6157267211699
 20
82.39088746108553
 30
0.0
 11
185.4077263430523
 21
90.35370215544251
 31
0.0
  0
LINE
  5
37D
  8
0
  6
DASHED2
 62
     7
 10
-123.257237691667
 20
-8.895009119486595
 30
0.0
 11
-116.457237691667
 21
-8.895009119486595
 31
0.0
  0
LINE
  5
37E
  8
0
  6
DASHED2
 62
     7
 10
-123.857237691667
 20
-13.8950091194866
 30
0.0
 11
-115.857237691667
 21
-13.8950091194866
 31
0.0
  0
LINE
  5
37F
  8
0
  6
DASHED2
 62
     7
 10
-123.857237691667
 20
-13.8950091194866
 30
0.0
 11
-123.857237691667
 21
-29.8950091194866
 31
0.0
  0
LINE
  5
380
  8
0
  6
DASHED2
 62
     7
 10
-123.257237691667
 20
-8.895009119486595
 30
0.0
 11
-123.257237691667
 21
-29.8950091194866
 31
0.0
  0
LINE
  5
381
  8
0
  6
DASHED2
 62
     7
 10
-116.457237691667
 20
-8.895009119486595
 30
0.0
 11
-116.457237691667
 21
-29.8950091194866
 31
0.0
  0
LINE
  5
382
  8
0
  6
DASHED2
 62
     7
 10
-123.2572376916668
 20
-8.895009119486481
 30
0.0
 11
-119.8572376916671
 21
-6.932018204241928
 31
0.0
  0
LINE
  5
383
  8
0
  6
DASHED2
 62
     7
 10
-116.4572376916672
 20
-8.895009119486481
 30
0.0
 11
-119.8572376916669
 21
-6.932018204241928
 31
0.0
  0
LINE
  5
384
  8
0
  6
DASHED2
 62
     7
 10
-115.857237691667
 20
-13.8950091194866
 30
0.0
 11
-115.857237691667
 21
-29.8950091194866
 31
0.0
  0
LINE
  5
385
  8
0
  6
CENTER
 62
     7
 10
48.02761176559368
 20
26.36333340155465
 30
0.0
 11
57.39038057810318
 21
10.1465443430215
 31
0.0
  0
LINE
  5
386
  8
0
  6
CENTER
 62
     7
 10
-100.9673603723311
 20
121.1049985099079
 30
0.0
 11
-64.15142714479201
 21
121.1049985099079
 31
0.0
  0
LINE
  5
387
  8
0
  6
CENTER
 62
     7
 10
-178.7433918664717
 20
0.2199925589802021
 30
0.0
 11
-77.32134901979201
 21
0.2199925589802021
 31
0.0
  0
LINE
  5
388
  8
0
  6
CENTER
 62
     7
 10
-105.8327625940108
 20
14.60499088051341
 30
0.0
 11
-79.92205702760451
 21
14.60499088051341
 31
0.0
  0
LINE
  5
389
  8
0
  6
CENTER
 62
     7
 10
-167.2984913537764
 20
52.60499088051341
 30
0.0
 11
-76.16755568483107
 21
52.60499088051341
 31
0.0
  0
LINE
  5
38A
  8
0
  6
CENTER
 62
     7
 10
-100.6680439660811
 20
96.10499088051341
 30
0.0
 11
-64.45074355104201
 21
96.10499088051341
 31
0.0
  0
LINE
  5
38B
  8
0
  6
CENTER
 62
     7
 10
-197.8277271936202
 20
105.0049924063923
 30
0.0
 11
-146.2485645959639
 21
105.0049924063923
 31
0.0
  0
LINE
  5
38C
  8
0
  6
CENTER
 62
     7
 10
-104.7527149865889
 20
76.60499088051341
 30
0.0
 11
-90.45592390992873
 21
76.60499088051341
 31
0.0
  0
LINE
  5
38D
  8
0
  6
CENTER
 62
     7
 10
112.0251525937646
 20
52.60505672322318
 30
0.0
 11
187.3266997861728
 21
9.129668860765314
 31
0.0
  0
LINE
  5
38E
  8
0
  6
CENTER
 62
     7
 10
112.0251205388671
 20
142.7297085929158
 30
0.0
 11
112.0251205388671
 21
-37.99889477012136
 31
0.0
  0
LINE
  5
38F
  8
0
  6
CENTER
 62
     7
 10
139.6448041975527
 20
68.55123820315561
 30
0.0
 11
168.782775884858
 21
85.37405214184395
 31
0.0
  0
LINE
  5
390
  8
0
  6
CENTER
 62
     7
 10
166.1290776782756
 20
9.207522521423861
 30
0.0
 11
175.9854822040805
 21
26.27931359854522
 31
0.0
  0
LINE
  5
391
  8
0
  6
CENTER
 62
     7
 10
144.6522825620704
 20
22.00862297216866
 30
0.0
 11
154.2128229473809
 21
38.56796239610269
 31
0.0
  0
LINE
  5
392
  8
0
  6
CENTER
 62
     7
 10
101.9522598210937
 20
121.1049985099079
 30
0.0
 11
121.7214401189452
 21
121.1049985099079
 31
0.0
  0
LINE
  5
393
  8
0
  6
CENTER
 62
     7
 10
101.9522598210937
 20
96.10499850990794
 30
0.0
 11
122.0079544011718
 21
96.10499850990794
 31
0.0
  0
LINE
  5
394
  8
0
  6
CENTER
 62
     7
 10
108.7815368596679
 20
76.60499088051341
 30
0.0
 11
115.0991561833983
 21
76.60499088051341
 31
0.0
  0
LINE
  5
395
  8
0
  6
CENTER
 62
     7
 10
89.02512053886709
 20
57.60499088051341
 30
0.0
 11
89.02512053886709
 21
47.60499088051341
 31
0.0
  0
LINE
  5
396
  8
0
  6
CENTER
 62
     7
 10
135.0251205388671
 20
57.60499088051341
 30
0.0
 11
135.0251205388671
 21
47.60499088051341
 31
0.0
  0
LINE
  5
397
  8
0
  6
CENTER
 62
     7
 10
92.86229786965428
 20
37.79596612507924
 30
0.0
 11
89.70348916146337
 21
43.26718320085825
 31
0.0
  0
LINE
  5
398
  8
0
  6
CENTER
 62
     7
 10
134.431515609568
 20
43.41401182005205
 30
0.0
 11
131.2727097624
 21
37.94279969971006
 31
0.0
  0
ARC
  5
399
  8
0
  6
CENTER
 62
     7
 10
112.0251205388671
 20
52.60499088051341
 30
0.0
 40
52.3849983215332
 50
15.64541060529692
 51
45.50230019399099
  0
ARC
  5
39A
  8
0
  6
CENTER
 62
     7
 10
112.0251205388671
 20
52.60499088051341
 30
0.0
 40
38.0
 50
141.2169751279517
 51
157.7055025768477
  0
ARC
  5
39B
  8
0
  6
CENTER
 62
     7
 10
112.0251205388671
 20
52.60499088051341
 30
0.0
 40
52.3849983215332
 50
256.5003471670451
 51
285.6206947688544
  0
ARC
  5
39C
  8
0
  6
CENTER
 62
     7
 10
112.0251205388671
 20
52.60499088051341
 30
0.0
 40
38.0
 50
261.6747345577066
 51
278.618897095945
  0
ARC
  5
39D
  8
0
  6
CENTER
 62
     7
 10
112.0251205388671
 20
52.60499088051341
 30
0.0
 40
38.0
 50
21.78109248012443
 51
37.90888861064809
  0
LINE
  5
39E
  8
0
  6
CENTER
 62
     7
 10
36.10244036872972
 20
8.771033178687212
 30
0.0
 11
112.0251058381509
 21
52.60499968218999
 31
0.0
  0
LINE
  5
39F
  8
0
  6
CENTER
 62
     7
 10
84.52850250674293
 20
68.48025987834188
 30
0.0
 11
54.73698914292588
 21
85.68040049763636
 31
0.0
  0
LINE
  5
3A0
  8
0
  6
CENTER
 62
     7
 10
69.83973584061612
 20
38.58365765561643
 30
0.0
 11
78.93180798084141
 21
22.83572892261162
 31
0.0
  0
LINE
  5
3A1
  8
0
  6
CENTER
 62
     7
 10
22.27042846123037
 20
52.60499088051341
 30
0.0
 11
201.914006036914
 21
52.60499088051341
 31
0.0
  0
LINE
  5
3A2
  8
0
  6
CENTER
 62
     7
 10
59.39586333671865
 20
110.6049985099079
 30
0.0
 11
93.06771410855467
 21
110.6049985099079
 31
0.0
  0
ARC
  5
3A3
  8
0
  6
CENTER
 62
     7
 10
112.0251205388671
 20
52.60499088051341
 30
0.0
 40
52.3849983215332
 50
136.3466131176257
 51
164.7316362137698
  0
LINE
  5
3A4
  8
0
  6
CENTER
 62
     7
 10
1.593229354108516
 20
-45.79391372294101
 30
0.0
 11
25.39944229474433
 21
-32.04939179180075
 31
0.0
  0
LINE
  5
3A5
  8
0
  6
CENTER
 62
     7
 10
82.02512967569133
 20
122.4896611380818
 30
0.0
 11
82.02512967569133
 21
98.81759540321849
 31
0.0
  0
LINE
  5
3A6
  8
0
  6
CENTER
 62
     7
 10
82.42064670601222
 20
-12.11856161079783
 30
0.0
 11
71.04323528252128
 21
7.587692679610608
 31
0.0
  0
LINE
  5
3A7
  8
0
  6
CENTER
 62
     7
 10
66.50323044296157
 20
-8.318105399826955
 30
0.0
 11
87.0038436650833
 21
3.517929374953319
 31
0.0
  0
LINE
  5
3A8
  8
0
  6
CENTER
 62
     7
 10
182.9669717311498
 20
59.47984255515114
 30
0.0
 11
171.6756199426349
 21
39.9226479223268
 31
0.0
  0
LINE
  5
3A9
  8
0
  6
CENTER
 62
     7
 10
187.5470276121204
 20
43.64341491308817
 30
0.0
 11
167.046411086374
 21
55.47945159521708
 31
0.0
  0
LINE
  5
3AA
  8
0
  6
CENTER
 62
     7
 10
-119.857237691667
 20
-5.801231966759476
 30
0.0
 11
-119.857237691667
 21
-33.14715004509745
 31
0.0
  0
LINE
  5
3AB
  8
0
  6
DIVIDE
 62
     9
 10
-84.85723769166701
 20
82.10499088051341
 30
0.0
 11
-84.85723769166701
 21
76.92895023109935
 31
0.0
  0
LINE
  5
3AC
  8
0
  6
DIVIDE
 62
     9
 10
-142.3572834680342
 20
82.10499088051341
 30
0.0
 11
-142.3572834680342
 21
56.68014804604075
 31
0.0
  0
LINE
  5
3AD
  8
0
  6
DIVIDE
 62
     9
 10
-142.3572518432213
 20
82.10497517174048
 30
0.0
 11
-141.3572507816318
 21
83.10497623332998
 31
0.0
  0
LINE
  5
3AE
  8
0
  6
DIVIDE
 62
     9
 10
-84.85723530889628
 20
82.10499540222742
 30
0.0
 11
-85.85722558089275
 21
83.10498567422388
 31
0.0
  0
LINE
  5
3AF
  8
0
  6
DIVIDE
 62
     9
 10
-88.62737929322951
 20
83.10499088051341
 30
0.0
 11
-85.85723769166701
 21
83.10499088051341
 31
0.0
  0
LINE
  5
3B0
  8
0
  6
CONTINUOUS
 62
     4
 10
-84.35723769166701
 20
135.1049985099079
 30
0.0
 11
-84.35723769166701
 21
129.1049985099079
 31
0.0
  0
LINE
  5
3B1
  8
0
  6
CONTINUOUS
 62
     4
 10
-84.35723769166701
 20
88.10499088051341
 30
0.0
 11
-84.35723769166701
 21
84.60499088051341
 31
0.0
  0
LINE
  5
3B2
  8
0
  6
CONTINUOUS
 62
     4
 10
-96.35723769166701
 20
92.70498935463451
 30
0.0
 11
-76.35723769166701
 21
92.70498935463451
 31
0.0
  0
LINE
  5
3B3
  8
0
  6
CONTINUOUS
 62
     4
 10
-96.35723769166701
 20
99.50499240639232
 30
0.0
 11
-76.35723769166701
 21
99.50499240639232
 31
0.0
  0
LINE
  5
3B4
  8
0
  6
CONTINUOUS
 62
     4
 10
-96.35723769166701
 20
124.5049924063923
 30
0.0
 11
-76.35723769166701
 21
124.5049924063923
 31
0.0
  0
LINE
  5
3B5
  8
0
  6
CONTINUOUS
 62
     4
 10
-96.35723769166701
 20
117.7049893546345
 30
0.0
 11
-76.35723769166701
 21
117.7049893546345
 31
0.0
  0
LINE
  5
3B6
  8
0
  6
CONTINUOUS
 62
     4
 10
-95.35723769166701
 20
17.60499088051341
 30
0.0
 11
-82.35723769166701
 21
17.60499088051341
 31
0.0
  0
LINE
  5
3B7
  8
0
  6
CONTINUOUS
 62
     4
 10
-95.35723769166701
 20
11.60499088051341
 30
0.0
 11
-82.35723769166701
 21
11.60499088051341
 31
0.0
  0
LINE
  5
3B8
  8
0
  6
CONTINUOUS
 62
     4
 10
-95.35723769166701
 20
17.60499088051341
 30
0.0
 11
-95.35723769166701
 21
11.60499088051341
 31
0.0
  0
LINE
  5
3B9
  8
0
  6
CONTINUOUS
 62
     4
 10
-88.35724606873178
 20
-0.7800087191188325
 30
0.0
 11
-84.3572434592969
 21
-3.089411047288031
 31
0.0
  0
LINE
  5
3BA
  8
0
  6
CONTINUOUS
 62
     4
 10
-92.35723878505591
 20
-3.089405142310007
 30
0.0
 11
-88.35723947924593
 21
-0.7800047214893269
 31
0.0
  0
LINE
  5
3BB
  8
0
  6
CONTINUOUS
 62
     4
 10
-90.75724626723444
 20
-0.780009632521633
 30
0.0
 11
-84.35724605648851
 21
-4.475051068774128
 31
0.0
  0
LINE
  5
3BC
  8
0
  6
CONTINUOUS
 62
     4
 10
-92.35724726530007
 20
-1.241890248618866
 30
0.0
 11
-84.3572420464303
 21
-5.860694904957263
 31
0.0
  0
LINE
  5
3BD
  8
0
  6
CONTINUOUS
 62
     4
 10
-92.35724134789335
 20
-2.627530781177093
 30
0.0
 11
-85.16493938274572
 21
-6.780007798074458
 31
0.0
  0
LINE
  5
3BE
  8
0
  6
CONTINUOUS
 62
     4
 10
-92.35724394508496
 20
-4.01317080266319
 30
0.0
 11
-87.56493958124837
 21
-6.780008711477258
 31
0.0
  0
LINE
  5
3BF
  8
0
  6
CONTINUOUS
 62
     4
 10
-92.35723809521282
 20
-4.475041860171196
 30
0.0
 11
-85.95724779534162
 21
-0.7800061459642578
 31
0.0
  0
LINE
  5
3C0
  8
0
  6
CONTINUOUS
 62
     4
 10
-92.35724019792251
 20
-5.860688999979239
 30
0.0
 11
-84.35724488992746
 21
-1.241890065686398
 31
0.0
  0
LINE
  5
3C1
  8
0
  6
CONTINUOUS
 62
     4
 10
-91.54954946885691
 20
-6.780005707793471
 30
0.0
 11
-84.35724420008437
 21
-2.627526783547587
 31
0.0
  0
LINE
  5
3C2
  8
0
  6
CONTINUOUS
 62
     4
 10
-89.14954596672935
 20
-6.780004713847752
 30
0.0
 11
-84.35724160289276
 21
-4.013166805033684
 31
0.0
  0
LINE
  5
3C3
  8
0
  6
CONTINUOUS
 62
     4
 10
-86.74954529138957
 20
-6.78000645315678
 30
0.0
 11
-84.35723852886402
 21
-5.398807652426008
 31
0.0
  0
LINE
  5
3C4
  8
0
  6
CONTINUOUS
 62
     4
 10
-92.35724277852391
 20
-1.703770331797337
 30
0.0
 11
-90.75723777040007
 21
-0.7800071117114342
 31
0.0
  0
LINE
  5
3C5
  8
0
  6
CONTINUOUS
 62
     4
 10
-85.95724587022913
 20
-0.780007805716032
 30
0.0
 11
-84.35724086210529
 21
-1.703771025801935
 31
0.0
  0
LINE
  5
3C6
  8
0
  6
CONTINUOUS
 62
     4
 10
-92.35797994700612
 20
-5.398387392778041
 30
0.0
 11
-90.12074533765541
 21
-6.690055254021054
 31
0.0
  0
LINE
  5
3C7
  8
0
  6
CONTINUOUS
 62
     4
 10
-75.35724144415234
 20
93.37293902653502
 30
0.0
 11
-72.35722627257654
 21
95.104998402056
 31
0.0
  0
LINE
  5
3C8
  8
0
  6
CONTINUOUS
 62
     4
 10
-72.35724141553986
 20
120.1050053863648
 30
0.0
 11
-69.35724606571351
 21
118.3729574549349
 31
0.0
  0
LINE
  5
3C9
  8
0
  6
CONTINUOUS
 62
     4
 10
-75.35724482237968
 20
118.3729542064745
 30
0.0
 11
-72.35724203939729
 21
120.1050064294385
 31
0.0
  0
LINE
  5
3CA
  8
0
  6
CONTINUOUS
 62
     4
 10
-72.35724577709048
 20
95.10499517898023
 30
0.0
 11
-69.35725042726413
 21
93.37294724755037
 31
0.0
  0
LINE
  5
3CB
  8
0
  6
CONTINUOUS
 62
     4
 10
-70.35724152472982
 20
95.10499284641372
 30
0.0
 11
-69.35724747962091
 21
94.52764607906846
 31
0.0
  0
LINE
  5
3CC
  8
0
  6
CONTINUOUS
 62
     4
 10
-75.3572444434147
 20
94.52763782825079
 30
0.0
 11
-74.35722726002666
 21
95.10499795448627
 31
0.0
  0
LINE
  5
3CD
  8
0
  6
CONTINUOUS
 62
     4
 10
-75.35724116277309
 20
119.5276568526896
 30
0.0
 11
-74.35724216222683
 21
120.1050064810576
 31
0.0
  0
LINE
  5
3CE
  8
0
  6
CONTINUOUS
 62
     4
 10
-70.35723716317919
 20
120.1050030537983
 30
0.0
 11
-69.35724311807029
 21
119.527656286453
 31
0.0
  0
LINE
  5
3CF
  8
0
  6
CONTINUOUS
 62
     4
 10
-74.3572324534009
 20
120.1050000895372
 30
0.0
 11
-69.35724901335674
 21
117.2182586234168
 31
0.0
  0
LINE
  5
3D0
  8
0
  6
CONTINUOUS
 62
     4
 10
-75.35724266065266
 20
119.5276556547585
 30
0.0
 11
-69.35725196099996
 21
116.0635597918987
 31
0.0
  0
LINE
  5
3D1
  8
0
  6
CONTINUOUS
 62
     4
 10
-75.35724560829588
 20
118.3729568232404
 30
0.0
 11
-70.5630119275131
 21
115.6050050228911
 31
0.0
  0
LINE
  5
3D2
  8
0
  6
CONTINUOUS
 62
     4
 10
-75.35724855593911
 20
117.2182579917223
 30
0.0
 11
-72.56300296537414
 21
115.6049997260636
 31
0.0
  0
LINE
  5
3D3
  8
0
  6
CONTINUOUS
 62
     4
 10
-75.35725150358233
 20
116.0635591602042
 30
0.0
 11
-74.56300721773481
 21
115.6050020586301
 31
0.0
  0
LINE
  5
3D4
  8
0
  6
CONTINUOUS
 62
     4
 10
-75.35724187473646
 20
117.2182553749564
 30
0.0
 11
-70.35724191656776
 21
120.1050063778193
 31
0.0
  0
LINE
  5
3D5
  8
0
  6
CONTINUOUS
 62
     4
 10
-75.35724553434305
 20
116.0635527287412
 30
0.0
 11
-69.35723996837827
 21
119.5276571746693
 31
0.0
  0
LINE
  5
3D6
  8
0
  6
CONTINUOUS
 62
     4
 10
-74.15147070151782
 20
115.605006542802
 30
0.0
 11
-69.35724362798486
 21
118.3729545284542
 31
0.0
  0
LINE
  5
3D7
  8
0
  6
CONTINUOUS
 62
     4
 10
-72.15146975278206
 20
115.60500696802
 30
0.0
 11
-69.35724150624786
 21
117.2182552200989
 31
0.0
  0
LINE
  5
3D8
  8
0
  6
CONTINUOUS
 62
     4
 10
-70.15146962995253
 20
115.6050069164008
 30
0.0
 11
-69.35724516585445
 21
116.0635525738838
 31
0.0
  0
LINE
  5
3D9
  8
0
  6
CONTINUOUS
 62
     4
 10
-74.35725002945115
 20
95.10499751154674
 30
0.0
 11
-69.35724016040773
 21
92.21824078663821
 31
0.0
  0
LINE
  5
3DA
  8
0
  6
CONTINUOUS
 62
     4
 10
-75.35724702220328
 20
94.52764544737391
 30
0.0
 11
-69.35724310805095
 21
91.06354195512012
 31
0.0
  0
LINE
  5
3DB
  8
0
  6
CONTINUOUS
 62
     4
 10
-75.35723675534688
 20
93.37293898646175
 30
0.0
 11
-70.56301628906373
 21
90.60499481550659
 31
0.0
  0
LINE
  5
3DC
  8
0
  6
CONTINUOUS
 62
     4
 10
-75.3572397029901
 20
92.21824015494366
 30
0.0
 11
-72.56302054142439
 21
90.6049971480731
 31
0.0
  0
LINE
  5
3DD
  8
0
  6
CONTINUOUS
 62
     4
 10
-75.35724265063332
 20
91.06354132342557
 30
0.0
 11
-74.56301157928543
 21
90.60499185124553
 31
0.0
  0
LINE
  5
3DE
  8
0
  6
CONTINUOUS
 62
     4
 10
-75.35724180013402
 20
92.21823828766841
 30
0.0
 11
-70.35722697565323
 21
95.10499787359973
 31
0.0
  0
LINE
  5
3DF
  8
0
  6
CONTINUOUS
 62
     4
 10
-75.3572421561157
 20
91.0635375488018
 30
0.0
 11
-69.35724319740073
 21
94.52763818003282
 31
0.0
  0
LINE
  5
3E0
  8
0
  6
CONTINUOUS
 62
     4
 10
-74.1514557606033
 20
90.60499803858235
 30
0.0
 11
-69.35724024975751
 21
93.37293934851473
 31
0.0
  0
LINE
  5
3E1
  8
0
  6
CONTINUOUS
 62
     4
 10
-72.1514548441295
 20
90.60499844517389
 30
0.0
 11
-69.35724060573919
 21
92.21823860964813
 31
0.0
  0
LINE
  5
3E2
  8
0
  6
CONTINUOUS
 62
     4
 10
-70.15145551494423
 20
90.60499793534407
 30
0.0
 11
-69.35724096172088
 21
91.06353787078152
 31
0.0
  0
LINE
  5
3E3
  8
0
  6
CONTINUOUS
 62
     4
 10
-102.607237691667
 20
77.90499393227123
 30
0.0
 11
-93.60723769166701
 21
77.90499393227123
 31
0.0
  0
LINE
  5
3E4
  8
0
  6
CONTINUOUS
 62
     4
 10
-102.607237691667
 20
75.3049878287556
 30
0.0
 11
-93.60723769166701
 21
75.3049878287556
 31
0.0
  0
LINE
  5
3E5
  8
0
  6
CONTINUOUS
 62
     4
 10
-102.607237691667
 20
79.10499088051341
 30
0.0
 11
-93.60723769166701
 21
79.10499088051341
 31
0.0
  0
LINE
  5
3E6
  8
0
  6
CONTINUOUS
 62
     4
 10
-102.607237691667
 20
26.10499088051341
 30
0.0
 11
-93.60723769166701
 21
26.10499088051341
 31
0.0
  0
ARC
  5
3E7
  8
0
  6
CONTINUOUS
 62
     4
 10
112.0251205388671
 20
52.60499088051341
 30
0.0
 40
51.0
 50
160.141339280171
 51
193.7748573194712
  0
ARC
  5
3E8
  8
0
  6
CONTINUOUS
 62
     4
 10
112.0251205388671
 20
52.60499088051341
 30
0.0
 40
45.0
 50
156.1211035950798
 51
191.5385031210473
  0
LINE
  5
3E9
  8
0
  6
CONTINUOUS
 62
     4
 10
144.1383260834645
 20
41.11840737111418
 30
0.0
 11
147.8386820543664
 21
47.52761103973665
 31
0.0
  0
LINE
  5
3EA
  8
0
  6
CONTINUOUS
 62
     4
 10
134.263607193904
 20
24.01489488981081
 30
0.0
 11
137.9639669795037
 21
30.42410516568264
 31
0.0
  0
LINE
  5
3EB
  8
0
  6
CONTINUOUS
 62
     4
 10
145.437360351128
 20
40.36840067445785
 30
0.0
 11
149.1377163220299
 21
46.77760434308032
 31
0.0
  0
LINE
  5
3EC
  8
0
  6
CONTINUOUS
 62
     4
 10
146.7364088554363
 20
39.61840337760253
 30
0.0
 11
150.4367648263382
 21
46.02760704622499
 31
0.0
  0
LINE
  5
3ED
  8
0
  6
CONTINUOUS
 62
     4
 10
148.0354233013517
 20
38.86840812503936
 30
0.0
 11
151.7357792722536
 21
45.27761179366183
 31
0.0
  0
LINE
  5
3EE
  8
0
  6
CONTINUOUS
 62
     4
 10
149.33447180566
 20
38.11841082818403
 30
0.0
 11
153.0348277765619
 21
44.5276144968065
 31
0.0
  0
LINE
  5
3EF
  8
0
  6
CONTINUOUS
 62
     4
 10
135.562649090963
 20
23.26490140765321
 30
0.0
 11
139.2630012471672
 21
29.67409846902631
 31
0.0
  0
LINE
  5
3F0
  8
0
  6
CONTINUOUS
 62
     4
 10
136.8616899658758
 20
22.51489089629916
 30
0.0
 11
140.5620497514755
 21
28.92410117217099
 31
0.0
  0
LINE
  5
3F1
  8
0
  6
CONTINUOUS
 62
     4
 10
138.1607120411867
 20
21.76490885823471
 30
0.0
 11
141.8610641973909
 21
28.17410591960782
 31
0.0
  0
LINE
  5
3F2
  8
0
  6
CONTINUOUS
 62
     4
 10
139.4597567307973
 20
21.01490495413002
 30
0.0
 11
143.1601127016992
 21
27.42410862275249
 31
0.0
  0
LINE
  5
3F3
  8
0
  6
CONTINUOUS
 62
     4
 10
170.2036712278449
 20
3.264895208769694
 30
0.0
 11
173.9040271987468
 21
9.674098877392162
 31
0.0
  0
LINE
  5
3F4
  8
0
  6
CONTINUOUS
 62
     4
 10
171.5027093102061
 20
2.514895119362727
 30
0.0
 11
175.2030614664103
 21
8.924092180735833
 31
0.0
  0
LINE
  5
3F5
  8
0
  6
CONTINUOUS
 62
     4
 10
172.8017606070661
 20
1.764887400560319
 30
0.0
 11
176.5021203926657
 21
8.174097676432147
 31
0.0
  0
LINE
  5
3F6
  8
0
  6
CONTINUOUS
 62
     4
 10
180.0783824880099
 20
20.36839447557434
 30
0.0
 11
183.7787384589118
 21
26.77759814419681
 31
0.0
  0
LINE
  5
3F7
  8
0
  6
CONTINUOUS
 62
     4
 10
181.3774205703711
 20
19.61839438616737
 30
0.0
 11
185.077776541273
 21
26.02759805478984
 31
0.0
  0
LINE
  5
3F8
  8
0
  6
CONTINUOUS
 62
     4
 10
182.6764794966265
 20
18.86839988186369
 30
0.0
 11
186.3768354675284
 21
25.27760355048616
 31
0.0
  0
LINE
  5
3F9
  8
0
  6
CONTINUOUS
 62
     4
 10
183.9754929203958
 20
18.11838760010408
 30
0.0
 11
187.6758488912977
 21
24.52759126872655
 31
0.0
  0
LINE
  5
3FA
  8
0
  6
CONTINUOUS
 62
     4
 10
185.2745480319535
 20
17.36838648855103
 30
0.0
 11
188.9749040028554
 21
23.7775901571735
 31
0.0
  0
LINE
  5
3FB
  8
0
  6
CONTINUOUS
 62
     4
 10
174.1007816602308
 20
1.014888333299432
 30
0.0
 11
177.801133816435
 21
7.424085394672538
 31
0.0
  0
LINE
  5
3FC
  8
0
  6
CONTINUOUS
 62
     4
 10
175.3998329570908
 20
0.2648806144970237
 30
0.0
 11
179.1001927426904
 21
6.674090890368852
 31
0.0
  0
LINE
  5
3FD
  8
0
  6
CONTINUOUS
 62
     4
 10
118.2251174871093
 20
86.10499850990794
 30
0.0
 11
125.3251235906249
 21
86.10499850990794
 31
0.0
  0
LINE
  5
3FE
  8
0
  6
CONTINUOUS
 62
     4
 10
98.72511748710927
 20
86.10499850990794
 30
0.0
 11
105.8251235906249
 21
86.10499850990794
 31
0.0
  0
LINE
  5
3FF
  8
0
  6
CONTINUOUS
 62
     4
 10
98.72511748710927
 20
87.60499850990794
 30
0.0
 11
105.8251235906249
 21
87.60499850990794
 31
0.0
  0
LINE
  5
400
  8
0
  6
CONTINUOUS
 62
     4
 10
98.72511748710927
 20
89.10499850990794
 30
0.0
 11
105.8251235906249
 21
89.10499850990794
 31
0.0
  0
LINE
  5
401
  8
0
  6
CONTINUOUS
 62
     4
 10
98.72511748710927
 20
90.60499850990794
 30
0.0
 11
105.8251235906249
 21
90.60499850990794
 31
0.0
  0
LINE
  5
402
  8
0
  6
CONTINUOUS
 62
     4
 10
98.72511748710927
 20
92.10499850990794
 30
0.0
 11
105.8251235906249
 21
92.10499850990794
 31
0.0
  0
LINE
  5
403
  8
0
  6
CONTINUOUS
 62
     4
 10
118.2251174871093
 20
87.60499850990794
 30
0.0
 11
125.3251235906249
 21
87.60499850990794
 31
0.0
  0
LINE
  5
404
  8
0
  6
CONTINUOUS
 62
     4
 10
118.2251174871093
 20
89.10499850990794
 30
0.0
 11
125.3251235906249
 21
89.10499850990794
 31
0.0
  0
LINE
  5
405
  8
0
  6
CONTINUOUS
 62
     4
 10
118.2251174871093
 20
90.60499850990794
 30
0.0
 11
125.3251235906249
 21
90.60499850990794
 31
0.0
  0
LINE
  5
406
  8
0
  6
CONTINUOUS
 62
     4
 10
118.2251174871093
 20
92.10499850990794
 30
0.0
 11
125.3251235906249
 21
92.10499850990794
 31
0.0
  0
LINE
  5
407
  8
0
  6
CONTINUOUS
 62
     4
 10
118.2251174871093
 20
133.6049985099079
 30
0.0
 11
125.3251235906249
 21
133.6049985099079
 31
0.0
  0
LINE
  5
408
  8
0
  6
CONTINUOUS
 62
     4
 10
98.72511748710927
 20
133.6049985099079
 30
0.0
 11
105.8251235906249
 21
133.6049985099079
 31
0.0
  0
LINE
  5
409
  8
0
  6
CONTINUOUS
 62
     4
 10
98.72511748710927
 20
132.1049985099079
 30
0.0
 11
105.8251235906249
 21
132.1049985099079
 31
0.0
  0
LINE
  5
40A
  8
0
  6
CONTINUOUS
 62
     4
 10
98.72511748710927
 20
130.6049985099079
 30
0.0
 11
105.8251235906249
 21
130.6049985099079
 31
0.0
  0
LINE
  5
40B
  8
0
  6
CONTINUOUS
 62
     4
 10
98.72511748710927
 20
129.1049985099079
 30
0.0
 11
105.8251235906249
 21
129.1049985099079
 31
0.0
  0
LINE
  5
40C
  8
0
  6
CONTINUOUS
 62
     4
 10
98.72511748710927
 20
127.6049985099079
 30
0.0
 11
105.8251235906249
 21
127.6049985099079
 31
0.0
  0
LINE
  5
40D
  8
0
  6
CONTINUOUS
 62
     4
 10
118.2251174871093
 20
132.1049985099079
 30
0.0
 11
125.3251235906249
 21
132.1049985099079
 31
0.0
  0
LINE
  5
40E
  8
0
  6
CONTINUOUS
 62
     4
 10
118.2251174871093
 20
130.6049985099079
 30
0.0
 11
125.3251235906249
 21
130.6049985099079
 31
0.0
  0
LINE
  5
40F
  8
0
  6
CONTINUOUS
 62
     4
 10
118.2251174871093
 20
129.1049985099079
 30
0.0
 11
125.3251235906249
 21
129.1049985099079
 31
0.0
  0
LINE
  5
410
  8
0
  6
CONTINUOUS
 62
     4
 10
118.2251174871093
 20
127.6049985099079
 30
0.0
 11
125.3251235906249
 21
127.6049985099079
 31
0.0
  0
CIRCLE
  5
411
  8
0
  6
CONTINUOUS
 62
     4
 10
112.1126296941405
 20
14.47716037514231
 30
0.0
 40
2.549999952316284
  0
CIRCLE
  5
412
  8
0
  6
CONTINUOUS
 62
     4
 10
112.1126296941405
 20
14.47716037514231
 30
0.0
 40
3.0
  0
CIRCLE
  5
413
  8
0
  6
CONTINUOUS
 62
     4
 10
144.9340866033202
 20
71.60500613930248
 30
0.0
 40
2.5
  0
CIRCLE
  5
414
  8
0
  6
CONTINUOUS
 62
     4
 10
79.11618499199209
 20
71.60505191566966
 30
0.0
 40
2.5
  0
CIRCLE
  5
415
  8
0
  6
CONTINUOUS
 62
     4
 10
79.11618499199209
 20
71.60505191566966
 30
0.0
 40
3.0
  0
CIRCLE
  5
416
  8
0
  6
CONTINUOUS
 62
     4
 10
144.9340866033202
 20
71.60500613930248
 30
0.0
 40
3.0
  0
ARC
  5
417
  8
0
  6
CONTINUOUS
 62
     4
 10
112.0251205388671
 20
52.60499088051341
 30
0.0
 40
39.0
 50
231.4312374789697
 51
265.8654927456163
  0
ARC
  5
418
  8
0
  6
CONTINUOUS
 62
     4
 10
112.0251205388671
 20
52.60499088051341
 30
0.0
 40
45.0
 50
228.4614439070914
 51
264.7216819464493
  0
ARC
  5
419
  8
0
  6
CONTINUOUS
 62
     4
 10
112.0251205388671
 20
52.60499088051341
 30
0.0
 40
51.0
 50
226.2250760482892
 51
260.3401429146429
  0
ARC
  5
41A
  8
0
  6
CONTINUOUS
 62
     4
 10
112.0251205388671
 20
52.60499088051341
 30
0.0
 40
51.0
 50
279.4069506620028
 51
313.7748882069033
  0
ARC
  5
41B
  8
0
  6
CONTINUOUS
 62
     4
 10
112.0251205388671
 20
52.60499088051341
 30
0.0
 40
39.0
 50
274.3974850190403
 51
308.5687370215065
  0
ARC
  5
41C
  8
0
  6
CONTINUOUS
 62
     4
 10
112.0251205388671
 20
52.60499088051341
 30
0.0
 40
45.0
 50
275.0254184603854
 51
311.5385271782902
  0
ARC
  5
41D
  8
0
  6
CONTINUOUS
 62
     4
 10
112.0251205388671
 20
52.60499088051341
 30
0.0
 40
51.0
 50
346.2250887791035
 51
379.9146135158242
  0
ARC
  5
41E
  8
0
  6
CONTINUOUS
 62
     4
 10
112.0251205388671
 20
52.60499088051341
 30
0.0
 40
45.0
 50
348.4614481001693
 51
383.9697839109727
  0
ARC
  5
41F
  8
0
  6
CONTINUOUS
 62
     4
 10
112.0251205388671
 20
52.60499088051341
 30
0.0
 40
39.0
 50
351.4312433795948
 51
384.5552933398356
  0
ARC
  5
420
  8
0
  6
CONTINUOUS
 62
     4
 10
112.0251205388671
 20
52.60499088051341
 30
0.0
 40
39.0
 50
35.44497641474145
 51
68.96278080421794
  0
ARC
  5
421
  8
0
  6
CONTINUOUS
 62
     4
 10
112.0251205388671
 20
52.60499088051341
 30
0.0
 40
45.0
 50
36.25701760516427
 51
71.87379376809903
  0
ARC
  5
422
  8
0
  6
CONTINUOUS
 62
     4
 10
112.0251205388671
 20
52.60499088051341
 30
0.0
 40
51.0
 50
40.03171140468805
 51
74.06719290683274
  0
ARC
  5
423
  8
0
  6
CONTINUOUS
 62
     4
 10
112.0251205388671
 20
52.60499088051341
 30
0.0
 40
39.0
 50
155.3100869330325
 51
188.5687095491691
  0
ARC
  5
424
  8
0
  6
CONTINUOUS
 62
     4
 10
112.0251205388671
 20
52.60499088051341
 30
0.0
 40
39.0
 50
111.0372378651167
 51
144.8182196885976
  0
ARC
  5
425
  8
0
  6
CONTINUOUS
 62
     4
 10
112.0251205388671
 20
52.60499088051341
 30
0.0
 40
45.0
 50
108.1262249012356
 51
144.0029956300215
  0
ARC
  5
426
  8
0
  6
CONTINUOUS
 62
     4
 10
112.0251205388671
 20
52.60499088051341
 30
0.0
 40
51.0
 50
105.9328257625019
 51
140.0901168583046
  0
CIRCLE
  5
427
  8
0
  6
CONTINUOUS
 62
     4
 10
112.0251205388671
 20
52.60499088051341
 30
0.0
 40
26.5
  0
CIRCLE
  5
428
  8
0
  6
CONTINUOUS
 62
     4
 10
112.0251205388671
 20
76.60499088051341
 30
0.0
 40
1.299999952316284
  0
CIRCLE
  5
429
  8
0
  6
CONTINUOUS
 62
     4
 10
91.24051360527334
 20
40.60499088051341
 30
0.0
 40
1.299999952316284
  0
CIRCLE
  5
42A
  8
0
  6
CONTINUOUS
 62
     4
 10
132.8097274724609
 20
40.60499088051341
 30
0.0
 40
1.299999952316284
  0
LINE
  5
42B
  8
0
  6
CONTINUOUS
 62
     4
 10
-83.35723769166701
 20
113.1049985099079
 30
0.0
 11
-83.35723769166701
 21
104.1049908805134
 31
0.0
  0
LINE
  5
42C
  8
0
  6
CONTINUOUS
 62
     4
 10
-84.35723769166701
 20
113.1049985099079
 30
0.0
 11
-84.35723769166701
 21
104.1049908805134
 31
0.0
  0
TEXT
  5
42D
  8
0
 62
     7
 10
-38.0128301240003
 20
55.83375665353623
 30
0.0
 40
4.0
  1
MIN30.55
 50
90.0
 41
0.7999999999999998
  7
FDASTYLE1
 72
     5
 11
-38.0128301240003
 21
81.43375665353622
 31
0.0
  0
TEXT
  5
42E
  8
0
 62
     7
 10
-146.2865832392469
 20
-71.91050966923353
 30
0.0
 40
4.0
  1
MIN40
 41
0.8
  7
FDASTYLE1
 72
     5
 11
-130.2865832392469
 21
-71.91050966923353
 31
0.0
  0
TEXT
  5
42F
  8
0
 62
     7
 10
-188.9374590415909
 20
152.8123725743269
 30
0.0
 40
4.0
  1
MIN 17
 41
0.7999999999999995
  7
FDASTYLE1
 72
     5
 11
-169.7374590415909
 21
152.8123725743269
 31
0.0
  0
TEXT
  5
430
  8
0
 62
     7
 10
-203.0808567535581
 20
-10.27262128177955
 30
0.0
 40
4.0
  1
7ﾟ7′30″
 50
90.0
 41
0.7567567567567569
  7
FDASTYLE1
 72
     5
 11
-203.0808567535581
 21
12.12737871822046
 31
0.0
  0
LINE
  5
431
  8
LAYER0014
  6
CONTINUOUS
 62
     7
 10
-82.35723769166701
 20
30.93397037270091
 30
0.0
 11
-70.3462971399092
 21
30.93397037270091
 31
0.0
  0
LINE
  5
432
  8
LAYER0014
  6
CONTINUOUS
 62
     7
 10
-83.35723769166701
 20
157.1628445792439
 30
0.0
 11
-89.89367567994826
 21
157.1628445792439
 31
0.0
  0
LINE
  5
433
  8
LAYER0014
  6
CONTINUOUS
 62
     7
 10
-159.357237691667
 20
157.7452420401814
 30
0.0
 11
-191.5886316055835
 21
157.7452420401814
 31
0.0
  0
LINE
  5
434
  8
LAYER0014
  6
CONTINUOUS
 62
     7
 10
-142.3572834680342
 20
84.6449908805134
 30
0.0
 11
-142.3572834680342
 21
160.0312375235798
 31
0.0
  0
LINE
  5
435
  8
LAYER0014
  6
CONTINUOUS
 62
     7
 10
-159.357237691667
 20
127.6449985099079
 30
0.0
 11
-159.357237691667
 21
160.0312375235798
 31
0.0
  0
LINE
  5
436
  8
LAYER0014
  6
CONTINUOUS
 62
     7
 10
-142.3572834680342
 20
157.7452420401814
 30
0.0
 11
-159.357237691667
 21
157.7452420401814
 31
0.0
  0
INSERT
  5
437
  8
LAYER0014
 62
     7
  2
_OPEN30
 10
-142.3572834680342
 20
157.7452420401814
 30
0.0
 41
1.999998407630662
 42
2.000005728319971
 50
360.0
  0
INSERT
  5
438
  8
LAYER0014
 62
     7
  2
_OPEN30
 10
-159.357237691667
 20
157.7452420401814
 30
0.0
 41
1.999998407630662
 42
2.000005728319971
 50
180.0
  0
TEXT
  5
439
  8
LAYER0014
 62
     7
 10
-188.7898288890503
 20
158.9938815871431
 30
0.0
 40
4.0
  1
MAX 34.5
 41
0.8000000000000007
  7
FDASTYLE1
 72
     5
 11
-163.1898288890503
 21
158.9938815871431
 31
0.0
  0
INSERT
  5
43A
  8
LAYER0014
  6
CONTINUOUS
  2
DA_IMAGEDIMGROUP_1
 10
0.0
 20
0.0
 30
0.0
  0
INSERT
  5
43B
  8
LAYER0014
  6
CONTINUOUS
  2
DA_IMAGEDIMGROUP_2
 10
0.0
 20
0.0
 30
0.0
  0
INSERT
  5
43C
  8
LAYER0014
  6
CONTINUOUS
  2
DA_IMAGEDIMGROUP_3
 10
0.0
 20
0.0
 30
0.0
  0
INSERT
  5
43D
  8
LAYER0014
  6
CONTINUOUS
  2
DA_IMAGEDIMGROUP_4
 10
0.0
 20
0.0
 30
0.0
  0
INSERT
  5
43E
  8
LAYER0014
  6
CONTINUOUS
  2
DA_IMAGEDIMGROUP_5
 10
0.0
 20
0.0
 30
0.0
  0
INSERT
  5
43F
  8
LAYER0014
  6
CONTINUOUS
  2
DA_IMAGEDIMGROUP_6
 10
0.0
 20
0.0
 30
0.0
  0
INSERT
  5
440
  8
LAYER0014
  6
CONTINUOUS
  2
DA_IMAGEDIMGROUP_7
 10
0.0
 20
0.0
 30
0.0
  0
INSERT
  5
441
  8
LAYER0014
  6
CONTINUOUS
  2
DA_IMAGEDIMGROUP_8
 10
0.0
 20
0.0
 30
0.0
  0
INSERT
  5
442
  8
LAYER0014
  6
CONTINUOUS
  2
DA_IMAGEDIMGROUP_9
 10
0.0
 20
0.0
 30
0.0
  0
INSERT
  5
443
  8
LAYER0014
  6
CONTINUOUS
  2
DC_GROUP_1
 10
0.0
 20
0.0
 30
0.0
  0
INSERT
  5
444
  8
LAYER0014
  6
CONTINUOUS
  2
DC_GROUP_2
 10
0.0
 20
0.0
 30
0.0
  0
INSERT
  5
445
  8
LAYER0014
  6
CONTINUOUS
  2
DC_GROUP_3
 10
0.0
 20
0.0
 30
0.0
  0
INSERT
  5
446
  8
LAYER0014
  6
CONTINUOUS
  2
DA_IMAGEDIMGROUP_10
 10
0.0
 20
0.0
 30
0.0
  0
INSERT
  5
447
  8
LAYER0014
  6
CONTINUOUS
  2
DA_IMAGEDIMGROUP_11
 10
0.0
 20
0.0
 30
0.0
  0
INSERT
  5
448
  8
LAYER0014
  6
CONTINUOUS
  2
DA_IMAGEDIMGROUP_12
 10
0.0
 20
0.0
 30
0.0
  0
INSERT
  5
449
  8
LAYER0014
  6
CONTINUOUS
  2
DA_IMAGEDIMGROUP_13
 10
0.0
 20
0.0
 30
0.0
  0
INSERT
  5
44A
  8
LAYER0014
  6
CONTINUOUS
  2
DA_IMAGEDIMGROUP_14
 10
0.0
 20
0.0
 30
0.0
  0
INSERT
  5
44B
  8
LAYER0014
  6
CONTINUOUS
  2
DA_IMAGEDIMGROUP_15
 10
0.0
 20
0.0
 30
0.0
  0
INSERT
  5
44C
  8
LAYER0014
  6
CONTINUOUS
  2
DA_IMAGEDIMGROUP_16
 10
0.0
 20
0.0
 30
0.0
  0
INSERT
  5
44D
  8
LAYER0014
  6
CONTINUOUS
  2
DA_IMAGEDIMGROUP_17
 10
0.0
 20
0.0
 30
0.0
  0
INSERT
  5
44E
  8
LAYER0014
  6
CONTINUOUS
  2
DA_IMAGEDIMGROUP_18
 10
0.0
 20
0.0
 30
0.0
  0
INSERT
  5
44F
  8
LAYER0014
  6
CONTINUOUS
  2
DA_IMAGEDIMGROUP_19
 10
0.0
 20
0.0
 30
0.0
  0
INSERT
  5
450
  8
LAYER0014
  6
CONTINUOUS
  2
DA_IMAGEDIMGROUP_20
 10
0.0
 20
0.0
 30
0.0
  0
INSERT
  5
451
  8
LAYER0014
  6
CONTINUOUS
  2
DA_IMAGEDIMGROUP_21
 10
0.0
 20
0.0
 30
0.0
  0
INSERT
  5
452
  8
LAYER0014
  6
CONTINUOUS
  2
DA_IMAGEDIMGROUP_22
 10
0.0
 20
0.0
 30
0.0
  0
INSERT
  5
453
  8
LAYER0014
  6
CONTINUOUS
  2
DA_IMAGEDIMGROUP_23
 10
0.0
 20
0.0
 30
0.0
  0
INSERT
  5
454
  8
LAYER0014
  6
CONTINUOUS
  2
DA_IMAGEDIMGROUP_24
 10
0.0
 20
0.0
 30
0.0
  0
INSERT
  5
455
  8
LAYER0014
  6
CONTINUOUS
  2
DA_IMAGEDIMGROUP_25
 10
0.0
 20
0.0
 30
0.0
  0
INSERT
  5
456
  8
LAYER0014
  6
CONTINUOUS
  2
DA_IMAGEDIMGROUP_26
 10
0.0
 20
0.0
 30
0.0
  0
INSERT
  5
457
  8
LAYER0014
  6
CONTINUOUS
  2
DC_GROUP_4
 10
0.0
 20
0.0
 30
0.0
  0
INSERT
  5
458
  8
LAYER0014
  6
CONTINUOUS
  2
DA_IMAGEDIMGROUP_27
 10
0.0
 20
0.0
 30
0.0
  0
INSERT
  5
459
  8
LAYER0014
  6
CONTINUOUS
  2
DC_GROUP_5
 10
0.0
 20
0.0
 30
0.0
  0
INSERT
  5
45A
  8
LAYER0014
  6
CONTINUOUS
  2
DC_GROUP_6
 10
0.0
 20
0.0
 30
0.0
  0
INSERT
  5
45B
  8
LAYER0014
  6
CONTINUOUS
  2
DC_GROUP_7
 10
0.0
 20
0.0
 30
0.0
  0
INSERT
  5
45C
  8
LAYER0014
  6
CONTINUOUS
  2
DC_GROUP_8
 10
0.0
 20
0.0
 30
0.0
  0
INSERT
  5
45D
  8
LAYER0014
  6
CONTINUOUS
  2
DC_GROUP_9
 10
0.0
 20
0.0
 30
0.0
  0
INSERT
  5
45E
  8
LAYER0014
  6
CONTINUOUS
  2
DA_IMAGEDIMGROUP_29
 10
0.0
 20
0.0
 30
0.0
  0
INSERT
  5
45F
  8
LAYER0014
  6
CONTINUOUS
  2
DA_IMAGEDIMGROUP_30
 10
0.0
 20
0.0
 30
0.0
  0
INSERT
  5
460
  8
LAYER0014
  6
CONTINUOUS
  2
DC_GROUP_10
 10
0.0
 20
0.0
 30
0.0
  0
LINE
  5
461
  8
0
  6
CONTINUOUS
 62
     2
 10
112.0251188751564
 20
4.919992016750875
 30
0.0
 11
107.954793064796
 21
2.569994070135117
 31
0.0
  0
LINE
  5
462
  8
0
  6
CONTINUOUS
 62
     2
 10
107.9548004094726
 20
2.569994847798562
 30
0.0
 11
107.9548004094726
 21
-2.130004007792259
 31
0.0
  0
LINE
  5
463
  8
0
  6
CONTINUOUS
 62
     2
 10
107.9547948837274
 20
-2.130008688714106
 30
0.0
 11
112.025109604568
 21
-4.480010524534983
 31
0.0
  0
LINE
  5
464
  8
0
  6
CONTINUOUS
 62
     2
 10
112.0251428848322
 20
-4.480023627063538
 30
0.0
 11
116.0954620879391
 21
-2.130029355067173
 31
0.0
  0
LINE
  5
465
  8
0
  6
CONTINUOUS
 62
     2
 10
116.0954406682616
 20
-2.13001163718679
 30
0.0
 11
116.0954406682616
 21
2.56998721840403
 31
0.0
  0
LINE
  5
466
  8
0
  6
CONTINUOUS
 62
     2
 10
116.0954297301254
 20
2.569974143217159
 30
0.0
 11
112.0251161298514
 21
4.919978220171224
 31
0.0
  0
LINE
  5
467
  8
0
  6
CONTINUOUS
 62
     2
 10
112.0251237511257
 20
99.60499678981256
 30
0.0
 11
108.9940340578178
 21
97.85499814581823
 31
0.0
  0
LINE
  5
468
  8
0
  6
CONTINUOUS
 62
     2
 10
115.0562015252157
 20
97.85498837693916
 30
0.0
 11
112.0251135008378
 21
99.60498983725296
 31
0.0
  0
LINE
  5
469
  8
0
  6
CONTINUOUS
 62
     2
 10
108.9940307561522
 20
97.85499850990794
 30
0.0
 11
108.9940307561522
 21
94.35499850990794
 31
0.0
  0
LINE
  5
46A
  8
0
  6
CONTINUOUS
 62
     2
 10
108.9940356785736
 20
94.35500516393989
 30
0.0
 11
112.0251243288002
 21
92.60500474670738
 31
0.0
  0
LINE
  5
46B
  8
0
  6
CONTINUOUS
 62
     2
 10
112.0251151808385
 20
92.60499581757034
 30
0.0
 11
115.0562042482977
 21
94.35499550464596
 31
0.0
  0
LINE
  5
46C
  8
0
  6
CONTINUOUS
 62
     2
 10
115.0562103215819
 20
94.35499850990794
 30
0.0
 11
115.0562103215819
 21
97.85499850990794
 31
0.0
  0
LINE
  5
46D
  8
0
  6
CONTINUOUS
 62
     2
 10
112.0251190141421
 20
124.604993813459
 30
0.0
 11
108.9940293208342
 21
122.8549951694646
 31
0.0
  0
LINE
  5
46E
  8
0
  6
CONTINUOUS
 62
     2
 10
115.0561960283268
 20
122.8549803165481
 30
0.0
 11
112.0251080039489
 21
124.6049817768619
 31
0.0
  0
LINE
  5
46F
  8
0
  6
CONTINUOUS
 62
     2
 10
108.9940307561522
 20
122.8549985099079
 30
0.0
 11
108.9940307561522
 21
119.3549985099079
 31
0.0
  0
LINE
  5
470
  8
0
  6
CONTINUOUS
 62
     2
 10
108.99402810137
 20
119.3549934349894
 30
0.0
 11
112.025120055221
 21
117.6049911104078
 31
0.0
  0
LINE
  5
471
  8
0
  6
CONTINUOUS
 62
     2
 10
112.0251168781377
 20
117.6049970208346
 30
0.0
 11
115.0562059455968
 21
119.3549967079102
 31
0.0
  0
LINE
  5
472
  8
0
  6
CONTINUOUS
 62
     2
 10
115.0562103215819
 20
119.3549985099079
 30
0.0
 11
115.0562103215819
 21
122.8549985099079
 31
0.0
  0
CIRCLE
  5
473
  8
0
  6
CONTINUOUS
 62
     2
 10
112.0251205388671
 20
96.10499850990794
 30
0.0
 40
6.5
  0
CIRCLE
  5
474
  8
0
  6
CONTINUOUS
 62
     2
 10
112.0251205388671
 20
121.1049985099079
 30
0.0
 40
6.5
  0
LINE
  5
475
  8
0
  6
CONTINUOUS
 62
     5
 10
163.2999531113404
 20
98.75435719953731
 30
0.0
 11
159.549953208198
 21
105.2495474435812
 31
0.0
  0
LINE
  5
476
  8
0
  6
CONTINUOUS
 62
     5
 10
157.179775914033
 20
94.35484578775123
 30
0.0
 11
159.429775914033
 21
90.45773154066757
 31
0.0
  0
LINE
  5
477
  8
0
  6
CONTINUOUS
 62
     5
 10
159.4297393250153
 20
90.4577402249742
 30
0.0
 11
158.4052265508443
 21
90.73225759774954
 31
0.0
  0
LINE
  5
478
  8
0
  6
CONTINUOUS
 62
     5
 10
159.4298173862004
 20
90.4577065358821
 30
0.0
 11
159.7043386134097
 21
91.48223411213206
 31
0.0
  0
LINE
  5
479
  8
0
  6
CONTINUOUS
 62
     5
 10
156.9052879014645
 20
93.33030668188707
 30
0.0
 11
157.1798091286738
 21
94.35483425813703
 31
0.0
  0
LINE
  5
47A
  8
0
  6
CONTINUOUS
 62
     5
 10
158.2042570800389
 20
94.08033935059024
 30
0.0
 11
157.1797590447262
 21
94.35485277410038
 31
0.0
  0
LINE
  5
47B
  8
0
  6
CONTINUOUS
 62
     5
 10
150.3095571658809
 20
91.25435287376746
 30
0.0
 11
163.2999379894931
 21
98.75435287376746
 31
0.0
  0
LINE
  5
47C
  8
0
  6
CONTINUOUS
 62
     5
 10
150.3095722877282
 20
91.25435719953731
 30
0.0
 11
144.6845704995889
 21
100.9971459143946
 31
0.0
  0
LINE
  5
47D
  8
0
  6
CONTINUOUS
 62
     5
 10
144.6845572850901
 20
100.9971382850001
 30
0.0
 11
146.633114408632
 21
102.1221382850001
 31
0.0
  0
LINE
  5
47E
  8
0
  6
CONTINUOUS
 62
     5
 10
151.2301348485838
 20
103.1599362679551
 30
0.0
 11
151.5046560757932
 21
104.184463844205
 31
0.0
  0
LINE
  5
47F
  8
0
  6
CONTINUOUS
 62
     5
 10
151.5046091624248
 20
104.184489968788
 30
0.0
 11
150.4800890188247
 21
104.4590093161959
 31
0.0
  0
LINE
  5
480
  8
0
  6
CONTINUOUS
 62
     5
 10
148.9415081590245
 20
102.7046324856016
 30
0.0
 11
151.5046187601287
 21
104.1844451076719
 31
0.0
  0
LINE
  5
481
  8
0
  6
CONTINUOUS
 62
     5
 10
147.1956295304793
 20
101.147864048999
 30
0.0
 11
146.633131437828
 21
102.1221393071452
 31
0.0
  0
LINE
  5
482
  8
0
  6
CONTINUOUS
 62
     5
 10
147.1956163159806
 20
101.1478564196045
 30
0.0
 11
148.4946543983418
 21
101.8978564196045
 31
0.0
  0
LINE
  5
483
  8
0
  6
CONTINUOUS
 62
     5
 10
149.0571676128405
 20
100.9235854872281
 30
0.0
 11
148.4946676128405
 21
101.897864048999
 31
0.0
  0
LINE
  5
484
  8
0
  6
CONTINUOUS
 62
     5
 10
151.10620567285
 20
100.3745474435812
 30
0.0
 11
150.3562056952018
 21
101.6735854872281
 31
0.0
  0
LINE
  5
485
  8
0
  6
CONTINUOUS
 62
     5
 10
149.0571524909932
 20
100.9235811614582
 30
0.0
 11
150.3561905733544
 21
101.6735811614582
 31
0.0
  0
LINE
  5
486
  8
0
  6
CONTINUOUS
 62
     5
 10
146.559559170087
 20
97.74953981418668
 30
0.0
 11
159.5499399936992
 21
105.2495398141867
 31
0.0
  0
LINE
  5
487
  8
0
  6
CONTINUOUS
 62
     5
 10
155.6657068715422
 20
100.7288315516046
 30
0.0
 11
154.8989961407633
 21
100.1079615742777
 31
0.0
  0
LINE
  5
488
  8
0
  6
CONTINUOUS
 62
     5
 10
155.6657247857604
 20
100.7288368501391
 30
0.0
 11
155.0448642934928
 21
101.4955356050037
 31
0.0
  0
ARC
  5
489
  8
0
  6
CONTINUOUS
 62
     5
 10
154.9863174382812
 20
98.19325534584544
 30
0.0
 40
2.625001907348633
 50
75.00010795499728
 51
369.999953377945
  0
CIRCLE
  5
48A
  8
0
  6
CONTINUOUS
 62
     2
 10
112.0251205388671
 20
0.2199925589802021
 30
0.0
 40
8.0
  0
TEXT
  5
48B
  8
0
 62
     5
 10
188.9330281187644
 20
65.99659178879733
 30
0.0
 40
2.5
  1
N MAX 6500 AT ΣS MAX
 50
120.0
 41
0.7873402943634575
  7
FDASTYLE1
 72
     5
 11
163.913943605577
 21
109.3309173244976
 31
0.0
  0
TEXT
  5
48C
  8
0
 62
     5
 10
157.1537309159388
 20
90.64014581819045
 30
0.0
 40
2.5
  1
F
 50
120.0
 41
0.8791213035583498
  7
FDASTYLE1
 72
     5
 11
156.0548292864909
 21
92.5434992729145
 31
0.0
  0
TEXT
  5
48D
  8
0
 62
     5
 10
150.4989457596888
 20
105.5714431204365
 30
0.0
 40
2.5
  1
ΣS
 50
120.0
 41
0.9590411728078666
  7
FDASTYLE1
 72
     5
 11
147.8615825344672
 21
110.1394902245341
 31
0.0
  0
TEXT
  5
48E
  8
0
 62
     5
 10
159.7684801091303
 20
101.149483661489
 30
0.0
 40
2.5
  1
N min
 50
120.0
 41
0.7983872809842201
  7
FDASTYLE1
 72
     5
 11
153.5809801091303
 21
111.8665480333214
 31
0.0
  0
TEXT
  5
48F
  8
0
 62
     5
 10
151.7592043904546
 20
111.4642636102921
 30
0.0
 40
1.25
  1
-1
 50
120.0
 41
0.782608910634555
  7
FDASTYLE1
 72
     5
 11
150.6342042563441
 21
113.4128210010932
 31
0.0
  0
TEXT
  5
490
  8
0
 62
     5
 10
185.4689320494284
 20
63.99659178879734
 30
0.0
 40
2.5
  1
ΣS MAX 58KN
 50
120.0
 41
0.7876411374541938
  7
FDASTYLE1
 72
     5
 11
171.8716033269515
 21
87.54785598334304
 31
0.0
  0
TEXT
  5
491
  8
0
 62
     5
 10
182.0048207213034
 20
61.99659178879733
 30
0.0
 40
2.5
  1
F MAX  17KN
 50
120.0
 41
0.7825372743633053
  7
FDASTYLE1
 72
     5
 11
168.4074919988265
 21
85.54785598334303
 31
0.0
  0
TEXT
  5
492
  8
0
 62
     5
 10
83.53940836826619
 20
-15.19501026389577
 30
0.0
 40
5.0
  1
NIKKO
 41
0.7674421159044379
  7
FDASTYLE1
 72
     5
 11
107.1108397666579
 21
-15.19501026389577
 31
0.0
  0
TEXT
  5
493
  8
0
 62
     5
 10
114.8965437833434
 20
-14.69501026389577
 30
0.0
 40
4.0
  1
HDM3-165A5
 41
0.7727275194893265
  7
FDASTYLE1
 72
     5
 11
153.7536902848846
 21
-14.69501026389577
 31
0.0
  0
TEXT
  5
494
  8
0
 62
     5
 10
115.2536869470244
 20
-21.19501217124441
 30
0.0
 40
3.0
  1
0001
 41
0.7647060767727455
  7
FDASTYLE1
 72
     5
 11
126.3965446178084
 21
-21.19501217124441
 31
0.0
  0
INSERT
  5
495
  8
0
  6
CONTINUOUS
  2
DA_IMAGEDIMGROUP_28
 10
0.0
 20
0.0
 30
0.0
  0
INSERT
  5
496
  8
0
  6
CONTINUOUS
  2
DA_IMAGEDIMGROUP_31
 10
0.0
 20
0.0
 30
0.0
  0
INSERT
  5
497
  8
0
  6
CONTINUOUS
  2
DC_GROUP_11
 10
0.0
 20
0.0
 30
0.0
  0
INSERT
  5
498
  8
0
  6
CONTINUOUS
  2
DA_IMAGEDIMGROUP_32
 10
0.0
 20
0.0
 30
0.0
  0
LINE
  5
499
  8
0
  6
CONTINUOUS
 62
     6
 10
-86.89632427624125
 20
-144.5257711824249
 30
0.0
 11
81.10370433398825
 21
-144.5257711824249
 31
0.0
  0
LINE
  5
49A
  8
0
  6
CONTINUOUS
 62
     6
 10
-86.89632427624125
 20
-137.0257711824249
 30
0.0
 11
81.10370433398825
 21
-137.0257711824249
 31
0.0
  0
LINE
  5
49B
  8
0
  6
CONTINUOUS
 62
     6
 10
-86.89632427624125
 20
-129.5257711824249
 30
0.0
 11
81.10370433398825
 21
-129.5257711824249
 31
0.0
  0
LINE
  5
49C
  8
0
  6
CONTINUOUS
 62
     6
 10
-86.89632427624125
 20
-122.0257711824249
 30
0.0
 11
81.10370433398825
 21
-122.0257711824249
 31
0.0
  0
LINE
  5
49D
  8
0
  6
CONTINUOUS
 62
     6
 10
-86.89632427624125
 20
-114.5257711824249
 30
0.0
 11
81.10370433398825
 21
-114.5257711824249
 31
0.0
  0
LINE
  5
49E
  8
0
  6
CONTINUOUS
 62
     6
 10
-86.89632427624125
 20
-107.0257826265167
 30
0.0
 11
-50.33123155894663
 21
-107.0257826265167
 31
0.0
  0
LINE
  5
49F
  8
0
  6
CONTINUOUS
 62
     6
 10
-86.89632427624125
 20
-152.0257711824249
 30
0.0
 11
81.10370433398825
 21
-152.0257711824249
 31
0.0
  0
LINE
  5
4A0
  8
0
  6
CONTINUOUS
 62
     6
 10
-86.89632427624125
 20
-159.5257711824249
 30
0.0
 11
81.10370433398825
 21
-159.5257711824249
 31
0.0
  0
LINE
  5
4A1
  8
0
  6
CONTINUOUS
 62
     6
 10
-86.89632427624125
 20
-167.0257711824249
 30
0.0
 11
81.10370433398825
 21
-167.0257711824249
 31
0.0
  0
LINE
  5
4A2
  8
0
  6
CONTINUOUS
 62
     6
 10
-86.89632427624125
 20
-174.5257711824249
 30
0.0
 11
81.10370433398825
 21
-174.5257711824249
 31
0.0
  0
LINE
  5
4A3
  8
0
  6
CONTINUOUS
 62
     6
 10
-86.82960269596754
 20
-183.3630067388547
 30
0.0
 11
81.03144767138781
 21
-183.3630067388547
 31
0.0
  0
VIEWPORT
  5
48
 67
     1
  8
0
 10
0.0
 20
0.0
 30
0.0
 40
1662.0
 41
1140.0
 68
     1
 69
     1
1001
ACAD
1000
MVIEW
1002
{
1070
    16
1010
0.0
1020
0.0
1030
0.0
1020
0.0
1030
0.0
1010
0.0
1020
0.0
1030
1.0
1020
0.0
1030
1.0
1040
0.0
1040
1140.0
1040
0.0
1040
0.0
1040
50.0
1040
0.0
1040
0.0
1070
     0
1070
   100
1070
     0
1070
     1
1070
     0
1070
     0
1070
     0
1070
     0
1040
0.0
1040
0.0
1040
0.0
1040
0.5
1040
0.5
1040
0.0
1040
0.0
1070
     0
1002
{
1002
}
1002
}
  0
ENDSEC
  0
EOF
