  0
SECTION
  2
HEADER
  9
$ACADVER
  1
AC1009
  9
$DWGCODEPAGE
  3
ansi_932
  9
$INSBASE
 10
0.0
 20
0.0
 30
0.0
  9
$EXTMIN
 10
-831.0
 20
-569.9999999999999
 30
0.0
  9
$EXTMAX
 10
831.0
 20
569.9999999999999
 30
0.0
  9
$LIMMIN
 10
-297.0
 20
-210.0
  9
$LIMMAX
 10
297.0
 20
210.0
  9
$ORTHOMODE
 70
     0
  9
$REGENMODE
 70
     1
  9
$FILLMODE
 70
     1
  9
$QTEXTMODE
 70
     0
  9
$MIRRTEXT
 70
     1
  9
$DRAGMODE
 70
     2
  9
$LTSCALE
 40
1.0
  9
$OSMODE
 70
    37
  9
$ATTMODE
 70
     1
  9
$TEXTSIZE
 40
0.2
  9
$TRACEWID
 40
0.05
  9
$TEXTSTYLE
  7
STANDARD
  9
$CLAYER
  8
0
  9
$CELTYPE
  6
BYLAYER
  9
$CECOLOR
 62
   256
  9
$DIMSCALE
 40
1.0
  9
$DIMASZ
 40
2.5
  9
$DIMEXO
 40
0.0625
  9
$DIMDLI
 40
0.38
  9
$DIMRND
 40
0.0
  9
$DIMDLE
 40
0.0
  9
$DIMEXE
 40
0.18
  9
$DIMTP
 40
0.0
  9
$DIMTM
 40
0.0
  9
$DIMTXT
 40
0.18
  9
$DIMCEN
 40
0.09
  9
$DIMTSZ
 40
0.0
  9
$DIMTOL
 70
     0
  9
$DIMLIM
 70
     0
  9
$DIMTIH
 70
     1
  9
$DIMTOH
 70
     1
  9
$DIMSE1
 70
     0
  9
$DIMSE2
 70
     0
  9
$DIMTAD
 70
     3
  9
$DIMZIN
 70
     0
  9
$DIMBLK
  1

  9
$DIMASO
 70
     1
  9
$DIMSHO
 70
     1
  9
$DIMPOST
  1

  9
$DIMAPOST
  1

  9
$DIMALT
 70
     0
  9
$DIMALTD
 70
     2
  9
$DIMALTF
 40
25.4
  9
$DIMLFAC
 40
1.0
  9
$DIMTOFL
 70
     0
  9
$DIMTVP
 40
0.0
  9
$DIMTIX
 70
     0
  9
$DIMSOXD
 70
     0
  9
$DIMSAH
 70
     0
  9
$DIMBLK1
  1

  9
$DIMBLK2
  1

  9
$DIMSTYLE
  2
STANDARD
  9
$DIMCLRD
 70
     0
  9
$DIMCLRE
 70
     0
  9
$DIMCLRT
 70
     0
  9
$DIMTFAC
 40
1.0
  9
$DIMGAP
 40
0.09
  9
$LUNITS
 70
     2
  9
$LUPREC
 70
     4
  9
$SKETCHINC
 40
0.1
  9
$FILLETRAD
 40
0.5
  9
$AUNITS
 70
     0
  9
$AUPREC
 70
     0
  9
$MENU
  1
.
  9
$ELEVATION
 40
0.0
  9
$PELEVATION
 40
0.0
  9
$THICKNESS
 40
0.0
  9
$LIMCHECK
 70
     0
  9
$CHAMFERA
 40
0.5
  9
$CHAMFERB
 40
0.5
  9
$SKPOLY
 70
     0
  9
$TDCREATE
 40
2454909.460503542
  9
$TDUPDATE
 40
2454909.460503553
  9
$TDINDWG
 40
0.0000000116
  9
$TDUSRTIMER
 40
0.0000000116
  9
$USRTIMER
 70
     1
  9
$ANGBASE
 50
0.0
  9
$ANGDIR
 70
     0
  9
$PDMODE
 70
     0
  9
$PDSIZE
 40
1.0
  9
$PLINEWID
 40
0.0
  9
$COORDS
 70
     1
  9
$SPLFRAME
 70
     0
  9
$SPLINETYPE
 70
     6
  9
$SPLINESEGS
 70
     8
  9
$ATTDIA
 70
     0
  9
$ATTREQ
 70
     1
  9
$HANDLING
 70
     1
  9
$HANDSEED
  5
46B
  9
$SURFTAB1
 70
     6
  9
$SURFTAB2
 70
     6
  9
$SURFTYPE
 70
     6
  9
$SURFU
 70
     6
  9
$SURFV
 70
     6
  9
$UCSNAME
  2

  9
$UCSORG
 10
0.0
 20
0.0
 30
0.0
  9
$UCSXDIR
 10
1.0
 20
0.0
 30
0.0
  9
$UCSYDIR
 10
0.0
 20
1.0
 30
0.0
  9
$PUCSNAME
  2

  9
$PUCSORG
 10
0.0
 20
0.0
 30
0.0
  9
$PUCSXDIR
 10
1.0
 20
0.0
 30
0.0
  9
$PUCSYDIR
 10
0.0
 20
1.0
 30
0.0
  9
$USERI1
 70
     0
  9
$USERI2
 70
     0
  9
$USERI3
 70
     0
  9
$USERI4
 70
     0
  9
$USERI5
 70
     0
  9
$USERR1
 40
0.0
  9
$USERR2
 40
0.0
  9
$USERR3
 40
0.0
  9
$USERR4
 40
0.0
  9
$USERR5
 40
0.0
  9
$WORLDVIEW
 70
     1
  9
$SHADEDGE
 70
     3
  9
$SHADEDIF
 70
    70
  9
$TILEMODE
 70
     1
  9
$MAXACTVP
 70
    64
  9
$PLIMCHECK
 70
     0
  9
$PEXTMIN
 10
1.000000000000000E+20
 20
1.000000000000000E+20
 30
1.000000000000000E+20
  9
$PEXTMAX
 10
-1.000000000000000E+20
 20
-1.000000000000000E+20
 30
-1.000000000000000E+20
  9
$PLIMMIN
 10
0.0
 20
0.0
  9
$PLIMMAX
 10
12.0
 20
9.0
  9
$UNITMODE
 70
     0
  9
$VISRETAIN
 70
     0
  9
$PLINEGEN
 70
     1
  9
$PSLTSCALE
 70
     0
  0
ENDSEC
  0
SECTION
  2
TABLES
  0
TABLE
  2
VPORT
 70
     1
  0
VPORT
  2
*ACTIVE
 70
     0
 10
0.0
 20
0.0
 11
1.0
 21
1.0
 12
0.0
 22
0.0
 13
0.0
 23
0.0
 14
0.5
 24
0.5
 15
0.5
 25
0.5
 16
0.0
 26
0.0
 36
1.0
 17
-0.0000000000000036
 27
0.0
 37
0.0
 40
387.6
 41
1.457894736842106
 42
50.0
 43
0.0
 44
0.0
 50
0.0
 51
0.0
 71
     0
 72
  1000
 73
     1
 74
     1
 75
     0
 76
     0
 77
     0
 78
     0
  0
ENDTAB
  0
TABLE
  2
LTYPE
 70
    28
  0
LTYPE
  2
CONTINUOUS
 70
     0
  3
Solid line
 72
    65
 73
     0
 40
0.0
  0
LTYPE
  2
HIDDENX2
 70
     0
  3
CADPAC LINETYPE
 72
    65
 73
     2
 40
9.513023782559458
 49
7.134767836919593
 49
-2.378255945639864
  0
LTYPE
  2
HIDDEN
 70
     0
  3
CADPAC LINETYPE
 72
    65
 73
     2
 40
7.134767836919593
 49
4.756511891279729
 49
-2.378255945639864
  0
LTYPE
  2
HIDDEN2
 70
     0
  3
CADPAC LINETYPE
 72
    65
 73
     2
 40
5.945639864099661
 49
3.567383918459797
 49
-2.378255945639864
  0
LTYPE
  2
DASHED
 70
     0
  3
CADPAC LINETYPE
 72
    65
 73
     2
 40
6.659116647791564
 49
4.756511891279729
 49
-1.902604756511835
  0
LTYPE
  2
DASHED2
 70
     0
  3
CADPAC LINETYPE
 72
    65
 73
     2
 40
4.280860702151699
 49
2.853907134767781
 49
-1.426953567383919
  0
LTYPE
  2
DASHEDX2
 70
     0
  3
CADPAC LINETYPE
 72
    65
 73
     2
 40
11.41562853907124
 49
9.513023782559401
 49
-1.902604756511835
  0
LTYPE
  2
DOTX2
 70
     0
  3
CADPAC LINETYPE
 72
    65
 73
     2
 40
4.161947904869763
 49
0.0
 49
-4.161947904869763
  0
LTYPE
  2
DOT
 70
     0
  3
CADPAC LINETYPE
 72
    65
 73
     2
 40
3.32955832389581
 49
0.0
 49
-3.32955832389581
  0
LTYPE
  2
DOT2
 70
     0
  3
CADPAC LINETYPE
 72
    65
 73
     2
 40
2.497168742921858
 49
0.0
 49
-2.497168742921858
  0
LTYPE
  2
CENTERX2
 70
     0
  3
CADPAC LINETYPE
 72
    65
 73
     4
 40
14.26953567383919
 49
5.945639864099661
 49
-2.972819932049831
 49
2.378255945639864
 49
-2.972819932049831
  0
LTYPE
  2
CENTER
 70
     0
  3
CADPAC LINETYPE
 72
    65
 73
     4
 40
10.93997734994338
 49
4.756511891279729
 49
-2.378255945639864
 49
1.426953567383919
 49
-2.378255945639864
  0
LTYPE
  2
CENTER2
 70
     0
  3
CADPAC LINETYPE
 72
    65
 73
     4
 40
7.610419026047566
 49
3.567383918459797
 49
-1.783691959229898
 49
0.4756511891279729
 49
-1.783691959229898
  0
LTYPE
  2
DASHDOTX2
 70
     0
  3
CADPAC LINETYPE
 72
    65
 73
     4
 40
22.8312570781427
 49
11.41562853907135
 49
-3.805209513023783
 49
3.805209513023783
 49
-3.805209513023783
  0
LTYPE
  2
DASHDOT
 70
     0
  3
CADPAC LINETYPE
 72
    65
 73
     4
 40
11.41562853907112
 49
5.707814269535618
 49
-1.902604756511835
 49
1.902604756511835
 49
-1.902604756511835
  0
LTYPE
  2
DASHDOT2
 70
     0
  3
CADPAC LINETYPE
 72
    65
 73
     4
 40
7.325028312570649
 49
4.280860702151713
 49
-1.426953567383876
 49
0.1902604756511835
 49
-1.426953567383876
  0
LTYPE
  2
DIVIDEX2
 70
     0
  3
CADPAC LINETYPE
 72
    65
 73
     6
 40
30.44167610419027
 49
11.41562853907135
 49
-3.805209513023783
 49
3.805209513023783
 49
-3.805209513023783
 49
3.805209513023783
 49
-3.805209513023783
  0
LTYPE
  2
DIVIDE
 70
     0
  3
CADPAC LINETYPE
 72
    65
 73
     6
 40
15.22083805209479
 49
5.707814269535618
 49
-1.902604756511835
 49
1.902604756511835
 49
-1.902604756511835
 49
1.902604756511835
 49
-1.902604756511835
  0
LTYPE
  2
DIVIDE2
 70
     0
  3
CADPAC LINETYPE
 72
    65
 73
     6
 40
11.41562853907109
 49
4.280860702151713
 49
-1.426953567383876
 49
1.426953567383876
 49
-1.426953567383876
 49
1.426953567383876
 49
-1.426953567383876
  0
LTYPE
  2
BORDERX2
 70
     0
  3
CADPAC LINETYPE
 72
    65
 73
     6
 40
20.80973952434881
 49
5.945639864099661
 49
-2.972819932049831
 49
5.945639864099661
 49
-2.972819932049831
 49
0.0
 49
-2.972819932049831
  0
LTYPE
  2
BORDER
 70
     0
  3
CADPAC LINETYPE
 72
    65
 73
     6
 40
16.64779161947905
 49
4.756511891279729
 49
-2.378255945639864
 49
4.756511891279729
 49
-2.378255945639864
 49
0.0
 49
-2.378255945639864
  0
LTYPE
  2
BORDER2
 70
     0
  3
CADPAC LINETYPE
 72
    65
 73
     6
 40
12.36693091732718
 49
3.805209513023783
 49
-2.378255945639808
 49
1.426953567383919
 49
-2.378255945639808
 49
0.0
 49
-2.378255945639864
  0
LTYPE
  2
PHANTOMX2
 70
     0
  3
CADPAC LINETYPE
 72
    65
 73
     6
 40
17.83691959229898
 49
5.945639864099661
 49
-2.378255945639864
 49
2.378255945639864
 49
-2.378255945639864
 49
2.378255945639864
 49
-2.378255945639864
  0
LTYPE
  2
PHANTOM
 70
     0
  3
CADPAC LINETYPE
 72
    65
 73
     6
 40
14.74518686296716
 49
4.756511891279729
 49
-2.378255945639864
 49
1.426953567383919
 49
-2.378255945639864
 49
1.426953567383919
 49
-2.378255945639864
  0
LTYPE
  2
PHANTOM2
 70
     0
  3
CADPAC LINETYPE
 72
    65
 73
     6
 40
12.60475651189128
 49
3.567383918459797
 49
-2.378255945639864
 49
0.9513023782559458
 49
-2.378255945639864
 49
0.9513023782559458
 49
-2.378255945639864
  0
LTYPE
  2
ACAD_ISO06W100
 70
     0
  3
CADPAC LINETYPE
 72
    65
 73
     8
 40
25.20951302378234
 49
11.41562853907135
 49
-2.378255945639808
 49
1.426953567383919
 49
-2.378255945639808
 49
1.426953567383919
 49
-2.378255945639808
 49
1.426953567383919
 49
-2.378255945639808
  0
LTYPE
  2
ACAD_ISO13W100
 70
     0
  3
CADPAC LINETYPE
 72
    65
 73
     8
 40
19.02604756511892
 49
4.756511891279729
 49
-2.378255945639864
 49
4.756511891279729
 49
-2.378255945639864
 49
0.0
 49
-2.378255945639864
 49
0.0
 49
-2.378255945639864
  0
LTYPE
  2
ACAD_ISO14W100
 70
     0
  3
CADPAC LINETYPE
 72
    65
 73
     8
 40
14.26953567383919
 49
4.756511891279729
 49
-2.378255945639864
 49
0.0
 49
-2.378255945639864
 49
0.0
 49
-2.378255945639864
 49
0.0
 49
-2.378255945639864
  0
ENDTAB
  0
TABLE
  2
LAYER
 70
     3
  0
LAYER
  2
0
 70
     0
 62
     7
  6
CONTINUOUS
  0
LAYER
  2
LAYER0014
 70
     0
 62
     7
  6
CONTINUOUS
  0
LAYER
  2
ZUWAKU
 70
     0
 62
     7
  6
CONTINUOUS
  0
ENDTAB
  0
TABLE
  2
STYLE
 70
     5
  0
STYLE
  2
STANDARD
 70
     0
 40
0.0
 41
1.0
 50
0.0
 71
     0
 42
0.2
  3
txt
  4

  0
STYLE
  2
FDASTYLE1
 70
     0
 40
4.0
 41
0.7368423294667926
 50
0.0
 71
     0
 42
0.2
  3
txt.shx
  4
bigfont
  0
STYLE
  2
FDASTYLE0
 70
     4
 40
2.6656
 41
0.8
 50
0.0
 71
     0
 42
0.2
  3
txt.shx
  4
bigfont
  0
STYLE
  2
FDASTYLE2
 70
     0
 40
7.0
 41
0.8123476848090983
 50
0.0
 71
     0
 42
0.2
  3
MSMINCHO.TTC
  4

  0
STYLE
  2
FDASTYLE3
 70
     0
 40
8.0
 41
0.77
 50
0.0
 71
     0
 42
0.2
  3
MSGOTHIC.TTC
  4

  0
ENDTAB
  0
TABLE
  2
VIEW
 70
     0
  0
ENDTAB
  0
TABLE
  2
UCS
 70
     0
  0
ENDTAB
  0
TABLE
  2
APPID
 70
     2
  0
APPID
  2
ACAD
 70
     0
  0
APPID
  2
DAFUSIONOUT
 70
     0
  0
ENDTAB
  0
TABLE
  2
DIMSTYLE
 70
     1
  0
DIMSTYLE
  2
STANDARD
 70
     0
  3

  4

  5

  6

  7

 40
1.0
 41
0.18
 42
0.0625
 43
0.38
 44
0.18
 45
0.0
 46
0.0
 47
0.0
 48
0.0
140
0.18
141
0.09
142
0.0
143
25.4
144
1.0
145
0.0
146
1.0
147
0.09
 71
     0
 72
     0
 73
     1
 74
     1
 75
     0
 76
     0
 77
     0
 78
     0
170
     0
171
     2
172
     0
173
     0
174
     0
175
     0
176
     0
177
     0
178
     0
  0
ENDTAB
  0
ENDSEC
  0
SECTION
  2
BLOCKS
  0
BLOCK
  8
0
  2
$MODEL_SPACE
 70
     0
 10
0.0
 20
0.0
 30
0.0
  3
$MODEL_SPACE
  1

  0
ENDBLK
  5
21
  8
0
  0
BLOCK
 67
     1
  8
0
  2
$PAPER_SPACE
 70
     0
 10
0.0
 20
0.0
 30
0.0
  3
$PAPER_SPACE
  1

  0
ENDBLK
  5
1D
 67
     1
  8
0
  0
BLOCK
  8
0
  2
DA_IMAGEDIMGROUP_1
 70
     0
 10
0.0
 20
0.0
 30
0.0
  3
DA_IMAGEDIMGROUP_1
  1

  0
LINE
  5
CA
  8
LAYER0014
  6
CONTINUOUS
 62
     7
 10
77.39770196640299
 20
4.786191597071248
 30
0.0
 11
63.16601029034577
 21
-3.430475990807253
 31
0.0
  0
LINE
  5
CB
  8
LAYER0014
  6
CONTINUOUS
 62
     7
 10
82.89770275982387
 20
-4.740072977643616
 30
0.0
 11
68.66600096152655
 21
-12.95674795461864
 31
0.0
  0
LINE
  5
CC
  8
LAYER0014
  6
CONTINUOUS
 62
     7
 10
65.14573899573364
 20
-2.287471172566455
 30
0.0
 11
70.64573416775843
 21
-11.81374679907989
 31
0.0
  0
LINE
  5
CD
  8
LAYER0014
  6
CONTINUOUS
 62
     7
 10
83.12105905717412
 20
-33.42165366259181
 30
0.0
 11
70.64573416775843
 21
-11.81374679907989
 31
0.0
  0
INSERT
  5
D4
  8
LAYER0014
 62
     7
  2
_OPEN30
 10
70.64573416775843
 20
-11.81374679907989
 30
0.0
 41
1.999998407630662
 42
2.000005728319971
 50
119.9999881575215
  0
LINE
  5
D5
  8
LAYER0014
  6
CONTINUOUS
 62
     7
 10
62.64573989072869
 20
2.042656363081248
 30
0.0
 11
65.14573899573364
 21
-2.287471172566455
 31
0.0
  0
INSERT
  5
D6
  8
LAYER0014
 62
     7
  2
_OPEN30
 10
65.14573899573364
 20
-2.287471172566455
 30
0.0
 41
1.999998407630662
 42
2.000005728319971
 50
299.9999881575215
  0
TEXT
  5
D8
  8
LAYER0014
 62
     7
 10
77.08708603449037
 20
-20.97050011115215
 30
0.0
 40
4.0
  1
11H8
 50
-59.99999999999999
 41
0.7368423294667926
  7
FDASTYLE1
 72
     5
 11
83.48708703449037
 21
-32.05562701164378
 31
0.0
  0
ENDBLK
  5
4E
  8
0
  0
BLOCK
  8
0
  2
DA_IMAGEDIMGROUP_2
 70
     0
 10
0.0
 20
0.0
 30
0.0
  3
DA_IMAGEDIMGROUP_2
  1

  0
LINE
  5
D9
  8
LAYER0014
  6
CONTINUOUS
 62
     7
 10
73.02270598179067
 20
12.36391262825691
 30
0.0
 11
47.62929297126291
 21
-2.296980598294368
 31
0.0
  0
LINE
  5
DA
  8
LAYER0014
  6
CONTINUOUS
 62
     7
 10
87.27271294409022
 20
-12.31781429658668
 30
0.0
 11
61.87929653160333
 21
-26.97871210883241
 31
0.0
  0
LINE
  5
DB
  8
LAYER0014
  6
CONTINUOUS
 62
     7
 10
49.60901564345423
 20
-1.153970716497696
 30
0.0
 11
63.85902687893091
 21
-25.8357107994843
 31
0.0
  0
INSERT
  5
DC
  8
LAYER0014
 62
     7
  2
_OPEN30
 10
49.60901564345423
 20
-1.153970716497696
 30
0.0
 41
1.999998407630662
 42
2.000005728319971
 50
120.0000034028506
  0
INSERT
  5
DD
  8
LAYER0014
 62
     7
  2
_OPEN30
 10
63.85902687893091
 20
-25.8357107994843
 30
0.0
 41
1.999998407630662
 42
2.000005728319971
 50
300.0000034028506
  0
TEXT
  5
DE
  8
LAYER0014
 62
     7
 10
56.57680694054159
 20
-10.02253113576088
 30
0.0
 40
4.0
  1
28
 50
-59.99999999999999
 41
0.7297299726077678
  7
FDASTYLE1
 72
     5
 11
59.6625219405416
 21
-15.36714629343828
 31
0.0
  0
ENDBLK
  5
51
  8
0
  0
BLOCK
  8
0
  2
DC_GROUP_1
 70
     0
 10
0.0
 20
0.0
 30
0.0
  3
DC_GROUP_1
  1

  0
LINE
  5
DF
  8
LAYER0014
  6
CONTINUOUS
 62
     7
 10
152.5525389859467
 20
1.661164527826969
 30
0.0
 11
121.7564858628171
 21
-55.43985394097317
 31
0.0
  0
INSERT
  5
E0
  8
LAYER0014
 62
     7
  2
_OPEN30
 10
152.5525389859467
 20
1.661164527826969
 30
0.0
 41
1.999998407630662
 42
2.000005728319971
 50
61.6608693488017
  0
LINE
  5
E1
  8
LAYER0014
  6
CONTINUOUS
 62
     7
 10
121.7564847319865
 20
-55.43985366821286
 30
0.0
 11
78.32681511337992
 21
-55.43985366821286
 31
0.0
  0
TEXT
  5
E2
  8
LAYER0014
 62
     7
 10
78.48632242827556
 20
-53.83985366821286
 30
0.0
 40
4.0
  1
3-M6×13 PCD76
 41
0.7371543494372209
  7
FDASTYLE1
 72
     5
 11
121.1148984282756
 21
-53.83985366821286
 31
0.0
  0
ENDBLK
  5
54
  8
0
  0
BLOCK
  8
0
  2
DA_IMAGEDIMGROUP_3
 70
     0
 10
0.0
 20
0.0
 30
0.0
  3
DA_IMAGEDIMGROUP_3
  1

  0
LINE
  5
E3
  8
LAYER0014
  6
CONTINUOUS
 62
     7
 10
79.1685422933172
 20
85.67278653114937
 30
0.0
 11
65.9015577787267
 21
93.33247524898323
 31
0.0
  0
LINE
  5
E4
  8
LAYER0014
  6
CONTINUOUS
 62
     7
 10
61.53819913323161
 20
42.56517028808597
 30
0.0
 11
52.29851888115641
 21
42.56517028808597
 31
0.0
  0
ARC
  5
E5
  8
LAYER0014
  6
CONTINUOUS
 62
     7
 10
153.833022817924
 20
42.56522369384769
 30
0.0
 40
99.24850463867188
 50
150.0000110043195
 51
179.9999640278213
  0
INSERT
  5
E6
  8
LAYER0014
 62
     7
  2
_OPEN30
 10
67.88128698230443
 20
92.18945950515609
 30
0.0
 41
1.999998407630662
 42
2.000005728319971
 50
60.57730683514718
  0
INSERT
  5
E7
  8
LAYER0014
 62
     7
  2
_OPEN30
 10
54.58451817927167
 20
42.56528600532986
 30
0.0
 41
1.999998407630662
 42
2.000005728319971
 50
269.4226681969931
  0
TEXT
  5
E8
  8
LAYER0014
 62
     7
 10
55.18603912630992
 20
64.09033976379496
 30
0.0
 40
4.0
  1
30ﾟ
 50
74.89999999999999
 41
0.7345135045814388
  7
FDASTYLE1
 72
     5
 11
57.65711091201362
 21
73.24853894608812
 31
0.0
  0
ENDBLK
  5
57
  8
0
  0
BLOCK
  8
0
  2
DA_IMAGEDIMGROUP_4
 70
     0
 10
0.0
 20
0.0
 30
0.0
  3
DA_IMAGEDIMGROUP_4
  1

  0
LINE
  5
E9
  8
LAYER0014
  6
CONTINUOUS
 62
     7
 10
246.261809133842
 20
42.56522369384769
 30
0.0
 11
254.3202435820842
 21
42.56522369384769
 31
0.0
  0
LINE
  5
EA
  8
LAYER0014
  6
CONTINUOUS
 62
     7
 10
228.4972660066671
 20
85.67272230271642
 30
0.0
 11
240.8574960992799
 21
92.80890064226441
 31
0.0
  0
ARC
  5
EB
  8
LAYER0014
  6
CONTINUOUS
 62
     7
 10
153.8328626006388
 20
42.56522369384769
 30
0.0
 40
98.20139312744141
 50
0.0
 51
29.99999400463689
  0
INSERT
  5
EC
  8
LAYER0014
 62
     7
  2
_OPEN30
 10
252.0342557280802
 20
42.56522369384769
 30
0.0
 41
1.999998407630662
 42
2.000005728319971
 50
270.5834514778164
  0
INSERT
  5
ED
  8
LAYER0014
 62
     7
  2
_OPEN30
 10
238.8777688738645
 20
91.66591135856949
 30
0.0
 41
1.999998407630662
 42
2.000005728319971
 50
119.4165425268215
  0
TEXT
  5
EE
  8
LAYER0014
 62
     7
 10
249.0060570710376
 20
72.97696503457095
 30
0.0
 40
4.0
  1
30ﾟ
 50
-74.99999999999997
 41
0.7345135045814403
  7
FDASTYLE1
 72
     5
 11
251.4611410282713
 21
63.8144669693275
 31
0.0
  0
ENDBLK
  5
5A
  8
0
  0
BLOCK
  8
0
  2
DA_IMAGEDIMGROUP_5
 70
     0
 10
0.0
 20
0.0
 30
0.0
  3
DA_IMAGEDIMGROUP_5
  1

  0
LINE
  5
EF
  8
LAYER0014
  6
CONTINUOUS
 62
     7
 10
130.832893118217
 20
48.38431077204423
 30
0.0
 11
130.832893118217
 21
51.9194259643555
 31
0.0
  0
LINE
  5
F0
  8
LAYER0014
  6
CONTINUOUS
 62
     7
 10
176.832893118217
 20
48.53078572336491
 30
0.0
 11
176.832893118217
 21
51.9194259643555
 31
0.0
  0
LINE
  5
F1
  8
LAYER0014
  6
CONTINUOUS
 62
     7
 10
130.832893118217
 20
50.9194259643555
 30
0.0
 11
176.832893118217
 21
50.9194259643555
 31
0.0
  0
INSERT
  5
F2
  8
LAYER0014
 62
     7
  2
_OPEN30
 10
130.832893118217
 20
50.9194259643555
 30
0.0
 41
1.999998407630662
 42
2.000005728319971
 50
180.0
  0
INSERT
  5
F3
  8
LAYER0014
 62
     7
  2
_OPEN30
 10
176.832893118217
 20
50.9194259643555
 30
0.0
 41
1.999998407630662
 42
2.000005728319971
 50
360.0
  0
TEXT
  5
F4
  8
LAYER0014
 62
     7
 10
137.967429861381
 20
52.5194259643555
 30
0.0
 40
4.0
  1
φ3.2 PCD46
 41
0.7843137254901962
  7
FDASTYLE1
 72
     5
 11
169.967429861381
 21
52.5194259643555
 31
0.0
  0
ENDBLK
  5
5D
  8
0
  0
BLOCK
  8
0
  2
DC_GROUP_2
 70
     0
 10
0.0
 20
0.0
 30
0.0
  3
DC_GROUP_2
  1

  0
LINE
  5
F5
  8
LAYER0014
  6
CONTINUOUS
 62
     7
 10
160.1023952473071
 20
-32.5062322472613
 30
0.0
 11
172.120096685259
 21
-55.68322860008354
 31
0.0
  0
INSERT
  5
F6
  8
LAYER0014
 62
     7
  2
_OPEN30
 10
160.1023952473071
 20
-32.5062322472613
 30
0.0
 41
1.999998407630662
 42
2.000005728319971
 50
117.4075747079489
  0
LINE
  5
F7
  8
LAYER0014
  6
CONTINUOUS
 62
     7
 10
172.1200940459513
 20
-55.68322753906247
 30
0.0
 11
202.9789121001506
 21
-55.68322753906247
 31
0.0
  0
TEXT
  5
F8
  8
LAYER0014
 62
     7
 10
173.2646252959513
 20
-54.08322753906247
 30
0.0
 40
4.0
  1
PCD133.35
 41
0.7406342202825741
  7
FDASTYLE1
 72
     5
 11
202.6360572959513
 21
-54.08322753906247
 31
0.0
  0
ENDBLK
  5
60
  8
0
  0
BLOCK
  8
0
  2
DA_IMAGEDIMGROUP_6
 70
     0
 10
0.0
 20
0.0
 30
0.0
  3
DA_IMAGEDIMGROUP_6
  1

  0
LINE
  5
F9
  8
LAYER0014
  6
CONTINUOUS
 62
     7
 10
-74.65905787511683
 20
125.4839086914063
 30
0.0
 11
-74.65905787511683
 21
149.4090728759766
 31
0.0
  0
LINE
  5
FA
  8
LAYER0014
  6
CONTINUOUS
 62
     7
 10
-75.65905787511683
 20
127.6052313232422
 30
0.0
 11
-75.65905787511683
 21
149.4090728759766
 31
0.0
  0
LINE
  5
FB
  8
LAYER0014
  6
CONTINUOUS
 62
     7
 10
-74.65905787511683
 20
147.1230773925782
 30
0.0
 11
-75.65905787511683
 21
147.1230773925782
 31
0.0
  0
LINE
  5
FC
  8
LAYER0014
  6
CONTINUOUS
 62
     7
 10
-83.48121508019496
 20
147.1230773925782
 30
0.0
 11
-75.65905787511683
 21
147.1230773925782
 31
0.0
  0
INSERT
  5
FD
  8
LAYER0014
 62
     7
  2
_OPEN30
 10
-75.65905787511683
 20
147.1230773925782
 30
0.0
 41
1.999998407630662
 42
2.000005728319971
 50
360.0
  0
LINE
  5
FE
  8
LAYER0014
  6
CONTINUOUS
 62
     7
 10
-69.65905787511683
 20
147.1230773925782
 30
0.0
 11
-74.65905787511683
 21
147.1230773925782
 31
0.0
  0
INSERT
  5
FF
  8
LAYER0014
 62
     7
  2
_OPEN30
 10
-74.65905787511683
 20
147.1230773925782
 30
0.0
 41
1.999998407630662
 42
2.000005728319971
 50
180.0
  0
TEXT
  5
100
  8
LAYER0014
 62
     7
 10
-82.48121508019496
 20
148.1230773925782
 30
0.0
 40
4.0
  1
1
 41
0.7142860000000013
  7
FDASTYLE1
 72
     5
 11
-79.62407108019495
 21
148.1230773925782
 31
0.0
  0
ENDBLK
  5
63
  8
0
  0
BLOCK
  8
0
  2
DC_GROUP_3
 70
     0
 10
0.0
 20
0.0
 30
0.0
  3
DC_GROUP_3
  1

  0
LINE
  5
101
  8
LAYER0014
  6
CONTINUOUS
 62
     7
 10
-75.49832310442643
 20
121.3712283348669
 30
0.0
 11
-58.83538082873774
 21
146.8706340817298
 31
0.0
  0
INSERT
  5
102
  8
LAYER0014
 62
     7
  2
_OPEN30
 10
-75.49832310442643
 20
121.3712283348669
 30
0.0
 41
1.999998407630662
 42
2.000005728319971
 50
236.8368316386746
  0
LINE
  5
103
  8
LAYER0014
  6
CONTINUOUS
 62
     7
 10
-58.83538081212855
 20
146.8706359863282
 30
0.0
 11
-12.20571162267543
 21
146.8706359863282
 31
0.0
  0
TEXT
  5
104
  8
LAYER0014
 62
     7
 10
-58.3304369644723
 20
148.4706359863282
 30
0.0
 40
4.0
  1
ｾﾚｰｼｮﾝP1.5山60ﾟ
 41
0.7376148786886957
  7
FDASTYLE1
 72
     5
 11
-12.38757496447229
 21
148.4706359863282
 31
0.0
  0
ENDBLK
  5
66
  8
0
  0
BLOCK
  8
0
  2
DA_IMAGEDIMGROUP_7
 70
     0
 10
0.0
 20
0.0
 30
0.0
  3
DA_IMAGEDIMGROUP_7
  1

  0
LINE
  5
105
  8
LAYER0014
  6
CONTINUOUS
 62
     7
 10
-128.4490578751168
 20
63.56523132324222
 30
0.0
 11
-169.8415072159372
 21
63.56523132324222
 31
0.0
  0
LINE
  5
106
  8
LAYER0014
  6
CONTINUOUS
 62
     7
 10
-128.4490578751168
 20
21.56522369384769
 30
0.0
 11
-169.8415072159372
 21
21.56522369384769
 31
0.0
  0
LINE
  5
107
  8
LAYER0014
  6
CONTINUOUS
 62
     7
 10
-167.5555117325387
 20
63.56522369384769
 30
0.0
 11
-167.5555117325387
 21
21.56522369384769
 31
0.0
  0
INSERT
  5
108
  8
LAYER0014
 62
     7
  2
_OPEN30
 10
-167.5555117325387
 20
63.56522369384769
 30
0.0
 41
1.999998407630662
 42
2.000005728319971
 50
90.0
  0
INSERT
  5
109
  8
LAYER0014
 62
     7
  2
_OPEN30
 10
-167.5555117325387
 20
21.56522369384769
 30
0.0
 41
1.999998407630662
 42
2.000005728319971
 50
270.0
  0
TEXT
  5
10A
  8
LAYER0014
 62
     7
 10
-168.563889308695
 20
32.8652308046639
 30
0.0
 40
4.0
  1
φ42
 50
89.90000000000001
 41
0.7500000000000018
  7
FDASTYLE1
 72
     5
 11
-168.5471341563824
 21
42.46521618303149
 31
0.0
  0
TEXT
  5
10B
  8
LAYER0014
 62
     7
 10
-170.7453854772258
 20
43.46905438234975
 30
0.0
 40
2.2
  1
+0.3
 50
89.90000000000001
 41
0.7999999999999991
  7
FDASTYLE1
 72
     5
 11
-170.7330983655299
 21
50.50904365981929
 31
0.0
  0
TEXT
  5
10C
  8
LAYER0014
 62
     7
 10
-168.3453891326339
 20
43.4648655942716
 30
0.0
 40
2.2
  1
 0
 50
89.90000000000001
 41
0.800000000000003
  7
FDASTYLE1
 72
     5
 11
-168.3392455767859
 21
46.98486023300639
 31
0.0
  0
ENDBLK
  5
69
  8
0
  0
BLOCK
  8
0
  2
DA_IMAGEDIMGROUP_8
 70
     0
 10
0.0
 20
0.0
 30
0.0
  3
DA_IMAGEDIMGROUP_8
  1

  0
LINE
  5
10D
  8
LAYER0014
  6
CONTINUOUS
 62
     7
 10
-105.4490578751168
 20
67.81523132324222
 30
0.0
 11
-181.6846468643747
 21
67.81523132324222
 31
0.0
  0
LINE
  5
10E
  8
LAYER0014
  6
CONTINUOUS
 62
     7
 10
-105.4490578751168
 20
17.31522369384769
 30
0.0
 11
-181.6846468643747
 21
17.31522369384769
 31
0.0
  0
LINE
  5
10F
  8
LAYER0014
  6
CONTINUOUS
 62
     7
 10
-179.3986513809762
 20
67.81522369384769
 30
0.0
 11
-179.3986513809762
 21
17.31522369384769
 31
0.0
  0
INSERT
  5
110
  8
LAYER0014
 62
     7
  2
_OPEN30
 10
-179.3986513809762
 20
67.81522369384769
 30
0.0
 41
1.999998407630662
 42
2.000005728319971
 50
90.0
  0
INSERT
  5
111
  8
LAYER0014
 62
     7
  2
_OPEN30
 10
-179.3986513809762
 20
17.31522369384769
 30
0.0
 41
1.999998407630662
 42
2.000005728319971
 50
270.0
  0
TEXT
  5
112
  8
LAYER0014
 62
     7
 10
-180.4181990586743
 20
31.36524075241887
 30
0.0
 40
4.0
  1
φ50.5H7
 50
89.90000000000001
 41
0.7777777777777771
  7
FDASTYLE1
 72
     5
 11
-180.3791037032782
 21
53.7652066352765
 31
0.0
  0
ENDBLK
  5
6C
  8
0
  0
BLOCK
  8
0
  2
DA_IMAGEDIMGROUP_9
 70
     0
 10
0.0
 20
0.0
 30
0.0
  3
DA_IMAGEDIMGROUP_9
  1

  0
LINE
  5
113
  8
LAYER0014
  6
CONTINUOUS
 62
     7
 10
-137.1990578751168
 20
73.06523132324222
 30
0.0
 11
-193.7909701065622
 21
73.06523132324222
 31
0.0
  0
LINE
  5
114
  8
LAYER0014
  6
CONTINUOUS
 62
     7
 10
-137.1990578751168
 20
12.06522369384769
 30
0.0
 11
-193.7909701065622
 21
12.06522369384769
 31
0.0
  0
LINE
  5
115
  8
LAYER0014
  6
CONTINUOUS
 62
     7
 10
-191.5049746231637
 20
73.06522369384769
 30
0.0
 11
-191.5049746231637
 21
12.06522369384769
 31
0.0
  0
INSERT
  5
116
  8
LAYER0014
 62
     7
  2
_OPEN30
 10
-191.5049746231637
 20
73.06522369384769
 30
0.0
 41
1.999998407630662
 42
2.000005728319971
 50
90.0
  0
INSERT
  5
117
  8
LAYER0014
 62
     7
  2
_OPEN30
 10
-191.5049746231637
 20
12.06522369384769
 30
0.0
 41
1.999998407630662
 42
2.000005728319971
 50
270.0
  0
TEXT
  5
118
  8
LAYER0014
 62
     7
 10
-192.5189372500909
 20
34.56523587854139
 30
0.0
 40
4.0
  1
φ61H7
 50
89.90000000000001
 41
0.7692307692307688
  7
FDASTYLE1
 72
     5
 11
-192.4910119962365
 21
50.56521150915398
 31
0.0
  0
ENDBLK
  5
6F
  8
0
  0
BLOCK
  8
0
  2
DA_IMAGEDIMGROUP_10
 70
     0
 10
0.0
 20
0.0
 30
0.0
  3
DA_IMAGEDIMGROUP_10
  1

  0
LINE
  5
119
  8
LAYER0014
  6
CONTINUOUS
 62
     7
 10
-154.1990578751168
 20
-39.93477630615232
 30
0.0
 11
-230.7259524063668
 21
-39.93477630615232
 31
0.0
  0
LINE
  5
11A
  8
LAYER0014
  6
CONTINUOUS
 62
     7
 10
-153.2558848155015
 20
125.0652313232422
 30
0.0
 11
-230.7259524063668
 21
125.0652313232422
 31
0.0
  0
LINE
  5
11B
  8
LAYER0014
  6
CONTINUOUS
 62
     7
 10
-228.4399416641793
 20
-39.93477630615232
 30
0.0
 11
-228.4399416641793
 21
125.0652313232422
 31
0.0
  0
INSERT
  5
11C
  8
LAYER0014
 62
     7
  2
_OPEN30
 10
-228.4399416641793
 20
-39.93477630615232
 30
0.0
 41
1.999998407630662
 42
2.000005728319971
 50
270.0
  0
INSERT
  5
11D
  8
LAYER0014
 62
     7
  2
_OPEN30
 10
-228.4399416641793
 20
125.0652313232422
 30
0.0
 41
1.999998407630662
 42
2.000005728319971
 50
90.0
  0
TEXT
  5
11E
  8
LAYER0014
 62
     7
 10
-229.4399416641793
 20
36.16522750854495
 30
0.0
 40
4.0
  1
φ165
 50
90.0
 41
0.7619047619047625
  7
FDASTYLE1
 72
     5
 11
-229.4399416641793
 21
48.96522750854496
 31
0.0
  0
ENDBLK
  5
72
  8
0
  0
BLOCK
  8
0
  2
DA_IMAGEDIMGROUP_11
 70
     0
 10
0.0
 20
0.0
 30
0.0
  3
DA_IMAGEDIMGROUP_11
  1

  0
LINE
  5
11F
  8
LAYER0014
  6
CONTINUOUS
 62
     7
 10
-145.1590578751168
 20
121.5445623779297
 30
0.0
 11
-145.1590578751168
 21
139.491455078125
 31
0.0
  0
LINE
  5
120
  8
LAYER0014
  6
CONTINUOUS
 62
     7
 10
-145.1590578751168
 20
137.2054595947266
 30
0.0
 11
-151.6590578751168
 21
137.2054595947266
 31
0.0
  0
LINE
  5
121
  8
LAYER0014
  6
CONTINUOUS
 62
     7
 10
-131.2822918387643
 20
137.2054595947266
 30
0.0
 11
-145.1590578751168
 21
137.2054595947266
 31
0.0
  0
INSERT
  5
122
  8
LAYER0014
 62
     7
  2
_OPEN30
 10
-145.1590578751168
 20
137.2054595947266
 30
0.0
 41
1.999998407630662
 42
2.000005728319971
 50
180.0
  0
LINE
  5
123
  8
LAYER0014
  6
CONTINUOUS
 62
     7
 10
-156.6590578751168
 20
137.2054595947266
 30
0.0
 11
-151.6590578751168
 21
137.2054595947266
 31
0.0
  0
INSERT
  5
124
  8
LAYER0014
 62
     7
  2
_OPEN30
 10
-151.6590578751168
 20
137.2054595947266
 30
0.0
 41
1.999998407630662
 42
2.000005728319971
 50
360.0
  0
TEXT
  5
125
  8
LAYER0014
 62
     7
 10
-141.7680078387643
 20
138.2054595947266
 30
0.0
 40
4.0
  1
6.5
 41
0.7345135045814384
  7
FDASTYLE1
 72
     5
 11
-132.2822918387643
 21
138.2054595947266
 31
0.0
  0
ENDBLK
  5
75
  8
0
  0
BLOCK
  8
0
  2
DA_IMAGEDIMGROUP_12
 70
     0
 10
0.0
 20
0.0
 30
0.0
  3
DA_IMAGEDIMGROUP_12
  1

  0
LINE
  5
126
  8
LAYER0014
  6
CONTINUOUS
 62
     7
 10
-151.6590578751168
 20
-77.08543265414748
 30
0.0
 11
-102.9090578751168
 21
-77.08543265414748
 31
0.0
  0
INSERT
  5
127
  8
LAYER0014
 62
     7
  2
_OPEN30
 10
-151.6590578751168
 20
-77.08543265414748
 30
0.0
 41
1.999998407630662
 42
2.000005728319971
 50
180.0
  0
INSERT
  5
128
  8
LAYER0014
 62
     7
  2
_OPEN30
 10
-102.9090578751168
 20
-77.08543265414748
 30
0.0
 41
1.999998407630662
 42
2.000005728319971
 50
360.0
  0
LINE
  5
129
  8
LAYER0014
  6
CONTINUOUS
 62
     7
 10
-151.6590578751168
 20
-67.05843353271482
 30
0.0
 11
-151.6590578751168
 21
-78.08543265414748
 31
0.0
  0
LINE
  5
12A
  8
LAYER0014
  6
CONTINUOUS
 62
     7
 10
-102.9090578751168
 20
14.77522369384769
 30
0.0
 11
-102.9090578751168
 21
-78.08543265414748
 31
0.0
  0
TEXT
  5
12B
  8
LAYER0014
 62
     7
 10
-138.4840578751168
 20
-75.48543265414749
 30
0.0
 40
4.0
  1
MAX57.5
 41
0.8000000000000002
  7
FDASTYLE1
 72
     5
 11
-116.0840578751168
 21
-75.48543265414749
 31
0.0
  0
ENDBLK
  5
78
  8
0
  0
BLOCK
  8
0
  2
DA_IMAGEDIMGROUP_13
 70
     0
 10
0.0
 20
0.0
 30
0.0
  3
DA_IMAGEDIMGROUP_13
  1

  0
LINE
  5
12C
  8
LAYER0014
  6
CONTINUOUS
 62
     7
 10
-198.8453744034372
 20
42.56522369384769
 30
0.0
 11
-205.9131777481637
 21
42.56522369384769
 31
0.0
  0
LINE
  5
12D
  8
LAYER0014
  6
CONTINUOUS
 62
     7
 10
-193.6554939622891
 20
109.2652130126953
 30
0.0
 11
-205.9131777481637
 21
109.2652130126953
 31
0.0
  0
LINE
  5
12E
  8
LAYER0014
  6
CONTINUOUS
 62
     7
 10
-203.6271670059762
 20
42.56522369384769
 30
0.0
 11
-203.6271670059762
 21
109.2652130126953
 31
0.0
  0
INSERT
  5
12F
  8
LAYER0014
 62
     7
  2
_OPEN30
 10
-203.6271670059762
 20
42.56522369384769
 30
0.0
 41
1.999998407630662
 42
2.000005728319971
 50
270.0
  0
INSERT
  5
130
  8
LAYER0014
 62
     7
  2
_OPEN30
 10
-203.6271670059762
 20
109.2652130126953
 30
0.0
 41
1.999998407630662
 42
2.000005728319971
 50
90.0
  0
TEXT
  5
131
  8
LAYER0014
 62
     7
 10
-204.6411296329034
 20
67.9152305379652
 30
0.0
 40
4.0
  1
R66.7
 50
89.90000000000001
 41
0.8000000000000004
  7
FDASTYLE1
 72
     5
 11
-204.613204379049
 21
83.91520616857781
 31
0.0
  0
ENDBLK
  5
7B
  8
0
  0
BLOCK
  8
0
  2
DA_IMAGEDIMGROUP_14
 70
     0
 10
0.0
 20
0.0
 30
0.0
  3
DA_IMAGEDIMGROUP_14
  1

  0
LINE
  5
132
  8
LAYER0014
  6
CONTINUOUS
 62
     7
 10
-153.1121950086086
 20
118.9952239990235
 30
0.0
 11
-193.7101748184762
 21
118.9952239990235
 31
0.0
  0
LINE
  5
133
  8
LAYER0014
  6
CONTINUOUS
 62
     7
 10
-153.1121950086086
 20
99.53521728515628
 30
0.0
 11
-193.7101748184762
 21
99.53521728515628
 31
0.0
  0
LINE
  5
134
  8
LAYER0014
  6
CONTINUOUS
 62
     7
 10
-191.4241793350778
 20
118.9952239990235
 30
0.0
 11
-191.4241793350778
 21
99.53521728515628
 31
0.0
  0
LINE
  5
135
  8
LAYER0014
  6
CONTINUOUS
 62
     7
 10
-191.4241793350778
 20
155.2043051444168
 30
0.0
 11
-191.4241793350778
 21
118.9952239990235
 31
0.0
  0
INSERT
  5
136
  8
LAYER0014
 62
     7
  2
_OPEN30
 10
-191.4241793350778
 20
118.9952239990235
 30
0.0
 41
1.999998407630662
 42
2.000005728319971
 50
270.0
  0
LINE
  5
137
  8
LAYER0014
  6
CONTINUOUS
 62
     7
 10
-191.4241793350778
 20
94.53521728515628
 30
0.0
 11
-191.4241793350778
 21
99.53521728515628
 31
0.0
  0
INSERT
  5
138
  8
LAYER0014
 62
     7
  2
_OPEN30
 10
-191.4241793350778
 20
99.53521728515628
 30
0.0
 41
1.999998407630662
 42
2.000005728319971
 50
90.0
  0
TEXT
  5
139
  8
LAYER0014
 62
     7
 10
-192.4241793350778
 20
126.8044671110591
 30
0.0
 40
4.0
  1
φ19.46
 50
89.90000000000001
 41
0.7741935483870958
  7
FDASTYLE1
 72
     5
 11
-192.3906690304525
 21
146.0044378677942
 31
0.0
  0
TEXT
  5
13A
  8
LAYER0014
 62
     7
 10
-194.5889203512959
 20
147.0082760671124
 30
0.0
 40
2.2
  1
+0.1
 50
89.90000000000001
 41
0.7999999999999998
  7
FDASTYLE1
 72
     5
 11
-194.5766332396
 21
154.048265344582
 31
0.0
  0
TEXT
  5
13B
  8
LAYER0014
 62
     7
 10
-192.188924006704
 20
147.0040872790343
 30
0.0
 40
2.2
  1
 0
 50
89.90000000000001
 41
0.7999999999999934
  7
FDASTYLE1
 72
     5
 11
-192.182780450856
 21
150.5240819177691
 31
0.0
  0
ENDBLK
  5
7E
  8
0
  0
BLOCK
  8
0
  2
DA_IMAGEDIMGROUP_15
 70
     0
 10
0.0
 20
0.0
 30
0.0
  3
DA_IMAGEDIMGROUP_15
  1

  0
LINE
  5
13C
  8
LAYER0014
  6
CONTINUOUS
 62
     7
 10
-154.1990578751168
 20
95.75272369384769
 30
0.0
 11
-218.1161806778512
 21
95.75272369384769
 31
0.0
  0
LINE
  5
13D
  8
LAYER0014
  6
CONTINUOUS
 62
     7
 10
-153.0501068204447
 20
-10.62227630615232
 30
0.0
 11
-218.1161806778512
 21
-10.62227630615232
 31
0.0
  0
LINE
  5
13E
  8
LAYER0014
  6
CONTINUOUS
 62
     7
 10
-215.8301699356637
 20
95.75272369384769
 30
0.0
 11
-215.8301699356637
 21
-10.62227630615232
 31
0.0
  0
INSERT
  5
13F
  8
LAYER0014
 62
     7
  2
_OPEN30
 10
-215.8301699356637
 20
95.75272369384769
 30
0.0
 41
1.999998407630662
 42
2.000005728319971
 50
90.0
  0
INSERT
  5
140
  8
LAYER0014
 62
     7
  2
_OPEN30
 10
-215.8301699356637
 20
-10.62227630615232
 30
0.0
 41
1.999998407630662
 42
2.000005728319971
 50
270.0
  0
TEXT
  5
141
  8
LAYER0014
 62
     7
 10
-216.8804353926016
 20
13.76526755874498
 30
0.0
 40
4.0
  1
φ106.375(A2-6テーパー）
 50
89.90000000000001
 41
0.7500000000000003
  7
FDASTYLE1
 72
     5
 11
-216.7799044787259
 21
71.36517982895037
 31
0.0
  0
ENDBLK
  5
81
  8
0
  0
BLOCK
  8
0
  2
DA_IMAGEDIMGROUP_16
 70
     0
 10
0.0
 20
0.0
 30
0.0
  3
DA_IMAGEDIMGROUP_16
  1

  0
LINE
  5
142
  8
LAYER0014
  6
CONTINUOUS
 62
     7
 10
-151.6590578751168
 20
-63.49137747836623
 30
0.0
 11
-134.6590578751168
 21
-63.49137747836623
 31
0.0
  0
INSERT
  5
143
  8
LAYER0014
 62
     7
  2
_OPEN30
 10
-151.6590578751168
 20
-63.49137747836623
 30
0.0
 41
1.999998407630662
 42
2.000005728319971
 50
180.0
  0
INSERT
  5
144
  8
LAYER0014
 62
     7
  2
_OPEN30
 10
-134.6590578751168
 20
-63.49137747836623
 30
0.0
 41
1.999998407630662
 42
2.000005728319971
 50
360.0
  0
LINE
  5
145
  8
LAYER0014
  6
CONTINUOUS
 62
     7
 10
-151.6590578751168
 20
-53.46437835693357
 30
0.0
 11
-151.6590578751168
 21
-64.49137747836623
 31
0.0
  0
LINE
  5
146
  8
LAYER0014
  6
CONTINUOUS
 62
     7
 10
-134.6590578751168
 20
-11.03728393554685
 30
0.0
 11
-134.6590578751168
 21
-64.49137747836623
 31
0.0
  0
TEXT
  5
147
  8
LAYER0014
 62
     7
 10
-146.3590578751168
 20
-62.49137747836623
 30
0.0
 40
4.0
  1
17
 41
0.7999999999999972
  7
FDASTYLE1
 72
     5
 11
-139.9590578751169
 21
-62.49137747836623
 31
0.0
  0
ENDBLK
  5
84
  8
0
  0
BLOCK
  8
0
  2
DA_IMAGEDIMGROUP_17
 70
     0
 10
0.0
 20
0.0
 30
0.0
  3
DA_IMAGEDIMGROUP_17
  1

  0
LINE
  5
148
  8
LAYER0014
  6
CONTINUOUS
 62
     7
 10
-151.6590578751168
 20
-90.74472678256545
 30
0.0
 11
-74.65905787511683
 21
-90.74472678256545
 31
0.0
  0
INSERT
  5
149
  8
LAYER0014
 62
     7
  2
_OPEN30
 10
-151.6590578751168
 20
-90.74472678256545
 30
0.0
 41
1.999998407630662
 42
2.000005728319971
 50
180.0
  0
INSERT
  5
14A
  8
LAYER0014
 62
     7
  2
_OPEN30
 10
-74.65905787511683
 20
-90.74472678256545
 30
0.0
 41
1.999998407630662
 42
2.000005728319971
 50
360.0
  0
LINE
  5
14B
  8
LAYER0014
  6
CONTINUOUS
 62
     7
 10
-151.6590578751168
 20
-42.47477630615231
 30
0.0
 11
-151.6590578751168
 21
-91.74472678256545
 31
0.0
  0
LINE
  5
14C
  8
LAYER0014
  6
CONTINUOUS
 62
     7
 10
-74.65905787511683
 20
-40.47477630615231
 30
0.0
 11
-74.65905787511683
 21
-91.74472678256545
 31
0.0
  0
TEXT
  5
14D
  8
LAYER0014
 62
     7
 10
-116.2092571180363
 20
-89.74472678256545
 30
0.0
 40
4.0
  1
77
 41
0.729729972607766
  7
FDASTYLE1
 72
     5
 11
-110.0378271180363
 21
-89.74472678256545
 31
0.0
  0
ENDBLK
  5
87
  8
0
  0
BLOCK
  8
0
  2
DA_IMAGEDIMGROUP_18
 70
     0
 10
0.0
 20
0.0
 30
0.0
  3
DA_IMAGEDIMGROUP_18
  1

  0
LINE
  5
14E
  8
LAYER0014
  6
CONTINUOUS
 62
     7
 10
-215.5761806778512
 20
-10.62214279174802
 30
0.0
 11
-189.5458986954293
 21
-10.62214279174802
 31
0.0
  0
LINE
  5
14F
  8
LAYER0014
  6
CONTINUOUS
 62
     7
 10
-153.0180258516383
 20
-10.79214035550676
 30
0.0
 11
-193.7900297905408
 21
-15.88863043913906
 31
0.0
  0
ENDBLK
  5
8A
  8
0
  0
BLOCK
  8
0
  2
DA_IMAGEDIMGROUP_19
 70
     0
 10
0.0
 20
0.0
 30
0.0
  3
DA_IMAGEDIMGROUP_19
  1

  0
LINE
  5
150
  8
LAYER0014
  6
CONTINUOUS
 62
     7
 10
-167.6590578751168
 20
-63.49137747836623
 30
0.0
 11
-151.6590578751168
 21
-63.49137747836623
 31
0.0
  0
INSERT
  5
151
  8
LAYER0014
 62
     7
  2
_OPEN30
 10
-167.6590578751168
 20
-63.49137747836623
 30
0.0
 41
1.999998407630662
 42
2.000005728319971
 50
180.0
  0
INSERT
  5
152
  8
LAYER0014
 62
     7
  2
_OPEN30
 10
-151.6590578751168
 20
-63.49137747836623
 30
0.0
 41
1.999998407630662
 42
2.000005728319971
 50
360.0
  0
LINE
  5
153
  8
LAYER0014
  6
CONTINUOUS
 62
     7
 10
-167.6590578751168
 20
-32.64977935791013
 30
0.0
 11
-167.6590578751168
 21
-64.49137747836623
 31
0.0
  0
LINE
  5
154
  8
LAYER0014
  6
CONTINUOUS
 62
     7
 10
-151.6590578751168
 20
-42.47477630615231
 30
0.0
 11
-151.6590578751168
 21
-64.49137747836623
 31
0.0
  0
TEXT
  5
155
  8
LAYER0014
 62
     7
 10
-162.8590530012394
 20
-62.48579242759536
 30
0.0
 40
4.0
  1
16
 50
-0.1000000000000078
 41
0.7999999999999954
  7
FDASTYLE1
 72
     5
 11
-156.4590627489943
 21
-62.49696252913711
 31
0.0
  0
ENDBLK
  5
8D
  8
0
  0
BLOCK
  8
0
  2
DA_IMAGEDIMGROUP_20
 70
     0
 10
0.0
 20
0.0
 30
0.0
  3
DA_IMAGEDIMGROUP_20
  1

  0
LINE
  5
156
  8
LAYER0014
  6
CONTINUOUS
 62
     7
 10
-168.8311503033933
 20
-18.10977935791013
 30
0.0
 11
-181.7387087540231
 21
-18.10977935791013
 31
0.0
  0
LINE
  5
157
  8
LAYER0014
  6
CONTINUOUS
 62
     7
 10
-168.8311503033933
 20
-30.10977935791013
 30
0.0
 11
-181.7387087540231
 21
-30.10977935791013
 31
0.0
  0
LINE
  5
158
  8
LAYER0014
  6
CONTINUOUS
 62
     7
 10
-179.4527132706247
 20
-18.10977935791013
 30
0.0
 11
-179.4527132706247
 21
-30.10977935791013
 31
0.0
  0
INSERT
  5
159
  8
LAYER0014
 62
     7
  2
_OPEN30
 10
-179.4527132706247
 20
-18.10977935791013
 30
0.0
 41
1.999998407630662
 42
2.000005728319971
 50
90.0
  0
INSERT
  5
15A
  8
LAYER0014
 62
     7
  2
_OPEN30
 10
-179.4527132706247
 20
-30.10977935791013
 30
0.0
 41
1.999998407630662
 42
2.000005728319971
 50
270.0
  0
TEXT
  5
15B
  8
LAYER0014
 62
     7
 10
-181.0610884098422
 20
-28.90697952170848
 30
0.0
 40
4.0
  1
M12
 50
89.90000000000001
 41
0.8000000000000016
  7
FDASTYLE1
 72
     5
 11
-181.0443332575296
 21
-19.3069941433409
 31
0.0
  0
ENDBLK
  5
90
  8
0
  0
BLOCK
  8
0
  2
DC_GROUP_4
 70
     0
 10
0.0
 20
0.0
 30
0.0
  3
DC_GROUP_4
  1

  0
LINE
  5
15C
  8
LAYER0014
  6
CONTINUOUS
 62
     7
 10
-63.83749251308136
 20
114.5675176853861
 30
0.0
 11
-49.81684794458333
 21
135.4554247540637
 31
0.0
  0
INSERT
  5
15D
  8
LAYER0014
 62
     7
  2
_OPEN30
 10
-63.83749251308136
 20
114.5675176853861
 30
0.0
 41
1.999998407630662
 42
2.000005728319971
 50
236.1291994664827
  0
LINE
  5
15E
  8
LAYER0014
  6
CONTINUOUS
 62
     7
 10
-49.81684901281214
 20
135.4554290771485
 30
0.0
 11
-41.58717371984339
 21
135.4554290771485
 31
0.0
  0
TEXT
  5
15F
  8
LAYER0014
 62
     7
 10
-49.24457575841761
 20
137.0554290771485
 30
0.0
 40
4.0
  1
M8
 41
0.7297299726077676
  7
FDASTYLE1
 72
     5
 11
-43.07314575841761
 21
137.0554290771485
 31
0.0
  0
ENDBLK
  5
93
  8
0
  0
BLOCK
  8
0
  2
DA_IMAGEDIMGROUP_21
 70
     0
 10
0.0
 20
0.0
 30
0.0
  3
DA_IMAGEDIMGROUP_21
  1

  0
ARC
  5
160
  8
0
  6
CONTINUOUS
 62
     9
 10
-151.659110681451
 20
-10.62227630615232
 30
0.0
 40
41.37048870300562
 50
180.0
 51
187.12500194683
  0
ARC
  5
161
  8
0
  6
CONTINUOUS
 62
     9
 10
-151.659110681451
 20
-10.62227630615232
 30
0.0
 40
41.37048870300562
 50
172.3063175215735
 51
180.0
  0
INSERT
  5
162
  8
0
 62
     9
  2
_OPEN30
 10
-193.0295993844566
 20
-10.62227630615231
 30
0.0
 41
1.999998407630662
 42
2.000005728319971
 50
268.6150575025806
  0
ARC
  5
163
  8
0
  6
CONTINUOUS
 62
     9
 10
-151.659110681451
 20
-10.62227630615232
 30
0.0
 40
41.37048870300562
 50
187.12500194683
 51
194.0497182493618
  0
INSERT
  5
164
  8
0
 62
     9
  2
_OPEN30
 10
-192.7101326601163
 20
-15.75364357352412
 30
0.0
 41
1.999998407630662
 42
2.000005728319971
 50
98.50994444424944
  0
ENDBLK
  5
96
  8
0
  0
BLOCK
  8
0
  2
DC_GROUP_5
 70
     0
 10
0.0
 20
0.0
 30
0.0
  3
DC_GROUP_5
  1

  0
TEXT
  5
165
  8
LAYER0014
 62
     7
 10
-25.3557841911369
 20
45.22375986411542
 30
0.0
 40
4.0
  1
MIN30.55
 50
90.0
 41
0.8
  7
FDASTYLE1
 72
     5
 11
-25.3557841911369
 21
70.82375986411542
 31
0.0
  0
ENDBLK
  5
99
  8
0
  0
BLOCK
  8
0
  2
DC_GROUP_6
 70
     0
 10
0.0
 20
0.0
 30
0.0
  3
DC_GROUP_6
  1

  0
TEXT
  5
166
  8
LAYER0014
 62
     7
 10
-31.11089837101783
 20
45.33140931898684
 30
0.0
 40
4.0
  1
MAX33.05
 50
90.0
 41
0.8000000000000003
  7
FDASTYLE1
 72
     5
 11
-31.11089837101783
 21
70.93140931898685
 31
0.0
  0
ENDBLK
  5
9C
  8
0
  0
BLOCK
  8
0
  2
DA_IMAGEDIMGROUP_22
 70
     0
 10
0.0
 20
0.0
 30
0.0
  3
DA_IMAGEDIMGROUP_22
  1

  0
LINE
  5
167
  8
LAYER0014
  6
CONTINUOUS
 62
     7
 10
-54.21256373449184
 20
86.06521987915042
 30
0.0
 11
-40.11540247960902
 21
86.06521987915042
 31
0.0
  0
LINE
  5
168
  8
LAYER0014
  6
CONTINUOUS
 62
     7
 10
-73.11905787511682
 20
74.56522369384769
 30
0.0
 11
-40.11540247960902
 21
74.56522369384769
 31
0.0
  0
LINE
  5
169
  8
LAYER0014
  6
CONTINUOUS
 62
     7
 10
-41.11540247960902
 20
86.06521987915042
 30
0.0
 11
-41.11540247960902
 21
74.56522369384769
 31
0.0
  0
INSERT
  5
16A
  8
LAYER0014
 62
     7
  2
_OPEN30
 10
-41.11540247960902
 20
86.06521987915042
 30
0.0
 41
1.999998407630662
 42
2.000005728319971
 50
90.0
  0
INSERT
  5
16B
  8
LAYER0014
 62
     7
  2
_OPEN30
 10
-41.11540247960902
 20
74.56522369384769
 30
0.0
 41
1.999998407630662
 42
2.000005728319971
 50
270.0
  0
TEXT
  5
16C
  8
LAYER0014
 62
     7
 10
-47.5154024319253
 20
75.51521987915042
 30
0.0
 40
4.0
  1
MIN
 50
90.0
 41
0.7999999999999995
  7
FDASTYLE1
 72
     5
 11
-47.5154024319253
 21
85.11521987915042
 31
0.0
  0
TEXT
  5
16D
  8
LAYER0014
 62
     7
 10
-42.71540247960901
 20
75.51521988511088
 30
0.0
 40
4.0
  1
 8
 50
90.0
 41
0.8000000000000007
  7
FDASTYLE1
 72
     5
 11
-42.71540247960901
 21
81.91521988511089
 31
0.0
  0
ENDBLK
  5
9F
  8
0
  0
BLOCK
  8
0
  2
DA_IMAGEDIMGROUP_23
 70
     0
 10
0.0
 20
0.0
 30
0.0
  3
DA_IMAGEDIMGROUP_23
  1

  0
LINE
  5
16E
  8
LAYER0014
  6
CONTINUOUS
 62
     7
 10
-30.30716635781175
 20
74.56522369384769
 30
0.0
 11
-30.30716635781175
 21
125.0652351379395
 31
0.0
  0
INSERT
  5
16F
  8
LAYER0014
 62
     7
  2
_OPEN30
 10
-30.30716635781175
 20
74.56522369384769
 30
0.0
 41
1.999998407630662
 42
2.000005728319971
 50
270.0
  0
INSERT
  5
170
  8
LAYER0014
 62
     7
  2
_OPEN30
 10
-30.30716635781175
 20
125.0652351379395
 30
0.0
 41
1.999998407630662
 42
2.000005728319971
 50
90.0
  0
LINE
  5
171
  8
LAYER0014
  6
CONTINUOUS
 62
     7
 10
-73.11905787511682
 20
74.56522369384769
 30
0.0
 11
-29.30716635781175
 21
74.56522369384769
 31
0.0
  0
LINE
  5
172
  8
LAYER0014
  6
CONTINUOUS
 62
     7
 10
-72.11905787511682
 20
125.0652351379395
 30
0.0
 11
-29.30716635781175
 21
125.0652351379395
 31
0.0
  0
TEXT
  5
173
  8
LAYER0014
 62
     7
 10
-31.30716635781175
 20
93.41522941589358
 30
0.0
 40
4.0
  1
50.5
 50
90.0
 41
0.8000000000000007
  7
FDASTYLE1
 72
     5
 11
-31.30716635781175
 21
106.2152294158936
 31
0.0
  0
ENDBLK
  5
A2
  8
0
  0
BLOCK
  8
0
  2
DA_IMAGEDIMGROUP_24
 70
     0
 10
0.0
 20
0.0
 30
0.0
  3
DA_IMAGEDIMGROUP_24
  1

  0
LINE
  5
174
  8
LAYER0014
  6
CONTINUOUS
 62
     7
 10
-41.14029349958903
 20
9.565223693847686
 30
0.0
 11
-41.14029349958903
 21
65.76522064208987
 31
0.0
  0
INSERT
  5
175
  8
LAYER0014
 62
     7
  2
_OPEN30
 10
-41.14029349958903
 20
9.565223693847686
 30
0.0
 41
1.999998407630662
 42
2.000005728319971
 50
270.0
  0
LINE
  5
176
  8
LAYER0014
  6
CONTINUOUS
 62
     7
 10
-72.11905787511682
 20
9.565223693847685
 30
0.0
 11
-40.14029349958903
 21
9.565223693847686
 31
0.0
  0
TEXT
  5
177
  8
LAYER0014
 62
     7
 10
-42.74029349958903
 20
34.50737380981448
 30
0.0
 40
4.0
  1
φ66H7
 50
90.0
 41
0.7692307692307692
  7
FDASTYLE1
 72
     5
 11
-42.74029349958903
 21
50.50737380981448
 31
0.0
  0
ENDBLK
  5
A5
  8
0
  0
BLOCK
  8
0
  2
DA_IMAGEDIMGROUP_25
 70
     0
 10
0.0
 20
0.0
 30
0.0
  3
DA_IMAGEDIMGROUP_25
  1

  0
LINE
  5
178
  8
LAYER0014
  6
CONTINUOUS
 62
     7
 10
-54.21256373449184
 20
86.06521987915042
 30
0.0
 11
-40.11540247960902
 21
86.06521987915042
 31
0.0
  0
LINE
  5
179
  8
LAYER0014
  6
CONTINUOUS
 62
     7
 10
-53.91324732824184
 20
111.0652351379395
 30
0.0
 11
-40.11540247960902
 21
111.0652351379395
 31
0.0
  0
LINE
  5
17A
  8
LAYER0014
  6
CONTINUOUS
 62
     7
 10
-41.11540247960902
 20
86.06521987915042
 30
0.0
 11
-41.11540247960902
 21
111.0652351379395
 31
0.0
  0
INSERT
  5
17B
  8
LAYER0014
 62
     7
  2
_OPEN30
 10
-41.11540247960902
 20
86.06521987915042
 30
0.0
 41
1.999998407630662
 42
2.000005728319971
 50
270.0
  0
INSERT
  5
17C
  8
LAYER0014
 62
     7
  2
_OPEN30
 10
-41.11540247960902
 20
111.0652351379395
 30
0.0
 41
1.999998407630662
 42
2.000005728319971
 50
90.0
  0
TEXT
  5
17D
  8
LAYER0014
 62
     7
 10
-42.11540247960902
 20
95.36522750854495
 30
0.0
 40
4.0
  1
25
 50
90.0
 41
0.8000000000000007
  7
FDASTYLE1
 72
     5
 11
-42.11540247960902
 21
101.765227508545
 31
0.0
  0
ENDBLK
  5
A8
  8
0
  0
BLOCK
  8
0
  2
DA_IMAGEDIMGROUP_26
 70
     0
 10
0.0
 20
0.0
 30
0.0
  3
DA_IMAGEDIMGROUP_26
  1

  0
LINE
  5
17E
  8
LAYER0014
  6
CONTINUOUS
 62
     7
 10
-49.80679521301082
 20
15.56522369384769
 30
0.0
 11
-49.80679521301082
 21
69.56522369384769
 31
0.0
  0
INSERT
  5
17F
  8
LAYER0014
 62
     7
  2
_OPEN30
 10
-49.80679521301082
 20
15.56522369384769
 30
0.0
 41
1.999998407630662
 42
2.000005728319971
 50
270.0
  0
INSERT
  5
180
  8
LAYER0014
 62
     7
  2
_OPEN30
 10
-49.80679521301082
 20
69.56522369384769
 30
0.0
 41
1.999998407630662
 42
2.000005728319971
 50
90.0
  0
LINE
  5
181
  8
LAYER0014
  6
CONTINUOUS
 62
     7
 10
-83.36905787511682
 20
15.56522369384769
 30
0.0
 11
-48.80679521301082
 21
15.56522369384769
 31
0.0
  0
LINE
  5
182
  8
LAYER0014
  6
CONTINUOUS
 62
     7
 10
-83.36905787511682
 20
69.56522369384769
 30
0.0
 11
-48.80679521301082
 21
69.56522369384769
 31
0.0
  0
TEXT
  5
183
  8
LAYER0014
 62
     7
 10
-50.80679521301082
 20
28.9652416489857
 30
0.0
 40
4.0
  1
M54×P1.25
 50
90.0
 41
0.782608695652174
  7
FDASTYLE1
 72
     5
 11
-50.80679521301082
 21
57.7652416489857
 31
0.0
  0
ENDBLK
  5
AB
  8
0
  0
BLOCK
  8
0
  2
DC_GROUP_7
 70
     0
 10
0.0
 20
0.0
 30
0.0
  3
DC_GROUP_7
  1

  0
LINE
  5
184
  8
LAYER0014
  6
CONTINUOUS
 62
     7
 10
-30.29976363423379
 20
42.56522369384769
 30
0.0
 11
-30.29976363423379
 21
74.56522369384769
 31
0.0
  0
INSERT
  5
185
  8
LAYER0014
 62
     7
  2
_OPEN30
 10
-30.29976363423379
 20
42.56522369384769
 30
0.0
 41
1.999998407630662
 42
2.000005728319971
 50
270.0
  0
INSERT
  5
186
  8
LAYER0014
 62
     7
  2
_OPEN30
 10
-30.29976363423379
 20
74.56522369384769
 30
0.0
 41
1.999998407630662
 42
2.000005728319971
 50
90.0
  0
LINE
  5
187
  8
LAYER0014
  6
CONTINUOUS
 62
     7
 10
-85.04171928791598
 20
74.56522369384769
 30
0.0
 11
-29.29976363423379
 21
74.56522369384769
 31
0.0
  0
LINE
  5
188
  8
LAYER0014
  6
CONTINUOUS
 62
     7
 10
-66.77869440179515
 20
42.56522369384769
 30
0.0
 11
-57.7510884503141
 21
42.56522369384769
 31
0.0
  0
LINE
  5
189
  8
LAYER0014
  6
CONTINUOUS
 62
     7
 10
-39.45514038864587
 20
42.56522369384769
 30
0.0
 11
-29.29976363423379
 21
42.56522369384769
 31
0.0
  0
ENDBLK
  5
AE
  8
0
  0
BLOCK
  8
0
  2
DA_IMAGEDIMGROUP_27
 70
     0
 10
0.0
 20
0.0
 30
0.0
  3
DA_IMAGEDIMGROUP_27
  1

  0
LINE
  5
18A
  8
LAYER0014
  6
CONTINUOUS
 62
     7
 10
-125.9090578751168
 20
29.4894943237305
 30
0.0
 11
-102.9090578751168
 21
29.4894943237305
 31
0.0
  0
INSERT
  5
18B
  8
LAYER0014
 62
     7
  2
_OPEN30
 10
-125.9090578751168
 20
29.4894943237305
 30
0.0
 41
1.999998407630662
 42
2.000005728319971
 50
180.0
  0
INSERT
  5
18C
  8
LAYER0014
 62
     7
  2
_OPEN30
 10
-102.9090578751168
 20
29.4894943237305
 30
0.0
 41
1.999998407630662
 42
2.000005728319971
 50
360.0
  0
TEXT
  5
18D
  8
LAYER0014
 62
     7
 10
-117.6090578751168
 20
30.4894943237305
 30
0.0
 40
4.0
  1
23
 41
0.8000000000000007
  7
FDASTYLE1
 72
     5
 11
-111.2090578751168
 21
30.4894943237305
 31
0.0
  0
ENDBLK
  5
B1
  8
0
  0
BLOCK
  8
0
  2
DA_IMAGEDIMGROUP_28
 70
     0
 10
0.0
 20
0.0
 30
0.0
  3
DA_IMAGEDIMGROUP_28
  1

  0
LINE
  5
18E
  8
LAYER0014
  6
CONTINUOUS
 62
     7
 10
-102.9090578751168
 20
29.4894943237305
 30
0.0
 11
-94.90905787511683
 21
29.4894943237305
 31
0.0
  0
INSERT
  5
18F
  8
LAYER0014
 62
     7
  2
_OPEN30
 10
-102.9090578751168
 20
29.4894943237305
 30
0.0
 41
1.999998407630662
 42
2.000005728319971
 50
180.0
  0
INSERT
  5
190
  8
LAYER0014
 62
     7
  2
_OPEN30
 10
-94.90905787511683
 20
29.4894943237305
 30
0.0
 41
1.999998407630662
 42
2.000005728319971
 50
360.0
  0
TEXT
  5
191
  8
LAYER0014
 62
     7
 10
-100.5090578751168
 20
30.4894943237305
 30
0.0
 40
4.0
  1
8
 41
0.7999999999999972
  7
FDASTYLE1
 72
     5
 11
-97.30905787511684
 21
30.4894943237305
 31
0.0
  0
ENDBLK
  5
B4
  8
0
  0
BLOCK
  8
0
  2
DA_IMAGEDIMGROUP_29
 70
     0
 10
0.0
 20
0.0
 30
0.0
  3
DA_IMAGEDIMGROUP_29
  1

  0
LINE
  5
192
  8
LAYER0014
  6
CONTINUOUS
 62
     7
 10
-94.90905787511683
 20
29.4894943237305
 30
0.0
 11
-85.90905787511683
 21
29.4894943237305
 31
0.0
  0
LINE
  5
193
  8
LAYER0014
  6
CONTINUOUS
 62
     7
 10
-80.90905787511683
 20
29.4894943237305
 30
0.0
 11
-85.90905787511683
 21
29.4894943237305
 31
0.0
  0
INSERT
  5
194
  8
LAYER0014
 62
     7
  2
_OPEN30
 10
-85.90905787511683
 20
29.4894943237305
 30
0.0
 41
1.999998407630662
 42
2.000005728319971
 50
180.0
  0
LINE
  5
195
  8
LAYER0014
  6
CONTINUOUS
 62
     7
 10
-99.90905787511683
 20
29.4894943237305
 30
0.0
 11
-94.90905787511683
 21
29.4894943237305
 31
0.0
  0
INSERT
  5
196
  8
LAYER0014
 62
     7
  2
_OPEN30
 10
-94.90905787511683
 20
29.4894943237305
 30
0.0
 41
1.999998407630662
 42
2.000005728319971
 50
360.0
  0
TEXT
  5
197
  8
LAYER0014
 62
     7
 10
-92.57267835176432
 20
30.4894943237305
 30
0.0
 40
4.0
  1
9
 41
0.7999999999999972
  7
FDASTYLE1
 72
     5
 11
-89.37267835176434
 21
30.4894943237305
 31
0.0
  0
ENDBLK
  5
B7
  8
0
  0
BLOCK
  8
0
  2
DA_IMAGEDIMGROUP_30
 70
     0
 10
0.0
 20
0.0
 30
0.0
  3
DA_IMAGEDIMGROUP_30
  1

  0
LINE
  5
198
  8
LAYER0014
  6
CONTINUOUS
 62
     7
 10
-77.15905787511683
 20
20.89420318603519
 30
0.0
 11
-74.65905787511683
 21
20.89420318603519
 31
0.0
  0
LINE
  5
199
  8
LAYER0014
  6
CONTINUOUS
 62
     7
 10
-61.12720787511684
 20
20.89420318603519
 30
0.0
 11
-74.65905787511683
 21
20.89420318603519
 31
0.0
  0
INSERT
  5
19A
  8
LAYER0014
 62
     7
  2
_OPEN30
 10
-74.65905787511683
 20
20.89420318603519
 30
0.0
 41
1.999998407630662
 42
2.000005728319971
 50
180.0
  0
LINE
  5
19B
  8
LAYER0014
  6
CONTINUOUS
 62
     7
 10
-82.15905787511683
 20
20.89420318603519
 30
0.0
 11
-77.15905787511683
 21
20.89420318603519
 31
0.0
  0
INSERT
  5
19C
  8
LAYER0014
 62
     7
  2
_OPEN30
 10
-77.15905787511683
 20
20.89420318603519
 30
0.0
 41
1.999998407630662
 42
2.000005728319971
 50
360.0
  0
TEXT
  5
19D
  8
LAYER0014
 62
     7
 10
-71.72720787511683
 20
21.89420318603519
 30
0.0
 40
4.0
  1
2.5
 41
0.8000000000000002
  7
FDASTYLE1
 72
     5
 11
-62.12720787511683
 21
21.89420318603519
 31
0.0
  0
ENDBLK
  5
BA
  8
0
  0
BLOCK
  8
0
  2
DA_IMAGEDIMGROUP_31
 70
     0
 10
0.0
 20
0.0
 30
0.0
  3
DA_IMAGEDIMGROUP_31
  1

  0
LINE
  5
19E
  8
0
  6
CONTINUOUS
 62
     9
 10
51.29851888115641
 20
42.56517028808597
 30
0.0
 11
45.83029183567485
 21
42.56517028808597
 31
0.0
  0
LINE
  5
19F
  8
0
  6
CONTINUOUS
 62
     9
 10
100.2036359160685
 20
100.5652313232422
 30
0.0
 11
45.83029183567485
 21
100.5652313232422
 31
0.0
  0
LINE
  5
1A0
  8
0
  6
CONTINUOUS
 62
     9
 10
46.83029183567485
 20
42.56517028808597
 30
0.0
 11
46.83029183567485
 21
100.5652313232422
 31
0.0
  0
INSERT
  5
1A1
  8
0
 62
     9
  2
_OPEN30
 10
46.83029183567485
 20
42.56517028808597
 30
0.0
 41
1.999998407630662
 42
2.000005728319971
 50
270.0
  0
INSERT
  5
1A2
  8
0
 62
     9
  2
_OPEN30
 10
46.83029183567485
 20
100.5652313232422
 30
0.0
 41
1.999998407630662
 42
2.000005728319971
 50
90.0
  0
TEXT
  5
1A3
  8
0
 62
     7
 10
45.83029183567485
 20
68.36520080566409
 30
0.0
 40
4.0
  1
58
 50
90.0
 41
0.8000000000000007
  7
FDASTYLE1
 72
     5
 11
45.83029183567485
 21
74.76520080566409
 31
0.0
  0
ENDBLK
  5
BD
  8
0
  0
BLOCK
  8
0
  2
DA_IMAGEDIMGROUP_32
 70
     0
 10
0.0
 20
0.0
 30
0.0
  3
DA_IMAGEDIMGROUP_32
  1

  0
LINE
  5
1A4
  8
0
  6
CONTINUOUS
 62
     9
 10
123.8329322007101
 20
113.4499737041246
 30
0.0
 11
123.8329322007101
 21
137.8913084008559
 31
0.0
  0
LINE
  5
1A5
  8
0
  6
CONTINUOUS
 62
     9
 10
153.832893118217
 20
133.68994140625
 30
0.0
 11
153.832893118217
 21
137.8913084008559
 31
0.0
  0
LINE
  5
1A6
  8
0
  6
CONTINUOUS
 62
     9
 10
123.8329322007101
 20
136.8913084008559
 30
0.0
 11
153.832893118217
 21
136.8913084008559
 31
0.0
  0
INSERT
  5
1A7
  8
0
 62
     9
  2
_OPEN30
 10
123.8329322007101
 20
136.8913084008559
 30
0.0
 41
1.999998407630662
 42
2.000005728319971
 50
180.0
  0
INSERT
  5
1A8
  8
0
 62
     9
  2
_OPEN30
 10
153.832893118217
 20
136.8913084008559
 30
0.0
 41
1.999998407630662
 42
2.000005728319971
 50
360.0
  0
TEXT
  5
1A9
  8
0
 62
     7
 10
135.6329126594636
 20
137.8913084008559
 30
0.0
 40
4.0
  1
30
 41
0.7999999999999972
  7
FDASTYLE1
 72
     5
 11
142.0329126594635
 21
137.8913084008559
 31
0.0
  0
ENDBLK
  5
C0
  8
0
  0
BLOCK
  8
0
  2
DA_IMAGEDIMGROUP_33
 70
     0
 10
0.0
 20
0.0
 30
0.0
  3
DA_IMAGEDIMGROUP_33
  1

  0
LINE
  5
1AA
  8
LAYER0014
  6
CONTINUOUS
 62
     7
 10
59.33909782776161
 20
-37.39420058622122
 30
0.0
 11
69.56703755703521
 21
-31.48909748267707
 31
0.0
  0
LINE
  5
1AB
  8
LAYER0014
  6
CONTINUOUS
 62
     7
 10
67.33910993575589
 20
-51.25061810522542
 30
0.0
 11
77.56704470959213
 21
-45.34551786270404
 31
0.0
  0
LINE
  5
1AC
  8
LAYER0014
  6
CONTINUOUS
 62
     7
 10
68.70101252214286
 20
-31.98909721445618
 30
0.0
 11
76.70101967469978
 21
-45.84551759448316
 31
0.0
  0
INSERT
  5
1AD
  8
LAYER0014
 62
     7
  2
_OPEN30
 10
68.70101252214286
 20
-31.98909721445618
 30
0.0
 41
1.999998407630662
 42
2.000005728319971
 50
119.9999972589655
  0
INSERT
  5
1AE
  8
LAYER0014
 62
     7
  2
_OPEN30
 10
76.70101967469978
 20
-45.84551759448316
 30
0.0
 41
1.999998407630662
 42
2.000005728319971
 50
299.9999972589655
  0
TEXT
  5
1AF
  8
LAYER0014
 62
     7
 10
71.68665372435829
 20
-33.96038305451045
 30
0.0
 40
4.0
  1
φ16
 50
-59.99999999999999
 41
0.7499999999999997
  7
FDASTYLE1
 72
     5
 11
76.48665372435829
 21
-42.27422693084106
 31
0.0
  0
ENDBLK
  5
C3
  8
0
  0
BLOCK
  8
0
  2
DC_GROUP_8
 70
     0
 10
0.0
 20
0.0
 30
0.0
  3
DC_GROUP_8
  1

  0
LINE
  5
1B0
  8
0
  6
CONTINUOUS
 62
     7
 10
-112.1590578751168
 20
-39.93477630615232
 30
0.0
 11
-97.21594456457322
 21
-54.97740834094938
 31
0.0
  0
INSERT
  5
1B1
  8
0
 62
     7
  2
_OPEN30
 10
-112.1590578751168
 20
-39.93477630615232
 30
0.0
 41
1.999998407630662
 42
2.000005728319971
 50
134.8098435813055
  0
LINE
  5
1B2
  8
0
  6
CONTINUOUS
 62
     7
 10
-97.21594456457322
 20
-54.97740834094938
 30
0.0
 11
-90.81594456457322
 21
-54.97740834094938
 31
0.0
  0
TEXT
  5
1B3
  8
0
 62
     7
 10
-97.21594456457322
 20
-54.97740834094938
 30
0.0
 40
4.0
  1
M8
 41
0.8000000000000007
  7
FDASTYLE1
 72
     5
 11
-90.81594456457322
 21
-54.97740834094938
 31
0.0
  0
ENDBLK
  5
C6
  8
0
  0
BLOCK
  8
0
  2
DA_IMAGEDIMGROUP_34
 70
     0
 10
0.0
 20
0.0
 30
0.0
  3
DA_IMAGEDIMGROUP_34
  1

  0
LINE
  5
1B4
  8
0
  6
CONTINUOUS
 62
     9
 10
-112.1590578751168
 20
-45.03498150451056
 30
0.0
 11
-112.1590578751168
 21
-53.57150751065157
 31
0.0
  0
LINE
  5
1B5
  8
0
  6
CONTINUOUS
 62
     9
 10
-151.6590578751168
 20
-40.93477630615232
 30
0.0
 11
-151.6590578751168
 21
-53.57150751065157
 31
0.0
  0
LINE
  5
1B6
  8
0
  6
CONTINUOUS
 62
     9
 10
-151.6590578751168
 20
-52.57150751065157
 30
0.0
 11
-112.1590578751168
 21
-52.57150751065157
 31
0.0
  0
INSERT
  5
1B7
  8
0
 62
     9
  2
_OPEN30
 10
-151.6590578751168
 20
-52.57150751065157
 30
0.0
 41
1.999998407630662
 42
2.000005728319971
 50
180.0
  0
INSERT
  5
1B8
  8
0
 62
     9
  2
_OPEN30
 10
-112.1590578751168
 20
-52.57150751065157
 30
0.0
 41
1.999998407630662
 42
2.000005728319971
 50
360.0
  0
TEXT
  5
1B9
  8
0
 62
     7
 10
-133.049678003639
 20
-51.57150751065157
 30
0.0
 40
4.0
  1
39.5
 41
0.8000000000000007
  7
FDASTYLE1
 72
     5
 11
-120.249678003639
 21
-51.57150751065157
 31
0.0
  0
ENDBLK
  5
C9
  8
0
  0
BLOCK
  8
0
  2
_OPEN30
 70
     0
 10
0.0
 20
0.0
 30
0.0
  3
_OPEN30
  1

  0
LINE
  5
D1
  8
0
  6
BYBLOCK
 62
     0
 10
-1.0
 20
0.267949
 30
0.0
 11
0.0
 21
0.0
 31
0.0
  0
LINE
  5
D2
  8
0
  6
BYBLOCK
 62
     0
 10
0.0
 20
0.0
 30
0.0
 11
-1.0
 21
-0.267949
 31
0.0
  0
LINE
  5
D3
  8
0
  6
BYBLOCK
 62
     0
 10
0.0
 20
0.0
 30
0.0
 11
-1.0
 21
0.0
 31
0.0
  0
ENDBLK
  5
D0
  8
0
  0
ENDSEC
  0
SECTION
  2
ENTITIES
  0
LINE
  5
1BA
  8
ZUWAKU
  6
CONTINUOUS
 62
     3
 10
-277.0
 20
-190.0
 30
0.0
 11
-277.0
 21
190.0
 31
0.0
  0
LINE
  5
1BB
  8
ZUWAKU
  6
CONTINUOUS
 62
     3
 10
277.0
 20
-190.0
 30
0.0
 11
277.0
 21
190.0
 31
0.0
  0
LINE
  5
1BC
  8
ZUWAKU
  6
CONTINUOUS
 62
     3
 10
-277.0
 20
-190.0
 30
0.0
 11
277.0
 21
-190.0
 31
0.0
  0
LINE
  5
1BD
  8
ZUWAKU
  6
CONTINUOUS
 62
     3
 10
-277.0
 20
189.9999999999999
 30
0.0
 11
277.0
 21
189.9999999999999
 31
0.0
  0
LINE
  5
1BE
  8
ZUWAKU
  6
CONTINUOUS
 62
     3
 10
97.00000000000001
 20
-190.0
 30
0.0
 11
97.00000000000001
 21
-130.0
 31
0.0
  0
LINE
  5
1BF
  8
ZUWAKU
  6
CONTINUOUS
 62
     3
 10
97.00000000000001
 20
-176.0
 30
0.0
 11
277.0
 21
-176.0
 31
0.0
  0
LINE
  5
1C0
  8
ZUWAKU
  6
CONTINUOUS
 62
     3
 10
146.0
 20
-162.0
 30
0.0
 11
277.0
 21
-162.0
 31
0.0
  0
LINE
  5
1C1
  8
ZUWAKU
  6
CONTINUOUS
 62
     3
 10
146.0
 20
-148.0
 30
0.0
 11
277.0
 21
-148.0
 31
0.0
  0
LINE
  5
1C2
  8
ZUWAKU
  6
CONTINUOUS
 62
     3
 10
146.0
 20
-138.0
 30
0.0
 11
277.0
 21
-138.0
 31
0.0
  0
LINE
  5
1C3
  8
ZUWAKU
  6
CONTINUOUS
 62
     3
 10
146.0
 20
-176.0
 30
0.0
 11
146.0
 21
-130.0
 31
0.0
  0
LINE
  5
1C4
  8
ZUWAKU
  6
CONTINUOUS
 62
     3
 10
255.0
 20
-176.0
 30
0.0
 11
255.0
 21
-130.0
 31
0.0
  0
LINE
  5
1C5
  8
ZUWAKU
  6
CONTINUOUS
 62
     3
 10
171.0
 20
-190.0
 30
0.0
 11
171.0
 21
-176.0
 31
0.0
  0
LINE
  5
1C6
  8
ZUWAKU
  6
CONTINUOUS
 62
     3
 10
262.0
 20
-188.0
 30
0.0
 11
272.0
 21
-188.0
 31
0.0
  0
LINE
  5
1C7
  8
ZUWAKU
  6
CONTINUOUS
 62
     3
 10
267.0
 20
-178.0
 30
0.0
 11
262.0
 21
-188.0
 31
0.0
  0
LINE
  5
1C8
  8
ZUWAKU
  6
CONTINUOUS
 62
     3
 10
267.0
 20
-178.0
 30
0.0
 11
272.0
 21
-188.0
 31
0.0
  0
LINE
  5
1C9
  8
ZUWAKU
  6
CONTINUOUS
 62
     3
 10
97.00000000000001
 20
-130.0
 30
0.0
 11
277.0
 21
-130.0
 31
0.0
  0
LINE
  5
1CA
  8
ZUWAKU
  6
CONTINUOUS
 62
     3
 10
226.0
 20
-176.0
 30
0.0
 11
226.0
 21
-148.0
 31
0.0
  0
LINE
  5
1CB
  8
ZUWAKU
  6
CONTINUOUS
 62
     4
 10
105.0
 20
-172.0
 30
0.0
 11
105.0
 21
-130.0
 31
0.0
  0
LINE
  5
1CC
  8
ZUWAKU
  6
CONTINUOUS
 62
     4
 10
109.0
 20
-172.0
 30
0.0
 11
109.0
 21
-130.0
 31
0.0
  0
LINE
  5
1CD
  8
ZUWAKU
  6
CONTINUOUS
 62
     4
 10
121.5
 20
-176.0
 30
0.0
 11
121.5
 21
-130.0
 31
0.0
  0
LINE
  5
1CE
  8
ZUWAKU
  6
CONTINUOUS
 62
     4
 10
97.00000000000001
 20
-137.0
 30
0.0
 11
146.0
 21
-137.0
 31
0.0
  0
LINE
  5
1CF
  8
ZUWAKU
  6
CONTINUOUS
 62
     4
 10
97.00000000000001
 20
-144.0
 30
0.0
 11
146.0
 21
-144.0
 31
0.0
  0
LINE
  5
1D0
  8
ZUWAKU
  6
CONTINUOUS
 62
     4
 10
97.00000000000001
 20
-165.0
 30
0.0
 11
146.0
 21
-165.0
 31
0.0
  0
LINE
  5
1D1
  8
ZUWAKU
  6
CONTINUOUS
 62
     4
 10
97.00000000000001
 20
-172.0
 30
0.0
 11
146.0
 21
-172.0
 31
0.0
  0
LINE
  5
1D2
  8
ZUWAKU
  6
CONTINUOUS
 62
     4
 10
255.0
 20
-166.0
 30
0.0
 11
277.0
 21
-166.0
 31
0.0
  0
LINE
  5
1D3
  8
ZUWAKU
  6
CONTINUOUS
 62
     4
 10
202.0
 20
-148.0
 30
0.0
 11
202.0
 21
-146.5
 31
0.0
  0
LINE
  5
1D4
  8
ZUWAKU
  6
CONTINUOUS
 62
     4
 10
226.0
 20
-148.0
 30
0.0
 11
226.0
 21
-146.5
 31
0.0
  0
LINE
  5
1D5
  8
ZUWAKU
  6
CONTINUOUS
 62
     4
 10
243.0
 20
-148.0
 30
0.0
 11
243.0
 21
-146.5
 31
0.0
  0
LINE
  5
1D6
  8
ZUWAKU
  6
CONTINUOUS
 62
     4
 10
97.00000000000001
 20
-151.0
 30
0.0
 11
146.0
 21
-151.0
 31
0.0
  0
LINE
  5
1D7
  8
ZUWAKU
  6
CONTINUOUS
 62
     4
 10
97.00000000000001
 20
-158.0
 30
0.0
 11
146.0
 21
-158.0
 31
0.0
  0
LINE
  5
1D8
  8
ZUWAKU
  6
CONTINUOUS
 62
     4
 10
101.0
 20
-130.5
 30
0.0
 11
98.00000000000001
 21
-136.5
 31
0.0
  0
LINE
  5
1D9
  8
ZUWAKU
  6
CONTINUOUS
 62
     4
 10
101.0
 20
-130.5
 30
0.0
 11
104.0
 21
-136.5
 31
0.0
  0
LINE
  5
1DA
  8
ZUWAKU
  6
CONTINUOUS
 62
     4
 10
98.00000000000001
 20
-136.5
 30
0.0
 11
104.0
 21
-136.5
 31
0.0
  0
LINE
  5
1DB
  8
ZUWAKU
  6
CONTINUOUS
 62
     4
 10
101.0
 20
-158.5
 30
0.0
 11
98.00000000000001
 21
-164.5
 31
0.0
  0
LINE
  5
1DC
  8
ZUWAKU
  6
CONTINUOUS
 62
     4
 10
101.0
 20
-158.5
 30
0.0
 11
104.0
 21
-164.5
 31
0.0
  0
LINE
  5
1DD
  8
ZUWAKU
  6
CONTINUOUS
 62
     4
 10
98.00000000000001
 20
-164.5
 30
0.0
 11
104.0
 21
-164.5
 31
0.0
  0
LINE
  5
1DE
  8
ZUWAKU
  6
CONTINUOUS
 62
     4
 10
101.0
 20
-151.5
 30
0.0
 11
98.00000000000001
 21
-157.5
 31
0.0
  0
LINE
  5
1DF
  8
ZUWAKU
  6
CONTINUOUS
 62
     4
 10
101.0
 20
-151.5
 30
0.0
 11
104.0
 21
-157.5
 31
0.0
  0
LINE
  5
1E0
  8
ZUWAKU
  6
CONTINUOUS
 62
     4
 10
98.00000000000001
 20
-157.5
 30
0.0
 11
104.0
 21
-157.5
 31
0.0
  0
LINE
  5
1E1
  8
ZUWAKU
  6
CONTINUOUS
 62
     4
 10
101.0
 20
-144.5
 30
0.0
 11
98.00000000000001
 21
-150.5
 31
0.0
  0
LINE
  5
1E2
  8
ZUWAKU
  6
CONTINUOUS
 62
     4
 10
101.0
 20
-144.5
 30
0.0
 11
104.0
 21
-150.5
 31
0.0
  0
LINE
  5
1E3
  8
ZUWAKU
  6
CONTINUOUS
 62
     4
 10
98.00000000000001
 20
-150.5
 30
0.0
 11
104.0
 21
-150.5
 31
0.0
  0
LINE
  5
1E4
  8
ZUWAKU
  6
CONTINUOUS
 62
     4
 10
101.0
 20
-137.5
 30
0.0
 11
98.00000000000001
 21
-143.5
 31
0.0
  0
LINE
  5
1E5
  8
ZUWAKU
  6
CONTINUOUS
 62
     4
 10
101.0
 20
-137.5
 30
0.0
 11
104.0
 21
-143.5
 31
0.0
  0
LINE
  5
1E6
  8
ZUWAKU
  6
CONTINUOUS
 62
     4
 10
98.00000000000001
 20
-143.5
 30
0.0
 11
104.0
 21
-143.5
 31
0.0
  0
LINE
  5
1E7
  8
ZUWAKU
  6
CONTINUOUS
 62
     4
 10
172.6666666666666
 20
-176.0
 30
0.0
 11
172.6666666666666
 21
-162.0
 31
0.0
  0
LINE
  5
1E8
  8
ZUWAKU
  6
CONTINUOUS
 62
     4
 10
199.3333333333333
 20
-176.0
 30
0.0
 11
199.3333333333333
 21
-161.9509415757253
 31
0.0
  0
LINE
  5
1E9
  8
ZUWAKU
  6
CONTINUOUS
 62
     4
 10
212.6666666666666
 20
-167.5
 30
0.0
 11
212.6666666666666
 21
-161.9509415757253
 31
0.0
  0
LINE
  5
1EA
  8
ZUWAKU
  6
CONTINUOUS
 62
     4
 10
226.0
 20
-155.0
 30
0.0
 11
255.0
 21
-155.0
 31
0.0
  0
LINE
  5
1EB
  8
ZUWAKU
  6
CONTINUOUS
 62
     4
 10
146.0
 20
-166.0
 30
0.0
 11
226.0
 21
-166.0
 31
0.0
  0
LINE
  5
1EC
  8
ZUWAKU
  6
CONTINUOUS
 62
     4
 10
153.0
 20
-139.5
 30
0.0
 11
153.0
 21
-130.0
 31
0.0
  0
LINE
  5
1ED
  8
ZUWAKU
  6
CONTINUOUS
 62
     4
 10
202.0
 20
-139.5
 30
0.0
 11
202.0
 21
-130.0
 31
0.0
  0
LINE
  5
1EE
  8
ZUWAKU
  6
CONTINUOUS
 62
     4
 10
226.0
 20
-139.5
 30
0.0
 11
226.0
 21
-130.0
 31
0.0
  0
LINE
  5
1EF
  8
ZUWAKU
  6
CONTINUOUS
 62
     4
 10
243.0
 20
-139.5
 30
0.0
 11
243.0
 21
-130.0
 31
0.0
  0
TEXT
  5
1F1
  8
ZUWAKU
 62
     7
 10
148.3132301474747
 20
-130.821188728956
 30
0.0
 40
2.6656
  1
符号
 41
0.8
  7
FDASTYLE0
  0
TEXT
  5
1F2
  8
ZUWAKU
 62
     7
 10
162.4141311219058
 20
-135.8245525019963
 30
0.0
 40
4.0
  1
品       名
 41
0.765957446808511
  7
FDASTYLE1
 72
     5
 11
191.2141311219058
 21
-135.8245525019963
 31
0.0
  0
TEXT
  5
1F3
  8
ZUWAKU
 62
     7
 10
207.2331564413096
 20
-135.8245525019963
 30
0.0
 40
4.0
  1
材  料
 41
0.7272727272727279
  7
FDASTYLE1
 72
     5
 11
220.0331564413096
 21
-135.8245525019963
 31
0.0
  0
TEXT
  5
1F4
  8
ZUWAKU
 62
     7
 10
229.516061684855
 20
-135.8245525019963
 30
0.0
 40
4.0
  1
個 数
 41
0.7058823529411761
  7
FDASTYLE1
 72
     5
 11
239.116061684855
 21
-135.8245525019963
 31
0.0
  0
TEXT
  5
1F5
  8
ZUWAKU
 62
     7
 10
245.721810952888
 20
-133.5649080050572
 30
0.0
 40
2.5
  1
単重量
 41
0.6666666666666666
  7
FDASTYLE1
 72
     5
 11
251.721810952888
 21
-133.5649080050572
 31
0.0
  0
TEXT
  5
1F6
  8
ZUWAKU
 62
     7
 10
244.7089516236359
 20
-137.3631304897525
 30
0.0
 40
2.5
  1
(kg)
 41
0.8
  7
FDASTYLE1
 72
     5
 11
252.7089516236359
 21
-137.3631304897525
 31
0.0
  0
TEXT
  5
1F7
  8
ZUWAKU
 62
     7
 10
259.1421970654778
 20
-135.8245525019963
 30
0.0
 40
4.0
  1
記  事
 41
0.7272727272727279
  7
FDASTYLE1
 72
     5
 11
271.9421970654778
 21
-135.8245525019963
 31
0.0
  0
TEXT
  5
1F8
  8
ZUWAKU
 62
     7
 10
258.8450794551645
 20
-165.4873041997729
 30
0.0
 40
3.0
  1
コード番号
 41
0.6666666666666666
  7
FDASTYLE1
 72
     5
 11
270.8450794551645
 21
-165.4873041997729
 31
0.0
  0
TEXT
  5
1F9
  8
ZUWAKU
 62
     7
 10
101.9119920158317
 20
-175.1879010540338
 30
0.0
 40
2.5
  1
訂 正 来 歴
 41
0.717948717948718
  7
FDASTYLE1
 72
     5
 11
115.9119920158317
 21
-175.1879010540338
 31
0.0
  0
TEXT
  5
1FA
  8
ZUWAKU
 62
     7
 10
125.890334846765
 20
-175.2166697391651
 30
0.0
 40
2.5
  1
工 事 番 号
 41
0.717948717948718
  7
FDASTYLE1
 72
     5
 11
139.890334846765
 21
-175.2166697391651
 31
0.0
  0
TEXT
  5
1FB
  8
ZUWAKU
 62
     7
 10
99.96483784660289
 20
-165.9634530565915
 30
0.0
 40
2.0825
  1
記号
 41
0.8
  7
FDASTYLE0
  0
TEXT
  5
1FC
  8
ZUWAKU
 62
     7
 10
105.9042249067618
 20
-165.9634530565915
 30
0.0
 40
2.0825
  1
理由
 41
0.8
  7
FDASTYLE0
  0
TEXT
  5
1FD
  8
ZUWAKU
 62
     7
 10
111.6193667909843
 20
-169.8786046700178
 30
0.0
 40
3.0
  1
日 付
 41
0.7058823529411754
  7
FDASTYLE1
 72
     5
 11
118.8193667909843
 21
-169.8786046700178
 31
0.0
  0
TEXT
  5
1FE
  8
ZUWAKU
 62
     7
 10
258.6144713006549
 20
-142.3525309070082
 30
0.0
 40
3.0
  1
標　準
 41
0.5833333333333345
  7
FDASTYLE1
 72
     5
 11
264.9144713006549
 21
-142.3525309070082
 31
0.0
  0
TEXT
  5
1FF
  8
ZUWAKU
 62
     7
 10
153.4481689819652
 20
-165.7187911464244
 30
0.0
 40
3.0
  1
承   認
 41
0.7407407407407408
  7
FDASTYLE1
 72
     5
 11
165.4481689819652
 21
-165.7187911464244
 31
0.0
  0
TEXT
  5
200
  8
ZUWAKU
 62
     7
 10
179.863228033234
 20
-165.4873041997729
 30
0.0
 40
3.0
  1
検   図
 41
0.7407407407407408
  7
FDASTYLE1
 72
     5
 11
191.863228033234
 21
-165.4873041997729
 31
0.0
  0
TEXT
  5
201
  8
ZUWAKU
 62
     7
 10
201.4771920983751
 20
-165.4873041997729
 30
0.0
 40
3.0
  1
担  当
 41
0.7272727272727269
  7
FDASTYLE1
 72
     5
 11
211.0771920983751
 21
-165.4873041997729
 31
0.0
  0
TEXT
  5
202
  8
ZUWAKU
 62
     7
 10
214.6770574841112
 20
-165.4873041997729
 30
0.0
 40
3.0
  1
製  図
 41
0.7272727272727269
  7
FDASTYLE1
 72
     5
 11
224.2770574841112
 21
-165.4873041997729
 31
0.0
  0
TEXT
  5
203
  8
ZUWAKU
 62
     7
 10
226.9462372304199
 20
-153.2184960272417
 30
0.0
 40
3.0
  1
作図
 41
0.6666666666666683
  7
FDASTYLE1
 72
     5
 11
231.7462372304199
 21
-153.2184960272417
 31
0.0
  0
TEXT
  5
204
  8
ZUWAKU
 62
     7
 10
228.1036719636776
 20
-160.2371566401815
 30
0.0
 40
4.0
  1
第 三 角 法
 41
0.7179487179487182
  7
FDASTYLE1
 72
     5
 11
250.5036719636776
 21
-160.2371566401815
 31
0.0
  0
TEXT
  5
205
  8
ZUWAKU
 62
     7
 10
227.409211123723
 20
-166.413251986379
 30
0.0
 40
3.0
  1
尺度
 41
0.6666666666666683
  7
FDASTYLE1
 72
     5
 11
232.209211123723
 21
-166.413251986379
 31
0.0
  0
TEXT
  5
207
  8
ZUWAKU
 62
     3
 10
105.379154370034
 20
-185.9272077185017
 30
0.0
 40
7.0
  1
株式会社 野村製作所
 41
0.5763738641280831
  7
FDASTYLE2
 72
     5
 11
161.379154370034
 21
-185.9272077185017
 31
0.0
  0
TEXT
  5
209
  8
ZUWAKU
 62
     3
 10
176.0422636668242
 20
-187.1216685584563
 30
0.0
 40
8.0
  1
２－
 41
0.8244023083264632
  7
FDASTYLE3
 72
     5
 11
192.0422636668242
 21
-187.1216685584563
 31
0.0
  0
TEXT
  5
20A
  8
ZUWAKU
 62
     3
 10
192.954221291231
 20
-187.1216685584563
 30
0.0
 40
8.0
  1
C906001
 41
1.629422718808194
  7
FDASTYLE3
 72
     5
 11
248.954221291231
 21
-187.1216685584563
 31
0.0
  0
TEXT
  5
20B
  8
ZUWAKU
 62
     6
 10
231.384312273996
 20
-145.1178196492171
 30
0.0
 40
4.0
  1
一式
 41
0.5833333333333328
  7
FDASTYLE1
 72
     5
 11
236.984312273996
 21
-145.1178196492171
 31
0.0
  0
TEXT
  5
20C
  8
ZUWAKU
 62
     6
 10
163.7236800359233
 20
-145.1021206743685
 30
0.0
 40
5.0
  1
外　形　図
 41
0.5833333333333334
  7
FDASTYLE1
 72
     5
 11
181.2236800359233
 21
-145.1021206743685
 31
0.0
  0
TEXT
  5
20D
  8
ZUWAKU
 62
     4
 10
237.4612965606293
 20
-172.4797619591963
 30
0.0
 40
4.0
  1
1/1
 41
0.7000000000000005
  7
FDASTYLE1
 72
     5
 11
245.8612965606293
 21
-172.4797619591963
 31
0.0
  0
TEXT
  5
20E
  8
0
 62
     6
 10
153.751689452146
 20
-154.3880453471329
 30
0.0
 40
5.0
  1
日鋼プレシジォン
 41
0.6666666666666666
  7
FDASTYLE1
 72
     5
 11
185.751689452146
 21
-154.3880453471329
 31
0.0
  0
TEXT
  5
20F
  8
0
 62
     6
 10
170.4103460444692
 20
-160.9091595284539
 30
0.0
 40
5.0
  1
HDM3-165A6型チャック
 41
0.65625
  7
FDASTYLE1
 72
     5
 11
222.9103460444692
 21
-160.9091595284539
 31
0.0
  0
TEXT
  5
210
  8
0
 62
     6
 10
-85.80843437521864
 20
-101.9794308793481
 30
0.0
 40
3.899999856948853
  1
  仕   様
 41
0.9023280916229792
  7
FDASTYLE1
 72
     5
 11
-53.5798603972714
 21
-101.9794308793481
 31
0.0
  0
TEXT
  5
211
  8
0
 62
     6
 10
-85.80843437521864
 20
-109.4794308793481
 30
0.0
 40
3.899999856948853
  1
 1.爪ｽﾄﾛ-ｸ            
 41
0.9143941169627068
  7
FDASTYLE1
 72
     5
 11
13.62014185578417
 21
-109.4794308793481
 31
0.0
  0
TEXT
  5
212
  8
0
 62
     6
 10
14.82014061079214
 20
-108.9919308972295
 30
0.0
 40
2.924999892711639
  1
直径ﾆﾃ
 41
0.8957797606707526
  7
FDASTYLE1
 72
     5
 11
28.19157073215435
 21
-108.9919308972295
 31
0.0
  0
TEXT
  5
213
  8
0
 62
     6
 10
29.39156948716233
 20
-109.4794308793481
 30
0.0
 40
3.899999856948853
  1
    5   mm
 41
0.9081806113749069
  7
FDASTYLE1
 72
     5
 11
76.02014394790719
 21
-109.4794308793481
 31
0.0
  0
TEXT
  5
214
  8
0
 62
     6
 10
-85.80843437521864
 20
-116.9794194352563
 30
0.0
 40
3.899999856948853
  1
 2.ﾋﾟｽﾄﾝｽﾄﾛ-ｸ            17.5   mm
 41
0.9098798219254533
  7
FDASTYLE1
 72
     5
 11
76.0201439479072
 21
-116.9794194352563
 31
0.0
  0
TEXT
  5
215
  8
0
 62
     6
 10
-85.80843437521864
 20
-124.4794194352563
 30
0.0
 40
3.899999856948853
  1
 3.推奨ｼﾘﾝﾀﾞ　              36TS-TA1型
 41
0.9010215764943601
  7
FDASTYLE1
 72
     5
 11
76.0201439479072
 21
-124.4794194352563
 31
0.0
  0
TEXT
  5
216
  8
0
 62
     6
 10
-85.80843437521864
 20
-131.9794194352563
 30
0.0
 40
3.899999856948853
  1
 4.許容ｼﾘﾝﾀﾞ推力　              17   ｋN
 41
0.8932629671700616
  7
FDASTYLE1
 72
     5
 11
76.0201439479072
 21
-131.9794194352563
 31
0.0
  0
TEXT
  5
217
  8
0
 62
     6
 10
-85.80843437521864
 20
-139.4794194352563
 30
0.0
 40
3.899999856948853
  1
 5.最大使用圧力    
 41
0.866074953992472
  7
FDASTYLE1
 72
     5
 11
-24.77985943167616
 21
-139.4794194352563
 31
0.0
  0
TEXT
  5
218
  8
0
 62
     6
 10
-23.57986067666819
 20
-138.9919194531377
 30
0.0
 40
2.924999892711639
  1
(36TS-TA1型使用時)
 41
0.8874511689217373
  7
FDASTYLE1
 72
     5
 11
25.79157065168808
 21
-138.9919194531377
 31
0.0
  0
TEXT
  5
219
  8
0
 62
     6
 10
19.79156916529725
 20
-139.4794194352563
 30
0.0
 40
3.899999856948853
  1
    3.0  MＰa
 41
0.9173545099825589
  7
FDASTYLE1
 72
     5
 11
76.02014394790719
 21
-139.4794194352563
 31
0.0
  0
TEXT
  5
21A
  8
0
 62
     6
 10
-85.80843437521864
 20
-146.9794194352563
 30
0.0
 40
3.899999856948853
  1
 6.最大静的把握力               58.8   ｋN
 41
0.8856368343666786
  7
FDASTYLE1
 72
     5
 11
76.0201439479072
 21
-146.9794194352563
 31
0.0
  0
TEXT
  5
21B
  8
0
 62
     6
 10
-85.80843437521864
 20
-154.4794194352563
 30
0.0
 40
3.899999856948853
  1
 7.最高使用回転速度              6500  min
 41
0.8856368343666786
  7
FDASTYLE1
 72
     5
 11
76.0201439479072
 21
-154.4794194352563
 31
0.0
  0
TEXT
  5
21C
  8
0
 62
     6
 10
77.04871430934261
 20
-151.7044193994935
 30
0.0
 40
1.949999928474426
  1
-1
 41
0.8971966190941251
  7
FDASTYLE1
 72
     5
 11
81.16300089598488
 21
-151.7044193994935
 31
0.0
  0
TEXT
  5
21D
  8
0
 62
     6
 10
-85.80843437521864
 20
-161.9794194352563
 30
0.0
 40
3.899999856948853
  1
 8.慣性モーメント              0.０４８ ｋg・m
 41
0.8707686541297774
  7
FDASTYLE1
 72
     5
 11
76.0201439479072
 21
-161.9794194352563
 31
0.0
  0
TEXT
  5
21E
  8
0
 62
     6
 10
77.04871430934261
 20
-159.2044193994935
 30
0.0
 40
1.949999928474426
  1
2
 41
0.8791213174644367
  7
FDASTYLE1
 72
     5
 11
78.76300081551861
 21
-159.2044193994935
 31
0.0
  0
TEXT
  5
21F
  8
0
 62
     6
 10
-85.80843437521864
 20
-169.4794194352563
 30
0.0
 40
3.899999856948853
  1
 9.質 量                     11   ｋg
 41
0.9049516432920066
  7
FDASTYLE1
 72
     5
 11
76.0201439479072
 21
-169.4794194352563
 31
0.0
  0
TEXT
  5
220
  8
0
 62
     6
 10
-11.85554371036331
 20
-177.3039510205615
 30
0.0
 40
4.0625
  1
ﾁｬｯｸ外周ﾆﾃ   　　1 g以内
 41
0.8781870238468527
  7
FDASTYLE1
 72
     5
 11
76.71587472713669
 21
-177.3039510205615
 31
0.0
  0
TEXT
  5
221
  8
0
 62
     6
 10
-86.44638289206985
 20
-177.2020876351747
 30
0.0
 40
4.0625
  1
10.アンバランス量
 41
0.8411937940612021
  7
FDASTYLE1
 72
     5
 11
-37.87495945456985
 21
-177.2020876351747
 31
0.0
  0
LINE
  5
222
  8
0
  6
CENTER
 62
     7
 10
153.8329215660353
 20
42.56528702219342
 30
0.0
 11
229.1344753656923
 21
-0.910104654963078
 31
0.0
  0
LINE
  5
223
  8
0
  6
CENTER
 62
     7
 10
153.832893118217
 20
132.68994140625
 30
0.0
 11
153.832893118217
 21
-48.03866195678708
 31
0.0
  0
LINE
  5
224
  8
0
  6
CENTER
 62
     7
 10
77.91021263853583
 20
-1.26873425645033
 30
0.0
 11
153.8328739784259
 21
42.5652298628668
 31
0.0
  0
LINE
  5
225
  8
0
  6
CENTER
 62
     7
 10
126.3362732961178
 20
58.44049237668415
 30
0.0
 11
81.36824759759284
 21
84.40279767957853
 31
0.0
  0
LINE
  5
226
  8
0
  6
CENTER
 62
     7
 10
181.4525723378277
 20
58.51146838383241
 30
0.0
 11
227.0103130350924
 21
84.81423933308831
 31
0.0
  0
LINE
  5
227
  8
0
  6
CENTER
 62
     7
 10
89.83538269442832
 20
16.32356542305971
 30
0.0
 11
99.19815174535643
 21
0.1067759515734679
 31
0.0
  0
LINE
  5
228
  8
0
  6
CENTER
 62
     7
 10
111.6475084212631
 20
28.54389063079591
 30
0.0
 11
120.7395803230698
 21
12.79596231074419
 31
0.0
  0
LINE
  5
229
  8
0
  6
CENTER
 62
     7
 10
207.9368435122134
 20
-0.8322421192105765
 30
0.0
 11
217.7932480380183
 21
16.23954895791079
 31
0.0
  0
LINE
  5
22A
  8
0
  6
CENTER
 62
     7
 10
186.4600550032575
 20
11.9688545168365
 30
0.0
 11
196.0205953885681
 21
28.52819394077054
 31
0.0
  0
LINE
  5
22B
  8
0
  6
CENTER
 62
     7
 10
64.07820104058024
 20
42.56522369384769
 30
0.0
 11
243.7217786162638
 21
42.56522369384769
 31
0.0
  0
LINE
  5
22C
  8
0
  6
CENTER
 62
     7
 10
101.2036359160685
 20
100.5652313232422
 30
0.0
 11
133.7586875034609
 21
100.5652313232422
 31
0.0
  0
LINE
  5
22D
  8
0
  6
CENTER
 62
     7
 10
143.7600324004435
 20
111.0652313232422
 30
0.0
 11
163.5292126982951
 21
111.0652313232422
 31
0.0
  0
LINE
  5
22E
  8
0
  6
CENTER
 62
     7
 10
143.7600324004435
 20
86.06523132324222
 30
0.0
 11
163.8157269805217
 21
86.06523132324222
 31
0.0
  0
LINE
  5
22F
  8
0
  6
CENTER
 62
     7
 10
150.828254446342
 20
66.56522369384769
 30
0.0
 11
156.6948239653849
 21
66.56522369384769
 31
0.0
  0
LINE
  5
230
  8
0
  6
CENTER
 62
     7
 10
130.832893118217
 20
47.56522369384769
 30
0.0
 11
130.832893118217
 21
37.56522369384769
 31
0.0
  0
LINE
  5
231
  8
0
  6
CENTER
 62
     7
 10
176.832893118217
 20
47.56522369384769
 30
0.0
 11
176.832893118217
 21
37.56522369384769
 31
0.0
  0
LINE
  5
232
  8
0
  6
CENTER
 62
     7
 10
-93.26918055578089
 20
111.0652313232422
 30
0.0
 11
-56.45324732824183
 21
111.0652313232422
 31
0.0
  0
LINE
  5
233
  8
0
  6
CENTER
 62
     7
 10
-98.13458277746058
 20
4.565223693847685
 30
0.0
 11
-72.22387721105433
 21
4.565223693847685
 31
0.0
  0
LINE
  5
234
  8
0
  6
CENTER
 62
     7
 10
-159.6003115372262
 20
42.56522369384769
 30
0.0
 11
-68.46937586828089
 21
42.56522369384769
 31
0.0
  0
LINE
  5
235
  8
0
  6
CENTER
 62
     7
 10
-92.96986414953089
 20
86.06523132324222
 30
0.0
 11
-56.75256373449183
 21
86.06523132324222
 31
0.0
  0
LINE
  5
236
  8
0
  6
CENTER
 62
     7
 10
-97.24697901769495
 20
66.56523132324222
 30
0.0
 11
-82.75775172277308
 21
66.56523132324222
 31
0.0
  0
LINE
  5
237
  8
0
  6
CENTER
 62
     7
 10
-175.1535341934762
 20
-24.10977935791013
 30
0.0
 11
-68.46937586828089
 21
-24.10977935791013
 31
0.0
  0
LINE
  5
238
  8
0
  6
CENTER
 62
     7
 10
-189.7971193985543
 20
109.2652130126953
 30
0.0
 11
-138.95132472082
 21
109.2652130126953
 31
0.0
  0
LINE
  5
239
  8
0
  6
CENTER
 62
     7
 10
176.119824110485
 20
33.1673219227055
 30
0.0
 11
173.1865355362662
 21
28.08671717008522
 31
0.0
  0
ARC
  5
23A
  8
0
  6
CENTER
 62
     7
 10
153.832893118217
 20
42.56522369384769
 30
0.0
 40
38.0
 50
141.2169751279517
 51
157.7055025768477
  0
ARC
  5
23B
  8
0
  6
CENTER
 62
     7
 10
153.832893118217
 20
42.56522369384769
 30
0.0
 40
38.0
 50
261.6747345577066
 51
278.618897095945
  0
ARC
  5
23C
  8
0
  6
CENTER
 62
     7
 10
153.832893118217
 20
42.56522369384769
 30
0.0
 40
38.0
 50
21.78109248012443
 51
37.90888861064809
  0
ARC
  5
23D
  8
0
  6
CENTER
 62
     7
 10
153.832893118217
 20
42.56522369384769
 30
0.0
 40
66.67500305175781
 50
15.35154513135171
 51
44.64846166094228
  0
ARC
  5
23E
  8
0
  6
CENTER
 62
     7
 10
153.832893118217
 20
42.56522369384769
 30
0.0
 40
66.67500305175781
 50
255.3515230090273
 51
284.648458321638
  0
ARC
  5
23F
  8
0
  6
CENTER
 62
     7
 10
153.832893118217
 20
42.56522369384769
 30
0.0
 40
66.67500305175781
 50
137.3116953127642
 51
162.8455290386549
  0
LINE
  5
240
  8
0
  6
CENTER
 62
     7
 10
123.8329322007101
 20
112.4499737041246
 30
0.0
 11
123.8329322007101
 21
88.77790796926135
 31
0.0
  0
LINE
  5
241
  8
0
  6
CENTER
 62
     7
 10
124.228449231031
 20
-22.15824904475497
 30
0.0
 11
112.8510378075401
 21
-2.451994754346526
 31
0.0
  0
LINE
  5
242
  8
0
  6
CENTER
 62
     7
 10
108.3110329679803
 20
-18.35779283378409
 30
0.0
 11
128.8116461901021
 21
-6.521758059003815
 31
0.0
  0
LINE
  5
243
  8
0
  6
CENTER
 62
     7
 10
224.7747742561685
 20
49.44015512119401
 30
0.0
 11
213.4834224676537
 21
29.88296048836966
 31
0.0
  0
LINE
  5
244
  8
0
  6
CENTER
 62
     7
 10
229.3548301371391
 20
33.60372747913104
 30
0.0
 11
208.8542136113927
 21
45.43976416125994
 31
0.0
  0
LINE
  5
245
  8
0
  6
CENTER
 62
     7
 10
43.4009792117985
 20
-55.83368090960673
 30
0.0
 11
64.13701420158304
 21
-43.86172684901378
 31
0.0
  0
LINE
  5
246
  8
0
  6
CENTER
 62
     7
 10
-112.1590578751168
 20
-27.6922115751325
 30
0.0
 11
-112.1590578751168
 21
-44.03498150451056
 31
0.0
  0
LINE
  5
247
  8
0
  6
DASHED2
 62
     7
 10
113.832893118217
 20
114.7195739746094
 30
0.0
 11
113.832893118217
 21
89.56522369384769
 31
0.0
  0
LINE
  5
248
  8
0
  6
DASHED2
 62
     7
 10
113.832893118217
 20
106.5652313232422
 30
0.0
 11
121.6987759917521
 21
106.5652313232422
 31
0.0
  0
LINE
  5
249
  8
0
  6
DASHED2
 62
     7
 10
113.832893118217
 20
94.56523132324222
 30
0.0
 11
121.9852826445842
 21
94.56523132324222
 31
0.0
  0
LINE
  5
24A
  8
0
  6
DASHED2
 62
     7
 10
86.02986882622477
 20
89.56522369384769
 30
0.0
 11
113.832893118217
 21
89.56522369384769
 31
0.0
  0
LINE
  5
24B
  8
0
  6
DASHED2
 62
     7
 10
104.3058850615763
 20
102.9652252197266
 30
0.0
 11
104.3058850615763
 21
98.16522979736331
 31
0.0
  0
LINE
  5
24C
  8
0
  6
DASHED2
 62
     7
 10
111.4289853423381
 20
96.61523437500003
 30
0.0
 11
113.1152341216349
 21
96.61523437500003
 31
0.0
  0
LINE
  5
24D
  8
0
  6
DASHED2
 62
     7
 10
111.4289853423381
 20
104.5152282714844
 30
0.0
 11
113.1152341216349
 21
104.5152282714844
 31
0.0
  0
LINE
  5
24E
  8
0
  6
DASHED2
 62
     7
 10
106.6058881133342
 20
103.865234375
 30
0.0
 11
106.6058881133342
 21
97.2652282714844
 31
0.0
  0
LINE
  5
24F
  8
0
  6
DASHED2
 62
     7
 10
110.8058850615763
 20
103.9578094482422
 30
0.0
 11
110.8058850615763
 21
97.17261505126956
 31
0.0
  0
LINE
  5
250
  8
0
  6
DASHED2
 62
     7
 10
111.5698163359904
 20
102.5652313232422
 30
0.0
 11
113.0419537871623
 21
102.5652313232422
 31
0.0
  0
LINE
  5
251
  8
0
  6
DASHED2
 62
     7
 10
111.5698163359904
 20
98.56523132324222
 30
0.0
 11
113.0419537871623
 21
98.56523132324222
 31
0.0
  0
LINE
  5
252
  8
0
  6
DASHED2
 62
     7
 10
106.6059152568493
 20
97.26527538863562
 30
0.0
 11
104.3059148614381
 21
98.16527534174443
 31
0.0
  0
LINE
  5
253
  8
0
  6
DASHED2
 62
     7
 10
104.3058651920177
 20
102.965285287095
 30
0.0
 11
106.6058655874289
 21
103.8652852402038
 31
0.0
  0
LINE
  5
254
  8
0
  6
DASHED2
 62
     7
 10
107.6058881133342
 20
103.1782989501953
 30
0.0
 11
107.6058881133342
 21
97.88627624511722
 31
0.0
  0
ARC
  5
255
  8
0
  6
DASHED2
 62
     7
 10
110.8058850615763
 20
100.5652313232422
 30
0.0
 40
3.0
 50
0.0
 51
41.81031315512688
  0
ARC
  5
256
  8
0
  6
DASHED2
 62
     7
 10
113.8058850615763
 20
100.5652313232422
 30
0.0
 40
3.0
 50
138.1896986840186
 51
221.8102840131373
  0
ARC
  5
257
  8
0
  6
DASHED2
 62
     7
 10
110.8058850615763
 20
100.5652313232422
 30
0.0
 40
3.0
 50
318.1896868448731
 51
360.0
  0
ARC
  5
258
  8
0
  6
DASHED2
 62
     7
 10
106.6058881133342
 20
100.5652313232422
 30
0.0
 40
3.299999952316284
 50
72.3602944823007
 51
89.99998201391065
  0
ARC
  5
259
  8
0
  6
DASHED2
 62
     7
 10
106.6058881133342
 20
100.5652313232422
 30
0.0
 40
3.299999952316284
 50
270.0000179860894
 51
287.6397055176993
  0
ARC
  5
25A
  8
0
  6
DASHED2
 62
     7
 10
109.0104062407756
 20
106.3611907958985
 30
0.0
 40
3.0
 50
242.1068914535913
 51
306.7619948916872
  0
ARC
  5
25B
  8
0
  6
DASHED2
 62
     7
 10
109.0104062407756
 20
94.76923370361331
 30
0.0
 40
3.0
 50
53.23800510831277
 51
117.8898300556071
  0
ARC
  5
25C
  8
0
  6
DASHED2
 62
     7
 10
111.7412335723185
 20
103.5652313232422
 30
0.0
 40
1.0
 50
200.7154669700721
 51
270.0000179860894
  0
ARC
  5
25D
  8
0
  6
DASHED2
 62
     7
 10
111.7412335723185
 20
103.5652313232422
 30
0.0
 40
1.0
 50
108.1948751325834
 51
159.2845330299279
  0
ARC
  5
25E
  8
0
  6
DASHED2
 62
     7
 10
111.7412335723185
 20
97.56523132324222
 30
0.0
 40
1.0
 50
89.99998201391065
 51
159.2845330299279
  0
ARC
  5
25F
  8
0
  6
DASHED2
 62
     7
 10
111.7412335723185
 20
97.56523132324222
 30
0.0
 40
1.0
 50
200.7154669700721
 51
251.8051248674166
  0
ARC
  5
260
  8
0
  6
DASHED2
 62
     7
 10
112.8029782622599
 20
103.5652313232422
 30
0.0
 40
1.0
 50
0.0
 51
71.80513670656207
  0
ARC
  5
261
  8
0
  6
DASHED2
 62
     7
 10
112.8029782622599
 20
97.56523132324222
 30
0.0
 40
1.0
 50
0.0
 51
89.99998201391065
  0
ARC
  5
262
  8
0
  6
DASHED2
 62
     7
 10
112.8029782622599
 20
103.5652313232422
 30
0.0
 40
1.0
 50
270.0000179860894
 51
360.0
  0
ARC
  5
263
  8
0
  6
DASHED2
 62
     7
 10
112.8029782622599
 20
97.56523132324222
 30
0.0
 40
1.0
 50
288.194863293438
 51
360.0
  0
ARC
  5
264
  8
0
  6
DASHED2
 62
     7
 10
104.7837674468302
 20
100.5652313232422
 30
0.0
 40
1.200000047683716
 50
113.46797241713
 51
246.5320171102151
  0
LINE
  5
265
  8
0
  6
DASHED2
 62
     7
 10
-116.1590578751168
 20
-30.85977935791013
 30
0.0
 11
-116.1590578751168
 21
-39.93477630615232
 31
0.0
  0
LINE
  5
266
  8
0
  6
DASHED2
 62
     7
 10
-115.5590578751169
 20
-30.85977935791013
 30
0.0
 11
-115.5590578751169
 21
-39.93477630615232
 31
0.0
  0
LINE
  5
267
  8
0
  6
DASHED2
 62
     7
 10
-108.7590578751168
 20
-30.85977935791013
 30
0.0
 11
-108.7590578751168
 21
-39.93477630615232
 31
0.0
  0
LINE
  5
268
  8
0
  6
DASHED2
 62
     7
 10
-108.1590578751168
 20
-30.85977935791013
 30
0.0
 11
-108.1590578751168
 21
-39.93477630615232
 31
0.0
  0
LINE
  5
269
  8
0
  6
DASHED2
 62
     7
 10
214.5500723442171
 20
82.23911883678592
 30
0.0
 11
223.1959553514701
 21
87.23082116691248
 31
0.0
  0
LINE
  5
26A
  8
0
  6
DASHED2
 62
     7
 10
218.5500794455082
 20
75.31091970644224
 30
0.0
 11
227.1959562738176
 21
80.30261846915448
 31
0.0
  0
LINE
  5
26B
  8
0
  6
DASHED2
 62
     7
 10
215.1741924132471
 20
81.90663438294487
 30
0.0
 11
223.5192830046865
 21
86.7246741500179
 31
0.0
  0
LINE
  5
26C
  8
0
  6
DASHED2
 62
     7
 10
218.5741980629116
 20
76.01766489904564
 30
0.0
 11
226.9192837883336
 21
80.83570185672255
 31
0.0
  0
LINE
  5
26D
  8
0
  6
CONTINUOUS
 62
     3
 10
170.0615215961267
 20
16.74122017176936
 30
0.0
 11
218.2018380181177
 21
-11.05261682496254
 31
0.0
  0
LINE
  5
26E
  8
0
  6
CONTINUOUS
 62
     3
 10
184.3115294848741
 20
41.42293161595265
 30
0.0
 11
232.4518459068651
 21
13.62909461922075
 31
0.0
  0
LINE
  5
26F
  8
0
  6
CONTINUOUS
 62
     3
 10
139.582893118217
 20
125.0652313232422
 30
0.0
 11
168.082893118217
 21
125.0652313232422
 31
0.0
  0
LINE
  5
270
  8
0
  6
CONTINUOUS
 62
     3
 10
168.0828511900251
 20
125.0651228771009
 30
0.0
 11
175.8328413073124
 21
122.9885195055349
 31
0.0
  0
LINE
  5
271
  8
0
  6
CONTINUOUS
 62
     3
 10
139.5828884420222
 20
125.0651908027456
 30
0.0
 11
131.8329015312189
 21
122.9885898531873
 31
0.0
  0
LINE
  5
272
  8
0
  6
CONTINUOUS
 62
     3
 10
95.11064571483647
 20
-16.74149796379342
 30
0.0
 11
89.43724841863744
 21
-11.06810066759439
 31
0.0
  0
LINE
  5
273
  8
0
  6
CONTINUOUS
 62
     3
 10
75.17742693801968
 20
13.60795499190282
 30
0.0
 11
73.10082329648397
 21
21.35794927213566
 31
0.0
  0
LINE
  5
274
  8
0
  6
CONTINUOUS
 62
     3
 10
73.10080787634379
 20
21.35795233401672
 30
0.0
 11
73.97297145926805
 21
21.86149615776293
 31
0.0
  0
LINE
  5
275
  8
0
  6
CONTINUOUS
 62
     3
 10
95.11066115954569
 20
-16.74150424802019
 30
0.0
 11
95.97297333299471
 21
-16.24364813755801
 31
0.0
  0
LINE
  5
276
  8
0
  6
CONTINUOUS
 62
     3
 10
89.47241668053351
 20
-11.04780681182626
 30
0.0
 11
137.6042849270438
 21
16.74113720671974
 31
0.0
  0
LINE
  5
277
  8
0
  6
CONTINUOUS
 62
     3
 10
75.22239448888641
 20
13.63393928649106
 30
0.0
 11
123.3542776017088
 21
41.4228918881054
 31
0.0
  0
LINE
  5
278
  8
0
  6
CONTINUOUS
 62
     3
 10
75.22241273181305
 20
13.63393742043223
 30
0.0
 11
89.47241538421986
 21
-11.04778779624331
 31
0.0
  0
LINE
  5
279
  8
0
  6
CONTINUOUS
 62
     3
 10
232.4964065034087
 20
13.60328217440113
 30
0.0
 11
234.5730123278383
 21
21.35327966111757
 31
0.0
  0
LINE
  5
27A
  8
0
  6
CONTINUOUS
 62
     3
 10
218.201884487207
 20
-11.05273065974276
 30
0.0
 11
232.4518823712416
 21
13.62898629787108
 31
0.0
  0
LINE
  5
27B
  8
0
  6
CONTINUOUS
 62
     3
 10
212.5844503971327
 20
-16.75844521132055
 30
0.0
 11
218.2578454741648
 21
-11.08505061251978
 31
0.0
  0
LINE
  5
27C
  8
0
  6
CONTINUOUS
 62
     3
 10
211.6928323341985
 20
-16.24356495067738
 30
0.0
 11
212.5843880726083
 21
-16.75830512499712
 31
0.0
  0
LINE
  5
27D
  8
0
  6
CONTINUOUS
 62
     3
 10
233.6928515091601
 20
21.86153857629236
 30
0.0
 11
234.573055993949
 21
21.35335205421873
 31
0.0
  0
LINE
  5
27E
  8
0
  6
CONTINUOUS
 62
     3
 10
131.832893118217
 20
122.9886169433594
 30
0.0
 11
131.832893118217
 21
122.0778045654297
 31
0.0
  0
LINE
  5
27F
  8
0
  6
CONTINUOUS
 62
     3
 10
175.832893118217
 20
122.9886169433594
 30
0.0
 11
175.832893118217
 21
122.0778045654297
 31
0.0
  0
LINE
  5
280
  8
0
  6
CONTINUOUS
 62
     3
 10
79.59739947332452
 20
6.056207532874794
 30
0.0
 11
88.72176121924082
 21
11.32415966104955
 31
0.0
  0
LINE
  5
281
  8
0
  6
CONTINUOUS
 62
     3
 10
85.09740931190976
 20
-3.470070928678865
 30
0.0
 11
94.22177105782606
 21
1.79788119949589
 31
0.0
  0
LINE
  5
282
  8
0
  6
CONTINUOUS
 62
     3
 10
178.8425737011109
 20
21.77510620131037
 30
0.0
 11
185.8018700435529
 21
17.75715279904674
 31
0.0
  0
LINE
  5
283
  8
0
  6
CONTINUOUS
 62
     3
 10
184.3425586388677
 20
31.30138583845658
 30
0.0
 11
191.301835159563
 21
27.28344388028884
 31
0.0
  0
LINE
  5
284
  8
0
  6
CONTINUOUS
 62
     3
 10
118.9567573308333
 20
38.88394567690833
 30
0.0
 11
123.3317585676298
 21
31.30622229094195
 31
0.0
  0
LINE
  5
285
  8
0
  6
CONTINUOUS
 62
     3
 10
174.4675891665471
 20
14.19727997968724
 30
0.0
 11
178.8425973174832
 21
21.77501534129308
 31
0.0
  0
LINE
  5
286
  8
0
  6
CONTINUOUS
 62
     3
 10
128.8317592232809
 20
21.77994302029299
 30
0.0
 11
133.2067580758913
 21
14.20222376385746
 31
0.0
  0
LINE
  5
287
  8
0
  6
CONTINUOUS
 62
     3
 10
184.3425865290411
 20
31.30127479019396
 30
0.0
 11
188.7175946799772
 21
38.8790101517998
 31
0.0
  0
LINE
  5
288
  8
0
  6
CONTINUOUS
 62
     3
 10
217.3807260720534
 20
-0.4750043403100506
 30
0.0
 11
222.8807229130067
 21
9.051268323089545
 31
0.0
  0
LINE
  5
289
  8
0
  6
CONTINUOUS
 62
     3
 10
181.8736861763261
 20
20.02501513267683
 30
0.0
 11
187.3736944613726
 21
29.55130761782451
 31
0.0
  0
LINE
  5
28A
  8
0
  6
CONTINUOUS
 62
     3
 10
84.79357427193128
 20
9.056216793397709
 30
0.0
 11
90.29357302023351
 21
-0.4700591736265665
 31
0.0
  0
LINE
  5
28B
  8
0
  6
CONTINUOUS
 62
     3
 10
120.3006271357958
 20
29.55621952696049
 30
0.0
 11
125.8006258840981
 21
20.02994355993621
 31
0.0
  0
LINE
  5
28C
  8
0
  6
CONTINUOUS
 62
     3
 10
94.72176017795579
 20
14.78826029228057
 30
0.0
 11
110.3723974153773
 21
23.82415891599149
 31
0.0
  0
LINE
  5
28D
  8
0
  6
CONTINUOUS
 62
     3
 10
100.2217749719784
 20
5.261984691749689
 30
0.0
 11
115.8724056021501
 21
14.29787950076357
 31
0.0
  0
LINE
  5
28E
  8
0
  6
CONTINUOUS
 62
     3
 10
116.37238811503
 20
27.28825477885121
 30
0.0
 11
123.3316887190513
 21
31.30620841204316
 31
0.0
  0
LINE
  5
28F
  8
0
  6
CONTINUOUS
 62
     3
 10
121.8724029090526
 20
17.76197917832033
 30
0.0
 11
128.8316969058241
 21
21.77992899681524
 31
0.0
  0
LINE
  5
290
  8
0
  6
CONTINUOUS
 62
     3
 10
191.8018731317985
 20
14.29304786145625
 30
0.0
 11
207.4524900449593
 21
5.257155958095638
 31
0.0
  0
LINE
  5
291
  8
0
  6
CONTINUOUS
 62
     3
 10
197.3018382478087
 20
23.81933894269835
 30
0.0
 11
212.9525014117118
 21
14.78342033644734
 31
0.0
  0
LINE
  5
292
  8
0
  6
CONTINUOUS
 62
     3
 10
218.9524912854596
 20
11.3193230282541
 30
0.0
 11
228.0768311277454
 21
6.051380623051529
 31
0.0
  0
LINE
  5
293
  8
0
  6
CONTINUOUS
 62
     3
 10
213.4524799187072
 20
1.793058649902406
 30
0.0
 11
222.5768263682418
 21
-3.474887569998799
 31
0.0
  0
LINE
  5
294
  8
0
  6
CONTINUOUS
 62
     3
 10
92.72175778777759
 20
11.32415170841702
 30
0.0
 11
90.97175737054508
 21
8.293063058190427
 31
0.0
  0
LINE
  5
295
  8
0
  6
CONTINUOUS
 62
     3
 10
92.72175153768421
 20
5.26197641282792
 30
0.0
 11
90.97175179100397
 21
8.293065583525305
 31
0.0
  0
LINE
  5
296
  8
0
  6
CONTINUOUS
 62
     3
 10
92.72176335747477
 20
5.261978149414091
 30
0.0
 11
96.22176335747477
 21
5.261978149414091
 31
0.0
  0
LINE
  5
297
  8
0
  6
CONTINUOUS
 62
     3
 10
96.22175037324243
 20
5.261989287845211
 30
0.0
 11
97.97175006031804
 21
8.293078355304317
 31
0.0
  0
LINE
  5
298
  8
0
  6
CONTINUOUS
 62
     3
 10
97.97175070526845
 20
8.293066351679983
 30
0.0
 11
96.22175191226235
 21
11.32415387056491
 31
0.0
  0
LINE
  5
299
  8
0
  6
CONTINUOUS
 62
     3
 10
96.22176335747477
 20
11.3241882324219
 30
0.0
 11
92.72176335747477
 21
11.3241882324219
 31
0.0
  0
LINE
  5
29A
  8
0
  6
CONTINUOUS
 62
     3
 10
114.3724055777044
 20
23.82415724646356
 30
0.0
 11
112.6224051604719
 21
20.79306859623696
 31
0.0
  0
LINE
  5
29B
  8
0
  6
CONTINUOUS
 62
     3
 10
112.6224025979167
 20
20.79307618871749
 30
0.0
 11
114.3724052056194
 21
17.76198206258275
 31
0.0
  0
LINE
  5
29C
  8
0
  6
CONTINUOUS
 62
     3
 10
114.3724057524943
 20
17.76197814941409
 30
0.0
 11
117.8724057524943
 21
17.76197814941409
 31
0.0
  0
LINE
  5
29D
  8
0
  6
CONTINUOUS
 62
     3
 10
117.8723941371153
 20
17.76197625197781
 30
0.0
 11
119.622398369046
 21
20.79307150945331
 31
0.0
  0
LINE
  5
29E
  8
0
  6
CONTINUOUS
 62
     3
 10
119.6224649687965
 20
20.79309677694209
 30
0.0
 11
117.8724651625122
 21
23.82418812206277
 31
0.0
  0
LINE
  5
29F
  8
0
  6
CONTINUOUS
 62
     3
 10
117.8724133818888
 20
23.82417297363284
 30
0.0
 11
114.3724133818888
 21
23.82417297363284
 31
0.0
  0
LINE
  5
2A0
  8
0
  6
CONTINUOUS
 62
     3
 10
189.8017887185708
 20
23.81927416946567
 30
0.0
 11
188.0517883013382
 21
20.78818551923908
 31
0.0
  0
LINE
  5
2A1
  8
0
  6
CONTINUOUS
 62
     3
 10
188.0517925246735
 20
20.78816362429532
 30
0.0
 11
189.8017922117491
 21
17.75707455683622
 31
0.0
  0
LINE
  5
2A2
  8
0
  6
CONTINUOUS
 62
     3
 10
189.8018262236857
 20
17.75708770751956
 30
0.0
 11
193.3018262236857
 21
17.75708770751956
 31
0.0
  0
LINE
  5
2A3
  8
0
  6
CONTINUOUS
 62
     3
 10
193.3017959589899
 20
17.75709119915794
 30
0.0
 11
195.0517963762224
 21
20.78817984938453
 31
0.0
  0
LINE
  5
2A4
  8
0
  6
CONTINUOUS
 62
     3
 10
195.0519498791405
 20
20.78826143191171
 30
0.0
 11
193.3019529338773
 21
23.81934782159399
 31
0.0
  0
LINE
  5
2A5
  8
0
  6
CONTINUOUS
 62
     3
 10
193.3018262236857
 20
23.81924438476565
 30
0.0
 11
189.8018262236857
 21
23.81924438476565
 31
0.0
  0
LINE
  5
2A6
  8
0
  6
CONTINUOUS
 62
     3
 10
211.4524316081662
 20
11.31931846212322
 30
0.0
 11
209.7024311909337
 21
8.288229811896628
 31
0.0
  0
LINE
  5
2A7
  8
0
  6
CONTINUOUS
 62
     3
 10
209.7024422138279
 20
8.288149134241422
 30
0.0
 11
211.4524342715104
 21
5.257073281281947
 31
0.0
  0
LINE
  5
2A8
  8
0
  6
CONTINUOUS
 62
     3
 10
211.4524609893107
 20
5.257083892822294
 30
0.0
 11
214.9524609893107
 21
5.257083892822294
 31
0.0
  0
LINE
  5
2A9
  8
0
  6
CONTINUOUS
 62
     3
 10
214.9524068628092
 20
5.257132834793339
 30
0.0
 11
216.7024065498848
 21
8.288221902252445
 31
0.0
  0
LINE
  5
2AA
  8
0
  6
CONTINUOUS
 62
     3
 10
216.7024341372329
 20
8.288165825620609
 30
0.0
 11
214.9524382648539
 21
11.3192482858299
 31
0.0
  0
LINE
  5
2AB
  8
0
  6
CONTINUOUS
 62
     3
 10
214.9524495328043
 20
11.31923832291071
 30
0.0
 11
214.9503608184606
 21
11.32044233972923
 31
0.0
  0
LINE
  5
2AC
  8
0
  6
CONTINUOUS
 62
     3
 10
211.4524609893107
 20
11.31922912597659
 30
0.0
 11
214.9524609893107
 21
11.31922912597659
 31
0.0
  0
LINE
  5
2AD
  8
0
  6
CONTINUOUS
 62
     3
 10
139.832893118217
 20
125.0652313232422
 30
0.0
 11
139.832893118217
 21
69.66226959228519
 31
0.0
  0
LINE
  5
2AE
  8
0
  6
CONTINUOUS
 62
     3
 10
167.832893118217
 20
125.0652313232422
 30
0.0
 11
167.832893118217
 21
69.66226959228519
 31
0.0
  0
LINE
  5
2AF
  8
0
  6
CONTINUOUS
 62
     3
 10
159.332893118217
 20
125.0652313232422
 30
0.0
 11
159.332893118217
 21
114.5293273925782
 31
0.0
  0
LINE
  5
2B0
  8
0
  6
CONTINUOUS
 62
     3
 10
148.332893118217
 20
125.0652313232422
 30
0.0
 11
148.332893118217
 21
114.5293273925782
 31
0.0
  0
LINE
  5
2B1
  8
0
  6
CONTINUOUS
 62
     3
 10
139.832893118217
 20
74.56523132324222
 30
0.0
 11
148.332893118217
 21
74.56523132324222
 31
0.0
  0
LINE
  5
2B2
  8
0
  6
CONTINUOUS
 62
     3
 10
159.332893118217
 20
74.56523132324222
 30
0.0
 11
167.832893118217
 21
74.56523132324222
 31
0.0
  0
LINE
  5
2B3
  8
0
  6
CONTINUOUS
 62
     3
 10
148.332893118217
 20
78.06523132324222
 30
0.0
 11
159.332893118217
 21
78.06523132324222
 31
0.0
  0
LINE
  5
2B4
  8
0
  6
CONTINUOUS
 62
     3
 10
148.332893118217
 20
119.0652313232422
 30
0.0
 11
159.332893118217
 21
119.0652313232422
 31
0.0
  0
LINE
  5
2B5
  8
0
  6
CONTINUOUS
 62
     3
 10
148.332893118217
 20
107.6011199951172
 30
0.0
 11
148.332893118217
 21
89.52933502197269
 31
0.0
  0
LINE
  5
2B6
  8
0
  6
CONTINUOUS
 62
     3
 10
159.332893118217
 20
107.6011199951172
 30
0.0
 11
159.332893118217
 21
89.52933502197269
 31
0.0
  0
LINE
  5
2B7
  8
0
  6
CONTINUOUS
 62
     3
 10
159.332893118217
 20
82.60112762451175
 30
0.0
 11
159.332893118217
 21
74.56523132324222
 31
0.0
  0
LINE
  5
2B8
  8
0
  6
CONTINUOUS
 62
     3
 10
148.332893118217
 20
82.60112762451175
 30
0.0
 11
148.332893118217
 21
74.56523132324222
 31
0.0
  0
LINE
  5
2B9
  8
0
  6
CONTINUOUS
 62
     3
 10
-74.65905787511683
 20
122.9439086914063
 30
0.0
 11
-74.65905787511683
 21
119.0652313232422
 31
0.0
  0
LINE
  5
2BA
  8
0
  6
CONTINUOUS
 62
     3
 10
-151.6590578751168
 20
-39.93477630615232
 30
0.0
 11
-76.65905787511683
 21
-39.93477630615232
 31
0.0
  0
LINE
  5
2BB
  8
0
  6
CONTINUOUS
 62
     3
 10
-77.15905787511683
 20
9.565223693847685
 30
0.0
 11
-74.65905787511683
 21
9.565223693847685
 31
0.0
  0
LINE
  5
2BC
  8
0
  6
CONTINUOUS
 62
     3
 10
-102.9090578751168
 20
67.81522369384769
 30
0.0
 11
-102.9090578751168
 21
17.31522369384769
 31
0.0
  0
LINE
  5
2BD
  8
0
  6
CONTINUOUS
 62
     3
 10
-125.9090578751168
 20
72.06522369384769
 30
0.0
 11
-125.9090578751168
 21
13.06522369384769
 31
0.0
  0
LINE
  5
2BE
  8
0
  6
CONTINUOUS
 62
     3
 10
-85.90905787511683
 20
72.06522369384769
 30
0.0
 11
-85.90905787511683
 21
13.06522369384769
 31
0.0
  0
LINE
  5
2BF
  8
0
  6
CONTINUOUS
 62
     3
 10
-94.90905787511683
 20
15.56522369384769
 30
0.0
 11
-85.90905787511683
 21
15.56522369384769
 31
0.0
  0
LINE
  5
2C0
  8
0
  6
CONTINUOUS
 62
     3
 10
-94.90905787511683
 20
69.56523132324222
 30
0.0
 11
-85.90905787511683
 21
69.56523132324222
 31
0.0
  0
LINE
  5
2C1
  8
0
  6
CONTINUOUS
 62
     3
 10
-134.6590578751168
 20
73.06523132324222
 30
0.0
 11
-86.90905787511683
 21
73.06523132324222
 31
0.0
  0
LINE
  5
2C2
  8
0
  6
CONTINUOUS
 62
     3
 10
-94.90905787511683
 20
69.81522369384769
 30
0.0
 11
-94.90905787511683
 21
15.31522369384769
 31
0.0
  0
LINE
  5
2C3
  8
0
  6
CONTINUOUS
 62
     3
 10
-95.90905787511683
 20
69.81522369384769
 30
0.0
 11
-95.90905787511683
 21
15.31522369384769
 31
0.0
  0
LINE
  5
2C4
  8
0
  6
CONTINUOUS
 62
     3
 10
-95.90905787511683
 20
69.81523132324222
 30
0.0
 11
-94.90905787511683
 21
69.81523132324222
 31
0.0
  0
LINE
  5
2C5
  8
0
  6
CONTINUOUS
 62
     3
 10
-95.90905787511683
 20
15.31522369384769
 30
0.0
 11
-94.90905787511683
 21
15.31522369384769
 31
0.0
  0
LINE
  5
2C6
  8
0
  6
CONTINUOUS
 62
     3
 10
-134.6590578751168
 20
12.06522369384769
 30
0.0
 11
-77.15905787511683
 21
12.06522369384769
 31
0.0
  0
LINE
  5
2C7
  8
0
  6
CONTINUOUS
 62
     3
 10
-118.6590578751168
 20
125.0652313232422
 30
0.0
 11
-118.6590578751168
 21
106.1613465317175
 31
0.0
  0
LINE
  5
2C8
  8
0
  6
CONTINUOUS
 62
     3
 10
-89.65905787511683
 20
125.0652313232422
 30
0.0
 11
-89.65905787511683
 21
74.56522369384769
 31
0.0
  0
LINE
  5
2C9
  8
0
  6
CONTINUOUS
 62
     3
 10
-93.35900904699183
 20
79.7652282714844
 30
0.0
 11
-93.35900904699183
 21
73.06522369384769
 31
0.0
  0
LINE
  5
2CA
  8
0
  6
CONTINUOUS
 62
     3
 10
-93.35913111730433
 20
74.56523132324222
 30
0.0
 11
-75.65905787511683
 21
74.56523132324222
 31
0.0
  0
LINE
  5
2CB
  8
0
  6
CONTINUOUS
 62
     3
 10
-88.65905787511683
 20
119.0652313232422
 30
0.0
 11
-74.15905787511683
 21
119.0652313232422
 31
0.0
  0
LINE
  5
2CC
  8
0
  6
CONTINUOUS
 62
     3
 10
-88.65905787511683
 20
78.06523132324222
 30
0.0
 11
-74.15905787511683
 21
78.06523132324222
 31
0.0
  0
LINE
  5
2CD
  8
0
  6
CONTINUOUS
 62
     3
 10
-74.15905787511683
 20
119.0652313232422
 30
0.0
 11
-74.15905787511683
 21
115.0652313232422
 31
0.0
  0
LINE
  5
2CE
  8
0
  6
CONTINUOUS
 62
     3
 10
-74.65905787511683
 20
78.06522369384769
 30
0.0
 11
-74.65905787511683
 21
-37.93477630615232
 31
0.0
  0
LINE
  5
2CF
  8
0
  6
CONTINUOUS
 62
     3
 10
-151.6590578751168
 20
125.0652313232422
 30
0.0
 11
-75.65905787511683
 21
125.0652313232422
 31
0.0
  0
LINE
  5
2D0
  8
0
  6
CONTINUOUS
 62
     3
 10
-76.659253515506
 20
-39.93450069593789
 30
0.0
 11
-74.65920806536364
 21
-37.93445541438675
 31
0.0
  0
LINE
  5
2D1
  8
0
  6
CONTINUOUS
 62
     3
 10
-75.6591592299615
 20
124.0649430804479
 30
0.0
 11
-74.6591796632661
 21
123.0649635980444
 31
0.0
  0
LINE
  5
2D2
  8
0
  6
CONTINUOUS
 62
     3
 10
-88.65905787511683
 20
90.06523132324222
 30
0.0
 11
-68.65905787511683
 21
90.06523132324222
 31
0.0
  0
LINE
  5
2D3
  8
0
  6
CONTINUOUS
 62
     3
 10
-88.65905787511683
 20
82.06523132324222
 30
0.0
 11
-68.65905787511683
 21
82.06523132324222
 31
0.0
  0
LINE
  5
2D4
  8
0
  6
CONTINUOUS
 62
     3
 10
-88.65905787511683
 20
115.0652313232422
 30
0.0
 11
-68.65905787511683
 21
115.0652313232422
 31
0.0
  0
LINE
  5
2D5
  8
0
  6
CONTINUOUS
 62
     3
 10
-88.65905787511683
 20
107.0652313232422
 30
0.0
 11
-68.65905787511683
 21
107.0652313232422
 31
0.0
  0
LINE
  5
2D6
  8
0
  6
CONTINUOUS
 62
     3
 10
-86.65905787511683
 20
115.0652313232422
 30
0.0
 11
-86.65905787511683
 21
107.0652313232422
 31
0.0
  0
LINE
  5
2D7
  8
0
  6
CONTINUOUS
 62
     3
 10
-68.65905787511683
 20
117.5652313232422
 30
0.0
 11
-68.65905787511683
 21
104.5652313232422
 31
0.0
  0
LINE
  5
2D8
  8
0
  6
CONTINUOUS
 62
     3
 10
-86.65905787511683
 20
90.06522369384769
 30
0.0
 11
-86.65905787511683
 21
82.06522369384769
 31
0.0
  0
LINE
  5
2D9
  8
0
  6
CONTINUOUS
 62
     3
 10
-68.65905787511683
 20
92.56523132324222
 30
0.0
 11
-68.65905787511683
 21
79.56522369384769
 31
0.0
  0
LINE
  5
2DA
  8
0
  6
CONTINUOUS
 62
     3
 10
-60.65905787511683
 20
92.56523132324222
 30
0.0
 11
-60.65905787511683
 21
79.56522369384769
 31
0.0
  0
LINE
  5
2DB
  8
0
  6
CONTINUOUS
 62
     3
 10
-60.65905787511683
 20
117.5652313232422
 30
0.0
 11
-60.65905787511683
 21
104.5652313232422
 31
0.0
  0
LINE
  5
2DC
  8
0
  6
CONTINUOUS
 62
     3
 10
-68.65905787511683
 20
79.56523132324222
 30
0.0
 11
-60.65905787511683
 21
79.56523132324222
 31
0.0
  0
LINE
  5
2DD
  8
0
  6
CONTINUOUS
 62
     3
 10
-68.65905787511683
 20
92.56523132324222
 30
0.0
 11
-60.65905787511683
 21
92.56523132324222
 31
0.0
  0
LINE
  5
2DE
  8
0
  6
CONTINUOUS
 62
     3
 10
-68.65905787511683
 20
104.5652313232422
 30
0.0
 11
-60.65905787511683
 21
104.5652313232422
 31
0.0
  0
LINE
  5
2DF
  8
0
  6
CONTINUOUS
 62
     3
 10
-68.65905787511683
 20
117.5652313232422
 30
0.0
 11
-60.65905787511683
 21
117.5652313232422
 31
0.0
  0
LINE
  5
2E0
  8
0
  6
CONTINUOUS
 62
     3
 10
-82.65905787511683
 20
78.06522369384769
 30
0.0
 11
-82.65905787511683
 21
74.56522369384769
 31
0.0
  0
LINE
  5
2E1
  8
0
  6
CONTINUOUS
 62
     3
 10
-74.15905787511683
 20
82.06522369384769
 30
0.0
 11
-74.15905787511683
 21
78.06522369384769
 31
0.0
  0
LINE
  5
2E2
  8
0
  6
CONTINUOUS
 62
     3
 10
-94.65905787511683
 20
2.015228271484403
 30
0.0
 11
-74.65905787511683
 21
2.015228271484403
 31
0.0
  0
LINE
  5
2E3
  8
0
  6
CONTINUOUS
 62
     3
 10
-94.65905787511683
 20
7.115219116210966
 30
0.0
 11
-74.65905787511683
 21
7.115219116210966
 31
0.0
  0
LINE
  5
2E4
  8
0
  6
CONTINUOUS
 62
     3
 10
-94.65905787511683
 20
7.115222930908232
 30
0.0
 11
-94.65905787511683
 21
2.015224456787138
 31
0.0
  0
LINE
  5
2E5
  8
0
  6
CONTINUOUS
 62
     3
 10
-94.65914359603919
 20
7.11525297701067
 30
0.0
 11
-96.13138741997152
 21
4.565250807628246
 31
0.0
  0
LINE
  5
2E6
  8
0
  6
CONTINUOUS
 62
     3
 10
-94.65918308978307
 20
2.015161956530193
 30
0.0
 11
-96.1314269137154
 21
4.565164125912617
 31
0.0
  0
LINE
  5
2E7
  8
0
  6
CONTINUOUS
 62
     3
 10
-99.25906397863245
 20
79.7652282714844
 30
0.0
 11
-93.35900904699183
 21
79.7652282714844
 31
0.0
  0
LINE
  5
2E8
  8
0
  6
CONTINUOUS
 62
     3
 10
-99.25906397863245
 20
85.15526297012715
 30
0.0
 11
-99.25906397863245
 21
73.06523132324222
 31
0.0
  0
LINE
  5
2E9
  8
0
  6
CONTINUOUS
 62
     3
 10
-125.9090273773148
 20
13.0652100020034
 30
0.0
 11
-124.9090263157253
 21
12.0652089404139
 31
0.0
  0
LINE
  5
2EA
  8
0
  6
CONTINUOUS
 62
     3
 10
-125.9088303380943
 20
72.06498292075688
 30
0.0
 11
-124.9088476524569
 21
73.06498086340528
 31
0.0
  0
LINE
  5
2EB
  8
0
  6
CONTINUOUS
 62
     3
 10
-85.90905504608945
 20
13.06520460720688
 30
0.0
 11
-86.90905610767895
 21
12.06520354561738
 31
0.0
  0
LINE
  5
2EC
  8
0
  6
CONTINUOUS
 62
     3
 10
-85.90903076950512
 20
72.06520520082748
 30
0.0
 11
-86.90903183109462
 21
73.06520626241698
 31
0.0
  0
LINE
  5
2ED
  8
0
  6
CONTINUOUS
 62
     3
 10
-77.15905787511683
 20
62.1393737792969
 30
0.0
 11
-77.15905787511683
 21
9.565223693847685
 31
0.0
  0
LINE
  5
2EE
  8
0
  6
CONTINUOUS
 62
     3
 10
-151.6590578751168
 20
125.0652313232422
 30
0.0
 11
-151.6590578751168
 21
-18.10977935791013
 31
0.0
  0
LINE
  5
2EF
  8
0
  6
CONTINUOUS
 62
     3
 10
-151.6590578751168
 20
-30.10977935791013
 30
0.0
 11
-151.6590578751168
 21
-39.93477630615232
 31
0.0
  0
LINE
  5
2F0
  8
0
  6
CONTINUOUS
 62
     3
 10
-125.9090578751168
 20
21.56522369384769
 30
0.0
 11
-102.9090578751168
 21
21.56522369384769
 31
0.0
  0
LINE
  5
2F1
  8
0
  6
CONTINUOUS
 62
     3
 10
-125.9090578751168
 20
63.56523132324222
 30
0.0
 11
-102.9090578751168
 21
63.56523132324222
 31
0.0
  0
LINE
  5
2F2
  8
0
  6
CONTINUOUS
 62
     3
 10
-102.9090578751168
 20
17.31522369384769
 30
0.0
 11
-95.90905787511683
 21
17.31522369384769
 31
0.0
  0
LINE
  5
2F3
  8
0
  6
CONTINUOUS
 62
     3
 10
-102.9090578751168
 20
67.81523132324222
 30
0.0
 11
-95.90905787511683
 21
67.81523132324222
 31
0.0
  0
LINE
  5
2F4
  8
0
  6
CONTINUOUS
 62
     3
 10
-94.90905787511683
 20
21.56522369384769
 30
0.0
 11
-85.90905787511683
 21
21.56522369384769
 31
0.0
  0
LINE
  5
2F5
  8
0
  6
CONTINUOUS
 62
     3
 10
-94.90905787511683
 20
63.56523132324222
 30
0.0
 11
-85.90905787511683
 21
63.56523132324222
 31
0.0
  0
LINE
  5
2F6
  8
0
  6
CONTINUOUS
 62
     3
 10
-87.65905787511683
 20
-14.10977935791013
 30
0.0
 11
-87.65905787511683
 21
-34.10977935791013
 31
0.0
  0
LINE
  5
2F7
  8
0
  6
CONTINUOUS
 62
     3
 10
-75.65905787511683
 20
-15.10977935791013
 30
0.0
 11
-75.65905787511683
 21
-33.10977935791013
 31
0.0
  0
LINE
  5
2F8
  8
0
  6
CONTINUOUS
 62
     3
 10
-87.65905787511683
 20
-33.10977935791013
 30
0.0
 11
-75.65905787511683
 21
-33.10977935791013
 31
0.0
  0
LINE
  5
2F9
  8
0
  6
CONTINUOUS
 62
     3
 10
-87.65905787511683
 20
-15.10977935791013
 30
0.0
 11
-75.65905787511683
 21
-15.10977935791013
 31
0.0
  0
LINE
  5
2FA
  8
0
  6
CONTINUOUS
 62
     3
 10
-87.65905787511683
 20
-14.10977935791013
 30
0.0
 11
-74.65905787511683
 21
-14.10977935791013
 31
0.0
  0
LINE
  5
2FB
  8
0
  6
CONTINUOUS
 62
     3
 10
-87.65905787511683
 20
-34.10977935791013
 30
0.0
 11
-74.65905787511683
 21
-34.10977935791013
 31
0.0
  0
LINE
  5
2FC
  8
0
  6
CONTINUOUS
 62
     3
 10
-167.6590578751168
 20
-18.10977935791013
 30
0.0
 11
-167.6590578751168
 21
-30.10977935791013
 31
0.0
  0
LINE
  5
2FD
  8
0
  6
CONTINUOUS
 62
     3
 10
-167.6590578751168
 20
-30.10977935791013
 30
0.0
 11
-87.65905787511683
 21
-30.10977935791013
 31
0.0
  0
LINE
  5
2FE
  8
0
  6
CONTINUOUS
 62
     3
 10
-167.6590578751168
 20
-18.10977935791013
 30
0.0
 11
-87.65905787511683
 21
-18.10977935791013
 31
0.0
  0
LINE
  5
2FF
  8
0
  6
CONTINUOUS
 62
     3
 10
-151.6590578751168
 20
-30.85977935791013
 30
0.0
 11
-87.65905787511683
 21
-30.85977935791013
 31
0.0
  0
LINE
  5
300
  8
0
  6
CONTINUOUS
 62
     3
 10
-151.6590578751168
 20
-17.35977935791013
 30
0.0
 11
-87.65905787511683
 21
-17.35977935791013
 31
0.0
  0
LINE
  5
301
  8
0
  6
CONTINUOUS
 62
     3
 10
-134.6590578751168
 20
93.62773132324222
 30
0.0
 11
-134.6590578751168
 21
-8.497283935546847
 31
0.0
  0
LINE
  5
302
  8
0
  6
CONTINUOUS
 62
     3
 10
-151.6590758499795
 20
95.75272427106737
 30
0.0
 11
-134.6590790871349
 21
93.62772965388766
 31
0.0
  0
LINE
  5
303
  8
0
  6
CONTINUOUS
 62
     3
 10
-151.6590513160616
 20
-10.6222737560532
 30
0.0
 11
-134.659054553217
 21
-8.497279138873495
 31
0.0
  0
LINE
  5
304
  8
0
  6
CONTINUOUS
 62
     3
 10
-145.1590578751168
 20
118.9952239990235
 30
0.0
 11
-145.1590578751168
 21
99.53521728515628
 31
0.0
  0
LINE
  5
305
  8
0
  6
CONTINUOUS
 62
     3
 10
-151.6590578751168
 20
99.53521728515628
 30
0.0
 11
-145.1590578751168
 21
99.53521728515628
 31
0.0
  0
LINE
  5
306
  8
0
  6
CONTINUOUS
 62
     3
 10
-151.6590578751168
 20
118.9952239990235
 30
0.0
 11
-145.1590578751168
 21
118.9952239990235
 31
0.0
  0
LINE
  5
307
  8
0
  6
CONTINUOUS
 62
     3
 10
-145.1590743442806
 20
114.3652215056691
 30
0.0
 11
-142.2145854678795
 21
109.265217868925
 31
0.0
  0
LINE
  5
308
  8
0
  6
CONTINUOUS
 62
     3
 10
-145.1591224340715
 20
104.1652541274044
 30
0.0
 11
-142.2146347497636
 21
109.2652556993831
 31
0.0
  0
LINE
  5
309
  8
0
  6
CONTINUOUS
 62
     3
 10
-94.90905787511683
 20
68.36523437500003
 30
0.0
 11
-85.90905787511683
 21
68.36523437500003
 31
0.0
  0
LINE
  5
30A
  8
0
  6
CONTINUOUS
 62
     3
 10
-94.90905787511683
 20
64.7652282714844
 30
0.0
 11
-85.90905787511683
 21
64.7652282714844
 31
0.0
  0
LINE
  5
30B
  8
0
  6
CONTINUOUS
 62
     3
 10
-90.90905787511683
 20
68.36523437500003
 30
0.0
 11
-90.90905787511683
 21
64.7652282714844
 31
0.0
  0
LINE
  5
30C
  8
0
  6
CONTINUOUS
 62
     3
 10
-86.90905787511683
 20
68.36523437500003
 30
0.0
 11
-86.90905787511683
 21
64.7652282714844
 31
0.0
  0
CIRCLE
  5
30D
  8
0
  6
CONTINUOUS
 62
     3
 10
153.832893118217
 20
42.56522369384769
 30
0.0
 40
27.0
  0
ARC
  5
30E
  8
0
  6
CONTINUOUS
 62
     3
 10
153.832893118217
 20
42.56522369384769
 30
0.0
 40
33.0
 50
115.1027303836484
 51
184.4169380810418
  0
ARC
  5
30F
  8
0
  6
CONTINUOUS
 62
     3
 10
153.832893118217
 20
42.56522369384769
 30
0.0
 40
82.5
 50
0.0
 51
80.22979938736845
  0
ARC
  5
310
  8
0
  6
CONTINUOUS
 62
     3
 10
153.832893118217
 20
42.56522369384769
 30
0.0
 40
82.5
 50
99.77021928196622
 51
200.0535360347621
  0
ARC
  5
311
  8
0
  6
CONTINUOUS
 62
     3
 10
153.832893118217
 20
42.56522369384769
 30
0.0
 40
82.5
 50
219.9463973329983
 51
320.0535635070996
  0
ARC
  5
312
  8
0
  6
CONTINUOUS
 62
     3
 10
153.832893118217
 20
42.56522369384769
 30
0.0
 40
82.5
 50
339.9464160402281
 51
360.0
  0
CIRCLE
  5
313
  8
0
  6
CONTINUOUS
 62
     3
 10
153.832893118217
 20
42.56522369384769
 30
0.0
 40
30.5
  0
ARC
  5
314
  8
0
  6
CONTINUOUS
 62
     3
 10
153.832893118217
 20
42.56522369384769
 30
0.0
 40
81.0
 50
220.1325199878811
 51
319.8674442673113
  0
ARC
  5
315
  8
0
  6
CONTINUOUS
 62
     3
 10
153.832893118217
 20
42.56522369384769
 30
0.0
 40
81.0
 50
99.95297465358826
 51
199.8674133798793
  0
ARC
  5
316
  8
0
  6
CONTINUOUS
 62
     3
 10
153.832893118217
 20
42.56522369384769
 30
0.0
 40
81.0
 50
340.1325352800164
 51
440.0470440157464
  0
CIRCLE
  5
317
  8
0
  6
CONTINUOUS
 62
     3
 10
116.1224057524943
 20
20.79306793212894
 30
0.0
 40
6.5
  0
CIRCLE
  5
318
  8
0
  6
CONTINUOUS
 62
     3
 10
94.47176335747477
 20
8.293067932128935
 30
0.0
 40
6.5
  0
CIRCLE
  5
319
  8
0
  6
CONTINUOUS
 62
     3
 10
191.5518262236857
 20
20.7881774902344
 30
0.0
 40
6.5
  0
CIRCLE
  5
31A
  8
0
  6
CONTINUOUS
 62
     3
 10
213.2024609893107
 20
8.288173675537138
 30
0.0
 40
6.5
  0
ARC
  5
31B
  8
0
  6
CONTINUOUS
 62
     3
 10
153.832893118217
 20
42.56522369384769
 30
0.0
 40
33.0
 50
235.5830089470969
 51
304.4171021571626
  0
ARC
  5
31C
  8
0
  6
CONTINUOUS
 62
     3
 10
153.832893118217
 20
42.56522369384769
 30
0.0
 40
33.0
 50
355.5831224232015
 51
424.8972814554971
  0
ARC
  5
31D
  8
0
  6
CONTINUOUS
 62
     3
 10
153.832893118217
 20
42.56522369384769
 30
0.0
 40
32.40000152587891
 50
64.39916941970641
 51
115.6008424194391
  0
ARC
  5
31E
  8
0
  6
CONTINUOUS
 62
     3
 10
153.832893118217
 20
42.56522369384769
 30
0.0
 40
32.40000152587891
 50
183.9079013850448
 51
236.092062945938
  0
ARC
  5
31F
  8
0
  6
CONTINUOUS
 62
     3
 10
153.832893118217
 20
42.56522369384769
 30
0.0
 40
32.40000152587891
 50
303.9080379130378
 51
356.0921870942131
  0
CIRCLE
  5
320
  8
0
  6
CONTINUOUS
 62
     3
 10
153.832893118217
 20
42.56522369384769
 30
0.0
 40
21.0
  0
CIRCLE
  5
321
  8
0
  6
CONTINUOUS
 62
     3
 10
130.832893118217
 20
42.56522369384769
 30
0.0
 40
1.600000023841858
  0
CIRCLE
  5
322
  8
0
  6
CONTINUOUS
 62
     3
 10
176.832893118217
 20
42.56522369384769
 30
0.0
 40
1.600000023841858
  0
CIRCLE
  5
323
  8
0
  6
CONTINUOUS
 62
     3
 10
211.5751416533732
 20
75.90273284912112
 30
0.0
 40
7.0
  0
CIRCLE
  5
324
  8
0
  6
CONTINUOUS
 62
     3
 10
96.09068273003337
 20
75.90279388427737
 30
0.0
 40
7.0
  0
CIRCLE
  5
325
  8
0
  6
CONTINUOUS
 62
     3
 10
96.09068273003337
 20
75.90279388427737
 30
0.0
 40
10.0
  0
CIRCLE
  5
326
  8
0
  6
CONTINUOUS
 62
     3
 10
211.5751416533732
 20
75.90273284912112
 30
0.0
 40
10.0
  0
CIRCLE
  5
327
  8
0
  6
CONTINUOUS
 62
     3
 10
153.832893118217
 20
-24.10977935791013
 30
0.0
 40
10.0
  0
LINE
  5
328
  8
0
  6
CONTINUOUS
 62
     3
 10
-74.15905787511683
 20
107.0652313232422
 30
0.0
 11
-74.15905787511683
 21
94.06523132324222
 31
0.0
  0
LINE
  5
329
  8
0
  6
CONTINUOUS
 62
     3
 10
-74.15905787511683
 20
94.06523132324222
 30
0.0
 11
-74.15905787511683
 21
90.06522369384769
 31
0.0
  0
LINE
  5
32A
  8
0
  6
CONTINUOUS
 62
     3
 10
-88.65905787511683
 20
119.0652313232422
 30
0.0
 11
-88.65905787511683
 21
93.88911836247652
 31
0.0
  0
LINE
  5
32B
  8
0
  6
CONTINUOUS
 62
     3
 10
-88.65905787511683
 20
93.88911836247652
 30
0.0
 11
-88.65905787511683
 21
78.06522369384769
 31
0.0
  0
LINE
  5
32C
  8
0
  6
CONTINUOUS
 62
     3
 10
-82.65905787511683
 20
125.0652313232422
 30
0.0
 11
-82.65905787511683
 21
119.0652313232422
 31
0.0
  0
LINE
  5
32D
  8
0
  6
CONTINUOUS
 62
     3
 10
125.8329322007101
 20
97.1012111919176
 30
0.0
 11
121.8329322007101
 21
97.1012111919176
 31
0.0
  0
LINE
  5
32E
  8
0
  6
CONTINUOUS
 62
     3
 10
121.8329868658823
 20
97.10125758242768
 30
0.0
 11
119.8329878195567
 21
100.5653596122281
 31
0.0
  0
LINE
  5
32F
  8
0
  6
CONTINUOUS
 62
     3
 10
127.8329475125059
 20
100.5653166518686
 30
0.0
 11
125.8329451283201
 21
97.10121629099828
 31
0.0
  0
CIRCLE
  5
330
  8
0
  6
CONTINUOUS
 62
     3
 10
123.8329322007101
 20
100.5653148906481
 30
0.0
 40
2.400000095367432
  0
CIRCLE
  5
331
  8
0
  6
CONTINUOUS
 62
     3
 10
123.8329322007101
 20
100.5653148906481
 30
0.0
 40
0.75
  0
LINE
  5
332
  8
0
  6
CONTINUOUS
 62
     3
 10
121.8329322007101
 20
104.0294185893785
 30
0.0
 11
125.8329322007101
 21
104.0294185893785
 31
0.0
  0
LINE
  5
333
  8
0
  6
CONTINUOUS
 62
     3
 10
120.6034476780058
 20
-8.951362708547578
 30
0.0
 11
122.6034476780058
 21
-12.41546426151083
 31
0.0
  0
LINE
  5
334
  8
0
  6
CONTINUOUS
 62
     3
 10
120.6034476426046
 20
-15.87958180734998
 30
0.0
 11
116.6034476426046
 21
-15.87958180734998
 31
0.0
  0
LINE
  5
335
  8
0
  6
CONTINUOUS
 62
     3
 10
122.6033824010922
 20
-12.41544318344612
 30
0.0
 11
120.6033814474179
 21
-15.87954425957221
 31
0.0
  0
LINE
  5
336
  8
0
  6
CONTINUOUS
 62
     3
 10
116.6034400132101
 20
-8.951433537696659
 30
0.0
 11
120.6034400132101
 21
-8.951433537696659
 31
0.0
  0
LINE
  5
337
  8
0
  6
CONTINUOUS
 62
     3
 10
114.6034148595225
 20
-12.41545901421662
 30
0.0
 11
116.603416290034
 21
-8.951358176509103
 31
0.0
  0
LINE
  5
338
  8
0
  6
CONTINUOUS
 62
     3
 10
116.6034474804315
 20
-15.87956605289267
 30
0.0
 11
114.6034474804315
 21
-12.41546449992941
 31
0.0
  0
CIRCLE
  5
339
  8
0
  6
CONTINUOUS
 62
     3
 10
118.6034476426046
 20
-12.41546475717908
 30
0.0
 40
2.400000095367432
  0
CIRCLE
  5
33A
  8
0
  6
CONTINUOUS
 62
     3
 10
118.6034476426046
 20
-12.41546475717908
 30
0.0
 40
0.75
  0
CIRCLE
  5
33B
  8
0
  6
CONTINUOUS
 62
     3
 10
118.6034476426046
 20
-12.41546475717908
 30
0.0
 40
3.299999952316284
  0
LINE
  5
33C
  8
0
  6
CONTINUOUS
 62
     3
 10
215.0624055162396
 20
39.54606177345019
 30
0.0
 11
217.0624055162396
 21
43.01016332641345
 31
0.0
  0
LINE
  5
33D
  8
0
  6
CONTINUOUS
 62
     3
 10
217.0624243882101
 20
43.01008379628772
 30
0.0
 11
221.0624243882101
 21
43.01008379628772
 31
0.0
  0
LINE
  5
33E
  8
0
  6
CONTINUOUS
 62
     3
 10
217.0624749458728
 20
36.08198414763999
 30
0.0
 11
215.0624749458728
 21
39.54608570060324
 31
0.0
  0
LINE
  5
33F
  8
0
  6
CONTINUOUS
 62
     3
 10
221.0624243882101
 20
36.08191454579944
 30
0.0
 11
217.0624243882101
 21
36.08191454579944
 31
0.0
  0
CIRCLE
  5
340
  8
0
  6
CONTINUOUS
 62
     3
 10
219.062409129421
 20
39.54606020619983
 30
0.0
 40
2.400000095367432
  0
CIRCLE
  5
341
  8
0
  6
CONTINUOUS
 62
     3
 10
219.062409129421
 20
39.54606020619983
 30
0.0
 40
0.75
  0
CIRCLE
  5
342
  8
0
  6
CONTINUOUS
 62
     3
 10
219.062409129421
 20
39.54606020619983
 30
0.0
 40
3.299999952316284
  0
CIRCLE
  5
343
  8
0
  6
CONTINUOUS
 62
     3
 10
123.8329322007101
 20
100.5653148906481
 30
0.0
 40
8.0
  0
LINE
  5
344
  8
0
  6
CONTINUOUS
 62
     3
 10
119.832930031676
 20
100.5653110707019
 30
0.0
 11
121.8329305085131
 21
104.0294123852466
 31
0.0
  0
LINE
  5
345
  8
0
  6
CONTINUOUS
 62
     3
 10
125.8329599763572
 20
104.0294476073211
 30
0.0
 11
127.8329585458458
 21
100.5653451006835
 31
0.0
  0
CIRCLE
  5
346
  8
0
  6
CONTINUOUS
 62
     3
 10
123.8329322007101
 20
100.5653148906481
 30
0.0
 40
3.299999952316284
  0
CIRCLE
  5
347
  8
0
  6
CONTINUOUS
 62
     3
 10
118.6034476426046
 20
-12.41546475717908
 30
0.0
 40
8.0
  0
LINE
  5
348
  8
0
  6
CONTINUOUS
 62
     3
 10
221.0624217743796
 20
43.01016548900495
 30
0.0
 11
223.0624217743796
 21
39.54606393604169
 31
0.0
  0
LINE
  5
349
  8
0
  6
CONTINUOUS
 62
     3
 10
223.0624090174386
 20
39.54605962768298
 30
0.0
 11
221.0624090174386
 21
36.08195807471972
 31
0.0
  0
CIRCLE
  5
34A
  8
0
  6
CONTINUOUS
 62
     3
 10
219.062409129421
 20
39.54606020619983
 30
0.0
 40
8.0
  0
LINE
  5
34B
  8
0
  6
CONTINUOUS
 62
     3
 10
51.07719552274043
 20
-42.16418183570195
 30
0.0
 11
52.85762557507209
 21
-45.24797672269725
 31
0.0
  0
LINE
  5
34C
  8
0
  6
CONTINUOUS
 62
     3
 10
59.07721358701556
 20
-56.02062565918777
 30
0.0
 11
65.13940534938652
 21
-52.52061799999139
 31
0.0
  0
LINE
  5
34D
  8
0
  6
CONTINUOUS
 62
     3
 10
51.07721469352092
 20
-42.1642005107895
 30
0.0
 11
57.13939324139224
 21
-38.66420048098719
 31
0.0
  0
LINE
  5
34E
  8
0
  6
CONTINUOUS
 62
     3
 10
51.0772051711987
 20
-42.16418838500974
 30
0.0
 11
51.0772051711987
 21
-46.47465896606443
 31
0.0
  0
LINE
  5
34F
  8
0
  6
CONTINUOUS
 62
     3
 10
47.95271305297197
 20
-56.66984685115355
 30
0.0
 11
54.0772132458707
 21
-53.13386540679363
 31
0.0
  0
LINE
  5
350
  8
0
  6
CONTINUOUS
 62
     3
 10
44.91696686954256
 20
-51.49434114333033
 30
0.0
 11
51.07722384663148
 21
-47.93771551227366
 31
0.0
  0
LINE
  5
351
  8
0
  6
CONTINUOUS
 62
     3
 10
55.41294348772161
 20
-53.90504536943556
 30
0.0
 11
59.07721191227054
 21
-56.02061149700009
 31
0.0
  0
LINE
  5
352
  8
0
  6
CONTINUOUS
 62
     3
 10
57.31806960350249
 20
-52.97369134461601
 30
0.0
 11
59.07719456906588
 21
-56.0205847439303
 31
0.0
  0
LINE
  5
353
  8
0
  6
CONTINUOUS
 62
     3
 10
54.07720933033315
 20
-53.13382497918352
 30
0.0
 11
51.07721088005414
 21
-47.93767595336331
 31
0.0
  0
LINE
  5
354
  8
0
  6
CONTINUOUS
 62
     3
 10
62.00444752921987
 20
-47.86421264721224
 30
0.0
 11
59.60444762458735
 21
-43.70729144438127
 31
0.0
  0
LINE
  5
355
  8
0
  6
CONTINUOUS
 62
     3
 10
52.66067929556479
 20
-45.92652429788896
 30
0.0
 11
51.20034669361596
 21
-46.76964783437123
 31
0.0
  0
LINE
  5
356
  8
0
  6
CONTINUOUS
 62
     3
 10
56.61067099263673
 20
-52.76810966831786
 30
0.0
 11
55.15033673887555
 21
-53.61123415847456
 31
0.0
  0
LINE
  5
357
  8
0
  6
CONTINUOUS
 62
     3
 10
60.46259102652775
 20
-49.79363633528115
 30
0.0
 11
57.16259711812322
 21
-44.07788000521569
 31
0.0
  0
LINE
  5
358
  8
0
  6
CONTINUOUS
 62
     3
 10
56.87158221035051
 20
-51.97382063798628
 30
0.0
 11
53.47898270008622
 21
-46.09766672243396
 31
0.0
  0
LINE
  5
359
  8
0
  6
CONTINUOUS
 62
     3
 10
55.51370588270797
 20
-51.14978021671723
 30
0.0
 11
54.238797475013
 21
-51.8858490300494
 31
0.0
  0
LINE
  5
35A
  8
0
  6
CONTINUOUS
 62
     3
 10
53.51370920345059
 20
-47.68568101370423
 30
0.0
 11
52.23880244756796
 21
-48.42174887336196
 31
0.0
  0
LINE
  5
35B
  8
0
  6
CONTINUOUS
 62
     3
 10
57.1626017206759
 20
-44.07789691572789
 30
0.0
 11
59.60446141976647
 21
-43.70731926203945
 31
0.0
  0
LINE
  5
35C
  8
0
  6
CONTINUOUS
 62
     3
 10
62.00449360076541
 20
-47.86424393892898
 30
0.0
 11
60.46263620920095
 21
-49.79366551773748
 31
0.0
  0
LINE
  5
35D
  8
0
  6
CONTINUOUS
 62
     3
 10
59.25310716614783
 20
-49.69874513774724
 30
0.0
 11
56.60708977613305
 21
-45.11570920912871
 31
0.0
  0
LINE
  5
35E
  8
0
  6
CONTINUOUS
 62
     3
 10
62.26375429830057
 20
-47.53982372799527
 30
0.0
 11
69.83864533801659
 21
-60.65991807106201
 31
0.0
  0
ARC
  5
35F
  8
0
  6
CONTINUOUS
 62
     3
 10
55.17528866729245
 20
-49.03576278686521
 30
0.0
 40
3.0
 50
209.9999889956806
 51
251.8103021508074
  0
ARC
  5
360
  8
0
  6
CONTINUOUS
 62
     3
 10
52.57721280059323
 20
-50.53576278686521
 30
0.0
 40
3.0
 50
348.1896876796992
 51
431.8102730088179
  0
ARC
  5
361
  8
0
  6
CONTINUOUS
 62
     3
 10
55.17528866729245
 20
-49.03576278686521
 30
0.0
 40
3.0
 50
168.1896653678988
 51
209.9999716928365
  0
ARC
  5
362
  8
0
  6
CONTINUOUS
 62
     3
 10
58.81259488067136
 20
-46.93576431274411
 30
0.0
 40
3.299999952316284
 50
282.3602834779813
 51
299.9999710095912
  0
ARC
  5
363
  8
0
  6
CONTINUOUS
 62
     3
 10
58.81259488067136
 20
-46.93576431274411
 30
0.0
 40
3.299999952316284
 50
119.9999760185475
 51
137.6396772105358
  0
ARC
  5
364
  8
0
  6
CONTINUOUS
 62
     3
 10
59.62820004424557
 20
-53.15748214721677
 30
0.0
 40
3.0
 50
92.10684948604947
 51
156.7619665845238
  0
ARC
  5
365
  8
0
  6
CONTINUOUS
 62
     3
 10
53.83221768340573
 20
-43.11854171752927
 30
0.0
 40
3.0
 50
263.2379941039933
 51
327.8898190512877
  0
ARC
  5
366
  8
0
  6
CONTINUOUS
 62
     3
 10
55.86525296172604
 20
-52.10151290893552
 30
0.0
 40
1.0
 50
50.71543866290864
 51
119.9999760185475
  0
ARC
  5
367
  8
0
  6
CONTINUOUS
 62
     3
 10
55.86525296172604
 20
-52.10151290893552
 30
0.0
 40
1.0
 50
318.194864128264
 51
369.2845220256085
  0
ARC
  5
368
  8
0
  6
CONTINUOUS
 62
     3
 10
52.86525296172604
 20
-46.90536117553708
 30
0.0
 40
1.0
 50
299.9999710095912
 51
369.2845220256085
  0
ARC
  5
369
  8
0
  6
CONTINUOUS
 62
     3
 10
52.86525296172604
 20
-46.90536117553708
 30
0.0
 40
1.0
 50
50.71543866290864
 51
101.8050897300639
  0
ARC
  5
36A
  8
0
  6
CONTINUOUS
 62
     3
 10
54.94575451812253
 20
-52.63238906860349
 30
0.0
 40
1.0
 50
209.9999889956806
 51
281.8051257022426
  0
ARC
  5
36B
  8
0
  6
CONTINUOUS
 62
     3
 10
51.94575070342526
 20
-47.43623352050778
 30
0.0
 40
1.0
 50
209.9999889956806
 51
299.9999710095912
  0
ARC
  5
36C
  8
0
  6
CONTINUOUS
 62
     3
 10
54.94575451812253
 20
-52.63238906860349
 30
0.0
 40
1.0
 50
119.9999760185475
 51
209.9999716928365
  0
ARC
  5
36D
  8
0
  6
CONTINUOUS
 62
     3
 10
51.94575070342526
 20
-47.43623352050778
 30
0.0
 40
1.0
 50
138.1948349862745
 51
209.9999716928365
  0
ARC
  5
36E
  8
0
  6
CONTINUOUS
 62
     3
 10
60.39059399566159
 20
-46.02470397949216
 30
0.0
 40
1.200000047683716
 50
323.4679614128106
 51
456.5320061058957
  0
LINE
  5
36F
  8
0
  6
CONTINUOUS
 62
     3
 10
53.13939789443055
 20
-31.73597701774241
 30
0.0
 11
60.01507773018864
 21
-43.64500219643986
 31
0.0
  0
LINE
  5
370
  8
0
  6
CONTINUOUS
 62
     4
 10
185.9460985246516
 20
31.07863891578202
 30
0.0
 11
189.6464544955535
 21
37.48784258440449
 31
0.0
  0
LINE
  5
371
  8
0
  6
CONTINUOUS
 62
     4
 10
176.0713796350912
 20
13.97512643447865
 30
0.0
 11
179.7717394206908
 21
20.38433671035048
 31
0.0
  0
LINE
  5
372
  8
0
  6
CONTINUOUS
 62
     4
 10
187.2451327923151
 20
30.32863221912569
 30
0.0
 11
190.945488763217
 21
36.73783588774816
 31
0.0
  0
LINE
  5
373
  8
0
  6
CONTINUOUS
 62
     4
 10
188.5441812966234
 20
29.57863492227037
 30
0.0
 11
192.2445372675253
 21
35.98783859089284
 31
0.0
  0
LINE
  5
374
  8
0
  6
CONTINUOUS
 62
     4
 10
189.8431957425388
 20
28.8286396697072
 30
0.0
 11
193.5435517134407
 21
35.23784333832967
 31
0.0
  0
LINE
  5
375
  8
0
  6
CONTINUOUS
 62
     4
 10
191.1422442468471
 20
28.07864237285187
 30
0.0
 11
194.842600217749
 21
34.48784604147434
 31
0.0
  0
LINE
  5
376
  8
0
  6
CONTINUOUS
 62
     4
 10
177.3704215321501
 20
13.22513295232105
 30
0.0
 11
181.0707736883543
 21
19.63433001369415
 31
0.0
  0
LINE
  5
377
  8
0
  6
CONTINUOUS
 62
     4
 10
178.669462407063
 20
12.475122440967
 30
0.0
 11
182.3698221926626
 21
18.88433271683883
 31
0.0
  0
LINE
  5
378
  8
0
  6
CONTINUOUS
 62
     4
 10
179.9684844823738
 20
11.72514040290255
 30
0.0
 11
183.668836638578
 21
18.13433746427566
 31
0.0
  0
LINE
  5
379
  8
0
  6
CONTINUOUS
 62
     4
 10
181.2675291719844
 20
10.97513649879787
 30
0.0
 11
184.9678851428863
 21
17.38434016742033
 31
0.0
  0
LINE
  5
37A
  8
0
  6
CONTINUOUS
 62
     4
 10
212.0114436690321
 20
-6.774873246562464
 30
0.0
 11
215.711799639934
 21
-0.3656695779399968
 31
0.0
  0
LINE
  5
37B
  8
0
  6
CONTINUOUS
 62
     4
 10
213.3104817513933
 20
-7.524873335969431
 30
0.0
 11
217.0108339075975
 21
-1.115676274596325
 31
0.0
  0
LINE
  5
37C
  8
0
  6
CONTINUOUS
 62
     4
 10
214.6095264410039
 20
-8.274877240074119
 30
0.0
 11
218.3098862266035
 21
-1.865666964202291
 31
0.0
  0
LINE
  5
37D
  8
0
  6
CONTINUOUS
 62
     4
 10
221.886154929197
 20
10.32862602024218
 30
0.0
 11
225.5865109000989
 21
16.73782968886465
 31
0.0
  0
LINE
  5
37E
  8
0
  6
CONTINUOUS
 62
     4
 10
223.1851930115583
 20
9.578625930835216
 30
0.0
 11
226.8855489824602
 21
15.98782959945768
 31
0.0
  0
LINE
  5
37F
  8
0
  6
CONTINUOUS
 62
     4
 10
224.4842453305643
 20
8.82863524122925
 30
0.0
 11
228.1846013014662
 21
15.23783890985172
 31
0.0
  0
LINE
  5
380
  8
0
  6
CONTINUOUS
 62
     4
 10
225.783265361583
 20
8.07861914477192
 30
0.0
 11
229.4836213324849
 21
14.48782281339439
 31
0.0
  0
LINE
  5
381
  8
0
  6
CONTINUOUS
 62
     4
 10
227.0823138658913
 20
7.328621847916594
 30
0.0
 11
230.7826698367932
 21
13.73782551653906
 31
0.0
  0
LINE
  5
382
  8
0
  6
CONTINUOUS
 62
     4
 10
215.908554101418
 20
-9.024880122032727
 30
0.0
 11
219.6089062576222
 21
-2.61568306065962
 31
0.0
  0
LINE
  5
383
  8
0
  6
CONTINUOUS
 62
     4
 10
217.2075987910286
 20
-9.774884026137414
 30
0.0
 11
220.9079585766282
 21
-3.365673750265586
 31
0.0
  0
LINE
  5
384
  8
0
  6
CONTINUOUS
 62
     4
 10
160.0328900664592
 20
76.06523132324222
 30
0.0
 11
167.1328961699748
 21
76.06523132324222
 31
0.0
  0
LINE
  5
385
  8
0
  6
CONTINUOUS
 62
     4
 10
140.5328900664592
 20
76.06523132324222
 30
0.0
 11
147.6328961699748
 21
76.06523132324222
 31
0.0
  0
LINE
  5
386
  8
0
  6
CONTINUOUS
 62
     4
 10
140.5328900664592
 20
77.56523132324222
 30
0.0
 11
147.6328961699748
 21
77.56523132324222
 31
0.0
  0
LINE
  5
387
  8
0
  6
CONTINUOUS
 62
     4
 10
140.5328900664592
 20
79.06523132324222
 30
0.0
 11
147.6328961699748
 21
79.06523132324222
 31
0.0
  0
LINE
  5
388
  8
0
  6
CONTINUOUS
 62
     4
 10
140.5328900664592
 20
80.56523132324222
 30
0.0
 11
147.6328961699748
 21
80.56523132324222
 31
0.0
  0
LINE
  5
389
  8
0
  6
CONTINUOUS
 62
     4
 10
140.5328900664592
 20
82.06523132324222
 30
0.0
 11
147.6328961699748
 21
82.06523132324222
 31
0.0
  0
LINE
  5
38A
  8
0
  6
CONTINUOUS
 62
     4
 10
160.0328900664592
 20
77.56523132324222
 30
0.0
 11
167.1328961699748
 21
77.56523132324222
 31
0.0
  0
LINE
  5
38B
  8
0
  6
CONTINUOUS
 62
     4
 10
160.0328900664592
 20
79.06523132324222
 30
0.0
 11
167.1328961699748
 21
79.06523132324222
 31
0.0
  0
LINE
  5
38C
  8
0
  6
CONTINUOUS
 62
     4
 10
160.0328900664592
 20
80.56523132324222
 30
0.0
 11
167.1328961699748
 21
80.56523132324222
 31
0.0
  0
LINE
  5
38D
  8
0
  6
CONTINUOUS
 62
     4
 10
160.0328900664592
 20
82.06523132324222
 30
0.0
 11
167.1328961699748
 21
82.06523132324222
 31
0.0
  0
LINE
  5
38E
  8
0
  6
CONTINUOUS
 62
     4
 10
160.0328900664592
 20
123.5652313232422
 30
0.0
 11
167.1328961699748
 21
123.5652313232422
 31
0.0
  0
LINE
  5
38F
  8
0
  6
CONTINUOUS
 62
     4
 10
140.5328900664592
 20
123.5652313232422
 30
0.0
 11
147.6328961699748
 21
123.5652313232422
 31
0.0
  0
LINE
  5
390
  8
0
  6
CONTINUOUS
 62
     4
 10
140.5328900664592
 20
122.0652313232422
 30
0.0
 11
147.6328961699748
 21
122.0652313232422
 31
0.0
  0
LINE
  5
391
  8
0
  6
CONTINUOUS
 62
     4
 10
140.5328900664592
 20
120.5652313232422
 30
0.0
 11
147.6328961699748
 21
120.5652313232422
 31
0.0
  0
LINE
  5
392
  8
0
  6
CONTINUOUS
 62
     4
 10
140.5328900664592
 20
119.0652313232422
 30
0.0
 11
147.6328961699748
 21
119.0652313232422
 31
0.0
  0
LINE
  5
393
  8
0
  6
CONTINUOUS
 62
     4
 10
140.5328900664592
 20
117.5652313232422
 30
0.0
 11
147.6328961699748
 21
117.5652313232422
 31
0.0
  0
LINE
  5
394
  8
0
  6
CONTINUOUS
 62
     4
 10
160.0328900664592
 20
122.0652313232422
 30
0.0
 11
167.1328961699748
 21
122.0652313232422
 31
0.0
  0
LINE
  5
395
  8
0
  6
CONTINUOUS
 62
     4
 10
160.0328900664592
 20
120.5652313232422
 30
0.0
 11
167.1328961699748
 21
120.5652313232422
 31
0.0
  0
LINE
  5
396
  8
0
  6
CONTINUOUS
 62
     4
 10
160.0328900664592
 20
119.0652313232422
 30
0.0
 11
167.1328961699748
 21
119.0652313232422
 31
0.0
  0
LINE
  5
397
  8
0
  6
CONTINUOUS
 62
     4
 10
160.0328900664592
 20
117.5652313232422
 30
0.0
 11
167.1328961699748
 21
117.5652313232422
 31
0.0
  0
LINE
  5
398
  8
0
  6
CONTINUOUS
 62
     4
 10
-76.65905787511683
 20
125.0652313232422
 30
0.0
 11
-76.65905787511683
 21
119.0652313232422
 31
0.0
  0
LINE
  5
399
  8
0
  6
CONTINUOUS
 62
     4
 10
-75.65905787511683
 20
78.06522369384769
 30
0.0
 11
-75.65905787511683
 21
74.56522369384769
 31
0.0
  0
LINE
  5
39A
  8
0
  6
CONTINUOUS
 62
     4
 10
-88.65905787511683
 20
82.66522216796878
 30
0.0
 11
-68.65905787511683
 21
82.66522216796878
 31
0.0
  0
LINE
  5
39B
  8
0
  6
CONTINUOUS
 62
     4
 10
-88.65905787511683
 20
89.46522521972659
 30
0.0
 11
-68.65905787511683
 21
89.46522521972659
 31
0.0
  0
LINE
  5
39C
  8
0
  6
CONTINUOUS
 62
     4
 10
-88.65905787511683
 20
114.4652252197266
 30
0.0
 11
-68.65905787511683
 21
114.4652252197266
 31
0.0
  0
LINE
  5
39D
  8
0
  6
CONTINUOUS
 62
     4
 10
-88.65905787511683
 20
107.6652221679688
 30
0.0
 11
-68.65905787511683
 21
107.6652221679688
 31
0.0
  0
LINE
  5
39E
  8
0
  6
CONTINUOUS
 62
     4
 10
-87.65905787511683
 20
7.565223693847685
 30
0.0
 11
-74.65905787511683
 21
7.565223693847685
 31
0.0
  0
LINE
  5
39F
  8
0
  6
CONTINUOUS
 62
     4
 10
-87.65905787511683
 20
1.565223693847685
 30
0.0
 11
-74.65905787511683
 21
1.565223693847685
 31
0.0
  0
LINE
  5
3A0
  8
0
  6
CONTINUOUS
 62
     4
 10
-87.65905787511683
 20
7.565223693847685
 30
0.0
 11
-87.65905787511683
 21
1.565223693847685
 31
0.0
  0
LINE
  5
3A1
  8
0
  6
CONTINUOUS
 62
     4
 10
-67.65906027933743
 20
83.33320717612824
 30
0.0
 11
-64.65904510776163
 21
85.06526655164922
 31
0.0
  0
LINE
  5
3A2
  8
0
  6
CONTINUOUS
 62
     4
 10
-64.6590681152848
 20
110.0652618283853
 30
0.0
 11
-61.65908597995808
 21
108.3332215263495
 31
0.0
  0
LINE
  5
3A3
  8
0
  6
CONTINUOUS
 62
     4
 10
-67.65906426675592
 20
108.3332396236829
 30
0.0
 11
-64.65905900605485
 21
110.0652932771583
 31
0.0
  0
LINE
  5
3A4
  8
0
  6
CONTINUOUS
 62
     4
 10
-64.65906675478986
 20
85.06526153187545
 30
0.0
 11
-61.65905819046388
 21
83.33320597105151
 31
0.0
  0
LINE
  5
3A5
  8
0
  6
CONTINUOUS
 62
     4
 10
-62.65904179547549
 20
85.06523402964606
 30
0.0
 11
-61.65904775036658
 21
84.4878872623008
 31
0.0
  0
LINE
  5
3A6
  8
0
  6
CONTINUOUS
 62
     4
 10
-67.65905890121148
 20
84.48789088579818
 30
0.0
 11
-66.65904503435313
 21
85.06524909723456
 31
0.0
  0
LINE
  5
3A7
  8
0
  6
CONTINUOUS
 62
     4
 10
-67.65905958500507
 20
109.4879252407013
 30
0.0
 11
-66.65905893264635
 21
110.0652758227436
 31
0.0
  0
LINE
  5
3A8
  8
0
  6
CONTINUOUS
 62
     4
 10
-62.65905827781857
 20
110.0652386519251
 30
0.0
 11
-61.65906423270967
 21
109.4878918845798
 31
0.0
  0
LINE
  5
3A9
  8
0
  6
CONTINUOUS
 62
     4
 10
-66.6590459386462
 20
110.0652489021636
 30
0.0
 11
-61.65907571310167
 21
107.1785150654373
 31
0.0
  0
LINE
  5
3AA
  8
0
  6
CONTINUOUS
 62
     4
 10
-67.659059960595
 20
109.4878978601351
 30
0.0
 11
-61.6590692609423
 21
106.0238019972753
 31
0.0
  0
LINE
  5
3AB
  8
0
  6
CONTINUOUS
 62
     4
 10
-67.65907612273786
 20
108.3332066580111
 30
0.0
 11
-62.86485565645471
 21
105.5652624870559
 31
0.0
  0
LINE
  5
3AC
  8
0
  6
CONTINUOUS
 62
     4
 10
-67.65907907038108
 20
107.178507826493
 30
0.0
 11
-64.86482026531648
 21
105.5652419314402
 31
0.0
  0
LINE
  5
3AD
  8
0
  6
CONTINUOUS
 62
     4
 10
-67.65907261822171
 20
106.023794758331
 30
0.0
 11
-66.86482833237419
 21
105.5652376567569
 31
0.0
  0
LINE
  5
3AE
  8
0
  6
CONTINUOUS
 62
     4
 10
-67.65904873428126
 20
107.1785304386879
 30
0.0
 11
-62.65905042792501
 21
110.0652804878767
 31
0.0
  0
LINE
  5
3AF
  8
0
  6
CONTINUOUS
 62
     4
 10
-67.65906993415665
 20
106.0238352849269
 30
0.0
 11
-61.65906436819186
 21
109.487939730855
 31
0.0
  0
LINE
  5
3B0
  8
0
  6
CONTINUOUS
 62
     4
 10
-66.45329675314387
 20
105.5652881453134
 30
0.0
 11
-61.65906967961091
 21
108.3332361309656
 31
0.0
  0
LINE
  5
3B1
  8
0
  6
CONTINUOUS
 62
     4
 10
-64.45328754534584
 20
105.5652933389027
 30
0.0
 11
-61.65905847290541
 21
107.1785420678188
 31
0.0
  0
LINE
  5
3B2
  8
0
  6
CONTINUOUS
 62
     4
 10
-62.45329587781662
 20
105.565306024946
 30
0.0
 11
-61.65907141371854
 21
106.023851682429
 31
0.0
  0
LINE
  5
3B3
  8
0
  6
CONTINUOUS
 62
     4
 10
-66.65905969999942
 20
85.06525293142298
 30
0.0
 11
-61.65904983095599
 21
82.17849620651444
 31
0.0
  0
LINE
  5
3B4
  8
0
  6
CONTINUOUS
 62
     4
 10
-67.65906241479711
 20
84.48789095637542
 30
0.0
 11
-61.65904528614514
 21
81.02377983472755
 31
0.0
  0
LINE
  5
3B5
  8
0
  6
CONTINUOUS
 62
     4
 10
-67.65905405528922
 20
83.33318119183835
 30
0.0
 11
-62.86483358900607
 21
80.56523702088319
 31
0.0
  0
LINE
  5
3B6
  8
0
  6
CONTINUOUS
 62
     4
 10
-67.65904188108429
 20
82.17847803455109
 30
0.0
 11
-64.86483593401822
 21
80.56524265707461
 31
0.0
  0
LINE
  5
3B7
  8
0
  6
CONTINUOUS
 62
     4
 10
-67.65905804322715
 20
81.02378683242708
 30
0.0
 11
-66.86481375737962
 21
80.56522973085296
 31
0.0
  0
LINE
  5
3B8
  8
0
  6
CONTINUOUS
 62
     4
 10
-67.65905528740568
 20
82.17847428621681
 30
0.0
 11
-62.65903881111244
 21
85.06523482582239
 31
0.0
  0
LINE
  5
3B9
  8
0
  6
CONTINUOUS
 62
     4
 10
-67.65904903613755
 20
81.02377736204724
 30
0.0
 11
-61.65905172923503
 21
84.487877039604
 31
0.0
  0
LINE
  5
3BA
  8
0
  6
CONTINUOUS
 62
     4
 10
-66.45327027001922
 20
80.56525106632742
 30
0.0
 11
-61.65905310736098
 21
83.33319332993406
 31
0.0
  0
LINE
  5
3BB
  8
0
  6
CONTINUOUS
 62
     4
 10
-64.45328686155226
 20
80.56525898399949
 30
0.0
 11
-61.65907430723637
 21
82.17849817617301
 31
0.0
  0
LINE
  5
3BC
  8
0
  6
CONTINUOUS
 62
     4
 10
-62.45327497979751
 20
80.56524810206636
 30
0.0
 11
-61.65906373019907
 21
81.02378613015529
 31
0.0
  0
LINE
  5
3BD
  8
0
  6
CONTINUOUS
 62
     4
 10
-135.6590578751168
 20
-18.10977935791013
 30
0.0
 11
-135.6590578751168
 21
-30.10977935791013
 31
0.0
  0
LINE
  5
3BE
  8
0
  6
CONTINUOUS
 62
     4
 10
-167.6590578751168
 20
-19.10977935791013
 30
0.0
 11
-135.6590578751168
 21
-19.10977935791013
 31
0.0
  0
LINE
  5
3BF
  8
0
  6
CONTINUOUS
 62
     4
 10
-167.6590578751168
 20
-29.10977935791013
 30
0.0
 11
-135.6590578751168
 21
-29.10977935791013
 31
0.0
  0
LINE
  5
3C0
  8
0
  6
CONTINUOUS
 62
     4
 10
-81.65906532277658
 20
-25.10980562834536
 30
0.0
 11
-76.65906866823279
 21
-27.99655472385982
 31
0.0
  0
LINE
  5
3C1
  8
0
  6
CONTINUOUS
 62
     4
 10
-86.659071789062
 20
-27.99652008184577
 30
0.0
 11
-81.65906852726839
 21
-25.10976717163428
 31
0.0
  0
LINE
  5
3C2
  8
0
  6
CONTINUOUS
 62
     4
 10
-78.65906834403818
 20
-25.10979489055123
 30
0.0
 11
-76.65906703932073
 21
-26.26449605463583
 31
0.0
  0
LINE
  5
3C3
  8
0
  6
CONTINUOUS
 62
     4
 10
-86.65905727398165
 20
-26.26447411604929
 30
0.0
 11
-84.6590559692642
 21
-25.10977295196469
 31
0.0
  0
LINE
  5
3C4
  8
0
  6
CONTINUOUS
 62
     4
 10
-86.65907397484698
 20
-29.72857214381995
 30
0.0
 11
-78.6590687559772
 21
-25.10976748748155
 31
0.0
  0
LINE
  5
3C5
  8
0
  6
CONTINUOUS
 62
     4
 10
-86.65907234593492
 20
-31.46063081304393
 30
0.0
 11
-76.6590658223477
 21
-25.68712499262094
 31
0.0
  0
LINE
  5
3C6
  8
0
  6
CONTINUOUS
 62
     4
 10
-84.78342827578403
 20
-32.10977812389044
 30
0.0
 11
-76.65906800813268
 21
-27.41917705459511
 31
0.0
  0
LINE
  5
3C7
  8
0
  6
CONTINUOUS
 62
     4
 10
-81.78342850449285
 20
-32.10977843973771
 30
0.0
 11
-76.65907019391766
 21
-29.15122911656928
 31
0.0
  0
LINE
  5
3C8
  8
0
  6
CONTINUOUS
 62
     4
 10
-78.78342873320166
 20
-32.10977875558498
 30
0.0
 11
-76.65906577245282
 21
-30.88327736384642
 31
0.0
  0
LINE
  5
3C9
  8
0
  6
CONTINUOUS
 62
     4
 10
-84.65907449387036
 20
-25.10979170754874
 30
0.0
 11
-76.65906927500059
 21
-29.72859636388714
 31
0.0
  0
LINE
  5
3CA
  8
0
  6
CONTINUOUS
 62
     4
 10
-86.65907361280283
 20
-25.68714260543831
 30
0.0
 11
-76.65907369646543
 21
-31.46064461116427
 31
0.0
  0
LINE
  5
3CB
  8
0
  6
CONTINUOUS
 62
     4
 10
-86.65907142701785
 20
-27.41919466741248
 30
0.0
 11
-78.5347111593665
 21
-32.10979573670781
 31
0.0
  0
LINE
  5
3CC
  8
0
  6
CONTINUOUS
 62
     4
 10
-86.65906924123287
 20
-29.15124672938666
 30
0.0
 11
-81.53471093065768
 21
-32.10979605255508
 31
0.0
  0
LINE
  5
3CD
  8
0
  6
CONTINUOUS
 62
     4
 10
-86.65907087014493
 20
-30.88330539861065
 30
0.0
 11
-84.53470790939609
 21
-32.10980679034921
 31
0.0
  0
LINE
  5
3CE
  8
0
  6
CONTINUOUS
 62
     4
 10
-94.90905787511683
 20
69.06523132324222
 30
0.0
 11
-85.90905787511683
 21
69.06523132324222
 31
0.0
  0
LINE
  5
3CF
  8
0
  6
CONTINUOUS
 62
     4
 10
-94.90905787511683
 20
16.06521606445315
 30
0.0
 11
-85.90905787511683
 21
16.06521606445315
 31
0.0
  0
LINE
  5
3D0
  8
0
  6
CONTINUOUS
 62
     4
 10
-94.90905787511683
 20
67.86523437500003
 30
0.0
 11
-85.90905787511683
 21
67.86523437500003
 31
0.0
  0
LINE
  5
3D1
  8
0
  6
CONTINUOUS
 62
     4
 10
-94.90905787511683
 20
65.2652282714844
 30
0.0
 11
-85.90905787511683
 21
65.2652282714844
 31
0.0
  0
CIRCLE
  5
3D2
  8
0
  6
CONTINUOUS
 62
     4
 10
153.9204022734904
 20
4.437393188476591
 30
0.0
 40
2.549999952316284
  0
CIRCLE
  5
3D3
  8
0
  6
CONTINUOUS
 62
     4
 10
153.9204022734904
 20
4.437393188476591
 30
0.0
 40
3.0
  0
CIRCLE
  5
3D4
  8
0
  6
CONTINUOUS
 62
     4
 10
186.7418515532756
 20
61.56523895263675
 30
0.0
 40
2.5
  0
CIRCLE
  5
3D5
  8
0
  6
CONTINUOUS
 62
     4
 10
120.9239613860392
 20
61.56528472900394
 30
0.0
 40
2.5
  0
CIRCLE
  5
3D6
  8
0
  6
CONTINUOUS
 62
     4
 10
120.9239613860392
 20
61.56528472900394
 30
0.0
 40
3.0
  0
CIRCLE
  5
3D7
  8
0
  6
CONTINUOUS
 62
     4
 10
186.7418515532756
 20
61.56523895263675
 30
0.0
 40
3.0
  0
ARC
  5
3D8
  8
0
  6
CONTINUOUS
 62
     4
 10
153.832893118217
 20
42.56522369384769
 30
0.0
 40
69.0
 50
278.2228417467327
 51
318.0813941955826
  0
ARC
  5
3D9
  8
0
  6
CONTINUOUS
 62
     4
 10
153.832893118217
 20
42.56522369384769
 30
0.0
 40
69.0
 50
158.2227937838278
 51
198.0813735534343
  0
ARC
  5
3DA
  8
0
  6
CONTINUOUS
 62
     4
 10
153.832893118217
 20
42.56522369384769
 30
0.0
 40
69.0
 50
38.2228450860369
 51
78.29348856899402
  0
CIRCLE
  5
3DB
  8
0
  6
CONTINUOUS
 62
     4
 10
153.832893118217
 20
42.56522369384769
 30
0.0
 40
26.5
  0
CIRCLE
  5
3DC
  8
0
  6
CONTINUOUS
 62
     4
 10
153.832893118217
 20
66.56522369384769
 30
0.0
 40
1.799999952316284
  0
CIRCLE
  5
3DD
  8
0
  6
CONTINUOUS
 62
     4
 10
153.832893118217
 20
66.56522369384769
 30
0.0
 40
1.299999952316284
  0
CIRCLE
  5
3DE
  8
0
  6
CONTINUOUS
 62
     4
 10
133.0482823699259
 20
30.56522369384769
 30
0.0
 40
1.299999952316284
  0
CIRCLE
  5
3DF
  8
0
  6
CONTINUOUS
 62
     4
 10
133.0482823699259
 20
30.56522369384769
 30
0.0
 40
1.799999952316284
  0
CIRCLE
  5
3E0
  8
0
  6
CONTINUOUS
 62
     4
 10
174.6175000518107
 20
30.56522369384769
 30
0.0
 40
1.799999952316284
  0
CIRCLE
  5
3E1
  8
0
  6
CONTINUOUS
 62
     4
 10
174.6175000518107
 20
30.56522369384769
 30
0.0
 40
1.299999952316284
  0
LINE
  5
3E2
  8
0
  6
CONTINUOUS
 62
     4
 10
-75.65905787511683
 20
125.0652313232422
 30
0.0
 11
-75.65905787511683
 21
119.0652313232422
 31
0.0
  0
LINE
  5
3E3
  8
0
  6
CONTINUOUS
 62
     4
 10
-76.65905787511683
 20
78.06523132324222
 30
0.0
 11
-76.65905787511683
 21
74.56522369384769
 31
0.0
  0
ARC
  5
3E4
  8
0
  6
CONTINUOUS
 62
     4
 10
153.832893118217
 20
42.56522369384769
 30
0.0
 40
69.0
 50
221.9185734747044
 51
231.2929816075685
  0
ARC
  5
3E5
  8
0
  6
CONTINUOUS
 62
     4
 10
153.832893118217
 20
42.56522369384769
 30
0.0
 40
69.0
 50
243.4067415004207
 51
261.7771395839326
  0
ARC
  5
3E6
  8
0
  6
CONTINUOUS
 62
     4
 10
153.832893118217
 20
42.56522369384769
 30
0.0
 40
69.0
 50
341.9185853517451
 51
351.2930163392833
  0
ARC
  5
3E7
  8
0
  6
CONTINUOUS
 62
     4
 10
153.832893118217
 20
42.56522369384769
 30
0.0
 40
69.0
 50
3.406869096994986
 51
21.7771599987098
  0
ARC
  5
3E8
  8
0
  6
CONTINUOUS
 62
     4
 10
153.832893118217
 20
42.56522369384769
 30
0.0
 40
69.0
 50
101.7065301003407
 51
111.2928726137016
  0
ARC
  5
3E9
  8
0
  6
CONTINUOUS
 62
     4
 10
153.832893118217
 20
42.56522369384769
 30
0.0
 40
69.0
 50
123.4067445033486
 51
141.7771052814061
  0
LINE
  5
3EA
  8
0
  6
CONTINUOUS
 62
     4
 10
47.74853403643115
 20
-56.26811793215549
 30
0.0
 11
53.85222304422283
 21
-52.7441518297918
 31
0.0
  0
LINE
  5
3EB
  8
0
  6
CONTINUOUS
 62
     4
 10
45.14195439723372
 20
-51.88403864480975
 30
0.0
 11
51.30220972251019
 21
-48.32741396742733
 31
0.0
  0
LINE
  5
3EC
  8
0
  6
CONTINUOUS
 62
     2
 10
153.8328953905695
 20
89.56522661228954
 30
0.0
 11
150.8018056972616
 21
87.8152279682952
 31
0.0
  0
LINE
  5
3ED
  8
0
  6
CONTINUOUS
 62
     2
 10
156.8639783582615
 20
87.81522747198542
 30
0.0
 11
153.8328903338836
 21
89.56522893229922
 31
0.0
  0
LINE
  5
3EE
  8
0
  6
CONTINUOUS
 62
     2
 10
150.8018033355021
 20
87.81523132324222
 30
0.0
 11
150.8018033355021
 21
84.31523132324222
 31
0.0
  0
LINE
  5
3EF
  8
0
  6
CONTINUOUS
 62
     2
 10
150.8018093995403
 20
84.31523985638208
 30
0.0
 11
153.8328980497669
 21
82.56523943914957
 31
0.0
  0
LINE
  5
3F0
  8
0
  6
CONTINUOUS
 62
     2
 10
153.8328842944649
 20
82.56522873990755
 30
0.0
 11
156.863973361924
 21
84.31522842698317
 31
0.0
  0
LINE
  5
3F1
  8
0
  6
CONTINUOUS
 62
     2
 10
156.8639829009318
 20
84.31523132324222
 30
0.0
 11
156.8639829009318
 21
87.81523132324222
 31
0.0
  0
LINE
  5
3F2
  8
0
  6
CONTINUOUS
 62
     2
 10
153.8328896999123
 20
114.5652252877488
 30
0.0
 11
150.8018000066044
 21
112.8152266437544
 31
0.0
  0
LINE
  5
3F3
  8
0
  6
CONTINUOUS
 62
     2
 10
156.8639698725781
 20
112.8152123275092
 30
0.0
 11
153.8328822611532
 21
114.5652135494042
 31
0.0
  0
LINE
  5
3F4
  8
0
  6
CONTINUOUS
 62
     2
 10
150.8018033355021
 20
112.8152313232422
 30
0.0
 11
150.8018033355021
 21
109.3152313232422
 31
0.0
  0
LINE
  5
3F5
  8
0
  6
CONTINUOUS
 62
     2
 10
150.8018026482428
 20
109.3152276505943
 30
0.0
 11
153.8328921243755
 21
107.5652267565245
 31
0.0
  0
LINE
  5
3F6
  8
0
  6
CONTINUOUS
 62
     2
 10
153.8328869454382
 20
107.5652282913593
 30
0.0
 11
156.8639760128973
 21
109.3152279784349
 31
0.0
  0
LINE
  5
3F7
  8
0
  6
CONTINUOUS
 62
     2
 10
156.8639829009318
 20
109.3152313232422
 30
0.0
 11
156.8639829009318
 21
112.8152313232422
 31
0.0
  0
LINE
  5
3F8
  8
0
  6
CONTINUOUS
 62
     2
 10
148.7666477013367
 20
-21.18477369314493
 30
0.0
 11
153.8329046465327
 21
-18.25977587170016
 31
0.0
  0
LINE
  5
3F9
  8
0
  6
CONTINUOUS
 62
     2
 10
153.8329070962045
 20
-18.25977837375453
 30
0.0
 11
158.8991501117185
 21
-21.18478493324378
 31
0.0
  0
LINE
  5
3FA
  8
0
  6
CONTINUOUS
 62
     2
 10
158.8991391509318
 20
-21.18478584289548
 30
0.0
 11
158.8991391509318
 21
-27.03478431701657
 31
0.0
  0
LINE
  5
3FB
  8
0
  6
CONTINUOUS
 62
     2
 10
158.899143527439
 20
-27.03477998562991
 30
0.0
 11
153.8328865822429
 21
-29.95977780707469
 31
0.0
  0
LINE
  5
3FC
  8
0
  6
CONTINUOUS
 62
     2
 10
153.8328842398493
 20
-29.9597789361487
 30
0.0
 11
148.7666394809
 21
-27.03477551484318
 31
0.0
  0
LINE
  5
3FD
  8
0
  6
CONTINUOUS
 62
     2
 10
148.7666470855021
 20
-27.03477478027341
 30
0.0
 11
148.7666470855021
 21
-21.18477630615232
 31
0.0
  0
CIRCLE
  5
3FE
  8
0
  6
CONTINUOUS
 62
     2
 10
153.832893118217
 20
86.06523132324222
 30
0.0
 40
6.5
  0
CIRCLE
  5
3FF
  8
0
  6
CONTINUOUS
 62
     2
 10
153.832893118217
 20
111.0652313232422
 30
0.0
 40
6.5
  0
CIRCLE
  5
400
  8
0
  6
CONTINUOUS
 62
     2
 10
153.832893118217
 20
-24.10977935791013
 30
0.0
 40
9.0
  0
LINE
  5
401
  8
0
  6
DIVIDE
 62
     9
 10
-77.15905787511683
 20
72.06522369384769
 30
0.0
 11
-77.15905787511683
 21
66.88918304443362
 31
0.0
  0
LINE
  5
402
  8
0
  6
DIVIDE
 62
     9
 10
-77.15904440848219
 20
72.0652200365179
 30
0.0
 11
-78.15902389088562
 21
73.06519951892133
 31
0.0
  0
LINE
  5
403
  8
0
  6
DIVIDE
 62
     9
 10
-80.92919947667933
 20
73.06523132324222
 30
0.0
 11
-78.15905787511683
 21
73.06523132324222
 31
0.0
  0
LINE
  5
404
  8
0
  6
CONTINUOUS
 62
     5
 10
188.6532518496871
 20
79.21459507926161
 30
0.0
 11
184.9032518496871
 21
85.70978549106772
 31
0.0
  0
LINE
  5
405
  8
0
  6
CONTINUOUS
 62
     5
 10
182.533061437881
 20
74.815076038081
 30
0.0
 11
184.783061437881
 21
70.91796179099734
 31
0.0
  0
LINE
  5
406
  8
0
  6
CONTINUOUS
 62
     5
 10
184.7830372442064
 20
70.91797242613851
 30
0.0
 11
183.7585171006064
 21
71.19249177354644
 31
0.0
  0
LINE
  5
407
  8
0
  6
CONTINUOUS
 62
     5
 10
184.7831084247152
 20
70.91794217980785
 30
0.0
 11
185.0576296519245
 21
71.94246975605782
 31
0.0
  0
LINE
  5
408
  8
0
  6
CONTINUOUS
 62
     5
 10
182.2585789399792
 20
73.79054232581282
 30
0.0
 11
182.5331001671886
 21
74.81506990206279
 31
0.0
  0
LINE
  5
409
  8
0
  6
CONTINUOUS
 62
     5
 10
183.5575549992301
 20
74.54057155175454
 30
0.0
 11
182.5330422250592
 21
74.81508892452987
 31
0.0
  0
LINE
  5
40A
  8
0
  6
CONTINUOUS
 62
     5
 10
175.6628492969782
 20
71.7145869387945
 30
0.0
 11
188.653223513341
 21
79.21458312409723
 31
0.0
  0
LINE
  5
40B
  8
0
  6
CONTINUOUS
 62
     5
 10
175.6628578115762
 20
71.71458744986708
 30
0.0
 11
170.0378559042275
 21
81.45737637120092
 31
0.0
  0
LINE
  5
40C
  8
0
  6
CONTINUOUS
 62
     5
 10
170.0378559042275
 20
81.45737637120092
 30
0.0
 11
171.9864130277694
 21
82.58237637120092
 31
0.0
  0
LINE
  5
40D
  8
0
  6
CONTINUOUS
 62
     5
 10
176.5834165430371
 20
83.62016651708316
 30
0.0
 11
176.8579377702464
 21
84.64469409333313
 31
0.0
  0
LINE
  5
40E
  8
0
  6
CONTINUOUS
 62
     5
 10
176.8579016868195
 20
84.64473151401401
 30
0.0
 11
175.8333815432194
 21
84.91925086142194
 31
0.0
  0
LINE
  5
40F
  8
0
  6
CONTINUOUS
 62
     5
 10
174.2947935636632
 20
83.16486294240795
 30
0.0
 11
176.8579041647674
 21
84.64467556447826
 31
0.0
  0
LINE
  5
410
  8
0
  6
CONTINUOUS
 62
     5
 10
172.548914935118
 20
81.60809450580533
 30
0.0
 11
171.9864168424666
 21
82.58236976395156
 31
0.0
  0
LINE
  5
411
  8
0
  6
CONTINUOUS
 62
     5
 10
172.5489083278687
 20
81.60809069110806
 30
0.0
 11
173.8479464102299
 21
82.35809069110806
 31
0.0
  0
LINE
  5
412
  8
0
  6
CONTINUOUS
 62
     5
 10
174.4104530174792
 20
81.38381594403441
 30
0.0
 11
173.8479530174792
 21
82.35809450580533
 31
0.0
  0
LINE
  5
413
  8
0
  6
CONTINUOUS
 62
     5
 10
176.4594910998405
 20
80.83477786167319
 30
0.0
 11
175.7094910998405
 21
82.13381594403441
 31
0.0
  0
LINE
  5
414
  8
0
  6
CONTINUOUS
 62
     5
 10
174.4104378956319
 20
81.38381161826456
 30
0.0
 11
175.7094891924918
 21
82.13381924765909
 31
0.0
  0
LINE
  5
415
  8
0
  6
CONTINUOUS
 62
     5
 10
171.9128578115762
 20
78.20977786167319
 30
0.0
 11
184.9032254206897
 21
85.70977023227866
 31
0.0
  0
LINE
  5
416
  8
0
  6
CONTINUOUS
 62
     5
 10
181.0189916082526
 20
81.18906294396751
 30
0.0
 11
180.2522808774737
 21
80.56819296664057
 31
0.0
  0
LINE
  5
417
  8
0
  6
CONTINUOUS
 62
     5
 10
181.0190074457475
 20
81.18906358121882
 30
0.0
 11
180.3981470285007
 21
81.95576224344039
 31
0.0
  0
ARC
  5
418
  8
0
  6
CONTINUOUS
 62
     5
 10
180.3395993560099
 20
78.65348815917972
 30
0.0
 40
2.625001907348633
 50
75.00010795499728
 51
369.999953377945
  0
LINE
  5
419
  8
0
  6
CENTER
 62
     7
 10
134.5506031221181
 20
27.96312700635666
 30
0.0
 11
131.6173170214921
 21
33.04372747458868
 31
0.0
  0
TEXT
  5
41A
  8
0
 62
     7
 10
-138.9121622301927
 20
-82.10480731293093
 30
0.0
 40
4.0
  1
MIN40
 41
0.8
  7
FDASTYLE1
 72
     5
 11
-122.9121622301927
 21
-82.10480731293093
 31
0.0
  0
TEXT
  5
41B
  8
0
 62
     7
 10
-178.4505515280335
 20
142.9061187630063
 30
0.0
 40
4.0
  1
MIN 17
 41
0.7999999999999995
  7
FDASTYLE1
 72
     5
 11
-159.2505515280335
 21
142.9061187630063
 31
0.0
  0
TEXT
  5
41C
  8
0
 62
     7
 10
-195.1189120010934
 20
-33.09900054931637
 30
0.0
 40
4.0
  1
7ﾟ7′30″
 50
90.0
 41
0.7567567567567569
  7
FDASTYLE1
 72
     5
 11
-195.1189120010934
 21
-10.69900054931637
 31
0.0
  0
TEXT
  5
41D
  8
0
 62
     5
 10
214.2863176658877
 20
46.45682460213162
 30
0.0
 40
2.5
  1
N MAX 6500 AT ΣS MAX
 50
120.0
 41
0.787340294363457
  7
FDASTYLE1
 72
     5
 11
189.2672331527003
 21
89.79115013783184
 31
0.0
  0
TEXT
  5
41E
  8
0
 62
     5
 10
182.5070280924566
 20
71.10037863152472
 30
0.0
 40
2.5
  1
F
 50
120.0
 41
0.8791213035583498
  7
FDASTYLE1
 72
     5
 11
181.4081264630087
 21
73.00373208624878
 31
0.0
  0
TEXT
  5
41F
  8
0
 62
     5
 10
175.8522429362066
 20
86.03167593377081
 30
0.0
 40
2.5
  1
ΣS
 50
120.0
 41
0.9590411728078666
  7
FDASTYLE1
 72
     5
 11
173.214879710985
 21
90.5997230378684
 31
0.0
  0
TEXT
  5
420
  8
0
 62
     5
 10
185.1217620268591
 20
81.60971647482324
 30
0.0
 40
2.5
  1
N min
 50
120.0
 41
0.7983872809842201
  7
FDASTYLE1
 72
     5
 11
178.9342620268591
 21
92.32678084665567
 31
0.0
  0
TEXT
  5
421
  8
0
 62
     5
 10
177.1124863081834
 20
91.92449642362638
 30
0.0
 40
1.25
  1
-1
 50
120.0
 41
0.782608910634555
  7
FDASTYLE1
 72
     5
 11
175.9874861740729
 21
93.87305381442748
 31
0.0
  0
TEXT
  5
422
  8
0
 62
     5
 10
210.8222215965517
 20
44.45682460213161
 30
0.0
 40
2.5
  1
ΣS MAX 58KN
 50
120.0
 41
0.7876411374541938
  7
FDASTYLE1
 72
     5
 11
197.2248928740748
 21
68.00808879667731
 31
0.0
  0
TEXT
  5
423
  8
0
 62
     5
 10
207.3581102684267
 20
42.45682460213161
 30
0.0
 40
2.5
  1
F MAX  17KN
 50
120.0
 41
0.7825372743633053
  7
FDASTYLE1
 72
     5
 11
193.7607815459498
 21
66.00808879667731
 31
0.0
  0
TEXT
  5
424
  8
0
 62
     5
 10
125.3471771329188
 20
-6.2347762584686
 30
0.0
 40
5.0
  1
NIKKO
 41
0.7674421159044379
  7
FDASTYLE1
 72
     5
 11
148.9186085313105
 21
-6.2347762584686
 31
0.0
  0
TEXT
  5
425
  8
0
 62
     5
 10
156.7043163626933
 20
-5.7347762584686
 30
0.0
 40
4.0
  1
HDM3-165A6
 41
0.7727275194893263
  7
FDASTYLE1
 72
     5
 11
195.5614628642344
 21
-5.7347762584686
 31
0.0
  0
TEXT
  5
426
  8
0
 62
     5
 10
157.0614595263743
 20
-12.23477649688718
 30
0.0
 40
3.0
  1
0001
 41
0.7647060767727455
  7
FDASTYLE1
 72
     5
 11
168.2043171971583
 21
-12.23477649688718
 31
0.0
  0
LINE
  5
427
  8
LAYER0014
  6
CONTINUOUS
 62
     7
 10
-75.65905787511683
 20
147.1230773925782
 30
0.0
 11
-82.19549586339808
 21
147.1230773925782
 31
0.0
  0
LINE
  5
428
  8
LAYER0014
  6
CONTINUOUS
 62
     7
 10
-151.6590578751168
 20
147.4782104492188
 30
0.0
 11
-180.2695685113582
 21
147.4782104492188
 31
0.0
  0
LINE
  5
429
  8
LAYER0014
  6
CONTINUOUS
 62
     7
 10
-125.9090578751168
 20
74.60522369384769
 30
0.0
 11
-125.9090578751168
 21
149.7642059326172
 31
0.0
  0
LINE
  5
42A
  8
LAYER0014
  6
CONTINUOUS
 62
     7
 10
-151.6590578751168
 20
126.3015527869337
 30
0.0
 11
-151.6590578751168
 21
149.7642059326172
 31
0.0
  0
LINE
  5
42B
  8
LAYER0014
  6
CONTINUOUS
 62
     7
 10
-74.65905787511683
 20
20.89420318603519
 30
0.0
 11
-63.19096781774378
 21
20.89420318603519
 31
0.0
  0
LINE
  5
42C
  8
LAYER0014
  6
CONTINUOUS
 62
     7
 10
-125.9090578751168
 20
147.4782104492188
 30
0.0
 11
-151.6590578751168
 21
147.4782104492188
 31
0.0
  0
INSERT
  5
42D
  8
LAYER0014
 62
     7
  2
_OPEN30
 10
-125.9090578751168
 20
147.4782104492188
 30
0.0
 41
1.999998407630662
 42
2.000005728319971
 50
360.0
  0
INSERT
  5
42E
  8
LAYER0014
 62
     7
  2
_OPEN30
 10
-151.6590578751168
 20
147.4782104492188
 30
0.0
 41
1.999998407630662
 42
2.000005728319971
 50
180.0
  0
TEXT
  5
42F
  8
LAYER0014
 62
     7
 10
-178.6242438238421
 20
148.3173653056536
 30
0.0
 40
4.0
  1
MAX 34.5
 41
0.8000000000000007
  7
FDASTYLE1
 72
     5
 11
-153.0242438238421
 21
148.3173653056536
 31
0.0
  0
INSERT
  5
430
  8
LAYER0014
  6
CONTINUOUS
  2
DA_IMAGEDIMGROUP_1
 10
0.0
 20
0.0
 30
0.0
  0
INSERT
  5
431
  8
LAYER0014
  6
CONTINUOUS
  2
DA_IMAGEDIMGROUP_2
 10
0.0
 20
0.0
 30
0.0
  0
INSERT
  5
432
  8
LAYER0014
  6
CONTINUOUS
  2
DC_GROUP_1
 10
0.0
 20
0.0
 30
0.0
  0
INSERT
  5
433
  8
LAYER0014
  6
CONTINUOUS
  2
DA_IMAGEDIMGROUP_3
 10
0.0
 20
0.0
 30
0.0
  0
INSERT
  5
434
  8
LAYER0014
  6
CONTINUOUS
  2
DA_IMAGEDIMGROUP_4
 10
0.0
 20
0.0
 30
0.0
  0
INSERT
  5
435
  8
LAYER0014
  6
CONTINUOUS
  2
DA_IMAGEDIMGROUP_5
 10
0.0
 20
0.0
 30
0.0
  0
INSERT
  5
436
  8
LAYER0014
  6
CONTINUOUS
  2
DC_GROUP_2
 10
0.0
 20
0.0
 30
0.0
  0
INSERT
  5
437
  8
LAYER0014
  6
CONTINUOUS
  2
DA_IMAGEDIMGROUP_6
 10
0.0
 20
0.0
 30
0.0
  0
INSERT
  5
438
  8
LAYER0014
  6
CONTINUOUS
  2
DC_GROUP_3
 10
0.0
 20
0.0
 30
0.0
  0
INSERT
  5
439
  8
LAYER0014
  6
CONTINUOUS
  2
DA_IMAGEDIMGROUP_7
 10
0.0
 20
0.0
 30
0.0
  0
INSERT
  5
43A
  8
LAYER0014
  6
CONTINUOUS
  2
DA_IMAGEDIMGROUP_8
 10
0.0
 20
0.0
 30
0.0
  0
INSERT
  5
43B
  8
LAYER0014
  6
CONTINUOUS
  2
DA_IMAGEDIMGROUP_9
 10
0.0
 20
0.0
 30
0.0
  0
INSERT
  5
43C
  8
LAYER0014
  6
CONTINUOUS
  2
DA_IMAGEDIMGROUP_10
 10
0.0
 20
0.0
 30
0.0
  0
INSERT
  5
43D
  8
LAYER0014
  6
CONTINUOUS
  2
DA_IMAGEDIMGROUP_11
 10
0.0
 20
0.0
 30
0.0
  0
INSERT
  5
43E
  8
LAYER0014
  6
CONTINUOUS
  2
DA_IMAGEDIMGROUP_12
 10
0.0
 20
0.0
 30
0.0
  0
INSERT
  5
43F
  8
LAYER0014
  6
CONTINUOUS
  2
DA_IMAGEDIMGROUP_13
 10
0.0
 20
0.0
 30
0.0
  0
INSERT
  5
440
  8
LAYER0014
  6
CONTINUOUS
  2
DA_IMAGEDIMGROUP_14
 10
0.0
 20
0.0
 30
0.0
  0
INSERT
  5
441
  8
LAYER0014
  6
CONTINUOUS
  2
DA_IMAGEDIMGROUP_15
 10
0.0
 20
0.0
 30
0.0
  0
INSERT
  5
442
  8
LAYER0014
  6
CONTINUOUS
  2
DA_IMAGEDIMGROUP_16
 10
0.0
 20
0.0
 30
0.0
  0
INSERT
  5
443
  8
LAYER0014
  6
CONTINUOUS
  2
DA_IMAGEDIMGROUP_17
 10
0.0
 20
0.0
 30
0.0
  0
INSERT
  5
444
  8
LAYER0014
  6
CONTINUOUS
  2
DA_IMAGEDIMGROUP_18
 10
0.0
 20
0.0
 30
0.0
  0
INSERT
  5
445
  8
LAYER0014
  6
CONTINUOUS
  2
DA_IMAGEDIMGROUP_19
 10
0.0
 20
0.0
 30
0.0
  0
INSERT
  5
446
  8
LAYER0014
  6
CONTINUOUS
  2
DA_IMAGEDIMGROUP_20
 10
0.0
 20
0.0
 30
0.0
  0
INSERT
  5
447
  8
LAYER0014
  6
CONTINUOUS
  2
DC_GROUP_4
 10
0.0
 20
0.0
 30
0.0
  0
INSERT
  5
448
  8
LAYER0014
  6
CONTINUOUS
  2
DC_GROUP_5
 10
0.0
 20
0.0
 30
0.0
  0
INSERT
  5
449
  8
LAYER0014
  6
CONTINUOUS
  2
DC_GROUP_6
 10
0.0
 20
0.0
 30
0.0
  0
INSERT
  5
44A
  8
LAYER0014
  6
CONTINUOUS
  2
DA_IMAGEDIMGROUP_22
 10
0.0
 20
0.0
 30
0.0
  0
INSERT
  5
44B
  8
LAYER0014
  6
CONTINUOUS
  2
DA_IMAGEDIMGROUP_23
 10
0.0
 20
0.0
 30
0.0
  0
INSERT
  5
44C
  8
LAYER0014
  6
CONTINUOUS
  2
DA_IMAGEDIMGROUP_24
 10
0.0
 20
0.0
 30
0.0
  0
INSERT
  5
44D
  8
LAYER0014
  6
CONTINUOUS
  2
DA_IMAGEDIMGROUP_25
 10
0.0
 20
0.0
 30
0.0
  0
INSERT
  5
44E
  8
LAYER0014
  6
CONTINUOUS
  2
DA_IMAGEDIMGROUP_26
 10
0.0
 20
0.0
 30
0.0
  0
INSERT
  5
44F
  8
LAYER0014
  6
CONTINUOUS
  2
DC_GROUP_7
 10
0.0
 20
0.0
 30
0.0
  0
INSERT
  5
450
  8
LAYER0014
  6
CONTINUOUS
  2
DA_IMAGEDIMGROUP_27
 10
0.0
 20
0.0
 30
0.0
  0
INSERT
  5
451
  8
LAYER0014
  6
CONTINUOUS
  2
DA_IMAGEDIMGROUP_28
 10
0.0
 20
0.0
 30
0.0
  0
INSERT
  5
452
  8
LAYER0014
  6
CONTINUOUS
  2
DA_IMAGEDIMGROUP_29
 10
0.0
 20
0.0
 30
0.0
  0
INSERT
  5
453
  8
LAYER0014
  6
CONTINUOUS
  2
DA_IMAGEDIMGROUP_30
 10
0.0
 20
0.0
 30
0.0
  0
INSERT
  5
454
  8
LAYER0014
  6
CONTINUOUS
  2
DA_IMAGEDIMGROUP_33
 10
0.0
 20
0.0
 30
0.0
  0
LINE
  5
455
  8
0
  6
CONTINUOUS
 62
     6
 10
-86.49415702431608
 20
-141.2794195067819
 30
0.0
 11
81.50587158591341
 21
-141.2794195067819
 31
0.0
  0
LINE
  5
456
  8
0
  6
CONTINUOUS
 62
     6
 10
-86.49415702431608
 20
-133.7794195067819
 30
0.0
 11
81.50587158591341
 21
-133.7794195067819
 31
0.0
  0
LINE
  5
457
  8
0
  6
CONTINUOUS
 62
     6
 10
-86.49415702431608
 20
-126.2794195067819
 30
0.0
 11
81.50587158591341
 21
-126.2794195067819
 31
0.0
  0
LINE
  5
458
  8
0
  6
CONTINUOUS
 62
     6
 10
-86.49415702431608
 20
-118.7794195067819
 30
0.0
 11
81.50587158591341
 21
-118.7794195067819
 31
0.0
  0
LINE
  5
459
  8
0
  6
CONTINUOUS
 62
     6
 10
-86.49415702431608
 20
-111.2794195067819
 30
0.0
 11
81.50587158591341
 21
-111.2794195067819
 31
0.0
  0
LINE
  5
45A
  8
0
  6
CONTINUOUS
 62
     6
 10
-86.49415702431608
 20
-103.7794309508737
 30
0.0
 11
-49.92906430702146
 21
-103.7794309508737
 31
0.0
  0
LINE
  5
45B
  8
0
  6
CONTINUOUS
 62
     6
 10
-86.49415702431608
 20
-148.7794195067819
 30
0.0
 11
81.50587158591341
 21
-148.7794195067819
 31
0.0
  0
LINE
  5
45C
  8
0
  6
CONTINUOUS
 62
     6
 10
-86.49415702431608
 20
-156.2794195067819
 30
0.0
 11
81.50587158591341
 21
-156.2794195067819
 31
0.0
  0
LINE
  5
45D
  8
0
  6
CONTINUOUS
 62
     6
 10
-86.49415702431608
 20
-163.7794195067819
 30
0.0
 11
81.50587158591341
 21
-163.7794195067819
 31
0.0
  0
LINE
  5
45E
  8
0
  6
CONTINUOUS
 62
     6
 10
-86.49415702431608
 20
-171.2794195067819
 30
0.0
 11
81.50587158591341
 21
-171.2794195067819
 31
0.0
  0
LINE
  5
45F
  8
0
  6
CONTINUOUS
 62
     6
 10
-87.62291148627999
 20
-179.7255410267065
 30
0.0
 11
80.23813888107536
 21
-179.7255410267065
 31
0.0
  0
INSERT
  5
460
  8
0
  6
CONTINUOUS
  2
DA_IMAGEDIMGROUP_21
 10
0.0
 20
0.0
 30
0.0
  0
INSERT
  5
461
  8
0
  6
CONTINUOUS
  2
DA_IMAGEDIMGROUP_31
 10
0.0
 20
0.0
 30
0.0
  0
INSERT
  5
462
  8
0
  6
CONTINUOUS
  2
DA_IMAGEDIMGROUP_32
 10
0.0
 20
0.0
 30
0.0
  0
INSERT
  5
463
  8
0
  6
CONTINUOUS
  2
DC_GROUP_8
 10
0.0
 20
0.0
 30
0.0
  0
INSERT
  5
464
  8
0
  6
CONTINUOUS
  2
DA_IMAGEDIMGROUP_34
 10
0.0
 20
0.0
 30
0.0
  0
VIEWPORT
  5
48
 67
     1
  8
0
 10
0.0
 20
0.0
 30
0.0
 40
1662.0
 41
1140.0
 68
     1
 69
     1
1001
ACAD
1000
MVIEW
1002
{
1070
    16
1010
0.0
1020
0.0
1030
0.0
1020
0.0
1030
0.0
1010
0.0
1020
0.0
1030
1.0
1020
0.0
1030
1.0
1040
0.0
1040
1140.0
1040
0.0
1040
0.0
1040
50.0
1040
0.0
1040
0.0
1070
     0
1070
   100
1070
     0
1070
     1
1070
     0
1070
     0
1070
     0
1070
     0
1040
0.0
1040
0.0
1040
0.0
1040
0.5
1040
0.5
1040
0.0
1040
0.0
1070
     0
1002
{
1002
}
1002
}
  0
ENDSEC
  0
EOF
