  0
SECTION
  2
HEADER
  9
$ACADVER
  1
AC1009
  9
$DWGCODEPAGE
  3
ansi_932
  9
$INSBASE
 10
0.0
 20
0.0
 30
0.0
  9
$EXTMIN
 10
-831.0
 20
-569.9999999999999
 30
0.0
  9
$EXTMAX
 10
831.0
 20
569.9999999999999
 30
0.0
  9
$LIMMIN
 10
-297.0
 20
-210.0
  9
$LIMMAX
 10
297.0
 20
210.0
  9
$ORTHOMODE
 70
     0
  9
$REGENMODE
 70
     1
  9
$FILLMODE
 70
     1
  9
$QTEXTMODE
 70
     0
  9
$MIRRTEXT
 70
     1
  9
$DRAGMODE
 70
     2
  9
$LTSCALE
 40
1.0
  9
$OSMODE
 70
    37
  9
$ATTMODE
 70
     1
  9
$TEXTSIZE
 40
0.2
  9
$TRACEWID
 40
0.05
  9
$TEXTSTYLE
  7
STANDARD
  9
$CLAYER
  8
0
  9
$CELTYPE
  6
BYLAYER
  9
$CECOLOR
 62
   256
  9
$DIMSCALE
 40
1.0
  9
$DIMASZ
 40
2.5
  9
$DIMEXO
 40
0.0625
  9
$DIMDLI
 40
0.38
  9
$DIMRND
 40
0.0
  9
$DIMDLE
 40
0.0
  9
$DIMEXE
 40
0.18
  9
$DIMTP
 40
0.0
  9
$DIMTM
 40
0.0
  9
$DIMTXT
 40
0.18
  9
$DIMCEN
 40
0.09
  9
$DIMTSZ
 40
0.0
  9
$DIMTOL
 70
     0
  9
$DIMLIM
 70
     0
  9
$DIMTIH
 70
     1
  9
$DIMTOH
 70
     1
  9
$DIMSE1
 70
     0
  9
$DIMSE2
 70
     0
  9
$DIMTAD
 70
     3
  9
$DIMZIN
 70
     0
  9
$DIMBLK
  1

  9
$DIMASO
 70
     1
  9
$DIMSHO
 70
     1
  9
$DIMPOST
  1

  9
$DIMAPOST
  1

  9
$DIMALT
 70
     0
  9
$DIMALTD
 70
     2
  9
$DIMALTF
 40
25.4
  9
$DIMLFAC
 40
1.0
  9
$DIMTOFL
 70
     0
  9
$DIMTVP
 40
0.0
  9
$DIMTIX
 70
     0
  9
$DIMSOXD
 70
     0
  9
$DIMSAH
 70
     0
  9
$DIMBLK1
  1

  9
$DIMBLK2
  1

  9
$DIMSTYLE
  2
STANDARD
  9
$DIMCLRD
 70
     0
  9
$DIMCLRE
 70
     0
  9
$DIMCLRT
 70
     0
  9
$DIMTFAC
 40
1.0
  9
$DIMGAP
 40
0.09
  9
$LUNITS
 70
     2
  9
$LUPREC
 70
     4
  9
$SKETCHINC
 40
0.1
  9
$FILLETRAD
 40
0.5
  9
$AUNITS
 70
     0
  9
$AUPREC
 70
     0
  9
$MENU
  1
.
  9
$ELEVATION
 40
0.0
  9
$PELEVATION
 40
0.0
  9
$THICKNESS
 40
0.0
  9
$LIMCHECK
 70
     0
  9
$CHAMFERA
 40
0.5
  9
$CHAMFERB
 40
0.5
  9
$SKPOLY
 70
     0
  9
$TDCREATE
 40
2454912.623311875
  9
$TDUPDATE
 40
2454912.623311887
  9
$TDINDWG
 40
0.0000000116
  9
$TDUSRTIMER
 40
0.0000000116
  9
$USRTIMER
 70
     1
  9
$ANGBASE
 50
0.0
  9
$ANGDIR
 70
     0
  9
$PDMODE
 70
     0
  9
$PDSIZE
 40
1.0
  9
$PLINEWID
 40
0.0
  9
$COORDS
 70
     1
  9
$SPLFRAME
 70
     0
  9
$SPLINETYPE
 70
     6
  9
$SPLINESEGS
 70
     8
  9
$ATTDIA
 70
     0
  9
$ATTREQ
 70
     1
  9
$HANDLING
 70
     1
  9
$HANDSEED
  5
4B0
  9
$SURFTAB1
 70
     6
  9
$SURFTAB2
 70
     6
  9
$SURFTYPE
 70
     6
  9
$SURFU
 70
     6
  9
$SURFV
 70
     6
  9
$UCSNAME
  2

  9
$UCSORG
 10
0.0
 20
0.0
 30
0.0
  9
$UCSXDIR
 10
1.0
 20
0.0
 30
0.0
  9
$UCSYDIR
 10
0.0
 20
1.0
 30
0.0
  9
$PUCSNAME
  2

  9
$PUCSORG
 10
0.0
 20
0.0
 30
0.0
  9
$PUCSXDIR
 10
1.0
 20
0.0
 30
0.0
  9
$PUCSYDIR
 10
0.0
 20
1.0
 30
0.0
  9
$USERI1
 70
     0
  9
$USERI2
 70
     0
  9
$USERI3
 70
     0
  9
$USERI4
 70
     0
  9
$USERI5
 70
     0
  9
$USERR1
 40
0.0
  9
$USERR2
 40
0.0
  9
$USERR3
 40
0.0
  9
$USERR4
 40
0.0
  9
$USERR5
 40
0.0
  9
$WORLDVIEW
 70
     1
  9
$SHADEDGE
 70
     3
  9
$SHADEDIF
 70
    70
  9
$TILEMODE
 70
     1
  9
$MAXACTVP
 70
    64
  9
$PLIMCHECK
 70
     0
  9
$PEXTMIN
 10
1.000000000000000E+20
 20
1.000000000000000E+20
 30
1.000000000000000E+20
  9
$PEXTMAX
 10
-1.000000000000000E+20
 20
-1.000000000000000E+20
 30
-1.000000000000000E+20
  9
$PLIMMIN
 10
0.0
 20
0.0
  9
$PLIMMAX
 10
12.0
 20
9.0
  9
$UNITMODE
 70
     0
  9
$VISRETAIN
 70
     0
  9
$PLINEGEN
 70
     1
  9
$PSLTSCALE
 70
     0
  0
ENDSEC
  0
SECTION
  2
TABLES
  0
TABLE
  2
VPORT
 70
     1
  0
VPORT
  2
*ACTIVE
 70
     0
 10
0.0
 20
0.0
 11
1.0
 21
1.0
 12
0.0
 22
0.0
 13
0.0
 23
0.0
 14
0.5
 24
0.5
 15
0.5
 25
0.5
 16
0.0
 26
0.0
 36
1.0
 17
-0.0000000000000036
 27
0.0
 37
0.0
 40
387.6
 41
1.457894736842106
 42
50.0
 43
0.0
 44
0.0
 50
0.0
 51
0.0
 71
     0
 72
  1000
 73
     1
 74
     1
 75
     0
 76
     0
 77
     0
 78
     0
  0
ENDTAB
  0
TABLE
  2
LTYPE
 70
    28
  0
LTYPE
  2
CONTINUOUS
 70
     0
  3
Solid line
 72
    65
 73
     0
 40
0.0
  0
LTYPE
  2
HIDDENX2
 70
     0
  3
CADPAC LINETYPE
 72
    65
 73
     2
 40
9.893992932862261
 49
7.420494699646696
 49
-2.473498233215565
  0
LTYPE
  2
HIDDEN
 70
     0
  3
CADPAC LINETYPE
 72
    65
 73
     2
 40
7.420494699646696
 49
4.946996466431131
 49
-2.473498233215565
  0
LTYPE
  2
HIDDEN2
 70
     0
  3
CADPAC LINETYPE
 72
    65
 73
     2
 40
6.183745583038913
 49
3.710247349823348
 49
-2.473498233215565
  0
LTYPE
  2
DASHED
 70
     0
  3
CADPAC LINETYPE
 72
    65
 73
     2
 40
6.925795053003526
 49
4.946996466431131
 49
-1.978798586572395
  0
LTYPE
  2
DASHED2
 70
     0
  3
CADPAC LINETYPE
 72
    65
 73
     2
 40
4.452296819787989
 49
2.968197879858678
 49
-1.484098939929311
  0
LTYPE
  2
DASHEDX2
 70
     0
  3
CADPAC LINETYPE
 72
    65
 73
     2
 40
11.8727915194346
 49
9.893992932862204
 49
-1.978798586572395
  0
LTYPE
  2
DOTX2
 70
     0
  3
CADPAC LINETYPE
 72
    65
 73
     2
 40
4.328621908127204
 49
0.0
 49
-4.328621908127204
  0
LTYPE
  2
DOT
 70
     0
  3
CADPAC LINETYPE
 72
    65
 73
     2
 40
3.462897526501763
 49
0.0
 49
-3.462897526501763
  0
LTYPE
  2
DOT2
 70
     0
  3
CADPAC LINETYPE
 72
    65
 73
     2
 40
2.597173144876322
 49
0.0
 49
-2.597173144876322
  0
LTYPE
  2
CENTERX2
 70
     0
  3
CADPAC LINETYPE
 72
    65
 73
     4
 40
14.84098939929339
 49
6.183745583038913
 49
-3.091872791519457
 49
2.473498233215565
 49
-3.091872791519457
  0
LTYPE
  2
CENTER
 70
     0
  3
CADPAC LINETYPE
 72
    65
 73
     4
 40
11.3780918727916
 49
4.946996466431131
 49
-2.473498233215565
 49
1.484098939929339
 49
-2.473498233215565
  0
LTYPE
  2
CENTER2
 70
     0
  3
CADPAC LINETYPE
 72
    65
 73
     4
 40
7.915194346289809
 49
3.710247349823348
 49
-1.855123674911674
 49
0.4946996466431131
 49
-1.855123674911674
  0
LTYPE
  2
DASHDOTX2
 70
     0
  3
CADPAC LINETYPE
 72
    65
 73
     4
 40
23.7455830388692
 49
11.87279151943466
 49
-3.957597173144848
 49
3.957597173144848
 49
-3.957597173144848
  0
LTYPE
  2
DASHDOT
 70
     0
  3
CADPAC LINETYPE
 72
    65
 73
     4
 40
11.87279151943449
 49
5.9363957597173
 49
-1.978798586572395
 49
1.978798586572395
 49
-1.978798586572395
  0
LTYPE
  2
DASHDOT2
 70
     0
  3
CADPAC LINETYPE
 72
    65
 73
     4
 40
7.618374558303808
 49
4.452296819787975
 49
-1.484098939929297
 49
0.1978798586572396
 49
-1.484098939929297
  0
LTYPE
  2
DIVIDEX2
 70
     0
  3
CADPAC LINETYPE
 72
    65
 73
     6
 40
31.6607773851589
 49
11.87279151943466
 49
-3.957597173144848
 49
3.957597173144848
 49
-3.957597173144848
 49
3.957597173144848
 49
-3.957597173144848
  0
LTYPE
  2
DIVIDE
 70
     0
  3
CADPAC LINETYPE
 72
    65
 73
     6
 40
15.83038869257928
 49
5.9363957597173
 49
-1.978798586572395
 49
1.978798586572395
 49
-1.978798586572395
 49
1.978798586572395
 49
-1.978798586572395
  0
LTYPE
  2
DIVIDE2
 70
     0
  3
CADPAC LINETYPE
 72
    65
 73
     6
 40
11.87279151943446
 49
4.452296819787975
 49
-1.484098939929297
 49
1.484098939929297
 49
-1.484098939929297
 49
1.484098939929297
 49
-1.484098939929297
  0
LTYPE
  2
BORDERX2
 70
     0
  3
CADPAC LINETYPE
 72
    65
 73
     6
 40
21.6431095406362
 49
6.183745583038913
 49
-3.091872791519457
 49
6.183745583038913
 49
-3.091872791519457
 49
0.0
 49
-3.091872791519457
  0
LTYPE
  2
BORDER
 70
     0
  3
CADPAC LINETYPE
 72
    65
 73
     6
 40
17.31448763250896
 49
4.946996466431131
 49
-2.473498233215565
 49
4.946996466431131
 49
-2.473498233215565
 49
0.0
 49
-2.473498233215565
  0
LTYPE
  2
BORDER2
 70
     0
  3
CADPAC LINETYPE
 72
    65
 73
     6
 40
12.86219081272091
 49
3.957597173144848
 49
-2.473498233215594
 49
1.484098939929311
 49
-2.473498233215594
 49
0.0
 49
-2.473498233215565
  0
LTYPE
  2
PHANTOMX2
 70
     0
  3
CADPAC LINETYPE
 72
    65
 73
     6
 40
18.55123674911674
 49
6.183745583038913
 49
-2.473498233215565
 49
2.473498233215565
 49
-2.473498233215565
 49
2.473498233215565
 49
-2.473498233215565
  0
LTYPE
  2
PHANTOM
 70
     0
  3
CADPAC LINETYPE
 72
    65
 73
     6
 40
15.33568904593651
 49
4.946996466431131
 49
-2.473498233215565
 49
1.484098939929339
 49
-2.473498233215565
 49
1.484098939929339
 49
-2.473498233215565
  0
LTYPE
  2
PHANTOM2
 70
     0
  3
CADPAC LINETYPE
 72
    65
 73
     6
 40
13.1095406360425
 49
3.710247349823348
 49
-2.473498233215565
 49
0.9893992932862261
 49
-2.473498233215565
 49
0.9893992932862261
 49
-2.473498233215565
  0
LTYPE
  2
ACAD_ISO06W100
 70
     0
  3
CADPAC LINETYPE
 72
    65
 73
     8
 40
26.21908127208496
 49
11.87279151943466
 49
-2.473498233215594
 49
1.484098939929311
 49
-2.473498233215594
 49
1.484098939929311
 49
-2.473498233215594
 49
1.484098939929311
 49
-2.473498233215594
  0
LTYPE
  2
ACAD_ISO13W100
 70
     0
  3
CADPAC LINETYPE
 72
    65
 73
     8
 40
19.78798586572452
 49
4.946996466431131
 49
-2.473498233215565
 49
4.946996466431131
 49
-2.473498233215565
 49
0.0
 49
-2.473498233215565
 49
0.0
 49
-2.473498233215565
  0
LTYPE
  2
ACAD_ISO14W100
 70
     0
  3
CADPAC LINETYPE
 72
    65
 73
     8
 40
14.84098939929339
 49
4.946996466431131
 49
-2.473498233215565
 49
0.0
 49
-2.473498233215565
 49
0.0
 49
-2.473498233215565
 49
0.0
 49
-2.473498233215565
  0
ENDTAB
  0
TABLE
  2
LAYER
 70
     3
  0
LAYER
  2
0
 70
     0
 62
     7
  6
CONTINUOUS
  0
LAYER
  2
LAYER0014
 70
     0
 62
     7
  6
CONTINUOUS
  0
LAYER
  2
ZUWAKU
 70
     0
 62
     7
  6
CONTINUOUS
  0
ENDTAB
  0
TABLE
  2
STYLE
 70
     5
  0
STYLE
  2
STANDARD
 70
     0
 40
0.0
 41
1.0
 50
0.0
 71
     0
 42
0.2
  3
txt
  4

  0
STYLE
  2
FDASTYLE1
 70
     0
 40
4.0
 41
0.7692307692307688
 50
0.0
 71
     0
 42
0.2
  3
txt.shx
  4
bigfont
  0
STYLE
  2
FDASTYLE0
 70
     4
 40
2.6656
 41
0.8
 50
0.0
 71
     0
 42
0.2
  3
txt.shx
  4
bigfont
  0
STYLE
  2
FDASTYLE2
 70
     0
 40
7.0
 41
0.8123476848090983
 50
0.0
 71
     0
 42
0.2
  3
MSMINCHO.TTC
  4

  0
STYLE
  2
FDASTYLE3
 70
     0
 40
8.0
 41
0.77
 50
0.0
 71
     0
 42
0.2
  3
MSGOTHIC.TTC
  4

  0
ENDTAB
  0
TABLE
  2
VIEW
 70
     0
  0
ENDTAB
  0
TABLE
  2
UCS
 70
     0
  0
ENDTAB
  0
TABLE
  2
APPID
 70
     2
  0
APPID
  2
ACAD
 70
     0
  0
APPID
  2
DAFUSIONOUT
 70
     0
  0
ENDTAB
  0
TABLE
  2
DIMSTYLE
 70
     1
  0
DIMSTYLE
  2
STANDARD
 70
     0
  3

  4

  5

  6

  7

 40
1.0
 41
0.18
 42
0.0625
 43
0.38
 44
0.18
 45
0.0
 46
0.0
 47
0.0
 48
0.0
140
0.18
141
0.09
142
0.0
143
25.4
144
1.0
145
0.0
146
1.0
147
0.09
 71
     0
 72
     0
 73
     1
 74
     1
 75
     0
 76
     0
 77
     0
 78
     0
170
     0
171
     2
172
     0
173
     0
174
     0
175
     0
176
     0
177
     0
178
     0
  0
ENDTAB
  0
ENDSEC
  0
SECTION
  2
BLOCKS
  0
BLOCK
  8
0
  2
$MODEL_SPACE
 70
     0
 10
0.0
 20
0.0
 30
0.0
  3
$MODEL_SPACE
  1

  0
ENDBLK
  5
21
  8
0
  0
BLOCK
 67
     1
  8
0
  2
$PAPER_SPACE
 70
     0
 10
0.0
 20
0.0
 30
0.0
  3
$PAPER_SPACE
  1

  0
ENDBLK
  5
1D
 67
     1
  8
0
  0
BLOCK
  8
0
  2
DA_IMAGEDIMGROUP_1
 70
     0
 10
0.0
 20
0.0
 30
0.0
  3
DA_IMAGEDIMGROUP_1
  1

  0
LINE
  5
CA
  8
LAYER0014
  6
CONTINUOUS
 62
     7
 10
-157.1591963581967
 20
82.4506530761719
 30
0.0
 11
-214.5120796589779
 21
82.4506530761719
 31
0.0
  0
LINE
  5
CB
  8
LAYER0014
  6
CONTINUOUS
 62
     7
 10
-157.1591963581967
 20
8.450653076171903
 30
0.0
 11
-214.5120796589779
 21
8.450653076171903
 31
0.0
  0
LINE
  5
CC
  8
LAYER0014
  6
CONTINUOUS
 62
     7
 10
-212.2260689167904
 20
82.4506530761719
 30
0.0
 11
-212.2260689167904
 21
8.450653076171903
 31
0.0
  0
INSERT
  5
D3
  8
LAYER0014
 62
     7
  2
_OPEN30
 10
-212.2260689167904
 20
82.4506530761719
 30
0.0
 41
1.999998407630662
 42
2.000005728319971
 50
90.0
  0
INSERT
  5
D4
  8
LAYER0014
 62
     7
  2
_OPEN30
 10
-212.2260689167904
 20
8.450653076171903
 30
0.0
 41
1.999998407630662
 42
2.000005728319971
 50
270.0
  0
TEXT
  5
D6
  8
LAYER0014
 62
     7
 10
-213.2400315437176
 20
37.45066526086561
 30
0.0
 40
4.0
  1
φ74H7
 50
89.90000000000001
 41
0.7692307692307688
  7
FDASTYLE1
 72
     5
 11
-213.2121062898632
 21
53.4506408914782
 31
0.0
  0
ENDBLK
  5
4E
  8
0
  0
BLOCK
  8
0
  2
DA_IMAGEDIMGROUP_2
 70
     0
 10
0.0
 20
0.0
 30
0.0
  3
DA_IMAGEDIMGROUP_2
  1

  0
LINE
  5
D7
  8
LAYER0014
  6
CONTINUOUS
 62
     7
 10
-75.00239387658525
 20
5.450653076171903
 30
0.0
 11
-35.28989261674163
 21
5.450653076171903
 31
0.0
  0
LINE
  5
D8
  8
LAYER0014
  6
CONTINUOUS
 62
     7
 10
-37.57589954423186
 20
5.450653076171903
 30
0.0
 11
-37.57589954423186
 21
68.2006530761719
 31
0.0
  0
INSERT
  5
D9
  8
LAYER0014
 62
     7
  2
_OPEN30
 10
-37.57589954423186
 20
5.450653076171903
 30
0.0
 41
1.999998407630662
 42
2.000005728319971
 50
270.0
  0
TEXT
  5
DA
  8
LAYER0014
 62
     7
 10
-39.17589954423185
 20
37.26336669921878
 30
0.0
 40
4.0
  1
φ80H7
 50
90.0
 41
0.7692307692307692
  7
FDASTYLE1
 72
     5
 11
-39.17589954423185
 21
53.26336669921878
 31
0.0
  0
ENDBLK
  5
51
  8
0
  0
BLOCK
  8
0
  2
DA_IMAGEDIMGROUP_3
 70
     0
 10
0.0
 20
0.0
 30
0.0
  3
DA_IMAGEDIMGROUP_3
  1

  0
LINE
  5
DB
  8
LAYER0014
  6
CONTINUOUS
 62
     7
 10
-140.5023445515561
 20
29.84182739257815
 30
0.0
 11
-111.502314033978
 21
29.84182739257815
 31
0.0
  0
INSERT
  5
DC
  8
LAYER0014
 62
     7
  2
_OPEN30
 10
-140.5023445515561
 20
29.84182739257815
 30
0.0
 41
1.999998407630662
 42
2.000005728319971
 50
180.0
  0
INSERT
  5
DD
  8
LAYER0014
 62
     7
  2
_OPEN30
 10
-111.502314033978
 20
29.84182739257815
 30
0.0
 41
1.999998407630662
 42
2.000005728319971
 50
360.0
  0
TEXT
  5
DE
  8
LAYER0014
 62
     7
 10
-129.2105655990974
 20
30.84182739257815
 30
0.0
 40
4.0
  1
29
 41
0.7999999999999989
  7
FDASTYLE1
 72
     5
 11
-122.8105655990974
 21
30.84182739257815
 31
0.0
  0
ENDBLK
  5
54
  8
0
  0
BLOCK
  8
0
  2
DA_IMAGEDIMGROUP_4
 70
     0
 10
0.0
 20
0.0
 30
0.0
  3
DA_IMAGEDIMGROUP_4
  1

  0
LINE
  5
DF
  8
LAYER0014
  6
CONTINUOUS
 62
     7
 10
-111.502314033978
 20
29.84182739257815
 30
0.0
 11
-99.50233692216155
 21
29.84182739257815
 31
0.0
  0
INSERT
  5
E0
  8
LAYER0014
 62
     7
  2
_OPEN30
 10
-111.502314033978
 20
29.84182739257815
 30
0.0
 41
1.999998407630662
 42
2.000005728319971
 50
180.0
  0
INSERT
  5
E1
  8
LAYER0014
 62
     7
  2
_OPEN30
 10
-99.50233692216155
 20
29.84182739257815
 30
0.0
 41
1.999998407630662
 42
2.000005728319971
 50
360.0
  0
TEXT
  5
E2
  8
LAYER0014
 62
     7
 10
-109.5942617390281
 20
30.84182739257815
 30
0.0
 40
4.0
  1
12
 41
0.8000000000000007
  7
FDASTYLE1
 72
     5
 11
-103.1942617390281
 21
30.84182739257815
 31
0.0
  0
ENDBLK
  5
57
  8
0
  0
BLOCK
  8
0
  2
DA_IMAGEDIMGROUP_5
 70
     0
 10
0.0
 20
0.0
 30
0.0
  3
DA_IMAGEDIMGROUP_5
  1

  0
LINE
  5
E3
  8
LAYER0014
  6
CONTINUOUS
 62
     7
 10
-99.50233692216155
 20
29.84182739257815
 30
0.0
 11
-90.50232166337248
 21
29.84182739257815
 31
0.0
  0
LINE
  5
E4
  8
LAYER0014
  6
CONTINUOUS
 62
     7
 10
-85.50232166337248
 20
29.84182739257815
 30
0.0
 11
-90.50232166337248
 21
29.84182739257815
 31
0.0
  0
INSERT
  5
E5
  8
LAYER0014
 62
     7
  2
_OPEN30
 10
-90.50232166337248
 20
29.84182739257815
 30
0.0
 41
1.999998407630662
 42
2.000005728319971
 50
180.0
  0
LINE
  5
E6
  8
LAYER0014
  6
CONTINUOUS
 62
     7
 10
-104.5023369221616
 20
29.84182739257815
 30
0.0
 11
-99.50233692216155
 21
29.84182739257815
 31
0.0
  0
INSERT
  5
E7
  8
LAYER0014
 62
     7
  2
_OPEN30
 10
-99.50233692216155
 20
29.84182739257815
 30
0.0
 41
1.999998407630662
 42
2.000005728319971
 50
360.0
  0
TEXT
  5
E8
  8
LAYER0014
 62
     7
 10
-96.60232166337248
 20
30.84182739257815
 30
0.0
 40
4.0
  1
9
 41
0.7999999999999972
  7
FDASTYLE1
 72
     5
 11
-93.40232166337249
 21
30.84182739257815
 31
0.0
  0
ENDBLK
  5
5A
  8
0
  0
BLOCK
  8
0
  2
DA_IMAGEDIMGROUP_6
 70
     0
 10
0.0
 20
0.0
 30
0.0
  3
DA_IMAGEDIMGROUP_6
  1

  0
LINE
  5
E9
  8
LAYER0014
  6
CONTINUOUS
 62
     7
 10
-22.41163013505217
 20
45.4506530761719
 30
0.0
 11
-35.6619209675717
 21
45.4506530761719
 31
0.0
  0
LINE
  5
EA
  8
LAYER0014
  6
CONTINUOUS
 62
     7
 10
-75.07920398759123
 20
87.75067138671878
 30
0.0
 11
-23.32755130814788
 21
87.75067138671878
 31
0.0
  0
LINE
  5
EB
  8
LAYER0014
  6
CONTINUOUS
 62
     7
 10
-25.61355823563811
 20
45.4506530761719
 30
0.0
 11
-25.61355823563811
 21
87.75065612792972
 31
0.0
  0
INSERT
  5
EC
  8
LAYER0014
 62
     7
  2
_OPEN30
 10
-25.61355823563811
 20
45.4506530761719
 30
0.0
 41
1.999998407630662
 42
2.000005728319971
 50
270.0
  0
INSERT
  5
ED
  8
LAYER0014
 62
     7
  2
_OPEN30
 10
-25.61355823563811
 20
87.75065612792972
 30
0.0
 41
1.999998407630662
 42
2.000005728319971
 50
90.0
  0
TEXT
  5
EE
  8
LAYER0014
 62
     7
 10
-27.21355823563811
 20
55.40064697265628
 30
0.0
 40
4.0
  1
MAX43.9
 50
90.0
 41
0.8000000000000002
  7
FDASTYLE1
 72
     5
 11
-27.21355823563811
 21
77.80064697265628
 31
0.0
  0
ENDBLK
  5
5D
  8
0
  0
BLOCK
  8
0
  2
DA_IMAGEDIMGROUP_7
 70
     0
 10
0.0
 20
0.0
 30
0.0
  3
DA_IMAGEDIMGROUP_7
  1

  0
LINE
  5
EF
  8
LAYER0014
  6
CONTINUOUS
 62
     7
 10
-75.07920398759123
 20
87.75067138671878
 30
0.0
 11
-23.32755130814788
 21
87.75067138671878
 31
0.0
  0
LINE
  5
F0
  8
LAYER0014
  6
CONTINUOUS
 62
     7
 10
-75.07920398759123
 20
152.2506408691407
 30
0.0
 11
-23.32755130814788
 21
152.2506408691407
 31
0.0
  0
LINE
  5
F1
  8
LAYER0014
  6
CONTINUOUS
 62
     7
 10
-25.61355823563811
 20
87.75065612792972
 30
0.0
 11
-25.61355823563811
 21
152.2506561279297
 31
0.0
  0
INSERT
  5
F2
  8
LAYER0014
 62
     7
  2
_OPEN30
 10
-25.61355823563811
 20
87.75065612792972
 30
0.0
 41
1.999998407630662
 42
2.000005728319971
 50
270.0
  0
INSERT
  5
F3
  8
LAYER0014
 62
     7
  2
_OPEN30
 10
-25.61355823563811
 20
152.2506561279297
 30
0.0
 41
1.999998407630662
 42
2.000005728319971
 50
90.0
  0
TEXT
  5
F4
  8
LAYER0014
 62
     7
 10
-26.61355823563811
 20
112.9715356338355
 30
0.0
 40
4.0
  1
64.5
 50
90.0
 41
0.8000000000000007
  7
FDASTYLE1
 72
     5
 11
-26.61355823563811
 21
125.7715356338355
 31
0.0
  0
ENDBLK
  5
60
  8
0
  0
BLOCK
  8
0
  2
DA_IMAGEDIMGROUP_8
 70
     0
 10
0.0
 20
0.0
 30
0.0
  3
DA_IMAGEDIMGROUP_8
  1

  0
LINE
  5
F5
  8
LAYER0014
  6
CONTINUOUS
 62
     7
 10
-79.11920398759123
 20
20.7979431152344
 30
0.0
 11
-76.61920398759123
 21
20.7979431152344
 31
0.0
  0
LINE
  5
F6
  8
LAYER0014
  6
CONTINUOUS
 62
     7
 10
-63.16145907803122
 20
20.7979431152344
 30
0.0
 11
-76.61920398759123
 21
20.7979431152344
 31
0.0
  0
INSERT
  5
F7
  8
LAYER0014
 62
     7
  2
_OPEN30
 10
-76.61920398759123
 20
20.7979431152344
 30
0.0
 41
1.999998407630662
 42
2.000005728319971
 50
180.0
  0
LINE
  5
F8
  8
LAYER0014
  6
CONTINUOUS
 62
     7
 10
-84.11920398759123
 20
20.7979431152344
 30
0.0
 11
-79.11920398759123
 21
20.7979431152344
 31
0.0
  0
INSERT
  5
F9
  8
LAYER0014
 62
     7
  2
_OPEN30
 10
-79.11920398759123
 20
20.7979431152344
 30
0.0
 41
1.999998407630662
 42
2.000005728319971
 50
360.0
  0
TEXT
  5
FA
  8
LAYER0014
 62
     7
 10
-73.76145907803122
 20
21.7979431152344
 30
0.0
 40
4.0
  1
2.5
 50
-0.1000000000000078
 41
0.8000000000000013
  7
FDASTYLE1
 72
     5
 11
-64.16147369966365
 21
21.78118796292178
 31
0.0
  0
ENDBLK
  5
63
  8
0
  0
BLOCK
  8
0
  2
DA_IMAGEDIMGROUP_9
 70
     0
 10
0.0
 20
0.0
 30
0.0
  3
DA_IMAGEDIMGROUP_9
  1

  0
LINE
  5
FB
  8
LAYER0014
  6
CONTINUOUS
 62
     7
 10
-76.61917347001311
 20
153.3165212688835
 30
0.0
 11
-76.61917347001311
 21
167.4374389648438
 31
0.0
  0
LINE
  5
FC
  8
LAYER0014
  6
CONTINUOUS
 62
     7
 10
-77.61920398759123
 20
153.3165212688835
 30
0.0
 11
-77.61920398759123
 21
167.4374389648438
 31
0.0
  0
LINE
  5
FD
  8
LAYER0014
  6
CONTINUOUS
 62
     7
 10
-76.61920398759123
 20
165.1514587402344
 30
0.0
 11
-77.61920398759123
 21
165.1514587402344
 31
0.0
  0
LINE
  5
FE
  8
LAYER0014
  6
CONTINUOUS
 62
     7
 10
-86.48912586259122
 20
165.1514587402344
 30
0.0
 11
-77.61920398759123
 21
165.1514587402344
 31
0.0
  0
INSERT
  5
FF
  8
LAYER0014
 62
     7
  2
_OPEN30
 10
-77.61920398759123
 20
165.1514587402344
 30
0.0
 41
1.999998407630662
 42
2.000005728319971
 50
360.0
  0
LINE
  5
100
  8
LAYER0014
  6
CONTINUOUS
 62
     7
 10
-71.61920398759123
 20
165.1514587402344
 30
0.0
 11
-76.61920398759123
 21
165.1514587402344
 31
0.0
  0
INSERT
  5
101
  8
LAYER0014
 62
     7
  2
_OPEN30
 10
-76.61920398759123
 20
165.1514587402344
 30
0.0
 41
1.999998407630662
 42
2.000005728319971
 50
180.0
  0
TEXT
  5
102
  8
LAYER0014
 62
     7
 10
-85.48912586259124
 20
166.1514587402344
 30
0.0
 40
4.0
  1
1
 41
0.8000000000000007
  7
FDASTYLE1
 72
     5
 11
-82.28912586259123
 21
166.1514587402344
 31
0.0
  0
ENDBLK
  5
66
  8
0
  0
BLOCK
  8
0
  2
DC_GROUP_1
 70
     0
 10
0.0
 20
0.0
 30
0.0
  3
DC_GROUP_1
  1

  0
LINE
  5
103
  8
LAYER0014
  6
CONTINUOUS
 62
     7
 10
-77.6032238294443
 20
147.5533311414609
 30
0.0
 11
-51.43936260002722
 21
178.3955227425559
 31
0.0
  0
INSERT
  5
104
  8
LAYER0014
 62
     7
  2
_OPEN30
 10
-77.6032238294443
 20
147.5533311414609
 30
0.0
 41
1.999998407630662
 42
2.000005728319971
 50
229.6915936142489
  0
LINE
  5
105
  8
LAYER0014
  6
CONTINUOUS
 62
     7
 10
-51.43935627030608
 20
178.3955230712891
 30
0.0
 11
-4.809690895550219
 21
178.3955230712891
 31
0.0
  0
TEXT
  5
106
  8
LAYER0014
 62
     7
 10
-50.91955799149748
 20
179.9955230712891
 30
0.0
 40
4.0
  1
ｾﾚｰｼｮﾝP1.5山60ﾟ
 41
0.7887323943661972
  7
FDASTYLE1
 72
     5
 11
-6.11955799149748
 21
179.9955230712891
 31
0.0
  0
ENDBLK
  5
69
  8
0
  0
BLOCK
  8
0
  2
DA_IMAGEDIMGROUP_10
 70
     0
 10
0.0
 20
0.0
 30
0.0
  3
DA_IMAGEDIMGROUP_10
  1

  0
LINE
  5
107
  8
LAYER0014
  6
CONTINUOUS
 62
     7
 10
-175.1591963581967
 20
137.9506530761719
 30
0.0
 11
-249.9206184773373
 21
137.9506530761719
 31
0.0
  0
LINE
  5
108
  8
LAYER0014
  6
CONTINUOUS
 62
     7
 10
-175.1591963581967
 20
-47.0493469238281
 30
0.0
 11
-249.9206184773373
 21
-47.0493469238281
 31
0.0
  0
LINE
  5
109
  8
LAYER0014
  6
CONTINUOUS
 62
     7
 10
-247.6346077351498
 20
137.9506530761719
 30
0.0
 11
-247.6346077351498
 21
-47.0493469238281
 31
0.0
  0
INSERT
  5
10A
  8
LAYER0014
 62
     7
  2
_OPEN30
 10
-247.6346077351498
 20
137.9506530761719
 30
0.0
 41
1.999998407630662
 42
2.000005728319971
 50
90.0
  0
INSERT
  5
10B
  8
LAYER0014
 62
     7
  2
_OPEN30
 10
-247.6346077351498
 20
-47.0493469238281
 30
0.0
 41
1.999998407630662
 42
2.000005728319971
 50
270.0
  0
TEXT
  5
10C
  8
LAYER0014
 62
     7
 10
-248.6457778366916
 20
39.05066282392686
 30
0.0
 40
4.0
  1
φ185
 50
89.90000000000001
 41
0.7619047619047625
  7
FDASTYLE1
 72
     5
 11
-248.6234376336081
 21
51.85064332841695
 31
0.0
  0
ENDBLK
  5
6C
  8
0
  0
BLOCK
  8
0
  2
DA_IMAGEDIMGROUP_11
 70
     0
 10
0.0
 20
0.0
 30
0.0
  3
DA_IMAGEDIMGROUP_11
  1

  0
LINE
  5
10D
  8
LAYER0014
  6
CONTINUOUS
 62
     7
 10
-112.042314033978
 20
76.7006530761719
 30
0.0
 11
-202.0712532429623
 21
76.7006530761719
 31
0.0
  0
LINE
  5
10E
  8
LAYER0014
  6
CONTINUOUS
 62
     7
 10
-112.042314033978
 20
14.2006530761719
 30
0.0
 11
-202.0712532429623
 21
14.2006530761719
 31
0.0
  0
LINE
  5
10F
  8
LAYER0014
  6
CONTINUOUS
 62
     7
 10
-199.7852425007748
 20
76.70066070556644
 30
0.0
 11
-199.7852425007748
 21
14.2006530761719
 31
0.0
  0
INSERT
  5
110
  8
LAYER0014
 62
     7
  2
_OPEN30
 10
-199.7852425007748
 20
76.70066070556644
 30
0.0
 41
1.999998407630662
 42
2.000005728319971
 50
90.0
  0
INSERT
  5
111
  8
LAYER0014
 62
     7
  2
_OPEN30
 10
-199.7852425007748
 20
14.2006530761719
 30
0.0
 41
1.999998407630662
 42
2.000005728319971
 50
270.0
  0
TEXT
  5
112
  8
LAYER0014
 62
     7
 10
-200.8047901784729
 20
34.25067394944036
 30
0.0
 40
4.0
  1
φ62.5H7
 50
89.90000000000001
 41
0.7777777777777772
  7
FDASTYLE1
 72
     5
 11
-200.7656948230768
 21
56.65063983229798
 31
0.0
  0
ENDBLK
  5
6F
  8
0
  0
BLOCK
  8
0
  2
DA_IMAGEDIMGROUP_12
 70
     0
 10
0.0
 20
0.0
 30
0.0
  3
DA_IMAGEDIMGROUP_12
  1

  0
LINE
  5
113
  8
LAYER0014
  6
CONTINUOUS
 62
     7
 10
-171.6191963581967
 20
-94.0493469238281
 30
0.0
 11
-111.502314033978
 21
-94.0493469238281
 31
0.0
  0
INSERT
  5
114
  8
LAYER0014
 62
     7
  2
_OPEN30
 10
-171.6191963581967
 20
-94.0493469238281
 30
0.0
 41
1.999998407630662
 42
2.000005728319971
 50
180.0
  0
INSERT
  5
115
  8
LAYER0014
 62
     7
  2
_OPEN30
 10
-111.502314033978
 20
-94.0493469238281
 30
0.0
 41
1.999998407630662
 42
2.000005728319971
 50
360.0
  0
LINE
  5
116
  8
LAYER0014
  6
CONTINUOUS
 62
     7
 10
-171.6192268757748
 20
-49.5893469238281
 30
0.0
 11
-171.6191956717914
 21
-95.04934692382786
 31
0.0
  0
LINE
  5
117
  8
LAYER0014
  6
CONTINUOUS
 62
     7
 10
-111.502314033978
 20
12.53598947855288
 30
0.0
 11
-111.502314033978
 21
-95.0493469238281
 31
0.0
  0
TEXT
  5
118
  8
LAYER0014
 62
     7
 10
-151.1607551960873
 20
-92.4493469238281
 30
0.0
 40
4.0
  1
MAX 72
 41
0.7999999999999995
  7
FDASTYLE1
 72
     5
 11
-131.9607551960873
 21
-92.4493469238281
 31
0.0
  0
ENDBLK
  5
72
  8
0
  0
BLOCK
  8
0
  2
DA_IMAGEDIMGROUP_13
 70
     0
 10
0.0
 20
0.0
 30
0.0
  3
DA_IMAGEDIMGROUP_13
  1

  0
LINE
  5
119
  8
LAYER0014
  6
CONTINUOUS
 62
     7
 10
-172.6191963581967
 20
-114.0493469238281
 30
0.0
 11
-76.61920398759123
 21
-114.0493469238281
 31
0.0
  0
INSERT
  5
11A
  8
LAYER0014
 62
     7
  2
_OPEN30
 10
-172.6191963581967
 20
-114.0493469238281
 30
0.0
 41
1.999998407630662
 42
2.000005728319971
 50
180.0
  0
INSERT
  5
11B
  8
LAYER0014
 62
     7
  2
_OPEN30
 10
-76.61920398759123
 20
-114.0493469238281
 30
0.0
 41
1.999998407630662
 42
2.000005728319971
 50
360.0
  0
LINE
  5
11C
  8
LAYER0014
  6
CONTINUOUS
 62
     7
 10
-172.6192268757748
 20
-64.58935455322263
 30
0.0
 11
-172.6191957411813
 21
-115.0493469238279
 31
0.0
  0
LINE
  5
11D
  8
LAYER0014
  6
CONTINUOUS
 62
     7
 10
-76.61917347001311
 20
-62.5893469238281
 30
0.0
 11
-76.61920458062618
 21
-115.0493469238279
 31
0.0
  0
TEXT
  5
11E
  8
LAYER0014
 62
     7
 10
-127.8191963581967
 20
-112.4493469238281
 30
0.0
 40
4.0
  1
96
 41
0.8000000000000007
  7
FDASTYLE1
 72
     5
 11
-121.4191963581967
 21
-112.4493469238281
 31
0.0
  0
ENDBLK
  5
75
  8
0
  0
BLOCK
  8
0
  2
DA_IMAGEDIMGROUP_14
 70
     0
 10
0.0
 20
0.0
 30
0.0
  3
DA_IMAGEDIMGROUP_14
  1

  0
LINE
  5
11F
  8
LAYER0014
  6
CONTINUOUS
 62
     7
 10
-87.96232166337248
 20
12.9506530761719
 30
0.0
 11
-47.25223011063811
 21
12.9506530761719
 31
0.0
  0
LINE
  5
120
  8
LAYER0014
  6
CONTINUOUS
 62
     7
 10
-49.53824085282561
 20
12.9506530761719
 30
0.0
 11
-49.53824085282561
 21
68.27020263671878
 31
0.0
  0
INSERT
  5
121
  8
LAYER0014
 62
     7
  2
_OPEN30
 10
-49.53824085282561
 20
12.9506530761719
 30
0.0
 41
1.999998407630662
 42
2.000005728319971
 50
270.0
  0
TEXT
  5
122
  8
LAYER0014
 62
     7
 10
-51.1382408528256
 20
31.34188232421877
 30
0.0
 40
4.0
  1
M65×P1.25
 50
90.0
 41
0.7826086956521741
  7
FDASTYLE1
 72
     5
 11
-51.1382408528256
 21
60.14188232421878
 31
0.0
  0
ENDBLK
  5
78
  8
0
  0
BLOCK
  8
0
  2
DA_IMAGEDIMGROUP_15
 70
     0
 10
0.0
 20
0.0
 30
0.0
  3
DA_IMAGEDIMGROUP_15
  1

  0
LINE
  5
123
  8
LAYER0014
  6
CONTINUOUS
 62
     7
 10
-171.6192268757748
 20
140.4906530761719
 30
0.0
 11
-171.6192268757748
 21
167.4374389648438
 31
0.0
  0
LINE
  5
124
  8
LAYER0014
  6
CONTINUOUS
 62
     7
 10
-165.1191963581967
 20
108.5306539916993
 30
0.0
 11
-165.1191963581967
 21
167.4374389648438
 31
0.0
  0
LINE
  5
125
  8
LAYER0014
  6
CONTINUOUS
 62
     7
 10
-171.6191963581967
 20
165.1514587402344
 30
0.0
 11
-165.1192268757748
 21
165.1514587402344
 31
0.0
  0
LINE
  5
126
  8
LAYER0014
  6
CONTINUOUS
 62
     7
 10
-186.2472167941103
 20
165.1514587402344
 30
0.0
 11
-171.6191963581967
 21
165.1514587402344
 31
0.0
  0
INSERT
  5
127
  8
LAYER0014
 62
     7
  2
_OPEN30
 10
-171.6191963581967
 20
165.1514587402344
 30
0.0
 41
1.999998407630662
 42
2.000005728319971
 50
360.0
  0
LINE
  5
128
  8
LAYER0014
  6
CONTINUOUS
 62
     7
 10
-160.1192268757748
 20
165.1514587402344
 30
0.0
 11
-165.1192268757748
 21
165.1514587402344
 31
0.0
  0
INSERT
  5
129
  8
LAYER0014
 62
     7
  2
_OPEN30
 10
-165.1192268757748
 20
165.1514587402344
 30
0.0
 41
1.999998407630662
 42
2.000005728319971
 50
180.0
  0
TEXT
  5
12A
  8
LAYER0014
 62
     7
 10
-185.2472021724778
 20
166.168213892547
 30
0.0
 40
4.0
  1
6.5
 50
-0.1000000000000078
 41
0.8000000000000002
  7
FDASTYLE1
 72
     5
 11
-175.6472167941103
 21
166.1514587402344
 31
0.0
  0
ENDBLK
  5
7B
  8
0
  0
BLOCK
  8
0
  2
DA_IMAGEDIMGROUP_16
 70
     0
 10
0.0
 20
0.0
 30
0.0
  3
DA_IMAGEDIMGROUP_16
  1

  0
LINE
  5
12B
  8
LAYER0014
  6
CONTINUOUS
 62
     7
 10
-142.042314033978
 20
70.4506530761719
 30
0.0
 11
-190.1089119343686
 21
70.4506530761719
 31
0.0
  0
LINE
  5
12C
  8
LAYER0014
  6
CONTINUOUS
 62
     7
 10
-142.042314033978
 20
20.4506530761719
 30
0.0
 11
-190.1089119343686
 21
20.4506530761719
 31
0.0
  0
LINE
  5
12D
  8
LAYER0014
  6
CONTINUOUS
 62
     7
 10
-187.8229011921811
 20
70.4506530761719
 30
0.0
 11
-187.8229011921811
 21
20.4506530761719
 31
0.0
  0
INSERT
  5
12E
  8
LAYER0014
 62
     7
  2
_OPEN30
 10
-187.8229011921811
 20
70.4506530761719
 30
0.0
 41
1.999998407630662
 42
2.000005728319971
 50
90.0
  0
INSERT
  5
12F
  8
LAYER0014
 62
     7
  2
_OPEN30
 10
-187.8229011921811
 20
20.4506530761719
 30
0.0
 41
1.999998407630662
 42
2.000005728319971
 50
270.0
  0
TEXT
  5
130
  8
LAYER0014
 62
     7
 10
-188.8312787683374
 20
35.99066038698812
 30
0.0
 40
4.0
  1
φ50
 50
89.90000000000001
 41
0.7500000000000018
  7
FDASTYLE1
 72
     5
 11
-188.8145236160248
 21
45.5906457653557
 31
0.0
  0
TEXT
  5
131
  8
LAYER0014
 62
     7
 10
-191.0127749368681
 20
46.59448396467397
 30
0.0
 40
2.2
  1
+0.5
 50
89.90000000000001
 41
0.7999999999999991
  7
FDASTYLE1
 72
     5
 11
-191.0004878251722
 21
53.63447324214351
 31
0.0
  0
TEXT
  5
132
  8
LAYER0014
 62
     7
 10
-188.6127785922762
 20
46.59029517659582
 30
0.0
 40
2.2
  1
+0.2
 50
89.90000000000001
 41
0.7999999999999991
  7
FDASTYLE1
 72
     5
 11
-188.6004914805803
 21
53.63028445406535
 31
0.0
  0
ENDBLK
  5
7E
  8
0
  0
BLOCK
  8
0
  2
DC_GROUP_2
 70
     0
 10
0.0
 20
0.0
 30
0.0
  3
DC_GROUP_2
  1

  0
LINE
  5
133
  8
LAYER0014
  6
CONTINUOUS
 62
     7
 10
-64.81768970469859
 20
137.2654111241655
 30
0.0
 11
-43.60511903314257
 21
164.5068277654837
 31
0.0
  0
INSERT
  5
134
  8
LAYER0014
 62
     7
  2
_OPEN30
 10
-64.81768970469859
 20
137.2654111241655
 30
0.0
 41
1.999998407630662
 42
2.000005728319971
 50
232.0925276204666
  0
LINE
  5
135
  8
LAYER0014
  6
CONTINUOUS
 62
     7
 10
-43.60512012528655
 20
164.5068359375
 30
0.0
 11
-32.17544788407561
 21
164.5068359375
 31
0.0
  0
TEXT
  5
136
  8
LAYER0014
 62
     7
 10
-43.15854877518889
 20
166.1068359375
 30
0.0
 40
4.0
  1
M10
 41
0.8000000000000002
  7
FDASTYLE1
 72
     5
 11
-33.55854877518889
 21
166.1068359375
 31
0.0
  0
ENDBLK
  5
81
  8
0
  0
BLOCK
  8
0
  2
DA_IMAGEDIMGROUP_17
 70
     0
 10
0.0
 20
0.0
 30
0.0
  3
DA_IMAGEDIMGROUP_17
  1

  0
LINE
  5
137
  8
LAYER0014
  6
CONTINUOUS
 62
     7
 10
-174.1592268757748
 20
105.9906539916993
 30
0.0
 11
-213.7164347640481
 21
105.9906539916993
 31
0.0
  0
LINE
  5
138
  8
LAYER0014
  6
CONTINUOUS
 62
     7
 10
-174.1592268757748
 20
89.71065521240237
 30
0.0
 11
-213.5690332103018
 21
89.71065521240237
 31
0.0
  0
LINE
  5
139
  8
LAYER0014
  6
CONTINUOUS
 62
     7
 10
-212.1578926472592
 20
105.9906539916993
 30
0.0
 11
-212.1578926472592
 21
89.71065521240237
 31
0.0
  0
LINE
  5
13A
  8
LAYER0014
  6
CONTINUOUS
 62
     7
 10
-212.1578926472592
 20
84.71065521240237
 30
0.0
 11
-212.1578926472592
 21
89.71065521240237
 31
0.0
  0
INSERT
  5
13B
  8
LAYER0014
 62
     7
  2
_OPEN30
 10
-212.1578926472592
 20
89.71065521240237
 30
0.0
 41
1.999998407630662
 42
2.000005728319971
 50
90.0
  0
LINE
  5
13C
  8
LAYER0014
  6
CONTINUOUS
 62
     7
 10
-212.1578926472592
 20
110.9906539916993
 30
0.0
 11
-212.1578926472592
 21
105.9906539916993
 31
0.0
  0
INSERT
  5
13D
  8
LAYER0014
 62
     7
  2
_OPEN30
 10
-212.1578926472592
 20
105.9906539916993
 30
0.0
 41
1.999998407630662
 42
2.000005728319971
 50
270.0
  0
TEXT
  5
13E
  8
LAYER0014
 62
     7
 10
-213.1746477995718
 20
87.21933174003056
 30
0.0
 40
4.0
  1
φ16.28
 50
89.90000000000001
 41
0.7741935483870958
  7
FDASTYLE1
 72
     5
 11
-213.1411374949466
 21
106.4193024967657
 31
0.0
  0
TEXT
  5
13F
  8
LAYER0014
 62
     7
 10
-215.3393888157899
 20
107.4231406960839
 30
0.0
 40
2.2
  1
+0.1
 50
89.90000000000001
 41
0.7999999999999998
  7
FDASTYLE1
 72
     5
 11
-215.327101704094
 21
114.4631299735535
 31
0.0
  0
TEXT
  5
140
  8
LAYER0014
 62
     7
 10
-212.939392471198
 20
107.4189519080058
 30
0.0
 40
2.2
  1
 0
 50
89.90000000000001
 41
0.800000000000003
  7
FDASTYLE1
 72
     5
 11
-212.9332489153501
 21
110.9389465467406
 31
0.0
  0
ENDBLK
  5
84
  8
0
  0
BLOCK
  8
0
  2
DA_IMAGEDIMGROUP_18
 70
     0
 10
0.0
 20
0.0
 30
0.0
  3
DA_IMAGEDIMGROUP_18
  1

  0
LINE
  5
141
  8
LAYER0014
  6
CONTINUOUS
 62
     7
 10
-218.9488692097592
 20
97.85065460205081
 30
0.0
 11
-226.4466499714779
 21
97.85065460205081
 31
0.0
  0
LINE
  5
142
  8
LAYER0014
  6
CONTINUOUS
 62
     7
 10
-218.698808174603
 20
45.4506530761719
 30
0.0
 11
-226.4466499714779
 21
45.4506530761719
 31
0.0
  0
LINE
  5
143
  8
LAYER0014
  6
CONTINUOUS
 62
     7
 10
-224.1606697468686
 20
97.85065460205081
 30
0.0
 11
-224.1606697468686
 21
45.4506530761719
 31
0.0
  0
INSERT
  5
144
  8
LAYER0014
 62
     7
  2
_OPEN30
 10
-224.1606697468686
 20
97.85065460205081
 30
0.0
 41
1.999998407630662
 42
2.000005728319971
 50
90.0
  0
INSERT
  5
145
  8
LAYER0014
 62
     7
  2
_OPEN30
 10
-224.1606697468686
 20
45.4506530761719
 30
0.0
 41
1.999998407630662
 42
2.000005728319971
 50
270.0
  0
TEXT
  5
146
  8
LAYER0014
 62
     7
 10
-225.1746323737957
 20
63.65066602380506
 30
0.0
 40
4.0
  1
R52.4
 50
89.90000000000001
 41
0.7999999999999996
  7
FDASTYLE1
 72
     5
 11
-225.1467071199414
 21
79.65064165441766
 31
0.0
  0
ENDBLK
  5
87
  8
0
  0
BLOCK
  8
0
  2
DA_IMAGEDIMGROUP_19
 70
     0
 10
0.0
 20
0.0
 30
0.0
  3
DA_IMAGEDIMGROUP_19
  1

  0
LINE
  5
147
  8
LAYER0014
  6
CONTINUOUS
 62
     7
 10
-174.1592268757748
 20
86.73315429687503
 30
0.0
 11
-237.9493050007748
 21
86.73315429687503
 31
0.0
  0
LINE
  5
148
  8
LAYER0014
  6
CONTINUOUS
 62
     7
 10
-174.1592268757748
 20
4.168151855468778
 30
0.0
 11
-237.9493050007748
 21
4.168151855468778
 31
0.0
  0
LINE
  5
149
  8
LAYER0014
  6
CONTINUOUS
 62
     7
 10
-235.6632942585873
 20
86.73315429687503
 30
0.0
 11
-235.6632942585873
 21
4.168151855468778
 31
0.0
  0
INSERT
  5
14A
  8
LAYER0014
 62
     7
  2
_OPEN30
 10
-235.6632942585873
 20
86.73315429687503
 30
0.0
 41
1.999998407630662
 42
2.000005728319971
 50
90.0
  0
INSERT
  5
14B
  8
LAYER0014
 62
     7
  2
_OPEN30
 10
-235.6632942585873
 20
4.168151855468778
 30
0.0
 41
1.999998407630662
 42
2.000005728319971
 50
270.0
  0
TEXT
  5
14C
  8
LAYER0014
 62
     7
 10
-236.7107671901398
 20
18.25069450413049
 30
0.0
 40
4.0
  1
φ82.565(A2-5テーパー）
 50
89.90000000000001
 41
0.7472527472527468
  7
FDASTYLE1
 72
     5
 11
-236.6158213270349
 21
72.65061164821331
 31
0.0
  0
ENDBLK
  5
8A
  8
0
  0
BLOCK
  8
0
  2
DA_IMAGEDIMGROUP_20
 70
     0
 10
0.0
 20
0.0
 30
0.0
  3
DA_IMAGEDIMGROUP_20
  1

  0
LINE
  5
14D
  8
LAYER0014
  6
CONTINUOUS
 62
     7
 10
-235.4093050007749
 20
4.168472290039091
 30
0.0
 11
-221.8750557331967
 21
4.168472290039091
 31
0.0
  0
LINE
  5
14E
  8
LAYER0014
  6
CONTINUOUS
 62
     7
 10
-174.1396201129744
 20
3.853111974596624
 30
0.0
 11
-226.023654103459
 21
-2.632377470382863
 31
0.0
  0
ARC
  5
14F
  8
LAYER0014
  6
CONTINUOUS
 62
     7
 10
-171.6192268757748
 20
4.168151855468778
 30
0.0
 40
52.54183197021484
 50
179.9999776881997
 51
187.1249851435468
  0
ARC
  5
150
  8
LAYER0014
  6
CONTINUOUS
 62
     7
 10
-171.6192268757748
 20
4.168151855468778
 30
0.0
 40
52.54183197021484
 50
180.2004416652318
 51
187.1249851435468
  0
INSERT
  5
151
  8
LAYER0014
 62
     7
  2
_OPEN30
 10
-223.7553278912189
 20
-2.348831932581213
 30
0.0
 41
1.999998407630662
 42
2.000005728319971
 50
276.0345064564632
  0
ARC
  5
152
  8
LAYER0014
  6
CONTINUOUS
 62
     7
 10
-171.6192268757748
 20
4.168151855468778
 30
0.0
 40
52.54183197021484
 50
179.9999776881997
 51
186.9245211665146
  0
INSERT
  5
153
  8
LAYER0014
 62
     7
  2
_OPEN30
 10
-224.1610588459857
 20
4.168172316013605
 30
0.0
 41
1.999998407630662
 42
2.000005728319971
 50
91.09045637528239
  0
ENDBLK
  5
8D
  8
0
  0
BLOCK
  8
0
  2
DA_IMAGEDIMGROUP_21
 70
     0
 10
0.0
 20
0.0
 30
0.0
  3
DA_IMAGEDIMGROUP_21
  1

  0
LINE
  5
154
  8
LAYER0014
  6
CONTINUOUS
 62
     7
 10
-190.1591658406186
 20
-1.949348449707003
 30
0.0
 11
-202.1910652546811
 21
-1.949348449707003
 31
0.0
  0
LINE
  5
155
  8
LAYER0014
  6
CONTINUOUS
 62
     7
 10
-190.1591658406186
 20
-11.949348449707
 30
0.0
 11
-202.1910652546811
 21
-11.949348449707
 31
0.0
  0
LINE
  5
156
  8
LAYER0014
  6
CONTINUOUS
 62
     7
 10
-199.9050850300717
 20
-1.949348449707003
 30
0.0
 11
-199.9050850300717
 21
-11.949348449707
 31
0.0
  0
INSERT
  5
157
  8
LAYER0014
 62
     7
  2
_OPEN30
 10
-199.9050850300717
 20
-1.949348449707003
 30
0.0
 41
1.999998407630662
 42
2.000005728319971
 50
90.0
  0
INSERT
  5
158
  8
LAYER0014
 62
     7
  2
_OPEN30
 10
-199.9050850300717
 20
-11.949348449707
 30
0.0
 41
1.999998407630662
 42
2.000005728319971
 50
270.0
  0
TEXT
  5
159
  8
LAYER0014
 62
     7
 10
-201.5134601692893
 20
-11.74654861350536
 30
0.0
 40
4.0
  1
M10
 50
89.90000000000001
 41
0.8000000000000017
  7
FDASTYLE1
 72
     5
 11
-201.4967050169767
 21
-2.146563235137773
 31
0.0
  0
ENDBLK
  5
90
  8
0
  0
BLOCK
  8
0
  2
DA_IMAGEDIMGROUP_22
 70
     0
 10
0.0
 20
0.0
 30
0.0
  3
DA_IMAGEDIMGROUP_22
  1

  0
LINE
  5
15A
  8
LAYER0014
  6
CONTINUOUS
 62
     7
 10
-187.6191658406186
 20
-14.489348449707
 30
0.0
 11
-187.6191658406186
 21
-30.92318344116208
 31
0.0
  0
LINE
  5
15B
  8
LAYER0014
  6
CONTINUOUS
 62
     7
 10
-187.6191658406186
 20
-28.63718414306638
 30
0.0
 11
-171.6192268757748
 21
-28.63718414306638
 31
0.0
  0
INSERT
  5
15C
  8
LAYER0014
 62
     7
  2
_OPEN30
 10
-187.6191658406186
 20
-28.63718414306638
 30
0.0
 41
1.999998407630662
 42
2.000005728319971
 50
180.0
  0
INSERT
  5
15D
  8
LAYER0014
 62
     7
  2
_OPEN30
 10
-171.6192268757748
 20
-28.63718414306638
 30
0.0
 41
1.999998407630662
 42
2.000005728319971
 50
360.0
  0
TEXT
  5
15E
  8
LAYER0014
 62
     7
 10
-182.8191963581967
 20
-27.03718414306638
 30
0.0
 40
4.0
  1
16
 41
0.7999999999999972
  7
FDASTYLE1
 72
     5
 11
-176.4191963581967
 21
-27.03718414306638
 31
0.0
  0
ENDBLK
  5
93
  8
0
  0
BLOCK
  8
0
  2
DA_IMAGEDIMGROUP_23
 70
     0
 10
0.0
 20
0.0
 30
0.0
  3
DA_IMAGEDIMGROUP_23
  1

  0
LINE
  5
15F
  8
LAYER0014
  6
CONTINUOUS
 62
     7
 10
-171.6192268757748
 20
-49.5893469238281
 30
0.0
 11
-171.6192268757748
 21
-75.0493469238281
 31
0.0
  0
LINE
  5
160
  8
LAYER0014
  6
CONTINUOUS
 62
     7
 10
-155.6192268757748
 20
3.628147087097196
 30
0.0
 11
-155.6192268757748
 21
-75.0493469238281
 31
0.0
  0
LINE
  5
161
  8
LAYER0014
  6
CONTINUOUS
 62
     7
 10
-171.6192268757748
 20
-74.0493469238281
 30
0.0
 11
-155.6192268757748
 21
-74.0493469238281
 31
0.0
  0
INSERT
  5
162
  8
LAYER0014
 62
     7
  2
_OPEN30
 10
-171.6192268757748
 20
-74.0493469238281
 30
0.0
 41
1.999998407630662
 42
2.000005728319971
 50
180.0
  0
INSERT
  5
163
  8
LAYER0014
 62
     7
  2
_OPEN30
 10
-155.6192268757748
 20
-74.0493469238281
 30
0.0
 41
1.999998407630662
 42
2.000005728319971
 50
360.0
  0
TEXT
  5
164
  8
LAYER0014
 62
     7
 10
-166.8192268757748
 20
-72.4493469238281
 30
0.0
 40
4.0
  1
16
 41
0.7999999999999972
  7
FDASTYLE1
 72
     5
 11
-160.4192268757748
 21
-72.4493469238281
 31
0.0
  0
ENDBLK
  5
96
  8
0
  0
BLOCK
  8
0
  2
DC_GROUP_3
 70
     0
 10
0.0
 20
0.0
 30
0.0
  3
DC_GROUP_3
  1

  0
LINE
  5
165
  8
0
  6
CONTINUOUS
 62
     7
 10
138.4686889265436
 20
-3.269063294835377
 30
0.0
 11
177.7403919118888
 21
-98.75876134865936
 31
0.0
  0
INSERT
  5
166
  8
0
 62
     7
  2
_OPEN30
 10
138.4686889265436
 20
-3.269063294835377
 30
0.0
 41
1.999998407630662
 42
2.000005728319971
 50
112.3557182674354
  0
LINE
  5
167
  8
0
  6
CONTINUOUS
 62
     7
 10
177.7403869628906
 20
-98.75875854492185
 30
0.0
 11
222.6292572021484
 21
-98.75875854492185
 31
0.0
  0
TEXT
  5
168
  8
0
 62
     7
 10
180.1149749755859
 20
-97.15875854492185
 30
0.0
 40
4.0
  1
3-M8×15 PCD90
 41
0.7878787878787879
  7
FDASTYLE1
 72
     5
 11
221.7149749755859
 21
-97.15875854492185
 31
0.0
  0
ENDBLK
  5
99
  8
0
  0
BLOCK
  8
0
  2
DA_IMAGEDIMGROUP_24
 70
     0
 10
0.0
 20
0.0
 30
0.0
  3
DA_IMAGEDIMGROUP_24
  1

  0
LINE
  5
169
  8
LAYER0014
  6
CONTINUOUS
 62
     7
 10
259.54
 20
45.45056152343753
 30
0.0
 11
262.4434356689453
 21
45.45056152343753
 31
0.0
  0
LINE
  5
16A
  8
LAYER0014
  6
CONTINUOUS
 62
     7
 10
186.8575062257734
 20
74.23597357332081
 30
0.0
 11
245.6372220062253
 21
108.1723835880064
 31
0.0
  0
ARC
  5
16B
  8
LAYER0014
  6
CONTINUOUS
 62
     7
 10
136.9999923706055
 20
45.4506530761719
 30
0.0
 40
123.1574554443359
 50
0.0
 51
29.99999741973147
  0
INSERT
  5
16C
  8
LAYER0014
 62
     7
  2
_OPEN30
 10
260.1574478149414
 20
45.4506530761719
 30
0.0
 41
1.999998407630662
 42
2.000005728319971
 50
270.4652235444216
  0
INSERT
  5
16D
  8
LAYER0014
 62
     7
  2
_OPEN30
 10
243.657480223998
 20
107.0293759951073
 30
0.0
 41
1.999998407630662
 42
2.000005728319971
 50
119.5347738753091
  0
TEXT
  5
16E
  8
LAYER0014
 62
     7
 10
256.2640874055704
 20
82.37669579577347
 30
0.0
 40
4.0
  1
30ﾟ
 50
-74.99999999999997
 41
0.8000000000000026
  7
FDASTYLE1
 72
     5
 11
258.7487502385546
 21
73.10380786339839
 31
0.0
  0
ENDBLK
  5
9C
  8
0
  0
BLOCK
  8
0
  2
DA_IMAGEDIMGROUP_25
 70
     0
 10
0.0
 20
0.0
 30
0.0
  3
DA_IMAGEDIMGROUP_25
  1

  0
LINE
  5
16F
  8
LAYER0014
  6
CONTINUOUS
 62
     7
 10
109.9999923706055
 20
53.43691162109378
 30
0.0
 11
109.9999923706055
 21
57.20858383178714
 31
0.0
  0
LINE
  5
170
  8
LAYER0014
  6
CONTINUOUS
 62
     7
 10
163.9999923706055
 20
54.06244567871097
 30
0.0
 11
163.9999923706055
 21
57.20858383178714
 31
0.0
  0
LINE
  5
171
  8
LAYER0014
  6
CONTINUOUS
 62
     7
 10
109.9999923706055
 20
56.20858383178714
 30
0.0
 11
163.9999923706055
 21
56.20858383178714
 31
0.0
  0
INSERT
  5
172
  8
LAYER0014
 62
     7
  2
_OPEN30
 10
109.9999923706055
 20
56.20858383178714
 30
0.0
 41
1.999998407630662
 42
2.000005728319971
 50
180.0
  0
INSERT
  5
173
  8
LAYER0014
 62
     7
  2
_OPEN30
 10
163.9999923706055
 20
56.20858383178714
 30
0.0
 41
1.999998407630662
 42
2.000005728319971
 50
360.0
  0
TEXT
  5
174
  8
LAYER0014
 62
     7
 10
120.9999923706055
 20
57.20858383178714
 30
0.0
 40
4.0
  1
φ5.3 PCD54
 41
0.7843137254901962
  7
FDASTYLE1
 72
     5
 11
152.9999923706055
 21
57.20858383178714
 31
0.0
  0
ENDBLK
  5
9F
  8
0
  0
BLOCK
  8
0
  2
DC_GROUP_4
 70
     0
 10
0.0
 20
0.0
 30
0.0
  3
DC_GROUP_4
  1

  0
LINE
  5
175
  8
LAYER0014
  6
CONTINUOUS
 62
     7
 10
155.2450717419911
 20
-12.3101335442029
 30
0.0
 11
183.6303614688941
 21
-77.68231800516921
 31
0.0
  0
INSERT
  5
176
  8
LAYER0014
 62
     7
  2
_OPEN30
 10
155.2450717419911
 20
-12.3101335442029
 30
0.0
 41
1.999998407630662
 42
2.000005728319971
 50
113.4709924586796
  0
LINE
  5
177
  8
LAYER0014
  6
CONTINUOUS
 62
     7
 10
183.6303558349609
 20
-77.68231964111325
 30
0.0
 11
214.5488739013672
 21
-77.68231964111325
 31
0.0
  0
TEXT
  5
178
  8
LAYER0014
 62
     7
 10
184.8345947265625
 20
-76.08231964111326
 30
0.0
 40
4.0
  1
PCD104.77
 41
0.8000000000000003
  7
FDASTYLE1
 72
     5
 11
213.6345947265625
 21
-76.08231964111326
 31
0.0
  0
ENDBLK
  5
A2
  8
0
  0
BLOCK
  8
0
  2
DA_IMAGEDIMGROUP_26
 70
     0
 10
0.0
 20
0.0
 30
0.0
  3
DA_IMAGEDIMGROUP_26
  1

  0
LINE
  5
179
  8
LAYER0014
  6
CONTINUOUS
 62
     7
 10
51.05874900478415
 20
-24.37479217912792
 30
0.0
 11
19.38757484687744
 21
-42.66015343293677
 31
0.0
  0
LINE
  5
17A
  8
LAYER0014
  6
CONTINUOUS
 62
     7
 10
33.5587694168825
 20
5.93613160809789
 30
0.0
 11
1.887600974762677
 21
-12.34922852548434
 31
0.0
  0
LINE
  5
17B
  8
LAYER0014
  6
CONTINUOUS
 62
     7
 10
21.36729667228508
 20
-41.51714964359005
 30
0.0
 11
3.867300814807706
 21
-11.20626642355165
 31
0.0
  0
INSERT
  5
17C
  8
LAYER0014
 62
     7
  2
_OPEN30
 10
21.36729667228508
 20
-41.51714964359005
 30
0.0
 41
1.999998407630662
 42
2.000005728319971
 50
299.9999989665127
  0
INSERT
  5
17D
  8
LAYER0014
 62
     7
  2
_OPEN30
 10
3.867300814807706
 20
-11.20626642355165
 30
0.0
 41
1.999998407630662
 42
2.000005728319971
 50
119.9999989665127
  0
TEXT
  5
17E
  8
LAYER0014
 62
     7
 10
12.4029444943217
 20
-22.7904435614054
 30
0.0
 40
4.0
  1
35
 50
-59.99999999999999
 41
0.7999999999999998
  7
FDASTYLE1
 72
     5
 11
15.6029444943217
 21
-28.3330061456258
 31
0.0
  0
ENDBLK
  5
A5
  8
0
  0
BLOCK
  8
0
  2
DA_IMAGEDIMGROUP_27
 70
     0
 10
0.0
 20
0.0
 30
0.0
  3
DA_IMAGEDIMGROUP_27
  1

  0
LINE
  5
17F
  8
LAYER0014
  6
CONTINUOUS
 62
     7
 10
38.80873309907389
 20
-3.157133613831645
 30
0.0
 11
19.52825510877588
 21
-14.28872230793277
 31
0.0
  0
LINE
  5
180
  8
LAYER0014
  6
CONTINUOUS
 62
     7
 10
45.80871664055511
 20
-15.28149941185181
 30
0.0
 11
26.52823865025709
 21
-26.41308810595294
 31
0.0
  0
LINE
  5
181
  8
LAYER0014
  6
CONTINUOUS
 62
     7
 10
21.50804152881372
 20
-13.14575347869587
 30
0.0
 11
28.50804075395325
 21
-25.27011057443852
 31
0.0
  0
INSERT
  5
182
  8
LAYER0014
 62
     7
  2
_OPEN30
 10
21.50804152881372
 20
-13.14575347869587
 30
0.0
 41
1.999998407630662
 42
2.000005728319971
 50
119.9999943014067
  0
INSERT
  5
183
  8
LAYER0014
 62
     7
  2
_OPEN30
 10
28.50804075395325
 20
-25.27011057443852
 30
0.0
 41
1.999998407630662
 42
2.000005728319971
 50
299.9999943014067
  0
TEXT
  5
184
  8
LAYER0014
 62
     7
 10
23.19366009338176
 20
-12.8653536755452
 30
0.0
 40
4.0
  1
14H8
 50
-59.99999999999999
 41
0.7999999999999997
  7
FDASTYLE1
 72
     5
 11
29.59366009338176
 21
-23.95047884398601
 31
0.0
  0
ENDBLK
  5
A8
  8
0
  0
BLOCK
  8
0
  2
DA_IMAGEDIMGROUP_28
 70
     0
 10
0.0
 20
0.0
 30
0.0
  3
DA_IMAGEDIMGROUP_28
  1

  0
LINE
  5
185
  8
LAYER0014
  6
CONTINUOUS
 62
     7
 10
88.96978676389726
 20
93.48090183944122
 30
0.0
 11
46.19104785325362
 21
136.2595217529775
 31
0.0
  0
LINE
  5
186
  8
LAYER0014
  6
CONTINUOUS
 62
     7
 10
55.65452835493764
 20
67.24706484361956
 30
0.0
 11
12.95269021264039
 21
78.68894563567622
 31
0.0
  0
ARC
  5
187
  8
LAYER0014
  6
CONTINUOUS
 62
     7
 10
136.9999923706055
 20
45.45062255859378
 30
0.0
 40
126.1372146606445
 50
135.0000276623794
 51
165.0000216670162
  0
INSERT
  5
188
  8
LAYER0014
 62
     7
  2
_OPEN30
 10
47.80746946199747
 20
134.6430593430149
 30
0.0
 41
1.999998407630662
 42
2.000005728319971
 50
45.45426115800573
  0
INSERT
  5
189
  8
LAYER0014
 62
     7
  2
_OPEN30
 10
15.16078672802317
 20
78.09728993414772
 30
0.0
 41
1.999998407630662
 42
2.000005728319971
 50
254.5457881713905
  0
TEXT
  5
18A
  8
LAYER0014
 62
     7
 10
23.97631556884968
 20
105.1622736184753
 30
0.0
 40
4.0
  1
30ﾟ
 50
59.99999999999999
 41
0.8000000000000012
  7
FDASTYLE1
 72
     5
 11
28.77631556884969
 21
113.476117494806
 31
0.0
  0
ENDBLK
  5
AB
  8
0
  0
BLOCK
  8
0
  2
DA_IMAGEDIMGROUP_29
 70
     0
 10
0.0
 20
0.0
 30
0.0
  3
DA_IMAGEDIMGROUP_29
  1

  0
LINE
  5
18B
  8
LAYER0014
  6
CONTINUOUS
 62
     7
 10
71.38948628494435
 20
63.03094665754153
 30
0.0
 11
12.95269487554799
 21
78.6889699195639
 31
0.0
  0
LINE
  5
18C
  8
LAYER0014
  6
CONTINUOUS
 62
     7
 10
14.46000150645643
 20
45.45069904038191
 30
0.0
 11
8.576806620987227
 21
45.45077564138576
 31
0.0
  0
ARC
  5
18D
  8
LAYER0014
  6
CONTINUOUS
 62
     7
 10
136.9999313354492
 20
45.4506530761719
 30
0.0
 40
126.1371383666992
 50
165.0000216670162
 51
179.9999640278213
  0
INSERT
  5
18E
  8
LAYER0014
 62
     7
  2
_OPEN30
 10
15.16079938716655
 20
78.09730070542764
 30
0.0
 41
1.999998407630662
 42
2.000005728319971
 50
75.45425543738476
  0
INSERT
  5
18F
  8
LAYER0014
 62
     7
  2
_OPEN30
 10
10.86279296877486
 20
45.45073226922451
 30
0.0
 41
1.999998407630662
 42
2.000005728319971
 50
269.5457302574527
  0
TEXT
  5
190
  8
LAYER0014
 62
     7
 10
9.721143789145573
 20
57.3686621058134
 30
0.0
 40
4.0
  1
15ﾟ
 50
82.40000000000002
 41
0.7999999999999997
  7
FDASTYLE1
 72
     5
 11
10.99080513561395
 21
66.8843312922282
 31
0.0
  0
ENDBLK
  5
AE
  8
0
  0
BLOCK
  8
0
  2
DA_IMAGEDIMGROUP_30
 70
     0
 10
0.0
 20
0.0
 30
0.0
  3
DA_IMAGEDIMGROUP_30
  1

  0
LINE
  5
191
  8
LAYER0014
  6
CONTINUOUS
 62
     7
 10
-175.1591963581967
 20
152.9506530761719
 30
0.0
 11
-262.8399300007748
 21
152.9506530761719
 31
0.0
  0
LINE
  5
192
  8
LAYER0014
  6
CONTINUOUS
 62
     7
 10
-175.1591963581967
 20
-62.0493469238281
 30
0.0
 11
-262.8399300007748
 21
-62.0493469238281
 31
0.0
  0
LINE
  5
193
  8
LAYER0014
  6
CONTINUOUS
 62
     7
 10
-260.5539192585873
 20
152.9506378173828
 30
0.0
 11
-260.5539192585873
 21
-62.04935455322263
 31
0.0
  0
INSERT
  5
194
  8
LAYER0014
 62
     7
  2
_OPEN30
 10
-260.5539192585873
 20
152.9506378173828
 30
0.0
 41
1.999998407630662
 42
2.000005728319971
 50
90.0
  0
INSERT
  5
195
  8
LAYER0014
 62
     7
  2
_OPEN30
 10
-260.5539192585873
 20
-62.04935455322263
 30
0.0
 41
1.999998407630662
 42
2.000005728319971
 50
270.0
  0
TEXT
  5
196
  8
LAYER0014
 62
     7
 10
-261.5650893601291
 20
39.05065137983509
 30
0.0
 40
4.0
  1
φ215
 50
89.90000000000001
 41
0.7619047619047609
  7
FDASTYLE1
 72
     5
 11
-261.5427491570456
 21
51.85063188432515
 31
0.0
  0
ENDBLK
  5
B1
  8
0
  0
BLOCK
  8
0
  2
DA_IMAGEDIMGROUP_31
 70
     0
 10
0.0
 20
0.0
 30
0.0
  3
DA_IMAGEDIMGROUP_31
  1

  0
LINE
  5
197
  8
0
  6
CONTINUOUS
 62
     9
 10
-76.61920398759123
 20
87.75067138671878
 30
0.0
 11
-36.58600056156884
 21
87.75065612792972
 31
0.0
  0
LINE
  5
198
  8
0
  6
CONTINUOUS
 62
     9
 10
-54.83004028274802
 20
102.2506713867188
 30
0.0
 11
-36.58600056156884
 21
102.2506713867188
 31
0.0
  0
LINE
  5
199
  8
0
  6
CONTINUOUS
 62
     9
 10
-37.58600056156884
 20
87.75065612792972
 30
0.0
 11
-37.58600056156884
 21
102.2506713867188
 31
0.0
  0
INSERT
  5
19A
  8
0
 62
     9
  2
_OPEN30
 10
-37.58600056156884
 20
87.75065612792972
 30
0.0
 41
1.999998407630662
 42
2.000005728319971
 50
270.0
  0
INSERT
  5
19B
  8
0
 62
     9
  2
_OPEN30
 10
-37.58600056156884
 20
102.2506713867188
 30
0.0
 41
1.999998407630662
 42
2.000005728319971
 50
90.0
  0
TEXT
  5
19C
  8
0
 62
     7
 10
-38.58600056156884
 20
91.80066375732424
 30
0.0
 40
4.0
  1
10
 50
90.0
 41
0.8000000000000007
  7
FDASTYLE1
 72
     5
 11
-38.58600056156884
 21
98.20066375732425
 31
0.0
  0
ENDBLK
  5
B4
  8
0
  0
BLOCK
  8
0
  2
DA_IMAGEDIMGROUP_32
 70
     0
 10
0.0
 20
0.0
 30
0.0
  3
DA_IMAGEDIMGROUP_32
  1

  0
LINE
  5
19D
  8
0
  6
CONTINUOUS
 62
     9
 10
97.00001821576237
 20
132.8773651123047
 30
0.0
 11
97.00001821576237
 21
161.3953488372094
 31
0.0
  0
LINE
  5
19E
  8
0
  6
CONTINUOUS
 62
     9
 10
97.00001821576237
 20
160.3953488372094
 30
0.0
 11
136.9999923706055
 21
160.3953488372094
 31
0.0
  0
INSERT
  5
19F
  8
0
 62
     9
  2
_OPEN30
 10
97.00001821576237
 20
160.3953488372094
 30
0.0
 41
1.999998407630662
 42
2.000005728319971
 50
180.0
  0
INSERT
  5
1A0
  8
0
 62
     9
  2
_OPEN30
 10
136.9999923706055
 20
160.3953488372094
 30
0.0
 41
1.999998407630662
 42
2.000005728319971
 50
360.0
  0
TEXT
  5
1A1
  8
0
 62
     7
 10
113.8000052931839
 20
161.3953488372094
 30
0.0
 40
4.0
  1
40
 41
0.8000000000000007
  7
FDASTYLE1
 72
     5
 11
120.2000052931839
 21
161.3953488372094
 31
0.0
  0
ENDBLK
  5
B7
  8
0
  0
BLOCK
  8
0
  2
DA_IMAGEDIMGROUP_33
 70
     0
 10
0.0
 20
0.0
 30
0.0
  3
DA_IMAGEDIMGROUP_33
  1

  0
LINE
  5
1A2
  8
0
  6
CONTINUOUS
 62
     9
 10
7.576806620987227
 20
45.45077564138576
 30
0.0
 11
0.6770025839791698
 21
45.45077564138576
 31
0.0
  0
LINE
  5
1A3
  8
0
  6
CONTINUOUS
 62
     9
 10
62.79216194152832
 20
119.9506530761719
 30
0.0
 11
0.6770025839791698
 21
119.9506530761719
 31
0.0
  0
LINE
  5
1A4
  8
0
  6
CONTINUOUS
 62
     9
 10
1.67700258397917
 20
45.45077564138576
 30
0.0
 11
1.67700258397917
 21
119.9506530761719
 31
0.0
  0
INSERT
  5
1A5
  8
0
 62
     9
  2
_OPEN30
 10
1.67700258397917
 20
45.45077564138576
 30
0.0
 41
1.999998407630662
 42
2.000005728319971
 50
270.0
  0
INSERT
  5
1A6
  8
0
 62
     9
  2
_OPEN30
 10
1.67700258397917
 20
119.9506530761719
 30
0.0
 41
1.999998407630662
 42
2.000005728319971
 50
90.0
  0
TEXT
  5
1A7
  8
0
 62
     7
 10
0.6770025839791702
 20
76.30071435877883
 30
0.0
 40
4.0
  1
74.5
 50
90.0
 41
0.8000000000000007
  7
FDASTYLE1
 72
     5
 11
0.6770025839791702
 21
89.10071435877885
 31
0.0
  0
ENDBLK
  5
BA
  8
0
  0
BLOCK
  8
0
  2
DA_IMAGEDIMGROUP_34
 70
     0
 10
0.0
 20
0.0
 30
0.0
  3
DA_IMAGEDIMGROUP_34
  1

  0
LINE
  5
1A8
  8
LAYER0014
  6
CONTINUOUS
 62
     7
 10
48.42302333748101
 20
-62.26952178208015
 30
0.0
 11
59.29716392890101
 21
-55.9913336717356
 31
0.0
  0
LINE
  5
1A9
  8
LAYER0014
  6
CONTINUOUS
 62
     7
 10
39.42302333748101
 20
-46.68106479374549
 30
0.0
 11
50.29716392890101
 21
-40.40287668340095
 31
0.0
  0
LINE
  5
1AA
  8
LAYER0014
  6
CONTINUOUS
 62
     7
 10
58.4311385406602
 20
-56.4913336717356
 30
0.0
 11
49.4311385406602
 21
-40.90287668340095
 31
0.0
  0
INSERT
  5
1AB
  8
LAYER0014
 62
     7
  2
_OPEN30
 10
58.4311385406602
 20
-56.4913336717356
 30
0.0
 41
1.999998407630662
 42
2.000005728319971
 50
300.0000004452921
  0
INSERT
  5
1AC
  8
LAYER0014
 62
     7
  2
_OPEN30
 10
49.4311385406602
 20
-40.90287668340095
 30
0.0
 41
1.999998407630662
 42
2.000005728319971
 50
120.0000004452921
  0
TEXT
  5
1AD
  8
LAYER0014
 62
     7
 10
53.14528139655265
 20
-44.13596023106064
 30
0.0
 40
4.0
  1
φ18
 50
-59.99999999999999
 41
0.7500000000000009
  7
FDASTYLE1
 72
     5
 11
57.94528139655265
 21
-52.44980410739126
 31
0.0
  0
ENDBLK
  5
BD
  8
0
  0
BLOCK
  8
0
  2
DC_GROUP_5
 70
     0
 10
0.0
 20
0.0
 30
0.0
  3
DC_GROUP_5
  1

  0
LINE
  5
1AE
  8
LAYER0014
  6
CONTINUOUS
 62
     7
 10
37.90628665114224
 20
-60.07764493571493
 30
0.0
 11
49.48441266588594
 21
-80.14639724699872
 31
0.0
  0
LINE
  5
1AF
  8
LAYER0014
  6
CONTINUOUS
 62
     7
 10
49.48441300413009
 20
-80.1463959851905
 30
0.0
 11
79.88741288205978
 21
-80.1463959851905
 31
0.0
  0
TEXT
  5
1B0
  8
LAYER0014
 62
     7
 10
55.65941224119064
 20
-78.5463959851905
 30
0.0
 40
4.0
  1
A-PT1/8
 41
0.8000000000000002
  7
FDASTYLE1
 72
     5
 11
78.05941224119064
 21
-78.5463959851905
 31
0.0
  0
ENDBLK
  5
C0
  8
0
  0
BLOCK
  8
0
  2
DA_IMAGEDIMGROUP_35
 70
     0
 10
0.0
 20
0.0
 30
0.0
  3
DA_IMAGEDIMGROUP_35
  1

  0
LINE
  5
1B1
  8
0
  6
CONTINUOUS
 62
     9
 10
-172.6192268757748
 20
-63.04935455322263
 30
0.0
 11
-172.6192268757748
 21
-105.0493469238281
 31
0.0
  0
LINE
  5
1B2
  8
0
  6
CONTINUOUS
 62
     9
 10
-171.6191963581967
 20
-48.0493469238281
 30
0.0
 11
-171.6191963581967
 21
-105.0493469238281
 31
0.0
  0
LINE
  5
1B3
  8
0
  6
CONTINUOUS
 62
     9
 10
-172.6192268757748
 20
-104.0493469238281
 30
0.0
 11
-171.6191963581967
 21
-104.0493469238281
 31
0.0
  0
LINE
  5
1B4
  8
0
  6
CONTINUOUS
 62
     9
 10
-76.61920025880086
 20
-61.04937447456936
 30
0.0
 11
-76.61920025880086
 21
-105.0493469238281
 31
0.0
  0
LINE
  5
1B5
  8
0
  6
CONTINUOUS
 62
     9
 10
-179.7510768757748
 20
-104.0493469238281
 30
0.0
 11
-172.6192268757748
 21
-104.0493469238281
 31
0.0
  0
INSERT
  5
1B6
  8
0
 62
     9
  2
_OPEN30
 10
-172.6192268757748
 20
-104.0493469238281
 30
0.0
 41
1.999998407630662
 42
2.000005728319971
 50
360.0
  0
LINE
  5
1B7
  8
0
  6
CONTINUOUS
 62
     9
 10
-171.6191963581967
 20
-104.0493469238281
 30
0.0
 11
-76.61920025880086
 21
-104.0493469238281
 31
0.0
  0
INSERT
  5
1B8
  8
0
 62
     9
  2
_OPEN30
 10
-171.6191963581967
 20
-104.0493469238281
 30
0.0
 41
1.999998407630662
 42
2.000005728319971
 50
180.0
  0
INSERT
  5
1B9
  8
0
 62
     9
  2
_OPEN30
 10
-76.61920025880086
 20
-104.0493469238281
 30
0.0
 41
1.999998407630662
 42
2.000005728319971
 50
360.0
  0
TEXT
  5
1BA
  8
0
 62
     7
 10
-178.7510768757748
 20
-103.0493469238281
 30
0.0
 40
4.0
  1
1
 41
0.7999999999999972
  7
FDASTYLE1
 72
     5
 11
-175.5510768757748
 21
-103.0493469238281
 31
0.0
  0
TEXT
  5
1BB
  8
0
 62
     7
 10
-127.3191983084988
 20
-103.0493469238281
 30
0.0
 40
4.0
  1
95
 41
0.8000000000000007
  7
FDASTYLE1
 72
     5
 11
-120.9191983084988
 21
-103.0493469238281
 31
0.0
  0
ENDBLK
  5
C3
  8
0
  0
BLOCK
  8
0
  2
DA_IMAGEDIMGROUP_36
 70
     0
 10
0.0
 20
0.0
 30
0.0
  3
DA_IMAGEDIMGROUP_36
  1

  0
LINE
  5
1BC
  8
0
  6
CONTINUOUS
 62
     9
 10
-116.6191658406186
 20
-68.35663604736325
 30
0.0
 11
-116.6191658406186
 21
-84.88327830124894
 31
0.0
  0
LINE
  5
1BD
  8
0
  6
CONTINUOUS
 62
     9
 10
-171.6191963581967
 20
-48.0493469238281
 30
0.0
 11
-171.6191963581967
 21
-84.88327830124894
 31
0.0
  0
LINE
  5
1BE
  8
0
  6
CONTINUOUS
 62
     9
 10
-171.6191963581967
 20
-83.88327830124894
 30
0.0
 11
-116.6191658406186
 21
-83.88327830124894
 31
0.0
  0
INSERT
  5
1BF
  8
0
 62
     9
  2
_OPEN30
 10
-171.6191963581967
 20
-83.88327830124894
 30
0.0
 41
1.999998407630662
 42
2.000005728319971
 50
180.0
  0
INSERT
  5
1C0
  8
0
 62
     9
  2
_OPEN30
 10
-116.6191658406186
 20
-83.88327830124894
 30
0.0
 41
1.999998407630662
 42
2.000005728319971
 50
360.0
  0
TEXT
  5
1C1
  8
0
 62
     7
 10
-147.3191810994076
 20
-82.88327830124894
 30
0.0
 40
4.0
  1
55
 41
0.7999999999999972
  7
FDASTYLE1
 72
     5
 11
-140.9191810994076
 21
-82.88327830124894
 31
0.0
  0
ENDBLK
  5
C6
  8
0
  0
BLOCK
  8
0
  2
DC_GROUP_6
 70
     0
 10
0.0
 20
0.0
 30
0.0
  3
DC_GROUP_6
  1

  0
LINE
  5
1C2
  8
0
  6
CONTINUOUS
 62
     7
 10
-116.6191658406186
 20
-62.12576846436063
 30
0.0
 11
-105.0617961276919
 21
-76.37729553937676
 31
0.0
  0
INSERT
  5
1C3
  8
0
 62
     7
  2
_OPEN30
 10
-116.6191658406186
 20
-62.12576846436063
 30
0.0
 41
1.999998407630662
 42
2.000005728319971
 50
129.0405518266132
  0
LINE
  5
1C4
  8
0
  6
CONTINUOUS
 62
     7
 10
-105.0617961276919
 20
-76.37729553937676
 30
0.0
 11
-89.06179612769188
 21
-76.37729553937676
 31
0.0
  0
TEXT
  5
1C5
  8
0
 62
     7
 10
-105.0617961276919
 20
-76.37729553937676
 30
0.0
 40
4.0
  1
M8×16
 41
0.7692307692307692
  7
FDASTYLE1
 72
     5
 11
-89.06179612769188
 21
-76.37729553937676
 31
0.0
  0
ENDBLK
  5
C9
  8
0
  0
BLOCK
  8
0
  2
_OPEN30
 70
     0
 10
0.0
 20
0.0
 30
0.0
  3
_OPEN30
  1

  0
LINE
  5
D0
  8
0
  6
BYBLOCK
 62
     0
 10
-1.0
 20
0.267949
 30
0.0
 11
0.0
 21
0.0
 31
0.0
  0
LINE
  5
D1
  8
0
  6
BYBLOCK
 62
     0
 10
0.0
 20
0.0
 30
0.0
 11
-1.0
 21
-0.267949
 31
0.0
  0
LINE
  5
D2
  8
0
  6
BYBLOCK
 62
     0
 10
0.0
 20
0.0
 30
0.0
 11
-1.0
 21
0.0
 31
0.0
  0
ENDBLK
  5
CF
  8
0
  0
ENDSEC
  0
SECTION
  2
ENTITIES
  0
LINE
  5
1C6
  8
ZUWAKU
  6
CONTINUOUS
 62
     3
 10
-277.0
 20
-190.0
 30
0.0
 11
-277.0
 21
190.0
 31
0.0
  0
LINE
  5
1C7
  8
ZUWAKU
  6
CONTINUOUS
 62
     3
 10
277.0
 20
-190.0
 30
0.0
 11
277.0
 21
190.0
 31
0.0
  0
LINE
  5
1C8
  8
ZUWAKU
  6
CONTINUOUS
 62
     3
 10
-277.0
 20
-190.0
 30
0.0
 11
277.0
 21
-190.0
 31
0.0
  0
LINE
  5
1C9
  8
ZUWAKU
  6
CONTINUOUS
 62
     3
 10
-277.0
 20
189.9999999999999
 30
0.0
 11
277.0
 21
189.9999999999999
 31
0.0
  0
LINE
  5
1CA
  8
ZUWAKU
  6
CONTINUOUS
 62
     3
 10
97.00000000000001
 20
-190.0
 30
0.0
 11
97.00000000000001
 21
-130.0
 31
0.0
  0
LINE
  5
1CB
  8
ZUWAKU
  6
CONTINUOUS
 62
     3
 10
97.00000000000001
 20
-176.0
 30
0.0
 11
277.0
 21
-176.0
 31
0.0
  0
LINE
  5
1CC
  8
ZUWAKU
  6
CONTINUOUS
 62
     3
 10
146.0
 20
-162.0
 30
0.0
 11
277.0
 21
-162.0
 31
0.0
  0
LINE
  5
1CD
  8
ZUWAKU
  6
CONTINUOUS
 62
     3
 10
146.0
 20
-148.0
 30
0.0
 11
277.0
 21
-148.0
 31
0.0
  0
LINE
  5
1CE
  8
ZUWAKU
  6
CONTINUOUS
 62
     3
 10
146.0
 20
-138.0
 30
0.0
 11
277.0
 21
-138.0
 31
0.0
  0
LINE
  5
1CF
  8
ZUWAKU
  6
CONTINUOUS
 62
     3
 10
146.0
 20
-176.0
 30
0.0
 11
146.0
 21
-130.0
 31
0.0
  0
LINE
  5
1D0
  8
ZUWAKU
  6
CONTINUOUS
 62
     3
 10
255.0
 20
-176.0
 30
0.0
 11
255.0
 21
-130.0
 31
0.0
  0
LINE
  5
1D1
  8
ZUWAKU
  6
CONTINUOUS
 62
     3
 10
171.0
 20
-190.0
 30
0.0
 11
171.0
 21
-176.0
 31
0.0
  0
LINE
  5
1D2
  8
ZUWAKU
  6
CONTINUOUS
 62
     3
 10
262.0
 20
-188.0
 30
0.0
 11
272.0
 21
-188.0
 31
0.0
  0
LINE
  5
1D3
  8
ZUWAKU
  6
CONTINUOUS
 62
     3
 10
267.0
 20
-178.0
 30
0.0
 11
262.0
 21
-188.0
 31
0.0
  0
LINE
  5
1D4
  8
ZUWAKU
  6
CONTINUOUS
 62
     3
 10
267.0
 20
-178.0
 30
0.0
 11
272.0
 21
-188.0
 31
0.0
  0
LINE
  5
1D5
  8
ZUWAKU
  6
CONTINUOUS
 62
     3
 10
97.00000000000001
 20
-130.0
 30
0.0
 11
277.0
 21
-130.0
 31
0.0
  0
LINE
  5
1D6
  8
ZUWAKU
  6
CONTINUOUS
 62
     3
 10
226.0
 20
-176.0
 30
0.0
 11
226.0
 21
-148.0
 31
0.0
  0
LINE
  5
1D7
  8
ZUWAKU
  6
CONTINUOUS
 62
     4
 10
105.0
 20
-172.0
 30
0.0
 11
105.0
 21
-130.0
 31
0.0
  0
LINE
  5
1D8
  8
ZUWAKU
  6
CONTINUOUS
 62
     4
 10
109.0
 20
-172.0
 30
0.0
 11
109.0
 21
-130.0
 31
0.0
  0
LINE
  5
1D9
  8
ZUWAKU
  6
CONTINUOUS
 62
     4
 10
121.5
 20
-176.0
 30
0.0
 11
121.5
 21
-130.0
 31
0.0
  0
LINE
  5
1DA
  8
ZUWAKU
  6
CONTINUOUS
 62
     4
 10
97.00000000000001
 20
-137.0
 30
0.0
 11
146.0
 21
-137.0
 31
0.0
  0
LINE
  5
1DB
  8
ZUWAKU
  6
CONTINUOUS
 62
     4
 10
97.00000000000001
 20
-144.0
 30
0.0
 11
146.0
 21
-144.0
 31
0.0
  0
LINE
  5
1DC
  8
ZUWAKU
  6
CONTINUOUS
 62
     4
 10
97.00000000000001
 20
-165.0
 30
0.0
 11
146.0
 21
-165.0
 31
0.0
  0
LINE
  5
1DD
  8
ZUWAKU
  6
CONTINUOUS
 62
     4
 10
97.00000000000001
 20
-172.0
 30
0.0
 11
146.0
 21
-172.0
 31
0.0
  0
LINE
  5
1DE
  8
ZUWAKU
  6
CONTINUOUS
 62
     4
 10
255.0
 20
-166.0
 30
0.0
 11
277.0
 21
-166.0
 31
0.0
  0
LINE
  5
1DF
  8
ZUWAKU
  6
CONTINUOUS
 62
     4
 10
202.0
 20
-148.0
 30
0.0
 11
202.0
 21
-146.5
 31
0.0
  0
LINE
  5
1E0
  8
ZUWAKU
  6
CONTINUOUS
 62
     4
 10
226.0
 20
-148.0
 30
0.0
 11
226.0
 21
-146.5
 31
0.0
  0
LINE
  5
1E1
  8
ZUWAKU
  6
CONTINUOUS
 62
     4
 10
243.0
 20
-148.0
 30
0.0
 11
243.0
 21
-146.5
 31
0.0
  0
LINE
  5
1E2
  8
ZUWAKU
  6
CONTINUOUS
 62
     4
 10
97.00000000000001
 20
-151.0
 30
0.0
 11
146.0
 21
-151.0
 31
0.0
  0
LINE
  5
1E3
  8
ZUWAKU
  6
CONTINUOUS
 62
     4
 10
97.00000000000001
 20
-158.0
 30
0.0
 11
146.0
 21
-158.0
 31
0.0
  0
LINE
  5
1E4
  8
ZUWAKU
  6
CONTINUOUS
 62
     4
 10
101.0
 20
-130.5
 30
0.0
 11
98.00000000000001
 21
-136.5
 31
0.0
  0
LINE
  5
1E5
  8
ZUWAKU
  6
CONTINUOUS
 62
     4
 10
101.0
 20
-130.5
 30
0.0
 11
104.0
 21
-136.5
 31
0.0
  0
LINE
  5
1E6
  8
ZUWAKU
  6
CONTINUOUS
 62
     4
 10
98.00000000000001
 20
-136.5
 30
0.0
 11
104.0
 21
-136.5
 31
0.0
  0
LINE
  5
1E7
  8
ZUWAKU
  6
CONTINUOUS
 62
     4
 10
101.0
 20
-158.5
 30
0.0
 11
98.00000000000001
 21
-164.5
 31
0.0
  0
LINE
  5
1E8
  8
ZUWAKU
  6
CONTINUOUS
 62
     4
 10
101.0
 20
-158.5
 30
0.0
 11
104.0
 21
-164.5
 31
0.0
  0
LINE
  5
1E9
  8
ZUWAKU
  6
CONTINUOUS
 62
     4
 10
98.00000000000001
 20
-164.5
 30
0.0
 11
104.0
 21
-164.5
 31
0.0
  0
LINE
  5
1EA
  8
ZUWAKU
  6
CONTINUOUS
 62
     4
 10
101.0
 20
-151.5
 30
0.0
 11
98.00000000000001
 21
-157.5
 31
0.0
  0
LINE
  5
1EB
  8
ZUWAKU
  6
CONTINUOUS
 62
     4
 10
101.0
 20
-151.5
 30
0.0
 11
104.0
 21
-157.5
 31
0.0
  0
LINE
  5
1EC
  8
ZUWAKU
  6
CONTINUOUS
 62
     4
 10
98.00000000000001
 20
-157.5
 30
0.0
 11
104.0
 21
-157.5
 31
0.0
  0
LINE
  5
1ED
  8
ZUWAKU
  6
CONTINUOUS
 62
     4
 10
101.0
 20
-144.5
 30
0.0
 11
98.00000000000001
 21
-150.5
 31
0.0
  0
LINE
  5
1EE
  8
ZUWAKU
  6
CONTINUOUS
 62
     4
 10
101.0
 20
-144.5
 30
0.0
 11
104.0
 21
-150.5
 31
0.0
  0
LINE
  5
1EF
  8
ZUWAKU
  6
CONTINUOUS
 62
     4
 10
98.00000000000001
 20
-150.5
 30
0.0
 11
104.0
 21
-150.5
 31
0.0
  0
LINE
  5
1F0
  8
ZUWAKU
  6
CONTINUOUS
 62
     4
 10
101.0
 20
-137.5
 30
0.0
 11
98.00000000000001
 21
-143.5
 31
0.0
  0
LINE
  5
1F1
  8
ZUWAKU
  6
CONTINUOUS
 62
     4
 10
101.0
 20
-137.5
 30
0.0
 11
104.0
 21
-143.5
 31
0.0
  0
LINE
  5
1F2
  8
ZUWAKU
  6
CONTINUOUS
 62
     4
 10
98.00000000000001
 20
-143.5
 30
0.0
 11
104.0
 21
-143.5
 31
0.0
  0
LINE
  5
1F3
  8
ZUWAKU
  6
CONTINUOUS
 62
     4
 10
172.6666666666666
 20
-176.0
 30
0.0
 11
172.6666666666666
 21
-162.0
 31
0.0
  0
LINE
  5
1F4
  8
ZUWAKU
  6
CONTINUOUS
 62
     4
 10
199.3333333333333
 20
-176.0
 30
0.0
 11
199.3333333333333
 21
-161.9509415757253
 31
0.0
  0
LINE
  5
1F5
  8
ZUWAKU
  6
CONTINUOUS
 62
     4
 10
212.6666666666666
 20
-167.5
 30
0.0
 11
212.6666666666666
 21
-161.9509415757253
 31
0.0
  0
LINE
  5
1F6
  8
ZUWAKU
  6
CONTINUOUS
 62
     4
 10
226.0
 20
-155.0
 30
0.0
 11
255.0
 21
-155.0
 31
0.0
  0
LINE
  5
1F7
  8
ZUWAKU
  6
CONTINUOUS
 62
     4
 10
146.0
 20
-166.0
 30
0.0
 11
226.0
 21
-166.0
 31
0.0
  0
LINE
  5
1F8
  8
ZUWAKU
  6
CONTINUOUS
 62
     4
 10
153.0
 20
-139.5
 30
0.0
 11
153.0
 21
-130.0
 31
0.0
  0
LINE
  5
1F9
  8
ZUWAKU
  6
CONTINUOUS
 62
     4
 10
202.0
 20
-139.5
 30
0.0
 11
202.0
 21
-130.0
 31
0.0
  0
LINE
  5
1FA
  8
ZUWAKU
  6
CONTINUOUS
 62
     4
 10
226.0
 20
-139.5
 30
0.0
 11
226.0
 21
-130.0
 31
0.0
  0
LINE
  5
1FB
  8
ZUWAKU
  6
CONTINUOUS
 62
     4
 10
243.0
 20
-139.5
 30
0.0
 11
243.0
 21
-130.0
 31
0.0
  0
TEXT
  5
1FD
  8
ZUWAKU
 62
     7
 10
148.3132301474747
 20
-130.821188728956
 30
0.0
 40
2.6656
  1
符号
 41
0.8
  7
FDASTYLE0
  0
TEXT
  5
1FE
  8
ZUWAKU
 62
     7
 10
162.4141311219058
 20
-135.8245525019963
 30
0.0
 40
4.0
  1
品       名
 41
0.765957446808511
  7
FDASTYLE1
 72
     5
 11
191.2141311219058
 21
-135.8245525019963
 31
0.0
  0
TEXT
  5
1FF
  8
ZUWAKU
 62
     7
 10
207.2331564413096
 20
-135.8245525019963
 30
0.0
 40
4.0
  1
材  料
 41
0.7272727272727279
  7
FDASTYLE1
 72
     5
 11
220.0331564413096
 21
-135.8245525019963
 31
0.0
  0
TEXT
  5
200
  8
ZUWAKU
 62
     7
 10
229.516061684855
 20
-135.8245525019963
 30
0.0
 40
4.0
  1
個 数
 41
0.7058823529411761
  7
FDASTYLE1
 72
     5
 11
239.116061684855
 21
-135.8245525019963
 31
0.0
  0
TEXT
  5
201
  8
ZUWAKU
 62
     7
 10
245.721810952888
 20
-133.5649080050572
 30
0.0
 40
2.5
  1
単重量
 41
0.6666666666666666
  7
FDASTYLE1
 72
     5
 11
251.721810952888
 21
-133.5649080050572
 31
0.0
  0
TEXT
  5
202
  8
ZUWAKU
 62
     7
 10
244.7089516236359
 20
-137.3631304897525
 30
0.0
 40
2.5
  1
(kg)
 41
0.8
  7
FDASTYLE1
 72
     5
 11
252.7089516236359
 21
-137.3631304897525
 31
0.0
  0
TEXT
  5
203
  8
ZUWAKU
 62
     7
 10
259.1421970654778
 20
-135.8245525019963
 30
0.0
 40
4.0
  1
記  事
 41
0.7272727272727279
  7
FDASTYLE1
 72
     5
 11
271.9421970654778
 21
-135.8245525019963
 31
0.0
  0
TEXT
  5
204
  8
ZUWAKU
 62
     7
 10
258.8450794551645
 20
-165.4873041997729
 30
0.0
 40
3.0
  1
コード番号
 41
0.6666666666666666
  7
FDASTYLE1
 72
     5
 11
270.8450794551645
 21
-165.4873041997729
 31
0.0
  0
TEXT
  5
205
  8
ZUWAKU
 62
     7
 10
101.9119920158317
 20
-175.1879010540338
 30
0.0
 40
2.5
  1
訂 正 来 歴
 41
0.717948717948718
  7
FDASTYLE1
 72
     5
 11
115.9119920158317
 21
-175.1879010540338
 31
0.0
  0
TEXT
  5
206
  8
ZUWAKU
 62
     7
 10
125.890334846765
 20
-175.2166697391651
 30
0.0
 40
2.5
  1
工 事 番 号
 41
0.717948717948718
  7
FDASTYLE1
 72
     5
 11
139.890334846765
 21
-175.2166697391651
 31
0.0
  0
TEXT
  5
207
  8
ZUWAKU
 62
     7
 10
99.96483784660289
 20
-165.9634530565915
 30
0.0
 40
2.0825
  1
記号
 41
0.8
  7
FDASTYLE0
  0
TEXT
  5
208
  8
ZUWAKU
 62
     7
 10
105.9042249067618
 20
-165.9634530565915
 30
0.0
 40
2.0825
  1
理由
 41
0.8
  7
FDASTYLE0
  0
TEXT
  5
209
  8
ZUWAKU
 62
     7
 10
111.6193667909843
 20
-169.8786046700178
 30
0.0
 40
3.0
  1
日 付
 41
0.7058823529411754
  7
FDASTYLE1
 72
     5
 11
118.8193667909843
 21
-169.8786046700178
 31
0.0
  0
TEXT
  5
20A
  8
ZUWAKU
 62
     7
 10
256.5474439108642
 20
-142.8525309070082
 30
0.0
 40
3.5
  1
標　準
 41
0.5833333333333352
  7
FDASTYLE1
 72
     5
 11
263.8974439108642
 21
-142.8525309070082
 31
0.0
  0
TEXT
  5
20B
  8
ZUWAKU
 62
     7
 10
153.4481689819652
 20
-165.7187911464244
 30
0.0
 40
3.0
  1
承   認
 41
0.7407407407407408
  7
FDASTYLE1
 72
     5
 11
165.4481689819652
 21
-165.7187911464244
 31
0.0
  0
TEXT
  5
20C
  8
ZUWAKU
 62
     7
 10
179.863228033234
 20
-165.4873041997729
 30
0.0
 40
3.0
  1
検   図
 41
0.7407407407407408
  7
FDASTYLE1
 72
     5
 11
191.863228033234
 21
-165.4873041997729
 31
0.0
  0
TEXT
  5
20D
  8
ZUWAKU
 62
     7
 10
201.4771920983751
 20
-165.4873041997729
 30
0.0
 40
3.0
  1
担  当
 41
0.7272727272727269
  7
FDASTYLE1
 72
     5
 11
211.0771920983751
 21
-165.4873041997729
 31
0.0
  0
TEXT
  5
20E
  8
ZUWAKU
 62
     7
 10
214.6770574841112
 20
-165.4873041997729
 30
0.0
 40
3.0
  1
製  図
 41
0.7272727272727269
  7
FDASTYLE1
 72
     5
 11
224.2770574841112
 21
-165.4873041997729
 31
0.0
  0
TEXT
  5
20F
  8
ZUWAKU
 62
     7
 10
226.9462372304199
 20
-153.2184960272417
 30
0.0
 40
3.0
  1
作図
 41
0.6666666666666683
  7
FDASTYLE1
 72
     5
 11
231.7462372304199
 21
-153.2184960272417
 31
0.0
  0
TEXT
  5
210
  8
ZUWAKU
 62
     7
 10
228.1036719636776
 20
-160.2371566401815
 30
0.0
 40
4.0
  1
第 三 角 法
 41
0.7179487179487182
  7
FDASTYLE1
 72
     5
 11
250.5036719636776
 21
-160.2371566401815
 31
0.0
  0
TEXT
  5
211
  8
ZUWAKU
 62
     7
 10
227.409211123723
 20
-166.413251986379
 30
0.0
 40
3.0
  1
尺度
 41
0.6666666666666683
  7
FDASTYLE1
 72
     5
 11
232.209211123723
 21
-166.413251986379
 31
0.0
  0
TEXT
  5
213
  8
ZUWAKU
 62
     3
 10
105.379154370034
 20
-185.9272077185017
 30
0.0
 40
7.0
  1
株式会社 野村製作所
 41
0.5763738641280831
  7
FDASTYLE2
 72
     5
 11
161.379154370034
 21
-185.9272077185017
 31
0.0
  0
TEXT
  5
215
  8
ZUWAKU
 62
     3
 10
176.0422636668242
 20
-187.1216685584563
 30
0.0
 40
8.0
  1
２－
 41
0.8244023083264632
  7
FDASTYLE3
 72
     5
 11
192.0422636668242
 21
-187.1216685584563
 31
0.0
  0
TEXT
  5
216
  8
ZUWAKU
 62
     3
 10
192.954221291231
 20
-187.1216685584563
 30
0.0
 40
8.0
  1
C508179
 41
1.564945226917058
  7
FDASTYLE3
 72
     5
 11
248.954221291231
 21
-187.1216685584563
 31
0.0
  0
TEXT
  5
217
  8
ZUWAKU
 62
     6
 10
231.384312273996
 20
-145.1178196492171
 30
0.0
 40
4.0
  1
一式
 41
0.5833333333333328
  7
FDASTYLE1
 72
     5
 11
236.984312273996
 21
-145.1178196492171
 31
0.0
  0
TEXT
  5
218
  8
ZUWAKU
 62
     6
 10
163.7236800359233
 20
-145.1021206743685
 30
0.0
 40
5.0
  1
外　形　図
 41
0.5833333333333334
  7
FDASTYLE1
 72
     5
 11
181.2236800359233
 21
-145.1021206743685
 31
0.0
  0
TEXT
  5
219
  8
ZUWAKU
 62
     4
 10
237.4612965606293
 20
-172.4797619591963
 30
0.0
 40
4.0
  1
1/1
 41
0.7000000000000005
  7
FDASTYLE1
 72
     5
 11
245.8612965606293
 21
-172.4797619591963
 31
0.0
  0
TEXT
  5
21A
  8
0
 62
     6
 10
153.751689452146
 20
-154.3880453471329
 30
0.0
 40
5.0
  1
日鋼プレシジォン
 41
0.6666666666666666
  7
FDASTYLE1
 72
     5
 11
185.751689452146
 21
-154.3880453471329
 31
0.0
  0
TEXT
  5
21B
  8
0
 62
     6
 10
170.4103460444692
 20
-160.9091595284539
 30
0.0
 40
5.0
  1
HDM3-215A5型チャック
 41
0.65625
  7
FDASTYLE1
 72
     5
 11
222.9103460444692
 21
-160.9091595284539
 31
0.0
  0
TEXT
  5
21C
  8
0
 62
     6
 10
-70.87492380116902
 20
-105.6243178139557
 30
0.0
 40
3.899999856948853
  1
 仕  様
 41
0.8988766729733497
  7
FDASTYLE1
 72
     5
 11
-48.24635014508687
 21
-105.6243178139557
 31
0.0
  0
TEXT
  5
21D
  8
0
 62
     6
 10
-70.87492380116902
 20
-113.1243178139557
 30
0.0
 40
3.899999856948853
  1
 1.爪ｽﾄﾛ-ｸ         
 41
0.915045033875279
  7
FDASTYLE1
 72
     5
 11
14.15365194703617
 21
-113.1243178139557
 31
0.0
  0
TEXT
  5
21E
  8
0
 62
     6
 10
15.35365070204414
 20
-112.6368178318371
 30
0.0
 40
2.924999892711639
  1
直径ﾆﾃ
 41
0.8957797606707526
  7
FDASTYLE1
 72
     5
 11
28.72508082340635
 21
-112.6368178318371
 31
0.0
  0
TEXT
  5
21F
  8
0
 62
     6
 10
29.92507957841433
 20
-113.1243178139557
 30
0.0
 40
3.899999856948853
  1
    6.2   mm
 41
0.908587566805962
  7
FDASTYLE1
 72
     5
 11
86.15365436102428
 21
-113.1243178139557
 31
0.0
  0
TEXT
  5
220
  8
0
 62
     6
 10
-70.87492380116902
 20
-120.6243178139557
 30
0.0
 40
3.899999856948853
  1
 2.ピｽﾄﾝｽﾄﾛ-ｸ              25   mm
 41
0.9129874409281825
  7
FDASTYLE1
 72
     5
 11
86.15365436102428
 21
-120.6243178139557
 31
0.0
  0
TEXT
  5
221
  8
0
 62
     6
 10
-70.87492380116902
 20
-128.1243178139557
 30
0.0
 40
3.899999856948853
  1
 3.推奨ｼﾘﾝダ　             52TS-TA1　型
 41
0.8927443053056511
  7
FDASTYLE1
 72
     5
 11
86.15365436102428
 21
-128.1243178139557
 31
0.0
  0
TEXT
  5
222
  8
0
 62
     6
 10
-70.87492380116902
 20
-135.6243178139557
 30
0.0
 40
3.899999856948853
  1
 4.許容ｼﾘﾝダ推力　            23.3   kN
 41
0.8927443053056511
  7
FDASTYLE1
 72
     5
 11
86.15365436102428
 21
-135.6243178139557
 31
0.0
  0
TEXT
  5
223
  8
0
 62
     6
 10
-70.87492380116902
 20
-143.1243178139557
 30
0.0
 40
3.899999856948853
  1
 5.最大使用圧力    
 41
0.866074953992472
  7
FDASTYLE1
 72
     5
 11
-9.846348857626538
 21
-143.1243178139557
 31
0.0
  0
TEXT
  5
224
  8
0
 62
     6
 10
-8.646350102618563
 20
-142.6368178318371
 30
0.0
 40
2.924999892711639
  1
(52TS-TA1型使用時)
 41
0.8874511689217373
  7
FDASTYLE1
 72
     5
 11
40.7250812257377
 21
-142.6368178318371
 31
0.0
  0
TEXT
  5
225
  8
0
 62
     6
 10
34.72507973934687
 20
-143.1243178139557
 30
0.0
 40
3.899999856948853
  1
   3.6  MPa
 41
0.9084030351605034
  7
FDASTYLE1
 72
     5
 11
86.15365436102428
 21
-143.1243178139557
 31
0.0
  0
TEXT
  5
226
  8
0
 62
     6
 10
-70.87492380116902
 20
-150.6243178139557
 30
0.0
 40
3.899999856948853
  1
 6.最大静的把握力              93.2   kN
 41
0.8888029240060212
  7
FDASTYLE1
 72
     5
 11
86.15365436102428
 21
-150.6243178139557
 31
0.0
  0
TEXT
  5
227
  8
0
 62
     6
 10
-70.87492380116902
 20
-158.1243178139557
 30
0.0
 40
3.899999856948853
  1
 7.最高使用回転速度             5000  min
 41
0.8848961913838067
  7
FDASTYLE1
 72
     5
 11
86.15365436102428
 21
-158.1243178139557
 31
0.0
  0
TEXT
  5
228
  8
0
 62
     6
 10
87.18222472245969
 20
-155.349317778193
 30
0.0
 40
1.949999928474426
  1
-1
 41
0.8971966190941251
  7
FDASTYLE1
 72
     5
 11
91.29651130910196
 21
-155.349317778193
 31
0.0
  0
TEXT
  5
229
  8
0
 62
     6
 10
-70.87492380116902
 20
-165.6243178139557
 30
0.0
 40
3.899999856948853
  1
 8.慣性モーメント             0.１6３ kg・m
 41
0.8771848605190151
  7
FDASTYLE1
 72
     5
 11
86.15365436102428
 21
-165.6243178139557
 31
0.0
  0
TEXT
  5
22A
  8
0
 62
     6
 10
87.18222472245969
 20
-162.849317778193
 30
0.0
 40
1.949999928474426
  1
2
 41
0.8791213174644367
  7
FDASTYLE1
 72
     5
 11
88.89651122863569
 21
-162.849317778193
 31
0.0
  0
TEXT
  5
22B
  8
0
 62
     6
 10
-70.87492380116902
 20
-173.1243178139557
 30
0.0
 40
3.899999856948853
  1
 9.質 量                    21   kg
 41
0.9088657026940743
  7
FDASTYLE1
 72
     5
 11
86.15365436102428
 21
-173.1243178139557
 31
0.0
  0
TEXT
  5
22C
  8
0
 62
     6
 10
-71.02840765947047
 20
-180.8274147624813
 30
0.0
 40
3.9
  1
10.アンバランス量
 41
0.8411937735813929
  7
FDASTYLE1
 72
     5
 11
-24.39984565947047
 21
-180.8274147624813
 31
0.0
  0
TEXT
  5
22D
  8
0
 62
     6
 10
1.276701350608676
 20
-181.0390759886959
 30
0.0
 40
3.9
  1
ﾁｬｯｸ外周ﾆﾃ 　1.5　 g以内
 41
0.8781870086179673
  7
FDASTYLE1
 72
     5
 11
86.30525455060867
 21
-181.0390759886959
 31
0.0
  0
LINE
  5
22E
  8
0
  6
CONTINUOUS
 62
     3
 10
-172.6191963581967
 20
-62.0493469238281
 30
0.0
 11
-78.61920398759123
 21
-62.0493469238281
 31
0.0
  0
LINE
  5
22F
  8
0
  6
CONTINUOUS
 62
     3
 10
-79.11920398759123
 20
5.450653076171903
 30
0.0
 11
-76.61920398759123
 21
5.450653076171903
 31
0.0
  0
LINE
  5
230
  8
0
  6
CONTINUOUS
 62
     3
 10
-79.11920398759123
 20
84.4506530761719
 30
0.0
 11
-79.11920398759123
 21
5.450653076171903
 31
0.0
  0
LINE
  5
231
  8
0
  6
CONTINUOUS
 62
     3
 10
-97.21917957352873
 20
87.10065460205081
 30
0.0
 11
-97.21917957352873
 21
82.4506530761719
 31
0.0
  0
LINE
  5
232
  8
0
  6
CONTINUOUS
 62
     3
 10
-77.61917974120429
 20
151.9506590671284
 30
0.0
 11
-76.61917867961479
 21
150.9506580055389
 31
0.0
  0
LINE
  5
233
  8
0
  6
CONTINUOUS
 62
     3
 10
-76.61920025880086
 20
-60.04937447456936
 30
0.0
 11
-78.61919159238683
 21
-62.04936580815533
 31
0.0
  0
LINE
  5
234
  8
0
  6
CONTINUOUS
 62
     3
 10
-155.6192268757748
 20
8.450653076171903
 30
0.0
 11
-130.5023140339779
 21
8.450653076171903
 31
0.0
  0
LINE
  5
235
  8
0
  6
CONTINUOUS
 62
     3
 10
-129.1191963581967
 20
152.9506378173828
 30
0.0
 11
-129.1191963581967
 21
126.3772583007813
 31
0.0
  0
LINE
  5
236
  8
0
  6
CONTINUOUS
 62
     3
 10
-94.61918872880217
 20
-2.899353027343722
 30
0.0
 11
-76.61920398759123
 21
-2.899353027343722
 31
0.0
  0
LINE
  5
237
  8
0
  6
CONTINUOUS
 62
     3
 10
-94.61918872880217
 20
3.800659179687528
 30
0.0
 11
-76.61920398759123
 21
3.800659179687528
 31
0.0
  0
LINE
  5
238
  8
0
  6
CONTINUOUS
 62
     3
 10
-94.61917347001311
 20
3.800651550292997
 30
0.0
 11
-94.61917347001311
 21
-2.89934539794919
 31
0.0
  0
LINE
  5
239
  8
0
  6
CONTINUOUS
 62
     3
 10
-96.55336969982439
 20
0.4506956122868644
 30
0.0
 11
-94.61926454982752
 21
3.800663539788758
 31
0.0
  0
LINE
  5
23A
  8
0
  6
CONTINUOUS
 62
     3
 10
-96.55339314086912
 20
0.4505774430024587
 30
0.0
 11
-94.61928036147681
 21
-2.899403698998157
 31
0.0
  0
LINE
  5
23B
  8
0
  6
CONTINUOUS
 62
     3
 10
-140.5022835163998
 20
81.4506530761719
 30
0.0
 11
-140.5022835163998
 21
9.450653076171903
 31
0.0
  0
LINE
  5
23C
  8
0
  6
CONTINUOUS
 62
     3
 10
-90.50232166337248
 20
81.4506530761719
 30
0.0
 11
-90.50232166337248
 21
9.450653076171903
 31
0.0
  0
LINE
  5
23D
  8
0
  6
CONTINUOUS
 62
     3
 10
-155.6192268757748
 20
82.4506530761719
 30
0.0
 11
-91.50232166337248
 21
82.4506530761719
 31
0.0
  0
LINE
  5
23E
  8
0
  6
CONTINUOUS
 62
     3
 10
-111.502314033978
 20
77.2006530761719
 30
0.0
 11
-111.502314033978
 21
13.7006530761719
 31
0.0
  0
LINE
  5
23F
  8
0
  6
CONTINUOUS
 62
     3
 10
-109.502314033978
 20
77.2006530761719
 30
0.0
 11
-109.502314033978
 21
68.2006530761719
 31
0.0
  0
LINE
  5
240
  8
0
  6
CONTINUOUS
 62
     3
 10
-101.502314033978
 20
78.4506530761719
 30
0.0
 11
-101.502314033978
 21
68.24558258056644
 31
0.0
  0
LINE
  5
241
  8
0
  6
CONTINUOUS
 62
     3
 10
-99.50232166337248
 20
78.4506530761719
 30
0.0
 11
-99.50232166337248
 21
12.4506530761719
 31
0.0
  0
LINE
  5
242
  8
0
  6
CONTINUOUS
 62
     3
 10
-109.502314033978
 20
22.70065498352054
 30
0.0
 11
-109.502314033978
 21
13.7006530761719
 31
0.0
  0
LINE
  5
243
  8
0
  6
CONTINUOUS
 62
     3
 10
-101.5023445515561
 20
12.4506530761719
 30
0.0
 11
-99.50233692216155
 21
12.4506530761719
 31
0.0
  0
LINE
  5
244
  8
0
  6
CONTINUOUS
 62
     3
 10
-101.5023445515561
 20
78.4506530761719
 30
0.0
 11
-99.50233692216155
 21
78.4506530761719
 31
0.0
  0
LINE
  5
245
  8
0
  6
CONTINUOUS
 62
     3
 10
-99.50233692216155
 20
12.9506530761719
 30
0.0
 11
-90.50232166337248
 21
12.9506530761719
 31
0.0
  0
LINE
  5
246
  8
0
  6
CONTINUOUS
 62
     3
 10
-99.50233692216155
 20
77.9506530761719
 30
0.0
 11
-90.50232166337248
 21
77.9506530761719
 31
0.0
  0
LINE
  5
247
  8
0
  6
CONTINUOUS
 62
     3
 10
-130.5023140339779
 20
8.450653076171903
 30
0.0
 11
-79.11920398759123
 21
8.450653076171903
 31
0.0
  0
LINE
  5
248
  8
0
  6
CONTINUOUS
 62
     3
 10
-140.502299571145
 20
81.45058287636951
 30
0.0
 11
-139.5022877199625
 21
82.45059472755204
 31
0.0
  0
LINE
  5
249
  8
0
  6
CONTINUOUS
 62
     3
 10
-90.50229774223688
 20
81.45066110091901
 30
0.0
 11
-91.50229880382638
 21
82.45066216250851
 31
0.0
  0
LINE
  5
24A
  8
0
  6
CONTINUOUS
 62
     3
 10
-90.502257281263
 20
9.450625127448831
 30
0.0
 11
-91.50226913244553
 21
8.450613276266296
 31
0.0
  0
LINE
  5
24B
  8
0
  6
CONTINUOUS
 62
     3
 10
-140.5022725971624
 20
9.450641311838382
 30
0.0
 11
-139.5022715355729
 21
8.450640250248881
 31
0.0
  0
LINE
  5
24C
  8
0
  6
CONTINUOUS
 62
     3
 10
-90.31921619462248
 20
87.75065612792972
 30
0.0
 11
-90.31921619462248
 21
82.4506530761719
 31
0.0
  0
LINE
  5
24D
  8
0
  6
CONTINUOUS
 62
     3
 10
-104.6191963581967
 20
89.65063476562503
 30
0.0
 11
-97.2191948323178
 21
89.65063476562503
 31
0.0
  0
LINE
  5
24E
  8
0
  6
CONTINUOUS
 62
     3
 10
-97.21917957352873
 20
89.65065002441409
 30
0.0
 11
-97.21917957352873
 21
87.10065460205081
 31
0.0
  0
LINE
  5
24F
  8
0
  6
CONTINUOUS
 62
     3
 10
-97.2191948323178
 20
84.4506530761719
 30
0.0
 11
-90.31920093583342
 21
84.4506530761719
 31
0.0
  0
LINE
  5
250
  8
0
  6
CONTINUOUS
 62
     3
 10
-79.11920398759123
 20
84.4506530761719
 30
0.0
 11
-76.61920398759123
 21
84.4506530761719
 31
0.0
  0
LINE
  5
251
  8
0
  6
CONTINUOUS
 62
     3
 10
-92.61920398759123
 20
152.2506561279297
 30
0.0
 11
-92.61920398759123
 21
84.4506530761719
 31
0.0
  0
LINE
  5
252
  8
0
  6
CONTINUOUS
 62
     3
 10
-89.5135063557553
 20
81.13235473632815
 30
0.0
 11
-79.11920398759123
 21
81.13235473632815
 31
0.0
  0
LINE
  5
253
  8
0
  6
CONTINUOUS
 62
     3
 10
-104.6191963581967
 20
103.4506530761719
 30
0.0
 11
-104.6191963581967
 21
82.4506530761719
 31
0.0
  0
LINE
  5
254
  8
0
  6
CONTINUOUS
 62
     3
 10
-172.6191963581967
 20
152.9506530761719
 30
0.0
 11
-129.1192268757748
 21
152.9506530761719
 31
0.0
  0
LINE
  5
255
  8
0
  6
CONTINUOUS
 62
     3
 10
-91.61920398759123
 20
142.2506408691407
 30
0.0
 11
-76.11918872880217
 21
142.2506408691407
 31
0.0
  0
LINE
  5
256
  8
0
  6
CONTINUOUS
 62
     3
 10
-91.6192192463803
 20
92.25064086914065
 30
0.0
 11
-76.11918872880217
 21
92.25064086914065
 31
0.0
  0
LINE
  5
257
  8
0
  6
CONTINUOUS
 62
     3
 10
-76.11917347001311
 20
142.2506484985352
 30
0.0
 11
-76.11917347001311
 21
137.2506484985352
 31
0.0
  0
LINE
  5
258
  8
0
  6
CONTINUOUS
 62
     3
 10
-85.61917347001311
 20
92.25065612792972
 30
0.0
 11
-85.61917347001311
 21
87.75065612792972
 31
0.0
  0
LINE
  5
259
  8
0
  6
CONTINUOUS
 62
     3
 10
-76.61917347001311
 20
92.25065612792972
 30
0.0
 11
-76.61917347001311
 21
-60.0493469238281
 31
0.0
  0
LINE
  5
25A
  8
0
  6
CONTINUOUS
 62
     3
 10
-76.11917347001311
 20
97.25065612792972
 30
0.0
 11
-76.11917347001311
 21
92.25065612792972
 31
0.0
  0
LINE
  5
25B
  8
0
  6
CONTINUOUS
 62
     3
 10
-68.61920398759123
 20
140.2506484985352
 30
0.0
 11
-68.61920398759123
 21
124.2506561279297
 31
0.0
  0
LINE
  5
25C
  8
0
  6
CONTINUOUS
 62
     3
 10
-91.6192192463803
 20
127.2506408691407
 30
0.0
 11
-68.61920398759123
 21
127.2506408691407
 31
0.0
  0
LINE
  5
25D
  8
0
  6
CONTINUOUS
 62
     3
 10
-91.6192192463803
 20
137.2506408691407
 30
0.0
 11
-68.61920398759123
 21
137.2506408691407
 31
0.0
  0
LINE
  5
25E
  8
0
  6
CONTINUOUS
 62
     3
 10
-91.6192192463803
 20
107.2506408691407
 30
0.0
 11
-68.61920398759123
 21
107.2506408691407
 31
0.0
  0
LINE
  5
25F
  8
0
  6
CONTINUOUS
 62
     3
 10
-91.6192192463803
 20
97.25064086914065
 30
0.0
 11
-68.61920398759123
 21
97.25064086914065
 31
0.0
  0
LINE
  5
260
  8
0
  6
CONTINUOUS
 62
     3
 10
-68.61920398759123
 20
110.2506637573243
 30
0.0
 11
-68.61920398759123
 21
94.25065612792972
 31
0.0
  0
LINE
  5
261
  8
0
  6
CONTINUOUS
 62
     3
 10
-58.61920398759123
 20
140.2506484985352
 30
0.0
 11
-58.61920398759123
 21
124.2506561279297
 31
0.0
  0
LINE
  5
262
  8
0
  6
CONTINUOUS
 62
     3
 10
-68.61920398759123
 20
140.2506408691407
 30
0.0
 11
-58.6191963581967
 21
140.2506408691407
 31
0.0
  0
LINE
  5
263
  8
0
  6
CONTINUOUS
 62
     3
 10
-68.61920398759123
 20
124.2506713867188
 30
0.0
 11
-58.6191963581967
 21
124.2506713867188
 31
0.0
  0
LINE
  5
264
  8
0
  6
CONTINUOUS
 62
     3
 10
-68.61920398759123
 20
94.25064086914065
 30
0.0
 11
-58.6191963581967
 21
94.25064086914065
 31
0.0
  0
LINE
  5
265
  8
0
  6
CONTINUOUS
 62
     3
 10
-68.61920398759123
 20
110.2506408691407
 30
0.0
 11
-58.6191963581967
 21
110.2506408691407
 31
0.0
  0
LINE
  5
266
  8
0
  6
CONTINUOUS
 62
     3
 10
-58.61920398759123
 20
110.2506637573243
 30
0.0
 11
-58.61920398759123
 21
94.25065612792972
 31
0.0
  0
LINE
  5
267
  8
0
  6
CONTINUOUS
 62
     3
 10
-88.61920398759123
 20
137.2506484985352
 30
0.0
 11
-88.61920398759123
 21
127.2506561279297
 31
0.0
  0
LINE
  5
268
  8
0
  6
CONTINUOUS
 62
     3
 10
-88.61920398759123
 20
107.2506561279297
 30
0.0
 11
-88.61920398759123
 21
97.25065612792972
 31
0.0
  0
LINE
  5
269
  8
0
  6
CONTINUOUS
 62
     3
 10
-129.1192268757748
 20
152.2506408691407
 30
0.0
 11
-77.61920398759123
 21
152.2506408691407
 31
0.0
  0
LINE
  5
26A
  8
0
  6
CONTINUOUS
 62
     3
 10
-90.31921619462248
 20
87.75067138671878
 30
0.0
 11
-77.61920398759123
 21
87.75067138671878
 31
0.0
  0
LINE
  5
26B
  8
0
  6
CONTINUOUS
 62
     3
 10
-172.6192268757748
 20
152.9506378173828
 30
0.0
 11
-172.6192268757748
 21
-62.04935455322263
 31
0.0
  0
LINE
  5
26C
  8
0
  6
CONTINUOUS
 62
     3
 10
-171.6192268757748
 20
137.9506530761719
 30
0.0
 11
-171.6192268757748
 21
-47.0493469238281
 31
0.0
  0
LINE
  5
26D
  8
0
  6
CONTINUOUS
 62
     3
 10
-172.6191963581967
 20
137.9506530761719
 30
0.0
 11
-171.6191963581967
 21
137.9506530761719
 31
0.0
  0
LINE
  5
26E
  8
0
  6
CONTINUOUS
 62
     3
 10
-172.6191963581967
 20
-47.0493469238281
 30
0.0
 11
-171.6191963581967
 21
-47.0493469238281
 31
0.0
  0
LINE
  5
26F
  8
0
  6
CONTINUOUS
 62
     3
 10
-139.5023140339779
 20
70.4506530761719
 30
0.0
 11
-112.502314033978
 21
70.4506530761719
 31
0.0
  0
LINE
  5
270
  8
0
  6
CONTINUOUS
 62
     3
 10
-139.5023140339779
 20
20.4506530761719
 30
0.0
 11
-112.502314033978
 21
20.4506530761719
 31
0.0
  0
LINE
  5
271
  8
0
  6
CONTINUOUS
 62
     3
 10
-109.502314033978
 20
14.2006530761719
 30
0.0
 11
-101.5023445515561
 21
14.2006530761719
 31
0.0
  0
LINE
  5
272
  8
0
  6
CONTINUOUS
 62
     3
 10
-111.502314033978
 20
13.7006530761719
 30
0.0
 11
-109.502314033978
 21
13.7006530761719
 31
0.0
  0
LINE
  5
273
  8
0
  6
CONTINUOUS
 62
     3
 10
-111.502314033978
 20
77.2006530761719
 30
0.0
 11
-109.502314033978
 21
77.2006530761719
 31
0.0
  0
LINE
  5
274
  8
0
  6
CONTINUOUS
 62
     3
 10
-109.502314033978
 20
76.7006530761719
 30
0.0
 11
-101.5023445515561
 21
76.7006530761719
 31
0.0
  0
LINE
  5
275
  8
0
  6
CONTINUOUS
 62
     3
 10
-112.5023626222918
 20
70.45067779296144
 30
0.0
 11
-111.5023761434748
 21
71.45067194243032
 31
0.0
  0
LINE
  5
276
  8
0
  6
CONTINUOUS
 62
     3
 10
-139.5022835901971
 20
70.45065258672915
 30
0.0
 11
-140.5022827130295
 21
71.45065558707577
 31
0.0
  0
LINE
  5
277
  8
0
  6
CONTINUOUS
 62
     3
 10
-112.5022547585275
 20
20.45068742533297
 30
0.0
 11
-111.5022556356951
 21
19.45068442498635
 31
0.0
  0
LINE
  5
278
  8
0
  6
CONTINUOUS
 62
     3
 10
-139.5022543406392
 20
20.45063221157855
 30
0.0
 11
-140.5022577624548
 21
19.45063351021511
 31
0.0
  0
LINE
  5
279
  8
0
  6
CONTINUOUS
 62
     3
 10
-139.5022835163998
 20
70.4506530761719
 30
0.0
 11
-139.5022835163998
 21
63.4506530761719
 31
0.0
  0
LINE
  5
27A
  8
0
  6
CONTINUOUS
 62
     3
 10
-112.5022835163998
 20
70.4506530761719
 30
0.0
 11
-112.5022835163998
 21
63.4506530761719
 31
0.0
  0
LINE
  5
27B
  8
0
  6
CONTINUOUS
 62
     3
 10
-139.5022835163998
 20
27.4506530761719
 30
0.0
 11
-139.5022835163998
 21
20.4506530761719
 31
0.0
  0
LINE
  5
27C
  8
0
  6
CONTINUOUS
 62
     3
 10
-112.5022835163998
 20
27.4506530761719
 30
0.0
 11
-112.5022835163998
 21
20.4506530761719
 31
0.0
  0
LINE
  5
27D
  8
0
  6
CONTINUOUS
 62
     3
 10
-99.50233692216155
 20
21.4506530761719
 30
0.0
 11
-90.50232166337248
 21
21.4506530761719
 31
0.0
  0
LINE
  5
27E
  8
0
  6
CONTINUOUS
 62
     3
 10
-99.50232166337248
 20
69.4506530761719
 30
0.0
 11
-90.50232166337248
 21
69.4506530761719
 31
0.0
  0
LINE
  5
27F
  8
0
  6
CONTINUOUS
 62
     3
 10
-101.502314033978
 20
22.76889228820804
 30
0.0
 11
-101.502314033978
 21
12.4506530761719
 31
0.0
  0
LINE
  5
280
  8
0
  6
CONTINUOUS
 62
     3
 10
-113.6191658406186
 20
-41.0493469238281
 30
0.0
 11
-113.6191658406186
 21
-62.0493469238281
 31
0.0
  0
LINE
  5
281
  8
0
  6
CONTINUOUS
 62
     3
 10
-119.6191658406186
 20
-41.0493469238281
 30
0.0
 11
-119.6191658406186
 21
-62.0493469238281
 31
0.0
  0
LINE
  5
282
  8
0
  6
CONTINUOUS
 62
     3
 10
-119.6191658406186
 20
-41.0493469238281
 30
0.0
 11
-113.6191658406186
 21
-41.0493469238281
 31
0.0
  0
LINE
  5
283
  8
0
  6
CONTINUOUS
 62
     3
 10
-116.6191800002446
 20
-39.31729639016905
 30
0.0
 11
-113.6191780431685
 21
-41.04934813629595
 31
0.0
  0
LINE
  5
284
  8
0
  6
CONTINUOUS
 62
     3
 10
-119.6191812174879
 20
-41.04935078067499
 30
0.0
 11
-116.6191858676616
 21
-39.31730284924512
 31
0.0
  0
LINE
  5
285
  8
0
  6
CONTINUOUS
 62
     3
 10
-155.6192268757748
 20
84.73315429687503
 30
0.0
 11
-155.6192268757748
 21
6.168147087097196
 31
0.0
  0
LINE
  5
286
  8
0
  6
CONTINUOUS
 62
     3
 10
-171.6192283502605
 20
86.73315524603052
 30
0.0
 11
-155.619231396995
 21
84.73316031221432
 31
0.0
  0
LINE
  5
287
  8
0
  6
CONTINUOUS
 62
     3
 10
-171.6192328156608
 20
4.168150566938749
 30
0.0
 11
-155.6192207214359
 21
6.168147393370447
 31
0.0
  0
LINE
  5
288
  8
0
  6
CONTINUOUS
 62
     3
 10
-99.50232166337248
 20
70.4506530761719
 30
0.0
 11
-90.50232166337248
 21
70.4506530761719
 31
0.0
  0
LINE
  5
289
  8
0
  6
CONTINUOUS
 62
     3
 10
-99.50232166337248
 20
74.4506530761719
 30
0.0
 11
-90.50232166337248
 21
74.4506530761719
 31
0.0
  0
LINE
  5
28A
  8
0
  6
CONTINUOUS
 62
     3
 10
-95.50232166337248
 20
74.4506530761719
 30
0.0
 11
-95.50232166337248
 21
70.4506530761719
 31
0.0
  0
LINE
  5
28B
  8
0
  6
CONTINUOUS
 62
     3
 10
-91.50232166337248
 20
74.4506530761719
 30
0.0
 11
-91.50232166337248
 21
70.4506530761719
 31
0.0
  0
LINE
  5
28C
  8
0
  6
CONTINUOUS
 62
     3
 10
220.7415795275433
 20
-23.10485356396609
 30
0.0
 11
238.2415892431013
 21
7.206048238961131
 31
0.0
  0
LINE
  5
28D
  8
0
  6
CONTINUOUS
 62
     3
 10
35.75843425780812
 20
7.206101161862051
 30
0.0
 11
53.25843777448233
 21
-23.10478990428496
 31
0.0
  0
LINE
  5
28E
  8
0
  6
CONTINUOUS
 62
     3
 10
35.75844265503281
 20
7.206081684767042
 30
0.0
 11
100.0177132452608
 21
44.30618475907298
 31
0.0
  0
LINE
  5
28F
  8
0
  6
CONTINUOUS
 62
     3
 10
53.2584411008794
 20
-23.10480047522569
 30
0.0
 11
117.5177017802326
 21
13.99529687703469
 31
0.0
  0
LINE
  5
290
  8
0
  6
CONTINUOUS
 62
     3
 10
156.4822897951441
 20
13.99528711261021
 30
0.0
 11
220.7415735998717
 21
-23.1048235910898
 31
0.0
  0
LINE
  5
291
  8
0
  6
CONTINUOUS
 62
     3
 10
173.9822871185943
 20
44.30623599311323
 30
0.0
 11
238.2415841378215
 21
7.206117660019146
 31
0.0
  0
LINE
  5
292
  8
0
  6
CONTINUOUS
 62
     3
 10
59.78551941140233
 20
-30.88342223436764
 30
0.0
 11
60.7499912296895
 21
-30.32658423197428
 31
0.0
  0
LINE
  5
293
  8
0
  6
CONTINUOUS
 62
     3
 10
32.28550493160068
 20
16.74801103798684
 30
0.0
 11
33.24999863640286
 21
17.30486167656414
 31
0.0
  0
LINE
  5
294
  8
0
  6
CONTINUOUS
 62
     3
 10
213.2500083287364
 20
-30.32656777158306
 30
0.0
 11
214.2144685843364
 21
-30.8833990982566
 31
0.0
  0
LINE
  5
295
  8
0
  6
CONTINUOUS
 62
     3
 10
240.7500031487916
 20
17.30488676220423
 30
0.0
 11
241.7144766188912
 21
16.74804780613661
 31
0.0
  0
LINE
  5
296
  8
0
  6
CONTINUOUS
 62
     3
 10
238.2415172286387
 20
7.206093400055153
 30
0.0
 11
241.714479667251
 21
16.74797893707731
 31
0.0
  0
LINE
  5
297
  8
0
  6
CONTINUOUS
 62
     3
 10
32.28547173710632
 20
16.74800387278603
 30
0.0
 11
35.75843482807028
 21
7.206116543442448
 31
0.0
  0
LINE
  5
298
  8
0
  6
CONTINUOUS
 62
     3
 10
53.25848516738461
 20
-23.10476502034138
 30
0.0
 11
59.78552202774608
 21
-30.88338367900863
 31
0.0
  0
LINE
  5
299
  8
0
  6
CONTINUOUS
 62
     3
 10
214.2143831278208
 20
-30.88332933547733
 30
0.0
 11
220.7414199881823
 21
-23.10471067681007
 31
0.0
  0
LINE
  5
29A
  8
0
  6
CONTINUOUS
 62
     3
 10
91.61712215455623
 20
39.45611315600516
 30
0.0
 11
96.86712468775386
 21
30.36284327585193
 31
0.0
  0
LINE
  5
29B
  8
0
  6
CONTINUOUS
 62
     3
 10
164.8829374230536
 20
9.145188153624105
 30
0.0
 11
170.1329418636001
 21
18.23846133740202
 31
0.0
  0
LINE
  5
29C
  8
0
  6
CONTINUOUS
 62
     3
 10
41.00846390920336
 20
-1.887167559802379
 30
0.0
 11
54.97486278831914
 21
6.176335701793363
 31
0.0
  0
LINE
  5
29D
  8
0
  6
CONTINUOUS
 62
     3
 10
48.00846066518307
 20
-14.01152656289355
 30
0.0
 11
61.97486532564244
 21
-5.948019963437901
 31
0.0
  0
LINE
  5
29E
  8
0
  6
CONTINUOUS
 62
     3
 10
170.1328857871065
 20
18.23849914668543
 30
0.0
 11
179.3361570916657
 21
12.92498856861997
 31
0.0
  0
LINE
  5
29F
  8
0
  6
CONTINUOUS
 62
     3
 10
177.1328937475323
 20
30.36282415068129
 30
0.0
 11
186.3361584448417
 21
25.04931738731287
 31
0.0
  0
LINE
  5
2A0
  8
0
  6
CONTINUOUS
 62
     3
 10
174.6458252512769
 20
35.26284406753283
 30
0.0
 11
178.6328974728224
 21
32.96090710146748
 31
0.0
  0
LINE
  5
2A1
  8
0
  6
CONTINUOUS
 62
     3
 10
164.6458362692702
 20
17.94233790317642
 30
0.0
 11
168.6328952763161
 21
15.64040856650516
 31
0.0
  0
LINE
  5
2A2
  8
0
  6
CONTINUOUS
 62
     3
 10
95.36711835277797
 20
32.9608901220586
 30
0.0
 11
99.35416744894914
 21
35.26281373668431
 31
0.0
  0
LINE
  5
2A3
  8
0
  6
CONTINUOUS
 62
     3
 10
105.3671214687236
 20
15.64039762397593
 30
0.0
 11
109.3541672612698
 21
17.94231933125312
 31
0.0
  0
LINE
  5
2A4
  8
0
  6
CONTINUOUS
 62
     3
 10
103.8671255222189
 20
18.23848784048053
 30
0.0
 11
109.1171261480677
 21
9.145221263951981
 31
0.0
  0
LINE
  5
2A5
  8
0
  6
CONTINUOUS
 62
     3
 10
177.1329388833674
 20
30.36281016552405
 30
0.0
 11
182.3829395092162
 21
39.4560767420526
 31
0.0
  0
LINE
  5
2A6
  8
0
  6
CONTINUOUS
 62
     3
 10
49.66872594560525
 20
3.112813699876654
 30
0.0
 11
56.66872868741913
 21
-9.011545039119426
 31
0.0
  0
LINE
  5
2A7
  8
0
  6
CONTINUOUS
 62
     3
 10
92.97002842354107
 20
28.11284237796477
 30
0.0
 11
99.97002830433166
 21
15.98848859440571
 31
0.0
  0
LINE
  5
2A8
  8
0
  6
CONTINUOUS
 62
     3
 10
174.0300390814873
 20
15.98846209132719
 30
0.0
 11
181.0300399159523
 21
28.11281752669859
 31
0.0
  0
LINE
  5
2A9
  8
0
  6
CONTINUOUS
 62
     3
 10
217.3313189154751
 20
-9.011538096353405
 30
0.0
 11
224.3313197499401
 21
3.112817339017994
 31
0.0
  0
LINE
  5
2AA
  8
0
  6
CONTINUOUS
 62
     3
 10
61.68307964028102
 20
10.04932607916047
 30
0.0
 11
80.95563117912028
 21
21.17633766874647
 31
0.0
  0
LINE
  5
2AB
  8
0
  6
CONTINUOUS
 62
     3
 10
68.68306813719846
 20
-2.075037692302004
 30
0.0
 11
87.9556345423498
 21
9.051982480352336
 31
0.0
  0
LINE
  5
2AC
  8
0
  6
CONTINUOUS
 62
     3
 10
94.66383652799959
 20
12.9249642746511
 30
0.0
 11
103.8671078325588
 21
18.23847485271656
 31
0.0
  0
LINE
  5
2AD
  8
0
  6
CONTINUOUS
 62
     3
 10
87.66383977201988
 20
25.04932327774228
 30
0.0
 11
96.86710446932923
 21
30.3628300411107
 31
0.0
  0
LINE
  5
2AE
  8
0
  6
CONTINUOUS
 62
     3
 10
59.54144456083594
 20
6.012725828873926
 30
0.0
 11
57.25394302229253
 21
2.050654069341675
 31
0.0
  0
LINE
  5
2AF
  8
0
  6
CONTINUOUS
 62
     3
 10
57.25399188967981
 20
2.05066024949636
 30
0.0
 11
59.5414891366911
 21
-1.911404076878824
 31
0.0
  0
LINE
  5
2B0
  8
0
  6
CONTINUOUS
 62
     3
 10
59.54146766662598
 20
-1.911407470703097
 30
0.0
 11
64.11646461486816
 21
-1.911407470703097
 31
0.0
  0
LINE
  5
2B1
  8
0
  6
CONTINUOUS
 62
     3
 10
64.11643686427759
 20
-1.911399800086272
 30
0.0
 11
66.40393519385719
 21
2.05066298554781
 31
0.0
  0
LINE
  5
2B2
  8
0
  6
CONTINUOUS
 62
     3
 10
66.40395801473267
 20
2.050663605871449
 30
0.0
 11
64.11646063286719
 21
6.012732326637178
 31
0.0
  0
LINE
  5
2B3
  8
0
  6
CONTINUOUS
 62
     3
 10
64.11646461486816
 20
6.012725830078153
 30
0.0
 11
59.54146766662598
 21
6.012725830078153
 31
0.0
  0
LINE
  5
2B4
  8
0
  6
CONTINUOUS
 62
     3
 10
85.52220930293038
 20
21.01274894951033
 30
0.0
 11
83.23470728531288
 21
17.05068295565755
 31
0.0
  0
LINE
  5
2B5
  8
0
  6
CONTINUOUS
 62
     3
 10
83.2347073248248
 20
17.05066510008683
 30
0.0
 11
85.52220538990929
 21
13.08860131909378
 31
0.0
  0
LINE
  5
2B6
  8
0
  6
CONTINUOUS
 62
     3
 10
85.52222442626953
 20
13.08853149414065
 30
0.0
 11
90.09722900390625
 21
13.08853149414065
 31
0.0
  0
LINE
  5
2B7
  8
0
  6
CONTINUOUS
 62
     3
 10
90.09723840151469
 20
13.08859921319575
 30
0.0
 11
92.38473932985539
 21
17.05066135804239
 31
0.0
  0
LINE
  5
2B8
  8
0
  6
CONTINUOUS
 62
     3
 10
92.38471182153035
 20
17.05064799219863
 30
0.0
 11
90.09720966905775
 21
21.0127183804415
 31
0.0
  0
LINE
  5
2B9
  8
0
  6
CONTINUOUS
 62
     3
 10
90.09722900390625
 20
21.01272583007815
 30
0.0
 11
85.52223205566406
 21
21.01272583007815
 31
0.0
  0
LINE
  5
2BA
  8
0
  6
CONTINUOUS
 62
     3
 10
183.902641848269
 20
21.0128039787833
 30
0.0
 11
181.6151417380015
 21
17.05074128855452
 31
0.0
  0
LINE
  5
2BB
  8
0
  6
CONTINUOUS
 62
     3
 10
181.615228139766
 20
17.05065623434987
 30
0.0
 11
183.9027262048505
 21
13.08859245335682
 31
0.0
  0
LINE
  5
2BC
  8
0
  6
CONTINUOUS
 62
     3
 10
183.9027557373047
 20
13.08862304687503
 30
0.0
 11
188.4777526855469
 21
13.08862304687503
 31
0.0
  0
LINE
  5
2BD
  8
0
  6
CONTINUOUS
 62
     3
 10
188.4777214904452
 20
13.08860097417531
 30
0.0
 11
190.7652224187859
 21
17.05066311902195
 31
0.0
  0
LINE
  5
2BE
  8
0
  6
CONTINUOUS
 62
     3
 10
190.7651732421684
 20
17.05061482794329
 30
0.0
 11
188.4776749043929
 21
21.01267860893634
 31
0.0
  0
LINE
  5
2BF
  8
0
  6
CONTINUOUS
 62
     3
 10
188.4777526855469
 20
21.01272583007815
 30
0.0
 11
183.9027709960938
 21
21.01272583007815
 31
0.0
  0
LINE
  5
2C0
  8
0
  6
CONTINUOUS
 62
     3
 10
209.8833110678556
 20
6.012784110300828
 30
0.0
 11
207.5958138208443
 21
2.050719783925644
 31
0.0
  0
LINE
  5
2C1
  8
0
  6
CONTINUOUS
 62
     3
 10
207.5958691426463
 20
2.050579540830796
 30
0.0
 11
209.8833663896576
 21
-1.911484785544388
 31
0.0
  0
LINE
  5
2C2
  8
0
  6
CONTINUOUS
 62
     3
 10
209.8835296630859
 20
-1.911407470703097
 30
0.0
 11
214.4585266113281
 21
-1.911407470703097
 31
0.0
  0
LINE
  5
2C3
  8
0
  6
CONTINUOUS
 62
     3
 10
214.4584266116513
 20
-1.91136201866945
 30
0.0
 11
216.7459253584634
 21
2.05070148963253
 31
0.0
  0
LINE
  5
2C4
  8
0
  6
CONTINUOUS
 62
     3
 10
216.7459153918553
 20
2.050564088461243
 30
0.0
 11
214.4584161026437
 21
6.012636112853244
 31
0.0
  0
LINE
  5
2C5
  8
0
  6
CONTINUOUS
 62
     3
 10
214.4585266113281
 20
6.012725830078153
 30
0.0
 11
209.8835296630859
 21
6.012725830078153
 31
0.0
  0
LINE
  5
2C6
  8
0
  6
CONTINUOUS
 62
     3
 10
193.0443538232416
 20
21.17633940771114
 30
0.0
 11
212.3169086657058
 21
10.04932591077662
 31
0.0
  0
LINE
  5
2C7
  8
0
  6
CONTINUOUS
 62
     3
 10
219.025130473105
 20
6.176332672386735
 30
0.0
 11
232.9915219190648
 21
-1.887166297674838
 31
0.0
  0
LINE
  5
2C8
  8
0
  6
CONTINUOUS
 62
     3
 10
212.0251159054294
 20
-5.947988516912091
 30
0.0
 11
225.9915205658888
 21
-14.01149511636774
 31
0.0
  0
LINE
  5
2C9
  8
0
  6
CONTINUOUS
 62
     3
 10
186.0443524700656
 20
9.052010589018238
 30
0.0
 11
205.3169205270294
 21
-2.075010537310362
 31
0.0
  0
LINE
  5
2CA
  8
0
  6
CONTINUOUS
 62
     3
 10
127.2499923706055
 20
87.75064849853519
 30
0.0
 11
127.2499923706055
 21
83.21224212646487
 31
0.0
  0
LINE
  5
2CB
  8
0
  6
CONTINUOUS
 62
     3
 10
146.7499923706055
 20
87.75064849853519
 30
0.0
 11
146.7499923706055
 21
83.21224212646487
 31
0.0
  0
LINE
  5
2CC
  8
0
  6
CONTINUOUS
 62
     3
 10
119.4999694824219
 20
87.75064086914065
 30
0.0
 11
129.9999923706055
 21
87.75064086914065
 31
0.0
  0
LINE
  5
2CD
  8
0
  6
CONTINUOUS
 62
     3
 10
143.9999923706055
 20
87.75064086914065
 30
0.0
 11
154.5000228881836
 21
87.75064086914065
 31
0.0
  0
LINE
  5
2CE
  8
0
  6
CONTINUOUS
 62
     3
 10
129.9999923706055
 20
92.25064086914065
 30
0.0
 11
143.9999923706055
 21
92.25064086914065
 31
0.0
  0
LINE
  5
2CF
  8
0
  6
CONTINUOUS
 62
     3
 10
129.9999923706055
 20
142.2506408691407
 30
0.0
 11
143.9999923706055
 21
142.2506408691407
 31
0.0
  0
LINE
  5
2D0
  8
0
  6
CONTINUOUS
 62
     3
 10
129.9999923706055
 20
98.37767028808597
 30
0.0
 11
129.9999923706055
 21
87.75064849853519
 31
0.0
  0
LINE
  5
2D1
  8
0
  6
CONTINUOUS
 62
     3
 10
129.9999923706055
 20
128.3776626586914
 30
0.0
 11
129.9999923706055
 21
106.1236343383789
 31
0.0
  0
LINE
  5
2D2
  8
0
  6
CONTINUOUS
 62
     3
 10
143.9999923706055
 20
128.3776626586914
 30
0.0
 11
143.9999923706055
 21
106.1236343383789
 31
0.0
  0
LINE
  5
2D3
  8
0
  6
CONTINUOUS
 62
     3
 10
143.9999923706055
 20
98.37767028808597
 30
0.0
 11
143.9999923706055
 21
87.75064849853519
 31
0.0
  0
LINE
  5
2D4
  8
0
  6
CONTINUOUS
 62
     3
 10
125.7292251586914
 20
-1.187295913696261
 30
0.0
 11
121.1542282104492
 21
-1.187295913696261
 31
0.0
  0
LINE
  5
2D5
  8
0
  6
CONTINUOUS
 62
     3
 10
128.0167216254074
 20
-5.149362171416641
 30
0.0
 11
125.7292242435419
 21
-1.187293450650913
 31
0.0
  0
LINE
  5
2D6
  8
0
  6
CONTINUOUS
 62
     3
 10
125.7291870108807
 20
-9.111414729843517
 30
0.0
 11
128.0166857576928
 21
-5.149351221541537
 31
0.0
  0
LINE
  5
2D7
  8
0
  6
CONTINUOUS
 62
     3
 10
121.1542282104492
 20
-9.111429214477511
 30
0.0
 11
125.7292251586914
 21
-9.111429214477511
 31
0.0
  0
LINE
  5
2D8
  8
0
  6
CONTINUOUS
 62
     3
 10
118.866748784586
 20
-5.149369161183785
 30
0.0
 11
121.1542460315973
 21
-9.111433487558969
 31
0.0
  0
LINE
  5
2D9
  8
0
  6
CONTINUOUS
 62
     3
 10
121.1541951849465
 20
-1.187291785163978
 30
0.0
 11
118.86669412324
 21
-5.149362718789888
 31
0.0
  0
ARC
  5
2DA
  8
0
  6
CONTINUOUS
 62
     3
 10
136.9999923706055
 20
45.4506530761719
 30
0.0
 40
40.0
 50
115.9444965573391
 51
184.0554844701647
  0
CIRCLE
  5
2DB
  8
0
  6
CONTINUOUS
 62
     3
 10
136.9999923706055
 20
45.4506530761719
 30
0.0
 40
37.0
  0
ARC
  5
2DC
  8
0
  6
CONTINUOUS
 62
     3
 10
136.9999923706055
 20
45.4506530761719
 30
0.0
 40
105.5
 50
99.54819032261662
 51
150.0000110043195
  0
ARC
  5
2DD
  8
0
  6
CONTINUOUS
 62
     3
 10
136.9999923706055
 20
45.4506530761719
 30
0.0
 40
105.5
 50
219.5481563232515
 51
270.0000179860894
  0
ARC
  5
2DE
  8
0
  6
CONTINUOUS
 62
     3
 10
136.9999923706055
 20
45.4506530761719
 30
0.0
 40
105.5
 50
339.5481750304813
 51
390.000000834826
  0
ARC
  5
2DF
  8
0
  6
CONTINUOUS
 62
     3
 10
136.9999923706055
 20
45.4506530761719
 30
0.0
 40
107.5
 50
219.3688911782953
 51
320.6310867372754
  0
ARC
  5
2E0
  8
0
  6
CONTINUOUS
 62
     3
 10
136.9999923706055
 20
45.4506530761719
 30
0.0
 40
107.5
 50
339.3689184232617
 51
360.0
  0
ARC
  5
2E1
  8
0
  6
CONTINUOUS
 62
     3
 10
136.9999923706055
 20
45.4506530761719
 30
0.0
 40
40.0
 50
235.944462557974
 51
304.0555187726914
  0
ARC
  5
2E2
  8
0
  6
CONTINUOUS
 62
     3
 10
136.9999923706055
 20
45.4506530761719
 30
0.0
 40
40.0
 50
355.9444833996379
 51
424.0555221119956
  0
ARC
  5
2E3
  8
0
  6
CONTINUOUS
 62
     3
 10
136.9999923706055
 20
45.4506530761719
 30
0.0
 40
39.0
 50
63.33854349444098
 51
116.6614751748937
  0
ARC
  5
2E4
  8
0
  6
CONTINUOUS
 62
     3
 10
136.9999923706055
 20
45.4506530761719
 30
0.0
 40
39.0
 50
303.3385435702314
 51
356.6614609499755
  0
CIRCLE
  5
2E5
  8
0
  6
CONTINUOUS
 62
     3
 10
87.80974578857422
 20
17.05065917968753
 30
0.0
 40
8.0
  0
CIRCLE
  5
2E6
  8
0
  6
CONTINUOUS
 62
     3
 10
61.8289737701416
 20
2.050659179687528
 30
0.0
 40
8.0
  0
CIRCLE
  5
2E7
  8
0
  6
CONTINUOUS
 62
     3
 10
186.1902465820313
 20
17.05065917968753
 30
0.0
 40
8.0
  0
CIRCLE
  5
2E8
  8
0
  6
CONTINUOUS
 62
     3
 10
212.1710205078125
 20
2.050659179687528
 30
0.0
 40
8.0
  0
ARC
  5
2E9
  8
0
  6
CONTINUOUS
 62
     3
 10
136.9999923706055
 20
45.4506530761719
 30
0.0
 40
105.5
 50
270.0000179860894
 51
320.4518284225084
  0
ARC
  5
2EA
  8
0
  6
CONTINUOUS
 62
     3
 10
76.99999237060547
 20
115.5006408691407
 30
0.0
 40
2.0
 50
321.3178110319014
 51
360.0
  0
CIRCLE
  5
2EB
  8
0
  6
CONTINUOUS
 62
     3
 10
136.9999923706055
 20
45.4506530761719
 30
0.0
 40
31.82341766357422
  0
ARC
  5
2EC
  8
0
  6
CONTINUOUS
 62
     3
 10
136.9999923706055
 20
45.4506530761719
 30
0.0
 40
39.0
 50
183.3385231554542
 51
236.6614275151502
  0
ARC
  5
2ED
  8
0
  6
CONTINUOUS
 62
     3
 10
136.9999923706055
 20
45.4506530761719
 30
0.0
 40
105.5
 50
150.0000110043195
 51
200.4517907048872
  0
ARC
  5
2EE
  8
0
  6
CONTINUOUS
 62
     3
 10
136.9999923706055
 20
45.4506530761719
 30
0.0
 40
105.5
 50
30.00000083482606
 51
80.45182834671805
  0
CIRCLE
  5
2EF
  8
0
  6
CONTINUOUS
 62
     3
 10
136.9999923706055
 20
45.4506530761719
 30
0.0
 40
24.0
  0
CIRCLE
  5
2F0
  8
0
  6
CONTINUOUS
 62
     3
 10
150.5582046508789
 20
-5.149374008178683
 30
0.0
 40
5.5
  0
CIRCLE
  5
2F1
  8
0
  6
CONTINUOUS
 62
     3
 10
187.6000213623047
 20
59.00888442993167
 30
0.0
 40
5.5
  0
CIRCLE
  5
2F2
  8
0
  6
CONTINUOUS
 62
     3
 10
174.0417938232422
 20
82.49243927001956
 30
0.0
 40
5.5
  0
CIRCLE
  5
2F3
  8
0
  6
CONTINUOUS
 62
     3
 10
99.95820617675781
 20
82.49243927001956
 30
0.0
 40
5.5
  0
CIRCLE
  5
2F4
  8
0
  6
CONTINUOUS
 62
     3
 10
86.39996337890625
 20
59.00886154174808
 30
0.0
 40
5.5
  0
CIRCLE
  5
2F5
  8
0
  6
CONTINUOUS
 62
     3
 10
86.39996337890625
 20
59.00886154174808
 30
0.0
 40
8.5
  0
CIRCLE
  5
2F6
  8
0
  6
CONTINUOUS
 62
     3
 10
99.95820617675781
 20
82.49243927001956
 30
0.0
 40
8.5
  0
CIRCLE
  5
2F7
  8
0
  6
CONTINUOUS
 62
     3
 10
174.0417938232422
 20
82.49243927001956
 30
0.0
 40
8.5
  0
CIRCLE
  5
2F8
  8
0
  6
CONTINUOUS
 62
     3
 10
187.6000213623047
 20
59.00888442993167
 30
0.0
 40
8.5
  0
CIRCLE
  5
2F9
  8
0
  6
CONTINUOUS
 62
     3
 10
150.5582046508789
 20
-5.149374008178683
 30
0.0
 40
8.5
  0
CIRCLE
  5
2FA
  8
0
  6
CONTINUOUS
 62
     3
 10
123.4417343139648
 20
-5.149362564086886
 30
0.0
 40
8.5
  0
CIRCLE
  5
2FB
  8
0
  6
CONTINUOUS
 62
     3
 10
123.4417343139648
 20
-5.149362564086886
 30
0.0
 40
8.0
  0
LINE
  5
2FC
  8
0
  6
CONTINUOUS
 62
     3
 10
119.4999694824219
 20
152.2506408691407
 30
0.0
 11
154.5000228881836
 21
152.2506408691407
 31
0.0
  0
LINE
  5
2FD
  8
0
  6
CONTINUOUS
 62
     3
 10
109.5000047702206
 20
150.4873155464407
 30
0.0
 11
119.4999822281961
 21
152.2505814297056
 31
0.0
  0
LINE
  5
2FE
  8
0
  6
CONTINUOUS
 62
     3
 10
154.5000115037128
 20
152.2505740125712
 30
0.0
 11
164.4999814482017
 21
150.4873094541368
 31
0.0
  0
LINE
  5
2FF
  8
0
  6
CONTINUOUS
 62
     3
 10
109.4999923706055
 20
150.4873657226563
 30
0.0
 11
109.4999923706055
 21
149.3737030029297
 31
0.0
  0
LINE
  5
300
  8
0
  6
CONTINUOUS
 62
     3
 10
164.4999923706055
 20
150.4873352050782
 30
0.0
 11
164.4999923706055
 21
149.3737030029297
 31
0.0
  0
LINE
  5
301
  8
0
  6
CONTINUOUS
 62
     3
 10
119.4999923706055
 20
152.2506408691407
 30
0.0
 11
119.4999923706055
 21
78.05049896240237
 31
0.0
  0
LINE
  5
302
  8
0
  6
CONTINUOUS
 62
     3
 10
154.4999923706055
 20
152.2506408691407
 30
0.0
 11
154.4999923706055
 21
78.05049896240237
 31
0.0
  0
LINE
  5
303
  8
0
  6
CONTINUOUS
 62
     3
 10
109.4999923706055
 20
150.4873657226563
 30
0.0
 11
109.4999923706055
 21
149.3737030029297
 31
0.0
  0
LINE
  5
304
  8
0
  6
CONTINUOUS
 62
     3
 10
164.4999923706055
 20
150.4873352050782
 30
0.0
 11
164.4999923706055
 21
149.3737030029297
 31
0.0
  0
LINE
  5
305
  8
0
  6
CONTINUOUS
 62
     3
 10
129.9999923706055
 20
152.2506408691407
 30
0.0
 11
129.9999923706055
 21
136.1236343383789
 31
0.0
  0
LINE
  5
306
  8
0
  6
CONTINUOUS
 62
     3
 10
143.9999923706055
 20
152.2506408691407
 30
0.0
 11
143.9999923706055
 21
136.1236343383789
 31
0.0
  0
ARC
  5
307
  8
0
  6
CONTINUOUS
 62
     3
 10
136.9999923706055
 20
45.4506530761719
 30
0.0
 40
107.5
 50
0.0
 51
80.63108666148504
  0
ARC
  5
308
  8
0
  6
CONTINUOUS
 62
     3
 10
136.9999923706055
 20
45.4506530761719
 30
0.0
 40
107.5
 50
99.36893200784964
 51
200.631042189465
  0
LINE
  5
309
  8
0
  6
CONTINUOUS
 62
     3
 10
-76.11917347001311
 20
127.2506408691407
 30
0.0
 11
-76.11917347001311
 21
122.2506408691407
 31
0.0
  0
LINE
  5
30A
  8
0
  6
CONTINUOUS
 62
     3
 10
-76.11917347001311
 20
122.2506408691407
 30
0.0
 11
-76.11917347001311
 21
107.2506561279297
 31
0.0
  0
LINE
  5
30B
  8
0
  6
CONTINUOUS
 62
     3
 10
-91.61920398759123
 20
142.2506408691407
 30
0.0
 11
-91.61920398759123
 21
92.25065612792972
 31
0.0
  0
LINE
  5
30C
  8
0
  6
CONTINUOUS
 62
     3
 10
-85.61917347001311
 20
152.2506561279297
 30
0.0
 11
-85.61917347001311
 21
142.2711989022304
 31
0.0
  0
LINE
  5
30D
  8
0
  6
CONTINUOUS
 62
     3
 10
-76.61917347001311
 20
150.9506378173828
 30
0.0
 11
-76.61917347001311
 21
142.2711989022304
 31
0.0
  0
LINE
  5
30E
  8
0
  6
CONTINUOUS
 62
     3
 10
99.85001838724288
 20
124.8869947301558
 30
0.0
 11
94.1500214390007
 21
124.8869956838297
 31
0.0
  0
LINE
  5
30F
  8
0
  6
CONTINUOUS
 62
     3
 10
89.631130193437
 20
-21.50401784627539
 30
0.0
 11
86.78112670060378
 21
-26.4403640590219
 31
0.0
  0
LINE
  5
310
  8
0
  6
CONTINUOUS
 62
     3
 10
86.78112562736149
 20
-26.44036328906392
 30
0.0
 11
89.63112325211685
 21
-31.37670603862941
 31
0.0
  0
LINE
  5
311
  8
0
  6
CONTINUOUS
 62
     3
 10
95.33112630902409
 20
-21.50410461425778
 30
0.0
 11
89.6311293607819
 21
-21.50410461425778
 31
0.0
  0
LINE
  5
312
  8
0
  6
CONTINUOUS
 62
     3
 10
89.63112173138737
 20
-31.37673187255857
 30
0.0
 11
95.33112630902409
 21
-31.37673187255857
 31
0.0
  0
CIRCLE
  5
313
  8
0
  6
CONTINUOUS
 62
     3
 10
92.48112783490299
 20
-26.44036483764646
 30
0.0
 40
0.75
  0
CIRCLE
  5
314
  8
0
  6
CONTINUOUS
 62
     3
 10
92.48112783490299
 20
-26.44036483764646
 30
0.0
 40
2.400000095367432
  0
CIRCLE
  5
315
  8
0
  6
CONTINUOUS
 62
     3
 10
92.48112783490299
 20
-26.44036483764646
 30
0.0
 40
3.299999952316284
  0
LINE
  5
316
  8
0
  6
CONTINUOUS
 62
     3
 10
224.3689147001374
 20
47.77801513671878
 30
0.0
 11
218.6689177518952
 21
47.77801513671878
 31
0.0
  0
LINE
  5
317
  8
0
  6
CONTINUOUS
 62
     3
 10
215.8189763293235
 20
42.84171237419835
 30
0.0
 11
218.6689748034446
 21
37.90537030412546
 31
0.0
  0
LINE
  5
318
  8
0
  6
CONTINUOUS
 62
     3
 10
218.6689024931061
 20
37.90532779693606
 30
0.0
 11
224.3689147001374
 21
37.90532779693606
 31
0.0
  0
LINE
  5
319
  8
0
  6
CONTINUOUS
 62
     3
 10
224.3689021252008
 20
37.90533040087851
 30
0.0
 11
227.2189050935126
 21
42.84167873845402
 31
0.0
  0
CIRCLE
  5
31A
  8
0
  6
CONTINUOUS
 62
     3
 10
221.5189085966217
 20
42.84166908264163
 30
0.0
 40
0.75
  0
LINE
  5
31B
  8
0
  6
CONTINUOUS
 62
     3
 10
102.7000215145095
 20
119.9506539617383
 30
0.0
 11
99.85002300164561
 21
124.8870006944219
 31
0.0
  0
CIRCLE
  5
31C
  8
0
  6
CONTINUOUS
 62
     3
 10
97.00001821576237
 20
119.9506530761719
 30
0.0
 40
3.299999952316284
  0
LINE
  5
31D
  8
0
  6
CONTINUOUS
 62
     3
 10
94.15002105225474
 20
124.8870022366395
 30
0.0
 11
91.30001774419614
 21
119.950653899064
 31
0.0
  0
CIRCLE
  5
31E
  8
0
  6
CONTINUOUS
 62
     3
 10
97.00001821576237
 20
119.9506530761719
 30
0.0
 40
9.0
  0
LINE
  5
31F
  8
0
  6
CONTINUOUS
 62
     3
 10
94.15001985552254
 20
115.0143108038187
 30
0.0
 11
99.85001680376473
 21
115.0143084196338
 31
0.0
  0
LINE
  5
320
  8
0
  6
CONTINUOUS
 62
     3
 10
99.85001320035545
 20
115.0143046818869
 30
0.0
 11
102.7000150719395
 21
119.950644713482
 31
0.0
  0
CIRCLE
  5
321
  8
0
  6
CONTINUOUS
 62
     3
 10
97.00001821576237
 20
119.9506530761719
 30
0.0
 40
0.75
  0
CIRCLE
  5
322
  8
0
  6
CONTINUOUS
 62
     3
 10
97.00001821576237
 20
119.9506530761719
 30
0.0
 40
2.400000095367432
  0
LINE
  5
323
  8
0
  6
CONTINUOUS
 62
     3
 10
91.30001197828463
 20
119.9506511695365
 30
0.0
 11
94.15001100076827
 21
115.0143051163459
 31
0.0
  0
LINE
  5
324
  8
0
  6
CONTINUOUS
 62
     3
 10
95.33112507966874
 20
-31.37670990197577
 30
0.0
 11
98.18112610486847
 21
-26.44036644663032
 31
0.0
  0
LINE
  5
325
  8
0
  6
CONTINUOUS
 62
     3
 10
98.18112705171782
 20
-26.44036487160153
 30
0.0
 11
95.33113061607449
 21
-21.50402144254346
 31
0.0
  0
CIRCLE
  5
326
  8
0
  6
CONTINUOUS
 62
     3
 10
92.48112783490299
 20
-26.44036483764646
 30
0.0
 40
9.0
  0
LINE
  5
327
  8
0
  6
CONTINUOUS
 62
     3
 10
218.6689158981622
 20
47.77801514978276
 30
0.0
 11
215.8189153855633
 21
42.84167409894874
 31
0.0
  0
LINE
  5
328
  8
0
  6
CONTINUOUS
 62
     3
 10
227.218931079718
 20
42.84168114072375
 30
0.0
 11
224.3689287908997
 21
47.77802981804601
 31
0.0
  0
CIRCLE
  5
329
  8
0
  6
CONTINUOUS
 62
     3
 10
221.5189085966217
 20
42.84166908264163
 30
0.0
 40
9.0
  0
CIRCLE
  5
32A
  8
0
  6
CONTINUOUS
 62
     3
 10
221.5189085966217
 20
42.84166908264163
 30
0.0
 40
2.400000095367432
  0
CIRCLE
  5
32B
  8
0
  6
CONTINUOUS
 62
     3
 10
221.5189085966217
 20
42.84166908264163
 30
0.0
 40
3.299999952316284
  0
LINE
  5
32C
  8
0
  6
CONTINUOUS
 62
     3
 10
27.34584036056191
 20
-53.65382976167091
 30
0.0
 11
38.60417040769249
 21
-47.15382976167091
 31
0.0
  0
LINE
  5
32D
  8
0
  6
CONTINUOUS
 62
     3
 10
36.34584036056191
 20
-69.24228675000556
 30
0.0
 11
47.60417040769249
 21
-62.74228675000556
 31
0.0
  0
LINE
  5
32E
  8
0
  6
CONTINUOUS
 62
     3
 10
27.34584136343602
 20
-53.653833412423
 30
0.0
 11
36.34584243631963
 21
-69.24229040075765
 31
0.0
  0
LINE
  5
32F
  8
0
  6
CONTINUOUS
 62
     3
 10
43.43814578239113
 20
-57.52652050906606
 30
0.0
 11
41.03814425651223
 21
-53.36959600261041
 31
0.0
  0
LINE
  5
330
  8
0
  6
CONTINUOUS
 62
     3
 10
41.54987898816779
 20
-59.65594410772808
 30
0.0
 11
38.24987975110724
 21
-53.94017786678857
 31
0.0
  0
LINE
  5
331
  8
0
  6
CONTINUOUS
 62
     3
 10
32.07997539496586
 20
-54.73109084244258
 30
0.0
 11
29.37581158269137
 21
-56.29234057541378
 31
0.0
  0
LINE
  5
332
  8
0
  6
CONTINUOUS
 62
     3
 10
37.77997615790531
 20
-64.60378158983774
 30
0.0
 11
35.07581234563082
 21
-66.16503132280893
 31
0.0
  0
LINE
  5
333
  8
0
  6
CONTINUOUS
 62
     3
 10
38.24987768381692
 20
-53.94017965625379
 30
0.0
 11
41.03814612514969
 21
-53.36960249490892
 31
0.0
  0
LINE
  5
334
  8
0
  6
CONTINUOUS
 62
     3
 10
41.5498767007586
 20
-59.65594534037716
 30
0.0
 11
43.4381455836496
 21
-57.52652222365821
 31
0.0
  0
LINE
  5
335
  8
0
  6
CONTINUOUS
 62
     3
 10
40.40651747932151
 20
-59.67558386468697
 30
0.0
 11
37.63611266364768
 21
-54.87710205253067
 31
0.0
  0
LINE
  5
336
  8
0
  6
CONTINUOUS
 62
     3
 10
37.53494420234352
 20
-63.30187519785947
 30
0.0
 11
33.08494343940407
 21
-55.59424792106636
 31
0.0
  0
LINE
  5
337
  8
0
  6
CONTINUOUS
 62
     3
 10
36.11254602859441
 20
-62.32598700645774
 30
0.0
 11
33.9368977445161
 21
-63.58209815147727
 31
0.0
  0
LINE
  5
338
  8
0
  6
CONTINUOUS
 62
     3
 10
33.21888452957097
 20
-57.3140183601992
 30
0.0
 11
31.04323624549267
 21
-58.57012950521873
 31
0.0
  0
LINE
  5
339
  8
0
  6
CONTINUOUS
 62
     3
 10
27.2946216276502
 20
-69.60700148778624
 30
0.0
 11
34.32756747083505
 21
-65.78842362193574
 31
0.0
  0
ARC
  5
33A
  8
0
  6
CONTINUOUS
 62
     3
 10
39.89987740537521
 20
-56.79806071907721
 30
0.0
 40
3.299999952316284
 50
283.4828250680728
 51
299.9999846699695
  0
ARC
  5
33B
  8
0
  6
CONTINUOUS
 62
     3
 10
39.89987740537521
 20
-56.79806071907721
 30
0.0
 40
3.299999952316284
 50
120.0000169996826
 51
136.5171766015793
  0
ARC
  5
33C
  8
0
  6
CONTINUOUS
 62
     3
 10
35.80289254209396
 20
-64.30187541634284
 30
0.0
 40
2.0
 50
210.0000026560589
 51
248.6821916241575
  0
ARC
  5
33D
  8
0
  6
CONTINUOUS
 62
     3
 10
31.3528917791545
 20
-56.5942490735694
 30
0.0
 40
2.0
 50
210.0000026560589
 51
261.0931644404476
  0
ARC
  5
33E
  8
0
  6
CONTINUOUS
 62
     3
 10
37.04199395200607
 20
-58.44806224495612
 30
0.0
 40
6.0
 50
210.0000026560589
 51
238.8342336335363
  0
ARC
  5
33F
  8
0
  6
CONTINUOUS
 62
     3
 10
30.1137903692424
 20
-62.44806224495612
 30
0.0
 40
6.0
 50
1.165774019495132
 51
58.83421132173599
  0
ARC
  5
340
  8
0
  6
CONTINUOUS
 62
     3
 10
37.04199395200607
 20
-58.44806224495612
 30
0.0
 40
6.0
 50
181.1657580182031
 51
210.0000026560589
  0
ARC
  5
341
  8
0
  6
CONTINUOUS
 62
     3
 10
35.80289254209396
 20
-64.30187541634284
 30
0.0
 40
2.0
 50
158.9068372292045
 51
209.9999990135932
  0
ARC
  5
342
  8
0
  6
CONTINUOUS
 62
     3
 10
35.80289254209396
 20
-64.30187541634284
 30
0.0
 40
2.0
 50
351.317829795974
 51
441.0931148078906
  0
ARC
  5
343
  8
0
  6
CONTINUOUS
 62
     3
 10
31.3528917791545
 20
-56.5942490735694
 30
0.0
 40
2.0
 50
338.9068561259103
 51
428.6821556519788
  0
ARC
  5
344
  8
0
  6
CONTINUOUS
 62
     3
 10
31.3528917791545
 20
-56.5942490735694
 30
0.0
 40
2.0
 50
171.3178100454946
 51
209.9999990135932
  0
ARC
  5
345
  8
0
  6
CONTINUOUS
 62
     3
 10
43.14529404661056
 20
-65.08568126351081
 30
0.0
 40
5.650000095367432
 50
115.9910921078569
 51
165.0592530674986
  0
ARC
  5
346
  8
0
  6
CONTINUOUS
 62
     3
 10
34.34529480955001
 20
-49.8436387220069
 30
0.0
 40
5.650000095367432
 50
254.9407486021535
 51
304.0089061467006
  0
ARC
  5
347
  8
0
  6
CONTINUOUS
 62
     3
 10
41.63192734739181
 20
-55.79806071907721
 30
0.0
 40
1.5
 50
327.8181532914213
 51
452.1818449631362
  0
LINE
  5
348
  8
0
  6
CONTINUOUS
 62
     3
 10
16.01280175435312
 20
-68.27986646525748
 30
0.0
 11
23.91763890644774
 21
-63.71600652568229
 31
0.0
  0
LINE
  5
349
  8
0
  6
CONTINUOUS
 62
     3
 10
33.61368467063477
 20
-38.51005723506073
 30
0.0
 11
52.41222893430069
 21
-71.07008654220958
 31
0.0
  0
LINE
  5
34A
  8
0
  6
CONTINUOUS
 62
     3
 10
22.5222434850038
 20
-61.29912038787431
 30
0.0
 11
27.31303079927415
 21
-69.59700628632952
 31
0.0
  0
LINE
  5
34B
  8
0
  6
CONTINUOUS
 62
     3
 10
22.50438379459041
 20
-61.3100633422129
 30
0.0
 11
29.32784197768518
 21
-57.12864286260337
 31
0.0
  0
LINE
  5
34C
  8
0
  6
CONTINUOUS
 62
     3
 10
17.65332113837093
 20
-71.9515142523516
 30
0.0
 11
25.91763890644774
 21
-67.18010807864555
 31
0.0
  0
LINE
  5
34D
  8
0
  6
CENTER
 62
     7
 10
-180.2936348347592
 20
45.4506530761719
 30
0.0
 11
-70.94285816239592
 21
45.4506530761719
 31
0.0
  0
LINE
  5
34E
  8
0
  6
CENTER
 62
     7
 10
-100.3777107624936
 20
0.4506530761719034
 30
0.0
 11
-73.37770313309905
 21
0.4506530761719034
 31
0.0
  0
LINE
  5
34F
  8
0
  6
CENTER
 62
     7
 10
-101.0786995320248
 20
72.4506530761719
 30
0.0
 11
-89.12034839677092
 21
72.4506530761719
 31
0.0
  0
LINE
  5
350
  8
0
  6
CENTER
 62
     7
 10
-93.6192192463803
 20
132.2506408691407
 30
0.0
 11
-55.83004028274802
 21
132.2506408691407
 31
0.0
  0
LINE
  5
351
  8
0
  6
CENTER
 62
     7
 10
-93.6192192463803
 20
102.2506713867188
 30
0.0
 11
-55.83004028274802
 21
102.2506713867188
 31
0.0
  0
LINE
  5
352
  8
0
  6
CENTER
 62
     7
 10
-116.6191658406186
 20
-37.43131465907516
 30
0.0
 11
-116.6191658406186
 21
-67.35663604736325
 31
0.0
  0
LINE
  5
353
  8
0
  6
CENTER
 62
     7
 10
-209.4072517781186
 20
97.85065460205081
 30
0.0
 11
-158.6455940632748
 21
97.85065460205081
 31
0.0
  0
LINE
  5
354
  8
0
  6
CENTER
 62
     7
 10
-193.9037117390561
 20
-6.949348449707003
 30
0.0
 11
-119.636591377728
 21
-6.949348449707003
 31
0.0
  0
LINE
  5
355
  8
0
  6
CENTER
 62
     7
 10
39.30995111627291
 20
-10.95072452118736
 30
0.0
 11
136.9999938036577
 21
45.45064169018818
 31
0.0
  0
LINE
  5
356
  8
0
  6
CENTER
 62
     7
 10
89.47205759273606
 20
72.89096622538526
 30
0.0
 11
105.8231145168095
 21
63.45068015171765
 31
0.0
  0
LINE
  5
357
  8
0
  6
CENTER
 62
     7
 10
164.1666700323528
 20
72.61732099049553
 30
0.0
 11
183.2341807142527
 21
91.68483006512454
 31
0.0
  0
LINE
  5
358
  8
0
  6
CENTER
 62
     7
 10
90.76582192011574
 20
91.68483143946551
 30
0.0
 11
109.8333339507149
 21
72.61732101613737
 31
0.0
  0
LINE
  5
359
  8
0
  6
CENTER
 62
     7
 10
174.1047864698651
 20
55.39284970664804
 30
0.0
 11
200.157044882157
 21
62.37353056393013
 31
0.0
  0
LINE
  5
35A
  8
0
  6
CENTER
 62
     7
 10
73.84292425466094
 20
62.37350593267306
 30
0.0
 11
99.97851432900723
 21
55.37049642622347
 31
0.0
  0
LINE
  5
35B
  8
0
  6
CENTER
 62
     7
 10
120.0770856107066
 20
-17.70639707656309
 30
0.0
 11
126.9967625350084
 21
8.118185586813326
 31
0.0
  0
LINE
  5
35C
  8
0
  6
CENTER
 62
     7
 10
147.0641821190244
 20
7.89049919939842
 30
0.0
 11
153.9228539963905
 21
-17.70640955741985
 31
0.0
  0
LINE
  5
35D
  8
0
  6
CENTER
 62
     7
 10
55.82896292963255
 20
12.44299001694495
 30
0.0
 11
67.82897055902782
 21
-8.341630037614806
 31
0.0
  0
LINE
  5
35E
  8
0
  6
CENTER
 62
     7
 10
206.1710384429896
 20
-8.341618427951943
 30
0.0
 11
218.1710379661522
 21
12.44298758620292
 31
0.0
  0
LINE
  5
35F
  8
0
  6
CENTER
 62
     7
 10
180.1903105802714
 20
6.658319806358833
 30
0.0
 11
192.1903139181318
 21
27.44293242776305
 31
0.0
  0
LINE
  5
360
  8
0
  6
CENTER
 62
     7
 10
81.80974151252099
 20
27.44298726718787
 30
0.0
 11
93.80974675773018
 21
6.658371342158972
 31
0.0
  0
LINE
  5
361
  8
0
  6
CENTER
 62
     7
 10
124.5971069335938
 20
132.2506408691407
 30
0.0
 11
149.1801071166992
 21
132.2506408691407
 31
0.0
  0
LINE
  5
362
  8
0
  6
CENTER
 62
     7
 10
124.5971069335938
 20
102.2506408691407
 30
0.0
 11
149.1801071166992
 21
102.2506408691407
 31
0.0
  0
LINE
  5
363
  8
0
  6
CENTER
 62
     7
 10
109.9999923706055
 20
51.4506530761719
 30
0.0
 11
109.9999923706055
 21
39.4506530761719
 31
0.0
  0
LINE
  5
364
  8
0
  6
CENTER
 62
     7
 10
163.9999923706055
 20
51.4506530761719
 30
0.0
 11
163.9999923706055
 21
39.4506530761719
 31
0.0
  0
LINE
  5
365
  8
0
  6
CENTER
 62
     7
 10
133.6244659423828
 20
72.4506530761719
 30
0.0
 11
140.4254760742188
 21
72.4506530761719
 31
0.0
  0
LINE
  5
366
  8
0
  6
CENTER
 62
     7
 10
137.0000009066218
 20
45.45069839073793
 30
0.0
 11
240.9230348263275
 21
-14.54928658889227
 31
0.0
  0
LINE
  5
367
  8
0
  6
CENTER
 62
     7
 10
168.1769099260942
 20
63.45064061730457
 30
0.0
 11
184.8543352584398
 21
73.07935555852512
 31
0.0
  0
LINE
  5
368
  8
0
  6
CENTER
 62
     7
 10
63.79216194152832
 20
119.9506530761719
 30
0.0
 11
109.1236124688349
 21
119.9506530761719
 31
0.0
  0
LINE
  5
369
  8
0
  6
CENTER
 62
     7
 10
115.3050710307166
 20
29.02736147711053
 30
0.0
 11
111.9045659647986
 21
34.91720891696346
 31
0.0
  0
LINE
  5
36A
  8
0
  6
CENTER
 62
     7
 10
162.0704418765113
 20
34.87394285341591
 30
0.0
 11
158.6699368105933
 21
28.98409541356298
 31
0.0
  0
ARC
  5
36B
  8
0
  6
CENTER
 62
     7
 10
136.9999923706055
 20
45.4506530761719
 30
0.0
 40
45.0
 50
138.5216731984379
 51
161.478348810201
  0
ARC
  5
36C
  8
0
  6
CENTER
 62
     7
 10
136.9999923706055
 20
45.4506530761719
 30
0.0
 40
45.0
 50
258.5216391990728
 51
281.4783421315925
  0
ARC
  5
36D
  8
0
  6
CENTER
 62
     7
 10
136.9999923706055
 20
45.4506530761719
 30
0.0
 40
45.0
 50
18.52166644403911
 51
41.47834205580217
  0
ARC
  5
36E
  8
0
  6
CENTER
 62
     7
 10
136.9999923706055
 20
45.4506530761719
 30
0.0
 40
52.3849983215332
 50
0.7445829871677437
 51
59.255401767094
  0
ARC
  5
36F
  8
0
  6
CENTER
 62
     7
 10
136.9999923706055
 20
45.4506530761719
 30
0.0
 40
52.3849983215332
 50
240.7445419217405
 51
299.2553915976006
  0
ARC
  5
370
  8
0
  6
CENTER
 62
     7
 10
136.9999923706055
 20
45.4506530761719
 30
0.0
 40
52.3849983215332
 50
120.7446032418623
 51
179.2554597479116
  0
LINE
  5
371
  8
0
  6
CENTER
 62
     7
 10
16.9999942779541
 20
45.4506530761719
 30
0.0
 11
257.0
 21
45.4506530761719
 31
0.0
  0
LINE
  5
372
  8
0
  6
CENTER
 62
     7
 10
97.00001821576237
 20
131.8773651123047
 30
0.0
 11
97.00001821576237
 21
107.6629333496094
 31
0.0
  0
LINE
  5
373
  8
0
  6
CENTER
 62
     7
 10
98.88958806025315
 20
-37.54014238631905
 30
0.0
 11
85.8663107775383
 21
-14.98316485645725
 31
0.0
  0
LINE
  5
374
  8
0
  6
CENTER
 62
     7
 10
81.17618464809155
 20
-32.96727067671461
 30
0.0
 11
103.1226027826297
 21
-20.296500031573
 31
0.0
  0
LINE
  5
375
  8
0
  6
CENTER
 62
     7
 10
227.4386994996953
 20
53.09505892536075
 30
0.0
 11
215.1237275758672
 21
31.76490224234479
 31
0.0
  0
LINE
  5
376
  8
0
  6
CENTER
 62
     7
 10
231.8477521457321
 20
36.87830803682439
 30
0.0
 11
210.8774262629145
 21
48.98553154756658
 31
0.0
  0
LINE
  5
377
  8
0
  6
CENTER
 62
     7
 10
14.30613721700764
 20
-71.57461076902912
 30
0.0
 11
46.33195968644429
 21
-53.0844932134158
 31
0.0
  0
LINE
  5
378
  8
0
  6
CENTER
 62
     7
 10
136.9999923706055
 20
162.4953640370878
 30
0.0
 11
136.9999923706055
 21
62.33014532042871
 31
0.0
  0
LINE
  5
379
  8
0
  6
CENTER
 62
     7
 10
136.9999923706055
 20
55.1153097387018
 30
0.0
 11
136.9999923706055
 21
-67.62184348912372
 31
0.0
  0
LINE
  5
37A
  8
0
  6
DASHED2
 62
     7
 10
-153.6191658406186
 20
-1.949348449707003
 30
0.0
 11
-153.6191658406186
 21
-11.949348449707
 31
0.0
  0
LINE
  5
37B
  8
0
  6
DASHED2
 62
     7
 10
-165.1191963581967
 20
105.9906539916993
 30
0.0
 11
-165.1191963581967
 21
89.71065521240237
 31
0.0
  0
LINE
  5
37C
  8
0
  6
DASHED2
 62
     7
 10
-171.6192268757748
 20
89.71065521240237
 30
0.0
 11
-165.1191963581967
 21
89.71065521240237
 31
0.0
  0
LINE
  5
37D
  8
0
  6
DASHED2
 62
     7
 10
-171.6192268757748
 20
105.9906539916993
 30
0.0
 11
-165.1191963581967
 21
105.9906539916993
 31
0.0
  0
LINE
  5
37E
  8
0
  6
DASHED2
 62
     7
 10
-165.1191955119464
 20
102.9506470330744
 30
0.0
 11
-162.1747066355454
 21
97.8506433963303
 31
0.0
  0
LINE
  5
37F
  8
0
  6
DASHED2
 62
     7
 10
-165.1191970795796
 20
92.75066045494887
 30
0.0
 11
-162.1747101105274
 21
97.85066078806827
 31
0.0
  0
LINE
  5
380
  8
0
  6
DASHED2
 62
     7
 10
-187.6191658406186
 20
-1.949348449707003
 30
0.0
 11
-187.6191658406186
 21
-11.949348449707
 31
0.0
  0
LINE
  5
381
  8
0
  6
DASHED2
 62
     7
 10
-187.6191658406186
 20
-10.949348449707
 30
0.0
 11
-153.6191658406186
 21
-10.949348449707
 31
0.0
  0
LINE
  5
382
  8
0
  6
DASHED2
 62
     7
 10
-187.6191658406186
 20
-2.949348449707003
 30
0.0
 11
-153.6191658406186
 21
-2.949348449707003
 31
0.0
  0
LINE
  5
383
  8
0
  6
DASHED2
 62
     7
 10
-187.6191658406186
 20
-11.949348449707
 30
0.0
 11
-120.636835518353
 21
-11.949348449707
 31
0.0
  0
LINE
  5
384
  8
0
  6
DASHED2
 62
     7
 10
-187.6191658406186
 20
-1.949348449707003
 30
0.0
 11
-120.3867744831967
 21
-1.949348449707003
 31
0.0
  0
LINE
  5
385
  8
0
  6
DASHED2
 62
     7
 10
78.99999237060547
 20
127.9506530761719
 30
0.0
 11
87.95295715332031
 21
127.9506530761719
 31
0.0
  0
LINE
  5
386
  8
0
  6
DASHED2
 62
     7
 10
78.99999237060547
 20
111.9506530761719
 30
0.0
 11
88.30548095703125
 21
111.9506530761719
 31
0.0
  0
LINE
  5
387
  8
0
  6
DASHED2
 62
     7
 10
78.99999237060547
 20
135.9617004394532
 30
0.0
 11
78.99999237060547
 21
108.9506530761719
 31
0.0
  0
LINE
  5
388
  8
0
  6
DASHED2
 62
     7
 10
50.25899600982666
 20
108.9506530761719
 30
0.0
 11
78.99999237060547
 21
108.9506530761719
 31
0.0
  0
LINE
  5
389
  8
0
  6
DASHED2
 62
     7
 10
66.9999942779541
 20
122.3506469726563
 30
0.0
 11
66.9999942779541
 21
117.5506591796875
 31
0.0
  0
LINE
  5
38A
  8
0
  6
DASHED2
 62
     7
 10
69.70000648498535
 20
123.2506561279297
 30
0.0
 11
69.70000648498535
 21
116.6506500244141
 31
0.0
  0
LINE
  5
38B
  8
0
  6
DASHED2
 62
     7
 10
75.43874359130859
 20
114.2506408691407
 30
0.0
 11
78.56124114990234
 21
114.2506408691407
 31
0.0
  0
LINE
  5
38C
  8
0
  6
DASHED2
 62
     7
 10
75.43874359130859
 20
125.6506652832032
 30
0.0
 11
78.56124114990234
 21
125.6506652832032
 31
0.0
  0
LINE
  5
38D
  8
0
  6
DASHED2
 62
     7
 10
69.69996548178185
 20
116.6505746852001
 30
0.0
 11
66.99996868465175
 21
117.550573504485
 31
0.0
  0
LINE
  5
38E
  8
0
  6
DASHED2
 62
     7
 10
69.70001482752446
 20
123.2505483513048
 30
0.0
 11
67.00001079251501
 21
122.3505471193937
 31
0.0
  0
LINE
  5
38F
  8
0
  6
DASHED2
 62
     7
 10
70.70000648498535
 20
122.6959838867188
 30
0.0
 11
70.70000648498535
 21
117.1551818847657
 31
0.0
  0
LINE
  5
390
  8
0
  6
DASHED2
 62
     7
 10
74.99999237060547
 20
124.4006500244141
 30
0.0
 11
74.99999237060547
 21
115.5006561279297
 31
0.0
  0
LINE
  5
391
  8
0
  6
DASHED2
 62
     7
 10
75.74388122558594
 20
122.8443298339844
 30
0.0
 11
78.256103515625
 21
122.8443298339844
 31
0.0
  0
LINE
  5
392
  8
0
  6
DASHED2
 62
     7
 10
75.74388122558594
 20
117.0569763183594
 30
0.0
 11
78.256103515625
 21
117.0569763183594
 31
0.0
  0
LINE
  5
393
  8
0
  6
DASHED2
 62
     7
 10
132.9999923706055
 20
-46.0493469238281
 30
0.0
 11
140.9999923706055
 21
-46.0493469238281
 31
0.0
  0
LINE
  5
394
  8
0
  6
DASHED2
 62
     7
 10
133.9999923706055
 20
-41.0493469238281
 30
0.0
 11
139.9999923706055
 21
-41.0493469238281
 31
0.0
  0
LINE
  5
395
  8
0
  6
DASHED2
 62
     7
 10
133.9999923706055
 20
-41.0493469238281
 30
0.0
 11
133.9999923706055
 21
-62.0074768066406
 31
0.0
  0
LINE
  5
396
  8
0
  6
DASHED2
 62
     7
 10
139.9999923706055
 20
-41.0493469238281
 30
0.0
 11
139.9999923706055
 21
-62.0074768066406
 31
0.0
  0
LINE
  5
397
  8
0
  6
DASHED2
 62
     7
 10
132.9999923706055
 20
-46.0493469238281
 30
0.0
 11
132.9999923706055
 21
-61.97489929199216
 31
0.0
  0
LINE
  5
398
  8
0
  6
DASHED2
 62
     7
 10
140.9999923706055
 20
-46.0493469238281
 30
0.0
 11
140.9999923706055
 21
-61.97489929199216
 31
0.0
  0
LINE
  5
399
  8
0
  6
DASHED2
 62
     7
 10
134.0000022725249
 20
-41.04935092798698
 30
0.0
 11
137.0000009259761
 21
-39.3173010892086
 31
0.0
  0
LINE
  5
39A
  8
0
  6
DASHED2
 62
     7
 10
136.9999944685303
 20
-39.31729660931029
 30
0.0
 11
139.9999964256065
 21
-41.04934835543719
 31
0.0
  0
ARC
  5
39B
  8
0
  6
DASHED2
 62
     7
 10
69.70000648498535
 20
119.9506530761719
 30
0.0
 40
3.299999952316284
 50
73.48282241201396
 51
89.99998201391065
  0
ARC
  5
39C
  8
0
  6
DASHED2
 62
     7
 10
69.70000648498535
 20
119.9506530761719
 30
0.0
 40
3.299999952316284
 50
270.0000179860894
 51
286.5171775879861
  0
ARC
  5
39D
  8
0
  6
DASHED2
 62
     7
 10
76.99999237060547
 20
124.4006652832032
 30
0.0
 40
2.0
 50
0.0
 51
38.68218896809859
  0
ARC
  5
39E
  8
0
  6
DASHED2
 62
     7
 10
76.99999237060547
 20
115.5006408691407
 30
0.0
 40
2.0
 50
0.0
 51
51.09316519948327
  0
ARC
  5
39F
  8
0
  6
DASHED2
 62
     7
 10
72.99999237060547
 20
119.9506530761719
 30
0.0
 40
6.0
 50
0.0
 51
28.83423780766662
  0
ARC
  5
3A0
  8
0
  6
DASHED2
 62
     7
 10
80.99999237060547
 20
119.9506530761719
 30
0.0
 40
6.0
 50
151.1657740314789
 51
208.8342086656771
  0
ARC
  5
3A1
  8
0
  6
DASHED2
 62
     7
 10
72.99999237060547
 20
119.9506530761719
 30
0.0
 40
6.0
 50
331.1657621923334
 51
360.0
  0
ARC
  5
3A2
  8
0
  6
DASHED2
 62
     7
 10
76.99999237060547
 20
124.4006652832032
 30
0.0
 40
2.0
 50
308.9068348005167
 51
360.0
  0
ARC
  5
3A3
  8
0
  6
DASHED2
 62
     7
 10
76.99999237060547
 20
124.4006652832032
 30
0.0
 40
2.0
 50
141.3178297012361
 51
231.0931121518317
  0
ARC
  5
3A4
  8
0
  6
DASHED2
 62
     7
 10
76.99999237060547
 20
115.5006408691407
 30
0.0
 40
2.0
 50
128.906856884946
 51
218.6821529959199
  0
ARC
  5
3A5
  8
0
  6
DASHED2
 62
     7
 10
71.0331974029541
 20
128.7506408691407
 30
0.0
 40
5.650000095367432
 50
265.9910930942637
 51
315.0592540539054
  0
ARC
  5
3A6
  8
0
  6
DASHED2
 62
     7
 10
71.0331974029541
 20
111.1506652832032
 30
0.0
 40
5.650000095367432
 50
44.94074594609464
 51
94.00890690573628
  0
ARC
  5
3A7
  8
0
  6
DASHED2
 62
     7
 10
67.70000648498535
 20
119.9506530761719
 30
0.0
 40
1.5
 50
117.818154050457
 51
242.1818423070773
  0
LINE
  5
3A8
  8
0
  6
CONTINUOUS
 62
     4
 10
-91.6192192463803
 20
-3.549346923828097
 30
0.0
 11
-76.61920398759123
 21
-3.549346923828097
 31
0.0
  0
LINE
  5
3A9
  8
0
  6
CONTINUOUS
 62
     4
 10
-91.6192192463803
 20
4.450653076171903
 30
0.0
 11
-76.61920398759123
 21
4.450653076171903
 31
0.0
  0
LINE
  5
3AA
  8
0
  6
CONTINUOUS
 62
     4
 10
-91.61920398759123
 20
4.450653076171903
 30
0.0
 11
-91.61920398759123
 21
-3.549346923828097
 31
0.0
  0
LINE
  5
3AB
  8
0
  6
CONTINUOUS
 62
     4
 10
-99.50233692216155
 20
13.62722778320315
 30
0.0
 11
-90.50232166337248
 21
13.62722778320315
 31
0.0
  0
LINE
  5
3AC
  8
0
  6
CONTINUOUS
 62
     4
 10
-99.50232166337248
 20
77.27407836914065
 30
0.0
 11
-90.50232166337248
 21
77.27407836914065
 31
0.0
  0
LINE
  5
3AD
  8
0
  6
CONTINUOUS
 62
     4
 10
-78.61920398759123
 20
92.25065612792972
 30
0.0
 11
-78.61920398759123
 21
87.75065612792972
 31
0.0
  0
LINE
  5
3AE
  8
0
  6
CONTINUOUS
 62
     4
 10
-77.61920398759123
 20
92.25065612792972
 30
0.0
 11
-77.61920398759123
 21
87.75065612792972
 31
0.0
  0
LINE
  5
3AF
  8
0
  6
CONTINUOUS
 62
     4
 10
-91.6192192463803
 20
98.1006774902344
 30
0.0
 11
-68.61920398759123
 21
98.1006774902344
 31
0.0
  0
LINE
  5
3B0
  8
0
  6
CONTINUOUS
 62
     4
 10
-91.6192192463803
 20
106.4006652832032
 30
0.0
 11
-68.61920398759123
 21
106.4006652832032
 31
0.0
  0
LINE
  5
3B1
  8
0
  6
CONTINUOUS
 62
     4
 10
-91.6192192463803
 20
128.1006774902344
 30
0.0
 11
-68.61920398759123
 21
128.1006774902344
 31
0.0
  0
LINE
  5
3B2
  8
0
  6
CONTINUOUS
 62
     4
 10
-91.6192192463803
 20
136.400634765625
 30
0.0
 11
-68.61920398759123
 21
136.400634765625
 31
0.0
  0
LINE
  5
3B3
  8
0
  6
CONTINUOUS
 62
     4
 10
-63.61920188152472
 20
101.2506609382724
 30
0.0
 11
-59.6191860575902
 21
98.94125098070916
 31
0.0
  0
LINE
  5
3B4
  8
0
  6
CONTINUOUS
 62
     4
 10
-63.61920769561023
 20
131.2506998278996
 30
0.0
 11
-59.61920508617534
 21
128.9412974997304
 31
0.0
  0
LINE
  5
3B5
  8
0
  6
CONTINUOUS
 62
     4
 10
-67.61920404072119
 20
128.9413344528836
 30
0.0
 11
-63.61921134216102
 21
131.2507310590073
 31
0.0
  0
LINE
  5
3B6
  8
0
  6
CONTINUOUS
 62
     4
 10
-67.61920224375656
 20
98.94133960099455
 30
0.0
 11
-63.61919963432167
 21
101.2507419291638
 31
0.0
  0
LINE
  5
3B7
  8
0
  6
CONTINUOUS
 62
     4
 10
-61.61921084366368
 20
101.2506662351
 30
0.0
 11
-59.61920953894624
 21
100.0959650710154
 31
0.0
  0
LINE
  5
3B8
  8
0
  6
CONTINUOUS
 62
     4
 10
-67.61922296886071
 20
100.0959929300282
 30
0.0
 11
-65.61922827139308
 21
101.2506902794158
 31
0.0
  0
LINE
  5
3B9
  8
0
  6
CONTINUOUS
 62
     4
 10
-61.61920358018956
 20
131.2506667405646
 30
0.0
 11
-59.61920227547212
 21
130.09596557648
 31
0.0
  0
LINE
  5
3BA
  8
0
  6
CONTINUOUS
 62
     4
 10
-67.6191900777638
 20
130.0960078090767
 30
0.0
 11
-65.61920033573354
 21
131.2507022974415
 31
0.0
  0
LINE
  5
3BB
  8
0
  6
CONTINUOUS
 62
     4
 10
-67.61921430757759
 20
127.7866279919715
 30
0.0
 11
-61.61922525973735
 21
131.2507229011569
 31
0.0
  0
LINE
  5
3BC
  8
0
  6
CONTINUOUS
 62
     4
 10
-67.61921135993437
 20
126.6319291604534
 30
0.0
 11
-59.6192061410646
 21
131.2507338167918
 31
0.0
  0
LINE
  5
3BD
  8
0
  6
CONTINUOUS
 62
     4
 10
-67.61921501954096
 20
125.4772265142383
 30
0.0
 11
-59.61921310429609
 21
130.0960292632281
 31
0.0
  0
LINE
  5
3BE
  8
0
  6
CONTINUOUS
 62
     4
 10
-66.01153006915622
 20
125.2507055978936
 30
0.0
 11
-59.61921078632106
 21
128.9413124488391
 31
0.0
  0
LINE
  5
3BF
  8
0
  6
CONTINUOUS
 62
     4
 10
-64.01151755773329
 20
125.2507126988314
 30
0.0
 11
-59.61921114230275
 21
127.7866117099725
 31
0.0
  0
LINE
  5
3C0
  8
0
  6
CONTINUOUS
 62
     4
 10
-62.01153643074697
 20
125.2507016799583
 30
0.0
 11
-59.61922306097161
 21
126.6319042953861
 31
0.0
  0
LINE
  5
3C1
  8
0
  6
CONTINUOUS
 62
     4
 10
-65.61921385531942
 20
131.2506988568412
 30
0.0
 11
-59.61920994116709
 21
127.7865953645874
 31
0.0
  0
LINE
  5
3C2
  8
0
  6
CONTINUOUS
 62
     4
 10
-67.61920680052897
 20
131.2506902563887
 30
0.0
 11
-59.6192015816592
 21
126.6318856000503
 31
0.0
  0
LINE
  5
3C3
  8
0
  6
CONTINUOUS
 62
     4
 10
-67.61919653367256
 20
130.0959837954765
 30
0.0
 11
-59.61920452930242
 21
125.4771867685322
 31
0.0
  0
LINE
  5
3C4
  8
0
  6
CONTINUOUS
 62
     4
 10
-67.61921460316394
 20
128.9412892897276
 30
0.0
 11
-61.22689862395369
 21
125.2506843461306
 31
0.0
  0
LINE
  5
3C5
  8
0
  6
CONTINUOUS
 62
     4
 10
-67.61921755080716
 20
127.7865904582095
 30
0.0
 11
-63.22691609081399
 21
125.2506943080912
 31
0.0
  0
LINE
  5
3C6
  8
0
  6
CONTINUOUS
 62
     4
 10
-67.61920919129928
 20
126.6318806936725
 30
0.0
 11
-65.22689582152391
 21
125.2506780782447
 31
0.0
  0
LINE
  5
3C7
  8
0
  6
CONTINUOUS
 62
     4
 10
-67.61920539229102
 20
97.78662844018109
 30
0.0
 11
-61.61920808538851
 21
101.2507281177379
 31
0.0
  0
LINE
  5
3C8
  8
0
  6
CONTINUOUS
 62
     4
 10
-67.61920905189761
 20
96.63192579396596
 30
0.0
 11
-59.61920052940293
 21
101.2507323576529
 31
0.0
  0
LINE
  5
3C9
  8
0
  6
CONTINUOUS
 62
     4
 10
-67.61920763747078
 20
95.47725250624288
 30
0.0
 11
-59.61921563310064
 21
100.0960495331872
 31
0.0
  0
LINE
  5
3CA
  8
0
  6
CONTINUOUS
 62
     4
 10
-66.01153983487878
 20
95.25070407028468
 30
0.0
 11
-59.61922055204362
 21
98.94131092123021
 31
0.0
  0
LINE
  5
3CB
  8
0
  6
CONTINUOUS
 62
     4
 10
-64.01153558251811
 20
95.25070640285119
 30
0.0
 11
-59.61922421165021
 21
97.78660827501508
 31
0.0
  0
LINE
  5
3CC
  8
0
  6
CONTINUOUS
 62
     4
 10
-62.01152802653253
 20
95.25071064276622
 30
0.0
 11
-59.61921465675717
 21
96.63191325819403
 31
0.0
  0
LINE
  5
3CD
  8
0
  6
CONTINUOUS
 62
     4
 10
-65.61922030205928
 20
101.2506692484206
 30
0.0
 11
-59.61921638790695
 21
97.78656575616677
 31
0.0
  0
LINE
  5
3CE
  8
0
  6
CONTINUOUS
 62
     4
 10
-67.61920664001902
 20
101.2506568332711
 30
0.0
 11
-59.61920142114924
 21
96.63185217693265
 31
0.0
  0
LINE
  5
3CF
  8
0
  6
CONTINUOUS
 62
     4
 10
-67.61919732683687
 20
100.0959487205464
 30
0.0
 11
-59.61920532246673
 21
95.47715169360211
 31
0.0
  0
LINE
  5
3D0
  8
0
  6
CONTINUOUS
 62
     4
 10
-67.61920109121435
 20
98.94127899198432
 30
0.0
 11
-61.22689832650373
 21
95.25068167778139
 31
0.0
  0
LINE
  5
3D1
  8
0
  6
CONTINUOUS
 62
     4
 10
-67.61920499253183
 20
97.78657850865378
 30
0.0
 11
-63.22687710353939
 21
95.25066709974729
 31
0.0
  0
LINE
  5
3D2
  8
0
  6
CONTINUOUS
 62
     4
 10
-67.61920889384932
 20
96.63187802532323
 30
0.0
 11
-65.22689552407395
 21
95.25067540989542
 31
0.0
  0
LINE
  5
3D3
  8
0
  6
CONTINUOUS
 62
     4
 10
-112.6191658406186
 20
-46.0493469238281
 30
0.0
 11
-112.6191658406186
 21
-62.0493469238281
 31
0.0
  0
LINE
  5
3D4
  8
0
  6
CONTINUOUS
 62
     4
 10
-120.6191658406186
 20
-46.0493469238281
 30
0.0
 11
-120.6191658406186
 21
-62.0493469238281
 31
0.0
  0
LINE
  5
3D5
  8
0
  6
CONTINUOUS
 62
     4
 10
-120.6191658406186
 20
-46.0493469238281
 30
0.0
 11
-112.6191658406186
 21
-46.0493469238281
 31
0.0
  0
LINE
  5
3D6
  8
0
  6
CONTINUOUS
 62
     4
 10
-99.50232166337248
 20
73.9506530761719
 30
0.0
 11
-90.50232166337248
 21
73.9506530761719
 31
0.0
  0
LINE
  5
3D7
  8
0
  6
CONTINUOUS
 62
     4
 10
-99.50232166337248
 20
70.9506530761719
 30
0.0
 11
-90.50232166337248
 21
70.9506530761719
 31
0.0
  0
LINE
  5
3D8
  8
0
  6
CONTINUOUS
 62
     4
 10
178.9319572035852
 20
30.47884690845106
 30
0.0
 11
183.1819577102247
 21
37.84006270849798
 31
0.0
  0
LINE
  5
3D9
  8
0
  6
CONTINUOUS
 62
     4
 10
166.6819442991782
 20
9.26120507480303
 30
0.0
 11
170.9319562499109
 21
16.62244069659803
 31
0.0
  0
LINE
  5
3DA
  8
0
  6
CONTINUOUS
 62
     4
 10
232.1925147656975
 20
-0.2711633644839537
 30
0.0
 11
236.442515272337
 21
7.090052435562967
 31
0.0
  0
LINE
  5
3DB
  8
0
  6
CONTINUOUS
 62
     4
 10
219.9425056759883
 20
-21.48879859088262
 30
0.0
 11
224.1925138120232
 21
-14.12756957633698
 31
0.0
  0
LINE
  5
3DC
  8
0
  6
CONTINUOUS
 62
     4
 10
218.6434903448701
 20
-20.7387896127477
 30
0.0
 11
222.8935003882539
 21
-13.37755729457737
 31
0.0
  0
LINE
  5
3DD
  8
0
  6
CONTINUOUS
 62
     4
 10
217.3444256965681
 20
-19.98880501931805
 30
0.0
 11
221.5944376473008
 21
-12.62756939752305
 31
0.0
  0
LINE
  5
3DE
  8
0
  6
CONTINUOUS
 62
     4
 10
216.0454065507522
 20
-19.23880264843248
 30
0.0
 11
220.295416594136
 21
-11.87757033026216
 31
0.0
  0
LINE
  5
3DF
  8
0
  6
CONTINUOUS
 62
     4
 10
214.746336317347
 20
-18.48879721110868
 30
0.0
 11
218.9963444533819
 21
-11.12756819656303
 31
0.0
  0
LINE
  5
3E0
  8
0
  6
CONTINUOUS
 62
     4
 10
230.8935051566259
 20
0.4788555245250166
 30
0.0
 11
235.1435056632654
 21
7.840071324571937
 31
0.0
  0
LINE
  5
3E1
  8
0
  6
CONTINUOUS
 62
     4
 10
229.5944386009751
 20
1.228836814329981
 30
0.0
 11
233.8444391076146
 21
8.590052614376901
 31
0.0
  0
LINE
  5
3E2
  8
0
  6
CONTINUOUS
 62
     4
 10
228.2954175478103
 20
1.978835881590868
 30
0.0
 11
232.5454180544498
 21
9.340051681637789
 31
0.0
  0
LINE
  5
3E3
  8
0
  6
CONTINUOUS
 62
     4
 10
226.9963454070562
 20
2.728838015289995
 30
0.0
 11
231.2463459136957
 21
10.09005381533692
 31
0.0
  0
LINE
  5
3E4
  8
0
  6
CONTINUOUS
 62
     4
 10
180.2309640201052
 20
29.72883844138917
 30
0.0
 11
184.4809645267446
 21
37.09005424143609
 31
0.0
  0
LINE
  5
3E5
  8
0
  6
CONTINUOUS
 62
     4
 10
181.530039975557
 20
28.97884291493941
 30
0.0
 11
185.7800404821965
 21
36.34005871498633
 31
0.0
  0
LINE
  5
3E6
  8
0
  6
CONTINUOUS
 62
     4
 10
182.8291159310088
 20
28.22884738848964
 30
0.0
 11
187.0791164376483
 21
35.59006318853656
 31
0.0
  0
LINE
  5
3E7
  8
0
  6
CONTINUOUS
 62
     4
 10
184.1281189328311
 20
27.47883231417839
 30
0.0
 11
188.3781194394705
 21
34.84004811422531
 31
0.0
  0
LINE
  5
3E8
  8
0
  6
CONTINUOUS
 62
     4
 10
167.9809549303959
 20
8.511203214990502
 30
0.0
 11
172.2309630664308
 21
15.87243222953615
 31
0.0
  0
LINE
  5
3E9
  8
0
  6
CONTINUOUS
 62
     4
 10
169.2800289784989
 20
7.761204384916056
 30
0.0
 11
173.5300390218827
 21
15.12243670308638
 31
0.0
  0
LINE
  5
3EA
  8
0
  6
CONTINUOUS
 62
     4
 10
170.5791030266018
 20
7.01120555484161
 30
0.0
 11
174.8291149773345
 21
14.37244117663661
 31
0.0
  0
LINE
  5
3EB
  8
0
  6
CONTINUOUS
 62
     4
 10
171.8781117504707
 20
6.261200391404401
 30
0.0
 11
176.1281217938545
 21
13.62243270957472
 31
0.0
  0
LINE
  5
3EC
  8
0
  6
CONTINUOUS
 62
     4
 10
120.4999923706055
 20
89.25064086914065
 30
0.0
 11
128.9999923706055
 21
89.25064086914065
 31
0.0
  0
LINE
  5
3ED
  8
0
  6
CONTINUOUS
 62
     4
 10
144.9999923706055
 20
89.25064086914065
 30
0.0
 11
153.4999923706055
 21
89.25064086914065
 31
0.0
  0
LINE
  5
3EE
  8
0
  6
CONTINUOUS
 62
     4
 10
120.4999923706055
 20
90.75064086914065
 30
0.0
 11
128.9999923706055
 21
90.75064086914065
 31
0.0
  0
LINE
  5
3EF
  8
0
  6
CONTINUOUS
 62
     4
 10
120.4999923706055
 20
92.25064086914065
 30
0.0
 11
128.9999923706055
 21
92.25064086914065
 31
0.0
  0
LINE
  5
3F0
  8
0
  6
CONTINUOUS
 62
     4
 10
120.4999923706055
 20
93.75064086914065
 30
0.0
 11
128.9999923706055
 21
93.75064086914065
 31
0.0
  0
LINE
  5
3F1
  8
0
  6
CONTINUOUS
 62
     4
 10
120.4999923706055
 20
95.25064086914065
 30
0.0
 11
128.9999923706055
 21
95.25064086914065
 31
0.0
  0
LINE
  5
3F2
  8
0
  6
CONTINUOUS
 62
     4
 10
144.9999923706055
 20
90.75064086914065
 30
0.0
 11
153.4999923706055
 21
90.75064086914065
 31
0.0
  0
LINE
  5
3F3
  8
0
  6
CONTINUOUS
 62
     4
 10
144.9999923706055
 20
92.25064086914065
 30
0.0
 11
153.4999923706055
 21
92.25064086914065
 31
0.0
  0
LINE
  5
3F4
  8
0
  6
CONTINUOUS
 62
     4
 10
144.9999923706055
 20
93.75064086914065
 30
0.0
 11
153.4999923706055
 21
93.75064086914065
 31
0.0
  0
LINE
  5
3F5
  8
0
  6
CONTINUOUS
 62
     4
 10
144.9999923706055
 20
95.25064086914065
 30
0.0
 11
153.4999923706055
 21
95.25064086914065
 31
0.0
  0
LINE
  5
3F6
  8
0
  6
CONTINUOUS
 62
     4
 10
144.9999923706055
 20
149.2506408691407
 30
0.0
 11
153.4999923706055
 21
149.2506408691407
 31
0.0
  0
LINE
  5
3F7
  8
0
  6
CONTINUOUS
 62
     4
 10
144.9999923706055
 20
147.7506408691407
 30
0.0
 11
153.4999923706055
 21
147.7506408691407
 31
0.0
  0
LINE
  5
3F8
  8
0
  6
CONTINUOUS
 62
     4
 10
144.9999923706055
 20
146.2506408691407
 30
0.0
 11
153.4999923706055
 21
146.2506408691407
 31
0.0
  0
LINE
  5
3F9
  8
0
  6
CONTINUOUS
 62
     4
 10
144.9999923706055
 20
144.7506408691407
 30
0.0
 11
153.4999923706055
 21
144.7506408691407
 31
0.0
  0
LINE
  5
3FA
  8
0
  6
CONTINUOUS
 62
     4
 10
120.4999923706055
 20
149.2506408691407
 30
0.0
 11
128.9999923706055
 21
149.2506408691407
 31
0.0
  0
LINE
  5
3FB
  8
0
  6
CONTINUOUS
 62
     4
 10
120.4999923706055
 20
147.7506408691407
 30
0.0
 11
128.9999923706055
 21
147.7506408691407
 31
0.0
  0
LINE
  5
3FC
  8
0
  6
CONTINUOUS
 62
     4
 10
120.4999923706055
 20
146.2506408691407
 30
0.0
 11
128.9999923706055
 21
146.2506408691407
 31
0.0
  0
LINE
  5
3FD
  8
0
  6
CONTINUOUS
 62
     4
 10
120.4999923706055
 20
144.7506408691407
 30
0.0
 11
128.9999923706055
 21
144.7506408691407
 31
0.0
  0
CIRCLE
  5
3FE
  8
0
  6
CONTINUOUS
 62
     4
 10
136.9999923706055
 20
0.4506530761719034
 30
0.0
 40
3.349999904632568
  0
CIRCLE
  5
3FF
  8
0
  6
CONTINUOUS
 62
     4
 10
136.9999923706055
 20
0.4506530761719034
 30
0.0
 40
4.0
  0
CIRCLE
  5
400
  8
0
  6
CONTINUOUS
 62
     4
 10
136.9999923706055
 20
45.4506530761719
 30
0.0
 40
32.5
  0
CIRCLE
  5
401
  8
0
  6
CONTINUOUS
 62
     4
 10
175.9711303710938
 20
67.9506530761719
 30
0.0
 40
3.349999904632568
  0
CIRCLE
  5
402
  8
0
  6
CONTINUOUS
 62
     4
 10
98.02886199951172
 20
67.9506530761719
 30
0.0
 40
3.349999904632568
  0
CIRCLE
  5
403
  8
0
  6
CONTINUOUS
 62
     4
 10
98.02886199951172
 20
67.9506530761719
 30
0.0
 40
4.0
  0
CIRCLE
  5
404
  8
0
  6
CONTINUOUS
 62
     4
 10
175.9711303710938
 20
67.9506530761719
 30
0.0
 40
4.0
  0
ARC
  5
405
  8
0
  6
CONTINUOUS
 62
     4
 10
136.9999923706055
 20
45.4506530761719
 30
0.0
 40
42.0
 50
273.4874511045953
 51
305.3756850562281
  0
ARC
  5
406
  8
0
  6
CONTINUOUS
 62
     4
 10
136.9999923706055
 20
45.4506530761719
 30
0.0
 40
48.0
 50
294.9390398912327
 51
308.6180578175032
  0
ARC
  5
407
  8
0
  6
CONTINUOUS
 62
     4
 10
136.9999923706055
 20
45.4506530761719
 30
0.0
 40
54.0
 50
298.9301994610271
 51
311.0905145800615
  0
ARC
  5
408
  8
0
  6
CONTINUOUS
 62
     4
 10
136.9999923706055
 20
45.4506530761719
 30
0.0
 40
60.0
 50
291.7490888318375
 51
313.0422377202981
  0
ARC
  5
409
  8
0
  6
CONTINUOUS
 62
     4
 10
136.9999923706055
 20
45.4506530761719
 30
0.0
 40
66.0
 50
225.3759332702948
 51
314.6240446452759
  0
ARC
  5
40A
  8
0
  6
CONTINUOUS
 62
     4
 10
136.9999923706055
 20
45.4506530761719
 30
0.0
 40
72.0
 50
224.0669275158619
 51
315.9330538148034
  0
ARC
  5
40B
  8
0
  6
CONTINUOUS
 62
     4
 10
136.9999923706055
 20
45.4506530761719
 30
0.0
 40
60.0
 50
261.7490675064439
 51
278.2509069940323
  0
ARC
  5
40C
  8
0
  6
CONTINUOUS
 62
     4
 10
136.9999923706055
 20
45.4506530761719
 30
0.0
 40
54.0
 50
228.9094633355092
 51
241.0697135677465
  0
ARC
  5
40D
  8
0
  6
CONTINUOUS
 62
     4
 10
136.9999923706055
 20
45.4506530761719
 30
0.0
 40
60.0
 50
226.9577367801781
 51
248.2508924988279
  0
ARC
  5
40E
  8
0
  6
CONTINUOUS
 62
     4
 10
136.9999923706055
 20
45.4506530761719
 30
0.0
 40
48.0
 50
231.3819235131622
 51
245.0461130987445
  0
ARC
  5
40F
  8
0
  6
CONTINUOUS
 62
     4
 10
136.9999923706055
 20
45.4506530761719
 30
0.0
 40
42.0
 50
234.6242962744372
 51
266.51253022607
  0
ARC
  5
410
  8
0
  6
CONTINUOUS
 62
     4
 10
136.9999923706055
 20
45.4506530761719
 30
0.0
 40
72.0
 50
344.0669923268687
 51
435.9330503239185
  0
ARC
  5
411
  8
0
  6
CONTINUOUS
 62
     4
 10
136.9999923706055
 20
45.4506530761719
 30
0.0
 40
66.0
 50
345.3759980813016
 51
434.6240445694855
  0
ARC
  5
412
  8
0
  6
CONTINUOUS
 62
     4
 10
136.9999923706055
 20
45.4506530761719
 30
0.0
 40
60.0
 50
22.50849738144704
 51
37.5234098093655
  0
ARC
  5
413
  8
0
  6
CONTINUOUS
 62
     4
 10
136.9999923706055
 20
45.4506530761719
 30
0.0
 40
60.0
 50
346.9577657326917
 51
367.3811813841313
  0
ARC
  5
414
  8
0
  6
CONTINUOUS
 62
     4
 10
136.9999923706055
 20
45.4506530761719
 30
0.0
 40
54.0
 50
348.9094905804756
 51
361.0697629041059
  0
ARC
  5
415
  8
0
  6
CONTINUOUS
 62
     4
 10
136.9999923706055
 20
45.4506530761719
 30
0.0
 40
48.0
 50
351.381944781713
 51
365.105352961173
  0
ARC
  5
416
  8
0
  6
CONTINUOUS
 62
     4
 10
136.9999923706055
 20
45.4506530761719
 30
0.0
 40
42.0
 50
354.6243209580826
 51
386.5125608861309
  0
ARC
  5
417
  8
0
  6
CONTINUOUS
 62
     4
 10
136.9999923706055
 20
45.4506530761719
 30
0.0
 40
42.0
 50
33.48744078352121
 51
65.37568156534314
  0
ARC
  5
418
  8
0
  6
CONTINUOUS
 62
     4
 10
136.9999923706055
 20
45.4506530761719
 30
0.0
 40
48.0
 50
55.37448486559817
 51
68.6180611568074
  0
ARC
  5
419
  8
0
  6
CONTINUOUS
 62
     4
 10
136.9999923706055
 20
45.4506530761719
 30
0.0
 40
54.0
 50
58.93021646070969
 51
71.09051450427114
  0
ARC
  5
41A
  8
0
  6
CONTINUOUS
 62
     4
 10
136.9999923706055
 20
45.4506530761719
 30
0.0
 40
60.0
 50
52.48380878997079
 51
73.04224105960229
  0
ARC
  5
41B
  8
0
  6
CONTINUOUS
 62
     4
 10
136.9999923706055
 20
45.4506530761719
 30
0.0
 40
54.0
 50
108.9095041650635
 51
121.0697885482466
  0
ARC
  5
41C
  8
0
  6
CONTINUOUS
 62
     4
 10
136.9999923706055
 20
45.4506530761719
 30
0.0
 40
48.0
 50
111.3819575125273
 51
125.2243057524203
  0
ARC
  5
41D
  8
0
  6
CONTINUOUS
 62
     4
 10
136.9999923706055
 20
45.4506530761719
 30
0.0
 40
60.0
 50
106.9577776097324
 51
127.5576896181934
  0
ARC
  5
41E
  8
0
  6
CONTINUOUS
 62
     4
 10
136.9999923706055
 20
45.4506530761719
 30
0.0
 40
66.0
 50
105.3759740998491
 51
194.6240000974655
  0
ARC
  5
41F
  8
0
  6
CONTINUOUS
 62
     4
 10
136.9999923706055
 20
45.4506530761719
 30
0.0
 40
72.0
 50
104.0669683454162
 51
195.9330058518985
  0
ARC
  5
420
  8
0
  6
CONTINUOUS
 62
     4
 10
136.9999923706055
 20
45.4506530761719
 30
0.0
 40
60.0
 50
143.0088206151912
 51
157.2610894883116
  0
ARC
  5
421
  8
0
  6
CONTINUOUS
 62
     4
 10
136.9999923706055
 20
45.4506530761719
 30
0.0
 40
60.0
 50
172.790986226818
 51
193.0421965875823
  0
ARC
  5
422
  8
0
  6
CONTINUOUS
 62
     4
 10
136.9999923706055
 20
45.4506530761719
 30
0.0
 40
54.0
 50
178.9302881019056
 51
191.0904700322512
  0
ARC
  5
423
  8
0
  6
CONTINUOUS
 62
     4
 10
136.9999923706055
 20
45.4506530761719
 30
0.0
 40
48.0
 50
174.9156121907988
 51
188.6180235149766
  0
CIRCLE
  5
424
  8
0
  6
CONTINUOUS
 62
     4
 10
136.9999923706055
 20
72.4506530761719
 30
0.0
 40
2.0
  0
CIRCLE
  5
425
  8
0
  6
CONTINUOUS
 62
     4
 10
136.9999923706055
 20
72.4506530761719
 30
0.0
 40
1.5
  0
CIRCLE
  5
426
  8
0
  6
CONTINUOUS
 62
     4
 10
113.6173095703125
 20
31.9506530761719
 30
0.0
 40
1.5
  0
CIRCLE
  5
427
  8
0
  6
CONTINUOUS
 62
     4
 10
113.6173095703125
 20
31.9506530761719
 30
0.0
 40
2.0
  0
CIRCLE
  5
428
  8
0
  6
CONTINUOUS
 62
     4
 10
160.3826751708984
 20
31.9506530761719
 30
0.0
 40
1.5
  0
CIRCLE
  5
429
  8
0
  6
CONTINUOUS
 62
     4
 10
160.3826751708984
 20
31.9506530761719
 30
0.0
 40
2.0
  0
LINE
  5
42A
  8
0
  6
CONTINUOUS
 62
     4
 10
144.9999923706055
 20
150.7506408691407
 30
0.0
 11
153.4999923706055
 21
150.7506408691407
 31
0.0
  0
LINE
  5
42B
  8
0
  6
CONTINUOUS
 62
     4
 10
120.4999923706055
 20
150.7506408691407
 30
0.0
 11
128.9999923706055
 21
150.7506408691407
 31
0.0
  0
LINE
  5
42C
  8
0
  6
CONTINUOUS
 62
     4
 10
-78.61920398759123
 20
152.2506561279297
 30
0.0
 11
-78.61920398759123
 21
142.2711989022304
 31
0.0
  0
LINE
  5
42D
  8
0
  6
CONTINUOUS
 62
     4
 10
-77.61920398759123
 20
152.2506561279297
 30
0.0
 11
-77.61920398759123
 21
142.2506408691407
 31
0.0
  0
LINE
  5
42E
  8
0
  6
CONTINUOUS
 62
     4
 10
26.91289316742603
 20
-68.90394509300431
 30
0.0
 11
33.94583901061088
 21
-65.08536722715381
 31
0.0
  0
LINE
  5
42F
  8
0
  6
CONTINUOUS
 62
     4
 10
22.92238024120655
 20
-61.99217156071806
 30
0.0
 11
29.74583842430133
 21
-57.81075108110854
 31
0.0
  0
ARC
  5
430
  8
0
  6
CONTINUOUS
 62
     4
 10
136.9999923706055
 20
45.4506530761719
 30
0.0
 40
42.0
 50
114.6243184346569
 51
146.5125592164788
  0
ARC
  5
431
  8
0
  6
CONTINUOUS
 62
     4
 10
136.9999923706055
 20
45.4506530761719
 30
0.0
 40
42.0
 50
153.4874391138691
 51
185.3756790419174
  0
LINE
  5
432
  8
0
  6
DIVIDE
 62
     9
 10
-78.61917347001311
 20
81.4506530761719
 30
0.0
 11
-78.61917347001311
 21
49.79586029052737
 31
0.0
  0
LINE
  5
433
  8
0
  6
DIVIDE
 62
     9
 10
-153.6191658406186
 20
81.4506530761719
 30
0.0
 11
-153.6191658406186
 21
49.6188888549805
 31
0.0
  0
LINE
  5
434
  8
0
  6
DIVIDE
 62
     9
 10
-78.61920103328073
 20
81.45068268010508
 30
0.0
 11
-79.6191913052772
 21
82.45067295210154
 31
0.0
  0
LINE
  5
435
  8
0
  6
DIVIDE
 62
     9
 10
-153.619121505996
 20
81.45062603474165
 30
0.0
 11
-152.6191312339996
 21
82.45061630673811
 31
0.0
  0
LINE
  5
436
  8
0
  6
DIVIDE
 62
     9
 10
-84.02728504227873
 20
82.4506530761719
 30
0.0
 11
-79.61917347001311
 21
82.4506530761719
 31
0.0
  0
TEXT
  5
437
  8
0
 62
     7
 10
-20.57217639970061
 20
55.49020996093753
 30
0.0
 40
4.0
  1
MIN40.8
 50
90.0
 41
0.7999999999999999
  7
FDASTYLE1
 72
     5
 11
-20.57217639970061
 21
77.89020996093753
 31
0.0
  0
TEXT
  5
438
  8
0
 62
     7
 10
-151.2444343953061
 20
-99.00447091448413
 30
0.0
 40
4.0
  1
MIN 47
 41
0.7999999999999995
  7
FDASTYLE1
 72
     5
 11
-132.0444343953061
 21
-99.00447091448413
 31
0.0
  0
TEXT
  5
439
  8
0
 62
     7
 10
-196.2777167382573
 20
173.2490356561451
 30
0.0
 40
4.0
  1
MIN 18
 41
0.7999999999999995
  7
FDASTYLE1
 72
     5
 11
-177.0777167382574
 21
173.2490356561451
 31
0.0
  0
TEXT
  5
43A
  8
0
 62
     7
 10
-227.9119820027279
 20
-18.23442230224606
 30
0.0
 40
4.0
  1
7ﾟ7′30″
 50
90.0
 41
0.7567567567567569
  7
FDASTYLE1
 72
     5
 11
-227.9119820027279
 21
4.165577697753946
 31
0.0
  0
TEXT
  5
43B
  8
0
 62
     7
 10
-32.55504369742272
 20
90.25997911348296
 30
0.0
 40
4.0
  1
MIN
 50
90.0
 41
0.7345135045814384
  7
FDASTYLE1
 72
     5
 11
-32.55504369742272
 21
99.74569511348295
 31
0.0
  0
LINE
  5
43C
  8
LAYER0014
  6
CONTINUOUS
 62
     7
 10
-76.61920398759123
 20
20.7979431152344
 30
0.0
 11
-57.92753833817717
 21
20.7979431152344
 31
0.0
  0
LINE
  5
43D
  8
LAYER0014
  6
CONTINUOUS
 62
     7
 10
-77.61920398759123
 20
165.1514587402344
 30
0.0
 11
-83.43198627518889
 21
165.1514587402344
 31
0.0
  0
LINE
  5
43E
  8
LAYER0014
  6
CONTINUOUS
 62
     7
 10
-171.6191963581967
 20
177.6112976074219
 30
0.0
 11
-199.8102363972592
 21
177.6112976074219
 31
0.0
  0
LINE
  5
43F
  8
LAYER0014
  6
CONTINUOUS
 62
     7
 10
-153.6191658406186
 20
84.6647711181641
 30
0.0
 11
-153.6191658406186
 21
179.8973236083985
 31
0.0
  0
LINE
  5
440
  8
LAYER0014
  6
CONTINUOUS
 62
     7
 10
-171.6192268757748
 20
140.6026220703125
 30
0.0
 11
-171.6192268757748
 21
179.8973236083985
 31
0.0
  0
LINE
  5
441
  8
LAYER0014
  6
CONTINUOUS
 62
     7
 10
-165.1192268757748
 20
165.1514587402344
 30
0.0
 11
-160.7251228718686
 21
165.1514587402344
 31
0.0
  0
LINE
  5
442
  8
LAYER0014
  6
CONTINUOUS
 62
     7
 10
-153.6191963581967
 20
177.6112976074219
 30
0.0
 11
-171.6191963581967
 21
177.6112976074219
 31
0.0
  0
INSERT
  5
443
  8
LAYER0014
 62
     7
  2
_OPEN30
 10
-153.6191963581967
 20
177.6112976074219
 30
0.0
 41
1.999998407630662
 42
2.000005728319971
 50
360.0
  0
INSERT
  5
444
  8
LAYER0014
 62
     7
  2
_OPEN30
 10
-171.6191963581967
 20
177.6112976074219
 30
0.0
 41
1.999998407630662
 42
2.000005728319971
 50
180.0
  0
TEXT
  5
445
  8
LAYER0014
 62
     7
 10
-195.9924567168779
 20
178.7363057299577
 30
0.0
 40
4.0
  1
MAX 43
 41
0.7999999999999995
  7
FDASTYLE1
 72
     5
 11
-176.7924567168779
 21
178.7363057299577
 31
0.0
  0
INSERT
  5
446
  8
LAYER0014
  6
CONTINUOUS
  2
DA_IMAGEDIMGROUP_1
 10
0.0
 20
0.0
 30
0.0
  0
INSERT
  5
447
  8
LAYER0014
  6
CONTINUOUS
  2
DA_IMAGEDIMGROUP_2
 10
0.0
 20
0.0
 30
0.0
  0
INSERT
  5
448
  8
LAYER0014
  6
CONTINUOUS
  2
DA_IMAGEDIMGROUP_3
 10
0.0
 20
0.0
 30
0.0
  0
INSERT
  5
449
  8
LAYER0014
  6
CONTINUOUS
  2
DA_IMAGEDIMGROUP_4
 10
0.0
 20
0.0
 30
0.0
  0
INSERT
  5
44A
  8
LAYER0014
  6
CONTINUOUS
  2
DA_IMAGEDIMGROUP_5
 10
0.0
 20
0.0
 30
0.0
  0
INSERT
  5
44B
  8
LAYER0014
  6
CONTINUOUS
  2
DA_IMAGEDIMGROUP_6
 10
0.0
 20
0.0
 30
0.0
  0
INSERT
  5
44C
  8
LAYER0014
  6
CONTINUOUS
  2
DA_IMAGEDIMGROUP_7
 10
0.0
 20
0.0
 30
0.0
  0
INSERT
  5
44D
  8
LAYER0014
  6
CONTINUOUS
  2
DA_IMAGEDIMGROUP_8
 10
0.0
 20
0.0
 30
0.0
  0
INSERT
  5
44E
  8
LAYER0014
  6
CONTINUOUS
  2
DA_IMAGEDIMGROUP_9
 10
0.0
 20
0.0
 30
0.0
  0
INSERT
  5
44F
  8
LAYER0014
  6
CONTINUOUS
  2
DC_GROUP_1
 10
0.0
 20
0.0
 30
0.0
  0
INSERT
  5
450
  8
LAYER0014
  6
CONTINUOUS
  2
DA_IMAGEDIMGROUP_10
 10
0.0
 20
0.0
 30
0.0
  0
INSERT
  5
451
  8
LAYER0014
  6
CONTINUOUS
  2
DA_IMAGEDIMGROUP_11
 10
0.0
 20
0.0
 30
0.0
  0
INSERT
  5
452
  8
LAYER0014
  6
CONTINUOUS
  2
DA_IMAGEDIMGROUP_12
 10
0.0
 20
0.0
 30
0.0
  0
INSERT
  5
453
  8
LAYER0014
  6
CONTINUOUS
  2
DA_IMAGEDIMGROUP_13
 10
0.0
 20
0.0
 30
0.0
  0
INSERT
  5
454
  8
LAYER0014
  6
CONTINUOUS
  2
DA_IMAGEDIMGROUP_14
 10
0.0
 20
0.0
 30
0.0
  0
INSERT
  5
455
  8
LAYER0014
  6
CONTINUOUS
  2
DA_IMAGEDIMGROUP_15
 10
0.0
 20
0.0
 30
0.0
  0
INSERT
  5
456
  8
LAYER0014
  6
CONTINUOUS
  2
DA_IMAGEDIMGROUP_16
 10
0.0
 20
0.0
 30
0.0
  0
INSERT
  5
457
  8
LAYER0014
  6
CONTINUOUS
  2
DC_GROUP_2
 10
0.0
 20
0.0
 30
0.0
  0
INSERT
  5
458
  8
LAYER0014
  6
CONTINUOUS
  2
DA_IMAGEDIMGROUP_17
 10
0.0
 20
0.0
 30
0.0
  0
INSERT
  5
459
  8
LAYER0014
  6
CONTINUOUS
  2
DA_IMAGEDIMGROUP_18
 10
0.0
 20
0.0
 30
0.0
  0
INSERT
  5
45A
  8
LAYER0014
  6
CONTINUOUS
  2
DA_IMAGEDIMGROUP_19
 10
0.0
 20
0.0
 30
0.0
  0
INSERT
  5
45B
  8
LAYER0014
  6
CONTINUOUS
  2
DA_IMAGEDIMGROUP_20
 10
0.0
 20
0.0
 30
0.0
  0
INSERT
  5
45C
  8
LAYER0014
  6
CONTINUOUS
  2
DA_IMAGEDIMGROUP_21
 10
0.0
 20
0.0
 30
0.0
  0
INSERT
  5
45D
  8
LAYER0014
  6
CONTINUOUS
  2
DA_IMAGEDIMGROUP_22
 10
0.0
 20
0.0
 30
0.0
  0
INSERT
  5
45E
  8
LAYER0014
  6
CONTINUOUS
  2
DA_IMAGEDIMGROUP_23
 10
0.0
 20
0.0
 30
0.0
  0
INSERT
  5
45F
  8
LAYER0014
  6
CONTINUOUS
  2
DA_IMAGEDIMGROUP_24
 10
0.0
 20
0.0
 30
0.0
  0
INSERT
  5
460
  8
LAYER0014
  6
CONTINUOUS
  2
DA_IMAGEDIMGROUP_25
 10
0.0
 20
0.0
 30
0.0
  0
INSERT
  5
461
  8
LAYER0014
  6
CONTINUOUS
  2
DC_GROUP_4
 10
0.0
 20
0.0
 30
0.0
  0
INSERT
  5
462
  8
LAYER0014
  6
CONTINUOUS
  2
DA_IMAGEDIMGROUP_26
 10
0.0
 20
0.0
 30
0.0
  0
INSERT
  5
463
  8
LAYER0014
  6
CONTINUOUS
  2
DA_IMAGEDIMGROUP_27
 10
0.0
 20
0.0
 30
0.0
  0
INSERT
  5
464
  8
LAYER0014
  6
CONTINUOUS
  2
DA_IMAGEDIMGROUP_28
 10
0.0
 20
0.0
 30
0.0
  0
INSERT
  5
465
  8
LAYER0014
  6
CONTINUOUS
  2
DA_IMAGEDIMGROUP_29
 10
0.0
 20
0.0
 30
0.0
  0
INSERT
  5
466
  8
LAYER0014
  6
CONTINUOUS
  2
DA_IMAGEDIMGROUP_30
 10
0.0
 20
0.0
 30
0.0
  0
INSERT
  5
467
  8
LAYER0014
  6
CONTINUOUS
  2
DA_IMAGEDIMGROUP_34
 10
0.0
 20
0.0
 30
0.0
  0
INSERT
  5
468
  8
LAYER0014
  6
CONTINUOUS
  2
DC_GROUP_5
 10
0.0
 20
0.0
 30
0.0
  0
LINE
  5
469
  8
0
  6
CONTINUOUS
 62
     6
 10
-71.56064645026646
 20
-144.9243178854813
 30
0.0
 11
89.58596190239467
 21
-144.9243178854813
 31
0.0
  0
LINE
  5
46A
  8
0
  6
CONTINUOUS
 62
     6
 10
-71.56064645026646
 20
-137.4243178854813
 30
0.0
 11
89.58596190239467
 21
-137.4243178854813
 31
0.0
  0
LINE
  5
46B
  8
0
  6
CONTINUOUS
 62
     6
 10
-71.56064645026646
 20
-129.9243178854813
 30
0.0
 11
89.58596190239467
 21
-129.9243178854813
 31
0.0
  0
LINE
  5
46C
  8
0
  6
CONTINUOUS
 62
     6
 10
-71.56064645026646
 20
-122.4243178854813
 30
0.0
 11
89.58596190239467
 21
-122.4243178854813
 31
0.0
  0
LINE
  5
46D
  8
0
  6
CONTINUOUS
 62
     6
 10
-71.56064645026646
 20
-114.9243178854813
 30
0.0
 11
89.58596190239467
 21
-114.9243178854813
 31
0.0
  0
LINE
  5
46E
  8
0
  6
CONTINUOUS
 62
     6
 10
-71.56064645026646
 20
-107.4243178854813
 30
0.0
 11
-42.13234177802526
 21
-107.4243178854813
 31
0.0
  0
LINE
  5
46F
  8
0
  6
CONTINUOUS
 62
     6
 10
-71.56064645026646
 20
-152.4243178854813
 30
0.0
 11
89.58596190239467
 21
-152.4243178854813
 31
0.0
  0
LINE
  5
470
  8
0
  6
CONTINUOUS
 62
     6
 10
-71.56064645026646
 20
-159.9243178854813
 30
0.0
 11
89.58596190239467
 21
-159.9243178854813
 31
0.0
  0
LINE
  5
471
  8
0
  6
CONTINUOUS
 62
     6
 10
-71.56064645026646
 20
-167.4243178854813
 30
0.0
 11
89.58596190239467
 21
-167.4243178854813
 31
0.0
  0
LINE
  5
472
  8
0
  6
CONTINUOUS
 62
     6
 10
-71.56064645026646
 20
-174.9243178854813
 30
0.0
 11
89.58596190239467
 21
-174.9243178854813
 31
0.0
  0
LINE
  5
473
  8
0
  6
CONTINUOUS
 62
     6
 10
-71.58147808847991
 20
-182.5635097209498
 30
0.0
 11
89.58596190239467
 21
-182.5635097209498
 31
0.0
  0
LINE
  5
474
  8
0
  6
CONTINUOUS
 62
     2
 10
136.9999945654254
 20
106.9506400271817
 30
0.0
 11
132.9296621478116
 21
104.6006382658757
 31
0.0
  0
LINE
  5
475
  8
0
  6
CONTINUOUS
 62
     2
 10
132.9296798706055
 20
104.6006469726563
 30
0.0
 11
132.9296798706055
 21
99.90065002441409
 31
0.0
  0
LINE
  5
476
  8
0
  6
CONTINUOUS
 62
     2
 10
132.9296627138847
 20
99.90062408836187
 30
0.0
 11
136.9999774347252
 21
97.55062225254099
 31
0.0
  0
LINE
  5
477
  8
0
  6
CONTINUOUS
 62
     2
 10
136.999978703825
 20
97.55065896290401
 30
0.0
 11
141.0703111214389
 21
99.90066086428126
 31
0.0
  0
LINE
  5
478
  8
0
  6
CONTINUOUS
 62
     2
 10
141.0703048706055
 20
99.90064239501956
 30
0.0
 11
141.0703048706055
 21
104.6006393432618
 31
0.0
  0
LINE
  5
479
  8
0
  6
CONTINUOUS
 62
     2
 10
141.0703159250134
 20
104.6006178608168
 30
0.0
 11
137.0000023247394
 21
106.9506219377709
 31
0.0
  0
LINE
  5
47A
  8
0
  6
CONTINUOUS
 62
     2
 10
137.000006307504
 20
136.9506439545794
 30
0.0
 11
132.9296738898902
 21
134.6006421932734
 31
0.0
  0
LINE
  5
47B
  8
0
  6
CONTINUOUS
 62
     2
 10
132.9296798706055
 20
134.6006469726563
 30
0.0
 11
132.9296798706055
 21
129.9006500244141
 31
0.0
  0
LINE
  5
47C
  8
0
  6
CONTINUOUS
 62
     2
 10
132.9296805986287
 20
129.900614934983
 30
0.0
 11
136.9999953194692
 21
127.5506130991621
 31
0.0
  0
LINE
  5
47D
  8
0
  6
CONTINUOUS
 62
     2
 10
136.9999887179436
 20
127.5506649891495
 30
0.0
 11
141.0703211355574
 21
129.9006668905268
 31
0.0
  0
LINE
  5
47E
  8
0
  6
CONTINUOUS
 62
     2
 10
141.0703048706055
 20
129.9006423950196
 30
0.0
 11
141.0703048706055
 21
134.6006393432618
 31
0.0
  0
LINE
  5
47F
  8
0
  6
CONTINUOUS
 62
     2
 10
141.0702960130593
 20
134.6005966566891
 30
0.0
 11
136.9999791091632
 21
136.9506026409963
 31
0.0
  0
CIRCLE
  5
480
  8
0
  6
CONTINUOUS
 62
     2
 10
136.9999923706055
 20
102.2506408691407
 30
0.0
 40
8.0
  0
CIRCLE
  5
481
  8
0
  6
CONTINUOUS
 62
     2
 10
136.9999923706055
 20
132.2506408691407
 30
0.0
 40
8.0
  0
LINE
  5
482
  8
0
  6
CONTINUOUS
 62
     5
 10
210.7918125279075
 20
104.600209371714
 30
0.0
 11
207.0418124086982
 21
111.0953999899967
 31
0.0
  0
LINE
  5
483
  8
0
  6
CONTINUOUS
 62
     5
 10
204.6716221161014
 20
100.2006903305334
 30
0.0
 11
206.9216221161014
 21
96.30357608344977
 31
0.0
  0
LINE
  5
484
  8
0
  6
CONTINUOUS
 62
     5
 10
206.9215995903387
 20
96.30359177883568
 30
0.0
 11
205.8970720773095
 21
96.57811310087621
 31
0.0
  0
LINE
  5
485
  8
0
  6
CONTINUOUS
 62
     5
 10
206.9216628800291
 20
96.30356225852123
 30
0.0
 11
207.1961841072384
 21
97.32808983477119
 31
0.0
  0
LINE
  5
486
  8
0
  6
CONTINUOUS
 62
     5
 10
204.3971333952932
 20
99.1761624045262
 30
0.0
 11
204.6716546225025
 21
100.2006899807762
 31
0.0
  0
LINE
  5
487
  8
0
  6
CONTINUOUS
 62
     5
 10
205.6961173453624
 20
99.92619090445172
 30
0.0
 11
204.6716045711914
 21
100.2007082772271
 31
0.0
  0
LINE
  5
488
  8
0
  6
CONTINUOUS
 62
     5
 10
197.8014033679492
 20
97.10019741654966
 30
0.0
 11
210.7917841915614
 21
104.6001974165497
 31
0.0
  0
LINE
  5
489
  8
0
  6
CONTINUOUS
 62
     5
 10
197.8014184897966
 20
97.10020174231951
 30
0.0
 11
192.1764164632386
 21
106.8429908701299
 31
0.0
  0
LINE
  5
48A
  8
0
  6
CONTINUOUS
 62
     5
 10
192.1764164632386
 20
106.8429908701299
 30
0.0
 11
194.1249735867805
 21
107.9679908701299
 31
0.0
  0
LINE
  5
48B
  8
0
  6
CONTINUOUS
 62
     5
 10
198.7219857372102
 20
109.0057826465327
 30
0.0
 11
198.9965069644195
 21
110.0303102227827
 31
0.0
  0
LINE
  5
48C
  8
0
  6
CONTINUOUS
 62
     5
 10
198.9964640329517
 20
110.0303508667112
 30
0.0
 11
197.9719438893517
 21
110.3048702141191
 31
0.0
  0
LINE
  5
48D
  8
0
  6
CONTINUOUS
 62
     5
 10
196.4333541226743
 20
108.5504774413369
 30
0.0
 11
198.9964647237784
 21
110.0302900634072
 31
0.0
  0
LINE
  5
48E
  8
0
  6
CONTINUOUS
 62
     5
 10
194.6874754941291
 20
106.9937090047343
 30
0.0
 11
194.1249774014777
 21
107.9679842628805
 31
0.0
  0
LINE
  5
48F
  8
0
  6
CONTINUOUS
 62
     5
 10
194.6874622796304
 20
106.9937013753398
 30
0.0
 11
195.9865003619916
 21
107.7437013753398
 31
0.0
  0
LINE
  5
490
  8
0
  6
CONTINUOUS
 62
     5
 10
196.5490135764903
 20
106.7694304429634
 30
0.0
 11
195.9865135764903
 21
107.7437090047343
 31
0.0
  0
LINE
  5
491
  8
0
  6
CONTINUOUS
 62
     5
 10
198.5980516588516
 20
106.2203923606022
 30
0.0
 11
197.8480516588516
 21
107.5194304429634
 31
0.0
  0
LINE
  5
492
  8
0
  6
CONTINUOUS
 62
     5
 10
196.548998454643
 20
106.7694261171935
 30
0.0
 11
197.8480497515029
 21
107.5194337465881
 31
0.0
  0
LINE
  5
493
  8
0
  6
CONTINUOUS
 62
     5
 10
194.0514183705873
 20
103.5953923606022
 30
0.0
 11
207.0417859797008
 21
111.0953847312076
 31
0.0
  0
LINE
  5
494
  8
0
  6
CONTINUOUS
 62
     5
 10
203.1575569210149
 20
106.5746821324151
 30
0.0
 11
202.3908461902361
 21
105.9538121550882
 31
0.0
  0
LINE
  5
495
  8
0
  6
CONTINUOUS
 62
     5
 10
203.1575651872129
 20
106.5746751552322
 30
0.0
 11
202.5367046949452
 21
107.3413739100968
 31
0.0
  0
ARC
  5
496
  8
0
  6
CONTINUOUS
 62
     5
 10
202.4781646728516
 20
104.0391006469727
 30
0.0
 40
2.625001907348633
 50
75.00010795499728
 51
369.999953377945
  0
TEXT
  5
497
  8
0
 62
     5
 10
228.169076197813
 20
67.14117121330085
 30
0.0
 40
3.0
  1
F MAX  23KN
 50
120.0
 41
0.7894738964517459
  7
FDASTYLE1
 72
     5
 11
211.6690757805805
 21
95.72001026085525
 31
0.0
  0
TEXT
  5
498
  8
0
 62
     5
 10
198.2828639680843
 20
111.4114330844804
 30
0.0
 40
3.0
  1
ΣS
 50
120.0
 41
0.9090909271529234
  7
FDASTYLE1
 72
     5
 11
195.2828639084797
 21
116.6075856104254
 31
0.0
  0
TEXT
  5
499
  8
0
 62
     5
 10
204.9719899231892
 20
96.42065577384528
 30
0.0
 40
3.0
  1
F
 50
120.0
 41
0.8791213035583497
  7
FDASTYLE1
 72
     5
 11
203.6533079678517
 21
98.70467991951415
 31
0.0
  0
TEXT
  5
49A
  8
0
 62
     5
 10
207.5705836946468
 20
106.9579491994066
 30
0.0
 40
3.0
  1
N min
 50
120.0
 41
0.7983872414958763
  7
FDASTYLE1
 72
     5
 11
200.1455840999584
 21
119.8184257435853
 31
0.0
  0
TEXT
  5
49B
  8
0
 62
     5
 10
197.9594532258406
 20
119.3356844085435
 30
0.0
 40
1.5
  1
-1
 50
120.0
 41
0.7826088684192838
  7
FDASTYLE1
 72
     5
 11
196.6094531423941
 21
121.673953143295
 31
0.0
  0
TEXT
  5
49C
  8
0
 62
     5
 10
232.4992000991802
 20
69.64117121330085
 30
0.0
 40
3.0
  1
ΣS MAX 93KN
 50
120.0
 41
0.7947978833511999
  7
FDASTYLE1
 72
     5
 11
215.9991996819477
 21
98.22001026085525
 31
0.0
  0
TEXT
  5
49D
  8
0
 62
     5
 10
236.8293240005474
 20
72.14117121330085
 30
0.0
 40
3.0
  1
N MAX 5000 AT ΣS MAX
 50
120.0
 41
0.7943487080139173
  7
FDASTYLE1
 72
     5
 11
206.4693236584168
 21
124.7262343236797
 31
0.0
  0
TEXT
  5
49E
  8
0
 62
     5
 10
108.5142802000046
 20
-46.34934616088864
 30
0.0
 40
5.0
  1
NIKKO
 41
0.7674421159044379
  7
FDASTYLE1
 72
     5
 11
132.0857115983963
 21
-46.34934616088864
 31
0.0
  0
TEXT
  5
49F
  8
0
 62
     5
 10
143.8714156150818
 20
-45.84934616088864
 30
0.0
 40
4.0
  1
HDM3-215A5
 41
0.7727275194893263
  7
FDASTYLE1
 72
     5
 11
182.7285621166229
 21
-45.84934616088864
 31
0.0
  0
TEXT
  5
4A0
  8
0
 62
     5
 10
144.2285587787628
 20
-52.34934997558591
 30
0.0
 40
3.0
  1
0001
 41
0.7647060767727455
  7
FDASTYLE1
 72
     5
 11
155.3714164495468
 21
-52.34934997558591
 31
0.0
  0
INSERT
  5
4A1
  8
0
  6
CONTINUOUS
  2
DC_GROUP_3
 10
0.0
 20
0.0
 30
0.0
  0
INSERT
  5
4A2
  8
0
  6
CONTINUOUS
  2
DA_IMAGEDIMGROUP_31
 10
0.0
 20
0.0
 30
0.0
  0
INSERT
  5
4A3
  8
0
  6
CONTINUOUS
  2
DA_IMAGEDIMGROUP_32
 10
0.0
 20
0.0
 30
0.0
  0
INSERT
  5
4A4
  8
0
  6
CONTINUOUS
  2
DA_IMAGEDIMGROUP_33
 10
0.0
 20
0.0
 30
0.0
  0
INSERT
  5
4A5
  8
0
  6
CONTINUOUS
  2
DA_IMAGEDIMGROUP_35
 10
0.0
 20
0.0
 30
0.0
  0
INSERT
  5
4A6
  8
0
  6
CONTINUOUS
  2
DA_IMAGEDIMGROUP_36
 10
0.0
 20
0.0
 30
0.0
  0
INSERT
  5
4A7
  8
0
  6
CONTINUOUS
  2
DC_GROUP_6
 10
0.0
 20
0.0
 30
0.0
  0
CIRCLE
  5
4A8
  8
0
  6
CONTINUOUS
 62
     3
 10
109.9999923706055
 20
45.4506530761719
 30
0.0
 40
2.65
  0
CIRCLE
  5
4A9
  8
0
  6
CONTINUOUS
 62
     3
 10
163.9999923706055
 20
45.4506530761719
 30
0.0
 40
2.65
  0
VIEWPORT
  5
48
 67
     1
  8
0
 10
0.0
 20
0.0
 30
0.0
 40
1662.0
 41
1140.0
 68
     1
 69
     1
1001
ACAD
1000
MVIEW
1002
{
1070
    16
1010
0.0
1020
0.0
1030
0.0
1020
0.0
1030
0.0
1010
0.0
1020
0.0
1030
1.0
1020
0.0
1030
1.0
1040
0.0
1040
1140.0
1040
0.0
1040
0.0
1040
50.0
1040
0.0
1040
0.0
1070
     0
1070
   100
1070
     0
1070
     1
1070
     0
1070
     0
1070
     0
1070
     0
1040
0.0
1040
0.0
1040
0.0
1040
0.5
1040
0.5
1040
0.0
1040
0.0
1070
     0
1002
{
1002
}
1002
}
  0
ENDSEC
  0
EOF
