  0
SECTION
  2
HEADER
  9
$ACADVER
  1
AC1009
  9
$DWGCODEPAGE
  3
ansi_932
  9
$INSBASE
 10
0.0
 20
0.0
 30
0.0
  9
$EXTMIN
 10
-1246.5
 20
-854.9999999999998
 30
0.0
  9
$EXTMAX
 10
1246.5
 20
854.9999999999998
 30
0.0
  9
$LIMMIN
 10
-445.5
 20
-315.0
  9
$LIMMAX
 10
445.5
 20
315.0
  9
$ORTHOMODE
 70
     0
  9
$REGENMODE
 70
     1
  9
$FILLMODE
 70
     1
  9
$QTEXTMODE
 70
     0
  9
$MIRRTEXT
 70
     1
  9
$DRAGMODE
 70
     2
  9
$LTSCALE
 40
1.5
  9
$OSMODE
 70
    37
  9
$ATTMODE
 70
     1
  9
$TEXTSIZE
 40
0.2
  9
$TRACEWID
 40
0.05
  9
$TEXTSTYLE
  7
STANDARD
  9
$CLAYER
  8
0
  9
$CELTYPE
  6
BYLAYER
  9
$CECOLOR
 62
   256
  9
$DIMSCALE
 40
1.0
  9
$DIMASZ
 40
3.75
  9
$DIMEXO
 40
0.0625
  9
$DIMDLI
 40
0.38
  9
$DIMRND
 40
0.0
  9
$DIMDLE
 40
0.0
  9
$DIMEXE
 40
0.18
  9
$DIMTP
 40
0.0
  9
$DIMTM
 40
0.0
  9
$DIMTXT
 40
0.18
  9
$DIMCEN
 40
0.09
  9
$DIMTSZ
 40
0.0
  9
$DIMTOL
 70
     0
  9
$DIMLIM
 70
     0
  9
$DIMTIH
 70
     1
  9
$DIMTOH
 70
     1
  9
$DIMSE1
 70
     0
  9
$DIMSE2
 70
     0
  9
$DIMTAD
 70
     3
  9
$DIMZIN
 70
     0
  9
$DIMBLK
  1

  9
$DIMASO
 70
     1
  9
$DIMSHO
 70
     1
  9
$DIMPOST
  1

  9
$DIMAPOST
  1

  9
$DIMALT
 70
     0
  9
$DIMALTD
 70
     2
  9
$DIMALTF
 40
25.4
  9
$DIMLFAC
 40
1.0
  9
$DIMTOFL
 70
     0
  9
$DIMTVP
 40
0.0
  9
$DIMTIX
 70
     0
  9
$DIMSOXD
 70
     0
  9
$DIMSAH
 70
     0
  9
$DIMBLK1
  1

  9
$DIMBLK2
  1

  9
$DIMSTYLE
  2
STANDARD
  9
$DIMCLRD
 70
     0
  9
$DIMCLRE
 70
     0
  9
$DIMCLRT
 70
     0
  9
$DIMTFAC
 40
1.0
  9
$DIMGAP
 40
0.09
  9
$LUNITS
 70
     2
  9
$LUPREC
 70
     4
  9
$SKETCHINC
 40
0.1
  9
$FILLETRAD
 40
0.5
  9
$AUNITS
 70
     0
  9
$AUPREC
 70
     0
  9
$MENU
  1
.
  9
$ELEVATION
 40
0.0
  9
$PELEVATION
 40
0.0
  9
$THICKNESS
 40
0.0
  9
$LIMCHECK
 70
     0
  9
$CHAMFERA
 40
0.5
  9
$CHAMFERB
 40
0.5
  9
$SKPOLY
 70
     0
  9
$TDCREATE
 40
2456329.488429966
  9
$TDUPDATE
 40
2456329.488429977
  9
$TDINDWG
 40
0.0000000116
  9
$TDUSRTIMER
 40
0.0000000116
  9
$USRTIMER
 70
     1
  9
$ANGBASE
 50
0.0
  9
$ANGDIR
 70
     0
  9
$PDMODE
 70
     0
  9
$PDSIZE
 40
1.0
  9
$PLINEWID
 40
0.0
  9
$COORDS
 70
     1
  9
$SPLFRAME
 70
     0
  9
$SPLINETYPE
 70
     6
  9
$SPLINESEGS
 70
     8
  9
$ATTDIA
 70
     0
  9
$ATTREQ
 70
     1
  9
$HANDLING
 70
     1
  9
$HANDSEED
  5
404
  9
$SURFTAB1
 70
     6
  9
$SURFTAB2
 70
     6
  9
$SURFTYPE
 70
     6
  9
$SURFU
 70
     6
  9
$SURFV
 70
     6
  9
$UCSNAME
  2

  9
$UCSORG
 10
0.0
 20
0.0
 30
0.0
  9
$UCSXDIR
 10
1.0
 20
0.0
 30
0.0
  9
$UCSYDIR
 10
0.0
 20
1.0
 30
0.0
  9
$PUCSNAME
  2

  9
$PUCSORG
 10
0.0
 20
0.0
 30
0.0
  9
$PUCSXDIR
 10
1.0
 20
0.0
 30
0.0
  9
$PUCSYDIR
 10
0.0
 20
1.0
 30
0.0
  9
$USERI1
 70
     0
  9
$USERI2
 70
     0
  9
$USERI3
 70
     0
  9
$USERI4
 70
     0
  9
$USERI5
 70
     0
  9
$USERR1
 40
0.0
  9
$USERR2
 40
0.0
  9
$USERR3
 40
0.0
  9
$USERR4
 40
0.0
  9
$USERR5
 40
0.0
  9
$WORLDVIEW
 70
     1
  9
$SHADEDGE
 70
     3
  9
$SHADEDIF
 70
    70
  9
$TILEMODE
 70
     1
  9
$MAXACTVP
 70
    64
  9
$PLIMCHECK
 70
     0
  9
$PEXTMIN
 10
1.000000000000000E+20
 20
1.000000000000000E+20
 30
1.000000000000000E+20
  9
$PEXTMAX
 10
-1.000000000000000E+20
 20
-1.000000000000000E+20
 30
-1.000000000000000E+20
  9
$PLIMMIN
 10
0.0
 20
0.0
  9
$PLIMMAX
 10
12.0
 20
9.0
  9
$UNITMODE
 70
     0
  9
$VISRETAIN
 70
     0
  9
$PLINEGEN
 70
     1
  9
$PSLTSCALE
 70
     0
  0
ENDSEC
  0
SECTION
  2
TABLES
  0
TABLE
  2
VPORT
 70
     1
  0
VPORT
  2
*ACTIVE
 70
     0
 10
0.0
 20
0.0
 11
1.0
 21
1.0
 12
0.0
 22
0.0
 13
0.0
 23
0.0
 14
0.5
 24
0.5
 15
0.5
 25
0.5
 16
0.0
 26
0.0
 36
1.0
 17
-0.0000000000000036
 27
0.0
 37
0.0
 40
581.3999999999999
 41
1.457894736842106
 42
50.0
 43
0.0
 44
0.0
 50
0.0
 51
0.0
 71
     0
 72
  1000
 73
     1
 74
     1
 75
     0
 76
     0
 77
     0
 78
     0
  0
ENDTAB
  0
TABLE
  2
LTYPE
 70
    28
  0
LTYPE
  2
CONTINUOUS
 70
     0
  3
Solid line
 72
    65
 73
     0
 40
0.0
  0
LTYPE
  2
HIDDENX2
 70
     0
  3
CADPAC LINETYPE
 72
    65
 73
     2
 40
10.30674846625758
 49
7.730061349693187
 49
-2.576687116564396
  0
LTYPE
  2
HIDDEN
 70
     0
  3
CADPAC LINETYPE
 72
    65
 73
     2
 40
7.730061349693187
 49
5.153374233128791
 49
-2.576687116564396
  0
LTYPE
  2
HIDDEN2
 70
     0
  3
CADPAC LINETYPE
 72
    65
 73
     2
 40
6.441717791410989
 49
3.865030674846594
 49
-2.576687116564396
  0
LTYPE
  2
DASHED
 70
     0
  3
CADPAC LINETYPE
 72
    65
 73
     2
 40
7.214723926380353
 49
5.153374233128791
 49
-2.061349693251562
  0
LTYPE
  2
DASHED2
 70
     0
  3
CADPAC LINETYPE
 72
    65
 73
     2
 40
4.638036809815958
 49
3.092024539877305
 49
-1.546012269938653
  0
LTYPE
  2
DASHEDX2
 70
     0
  3
CADPAC LINETYPE
 72
    65
 73
     2
 40
12.36809815950922
 49
10.30674846625766
 49
-2.061349693251562
  0
LTYPE
  2
DOTX2
 70
     0
  3
CADPAC LINETYPE
 72
    65
 73
     2
 40
4.509202453987673
 49
0.0
 49
-4.509202453987673
  0
LTYPE
  2
DOT
 70
     0
  3
CADPAC LINETYPE
 72
    65
 73
     2
 40
3.607361963190139
 49
0.0
 49
-3.607361963190139
  0
LTYPE
  2
DOT2
 70
     0
  3
CADPAC LINETYPE
 72
    65
 73
     2
 40
2.705521472392604
 49
0.0
 49
-2.705521472392604
  0
LTYPE
  2
CENTERX2
 70
     0
  3
CADPAC LINETYPE
 72
    65
 73
     4
 40
15.46012269938638
 49
6.441717791410989
 49
-3.220858895705494
 49
2.576687116564396
 49
-3.220858895705494
  0
LTYPE
  2
CENTER
 70
     0
  3
CADPAC LINETYPE
 72
    65
 73
     4
 40
11.85276073619622
 49
5.153374233128791
 49
-2.576687116564396
 49
1.546012269938637
 49
-2.576687116564396
  0
LTYPE
  2
CENTER2
 70
     0
  3
CADPAC LINETYPE
 72
    65
 73
     4
 40
8.245398773006066
 49
3.865030674846594
 49
-1.932515337423297
 49
0.5153374233128791
 49
-1.932515337423297
  0
LTYPE
  2
DASHDOTX2
 70
     0
  3
CADPAC LINETYPE
 72
    65
 73
     4
 40
24.73619631901836
 49
12.36809815950922
 49
-4.122699386503048
 49
4.122699386503048
 49
-4.122699386503048
  0
LTYPE
  2
DASHDOT
 70
     0
  3
CADPAC LINETYPE
 72
    65
 73
     4
 40
12.36809815950922
 49
6.184049079754534
 49
-2.061349693251562
 49
2.061349693251562
 49
-2.061349693251562
  0
LTYPE
  2
DASHDOT2
 70
     0
  3
CADPAC LINETYPE
 72
    65
 73
     4
 40
7.9361963190184
 49
4.638036809815901
 49
-1.546012269938671
 49
0.2061349693251562
 49
-1.546012269938671
  0
LTYPE
  2
DIVIDEX2
 70
     0
  3
CADPAC LINETYPE
 72
    65
 73
     6
 40
32.98159509202446
 49
12.36809815950922
 49
-4.122699386503048
 49
4.122699386503048
 49
-4.122699386503048
 49
4.122699386503048
 49
-4.122699386503048
  0
LTYPE
  2
DIVIDE
 70
     0
  3
CADPAC LINETYPE
 72
    65
 73
     6
 40
16.49079754601235
 49
6.184049079754534
 49
-2.061349693251562
 49
2.061349693251562
 49
-2.061349693251562
 49
2.061349693251562
 49
-2.061349693251562
  0
LTYPE
  2
DIVIDE2
 70
     0
  3
CADPAC LINETYPE
 72
    65
 73
     6
 40
12.36809815950926
 49
4.638036809815901
 49
-1.546012269938671
 49
1.546012269938671
 49
-1.546012269938671
 49
1.546012269938671
 49
-1.546012269938671
  0
LTYPE
  2
BORDERX2
 70
     0
  3
CADPAC LINETYPE
 72
    65
 73
     6
 40
22.54601226993846
 49
6.441717791410989
 49
-3.220858895705494
 49
6.441717791410989
 49
-3.220858895705494
 49
0.0
 49
-3.220858895705494
  0
LTYPE
  2
BORDER
 70
     0
  3
CADPAC LINETYPE
 72
    65
 73
     6
 40
18.03680981595077
 49
5.153374233128791
 49
-2.576687116564396
 49
5.153374233128791
 49
-2.576687116564396
 49
0.0
 49
-2.576687116564396
  0
LTYPE
  2
BORDER2
 70
     0
  3
CADPAC LINETYPE
 72
    65
 73
     6
 40
13.39877300613489
 49
4.122699386503048
 49
-2.576687116564396
 49
1.546012269938653
 49
-2.576687116564396
 49
0.0
 49
-2.576687116564396
  0
LTYPE
  2
PHANTOMX2
 70
     0
  3
CADPAC LINETYPE
 72
    65
 73
     6
 40
19.32515337423297
 49
6.441717791410989
 49
-2.576687116564396
 49
2.576687116564396
 49
-2.576687116564396
 49
2.576687116564396
 49
-2.576687116564396
  0
LTYPE
  2
PHANTOM
 70
     0
  3
CADPAC LINETYPE
 72
    65
 73
     6
 40
15.97546012269925
 49
5.153374233128791
 49
-2.576687116564396
 49
1.546012269938637
 49
-2.576687116564396
 49
1.546012269938637
 49
-2.576687116564396
  0
LTYPE
  2
PHANTOM2
 70
     0
  3
CADPAC LINETYPE
 72
    65
 73
     6
 40
13.6564417177913
 49
3.865030674846594
 49
-2.576687116564396
 49
1.030674846625758
 49
-2.576687116564396
 49
1.030674846625758
 49
-2.576687116564396
  0
LTYPE
  2
ACAD_ISO06W100
 70
     0
  3
CADPAC LINETYPE
 72
    65
 73
     8
 40
27.31288343558276
 49
12.36809815950922
 49
-2.576687116564396
 49
1.546012269938653
 49
-2.576687116564396
 49
1.546012269938653
 49
-2.576687116564396
 49
1.546012269938653
 49
-2.576687116564396
  0
LTYPE
  2
ACAD_ISO13W100
 70
     0
  3
CADPAC LINETYPE
 72
    65
 73
     8
 40
20.61349693251517
 49
5.153374233128791
 49
-2.576687116564396
 49
5.153374233128791
 49
-2.576687116564396
 49
0.0
 49
-2.576687116564396
 49
0.0
 49
-2.576687116564396
  0
LTYPE
  2
ACAD_ISO14W100
 70
     0
  3
CADPAC LINETYPE
 72
    65
 73
     8
 40
15.46012269938637
 49
5.153374233128791
 49
-2.576687116564396
 49
0.0
 49
-2.576687116564396
 49
0.0
 49
-2.576687116564396
 49
0.0
 49
-2.576687116564396
  0
ENDTAB
  0
TABLE
  2
LAYER
 70
     3
  0
LAYER
  2
0
 70
     0
 62
     7
  6
CONTINUOUS
  0
LAYER
  2
LAYER0014
 70
     0
 62
     7
  6
CONTINUOUS
  0
LAYER
  2
ZUWAKU
 70
     0
 62
     7
  6
CONTINUOUS
  0
ENDTAB
  0
TABLE
  2
STYLE
 70
     5
  0
STYLE
  2
STANDARD
 70
     0
 40
0.0
 41
1.0
 50
0.0
 71
     0
 42
0.2
  3
txt
  4

  0
STYLE
  2
FDASTYLE1
 70
     0
 40
0.0
 41
0.7619047619047615
 50
0.0
 71
     0
 42
0.2
  3
txt.shx
  4
bigfont
  0
STYLE
  2
FDASTYLE0
 70
     4
 40
0.0
 41
0.8
 50
0.0
 71
     0
 42
0.2
  3
txt.shx
  4
bigfont
  0
STYLE
  2
FDASTYLE2
 70
     0
 40
0.0
 41
0.8123476848090984
 50
0.0
 71
     0
 42
0.2
  3
MSMINCHO.TTC
  4

  0
STYLE
  2
FDASTYLE3
 70
     0
 40
0.0
 41
0.77
 50
0.0
 71
     0
 42
0.2
  3
MSGOTHIC.TTC
  4

  0
ENDTAB
  0
TABLE
  2
VIEW
 70
     0
  0
ENDTAB
  0
TABLE
  2
UCS
 70
     0
  0
ENDTAB
  0
TABLE
  2
APPID
 70
     2
  0
APPID
  2
ACAD
 70
     0
  0
APPID
  2
DAFUSIONOUT
 70
     0
  0
ENDTAB
  0
TABLE
  2
DIMSTYLE
 70
     1
  0
DIMSTYLE
  2
STANDARD
 70
     0
  3

  4

  5

  6

  7

 40
1.0
 41
0.18
 42
0.0625
 43
0.38
 44
0.18
 45
0.0
 46
0.0
 47
0.0
 48
0.0
140
0.18
141
0.09
142
0.0
143
25.4
144
1.0
145
0.0
146
1.0
147
0.09
 71
     0
 72
     0
 73
     1
 74
     1
 75
     0
 76
     0
 77
     0
 78
     0
170
     0
171
     2
172
     0
173
     0
174
     0
175
     0
176
     0
177
     0
178
     0
  0
ENDTAB
  0
ENDSEC
  0
SECTION
  2
BLOCKS
  0
BLOCK
  8
0
  2
$MODEL_SPACE
 70
     0
 10
0.0
 20
0.0
 30
0.0
  3
$MODEL_SPACE
  1

  0
ENDBLK
  5
21
  8
0
  0
BLOCK
 67
     1
  8
0
  2
$PAPER_SPACE
 70
     0
 10
0.0
 20
0.0
 30
0.0
  3
$PAPER_SPACE
  1

  0
ENDBLK
  5
1D
 67
     1
  8
0
  0
BLOCK
  8
0
  2
DA_IMAGEDIMGROUP_1
 70
     0
 10
0.0
 20
0.0
 30
0.0
  3
DA_IMAGEDIMGROUP_1
  1

  0
LINE
  5
C4
  8
LAYER0014
  6
CONTINUOUS
 62
     7
 10
-305.0449230558709
 20
-10.90667933534753
 30
0.0
 11
-305.0449230558709
 21
98.19331207264318
 31
0.0
  0
INSERT
  5
CB
  8
LAYER0014
 62
     7
  2
_OPEN30
 10
-305.0449230558709
 20
-10.90667933534753
 30
0.0
 41
2.250002090868945
 42
2.249997751034238
 50
270.0
  0
INSERT
  5
CC
  8
LAYER0014
 62
     7
  2
_OPEN30
 10
-305.0449230558709
 20
98.19331207264318
 30
0.0
 41
2.250002090868945
 42
2.249997751034238
 50
90.0
  0
LINE
  5
CD
  8
LAYER0014
  6
CONTINUOUS
 62
     7
 10
-216.2385295850704
 20
-10.90667933534753
 30
0.0
 11
-306.5449230558709
 21
-10.90667933534753
 31
0.0
  0
LINE
  5
CE
  8
LAYER0014
  6
CONTINUOUS
 62
     7
 10
-216.2385295850704
 20
98.19331207264318
 30
0.0
 11
-306.5449230558709
 21
98.19331207264318
 31
0.0
  0
TEXT
  5
D0
  8
LAYER0014
 62
     7
 10
-306.5449230558709
 20
24.44331636864784
 30
0.0
 40
6.0
  1
φ109.1Ｈ7
 50
90.0
 41
0.7619047619047615
  7
FDASTYLE1
 72
     5
 11
-306.5449230558709
 21
62.84331636864781
 31
0.0
  0
ENDBLK
  5
4E
  8
0
  0
BLOCK
  8
0
  2
DA_IMAGEDIMGROUP_2
 70
     0
 10
0.0
 20
0.0
 30
0.0
  3
DA_IMAGEDIMGROUP_2
  1

  0
LINE
  5
D1
  8
LAYER0014
  6
CONTINUOUS
 62
     7
 10
-318.7004993131988
 20
-23.85667875867261
 30
0.0
 11
-318.7004993131988
 21
111.1433029128997
 31
0.0
  0
INSERT
  5
D2
  8
LAYER0014
 62
     7
  2
_OPEN30
 10
-318.7004993131988
 20
-23.85667875867261
 30
0.0
 41
2.250002090868945
 42
2.249997751034238
 50
270.0
  0
INSERT
  5
D3
  8
LAYER0014
 62
     7
  2
_OPEN30
 10
-318.7004993131988
 20
111.1433029128997
 30
0.0
 41
2.250002090868945
 42
2.249997751034238
 50
90.0
  0
LINE
  5
D4
  8
LAYER0014
  6
CONTINUOUS
 62
     7
 10
-272.9009958529402
 20
-23.85667875867261
 30
0.0
 11
-320.2004993131988
 21
-23.85667875867261
 31
0.0
  0
LINE
  5
D5
  8
LAYER0014
  6
CONTINUOUS
 62
     7
 10
-272.9009958529402
 20
111.1433029128997
 30
0.0
 11
-320.2004993131988
 21
111.1433029128997
 31
0.0
  0
TEXT
  5
D6
  8
LAYER0014
 62
     7
 10
-320.2004993131988
 20
29.24331207711356
 30
0.0
 40
6.0
  1
φ135H7
 50
90.0
 41
0.7741935483870955
  7
FDASTYLE1
 72
     5
 11
-320.2004993131988
 21
58.04331207711351
 31
0.0
  0
ENDBLK
  5
51
  8
0
  0
BLOCK
  8
0
  2
DA_IMAGEDIMGROUP_3
 70
     0
 10
0.0
 20
0.0
 30
0.0
  3
DA_IMAGEDIMGROUP_3
  1

  0
LINE
  5
D7
  8
LAYER0014
  6
CONTINUOUS
 62
     7
 10
-333.0063411065899
 20
-116.356686492375
 30
0.0
 11
-333.0063411065899
 21
203.6432963414878
 31
0.0
  0
INSERT
  5
D8
  8
LAYER0014
 62
     7
  2
_OPEN30
 10
-333.0063411065899
 20
-116.356686492375
 30
0.0
 41
2.250002090868945
 42
2.249997751034238
 50
270.0
  0
INSERT
  5
D9
  8
LAYER0014
 62
     7
  2
_OPEN30
 10
-333.0063411065899
 20
203.6432963414878
 30
0.0
 41
2.250002090868945
 42
2.249997751034238
 50
90.0
  0
LINE
  5
DA
  8
LAYER0014
  6
CONTINUOUS
 62
     7
 10
-278.6009773725207
 20
-116.356686492375
 30
0.0
 11
-334.5063411065899
 21
-116.356686492375
 31
0.0
  0
LINE
  5
DB
  8
LAYER0014
  6
CONTINUOUS
 62
     7
 10
-278.6009773725207
 20
203.6432963414878
 30
0.0
 11
-334.5063411065899
 21
203.6432963414878
 31
0.0
  0
TEXT
  5
DC
  8
LAYER0014
 62
     7
 10
-334.5063411065899
 20
29.24330492455638
 30
0.0
 40
6.0
  1
φ320H7
 50
90.0
 41
0.7741935483870955
  7
FDASTYLE1
 72
     5
 11
-334.5063411065899
 21
58.04330492455634
 31
0.0
  0
ENDBLK
  5
54
  8
0
  0
BLOCK
  8
0
  2
DA_IMAGEDIMGROUP_4
 70
     0
 10
0.0
 20
0.0
 30
0.0
  3
DA_IMAGEDIMGROUP_4
  1

  0
LINE
  5
DD
  8
LAYER0014
  6
CONTINUOUS
 62
     7
 10
-347.312182899981
 20
-131.3566860453402
 30
0.0
 11
-347.312182899981
 21
218.643295894453
 31
0.0
  0
INSERT
  5
DE
  8
LAYER0014
 62
     7
  2
_OPEN30
 10
-347.312182899981
 20
-131.3566860453402
 30
0.0
 41
2.250002090868945
 42
2.249997751034238
 50
270.0
  0
INSERT
  5
DF
  8
LAYER0014
 62
     7
  2
_OPEN30
 10
-347.312182899981
 20
218.643295894453
 30
0.0
 41
2.250002090868945
 42
2.249997751034238
 50
90.0
  0
LINE
  5
E0
  8
LAYER0014
  6
CONTINUOUS
 62
     7
 10
-278.6009773725207
 20
-131.3566860453402
 30
0.0
 11
-348.812182899981
 21
-131.3566860453402
 31
0.0
  0
LINE
  5
E1
  8
LAYER0014
  6
CONTINUOUS
 62
     7
 10
-278.6009773725207
 20
218.643295894453
 30
0.0
 11
-348.812182899981
 21
218.643295894453
 31
0.0
  0
TEXT
  5
E2
  8
LAYER0014
 62
     7
 10
-348.812182899981
 20
34.04330492455634
 30
0.0
 40
6.0
  1
φ350
 50
90.0
 41
0.7619047619047638
  7
FDASTYLE1
 72
     5
 11
-348.812182899981
 21
53.24330492455638
 31
0.0
  0
ENDBLK
  5
57
  8
0
  0
BLOCK
  8
0
  2
DA_IMAGEDIMGROUP_5
 70
     0
 10
0.0
 20
0.0
 30
0.0
  3
DA_IMAGEDIMGROUP_5
  1

  0
LINE
  5
E3
  8
LAYER0014
  6
CONTINUOUS
 62
     7
 10
-175.1185269958447
 20
-12.3566800550736
 30
0.0
 11
-109.0884067407952
 21
-12.3566800550736
 31
0.0
  0
LINE
  5
E4
  8
LAYER0014
  6
CONTINUOUS
 62
     7
 10
-143.8916176318594
 20
43.64331636864783
 30
0.0
 11
-121.1385787559056
 21
43.64331636864783
 31
0.0
  0
LINE
  5
E5
  8
LAYER0014
  6
CONTINUOUS
 62
     7
 10
-110.5884066960918
 20
-12.3566800550736
 30
0.0
 11
-110.5884066960918
 21
77.63388733135788
 31
0.0
  0
INSERT
  5
E6
  8
LAYER0014
 62
     7
  2
_OPEN30
 10
-110.5884066960918
 20
-12.3566800550736
 30
0.0
 41
2.250002090868945
 42
2.249997751034238
 50
270.0
  0
TEXT
  5
E7
  8
LAYER0014
 62
     7
 10
-112.9884066245662
 20
21.94904566528055
 30
0.0
 40
6.0
  1
M112×P1.5
 50
90.0
 41
0.7826086956521742
  7
FDASTYLE1
 72
     5
 11
-112.9884066245662
 21
65.14904566528057
 31
0.0
  0
ENDBLK
  5
5A
  8
0
  0
BLOCK
  8
0
  2
DA_IMAGEDIMGROUP_6
 70
     0
 10
0.0
 20
0.0
 30
0.0
  3
DA_IMAGEDIMGROUP_6
  1

  0
LINE
  5
E8
  8
LAYER0014
  6
CONTINUOUS
 62
     7
 10
-148.9809774208005
 20
-26.35667773049252
 30
0.0
 11
-94.08840718783006
 21
-26.35667773049252
 31
0.0
  0
LINE
  5
E9
  8
LAYER0014
  6
CONTINUOUS
 62
     7
 10
-95.58840714312657
 20
-26.35667773049252
 30
0.0
 11
-95.58840714312657
 21
77.65556816262092
 31
0.0
  0
INSERT
  5
EA
  8
LAYER0014
 62
     7
  2
_OPEN30
 10
-95.58840714312657
 20
-26.35667773049252
 30
0.0
 41
2.250002090868945
 42
2.249997751034238
 50
270.0
  0
TEXT
  5
EB
  8
LAYER0014
 62
     7
 10
-97.988407071601
 20
29.14904566528055
 30
0.0
 40
6.0
  1
φ140H7
 50
90.0
 41
0.774193548387097
  7
FDASTYLE1
 72
     5
 11
-97.988407071601
 21
57.94904566528057
 31
0.0
  0
ENDBLK
  5
5D
  8
0
  0
BLOCK
  8
0
  2
DA_IMAGEDIMGROUP_7
 70
     0
 10
0.0
 20
0.0
 30
0.0
  3
DA_IMAGEDIMGROUP_7
  1

  0
LINE
  5
EC
  8
LAYER0014
  6
CONTINUOUS
 62
     7
 10
-107.597128556479
 20
144.9433125867332
 30
0.0
 11
-94.08840718783006
 21
144.9433125867332
 31
0.0
  0
LINE
  5
ED
  8
LAYER0014
  6
CONTINUOUS
 62
     7
 10
-151.6278005594895
 20
116.9433057918039
 30
0.0
 11
-94.08840718783006
 21
116.9433057918039
 31
0.0
  0
LINE
  5
EE
  8
LAYER0014
  6
CONTINUOUS
 62
     7
 10
-95.58840714312657
 20
144.9433125867332
 30
0.0
 11
-95.58840714312657
 21
116.9433057918039
 31
0.0
  0
INSERT
  5
EF
  8
LAYER0014
 62
     7
  2
_OPEN30
 10
-95.58840714312657
 20
144.9433125867332
 30
0.0
 41
2.250002090868945
 42
2.249997751034238
 50
90.0
  0
INSERT
  5
F0
  8
LAYER0014
 62
     7
  2
_OPEN30
 10
-95.58840714312657
 20
116.9433057918039
 30
0.0
 41
2.250002090868945
 42
2.249997751034238
 50
270.0
  0
TEXT
  5
F1
  8
LAYER0014
 62
     7
 10
-97.988407071601
 20
118.9433091892686
 30
0.0
 40
6.0
  1
MIN14
 50
90.0
 41
0.8
  7
FDASTYLE1
 72
     5
 11
-97.988407071601
 21
142.9433091892686
 31
0.0
  0
ENDBLK
  5
60
  8
0
  0
BLOCK
  8
0
  2
DA_IMAGEDIMGROUP_8
 70
     0
 10
0.0
 20
0.0
 30
0.0
  3
DA_IMAGEDIMGROUP_8
  1

  0
LINE
  5
F2
  8
LAYER0014
  6
CONTINUOUS
 62
     7
 10
-65.60764724182023
 20
43.64331636864783
 30
0.0
 11
-65.60764724182023
 21
116.9433057918039
 31
0.0
  0
INSERT
  5
F3
  8
LAYER0014
 62
     7
  2
_OPEN30
 10
-65.60764724182023
 20
43.64331636864783
 30
0.0
 41
2.250002090868945
 42
2.249997751034238
 50
270.0
  0
INSERT
  5
F4
  8
LAYER0014
 62
     7
  2
_OPEN30
 10
-65.60764724182023
 20
116.9433057918039
 30
0.0
 41
2.250002090868945
 42
2.249997751034238
 50
90.0
  0
LINE
  5
F5
  8
LAYER0014
  6
CONTINUOUS
 62
     7
 10
-93.84496028540774
 20
43.64331636864783
 30
0.0
 11
-64.10764724182023
 21
43.64331636864783
 31
0.0
  0
LINE
  5
F6
  8
LAYER0014
  6
CONTINUOUS
 62
     7
 10
-149.980973576301
 20
116.9433057918039
 30
0.0
 11
-64.10764724182023
 21
116.9433057918039
 31
0.0
  0
TEXT
  5
F7
  8
LAYER0014
 62
     7
 10
-67.10764724182023
 20
63.49331108022588
 30
0.0
 40
6.0
  1
MAX75.8
 50
90.0
 41
0.7999999999999998
  7
FDASTYLE1
 72
     5
 11
-67.10764724182023
 21
97.09331108022587
 31
0.0
  0
ENDBLK
  5
63
  8
0
  0
BLOCK
  8
0
  2
DA_IMAGEDIMGROUP_9
 70
     0
 10
0.0
 20
0.0
 30
0.0
  3
DA_IMAGEDIMGROUP_9
  1

  0
LINE
  5
F8
  8
LAYER0014
  6
CONTINUOUS
 62
     7
 10
-149.980973576301
 20
116.9433057918039
 30
0.0
 11
-64.0884080818997
 21
116.9433057918039
 31
0.0
  0
LINE
  5
F9
  8
LAYER0014
  6
CONTINUOUS
 62
     7
 10
-151.8472724614966
 20
218.9433141960586
 30
0.0
 11
-64.0884080818997
 21
218.9433141960586
 31
0.0
  0
LINE
  5
FA
  8
LAYER0014
  6
CONTINUOUS
 62
     7
 10
-65.58840803719622
 20
116.9433057918039
 30
0.0
 11
-65.58840803719622
 21
218.9433141960586
 31
0.0
  0
INSERT
  5
FB
  8
LAYER0014
 62
     7
  2
_OPEN30
 10
-65.58840803719622
 20
116.9433057918039
 30
0.0
 41
2.250002090868945
 42
2.249997751034238
 50
270.0
  0
INSERT
  5
FC
  8
LAYER0014
 62
     7
  2
_OPEN30
 10
-65.58840803719622
 20
218.9433141960586
 30
0.0
 41
2.250002090868945
 42
2.249997751034238
 50
90.0
  0
TEXT
  5
FD
  8
LAYER0014
 62
     7
 10
-67.98840796567065
 20
160.743315715977
 30
0.0
 40
6.0
  1
102
 50
90.0
 41
0.8000000000000019
  7
FDASTYLE1
 72
     5
 11
-67.98840796567065
 21
175.143315715977
 31
0.0
  0
ENDBLK
  5
66
  8
0
  0
BLOCK
  8
0
  2
DA_IMAGEDIMGROUP_10
 70
     0
 10
0.0
 20
0.0
 30
0.0
  3
DA_IMAGEDIMGROUP_10
  1

  0
LINE
  5
FE
  8
LAYER0014
  6
CONTINUOUS
 62
     7
 10
-251.9285208920312
 20
19.32633434722609
 30
0.0
 11
-214.9285372535057
 21
19.32633434722609
 31
0.0
  0
INSERT
  5
FF
  8
LAYER0014
 62
     7
  2
_OPEN30
 10
-251.9285208920312
 20
19.32633434722609
 30
0.0
 41
2.250002090868945
 42
2.249997751034238
 50
180.0
  0
INSERT
  5
100
  8
LAYER0014
 62
     7
  2
_OPEN30
 10
-214.9285372535057
 20
19.32633434722609
 30
0.0
 41
2.250002090868945
 42
2.249997751034238
 50
360.0
  0
TEXT
  5
101
  8
LAYER0014
 62
     7
 10
-238.2285290727685
 20
20.82633434722609
 30
0.0
 40
6.0
  1
37
 41
0.8000000000000019
  7
FDASTYLE1
 72
     5
 11
-228.6285290727685
 21
20.82633434722609
 31
0.0
  0
ENDBLK
  5
69
  8
0
  0
BLOCK
  8
0
  2
DA_IMAGEDIMGROUP_11
 70
     0
 10
0.0
 20
0.0
 30
0.0
  3
DA_IMAGEDIMGROUP_11
  1

  0
LINE
  5
102
  8
LAYER0014
  6
CONTINUOUS
 62
     7
 10
-214.9285372535057
 20
19.32633434722609
 30
0.0
 11
-192.9285302797625
 21
19.32633434722609
 31
0.0
  0
INSERT
  5
103
  8
LAYER0014
 62
     7
  2
_OPEN30
 10
-214.9285372535057
 20
19.32633434722609
 30
0.0
 41
2.250002090868945
 42
2.249997751034238
 50
180.0
  0
INSERT
  5
104
  8
LAYER0014
 62
     7
  2
_OPEN30
 10
-192.9285302797625
 20
19.32633434722609
 30
0.0
 41
2.250002090868945
 42
2.249997751034238
 50
360.0
  0
TEXT
  5
105
  8
LAYER0014
 62
     7
 10
-208.7285337666341
 20
20.82633434722609
 30
0.0
 40
6.0
  1
22
 41
0.8000000000000019
  7
FDASTYLE1
 72
     5
 11
-199.1285337666341
 21
20.82633434722609
 31
0.0
  0
ENDBLK
  5
6C
  8
0
  0
BLOCK
  8
0
  2
DA_IMAGEDIMGROUP_12
 70
     0
 10
0.0
 20
0.0
 30
0.0
  3
DA_IMAGEDIMGROUP_12
  1

  0
LINE
  5
106
  8
LAYER0014
  6
CONTINUOUS
 62
     7
 10
-192.9285302797625
 20
19.32633434722609
 30
0.0
 11
-178.9285268822978
 21
19.32633434722609
 31
0.0
  0
INSERT
  5
107
  8
LAYER0014
 62
     7
  2
_OPEN30
 10
-192.9285302797625
 20
19.32633434722609
 30
0.0
 41
2.250002090868945
 42
2.249997751034238
 50
180.0
  0
INSERT
  5
108
  8
LAYER0014
 62
     7
  2
_OPEN30
 10
-178.9285268822978
 20
19.32633434722609
 30
0.0
 41
2.250002090868945
 42
2.249997751034238
 50
360.0
  0
TEXT
  5
109
  8
LAYER0014
 62
     7
 10
-190.7285285810302
 20
20.82633434722609
 30
0.0
 40
6.0
  1
14
 41
0.8000000000000019
  7
FDASTYLE1
 72
     5
 11
-181.1285285810301
 21
20.82633434722609
 31
0.0
  0
ENDBLK
  5
6F
  8
0
  0
BLOCK
  8
0
  2
DA_IMAGEDIMGROUP_13
 70
     0
 10
0.0
 20
0.0
 30
0.0
  3
DA_IMAGEDIMGROUP_13
  1

  0
LINE
  5
10A
  8
LAYER0014
  6
CONTINUOUS
 62
     7
 10
-178.9285268822978
 20
19.32633434722609
 30
0.0
 11
-176.9285345712968
 21
19.32633434722609
 31
0.0
  0
LINE
  5
10B
  8
LAYER0014
  6
CONTINUOUS
 62
     7
 10
-166.2018744362766
 20
19.32633434722609
 30
0.0
 11
-176.9285345712968
 21
19.32633434722609
 31
0.0
  0
INSERT
  5
10C
  8
LAYER0014
 62
     7
  2
_OPEN30
 10
-176.9285345712968
 20
19.32633434722609
 30
0.0
 41
2.250002090868945
 42
2.249997751034238
 50
180.0
  0
LINE
  5
10D
  8
LAYER0014
  6
CONTINUOUS
 62
     7
 10
-186.4285268822978
 20
19.32633434722609
 30
0.0
 11
-178.9285268822978
 21
19.32633434722609
 31
0.0
  0
INSERT
  5
10E
  8
LAYER0014
 62
     7
  2
_OPEN30
 10
-178.9285268822978
 20
19.32633434722609
 30
0.0
 41
2.250002090868945
 42
2.249997751034238
 50
360.0
  0
TEXT
  5
10F
  8
LAYER0014
 62
     7
 10
-172.5018744362766
 20
20.82633434722609
 30
0.0
 40
6.0
  1
2
 41
0.8000000000000019
  7
FDASTYLE1
 72
     5
 11
-167.7018744362766
 21
20.82633434722609
 31
0.0
  0
ENDBLK
  5
72
  8
0
  0
BLOCK
  8
0
  2
DA_IMAGEDIMGROUP_14
 70
     0
 10
0.0
 20
0.0
 30
0.0
  3
DA_IMAGEDIMGROUP_14
  1

  0
LINE
  5
110
  8
LAYER0014
  6
CONTINUOUS
 62
     7
 10
-155.2909734180507
 20
4.67146427387394
 30
0.0
 11
-152.7909773072536
 21
4.67146427387394
 31
0.0
  0
LINE
  5
111
  8
LAYER0014
  6
CONTINUOUS
 62
     7
 10
-132.3052667330212
 20
4.67146427387394
 30
0.0
 11
-152.7909773072536
 21
4.67146427387394
 31
0.0
  0
INSERT
  5
112
  8
LAYER0014
 62
     7
  2
_OPEN30
 10
-152.7909773072536
 20
4.67146427387394
 30
0.0
 41
2.250002090868945
 42
2.249997751034238
 50
180.0
  0
LINE
  5
113
  8
LAYER0014
  6
CONTINUOUS
 62
     7
 10
-162.7909734180507
 20
4.671464273873941
 30
0.0
 11
-155.2909734180507
 21
4.67146427387394
 31
0.0
  0
INSERT
  5
114
  8
LAYER0014
 62
     7
  2
_OPEN30
 10
-155.2909734180507
 20
4.67146427387394
 30
0.0
 41
2.250002090868945
 42
2.249997751034238
 50
360.0
  0
TEXT
  5
115
  8
LAYER0014
 62
     7
 10
-148.2052667330212
 20
6.17146427387394
 30
0.0
 40
6.0
  1
2.5
 41
0.8000000000000003
  7
FDASTYLE1
 72
     5
 11
-133.8052667330211
 21
6.17146427387394
 31
0.0
  0
ENDBLK
  5
75
  8
0
  0
BLOCK
  8
0
  2
DA_IMAGEDIMGROUP_15
 70
     0
 10
0.0
 20
0.0
 30
0.0
  3
DA_IMAGEDIMGROUP_15
  1

  0
LINE
  5
116
  8
LAYER0014
  6
CONTINUOUS
 62
     7
 10
-299.790961482221
 20
-87.64168010022411
 30
0.0
 11
-299.790961482221
 21
-106.0253154929008
 31
0.0
  0
LINE
  5
117
  8
LAYER0014
  6
CONTINUOUS
 62
     7
 10
-269.0909959664871
 20
-104.0253231818998
 30
0.0
 11
-299.790961482221
 21
-104.0253231818998
 31
0.0
  0
INSERT
  5
118
  8
LAYER0014
 62
     7
  2
_OPEN30
 10
-269.0909959664871
 20
-104.0253231818998
 30
0.0
 41
2.250002090868945
 42
2.249997751034238
 50
360.0
  0
INSERT
  5
119
  8
LAYER0014
 62
     7
  2
_OPEN30
 10
-299.790961482221
 20
-104.0253231818998
 30
0.0
 41
2.250002090868945
 42
2.249997751034238
 50
180.0
  0
TEXT
  5
11A
  8
LAYER0014
 62
     7
 10
-294.0410016125369
 20
-101.6253232534254
 30
0.0
 40
6.0
  1
30.7
 41
0.8000000000000019
  7
FDASTYLE1
 72
     5
 11
-274.8410016125368
 21
-101.6253232534254
 31
0.0
  0
ENDBLK
  5
78
  8
0
  0
BLOCK
  8
0
  2
DA_IMAGEDIMGROUP_16
 70
     0
 10
0.0
 20
0.0
 30
0.0
  3
DA_IMAGEDIMGROUP_16
  1

  0
LINE
  5
11B
  8
LAYER0014
  6
CONTINUOUS
 62
     7
 10
-303.6009613686741
 20
-63.83167699512023
 30
0.0
 11
-319.2909609010757
 21
-63.83167699512023
 31
0.0
  0
LINE
  5
11C
  8
LAYER0014
  6
CONTINUOUS
 62
     7
 10
-303.6009613686741
 20
-83.83168021377095
 30
0.0
 11
-319.2909609010757
 21
-83.83168021377095
 31
0.0
  0
LINE
  5
11D
  8
LAYER0014
  6
CONTINUOUS
 62
     7
 10
-317.7909609457792
 20
-63.83167699512023
 30
0.0
 11
-317.7909609457792
 21
-83.83168021377095
 31
0.0
  0
INSERT
  5
11E
  8
LAYER0014
 62
     7
  2
_OPEN30
 10
-317.7909609457792
 20
-63.83167699512023
 30
0.0
 41
2.250002090868945
 42
2.249997751034238
 50
90.0
  0
INSERT
  5
11F
  8
LAYER0014
 62
     7
  2
_OPEN30
 10
-317.7909609457792
 20
-83.83168021377095
 30
0.0
 41
2.250002090868945
 42
2.249997751034238
 50
270.0
  0
TEXT
  5
120
  8
LAYER0014
 62
     7
 10
-320.1909608742535
 20
-81.03167860444559
 30
0.0
 40
6.0
  1
M20
 50
90.0
 41
0.7999999999999987
  7
FDASTYLE1
 72
     5
 11
-320.1909608742535
 21
-66.63167860444561
 31
0.0
  0
ENDBLK
  5
7B
  8
0
  0
BLOCK
  8
0
  2
DA_IMAGEDIMGROUP_17
 70
     0
 10
0.0
 20
0.0
 30
0.0
  3
DA_IMAGEDIMGROUP_17
  1

  0
LINE
  5
121
  8
LAYER0014
  6
CONTINUOUS
 62
     7
 10
-274.7909774860675
 20
-211.7492922491423
 30
0.0
 11
-152.7909773072536
 21
-211.7492922491423
 31
0.0
  0
INSERT
  5
122
  8
LAYER0014
 62
     7
  2
_OPEN30
 10
-274.7909774860675
 20
-211.7492922491423
 30
0.0
 41
2.250002090868945
 42
2.249997751034238
 50
180.0
  0
INSERT
  5
123
  8
LAYER0014
 62
     7
  2
_OPEN30
 10
-152.7909773072536
 20
-211.7492922491423
 30
0.0
 41
2.250002090868945
 42
2.249997751034238
 50
360.0
  0
LINE
  5
124
  8
LAYER0014
  6
CONTINUOUS
 62
     7
 10
-274.7909774860675
 20
-135.1666859317934
 30
0.0
 11
-274.7909774860675
 21
-213.2492922491423
 31
0.0
  0
LINE
  5
125
  8
LAYER0014
  6
CONTINUOUS
 62
     7
 10
-152.7909773072536
 20
-133.1558675102751
 30
0.0
 11
-152.7909773072536
 21
-213.2492922491423
 31
0.0
  0
TEXT
  5
126
  8
LAYER0014
 62
     7
 10
-220.9909773966606
 20
-210.2492922491423
 30
0.0
 40
6.0
  1
122
 41
0.7999999999999987
  7
FDASTYLE1
 72
     5
 11
-206.5909773966606
 21
-210.2492922491423
 31
0.0
  0
ENDBLK
  5
7E
  8
0
  0
BLOCK
  8
0
  2
DA_IMAGEDIMGROUP_18
 70
     0
 10
0.0
 20
0.0
 30
0.0
  3
DA_IMAGEDIMGROUP_18
  1

  0
LINE
  5
127
  8
LAYER0014
  6
CONTINUOUS
 62
     7
 10
-269.0909959664871
 20
-175.6856458987708
 30
0.0
 11
-214.9285372535057
 21
-175.6856458987708
 31
0.0
  0
INSERT
  5
128
  8
LAYER0014
 62
     7
  2
_OPEN30
 10
-269.0909959664871
 20
-175.6856458987708
 30
0.0
 41
2.250002090868945
 42
2.249997751034238
 50
180.0
  0
INSERT
  5
129
  8
LAYER0014
 62
     7
  2
_OPEN30
 10
-214.9285372535057
 20
-175.6856458987708
 30
0.0
 41
2.250002090868945
 42
2.249997751034238
 50
360.0
  0
LINE
  5
12A
  8
LAYER0014
  6
CONTINUOUS
 62
     7
 10
-269.0909959664871
 20
-149.166689329258
 30
0.0
 11
-269.0909959664871
 21
-177.1856458987708
 31
0.0
  0
LINE
  5
12B
  8
LAYER0014
  6
CONTINUOUS
 62
     7
 10
-214.9285372535057
 20
-14.01918616626314
 30
0.0
 11
-214.9285372535057
 21
-177.1856458987708
 31
0.0
  0
TEXT
  5
12C
  8
LAYER0014
 62
     7
 10
-258.8097666099964
 20
-174.1856458987708
 30
0.0
 40
6.0
  1
MAX76.8
 41
0.8000000000000005
  7
FDASTYLE1
 72
     5
 11
-225.2097666099964
 21
-174.1856458987708
 31
0.0
  0
ENDBLK
  5
81
  8
0
  0
BLOCK
  8
0
  2
DA_IMAGEDIMGROUP_19
 70
     0
 10
0.0
 20
0.0
 30
0.0
  3
DA_IMAGEDIMGROUP_19
  1

  0
LINE
  5
12D
  8
LAYER0014
  6
CONTINUOUS
 62
     7
 10
-251.9285208920312
 20
113.9533180879438
 30
0.0
 11
-251.9285208920312
 21
241.639991681266
 31
0.0
  0
LINE
  5
12E
  8
LAYER0014
  6
CONTINUOUS
 62
     7
 10
-269.0909959664871
 20
207.4532962279409
 30
0.0
 11
-269.0909959664871
 21
241.639991681266
 31
0.0
  0
LINE
  5
12F
  8
LAYER0014
  6
CONTINUOUS
 62
     7
 10
-251.9285208920312
 20
240.1399917259695
 30
0.0
 11
-269.0909959664871
 21
240.1399917259695
 31
0.0
  0
LINE
  5
130
  8
LAYER0014
  6
CONTINUOUS
 62
     7
 10
-309.5795937331482
 20
240.1399917259695
 30
0.0
 11
-269.0909959664871
 21
240.1399917259695
 31
0.0
  0
INSERT
  5
131
  8
LAYER0014
 62
     7
  2
_OPEN30
 10
-269.0909959664871
 20
240.1399917259695
 30
0.0
 41
2.250002090868945
 42
2.249997751034238
 50
360.0
  0
LINE
  5
132
  8
LAYER0014
  6
CONTINUOUS
 62
     7
 10
-244.4285208920312
 20
240.1399917259695
 30
0.0
 11
-251.9285208920312
 21
240.1399917259695
 31
0.0
  0
INSERT
  5
133
  8
LAYER0014
 62
     7
  2
_OPEN30
 10
-251.9285208920312
 20
240.1399917259695
 30
0.0
 41
2.250002090868945
 42
2.249997751034238
 50
180.0
  0
TEXT
  5
134
  8
LAYER0014
 62
     7
 10
-308.0795937331482
 20
241.6399917259695
 30
0.0
 40
6.0
  1
MAX39.8
 41
0.8000000000000005
  7
FDASTYLE1
 72
     5
 11
-274.4795937331482
 21
241.6399917259695
 31
0.0
  0
ENDBLK
  5
84
  8
0
  0
BLOCK
  8
0
  2
DA_IMAGEDIMGROUP_20
 70
     0
 10
0.0
 20
0.0
 30
0.0
  3
DA_IMAGEDIMGROUP_20
  1

  0
LINE
  5
135
  8
LAYER0014
  6
CONTINUOUS
 62
     7
 10
-153.7909734627542
 20
219.9837372568243
 30
0.0
 11
-153.7909734627542
 21
241.639991681266
 31
0.0
  0
LINE
  5
136
  8
LAYER0014
  6
CONTINUOUS
 62
     7
 10
-152.7909773072536
 20
219.4532958703131
 30
0.0
 11
-152.7909773072536
 21
241.639991681266
 31
0.0
  0
LINE
  5
137
  8
LAYER0014
  6
CONTINUOUS
 62
     7
 10
-153.7909734627542
 20
240.1399917259695
 30
0.0
 11
-152.7909773072536
 21
240.1399917259695
 31
0.0
  0
LINE
  5
138
  8
LAYER0014
  6
CONTINUOUS
 62
     7
 10
-153.7909734627542
 20
240.1399917259695
 30
0.0
 11
-163.3159731788871
 21
240.1399917259695
 31
0.0
  0
INSERT
  5
139
  8
LAYER0014
 62
     7
  2
_OPEN30
 10
-153.7909734627542
 20
240.1399917259695
 30
0.0
 41
2.250002090868945
 42
2.249997751034238
 50
360.0
  0
LINE
  5
13A
  8
LAYER0014
  6
CONTINUOUS
 62
     7
 10
-143.2659775911207
 20
240.1399917259695
 30
0.0
 11
-152.7909773072536
 21
240.1399917259695
 31
0.0
  0
INSERT
  5
13B
  8
LAYER0014
 62
     7
  2
_OPEN30
 10
-152.7909773072536
 20
240.1399917259695
 30
0.0
 41
2.250002090868945
 42
2.249997751034238
 50
180.0
  0
TEXT
  5
13C
  8
LAYER0014
 62
     7
 10
-166.1944369097449
 20
242.5399916544439
 30
0.0
 40
6.0
  1
1
 41
0.8000000000000019
  7
FDASTYLE1
 72
     5
 11
-161.3944369097449
 21
242.5399916544439
 31
0.0
  0
ENDBLK
  5
87
  8
0
  0
BLOCK
  8
0
  2
DC_GROUP_1
 70
     0
 10
0.0
 20
0.0
 30
0.0
  3
DC_GROUP_1
  1

  0
LINE
  5
13D
  8
LAYER0014
  6
CONTINUOUS
 62
     7
 10
-153.5905254123561
 20
209.4948136145104
 30
0.0
 11
-124.2856825116747
 21
252.7734737441746
 31
0.0
  0
INSERT
  5
13E
  8
LAYER0014
 62
     7
  2
_OPEN30
 10
-153.5905254123561
 20
209.4948136145104
 30
0.0
 41
2.250002090868945
 42
2.249997751034238
 50
235.8972884860926
  0
LINE
  5
13F
  8
LAYER0014
  6
CONTINUOUS
 62
     7
 10
-124.2856795422757
 20
252.7734676067868
 30
0.0
 11
-57.30798988797581
 21
252.7734676067868
 31
0.0
  0
TEXT
  5
140
  8
LAYER0014
 62
     7
 10
-122.8794181400938
 20
255.1734675352612
 30
0.0
 40
6.0
  1
ｾﾚｰｼｮﾝP1.5山60ﾟ
 41
0.7887323943661974
  7
FDASTYLE1
 72
     5
 11
-55.67941814009377
 21
255.1734675352612
 31
0.0
  0
ENDBLK
  5
8A
  8
0
  0
BLOCK
  8
0
  2
DC_GROUP_2
 70
     0
 10
0.0
 20
0.0
 30
0.0
  3
DC_GROUP_2
  1

  0
LINE
  5
141
  8
LAYER0014
  6
CONTINUOUS
 62
     7
 10
-129.945872078367
 20
194.284685304443
 30
0.0
 11
-101.0159296341076
 21
240.1952445929811
 31
0.0
  0
INSERT
  5
142
  8
LAYER0014
 62
     7
  2
_OPEN30
 10
-129.945872078367
 20
194.284685304443
 30
0.0
 41
2.250002090868945
 42
2.249997751034238
 50
237.7834530706753
  0
LINE
  5
143
  8
LAYER0014
  6
CONTINUOUS
 62
     7
 10
-101.015927733327
 20
240.1952437995181
 30
0.0
 11
-84.94285577887017
 21
240.1952437995181
 31
0.0
  0
TEXT
  5
144
  8
LAYER0014
 62
     7
 10
-100.3870234094184
 20
242.5952437279926
 30
0.0
 40
6.0
  1
M16
 41
0.8000000000000003
  7
FDASTYLE1
 72
     5
 11
-85.98702340941841
 21
242.5952437279926
 31
0.0
  0
ENDBLK
  5
8D
  8
0
  0
BLOCK
  8
0
  2
DC_GROUP_3
 70
     0
 10
0.0
 20
0.0
 30
0.0
  3
DC_GROUP_3
  1

  0
LINE
  5
145
  8
LAYER0014
  6
CONTINUOUS
 62
     7
 10
-220.9490061600251
 20
-131.8810707284802
 30
0.0
 11
-234.8062473730284
 21
-148.7755152452446
 31
0.0
  0
INSERT
  5
146
  8
LAYER0014
 62
     7
  2
_OPEN30
 10
-220.9490061600251
 20
-131.8810707284802
 30
0.0
 41
2.250002090868945
 42
2.249997751034238
 50
50.64054901679854
  0
LINE
  5
147
  8
LAYER0014
  6
CONTINUOUS
 62
     7
 10
-234.8062603549511
 20
-148.7755202124978
 30
0.0
 11
-265.4228791887089
 21
-148.7755202124978
 31
0.0
  0
TEXT
  5
148
  8
LAYER0014
 62
     7
 10
-264.1757412339753
 20
-146.3755317281149
 30
0.0
 40
6.0
  1
M12×25
 41
0.774193548387097
  7
FDASTYLE1
 72
     5
 11
-235.3757412339753
 21
-146.3755317281149
 31
0.0
  0
ENDBLK
  5
90
  8
0
  0
BLOCK
  8
0
  2
DA_IMAGEDIMGROUP_21
 70
     0
 10
0.0
 20
0.0
 30
0.0
  3
DA_IMAGEDIMGROUP_21
  1

  0
LINE
  5
149
  8
LAYER0014
  6
CONTINUOUS
 62
     7
 10
-110.784800122856
 20
144.9433125867332
 30
0.0
 11
-94.08840718783006
 21
144.9433125867332
 31
0.0
  0
LINE
  5
14A
  8
LAYER0014
  6
CONTINUOUS
 62
     7
 10
-111.0650315903345
 20
189.9433112456288
 30
0.0
 11
-94.08840718783006
 21
189.9433112456288
 31
0.0
  0
LINE
  5
14B
  8
LAYER0014
  6
CONTINUOUS
 62
     7
 10
-95.58840714312657
 20
144.9433125867332
 30
0.0
 11
-95.58840714312657
 21
189.9433112456288
 31
0.0
  0
INSERT
  5
14C
  8
LAYER0014
 62
     7
  2
_OPEN30
 10
-95.58840714312657
 20
144.9433125867332
 30
0.0
 41
2.250002090868945
 42
2.249997751034238
 50
270.0
  0
INSERT
  5
14D
  8
LAYER0014
 62
     7
  2
_OPEN30
 10
-95.58840714312657
 20
189.9433112456288
 30
0.0
 41
2.250002090868945
 42
2.249997751034238
 50
90.0
  0
TEXT
  5
14E
  8
LAYER0014
 62
     7
 10
-97.988407071601
 20
162.643311916181
 30
0.0
 40
6.0
  1
45
 50
90.0
 41
0.7999999999999972
  7
FDASTYLE1
 72
     5
 11
-97.988407071601
 21
172.243311916181
 31
0.0
  0
ENDBLK
  5
93
  8
0
  0
BLOCK
  8
0
  2
DA_IMAGEDIMGROUP_22
 70
     0
 10
0.0
 20
0.0
 30
0.0
  3
DA_IMAGEDIMGROUP_22
  1

  0
LINE
  5
14F
  8
LAYER0014
  6
CONTINUOUS
 62
     7
 10
-90.38813897230098
 20
129.9433130337681
 30
0.0
 11
-79.08840763486488
 21
129.9433130337681
 31
0.0
  0
LINE
  5
150
  8
LAYER0014
  6
CONTINUOUS
 62
     7
 10
-147.480977465504
 20
204.9433222426854
 30
0.0
 11
-79.08840763486488
 21
204.9433222426854
 31
0.0
  0
LINE
  5
151
  8
LAYER0014
  6
CONTINUOUS
 62
     7
 10
-80.5884075901614
 20
129.9433130337681
 30
0.0
 11
-80.5884075901614
 21
204.9433222426854
 31
0.0
  0
INSERT
  5
152
  8
LAYER0014
 62
     7
  2
_OPEN30
 10
-80.5884075901614
 20
129.9433130337681
 30
0.0
 41
2.250002090868945
 42
2.249997751034238
 50
270.0
  0
INSERT
  5
153
  8
LAYER0014
 62
     7
  2
_OPEN30
 10
-80.5884075901614
 20
204.9433222426854
 30
0.0
 41
2.250002090868945
 42
2.249997751034238
 50
90.0
  0
TEXT
  5
154
  8
LAYER0014
 62
     7
 10
-82.98840751863583
 20
162.643311916181
 30
0.0
 40
6.0
  1
75
 50
90.0
 41
0.7999999999999972
  7
FDASTYLE1
 72
     5
 11
-82.98840751863583
 21
172.243311916181
 31
0.0
  0
ENDBLK
  5
96
  8
0
  0
BLOCK
  8
0
  2
DA_IMAGEDIMGROUP_23
 70
     0
 10
0.0
 20
0.0
 30
0.0
  3
DA_IMAGEDIMGROUP_23
  1

  0
LINE
  5
155
  8
0
  6
CONTINUOUS
 62
     9
 10
-252.4285105070493
 20
88.89330002891457
 30
0.0
 11
-292.5642140305114
 21
88.89330002891457
 31
0.0
  0
LINE
  5
156
  8
0
  6
CONTINUOUS
 62
     9
 10
-252.4284786782866
 20
-1.606726679096186
 30
0.0
 11
-292.5642140305114
 21
-1.606726679096186
 31
0.0
  0
LINE
  5
157
  8
0
  6
CONTINUOUS
 62
     9
 10
-291.0642140305114
 20
-1.606726679096186
 30
0.0
 11
-291.0642140305114
 21
88.89330002891457
 31
0.0
  0
INSERT
  5
158
  8
0
 62
     9
  2
_OPEN30
 10
-291.0642140305114
 20
-1.606726679096186
 30
0.0
 41
2.250002090868945
 42
2.249997751034238
 50
270.0
  0
INSERT
  5
159
  8
0
 62
     9
  2
_OPEN30
 10
-291.0642140305114
 20
88.89330002891457
 30
0.0
 41
2.250002090868945
 42
2.249997751034238
 50
90.0
  0
TEXT
  5
15A
  8
0
 62
     7
 10
-292.5642140305114
 20
25.61328667490919
 30
0.0
 40
6.0
  1
φ90.5
 50
90.0
 41
0.7692307692307693
  7
FDASTYLE1
 72
     5
 11
-292.5642140305114
 21
49.61328667490919
 31
0.0
  0
TEXT
  5
15B
  8
0
 62
     7
 10
-295.8642140305114
 20
51.11328667490919
 30
0.0
 40
3.3
  1
+0.5
 50
90.0
 41
0.8000000000000002
  7
FDASTYLE1
 72
     5
 11
-295.8642140305114
 21
61.67328667490919
 31
0.0
  0
TEXT
  5
15C
  8
0
 62
     7
 10
-292.2642140305114
 20
51.11328667490919
 30
0.0
 40
3.3
  1
　0
 50
90.0
 41
0.7272727272727314
  7
FDASTYLE1
 72
     5
 11
-292.2642140305114
 21
56.39328667490922
 31
0.0
  0
ENDBLK
  5
99
  8
0
  0
BLOCK
  8
0
  2
DA_IMAGEDIMGROUP_24
 70
     0
 10
0.0
 20
0.0
 30
0.0
  3
DA_IMAGEDIMGROUP_24
  1

  0
LINE
  5
15D
  8
0
  6
CONTINUOUS
 62
     9
 10
-274.7909774860675
 20
-197.7685832237828
 30
0.0
 11
-269.0909959664871
 21
-197.7685832237828
 31
0.0
  0
LINE
  5
15E
  8
0
  6
CONTINUOUS
 62
     9
 10
-274.7909774860675
 20
-132.8566860453402
 30
0.0
 11
-274.7909774860675
 21
-199.2685832237828
 31
0.0
  0
LINE
  5
15F
  8
0
  6
CONTINUOUS
 62
     9
 10
-269.0909959664871
 20
-117.856686492375
 30
0.0
 11
-269.0909959664871
 21
-199.2685832237828
 31
0.0
  0
LINE
  5
160
  8
0
  6
CONTINUOUS
 62
     9
 10
-152.7909773072536
 20
-129.8566861347472
 30
0.0
 11
-152.7909773072536
 21
-199.2685832237828
 31
0.0
  0
LINE
  5
161
  8
0
  6
CONTINUOUS
 62
     9
 10
-295.0887524860675
 20
-197.7685832237828
 30
0.0
 11
-274.7909774860675
 21
-197.7685832237828
 31
0.0
  0
INSERT
  5
162
  8
0
 62
     9
  2
_OPEN30
 10
-274.7909774860675
 20
-197.7685832237828
 30
0.0
 41
2.250002090868945
 42
2.249997751034238
 50
360.0
  0
LINE
  5
163
  8
0
  6
CONTINUOUS
 62
     9
 10
-269.0909959664871
 20
-197.7685832237828
 30
0.0
 11
-152.7909773072536
 21
-197.7685832237828
 31
0.0
  0
INSERT
  5
164
  8
0
 62
     9
  2
_OPEN30
 10
-269.0909959664871
 20
-197.7685832237828
 30
0.0
 41
2.250002090868945
 42
2.249997751034238
 50
180.0
  0
INSERT
  5
165
  8
0
 62
     9
  2
_OPEN30
 10
-152.7909773072536
 20
-197.7685832237828
 30
0.0
 41
2.250002090868945
 42
2.249997751034238
 50
360.0
  0
TEXT
  5
166
  8
0
 62
     7
 10
-293.5887524860675
 20
-196.2685832237828
 30
0.0
 40
6.0
  1
5.7
 41
0.7999999999999987
  7
FDASTYLE1
 72
     5
 11
-279.1887524860675
 21
-196.2685832237828
 31
0.0
  0
TEXT
  5
167
  8
0
 62
     7
 10
-222.9409866368704
 20
-196.2685832237828
 30
0.0
 40
6.0
  1
116.3
 41
0.8
  7
FDASTYLE1
 72
     5
 11
-198.9409866368704
 21
-196.2685832237828
 31
0.0
  0
ENDBLK
  5
9C
  8
0
  0
BLOCK
  8
0
  2
DA_IMAGEDIMGROUP_25
 70
     0
 10
0.0
 20
0.0
 30
0.0
  3
DA_IMAGEDIMGROUP_25
  1

  0
LINE
  5
168
  8
0
  6
CONTINUOUS
 62
     9
 10
-269.0909959664871
 20
-161.042629382977
 30
0.0
 11
-220.2909638515055
 21
-161.042629382977
 31
0.0
  0
INSERT
  5
169
  8
0
 62
     9
  2
_OPEN30
 10
-269.0909959664871
 20
-161.042629382977
 30
0.0
 41
2.250002090868945
 42
2.249997751034238
 50
180.0
  0
INSERT
  5
16A
  8
0
 62
     9
  2
_OPEN30
 10
-220.2909638515055
 20
-161.042629382977
 30
0.0
 41
2.250002090868945
 42
2.249997751034238
 50
360.0
  0
LINE
  5
16B
  8
0
  6
CONTINUOUS
 62
     9
 10
-269.0909959664871
 20
-117.856686492375
 30
0.0
 11
-269.0909959664871
 21
-162.542629382977
 31
0.0
  0
LINE
  5
16C
  8
0
  6
CONTINUOUS
 62
     9
 10
-220.2909638515055
 20
-139.0785181353058
 30
0.0
 11
-220.2909638515055
 21
-162.542629382977
 31
0.0
  0
TEXT
  5
16D
  8
0
 62
     7
 10
-254.2909799089963
 20
-159.542629382977
 30
0.0
 40
6.0
  1
48.8
 41
0.7999999999999995
  7
FDASTYLE1
 72
     5
 11
-235.0909799089963
 21
-159.542629382977
 31
0.0
  0
ENDBLK
  5
9F
  8
0
  0
BLOCK
  8
0
  2
DA_IMAGEDIMGROUP_26
 70
     0
 10
0.0
 20
0.0
 30
0.0
  3
DA_IMAGEDIMGROUP_26
  1

  0
TEXT
  5
16E
  8
LAYER0014
 62
     7
 10
-259.2573985504797
 20
-183.3924966965572
 30
0.0
 40
6.0
  1
MIN35.3
 41
0.7999999999999998
  7
FDASTYLE1
 72
     5
 11
-225.6573985504797
 21
-183.3924966965572
 31
0.0
  0
ENDBLK
  5
A2
  8
0
  0
BLOCK
  8
0
  2
DA_IMAGEDIMGROUP_27
 70
     0
 10
0.0
 20
0.0
 30
0.0
  3
DA_IMAGEDIMGROUP_27
  1

  0
TEXT
  5
16F
  8
LAYER0014
 62
     7
 10
-308.579932429441
 20
232.5965370296435
 30
0.0
 40
6.0
  1
MIN-1.7
 41
0.8000000000000005
  7
FDASTYLE1
 72
     5
 11
-274.979932429441
 21
232.5965370296435
 31
0.0
  0
ENDBLK
  5
A5
  8
0
  0
BLOCK
  8
0
  2
DA_IMAGEDIMGROUP_28
 70
     0
 10
0.0
 20
0.0
 30
0.0
  3
DA_IMAGEDIMGROUP_28
  1

  0
TEXT
  5
170
  8
LAYER0014
 62
     7
 10
-57.75751579548378
 20
63.49331108022585
 30
0.0
 40
6.0
  1
MIN70.8
 50
90.0
 41
0.8000000000000005
  7
FDASTYLE1
 72
     5
 11
-57.75751579548378
 21
97.09331108022587
 31
0.0
  0
ENDBLK
  5
A8
  8
0
  0
BLOCK
  8
0
  2
DA_IMAGEDIMGROUP_29
 70
     0
 10
0.0
 20
0.0
 30
0.0
  3
DA_IMAGEDIMGROUP_29
  1

  0
LINE
  5
171
  8
LAYER0014
  6
CONTINUOUS
 62
     7
 10
375.4084074333558
 20
43.64308748681872
 30
0.0
 11
382.6835207419312
 21
43.64308748681872
 31
0.0
  0
LINE
  5
172
  8
LAYER0014
  6
CONTINUOUS
 62
     7
 10
264.368454089602
 20
90.60974625121366
 30
0.0
 11
355.9338581542131
 21
143.47474151272
 31
0.0
  0
ARC
  5
173
  8
LAYER0014
  6
CONTINUOUS
 62
     7
 10
183.0202538346942
 20
43.64331636864783
 30
0.0
 40
198.1633012842148
 50
359.9999338224396
 51
389.9999291178398
  0
INSERT
  5
174
  8
LAYER0014
 62
     7
  2
_OPEN30
 10
381.1835551187768
 20
43.64308748680062
 30
0.0
 41
2.250002090868945
 42
2.249997751034238
 50
270.3252100118504
  0
INSERT
  5
175
  8
LAYER0014
 62
     7
  2
_OPEN30
 10
354.6348294210752
 20
142.7247547017928
 30
0.0
 41
2.250002090868945
 42
2.249997751034238
 50
119.6746529284281
  0
TEXT
  5
176
  8
LAYER0014
 62
     7
 10
374.8860256233251
 20
102.5075719247055
 30
0.0
 40
6.0
  1
30ﾟ
 50
-74.99999999999997
 41
0.7999999999999996
  7
FDASTYLE1
 72
     5
 11
378.6130198728014
 21
88.59824002614293
 31
0.0
  0
ENDBLK
  5
AB
  8
0
  0
BLOCK
  8
0
  2
DA_IMAGEDIMGROUP_30
 70
     0
 10
0.0
 20
0.0
 30
0.0
  3
DA_IMAGEDIMGROUP_30
  1

  0
LINE
  5
177
  8
LAYER0014
  6
CONTINUOUS
 62
     7
 10
183.0195443010246
 20
232.9341380588841
 30
0.0
 11
183.0195443010246
 21
243.3065947199757
 31
0.0
  0
LINE
  5
178
  8
LAYER0014
  6
CONTINUOUS
 62
     7
 10
109.877691949919
 20
170.3298235332129
 30
0.0
 11
83.18787313358369
 21
216.5563798270158
 31
0.0
  0
ARC
  5
179
  8
LAYER0014
  6
CONTINUOUS
 62
     7
 10
183.0202309465113
 20
43.64334783989933
 30
0.0
 40
198.163255507849
 50
90.0002005799641
 51
120.000235565736
  0
INSERT
  5
17A
  8
LAYER0014
 62
     7
  2
_OPEN30
 10
183.0195372203937
 20
241.806603346534
 30
0.0
 41
2.250002090868945
 42
2.249997751034238
 50
0.3254768445150671
  0
INSERT
  5
17B
  8
LAYER0014
 62
     7
  2
_OPEN30
 10
83.93789761832011
 20
215.2573538408964
 30
0.0
 41
2.250002090868945
 42
2.249997751034238
 50
209.6749593011843
  0
TEXT
  5
17C
  8
LAYER0014
 62
     7
 10
124.1552544126919
 20
235.508893607724
 30
0.0
 40
6.0
  1
30ﾟ
 50
15.0
 41
0.8000000000000007
  7
FDASTYLE1
 72
     5
 11
138.0645863112545
 21
239.2358878572003
 31
0.0
  0
ENDBLK
  5
AE
  8
0
  0
BLOCK
  8
0
  2
DA_IMAGEDIMGROUP_31
 70
     0
 10
0.0
 20
0.0
 30
0.0
  3
DA_IMAGEDIMGROUP_31
  1

  0
LINE
  5
17D
  8
LAYER0014
  6
CONTINUOUS
 62
     7
 10
109.8777022023726
 20
170.3297929883607
 30
0.0
 11
83.18852734393822
 21
216.5567477243986
 31
0.0
  0
LINE
  5
17E
  8
LAYER0014
  6
CONTINUOUS
 62
     7
 10
-10.87826159065725
 20
43.64354124710543
 30
0.0
 11
-16.64304128881619
 21
43.6433622394969
 31
0.0
  0
ARC
  5
17F
  8
LAYER0014
  6
CONTINUOUS
 62
     7
 10
183.0202538346942
 20
43.64331636864783
 30
0.0
 40
198.1633012842148
 50
120.0000306600609
 51
179.9999776881997
  0
INSERT
  5
180
  8
LAYER0014
 62
     7
  2
_OPEN30
 10
83.93851135844449
 20
215.2577163580678
 30
0.0
 41
2.250002090868945
 42
2.249997751034238
 50
30.32530684947136
  0
INSERT
  5
181
  8
LAYER0014
 62
     7
  2
_OPEN30
 10
-15.14304744950562
 20
43.64339353628658
 30
0.0
 41
2.250002090868945
 42
2.249997751034238
 50
269.6747014987888
  0
TEXT
  5
182
  8
LAYER0014
 62
     7
 10
5.727349017863014
 20
137.6895840677445
 30
0.0
 40
6.0
  1
60ﾟ
 50
59.99999999999999
 41
0.7999999999999994
  7
FDASTYLE1
 72
     5
 11
12.92734901786301
 21
150.1603498822404
 31
0.0
  0
ENDBLK
  5
B1
  8
0
  0
BLOCK
  8
0
  2
DC_GROUP_4
 70
     0
 10
0.0
 20
0.0
 30
0.0
  3
DC_GROUP_4
  1

  0
LINE
  5
183
  8
LAYER0014
  6
CONTINUOUS
 62
     7
 10
119.7695251249976
 20
-73.69302875006267
 30
0.0
 11
84.02543109462704
 21
-161.9574187633982
 31
0.0
  0
INSERT
  5
184
  8
LAYER0014
 62
     7
  2
_OPEN30
 10
119.7695251249976
 20
-73.69302875006267
 30
0.0
 41
2.250002090868945
 42
2.249997751034238
 50
67.95371659197497
  0
LINE
  5
185
  8
LAYER0014
  6
CONTINUOUS
 62
     7
 10
84.02542951446202
 20
-161.9574198440606
 30
0.0
 11
36.38634325721547
 21
-161.9574198440606
 31
0.0
  0
TEXT
  5
186
  8
LAYER0014
 62
     7
 10
36.25776645783995
 20
-159.5574199155862
 30
0.0
 40
6.0
  1
PCD234.95
 41
0.8
  7
FDASTYLE1
 72
     5
 11
79.45776645783995
 21
-159.5574199155862
 31
0.0
  0
ENDBLK
  5
B4
  8
0
  0
BLOCK
  8
0
  2
DA_IMAGEDIMGROUP_32
 70
     0
 10
0.0
 20
0.0
 30
0.0
  3
DA_IMAGEDIMGROUP_32
  1

  0
LINE
  5
187
  8
LAYER0014
  6
CONTINUOUS
 62
     7
 10
172.5202312594356
 20
-133.8941377976879
 30
0.0
 11
172.5202312594356
 21
-163.8444246401184
 31
0.0
  0
LINE
  5
188
  8
LAYER0014
  6
CONTINUOUS
 62
     7
 10
193.5202420776783
 20
-133.8941377976879
 30
0.0
 11
193.5202420776783
 21
-163.8444246401184
 31
0.0
  0
LINE
  5
189
  8
LAYER0014
  6
CONTINUOUS
 62
     7
 10
172.5202312594356
 20
-162.3444246848219
 30
0.0
 11
193.5202420776783
 21
-162.3444246848219
 31
0.0
  0
INSERT
  5
18A
  8
LAYER0014
 62
     7
  2
_OPEN30
 10
172.5202312594356
 20
-162.3444246848219
 30
0.0
 41
2.250002090868945
 42
2.249997751034238
 50
180.0
  0
INSERT
  5
18B
  8
LAYER0014
 62
     7
  2
_OPEN30
 10
193.5202420776783
 20
-162.3444246848219
 30
0.0
 41
2.250002090868945
 42
2.249997751034238
 50
360.0
  0
TEXT
  5
18C
  8
LAYER0014
 62
     7
 10
173.4202309465113
 20
-159.9444247563475
 30
0.0
 40
6.0
  1
21H8
 41
0.7999999999999995
  7
FDASTYLE1
 72
     5
 11
192.6202309465112
 21
-159.9444247563475
 31
0.0
  0
ENDBLK
  5
B7
  8
0
  0
BLOCK
  8
0
  2
DA_IMAGEDIMGROUP_33
 70
     0
 10
0.0
 20
0.0
 30
0.0
  3
DA_IMAGEDIMGROUP_33
  1

  0
LINE
  5
18D
  8
LAYER0014
  6
CONTINUOUS
 62
     7
 10
158.0202355062664
 20
-133.755101027489
 30
0.0
 11
158.0202355062664
 21
-178.8444241930836
 31
0.0
  0
LINE
  5
18E
  8
LAYER0014
  6
CONTINUOUS
 62
     7
 10
208.0202263867561
 20
-133.8941377976879
 30
0.0
 11
208.0202263867561
 21
-178.8444241930836
 31
0.0
  0
LINE
  5
18F
  8
LAYER0014
  6
CONTINUOUS
 62
     7
 10
158.0202355062664
 20
-177.3444242377871
 30
0.0
 11
208.0202263867561
 21
-177.3444242377871
 31
0.0
  0
INSERT
  5
190
  8
LAYER0014
 62
     7
  2
_OPEN30
 10
158.0202355062664
 20
-177.3444242377871
 30
0.0
 41
2.250002090868945
 42
2.249997751034238
 50
180.0
  0
INSERT
  5
191
  8
LAYER0014
 62
     7
  2
_OPEN30
 10
208.0202263867561
 20
-177.3444242377871
 30
0.0
 41
2.250002090868945
 42
2.249997751034238
 50
360.0
  0
TEXT
  5
192
  8
LAYER0014
 62
     7
 10
178.2202309465112
 20
-174.9444243093127
 30
0.0
 40
6.0
  1
50
 41
0.8000000000000019
  7
FDASTYLE1
 72
     5
 11
187.8202309465113
 21
-174.9444243093127
 31
0.0
  0
ENDBLK
  5
BA
  8
0
  0
BLOCK
  8
0
  2
DC_GROUP_5
 70
     0
 10
0.0
 20
0.0
 30
0.0
  3
DC_GROUP_5
  1

  0
LINE
  5
193
  8
LAYER0014
  6
CONTINUOUS
 62
     7
 10
252.1077663788836
 20
-0.0919179144513453
 30
0.0
 11
298.797725414876
 21
-161.9574018520448
 31
0.0
  0
INSERT
  5
194
  8
LAYER0014
 62
     7
  2
_OPEN30
 10
252.1077663788836
 20
-0.0919179144513453
 30
0.0
 41
2.250002090868945
 42
2.249997751034238
 50
106.0901603405647
  0
LINE
  5
195
  8
LAYER0014
  6
CONTINUOUS
 62
     7
 10
298.7977352780551
 20
-161.9574198440606
 30
0.0
 11
371.5919530793216
 21
-161.9574198440606
 31
0.0
  0
TEXT
  5
196
  8
LAYER0014
 62
     7
 10
301.5205364054054
 20
-159.5574199155862
 30
0.0
 40
6.0
  1
4-M10×20 PCD156
 41
0.7894736842105263
  7
FDASTYLE1
 72
     5
 11
373.5205364054054
 21
-159.5574199155862
 31
0.0
  0
ENDBLK
  5
BD
  8
0
  0
BLOCK
  8
0
  2
DA_IMAGEDIMGROUP_34
 70
     0
 10
0.0
 20
0.0
 30
0.0
  3
DA_IMAGEDIMGROUP_34
  1

  0
LINE
  5
197
  8
0
  6
CONTINUOUS
 62
     9
 10
133.0202323770227
 20
53.14333136572602
 30
0.0
 11
133.0202323770227
 21
62.58471840509536
 31
0.0
  0
LINE
  5
198
  8
0
  6
CONTINUOUS
 62
     9
 10
233.0202409600913
 20
53.14333136572602
 30
0.0
 11
233.0202409600913
 21
62.58471840509536
 31
0.0
  0
LINE
  5
199
  8
0
  6
CONTINUOUS
 62
     9
 10
133.0202323770227
 20
61.08471840509536
 30
0.0
 11
233.0202409600913
 21
61.08471840509536
 31
0.0
  0
INSERT
  5
19A
  8
0
 62
     9
  2
_OPEN30
 10
133.0202323770227
 20
61.08471840509536
 30
0.0
 41
2.250002090868945
 42
2.249997751034238
 50
180.0
  0
INSERT
  5
19B
  8
0
 62
     9
  2
_OPEN30
 10
233.0202409600913
 20
61.08471840509536
 30
0.0
 41
2.250002090868945
 42
2.249997751034238
 50
360.0
  0
TEXT
  5
19C
  8
0
 62
     7
 10
168.6202366685569
 20
62.58471840509536
 30
0.0
 40
6.0
  1
PCD100
 41
0.8000000000000003
  7
FDASTYLE1
 72
     5
 11
197.420236668557
 21
62.58471840509536
 31
0.0
  0
ENDBLK
  5
C0
  8
0
  0
BLOCK
  8
0
  2
DC_GROUP_6
 70
     0
 10
0.0
 20
0.0
 30
0.0
  3
DC_GROUP_6
  1

  0
LINE
  5
19D
  8
0
  6
CONTINUOUS
 62
     7
 10
130.7359750513523
 20
41.54756627139831
 30
0.0
 11
5.952719867855888
 21
-56.8530043952835
 31
0.0
  0
INSERT
  5
19E
  8
0
 62
     7
  2
_OPEN30
 10
130.7359750513523
 20
41.54756627139831
 30
0.0
 41
2.250002090868945
 42
2.249997751034238
 50
38.25831993796733
  0
LINE
  5
19F
  8
0
  6
CONTINUOUS
 62
     7
 10
5.952719867855888
 20
-56.8530043952835
 30
0.0
 11
-22.84728013214412
 21
-56.8530043952835
 31
0.0
  0
TEXT
  5
1A0
  8
0
 62
     7
 10
-22.84728013214412
 20
-56.8530043952835
 30
0.0
 40
6.0
  1
2-φ6.2
 41
0.7741935483870969
  7
FDASTYLE1
 72
     5
 11
5.952719867855887
 21
-56.8530043952835
 31
0.0
  0
ENDBLK
  5
C3
  8
0
  0
BLOCK
  8
0
  2
_OPEN30
 70
     0
 10
0.0
 20
0.0
 30
0.0
  3
_OPEN30
  1

  0
LINE
  5
C8
  8
0
  6
BYBLOCK
 62
     0
 10
-1.0
 20
0.267949
 30
0.0
 11
0.0
 21
0.0
 31
0.0
  0
LINE
  5
C9
  8
0
  6
BYBLOCK
 62
     0
 10
0.0
 20
0.0
 30
0.0
 11
-1.0
 21
-0.267949
 31
0.0
  0
LINE
  5
CA
  8
0
  6
BYBLOCK
 62
     0
 10
0.0
 20
0.0
 30
0.0
 11
-1.0
 21
0.0
 31
0.0
  0
ENDBLK
  5
C7
  8
0
  0
ENDSEC
  0
SECTION
  2
ENTITIES
  0
LINE
  5
1A1
  8
ZUWAKU
  6
CONTINUOUS
 62
     3
 10
-415.5
 20
-284.9999999999999
 30
0.0
 11
-415.5
 21
284.9999999999999
 31
0.0
  0
LINE
  5
1A2
  8
ZUWAKU
  6
CONTINUOUS
 62
     3
 10
415.5
 20
-284.9999999999999
 30
0.0
 11
415.5
 21
284.9999999999999
 31
0.0
  0
LINE
  5
1A3
  8
ZUWAKU
  6
CONTINUOUS
 62
     3
 10
-415.5
 20
-284.9999999999999
 30
0.0
 11
415.5
 21
-284.9999999999999
 31
0.0
  0
LINE
  5
1A4
  8
ZUWAKU
  6
CONTINUOUS
 62
     3
 10
-415.5
 20
284.9999999999999
 30
0.0
 11
415.5
 21
284.9999999999999
 31
0.0
  0
LINE
  5
1A5
  8
ZUWAKU
  6
CONTINUOUS
 62
     3
 10
145.5
 20
-284.9999999999999
 30
0.0
 11
145.5
 21
-194.9999999999999
 31
0.0
  0
LINE
  5
1A6
  8
ZUWAKU
  6
CONTINUOUS
 62
     3
 10
145.5
 20
-263.9999999999999
 30
0.0
 11
415.5
 21
-263.9999999999999
 31
0.0
  0
LINE
  5
1A7
  8
ZUWAKU
  6
CONTINUOUS
 62
     3
 10
219.0
 20
-242.9999999999999
 30
0.0
 11
415.5
 21
-242.9999999999999
 31
0.0
  0
LINE
  5
1A8
  8
ZUWAKU
  6
CONTINUOUS
 62
     3
 10
219.0
 20
-221.9999999999999
 30
0.0
 11
415.5
 21
-221.9999999999999
 31
0.0
  0
LINE
  5
1A9
  8
ZUWAKU
  6
CONTINUOUS
 62
     3
 10
219.0
 20
-206.9999999999999
 30
0.0
 11
415.5
 21
-206.9999999999999
 31
0.0
  0
LINE
  5
1AA
  8
ZUWAKU
  6
CONTINUOUS
 62
     3
 10
219.0
 20
-263.9999999999999
 30
0.0
 11
219.0
 21
-194.9999999999999
 31
0.0
  0
LINE
  5
1AB
  8
ZUWAKU
  6
CONTINUOUS
 62
     3
 10
382.5
 20
-263.9999999999999
 30
0.0
 11
382.5
 21
-194.9999999999999
 31
0.0
  0
LINE
  5
1AC
  8
ZUWAKU
  6
CONTINUOUS
 62
     3
 10
256.5
 20
-284.9999999999999
 30
0.0
 11
256.5
 21
-263.9999999999999
 31
0.0
  0
LINE
  5
1AD
  8
ZUWAKU
  6
CONTINUOUS
 62
     3
 10
393.0
 20
-281.9999999999999
 30
0.0
 11
408.0
 21
-281.9999999999999
 31
0.0
  0
LINE
  5
1AE
  8
ZUWAKU
  6
CONTINUOUS
 62
     3
 10
400.5
 20
-266.9999999999999
 30
0.0
 11
393.0
 21
-281.9999999999999
 31
0.0
  0
LINE
  5
1AF
  8
ZUWAKU
  6
CONTINUOUS
 62
     3
 10
400.5
 20
-266.9999999999999
 30
0.0
 11
408.0
 21
-281.9999999999999
 31
0.0
  0
LINE
  5
1B0
  8
ZUWAKU
  6
CONTINUOUS
 62
     3
 10
145.5
 20
-194.9999999999999
 30
0.0
 11
415.5
 21
-194.9999999999999
 31
0.0
  0
LINE
  5
1B1
  8
ZUWAKU
  6
CONTINUOUS
 62
     3
 10
338.9999999999999
 20
-263.9999999999999
 30
0.0
 11
338.9999999999999
 21
-221.9999999999999
 31
0.0
  0
LINE
  5
1B2
  8
ZUWAKU
  6
CONTINUOUS
 62
     4
 10
157.5
 20
-257.9999999999999
 30
0.0
 11
157.5
 21
-194.9999999999999
 31
0.0
  0
LINE
  5
1B3
  8
ZUWAKU
  6
CONTINUOUS
 62
     4
 10
163.5
 20
-257.9999999999999
 30
0.0
 11
163.5
 21
-194.9999999999999
 31
0.0
  0
LINE
  5
1B4
  8
ZUWAKU
  6
CONTINUOUS
 62
     4
 10
182.25
 20
-263.9999999999999
 30
0.0
 11
182.25
 21
-194.9999999999999
 31
0.0
  0
LINE
  5
1B5
  8
ZUWAKU
  6
CONTINUOUS
 62
     4
 10
145.5
 20
-205.4999999999999
 30
0.0
 11
219.0
 21
-205.4999999999999
 31
0.0
  0
LINE
  5
1B6
  8
ZUWAKU
  6
CONTINUOUS
 62
     4
 10
145.5
 20
-215.9999999999999
 30
0.0
 11
219.0
 21
-215.9999999999999
 31
0.0
  0
LINE
  5
1B7
  8
ZUWAKU
  6
CONTINUOUS
 62
     4
 10
145.5
 20
-247.4999999999999
 30
0.0
 11
219.0
 21
-247.4999999999999
 31
0.0
  0
LINE
  5
1B8
  8
ZUWAKU
  6
CONTINUOUS
 62
     4
 10
145.5
 20
-257.9999999999999
 30
0.0
 11
219.0
 21
-257.9999999999999
 31
0.0
  0
LINE
  5
1B9
  8
ZUWAKU
  6
CONTINUOUS
 62
     4
 10
382.5
 20
-248.9999999999999
 30
0.0
 11
415.5
 21
-248.9999999999999
 31
0.0
  0
LINE
  5
1BA
  8
ZUWAKU
  6
CONTINUOUS
 62
     4
 10
229.5
 20
-209.2499999999999
 30
0.0
 11
229.5
 21
-194.9999999999999
 31
0.0
  0
LINE
  5
1BB
  8
ZUWAKU
  6
CONTINUOUS
 62
     4
 10
303.0
 20
-221.9999999999999
 30
0.0
 11
303.0
 21
-219.7499999999999
 31
0.0
  0
LINE
  5
1BC
  8
ZUWAKU
  6
CONTINUOUS
 62
     4
 10
339.0
 20
-221.9999999999999
 30
0.0
 11
339.0
 21
-219.7499999999999
 31
0.0
  0
LINE
  5
1BD
  8
ZUWAKU
  6
CONTINUOUS
 62
     4
 10
364.5
 20
-221.9999999999999
 30
0.0
 11
364.5
 21
-219.7499999999999
 31
0.0
  0
LINE
  5
1BE
  8
ZUWAKU
  6
CONTINUOUS
 62
     4
 10
303.0
 20
-209.2499999999999
 30
0.0
 11
303.0
 21
-194.9999999999999
 31
0.0
  0
LINE
  5
1BF
  8
ZUWAKU
  6
CONTINUOUS
 62
     4
 10
339.0
 20
-209.2499999999999
 30
0.0
 11
339.0
 21
-194.9999999999999
 31
0.0
  0
LINE
  5
1C0
  8
ZUWAKU
  6
CONTINUOUS
 62
     4
 10
364.5
 20
-209.2499999999999
 30
0.0
 11
364.5
 21
-194.9999999999999
 31
0.0
  0
LINE
  5
1C1
  8
ZUWAKU
  6
CONTINUOUS
 62
     4
 10
145.5
 20
-226.4999999999999
 30
0.0
 11
219.0
 21
-226.4999999999999
 31
0.0
  0
LINE
  5
1C2
  8
ZUWAKU
  6
CONTINUOUS
 62
     4
 10
145.5
 20
-236.9999999999999
 30
0.0
 11
219.0
 21
-236.9999999999999
 31
0.0
  0
LINE
  5
1C3
  8
ZUWAKU
  6
CONTINUOUS
 62
     4
 10
151.5
 20
-195.7499999999999
 30
0.0
 11
147.0
 21
-204.7499999999999
 31
0.0
  0
LINE
  5
1C4
  8
ZUWAKU
  6
CONTINUOUS
 62
     4
 10
151.5
 20
-195.7499999999999
 30
0.0
 11
156.0
 21
-204.7499999999999
 31
0.0
  0
LINE
  5
1C5
  8
ZUWAKU
  6
CONTINUOUS
 62
     4
 10
147.0
 20
-204.7499999999999
 30
0.0
 11
156.0
 21
-204.7499999999999
 31
0.0
  0
LINE
  5
1C6
  8
ZUWAKU
  6
CONTINUOUS
 62
     4
 10
151.5
 20
-237.7499999999999
 30
0.0
 11
147.0
 21
-246.7499999999999
 31
0.0
  0
LINE
  5
1C7
  8
ZUWAKU
  6
CONTINUOUS
 62
     4
 10
151.5
 20
-237.7499999999999
 30
0.0
 11
156.0
 21
-246.7499999999999
 31
0.0
  0
LINE
  5
1C8
  8
ZUWAKU
  6
CONTINUOUS
 62
     4
 10
147.0
 20
-246.7499999999999
 30
0.0
 11
156.0
 21
-246.7499999999999
 31
0.0
  0
LINE
  5
1C9
  8
ZUWAKU
  6
CONTINUOUS
 62
     4
 10
151.5
 20
-227.2499999999999
 30
0.0
 11
147.0
 21
-236.2499999999999
 31
0.0
  0
LINE
  5
1CA
  8
ZUWAKU
  6
CONTINUOUS
 62
     4
 10
151.5
 20
-227.2499999999999
 30
0.0
 11
156.0
 21
-236.2499999999999
 31
0.0
  0
LINE
  5
1CB
  8
ZUWAKU
  6
CONTINUOUS
 62
     4
 10
147.0
 20
-236.2499999999999
 30
0.0
 11
156.0
 21
-236.2499999999999
 31
0.0
  0
LINE
  5
1CC
  8
ZUWAKU
  6
CONTINUOUS
 62
     4
 10
151.5
 20
-216.7499999999999
 30
0.0
 11
147.0
 21
-225.7499999999999
 31
0.0
  0
LINE
  5
1CD
  8
ZUWAKU
  6
CONTINUOUS
 62
     4
 10
151.5
 20
-216.7499999999999
 30
0.0
 11
156.0
 21
-225.7499999999999
 31
0.0
  0
LINE
  5
1CE
  8
ZUWAKU
  6
CONTINUOUS
 62
     4
 10
147.0
 20
-225.7499999999999
 30
0.0
 11
156.0
 21
-225.7499999999999
 31
0.0
  0
LINE
  5
1CF
  8
ZUWAKU
  6
CONTINUOUS
 62
     4
 10
151.5
 20
-206.2499999999999
 30
0.0
 11
147.0
 21
-215.2499999999999
 31
0.0
  0
LINE
  5
1D0
  8
ZUWAKU
  6
CONTINUOUS
 62
     4
 10
151.5
 20
-206.2499999999999
 30
0.0
 11
156.0
 21
-215.2499999999999
 31
0.0
  0
LINE
  5
1D1
  8
ZUWAKU
  6
CONTINUOUS
 62
     4
 10
147.0
 20
-215.2499999999999
 30
0.0
 11
156.0
 21
-215.2499999999999
 31
0.0
  0
LINE
  5
1D2
  8
ZUWAKU
  6
CONTINUOUS
 62
     4
 10
258.9999999999999
 20
-263.9999999999999
 30
0.0
 11
258.9999999999999
 21
-242.9999999999999
 31
0.0
  0
LINE
  5
1D3
  8
ZUWAKU
  6
CONTINUOUS
 62
     4
 10
299.0
 20
-263.9999999999999
 30
0.0
 11
299.0
 21
-242.9264123635879
 31
0.0
  0
LINE
  5
1D4
  8
ZUWAKU
  6
CONTINUOUS
 62
     4
 10
318.9999999999999
 20
-251.2499999999999
 30
0.0
 11
318.9999999999999
 21
-242.9264123635879
 31
0.0
  0
LINE
  5
1D5
  8
ZUWAKU
  6
CONTINUOUS
 62
     4
 10
338.9999999999999
 20
-232.4999999999999
 30
0.0
 11
382.4999999999999
 21
-232.4999999999999
 31
0.0
  0
LINE
  5
1D6
  8
ZUWAKU
  6
CONTINUOUS
 62
     4
 10
219.0
 20
-248.9999999999999
 30
0.0
 11
338.9999999999999
 21
-248.9999999999999
 31
0.0
  0
TEXT
  5
1D8
  8
ZUWAKU
 62
     7
 10
222.4698452212121
 20
-196.2317830934339
 30
0.0
 40
3.998400000000001
  1
符号
 41
0.8
  7
FDASTYLE0
  0
TEXT
  5
1D9
  8
ZUWAKU
 62
     7
 10
243.6211966828587
 20
-203.7368287529944
 30
0.0
 40
6.0
  1
品       名
 41
0.7659574468085104
  7
FDASTYLE1
 72
     5
 11
286.8211966828587
 21
-203.7368287529944
 31
0.0
  0
TEXT
  5
1DA
  8
ZUWAKU
 62
     7
 10
310.8497346619644
 20
-203.7368287529944
 30
0.0
 40
6.0
  1
材  料
 41
0.7272727272727269
  7
FDASTYLE1
 72
     5
 11
330.0497346619644
 21
-203.7368287529944
 31
0.0
  0
TEXT
  5
1DB
  8
ZUWAKU
 62
     7
 10
344.2740925272825
 20
-203.7368287529944
 30
0.0
 40
6.0
  1
個 数
 41
0.7058823529411754
  7
FDASTYLE1
 72
     5
 11
358.6740925272825
 21
-203.7368287529944
 31
0.0
  0
TEXT
  5
1DC
  8
ZUWAKU
 62
     7
 10
368.582716429332
 20
-200.3473620075858
 30
0.0
 40
3.75
  1
単重量
 41
0.6666666666666666
  7
FDASTYLE1
 72
     5
 11
377.582716429332
 21
-200.3473620075858
 31
0.0
  0
TEXT
  5
1DD
  8
ZUWAKU
 62
     7
 10
367.0634274354539
 20
-206.0446957346287
 30
0.0
 40
3.75
  1
(kg)
 41
0.8
  7
FDASTYLE1
 72
     5
 11
379.0634274354539
 21
-206.0446957346287
 31
0.0
  0
TEXT
  5
1DE
  8
ZUWAKU
 62
     7
 10
388.7132955982168
 20
-203.7368287529944
 30
0.0
 40
6.0
  1
記  事
 41
0.7272727272727269
  7
FDASTYLE1
 72
     5
 11
407.9132955982167
 21
-203.7368287529944
 31
0.0
  0
TEXT
  5
1DF
  8
ZUWAKU
 62
     7
 10
388.2676191827468
 20
-248.2309562996593
 30
0.0
 40
4.5
  1
コード番号
 41
0.6666666666666666
  7
FDASTYLE1
 72
     5
 11
406.2676191827468
 21
-248.2309562996593
 31
0.0
  0
TEXT
  5
1E0
  8
ZUWAKU
 62
     7
 10
152.8679880237475
 20
-262.7818515810507
 30
0.0
 40
3.75
  1
訂 正 来 歴
 41
0.717948717948718
  7
FDASTYLE1
 72
     5
 11
173.8679880237475
 21
-262.7818515810507
 31
0.0
  0
TEXT
  5
1E1
  8
ZUWAKU
 62
     7
 10
188.8355022701475
 20
-262.8250046087477
 30
0.0
 40
3.75
  1
工 事 番 号
 41
0.717948717948718
  7
FDASTYLE1
 72
     5
 11
209.8355022701475
 21
-262.8250046087477
 31
0.0
  0
TEXT
  5
1E2
  8
ZUWAKU
 62
     7
 10
149.9472567699043
 20
-248.9451795848872
 30
0.0
 40
3.12375
  1
記号
 41
0.8
  7
FDASTYLE0
  0
TEXT
  5
1E3
  8
ZUWAKU
 62
     7
 10
158.8563373601427
 20
-248.9451795848872
 30
0.0
 40
3.12375
  1
理由
 41
0.8
  7
FDASTYLE0
  0
TEXT
  5
1E4
  8
ZUWAKU
 62
     7
 10
167.4290501864765
 20
-254.8179070050267
 30
0.0
 40
4.5
  1
日 付
 41
0.7058823529411773
  7
FDASTYLE1
 72
     5
 11
178.2290501864765
 21
-254.8179070050267
 31
0.0
  0
TEXT
  5
1E5
  8
ZUWAKU
 62
     7
 10
230.1722534729479
 20
-248.5781867196366
 30
0.0
 40
4.5
  1
承   認
 41
0.7407407407407408
  7
FDASTYLE1
 72
     5
 11
248.1722534729479
 21
-248.5781867196366
 31
0.0
  0
TEXT
  5
1E6
  8
ZUWAKU
 62
     7
 10
269.794842049851
 20
-248.2309562996593
 30
0.0
 40
4.5
  1
検   図
 41
0.7407407407407408
  7
FDASTYLE1
 72
     5
 11
287.794842049851
 21
-248.2309562996593
 31
0.0
  0
TEXT
  5
1E7
  8
ZUWAKU
 62
     7
 10
302.2157881475626
 20
-248.2309562996593
 30
0.0
 40
4.5
  1
担  当
 41
0.7272727272727262
  7
FDASTYLE1
 72
     5
 11
316.6157881475626
 21
-248.2309562996593
 31
0.0
  0
TEXT
  5
1E8
  8
ZUWAKU
 62
     7
 10
322.0155862261668
 20
-248.2309562996593
 30
0.0
 40
4.5
  1
製  図
 41
0.7272727272727262
  7
FDASTYLE1
 72
     5
 11
336.4155862261668
 21
-248.2309562996593
 31
0.0
  0
TEXT
  5
1E9
  8
ZUWAKU
 62
     7
 10
340.4193558456298
 20
-229.8277440408625
 30
0.0
 40
4.5
  1
作図
 41
0.6666666666666656
  7
FDASTYLE1
 72
     5
 11
347.6193558456298
 21
-229.8277440408625
 31
0.0
  0
TEXT
  5
1EA
  8
ZUWAKU
 62
     7
 10
342.1555079455163
 20
-240.3557349602723
 30
0.0
 40
6.0
  1
第 三 角 法
 41
0.7179487179487185
  7
FDASTYLE1
 72
     5
 11
375.7555079455163
 21
-240.3557349602723
 31
0.0
  0
TEXT
  5
1EB
  8
ZUWAKU
 62
     7
 10
341.1138166855845
 20
-249.6198779795685
 30
0.0
 40
4.5
  1
尺度
 41
0.6666666666666656
  7
FDASTYLE1
 72
     5
 11
348.3138166855845
 21
-249.6198779795685
 31
0.0
  0
TEXT
  5
1ED
  8
ZUWAKU
 62
     3
 10
158.068731555051
 20
-278.8908115777525
 30
0.0
 40
10.5
  1
株式会社 野村製作所
 41
0.576373864128083
  7
FDASTYLE2
 72
     5
 11
242.068731555051
 21
-278.8908115777525
 31
0.0
  0
TEXT
  5
1EF
  8
ZUWAKU
 62
     3
 10
275.4177326901248
 20
-280.6825028376844
 30
0.0
 40
12.0
  1
２－
 41
0.8244023083264632
  7
FDASTYLE3
 72
     5
 11
299.4177326901248
 21
-280.6825028376844
 31
0.0
  0
TEXT
  5
1F0
  8
ZUWAKU
 62
     3
 10
300.785669126735
 20
-280.6825028376844
 30
0.0
 40
12.0
  1
9314015
 41
1.564945226917058
  7
FDASTYLE3
 72
     5
 11
384.785669126735
 21
-280.6825028376844
 31
0.0
  0
TEXT
  5
1F1
  8
ZUWAKU
 62
     6
 10
346.6728190511805
 20
-219.291295229671
 30
0.0
 40
6.0
  1
一式
 41
0.5833333333333318
  7
FDASTYLE1
 72
     5
 11
355.0728190511804
 21
-219.291295229671
 31
0.0
  0
TEXT
  5
1F2
  8
ZUWAKU
 62
     6
 10
244.3105238272181
 20
-218.0383500342842
 30
0.0
 40
7.5
  1
外　形　図
 41
0.5833333333333334
  7
FDASTYLE1
 72
     5
 11
270.5605238272181
 21
-218.0383500342842
 31
0.0
  0
TEXT
  5
1F3
  8
ZUWAKU
 62
     4
 10
353.7275248771778
 20
-257.5369147878799
 30
0.0
 40
4.5
  1
1/1.5
 41
0.7
  7
FDASTYLE1
 72
     5
 11
369.4775248771778
 21
-257.5369147878799
 31
0.0
  0
TEXT
  5
1F4
  8
0
 62
     6
 10
229.0271657324713
 20
-231.447385208653
 30
0.0
 40
7.5
  1
日鋼プレシジォン
 41
0.6666666666666663
  7
FDASTYLE1
 72
     5
 11
277.0271657324713
 21
-231.447385208653
 31
0.0
  0
TEXT
  5
1F5
  8
0
 62
     6
 10
242.219259193253
 20
-241.3005488089211
 30
0.0
 40
7.5
  1
HF2-14型 チャック
 41
0.7384615384615385
  7
FDASTYLE1
 72
     5
 11
314.219259193253
 21
-241.3005488089211
 31
0.0
  0
TEXT
  5
1F6
  8
0
 62
     6
 10
-119.1120759964956
 20
-168.5095465891021
 30
0.0
 40
6.047999630928051
  1
仕   様
 41
0.8988767626867555
  7
FDASTYLE1
 72
     5
 11
-84.02037686988545
 21
-168.5095465891021
 31
0.0
  0
TEXT
  5
1F7
  8
0
 62
     6
 10
-118.9547007131761
 20
-180.3290500210331
 30
0.0
 40
6.047999630928051
  1
爪ノｽﾄﾛ-ｸ           
 41
0.8657113693348633
  7
FDASTYLE1
 72
     5
 11
5.099202745720035
 21
-180.3290500210331
 31
0.0
  0
TEXT
  5
1F8
  8
0
 62
     6
 10
6.84996168120853
 20
-179.5730500671671
 30
0.0
 40
4.535999723196039
  1
 （直径ﾆﾃ
 41
0.8350827760798439
  7
FDASTYLE1
 72
     5
 11
36.86300386851058
 21
-179.5730500671671
 31
0.0
  0
TEXT
  5
1F9
  8
0
 62
     6
 10
38.61376280399907
 20
-180.3290500210331
 30
0.0
 40
6.047999630928051
  1
）   １０ mm
 41
0.8468040834262742
  7
FDASTYLE1
 72
     5
 11
99.64028085602516
 21
-180.3290500210331
 31
0.0
  0
TEXT
  5
1FA
  8
0
 62
     6
 10
-119.010339597016
 20
-192.1485809187837
 30
0.0
 40
6.047999630928051
  1
ピｽﾄﾝｽﾄﾛ-ｸ               ４１．５ mm
 41
0.8695934142781058
  7
FDASTYLE1
 72
     5
 11
100.8680529837795
 21
-192.1485809187837
 31
0.0
  0
TEXT
  5
1FB
  8
0
 62
     6
 10
-118.9537971306301
 20
-203.9680843507148
 30
0.0
 40
6.047999630928051
  1
許容ｼﾘﾝダ力
 41
0.8220961378041113
  7
FDASTYLE1
 72
     5
 11
-71.95035233393219
 21
-203.9680843507148
 31
0.0
  0
TEXT
  5
1FC
  8
0
 62
     6
 10
47.3083806567281
 20
-203.9680843507148
 30
0.0
 40
6.047999630928051
  1
 ２４．２ ｋN
 41
0.8129102799334441
  7
FDASTYLE1
 72
     5
 11
101.3123382023675
 21
-203.9680843507148
 31
0.0
  0
TEXT
  5
1FD
  8
0
 62
     6
 10
-119.0148482829473
 20
-215.7875877826458
 30
0.0
 40
6.047999630928051
  1
最大静的把握力                 ９８．１ ｋN
 41
0.8425636003056546
  7
FDASTYLE1
 72
     5
 11
101.2512874255595
 21
-215.7875877826458
 31
0.0
  0
TEXT
  5
1FE
  8
0
 62
     6
 10
-119.0148482829473
 20
-227.6071186803963
 30
0.0
 40
6.047999630928051
  1
最高使用回転速度              ２６00 ｍin
 41
0.8452208323081375
  7
FDASTYLE1
 72
     5
 11
94.07983192219875
 21
-227.6071186803963
 31
0.0
  0
TEXT
  5
1FF
  8
0
 62
     6
 10
95.61657059395638
 20
-226.0951187726643
 30
0.0
 40
3.023999815464026
  1
-1
 41
0.869136788993684
  7
FDASTYLE1
 72
     5
 11
101.7635336494787
 21
-226.0951187726643
 31
0.0
  0
TEXT
  5
200
  8
0
 62
     6
 10
-118.9941693103657
 20
-239.4266495781468
 30
0.0
 40
6.047999630928051
  1
慣性モーメント   
 41
0.8110052209875066
  7
FDASTYLE1
 72
     5
 11
-49.89106568170355
 21
-239.4266495781468
 31
0.0
  0
TEXT
  5
201
  8
0
 62
     6
 10
-48.11267902858977
 20
-238.6706496242808
 30
0.0
 40
4.535999723196039
  1
 
 41
0.840131113192701
  7
FDASTYLE1
 72
     5
 11
-44.3018445316993
 21
-238.6706496242808
 31
0.0
  0
TEXT
  5
202
  8
0
 62
     6
 10
-42.52345787858553
 20
-239.4266495781468
 30
0.0
 40
6.047999630928051
  1
            １.5 ｋg・m
 41
0.8701139136454583
  7
FDASTYLE1
 72
     5
 11
97.71519126801158
 21
-239.4266495781468
 31
0.0
  0
TEXT
  5
203
  8
0
 62
     6
 10
99.23952268496622
 20
-235.1232649612767
 30
0.0
 40
3.023999815464026
  1
2
 41
0.8401311131927026
  7
FDASTYLE1
 72
     5
 11
101.7800790162265
 21
-235.1232649612767
 31
0.0
  0
TEXT
  5
204
  8
0
 62
     6
 10
-119.0148482829473
 20
-251.2461804758974
 30
0.0
 40
6.047999630928051
  1
質 量                       7１ ｋg
 41
0.8749505624602251
  7
FDASTYLE1
 72
     5
 11
101.2512874255595
 21
-251.2461804758974
 31
0.0
  0
TEXT
  5
205
  8
0
 62
     6
 10
-119.0148482829473
 20
-263.0657113736478
 30
0.0
 40
6.047999630928051
  1
ｱﾝバﾗﾝｽ量            
 41
0.8820005129830213
  7
FDASTYLE1
 72
     5
 11
15.19382138523035
 21
-263.0657113736478
 31
0.0
  0
TEXT
  5
206
  8
0
 62
     6
 10
16.98668316894757
 20
-262.3097114197818
 30
0.0
 40
4.535999723196039
  1
    外周ﾆﾃ
 41
0.8767859954004177
  7
FDASTYLE1
 72
     5
 11
58.47867751735454
 21
-262.3097114197818
 31
0.0
  0
TEXT
  5
207
  8
0
 62
     6
 10
60.27153930107176
 20
-263.0657113736478
 30
0.0
 40
6.047999630928051
  1
 １５g以内
 41
0.8308557654885715
  7
FDASTYLE1
 72
     5
 11
101.2512874255595
 21
-263.0657113736478
 31
0.0
  0
TEXT
  5
208
  8
0
 62
     7
 10
384.2003513797795
 20
-213.8596169917673
 30
0.0
 40
4.800000071525574
  1
標 準
 41
0.7364342589625179
  7
FDASTYLE1
 72
     5
 11
397.2289245351827
 21
-213.8596169917673
 31
0.0
  0
LINE
  5
209
  8
0
  6
CONTINUOUS
 62
     3
 10
-415.3363533408833
 20
66.31258549931602
 30
0.0
 11
-415.3363533408833
 21
-24.68741450068399
 31
0.0
  0
LINE
  5
20A
  8
0
  6
CONTINUOUS
 62
     3
 10
-201.2909796765382
 20
145.7272328514565
 30
0.0
 11
-201.2909796765382
 21
118.1433103336777
 31
0.0
  0
LINE
  5
20B
  8
0
  6
CONTINUOUS
 62
     3
 10
-191.4909692874489
 20
114.4433211250983
 30
0.0
 11
-177.7909727474984
 21
114.4433211250983
 31
0.0
  0
LINE
  5
20C
  8
0
  6
CONTINUOUS
 62
     3
 10
-201.2909796765382
 20
121.9433209015809
 30
0.0
 11
-191.4909692874489
 21
121.9433209015809
 31
0.0
  0
LINE
  5
20D
  8
0
  6
CONTINUOUS
 62
     3
 10
-171.9909698685942
 20
116.9433057918039
 30
0.0
 11
-171.9909698685942
 21
106.9433099045243
 31
0.0
  0
LINE
  5
20E
  8
0
  6
CONTINUOUS
 62
     3
 10
-171.9909698685942
 20
116.9433057918039
 30
0.0
 11
-153.7909734627542
 21
116.9433057918039
 31
0.0
  0
LINE
  5
20F
  8
0
  6
CONTINUOUS
 62
     3
 10
-238.2909633150637
 20
218.9433141960586
 30
0.0
 11
-153.7909734627542
 21
218.9433141960586
 31
0.0
  0
LINE
  5
210
  8
0
  6
CONTINUOUS
 62
     3
 10
-177.7909727474984
 20
218.9433141960586
 30
0.0
 11
-177.7909727474984
 21
113.1924132644291
 31
0.0
  0
LINE
  5
211
  8
0
  6
CONTINUOUS
 62
     3
 10
-165.7909731051263
 20
218.9433141960586
 30
0.0
 11
-165.7909731051263
 21
204.9433222426854
 31
0.0
  0
LINE
  5
212
  8
0
  6
CONTINUOUS
 62
     3
 10
-191.4909692874489
 20
-23.85667875867261
 30
0.0
 11
-191.4909692874489
 21
-30.85667759638207
 31
0.0
  0
LINE
  5
213
  8
0
  6
CONTINUOUS
 62
     3
 10
-201.49097661882
 20
-23.85667875867261
 30
0.0
 11
-201.49097661882
 21
-30.85667759638207
 31
0.0
  0
LINE
  5
214
  8
0
  6
CONTINUOUS
 62
     3
 10
-201.49097661882
 20
-30.85667759638207
 30
0.0
 11
-191.4909692874489
 21
-30.85667759638207
 31
0.0
  0
LINE
  5
215
  8
0
  6
CONTINUOUS
 62
     3
 10
-201.49097661882
 20
118.1433103336777
 30
0.0
 11
-191.4909692874489
 21
118.1433103336777
 31
0.0
  0
LINE
  5
216
  8
0
  6
CONTINUOUS
 62
     3
 10
-201.49097661882
 20
118.1433103336777
 30
0.0
 11
-201.49097661882
 21
111.1433029128997
 31
0.0
  0
LINE
  5
217
  8
0
  6
CONTINUOUS
 62
     3
 10
-191.4909692874489
 20
121.9433209015809
 30
0.0
 11
-191.4909692874489
 21
111.1433029128997
 31
0.0
  0
LINE
  5
218
  8
0
  6
CONTINUOUS
 62
     3
 10
-155.2909734180507
 20
109.0267868626955
 30
0.0
 11
-155.2909734180507
 21
-26.35667773049252
 31
0.0
  0
LINE
  5
219
  8
0
  6
CONTINUOUS
 62
     3
 10
-155.2909734180507
 20
-26.35667773049252
 30
0.0
 11
-152.7909773072536
 21
-26.35667773049252
 31
0.0
  0
LINE
  5
21A
  8
0
  6
CONTINUOUS
 62
     3
 10
-274.7909774860675
 20
-116.356686492375
 30
0.0
 11
-269.0909959664871
 21
-116.356686492375
 31
0.0
  0
LINE
  5
21B
  8
0
  6
CONTINUOUS
 62
     3
 10
-274.7909774860675
 20
203.6432963414878
 30
0.0
 11
-269.0909959664871
 21
203.6432963414878
 31
0.0
  0
LINE
  5
21C
  8
0
  6
CONTINUOUS
 62
     3
 10
-238.2909633150637
 20
218.9433141960586
 30
0.0
 11
-238.2909633150637
 21
188.0377998280864
 31
0.0
  0
LINE
  5
21D
  8
0
  6
CONTINUOUS
 62
     3
 10
-269.0909959664871
 20
203.6432963414878
 30
0.0
 11
-269.0909959664871
 21
-116.356686492375
 31
0.0
  0
LINE
  5
21E
  8
0
  6
CONTINUOUS
 62
     3
 10
-152.7909887558494
 20
-128.3567101387932
 30
0.0
 11
-155.7909756668217
 21
-131.3566970497656
 31
0.0
  0
LINE
  5
21F
  8
0
  6
CONTINUOUS
 62
     3
 10
-153.7909564073341
 20
216.6433373128561
 30
0.0
 11
-152.7909553755469
 21
215.643336281069
 31
0.0
  0
LINE
  5
220
  8
0
  6
CONTINUOUS
 62
     3
 10
-274.7909774860675
 20
218.643295894453
 30
0.0
 11
-238.2909633150637
 21
218.643295894453
 31
0.0
  0
LINE
  5
221
  8
0
  6
CONTINUOUS
 62
     3
 10
-274.7909774860675
 20
-131.3566860453402
 30
0.0
 11
-155.7909772178467
 21
-131.3566860453402
 31
0.0
  0
LINE
  5
222
  8
0
  6
CONTINUOUS
 62
     3
 10
-152.7909773072536
 20
215.6432959838599
 30
0.0
 11
-152.7909773072536
 21
204.9433222426854
 31
0.0
  0
LINE
  5
223
  8
0
  6
CONTINUOUS
 62
     3
 10
-274.7909774860675
 20
218.643295894453
 30
0.0
 11
-274.7909774860675
 21
-94.81072384714125
 31
0.0
  0
LINE
  5
224
  8
0
  6
CONTINUOUS
 62
     3
 10
-177.7909727474984
 20
113.1924132644291
 30
0.0
 11
-171.9909698685942
 21
113.1924132644291
 31
0.0
  0
LINE
  5
225
  8
0
  6
CONTINUOUS
 62
     3
 10
-172.7909690818129
 20
106.9433099045243
 30
0.0
 11
-172.7909690818129
 21
100.0990451243684
 31
0.0
  0
LINE
  5
226
  8
0
  6
CONTINUOUS
 62
     3
 10
-175.8263541231873
 20
106.9433099045243
 30
0.0
 11
-171.9909698685942
 21
106.9433099045243
 31
0.0
  0
LINE
  5
227
  8
0
  6
CONTINUOUS
 62
     3
 10
-165.7909731051263
 20
129.9433130337681
 30
0.0
 11
-165.7909731051263
 21
116.9433057918039
 31
0.0
  0
LINE
  5
228
  8
0
  6
CONTINUOUS
 62
     3
 10
-152.7909773072536
 20
129.9433130337681
 30
0.0
 11
-152.7909773072536
 21
-128.3566861347472
 31
0.0
  0
LINE
  5
229
  8
0
  6
CONTINUOUS
 62
     3
 10
-176.7909765919979
 20
204.9433222426854
 30
0.0
 11
-176.7909765919979
 21
129.9433130337681
 31
0.0
  0
LINE
  5
22A
  8
0
  6
CONTINUOUS
 62
     3
 10
-151.2909773519571
 20
204.9433222426854
 30
0.0
 11
-151.2909773519571
 21
197.9433148219073
 31
0.0
  0
LINE
  5
22B
  8
0
  6
CONTINUOUS
 62
     3
 10
-176.7909765919979
 20
152.9433047189204
 30
0.0
 11
-137.7909777542884
 21
152.9433047189204
 31
0.0
  0
LINE
  5
22C
  8
0
  6
CONTINUOUS
 62
     3
 10
-176.7909765919979
 20
136.9433090104546
 30
0.0
 11
-137.7909777542884
 21
136.9433090104546
 31
0.0
  0
LINE
  5
22D
  8
0
  6
CONTINUOUS
 62
     3
 10
-176.7909765919979
 20
197.9433148219073
 30
0.0
 11
-137.7909777542884
 21
197.9433148219073
 31
0.0
  0
LINE
  5
22E
  8
0
  6
CONTINUOUS
 62
     3
 10
-176.7909765919979
 20
181.9433076693502
 30
0.0
 11
-137.7909777542884
 21
181.9433076693502
 31
0.0
  0
LINE
  5
22F
  8
0
  6
CONTINUOUS
 62
     3
 10
-137.7909777542884
 20
156.9433122291054
 30
0.0
 11
-137.7909777542884
 21
132.9433129443611
 31
0.0
  0
LINE
  5
230
  8
0
  6
CONTINUOUS
 62
     3
 10
-137.7909777542884
 20
201.9432994439094
 30
0.0
 11
-137.7909777542884
 21
177.9433116032566
 31
0.0
  0
LINE
  5
231
  8
0
  6
CONTINUOUS
 62
     3
 10
-121.7909706017313
 20
201.9432994439094
 30
0.0
 11
-121.7909706017313
 21
177.9433116032566
 31
0.0
  0
LINE
  5
232
  8
0
  6
CONTINUOUS
 62
     3
 10
-121.7909706017313
 20
156.9433122291054
 30
0.0
 11
-121.7909706017313
 21
132.9433129443611
 31
0.0
  0
LINE
  5
233
  8
0
  6
CONTINUOUS
 62
     3
 10
-137.7909777542884
 20
177.9433116032566
 30
0.0
 11
-121.7909706017313
 21
177.9433116032566
 31
0.0
  0
LINE
  5
234
  8
0
  6
CONTINUOUS
 62
     3
 10
-137.7909777542884
 20
201.9432994439094
 30
0.0
 11
-121.7909706017313
 21
201.9432994439094
 31
0.0
  0
LINE
  5
235
  8
0
  6
CONTINUOUS
 62
     3
 10
-137.7909777542884
 20
132.9433129443611
 30
0.0
 11
-121.7909706017313
 21
132.9433129443611
 31
0.0
  0
LINE
  5
236
  8
0
  6
CONTINUOUS
 62
     3
 10
-137.7909777542884
 20
156.9433122291054
 30
0.0
 11
-121.7909706017313
 21
156.9433122291054
 31
0.0
  0
LINE
  5
237
  8
0
  6
CONTINUOUS
 62
     3
 10
-172.7909690818129
 20
152.9433047189204
 30
0.0
 11
-172.7909690818129
 21
136.9433090104546
 31
0.0
  0
LINE
  5
238
  8
0
  6
CONTINUOUS
 62
     3
 10
-172.7909690818129
 20
197.9433148219073
 30
0.0
 11
-172.7909690818129
 21
181.9433076693502
 31
0.0
  0
LINE
  5
239
  8
0
  6
CONTINUOUS
 62
     3
 10
-151.2909773519571
 20
181.9433076693502
 30
0.0
 11
-151.2909773519571
 21
152.9433047189204
 31
0.0
  0
LINE
  5
23A
  8
0
  6
CONTINUOUS
 62
     3
 10
-151.2909773519571
 20
136.9433090104546
 30
0.0
 11
-151.2909773519571
 21
129.9433130337681
 31
0.0
  0
LINE
  5
23B
  8
0
  6
CONTINUOUS
 62
     3
 10
-251.9285208920312
 20
110.1433182014906
 30
0.0
 11
-251.9285208920312
 21
-22.85667974214922
 31
0.0
  0
LINE
  5
23C
  8
0
  6
CONTINUOUS
 62
     3
 10
-269.0909959664871
 20
111.1433029128997
 30
0.0
 11
-177.9285307267973
 21
111.1433029128997
 31
0.0
  0
LINE
  5
23D
  8
0
  6
CONTINUOUS
 62
     3
 10
-176.9285345712968
 20
110.1433067573992
 30
0.0
 11
-176.9285345712968
 21
-22.85667974214922
 31
0.0
  0
LINE
  5
23E
  8
0
  6
CONTINUOUS
 62
     3
 10
-155.2909734180507
 20
109.0267868626955
 30
0.0
 11
-152.7909773072536
 21
109.0267868626955
 31
0.0
  0
LINE
  5
23F
  8
0
  6
CONTINUOUS
 62
     3
 10
-172.7909690818129
 20
106.3429986431181
 30
0.0
 11
-155.2909734180507
 21
106.3429986431181
 31
0.0
  0
LINE
  5
240
  8
0
  6
CONTINUOUS
 62
     3
 10
-175.5461340998002
 20
100.0990451243684
 30
0.0
 11
-172.7909690818129
 21
100.0990451243684
 31
0.0
  0
LINE
  5
241
  8
0
  6
CONTINUOUS
 62
     3
 10
-176.9285251919889
 20
110.1433144186162
 30
0.0
 11
-177.9285100393869
 21
111.1432992660142
 31
0.0
  0
LINE
  5
242
  8
0
  6
CONTINUOUS
 62
     3
 10
-250.928503602924
 20
111.1432851319382
 30
0.0
 11
-251.9285003357063
 21
110.1432959855352
 31
0.0
  0
LINE
  5
243
  8
0
  6
CONTINUOUS
 62
     3
 10
-251.928519631031
 20
-22.85667512652423
 30
0.0
 11
-250.9285185992438
 21
-23.85667615831137
 31
0.0
  0
LINE
  5
244
  8
0
  6
CONTINUOUS
 62
     3
 10
-176.9285150767457
 20
-22.85668321871876
 30
0.0
 11
-177.9285161085329
 21
-23.85668425050591
 31
0.0
  0
LINE
  5
245
  8
0
  6
CONTINUOUS
 62
     3
 10
-194.928534034855
 20
100.1433108701195
 30
0.0
 11
-194.928534034855
 21
23.4901640266011
 31
0.0
  0
LINE
  5
246
  8
0
  6
CONTINUOUS
 62
     3
 10
-214.9285372535057
 20
98.64331663686872
 30
0.0
 11
-214.9285372535057
 21
-11.35667960803877
 31
0.0
  0
LINE
  5
247
  8
0
  6
CONTINUOUS
 62
     3
 10
-250.9285361806222
 20
-1.606680211535783
 30
0.0
 11
-215.9285219649148
 21
-1.606680211535783
 31
0.0
  0
LINE
  5
248
  8
0
  6
CONTINUOUS
 62
     3
 10
-250.9285361806222
 20
88.89331509459858
 30
0.0
 11
-215.9285219649148
 21
88.89331509459858
 31
0.0
  0
LINE
  5
249
  8
0
  6
CONTINUOUS
 62
     3
 10
-214.9285372535057
 20
-11.35667960803877
 30
0.0
 11
-212.4285296986172
 21
-11.35667960803877
 31
0.0
  0
LINE
  5
24A
  8
0
  6
CONTINUOUS
 62
     3
 10
-214.9285372535057
 20
98.64331663686872
 30
0.0
 11
-212.4285296986172
 21
98.64331663686872
 31
0.0
  0
LINE
  5
24B
  8
0
  6
CONTINUOUS
 62
     3
 10
-194.928534034855
 20
-12.85667956333529
 30
0.0
 11
-192.4285264799665
 21
-12.85667956333529
 31
0.0
  0
LINE
  5
24C
  8
0
  6
CONTINUOUS
 62
     3
 10
-194.928534034855
 20
100.1433108701195
 30
0.0
 11
-192.4285264799665
 21
100.1433108701195
 31
0.0
  0
LINE
  5
24D
  8
0
  6
CONTINUOUS
 62
     3
 10
-192.4285264799665
 20
100.1433108701195
 30
0.0
 11
-192.4285264799665
 21
99.64331851441497
 31
0.0
  0
LINE
  5
24E
  8
0
  6
CONTINUOUS
 62
     3
 10
-212.4285296986172
 20
98.64331663686872
 30
0.0
 11
-212.4285296986172
 21
23.10886978747627
 31
0.0
  0
LINE
  5
24F
  8
0
  6
CONTINUOUS
 62
     3
 10
-269.0909959664871
 20
-23.85667875867261
 30
0.0
 11
-155.2909734180507
 21
-23.85667875867261
 31
0.0
  0
LINE
  5
250
  8
0
  6
CONTINUOUS
 62
     3
 10
-212.4285296986172
 20
-10.90667933534753
 30
0.0
 11
-194.928534034855
 21
-10.90667933534753
 31
0.0
  0
LINE
  5
251
  8
0
  6
CONTINUOUS
 62
     3
 10
-212.4285296986172
 20
98.19331207264318
 30
0.0
 11
-194.928534034855
 21
98.19331207264318
 31
0.0
  0
LINE
  5
252
  8
0
  6
CONTINUOUS
 62
     3
 10
-192.9285302797625
 20
-12.3566800550736
 30
0.0
 11
-178.9285268822978
 21
-12.3566800550736
 31
0.0
  0
LINE
  5
253
  8
0
  6
CONTINUOUS
 62
     3
 10
-192.9285302797625
 20
99.64331851441497
 30
0.0
 11
-178.9285268822978
 21
99.64331851441497
 31
0.0
  0
LINE
  5
254
  8
0
  6
CONTINUOUS
 62
     3
 10
-179.4285306820938
 20
100.1433108701195
 30
0.0
 11
-179.4285306820938
 21
98.84331930119626
 31
0.0
  0
LINE
  5
255
  8
0
  6
CONTINUOUS
 62
     3
 10
-179.4285306820938
 20
100.1433108701195
 30
0.0
 11
-176.9285345712968
 21
100.1433108701195
 31
0.0
  0
LINE
  5
256
  8
0
  6
CONTINUOUS
 62
     3
 10
-179.4285306820938
 20
-12.85667956333529
 30
0.0
 11
-176.9285345712968
 21
-12.85667956333529
 31
0.0
  0
LINE
  5
257
  8
0
  6
CONTINUOUS
 62
     3
 10
-250.9285105070493
 20
88.89330002891457
 30
0.0
 11
-251.9285439076146
 21
89.89333342947985
 31
0.0
  0
LINE
  5
258
  8
0
  6
CONTINUOUS
 62
     3
 10
-250.9284786782866
 20
-1.606726679096186
 30
0.0
 11
-251.9284787828421
 21
-2.606728722408759
 31
0.0
  0
LINE
  5
259
  8
0
  6
CONTINUOUS
 62
     3
 10
-215.9285229476663
 20
-1.606674898163074
 30
0.0
 11
-214.9285219158792
 21
-2.606675929950221
 31
0.0
  0
LINE
  5
25A
  8
0
  6
CONTINUOUS
 62
     3
 10
-215.9284865327909
 20
88.89328789062276
 30
0.0
 11
-214.9284855010038
 21
89.89328892240991
 31
0.0
  0
LINE
  5
25B
  8
0
  6
CONTINUOUS
 62
     3
 10
-192.9285302797625
 20
99.64331851441497
 30
0.0
 11
-192.9285302797625
 21
-12.3566800550736
 31
0.0
  0
LINE
  5
25C
  8
0
  6
CONTINUOUS
 62
     3
 10
-178.9285268822978
 20
99.64331851441497
 30
0.0
 11
-178.9285268822978
 21
-12.3566800550736
 31
0.0
  0
LINE
  5
25D
  8
0
  6
CONTINUOUS
 62
     3
 10
-192.4285264799665
 20
-11.55668084185488
 30
0.0
 11
-192.4285264799665
 21
-12.85667956333529
 31
0.0
  0
LINE
  5
25E
  8
0
  6
CONTINUOUS
 62
     3
 10
-179.4285306820938
 20
-11.55668084185488
 30
0.0
 11
-179.4285306820938
 21
-12.85667956333529
 31
0.0
  0
LINE
  5
25F
  8
0
  6
CONTINUOUS
 62
     3
 10
-177.7909727474984
 20
-30.3566795186318
 30
0.0
 11
-177.7909727474984
 21
-38.35668023388752
 31
0.0
  0
LINE
  5
260
  8
0
  6
CONTINUOUS
 62
     3
 10
-177.7909727474984
 20
-38.35668023388752
 30
0.0
 11
-152.7909773072536
 21
-38.35668023388752
 31
0.0
  0
LINE
  5
261
  8
0
  6
CONTINUOUS
 62
     3
 10
-177.7909727474984
 20
-30.3566795186318
 30
0.0
 11
-152.7909773072536
 21
-30.3566795186318
 31
0.0
  0
LINE
  5
262
  8
0
  6
CONTINUOUS
 62
     3
 10
-180.100372183194
 20
-34.35668444808975
 30
0.0
 11
-177.7909714182458
 21
-30.35668553679104
 31
0.0
  0
LINE
  5
263
  8
0
  6
CONTINUOUS
 62
     3
 10
-180.1004037039498
 20
-34.35668582933569
 30
0.0
 11
-177.7910029390016
 21
-38.35668474063441
 31
0.0
  0
LINE
  5
264
  8
0
  6
CONTINUOUS
 62
     3
 10
-194.928534034855
 20
16.37644811311807
 30
0.0
 11
-194.928534034855
 21
-12.85667956333529
 31
0.0
  0
LINE
  5
265
  8
0
  6
CONTINUOUS
 62
     3
 10
-274.7909774860675
 20
-107.5530330377033
 30
0.0
 11
-274.7909774860675
 21
-131.3566860453402
 31
0.0
  0
LINE
  5
266
  8
0
  6
CONTINUOUS
 62
     3
 10
-212.4285296986172
 20
15.99515530450468
 30
0.0
 11
-212.4285296986172
 21
-11.35667960803877
 31
0.0
  0
LINE
  5
267
  8
0
  6
CONTINUOUS
 62
     3
 10
-176.7909765919979
 20
204.9433222426854
 30
0.0
 11
-151.2909773519571
 21
204.9433222426854
 31
0.0
  0
LINE
  5
268
  8
0
  6
CONTINUOUS
 62
     3
 10
-176.7909765919979
 20
129.9433130337681
 30
0.0
 11
-151.2909773519571
 21
129.9433130337681
 31
0.0
  0
LINE
  5
269
  8
0
  6
CONTINUOUS
 62
     3
 10
208.0202263867561
 20
218.9433141960586
 30
0.0
 11
208.0202263867561
 21
106.3429986431181
 31
0.0
  0
LINE
  5
26A
  8
0
  6
CONTINUOUS
 62
     3
 10
158.0202355062664
 20
218.9433141960586
 30
0.0
 11
158.0202355062664
 21
106.3429986431181
 31
0.0
  0
LINE
  5
26B
  8
0
  6
CONTINUOUS
 62
     3
 10
146.0202358638943
 20
216.8273932386101
 30
0.0
 11
146.0202358638943
 21
214.6871650309095
 31
0.0
  0
LINE
  5
26C
  8
0
  6
CONTINUOUS
 62
     3
 10
220.0202260291282
 20
216.8273932386101
 30
0.0
 11
220.0202260291282
 21
214.6871650309095
 31
0.0
  0
LINE
  5
26D
  8
0
  6
CONTINUOUS
 62
     3
 10
158.0202355062664
 20
218.9433141960586
 30
0.0
 11
208.0202263867561
 21
218.9433141960586
 31
0.0
  0
LINE
  5
26E
  8
0
  6
CONTINUOUS
 62
     3
 10
146.0202610465338
 20
216.8273310518181
 30
0.0
 11
158.0202606870287
 21
218.9432548180662
 31
0.0
  0
LINE
  5
26F
  8
0
  6
CONTINUOUS
 62
     3
 10
208.0201948359624
 20
218.9431965483377
 30
0.0
 11
220.0201944764574
 21
216.8272727820895
 31
0.0
  0
LINE
  5
270
  8
0
  6
CONTINUOUS
 62
     3
 10
169.7702389707863
 20
116.9433286799869
 30
0.0
 11
169.7702389707863
 21
113.1924132644291
 31
0.0
  0
LINE
  5
271
  8
0
  6
CONTINUOUS
 62
     3
 10
196.2702343663276
 20
116.9433286799869
 30
0.0
 11
196.2702343663276
 21
113.1924132644291
 31
0.0
  0
LINE
  5
272
  8
0
  6
CONTINUOUS
 62
     3
 10
172.5202312594356
 20
218.9433141960586
 30
0.0
 11
172.5202312594356
 21
195.7528012763499
 31
0.0
  0
LINE
  5
273
  8
0
  6
CONTINUOUS
 62
     3
 10
193.5202420776783
 20
218.9433141960586
 30
0.0
 11
193.5202420776783
 21
195.7528012763499
 31
0.0
  0
LINE
  5
274
  8
0
  6
CONTINUOUS
 62
     3
 10
158.0202355062664
 20
116.9433286799869
 30
0.0
 11
172.5202312594356
 21
116.9433286799869
 31
0.0
  0
LINE
  5
275
  8
0
  6
CONTINUOUS
 62
     3
 10
193.5202420776783
 20
116.9433286799869
 30
0.0
 11
208.0202263867561
 21
116.9433286799869
 31
0.0
  0
LINE
  5
276
  8
0
  6
CONTINUOUS
 62
     3
 10
172.5202312594356
 20
184.1338441030906
 30
0.0
 11
172.5202312594356
 21
150.7528026174544
 31
0.0
  0
LINE
  5
277
  8
0
  6
CONTINUOUS
 62
     3
 10
193.5202420776783
 20
184.1338441030906
 30
0.0
 11
193.5202420776783
 21
150.7528026174544
 31
0.0
  0
LINE
  5
278
  8
0
  6
CONTINUOUS
 62
     3
 10
193.5202420776783
 20
139.133845444195
 30
0.0
 11
193.5202420776783
 21
116.9433286799869
 31
0.0
  0
LINE
  5
279
  8
0
  6
CONTINUOUS
 62
     3
 10
172.5202312594356
 20
139.133845444195
 30
0.0
 11
172.5202312594356
 21
116.9433286799869
 31
0.0
  0
LINE
  5
27A
  8
0
  6
CONTINUOUS
 62
     3
 10
158.0202355062664
 20
-131.6566814587629
 30
0.0
 11
208.0202263867561
 21
-131.6566814587629
 31
0.0
  0
LINE
  5
27B
  8
0
  6
CONTINUOUS
 62
     3
 10
158.0202355062664
 20
-19.05636161428814
 30
0.0
 11
158.0202355062664
 21
-131.6566814587629
 31
0.0
  0
LINE
  5
27C
  8
0
  6
CONTINUOUS
 62
     3
 10
208.0202263867561
 20
-19.05636161428814
 30
0.0
 11
208.0202263867561
 21
-131.6566814587629
 31
0.0
  0
LINE
  5
27D
  8
0
  6
CONTINUOUS
 62
     3
 10
158.0202355062664
 20
-29.65668449859972
 30
0.0
 11
172.5202312594356
 21
-29.65668449859972
 31
0.0
  0
LINE
  5
27E
  8
0
  6
CONTINUOUS
 62
     3
 10
196.2702343663276
 20
-25.90578338815629
 30
0.0
 11
196.2702343663276
 21
-29.65668449859972
 31
0.0
  0
LINE
  5
27F
  8
0
  6
CONTINUOUS
 62
     3
 10
172.5202312594356
 20
-29.65668449859972
 30
0.0
 11
172.5202312594356
 21
-51.84720698485363
 31
0.0
  0
LINE
  5
280
  8
0
  6
CONTINUOUS
 62
     3
 10
193.5202420776783
 20
-29.65668449859972
 30
0.0
 11
193.5202420776783
 21
-51.84720698485363
 31
0.0
  0
LINE
  5
281
  8
0
  6
CONTINUOUS
 62
     3
 10
193.5202420776783
 20
-29.65668449859972
 30
0.0
 11
208.0202263867561
 21
-29.65668449859972
 31
0.0
  0
LINE
  5
282
  8
0
  6
CONTINUOUS
 62
     3
 10
169.7702389707863
 20
-25.90578338815629
 30
0.0
 11
169.7702389707863
 21
-29.65668449859972
 31
0.0
  0
LINE
  5
283
  8
0
  6
CONTINUOUS
 62
     3
 10
220.0202260291282
 20
-127.4005322936139
 30
0.0
 11
220.0202260291282
 21
-129.5407605013145
 31
0.0
  0
LINE
  5
284
  8
0
  6
CONTINUOUS
 62
     3
 10
208.0202520101685
 20
-131.6566367563803
 30
0.0
 11
220.0202516506634
 21
-129.5407129901321
 31
0.0
  0
LINE
  5
285
  8
0
  6
CONTINUOUS
 62
     3
 10
146.0202323745241
 20
-129.5407414236628
 30
0.0
 11
158.020232015019
 21
-131.6566651899109
 31
0.0
  0
LINE
  5
286
  8
0
  6
CONTINUOUS
 62
     3
 10
172.5202312594356
 20
-63.46616415811297
 30
0.0
 11
172.5202312594356
 21
-96.84722280988635
 31
0.0
  0
LINE
  5
287
  8
0
  6
CONTINUOUS
 62
     3
 10
193.5202420776783
 20
-63.46616415811297
 30
0.0
 11
193.5202420776783
 21
-96.84722280988635
 31
0.0
  0
LINE
  5
288
  8
0
  6
CONTINUOUS
 62
     3
 10
193.5202420776783
 20
-108.4661456508713
 30
0.0
 11
193.5202420776783
 21
-131.6566814587629
 31
0.0
  0
LINE
  5
289
  8
0
  6
CONTINUOUS
 62
     3
 10
172.5202312594356
 20
-108.4661456508713
 30
0.0
 11
172.5202312594356
 21
-131.6566814587629
 31
0.0
  0
LINE
  5
28A
  8
0
  6
CONTINUOUS
 62
     3
 10
146.0202358638943
 20
-127.4005322936139
 30
0.0
 11
146.0202358638943
 21
-129.5407605013145
 31
0.0
  0
LINE
  5
28B
  8
0
  6
CONTINUOUS
 62
     3
 10
172.5202312594356
 20
204.9433222426854
 30
0.0
 11
193.5202420776783
 21
204.9433222426854
 31
0.0
  0
LINE
  5
28C
  8
0
  6
CONTINUOUS
 62
     3
 10
172.5202312594356
 20
129.9433244778595
 30
0.0
 11
193.5202420776783
 21
129.9433244778595
 31
0.0
  0
LINE
  5
28D
  8
0
  6
CONTINUOUS
 62
     3
 10
172.5202312594356
 20
-42.65668315749526
 30
0.0
 11
193.5202420776783
 21
-42.65668315749526
 31
0.0
  0
LINE
  5
28E
  8
0
  6
CONTINUOUS
 62
     3
 10
172.5202312594356
 20
-117.6566780612983
 30
0.0
 11
193.5202420776783
 21
-117.6566780612983
 31
0.0
  0
ARC
  5
28F
  8
0
  6
CONTINUOUS
 62
     3
 10
183.0202309465113
 20
43.64331636864783
 30
0.0
 40
70.79999903440478
 50
249.3224877079003
 51
290.6774867925759
  0
ARC
  5
290
  8
0
  6
CONTINUOUS
 62
     3
 10
183.0202309465113
 20
43.64331636864783
 30
0.0
 40
171.9999910593035
 50
278.357478435652
 51
441.642521564348
  0
CIRCLE
  5
291
  8
0
  6
CONTINUOUS
 62
     3
 10
65.54523025137209
 20
43.64331636864783
 30
0.0
 40
10.49999968707562
  0
CIRCLE
  5
292
  8
0
  6
CONTINUOUS
 62
     3
 10
241.7577513212409
 20
-58.09300872437341
 30
0.0
 40
10.49999968707562
  0
CIRCLE
  5
293
  8
0
  6
CONTINUOUS
 62
     3
 10
124.2827334599645
 20
145.3796300175776
 30
0.0
 40
10.49999968707562
  0
CIRCLE
  5
294
  8
0
  6
CONTINUOUS
 62
     3
 10
241.757728433058
 20
145.3796529057605
 30
0.0
 40
10.49999968707562
  0
ARC
  5
295
  8
0
  6
CONTINUOUS
 62
     3
 10
183.0202309465113
 20
43.64331636864783
 30
0.0
 40
69.99999982118607
 50
290.9248352631787
 51
360.0
  0
ARC
  5
296
  8
0
  6
CONTINUOUS
 62
     3
 10
183.0202309465113
 20
43.64331636864783
 30
0.0
 40
174.9999909698966
 50
278.2132111800029
 51
441.7867888199971
  0
CIRCLE
  5
297
  8
0
  6
CONTINUOUS
 62
     3
 10
183.0202309465113
 20
43.64331636864783
 30
0.0
 40
67.4999979883433
  0
ARC
  5
298
  8
0
  6
CONTINUOUS
 62
     3
 10
183.0202309465113
 20
43.64331636864783
 30
0.0
 40
69.99999982118607
 50
0.0
 51
69.07516473682134
  0
ARC
  5
299
  8
0
  6
CONTINUOUS
 62
     3
 10
183.0202309465113
 20
43.64331636864783
 30
0.0
 40
69.99999982118607
 50
110.9248539325133
 51
249.075142425021
  0
ARC
  5
29A
  8
0
  6
CONTINUOUS
 62
     3
 10
183.0202309465113
 20
43.64331636864783
 30
0.0
 40
70.79999903440478
 50
69.32251320742418
 51
110.6775122920997
  0
ARC
  5
29B
  8
0
  6
CONTINUOUS
 62
     3
 10
183.0202309465113
 20
43.64331636864783
 30
0.0
 40
171.9999910593035
 50
98.35749710498664
 51
261.642471931791
  0
CIRCLE
  5
29C
  8
0
  6
CONTINUOUS
 62
     3
 10
300.4952373636961
 20
43.64331636864783
 30
0.0
 40
10.49999968707562
  0
CIRCLE
  5
29D
  8
0
  6
CONTINUOUS
 62
     3
 10
300.4952373636961
 20
43.64331636864783
 30
0.0
 40
16.0
  0
CIRCLE
  5
29E
  8
0
  6
CONTINUOUS
 62
     3
 10
241.757728433058
 20
145.3796529057605
 30
0.0
 40
16.0
  0
CIRCLE
  5
29F
  8
0
  6
CONTINUOUS
 62
     3
 10
124.2827334599645
 20
145.3796300175776
 30
0.0
 40
16.0
  0
CIRCLE
  5
2A0
  8
0
  6
CONTINUOUS
 62
     3
 10
124.2827334599645
 20
-58.09300872437341
 30
0.0
 40
16.0
  0
CIRCLE
  5
2A1
  8
0
  6
CONTINUOUS
 62
     3
 10
241.7577513212409
 20
-58.09300872437341
 30
0.0
 40
16.0
  0
CIRCLE
  5
2A2
  8
0
  6
CONTINUOUS
 62
     3
 10
65.54523025137209
 20
43.64331636864783
 30
0.0
 40
16.0
  0
ARC
  5
2A3
  8
0
  6
CONTINUOUS
 62
     3
 10
183.0202309465113
 20
43.64331636864783
 30
0.0
 40
174.9999909698966
 50
98.21322984933764
 51
261.7867528478184
  0
CIRCLE
  5
2A4
  8
0
  6
CONTINUOUS
 62
     3
 10
183.0202309465113
 20
93.64333395852799
 30
0.0
 40
2.999999910593036
  0
CIRCLE
  5
2A5
  8
0
  6
CONTINUOUS
 62
     3
 10
139.7189455240063
 20
18.64330757370777
 30
0.0
 40
2.999999910593035
  0
CIRCLE
  5
2A6
  8
0
  6
CONTINUOUS
 62
     3
 10
226.3215163690163
 20
18.64330757370778
 30
0.0
 40
2.999999910593035
  0
LINE
  5
2A7
  8
0
  6
CONTINUOUS
 62
     3
 10
-192.9285268822978
 20
88.89331636864783
 30
0.0
 11
-178.9285268822978
 21
88.89331636864783
 31
0.0
  0
LINE
  5
2A8
  8
0
  6
CONTINUOUS
 62
     3
 10
-192.9285268822978
 20
90.64331636864783
 30
0.0
 11
-178.9285268822978
 21
90.64331636864783
 31
0.0
  0
LINE
  5
2A9
  8
0
  6
CONTINUOUS
 62
     3
 10
-192.9285268822978
 20
96.64331636864783
 30
0.0
 11
-178.9285268822978
 21
96.64331636864783
 31
0.0
  0
LINE
  5
2AA
  8
0
  6
CONTINUOUS
 62
     3
 10
-186.9285268822978
 20
96.64331636864783
 30
0.0
 11
-186.9285268822978
 21
90.64331636864783
 31
0.0
  0
LINE
  5
2AB
  8
0
  6
CONTINUOUS
 62
     3
 10
-180.9285268822978
 20
96.64331636864783
 30
0.0
 11
-180.9285268822978
 21
90.64331636864783
 31
0.0
  0
LINE
  5
2AC
  8
0
  6
CONTINUOUS
 62
     3
 10
-192.9285268822978
 20
-1.606687446049435
 30
0.0
 11
-178.9285268822978
 21
-1.606687446049435
 31
0.0
  0
LINE
  5
2AD
  8
0
  6
CONTINUOUS
 62
     4
 10
-154.7909696182547
 20
218.9433141960586
 30
0.0
 11
-154.7909696182547
 21
204.9433222426854
 31
0.0
  0
LINE
  5
2AE
  8
0
  6
CONTINUOUS
 62
     4
 10
-153.7909734627542
 20
218.9433141960586
 30
0.0
 11
-153.7909734627542
 21
204.9433222426854
 31
0.0
  0
LINE
  5
2AF
  8
0
  6
CONTINUOUS
 62
     4
 10
-154.7909696182547
 20
129.9433130337681
 30
0.0
 11
-154.7909696182547
 21
116.9433057918039
 31
0.0
  0
LINE
  5
2B0
  8
0
  6
CONTINUOUS
 62
     4
 10
-153.7909734627542
 20
129.9433130337681
 30
0.0
 11
-153.7909734627542
 21
116.9433057918039
 31
0.0
  0
LINE
  5
2B1
  8
0
  6
CONTINUOUS
 62
     4
 10
-176.7909765919979
 20
196.9433072223154
 30
0.0
 11
-137.7909777542884
 21
196.9433072223154
 31
0.0
  0
LINE
  5
2B2
  8
0
  6
CONTINUOUS
 62
     4
 10
-176.7909765919979
 20
182.9433038248507
 30
0.0
 11
-137.7909777542884
 21
182.9433038248507
 31
0.0
  0
LINE
  5
2B3
  8
0
  6
CONTINUOUS
 62
     4
 10
-176.7909765919979
 20
151.9433085634198
 30
0.0
 11
-137.7909777542884
 21
151.9433085634198
 31
0.0
  0
LINE
  5
2B4
  8
0
  6
CONTINUOUS
 62
     4
 10
-176.7909765919979
 20
137.9433051659552
 30
0.0
 11
-137.7909777542884
 21
137.9433051659552
 31
0.0
  0
LINE
  5
2B5
  8
0
  6
CONTINUOUS
 62
     4
 10
-192.9285302797625
 20
-11.55668084185488
 30
0.0
 11
-178.9285268822978
 21
-11.55668084185488
 31
0.0
  0
LINE
  5
2B6
  8
0
  6
CONTINUOUS
 62
     4
 10
-215.9285219649148
 20
88.89331509459858
 30
0.0
 11
-215.9285219649148
 21
76.40290752311614
 31
0.0
  0
LINE
  5
2B7
  8
0
  6
CONTINUOUS
 62
     4
 10
-250.9285132924393
 20
88.89331509459858
 30
0.0
 11
-250.9285132924393
 21
76.12267605563761
 31
0.0
  0
LINE
  5
2B8
  8
0
  6
CONTINUOUS
 62
     4
 10
-250.9285132924393
 20
10.59170633250148
 30
0.0
 11
-250.9285132924393
 21
-1.606680211535783
 31
0.0
  0
LINE
  5
2B9
  8
0
  6
CONTINUOUS
 62
     4
 10
-215.9285219649148
 20
10.31147128874438
 30
0.0
 11
-215.9285219649148
 21
-1.606680211535783
 31
0.0
  0
LINE
  5
2BA
  8
0
  6
CONTINUOUS
 62
     4
 10
-192.9285302797625
 20
98.84331930119626
 30
0.0
 11
-178.9285268822978
 21
98.84331930119626
 31
0.0
  0
LINE
  5
2BB
  8
0
  6
CONTINUOUS
 62
     4
 10
-172.7909690818129
 20
-29.35667764108555
 30
0.0
 11
-172.7909690818129
 21
-39.35667925041091
 31
0.0
  0
LINE
  5
2BC
  8
0
  6
CONTINUOUS
 62
     4
 10
-172.7909690818129
 20
-29.35667764108555
 30
0.0
 11
-152.7909773072536
 21
-29.35667764108555
 31
0.0
  0
LINE
  5
2BD
  8
0
  6
CONTINUOUS
 62
     4
 10
-172.7909690818129
 20
-39.35667925041091
 30
0.0
 11
-152.7909773072536
 21
-39.35667925041091
 31
0.0
  0
LINE
  5
2BE
  8
0
  6
CONTINUOUS
 62
     4
 10
-299.790961482221
 20
-63.83167699512023
 30
0.0
 11
-299.790961482221
 21
-83.83168021377095
 31
0.0
  0
LINE
  5
2BF
  8
0
  6
CONTINUOUS
 62
     4
 10
-299.790961482221
 20
-63.83167699512023
 30
0.0
 11
-272.1574631602555
 21
-63.83167699512023
 31
0.0
  0
LINE
  5
2C0
  8
0
  6
CONTINUOUS
 62
     4
 10
-299.790961482221
 20
-83.83168021377095
 30
0.0
 11
-271.488327132834
 21
-83.83168021377095
 31
0.0
  0
LINE
  5
2C1
  8
0
  6
CONTINUOUS
 62
     4
 10
-299.790961482221
 20
-82.8316783362247
 30
0.0
 11
-272.1574631602555
 21
-82.8316783362247
 31
0.0
  0
LINE
  5
2C2
  8
0
  6
CONTINUOUS
 62
     4
 10
-299.790961482221
 20
-64.83167887266649
 30
0.0
 11
-272.826576299494
 21
-64.83167887266649
 31
0.0
  0
LINE
  5
2C3
  8
0
  6
CONTINUOUS
 62
     4
 10
159.520235461563
 20
118.4433286352834
 30
0.0
 11
171.0202313041391
 21
118.4433286352834
 31
0.0
  0
LINE
  5
2C4
  8
0
  6
CONTINUOUS
 62
     4
 10
195.0202420329748
 20
118.4433286352834
 30
0.0
 11
206.5202264314596
 21
118.4433286352834
 31
0.0
  0
LINE
  5
2C5
  8
0
  6
CONTINUOUS
 62
     4
 10
159.520235461563
 20
217.4433142407621
 30
0.0
 11
171.0202313041391
 21
217.4433142407621
 31
0.0
  0
LINE
  5
2C6
  8
0
  6
CONTINUOUS
 62
     4
 10
195.0202420329748
 20
217.4433142407621
 30
0.0
 11
206.5202264314596
 21
217.4433142407621
 31
0.0
  0
LINE
  5
2C7
  8
0
  6
CONTINUOUS
 62
     4
 10
195.0202420329748
 20
119.9433285905799
 30
0.0
 11
206.5202264314596
 21
119.9433285905799
 31
0.0
  0
LINE
  5
2C8
  8
0
  6
CONTINUOUS
 62
     4
 10
195.0202420329748
 20
121.4433285458764
 30
0.0
 11
206.5202264314596
 21
121.4433285458764
 31
0.0
  0
LINE
  5
2C9
  8
0
  6
CONTINUOUS
 62
     4
 10
195.0202420329748
 20
122.9433285011729
 30
0.0
 11
206.5202264314596
 21
122.9433285011729
 31
0.0
  0
LINE
  5
2CA
  8
0
  6
CONTINUOUS
 62
     4
 10
195.0202420329748
 20
124.4433284564694
 30
0.0
 11
206.5202264314596
 21
124.4433284564694
 31
0.0
  0
LINE
  5
2CB
  8
0
  6
CONTINUOUS
 62
     4
 10
195.0202420329748
 20
125.943328411766
 30
0.0
 11
206.5202264314596
 21
125.943328411766
 31
0.0
  0
LINE
  5
2CC
  8
0
  6
CONTINUOUS
 62
     4
 10
159.520235461563
 20
119.9433285905799
 30
0.0
 11
171.0202313041391
 21
119.9433285905799
 31
0.0
  0
LINE
  5
2CD
  8
0
  6
CONTINUOUS
 62
     4
 10
159.520235461563
 20
121.4433285458764
 30
0.0
 11
171.0202313041391
 21
121.4433285458764
 31
0.0
  0
LINE
  5
2CE
  8
0
  6
CONTINUOUS
 62
     4
 10
159.520235461563
 20
122.9433285011729
 30
0.0
 11
171.0202313041391
 21
122.9433285011729
 31
0.0
  0
LINE
  5
2CF
  8
0
  6
CONTINUOUS
 62
     4
 10
159.520235461563
 20
124.4433284564694
 30
0.0
 11
171.0202313041391
 21
124.4433284564694
 31
0.0
  0
LINE
  5
2D0
  8
0
  6
CONTINUOUS
 62
     4
 10
159.520235461563
 20
125.943328411766
 30
0.0
 11
171.0202313041391
 21
125.943328411766
 31
0.0
  0
LINE
  5
2D1
  8
0
  6
CONTINUOUS
 62
     4
 10
159.520235461563
 20
215.9433142854656
 30
0.0
 11
171.0202313041391
 21
215.9433142854656
 31
0.0
  0
LINE
  5
2D2
  8
0
  6
CONTINUOUS
 62
     4
 10
159.520235461563
 20
214.443314330169
 30
0.0
 11
171.0202313041391
 21
214.443314330169
 31
0.0
  0
LINE
  5
2D3
  8
0
  6
CONTINUOUS
 62
     4
 10
159.520235461563
 20
212.9433143748725
 30
0.0
 11
171.0202313041391
 21
212.9433143748725
 31
0.0
  0
LINE
  5
2D4
  8
0
  6
CONTINUOUS
 62
     4
 10
195.0202420329748
 20
215.9433142854656
 30
0.0
 11
206.5202264314596
 21
215.9433142854656
 31
0.0
  0
LINE
  5
2D5
  8
0
  6
CONTINUOUS
 62
     4
 10
195.0202420329748
 20
214.443314330169
 30
0.0
 11
206.5202264314596
 21
214.443314330169
 31
0.0
  0
LINE
  5
2D6
  8
0
  6
CONTINUOUS
 62
     4
 10
195.0202420329748
 20
212.9433143748725
 30
0.0
 11
206.5202264314596
 21
212.9433143748725
 31
0.0
  0
LINE
  5
2D7
  8
0
  6
CONTINUOUS
 62
     4
 10
195.0202420329748
 20
211.443314419576
 30
0.0
 11
206.5202264314596
 21
211.443314419576
 31
0.0
  0
LINE
  5
2D8
  8
0
  6
CONTINUOUS
 62
     4
 10
195.0202420329748
 20
209.9433144642795
 30
0.0
 11
206.5202264314596
 21
209.9433144642795
 31
0.0
  0
LINE
  5
2D9
  8
0
  6
CONTINUOUS
 62
     4
 10
159.520235461563
 20
209.9433144642795
 30
0.0
 11
171.0202313041391
 21
209.9433144642795
 31
0.0
  0
LINE
  5
2DA
  8
0
  6
CONTINUOUS
 62
     4
 10
159.520235461563
 20
211.443314419576
 30
0.0
 11
171.0202313041391
 21
211.443314419576
 31
0.0
  0
CIRCLE
  5
2DB
  8
0
  6
CONTINUOUS
 62
     4
 10
250.570228170425
 20
4.643341313190924
 30
0.0
 40
4.0
  0
CIRCLE
  5
2DC
  8
0
  6
CONTINUOUS
 62
     4
 10
115.4702680548719
 20
4.643310736009066
 30
0.0
 40
4.0
  0
CIRCLE
  5
2DD
  8
0
  6
CONTINUOUS
 62
     4
 10
115.4702680548719
 20
4.643310736009066
 30
0.0
 40
4.999999731779107
  0
ARC
  5
2DE
  8
0
  6
CONTINUOUS
 62
     4
 10
183.0202309465113
 20
43.64331636864783
 30
0.0
 40
80.99999758601196
 50
109.4712394129729
 51
145.4398898464738
  0
ARC
  5
2DF
  8
0
  6
CONTINUOUS
 62
     4
 10
183.0202309465113
 20
43.64331636864783
 30
0.0
 40
122.9999963343145
 50
308.1724255402003
 51
351.8275804741105
  0
ARC
  5
2E0
  8
0
  6
CONTINUOUS
 62
     4
 10
183.0202309465113
 20
43.64331636864783
 30
0.0
 40
116.9999965131284
 50
312.9425511093617
 51
347.4043371610055
  0
ARC
  5
2E1
  8
0
  6
CONTINUOUS
 62
     4
 10
183.0202309465113
 20
43.64331636864783
 30
0.0
 40
110.9999966919423
 50
308.43457161564
 51
351.5654420826336
  0
ARC
  5
2E2
  8
0
  6
CONTINUOUS
 62
     4
 10
183.0202309465113
 20
43.64331636864783
 30
0.0
 40
104.9999968707563
 50
306.6979413776509
 51
353.3020736012832
  0
ARC
  5
2E3
  8
0
  6
CONTINUOUS
 62
     4
 10
183.0202309465113
 20
43.64331636864783
 30
0.0
 40
86.99999740719802
 50
288.0800136625442
 51
431.9199863374558
  0
ARC
  5
2E4
  8
0
  6
CONTINUOUS
 62
     4
 10
183.0202309465113
 20
43.64331636864783
 30
0.0
 40
80.99999758601196
 50
289.4712207436382
 51
325.4398848375175
  0
CIRCLE
  5
2E5
  8
0
  6
CONTINUOUS
 62
     4
 10
250.570228170425
 20
82.6433152063573
 30
0.0
 40
4.999999731779107
  0
ARC
  5
2E6
  8
0
  6
CONTINUOUS
 62
     4
 10
183.0202309465113
 20
43.64331636864783
 30
0.0
 40
74.99999776482589
 50
111.1002122092642
 51
145.2608979090844
  0
CIRCLE
  5
2E7
  8
0
  6
CONTINUOUS
 62
     4
 10
115.470245166689
 20
82.64332092840303
 30
0.0
 40
4.999999731779107
  0
ARC
  5
2E8
  8
0
  6
CONTINUOUS
 62
     4
 10
183.0202309465113
 20
43.64331636864783
 30
0.0
 40
74.99999776482589
 50
291.1001935399296
 51
325.2608894850335
  0
CIRCLE
  5
2E9
  8
0
  6
CONTINUOUS
 62
     4
 10
250.570228170425
 20
4.643341313190924
 30
0.0
 40
4.999999731779107
  0
ARC
  5
2EA
  8
0
  6
CONTINUOUS
 62
     4
 10
183.0202309465113
 20
43.64331636864783
 30
0.0
 40
80.99999758601196
 50
214.5601101535262
 51
250.5287605870271
  0
ARC
  5
2EB
  8
0
  6
CONTINUOUS
 62
     4
 10
183.0202309465113
 20
43.64331636864783
 30
0.0
 40
74.99999776482589
 50
214.7391157512939
 51
248.8997877907358
  0
ARC
  5
2EC
  8
0
  6
CONTINUOUS
 62
     4
 10
183.0202309465113
 20
43.64331636864783
 30
0.0
 40
74.99999776482589
 50
334.7391429962602
 51
385.2608706641181
  0
ARC
  5
2ED
  8
0
  6
CONTINUOUS
 62
     4
 10
183.0202309465113
 20
43.64331636864783
 30
0.0
 40
80.99999758601196
 50
334.5601425211344
 51
385.4398626015075
  0
CIRCLE
  5
2EE
  8
0
  6
CONTINUOUS
 62
     4
 10
115.470245166689
 20
82.64332092840303
 30
0.0
 40
4.0
  0
CIRCLE
  5
2EF
  8
0
  6
CONTINUOUS
 62
     4
 10
250.570228170425
 20
82.6433152063573
 30
0.0
 40
4.0
  0
ARC
  5
2F0
  8
0
  6
CONTINUOUS
 62
     4
 10
183.0202309465113
 20
43.64331636864783
 30
0.0
 40
110.9999966919423
 50
104.0780537424391
 51
111.565464204958
  0
ARC
  5
2F1
  8
0
  6
CONTINUOUS
 62
     4
 10
183.0202309465113
 20
43.64331636864783
 30
0.0
 40
104.9999968707563
 50
104.9006134241838
 51
113.3020944429471
  0
ARC
  5
2F2
  8
0
  6
CONTINUOUS
 62
     4
 10
183.0202309465113
 20
43.64331636864783
 30
0.0
 40
98.99999704957017
 50
105.8266368114757
 51
254.1733595460586
  0
ARC
  5
2F3
  8
0
  6
CONTINUOUS
 62
     4
 10
183.0202309465113
 20
43.64331636864783
 30
0.0
 40
86.99999740719802
 50
108.0800323318788
 51
251.919943535088
  0
ARC
  5
2F4
  8
0
  6
CONTINUOUS
 62
     4
 10
183.0202309465113
 20
43.64331636864783
 30
0.0
 40
92.9999972283841
 50
106.877290660553
 51
253.1226852064139
  0
ARC
  5
2F5
  8
0
  6
CONTINUOUS
 62
     4
 10
183.0202309465113
 20
43.64331636864783
 30
0.0
 40
116.9999965131284
 50
103.3423808971262
 51
107.0031368960105
  0
ARC
  5
2F6
  8
0
  6
CONTINUOUS
 62
     4
 10
183.0202309465113
 20
43.64331636864783
 30
0.0
 40
104.9999968707563
 50
186.69791071759
 51
233.3020536133928
  0
ARC
  5
2F7
  8
0
  6
CONTINUOUS
 62
     4
 10
183.0202309465113
 20
43.64331636864783
 30
0.0
 40
110.9999966919423
 50
188.4345409555791
 51
231.5654233754037
  0
ARC
  5
2F8
  8
0
  6
CONTINUOUS
 62
     4
 10
183.0202309465113
 20
43.64331636864783
 30
0.0
 40
116.9999965131284
 50
192.7500183977332
 51
226.1054657755439
  0
ARC
  5
2F9
  8
0
  6
CONTINUOUS
 62
     4
 10
183.0202309465113
 20
43.64331636864783
 30
0.0
 40
122.9999963343145
 50
102.6804057929577
 51
111.8276000351139
  0
ARC
  5
2FA
  8
0
  6
CONTINUOUS
 62
     4
 10
183.0202309465113
 20
43.64331636864783
 30
0.0
 40
122.9999963343145
 50
188.172398295234
 51
231.8275523753705
  0
ARC
  5
2FB
  8
0
  6
CONTINUOUS
 62
     4
 10
183.0202309465113
 20
43.64331636864783
 30
0.0
 40
80.99999758601196
 50
154.5601594829218
 51
205.4398368746126
  0
ARC
  5
2FC
  8
0
  6
CONTINUOUS
 62
     4
 10
183.0202309465113
 20
43.64331636864783
 30
0.0
 40
122.9999963343145
 50
128.1724476246295
 51
171.827601704766
  0
ARC
  5
2FD
  8
0
  6
CONTINUOUS
 62
     4
 10
183.0202309465113
 20
43.64331636864783
 30
0.0
 40
116.9999965131284
 50
133.0113497836384
 51
166.3268678755613
  0
ARC
  5
2FE
  8
0
  6
CONTINUOUS
 62
     4
 10
183.0202309465113
 20
43.64331636864783
 30
0.0
 40
110.9999966919423
 50
128.4345766245963
 51
171.565459044421
  0
ARC
  5
2FF
  8
0
  6
CONTINUOUS
 62
     4
 10
183.0202309465113
 20
43.64331636864783
 30
0.0
 40
74.99999776482589
 50
154.7391514203112
 51
205.2608449372232
  0
ARC
  5
300
  8
0
  6
CONTINUOUS
 62
     4
 10
183.0202309465113
 20
43.64331636864783
 30
0.0
 40
104.9999968707563
 50
126.6979463866072
 51
173.30208928241
  0
ARC
  5
301
  8
0
  6
CONTINUOUS
 62
     4
 10
183.0202309465113
 20
43.64331636864783
 30
0.0
 40
104.9999968707563
 50
284.9005947548491
 51
293.3020894339908
  0
ARC
  5
302
  8
0
  6
CONTINUOUS
 62
     4
 10
183.0202309465113
 20
43.64331636864783
 30
0.0
 40
110.9999966919423
 50
248.434535795042
 51
255.9219462575609
  0
ARC
  5
303
  8
0
  6
CONTINUOUS
 62
     4
 10
183.0202309465113
 20
43.64331636864783
 30
0.0
 40
104.9999968707563
 50
246.6979055570529
 51
255.0993865758163
  0
ARC
  5
304
  8
0
  6
CONTINUOUS
 62
     4
 10
183.0202309465113
 20
43.64331636864783
 30
0.0
 40
122.9999963343145
 50
282.6803802934339
 51
291.8275813657792
  0
ARC
  5
305
  8
0
  6
CONTINUOUS
 62
     4
 10
183.0202309465113
 20
43.64331636864783
 30
0.0
 40
110.9999966919423
 50
284.0780350731045
 51
291.5654523658125
  0
ARC
  5
306
  8
0
  6
CONTINUOUS
 62
     4
 10
183.0202309465113
 20
43.64331636864783
 30
0.0
 40
116.9999965131284
 50
283.3423622277915
 51
286.8360927807123
  0
ARC
  5
307
  8
0
  6
CONTINUOUS
 62
     4
 10
183.0202309465113
 20
43.64331636864783
 30
0.0
 40
116.9999965131284
 50
252.4986076342263
 51
256.6576191028738
  0
ARC
  5
308
  8
0
  6
CONTINUOUS
 62
     4
 10
183.0202309465113
 20
43.64331636864783
 30
0.0
 40
104.9999968707563
 50
66.69794471695508
 51
75.09940524515092
  0
ARC
  5
309
  8
0
  6
CONTINUOUS
 62
     4
 10
183.0202309465113
 20
43.64331636864783
 30
0.0
 40
110.9999966919423
 50
68.43456129456584
 51
75.92196492689556
  0
ARC
  5
30A
  8
0
  6
CONTINUOUS
 62
     4
 10
183.0202309465113
 20
43.64331636864783
 30
0.0
 40
116.9999965131284
 50
72.8627095372685
 51
76.65763777220846
  0
ARC
  5
30B
  8
0
  6
CONTINUOUS
 62
     4
 10
183.0202309465113
 20
43.64331636864783
 30
0.0
 40
122.9999963343145
 50
248.1723999648861
 51
257.3196010372314
  0
ARC
  5
30C
  8
0
  6
CONTINUOUS
 62
     4
 10
183.0202309465113
 20
43.64331636864783
 30
0.0
 40
122.9999963343145
 50
68.17241863422075
 51
77.31961287637692
  0
ARC
  5
30D
  8
0
  6
CONTINUOUS
 62
     4
 10
183.0202309465113
 20
43.64331636864783
 30
0.0
 40
74.99999776482589
 50
34.7391275904394
 51
68.89980646007042
  0
ARC
  5
30E
  8
0
  6
CONTINUOUS
 62
     4
 10
183.0202309465113
 20
43.64331636864783
 30
0.0
 40
104.9999968707563
 50
6.697925544943216
 51
53.30207569782207
  0
ARC
  5
30F
  8
0
  6
CONTINUOUS
 62
     4
 10
183.0202309465113
 20
43.64331636864783
 30
0.0
 40
92.9999972283841
 50
286.8772719912183
 51
433.1227280087817
  0
ARC
  5
310
  8
0
  6
CONTINUOUS
 62
     4
 10
183.0202309465113
 20
43.64331636864783
 30
0.0
 40
98.99999704957017
 50
285.8266181421411
 51
434.1733818578589
  0
ARC
  5
311
  8
0
  6
CONTINUOUS
 62
     4
 10
183.0202309465113
 20
43.64331636864783
 30
0.0
 40
80.99999758601196
 50
34.56013565305005
 51
70.52877925636179
  0
ARC
  5
312
  8
0
  6
CONTINUOUS
 62
     4
 10
183.0202309465113
 20
43.64331636864783
 30
0.0
 40
116.9999965131284
 50
13.91693561317682
 51
47.5045769793694
  0
ARC
  5
313
  8
0
  6
CONTINUOUS
 62
     4
 10
183.0202309465113
 20
43.64331636864783
 30
0.0
 40
122.9999963343145
 50
8.172420379663222
 51
51.82759153527265
  0
ARC
  5
314
  8
0
  6
CONTINUOUS
 62
     4
 10
183.0202309465113
 20
43.64331636864783
 30
0.0
 40
110.9999966919423
 50
8.434558771140081
 51
51.56544545983297
  0
CIRCLE
  5
315
  8
0
  6
CONTINUOUS
 62
     4
 10
183.0202309465113
 20
43.64333351149318
 30
0.0
 40
55.00000026822089
  0
CIRCLE
  5
316
  8
0
  6
CONTINUOUS
 62
     4
 10
183.0202309465113
 20
43.64333351149318
 30
0.0
 40
56.50000022351741
  0
CIRCLE
  5
317
  8
0
  6
CONTINUOUS
 62
     4
 10
183.0202309465113
 20
93.64333395852799
 30
0.0
 40
2.500000044703482
  0
CIRCLE
  5
318
  8
0
  6
CONTINUOUS
 62
     4
 10
139.7189455240063
 20
18.64330757370777
 30
0.0
 40
2.500000044703482
  0
CIRCLE
  5
319
  8
0
  6
CONTINUOUS
 62
     4
 10
226.3215163690163
 20
18.64330757370778
 30
0.0
 40
2.500000044703481
  0
LINE
  5
31A
  8
0
  6
CONTINUOUS
 62
     4
 10
-192.9285268822978
 20
96.14331636864783
 30
0.0
 11
-178.9285268822978
 21
96.14331636864783
 31
0.0
  0
LINE
  5
31B
  8
0
  6
CONTINUOUS
 62
     4
 10
-192.9285268822978
 20
91.14331636864783
 30
0.0
 11
-178.9285268822978
 21
91.14331636864783
 31
0.0
  0
LINE
  5
31C
  8
0
  6
CENTER
 62
     7
 10
-279.6845671494049
 20
43.64331636864783
 30
0.0
 11
-146.3801322564423
 21
43.64331636864783
 31
0.0
  0
LINE
  5
31D
  8
0
  6
CENTER
 62
     7
 10
-181.5711964812745
 20
189.9433112456288
 30
0.0
 11
-114.8750314767876
 21
189.9433112456288
 31
0.0
  0
LINE
  5
31E
  8
0
  6
CENTER
 62
     7
 10
-181.5711964812745
 20
144.9433125867332
 30
0.0
 11
-114.5948000093091
 21
144.9433125867332
 31
0.0
  0
LINE
  5
31F
  8
0
  6
CENTER
 62
     7
 10
-185.6405208534074
 20
-34.35667844574823
 30
0.0
 11
-148.5337295093248
 21
-34.35667844574823
 31
0.0
  0
LINE
  5
320
  8
0
  6
CENTER
 62
     7
 10
-220.2909638515055
 20
-94.24992246882763
 30
0.0
 11
-220.2909638515055
 21
-137.5785181353058
 31
0.0
  0
LINE
  5
321
  8
0
  6
CENTER
 62
     7
 10
-7.068257808461906
 20
43.64331636864783
 30
0.0
 11
371.5983846587197
 21
43.64331636864783
 31
0.0
  0
LINE
  5
322
  8
0
  6
CENTER
 62
     7
 10
105.6037985999633
 20
-1.053093891033413
 30
0.0
 11
125.0758521630507
 21
10.18910023323058
 31
0.0
  0
LINE
  5
323
  8
0
  6
CENTER
 62
     7
 10
111.7827581752943
 20
-79.74364504933428
 30
0.0
 11
136.7827644635846
 21
-36.44236990756969
 31
0.0
  0
LINE
  5
324
  8
0
  6
CENTER
 62
     7
 10
111.7827755638008
 20
167.0303092403086
 30
0.0
 11
136.7827782758121
 21
123.72904029284
 31
0.0
  0
LINE
  5
325
  8
0
  6
CENTER
 62
     7
 10
165.6382353097499
 20
189.9433226897202
 30
0.0
 11
200.6716548284168
 21
189.9433226897202
 31
0.0
  0
LINE
  5
326
  8
0
  6
CENTER
 62
     7
 10
165.6382353097499
 20
144.9433240308247
 30
0.0
 11
200.2282191726869
 21
144.9433240308247
 31
0.0
  0
LINE
  5
327
  8
0
  6
CENTER
 62
     7
 10
229.257757854173
 20
123.7289951058178
 30
0.0
 11
254.2577562746494
 21
167.0302566201309
 31
0.0
  0
LINE
  5
328
  8
0
  6
CENTER
 62
     7
 10
229.2577816799817
 20
-36.44234206457642
 30
0.0
 11
254.2577858225046
 21
-79.74361348976336
 31
0.0
  0
LINE
  5
329
  8
0
  6
CENTER
 62
     7
 10
58.64261204888302
 20
171.1433011247604
 30
0.0
 11
102.9135019190829
 21
171.1433011247604
 31
0.0
  0
LINE
  5
32A
  8
0
  6
CENTER
 62
     7
 10
164.976595162232
 20
-102.6566785083331
 30
0.0
 11
201.0542994703334
 21
-102.6566785083331
 31
0.0
  0
LINE
  5
32B
  8
0
  6
CENTER
 62
     7
 10
105.6537516844248
 20
88.31093449542854
 30
0.0
 11
123.7326187628277
 21
77.87309687426168
 31
0.0
  0
LINE
  5
32C
  8
0
  6
CENTER
 62
     7
 10
242.6130322528156
 20
9.237465727440471
 30
0.0
 11
261.105931065894
 21
-1.439413200784609
 31
0.0
  0
LINE
  5
32D
  8
0
  6
CENTER
 62
     7
 10
242.5927969253271
 20
78.03753243004712
 30
0.0
 11
260.9747335883073
 21
88.65034733812107
 31
0.0
  0
LINE
  5
32E
  8
0
  6
CENTER
 62
     7
 10
164.976595162232
 20
-57.6566855714833
 30
0.0
 11
201.0542994703334
 21
-57.6566855714833
 31
0.0
  0
ARC
  5
32F
  8
0
  6
CENTER
 62
     7
 10
183.0202309465113
 20
43.64331636864783
 30
0.0
 40
117.4749949730934
 50
348.3849662031644
 51
360.0
  0
ARC
  5
330
  8
0
  6
CENTER
 62
     7
 10
183.0202309465113
 20
43.64331636864783
 30
0.0
 40
77.99999767541893
 50
202.1005883526157
 51
217.9050723561349
  0
ARC
  5
331
  8
0
  6
CENTER
 62
     7
 10
183.0202309465113
 20
43.64331636864783
 30
0.0
 40
77.99999767541893
 50
20.29427811857584
 51
38.10720315319941
  0
ARC
  5
332
  8
0
  6
CENTER
 62
     7
 10
183.0202309465113
 20
43.64331636864783
 30
0.0
 40
117.4749949730934
 50
288.039469659631
 51
312.7356612643075
  0
ARC
  5
333
  8
0
  6
CENTER
 62
     7
 10
183.0202309465113
 20
43.64331636864783
 30
0.0
 40
77.99999767541893
 50
141.8928086859461
 51
158.130080796034
  0
ARC
  5
334
  8
0
  6
CENTER
 62
     7
 10
183.0202309465113
 20
43.64331636864783
 30
0.0
 40
117.4749949730934
 50
227.7836705753727
 51
251.323207210148
  0
ARC
  5
335
  8
0
  6
CENTER
 62
     7
 10
183.0202309465113
 20
43.64331636864783
 30
0.0
 40
117.4749949730934
 50
168.3474563981045
 51
191.2805268760959
  0
ARC
  5
336
  8
0
  6
CENTER
 62
     7
 10
183.0202309465113
 20
43.64331636864783
 30
0.0
 40
117.4749949730934
 50
107.783711404927
 51
132.2163294246273
  0
ARC
  5
337
  8
0
  6
CENTER
 62
     7
 10
183.0202309465113
 20
43.64331636864783
 30
0.0
 40
117.4749949730934
 50
47.78368924470738
 51
71.1722035667445
  0
ARC
  5
338
  8
0
  6
CENTER
 62
     7
 10
183.0202309465113
 20
43.64331636864783
 30
0.0
 40
77.99999767541893
 50
321.7849959711303
 51
337.3603664015833
  0
ARC
  5
339
  8
0
  6
CENTER
 62
     7
 10
183.0202309465113
 20
43.64331636864783
 30
0.0
 40
117.4749949730934
 50
0.0
 51
12.21631327871837
  0
LINE
  5
33A
  8
0
  6
CENTER
 62
     7
 10
177.0884722426762
 20
93.64333395852799
 30
0.0
 11
189.0409560173238
 21
93.64333395852799
 31
0.0
  0
LINE
  5
33B
  8
0
  6
CENTER
 62
     7
 10
133.0202323770227
 20
51.64333136572602
 30
0.0
 11
133.0202323770227
 21
35.64333565726032
 31
0.0
  0
LINE
  5
33C
  8
0
  6
CENTER
 62
     7
 10
142.6848248759238
 20
13.50625384706716
 30
0.0
 11
136.7085829886
 21
23.85740843423329
 31
0.0
  0
LINE
  5
33D
  8
0
  6
CENTER
 62
     7
 10
229.2873957209338
 20
23.78036130034838
 30
0.0
 11
223.31115383361
 21
13.42920671318225
 31
0.0
  0
LINE
  5
33E
  8
0
  6
CENTER
 62
     7
 10
233.0202409600913
 20
51.64333136572602
 30
0.0
 11
233.0202409600913
 21
35.64333565726032
 31
0.0
  0
LINE
  5
33F
  8
0
  6
CENTER
 62
     7
 10
183.0202309465113
 20
229.1241381724315
 30
0.0
 11
183.0202309465113
 21
70.54289912067415
 31
0.0
  0
LINE
  5
340
  8
0
  6
CENTER
 62
     7
 10
183.0202309465113
 20
58.49819551552906
 30
0.0
 11
183.0202309465113
 21
-139.8727189162401
 31
0.0
  0
LINE
  5
341
  8
0
  6
CONTINUOUS
 62
     7
 10
-150.1792779860752
 20
129.9433130337681
 30
0.0
 11
-106.4744141585628
 21
129.9433130337681
 31
0.0
  0
LINE
  5
342
  8
0
  6
DIVIDE
 62
     9
 10
-307.4855794780011
 20
-73.8316786044456
 30
0.0
 11
-144.8478851977848
 21
-73.8316786044456
 31
0.0
  0
LINE
  5
343
  8
0
  6
DIVIDE
 62
     9
 10
-247.7909782907302
 20
-63.83167699512023
 30
0.0
 11
-247.7909782907302
 21
-83.83168021377095
 31
0.0
  0
LINE
  5
344
  8
0
  6
DIVIDE
 62
     9
 10
-174.7909728369054
 20
-57.83167717393417
 30
0.0
 11
-174.7909728369054
 21
-89.83168003495703
 31
0.0
  0
LINE
  5
345
  8
0
  6
DIVIDE
 62
     9
 10
-174.7909728369054
 20
-58.83167905148042
 30
0.0
 11
-154.7909696182547
 21
-58.83167905148042
 31
0.0
  0
LINE
  5
346
  8
0
  6
DIVIDE
 62
     9
 10
-174.7909728369054
 20
-88.83167815741078
 30
0.0
 11
-154.7909696182547
 21
-88.83167815741078
 31
0.0
  0
LINE
  5
347
  8
0
  6
DIVIDE
 62
     9
 10
-174.7909728369054
 20
-57.83167717393417
 30
0.0
 11
-152.7909773072536
 21
-57.83167717393417
 31
0.0
  0
LINE
  5
348
  8
0
  6
DIVIDE
 62
     9
 10
-174.7909728369054
 20
-89.83168003495703
 30
0.0
 11
-152.7909773072536
 21
-89.83168003495703
 31
0.0
  0
LINE
  5
349
  8
0
  6
DIVIDE
 62
     9
 10
-154.7909696182547
 20
-58.83167905148042
 30
0.0
 11
-154.7909696182547
 21
-88.83167815741078
 31
0.0
  0
LINE
  5
34A
  8
0
  6
DIVIDE
 62
     9
 10
-270.7909928640654
 20
110.1433067573992
 30
0.0
 11
-270.7909928640654
 21
60.16249045214374
 31
0.0
  0
LINE
  5
34B
  8
0
  6
DIVIDE
 62
     9
 10
-154.2909887066416
 20
110.1433067573992
 30
0.0
 11
-154.2909887066416
 21
60.40634115288424
 31
0.0
  0
LINE
  5
34C
  8
0
  6
DIVIDE
 62
     9
 10
-270.7909719279014
 20
110.1433002572757
 30
0.0
 11
-269.7909708961142
 21
111.1433012890629
 31
0.0
  0
LINE
  5
34D
  8
0
  6
DIVIDE
 62
     9
 10
-155.2909862776957
 20
111.1433134273547
 30
0.0
 11
-154.2909852459085
 21
110.1433123955675
 31
0.0
  0
LINE
  5
34E
  8
0
  6
DIVIDE
 62
     9
 10
-163.390746583641
 20
111.1433029128997
 30
0.0
 11
-155.2909848621421
 21
111.1433029128997
 31
0.0
  0
LINE
  5
34F
  8
0
  6
DIVIDE
 62
     9
 10
-269.0909959664871
 20
-83.83168021377095
 30
0.0
 11
-174.7909728369054
 21
-83.83168021377095
 31
0.0
  0
LINE
  5
350
  8
0
  6
DIVIDE
 62
     9
 10
-269.0909959664871
 20
-82.8316783362247
 30
0.0
 11
-247.7909782907302
 21
-82.8316783362247
 31
0.0
  0
LINE
  5
351
  8
0
  6
DIVIDE
 62
     9
 10
-269.0909959664871
 20
-63.83167699512023
 30
0.0
 11
-174.7909728369054
 21
-63.83167699512023
 31
0.0
  0
LINE
  5
352
  8
0
  6
DIVIDE
 62
     9
 10
-269.0909959664871
 20
-64.83167887266649
 30
0.0
 11
-247.7909782907302
 21
-64.83167887266649
 31
0.0
  0
LINE
  5
353
  8
0
  6
DASHED2
 62
     7
 10
-226.2909636726915
 20
-106.3566906050954
 30
0.0
 11
-214.2909640303194
 21
-106.3566906050954
 31
0.0
  0
LINE
  5
354
  8
0
  6
DASHED2
 62
     7
 10
-225.2909789612825
 20
-101.3566869394099
 30
0.0
 11
-215.2909716299114
 21
-101.3566869394099
 31
0.0
  0
LINE
  5
355
  8
0
  6
DASHED2
 62
     7
 10
-225.2909789612825
 20
-101.3566869394099
 30
0.0
 11
-225.2909789612825
 21
-131.3566860453402
 31
0.0
  0
LINE
  5
356
  8
0
  6
DASHED2
 62
     7
 10
-215.2909716299114
 20
-101.3566869394099
 30
0.0
 11
-215.2909716299114
 21
-131.3566860453402
 31
0.0
  0
LINE
  5
357
  8
0
  6
DASHED2
 62
     7
 10
-226.2909636726915
 20
-106.3566906050954
 30
0.0
 11
-226.2909636726915
 21
-131.3566860453402
 31
0.0
  0
LINE
  5
358
  8
0
  6
DASHED2
 62
     7
 10
-214.2909640303194
 20
-106.3566906050954
 30
0.0
 11
-214.2909640303194
 21
-131.3566860453402
 31
0.0
  0
LINE
  5
359
  8
0
  6
DASHED2
 62
     7
 10
-225.2909887568538
 20
-101.3566893426845
 30
0.0
 11
-220.2909922513215
 21
-98.46994033320188
 31
0.0
  0
LINE
  5
35A
  8
0
  6
DASHED2
 62
     7
 10
-220.2909830953628
 20
-98.4699407864631
 30
0.0
 11
-215.2909865898305
 21
-101.3566897959457
 31
0.0
  0
LINE
  5
35B
  8
0
  6
DASHED2
 62
     7
 10
91.02024131771913
 20
183.1433007671325
 30
0.0
 11
107.718967474111
 21
183.1433007671325
 31
0.0
  0
LINE
  5
35C
  8
0
  6
DASHED2
 62
     7
 10
91.02024131771913
 20
159.1433014823882
 30
0.0
 11
107.718967474111
 21
159.1433014823882
 31
0.0
  0
LINE
  5
35D
  8
0
  6
DASHED2
 62
     7
 10
50.67692930288043
 20
158.1433053268877
 30
0.0
 11
91.02024131771913
 21
158.1433053268877
 31
0.0
  0
LINE
  5
35E
  8
0
  6
DASHED2
 62
     7
 10
79.02023595330125
 20
173.5432987644165
 30
0.0
 11
79.02023595330125
 21
168.7433149291957
 31
0.0
  0
LINE
  5
35F
  8
0
  6
DASHED2
 62
     7
 10
81.72023472842584
 20
174.4432964487761
 30
0.0
 11
81.72023472842584
 21
167.8433058007446
 31
0.0
  0
LINE
  5
360
  8
0
  6
DASHED2
 62
     7
 10
87.45898882985858
 20
165.4433081610885
 30
0.0
 11
90.58148629539465
 21
165.4433081610885
 31
0.0
  0
LINE
  5
361
  8
0
  6
DASHED2
 62
     7
 10
87.45898882985858
 20
176.8432826443408
 30
0.0
 11
90.58148629539465
 21
176.8432826443408
 31
0.0
  0
LINE
  5
362
  8
0
  6
DASHED2
 62
     7
 10
91.02024131771913
 20
192.5090307736566
 30
0.0
 11
91.02024131771913
 21
158.1433053268877
 31
0.0
  0
LINE
  5
363
  8
0
  6
DASHED2
 62
     7
 10
81.72027497124257
 20
174.4432206537553
 30
0.0
 11
79.02027101669953
 21
173.5432194486663
 31
0.0
  0
LINE
  5
364
  8
0
  6
DASHED2
 62
     7
 10
82.72023088392638
 20
173.8886356681872
 30
0.0
 11
82.72023088392638
 21
168.3478300166657
 31
0.0
  0
LINE
  5
365
  8
0
  6
DASHED2
 62
     7
 10
87.02023380753411
 20
175.593290310988
 30
0.0
 11
87.02023380753411
 21
166.6933119385327
 31
0.0
  0
LINE
  5
366
  8
0
  6
DASHED2
 62
     7
 10
87.76411691829924
 20
174.0369510934545
 30
0.0
 11
90.27635248490827
 21
174.0369510934545
 31
0.0
  0
LINE
  5
367
  8
0
  6
DASHED2
 62
     7
 10
87.76411691829924
 20
168.2496397119748
 30
0.0
 11
90.27635248490827
 21
168.2496397119748
 31
0.0
  0
LINE
  5
368
  8
0
  6
DASHED2
 62
     7
 10
91.02024131771913
 20
175.6433009906499
 30
0.0
 11
97.78740725373717
 21
175.6433009906499
 31
0.0
  0
LINE
  5
369
  8
0
  6
DASHED2
 62
     7
 10
81.72023331667205
 20
167.8432152400018
 30
0.0
 11
79.020229362129
 21
168.7432164450908
 31
0.0
  0
LINE
  5
36A
  8
0
  6
DASHED2
 62
     7
 10
91.02024131771913
 20
174.6433048351494
 30
0.0
 11
97.78740725373717
 21
174.6433048351494
 31
0.0
  0
LINE
  5
36B
  8
0
  6
DASHED2
 62
     7
 10
91.02024131771913
 20
167.6433088584628
 30
0.0
 11
97.78740725373717
 21
167.6433088584628
 31
0.0
  0
LINE
  5
36C
  8
0
  6
DASHED2
 62
     7
 10
91.02024131771913
 20
166.6433012588708
 30
0.0
 11
97.55440555169679
 21
166.6433012588708
 31
0.0
  0
LINE
  5
36D
  8
0
  6
DASHED2
 62
     7
 10
33.02023827788234
 20
49.6433161898339
 30
0.0
 11
33.02023827788234
 21
37.64331654746175
 31
0.0
  0
LINE
  5
36E
  8
0
  6
DASHED2
 62
     7
 10
38.02024253825768
 20
38.64331896471546
 30
0.0
 11
40.9069949249545
 21
43.6433200815573
 31
0.0
  0
LINE
  5
36F
  8
0
  6
DASHED2
 62
     7
 10
38.02023806195676
 20
48.64331443266819
 30
0.0
 11
40.90698758763038
 21
43.64331827126323
 31
0.0
  0
LINE
  5
370
  8
0
  6
DASHED2
 62
     7
 10
38.02023908254501
 20
48.64331717331051
 30
0.0
 11
38.02023908254501
 21
38.64331842500801
 31
0.0
  0
ARC
  5
371
  8
0
  6
DASHED2
 62
     7
 10
89.02023756262662
 20
166.6933119385327
 30
0.0
 40
2.0
 50
128.906856884946
 51
218.6821529959199
  0
ARC
  5
372
  8
0
  6
DASHED2
 62
     7
 10
89.02023756262662
 20
166.6933119385327
 30
0.0
 40
2.0
 50
321.3178110319014
 51
360.0
  0
ARC
  5
373
  8
0
  6
DASHED2
 62
     7
 10
83.05343705075387
 20
179.9432924701662
 30
0.0
 40
5.649999807775027
 50
265.9910930942637
 51
315.0592540539054
  0
ARC
  5
374
  8
0
  6
DASHED2
 62
     7
 10
83.05343705075387
 20
162.3432983352631
 30
0.0
 40
5.649999807775027
 50
44.94074594609464
 51
94.00890690573628
  0
ARC
  5
375
  8
0
  6
DASHED2
 62
     7
 10
79.72023097333333
 20
171.1433011247604
 30
0.0
 40
1.499999955296518
 50
117.818154050457
 51
242.1818423070773
  0
ARC
  5
376
  8
0
  6
DASHED2
 62
     7
 10
85.02023577448733
 20
171.1433011247604
 30
0.0
 40
5.999999821186071
 50
331.1657621923334
 51
360.0
  0
ARC
  5
377
  8
0
  6
DASHED2
 62
     7
 10
89.02023756262662
 20
175.593290310988
 30
0.0
 40
2.0
 50
308.9068348005167
 51
360.0
  0
ARC
  5
378
  8
0
  6
DASHED2
 62
     7
 10
89.02023756262662
 20
166.6933119385327
 30
0.0
 40
2.0
 50
0.0
 51
51.09316519948327
  0
ARC
  5
379
  8
0
  6
DASHED2
 62
     7
 10
89.02023756262662
 20
175.593290310988
 30
0.0
 40
2.0
 50
141.3178297012361
 51
231.0931121518317
  0
ARC
  5
37A
  8
0
  6
DASHED2
 62
     7
 10
89.02023756262662
 20
175.593290310988
 30
0.0
 40
2.0
 50
0.0
 51
38.68218896809859
  0
ARC
  5
37B
  8
0
  6
DASHED2
 62
     7
 10
81.72023472842584
 20
171.1433011247604
 30
0.0
 40
3.299999973177911
 50
73.48282241201396
 51
89.99998201391065
  0
ARC
  5
37C
  8
0
  6
DASHED2
 62
     7
 10
81.72023472842584
 20
171.1433011247604
 30
0.0
 40
3.299999973177911
 50
270.0000179860894
 51
286.5171775879861
  0
ARC
  5
37D
  8
0
  6
DASHED2
 62
     7
 10
85.02023577448733
 20
171.1433011247604
 30
0.0
 40
5.999999821186071
 50
0.0
 51
28.83423780766662
  0
ARC
  5
37E
  8
0
  6
DASHED2
 62
     7
 10
93.02023362872018
 20
171.1433011247604
 30
0.0
 40
5.999999821186071
 50
151.1657740314789
 51
208.8342086656771
  0
LINE
  5
37F
  8
0
  6
DASHED2
 62
     7
 10
8.091681148039013
 20
38.64331842500801
 30
0.0
 11
38.02023908254501
 21
38.64331842500801
 31
0.0
  0
LINE
  5
380
  8
0
  6
DASHED2
 62
     7
 10
8.091681148039013
 20
48.64331717331051
 30
0.0
 11
38.02023908254501
 21
48.64331717331051
 31
0.0
  0
LINE
  5
381
  8
0
  6
DASHED2
 62
     7
 10
8.123129511359592
 20
37.64331654746175
 30
0.0
 11
33.02023827788234
 21
37.64331654746175
 31
0.0
  0
LINE
  5
382
  8
0
  6
DASHED2
 62
     7
 10
8.123129511359592
 20
49.6433161898339
 30
0.0
 11
33.02023827788234
 21
49.6433161898339
 31
0.0
  0
LINE
  5
383
  8
0
  6
CENTER
 62
     7
 10
-196.2470083276103
 20
93.64331636864783
 30
0.0
 11
-174.6816549340556
 21
93.64331636864783
 31
0.0
  0
LINE
  5
384
  8
LAYER0014
  6
CONTINUOUS
 62
     7
 10
-176.9285345712968
 20
19.32633434722609
 30
0.0
 11
-166.7835191570891
 21
19.32633434722609
 31
0.0
  0
LINE
  5
385
  8
LAYER0014
  6
CONTINUOUS
 62
     7
 10
-152.7909773072536
 20
4.67146427387394
 30
0.0
 11
-132.3052667330212
 21
4.67146427387394
 31
0.0
  0
LINE
  5
386
  8
LAYER0014
  6
CONTINUOUS
 62
     7
 10
-269.0909959664871
 20
240.1399917259695
 30
0.0
 11
-310.3040965849997
 21
240.1399917259695
 31
0.0
  0
LINE
  5
387
  8
LAYER0014
  6
CONTINUOUS
 62
     7
 10
-153.7909734627542
 20
240.1399917259695
 30
0.0
 11
-165.4015764492507
 21
240.1399917259695
 31
0.0
  0
INSERT
  5
388
  8
LAYER0014
  6
CONTINUOUS
  2
DA_IMAGEDIMGROUP_1
 10
0.0
 20
0.0
 30
0.0
  0
INSERT
  5
389
  8
LAYER0014
  6
CONTINUOUS
  2
DA_IMAGEDIMGROUP_2
 10
0.0
 20
0.0
 30
0.0
  0
INSERT
  5
38A
  8
LAYER0014
  6
CONTINUOUS
  2
DA_IMAGEDIMGROUP_3
 10
0.0
 20
0.0
 30
0.0
  0
INSERT
  5
38B
  8
LAYER0014
  6
CONTINUOUS
  2
DA_IMAGEDIMGROUP_4
 10
0.0
 20
0.0
 30
0.0
  0
INSERT
  5
38C
  8
LAYER0014
  6
CONTINUOUS
  2
DA_IMAGEDIMGROUP_5
 10
0.0
 20
0.0
 30
0.0
  0
INSERT
  5
38D
  8
LAYER0014
  6
CONTINUOUS
  2
DA_IMAGEDIMGROUP_6
 10
0.0
 20
0.0
 30
0.0
  0
INSERT
  5
38E
  8
LAYER0014
  6
CONTINUOUS
  2
DA_IMAGEDIMGROUP_7
 10
0.0
 20
0.0
 30
0.0
  0
INSERT
  5
38F
  8
LAYER0014
  6
CONTINUOUS
  2
DA_IMAGEDIMGROUP_8
 10
0.0
 20
0.0
 30
0.0
  0
INSERT
  5
390
  8
LAYER0014
  6
CONTINUOUS
  2
DA_IMAGEDIMGROUP_9
 10
0.0
 20
0.0
 30
0.0
  0
INSERT
  5
391
  8
LAYER0014
  6
CONTINUOUS
  2
DA_IMAGEDIMGROUP_10
 10
0.0
 20
0.0
 30
0.0
  0
INSERT
  5
392
  8
LAYER0014
  6
CONTINUOUS
  2
DA_IMAGEDIMGROUP_11
 10
0.0
 20
0.0
 30
0.0
  0
INSERT
  5
393
  8
LAYER0014
  6
CONTINUOUS
  2
DA_IMAGEDIMGROUP_12
 10
0.0
 20
0.0
 30
0.0
  0
INSERT
  5
394
  8
LAYER0014
  6
CONTINUOUS
  2
DA_IMAGEDIMGROUP_13
 10
0.0
 20
0.0
 30
0.0
  0
INSERT
  5
395
  8
LAYER0014
  6
CONTINUOUS
  2
DA_IMAGEDIMGROUP_14
 10
0.0
 20
0.0
 30
0.0
  0
INSERT
  5
396
  8
LAYER0014
  6
CONTINUOUS
  2
DA_IMAGEDIMGROUP_15
 10
0.0
 20
0.0
 30
0.0
  0
INSERT
  5
397
  8
LAYER0014
  6
CONTINUOUS
  2
DA_IMAGEDIMGROUP_16
 10
0.0
 20
0.0
 30
0.0
  0
INSERT
  5
398
  8
LAYER0014
  6
CONTINUOUS
  2
DA_IMAGEDIMGROUP_17
 10
0.0
 20
0.0
 30
0.0
  0
INSERT
  5
399
  8
LAYER0014
  6
CONTINUOUS
  2
DA_IMAGEDIMGROUP_18
 10
0.0
 20
0.0
 30
0.0
  0
INSERT
  5
39A
  8
LAYER0014
  6
CONTINUOUS
  2
DA_IMAGEDIMGROUP_19
 10
0.0
 20
0.0
 30
0.0
  0
INSERT
  5
39B
  8
LAYER0014
  6
CONTINUOUS
  2
DA_IMAGEDIMGROUP_20
 10
0.0
 20
0.0
 30
0.0
  0
INSERT
  5
39C
  8
LAYER0014
  6
CONTINUOUS
  2
DC_GROUP_1
 10
0.0
 20
0.0
 30
0.0
  0
INSERT
  5
39D
  8
LAYER0014
  6
CONTINUOUS
  2
DC_GROUP_2
 10
0.0
 20
0.0
 30
0.0
  0
INSERT
  5
39E
  8
LAYER0014
  6
CONTINUOUS
  2
DC_GROUP_3
 10
0.0
 20
0.0
 30
0.0
  0
INSERT
  5
39F
  8
LAYER0014
  6
CONTINUOUS
  2
DA_IMAGEDIMGROUP_21
 10
0.0
 20
0.0
 30
0.0
  0
INSERT
  5
3A0
  8
LAYER0014
  6
CONTINUOUS
  2
DA_IMAGEDIMGROUP_22
 10
0.0
 20
0.0
 30
0.0
  0
INSERT
  5
3A1
  8
LAYER0014
  6
CONTINUOUS
  2
DA_IMAGEDIMGROUP_26
 10
0.0
 20
0.0
 30
0.0
  0
INSERT
  5
3A2
  8
LAYER0014
  6
CONTINUOUS
  2
DA_IMAGEDIMGROUP_27
 10
0.0
 20
0.0
 30
0.0
  0
INSERT
  5
3A3
  8
LAYER0014
  6
CONTINUOUS
  2
DA_IMAGEDIMGROUP_28
 10
0.0
 20
0.0
 30
0.0
  0
INSERT
  5
3A4
  8
LAYER0014
  6
CONTINUOUS
  2
DA_IMAGEDIMGROUP_29
 10
0.0
 20
0.0
 30
0.0
  0
INSERT
  5
3A5
  8
LAYER0014
  6
CONTINUOUS
  2
DA_IMAGEDIMGROUP_30
 10
0.0
 20
0.0
 30
0.0
  0
INSERT
  5
3A6
  8
LAYER0014
  6
CONTINUOUS
  2
DA_IMAGEDIMGROUP_31
 10
0.0
 20
0.0
 30
0.0
  0
INSERT
  5
3A7
  8
LAYER0014
  6
CONTINUOUS
  2
DC_GROUP_4
 10
0.0
 20
0.0
 30
0.0
  0
INSERT
  5
3A8
  8
LAYER0014
  6
CONTINUOUS
  2
DA_IMAGEDIMGROUP_32
 10
0.0
 20
0.0
 30
0.0
  0
INSERT
  5
3A9
  8
LAYER0014
  6
CONTINUOUS
  2
DA_IMAGEDIMGROUP_33
 10
0.0
 20
0.0
 30
0.0
  0
INSERT
  5
3AA
  8
LAYER0014
  6
CONTINUOUS
  2
DC_GROUP_5
 10
0.0
 20
0.0
 30
0.0
  0
INSERT
  5
3AB
  8
0
  6
CONTINUOUS
  2
DA_IMAGEDIMGROUP_23
 10
0.0
 20
0.0
 30
0.0
  0
INSERT
  5
3AC
  8
0
  6
CONTINUOUS
  2
DA_IMAGEDIMGROUP_24
 10
0.0
 20
0.0
 30
0.0
  0
INSERT
  5
3AD
  8
0
  6
CONTINUOUS
  2
DA_IMAGEDIMGROUP_25
 10
0.0
 20
0.0
 30
0.0
  0
INSERT
  5
3AE
  8
0
  6
CONTINUOUS
  2
DA_IMAGEDIMGROUP_34
 10
0.0
 20
0.0
 30
0.0
  0
INSERT
  5
3AF
  8
0
  6
CONTINUOUS
  2
DC_GROUP_6
 10
0.0
 20
0.0
 30
0.0
  0
LINE
  5
3B0
  8
0
  6
CONTINUOUS
 62
     2
 10
115.7091108449882
 20
-53.14306263069148
 30
0.0
 11
124.2827573557879
 21
-48.19307002911517
 31
0.0
  0
LINE
  5
3B1
  8
0
  6
CONTINUOUS
 62
     2
 10
124.2827489855866
 20
-48.19298536081801
 30
0.0
 11
132.8563957311378
 21
-53.14298819948818
 31
0.0
  0
LINE
  5
3B2
  8
0
  6
CONTINUOUS
 62
     2
 10
132.8563835645573
 20
-53.14301001630405
 30
0.0
 11
132.8563835645573
 21
-63.0430131544885
 31
0.0
  0
LINE
  5
3B3
  8
0
  6
CONTINUOUS
 62
     2
 10
132.8564049731938
 20
-63.0430747646673
 30
0.0
 11
124.2827602326506
 21
-67.99306943154284
 31
0.0
  0
LINE
  5
3B4
  8
0
  6
CONTINUOUS
 62
     2
 10
124.2827271250076
 20
-67.99300020614155
 30
0.0
 11
115.7090786091989
 21
-63.04300031790051
 31
0.0
  0
LINE
  5
3B5
  8
0
  6
CONTINUOUS
 62
     2
 10
115.7090833553718
 20
-63.04300743244277
 30
0.0
 11
115.7090833553718
 21
-53.14300429425832
 31
0.0
  0
LINE
  5
3B6
  8
0
  6
CONTINUOUS
 62
     2
 10
175.9621070197361
 20
149.0183220044939
 30
0.0
 11
183.0202392387617
 21
153.0933265605013
 31
0.0
  0
LINE
  5
3B7
  8
0
  6
CONTINUOUS
 62
     2
 10
183.0202837892554
 20
153.0934006852111
 30
0.0
 11
190.0783810297519
 21
149.018392217632
 31
0.0
  0
LINE
  5
3B8
  8
0
  6
CONTINUOUS
 62
     2
 10
190.0783400196105
 20
149.0183017841368
 30
0.0
 11
190.0783400196105
 21
140.8683119452383
 31
0.0
  0
LINE
  5
3B9
  8
0
  6
CONTINUOUS
 62
     2
 10
190.0783503543228
 20
140.8682955421025
 30
0.0
 11
183.0202181352972
 21
136.7932907432056
 31
0.0
  0
LINE
  5
3BA
  8
0
  6
CONTINUOUS
 62
     2
 10
183.0202267738024
 20
136.7933200817048
 30
0.0
 11
175.9621271044179
 21
140.868323691508
 31
0.0
  0
LINE
  5
3BB
  8
0
  6
CONTINUOUS
 62
     2
 10
175.9621333175035
 20
140.8683233893297
 30
0.0
 11
175.9621333175035
 21
149.0183361164111
 31
0.0
  0
LINE
  5
3BC
  8
0
  6
CONTINUOUS
 62
     2
 10
175.9621501766484
 20
194.0183280876763
 30
0.0
 11
183.020282395674
 21
198.0933326436837
 31
0.0
  0
LINE
  5
3BD
  8
0
  6
CONTINUOUS
 62
     2
 10
183.0203255063638
 20
198.0934357400787
 30
0.0
 11
190.0784227468603
 21
194.0184272724996
 31
0.0
  0
LINE
  5
3BE
  8
0
  6
CONTINUOUS
 62
     2
 10
190.0783400196105
 20
194.0183004430323
 30
0.0
 11
190.0783400196105
 21
185.8683106041338
 31
0.0
  0
LINE
  5
3BF
  8
0
  6
CONTINUOUS
 62
     2
 10
190.0783937803132
 20
185.8682998181172
 30
0.0
 11
183.0202615612875
 21
181.7932950192202
 31
0.0
  0
LINE
  5
3C0
  8
0
  6
CONTINUOUS
 62
     2
 10
183.0202126020619
 20
181.7932626087549
 30
0.0
 11
175.9621129326774
 21
185.8682662185581
 31
0.0
  0
LINE
  5
3C1
  8
0
  6
CONTINUOUS
 62
     2
 10
175.9621333175035
 20
185.8683106041338
 30
0.0
 11
175.9621333175035
 21
194.0183004430323
 31
0.0
  0
LINE
  5
3C2
  8
0
  6
CONTINUOUS
 62
     2
 10
183.0202716790827
 20
-49.50667425814714
 30
0.0
 11
190.078373875012
 21
-53.5816855867566
 31
0.0
  0
LINE
  5
3C3
  8
0
  6
CONTINUOUS
 62
     2
 10
190.0783400196105
 20
-53.58169637407978
 30
0.0
 11
190.0783400196105
 21
-61.73169765706972
 31
0.0
  0
LINE
  5
3C4
  8
0
  6
CONTINUOUS
 62
     2
 10
190.0783002811185
 20
-61.73165365895994
 30
0.0
 11
183.0201977947326
 21
-65.80664129175045
 31
0.0
  0
LINE
  5
3C5
  8
0
  6
CONTINUOUS
 62
     2
 10
183.0202142065435
 20
-65.80667200212596
 30
0.0
 11
175.9621194925935
 21
-61.73167125334974
 31
0.0
  0
LINE
  5
3C6
  8
0
  6
CONTINUOUS
 62
     2
 10
175.9621333175035
 20
-61.73168049093254
 30
0.0
 11
175.9621333175035
 21
-53.5816792079426
 31
0.0
  0
LINE
  5
3C7
  8
0
  6
CONTINUOUS
 62
     2
 10
175.9621364849378
 20
-98.58166872697836
 30
0.0
 11
183.0202389713238
 21
-94.50668133707649
 31
0.0
  0
LINE
  5
3C8
  8
0
  6
CONTINUOUS
 62
     2
 10
183.020274408722
 20
-94.50668954956626
 30
0.0
 11
190.0783567829202
 21
-98.58168943405426
 31
0.0
  0
LINE
  5
3C9
  8
0
  6
CONTINUOUS
 62
     2
 10
190.0783400196105
 20
-98.58168931092959
 30
0.0
 11
190.0783400196105
 21
-106.7316791498281
 31
0.0
  0
LINE
  5
3CA
  8
0
  6
CONTINUOUS
 62
     2
 10
175.9620945300942
 20
-53.58167544312236
 30
0.0
 11
183.0202069273601
 21
-49.50668233118533
 31
0.0
  0
LINE
  5
3CB
  8
0
  6
CONTINUOUS
 62
     2
 10
190.0782850545768
 20
-106.7316152250729
 30
0.0
 11
183.0201825681908
 21
-110.8066028578634
 31
0.0
  0
LINE
  5
3CC
  8
0
  6
CONTINUOUS
 62
     2
 10
183.0202245451869
 20
-110.8066783886558
 30
0.0
 11
175.9621199203679
 21
-106.7316719178257
 31
0.0
  0
LINE
  5
3CD
  8
0
  6
CONTINUOUS
 62
     2
 10
175.9621333175035
 20
-106.7316791498281
 30
0.0
 11
175.9621333175035
 21
-98.58168931092959
 31
0.0
  0
CIRCLE
  5
3CE
  8
0
  6
CONTINUOUS
 62
     2
 10
183.0202309465113
 20
-57.6566855714833
 30
0.0
 40
11.99999964237214
  0
CIRCLE
  5
3CF
  8
0
  6
CONTINUOUS
 62
     2
 10
183.0202309465113
 20
-102.6566785083331
 30
0.0
 40
11.99999964237214
  0
CIRCLE
  5
3D0
  8
0
  6
CONTINUOUS
 62
     2
 10
124.2827334599645
 20
-58.09300872437341
 30
0.0
 40
14.99999955296518
  0
CIRCLE
  5
3D1
  8
0
  6
CONTINUOUS
 62
     2
 10
183.0202309465113
 20
144.9433240308247
 30
0.0
 40
11.99999964237214
  0
CIRCLE
  5
3D2
  8
0
  6
CONTINUOUS
 62
     2
 10
183.0202309465113
 20
189.9433226897202
 30
0.0
 40
11.99999964237214
  0
LINE
  5
3D3
  8
0
  6
CONTINUOUS
 62
     5
 10
232.7960158560425
 20
188.0801855538979
 30
0.0
 11
237.9869846436608
 21
185.0831779159494
 31
0.0
  0
LINE
  5
3D4
  8
0
  6
CONTINUOUS
 62
     5
 10
234.160664448594
 20
188.4457947567283
 30
0.0
 11
232.7960083449455
 21
188.0801361685355
 31
0.0
  0
LINE
  5
3D5
  8
0
  6
CONTINUOUS
 62
     5
 10
233.1617210015083
 20
186.715535548036
 30
0.0
 11
232.7960591987364
 21
188.0802026216179
 31
0.0
  0
LINE
  5
3D6
  8
0
  6
CONTINUOUS
 62
     5
 10
237.9869433785623
 20
185.0831712057668
 30
0.0
 11
237.6212726899358
 21
186.4478714417767
 31
0.0
  0
LINE
  5
3D7
  8
0
  6
CONTINUOUS
 62
     5
 10
237.9869494585197
 20
185.0831546763118
 30
0.0
 11
236.6222712465846
 21
184.7174901642201
 31
0.0
  0
LINE
  5
3D8
  8
0
  6
CONTINUOUS
 62
     5
 10
226.9358231174605
 20
179.9281049114465
 30
0.0
 11
236.9258295038006
 21
197.2313011672617
 31
0.0
  0
LINE
  5
3D9
  8
0
  6
CONTINUOUS
 62
     5
 10
226.8043673708357
 20
194.4245146502052
 30
0.0
 11
226.3334270419025
 21
193.1976732885296
 31
0.0
  0
LINE
  5
3DA
  8
0
  6
CONTINUOUS
 62
     5
 10
226.8044342920987
 20
194.4245355159246
 30
0.0
 11
225.5776355096905
 21
194.8954592050984
 31
0.0
  0
LINE
  5
3DB
  8
0
  6
CONTINUOUS
 62
     5
 10
236.9258394146744
 20
197.2312954452152
 30
0.0
 11
228.2742511976406
 21
202.2262929163389
 31
0.0
  0
LINE
  5
3DC
  8
0
  6
CONTINUOUS
 62
     5
 10
218.2842120122411
 20
184.9230627390752
 30
0.0
 11
228.2742183985812
 21
202.2262589948903
 31
0.0
  0
LINE
  5
3DD
  8
0
  6
CONTINUOUS
 62
     5
 10
226.9358101401486
 20
179.9280595459051
 30
0.0
 11
213.9584327700348
 21
187.4205528915674
 31
0.0
  0
LINE
  5
3DE
  8
0
  6
CONTINUOUS
 62
     5
 10
213.958422859161
 20
187.4205586136138
 30
0.0
 11
215.4569352612049
 21
190.0160578737336
 31
0.0
  0
LINE
  5
3DF
  8
0
  6
CONTINUOUS
 62
     5
 10
216.7546848912647
 20
189.2668016727117
 30
0.0
 11
215.4569749046999
 21
190.0160349855479
 31
0.0
  0
LINE
  5
3E0
  8
0
  6
CONTINUOUS
 62
     5
 10
216.754674980391
 20
189.2668073947581
 30
0.0
 11
217.753675619025
 21
190.9971270203396
 31
0.0
  0
LINE
  5
3E1
  8
0
  6
CONTINUOUS
 62
     5
 10
219.0514237158658
 20
190.2478452755238
 30
0.0
 11
217.7536740858059
 21
190.9971014765457
 31
0.0
  0
LINE
  5
3E2
  8
0
  6
CONTINUOUS
 62
     5
 10
219.0514382263968
 20
190.247916184859
 30
0.0
 11
220.050427420938
 21
191.9782159886931
 31
0.0
  0
LINE
  5
3E3
  8
0
  6
CONTINUOUS
 62
     5
 10
221.7807256915529
 20
190.979201250358
 30
0.0
 11
220.0504159768452
 21
191.9781961669456
 31
0.0
  0
LINE
  5
3E4
  8
0
  6
CONTINUOUS
 62
     5
 10
220.0686485998105
 20
194.2748014093105
 30
0.0
 11
219.702977911184
 21
195.6395016453204
 31
0.0
  0
LINE
  5
3E5
  8
0
  6
CONTINUOUS
 62
     5
 10
217.7318183093641
 20
192.225374559253
 30
0.0
 11
219.7029374125978
 21
195.6394525255569
 31
0.0
  0
LINE
  5
3E6
  8
0
  6
CONTINUOUS
 62
     5
 10
219.7029151093583
 20
195.6393986547121
 30
0.0
 11
218.3382590057098
 21
195.2737400665193
 31
0.0
  0
ARC
  5
3E7
  8
0
  6
CONTINUOUS
 62
     5
 10
227.7093508610096
 20
191.047116754725
 30
0.0
 40
3.496502533659263
 50
105.000095129445
 51
399.9999473825818
  0
TEXT
  5
3E8
  8
0
 62
     5
 10
293.7960484339057
 20
151.3375539497091
 30
0.0
 40
3.29999997317791
  1
F MAX   24KN
 50
150.0
 41
0.7991006797878637
  7
FDASTYLE1
 72
     5
 11
258.912411611151
 21
171.4776310596396
 31
0.0
  0
TEXT
  5
3E9
  8
0
 62
     5
 10
82.01883834754483
 20
-79.10520709961259
 30
0.0
 40
5.999999821186072
  1
NIKKO
 50
-30.0
 41
0.7674420646811843
  7
FDASTYLE1
 72
     5
 11
106.5149857707541
 21
-93.24806440851124
 31
0.0
  0
TEXT
  5
3EA
  8
0
 62
     5
 10
119.0371539117626
 20
-99.17870807825373
 30
0.0
 40
3.749999888241295
  1
  HF2-14
 50
-30.0
 41
0.7714287043980488
  7
FDASTYLE1
 72
     5
 11
144.0900295016251
 21
-113.642992544035
 31
0.0
  0
TEXT
  5
3EB
  8
0
 62
     5
 10
114.3751513323671
 20
-107.2535101468805
 30
0.0
 40
3.749999888241295
  1
  0001
 50
-30.0
 41
0.7692309788346076
  7
FDASTYLE1
 72
     5
 11
132.932838677993
 21
-117.9677959314146
 31
0.0
  0
TEXT
  5
3EC
  8
0
 62
     5
 10
296.460049819356
 20
155.9517200719618
 30
0.0
 40
3.29999997317791
  1
ΣS MAX  98KN
 50
150.0
 41
0.804245260758689
  7
FDASTYLE1
 72
     5
 11
261.5764129966013
 21
176.0917971818924
 31
0.0
  0
TEXT
  5
3ED
  8
0
 62
     5
 10
299.1240512048063
 20
160.5659205264889
 30
0.0
 40
3.29999997317791
  1
N MAX 2600 AT ΣS MAX
 50
150.0
 41
0.8037156471498167
  7
FDASTYLE1
 72
     5
 11
240.4174435580948
 21
194.4601962545276
 31
0.0
  0
TEXT
  5
3EE
  8
0
 62
     5
 10
235.2210372782656
 20
183.7713793849354
 30
0.0
 40
3.29999997317791
  1
F
 50
150.0
 41
0.8791212953411247
  7
FDASTYLE1
 72
     5
 11
232.7086107619345
 21
185.2219295104584
 31
0.0
  0
TEXT
  5
3EF
  8
0
 62
     5
 10
231.2397245747062
 20
197.6348237024121
 30
0.0
 40
3.29999997317791
  1
N min
 50
150.0
 41
0.7983872483090685
  7
FDASTYLE1
 72
     5
 11
217.0932001989269
 21
205.8023233588658
 31
0.0
  0
TEXT
  5
3F0
  8
0
 62
     5
 10
215.2761385609497
 20
204.1400785527212
 30
0.0
 40
1.649999986588955
  1
-1
 50
150.0
 41
0.7826088749065864
  7
FDASTYLE1
 72
     5
 11
212.704042931301
 21
205.6250786568803
 31
0.0
  0
TEXT
  5
3F1
  8
0
 62
     5
 10
217.6002034528215
 20
196.5632186033183
 30
0.0
 40
3.29999997317791
  1
ΣS
 50
150.0
 41
0.9590411643362198
  7
FDASTYLE1
 72
     5
 11
211.5703813776866
 21
200.0445380015629
 31
0.0
  0
LINE
  5
3F2
  8
0
  6
CONTINUOUS
 62
     6
 10
-122.4173487632862
 20
-206.853849984126
 30
0.0
 11
104.7478506129035
 21
-206.853849984126
 31
0.0
  0
LINE
  5
3F3
  8
0
  6
CONTINUOUS
 62
     6
 10
-122.4173487632862
 20
-195.0343190863754
 30
0.0
 11
104.7478506129035
 21
-195.0343190863754
 31
0.0
  0
LINE
  5
3F4
  8
0
  6
CONTINUOUS
 62
     6
 10
-122.4173487632862
 20
-183.2148156544444
 30
0.0
 11
104.7478506129035
 21
-183.2148156544444
 31
0.0
  0
LINE
  5
3F5
  8
0
  6
CONTINUOUS
 62
     6
 10
-119.771380977152
 20
-171.3952984896036
 30
0.0
 11
-81.08764876209713
 21
-171.3952984896036
 31
0.0
  0
LINE
  5
3F6
  8
0
  6
CONTINUOUS
 62
     6
 10
-122.4173487632862
 20
-218.673353416057
 30
0.0
 11
104.7478506129035
 21
-218.673353416057
 31
0.0
  0
LINE
  5
3F7
  8
0
  6
CONTINUOUS
 62
     6
 10
-122.4173487632862
 20
-230.4928843138075
 30
0.0
 11
104.7478506129035
 21
-230.4928843138075
 31
0.0
  0
LINE
  5
3F8
  8
0
  6
CONTINUOUS
 62
     6
 10
-122.4173487632862
 20
-242.312415211558
 30
0.0
 11
104.7478506129035
 21
-242.312415211558
 31
0.0
  0
LINE
  5
3F9
  8
0
  6
CONTINUOUS
 62
     6
 10
-122.4173487632862
 20
-254.1319461093086
 30
0.0
 11
104.7478506129035
 21
-254.1319461093086
 31
0.0
  0
LINE
  5
3FA
  8
0
  6
CONTINUOUS
 62
     6
 10
-122.4173487632862
 20
-265.9514495412396
 30
0.0
 11
104.7478506129035
 21
-265.9514495412396
 31
0.0
  0
CIRCLE
  5
3FB
  8
0
  6
CONTINUOUS
 62
     3
 10
183.0202985043328
 20
43.64333351149318
 30
0.0
 40
45.25
  0
CIRCLE
  5
3FC
  8
0
  6
CONTINUOUS
 62
     3
 10
133.0202323770227
 20
43.64331636864783
 30
0.0
 40
3.1
  0
CIRCLE
  5
3FD
  8
0
  6
CONTINUOUS
 62
     3
 10
233.0202409600913
 20
43.64331636864783
 30
0.0
 40
3.1
  0
VIEWPORT
  5
48
 67
     1
  8
0
 10
0.0
 20
0.0
 30
0.0
 40
2493.0
 41
1710.0
 68
     1
 69
     1
1001
ACAD
1000
MVIEW
1002
{
1070
    16
1010
0.0
1020
0.0
1030
0.0
1020
0.0
1030
0.0
1010
0.0
1020
0.0
1030
1.0
1020
0.0
1030
1.0
1040
0.0
1040
1710.0
1040
0.0
1040
0.0
1040
50.0
1040
0.0
1040
0.0
1070
     0
1070
   100
1070
     0
1070
     1
1070
     0
1070
     0
1070
     0
1070
     0
1040
0.0
1040
0.0
1040
0.0
1040
0.5
1040
0.5
1040
0.0
1040
0.0
1070
     0
1002
{
1002
}
1002
}
  0
ENDSEC
  0
EOF
