  0
SECTION
  2
HEADER
  9
$ACADVER
  1
AC1009
  9
$DWGCODEPAGE
  3
ansi_932
  9
$INSBASE
 10
0.0
 20
0.0
 30
0.0
  9
$EXTMIN
 10
-474.4276062545233
 20
-570.0
 30
0.0
  9
$EXTMAX
 10
1187.572393745477
 20
570.0
 30
0.0
  9
$LIMMIN
 10
-660.5555555555555
 20
-467.2222222222222
  9
$LIMMAX
 10
660.5555555555555
 20
467.2222222222222
  9
$ORTHOMODE
 70
     0
  9
$REGENMODE
 70
     1
  9
$FILLMODE
 70
     1
  9
$QTEXTMODE
 70
     0
  9
$MIRRTEXT
 70
     1
  9
$DRAGMODE
 70
     2
  9
$LTSCALE
 40
1.111111111111111
  9
$OSMODE
 70
    37
  9
$ATTMODE
 70
     1
  9
$TEXTSIZE
 40
0.2
  9
$TRACEWID
 40
0.05
  9
$TEXTSTYLE
  7
STANDARD
  9
$CLAYER
  8
0
  9
$CELTYPE
  6
BYLAYER
  9
$CECOLOR
 62
   256
  9
$DIMSCALE
 40
1.0
  9
$DIMASZ
 40
2.777777777777778
  9
$DIMEXO
 40
0.0625
  9
$DIMDLI
 40
0.38
  9
$DIMRND
 40
0.0
  9
$DIMDLE
 40
0.0
  9
$DIMEXE
 40
0.18
  9
$DIMTP
 40
0.0
  9
$DIMTM
 40
0.0
  9
$DIMTXT
 40
0.18
  9
$DIMCEN
 40
0.09
  9
$DIMTSZ
 40
0.0
  9
$DIMTOL
 70
     0
  9
$DIMLIM
 70
     0
  9
$DIMTIH
 70
     1
  9
$DIMTOH
 70
     1
  9
$DIMSE1
 70
     0
  9
$DIMSE2
 70
     0
  9
$DIMTAD
 70
     3
  9
$DIMZIN
 70
     0
  9
$DIMBLK
  1

  9
$DIMASO
 70
     1
  9
$DIMSHO
 70
     1
  9
$DIMPOST
  1

  9
$DIMAPOST
  1

  9
$DIMALT
 70
     0
  9
$DIMALTD
 70
     2
  9
$DIMALTF
 40
25.4
  9
$DIMLFAC
 40
1.0
  9
$DIMTOFL
 70
     0
  9
$DIMTVP
 40
0.0
  9
$DIMTIX
 70
     0
  9
$DIMSOXD
 70
     0
  9
$DIMSAH
 70
     0
  9
$DIMBLK1
  1

  9
$DIMBLK2
  1

  9
$DIMSTYLE
  2
STANDARD
  9
$DIMCLRD
 70
     0
  9
$DIMCLRE
 70
     0
  9
$DIMCLRT
 70
     0
  9
$DIMTFAC
 40
1.0
  9
$DIMGAP
 40
0.09
  9
$LUNITS
 70
     2
  9
$LUPREC
 70
     4
  9
$SKETCHINC
 40
0.1
  9
$FILLETRAD
 40
0.5
  9
$AUNITS
 70
     0
  9
$AUPREC
 70
     0
  9
$MENU
  1
.
  9
$ELEVATION
 40
0.0
  9
$PELEVATION
 40
0.0
  9
$THICKNESS
 40
0.0
  9
$LIMCHECK
 70
     0
  9
$CHAMFERA
 40
0.5
  9
$CHAMFERB
 40
0.5
  9
$SKPOLY
 70
     0
  9
$TDCREATE
 40
2455483.562000047
  9
$TDUPDATE
 40
2455483.562000058
  9
$TDINDWG
 40
0.0000000116
  9
$TDUSRTIMER
 40
0.0000000116
  9
$USRTIMER
 70
     1
  9
$ANGBASE
 50
0.0
  9
$ANGDIR
 70
     0
  9
$PDMODE
 70
     0
  9
$PDSIZE
 40
1.0
  9
$PLINEWID
 40
0.0
  9
$COORDS
 70
     1
  9
$SPLFRAME
 70
     0
  9
$SPLINETYPE
 70
     6
  9
$SPLINESEGS
 70
     8
  9
$ATTDIA
 70
     0
  9
$ATTREQ
 70
     1
  9
$HANDLING
 70
     1
  9
$HANDSEED
  5
603
  9
$SURFTAB1
 70
     6
  9
$SURFTAB2
 70
     6
  9
$SURFTYPE
 70
     6
  9
$SURFU
 70
     6
  9
$SURFV
 70
     6
  9
$UCSNAME
  2

  9
$UCSORG
 10
0.0
 20
0.0
 30
0.0
  9
$UCSXDIR
 10
1.0
 20
0.0
 30
0.0
  9
$UCSYDIR
 10
0.0
 20
1.0
 30
0.0
  9
$PUCSNAME
  2

  9
$PUCSORG
 10
0.0
 20
0.0
 30
0.0
  9
$PUCSXDIR
 10
1.0
 20
0.0
 30
0.0
  9
$PUCSYDIR
 10
0.0
 20
1.0
 30
0.0
  9
$USERI1
 70
     0
  9
$USERI2
 70
     0
  9
$USERI3
 70
     0
  9
$USERI4
 70
     0
  9
$USERI5
 70
     0
  9
$USERR1
 40
0.0
  9
$USERR2
 40
0.0
  9
$USERR3
 40
0.0
  9
$USERR4
 40
0.0
  9
$USERR5
 40
0.0
  9
$WORLDVIEW
 70
     1
  9
$SHADEDGE
 70
     3
  9
$SHADEDIF
 70
    70
  9
$TILEMODE
 70
     1
  9
$MAXACTVP
 70
    64
  9
$PLIMCHECK
 70
     0
  9
$PEXTMIN
 10
1.000000000000000E+20
 20
1.000000000000000E+20
 30
1.000000000000000E+20
  9
$PEXTMAX
 10
-1.000000000000000E+20
 20
-1.000000000000000E+20
 30
-1.000000000000000E+20
  9
$PLIMMIN
 10
0.0
 20
0.0
  9
$PLIMMAX
 10
12.0
 20
9.0
  9
$UNITMODE
 70
     0
  9
$VISRETAIN
 70
     0
  9
$PLINEGEN
 70
     1
  9
$PSLTSCALE
 70
     0
  0
ENDSEC
  0
SECTION
  2
TABLES
  0
TABLE
  2
VPORT
 70
     1
  0
VPORT
  2
*ACTIVE
 70
     0
 10
0.0
 20
0.0
 11
1.0
 21
1.0
 12
0.0
 22
0.0
 13
0.0
 23
0.0
 14
0.5
 24
0.5
 15
0.5
 25
0.5
 16
0.0
 26
0.0
 36
1.0
 17
356.5723937454767
 27
0.0
 37
0.0
 40
387.6
 41
1.457894736842105
 42
50.0
 43
0.0
 44
0.0
 50
0.0
 51
0.0
 71
     0
 72
  1000
 73
     1
 74
     1
 75
     0
 76
     0
 77
     0
 78
     0
  0
ENDTAB
  0
TABLE
  2
LTYPE
 70
    28
  0
LTYPE
  2
CONTINUOUS
 70
     0
  3
Solid line
 72
    65
 73
     0
 40
0.0
  0
LTYPE
  2
HIDDENX2
 70
     0
  3
CADPAC LINETYPE
 72
    65
 73
     2
 40
18.58563535911603
 49
13.93922651933703
 49
-4.646408839779008
  0
LTYPE
  2
HIDDEN
 70
     0
  3
CADPAC LINETYPE
 72
    65
 73
     2
 40
13.93922651933703
 49
9.292817679558016
 49
-4.646408839779008
  0
LTYPE
  2
HIDDEN2
 70
     0
  3
CADPAC LINETYPE
 72
    65
 73
     2
 40
11.61602209944752
 49
6.969613259668512
 49
-4.646408839779008
  0
LTYPE
  2
DASHED
 70
     0
  3
CADPAC LINETYPE
 72
    65
 73
     2
 40
13.00994475138128
 49
9.292817679558016
 49
-3.717127071823268
  0
LTYPE
  2
DASHED2
 70
     0
  3
CADPAC LINETYPE
 72
    65
 73
     2
 40
8.363535911602174
 49
5.575690607734851
 49
-2.787845303867323
  0
LTYPE
  2
DASHEDX2
 70
     0
  3
CADPAC LINETYPE
 72
    65
 73
     2
 40
22.3027624309393
 49
18.58563535911603
 49
-3.717127071823268
  0
LTYPE
  2
DOTX2
 70
     0
  3
CADPAC LINETYPE
 72
    65
 73
     2
 40
8.131215469613366
 49
0.0
 49
-8.131215469613366
  0
LTYPE
  2
DOT
 70
     0
  3
CADPAC LINETYPE
 72
    65
 73
     2
 40
6.504972375690693
 49
0.0
 49
-6.504972375690693
  0
LTYPE
  2
DOT2
 70
     0
  3
CADPAC LINETYPE
 72
    65
 73
     2
 40
4.87872928176802
 49
0.0
 49
-4.87872928176802
  0
LTYPE
  2
CENTERX2
 70
     0
  3
CADPAC LINETYPE
 72
    65
 73
     4
 40
27.87845303867405
 49
11.61602209944752
 49
-5.80801104972376
 49
4.646408839779008
 49
-5.80801104972376
  0
LTYPE
  2
CENTER
 70
     0
  3
CADPAC LINETYPE
 72
    65
 73
     4
 40
21.37348066298344
 49
9.292817679558016
 49
-4.646408839779008
 49
2.787845303867405
 49
-4.646408839779008
  0
LTYPE
  2
CENTER2
 70
     0
  3
CADPAC LINETYPE
 72
    65
 73
     4
 40
14.86850828729283
 49
6.969613259668512
 49
-3.484806629834256
 49
0.9292817679558016
 49
-3.484806629834256
  0
LTYPE
  2
DASHDOTX2
 70
     0
  3
CADPAC LINETYPE
 72
    65
 73
     4
 40
44.6055248618785
 49
22.3027624309392
 49
-7.434254143646434
 49
7.434254143646434
 49
-7.434254143646434
  0
LTYPE
  2
DASHDOT
 70
     0
  3
CADPAC LINETYPE
 72
    65
 73
     4
 40
22.3027624309394
 49
11.1513812154696
 49
-3.717127071823268
 49
3.717127071823268
 49
-3.717127071823268
  0
LTYPE
  2
DASHDOT2
 70
     0
  3
CADPAC LINETYPE
 72
    65
 73
     4
 40
14.31093922651943
 49
8.363535911602199
 49
-2.787845303867451
 49
0.3717127071823268
 49
-2.787845303867451
  0
LTYPE
  2
DIVIDEX2
 70
     0
  3
CADPAC LINETYPE
 72
    65
 73
     6
 40
59.47403314917137
 49
22.3027624309392
 49
-7.434254143646434
 49
7.434254143646434
 49
-7.434254143646434
 49
7.434254143646434
 49
-7.434254143646434
  0
LTYPE
  2
DIVIDE
 70
     0
  3
CADPAC LINETYPE
 72
    65
 73
     6
 40
29.73701657458594
 49
11.1513812154696
 49
-3.717127071823268
 49
3.717127071823268
 49
-3.717127071823268
 49
3.717127071823268
 49
-3.717127071823268
  0
LTYPE
  2
DIVIDE2
 70
     0
  3
CADPAC LINETYPE
 72
    65
 73
     6
 40
22.30276243093946
 49
8.363535911602199
 49
-2.787845303867451
 49
2.787845303867451
 49
-2.787845303867451
 49
2.787845303867451
 49
-2.787845303867451
  0
LTYPE
  2
BORDERX2
 70
     0
  3
CADPAC LINETYPE
 72
    65
 73
     6
 40
40.65607734806632
 49
11.61602209944752
 49
-5.80801104972376
 49
11.61602209944752
 49
-5.80801104972376
 49
0.0
 49
-5.80801104972376
  0
LTYPE
  2
BORDER
 70
     0
  3
CADPAC LINETYPE
 72
    65
 73
     6
 40
32.52486187845306
 49
9.292817679558016
 49
-4.646408839779008
 49
9.292817679558016
 49
-4.646408839779008
 49
0.0
 49
-4.646408839779008
  0
LTYPE
  2
BORDER2
 70
     0
  3
CADPAC LINETYPE
 72
    65
 73
     6
 40
24.16132596685078
 49
7.434254143646434
 49
-4.646408839779008
 49
2.787845303867323
 49
-4.646408839779008
 49
0.0
 49
-4.646408839779008
  0
LTYPE
  2
PHANTOMX2
 70
     0
  3
CADPAC LINETYPE
 72
    65
 73
     6
 40
34.84806629834256
 49
11.61602209944752
 49
-4.646408839779008
 49
4.646408839779008
 49
-4.646408839779008
 49
4.646408839779008
 49
-4.646408839779008
  0
LTYPE
  2
PHANTOM
 70
     0
  3
CADPAC LINETYPE
 72
    65
 73
     6
 40
28.80773480662985
 49
9.292817679558016
 49
-4.646408839779008
 49
2.787845303867405
 49
-4.646408839779008
 49
2.787845303867405
 49
-4.646408839779008
  0
LTYPE
  2
PHANTOM2
 70
     0
  3
CADPAC LINETYPE
 72
    65
 73
     6
 40
24.62596685082875
 49
6.969613259668512
 49
-4.646408839779008
 49
1.858563535911603
 49
-4.646408839779008
 49
1.858563535911603
 49
-4.646408839779008
  0
LTYPE
  2
ACAD_ISO06W100
 70
     0
  3
CADPAC LINETYPE
 72
    65
 73
     8
 40
49.25193370165719
 49
22.3027624309392
 49
-4.646408839779008
 49
2.787845303867323
 49
-4.646408839779008
 49
2.787845303867323
 49
-4.646408839779008
 49
2.787845303867323
 49
-4.646408839779008
  0
LTYPE
  2
ACAD_ISO13W100
 70
     0
  3
CADPAC LINETYPE
 72
    65
 73
     8
 40
37.17127071823207
 49
9.292817679558016
 49
-4.646408839779008
 49
9.292817679558016
 49
-4.646408839779008
 49
0.0
 49
-4.646408839779008
 49
0.0
 49
-4.646408839779008
  0
LTYPE
  2
ACAD_ISO14W100
 70
     0
  3
CADPAC LINETYPE
 72
    65
 73
     8
 40
27.87845303867405
 49
9.292817679558016
 49
-4.646408839779008
 49
0.0
 49
-4.646408839779008
 49
0.0
 49
-4.646408839779008
 49
0.0
 49
-4.646408839779008
  0
ENDTAB
  0
TABLE
  2
LAYER
 70
     3
  0
LAYER
  2
0
 70
     0
 62
     7
  6
CONTINUOUS
  0
LAYER
  2
LAYER0001
 70
     0
 62
     7
  6
CONTINUOUS
  0
LAYER
  2
LAYER0002
 70
     0
 62
     7
  6
CONTINUOUS
  0
ENDTAB
  0
TABLE
  2
STYLE
 70
     5
  0
STYLE
  2
STANDARD
 70
     0
 40
0.0
 41
1.0
 50
0.0
 71
     0
 42
0.2
  3
txt
  4

  0
STYLE
  2
FDASTYLE1
 70
     0
 40
0.0
 41
0.6952380952380963
 50
0.0
 71
     0
 42
0.2
  3
txt.shx
  4
bigfont
  0
STYLE
  2
FDASTYLE0
 70
     4
 40
0.0
 41
0.8
 50
0.0
 71
     0
 42
0.2
  3
txt.shx
  4
bigfont
  0
STYLE
  2
FDASTYLE2
 70
     0
 40
0.0
 41
0.8123476848090979
 50
0.0
 71
     0
 42
0.2
  3
MSMINCHO.TTC
  4

  0
STYLE
  2
FDASTYLE3
 70
     0
 40
0.0
 41
0.6684336356141793
 50
0.0
 71
     0
 42
0.2
  3
MSGOTHIC.TTC
  4

  0
ENDTAB
  0
TABLE
  2
VIEW
 70
     0
  0
ENDTAB
  0
TABLE
  2
UCS
 70
     0
  0
ENDTAB
  0
TABLE
  2
APPID
 70
     2
  0
APPID
  2
ACAD
 70
     0
  0
APPID
  2
DAFUSIONOUT
 70
     0
  0
ENDTAB
  0
TABLE
  2
DIMSTYLE
 70
     1
  0
DIMSTYLE
  2
STANDARD
 70
     0
  3

  4

  5

  6

  7

 40
1.0
 41
0.18
 42
0.0625
 43
0.38
 44
0.18
 45
0.0
 46
0.0
 47
0.0
 48
0.0
140
0.18
141
0.09
142
0.0
143
25.4
144
1.0
145
0.0
146
1.0
147
0.09
 71
     0
 72
     0
 73
     1
 74
     1
 75
     0
 76
     0
 77
     0
 78
     0
170
     0
171
     2
172
     0
173
     0
174
     0
175
     0
176
     0
177
     0
178
     0
  0
ENDTAB
  0
ENDSEC
  0
SECTION
  2
BLOCKS
  0
BLOCK
  8
0
  2
$MODEL_SPACE
 70
     0
 10
0.0
 20
0.0
 30
0.0
  3
$MODEL_SPACE
  1

  0
ENDBLK
  5
21
  8
0
  0
BLOCK
 67
     1
  8
0
  2
$PAPER_SPACE
 70
     0
 10
0.0
 20
0.0
 30
0.0
  3
$PAPER_SPACE
  1

  0
ENDBLK
  5
1D
 67
     1
  8
0
  0
BLOCK
  8
0
  2
DC_GROUP_1
 70
     0
 10
0.0
 20
0.0
 30
0.0
  3
DC_GROUP_1
  1

  0
LINE
  5
1B7
  8
LAYER0001
  6
CONTINUOUS
 62
     7
 10
488.8146629375382
 20
-50.98214248657224
 30
0.0
 11
488.8146629375382
 21
-67.00000381469724
 31
0.0
  0
LINE
  5
1B8
  8
LAYER0001
  6
CONTINUOUS
 62
     7
 10
499.8146629375382
 20
-50.98214248657224
 30
0.0
 11
499.8146629375382
 21
-67.00000381469724
 31
0.0
  0
LINE
  5
1B9
  8
LAYER0001
  6
CONTINUOUS
 62
     7
 10
488.8146629375382
 20
-66.00000381469724
 30
0.0
 11
499.8146629375382
 21
-66.00000381469724
 31
0.0
  0
LINE
  5
1BA
  8
LAYER0001
  6
CONTINUOUS
 62
     7
 10
523.9704261072088
 20
-66.00000381469724
 30
0.0
 11
499.8146629375382
 21
-66.00000381469724
 31
0.0
  0
LINE
  5
1BB
  8
LAYER0001
  6
CONTINUOUS
 62
     7
 10
483.8146629375382
 20
-66.00000381469724
 30
0.0
 11
488.8146629375382
 21
-66.00000381469724
 31
0.0
  0
INSERT
  5
1BC
  8
LAYER0001
  6
CONTINUOUS
  2
DC_GROUP_2
 10
0.0
 20
0.0
 30
0.0
  0
INSERT
  5
1BD
  8
LAYER0001
  6
CONTINUOUS
  2
DC_GROUP_3
 10
0.0
 20
0.0
 30
0.0
  0
TEXT
  5
1BF
  8
LAYER0001
 62
     7
 10
510.1704261072088
 20
-65.00000381469724
 30
0.0
 40
4.0
  1
11H8
 41
0.6952380952380963
  7
FDASTYLE1
 72
     5
 11
521.2942356310183
 21
-65.00000381469724
 31
0.0
  0
ENDBLK
  5
4E
  8
0
  0
BLOCK
  8
0
  2
DC_GROUP_2
 70
     0
 10
0.0
 20
0.0
 30
0.0
  3
DC_GROUP_2
  1

  0
LINE
  5
1C0
  8
LAYER0001
  6
CONTINUOUS
 62
     7
 10
501.8146613451688
 20
-66.53590334959485
 30
0.0
 11
499.8146629375382
 21
-66.00000381469724
 31
0.0
  0
LINE
  5
1C1
  8
LAYER0001
  6
CONTINUOUS
 62
     7
 10
499.8146629375382
 20
-66.00000381469724
 30
0.0
 11
501.8146613451688
 21
-65.46410427979963
 31
0.0
  0
LINE
  5
1C2
  8
LAYER0001
  6
CONTINUOUS
 62
     7
 10
499.8146629375382
 20
-66.00000381469724
 30
0.0
 11
501.8146613451688
 21
-66.00000381469724
 31
0.0
  0
ENDBLK
  5
51
  8
0
  0
BLOCK
  8
0
  2
DC_GROUP_3
 70
     0
 10
0.0
 20
0.0
 30
0.0
  3
DC_GROUP_3
  1

  0
LINE
  5
1C3
  8
LAYER0001
  6
CONTINUOUS
 62
     7
 10
486.8146645299075
 20
-65.46410427979963
 30
0.0
 11
488.8146629375382
 21
-66.00000381469724
 31
0.0
  0
LINE
  5
1C4
  8
LAYER0001
  6
CONTINUOUS
 62
     7
 10
488.8146629375382
 20
-66.00000381469724
 30
0.0
 11
486.8146645299075
 21
-66.53590334959485
 31
0.0
  0
LINE
  5
1C5
  8
LAYER0001
  6
CONTINUOUS
 62
     7
 10
488.8146629375382
 20
-66.00000381469724
 30
0.0
 11
486.8146645299075
 21
-66.00000381469724
 31
0.0
  0
ENDBLK
  5
54
  8
0
  0
BLOCK
  8
0
  2
DC_GROUP_4
 70
     0
 10
0.0
 20
0.0
 30
0.0
  3
DC_GROUP_4
  1

  0
LINE
  5
1C6
  8
LAYER0001
  6
CONTINUOUS
 62
     7
 10
480.3146629375382
 20
-50.98214248657224
 30
0.0
 11
480.3146629375382
 21
-77.00000381469724
 31
0.0
  0
LINE
  5
1C7
  8
LAYER0001
  6
CONTINUOUS
 62
     7
 10
508.3146629375382
 20
-50.98214248657224
 30
0.0
 11
508.3146629375382
 21
-77.00000381469724
 31
0.0
  0
LINE
  5
1C8
  8
LAYER0001
  6
CONTINUOUS
 62
     7
 10
480.3146629375382
 20
-76.00000381469724
 30
0.0
 11
508.3146629375382
 21
-76.00000381469724
 31
0.0
  0
INSERT
  5
1C9
  8
LAYER0001
  6
CONTINUOUS
  2
DC_GROUP_5
 10
0.0
 20
0.0
 30
0.0
  0
INSERT
  5
1CA
  8
LAYER0001
  6
CONTINUOUS
  2
DC_GROUP_6
 10
0.0
 20
0.0
 30
0.0
  0
TEXT
  5
1CB
  8
LAYER0001
 62
     7
 10
491.1146629375382
 20
-74.40000381469724
 30
0.0
 40
4.0
  1
28
 41
0.6476190476190453
  7
FDASTYLE1
 72
     5
 11
496.2956153184906
 21
-74.40000381469724
 31
0.0
  0
ENDBLK
  5
57
  8
0
  0
BLOCK
  8
0
  2
DC_GROUP_5
 70
     0
 10
0.0
 20
0.0
 30
0.0
  3
DC_GROUP_5
  1

  0
LINE
  5
1CC
  8
LAYER0001
  6
CONTINUOUS
 62
     7
 10
482.3146613451689
 20
-76.53590334959486
 30
0.0
 11
480.3146629375382
 21
-76.00000381469724
 31
0.0
  0
LINE
  5
1CD
  8
LAYER0001
  6
CONTINUOUS
 62
     7
 10
480.3146629375382
 20
-76.00000381469724
 30
0.0
 11
482.3146613451689
 21
-75.46410427979963
 31
0.0
  0
LINE
  5
1CE
  8
LAYER0001
  6
CONTINUOUS
 62
     7
 10
480.3146629375382
 20
-76.00000381469724
 30
0.0
 11
482.3146613451689
 21
-76.00000381469724
 31
0.0
  0
ENDBLK
  5
5A
  8
0
  0
BLOCK
  8
0
  2
DC_GROUP_6
 70
     0
 10
0.0
 20
0.0
 30
0.0
  3
DC_GROUP_6
  1

  0
LINE
  5
1CF
  8
LAYER0001
  6
CONTINUOUS
 62
     7
 10
506.3146645299075
 20
-75.46410427979963
 30
0.0
 11
508.3146629375382
 21
-76.00000381469724
 31
0.0
  0
LINE
  5
1D0
  8
LAYER0001
  6
CONTINUOUS
 62
     7
 10
508.3146629375382
 20
-76.00000381469724
 30
0.0
 11
506.3146645299075
 21
-76.53590334959486
 31
0.0
  0
LINE
  5
1D1
  8
LAYER0001
  6
CONTINUOUS
 62
     7
 10
508.3146629375382
 20
-76.00000381469724
 30
0.0
 11
506.3146645299075
 21
-76.00000381469724
 31
0.0
  0
ENDBLK
  5
5D
  8
0
  0
BLOCK
  8
0
  2
DC_GROUP_7
 70
     0
 10
0.0
 20
0.0
 30
0.0
  3
DC_GROUP_7
  1

  0
LINE
  5
1D2
  8
LAYER0001
  6
CONTINUOUS
 62
     7
 10
446.2844350823522
 20
82.08809320677479
 30
0.0
 11
424.0783158745622
 21
104.2941543877296
 31
0.0
  0
LINE
  5
1D3
  8
LAYER0001
  6
CONTINUOUS
 62
     7
 10
402.0199665961051
 20
34.05801999054915
 30
0.0
 11
394.9855017978061
 21
34.05790739716863
 31
0.0
  0
ARC
  5
1D4
  8
LAYER0001
  6
CONTINUOUS
 62
     7
 10
494.3146781963273
 20
34.05784988403323
 30
0.0
 40
98.32917785644531
 50
135.0000276623794
 51
179.9999640278213
  0
INSERT
  5
1D5
  8
LAYER0001
  6
CONTINUOUS
  2
DC_GROUP_8
 10
0.0
 20
0.0
 30
0.0
  0
INSERT
  5
1D6
  8
LAYER0001
  6
CONTINUOUS
  2
DC_GROUP_9
 10
0.0
 20
0.0
 30
0.0
  0
TEXT
  5
1D7
  8
LAYER0001
 62
     7
 10
400.155283523156
 20
67.86448127552492
 30
0.0
 40
4.0
  1
45ﾟ
 50
67.5
 41
0.4499999999999973
  7
FDASTYLE1
 72
     5
 11
402.2217740579275
 21
72.85343075108585
 31
0.0
  0
ENDBLK
  5
60
  8
0
  0
BLOCK
  8
0
  2
DC_GROUP_8
 70
     0
 10
0.0
 20
0.0
 30
0.0
  3
DC_GROUP_8
  1

  0
LINE
  5
1D8
  8
LAYER0001
  6
CONTINUOUS
 62
     7
 10
423.0028872536356
 20
102.5335873251822
 30
0.0
 11
424.7854161768612
 21
103.5870447661321
 31
0.0
  0
LINE
  5
1D9
  8
LAYER0001
  6
CONTINUOUS
 62
     7
 10
424.7854161768612
 20
103.5870447661321
 30
0.0
 11
423.7684322200813
 21
101.7834579027732
 31
0.0
  0
LINE
  5
1DA
  8
LAYER0001
  6
CONTINUOUS
 62
     7
 10
424.7854161768612
 20
103.5870447661321
 30
0.0
 11
423.3856597368584
 21
102.1585226139777
 31
0.0
  0
ENDBLK
  5
63
  8
0
  0
BLOCK
  8
0
  2
DC_GROUP_9
 70
     0
 10
0.0
 20
0.0
 30
0.0
  3
DC_GROUP_9
  1

  0
LINE
  5
1DB
  8
LAYER0001
  6
CONTINUOUS
 62
     7
 10
396.5417128785054
 20
36.05235629139949
 30
0.0
 11
395.9855003399014
 21
34.05791161833175
 31
0.0
  0
LINE
  5
1DC
  8
LAYER0001
  6
CONTINUOUS
 62
     7
 10
395.9855003399014
 20
34.05791161833175
 30
0.0
 11
395.4699692416564
 21
36.06325688256209
 31
0.0
  0
LINE
  5
1DD
  8
LAYER0001
  6
CONTINUOUS
 62
     7
 10
395.9855003399014
 20
34.05791161833175
 30
0.0
 11
396.0058410600809
 21
36.0578065869808
 31
0.0
  0
ENDBLK
  5
66
  8
0
  0
BLOCK
  8
0
  2
DC_GROUP_10
 70
     0
 10
0.0
 20
0.0
 30
0.0
  3
DC_GROUP_10
  1

  0
LINE
  5
1DE
  8
LAYER0001
  6
CONTINUOUS
 62
     7
 10
586.7435484355851
 20
34.05791091918948
 30
0.0
 11
593.6437492412492
 21
34.05791091918948
 31
0.0
  0
LINE
  5
1DF
  8
LAYER0001
  6
CONTINUOUS
 62
     7
 10
534.9342621389985
 20
57.50961757933289
 30
0.0
 11
580.3361404656318
 21
83.72247408215438
 31
0.0
  0
ARC
  5
1E0
  8
LAYER0001
  6
CONTINUOUS
 62
     7
 10
494.3146247905656
 20
34.05784988403323
 30
0.0
 40
98.32912445068359
 50
0.0000355648130404
 51
30.00003840086649
  0
INSERT
  5
1E1
  8
LAYER0001
  6
CONTINUOUS
  2
DC_GROUP_11
 10
0.0
 20
0.0
 30
0.0
  0
INSERT
  5
1E2
  8
LAYER0001
  6
CONTINUOUS
  2
DC_GROUP_12
 10
0.0
 20
0.0
 30
0.0
  0
TEXT
  5
1E3
  8
LAYER0001
 62
     7
 10
589.9018551912496
 20
63.59240633760779
 30
0.0
 40
4.0
  1
30ﾟ
 50
-75.60000000000004
 41
0.4499999999999976
  7
FDASTYLE1
 72
     5
 11
591.2447805819398
 21
58.36205726751321
 31
0.0
  0
ENDBLK
  5
69
  8
0
  0
BLOCK
  8
0
  2
DC_GROUP_11
 70
     0
 10
0.0
 20
0.0
 30
0.0
  3
DC_GROUP_11
  1

  0
LINE
  5
1E4
  8
LAYER0001
  6
CONTINUOUS
 62
     7
 10
593.1592803426561
 20
36.06325618260333
 30
0.0
 11
592.6437492412301
 21
34.05791091919075
 31
0.0
  0
LINE
  5
1E5
  8
LAYER0001
  6
CONTINUOUS
 62
     7
 10
592.6437492412301
 20
34.05791091919075
 30
0.0
 11
592.0875367057898
 21
36.0523555931408
 31
0.0
  0
LINE
  5
1E6
  8
LAYER0001
  6
CONTINUOUS
 62
     7
 10
592.6437492412301
 20
34.05791091919075
 30
0.0
 11
592.6234085242229
 21
36.05780588787206
 31
0.0
  0
ENDBLK
  5
6C
  8
0
  0
BLOCK
  8
0
  2
DC_GROUP_12
 70
     0
 10
0.0
 20
0.0
 30
0.0
  3
DC_GROUP_12
  1

  0
LINE
  5
1E7
  8
LAYER0001
  6
CONTINUOUS
 62
     7
 10
579.9856422857412
 20
81.21712382614541
 30
0.0
 11
579.4701115455706
 21
83.2224691824289
 31
0.0
  0
LINE
  5
1E8
  8
LAYER0001
  6
CONTINUOUS
 62
     7
 10
579.4701115455706
 20
83.2224691824289
 30
0.0
 11
580.919249116748
 21
81.74355666242292
 31
0.0
  0
LINE
  5
1E9
  8
LAYER0001
  6
CONTINUOUS
 62
     7
 10
579.4701115455706
 20
83.2224691824289
 30
0.0
 11
580.4524457012446
 21
81.48034024428416
 31
0.0
  0
ENDBLK
  5
6F
  8
0
  0
BLOCK
  8
0
  2
DC_GROUP_13
 70
     0
 10
0.0
 20
0.0
 30
0.0
  3
DC_GROUP_13
  1

  0
LINE
  5
1EA
  8
LAYER0001
  6
CONTINUOUS
 62
     7
 10
455.4601904477006
 20
-11.32599837345126
 30
0.0
 11
436.5966418906486
 21
-65.94255133325279
 31
0.0
  0
LINE
  5
1EB
  8
LAYER0001
  6
CONTINUOUS
 62
     7
 10
436.5966415447159
 20
-65.94254684448239
 30
0.0
 11
403.9680652660294
 21
-65.94254684448239
 31
0.0
  0
INSERT
  5
1EC
  8
LAYER0001
  6
CONTINUOUS
  2
DC_GROUP_14
 10
0.0
 20
0.0
 30
0.0
  0
TEXT
  5
1ED
  8
LAYER0001
 62
     7
 10
405.7966339153214
 20
-64.3425468444824
 30
0.0
 40
4.0
  1
PCD104.77
 41
0.7026455026455033
  7
FDASTYLE1
 72
     5
 11
431.0918720105595
 21
-64.3425468444824
 31
0.0
  0
ENDBLK
  5
72
  8
0
  0
BLOCK
  8
0
  2
DC_GROUP_14
 70
     0
 10
0.0
 20
0.0
 30
0.0
  3
DC_GROUP_14
  1

  0
LINE
  5
1EE
  8
LAYER0001
  6
CONTINUOUS
 62
     7
 10
454.3007353742702
 20
-13.04147086659276
 30
0.0
 11
455.4601904477006
 21
-11.32599837345126
 31
0.0
  0
LINE
  5
1EF
  8
LAYER0001
  6
CONTINUOUS
 62
     7
 10
455.4601904477006
 20
-11.32599837345126
 30
0.0
 11
455.3138121844813
 21
-13.39136888405839
 31
0.0
  0
LINE
  5
1F0
  8
LAYER0001
  6
CONTINUOUS
 62
     7
 10
455.4601904477006
 20
-11.32599837345126
 30
0.0
 11
454.8072737793758
 21
-13.21641987532558
 31
0.0
  0
ENDBLK
  5
75
  8
0
  0
BLOCK
  8
0
  2
DC_GROUP_15
 70
     0
 10
0.0
 20
0.0
 30
0.0
  3
DC_GROUP_15
  1

  0
LINE
  5
1F1
  8
LAYER0001
  6
CONTINUOUS
 62
     7
 10
529.2814242385615
 20
12.92795252982435
 30
0.0
 11
568.386311852178
 21
-20.28667174165273
 31
0.0
  0
LINE
  5
1F2
  8
LAYER0001
  6
CONTINUOUS
 62
     7
 10
568.3863182109757
 20
-20.28667068481443
 30
0.0
 11
613.1482505840227
 21
-20.28667068481443
 31
0.0
  0
INSERT
  5
1F3
  8
LAYER0001
  6
CONTINUOUS
  2
DC_GROUP_16
 10
0.0
 20
0.0
 30
0.0
  0
TEXT
  5
1F4
  8
LAYER0001
 62
     7
 10
569.7196769756242
 20
-18.68667259216306
 30
0.0
 40
4.0
  1
4-M6×13 PCD76
 41
0.6326905417814503
  7
FDASTYLE1
 72
     5
 11
603.1257375816848
 21
-18.68667259216306
 31
0.0
  0
ENDBLK
  5
78
  8
0
  0
BLOCK
  8
0
  2
DC_GROUP_16
 70
     0
 10
0.0
 20
0.0
 30
0.0
  3
DC_GROUP_16
  1

  0
LINE
  5
1F5
  8
LAYER0001
  6
CONTINUOUS
 62
     7
 10
530.4588477040061
 20
11.22476260352448
 30
0.0
 11
529.2814242385615
 21
12.92795252982435
 31
0.0
  0
LINE
  5
1F6
  8
LAYER0001
  6
CONTINUOUS
 62
     7
 10
529.2814242385615
 20
12.92795252982435
 30
0.0
 11
531.1526991376152
 21
12.04166127171554
 31
0.0
  0
LINE
  5
1F7
  8
LAYER0001
  6
CONTINUOUS
 62
     7
 10
529.2814242385615
 20
12.92795252982435
 30
0.0
 11
530.8057734208106
 21
11.63321193762002
 31
0.0
  0
ENDBLK
  5
7B
  8
0
  0
BLOCK
  8
0
  2
DC_GROUP_17
 70
     0
 10
0.0
 20
0.0
 30
0.0
  3
DC_GROUP_17
  1

  0
LINE
  5
1F8
  8
LAYER0001
  6
CONTINUOUS
 62
     7
 10
439.1453904766007
 20
92.05785751342776
 30
0.0
 11
386.367860798256
 21
92.05785751342776
 31
0.0
  0
LINE
  5
1F9
  8
LAYER0001
  6
CONTINUOUS
 62
     7
 10
402.019963230507
 20
34.05784988403323
 30
0.0
 11
386.367860798256
 21
34.05784988403323
 31
0.0
  0
LINE
  5
1FA
  8
LAYER0001
  6
CONTINUOUS
 62
     7
 10
387.367860798256
 20
92.05785751342776
 30
0.0
 11
387.367860798256
 21
34.05784988403323
 31
0.0
  0
INSERT
  5
1FB
  8
LAYER0001
  6
CONTINUOUS
  2
DC_GROUP_18
 10
0.0
 20
0.0
 30
0.0
  0
INSERT
  5
1FC
  8
LAYER0001
  6
CONTINUOUS
  2
DC_GROUP_19
 10
0.0
 20
0.0
 30
0.0
  0
TEXT
  5
1FD
  8
LAYER0001
 62
     7
 10
385.767860798256
 20
59.85785751342777
 30
0.0
 40
4.0
  1
58
 50
90.0
 41
0.6476190476190462
  7
FDASTYLE1
 72
     5
 11
385.767860798256
 21
65.03880989438014
 31
0.0
  0
ENDBLK
  5
7E
  8
0
  0
BLOCK
  8
0
  2
DC_GROUP_18
 70
     0
 10
0.0
 20
0.0
 30
0.0
  3
DC_GROUP_18
  1

  0
LINE
  5
1FE
  8
LAYER0001
  6
CONTINUOUS
 62
     7
 10
386.8319612633584
 20
90.05785910579711
 30
0.0
 11
387.367860798256
 21
92.05785751342776
 31
0.0
  0
LINE
  5
1FF
  8
LAYER0001
  6
CONTINUOUS
 62
     7
 10
387.367860798256
 20
92.05785751342776
 30
0.0
 11
387.9037603331536
 21
90.05785910579711
 31
0.0
  0
LINE
  5
200
  8
LAYER0001
  6
CONTINUOUS
 62
     7
 10
387.367860798256
 20
92.05785751342776
 30
0.0
 11
387.367860798256
 21
90.05785910579711
 31
0.0
  0
ENDBLK
  5
81
  8
0
  0
BLOCK
  8
0
  2
DC_GROUP_19
 70
     0
 10
0.0
 20
0.0
 30
0.0
  3
DC_GROUP_19
  1

  0
LINE
  5
201
  8
LAYER0001
  6
CONTINUOUS
 62
     7
 10
387.9037603331536
 20
36.0578482916639
 30
0.0
 11
387.367860798256
 21
34.05784988403323
 31
0.0
  0
LINE
  5
202
  8
LAYER0001
  6
CONTINUOUS
 62
     7
 10
387.367860798256
 20
34.05784988403323
 30
0.0
 11
386.8319612633584
 21
36.0578482916639
 31
0.0
  0
LINE
  5
203
  8
LAYER0001
  6
CONTINUOUS
 62
     7
 10
387.367860798256
 20
34.05784988403323
 30
0.0
 11
387.367860798256
 21
36.0578482916639
 31
0.0
  0
ENDBLK
  5
84
  8
0
  0
BLOCK
  8
0
  2
DC_GROUP_20
 70
     0
 10
0.0
 20
0.0
 30
0.0
  3
DC_GROUP_20
  1

  0
LINE
  5
204
  8
LAYER0001
  6
CONTINUOUS
 62
     7
 10
464.3146629375382
 20
106.4825163269043
 30
0.0
 11
464.3146629375382
 21
134.9999961853028
 31
0.0
  0
LINE
  5
205
  8
LAYER0001
  6
CONTINUOUS
 62
     7
 10
494.3146629375382
 20
126.7225675964356
 30
0.0
 11
494.3146629375382
 21
134.9999961853028
 31
0.0
  0
LINE
  5
206
  8
LAYER0001
  6
CONTINUOUS
 62
     7
 10
464.3146629375382
 20
133.9999961853028
 30
0.0
 11
494.3146629375382
 21
133.9999961853028
 31
0.0
  0
INSERT
  5
207
  8
LAYER0001
  6
CONTINUOUS
  2
DC_GROUP_21
 10
0.0
 20
0.0
 30
0.0
  0
INSERT
  5
208
  8
LAYER0001
  6
CONTINUOUS
  2
DC_GROUP_22
 10
0.0
 20
0.0
 30
0.0
  0
TEXT
  5
209
  8
LAYER0001
 62
     7
 10
476.1146629375382
 20
135.5999961853028
 30
0.0
 40
4.0
  1
30
 41
0.6476190476190524
  7
FDASTYLE1
 72
     5
 11
481.2956153184906
 21
135.5999961853028
 31
0.0
  0
ENDBLK
  5
87
  8
0
  0
BLOCK
  8
0
  2
DC_GROUP_21
 70
     0
 10
0.0
 20
0.0
 30
0.0
  3
DC_GROUP_21
  1

  0
LINE
  5
20A
  8
LAYER0001
  6
CONTINUOUS
 62
     7
 10
466.3146613451688
 20
133.4640966504052
 30
0.0
 11
464.3146629375382
 21
133.9999961853028
 31
0.0
  0
LINE
  5
20B
  8
LAYER0001
  6
CONTINUOUS
 62
     7
 10
464.3146629375382
 20
133.9999961853028
 30
0.0
 11
466.3146613451688
 21
134.5358957202004
 31
0.0
  0
LINE
  5
20C
  8
LAYER0001
  6
CONTINUOUS
 62
     7
 10
464.3146629375382
 20
133.9999961853028
 30
0.0
 11
466.3146613451688
 21
133.9999961853028
 31
0.0
  0
ENDBLK
  5
8A
  8
0
  0
BLOCK
  8
0
  2
DC_GROUP_22
 70
     0
 10
0.0
 20
0.0
 30
0.0
  3
DC_GROUP_22
  1

  0
LINE
  5
20D
  8
LAYER0001
  6
CONTINUOUS
 62
     7
 10
492.3146645299075
 20
134.5358957202004
 30
0.0
 11
494.3146629375382
 21
133.9999961853028
 31
0.0
  0
LINE
  5
20E
  8
LAYER0001
  6
CONTINUOUS
 62
     7
 10
494.3146629375382
 20
133.9999961853028
 30
0.0
 11
492.3146645299075
 21
133.4640966504052
 31
0.0
  0
LINE
  5
20F
  8
LAYER0001
  6
CONTINUOUS
 62
     7
 10
494.3146629375382
 20
133.9999961853028
 30
0.0
 11
492.3146645299075
 21
133.9999961853028
 31
0.0
  0
ENDBLK
  5
8D
  8
0
  0
BLOCK
  8
0
  2
DC_GROUP_23
 70
     0
 10
0.0
 20
0.0
 30
0.0
  3
DC_GROUP_23
  1

  0
LINE
  5
210
  8
LAYER0001
  6
CONTINUOUS
 62
     7
 10
516.3146629375382
 20
-87.75587936401364
 30
0.0
 11
516.3146629375382
 21
-75.94566726684568
 31
0.0
  0
LINE
  5
211
  8
LAYER0001
  6
CONTINUOUS
 62
     7
 10
532.3146781963274
 20
-87.75587173461911
 30
0.0
 11
532.3146781963274
 21
-75.94567489624021
 31
0.0
  0
LINE
  5
212
  8
LAYER0001
  6
CONTINUOUS
 62
     7
 10
516.3146629375382
 20
-76.94566726684568
 30
0.0
 11
532.3146781963274
 21
-76.94566726684568
 31
0.0
  0
INSERT
  5
213
  8
LAYER0001
  6
CONTINUOUS
  2
DC_GROUP_24
 10
0.0
 20
0.0
 30
0.0
  0
INSERT
  5
214
  8
LAYER0001
  6
DOT2
  2
DC_GROUP_25
 10
0.0
 20
0.0
 30
0.0
  0
TEXT
  5
215
  8
LAYER0001
 62
     7
 10
519.5146781963273
 20
-75.34566726684568
 30
0.0
 40
4.0
  1
φ16
 41
0.6093750000000053
  7
FDASTYLE1
 72
     5
 11
527.3146781963274
 21
-75.34566726684568
 31
0.0
  0
ENDBLK
  5
90
  8
0
  0
BLOCK
  8
0
  2
DC_GROUP_24
 70
     0
 10
0.0
 20
0.0
 30
0.0
  3
DC_GROUP_24
  1

  0
LINE
  5
216
  8
LAYER0001
  6
CONTINUOUS
 62
     7
 10
518.3146613451688
 20
-77.48156680174328
 30
0.0
 11
516.3146629375382
 21
-76.94566726684568
 31
0.0
  0
LINE
  5
217
  8
LAYER0001
  6
CONTINUOUS
 62
     7
 10
516.3146629375382
 20
-76.94566726684568
 30
0.0
 11
518.3146613451688
 21
-76.40976773194807
 31
0.0
  0
LINE
  5
218
  8
LAYER0001
  6
CONTINUOUS
 62
     7
 10
516.3146629375382
 20
-76.94566726684568
 30
0.0
 11
518.3146613451688
 21
-76.94566726684568
 31
0.0
  0
ENDBLK
  5
93
  8
0
  0
BLOCK
  8
0
  2
DC_GROUP_25
 70
     0
 10
0.0
 20
0.0
 30
0.0
  3
DC_GROUP_25
  1

  0
LINE
  5
219
  8
LAYER0001
  6
CONTINUOUS
 62
     7
 10
530.3146797886966
 20
-76.40976773194807
 30
0.0
 11
532.3146781963274
 21
-76.94566726684568
 31
0.0
  0
LINE
  5
21A
  8
LAYER0001
  6
CONTINUOUS
 62
     7
 10
532.3146781963274
 20
-76.94566726684568
 30
0.0
 11
530.3146797886966
 21
-77.48156680174328
 31
0.0
  0
LINE
  5
21B
  8
LAYER0001
  6
CONTINUOUS
 62
     7
 10
532.3146781963274
 20
-76.94566726684568
 30
0.0
 11
530.3146797886966
 21
-76.94566726684568
 31
0.0
  0
ENDBLK
  5
96
  8
0
  0
BLOCK
  8
0
  2
DC_GROUP_26
 70
     0
 10
0.0
 20
0.0
 30
0.0
  3
DC_GROUP_26
  1

  0
LINE
  5
21C
  8
LAYER0001
  6
CONTINUOUS
 62
     7
 10
515.9201674656699
 20
20.2431967062275
 30
0.0
 11
556.8111726863106
 21
-45.94910414017616
 31
0.0
  0
LINE
  5
21D
  8
LAYER0001
  6
CONTINUOUS
 62
     7
 10
556.8111728807824
 20
-45.94909771089718
 30
0.0
 11
592.8425144335167
 21
-45.94909771089718
 31
0.0
  0
INSERT
  5
21E
  8
LAYER0001
  6
CONTINUOUS
  2
DC_GROUP_27
 10
0.0
 20
0.0
 30
0.0
  0
TEXT
  5
21F
  8
LAYER0001
 62
     7
 10
559.0145115038292
 20
-44.34909771089718
 30
0.0
 40
4.0
  1
3-M4 PCD48
 41
0.7923809523809524
  7
FDASTYLE1
 72
     5
 11
590.7097495990673
 21
-44.34909771089718
 31
0.0
  0
ENDBLK
  5
99
  8
0
  0
BLOCK
  8
0
  2
DC_GROUP_27
 70
     0
 10
0.0
 20
0.0
 30
0.0
  3
DC_GROUP_27
  1

  0
LINE
  5
220
  8
LAYER0001
  6
CONTINUOUS
 62
     7
 10
516.5153733350117
 20
18.26003964862218
 30
0.0
 11
515.9201674656699
 21
20.2431967062275
 31
0.0
  0
LINE
  5
221
  8
LAYER0001
  6
CONTINUOUS
 62
     7
 10
515.9201674656699
 20
20.2431967062275
 30
0.0
 11
517.4272114865477
 21
18.82333746631487
 31
0.0
  0
LINE
  5
222
  8
LAYER0001
  6
CONTINUOUS
 62
     7
 10
515.9201674656699
 20
20.2431967062275
 30
0.0
 11
516.9712924107796
 21
18.54168855746853
 31
0.0
  0
ENDBLK
  5
9C
  8
0
  0
BLOCK
  8
0
  2
DC_GROUP_28
 70
     0
 10
0.0
 20
0.0
 30
0.0
  3
DC_GROUP_28
  1

  0
LINE
  5
223
  8
LAYER0001
  6
CONTINUOUS
 62
     7
 10
253.4786504393507
 20
116.9765386962891
 30
0.0
 11
253.4786504393507
 21
135.0
 31
0.0
  0
LINE
  5
224
  8
LAYER0001
  6
CONTINUOUS
 62
     7
 10
252.4786504393507
 20
119.097861328125
 30
0.0
 11
252.4786504393507
 21
135.0
 31
0.0
  0
LINE
  5
225
  8
LAYER0001
  6
CONTINUOUS
 62
     7
 10
253.4786504393507
 20
134.0
 30
0.0
 11
252.4786504393507
 21
134.0
 31
0.0
  0
LINE
  5
226
  8
LAYER0001
  6
CONTINUOUS
 62
     7
 10
253.4786504393507
 20
134.0
 30
0.0
 11
259.8286504393507
 21
134.0
 31
0.0
  0
LINE
  5
227
  8
LAYER0001
  6
CONTINUOUS
 62
     7
 10
246.1286504393507
 20
134.0
 30
0.0
 11
252.4786504393507
 21
134.0
 31
0.0
  0
INSERT
  5
228
  8
LAYER0001
  6
CONTINUOUS
  2
DC_GROUP_29
 10
0.0
 20
0.0
 30
0.0
  0
INSERT
  5
229
  8
LAYER0001
  6
CONTINUOUS
  2
DC_GROUP_30
 10
0.0
 20
0.0
 30
0.0
  0
TEXT
  5
22A
  8
LAYER0001
 62
     7
 10
245.4850652342726
 20
135.6
 30
0.0
 40
4.0
  1
1
 41
0.1904761904761898
  7
FDASTYLE1
 72
     5
 11
246.2469699961773
 21
135.6
 31
0.0
  0
ENDBLK
  5
9F
  8
0
  0
BLOCK
  8
0
  2
DC_GROUP_29
 70
     0
 10
0.0
 20
0.0
 30
0.0
  3
DC_GROUP_29
  1

  0
LINE
  5
22B
  8
LAYER0001
  6
CONTINUOUS
 62
     7
 10
255.4786488469813
 20
133.4641004651024
 30
0.0
 11
253.4786504393507
 21
134.0
 31
0.0
  0
LINE
  5
22C
  8
LAYER0001
  6
CONTINUOUS
 62
     7
 10
253.4786504393507
 20
134.0
 30
0.0
 11
255.4786488469813
 21
134.5358995348976
 31
0.0
  0
LINE
  5
22D
  8
LAYER0001
  6
CONTINUOUS
 62
     7
 10
253.4786504393507
 20
134.0
 30
0.0
 11
255.4786488469813
 21
134.0
 31
0.0
  0
ENDBLK
  5
A2
  8
0
  0
BLOCK
  8
0
  2
DC_GROUP_30
 70
     0
 10
0.0
 20
0.0
 30
0.0
  3
DC_GROUP_30
  1

  0
LINE
  5
22E
  8
LAYER0001
  6
CONTINUOUS
 62
     7
 10
250.47865203172
 20
134.5358995348976
 30
0.0
 11
252.4786504393507
 21
134.0
 31
0.0
  0
LINE
  5
22F
  8
LAYER0001
  6
CONTINUOUS
 62
     7
 10
252.4786504393507
 20
134.0
 30
0.0
 11
250.47865203172
 21
133.4641004651024
 31
0.0
  0
LINE
  5
230
  8
LAYER0001
  6
CONTINUOUS
 62
     7
 10
252.4786504393507
 20
134.0
 30
0.0
 11
250.47865203172
 21
134.0
 31
0.0
  0
ENDBLK
  5
A5
  8
0
  0
BLOCK
  8
0
  2
DC_GROUP_31
 70
     0
 10
0.0
 20
0.0
 30
0.0
  3
DC_GROUP_31
  1

  0
LINE
  5
231
  8
LAYER0001
  6
CONTINUOUS
 62
     7
 10
233.2286504393507
 20
20.98212051391604
 30
0.0
 11
242.2286504393507
 21
20.98212051391604
 31
0.0
  0
LINE
  5
232
  8
LAYER0001
  6
CONTINUOUS
 62
     7
 10
233.2286504393507
 20
20.98212051391604
 30
0.0
 11
226.8786504393507
 21
20.98212051391604
 31
0.0
  0
LINE
  5
233
  8
LAYER0001
  6
CONTINUOUS
 62
     7
 10
248.5786504393507
 20
20.98212051391604
 30
0.0
 11
242.2286504393507
 21
20.98212051391604
 31
0.0
  0
INSERT
  5
234
  8
LAYER0001
  6
CONTINUOUS
  2
DC_GROUP_32
 10
0.0
 20
0.0
 30
0.0
  0
INSERT
  5
235
  8
LAYER0001
  6
CONTINUOUS
  2
DC_GROUP_33
 10
0.0
 20
0.0
 30
0.0
  0
TEXT
  5
236
  8
LAYER0001
 62
     7
 10
236.1286504393507
 20
22.58212051391605
 30
0.0
 40
4.0
  1
9
 41
0.4952380952380935
  7
FDASTYLE1
 72
     5
 11
238.1096028203031
 21
22.58212051391605
 31
0.0
  0
ENDBLK
  5
A8
  8
0
  0
BLOCK
  8
0
  2
DC_GROUP_32
 70
     0
 10
0.0
 20
0.0
 30
0.0
  3
DC_GROUP_32
  1

  0
LINE
  5
237
  8
LAYER0001
  6
CONTINUOUS
 62
     7
 10
231.22865203172
 20
21.51802004881365
 30
0.0
 11
233.2286504393507
 21
20.98212051391604
 31
0.0
  0
LINE
  5
238
  8
LAYER0001
  6
CONTINUOUS
 62
     7
 10
233.2286504393507
 20
20.98212051391604
 30
0.0
 11
231.22865203172
 21
20.44622097901843
 31
0.0
  0
LINE
  5
239
  8
LAYER0001
  6
CONTINUOUS
 62
     7
 10
233.2286504393507
 20
20.98212051391604
 30
0.0
 11
231.22865203172
 21
20.98212051391604
 31
0.0
  0
ENDBLK
  5
AB
  8
0
  0
BLOCK
  8
0
  2
DC_GROUP_33
 70
     0
 10
0.0
 20
0.0
 30
0.0
  3
DC_GROUP_33
  1

  0
LINE
  5
23A
  8
LAYER0001
  6
CONTINUOUS
 62
     7
 10
244.2286488469813
 20
20.44622097901843
 30
0.0
 11
242.2286504393507
 21
20.98212051391604
 31
0.0
  0
LINE
  5
23B
  8
LAYER0001
  6
CONTINUOUS
 62
     7
 10
242.2286504393507
 20
20.98212051391604
 30
0.0
 11
244.2286488469813
 21
21.51802004881365
 31
0.0
  0
LINE
  5
23C
  8
LAYER0001
  6
CONTINUOUS
 62
     7
 10
242.2286504393507
 20
20.98212051391604
 30
0.0
 11
244.2286488469813
 21
20.98212051391604
 31
0.0
  0
ENDBLK
  5
AE
  8
0
  0
BLOCK
  8
0
  2
DC_GROUP_34
 70
     0
 10
0.0
 20
0.0
 30
0.0
  3
DC_GROUP_34
  1

  0
LINE
  5
23D
  8
LAYER0001
  6
CONTINUOUS
 62
     7
 10
225.2286504393507
 20
20.98212051391604
 30
0.0
 11
233.2286504393507
 21
20.98212051391604
 31
0.0
  0
INSERT
  5
23E
  8
LAYER0001
  6
CENTER
  2
DC_GROUP_35
 10
0.0
 20
0.0
 30
0.0
  0
INSERT
  5
23F
  8
LAYER0001
  6
CONTINUOUS
  2
DC_GROUP_36
 10
0.0
 20
0.0
 30
0.0
  0
TEXT
  5
240
  8
LAYER0001
 62
     7
 10
227.6286504393507
 20
22.58212051391605
 30
0.0
 40
4.0
  1
8
 41
0.5333333333333314
  7
FDASTYLE1
 72
     5
 11
229.761983772684
 21
22.58212051391605
 31
0.0
  0
ENDBLK
  5
B1
  8
0
  0
BLOCK
  8
0
  2
DC_GROUP_35
 70
     0
 10
0.0
 20
0.0
 30
0.0
  3
DC_GROUP_35
  1

  0
LINE
  5
241
  8
LAYER0001
  6
CONTINUOUS
 62
     7
 10
227.2286488469813
 20
20.44622097901843
 30
0.0
 11
225.2286504393507
 21
20.98212051391604
 31
0.0
  0
LINE
  5
242
  8
LAYER0001
  6
CONTINUOUS
 62
     7
 10
225.2286504393507
 20
20.98212051391604
 30
0.0
 11
227.2286488469813
 21
21.51802004881364
 31
0.0
  0
LINE
  5
243
  8
LAYER0001
  6
CONTINUOUS
 62
     7
 10
225.2286504393507
 20
20.98212051391604
 30
0.0
 11
227.2286488469813
 21
20.98212051391604
 31
0.0
  0
ENDBLK
  5
B4
  8
0
  0
BLOCK
  8
0
  2
DC_GROUP_36
 70
     0
 10
0.0
 20
0.0
 30
0.0
  3
DC_GROUP_36
  1

  0
LINE
  5
244
  8
LAYER0001
  6
CONTINUOUS
 62
     7
 10
231.22865203172
 20
21.51802004881365
 30
0.0
 11
233.2286504393507
 21
20.98212051391604
 31
0.0
  0
LINE
  5
245
  8
LAYER0001
  6
CONTINUOUS
 62
     7
 10
233.2286504393507
 20
20.98212051391604
 30
0.0
 11
231.22865203172
 21
20.44622097901843
 31
0.0
  0
LINE
  5
246
  8
LAYER0001
  6
CONTINUOUS
 62
     7
 10
233.2286504393507
 20
20.98212051391604
 30
0.0
 11
231.22865203172
 21
20.98212051391604
 31
0.0
  0
ENDBLK
  5
B7
  8
0
  0
BLOCK
  8
0
  2
DC_GROUP_37
 70
     0
 10
0.0
 20
0.0
 30
0.0
  3
DC_GROUP_37
  1

  0
LINE
  5
247
  8
LAYER0001
  6
CONTINUOUS
 62
     7
 10
202.2286504393507
 20
20.98212051391604
 30
0.0
 11
225.2286504393507
 21
20.98212051391604
 31
0.0
  0
INSERT
  5
248
  8
LAYER0001
  6
CENTER
  2
DC_GROUP_38
 10
0.0
 20
0.0
 30
0.0
  0
INSERT
  5
249
  8
LAYER0001
  6
CENTER
  2
DC_GROUP_39
 10
0.0
 20
0.0
 30
0.0
  0
TEXT
  5
24A
  8
LAYER0001
 62
     7
 10
210.5286504393507
 20
22.58212051391605
 30
0.0
 40
4.0
  1
23
 41
0.6476190476190453
  7
FDASTYLE1
 72
     5
 11
215.7096028203031
 21
22.58212051391605
 31
0.0
  0
ENDBLK
  5
BA
  8
0
  0
BLOCK
  8
0
  2
DC_GROUP_38
 70
     0
 10
0.0
 20
0.0
 30
0.0
  3
DC_GROUP_38
  1

  0
LINE
  5
24B
  8
LAYER0001
  6
CONTINUOUS
 62
     7
 10
204.2286488469814
 20
20.44622097901843
 30
0.0
 11
202.2286504393507
 21
20.98212051391604
 31
0.0
  0
LINE
  5
24C
  8
LAYER0001
  6
CONTINUOUS
 62
     7
 10
202.2286504393507
 20
20.98212051391604
 30
0.0
 11
204.2286488469814
 21
21.51802004881365
 31
0.0
  0
LINE
  5
24D
  8
LAYER0001
  6
CONTINUOUS
 62
     7
 10
202.2286504393507
 20
20.98212051391604
 30
0.0
 11
204.2286488469814
 21
20.98212051391604
 31
0.0
  0
ENDBLK
  5
BD
  8
0
  0
BLOCK
  8
0
  2
DC_GROUP_39
 70
     0
 10
0.0
 20
0.0
 30
0.0
  3
DC_GROUP_39
  1

  0
LINE
  5
24E
  8
LAYER0001
  6
CONTINUOUS
 62
     7
 10
223.22865203172
 20
21.51802004881365
 30
0.0
 11
225.2286504393507
 21
20.98212051391604
 31
0.0
  0
LINE
  5
24F
  8
LAYER0001
  6
CONTINUOUS
 62
     7
 10
225.2286504393507
 20
20.98212051391604
 30
0.0
 11
223.22865203172
 21
20.44622097901843
 31
0.0
  0
LINE
  5
250
  8
LAYER0001
  6
CONTINUOUS
 62
     7
 10
225.2286504393507
 20
20.98212051391604
 30
0.0
 11
223.22865203172
 21
20.98212051391604
 31
0.0
  0
ENDBLK
  5
C0
  8
0
  0
BLOCK
  8
0
  2
DC_GROUP_40
 70
     0
 10
0.0
 20
0.0
 30
0.0
  3
DC_GROUP_40
  1

  0
LINE
  5
251
  8
LAYER0001
  6
CONTINUOUS
 62
     7
 10
250.9786504393507
 20
12.38682937622073
 30
0.0
 11
253.4786504393507
 21
12.38682937622073
 31
0.0
  0
LINE
  5
252
  8
LAYER0001
  6
CONTINUOUS
 62
     7
 10
250.9786504393507
 20
12.38682937622073
 30
0.0
 11
244.6286504393507
 21
12.38682937622073
 31
0.0
  0
LINE
  5
253
  8
LAYER0001
  6
CONTINUOUS
 62
     7
 10
259.8286504393507
 20
12.38682937622073
 30
0.0
 11
253.4786504393507
 21
12.38682937622073
 31
0.0
  0
INSERT
  5
254
  8
LAYER0001
  6
CONTINUOUS
  2
DC_GROUP_41
 10
0.0
 20
0.0
 30
0.0
  0
INSERT
  5
255
  8
LAYER0001
  6
CONTINUOUS
  2
DC_GROUP_42
 10
0.0
 20
0.0
 30
0.0
  0
TEXT
  5
256
  8
LAYER0001
 62
     7
 10
256.3467412596632
 20
13.98682937622073
 30
0.0
 40
4.0
  1
2.5
 41
0.5587301587301568
  7
FDASTYLE1
 72
     5
 11
263.0515031644251
 21
13.98682937622073
 31
0.0
  0
ENDBLK
  5
C3
  8
0
  0
BLOCK
  8
0
  2
DC_GROUP_41
 70
     0
 10
0.0
 20
0.0
 30
0.0
  3
DC_GROUP_41
  1

  0
LINE
  5
257
  8
LAYER0001
  6
CONTINUOUS
 62
     7
 10
248.97865203172
 20
12.92272891111834
 30
0.0
 11
250.9786504393507
 21
12.38682937622073
 31
0.0
  0
LINE
  5
258
  8
LAYER0001
  6
CONTINUOUS
 62
     7
 10
250.9786504393507
 20
12.38682937622073
 30
0.0
 11
248.97865203172
 21
11.85092984132312
 31
0.0
  0
LINE
  5
259
  8
LAYER0001
  6
CONTINUOUS
 62
     7
 10
250.9786504393507
 20
12.38682937622073
 30
0.0
 11
248.97865203172
 21
12.38682937622073
 31
0.0
  0
ENDBLK
  5
C6
  8
0
  0
BLOCK
  8
0
  2
DC_GROUP_42
 70
     0
 10
0.0
 20
0.0
 30
0.0
  3
DC_GROUP_42
  1

  0
LINE
  5
25A
  8
LAYER0001
  6
CONTINUOUS
 62
     7
 10
255.4786488469813
 20
11.85092984132312
 30
0.0
 11
253.4786504393507
 21
12.38682937622073
 31
0.0
  0
LINE
  5
25B
  8
LAYER0001
  6
CONTINUOUS
 62
     7
 10
253.4786504393507
 20
12.38682937622073
 30
0.0
 11
255.4786488469813
 21
12.92272891111834
 31
0.0
  0
LINE
  5
25C
  8
LAYER0001
  6
CONTINUOUS
 62
     7
 10
253.4786504393507
 20
12.38682937622073
 30
0.0
 11
255.4786488469813
 21
12.38682937622073
 31
0.0
  0
ENDBLK
  5
C9
  8
0
  0
BLOCK
  8
0
  2
DC_GROUP_43
 70
     0
 10
0.0
 20
0.0
 30
0.0
  3
DC_GROUP_43
  1

  0
LINE
  5
25D
  8
LAYER0001
  6
CONTINUOUS
 62
     7
 10
183.4786504393507
 20
-96.02699912143264
 30
0.0
 11
253.4786504393507
 21
-96.02699912143264
 31
0.0
  0
LINE
  5
25E
  8
LAYER0001
  6
CONTINUOUS
 62
     7
 10
183.4786504393507
 20
-50.98215011596677
 30
0.0
 11
183.4786504393507
 21
-97.02699912143264
 31
0.0
  0
LINE
  5
25F
  8
LAYER0001
  6
CONTINUOUS
 62
     7
 10
253.4786504393507
 20
-48.98215011596677
 30
0.0
 11
253.4786504393507
 21
-97.02699912143264
 31
0.0
  0
INSERT
  5
260
  8
LAYER0001
  6
CENTER
  2
DC_GROUP_44
 10
0.0
 20
0.0
 30
0.0
  0
INSERT
  5
261
  8
LAYER0001
  6
CONTINUOUS
  2
DC_GROUP_45
 10
0.0
 20
0.0
 30
0.0
  0
TEXT
  5
262
  8
LAYER0001
 62
     7
 10
215.2786504393507
 20
-95.02699912143264
 30
0.0
 40
4.0
  1
70
 41
0.6476190476190453
  7
FDASTYLE1
 72
     5
 11
220.4596028203031
 21
-95.02699912143264
 31
0.0
  0
ENDBLK
  5
CC
  8
0
  0
BLOCK
  8
0
  2
DC_GROUP_44
 70
     0
 10
0.0
 20
0.0
 30
0.0
  3
DC_GROUP_44
  1

  0
LINE
  5
263
  8
LAYER0001
  6
CONTINUOUS
 62
     7
 10
185.4786488469813
 20
-96.56289865633025
 30
0.0
 11
183.4786504393507
 21
-96.02699912143264
 31
0.0
  0
LINE
  5
264
  8
LAYER0001
  6
CONTINUOUS
 62
     7
 10
183.4786504393507
 20
-96.02699912143264
 30
0.0
 11
185.4786488469813
 21
-95.49109958653503
 31
0.0
  0
LINE
  5
265
  8
LAYER0001
  6
CONTINUOUS
 62
     7
 10
183.4786504393507
 20
-96.02699912143264
 30
0.0
 11
185.4786488469813
 21
-96.02699912143264
 31
0.0
  0
ENDBLK
  5
CF
  8
0
  0
BLOCK
  8
0
  2
DC_GROUP_45
 70
     0
 10
0.0
 20
0.0
 30
0.0
  3
DC_GROUP_45
  1

  0
LINE
  5
266
  8
LAYER0001
  6
CONTINUOUS
 62
     7
 10
251.47865203172
 20
-95.49109958653503
 30
0.0
 11
253.4786504393507
 21
-96.02699912143264
 31
0.0
  0
LINE
  5
267
  8
LAYER0001
  6
CONTINUOUS
 62
     7
 10
253.4786504393507
 20
-96.02699912143264
 30
0.0
 11
251.47865203172
 21
-96.56289865633025
 31
0.0
  0
LINE
  5
268
  8
LAYER0001
  6
CONTINUOUS
 62
     7
 10
253.4786504393507
 20
-96.02699912143264
 30
0.0
 11
251.47865203172
 21
-96.02699912143264
 31
0.0
  0
ENDBLK
  5
D2
  8
0
  0
BLOCK
  8
0
  2
DC_GROUP_46
 70
     0
 10
0.0
 20
0.0
 30
0.0
  3
DC_GROUP_46
  1

  0
LINE
  5
269
  8
LAYER0001
  6
CONTINUOUS
 62
     7
 10
187.6786016112257
 20
-86.02699912143264
 30
0.0
 11
253.4786504393507
 21
-86.02699912143264
 31
0.0
  0
LINE
  5
26A
  8
LAYER0001
  6
CONTINUOUS
 62
     7
 10
187.6786016112257
 20
-43.48215011596677
 30
0.0
 11
187.6786016112257
 21
-87.02699912143264
 31
0.0
  0
LINE
  5
26B
  8
LAYER0001
  6
CONTINUOUS
 62
     7
 10
253.4786504393507
 20
-48.98215011596677
 30
0.0
 11
253.4786504393507
 21
-87.02699912143264
 31
0.0
  0
INSERT
  5
26C
  8
LAYER0001
  6
CENTER
  2
DC_GROUP_47
 10
0.0
 20
0.0
 30
0.0
  0
INSERT
  5
26D
  8
LAYER0001
  6
CONTINUOUS
  2
DC_GROUP_48
 10
0.0
 20
0.0
 30
0.0
  0
TEXT
  5
26E
  8
LAYER0001
 62
     7
 10
213.165559924214
 20
-85.02699912143264
 30
0.0
 40
4.0
  1
65.8
 41
0.6000000000000014
  7
FDASTYLE1
 72
     5
 11
222.765559924214
 21
-85.02699912143264
 31
0.0
  0
ENDBLK
  5
D5
  8
0
  0
BLOCK
  8
0
  2
DC_GROUP_47
 70
     0
 10
0.0
 20
0.0
 30
0.0
  3
DC_GROUP_47
  1

  0
LINE
  5
26F
  8
LAYER0001
  6
CONTINUOUS
 62
     7
 10
189.6786000188563
 20
-86.56289865633025
 30
0.0
 11
187.6786016112257
 21
-86.02699912143264
 31
0.0
  0
LINE
  5
270
  8
LAYER0001
  6
CONTINUOUS
 62
     7
 10
187.6786016112257
 20
-86.02699912143264
 30
0.0
 11
189.6786000188563
 21
-85.49109958653502
 31
0.0
  0
LINE
  5
271
  8
LAYER0001
  6
CONTINUOUS
 62
     7
 10
187.6786016112257
 20
-86.02699912143264
 30
0.0
 11
189.6786000188563
 21
-86.02699912143264
 31
0.0
  0
ENDBLK
  5
D8
  8
0
  0
BLOCK
  8
0
  2
DC_GROUP_48
 70
     0
 10
0.0
 20
0.0
 30
0.0
  3
DC_GROUP_48
  1

  0
LINE
  5
272
  8
LAYER0001
  6
CONTINUOUS
 62
     7
 10
251.47865203172
 20
-85.49109958653502
 30
0.0
 11
253.4786504393507
 21
-86.02699912143264
 31
0.0
  0
LINE
  5
273
  8
LAYER0001
  6
CONTINUOUS
 62
     7
 10
253.4786504393507
 20
-86.02699912143264
 30
0.0
 11
251.47865203172
 21
-86.56289865633025
 31
0.0
  0
LINE
  5
274
  8
LAYER0001
  6
CONTINUOUS
 62
     7
 10
253.4786504393507
 20
-86.02699912143264
 30
0.0
 11
251.47865203172
 21
-86.02699912143264
 31
0.0
  0
ENDBLK
  5
DB
  8
0
  0
BLOCK
  8
0
  2
DC_GROUP_49
 70
     0
 10
0.0
 20
0.0
 30
0.0
  3
DC_GROUP_49
  1

  0
LINE
  5
275
  8
LAYER0001
  6
CONTINUOUS
 62
     7
 10
183.4786504393507
 20
-86.02699912143264
 30
0.0
 11
187.6786016112257
 21
-86.02699912143264
 31
0.0
  0
LINE
  5
276
  8
LAYER0001
  6
CONTINUOUS
 62
     7
 10
183.4786504393507
 20
-50.98215011596677
 30
0.0
 11
183.4786504393507
 21
-87.02699912143264
 31
0.0
  0
LINE
  5
277
  8
LAYER0001
  6
CONTINUOUS
 62
     7
 10
187.6786016112257
 20
-43.48215011596677
 30
0.0
 11
187.6786016112257
 21
-87.02699912143264
 31
0.0
  0
LINE
  5
278
  8
LAYER0001
  6
CONTINUOUS
 62
     7
 10
169.0350347166945
 20
-86.02699912143264
 30
0.0
 11
183.4786504393507
 21
-86.02699912143264
 31
0.0
  0
LINE
  5
279
  8
LAYER0001
  6
CONTINUOUS
 62
     7
 10
192.6786016112257
 20
-86.02699912143264
 30
0.0
 11
187.6786016112257
 21
-86.02699912143264
 31
0.0
  0
INSERT
  5
27A
  8
LAYER0001
  6
CENTER
  2
DC_GROUP_50
 10
0.0
 20
0.0
 30
0.0
  0
INSERT
  5
27B
  8
LAYER0001
  6
CENTER
  2
DC_GROUP_51
 10
0.0
 20
0.0
 30
0.0
  0
TEXT
  5
27C
  8
LAYER0001
 62
     7
 10
170.0350347166945
 20
-85.02699912143264
 30
0.0
 40
4.0
  1
4.2
 41
0.5587301587301591
  7
FDASTYLE1
 72
     5
 11
176.7397966214564
 21
-85.02699912143264
 31
0.0
  0
ENDBLK
  5
DE
  8
0
  0
BLOCK
  8
0
  2
DC_GROUP_50
 70
     0
 10
0.0
 20
0.0
 30
0.0
  3
DC_GROUP_50
  1

  0
LINE
  5
27D
  8
LAYER0001
  6
CONTINUOUS
 62
     7
 10
181.47865203172
 20
-85.49109958653502
 30
0.0
 11
183.4786504393507
 21
-86.02699912143264
 31
0.0
  0
LINE
  5
27E
  8
LAYER0001
  6
CONTINUOUS
 62
     7
 10
183.4786504393507
 20
-86.02699912143264
 30
0.0
 11
181.47865203172
 21
-86.56289865633025
 31
0.0
  0
LINE
  5
27F
  8
LAYER0001
  6
CONTINUOUS
 62
     7
 10
183.4786504393507
 20
-86.02699912143264
 30
0.0
 11
181.47865203172
 21
-86.02699912143264
 31
0.0
  0
ENDBLK
  5
E1
  8
0
  0
BLOCK
  8
0
  2
DC_GROUP_51
 70
     0
 10
0.0
 20
0.0
 30
0.0
  3
DC_GROUP_51
  1

  0
LINE
  5
280
  8
LAYER0001
  6
CONTINUOUS
 62
     7
 10
189.6786000188563
 20
-86.56289865633025
 30
0.0
 11
187.6786016112257
 21
-86.02699912143264
 31
0.0
  0
LINE
  5
281
  8
LAYER0001
  6
CONTINUOUS
 62
     7
 10
187.6786016112257
 20
-86.02699912143264
 30
0.0
 11
189.6786000188563
 21
-85.49109958653502
 31
0.0
  0
LINE
  5
282
  8
LAYER0001
  6
CONTINUOUS
 62
     7
 10
187.6786016112257
 20
-86.02699912143264
 30
0.0
 11
189.6786000188563
 21
-86.02699912143264
 31
0.0
  0
ENDBLK
  5
E4
  8
0
  0
BLOCK
  8
0
  2
DC_GROUP_52
 70
     0
 10
0.0
 20
0.0
 30
0.0
  3
DC_GROUP_52
  1

  0
LINE
  5
283
  8
LAYER0001
  6
CONTINUOUS
 62
     7
 10
187.6786016112257
 20
-73.46060557134764
 30
0.0
 11
225.2286504393507
 21
-73.46060557134764
 31
0.0
  0
LINE
  5
284
  8
LAYER0001
  6
CONTINUOUS
 62
     7
 10
187.6786016112257
 20
-43.48215011596677
 30
0.0
 11
187.6786016112257
 21
-74.46060557134764
 31
0.0
  0
LINE
  5
285
  8
LAYER0001
  6
CONTINUOUS
 62
     7
 10
225.2286504393507
 20
6.517849884033232
 30
0.0
 11
225.2286504393507
 21
-74.46060557134764
 31
0.0
  0
INSERT
  5
286
  8
LAYER0001
  6
CENTER
  2
DC_GROUP_53
 10
0.0
 20
0.0
 30
0.0
  0
INSERT
  5
287
  8
LAYER0001
  6
CENTER
  2
DC_GROUP_54
 10
0.0
 20
0.0
 30
0.0
  0
TEXT
  5
288
  8
LAYER0001
 62
     7
 10
195.2536260252882
 20
-72.46060557134764
 30
0.0
 40
4.0
  1
MAX46.3
 41
0.6802721088435371
  7
FDASTYLE1
 72
     5
 11
214.3012450729072
 21
-72.46060557134764
 31
0.0
  0
ENDBLK
  5
E7
  8
0
  0
BLOCK
  8
0
  2
DC_GROUP_53
 70
     0
 10
0.0
 20
0.0
 30
0.0
  3
DC_GROUP_53
  1

  0
LINE
  5
289
  8
LAYER0001
  6
CONTINUOUS
 62
     7
 10
189.6786000188563
 20
-73.99650510624525
 30
0.0
 11
187.6786016112257
 21
-73.46060557134764
 31
0.0
  0
LINE
  5
28A
  8
LAYER0001
  6
CONTINUOUS
 62
     7
 10
187.6786016112257
 20
-73.46060557134764
 30
0.0
 11
189.6786000188563
 21
-72.92470603645003
 31
0.0
  0
LINE
  5
28B
  8
LAYER0001
  6
CONTINUOUS
 62
     7
 10
187.6786016112257
 20
-73.46060557134764
 30
0.0
 11
189.6786000188563
 21
-73.46060557134764
 31
0.0
  0
ENDBLK
  5
EA
  8
0
  0
BLOCK
  8
0
  2
DC_GROUP_54
 70
     0
 10
0.0
 20
0.0
 30
0.0
  3
DC_GROUP_54
  1

  0
LINE
  5
28C
  8
LAYER0001
  6
CONTINUOUS
 62
     7
 10
223.22865203172
 20
-72.92470603645003
 30
0.0
 11
225.2286504393507
 21
-73.46060557134764
 31
0.0
  0
LINE
  5
28D
  8
LAYER0001
  6
CONTINUOUS
 62
     7
 10
225.2286504393507
 20
-73.46060557134764
 30
0.0
 11
223.22865203172
 21
-73.99650510624525
 31
0.0
  0
LINE
  5
28E
  8
LAYER0001
  6
CONTINUOUS
 62
     7
 10
225.2286504393507
 20
-73.46060557134764
 30
0.0
 11
223.22865203172
 21
-73.46060557134764
 31
0.0
  0
ENDBLK
  5
ED
  8
0
  0
BLOCK
  8
0
  2
DC_GROUP_55
 70
     0
 10
0.0
 20
0.0
 30
0.0
  3
DC_GROUP_55
  1

  0
LINE
  5
28F
  8
LAYER0001
  6
CONTINUOUS
 62
     7
 10
169.9386504393507
 20
-13.32714462280271
 30
0.0
 11
156.0223058348585
 21
-13.32714462280271
 31
0.0
  0
LINE
  5
290
  8
LAYER0001
  6
CONTINUOUS
 62
     7
 10
169.9386504393507
 20
-23.32714462280271
 30
0.0
 11
156.0223058348585
 21
-23.32714462280271
 31
0.0
  0
LINE
  5
291
  8
LAYER0001
  6
CONTINUOUS
 62
     7
 10
157.0223058348585
 20
-13.32714843749997
 30
0.0
 11
157.0223058348585
 21
-23.32714843749997
 31
0.0
  0
INSERT
  5
292
  8
LAYER0001
  6
CONTINUOUS
  2
DC_GROUP_56
 10
0.0
 20
0.0
 30
0.0
  0
INSERT
  5
293
  8
LAYER0001
  6
CONTINUOUS
  2
DC_GROUP_57
 10
0.0
 20
0.0
 30
0.0
  0
TEXT
  5
294
  8
LAYER0001
 62
     7
 10
155.4223058348586
 20
-23.12714462280272
 30
0.0
 40
4.0
  1
M10
 50
90.0
 41
0.723809523809526
  7
FDASTYLE1
 72
     5
 11
155.4223058348586
 21
-14.44143033708841
 31
0.0
  0
ENDBLK
  5
F0
  8
0
  0
BLOCK
  8
0
  2
DC_GROUP_56
 70
     0
 10
0.0
 20
0.0
 30
0.0
  3
DC_GROUP_56
  1

  0
LINE
  5
295
  8
LAYER0001
  6
CONTINUOUS
 62
     7
 10
156.4864062999609
 20
-15.32714684513063
 30
0.0
 11
157.0223058348585
 21
-13.32714843749997
 31
0.0
  0
LINE
  5
296
  8
LAYER0001
  6
CONTINUOUS
 62
     7
 10
157.0223058348585
 20
-13.32714843749997
 30
0.0
 11
157.5582053697561
 21
-15.32714684513063
 31
0.0
  0
LINE
  5
297
  8
LAYER0001
  6
CONTINUOUS
 62
     7
 10
157.0223058348585
 20
-13.32714843749997
 30
0.0
 11
157.0223058348585
 21
-15.32714684513063
 31
0.0
  0
ENDBLK
  5
F3
  8
0
  0
BLOCK
  8
0
  2
DC_GROUP_57
 70
     0
 10
0.0
 20
0.0
 30
0.0
  3
DC_GROUP_57
  1

  0
LINE
  5
298
  8
LAYER0001
  6
CONTINUOUS
 62
     7
 10
157.5582053697561
 20
-21.32715002986931
 30
0.0
 11
157.0223058348585
 21
-23.32714843749997
 31
0.0
  0
LINE
  5
299
  8
LAYER0001
  6
CONTINUOUS
 62
     7
 10
157.0223058348585
 20
-23.32714843749997
 30
0.0
 11
156.4864062999609
 21
-21.32715002986931
 31
0.0
  0
LINE
  5
29A
  8
LAYER0001
  6
CONTINUOUS
 62
     7
 10
157.0223058348585
 20
-23.32714843749997
 30
0.0
 11
157.0223058348585
 21
-21.32715002986931
 31
0.0
  0
ENDBLK
  5
F6
  8
0
  0
BLOCK
  8
0
  2
DC_GROUP_58
 70
     0
 10
0.0
 20
0.0
 30
0.0
  3
DC_GROUP_58
  1

  0
LINE
  5
29B
  8
LAYER0001
  6
CONTINUOUS
 62
     7
 10
187.6786016112257
 20
105.3100775193798
 30
0.0
 11
187.6786016112257
 21
135.0
 31
0.0
  0
LINE
  5
29C
  8
LAYER0001
  6
CONTINUOUS
 62
     7
 10
193.4786046629835
 20
66.09784988403322
 30
0.0
 11
193.4786046629835
 21
135.0
 31
0.0
  0
LINE
  5
29D
  8
LAYER0001
  6
CONTINUOUS
 62
     7
 10
187.6786016112257
 20
134.0
 30
0.0
 11
193.4786046629835
 21
134.0
 31
0.0
  0
LINE
  5
29E
  8
LAYER0001
  6
CONTINUOUS
 62
     7
 10
160.8335733634763
 20
134.0
 30
0.0
 11
187.6786016112257
 21
134.0
 31
0.0
  0
LINE
  5
29F
  8
LAYER0001
  6
CONTINUOUS
 62
     7
 10
198.4786046629835
 20
134.0
 30
0.0
 11
193.4786046629835
 21
134.0
 31
0.0
  0
INSERT
  5
2A0
  8
LAYER0001
  6
CENTER
  2
DC_GROUP_59
 10
0.0
 20
0.0
 30
0.0
  0
INSERT
  5
2A1
  8
LAYER0001
  6
CONTINUOUS
  2
DC_GROUP_60
 10
0.0
 20
0.0
 30
0.0
  0
TEXT
  5
2A2
  8
LAYER0001
 62
     7
 10
161.8335733634763
 20
135.0
 30
0.0
 40
4.0
  1
MAX23.3
 41
0.6802721088435371
  7
FDASTYLE1
 72
     5
 11
180.8811924110953
 21
135.0
 31
0.0
  0
ENDBLK
  5
F9
  8
0
  0
BLOCK
  8
0
  2
DC_GROUP_59
 70
     0
 10
0.0
 20
0.0
 30
0.0
  3
DC_GROUP_59
  1

  0
LINE
  5
2A3
  8
LAYER0001
  6
CONTINUOUS
 62
     7
 10
185.678603203595
 20
134.5358995348976
 30
0.0
 11
187.6786016112257
 21
134.0
 31
0.0
  0
LINE
  5
2A4
  8
LAYER0001
  6
CONTINUOUS
 62
     7
 10
187.6786016112257
 20
134.0
 30
0.0
 11
185.678603203595
 21
133.4641004651024
 31
0.0
  0
LINE
  5
2A5
  8
LAYER0001
  6
CONTINUOUS
 62
     7
 10
187.6786016112257
 20
134.0
 30
0.0
 11
185.678603203595
 21
134.0
 31
0.0
  0
ENDBLK
  5
FC
  8
0
  0
BLOCK
  8
0
  2
DC_GROUP_60
 70
     0
 10
0.0
 20
0.0
 30
0.0
  3
DC_GROUP_60
  1

  0
LINE
  5
2A6
  8
LAYER0001
  6
CONTINUOUS
 62
     7
 10
195.4786030706142
 20
133.4641004651024
 30
0.0
 11
193.4786046629835
 21
134.0
 31
0.0
  0
LINE
  5
2A7
  8
LAYER0001
  6
CONTINUOUS
 62
     7
 10
193.4786046629835
 20
134.0
 30
0.0
 11
195.4786030706142
 21
134.5358995348976
 31
0.0
  0
LINE
  5
2A8
  8
LAYER0001
  6
CONTINUOUS
 62
     7
 10
193.4786046629835
 20
134.0
 30
0.0
 11
195.4786030706142
 21
134.0
 31
0.0
  0
ENDBLK
  5
FF
  8
0
  0
BLOCK
  8
0
  2
DC_GROUP_61
 70
     0
 10
0.0
 20
0.0
 30
0.0
  3
DC_GROUP_61
  1

  0
LINE
  5
2A9
  8
LAYER0001
  6
CONTINUOUS
 62
     7
 10
185.1386016112257
 20
64.55784988403323
 30
0.0
 11
146.0223058348585
 21
64.55784988403323
 31
0.0
  0
LINE
  5
2AA
  8
LAYER0001
  6
CONTINUOUS
 62
     7
 10
185.1386016112257
 20
3.557849884033232
 30
0.0
 11
146.0223058348585
 21
3.557849884033232
 31
0.0
  0
LINE
  5
2AB
  8
LAYER0001
  6
CONTINUOUS
 62
     7
 10
147.0223058348585
 20
64.55784988403323
 30
0.0
 11
147.0223058348585
 21
3.557849884033232
 31
0.0
  0
INSERT
  5
2AC
  8
LAYER0001
  6
CONTINUOUS
  2
DC_GROUP_62
 10
0.0
 20
0.0
 30
0.0
  0
INSERT
  5
2AD
  8
LAYER0001
  6
CONTINUOUS
  2
DC_GROUP_63
 10
0.0
 20
0.0
 30
0.0
  0
TEXT
  5
2AE
  8
LAYER0001
 62
     7
 10
146.0223058348585
 20
24.69464547935441
 30
0.0
 40
4.0
  1
φ61H7
 50
90.0
 41
0.6213017751479293
  7
FDASTYLE1
 72
     5
 11
146.0223058348585
 21
37.61772240243134
 31
0.0
  0
ENDBLK
  5
102
  8
0
  0
BLOCK
  8
0
  2
DC_GROUP_62
 70
     0
 10
0.0
 20
0.0
 30
0.0
  3
DC_GROUP_62
  1

  0
LINE
  5
2AF
  8
LAYER0001
  6
CONTINUOUS
 62
     7
 10
146.4864062999609
 20
62.55785147640257
 30
0.0
 11
147.0223058348585
 21
64.55784988403323
 31
0.0
  0
LINE
  5
2B0
  8
LAYER0001
  6
CONTINUOUS
 62
     7
 10
147.0223058348585
 20
64.55784988403323
 30
0.0
 11
147.5582053697561
 21
62.55785147640257
 31
0.0
  0
LINE
  5
2B1
  8
LAYER0001
  6
CONTINUOUS
 62
     7
 10
147.0223058348585
 20
64.55784988403323
 30
0.0
 11
147.0223058348585
 21
62.55785147640257
 31
0.0
  0
ENDBLK
  5
105
  8
0
  0
BLOCK
  8
0
  2
DC_GROUP_63
 70
     0
 10
0.0
 20
0.0
 30
0.0
  3
DC_GROUP_63
  1

  0
LINE
  5
2B2
  8
LAYER0001
  6
CONTINUOUS
 62
     7
 10
147.5582053697561
 20
5.557848291663895
 30
0.0
 11
147.0223058348585
 21
3.557849884033232
 31
0.0
  0
LINE
  5
2B3
  8
LAYER0001
  6
CONTINUOUS
 62
     7
 10
147.0223058348585
 20
3.557849884033232
 30
0.0
 11
146.4864062999609
 21
5.557848291663895
 31
0.0
  0
LINE
  5
2B4
  8
LAYER0001
  6
CONTINUOUS
 62
     7
 10
147.0223058348585
 20
3.557849884033232
 30
0.0
 11
147.0223058348585
 21
5.557848291663895
 31
0.0
  0
ENDBLK
  5
108
  8
0
  0
BLOCK
  8
0
  2
DC_GROUP_64
 70
     0
 10
0.0
 20
0.0
 30
0.0
  3
DC_GROUP_64
  1

  0
LINE
  5
2B5
  8
LAYER0001
  6
CONTINUOUS
 62
     7
 10
180.9386504393507
 20
116.557861328125
 30
0.0
 11
126.0223058348585
 21
116.557861328125
 31
0.0
  0
LINE
  5
2B6
  8
LAYER0001
  6
CONTINUOUS
 62
     7
 10
180.9386504393507
 20
-48.44215011596677
 30
0.0
 11
126.0223058348585
 21
-48.44215011596677
 31
0.0
  0
LINE
  5
2B7
  8
LAYER0001
  6
CONTINUOUS
 62
     7
 10
127.0223058348585
 20
116.557861328125
 30
0.0
 11
127.0223058348585
 21
-48.44215011596677
 31
0.0
  0
INSERT
  5
2B8
  8
LAYER0001
  6
CONTINUOUS
  2
DC_GROUP_65
 10
0.0
 20
0.0
 30
0.0
  0
INSERT
  5
2B9
  8
LAYER0001
  6
CONTINUOUS
  2
DC_GROUP_66
 10
0.0
 20
0.0
 30
0.0
  0
TEXT
  5
2BA
  8
LAYER0001
 62
     7
 10
125.4223058348586
 20
27.60000000000002
 30
0.0
 40
4.0
  1
φ165
 50
90.0
 41
0.6167800453514754
  7
FDASTYLE1
 72
     5
 11
125.4223058348586
 21
37.96190476190481
 31
0.0
  0
ENDBLK
  5
10B
  8
0
  0
BLOCK
  8
0
  2
DC_GROUP_65
 70
     0
 10
0.0
 20
0.0
 30
0.0
  3
DC_GROUP_65
  1

  0
LINE
  5
2BB
  8
LAYER0001
  6
CONTINUOUS
 62
     7
 10
126.4864062999609
 20
114.5578629204943
 30
0.0
 11
127.0223058348585
 21
116.557861328125
 31
0.0
  0
LINE
  5
2BC
  8
LAYER0001
  6
CONTINUOUS
 62
     7
 10
127.0223058348585
 20
116.557861328125
 30
0.0
 11
127.5582053697561
 21
114.5578629204943
 31
0.0
  0
LINE
  5
2BD
  8
LAYER0001
  6
CONTINUOUS
 62
     7
 10
127.0223058348585
 20
116.557861328125
 30
0.0
 11
127.0223058348585
 21
114.5578629204943
 31
0.0
  0
ENDBLK
  5
10E
  8
0
  0
BLOCK
  8
0
  2
DC_GROUP_66
 70
     0
 10
0.0
 20
0.0
 30
0.0
  3
DC_GROUP_66
  1

  0
LINE
  5
2BE
  8
LAYER0001
  6
CONTINUOUS
 62
     7
 10
127.5582053697561
 20
-46.44215170833611
 30
0.0
 11
127.0223058348585
 21
-48.44215011596677
 31
0.0
  0
LINE
  5
2BF
  8
LAYER0001
  6
CONTINUOUS
 62
     7
 10
127.0223058348585
 20
-48.44215011596677
 30
0.0
 11
126.4864062999609
 21
-46.44215170833611
 31
0.0
  0
LINE
  5
2C0
  8
LAYER0001
  6
CONTINUOUS
 62
     7
 10
127.0223058348585
 20
-48.44215011596677
 30
0.0
 11
127.0223058348585
 21
-46.44215170833611
 31
0.0
  0
ENDBLK
  5
111
  8
0
  0
BLOCK
  8
0
  2
DC_GROUP_67
 70
     0
 10
0.0
 20
0.0
 30
0.0
  3
DC_GROUP_67
  1

  0
TEXT
  5
2C1
  8
LAYER0001
 62
     7
 10
161.5119356134038
 20
129.2016842818878
 30
0.0
 40
4.0
  1
MIN 5.8
 41
0.6421768707482981
  7
FDASTYLE1
 72
     5
 11
179.4928879943561
 21
129.2016842818878
 31
0.0
  0
ENDBLK
  5
114
  8
0
  0
BLOCK
  8
0
  2
DC_GROUP_68
 70
     0
 10
0.0
 20
0.0
 30
0.0
  3
DC_GROUP_68
  1

  0
TEXT
  5
2C2
  8
LAYER0001
 62
     7
 10
195.0806797731088
 20
-78.59434201111054
 30
0.0
 40
4.0
  1
MIN28.8
 41
0.6367346938775508
  7
FDASTYLE1
 72
     5
 11
212.9092512016802
 21
-78.59434201111054
 31
0.0
  0
ENDBLK
  5
117
  8
0
  0
BLOCK
  8
0
  2
DC_GROUP_69
 70
     0
 10
0.0
 20
0.0
 30
0.0
  3
DC_GROUP_69
  1

  0
LINE
  5
2C3
  8
LAYER0001
  6
CONTINUOUS
 62
     7
 10
273.9251445799757
 20
77.55784606933597
 30
0.0
 11
288.0223058348586
 21
77.55784606933597
 31
0.0
  0
LINE
  5
2C4
  8
LAYER0001
  6
CONTINUOUS
 62
     7
 10
274.2244609862257
 20
102.557861328125
 30
0.0
 11
288.0223058348586
 21
102.557861328125
 31
0.0
  0
LINE
  5
2C5
  8
LAYER0001
  6
CONTINUOUS
 62
     7
 10
287.0223058348586
 20
77.55784606933597
 30
0.0
 11
287.0223058348586
 21
102.557861328125
 31
0.0
  0
INSERT
  5
2C6
  8
LAYER0001
  6
CONTINUOUS
  2
DC_GROUP_70
 10
0.0
 20
0.0
 30
0.0
  0
INSERT
  5
2C7
  8
LAYER0001
  6
CONTINUOUS
  2
DC_GROUP_71
 10
0.0
 20
0.0
 30
0.0
  0
TEXT
  5
2C8
  8
LAYER0001
 62
     7
 10
285.4223058348586
 20
86.85785369873049
 30
0.0
 40
4.0
  1
25
 50
90.0
 41
0.6476190476190453
  7
FDASTYLE1
 72
     5
 11
285.4223058348586
 21
92.03880607968286
 31
0.0
  0
ENDBLK
  5
11A
  8
0
  0
BLOCK
  8
0
  2
DC_GROUP_70
 70
     0
 10
0.0
 20
0.0
 30
0.0
  3
DC_GROUP_70
  1

  0
LINE
  5
2C9
  8
LAYER0001
  6
CONTINUOUS
 62
     7
 10
287.5582053697561
 20
79.55784447696662
 30
0.0
 11
287.0223058348586
 21
77.55784606933597
 31
0.0
  0
LINE
  5
2CA
  8
LAYER0001
  6
CONTINUOUS
 62
     7
 10
287.0223058348586
 20
77.55784606933597
 30
0.0
 11
286.486406299961
 21
79.55784447696662
 31
0.0
  0
LINE
  5
2CB
  8
LAYER0001
  6
CONTINUOUS
 62
     7
 10
287.0223058348586
 20
77.55784606933597
 30
0.0
 11
287.0223058348586
 21
79.55784447696662
 31
0.0
  0
ENDBLK
  5
11D
  8
0
  0
BLOCK
  8
0
  2
DC_GROUP_71
 70
     0
 10
0.0
 20
0.0
 30
0.0
  3
DC_GROUP_71
  1

  0
LINE
  5
2CC
  8
LAYER0001
  6
CONTINUOUS
 62
     7
 10
286.486406299961
 20
100.5578629204943
 30
0.0
 11
287.0223058348586
 21
102.557861328125
 31
0.0
  0
LINE
  5
2CD
  8
LAYER0001
  6
CONTINUOUS
 62
     7
 10
287.0223058348586
 20
102.557861328125
 30
0.0
 11
287.5582053697561
 21
100.5578629204943
 31
0.0
  0
LINE
  5
2CE
  8
LAYER0001
  6
CONTINUOUS
 62
     7
 10
287.0223058348586
 20
102.557861328125
 30
0.0
 11
287.0223058348586
 21
100.5578629204943
 31
0.0
  0
ENDBLK
  5
120
  8
0
  0
BLOCK
  8
0
  2
DC_GROUP_72
 70
     0
 10
0.0
 20
0.0
 30
0.0
  3
DC_GROUP_72
  1

  0
TEXT
  5
2CF
  8
LAYER0001
 62
     7
 10
314.7045855361298
 20
36.71638605430097
 30
0.0
 40
4.0
  1
MIN30.55
 50
90.0
 41
0.6523809523809518
  7
FDASTYLE1
 72
     5
 11
314.7045855361298
 21
57.59257653049143
 31
0.0
  0
ENDBLK
  5
123
  8
0
  0
BLOCK
  8
0
  2
DC_GROUP_73
 70
     0
 10
0.0
 20
0.0
 30
0.0
  3
DC_GROUP_73
  1

  0
TEXT
  5
2D0
  8
LAYER0001
 62
     7
 10
308.9494713562489
 20
36.8240355091724
 30
0.0
 40
4.0
  1
MAX33.05
 50
90.0
 41
0.6904761904761898
  7
FDASTYLE1
 72
     5
 11
308.9494713562489
 21
58.91927360441047
 31
0.0
  0
ENDBLK
  5
126
  8
0
  0
BLOCK
  8
0
  2
DC_GROUP_74
 70
     0
 10
0.0
 20
0.0
 30
0.0
  3
DC_GROUP_74
  1

  0
LINE
  5
2D1
  8
LAYER0001
  6
CONTINUOUS
 62
     7
 10
273.9251445799757
 20
77.55784606933597
 30
0.0
 11
288.0223058348586
 21
77.55784606933597
 31
0.0
  0
LINE
  5
2D2
  8
LAYER0001
  6
CONTINUOUS
 62
     7
 10
255.0186504393507
 20
66.05784988403323
 30
0.0
 11
288.0223058348586
 21
66.05784988403323
 31
0.0
  0
LINE
  5
2D3
  8
LAYER0001
  6
CONTINUOUS
 62
     7
 10
287.0223058348586
 20
77.55784606933597
 30
0.0
 11
287.0223058348586
 21
66.05784988403323
 31
0.0
  0
INSERT
  5
2D4
  8
LAYER0001
  6
CONTINUOUS
  2
DC_GROUP_75
 10
0.0
 20
0.0
 30
0.0
  0
INSERT
  5
2D5
  8
LAYER0001
  6
CONTINUOUS
  2
DC_GROUP_76
 10
0.0
 20
0.0
 30
0.0
  0
TEXT
  5
2D6
  8
LAYER0001
 62
     7
 10
280.6223058825423
 20
67.00784606933597
 30
0.0
 40
4.0
  1
MIN
 50
90.0
 41
0.5841269841269821
  7
FDASTYLE1
 72
     5
 11
280.6223058825423
 21
74.01736987885975
 31
0.0
  0
TEXT
  5
2D7
  8
LAYER0001
 62
     7
 10
285.4223058348586
 20
67.00784607529643
 30
0.0
 40
4.0
  1
 8
 50
90.0
 41
0.2666666666666657
  7
FDASTYLE1
 72
     5
 11
285.4223058348586
 21
69.14117940862975
 31
0.0
  0
ENDBLK
  5
129
  8
0
  0
BLOCK
  8
0
  2
DC_GROUP_75
 70
     0
 10
0.0
 20
0.0
 30
0.0
  3
DC_GROUP_75
  1

  0
LINE
  5
2D8
  8
LAYER0001
  6
CONTINUOUS
 62
     7
 10
286.486406299961
 20
75.5578476617053
 30
0.0
 11
287.0223058348586
 21
77.55784606933597
 31
0.0
  0
LINE
  5
2D9
  8
LAYER0001
  6
CONTINUOUS
 62
     7
 10
287.0223058348586
 20
77.55784606933597
 30
0.0
 11
287.5582053697561
 21
75.5578476617053
 31
0.0
  0
LINE
  5
2DA
  8
LAYER0001
  6
CONTINUOUS
 62
     7
 10
287.0223058348586
 20
77.55784606933597
 30
0.0
 11
287.0223058348586
 21
75.5578476617053
 31
0.0
  0
ENDBLK
  5
12C
  8
0
  0
BLOCK
  8
0
  2
DC_GROUP_76
 70
     0
 10
0.0
 20
0.0
 30
0.0
  3
DC_GROUP_76
  1

  0
LINE
  5
2DB
  8
LAYER0001
  6
CONTINUOUS
 62
     7
 10
287.5582053697561
 20
68.05784829166389
 30
0.0
 11
287.0223058348586
 21
66.05784988403323
 31
0.0
  0
LINE
  5
2DC
  8
LAYER0001
  6
CONTINUOUS
 62
     7
 10
287.0223058348586
 20
66.05784988403323
 30
0.0
 11
286.486406299961
 21
68.05784829166389
 31
0.0
  0
LINE
  5
2DD
  8
LAYER0001
  6
CONTINUOUS
 62
     7
 10
287.0223058348586
 20
66.05784988403323
 30
0.0
 11
287.0223058348586
 21
68.05784829166389
 31
0.0
  0
ENDBLK
  5
12F
  8
0
  0
BLOCK
  8
0
  2
DC_GROUP_77
 70
     0
 10
0.0
 20
0.0
 30
0.0
  3
DC_GROUP_77
  1

  0
LINE
  5
2DE
  8
LAYER0001
  6
CONTINUOUS
 62
     7
 10
252.6393481248158
 20
112.8638851582846
 30
0.0
 11
269.4089800153436
 21
133.9591269337334
 31
0.0
  0
LINE
  5
2DF
  8
LAYER0001
  6
CONTINUOUS
 62
     7
 10
269.4089826231887
 20
133.9591217041016
 30
0.0
 11
310.2100824004103
 21
133.9591217041016
 31
0.0
  0
INSERT
  5
2E0
  8
LAYER0001
  6
CONTINUOUS
  2
DC_GROUP_78
 10
0.0
 20
0.0
 30
0.0
  0
TEXT
  5
2E1
  8
LAYER0001
 62
     7
 10
269.9139150267531
 20
135.5591217041016
 30
0.0
 40
4.0
  1
ｾﾚｰｼｮﾝP1.5山60ﾟ
 41
0.6332076968855386
  7
FDASTYLE1
 72
     5
 11
305.8801122098517
 21
135.5591217041016
 31
0.0
  0
ENDBLK
  5
132
  8
0
  0
BLOCK
  8
0
  2
DC_GROUP_78
 70
     0
 10
0.0
 20
0.0
 30
0.0
  3
DC_GROUP_78
  1

  0
LINE
  5
2E2
  8
LAYER0001
  6
CONTINUOUS
 62
     7
 10
254.3034079579386
 20
114.0959918151191
 30
0.0
 11
252.6393481248158
 21
112.8638851582846
 31
0.0
  0
LINE
  5
2E3
  8
LAYER0001
  6
CONTINUOUS
 62
     7
 10
252.6393481248158
 20
112.8638851582846
 30
0.0
 11
253.4644100916013
 21
114.7629519535798
 31
0.0
  0
LINE
  5
2E4
  8
LAYER0001
  6
CONTINUOUS
 62
     7
 10
252.6393481248158
 20
112.8638851582846
 30
0.0
 11
253.88390902477
 21
114.4294718843494
 31
0.0
  0
ENDBLK
  5
135
  8
0
  0
BLOCK
  8
0
  2
DC_GROUP_79
 70
     0
 10
0.0
 20
0.0
 30
0.0
  3
DC_GROUP_79
  1

  0
LINE
  5
2E5
  8
LAYER0001
  6
CONTINUOUS
 62
     7
 10
309.7429392532582
 20
66.05784988403323
 30
0.0
 11
309.7429392532582
 21
116.557861328125
 31
0.0
  0
LINE
  5
2E6
  8
LAYER0001
  6
CONTINUOUS
 62
     7
 10
255.0186504393507
 20
66.05784988403323
 30
0.0
 11
310.7429392532582
 21
66.05784988403323
 31
0.0
  0
LINE
  5
2E7
  8
LAYER0001
  6
CONTINUOUS
 62
     7
 10
256.0186504393507
 20
116.557861328125
 30
0.0
 11
310.7429392532582
 21
116.557861328125
 31
0.0
  0
INSERT
  5
2E8
  8
LAYER0001
  6
CONTINUOUS
  2
DC_GROUP_80
 10
0.0
 20
0.0
 30
0.0
  0
INSERT
  5
2E9
  8
LAYER0001
  6
CONTINUOUS
  2
DC_GROUP_81
 10
0.0
 20
0.0
 30
0.0
  0
TEXT
  5
2EA
  8
LAYER0001
 62
     7
 10
308.1429392532581
 20
84.90785369873049
 30
0.0
 40
4.0
  1
50.5
 50
90.0
 41
0.6095238095238109
  7
FDASTYLE1
 72
     5
 11
308.1429392532581
 21
94.66023465111147
 31
0.0
  0
ENDBLK
  5
138
  8
0
  0
BLOCK
  8
0
  2
DC_GROUP_80
 70
     0
 10
0.0
 20
0.0
 30
0.0
  3
DC_GROUP_80
  1

  0
LINE
  5
2EB
  8
LAYER0001
  6
CONTINUOUS
 62
     7
 10
310.2788387881558
 20
68.05784829166389
 30
0.0
 11
309.7429392532582
 21
66.05784988403323
 31
0.0
  0
LINE
  5
2EC
  8
LAYER0001
  6
CONTINUOUS
 62
     7
 10
309.7429392532582
 20
66.05784988403323
 30
0.0
 11
309.2070397183605
 21
68.05784829166389
 31
0.0
  0
LINE
  5
2ED
  8
LAYER0001
  6
CONTINUOUS
 62
     7
 10
309.7429392532582
 20
66.05784988403323
 30
0.0
 11
309.7429392532582
 21
68.05784829166389
 31
0.0
  0
ENDBLK
  5
13B
  8
0
  0
BLOCK
  8
0
  2
DC_GROUP_81
 70
     0
 10
0.0
 20
0.0
 30
0.0
  3
DC_GROUP_81
  1

  0
LINE
  5
2EE
  8
LAYER0001
  6
CONTINUOUS
 62
     7
 10
309.2070397183605
 20
114.5578629204943
 30
0.0
 11
309.7429392532582
 21
116.557861328125
 31
0.0
  0
LINE
  5
2EF
  8
LAYER0001
  6
CONTINUOUS
 62
     7
 10
309.7429392532582
 20
116.557861328125
 30
0.0
 11
310.2788387881558
 21
114.5578629204943
 31
0.0
  0
LINE
  5
2F0
  8
LAYER0001
  6
CONTINUOUS
 62
     7
 10
309.7429392532582
 20
116.557861328125
 30
0.0
 11
309.7429392532582
 21
114.5578629204943
 31
0.0
  0
ENDBLK
  5
13E
  8
0
  0
BLOCK
  8
0
  2
DC_GROUP_82
 70
     0
 10
0.0
 20
0.0
 30
0.0
  3
DC_GROUP_82
  1

  0
LINE
  5
2F1
  8
LAYER0001
  6
CONTINUOUS
 62
     7
 10
264.4829077087005
 20
106.6413666781078
 30
0.0
 11
277.0222996023242
 21
123.9999993897546
 31
0.0
  0
LINE
  5
2F2
  8
LAYER0001
  6
CONTINUOUS
 62
     7
 10
277.0223058348586
 20
124.0
 30
0.0
 11
286.2508939391066
 21
124.0
 31
0.0
  0
INSERT
  5
2F3
  8
LAYER0001
  6
CONTINUOUS
  2
DC_GROUP_83
 10
0.0
 20
0.0
 30
0.0
  0
TEXT
  5
2F4
  8
LAYER0001
 62
     7
 10
278.0223249083449
 20
125.5999923706055
 30
0.0
 40
4.0
  1
M8
 41
0.7047619047619094
  7
FDASTYLE1
 72
     5
 11
283.6604201464402
 21
125.5999923706055
 31
0.0
  0
ENDBLK
  5
141
  8
0
  0
BLOCK
  8
0
  2
DC_GROUP_83
 70
     0
 10
0.0
 20
0.0
 30
0.0
  3
DC_GROUP_83
  1

  0
CIRCLE
  5
2F5
  8
LAYER0001
  6
CONTINUOUS
 62
     7
 10
263.8973373138285
 20
105.8307451186552
 30
0.0
 40
1.0
  0
LINE
  5
2F6
  8
LAYER0001
  6
CONTINUOUS
 62
     7
 10
264.4829077087005
 20
106.6413666781079
 30
0.0
 11
265.0684781035725
 21
107.4519882375605
 31
0.0
  0
ENDBLK
  5
144
  8
0
  0
BLOCK
  8
0
  2
DC_GROUP_84
 70
     0
 10
0.0
 20
0.0
 30
0.0
  3
DC_GROUP_84
  1

  0
LINE
  5
2F7
  8
LAYER0001
  6
CONTINUOUS
 62
     7
 10
256.0186504393507
 20
1.057849884033232
 30
0.0
 11
298.0223058348585
 21
1.057849884033232
 31
0.0
  0
LINE
  5
2F8
  8
LAYER0001
  6
CONTINUOUS
 62
     7
 10
297.0223058348585
 20
57.25784683227542
 30
0.0
 11
297.0223058348585
 21
1.057849884033232
 31
0.0
  0
INSERT
  5
2F9
  8
LAYER0001
  6
CONTINUOUS
  2
DC_GROUP_85
 10
0.0
 20
0.0
 30
0.0
  0
TEXT
  5
2FA
  8
LAYER0001
 62
     7
 10
295.4223058348586
 20
26.00000000000004
 30
0.0
 40
4.0
  1
φ66H7
 50
90.0
 41
0.6213017751479283
  7
FDASTYLE1
 72
     5
 11
295.4223058348586
 21
38.92307692307695
 31
0.0
  0
ENDBLK
  5
147
  8
0
  0
BLOCK
  8
0
  2
DC_GROUP_85
 70
     0
 10
0.0
 20
0.0
 30
0.0
  3
DC_GROUP_85
  1

  0
LINE
  5
2FB
  8
LAYER0001
  6
CONTINUOUS
 62
     7
 10
297.5582053697561
 20
3.057848291663894
 30
0.0
 11
297.0223058348585
 21
1.057849884033232
 31
0.0
  0
LINE
  5
2FC
  8
LAYER0001
  6
CONTINUOUS
 62
     7
 10
297.0223058348585
 20
1.057849884033232
 30
0.0
 11
296.486406299961
 21
3.057848291663895
 31
0.0
  0
LINE
  5
2FD
  8
LAYER0001
  6
CONTINUOUS
 62
     7
 10
297.0223058348585
 20
1.057849884033232
 30
0.0
 11
297.0223058348585
 21
3.057848291663895
 31
0.0
  0
ENDBLK
  5
14A
  8
0
  0
BLOCK
  8
0
  2
DC_GROUP_86
 70
     0
 10
0.0
 20
0.0
 30
0.0
  3
DC_GROUP_86
  1

  0
LINE
  5
2FE
  8
LAYER0001
  6
CONTINUOUS
 62
     7
 10
287.7261309295008
 20
69.55784606933597
 30
0.0
 11
298.0223058348585
 21
69.55784606933597
 31
0.0
  0
LINE
  5
2FF
  8
LAYER0001
  6
CONTINUOUS
 62
     7
 10
256.5186504393507
 20
110.557861328125
 30
0.0
 11
298.0223058348585
 21
110.557861328125
 31
0.0
  0
LINE
  5
300
  8
LAYER0001
  6
CONTINUOUS
 62
     7
 10
297.0223058348585
 20
69.55784606933597
 30
0.0
 11
297.0223058348585
 21
110.557861328125
 31
0.0
  0
INSERT
  5
301
  8
LAYER0001
  6
CONTINUOUS
  2
DC_GROUP_87
 10
0.0
 20
0.0
 30
0.0
  0
INSERT
  5
302
  8
LAYER0001
  6
CONTINUOUS
  2
DC_GROUP_88
 10
0.0
 20
0.0
 30
0.0
  0
TEXT
  5
303
  8
LAYER0001
 62
     7
 10
295.4223058348586
 20
86.85785369873051
 30
0.0
 40
4.0
  1
41
 50
90.0
 41
0.5333333333333314
  7
FDASTYLE1
 72
     5
 11
295.4223058348586
 21
91.12452036539716
 31
0.0
  0
ENDBLK
  5
14D
  8
0
  0
BLOCK
  8
0
  2
DC_GROUP_87
 70
     0
 10
0.0
 20
0.0
 30
0.0
  3
DC_GROUP_87
  1

  0
LINE
  5
304
  8
LAYER0001
  6
CONTINUOUS
 62
     7
 10
297.5582053697561
 20
71.55784447696662
 30
0.0
 11
297.0223058348585
 21
69.55784606933597
 31
0.0
  0
LINE
  5
305
  8
LAYER0001
  6
CONTINUOUS
 62
     7
 10
297.0223058348585
 20
69.55784606933597
 30
0.0
 11
296.486406299961
 21
71.55784447696662
 31
0.0
  0
LINE
  5
306
  8
LAYER0001
  6
CONTINUOUS
 62
     7
 10
297.0223058348585
 20
69.55784606933597
 30
0.0
 11
297.0223058348585
 21
71.55784447696662
 31
0.0
  0
ENDBLK
  5
150
  8
0
  0
BLOCK
  8
0
  2
DC_GROUP_88
 70
     0
 10
0.0
 20
0.0
 30
0.0
  3
DC_GROUP_88
  1

  0
LINE
  5
307
  8
LAYER0001
  6
CONTINUOUS
 62
     7
 10
296.486406299961
 20
108.5578629204943
 30
0.0
 11
297.0223058348585
 21
110.557861328125
 31
0.0
  0
LINE
  5
308
  8
LAYER0001
  6
CONTINUOUS
 62
     7
 10
297.0223058348585
 20
110.557861328125
 30
0.0
 11
297.5582053697561
 21
108.5578629204943
 31
0.0
  0
LINE
  5
309
  8
LAYER0001
  6
CONTINUOUS
 62
     7
 10
297.0223058348585
 20
110.557861328125
 30
0.0
 11
297.0223058348585
 21
108.5578629204943
 31
0.0
  0
ENDBLK
  5
153
  8
0
  0
BLOCK
  8
0
  2
DC_GROUP_89
 70
     0
 10
0.0
 20
0.0
 30
0.0
  3
DC_GROUP_89
  1

  0
LINE
  5
30A
  8
LAYER0001
  6
CONTINUOUS
 62
     7
 10
244.7686504393507
 20
7.057849884033232
 30
0.0
 11
288.0223058348586
 21
7.057849884033232
 31
0.0
  0
LINE
  5
30B
  8
LAYER0001
  6
CONTINUOUS
 62
     7
 10
244.7686504393507
 20
61.05784988403323
 30
0.0
 11
288.0223058348586
 21
61.05784988403323
 31
0.0
  0
LINE
  5
30C
  8
LAYER0001
  6
CONTINUOUS
 62
     7
 10
287.0223058348586
 20
7.057849884033232
 30
0.0
 11
287.0223058348586
 21
61.05784988403323
 31
0.0
  0
INSERT
  5
30D
  8
LAYER0001
  6
CONTINUOUS
  2
DC_GROUP_90
 10
0.0
 20
0.0
 30
0.0
  0
INSERT
  5
30E
  8
LAYER0001
  6
CONTINUOUS
  2
DC_GROUP_91
 10
0.0
 20
0.0
 30
0.0
  0
TEXT
  5
30F
  8
LAYER0001
 62
     7
 10
285.4223058348586
 20
19.65784988403323
 30
0.0
 40
4.0
  1
M54×P1.25
 50
90.0
 41
0.6294896030245744
  7
FDASTYLE1
 72
     5
 11
285.4223058348586
 21
42.82306727533756
 31
0.0
  0
ENDBLK
  5
156
  8
0
  0
BLOCK
  8
0
  2
DC_GROUP_90
 70
     0
 10
0.0
 20
0.0
 30
0.0
  3
DC_GROUP_90
  1

  0
LINE
  5
310
  8
LAYER0001
  6
CONTINUOUS
 62
     7
 10
287.5582053697561
 20
9.057848291663895
 30
0.0
 11
287.0223058348586
 21
7.057849884033232
 31
0.0
  0
LINE
  5
311
  8
LAYER0001
  6
CONTINUOUS
 62
     7
 10
287.0223058348586
 20
7.057849884033232
 30
0.0
 11
286.486406299961
 21
9.057848291663895
 31
0.0
  0
LINE
  5
312
  8
LAYER0001
  6
CONTINUOUS
 62
     7
 10
287.0223058348586
 20
7.057849884033232
 30
0.0
 11
287.0223058348586
 21
9.057848291663895
 31
0.0
  0
ENDBLK
  5
159
  8
0
  0
BLOCK
  8
0
  2
DC_GROUP_91
 70
     0
 10
0.0
 20
0.0
 30
0.0
  3
DC_GROUP_91
  1

  0
LINE
  5
313
  8
LAYER0001
  6
CONTINUOUS
 62
     7
 10
286.486406299961
 20
59.05785147640257
 30
0.0
 11
287.0223058348586
 21
61.05784988403323
 31
0.0
  0
LINE
  5
314
  8
LAYER0001
  6
CONTINUOUS
 62
     7
 10
287.0223058348586
 20
61.05784988403323
 30
0.0
 11
287.5582053697561
 21
59.05785147640257
 31
0.0
  0
LINE
  5
315
  8
LAYER0001
  6
CONTINUOUS
 62
     7
 10
287.0223058348586
 20
61.05784988403323
 30
0.0
 11
287.0223058348586
 21
59.05785147640257
 31
0.0
  0
ENDBLK
  5
15C
  8
0
  0
BLOCK
  8
0
  2
DC_GROUP_92
 70
     0
 10
0.0
 20
0.0
 30
0.0
  3
DC_GROUP_92
  1

  0
LINE
  5
316
  8
LAYER0001
  6
CONTINUOUS
 62
     7
 10
309.760606093033
 20
34.05784988403323
 30
0.0
 11
309.760606093033
 21
66.05784988403323
 31
0.0
  0
LINE
  5
317
  8
LAYER0001
  6
CONTINUOUS
 62
     7
 10
255.0186504393507
 20
66.05784988403323
 30
0.0
 11
310.760606093033
 21
66.05784988403323
 31
0.0
  0
LINE
  5
318
  8
LAYER0001
  6
CONTINUOUS
 62
     7
 10
259.3932527413725
 20
34.05784988403323
 30
0.0
 11
279.6857558497834
 21
34.05784988403323
 31
0.0
  0
LINE
  5
319
  8
LAYER0001
  6
CONTINUOUS
 62
     7
 10
298.4466310357906
 20
34.05784988403323
 30
0.0
 11
310.760606093033
 21
34.05784988403323
 31
0.0
  0
INSERT
  5
31A
  8
LAYER0001
  6
CONTINUOUS
  2
DC_GROUP_93
 10
0.0
 20
0.0
 30
0.0
  0
INSERT
  5
31B
  8
LAYER0001
  6
CONTINUOUS
  2
DC_GROUP_94
 10
0.0
 20
0.0
 30
0.0
  0
ENDBLK
  5
15F
  8
0
  0
BLOCK
  8
0
  2
DC_GROUP_93
 70
     0
 10
0.0
 20
0.0
 30
0.0
  3
DC_GROUP_93
  1

  0
LINE
  5
31C
  8
LAYER0001
  6
CONTINUOUS
 62
     7
 10
310.2965056279305
 20
36.0578482916639
 30
0.0
 11
309.760606093033
 21
34.05784988403323
 31
0.0
  0
LINE
  5
31D
  8
LAYER0001
  6
CONTINUOUS
 62
     7
 10
309.760606093033
 20
34.05784988403323
 30
0.0
 11
309.2247065581353
 21
36.0578482916639
 31
0.0
  0
LINE
  5
31E
  8
LAYER0001
  6
CONTINUOUS
 62
     7
 10
309.760606093033
 20
34.05784988403323
 30
0.0
 11
309.760606093033
 21
36.0578482916639
 31
0.0
  0
ENDBLK
  5
162
  8
0
  0
BLOCK
  8
0
  2
DC_GROUP_94
 70
     0
 10
0.0
 20
0.0
 30
0.0
  3
DC_GROUP_94
  1

  0
LINE
  5
31F
  8
LAYER0001
  6
CONTINUOUS
 62
     7
 10
309.2247065581353
 20
64.05785147640256
 30
0.0
 11
309.760606093033
 21
66.05784988403323
 31
0.0
  0
LINE
  5
320
  8
LAYER0001
  6
CONTINUOUS
 62
     7
 10
309.760606093033
 20
66.05784988403323
 30
0.0
 11
310.2965056279305
 21
64.05785147640256
 31
0.0
  0
LINE
  5
321
  8
LAYER0001
  6
CONTINUOUS
 62
     7
 10
309.760606093033
 20
66.05784988403323
 30
0.0
 11
309.760606093033
 21
64.05785147640256
 31
0.0
  0
ENDBLK
  5
165
  8
0
  0
BLOCK
  8
0
  2
DC_GROUP_95
 70
     0
 10
0.0
 20
0.0
 30
0.0
  3
DC_GROUP_95
  1

  0
CIRCLE
  5
322
  8
0
  6
CONTINUOUS
 62
     3
 10
494.3146629375382
 20
34.05784988403323
 30
0.0
 40
21.0
  0
ENDBLK
  5
168
  8
0
  0
BLOCK
  8
0
  2
DC_GROUP_96
 70
     0
 10
0.0
 20
0.0
 30
0.0
  3
DC_GROUP_96
  1

  0
CIRCLE
  5
323
  8
0
  6
CONTINUOUS
 62
     4
 10
494.3146629375382
 20
34.05784988403323
 30
0.0
 40
26.52299995422363
  0
ENDBLK
  5
16B
  8
0
  0
BLOCK
  8
0
  2
DC_GROUP_97
 70
     0
 10
0.0
 20
0.0
 30
0.0
  3
DC_GROUP_97
  1

  0
ARC
  5
324
  8
0
  6
CENTER
 62
     7
 10
494.3146629375382
 20
34.05784988403323
 30
0.0
 40
24.0
 50
80.04087635492591
 51
99.60576881731981
  0
ENDBLK
  5
16E
  8
0
  0
BLOCK
  8
0
  2
DC_GROUP_98
 70
     0
 10
0.0
 20
0.0
 30
0.0
  3
DC_GROUP_98
  1

  0
ARC
  5
325
  8
0
  6
CENTER
 62
     7
 10
494.3146629375382
 20
34.05784988403323
 30
0.0
 40
24.0
 50
200.0408765065066
 51
219.6057621387114
  0
ENDBLK
  5
171
  8
0
  0
BLOCK
  8
0
  2
DC_GROUP_99
 70
     0
 10
0.0
 20
0.0
 30
0.0
  3
DC_GROUP_99
  1

  0
ARC
  5
326
  8
0
  6
CENTER
 62
     7
 10
494.3146629375382
 20
34.05784988403323
 30
0.0
 40
24.0
 50
320.0408764307163
 51
339.6057688931102
  0
ENDBLK
  5
174
  8
0
  0
BLOCK
  8
0
  2
DC_GROUP_100
 70
     0
 10
0.0
 20
0.0
 30
0.0
  3
DC_GROUP_100
  1

  0
LINE
  5
327
  8
0
  6
CONTINUOUS
 62
     9
 10
201.2286504393507
 20
13.05784988403323
 30
0.0
 11
165.5097324764963
 21
13.05784988403324
 31
0.0
  0
LINE
  5
328
  8
0
  6
CONTINUOUS
 62
     9
 10
201.2286504393507
 20
55.05784988403323
 30
0.0
 11
165.5097324764963
 21
55.05784988403324
 31
0.0
  0
LINE
  5
329
  8
0
  6
CONTINUOUS
 62
     9
 10
166.5097324764963
 20
13.05784988403324
 30
0.0
 11
166.5097324764963
 21
55.05784988403324
 31
0.0
  0
INSERT
  5
32A
  8
0
  6
CONTINUOUS
  2
DC_GROUP_101
 10
0.0
 20
0.0
 30
0.0
  0
INSERT
  5
32B
  8
0
  6
CONTINUOUS
  2
DC_GROUP_102
 10
0.0
 20
0.0
 30
0.0
  0
TEXT
  5
32C
  8
0
 62
     7
 10
165.5097324764963
 20
26.05784988403322
 30
0.0
 40
4.0
  1
φ42
 50
90.0
 41
0.6093750000000006
  7
FDASTYLE1
 72
     5
 11
165.5097324764963
 21
33.85784988403323
 31
0.0
  0
TEXT
  5
32D
  8
0
 62
     7
 10
162.9097324764962
 20
36.65784988403324
 30
0.0
 40
2.6
  1
+0.3
 50
90.0
 41
0.6571428571428556
  7
FDASTYLE1
 72
     5
 11
162.9097324764962
 21
43.49213559831894
 31
0.0
  0
TEXT
  5
32E
  8
0
 62
     7
 10
165.7097324764962
 20
36.65784988403324
 30
0.0
 40
2.6
  1
 0
 50
90.0
 41
0.2666666666666646
  7
FDASTYLE1
 72
     5
 11
165.7097324764962
 21
38.0445165506999
 31
0.0
  0
ENDBLK
  5
177
  8
0
  0
BLOCK
  8
0
  2
DC_GROUP_101
 70
     0
 10
0.0
 20
0.0
 30
0.0
  3
DC_GROUP_101
  1

  0
LINE
  5
32F
  8
0
  6
CONTINUOUS
 62
     9
 10
167.0456320113939
 20
15.0578482916639
 30
0.0
 11
166.5097324764963
 21
13.05784988403324
 31
0.0
  0
LINE
  5
330
  8
0
  6
CONTINUOUS
 62
     9
 10
166.5097324764963
 20
13.05784988403324
 30
0.0
 11
165.9738329415987
 21
15.0578482916639
 31
0.0
  0
LINE
  5
331
  8
0
  6
CONTINUOUS
 62
     9
 10
166.5097324764963
 20
13.05784988403324
 30
0.0
 11
166.5097324764963
 21
15.0578482916639
 31
0.0
  0
ENDBLK
  5
17A
  8
0
  0
BLOCK
  8
0
  2
DC_GROUP_102
 70
     0
 10
0.0
 20
0.0
 30
0.0
  3
DC_GROUP_102
  1

  0
LINE
  5
332
  8
0
  6
CONTINUOUS
 62
     9
 10
165.9738329415987
 20
53.05785147640258
 30
0.0
 11
166.5097324764963
 21
55.05784988403324
 31
0.0
  0
LINE
  5
333
  8
0
  6
CONTINUOUS
 62
     9
 10
166.5097324764963
 20
55.05784988403324
 30
0.0
 11
167.0456320113939
 21
53.05785147640258
 31
0.0
  0
LINE
  5
334
  8
0
  6
CONTINUOUS
 62
     9
 10
166.5097324764963
 20
55.05784988403324
 30
0.0
 11
166.5097324764963
 21
53.05785147640258
 31
0.0
  0
ENDBLK
  5
17D
  8
0
  0
BLOCK
  8
0
  2
DC_GROUP_103
 70
     0
 10
0.0
 20
0.0
 30
0.0
  3
DC_GROUP_103
  1

  0
LINE
  5
335
  8
0
  6
CONTINUOUS
 62
     9
 10
224.2286504393507
 20
59.30784988403323
 30
0.0
 11
155.5294433809299
 21
59.30784988403323
 31
0.0
  0
LINE
  5
336
  8
0
  6
CONTINUOUS
 62
     9
 10
224.2286504393507
 20
8.807849884033232
 30
0.0
 11
155.5294433809299
 21
8.807849884033232
 31
0.0
  0
LINE
  5
337
  8
0
  6
CONTINUOUS
 62
     9
 10
156.5294433809299
 20
8.807849884033232
 30
0.0
 11
156.5294433809299
 21
59.30784988403323
 31
0.0
  0
INSERT
  5
338
  8
0
  6
DASHDOT2
  2
DC_GROUP_104
 10
0.0
 20
0.0
 30
0.0
  0
INSERT
  5
339
  8
0
  6
DASHDOT2
  2
DC_GROUP_105
 10
0.0
 20
0.0
 30
0.0
  0
TEXT
  5
33A
  8
0
 62
     7
 10
155.5294433809299
 20
22.85784988403324
 30
0.0
 40
4.0
  1
φ50.5Ｈ7
 50
90.0
 41
0.6135865595325046
  7
FDASTYLE1
 72
     5
 11
155.5294433809299
 21
41.02001204619538
 31
0.0
  0
ENDBLK
  5
180
  8
0
  0
BLOCK
  8
0
  2
DC_GROUP_104
 70
     0
 10
0.0
 20
0.0
 30
0.0
  3
DC_GROUP_104
  1

  0
LINE
  5
33B
  8
0
  6
CONTINUOUS
 62
     9
 10
157.0653429158275
 20
10.8078482916639
 30
0.0
 11
156.5294433809299
 21
8.807849884033232
 31
0.0
  0
LINE
  5
33C
  8
0
  6
CONTINUOUS
 62
     9
 10
156.5294433809299
 20
8.807849884033232
 30
0.0
 11
155.9935438460323
 21
10.8078482916639
 31
0.0
  0
LINE
  5
33D
  8
0
  6
CONTINUOUS
 62
     9
 10
156.5294433809299
 20
8.807849884033232
 30
0.0
 11
156.5294433809299
 21
10.8078482916639
 31
0.0
  0
ENDBLK
  5
183
  8
0
  0
BLOCK
  8
0
  2
DC_GROUP_105
 70
     0
 10
0.0
 20
0.0
 30
0.0
  3
DC_GROUP_105
  1

  0
LINE
  5
33E
  8
0
  6
CONTINUOUS
 62
     9
 10
155.9935438460323
 20
57.30785147640257
 30
0.0
 11
156.5294433809299
 21
59.30784988403323
 31
0.0
  0
LINE
  5
33F
  8
0
  6
CONTINUOUS
 62
     9
 10
156.5294433809299
 20
59.30784988403323
 30
0.0
 11
157.0653429158275
 21
57.30785147640257
 31
0.0
  0
LINE
  5
340
  8
0
  6
CONTINUOUS
 62
     9
 10
156.5294433809299
 20
59.30784988403323
 30
0.0
 11
156.5294433809299
 21
57.30785147640257
 31
0.0
  0
ENDBLK
  5
186
  8
0
  0
BLOCK
  8
0
  2
DC_GROUP_106
 70
     0
 10
0.0
 20
0.0
 30
0.0
  3
DC_GROUP_106
  1

  0
LINE
  5
341
  8
0
  6
CONTINUOUS
 62
     9
 10
172.4786504393507
 20
-73.41546754159026
 30
0.0
 11
187.6786016112257
 21
-73.41546754159026
 31
0.0
  0
LINE
  5
342
  8
0
  6
CONTINUOUS
 62
     9
 10
172.4786504393507
 20
-24.32714843749997
 30
0.0
 11
172.4786504393507
 21
-74.41546754159026
 31
0.0
  0
LINE
  5
343
  8
0
  6
CONTINUOUS
 62
     9
 10
187.6786016112257
 20
-37.24559215284371
 30
0.0
 11
187.6786016112257
 21
-74.41546754159026
 31
0.0
  0
LINE
  5
344
  8
0
  6
CONTINUOUS
 62
     9
 10
155.7468004393507
 20
-73.41546754159026
 30
0.0
 11
172.4786504393507
 21
-73.41546754159026
 31
0.0
  0
LINE
  5
345
  8
0
  6
CONTINUOUS
 62
     9
 10
192.6786016112257
 20
-73.41546754159026
 30
0.0
 11
187.6786016112257
 21
-73.41546754159026
 31
0.0
  0
INSERT
  5
346
  8
0
  6
CENTER
  2
DC_GROUP_107
 10
0.0
 20
0.0
 30
0.0
  0
INSERT
  5
347
  8
0
  6
CENTER
  2
DC_GROUP_108
 10
0.0
 20
0.0
 30
0.0
  0
TEXT
  5
348
  8
0
 62
     7
 10
156.7468004393507
 20
-72.41546754159026
 30
0.0
 40
4.0
  1
15.2
 41
0.5809523809523807
  7
FDASTYLE1
 72
     5
 11
166.0420385345888
 21
-72.41546754159026
 31
0.0
  0
ENDBLK
  5
189
  8
0
  0
BLOCK
  8
0
  2
DC_GROUP_107
 70
     0
 10
0.0
 20
0.0
 30
0.0
  3
DC_GROUP_107
  1

  0
LINE
  5
349
  8
0
  6
CONTINUOUS
 62
     9
 10
170.47865203172
 20
-72.87956800669265
 30
0.0
 11
172.4786504393507
 21
-73.41546754159026
 31
0.0
  0
LINE
  5
34A
  8
0
  6
CONTINUOUS
 62
     9
 10
172.4786504393507
 20
-73.41546754159026
 30
0.0
 11
170.47865203172
 21
-73.95136707648787
 31
0.0
  0
LINE
  5
34B
  8
0
  6
CONTINUOUS
 62
     9
 10
172.4786504393507
 20
-73.41546754159026
 30
0.0
 11
170.47865203172
 21
-73.41546754159026
 31
0.0
  0
ENDBLK
  5
18C
  8
0
  0
BLOCK
  8
0
  2
DC_GROUP_108
 70
     0
 10
0.0
 20
0.0
 30
0.0
  3
DC_GROUP_108
  1

  0
LINE
  5
34C
  8
0
  6
CONTINUOUS
 62
     9
 10
189.6786000188563
 20
-73.95136707648787
 30
0.0
 11
187.6786016112257
 21
-73.41546754159026
 31
0.0
  0
LINE
  5
34D
  8
0
  6
CONTINUOUS
 62
     9
 10
187.6786016112257
 20
-73.41546754159026
 30
0.0
 11
189.6786000188563
 21
-72.87956800669265
 31
0.0
  0
LINE
  5
34E
  8
0
  6
CONTINUOUS
 62
     9
 10
187.6786016112257
 20
-73.41546754159026
 30
0.0
 11
189.6786000188563
 21
-73.41546754159026
 31
0.0
  0
ENDBLK
  5
18F
  8
0
  0
BLOCK
  8
0
  2
DC_GROUP_109
 70
     0
 10
0.0
 20
0.0
 30
0.0
  3
DC_GROUP_109
  1

  0
LINE
  5
34F
  8
0
  6
CONTINUOUS
 62
     9
 10
182.4786504393507
 20
-35.94215011596677
 30
0.0
 11
136.6931821125033
 21
-35.94215011596677
 31
0.0
  0
LINE
  5
350
  8
0
  6
CONTINUOUS
 62
     9
 10
182.4786504393507
 20
104.057861328125
 30
0.0
 11
136.6931821125033
 21
104.057861328125
 31
0.0
  0
LINE
  5
351
  8
0
  6
CONTINUOUS
 62
     9
 10
137.6931821125033
 20
-35.94215011596677
 30
0.0
 11
137.6931821125033
 21
104.057861328125
 31
0.0
  0
INSERT
  5
352
  8
0
  6
CONTINUOUS
  2
DC_GROUP_110
 10
0.0
 20
0.0
 30
0.0
  0
INSERT
  5
353
  8
0
  6
CONTINUOUS
  2
DC_GROUP_111
 10
0.0
 20
0.0
 30
0.0
  0
TEXT
  5
354
  8
0
 62
     7
 10
136.6931821125033
 20
24.45785560607914
 30
0.0
 40
4.0
  1
φ140Ｈ7
 50
90.0
 41
0.6093749999999996
  7
FDASTYLE1
 72
     5
 11
136.6931821125033
 21
40.05785560607913
 31
0.0
  0
ENDBLK
  5
192
  8
0
  0
BLOCK
  8
0
  2
DC_GROUP_110
 70
     0
 10
0.0
 20
0.0
 30
0.0
  3
DC_GROUP_110
  1

  0
LINE
  5
355
  8
0
  6
CONTINUOUS
 62
     9
 10
138.2290816474009
 20
-33.94215170833611
 30
0.0
 11
137.6931821125033
 21
-35.94215011596677
 31
0.0
  0
LINE
  5
356
  8
0
  6
CONTINUOUS
 62
     9
 10
137.6931821125033
 20
-35.94215011596677
 30
0.0
 11
137.1572825776057
 21
-33.94215170833611
 31
0.0
  0
LINE
  5
357
  8
0
  6
CONTINUOUS
 62
     9
 10
137.6931821125033
 20
-35.94215011596677
 30
0.0
 11
137.6931821125033
 21
-33.94215170833611
 31
0.0
  0
ENDBLK
  5
195
  8
0
  0
BLOCK
  8
0
  2
DC_GROUP_111
 70
     0
 10
0.0
 20
0.0
 30
0.0
  3
DC_GROUP_111
  1

  0
LINE
  5
358
  8
0
  6
CONTINUOUS
 62
     9
 10
137.1572825776057
 20
102.0578629204943
 30
0.0
 11
137.6931821125033
 21
104.057861328125
 31
0.0
  0
LINE
  5
359
  8
0
  6
CONTINUOUS
 62
     9
 10
137.6931821125033
 20
104.057861328125
 30
0.0
 11
138.2290816474009
 21
102.0578629204943
 31
0.0
  0
LINE
  5
35A
  8
0
  6
CONTINUOUS
 62
     9
 10
137.6931821125033
 20
104.057861328125
 30
0.0
 11
137.6931821125033
 21
102.0578629204943
 31
0.0
  0
ENDBLK
  5
198
  8
0
  0
BLOCK
  8
0
  2
DC_GROUP_112
 70
     0
 10
0.0
 20
0.0
 30
0.0
  3
DC_GROUP_112
  1

  0
LINE
  5
35B
  8
0
  6
CONTINUOUS
 62
     9
 10
220.4786016112257
 20
-53.54235531432502
 30
0.0
 11
220.4786016112257
 21
-63.22316799243374
 31
0.0
  0
LINE
  5
35C
  8
0
  6
CONTINUOUS
 62
     9
 10
187.6786016112257
 20
-41.94215011596677
 30
0.0
 11
187.6786016112257
 21
-63.22316799243374
 31
0.0
  0
LINE
  5
35D
  8
0
  6
CONTINUOUS
 62
     9
 10
187.6786016112257
 20
-62.22316799243374
 30
0.0
 11
220.4786016112257
 21
-62.22316799243374
 31
0.0
  0
INSERT
  5
35E
  8
0
  6
CENTER
  2
DC_GROUP_113
 10
0.0
 20
0.0
 30
0.0
  0
INSERT
  5
35F
  8
0
  6
CONTINUOUS
  2
DC_GROUP_114
 10
0.0
 20
0.0
 30
0.0
  0
TEXT
  5
360
  8
0
 62
     7
 10
197.6786016112257
 20
-61.22316799243374
 30
0.0
 40
4.0
  1
32.8
 41
0.6095238095238109
  7
FDASTYLE1
 72
     5
 11
207.4309825636067
 21
-61.22316799243374
 31
0.0
  0
ENDBLK
  5
19B
  8
0
  0
BLOCK
  8
0
  2
DC_GROUP_113
 70
     0
 10
0.0
 20
0.0
 30
0.0
  3
DC_GROUP_113
  1

  0
LINE
  5
361
  8
0
  6
CONTINUOUS
 62
     9
 10
189.6786000188563
 20
-62.75906752733135
 30
0.0
 11
187.6786016112257
 21
-62.22316799243374
 31
0.0
  0
LINE
  5
362
  8
0
  6
CONTINUOUS
 62
     9
 10
187.6786016112257
 20
-62.22316799243374
 30
0.0
 11
189.6786000188563
 21
-61.68726845753613
 31
0.0
  0
LINE
  5
363
  8
0
  6
CONTINUOUS
 62
     9
 10
187.6786016112257
 20
-62.22316799243374
 30
0.0
 11
189.6786000188563
 21
-62.22316799243374
 31
0.0
  0
ENDBLK
  5
19E
  8
0
  0
BLOCK
  8
0
  2
DC_GROUP_114
 70
     0
 10
0.0
 20
0.0
 30
0.0
  3
DC_GROUP_114
  1

  0
LINE
  5
364
  8
0
  6
CONTINUOUS
 62
     9
 10
218.478603203595
 20
-61.68726845753613
 30
0.0
 11
220.4786016112257
 21
-62.22316799243374
 31
0.0
  0
LINE
  5
365
  8
0
  6
CONTINUOUS
 62
     9
 10
220.4786016112257
 20
-62.22316799243374
 30
0.0
 11
218.478603203595
 21
-62.75906752733135
 31
0.0
  0
LINE
  5
366
  8
0
  6
CONTINUOUS
 62
     9
 10
220.4786016112257
 20
-62.22316799243374
 30
0.0
 11
218.478603203595
 21
-62.22316799243374
 31
0.0
  0
ENDBLK
  5
1A1
  8
0
  0
BLOCK
  8
0
  2
DC_GROUP_115
 70
     0
 10
0.0
 20
0.0
 30
0.0
  3
DC_GROUP_115
  1

  0
LINE
  5
367
  8
0
  6
CONTINUOUS
 62
     7
 10
220.4786016112257
 20
-48.44215011596677
 30
0.0
 11
235.4217149217693
 21
-63.48478215076383
 31
0.0
  0
LINE
  5
368
  8
0
  6
CONTINUOUS
 62
     7
 10
235.4217149217693
 20
-63.48478215076383
 30
0.0
 11
251.4217149217693
 21
-63.48478215076383
 31
0.0
  0
INSERT
  5
369
  8
0
  6
CONTINUOUS
  2
DC_GROUP_116
 10
0.0
 20
0.0
 30
0.0
  0
TEXT
  5
36A
  8
0
 62
     7
 10
235.4217149217693
 20
-63.48478215076383
 30
0.0
 40
4.0
  1
M8×16
 41
0.6213017751479295
  7
FDASTYLE1
 72
     5
 11
248.3447918448462
 21
-63.48478215076383
 31
0.0
  0
ENDBLK
  5
1A4
  8
0
  0
BLOCK
  8
0
  2
DC_GROUP_116
 70
     0
 10
0.0
 20
0.0
 30
0.0
  3
DC_GROUP_116
  1

  0
LINE
  5
36B
  8
0
  6
CONTINUOUS
 62
     7
 10
221.5079189537074
 20
-50.23872679133998
 30
0.0
 11
220.4786016112257
 21
-48.44215011596677
 31
0.0
  0
LINE
  5
36C
  8
0
  6
CONTINUOUS
 62
     7
 10
220.4786016112257
 20
-48.44215011596677
 30
0.0
 11
222.2683064477881
 21
-49.48336985262848
 31
0.0
  0
LINE
  5
36D
  8
0
  6
CONTINUOUS
 62
     7
 10
220.4786016112257
 20
-48.44215011596677
 30
0.0
 11
221.8881127007477
 21
-49.86104832198424
 31
0.0
  0
ENDBLK
  5
1A7
  8
0
  0
BLOCK
  8
0
  2
DC_GROUP_117
 70
     0
 10
0.0
 20
0.0
 30
0.0
  3
DC_GROUP_117
  1

  0
LINE
  5
36E
  8
0
  6
CONTINUOUS
 62
     9
 10
517.3146629375382
 20
38.75847625732425
 30
0.0
 11
517.3146629375382
 21
43.87702307725863
 31
0.0
  0
LINE
  5
36F
  8
0
  6
CONTINUOUS
 62
     9
 10
471.3146629375382
 20
38.9251403808594
 30
0.0
 11
471.3146629375382
 21
43.87702307725863
 31
0.0
  0
LINE
  5
370
  8
0
  6
CONTINUOUS
 62
     9
 10
471.3146629375382
 20
42.87702307725863
 30
0.0
 11
517.3146629375382
 21
42.87702307725863
 31
0.0
  0
INSERT
  5
371
  8
0
  6
CONTINUOUS
  2
DC_GROUP_118
 10
0.0
 20
0.0
 30
0.0
  0
INSERT
  5
372
  8
0
  6
CONTINUOUS
  2
DC_GROUP_119
 10
0.0
 20
0.0
 30
0.0
  0
TEXT
  5
373
  8
0
 62
     7
 10
486.3146629375382
 20
43.87702307725863
 30
0.0
 40
4.0
  1
PCD46
 41
0.7314285714285717
  7
FDASTYLE1
 72
     5
 11
500.9432343661096
 21
43.87702307725863
 31
0.0
  0
ENDBLK
  5
1AA
  8
0
  0
BLOCK
  8
0
  2
DC_GROUP_118
 70
     0
 10
0.0
 20
0.0
 30
0.0
  3
DC_GROUP_118
  1

  0
LINE
  5
374
  8
0
  6
CONTINUOUS
 62
     9
 10
473.3146613451689
 20
42.34112354236102
 30
0.0
 11
471.3146629375382
 21
42.87702307725863
 31
0.0
  0
LINE
  5
375
  8
0
  6
CONTINUOUS
 62
     9
 10
471.3146629375382
 20
42.87702307725863
 30
0.0
 11
473.3146613451689
 21
43.41292261215624
 31
0.0
  0
LINE
  5
376
  8
0
  6
CONTINUOUS
 62
     9
 10
471.3146629375382
 20
42.87702307725863
 30
0.0
 11
473.3146613451689
 21
42.87702307725863
 31
0.0
  0
ENDBLK
  5
1AD
  8
0
  0
BLOCK
  8
0
  2
DC_GROUP_119
 70
     0
 10
0.0
 20
0.0
 30
0.0
  3
DC_GROUP_119
  1

  0
LINE
  5
377
  8
0
  6
CONTINUOUS
 62
     9
 10
515.3146645299075
 20
43.41292261215624
 30
0.0
 11
517.3146629375382
 21
42.87702307725863
 31
0.0
  0
LINE
  5
378
  8
0
  6
CONTINUOUS
 62
     9
 10
517.3146629375382
 20
42.87702307725863
 30
0.0
 11
515.3146645299075
 21
42.34112354236102
 31
0.0
  0
LINE
  5
379
  8
0
  6
CONTINUOUS
 62
     9
 10
517.3146629375382
 20
42.87702307725863
 30
0.0
 11
515.3146645299075
 21
42.87702307725863
 31
0.0
  0
ENDBLK
  5
1B0
  8
0
  0
BLOCK
  8
0
  2
DC_GROUP_120
 70
     0
 10
0.0
 20
0.0
 30
0.0
  3
DC_GROUP_120
  1

  0
LINE
  5
37A
  8
0
  6
CONTINUOUS
 62
     7
 10
470.5125141687551
 20
35.44224774196051
 30
0.0
 11
427.6096343626151
 21
119.8140150358447
 31
0.0
  0
LINE
  5
37B
  8
0
  6
CONTINUOUS
 62
     7
 10
427.6096343626151
 20
119.8140150358447
 30
0.0
 11
408.4096343626151
 21
119.8140150358447
 31
0.0
  0
INSERT
  5
37C
  8
0
  6
CONTINUOUS
  2
DC_GROUP_121
 10
0.0
 20
0.0
 30
0.0
  0
TEXT
  5
37D
  8
0
 62
     7
 10
408.4096343626151
 20
119.8140150358447
 30
0.0
 40
4.0
  1
2-φ3.2
 41
0.6243496357960464
  7
FDASTYLE1
 72
     5
 11
423.8935053303571
 21
119.8140150358447
 31
0.0
  0
ENDBLK
  5
1B3
  8
0
  0
BLOCK
  8
0
  2
DC_GROUP_121
 70
     0
 10
0.0
 20
0.0
 30
0.0
  3
DC_GROUP_121
  1

  0
LINE
  5
37E
  8
0
  6
CONTINUOUS
 62
     7
 10
470.0836766206488
 20
37.46790326533135
 30
0.0
 11
470.5125141687551
 21
35.44224774196051
 31
0.0
  0
LINE
  5
37F
  8
0
  6
CONTINUOUS
 62
     7
 10
470.5125141687551
 20
35.44224774196051
 30
0.0
 11
469.1282999310547
 21
36.98209607415957
 31
0.0
  0
LINE
  5
380
  8
0
  6
CONTINUOUS
 62
     7
 10
470.5125141687551
 20
35.44224774196051
 30
0.0
 11
469.6059882758517
 21
37.22499966974547
 31
0.0
  0
ENDBLK
  5
1B6
  8
0
  0
ENDSEC
  0
SECTION
  2
ENTITIES
  0
LINE
  5
381
  8
LAYER0002
  6
CONTINUOUS
 62
     3
 10
79.57239374547669
 20
-190.0
 30
0.0
 11
79.57239374547669
 21
190.0
 31
0.0
  0
LINE
  5
382
  8
LAYER0002
  6
CONTINUOUS
 62
     3
 10
633.5723937454767
 20
-190.0
 30
0.0
 11
633.5723937454767
 21
190.0
 31
0.0
  0
LINE
  5
383
  8
LAYER0002
  6
CONTINUOUS
 62
     3
 10
79.57239374547669
 20
-190.0
 30
0.0
 11
633.5723937454767
 21
-190.0
 31
0.0
  0
LINE
  5
384
  8
LAYER0002
  6
CONTINUOUS
 62
     3
 10
79.57239374547669
 20
189.9999999999999
 30
0.0
 11
633.5723937454767
 21
189.9999999999999
 31
0.0
  0
LINE
  5
385
  8
LAYER0002
  6
CONTINUOUS
 62
     3
 10
453.5723937454767
 20
-190.0
 30
0.0
 11
453.5723937454767
 21
-130.0
 31
0.0
  0
LINE
  5
386
  8
LAYER0002
  6
CONTINUOUS
 62
     3
 10
453.5723937454767
 20
-176.0
 30
0.0
 11
633.5723937454767
 21
-176.0
 31
0.0
  0
LINE
  5
387
  8
LAYER0002
  6
CONTINUOUS
 62
     3
 10
502.5723937454767
 20
-162.0
 30
0.0
 11
633.5723937454767
 21
-162.0
 31
0.0
  0
LINE
  5
388
  8
LAYER0002
  6
CONTINUOUS
 62
     3
 10
502.5723937454767
 20
-148.0
 30
0.0
 11
633.5723937454767
 21
-148.0
 31
0.0
  0
LINE
  5
389
  8
LAYER0002
  6
CONTINUOUS
 62
     3
 10
502.5723937454767
 20
-138.0
 30
0.0
 11
633.5723937454767
 21
-138.0
 31
0.0
  0
LINE
  5
38A
  8
LAYER0002
  6
CONTINUOUS
 62
     3
 10
502.5723937454767
 20
-176.0
 30
0.0
 11
502.5723937454767
 21
-130.0
 31
0.0
  0
LINE
  5
38B
  8
LAYER0002
  6
CONTINUOUS
 62
     3
 10
611.5723937454767
 20
-176.0
 30
0.0
 11
611.5723937454767
 21
-130.0
 31
0.0
  0
LINE
  5
38C
  8
LAYER0002
  6
CONTINUOUS
 62
     3
 10
527.5723937454767
 20
-190.0
 30
0.0
 11
527.5723937454767
 21
-176.0
 31
0.0
  0
LINE
  5
38D
  8
LAYER0002
  6
CONTINUOUS
 62
     3
 10
618.5723937454767
 20
-188.0
 30
0.0
 11
628.5723937454767
 21
-188.0
 31
0.0
  0
LINE
  5
38E
  8
LAYER0002
  6
CONTINUOUS
 62
     3
 10
623.5723937454767
 20
-178.0
 30
0.0
 11
618.5723937454767
 21
-188.0
 31
0.0
  0
LINE
  5
38F
  8
LAYER0002
  6
CONTINUOUS
 62
     3
 10
623.5723937454767
 20
-178.0
 30
0.0
 11
628.5723937454767
 21
-188.0
 31
0.0
  0
LINE
  5
390
  8
LAYER0002
  6
CONTINUOUS
 62
     3
 10
453.5723937454767
 20
-130.0
 30
0.0
 11
633.5723937454767
 21
-130.0
 31
0.0
  0
LINE
  5
391
  8
LAYER0002
  6
CONTINUOUS
 62
     3
 10
582.5723937454767
 20
-176.0
 30
0.0
 11
582.5723937454767
 21
-148.0
 31
0.0
  0
LINE
  5
392
  8
LAYER0002
  6
CONTINUOUS
 62
     4
 10
461.5723937454767
 20
-172.0
 30
0.0
 11
461.5723937454767
 21
-130.0
 31
0.0
  0
LINE
  5
393
  8
LAYER0002
  6
CONTINUOUS
 62
     4
 10
465.5723937454767
 20
-172.0
 30
0.0
 11
465.5723937454767
 21
-130.0
 31
0.0
  0
LINE
  5
394
  8
LAYER0002
  6
CONTINUOUS
 62
     4
 10
478.0723937454767
 20
-176.0
 30
0.0
 11
478.0723937454767
 21
-130.0
 31
0.0
  0
LINE
  5
395
  8
LAYER0002
  6
CONTINUOUS
 62
     4
 10
453.5723937454767
 20
-137.0
 30
0.0
 11
502.5723937454767
 21
-137.0
 31
0.0
  0
LINE
  5
396
  8
LAYER0002
  6
CONTINUOUS
 62
     4
 10
453.5723937454767
 20
-144.0
 30
0.0
 11
502.5723937454767
 21
-144.0
 31
0.0
  0
LINE
  5
397
  8
LAYER0002
  6
CONTINUOUS
 62
     4
 10
453.5723937454767
 20
-165.0
 30
0.0
 11
502.5723937454767
 21
-165.0
 31
0.0
  0
LINE
  5
398
  8
LAYER0002
  6
CONTINUOUS
 62
     4
 10
453.5723937454767
 20
-172.0
 30
0.0
 11
502.5723937454767
 21
-172.0
 31
0.0
  0
LINE
  5
399
  8
LAYER0002
  6
CONTINUOUS
 62
     4
 10
611.5723937454767
 20
-166.0
 30
0.0
 11
633.5723937454767
 21
-166.0
 31
0.0
  0
LINE
  5
39A
  8
LAYER0002
  6
CONTINUOUS
 62
     4
 10
509.5723937454767
 20
-139.5
 30
0.0
 11
509.5723937454767
 21
-130.0
 31
0.0
  0
LINE
  5
39B
  8
LAYER0002
  6
CONTINUOUS
 62
     4
 10
558.5723937454767
 20
-148.0
 30
0.0
 11
558.5723937454767
 21
-146.5
 31
0.0
  0
LINE
  5
39C
  8
LAYER0002
  6
CONTINUOUS
 62
     4
 10
582.5723937454767
 20
-148.0
 30
0.0
 11
582.5723937454767
 21
-146.5
 31
0.0
  0
LINE
  5
39D
  8
LAYER0002
  6
CONTINUOUS
 62
     4
 10
599.5723937454767
 20
-148.0
 30
0.0
 11
599.5723937454767
 21
-146.5
 31
0.0
  0
LINE
  5
39E
  8
LAYER0002
  6
CONTINUOUS
 62
     4
 10
558.5723937454767
 20
-139.5
 30
0.0
 11
558.5723937454767
 21
-130.0
 31
0.0
  0
LINE
  5
39F
  8
LAYER0002
  6
CONTINUOUS
 62
     4
 10
582.5723937454767
 20
-139.5
 30
0.0
 11
582.5723937454767
 21
-130.0
 31
0.0
  0
LINE
  5
3A0
  8
LAYER0002
  6
CONTINUOUS
 62
     4
 10
599.5723937454767
 20
-139.5
 30
0.0
 11
599.5723937454767
 21
-130.0
 31
0.0
  0
LINE
  5
3A1
  8
LAYER0002
  6
CONTINUOUS
 62
     4
 10
453.5723937454767
 20
-151.0
 30
0.0
 11
502.5723937454767
 21
-151.0
 31
0.0
  0
LINE
  5
3A2
  8
LAYER0002
  6
CONTINUOUS
 62
     4
 10
453.5723937454767
 20
-158.0
 30
0.0
 11
502.5723937454767
 21
-158.0
 31
0.0
  0
LINE
  5
3A3
  8
LAYER0002
  6
CONTINUOUS
 62
     4
 10
457.5723937454767
 20
-130.5
 30
0.0
 11
454.5723937454767
 21
-136.5
 31
0.0
  0
LINE
  5
3A4
  8
LAYER0002
  6
CONTINUOUS
 62
     4
 10
457.5723937454767
 20
-130.5
 30
0.0
 11
460.5723937454767
 21
-136.5
 31
0.0
  0
LINE
  5
3A5
  8
LAYER0002
  6
CONTINUOUS
 62
     4
 10
454.5723937454767
 20
-136.5
 30
0.0
 11
460.5723937454767
 21
-136.5
 31
0.0
  0
LINE
  5
3A6
  8
LAYER0002
  6
CONTINUOUS
 62
     4
 10
457.5723937454767
 20
-158.5
 30
0.0
 11
454.5723937454767
 21
-164.5
 31
0.0
  0
LINE
  5
3A7
  8
LAYER0002
  6
CONTINUOUS
 62
     4
 10
457.5723937454767
 20
-158.5
 30
0.0
 11
460.5723937454767
 21
-164.5
 31
0.0
  0
LINE
  5
3A8
  8
LAYER0002
  6
CONTINUOUS
 62
     4
 10
454.5723937454767
 20
-164.5
 30
0.0
 11
460.5723937454767
 21
-164.5
 31
0.0
  0
LINE
  5
3A9
  8
LAYER0002
  6
CONTINUOUS
 62
     4
 10
457.5723937454767
 20
-151.5
 30
0.0
 11
454.5723937454767
 21
-157.5
 31
0.0
  0
LINE
  5
3AA
  8
LAYER0002
  6
CONTINUOUS
 62
     4
 10
457.5723937454767
 20
-151.5
 30
0.0
 11
460.5723937454767
 21
-157.5
 31
0.0
  0
LINE
  5
3AB
  8
LAYER0002
  6
CONTINUOUS
 62
     4
 10
454.5723937454767
 20
-157.5
 30
0.0
 11
460.5723937454767
 21
-157.5
 31
0.0
  0
LINE
  5
3AC
  8
LAYER0002
  6
CONTINUOUS
 62
     4
 10
457.5723937454767
 20
-144.5
 30
0.0
 11
454.5723937454767
 21
-150.5
 31
0.0
  0
LINE
  5
3AD
  8
LAYER0002
  6
CONTINUOUS
 62
     4
 10
457.5723937454767
 20
-144.5
 30
0.0
 11
460.5723937454767
 21
-150.5
 31
0.0
  0
LINE
  5
3AE
  8
LAYER0002
  6
CONTINUOUS
 62
     4
 10
454.5723937454767
 20
-150.5
 30
0.0
 11
460.5723937454767
 21
-150.5
 31
0.0
  0
LINE
  5
3AF
  8
LAYER0002
  6
CONTINUOUS
 62
     4
 10
457.5723937454767
 20
-137.5
 30
0.0
 11
454.5723937454767
 21
-143.5
 31
0.0
  0
LINE
  5
3B0
  8
LAYER0002
  6
CONTINUOUS
 62
     4
 10
457.5723937454767
 20
-137.5
 30
0.0
 11
460.5723937454767
 21
-143.5
 31
0.0
  0
LINE
  5
3B1
  8
LAYER0002
  6
CONTINUOUS
 62
     4
 10
454.5723937454767
 20
-143.5
 30
0.0
 11
460.5723937454767
 21
-143.5
 31
0.0
  0
LINE
  5
3B2
  8
LAYER0002
  6
CONTINUOUS
 62
     4
 10
529.2390604121433
 20
-176.0
 30
0.0
 11
529.2390604121433
 21
-162.0
 31
0.0
  0
LINE
  5
3B3
  8
LAYER0002
  6
CONTINUOUS
 62
     4
 10
555.90572707881
 20
-176.0
 30
0.0
 11
555.90572707881
 21
-161.9509415757253
 31
0.0
  0
LINE
  5
3B4
  8
LAYER0002
  6
CONTINUOUS
 62
     4
 10
569.2390604121433
 20
-167.5
 30
0.0
 11
569.2390604121433
 21
-161.9509415757253
 31
0.0
  0
LINE
  5
3B5
  8
LAYER0002
  6
CONTINUOUS
 62
     4
 10
582.5723937454767
 20
-155.0
 30
0.0
 11
611.5723937454767
 21
-155.0
 31
0.0
  0
LINE
  5
3B6
  8
LAYER0002
  6
CONTINUOUS
 62
     4
 10
502.5723937454767
 20
-166.0
 30
0.0
 11
582.5723937454767
 21
-166.0
 31
0.0
  0
TEXT
  5
3B8
  8
LAYER0002
 62
     7
 10
503.5661518929514
 20
-130.821188728956
 30
0.0
 40
2.44248928
  1
符号
 41
0.8
  7
FDASTYLE0
  0
TEXT
  5
3B9
  8
LAYER0002
 62
     7
 10
518.9865248673825
 20
-135.8245525019963
 30
0.0
 40
4.0
  1
品       名
 41
0.6192847442281572
  7
FDASTYLE1
 72
     5
 11
542.2716312503612
 21
-135.8245525019963
 31
0.0
  0
TEXT
  5
3BA
  8
LAYER0002
 62
     7
 10
563.8055501867863
 20
-135.8245525019963
 30
0.0
 40
4.0
  1
材  料
 41
0.5950413223140509
  7
FDASTYLE1
 72
     5
 11
574.2782774595136
 21
-135.8245525019963
 31
0.0
  0
TEXT
  5
3BB
  8
LAYER0002
 62
     7
 10
586.0884554303317
 20
-135.8245525019963
 30
0.0
 40
4.0
  1
個 数
 41
0.5813148788927315
  7
FDASTYLE1
 72
     5
 11
593.9943377832728
 21
-135.8245525019963
 31
0.0
  0
TEXT
  5
3BC
  8
LAYER0002
 62
     7
 10
602.2942046983646
 20
-133.5649080050572
 30
0.0
 40
2.5
  1
単重量
 41
0.6666666666666666
  7
FDASTYLE1
 72
     5
 11
608.2942046983646
 21
-133.5649080050572
 31
0.0
  0
TEXT
  5
3BD
  8
LAYER0002
 62
     7
 10
601.2813453691126
 20
-137.3631304897525
 30
0.0
 40
2.5
  1
(kg)
 41
0.5333333333333371
  7
FDASTYLE1
 72
     5
 11
606.614678702446
 21
-137.3631304897525
 31
0.0
  0
TEXT
  5
3BE
  8
LAYER0002
 62
     7
 10
615.7145908109544
 20
-135.8245525019963
 30
0.0
 40
4.0
  1
記  事
 41
0.5950413223140509
  7
FDASTYLE1
 72
     5
 11
626.1873180836817
 21
-135.8245525019963
 31
0.0
  0
TEXT
  5
3BF
  8
LAYER0002
 62
     7
 10
615.4174732006412
 20
-165.4873041997729
 30
0.0
 40
3.0
  1
コード番号
 41
0.6666666666666666
  7
FDASTYLE1
 72
     5
 11
627.4174732006412
 21
-165.4873041997729
 31
0.0
  0
TEXT
  5
3C0
  8
LAYER0002
 62
     7
 10
458.4843857613084
 20
-175.1879010540338
 30
0.0
 40
2.5
  1
訂 正 来 歴
 41
0.5890861275476669
  7
FDASTYLE1
 72
     5
 11
469.9715652484879
 21
-175.1879010540338
 31
0.0
  0
TEXT
  5
3C1
  8
LAYER0002
 62
     7
 10
482.4627285922417
 20
-175.2166697391651
 30
0.0
 40
2.5
  1
工 事 番 号
 41
0.5890861275476669
  7
FDASTYLE1
 72
     5
 11
493.9499080794212
 21
-175.2166697391651
 31
0.0
  0
TEXT
  5
3C2
  8
LAYER0002
 62
     7
 10
455.5063940920796
 20
-165.9634530565915
 30
0.0
 40
1.90819475
  1
記号
 41
0.8
  7
FDASTYLE0
  0
TEXT
  5
3C3
  8
LAYER0002
 62
     7
 10
461.4457811522385
 20
-165.9634530565915
 30
0.0
 40
1.90819475
  1
理由
 41
0.8
  7
FDASTYLE0
  0
TEXT
  5
3C4
  8
LAYER0002
 62
     7
 10
468.191760536461
 20
-169.8786046700178
 30
0.0
 40
3.0
  1
日 付
 41
0.5813148788927344
  7
FDASTYLE1
 72
     5
 11
474.1211723011669
 21
-169.8786046700178
 31
0.0
  0
TEXT
  5
3C5
  8
LAYER0002
 62
     7
 10
510.0205627274419
 20
-165.7187911464244
 30
0.0
 40
3.0
  1
承   認
 41
0.6035665294924586
  7
FDASTYLE1
 72
     5
 11
519.7983405052197
 21
-165.7187911464244
 31
0.0
  0
TEXT
  5
3C6
  8
LAYER0002
 62
     7
 10
536.4356217787107
 20
-165.4873041997729
 30
0.0
 40
3.0
  1
検   図
 41
0.6035665294924586
  7
FDASTYLE1
 72
     5
 11
546.2133995564885
 21
-165.4873041997729
 31
0.0
  0
TEXT
  5
3C7
  8
LAYER0002
 62
     7
 10
558.0495858438518
 20
-165.4873041997729
 30
0.0
 40
3.0
  1
担  当
 41
0.5950413223140511
  7
FDASTYLE1
 72
     5
 11
565.9041312983973
 21
-165.4873041997729
 31
0.0
  0
TEXT
  5
3C8
  8
LAYER0002
 62
     7
 10
571.2494512295879
 20
-165.4873041997729
 30
0.0
 40
3.0
  1
製  図
 41
0.5950413223140511
  7
FDASTYLE1
 72
     5
 11
579.1039966841333
 21
-165.4873041997729
 31
0.0
  0
TEXT
  5
3C9
  8
LAYER0002
 62
     7
 10
583.5186309758966
 20
-153.2184960272417
 30
0.0
 40
3.0
  1
作図
 41
0.6666666666666762
  7
FDASTYLE1
 72
     5
 11
588.3186309758967
 21
-153.2184960272417
 31
0.0
  0
TEXT
  5
3CA
  8
LAYER0002
 62
     7
 10
584.6760657091543
 20
-160.2371566401815
 30
0.0
 40
4.0
  1
第 三 角 法
 41
0.5890861275476675
  7
FDASTYLE1
 72
     5
 11
603.0555528886415
 21
-160.2371566401815
 31
0.0
  0
TEXT
  5
3CB
  8
LAYER0002
 62
     7
 10
583.9816048691997
 20
-166.413251986379
 30
0.0
 40
3.0
  1
尺度
 41
0.6666666666666762
  7
FDASTYLE1
 72
     5
 11
588.7816048691998
 21
-166.413251986379
 31
0.0
  0
TEXT
  5
3CD
  8
LAYER0002
 62
     3
 10
461.9515481155107
 20
-185.9272077185017
 30
0.0
 40
7.0
  1
株式会社 野村製作所
 41
0.5976394989045255
  7
FDASTYLE2
 72
     5
 11
517.8344271000773
 21
-185.9272077185017
 31
0.0
  0
TEXT
  5
3CF
  8
LAYER0002
 62
     3
 10
533.6311292844923
 20
-187.1216685584563
 30
0.0
 40
8.0
  1
２－
 41
0.7699296059137625
  7
FDASTYLE3
 72
     5
 11
547.5206593751766
 21
-187.1216685584563
 31
0.0
  0
TEXT
  5
3D0
  8
LAYER0002
 62
     3
 10
550.5430869088992
 20
-187.1216685584563
 30
0.0
 40
8.0
  1
C206116
 41
1.31865032571161
  7
FDASTYLE3
 72
     5
 11
605.9053021835755
 21
-187.1216685584563
 31
0.0
  0
TEXT
  5
3D1
  8
LAYER0002
 62
     4
 10
590.1032971299989
 20
-145.0216474852281
 30
0.0
 40
3.0
  1
1式
 41
0.520661157024785
  7
FDASTYLE1
 72
     5
 11
593.5396607663624
 21
-145.0216474852281
 31
0.0
  0
TEXT
  5
3D2
  8
LAYER0002
 62
     4
 10
595.8735726361166
 20
-172.297487439201
 30
0.0
 40
3.0
  1
1/1
 41
0.5222222222222273
  7
FDASTYLE1
 72
     5
 11
600.5735726361166
 21
-172.297487439201
 31
0.0
  0
TEXT
  5
3D3
  8
LAYER0002
 62
     6
 10
521.6085333514537
 20
-145.7243747487088
 30
0.0
 40
5.0
  1
外　形　図
 41
0.5833333333333334
  7
FDASTYLE1
 72
     5
 11
539.1085333514537
 21
-145.7243747487088
 31
0.0
  0
TEXT
  5
3D4
  8
LAYER0002
 62
     6
 10
508.9768756015056
 20
-154.3920863201719
 30
0.0
 40
5.0
  1
日鋼プレシジォン
 41
0.5833333333333322
  7
FDASTYLE1
 72
     5
 11
536.9768756015055
 21
-154.3920863201719
 31
0.0
  0
TEXT
  5
3D5
  8
LAYER0002
 62
     6
 10
517.4424132567851
 20
-160.8053724226564
 30
0.0
 40
5.0
  1
  HF2-6B型 ﾁｬｯｸ
 41
0.5540567347748454
  7
FDASTYLE1
 72
     5
 11
556.7804414257992
 21
-160.8053724226564
 31
0.0
  0
LINE
  5
3D6
  8
0
  6
CONTINUOUS
 62
     3
 10
480.0646629375382
 20
116.5578575134278
 30
0.0
 11
508.5646629375382
 21
116.5578575134278
 31
0.0
  0
LINE
  5
3D7
  8
0
  6
CONTINUOUS
 62
     3
 10
508.5646206781252
 20
116.5577655896789
 30
0.0
 11
516.314607110698
 21
114.4811632054291
 31
0.0
  0
LINE
  5
3D8
  8
0
  6
CONTINUOUS
 62
     3
 10
480.0646433833867
 20
116.5578080635528
 30
0.0
 11
472.314663842013
 21
114.4812090886256
 31
0.0
  0
LINE
  5
3D9
  8
0
  6
CONTINUOUS
 62
     3
 10
472.3146629375382
 20
114.481243133545
 30
0.0
 11
472.3146629375382
 21
113.5704307556153
 31
0.0
  0
LINE
  5
3DA
  8
0
  6
CONTINUOUS
 62
     3
 10
516.3146629375382
 20
114.481243133545
 30
0.0
 11
516.3146629375382
 21
113.5704307556153
 31
0.0
  0
LINE
  5
3DB
  8
0
  6
CONTINUOUS
 62
     3
 10
480.3146629375382
 20
-48.44214248657224
 30
0.0
 11
508.3146629375382
 21
-48.44214248657224
 31
0.0
  0
LINE
  5
3DC
  8
0
  6
CONTINUOUS
 62
     3
 10
508.3146629375382
 20
116.5578575134278
 30
0.0
 11
508.3146629375382
 21
61.15489578247073
 31
0.0
  0
LINE
  5
3DD
  8
0
  6
CONTINUOUS
 62
     3
 10
480.3146629375382
 20
116.5578575134278
 30
0.0
 11
480.3146629375382
 21
61.15489578247073
 31
0.0
  0
LINE
  5
3DE
  8
0
  6
CONTINUOUS
 62
     3
 10
508.3146652420234
 20
-48.4421267278112
 30
0.0
 11
516.3146669266895
 21
-46.29853296581993
 31
0.0
  0
LINE
  5
3DF
  8
0
  6
CONTINUOUS
 62
     3
 10
472.3146510305884
 20
-46.29854481215895
 30
0.0
 11
480.3146527152545
 21
-48.44213857415022
 31
0.0
  0
LINE
  5
3E0
  8
0
  6
CONTINUOUS
 62
     3
 10
472.3146629375382
 20
-45.4547309875488
 30
0.0
 11
472.3146629375382
 21
-46.29854965209958
 31
0.0
  0
LINE
  5
3E1
  8
0
  6
CONTINUOUS
 62
     3
 10
516.3146629375382
 20
-45.4547309875488
 30
0.0
 11
516.3146629375382
 21
-46.29854965209958
 31
0.0
  0
LINE
  5
3E2
  8
0
  6
CONTINUOUS
 62
     3
 10
488.8146629375382
 20
116.5578575134278
 30
0.0
 11
488.8146629375382
 21
106.0219535827637
 31
0.0
  0
LINE
  5
3E3
  8
0
  6
CONTINUOUS
 62
     3
 10
499.8146629375382
 20
116.5578575134278
 30
0.0
 11
499.8146629375382
 21
106.0219535827637
 31
0.0
  0
LINE
  5
3E4
  8
0
  6
CONTINUOUS
 62
     3
 10
480.3146629375382
 20
2.057857513427763
 30
0.0
 11
488.8146629375382
 21
2.057857513427763
 31
0.0
  0
LINE
  5
3E5
  8
0
  6
CONTINUOUS
 62
     3
 10
499.8146629375382
 20
2.057857513427763
 30
0.0
 11
508.3146629375382
 21
2.057857513427763
 31
0.0
  0
LINE
  5
3E6
  8
0
  6
CONTINUOUS
 62
     3
 10
488.8146629375382
 20
-1.442142486572237
 30
0.0
 11
499.8146629375382
 21
-1.442142486572237
 31
0.0
  0
LINE
  5
3E7
  8
0
  6
CONTINUOUS
 62
     3
 10
488.8146629375382
 20
-42.44214248657224
 30
0.0
 11
499.8146629375382
 21
-42.44214248657224
 31
0.0
  0
LINE
  5
3E8
  8
0
  6
CONTINUOUS
 62
     3
 10
488.8146629375382
 20
-12.90624427795407
 30
0.0
 11
488.8146629375382
 21
-30.97803878784177
 31
0.0
  0
LINE
  5
3E9
  8
0
  6
CONTINUOUS
 62
     3
 10
488.8146629375382
 20
-37.90624618530271
 30
0.0
 11
488.8146629375382
 21
-48.44214248657224
 31
0.0
  0
LINE
  5
3EA
  8
0
  6
CONTINUOUS
 62
     3
 10
499.8146629375382
 20
-37.90624618530271
 30
0.0
 11
499.8146629375382
 21
-48.44214248657224
 31
0.0
  0
LINE
  5
3EB
  8
0
  6
CONTINUOUS
 62
     3
 10
499.8146629375382
 20
-12.90624427795407
 30
0.0
 11
499.8146629375382
 21
-30.97803878784177
 31
0.0
  0
LINE
  5
3EC
  8
0
  6
CONTINUOUS
 62
     3
 10
480.3146629375382
 20
6.960802078247099
 30
0.0
 11
480.3146629375382
 21
-48.44214248657224
 31
0.0
  0
LINE
  5
3ED
  8
0
  6
CONTINUOUS
 62
     3
 10
488.8146629375382
 20
2.057857513427763
 30
0.0
 11
488.8146629375382
 21
-5.978040695190401
 31
0.0
  0
LINE
  5
3EE
  8
0
  6
CONTINUOUS
 62
     3
 10
499.8146629375382
 20
2.057857513427763
 30
0.0
 11
499.8146629375382
 21
-5.978040695190401
 31
0.0
  0
LINE
  5
3EF
  8
0
  6
CONTINUOUS
 62
     3
 10
508.3146629375382
 20
6.960802078247099
 30
0.0
 11
508.3146629375382
 21
-48.44214248657224
 31
0.0
  0
LINE
  5
3F0
  8
0
  6
CONTINUOUS
 62
     3
 10
480.3146629375382
 20
66.05785751342776
 30
0.0
 11
488.8146629375382
 21
66.05785751342776
 31
0.0
  0
LINE
  5
3F1
  8
0
  6
CONTINUOUS
 62
     3
 10
499.8146629375382
 20
66.05785751342776
 30
0.0
 11
508.3146629375382
 21
66.05785751342776
 31
0.0
  0
LINE
  5
3F2
  8
0
  6
CONTINUOUS
 62
     3
 10
499.8146629375382
 20
74.09375381469729
 30
0.0
 11
499.8146629375382
 21
66.05785751342776
 31
0.0
  0
LINE
  5
3F3
  8
0
  6
CONTINUOUS
 62
     3
 10
499.8146629375382
 20
99.09375381469729
 30
0.0
 11
499.8146629375382
 21
81.02196121215823
 31
0.0
  0
LINE
  5
3F4
  8
0
  6
CONTINUOUS
 62
     3
 10
488.8146629375382
 20
99.09375381469729
 30
0.0
 11
488.8146629375382
 21
81.02196121215823
 31
0.0
  0
LINE
  5
3F5
  8
0
  6
CONTINUOUS
 62
     3
 10
488.8146629375382
 20
74.09375381469729
 30
0.0
 11
488.8146629375382
 21
66.05785751342776
 31
0.0
  0
LINE
  5
3F6
  8
0
  6
CONTINUOUS
 62
     3
 10
488.8146629375382
 20
110.5578575134278
 30
0.0
 11
499.8146629375382
 21
110.5578575134278
 31
0.0
  0
LINE
  5
3F7
  8
0
  6
CONTINUOUS
 62
     3
 10
488.8146629375382
 20
69.55785751342776
 30
0.0
 11
499.8146629375382
 21
69.55785751342776
 31
0.0
  0
LINE
  5
3F8
  8
0
  6
CONTINUOUS
 62
     3
 10
466.3146629375382
 20
88.59376144409183
 30
0.0
 11
462.3146629375382
 21
88.59376144409183
 31
0.0
  0
LINE
  5
3F9
  8
0
  6
CONTINUOUS
 62
     3
 10
460.3146631277015
 20
92.05786157298806
 30
0.0
 11
462.3146636045387
 21
95.52196288753274
 31
0.0
  0
LINE
  5
3FA
  8
0
  6
CONTINUOUS
 62
     3
 10
462.3147143117316
 20
88.59380343394699
 30
0.0
 11
460.3147152654059
 21
92.0579054637474
 31
0.0
  0
LINE
  5
3FB
  8
0
  6
CONTINUOUS
 62
     3
 10
468.3146805127089
 20
92.05786875064908
 30
0.0
 11
466.3146781285231
 21
88.59376838977872
 31
0.0
  0
LINE
  5
3FC
  8
0
  6
CONTINUOUS
 62
     3
 10
466.3146872913052
 20
95.5219939473723
 30
0.0
 11
468.3146868144674
 21
92.05788978892193
 31
0.0
  0
LINE
  5
3FD
  8
0
  6
CONTINUOUS
 62
     3
 10
462.3146629375382
 20
95.52196884155276
 30
0.0
 11
466.3146629375382
 21
95.52196884155276
 31
0.0
  0
LINE
  5
3FE
  8
0
  6
CONTINUOUS
 62
     3
 10
508.3146476787492
 20
-90.29587173461911
 30
0.0
 11
522.0660057109757
 21
-90.29587173461911
 31
0.0
  0
LINE
  5
3FF
  8
0
  6
CONTINUOUS
 62
     3
 10
516.3146324199601
 20
-97.29589462280271
 30
0.0
 11
519.8754997295304
 21
-97.29589462280271
 31
0.0
  0
LINE
  5
400
  8
0
  6
CONTINUOUS
 62
     3
 10
532.3146781963274
 20
-97.29588699340818
 30
0.0
 11
532.3146781963274
 21
-90.29587173461911
 31
0.0
  0
LINE
  5
401
  8
0
  6
CONTINUOUS
 62
     3
 10
516.3146629375382
 20
-97.29587936401364
 30
0.0
 11
516.3146629375382
 21
-90.29587936401364
 31
0.0
  0
LINE
  5
402
  8
0
  6
CONTINUOUS
 62
     3
 10
516.3146408605475
 20
-97.2958772479586
 30
0.0
 11
520.047617819006
 21
-99.45111253848594
 31
0.0
  0
LINE
  5
403
  8
0
  6
CONTINUOUS
 62
     3
 10
528.6503950409832
 20
-99.4114493168199
 30
0.0
 11
532.314663213337
 21
-97.29588306315779
 31
0.0
  0
LINE
  5
404
  8
0
  6
CONTINUOUS
 62
     3
 10
528.7963829082413
 20
-97.29589462280271
 30
0.0
 11
532.3146324199601
 21
-97.29589462280271
 31
0.0
  0
LINE
  5
405
  8
0
  6
CONTINUOUS
 62
     3
 10
527.3146324199601
 20
-100.1826286315918
 30
0.0
 11
521.3146324199601
 21
-100.1826286315918
 31
0.0
  0
LINE
  5
406
  8
0
  6
CONTINUOUS
 62
     3
 10
526.7146415752335
 20
-90.68262863159177
 30
0.0
 11
521.9146385234757
 21
-90.68262863159177
 31
0.0
  0
LINE
  5
407
  8
0
  6
CONTINUOUS
 62
     3
 10
520.364665989296
 20
-97.80572128295896
 30
0.0
 11
520.364665989296
 21
-99.49197006225583
 31
0.0
  0
LINE
  5
408
  8
0
  6
CONTINUOUS
 62
     3
 10
528.2646446269913
 20
-97.80572128295896
 30
0.0
 11
528.2646446269913
 21
-99.49197006225583
 31
0.0
  0
LINE
  5
409
  8
0
  6
CONTINUOUS
 62
     3
 10
527.6146354717179
 20
-92.98263168334958
 30
0.0
 11
521.0146446269913
 21
-92.98263168334958
 31
0.0
  0
LINE
  5
40A
  8
0
  6
CONTINUOUS
 62
     3
 10
527.7072258037492
 20
-97.18262863159177
 30
0.0
 11
520.922023777382
 21
-97.18262863159177
 31
0.0
  0
LINE
  5
40B
  8
0
  6
CONTINUOUS
 62
     3
 10
526.3146476787492
 20
-97.9465522766113
 30
0.0
 11
526.3146476787492
 21
-99.41868972778318
 31
0.0
  0
LINE
  5
40C
  8
0
  6
CONTINUOUS
 62
     3
 10
522.3146476787492
 20
-97.9465522766113
 30
0.0
 11
522.3146476787492
 21
-99.41868972778318
 31
0.0
  0
LINE
  5
40D
  8
0
  6
CONTINUOUS
 62
     3
 10
521.0146655183386
 20
-92.98262408341176
 30
0.0
 11
521.9146653242348
 21
-90.68262368800058
 31
0.0
  0
LINE
  5
40E
  8
0
  6
CONTINUOUS
 62
     3
 10
526.7146882116767
 20
-90.68259875281066
 30
0.0
 11
527.6146883119981
 21
-92.98259900100922
 31
0.0
  0
LINE
  5
40F
  8
0
  6
CONTINUOUS
 62
     3
 10
526.9277153057024
 20
-93.98262405395505
 30
0.0
 11
521.6356773418351
 21
-93.98262405395505
 31
0.0
  0
LINE
  5
410
  8
0
  6
CONTINUOUS
 62
     3
 10
526.5633506816788
 20
-90.29587173461911
 30
0.0
 11
541.7131309551163
 21
-90.29587173461911
 31
0.0
  0
LINE
  5
411
  8
0
  6
CONTINUOUS
 62
     3
 10
522.3146629375382
 20
-20.4780578613281
 30
0.0
 11
526.3146629375382
 21
-20.4780578613281
 31
0.0
  0
LINE
  5
412
  8
0
  6
CONTINUOUS
 62
     3
 10
528.3146606284909
 20
-23.94215926906097
 30
0.0
 11
526.3146601516536
 21
-27.40626058360564
 31
0.0
  0
LINE
  5
413
  8
0
  6
CONTINUOUS
 62
     3
 10
526.3146053670425
 20
-20.47810435512335
 30
0.0
 11
528.3146044133681
 21
-23.94220638492377
 31
0.0
  0
LINE
  5
414
  8
0
  6
CONTINUOUS
 62
     3
 10
520.3146508494619
 20
-23.9421649250821
 30
0.0
 11
522.3146532336477
 21
-20.47806456421174
 31
0.0
  0
LINE
  5
415
  8
0
  6
CONTINUOUS
 62
     3
 10
522.3146399194915
 20
-27.40629349435264
 30
0.0
 11
520.3146413500031
 21
-23.94219098771507
 31
0.0
  0
LINE
  5
416
  8
0
  6
CONTINUOUS
 62
     3
 10
526.3146629375382
 20
-27.40626525878903
 30
0.0
 11
522.3146629375382
 21
-27.40626525878903
 31
0.0
  0
CIRCLE
  5
417
  8
0
  6
CONTINUOUS
 62
     3
 10
494.3146629375382
 20
34.05784988403323
 30
0.0
 40
27.0
  0
ARC
  5
418
  8
0
  6
CONTINUOUS
 62
     3
 10
494.3146629375382
 20
34.05784988403323
 30
0.0
 40
82.5
 50
0.0
 51
80.22979938736845
  0
ARC
  5
419
  8
0
  6
CONTINUOUS
 62
     3
 10
494.3146629375382
 20
34.05784988403323
 30
0.0
 40
82.5
 50
99.77021928196622
 51
260.2297702453789
  0
ARC
  5
41A
  8
0
  6
CONTINUOUS
 62
     3
 10
494.3146629375382
 20
34.05784988403323
 30
0.0
 40
82.5
 50
279.7702006126315
 51
360.0
  0
CIRCLE
  5
41B
  8
0
  6
CONTINUOUS
 62
     3
 10
494.3146629375382
 20
34.05784988403323
 30
0.0
 40
30.5
  0
ARC
  5
41C
  8
0
  6
CONTINUOUS
 62
     3
 10
494.3146629375382
 20
34.05784988403323
 30
0.0
 40
81.0
 50
99.95297465358826
 51
260.0469943831894
  0
ARC
  5
41D
  8
0
  6
CONTINUOUS
 62
     3
 10
494.3146629375382
 20
34.05784988403323
 30
0.0
 40
81.0
 50
279.9529559842536
 51
440.0470440157464
  0
CIRCLE
  5
41E
  8
0
  6
CONTINUOUS
 62
     3
 10
471.3146629375382
 20
34.05784988403323
 30
0.0
 40
1.600000023841858
  0
CIRCLE
  5
41F
  8
0
  6
CONTINUOUS
 62
     3
 10
517.3146629375382
 20
34.05784988403323
 30
0.0
 40
1.600000023841858
  0
CIRCLE
  5
420
  8
0
  6
CONTINUOUS
 62
     3
 10
531.3564415019913
 20
-2.983936309814425
 30
0.0
 40
5.5
  0
CIRCLE
  5
421
  8
0
  6
CONTINUOUS
 62
     3
 10
531.3564415019913
 20
71.09963607788089
 30
0.0
 40
5.5
  0
CIRCLE
  5
422
  8
0
  6
CONTINUOUS
 62
     3
 10
457.272869114296
 20
71.09963607788089
 30
0.0
 40
5.5
  0
CIRCLE
  5
423
  8
0
  6
CONTINUOUS
 62
     3
 10
457.272869114296
 20
-2.983936309814425
 30
0.0
 40
8.5
  0
CIRCLE
  5
424
  8
0
  6
CONTINUOUS
 62
     3
 10
531.3564415019913
 20
-2.983936309814425
 30
0.0
 40
8.5
  0
ARC
  5
425
  8
0
  6
CONTINUOUS
 62
     3
 10
494.3146629375382
 20
34.05784988403323
 30
0.0
 40
32.40000152587891
 50
64.3991694197064
 51
115.6008424194391
  0
CIRCLE
  5
426
  8
0
  6
CONTINUOUS
 62
     3
 10
531.3564415019913
 20
71.09963607788089
 30
0.0
 40
8.5
  0
CIRCLE
  5
427
  8
0
  6
CONTINUOUS
 62
     3
 10
457.272869114296
 20
71.09963607788089
 30
0.0
 40
8.5
  0
ARC
  5
428
  8
0
  6
CONTINUOUS
 62
     3
 10
494.3146629375382
 20
34.05784988403323
 30
0.0
 40
32.40000152587891
 50
244.3991575805609
 51
295.6008237501044
  0
CIRCLE
  5
429
  8
0
  6
CONTINUOUS
 62
     3
 10
464.3146629375382
 20
92.05785751342776
 30
0.0
 40
8.0
  0
CIRCLE
  5
42A
  8
0
  6
CONTINUOUS
 62
     3
 10
464.3146629375382
 20
92.05785751342776
 30
0.0
 40
2.400000095367432
  0
CIRCLE
  5
42B
  8
0
  6
CONTINUOUS
 62
     3
 10
464.3146629375382
 20
92.05785751342776
 30
0.0
 40
0.75
  0
CIRCLE
  5
42C
  8
0
  6
CONTINUOUS
 62
     3
 10
464.3146629375382
 20
92.05785751342776
 30
0.0
 40
3.299999952316284
  0
ARC
  5
42D
  8
0
  6
CONTINUOUS
 62
     3
 10
524.3146476787492
 20
-97.18262100219724
 30
0.0
 40
3.0
 50
269.9999906653329
 51
311.8103038204597
  0
ARC
  5
42E
  8
0
  6
CONTINUOUS
 62
     3
 10
524.3146476787492
 20
-100.1826210021972
 30
0.0
 40
3.0
 50
48.18968934935123
 51
131.8102746784701
  0
ARC
  5
42F
  8
0
  6
CONTINUOUS
 62
     3
 10
524.3146476787492
 20
-97.18262100219724
 30
0.0
 40
3.0
 50
228.1896706800164
 51
269.9999701747653
  0
ARC
  5
430
  8
0
  6
CONTINUOUS
 62
     3
 10
524.3146476787492
 20
-92.98262405395505
 30
0.0
 40
3.299999952316284
 50
342.3602834400861
 51
359.9999710095898
  0
ARC
  5
431
  8
0
  6
CONTINUOUS
 62
     3
 10
524.3146476787492
 20
-92.98262405395505
 30
0.0
 40
3.299999952316284
 50
179.9999776881997
 51
197.6396788801879
  0
ARC
  5
432
  8
0
  6
CONTINUOUS
 62
     3
 10
530.1106224101945
 20
-95.38714981079099
 30
0.0
 40
3.0
 50
152.1068511557016
 51
216.7619682541758
  0
ARC
  5
433
  8
0
  6
CONTINUOUS
 62
     3
 10
518.5186424297257
 20
-95.38714981079099
 30
0.0
 40
3.0
 50
323.2379957736453
 51
387.8898190133927
  0
ARC
  5
434
  8
0
  6
CONTINUOUS
 62
     3
 10
527.3146476787492
 20
-98.11796951293943
 30
0.0
 40
1.0
 50
110.7154403325615
 51
179.9999776881994
  0
ARC
  5
435
  8
0
  6
CONTINUOUS
 62
     3
 10
527.3146476787492
 20
-98.11796951293943
 30
0.0
 40
1.0
 50
18.19486409036892
 51
69.28452369526075
  0
ARC
  5
436
  8
0
  6
CONTINUOUS
 62
     3
 10
521.3146476787492
 20
-98.11796951293943
 30
0.0
 40
1.0
 50
359.9999710095899
 51
429.2845236952608
  0
ARC
  5
437
  8
0
  6
CONTINUOUS
 62
     3
 10
521.3146476787492
 20
-98.11796951293943
 30
0.0
 40
1.0
 50
110.7154403325615
 51
161.8050913997164
  0
ARC
  5
438
  8
0
  6
CONTINUOUS
 62
     3
 10
527.3146476787492
 20
-99.17972183227536
 30
0.0
 40
1.0
 50
269.9999906653324
 51
341.8051256643479
  0
ARC
  5
439
  8
0
  6
CONTINUOUS
 62
     3
 10
521.3146476787492
 20
-99.17972183227536
 30
0.0
 40
1.0
 50
269.9999906653324
 51
359.9999710095899
  0
ARC
  5
43A
  8
0
  6
CONTINUOUS
 62
     3
 10
527.3146476787492
 20
-99.17972183227536
 30
0.0
 40
1.0
 50
179.9999776881994
 51
269.9999733624879
  0
ARC
  5
43B
  8
0
  6
CONTINUOUS
 62
     3
 10
521.3146476787492
 20
-99.17972183227536
 30
0.0
 40
1.0
 50
198.1948402983925
 51
269.9999701747648
  0
ARC
  5
43C
  8
0
  6
CONTINUOUS
 62
     3
 10
524.3146476787492
 20
-91.16050338745114
 30
0.0
 40
1.200000047683716
 50
23.46796137491567
 51
156.5320077755479
  0
CIRCLE
  5
43D
  8
0
  6
CONTINUOUS
 62
     3
 10
524.3146629375382
 20
-23.94216156005857
 30
0.0
 40
8.0
  0
CIRCLE
  5
43E
  8
0
  6
CONTINUOUS
 62
     3
 10
524.3146629375382
 20
-23.94216156005857
 30
0.0
 40
2.400000095367432
  0
CIRCLE
  5
43F
  8
0
  6
CONTINUOUS
 62
     3
 10
524.3146629375382
 20
-23.94216156005857
 30
0.0
 40
0.75
  0
CIRCLE
  5
440
  8
0
  6
CONTINUOUS
 62
     3
 10
524.3146629375382
 20
-23.94216156005857
 30
0.0
 40
3.299999952316284
  0
CIRCLE
  5
441
  8
0
  6
CONTINUOUS
 62
     3
 10
494.3146629375382
 20
58.05784988403323
 30
0.0
 40
1.5
  0
CIRCLE
  5
442
  8
0
  6
CONTINUOUS
 62
     3
 10
473.5300444742372
 20
22.05786507841764
 30
0.0
 40
1.5
  0
CIRCLE
  5
443
  8
0
  6
CONTINUOUS
 62
     3
 10
515.0993030144841
 20
22.05790251448985
 30
0.0
 40
1.5
  0
LINE
  5
444
  8
0
  6
CONTINUOUS
 62
     3
 10
526.8646812480851
 20
-107.2305564880371
 30
0.0
 11
526.8646812480851
 21
-100.1826286315918
 31
0.0
  0
LINE
  5
445
  8
0
  6
CONTINUOUS
 62
     3
 10
521.7646598857804
 20
-107.2958869934082
 30
0.0
 11
521.7646598857804
 21
-100.1826362609863
 31
0.0
  0
LINE
  5
446
  8
0
  6
CONTINUOUS
 62
     3
 10
527.3146781963274
 20
-107.2545967102051
 30
0.0
 11
527.3146781963274
 21
-100.1826362609863
 31
0.0
  0
LINE
  5
447
  8
0
  6
CONTINUOUS
 62
     3
 10
521.3146781963274
 20
-107.2958793640136
 30
0.0
 11
521.3146781963274
 21
-100.1826286315918
 31
0.0
  0
LINE
  5
448
  8
0
  6
CONTINUOUS
 62
     3
 10
232.2286504393507
 20
18.95925903320315
 30
0.0
 11
232.2286504393507
 21
6.807849884033232
 31
0.0
  0
LINE
  5
449
  8
0
  6
CONTINUOUS
 62
     3
 10
239.4786504393507
 20
106.557861328125
 30
0.0
 11
259.4786504393508
 21
106.557861328125
 31
0.0
  0
LINE
  5
44A
  8
0
  6
CONTINUOUS
 62
     3
 10
239.4786504393507
 20
98.55786132812503
 30
0.0
 11
259.4786504393508
 21
98.55786132812503
 31
0.0
  0
LINE
  5
44B
  8
0
  6
CONTINUOUS
 62
     3
 10
259.4786504393508
 20
109.057861328125
 30
0.0
 11
259.4786504393508
 21
96.05786132812503
 31
0.0
  0
LINE
  5
44C
  8
0
  6
CONTINUOUS
 62
     3
 10
253.9786504393507
 20
74.15783691406253
 30
0.0
 11
253.9786504393507
 21
69.55784606933597
 31
0.0
  0
LINE
  5
44D
  8
0
  6
CONTINUOUS
 62
     3
 10
259.4786504393508
 20
84.05786132812503
 30
0.0
 11
259.4786504393508
 21
71.05784606933597
 31
0.0
  0
LINE
  5
44E
  8
0
  6
CONTINUOUS
 62
     3
 10
253.9786504393507
 20
99.15783691406253
 30
0.0
 11
253.9786504393507
 21
80.9578552246094
 31
0.0
  0
LINE
  5
44F
  8
0
  6
CONTINUOUS
 62
     3
 10
253.9786504393507
 20
110.557861328125
 30
0.0
 11
253.9786504393507
 21
105.9578552246094
 31
0.0
  0
LINE
  5
450
  8
0
  6
CONTINUOUS
 62
     3
 10
253.4786504393507
 20
69.55784606933597
 30
0.0
 11
253.4786504393507
 21
-46.44215011596677
 31
0.0
  0
LINE
  5
451
  8
0
  6
CONTINUOUS
 62
     3
 10
251.4786504393507
 20
69.55784606933597
 30
0.0
 11
251.4786504393507
 21
66.05784988403323
 31
0.0
  0
LINE
  5
452
  8
0
  6
CONTINUOUS
 62
     3
 10
251.7776921873976
 20
69.55786132812503
 30
0.0
 11
253.9786504393507
 21
69.55786132812503
 31
0.0
  0
LINE
  5
453
  8
0
  6
CONTINUOUS
 62
     3
 10
187.6786016112257
 20
3.557849884033232
 30
0.0
 11
250.9786504393507
 21
3.557849884033232
 31
0.0
  0
LINE
  5
454
  8
0
  6
CONTINUOUS
 62
     3
 10
234.7786992674757
 20
3.557848930358915
 30
0.0
 11
234.7786992674757
 21
-0.7421503067016317
 31
0.0
  0
LINE
  5
455
  8
0
  6
CONTINUOUS
 62
     3
 10
228.7786992674757
 20
3.557848930358915
 30
0.0
 11
228.7786992674757
 21
-0.7421503067016317
 31
0.0
  0
LINE
  5
456
  8
0
  6
CONTINUOUS
 62
     3
 10
228.7785771971632
 20
-0.7421541213988974
 30
0.0
 11
234.7785771971632
 21
-0.7421541213988974
 31
0.0
  0
LINE
  5
457
  8
0
  6
CONTINUOUS
 62
     3
 10
228.8786443358351
 20
80.05784606933597
 30
0.0
 11
228.8786443358351
 21
68.85784912109378
 31
0.0
  0
LINE
  5
458
  8
0
  6
CONTINUOUS
 62
     3
 10
228.8786443358351
 20
71.25784301757815
 30
0.0
 11
234.7786992674757
 21
71.25784301757815
 31
0.0
  0
LINE
  5
459
  8
0
  6
CONTINUOUS
 62
     3
 10
228.7785771971632
 20
68.85784912109378
 30
0.0
 11
234.7785771971632
 21
68.85784912109378
 31
0.0
  0
LINE
  5
45A
  8
0
  6
CONTINUOUS
 62
     3
 10
228.7786992674757
 20
68.85784912109378
 30
0.0
 11
228.7786992674757
 21
64.55784988403323
 31
0.0
  0
LINE
  5
45B
  8
0
  6
CONTINUOUS
 62
     3
 10
234.7786992674757
 20
71.25785827636722
 30
0.0
 11
234.7786992674757
 21
64.55784988403323
 31
0.0
  0
LINE
  5
45C
  8
0
  6
CONTINUOUS
 62
     3
 10
209.4786504393507
 20
116.557861328125
 30
0.0
 11
209.4786504393507
 21
96.08013217678662
 31
0.0
  0
LINE
  5
45D
  8
0
  6
CONTINUOUS
 62
     3
 10
187.6786016112257
 20
64.55784988403323
 30
0.0
 11
241.2286504393507
 21
64.55784988403323
 31
0.0
  0
LINE
  5
45E
  8
0
  6
CONTINUOUS
 62
     3
 10
202.2287577264019
 20
63.55774702670945
 30
0.0
 11
203.2287404120393
 21
64.55774496935786
 31
0.0
  0
LINE
  5
45F
  8
0
  6
CONTINUOUS
 62
     3
 10
183.4786504393507
 20
-23.82714843749997
 30
0.0
 11
183.4786504393507
 21
-48.44215011596677
 31
0.0
  0
LINE
  5
460
  8
0
  6
CONTINUOUS
 62
     3
 10
204.4786504393507
 20
-13.32714843749997
 30
0.0
 11
204.4786504393507
 21
-23.32714843749997
 31
0.0
  0
LINE
  5
461
  8
0
  6
CONTINUOUS
 62
     3
 10
242.4786504393507
 20
-10.32714462280271
 30
0.0
 11
252.4786504393507
 21
-10.32714462280271
 31
0.0
  0
LINE
  5
462
  8
0
  6
CONTINUOUS
 62
     3
 10
242.4786504393507
 20
-26.32714462280271
 30
0.0
 11
252.4786504393507
 21
-26.32714462280271
 31
0.0
  0
LINE
  5
463
  8
0
  6
CONTINUOUS
 62
     3
 10
172.4786504393507
 20
-13.32714462280271
 30
0.0
 11
242.4786504393507
 21
-13.32714462280271
 31
0.0
  0
LINE
  5
464
  8
0
  6
CONTINUOUS
 62
     3
 10
172.4786504393507
 20
-23.32714462280271
 30
0.0
 11
242.4786504393507
 21
-23.32714462280271
 31
0.0
  0
LINE
  5
465
  8
0
  6
CONTINUOUS
 62
     3
 10
172.4786504393507
 20
-13.32714843749997
 30
0.0
 11
172.4786504393507
 21
-23.32714843749997
 31
0.0
  0
LINE
  5
466
  8
0
  6
CONTINUOUS
 62
     3
 10
252.4786504393507
 20
-10.32714843749997
 30
0.0
 11
252.4786504393507
 21
-26.32714843749997
 31
0.0
  0
LINE
  5
467
  8
0
  6
CONTINUOUS
 62
     3
 10
250.9786504393507
 20
53.63199996948245
 30
0.0
 11
250.9786504393507
 21
1.057849884033232
 31
0.0
  0
LINE
  5
468
  8
0
  6
CONTINUOUS
 62
     3
 10
242.2286596267687
 20
63.55783738917572
 30
0.0
 11
241.2286585651792
 21
64.55783845076522
 31
0.0
  0
LINE
  5
469
  8
0
  6
CONTINUOUS
 62
     3
 10
242.2286474884765
 20
4.557838144254248
 30
0.0
 11
241.228646426887
 21
3.557837082664747
 31
0.0
  0
LINE
  5
46A
  8
0
  6
CONTINUOUS
 62
     3
 10
202.2287577264019
 20
63.55774702670945
 30
0.0
 11
203.2287404120393
 21
64.55774496935786
 31
0.0
  0
LINE
  5
46B
  8
0
  6
CONTINUOUS
 62
     3
 10
202.2286697624547
 20
4.557859723440316
 30
0.0
 11
203.2286708240442
 21
3.557858661850816
 31
0.0
  0
LINE
  5
46C
  8
0
  6
CONTINUOUS
 62
     3
 10
233.4785564810573
 20
-6.492202380384441
 30
0.0
 11
232.006312657125
 21
-3.942200211002017
 31
0.0
  0
LINE
  5
46D
  8
0
  6
CONTINUOUS
 62
     3
 10
233.4785536259761
 20
-1.392115645133998
 30
0.0
 11
232.0063098020438
 21
-3.942117814516422
 31
0.0
  0
LINE
  5
46E
  8
0
  6
CONTINUOUS
 62
     3
 10
233.4786504393507
 20
-1.392150878906222
 30
0.0
 11
233.4786504393507
 21
-6.492149353027315
 31
0.0
  0
LINE
  5
46F
  8
0
  6
CONTINUOUS
 62
     3
 10
233.4786504393507
 20
-1.392147064208956
 30
0.0
 11
253.4786504393507
 21
-1.392147064208956
 31
0.0
  0
LINE
  5
470
  8
0
  6
CONTINUOUS
 62
     3
 10
233.4786504393507
 20
-6.492153167724581
 30
0.0
 11
253.4786504393507
 21
-6.492153167724581
 31
0.0
  0
LINE
  5
471
  8
0
  6
CONTINUOUS
 62
     3
 10
242.4786504393507
 20
-9.577148437499972
 30
0.0
 11
242.4786504393507
 21
-27.07714843749997
 31
0.0
  0
LINE
  5
472
  8
0
  6
CONTINUOUS
 62
     3
 10
242.4786504393507
 20
-9.577144622802706
 30
0.0
 11
253.4786504393507
 21
-9.577144622802706
 31
0.0
  0
LINE
  5
473
  8
0
  6
CONTINUOUS
 62
     3
 10
242.4786504393507
 20
-27.07714462280271
 30
0.0
 11
253.4786504393507
 21
-27.07714462280271
 31
0.0
  0
LINE
  5
474
  8
0
  6
CONTINUOUS
 62
     3
 10
187.6786016112257
 20
-23.82714462280271
 30
0.0
 11
242.4786504393507
 21
-23.82714462280271
 31
0.0
  0
LINE
  5
475
  8
0
  6
CONTINUOUS
 62
     3
 10
187.6786016112257
 20
-12.82714462280271
 30
0.0
 11
242.4786504393507
 21
-12.82714462280271
 31
0.0
  0
LINE
  5
476
  8
0
  6
CONTINUOUS
 62
     3
 10
253.9786504393507
 20
73.55784606933597
 30
0.0
 11
253.9786504393507
 21
69.55784606933597
 31
0.0
  0
LINE
  5
477
  8
0
  6
CONTINUOUS
 62
     3
 10
245.4786504393507
 20
69.55784606933597
 30
0.0
 11
245.4786504393507
 21
66.05784988403323
 31
0.0
  0
LINE
  5
478
  8
0
  6
CONTINUOUS
 62
     3
 10
259.4786504393508
 20
84.05786132812503
 30
0.0
 11
259.4786504393508
 21
71.05784606933597
 31
0.0
  0
LINE
  5
479
  8
0
  6
CONTINUOUS
 62
     3
 10
241.4786504393507
 20
81.55784606933597
 30
0.0
 11
241.4786504393507
 21
73.55784606933597
 31
0.0
  0
LINE
  5
47A
  8
0
  6
CONTINUOUS
 62
     3
 10
259.4786504393508
 20
109.057861328125
 30
0.0
 11
259.4786504393508
 21
96.05786132812503
 31
0.0
  0
LINE
  5
47B
  8
0
  6
CONTINUOUS
 62
     3
 10
241.4786504393507
 20
106.557861328125
 30
0.0
 11
241.4786504393507
 21
98.55786132812503
 31
0.0
  0
LINE
  5
47C
  8
0
  6
CONTINUOUS
 62
     3
 10
239.4786504393507
 20
73.55784606933597
 30
0.0
 11
259.4786504393508
 21
73.55784606933597
 31
0.0
  0
LINE
  5
47D
  8
0
  6
CONTINUOUS
 62
     3
 10
239.4786504393507
 20
81.55784606933597
 30
0.0
 11
259.4786504393508
 21
81.55784606933597
 31
0.0
  0
LINE
  5
47E
  8
0
  6
CONTINUOUS
 62
     3
 10
252.4785426302544
 20
115.5575637205584
 30
0.0
 11
253.4785221969498
 21
114.557584238155
 31
0.0
  0
LINE
  5
47F
  8
0
  6
CONTINUOUS
 62
     3
 10
251.4784280299263
 20
-48.44191234031129
 30
0.0
 11
253.4784734800687
 21
-46.44186705876015
 31
0.0
  0
LINE
  5
480
  8
0
  6
CONTINUOUS
 62
     3
 10
183.4786504393507
 20
116.557861328125
 30
0.0
 11
252.4786504393507
 21
116.557861328125
 31
0.0
  0
LINE
  5
481
  8
0
  6
CONTINUOUS
 62
     3
 10
252.4786504393507
 20
69.55784606933597
 30
0.0
 11
252.4786504393507
 21
66.05784988403323
 31
0.0
  0
LINE
  5
482
  8
0
  6
CONTINUOUS
 62
     3
 10
253.9786504393507
 20
110.557861328125
 30
0.0
 11
253.9786504393507
 21
106.557861328125
 31
0.0
  0
LINE
  5
483
  8
0
  6
CONTINUOUS
 62
     3
 10
239.4786504393507
 20
110.557861328125
 30
0.0
 11
239.4786504393507
 21
69.55784606933597
 31
0.0
  0
LINE
  5
484
  8
0
  6
CONTINUOUS
 62
     3
 10
239.4786504393507
 20
69.55784606933597
 30
0.0
 11
253.9786504393507
 21
69.55784606933597
 31
0.0
  0
LINE
  5
485
  8
0
  6
CONTINUOUS
 62
     3
 10
239.4786504393507
 20
110.557861328125
 30
0.0
 11
253.9786504393507
 21
110.557861328125
 31
0.0
  0
LINE
  5
486
  8
0
  6
CONTINUOUS
 62
     3
 10
252.4786504393507
 20
116.557861328125
 30
0.0
 11
252.4786504393507
 21
110.557861328125
 31
0.0
  0
LINE
  5
487
  8
0
  6
CONTINUOUS
 62
     3
 10
245.4786504393507
 20
116.557861328125
 30
0.0
 11
245.4786504393507
 21
110.557861328125
 31
0.0
  0
LINE
  5
488
  8
0
  6
CONTINUOUS
 62
     3
 10
239.4786504393507
 20
66.05784988403323
 30
0.0
 11
252.4786504393507
 21
66.05784988403323
 31
0.0
  0
LINE
  5
489
  8
0
  6
CONTINUOUS
 62
     3
 10
233.2286504393507
 20
13.05784988403323
 30
0.0
 11
242.2286504393507
 21
13.05784988403323
 31
0.0
  0
LINE
  5
48A
  8
0
  6
CONTINUOUS
 62
     3
 10
232.2286504393507
 20
6.807849884033232
 30
0.0
 11
233.2286504393507
 21
6.807849884033232
 31
0.0
  0
LINE
  5
48B
  8
0
  6
CONTINUOUS
 62
     3
 10
232.2286504393507
 20
61.30784988403323
 30
0.0
 11
233.2286504393507
 21
61.30784988403323
 31
0.0
  0
LINE
  5
48C
  8
0
  6
CONTINUOUS
 62
     3
 10
232.2286504393507
 20
61.30784988403323
 30
0.0
 11
232.2286504393507
 21
23.03221511840823
 31
0.0
  0
LINE
  5
48D
  8
0
  6
CONTINUOUS
 62
     3
 10
233.2286504393507
 20
61.30784988403323
 30
0.0
 11
233.2286504393507
 21
6.807849884033232
 31
0.0
  0
LINE
  5
48E
  8
0
  6
CONTINUOUS
 62
     3
 10
233.2286504393507
 20
61.05784988403323
 30
0.0
 11
242.2286504393507
 21
61.05784988403323
 31
0.0
  0
LINE
  5
48F
  8
0
  6
CONTINUOUS
 62
     3
 10
233.2286504393507
 20
7.057849884033232
 30
0.0
 11
242.2286504393507
 21
7.057849884033232
 31
0.0
  0
LINE
  5
490
  8
0
  6
CONTINUOUS
 62
     3
 10
242.2286504393507
 20
63.55784988403323
 30
0.0
 11
242.2286504393507
 21
4.557849884033232
 31
0.0
  0
LINE
  5
491
  8
0
  6
CONTINUOUS
 62
     3
 10
202.2286504393507
 20
63.55784988403323
 30
0.0
 11
202.2286504393507
 21
4.557849884033232
 31
0.0
  0
LINE
  5
492
  8
0
  6
CONTINUOUS
 62
     3
 10
202.2286504393507
 20
55.05784988403323
 30
0.0
 11
225.2286504393507
 21
55.05784988403323
 31
0.0
  0
LINE
  5
493
  8
0
  6
CONTINUOUS
 62
     3
 10
202.2286504393507
 20
13.05784988403323
 30
0.0
 11
225.2286504393507
 21
13.05784988403323
 31
0.0
  0
LINE
  5
494
  8
0
  6
CONTINUOUS
 62
     3
 10
225.2286504393507
 20
59.30784988403323
 30
0.0
 11
232.2286504393507
 21
59.30784988403323
 31
0.0
  0
LINE
  5
495
  8
0
  6
CONTINUOUS
 62
     3
 10
225.2286504393507
 20
8.807849884033232
 30
0.0
 11
232.2286504393507
 21
8.807849884033232
 31
0.0
  0
LINE
  5
496
  8
0
  6
CONTINUOUS
 62
     3
 10
225.2286504393507
 20
59.30784988403323
 30
0.0
 11
225.2286504393507
 21
8.807849884033232
 31
0.0
  0
LINE
  5
497
  8
0
  6
CONTINUOUS
 62
     3
 10
250.9786504393507
 20
1.057849884033232
 30
0.0
 11
253.4786504393507
 21
1.057849884033232
 31
0.0
  0
LINE
  5
498
  8
0
  6
CONTINUOUS
 62
     3
 10
183.4786504393507
 20
-48.44215011596677
 30
0.0
 11
251.4786504393507
 21
-48.44215011596677
 31
0.0
  0
LINE
  5
499
  8
0
  6
CONTINUOUS
 62
     3
 10
183.4786504393507
 20
116.557861328125
 30
0.0
 11
183.4786504393507
 21
-12.82714843749997
 31
0.0
  0
LINE
  5
49A
  8
0
  6
CONTINUOUS
 62
     3
 10
253.4786504393507
 20
114.4365386962891
 30
0.0
 11
253.4786504393507
 21
110.557861328125
 31
0.0
  0
LINE
  5
49B
  8
0
  6
CONTINUOUS
 62
     3
 10
238.4786504393507
 20
116.557861328125
 30
0.0
 11
238.4786504393507
 21
64.55784988403323
 31
0.0
  0
LINE
  5
49C
  8
0
  6
CONTINUOUS
 62
     3
 10
239.4786504393507
 20
66.05784988403323
 30
0.0
 11
239.4786504393507
 21
64.55784988403323
 31
0.0
  0
LINE
  5
49D
  8
0
  6
CONTINUOUS
 62
     3
 10
233.2286504393507
 20
56.05784606933597
 30
0.0
 11
241.2286504393507
 21
56.05784606933597
 31
0.0
  0
LINE
  5
49E
  8
0
  6
CONTINUOUS
 62
     3
 10
233.2286504393507
 20
60.05784606933597
 30
0.0
 11
241.2286504393507
 21
60.05784606933597
 31
0.0
  0
LINE
  5
49F
  8
0
  6
CONTINUOUS
 62
     3
 10
237.2286504393507
 20
60.05784606933597
 30
0.0
 11
237.2286504393507
 21
56.05784606933597
 31
0.0
  0
LINE
  5
4A0
  8
0
  6
CONTINUOUS
 62
     3
 10
241.2286504393507
 20
60.05784606933597
 30
0.0
 11
241.2286504393507
 21
56.05784606933597
 31
0.0
  0
LINE
  5
4A1
  8
0
  6
CONTINUOUS
 62
     3
 10
241.2286504393507
 20
59.55784606933597
 30
0.0
 11
242.2286504393507
 21
59.55784606933597
 31
0.0
  0
LINE
  5
4A2
  8
0
  6
CONTINUOUS
 62
     3
 10
241.2286504393507
 20
56.55784606933597
 30
0.0
 11
242.2286504393507
 21
56.55784606933597
 31
0.0
  0
LINE
  5
4A3
  8
0
  6
CONTINUOUS
 62
     3
 10
237.2286516214229
 20
59.30784583361688
 30
0.0
 11
237.9786524176151
 21
60.05784662980901
 31
0.0
  0
LINE
  5
4A4
  8
0
  6
CONTINUOUS
 62
     3
 10
237.2286529701221
 20
56.80784452834226
 30
0.0
 11
237.9786537663142
 21
56.05784373215013
 31
0.0
  0
LINE
  5
4A5
  8
0
  6
CONTINUOUS
 62
     3
 10
237.9786504393507
 20
60.05784606933597
 30
0.0
 11
237.9786504393507
 21
56.05784606933597
 31
0.0
  0
LINE
  5
4A6
  8
0
  6
CONTINUOUS
 62
     3
 10
233.2286527698614
 20
59.05784556821951
 30
0.0
 11
234.2286524827518
 21
60.05784528110988
 31
0.0
  0
LINE
  5
4A7
  8
0
  6
CONTINUOUS
 62
     3
 10
233.2286541185606
 20
57.05784479373963
 30
0.0
 11
234.2286551801501
 21
56.05784373215013
 31
0.0
  0
LINE
  5
4A8
  8
0
  6
CONTINUOUS
 62
     3
 10
234.2286504393507
 20
60.05784606933597
 30
0.0
 11
234.2286504393507
 21
56.05784606933597
 31
0.0
  0
LINE
  5
4A9
  8
0
  6
CONTINUOUS
 62
     3
 10
233.2286504393507
 20
55.05784988403323
 30
0.0
 11
242.2286504393507
 21
55.05784988403323
 31
0.0
  0
LINE
  5
4AA
  8
0
  6
CONTINUOUS
 62
     3
 10
183.4786504393507
 20
104.057861328125
 30
0.0
 11
187.6786016112257
 21
104.057861328125
 31
0.0
  0
LINE
  5
4AB
  8
0
  6
CONTINUOUS
 62
     3
 10
187.6786016112257
 20
104.057861328125
 30
0.0
 11
187.6786016112257
 21
-13.32714843749997
 31
0.0
  0
LINE
  5
4AC
  8
0
  6
CONTINUOUS
 62
     3
 10
187.6786016112257
 20
-23.32714843749997
 30
0.0
 11
187.6786016112257
 21
-35.94215011596677
 31
0.0
  0
LINE
  5
4AD
  8
0
  6
CONTINUOUS
 62
     3
 10
183.4786504393507
 20
-35.94215011596677
 30
0.0
 11
187.6786016112257
 21
-35.94215011596677
 31
0.0
  0
LINE
  5
4AE
  8
0
  6
CONTINUOUS
 62
     3
 10
267.478654254048
 20
109.057861328125
 30
0.0
 11
267.478654254048
 21
96.05786132812503
 31
0.0
  0
LINE
  5
4AF
  8
0
  6
CONTINUOUS
 62
     3
 10
267.478654254048
 20
84.05786132812503
 30
0.0
 11
267.478654254048
 21
71.05784606933597
 31
0.0
  0
LINE
  5
4B0
  8
0
  6
CONTINUOUS
 62
     3
 10
259.4786504393508
 20
96.05786132812503
 30
0.0
 11
267.4786504393508
 21
96.05786132812503
 31
0.0
  0
LINE
  5
4B1
  8
0
  6
CONTINUOUS
 62
     3
 10
259.4786504393508
 20
109.057861328125
 30
0.0
 11
267.4786504393508
 21
109.057861328125
 31
0.0
  0
LINE
  5
4B2
  8
0
  6
CONTINUOUS
 62
     3
 10
259.4786504393508
 20
84.05786132812503
 30
0.0
 11
267.4786504393508
 21
84.05786132812503
 31
0.0
  0
LINE
  5
4B3
  8
0
  6
CONTINUOUS
 62
     3
 10
259.4786504393508
 20
71.05784606933597
 30
0.0
 11
267.4786504393508
 21
71.05784606933597
 31
0.0
  0
LINE
  5
4B4
  8
0
  6
CONTINUOUS
 62
     6
 10
266.4153481958701
 20
-128.2426562195861
 30
0.0
 11
417.6153451441123
 21
-128.2426562195861
 31
0.0
  0
LINE
  5
4B5
  8
0
  6
CONTINUOUS
 62
     6
 10
266.4153481958701
 20
-121.4926409607971
 30
0.0
 11
417.6153451441123
 21
-121.4926409607971
 31
0.0
  0
LINE
  5
4B6
  8
0
  6
CONTINUOUS
 62
     6
 10
266.4153481958701
 20
-114.7426485901916
 30
0.0
 11
417.6153451441123
 21
-114.7426485901916
 31
0.0
  0
LINE
  5
4B7
  8
0
  6
CONTINUOUS
 62
     6
 10
266.4153481958701
 20
-107.9926485901916
 30
0.0
 11
417.6153451441123
 21
-107.9926485901916
 31
0.0
  0
LINE
  5
4B8
  8
0
  6
CONTINUOUS
 62
     6
 10
266.4153481958701
 20
-101.2426485901916
 30
0.0
 11
292.864521169503
 21
-101.2426485901916
 31
0.0
  0
LINE
  5
4B9
  8
0
  6
CONTINUOUS
 62
     6
 10
266.4153481958701
 20
-134.9926562195861
 30
0.0
 11
417.6153451441123
 21
-134.9926562195861
 31
0.0
  0
LINE
  5
4BA
  8
0
  6
CONTINUOUS
 62
     6
 10
266.4153481958701
 20
-141.7426562195861
 30
0.0
 11
417.6153451441123
 21
-141.7426562195861
 31
0.0
  0
LINE
  5
4BB
  8
0
  6
CONTINUOUS
 62
     6
 10
266.4153481958701
 20
-148.4926562195861
 30
0.0
 11
417.6153451441123
 21
-148.4926562195861
 31
0.0
  0
LINE
  5
4BC
  8
0
  6
CONTINUOUS
 62
     6
 10
266.4153481958701
 20
-155.2426562195861
 30
0.0
 11
417.6153451441123
 21
-155.2426562195861
 31
0.0
  0
LINE
  5
4BD
  8
0
  6
CONTINUOUS
 62
     6
 10
266.4153481958701
 20
-168.7426562195861
 30
0.0
 11
417.6153451441123
 21
-168.7426562195861
 31
0.0
  0
LINE
  5
4BE
  8
0
  6
CONTINUOUS
 62
     6
 10
266.4153481958701
 20
-161.9926562195861
 30
0.0
 11
417.6153451441123
 21
-161.9926562195861
 31
0.0
  0
TEXT
  5
4BF
  8
0
 62
     6
 10
267.0324558256461
 20
-153.6226562148177
 30
0.0
 40
3.509999990463257
  1
 8.慣性モーメント               0.０４ ｋg・m
 41
0.7101794875883111
  7
FDASTYLE1
 72
     5
 11
357.2692816324168
 21
-153.6226562148177
 31
0.0
  0
TEXT
  5
4C0
  8
0
 62
     6
 10
413.603890561898
 20
-151.1251561528289
 30
0.0
 40
1.754999995231628
  1
2
 41
0.5860808697256095
  7
FDASTYLE1
 72
     5
 11
414.6324624854718
 21
-151.1251561528289
 31
0.0
  0
TEXT
  5
4C1
  8
0
 62
     6
 10
267.0324558256461
 20
-146.8726562148177
 30
0.0
 40
3.509999990463257
  1
 7.最高使用回転速度              6500  min
 41
0.7164702387555989
  7
FDASTYLE1
 72
     5
 11
356.5597107363433
 21
-146.8726562148177
 31
0.0
  0
TEXT
  5
4C2
  8
0
 62
     6
 10
413.603890561898
 20
-144.3751561528289
 30
0.0
 40
1.754999995231628
  1
-1
 41
0.7049401913817294
  7
FDASTYLE1
 72
     5
 11
416.078230626925
 21
-144.3751561528289
 31
0.0
  0
TEXT
  5
4C3
  8
0
 62
     6
 10
267.0324558256461
 20
-167.1226562148177
 30
0.0
 40
3.509999990463257
  1
10.ｱﾝバﾗﾝｽ量        
 41
0.7298877514359135
  7
FDASTYLE1
 72
     5
 11
314.1715262363053
 21
-167.1226562148177
 31
0.0
  0
TEXT
  5
4C4
  8
0
 62
     6
 10
344.6381733654334
 20
-166.6839062160098
 30
0.0
 40
2.632499992847443
  1
ﾁｬｯｸ外周ﾆﾃ
 41
0.7313140722917264
  7
FDASTYLE1
 72
     5
 11
360.809721402082
 21
-166.6839062160098
 31
0.0
  0
TEXT
  5
4C5
  8
0
 62
     6
 10
370.7124599455192
 20
-167.1226562148177
 30
0.0
 40
3.509999990463257
  1
    3  g以内
 41
0.7308462202072339
  7
FDASTYLE1
 72
     5
 11
397.3912702954772
 21
-167.1226562148177
 31
0.0
  0
TEXT
  5
4C6
  8
0
 62
     6
 10
267.0324558256461
 20
-160.3726562148177
 30
0.0
 40
3.509999990463257
  1
 9.質 量                      9   ｋg
 41
0.7270998660677507
  7
FDASTYLE1
 72
     5
 11
355.3358259201881
 21
-160.3726562148177
 31
0.0
  0
TEXT
  5
4C7
  8
0
 62
     6
 10
267.0324558256461
 20
-140.1226562148177
 30
0.0
 40
3.509999990463257
  1
 6.最大静的把握力               39.2   ｋN
 41
0.7164702387555989
  7
FDASTYLE1
 72
     5
 11
356.5597107363433
 21
-140.1226562148177
 31
0.0
  0
TEXT
  5
4C8
  8
0
 62
     6
 10
267.0324558256461
 20
-113.1226485854232
 30
0.0
 40
3.509999990463257
  1
 2.ピｽﾄﾝｽﾄﾛ-ｸ             17.5   mm
 41
0.7314001561554082
  7
FDASTYLE1
 72
     5
 11
354.8311931323026
 21
-113.1226485854232
 31
0.0
  0
TEXT
  5
4C9
  8
0
 62
     6
 10
267.0324558256461
 20
-106.3726485854232
 30
0.0
 40
3.509999990463257
  1
 1.爪ｽﾄﾛ-ｸ            
 41
0.7332405561044704
  7
FDASTYLE1
 72
     5
 11
321.5943519382462
 21
-106.3726485854232
 31
0.0
  0
TEXT
  5
4CA
  8
0
 62
     6
 10
357.5981738804176
 20
-105.9338985866153
 30
0.0
 40
2.632499992847443
  1
直径ﾆﾃ
 41
0.7329107008953698
  7
FDASTYLE1
 72
     5
 11
366.087478505823
 21
-105.9338985866153
 31
0.0
  0
TEXT
  5
4CB
  8
0
 62
     6
 10
370.7124599455192
 20
-106.3726485854232
 30
0.0
 40
3.509999990463257
  1
    5   mm
 41
0.5881550554054114
  7
FDASTYLE1
 72
     5
 11
391.3567023341583
 21
-106.3726485854232
 31
0.0
  0
TEXT
  5
4CC
  8
0
 62
     6
 10
267.0324558256461
 20
-119.8726409560287
 30
0.0
 40
3.509999990463257
  1
 3.推奨ｼﾘﾝダ              46TS-TA1  型
 41
0.7249598799352157
  7
FDASTYLE1
 72
     5
 11
355.5848549993742
 21
-119.8726409560287
 31
0.0
  0
TEXT
  5
4CD
  8
0
 62
     6
 10
267.0324558256461
 20
-126.6226562148177
 30
0.0
 40
3.509999990463257
  1
 4.許容ｼﾘﾝダ推力　             11.3   ｋN
 41
0.7185819017466418
  7
FDASTYLE1
 72
     5
 11
356.3191312026796
 21
-126.6226562148177
 31
0.0
  0
TEXT
  5
4CE
  8
0
 62
     6
 10
267.0324558256461
 20
-133.3726562148177
 30
0.0
 40
3.509999990463257
  1
 5.最大使用圧力 
 41
0.7008426467141248
  7
FDASTYLE1
 72
     5
 11
294.5839818784137
 21
-133.3726562148177
 31
0.0
  0
TEXT
  5
4CF
  8
0
 62
     6
 10
310.0781719921424
 20
-132.9339062160098
 30
0.0
 40
2.632499992847443
  1
 (46TS-TA1型使用時)
 41
0.7201904255390395
  7
FDASTYLE1
 72
     5
 11
340.0334123754114
 21
-132.9339062160098
 31
0.0
  0
TEXT
  5
4D0
  8
0
 62
     6
 10
353.7447910157332
 20
-133.3726562148177
 30
0.0
 40
3.509999990463257
  1
 　　   2.4  MPa
 41
0.7302488857004646
  7
FDASTYLE1
 72
     5
 11
390.6544905942931
 21
-133.3726562148177
 31
0.0
  0
TEXT
  5
4D1
  8
0
 62
     6
 10
267.0324558256461
 20
-99.62264858542321
 30
0.0
 40
3.509999990463257
  1
 仕  様
 41
0.7324180182018207
  7
FDASTYLE1
 72
     5
 11
280.9147069049251
 21
-99.62264858542321
 31
0.0
  0
LINE
  5
4D2
  8
0
  6
CENTER
 62
     7
 10
404.5599632305069
 20
34.05784988403323
 30
0.0
 11
584.2035484355851
 21
34.05784988403323
 31
0.0
  0
LINE
  5
4D3
  8
0
  6
CENTER
 62
     7
 10
456.0921081231962
 20
56.12573750889513
 30
0.0
 11
466.7682000146014
 21
49.9618902422765
 31
0.0
  0
LINE
  5
4D4
  8
0
  6
CENTER
 62
     7
 10
455.4502419411601
 20
11.61948737230253
 30
0.0
 11
477.387692244547
 21
24.28507881097792
 31
0.0
  0
LINE
  5
4D5
  8
0
  6
CENTER
 62
     7
 10
471.3146629375382
 20
37.9251403808594
 30
0.0
 11
471.3146629375382
 21
30.09180831909183
 31
0.0
  0
LINE
  5
4D6
  8
0
  6
CENTER
 62
     7
 10
517.3146629375382
 20
37.75847625732425
 30
0.0
 11
517.3146629375382
 21
29.9251403808594
 31
0.0
  0
LINE
  5
4D7
  8
0
  6
CENTER
 62
     7
 10
448.0804930733158
 20
-12.17633180874029
 30
0.0
 11
465.6273939119584
 21
5.370567550809284
 31
0.0
  0
LINE
  5
4D8
  8
0
  6
CENTER
 62
     7
 10
448.0804969459484
 20
80.29205383420617
 30
0.0
 11
466.0185856397861
 21
62.3539666524363
 31
0.0
  0
LINE
  5
4D9
  8
0
  6
CENTER
 62
     7
 10
484.5197105449601
 20
-34.44214248657224
 30
0.0
 11
504.0993919414445
 21
-34.44214248657224
 31
0.0
  0
LINE
  5
4DA
  8
0
  6
CENTER
 62
     7
 10
484.4052085918351
 20
-9.442142486572237
 30
0.0
 11
504.2138786357804
 21
-9.442142486572237
 31
0.0
  0
LINE
  5
4DB
  8
0
  6
CENTER
 62
     7
 10
484.7585334819718
 20
102.5578575134278
 30
0.0
 11
504.0483055156632
 21
102.5578575134278
 31
0.0
  0
LINE
  5
4DC
  8
0
  6
CENTER
 62
     7
 10
484.3437004131242
 20
77.55785751342776
 30
0.0
 11
503.6334800762101
 21
77.55785751342776
 31
0.0
  0
LINE
  5
4DD
  8
0
  6
CENTER
 62
     7
 10
510.7626362327859
 20
24.56167936097111
 30
0.0
 11
532.6598585851192
 21
11.91930652305749
 31
0.0
  0
LINE
  5
4DE
  8
0
  6
CENTER
 62
     7
 10
521.7138085484858
 20
49.87677116376793
 30
0.0
 11
532.7345690961029
 21
56.23960952963037
 31
0.0
  0
LINE
  5
4DF
  8
0
  6
CENTER
 62
     7
 10
522.7940532551941
 20
62.5372220752561
 30
0.0
 11
540.5488479899424
 21
80.29201531338734
 31
0.0
  0
LINE
  5
4E0
  8
0
  6
CENTER
 62
     7
 10
523.1852571213148
 20
5.187299989697323
 30
0.0
 11
540.5488589432461
 21
-12.17630036859188
 31
0.0
  0
LINE
  5
4E1
  8
0
  6
CENTER
 62
     7
 10
441.6853904766007
 20
92.05785751342776
 30
0.0
 11
473.7823982280656
 21
92.05785751342776
 31
0.0
  0
LINE
  5
4E2
  8
0
  6
CENTER
 62
     7
 10
464.3146629375382
 20
103.9425163269043
 30
0.0
 11
464.3146629375382
 21
80.27045059204104
 31
0.0
  0
LINE
  5
4E3
  8
0
  6
CENTER
 62
     7
 10
535.9281120342179
 20
-23.94216156005857
 30
0.0
 11
512.7858848613663
 21
-23.94216156005857
 31
0.0
  0
LINE
  5
4E4
  8
0
  6
CENTER
 62
     7
 10
524.3146629375382
 20
-35.82682037353513
 30
0.0
 11
524.3146629375382
 21
-12.15475273132321
 31
0.0
  0
ARC
  5
4E5
  8
0
  6
CENTER
 62
     7
 10
494.3146629375382
 20
34.05784988403323
 30
0.0
 40
52.3849983215332
 50
120.7446169022407
 51
149.255438422518
  0
ARC
  5
4E6
  8
0
  6
CENTER
 62
     7
 10
494.3146629375382
 20
34.05784988403323
 30
0.0
 40
52.3849983215332
 50
30.74458366191125
 51
59.25541542747234
  0
ARC
  5
4E7
  8
0
  6
CENTER
 62
     7
 10
494.3146629375382
 20
34.05784988403323
 30
0.0
 40
38.0
 50
141.7361787878994
 51
158.6221549445984
  0
ARC
  5
4E8
  8
0
  6
CENTER
 62
     7
 10
494.3146629375382
 20
34.05784988403323
 30
0.0
 40
52.3849983215332
 50
210.744561577482
 51
239.2553967581377
  0
ARC
  5
4E9
  8
0
  6
CENTER
 62
     7
 10
494.3146629375382
 20
34.05784988403323
 30
0.0
 40
38.0
 50
320.8874169066368
 51
337.9660692847273
  0
ARC
  5
4EA
  8
0
  6
CENTER
 62
     7
 10
494.3146629375382
 20
34.05784988403323
 30
0.0
 40
52.3849983215332
 50
300.7445845725277
 51
329.2554095078996
  0
ARC
  5
4EB
  8
0
  6
CENTER
 62
     7
 10
494.3146629375382
 20
34.05784988403323
 30
0.0
 40
38.0
 50
200.5546706566317
 51
218.4634403207834
  0
ARC
  5
4EC
  8
0
  6
CENTER
 62
     7
 10
494.3146629375382
 20
34.05784988403323
 30
0.0
 40
38.0
 50
22.18190847118828
 51
38.05168737562556
  0
LINE
  5
4ED
  8
0
  6
CENTER
 62
     7
 10
524.3146629375382
 20
-110.7784309387207
 30
0.0
 11
524.3146629375382
 21
-83.28938674926755
 31
0.0
  0
LINE
  5
4EE
  8
0
  6
CENTER
 62
     7
 10
179.3616617154585
 20
34.05784988403323
 30
0.0
 11
257.8024303154356
 21
34.05784988403323
 31
0.0
  0
LINE
  5
4EF
  8
0
  6
CENTER
 62
     7
 10
168.3813909178664
 20
-18.32714462280271
 30
0.0
 11
258.5145391112258
 21
-18.32714462280271
 31
0.0
  0
LINE
  5
4F0
  8
0
  6
CENTER
 62
     7
 10
231.1142705565382
 20
58.05784606933597
 30
0.0
 11
243.7032598143507
 21
58.05784606933597
 31
0.0
  0
LINE
  5
4F1
  8
0
  6
CENTER
 62
     7
 10
220.4786016112257
 20
-23.32714843749997
 30
0.0
 11
220.4786016112257
 21
-52.54235531432502
 31
0.0
  0
LINE
  5
4F2
  8
0
  6
CENTER
 62
     7
 10
235.1678441649367
 20
77.55784606933597
 30
0.0
 11
271.3851445799758
 21
77.55784606933597
 31
0.0
  0
LINE
  5
4F3
  8
0
  6
CENTER
 62
     7
 10
230.003125537007
 20
-3.942150115966769
 30
0.0
 11
266.9426625853469
 21
-3.942150115966769
 31
0.0
  0
LINE
  5
4F4
  8
0
  6
CENTER
 62
     7
 10
234.8685277586867
 20
102.557861328125
 30
0.0
 11
271.6844609862258
 21
102.557861328125
 31
0.0
  0
LINE
  5
4F5
  8
0
  6
CENTER
 62
     7
 10
494.3146629375382
 20
124.1825637817383
 30
0.0
 11
494.3146629375382
 21
48.74013000043624
 31
0.0
  0
LINE
  5
4F6
  8
0
  6
CENTER
 62
     7
 10
494.3146629375382
 20
42.09527548750162
 30
0.0
 11
494.3146629375382
 21
-56.54603576660153
 31
0.0
  0
LINE
  5
4F7
  8
0
  6
DASHED2
 62
     7
 10
454.3146629375382
 20
106.212200164795
 30
0.0
 11
454.3146629375382
 21
81.05784988403323
 31
0.0
  0
LINE
  5
4F8
  8
0
  6
DASHED2
 62
     7
 10
454.3146629375382
 20
98.05785751342776
 30
0.0
 11
463.187175754921
 21
98.05785751342776
 31
0.0
  0
LINE
  5
4F9
  8
0
  6
DASHED2
 62
     7
 10
454.3146629375382
 20
86.05785751342776
 30
0.0
 11
462.5649223369523
 21
86.05785751342776
 31
0.0
  0
LINE
  5
4FA
  8
0
  6
DASHED2
 62
     7
 10
426.511638645546
 20
81.05785751342776
 30
0.0
 11
454.3146629375382
 21
81.05785751342776
 31
0.0
  0
LINE
  5
4FB
  8
0
  6
DASHED2
 62
     7
 10
454.2876548808976
 20
95.05785751342776
 30
0.0
 11
454.2876548808976
 21
89.05785751342776
 31
0.0
  0
LINE
  5
4FC
  8
0
  6
DASHED2
 62
     7
 10
444.7876548808976
 20
94.45785903930667
 30
0.0
 11
444.7876548808976
 21
89.65785598754886
 31
0.0
  0
LINE
  5
4FD
  8
0
  6
DASHED2
 62
     7
 10
451.9107551616593
 20
88.10786056518558
 30
0.0
 11
453.5970039409561
 21
88.10786056518558
 31
0.0
  0
LINE
  5
4FE
  8
0
  6
DASHED2
 62
     7
 10
451.9107551616593
 20
96.00785446166995
 30
0.0
 11
453.5970039409561
 21
96.00785446166995
 31
0.0
  0
LINE
  5
4FF
  8
0
  6
DASHED2
 62
     7
 10
447.0876579326554
 20
95.35786056518558
 30
0.0
 11
447.0876579326554
 21
88.75785446166995
 31
0.0
  0
LINE
  5
500
  8
0
  6
DASHED2
 62
     7
 10
451.2876548808976
 20
95.45043563842776
 30
0.0
 11
451.2876548808976
 21
88.66524124145511
 31
0.0
  0
LINE
  5
501
  8
0
  6
DASHED2
 62
     7
 10
452.0515861553116
 20
94.05785751342776
 30
0.0
 11
453.5237236064835
 21
94.05785751342776
 31
0.0
  0
LINE
  5
502
  8
0
  6
DASHED2
 62
     7
 10
452.0515861553116
 20
90.05785751342776
 30
0.0
 11
453.5237236064835
 21
90.05785751342776
 31
0.0
  0
LINE
  5
503
  8
0
  6
DASHED2
 62
     7
 10
447.0876838693602
 20
88.7579174935029
 30
0.0
 11
444.787683473949
 21
89.65791744661172
 31
0.0
  0
LINE
  5
504
  8
0
  6
DASHED2
 62
     7
 10
444.7876469740234
 20
94.45788084381528
 30
0.0
 11
447.0876473694345
 21
95.35788079692409
 31
0.0
  0
LINE
  5
505
  8
0
  6
DASHED2
 62
     7
 10
448.0876579326554
 20
94.67093276977542
 30
0.0
 11
448.0876579326554
 21
89.37890243530276
 31
0.0
  0
ARC
  5
506
  8
0
  6
DASHED2
 62
     7
 10
451.2876548808976
 20
92.05785751342776
 30
0.0
 40
3.0
 50
0.0
 51
41.81031315512681
  0
ARC
  5
507
  8
0
  6
DASHED2
 62
     7
 10
454.2876548808976
 20
92.05785751342776
 30
0.0
 40
3.0
 50
138.1896986840186
 51
221.8102840131373
  0
ARC
  5
508
  8
0
  6
DASHED2
 62
     7
 10
451.2876548808976
 20
92.05785751342776
 30
0.0
 40
3.0
 50
318.1896868448732
 51
360.0
  0
ARC
  5
509
  8
0
  6
DASHED2
 62
     7
 10
447.0876579326554
 20
92.05785751342776
 30
0.0
 40
3.299999952316284
 50
72.36029448230075
 51
89.99998201391055
  0
ARC
  5
50A
  8
0
  6
DASHED2
 62
     7
 10
447.0876579326554
 20
92.05785751342776
 30
0.0
 40
3.299999952316284
 50
270.0000179860895
 51
287.6397055176993
  0
ARC
  5
50B
  8
0
  6
DASHED2
 62
     7
 10
449.4921760600968
 20
97.85381698608401
 30
0.0
 40
3.0
 50
242.1068914535913
 51
306.7619948916871
  0
ARC
  5
50C
  8
0
  6
DASHED2
 62
     7
 10
449.4921760600968
 20
86.26186752319339
 30
0.0
 40
3.0
 50
53.23800510831291
 51
117.8898300556072
  0
ARC
  5
50D
  8
0
  6
DASHED2
 62
     7
 10
452.2230033916397
 20
95.05785751342776
 30
0.0
 40
1.0
 50
200.7154669700724
 51
270.0000179860891
  0
ARC
  5
50E
  8
0
  6
DASHED2
 62
     7
 10
452.2230033916397
 20
95.05785751342776
 30
0.0
 40
1.0
 50
108.1948751325835
 51
159.2845330299276
  0
ARC
  5
50F
  8
0
  6
DASHED2
 62
     7
 10
452.2230033916397
 20
89.05785751342776
 30
0.0
 40
1.0
 50
89.99998201391097
 51
159.2845330299276
  0
ARC
  5
510
  8
0
  6
DASHED2
 62
     7
 10
452.2230033916397
 20
89.05785751342776
 30
0.0
 40
1.0
 50
200.7154669700724
 51
251.8051248674166
  0
ARC
  5
511
  8
0
  6
DASHED2
 62
     7
 10
453.2847480815811
 20
95.05785751342776
 30
0.0
 40
1.0
 50
0.0
 51
71.80513670656242
  0
ARC
  5
512
  8
0
  6
DASHED2
 62
     7
 10
453.2847480815811
 20
89.05785751342776
 30
0.0
 40
1.0
 50
0.0
 51
89.99998201391097
  0
ARC
  5
513
  8
0
  6
DASHED2
 62
     7
 10
453.2847480815811
 20
95.05785751342776
 30
0.0
 40
1.0
 50
270.0000179860891
 51
360.0
  0
ARC
  5
514
  8
0
  6
DASHED2
 62
     7
 10
453.2847480815811
 20
89.05785751342776
 30
0.0
 40
1.0
 50
288.1948632934378
 51
360.0
  0
ARC
  5
515
  8
0
  6
DASHED2
 62
     7
 10
445.2655372661515
 20
92.05785751342776
 30
0.0
 40
1.200000047683716
 50
113.4679724171302
 51
246.532017110215
  0
LINE
  5
516
  8
0
  6
DASHED2
 62
     7
 10
233.8060017452721
 20
58.0578451819197
 30
0.0
 11
233.2286511288171
 21
59.05784576545287
 31
0.0
  0
LINE
  5
517
  8
0
  6
DASHED2
 62
     7
 10
233.8059997946618
 20
58.05784832378457
 30
0.0
 11
233.2286495134829
 21
57.05784832096668
 31
0.0
  0
LINE
  5
518
  8
0
  6
DASHED2
 62
     7
 10
217.0786016112257
 20
-27.44215011596677
 30
0.0
 11
223.8786016112257
 21
-27.44215011596677
 31
0.0
  0
LINE
  5
519
  8
0
  6
DASHED2
 62
     7
 10
216.4786016112257
 20
-32.44215011596677
 30
0.0
 11
224.4786016112257
 21
-32.44215011596677
 31
0.0
  0
LINE
  5
51A
  8
0
  6
DASHED2
 62
     7
 10
216.4786016112257
 20
-32.44215011596677
 30
0.0
 11
216.4786016112257
 21
-48.44215011596677
 31
0.0
  0
LINE
  5
51B
  8
0
  6
DASHED2
 62
     7
 10
217.0786016112257
 20
-27.44215011596677
 30
0.0
 11
217.0786016112257
 21
-48.44215011596677
 31
0.0
  0
LINE
  5
51C
  8
0
  6
DASHED2
 62
     7
 10
223.8786016112257
 20
-27.44215011596677
 30
0.0
 11
223.8786016112257
 21
-48.44215011596677
 31
0.0
  0
LINE
  5
51D
  8
0
  6
DASHED2
 62
     7
 10
224.4786016112257
 20
-32.44215011596677
 30
0.0
 11
224.4786016112257
 21
-48.44215011596677
 31
0.0
  0
LINE
  5
51E
  8
0
  6
DASHED2
 62
     7
 10
217.0786016112259
 20
-27.44215011596666
 30
0.0
 11
220.4786016112256
 21
-25.4791592007221
 31
0.0
  0
LINE
  5
51F
  8
0
  6
DASHED2
 62
     7
 10
223.8786016112255
 20
-27.44215011596666
 30
0.0
 11
220.4786016112258
 21
-25.4791592007221
 31
0.0
  0
LINE
  5
520
  8
0
  6
DASHED2
 62
     7
 10
427.8146629375382
 20
38.05784988403323
 30
0.0
 11
411.8146629375382
 21
38.05784988403323
 31
0.0
  0
LINE
  5
521
  8
0
  6
DASHED2
 62
     7
 10
432.8146629375382
 20
37.45784988403327
 30
0.0
 11
411.8146629375382
 21
37.45784988403327
 31
0.0
  0
LINE
  5
522
  8
0
  6
DASHED2
 62
     7
 10
432.8146629375382
 20
37.45784988403327
 30
0.0
 11
432.8146629375382
 21
30.65784988403323
 31
0.0
  0
LINE
  5
523
  8
0
  6
DASHED2
 62
     7
 10
427.8146629375382
 20
38.05784988403323
 30
0.0
 11
427.8146629375382
 21
30.05784988403323
 31
0.0
  0
LINE
  5
524
  8
0
  6
DASHED2
 62
     7
 10
432.8146629375383
 20
37.45784988403304
 30
0.0
 11
434.7776538527829
 21
34.05784988403335
 31
0.0
  0
LINE
  5
525
  8
0
  6
DASHED2
 62
     7
 10
432.8146629375383
 20
30.65784988403343
 30
0.0
 11
434.7776538527829
 21
34.05784988403312
 31
0.0
  0
LINE
  5
526
  8
0
  6
DASHED2
 62
     7
 10
432.8146629375382
 20
30.65784988403323
 30
0.0
 11
411.8146629375382
 21
30.65784988403323
 31
0.0
  0
LINE
  5
527
  8
0
  6
DASHED2
 62
     7
 10
427.8146629375382
 20
30.05784988403323
 30
0.0
 11
411.8146629375382
 21
30.05784988403323
 31
0.0
  0
LINE
  5
528
  8
0
  6
CONTINUOUS
 62
     7
 10
253.9786504393507
 20
69.55784606933597
 30
0.0
 11
276.4612304271885
 21
69.55784606933597
 31
0.0
  0
LINE
  5
529
  8
0
  6
CONTINUOUS
 62
     2
 10
457.2728729477123
 20
1.716062494143699
 30
0.0
 11
453.2025504409786
 21
-0.6339335451269506
 31
0.0
  0
LINE
  5
52A
  8
0
  6
CONTINUOUS
 62
     2
 10
453.202556614296
 20
-0.6339340209960653
 30
0.0
 11
453.202556614296
 21
-5.333932876586886
 31
0.0
  0
LINE
  5
52B
  8
0
  6
CONTINUOUS
 62
     2
 10
453.2025457020144
 20
-5.33394015931114
 30
0.0
 11
457.272860422855
 21
-7.683941995132017
 31
0.0
  0
LINE
  5
52C
  8
0
  6
CONTINUOUS
 62
     2
 10
457.272877382594
 20
-7.683951774386941
 30
0.0
 11
461.3431965857009
 21
-5.333957502390575
 31
0.0
  0
LINE
  5
52D
  8
0
  6
CONTINUOUS
 62
     2
 10
461.3431968730851
 20
-5.333940505981417
 30
0.0
 11
461.3431968730851
 21
-0.6339416503905966
 31
0.0
  0
LINE
  5
52E
  8
0
  6
CONTINUOUS
 62
     2
 10
461.3431829831974
 20
-0.6339495821038952
 30
0.0
 11
457.2728693829235
 21
1.71605449485017
 31
0.0
  0
LINE
  5
52F
  8
0
  6
CONTINUOUS
 62
     2
 10
494.3146560312984
 20
-30.942146296147
 30
0.0
 11
491.2835663379905
 21
-32.69214494014133
 31
0.0
  0
LINE
  5
530
  8
0
  6
CONTINUOUS
 62
     2
 10
497.3457488262945
 20
-32.69214465849538
 30
0.0
 11
494.3146608019166
 21
-30.94214319818158
 31
0.0
  0
LINE
  5
531
  8
0
  6
CONTINUOUS
 62
     2
 10
491.2835731548234
 20
-32.69214248657224
 30
0.0
 11
491.2835731548234
 21
-36.19214248657224
 31
0.0
  0
LINE
  5
532
  8
0
  6
CONTINUOUS
 62
     2
 10
491.2835735176429
 20
-36.19213569631867
 30
0.0
 11
494.3146621678695
 21
-37.94213611355119
 31
0.0
  0
LINE
  5
533
  8
0
  6
CONTINUOUS
 62
     2
 10
494.3146592855011
 20
-37.94213816583485
 30
0.0
 11
497.3457483529602
 21
-36.19213847875923
 31
0.0
  0
LINE
  5
534
  8
0
  6
CONTINUOUS
 62
     2
 10
497.3457527202531
 20
-36.19214248657224
 30
0.0
 11
497.3457527202531
 21
-32.69214248657224
 31
0.0
  0
LINE
  5
535
  8
0
  6
CONTINUOUS
 62
     2
 10
494.3146635551436
 20
-5.942139991299172
 30
0.0
 11
491.2835738618357
 21
-7.692138635293503
 31
0.0
  0
LINE
  5
536
  8
0
  6
CONTINUOUS
 62
     2
 10
497.3457410479352
 20
-7.692133782340733
 30
0.0
 11
494.3146662380524
 21
-5.942139951427834
 31
0.0
  0
LINE
  5
537
  8
0
  6
CONTINUOUS
 62
     2
 10
491.2835731548234
 20
-7.692142486572237
 30
0.0
 11
491.2835731548234
 21
-11.19214248657224
 31
0.0
  0
LINE
  5
538
  8
0
  6
CONTINUOUS
 62
     2
 10
491.283574897638
 20
-11.1921547991287
 30
0.0
 11
494.3146635478646
 21
-12.94215521636122
 31
0.0
  0
LINE
  5
539
  8
0
  6
CONTINUOUS
 62
     2
 10
494.3146581217779
 20
-12.94213200713327
 30
0.0
 11
497.345747189237
 21
-11.19213232005765
 31
0.0
  0
LINE
  5
53A
  8
0
  6
CONTINUOUS
 62
     2
 10
497.3457527202531
 20
-11.19214248657224
 30
0.0
 11
497.3457527202531
 21
-7.69214439392087
 31
0.0
  0
LINE
  5
53B
  8
0
  6
CONTINUOUS
 62
     2
 10
494.3146643884779
 20
81.0578495624886
 30
0.0
 11
491.28357469517
 21
79.30785091849427
 31
0.0
  0
LINE
  5
53C
  8
0
  6
CONTINUOUS
 62
     2
 10
497.345741545962
 20
79.30783828828501
 30
0.0
 11
494.3146502179604
 21
81.05784165594903
 31
0.0
  0
LINE
  5
53D
  8
0
  6
CONTINUOUS
 62
     2
 10
491.2835731548234
 20
79.30785751342776
 30
0.0
 11
491.2835731548234
 21
75.80785751342776
 31
0.0
  0
LINE
  5
53E
  8
0
  6
CONTINUOUS
 62
     2
 10
491.2835666548571
 20
75.80786263453368
 30
0.0
 11
494.3146586087081
 21
74.05786030995208
 31
0.0
  0
LINE
  5
53F
  8
0
  6
CONTINUOUS
 62
     2
 10
494.3146553390632
 20
74.05785671298295
 30
0.0
 11
497.3457444065223
 21
75.80785640005857
 31
0.0
  0
LINE
  5
540
  8
0
  6
CONTINUOUS
 62
     2
 10
497.3457527202531
 20
75.80785751342776
 30
0.0
 11
497.3457527202531
 21
79.30785751342776
 31
0.0
  0
LINE
  5
541
  8
0
  6
CONTINUOUS
 62
     2
 10
494.3146714354863
 20
106.0578566932428
 30
0.0
 11
491.2835817421784
 21
104.3078580492485
 31
0.0
  0
LINE
  5
542
  8
0
  6
CONTINUOUS
 62
     2
 10
497.3457464710211
 20
104.307833020441
 30
0.0
 11
494.3146584466432
 21
106.0578344807548
 31
0.0
  0
LINE
  5
543
  8
0
  6
CONTINUOUS
 62
     2
 10
491.2835731548234
 20
104.3078575134278
 30
0.0
 11
491.2835731548234
 21
100.8078575134278
 31
0.0
  0
LINE
  5
544
  8
0
  6
CONTINUOUS
 62
     2
 10
491.2835738253724
 20
100.8078688199808
 30
0.0
 11
494.314662475599
 21
99.05786840274826
 31
0.0
  0
LINE
  5
545
  8
0
  6
CONTINUOUS
 62
     2
 10
494.3146602550126
 20
99.05785234138014
 30
0.0
 11
497.3457493224717
 21
100.8078520284558
 31
0.0
  0
LINE
  5
546
  8
0
  6
CONTINUOUS
 62
     2
 10
497.3457527202531
 20
100.8078575134278
 30
0.0
 11
497.3457527202531
 21
104.3078575134278
 31
0.0
  0
CIRCLE
  5
547
  8
0
  6
CONTINUOUS
 62
     2
 10
494.3146629375382
 20
-34.44214248657224
 30
0.0
 40
6.5
  0
CIRCLE
  5
548
  8
0
  6
CONTINUOUS
 62
     2
 10
494.3146629375382
 20
-9.442142486572237
 30
0.0
 40
6.5
  0
CIRCLE
  5
549
  8
0
  6
CONTINUOUS
 62
     2
 10
494.3146629375382
 20
77.55785751342776
 30
0.0
 40
6.5
  0
CIRCLE
  5
54A
  8
0
  6
CONTINUOUS
 62
     2
 10
494.3146629375382
 20
102.5578575134278
 30
0.0
 40
6.5
  0
CIRCLE
  5
54B
  8
0
  6
CONTINUOUS
 62
     2
 10
457.272869114296
 20
-2.983936309814425
 30
0.0
 40
8.0
  0
LINE
  5
54C
  8
0
  6
CONTINUOUS
 62
     4
 10
481.3146629375382
 20
-46.94214248657224
 30
0.0
 11
487.8146629375382
 21
-46.94214248657224
 31
0.0
  0
LINE
  5
54D
  8
0
  6
CONTINUOUS
 62
     4
 10
500.8146629375382
 20
0.5578575134277628
 30
0.0
 11
507.3146629375382
 21
0.5578575134277628
 31
0.0
  0
LINE
  5
54E
  8
0
  6
CONTINUOUS
 62
     4
 10
481.3146629375382
 20
0.5578575134277628
 30
0.0
 11
487.8146629375382
 21
0.5578575134277628
 31
0.0
  0
LINE
  5
54F
  8
0
  6
CONTINUOUS
 62
     4
 10
500.8146629375382
 20
-46.94214248657224
 30
0.0
 11
507.3146629375382
 21
-46.94214248657224
 31
0.0
  0
LINE
  5
550
  8
0
  6
CONTINUOUS
 62
     4
 10
500.8146629375382
 20
-45.44214248657224
 30
0.0
 11
507.3146629375382
 21
-45.44214248657224
 31
0.0
  0
LINE
  5
551
  8
0
  6
CONTINUOUS
 62
     4
 10
500.8146629375382
 20
-43.94214248657224
 30
0.0
 11
507.3146629375382
 21
-43.94214248657224
 31
0.0
  0
LINE
  5
552
  8
0
  6
CONTINUOUS
 62
     4
 10
500.8146629375382
 20
-42.44214248657224
 30
0.0
 11
507.3146629375382
 21
-42.44214248657224
 31
0.0
  0
LINE
  5
553
  8
0
  6
CONTINUOUS
 62
     4
 10
500.8146629375382
 20
-40.94214248657224
 30
0.0
 11
507.3146629375382
 21
-40.94214248657224
 31
0.0
  0
LINE
  5
554
  8
0
  6
CONTINUOUS
 62
     4
 10
481.3146629375382
 20
-45.44214248657224
 30
0.0
 11
487.8146629375382
 21
-45.44214248657224
 31
0.0
  0
LINE
  5
555
  8
0
  6
CONTINUOUS
 62
     4
 10
481.3146629375382
 20
-43.94214248657224
 30
0.0
 11
487.8146629375382
 21
-43.94214248657224
 31
0.0
  0
LINE
  5
556
  8
0
  6
CONTINUOUS
 62
     4
 10
481.3146629375382
 20
-42.44214248657224
 30
0.0
 11
487.8146629375382
 21
-42.44214248657224
 31
0.0
  0
LINE
  5
557
  8
0
  6
CONTINUOUS
 62
     4
 10
481.3146629375382
 20
-40.94214248657224
 30
0.0
 11
487.8146629375382
 21
-40.94214248657224
 31
0.0
  0
LINE
  5
558
  8
0
  6
CONTINUOUS
 62
     4
 10
481.3146629375382
 20
-0.9421424865722372
 30
0.0
 11
487.8146629375382
 21
-0.9421424865722372
 31
0.0
  0
LINE
  5
559
  8
0
  6
CONTINUOUS
 62
     4
 10
481.3146629375382
 20
-2.442142486572237
 30
0.0
 11
487.8146629375382
 21
-2.442142486572237
 31
0.0
  0
LINE
  5
55A
  8
0
  6
CONTINUOUS
 62
     4
 10
481.3146629375382
 20
-3.942142486572237
 30
0.0
 11
487.8146629375382
 21
-3.942142486572237
 31
0.0
  0
LINE
  5
55B
  8
0
  6
CONTINUOUS
 62
     4
 10
481.3146629375382
 20
-5.442142486572237
 30
0.0
 11
487.8146629375382
 21
-5.442142486572237
 31
0.0
  0
LINE
  5
55C
  8
0
  6
CONTINUOUS
 62
     4
 10
500.8146629375382
 20
-0.9421424865722372
 30
0.0
 11
507.3146629375382
 21
-0.9421424865722372
 31
0.0
  0
LINE
  5
55D
  8
0
  6
CONTINUOUS
 62
     4
 10
500.8146629375382
 20
-2.442142486572237
 30
0.0
 11
507.3146629375382
 21
-2.442142486572237
 31
0.0
  0
LINE
  5
55E
  8
0
  6
CONTINUOUS
 62
     4
 10
500.8146629375382
 20
-3.942142486572237
 30
0.0
 11
507.3146629375382
 21
-3.942142486572237
 31
0.0
  0
LINE
  5
55F
  8
0
  6
CONTINUOUS
 62
     4
 10
500.8146629375382
 20
-5.442142486572237
 30
0.0
 11
507.3146629375382
 21
-5.442142486572237
 31
0.0
  0
LINE
  5
560
  8
0
  6
CONTINUOUS
 62
     4
 10
500.8146629375382
 20
67.55785751342776
 30
0.0
 11
507.3146629375382
 21
67.55785751342776
 31
0.0
  0
LINE
  5
561
  8
0
  6
CONTINUOUS
 62
     4
 10
481.3146629375382
 20
67.55785751342776
 30
0.0
 11
487.8146629375382
 21
67.55785751342776
 31
0.0
  0
LINE
  5
562
  8
0
  6
CONTINUOUS
 62
     4
 10
500.8146629375382
 20
69.05785751342776
 30
0.0
 11
507.3146629375382
 21
69.05785751342776
 31
0.0
  0
LINE
  5
563
  8
0
  6
CONTINUOUS
 62
     4
 10
500.8146629375382
 20
70.55785751342776
 30
0.0
 11
507.3146629375382
 21
70.55785751342776
 31
0.0
  0
LINE
  5
564
  8
0
  6
CONTINUOUS
 62
     4
 10
500.8146629375382
 20
72.05785751342776
 30
0.0
 11
507.3146629375382
 21
72.05785751342776
 31
0.0
  0
LINE
  5
565
  8
0
  6
CONTINUOUS
 62
     4
 10
500.8146629375382
 20
73.55785751342776
 30
0.0
 11
507.3146629375382
 21
73.55785751342776
 31
0.0
  0
LINE
  5
566
  8
0
  6
CONTINUOUS
 62
     4
 10
481.3146629375382
 20
69.05785751342776
 30
0.0
 11
487.8146629375382
 21
69.05785751342776
 31
0.0
  0
LINE
  5
567
  8
0
  6
CONTINUOUS
 62
     4
 10
481.3146629375382
 20
70.55785751342776
 30
0.0
 11
487.8146629375382
 21
70.55785751342776
 31
0.0
  0
LINE
  5
568
  8
0
  6
CONTINUOUS
 62
     4
 10
481.3146629375382
 20
72.05785751342776
 30
0.0
 11
487.8146629375382
 21
72.05785751342776
 31
0.0
  0
LINE
  5
569
  8
0
  6
CONTINUOUS
 62
     4
 10
481.3146629375382
 20
73.55785751342776
 30
0.0
 11
487.8146629375382
 21
73.55785751342776
 31
0.0
  0
LINE
  5
56A
  8
0
  6
CONTINUOUS
 62
     4
 10
481.3146629375382
 20
115.0578575134278
 30
0.0
 11
487.8146629375382
 21
115.0578575134278
 31
0.0
  0
LINE
  5
56B
  8
0
  6
CONTINUOUS
 62
     4
 10
500.8146629375382
 20
115.0578575134278
 30
0.0
 11
507.3146629375382
 21
115.0578575134278
 31
0.0
  0
LINE
  5
56C
  8
0
  6
CONTINUOUS
 62
     4
 10
500.8146629375382
 20
113.5578575134278
 30
0.0
 11
507.3146629375382
 21
113.5578575134278
 31
0.0
  0
LINE
  5
56D
  8
0
  6
CONTINUOUS
 62
     4
 10
500.8146629375382
 20
112.0578575134278
 30
0.0
 11
507.3146629375382
 21
112.0578575134278
 31
0.0
  0
LINE
  5
56E
  8
0
  6
CONTINUOUS
 62
     4
 10
500.8146629375382
 20
110.5578575134278
 30
0.0
 11
507.3146629375382
 21
110.5578575134278
 31
0.0
  0
LINE
  5
56F
  8
0
  6
CONTINUOUS
 62
     4
 10
500.8146629375382
 20
109.0578575134278
 30
0.0
 11
507.3146629375382
 21
109.0578575134278
 31
0.0
  0
LINE
  5
570
  8
0
  6
CONTINUOUS
 62
     4
 10
481.3146629375382
 20
113.5578575134278
 30
0.0
 11
487.8146629375382
 21
113.5578575134278
 31
0.0
  0
LINE
  5
571
  8
0
  6
CONTINUOUS
 62
     4
 10
481.3146629375382
 20
112.0578575134278
 30
0.0
 11
487.8146629375382
 21
112.0578575134278
 31
0.0
  0
LINE
  5
572
  8
0
  6
CONTINUOUS
 62
     4
 10
481.3146629375382
 20
110.5578575134278
 30
0.0
 11
487.8146629375382
 21
110.5578575134278
 31
0.0
  0
LINE
  5
573
  8
0
  6
CONTINUOUS
 62
     4
 10
481.3146629375382
 20
109.0578575134278
 30
0.0
 11
487.8146629375382
 21
109.0578575134278
 31
0.0
  0
ARC
  5
574
  8
0
  6
CONTINUOUS
 62
     4
 10
494.3146629375382
 20
34.05784988403323
 30
0.0
 40
33.0
 50
295.1027185445029
 51
424.8972814554971
  0
ARC
  5
575
  8
0
  6
CONTINUOUS
 62
     4
 10
494.3146629375382
 20
34.05784988403323
 30
0.0
 40
33.0
 50
115.1027303836484
 51
244.8972523135076
  0
ARC
  5
576
  8
0
  6
CONTINUOUS
 62
     4
 10
494.3146629375382
 20
34.05784988403323
 30
0.0
 40
51.0
 50
235.3111947388871
 51
254.0671742374981
  0
ARC
  5
577
  8
0
  6
CONTINUOUS
 62
     4
 10
494.3146629375382
 20
34.05784988403323
 30
0.0
 40
51.0
 50
105.9328257625019
 51
125.025752153248
  0
ARC
  5
578
  8
0
  6
CONTINUOUS
 62
     4
 10
494.3146629375382
 20
34.05784988403323
 30
0.0
 40
51.0
 50
325.3392385850028
 51
394.8660769014479
  0
ARC
  5
579
  8
0
  6
CONTINUOUS
 62
     4
 10
494.3146629375382
 20
34.05784988403323
 30
0.0
 40
45.0
 50
108.1262249012356
 51
128.9090971869938
  0
ARC
  5
57A
  8
0
  6
CONTINUOUS
 62
     4
 10
494.3146629375382
 20
34.05784988403323
 30
0.0
 40
39.0
 50
111.0372378651167
 51
141.7643191672798
  0
ARC
  5
57B
  8
0
  6
CONTINUOUS
 62
     4
 10
494.3146629375382
 20
34.05784988403323
 30
0.0
 40
45.0
 50
230.8792489110059
 51
251.8737750987644
  0
ARC
  5
57C
  8
0
  6
CONTINUOUS
 62
     4
 10
494.3146629375382
 20
34.05784988403323
 30
0.0
 40
39.0
 50
218.8774454071346
 51
248.9627621348833
  0
ARC
  5
57D
  8
0
  6
CONTINUOUS
 62
     4
 10
494.3146629375382
 20
34.05784988403323
 30
0.0
 40
39.0
 50
340.3157294912926
 51
381.5256997542266
  0
ARC
  5
57E
  8
0
  6
CONTINUOUS
 62
     4
 10
494.3146629375382
 20
34.05784988403323
 30
0.0
 40
45.0
 50
321.514329234701
 51
399.1636626630711
  0
ARC
  5
57F
  8
0
  6
CONTINUOUS
 62
     4
 10
494.3146629375382
 20
34.05784988403323
 30
0.0
 40
39.0
 50
291.037219195782
 51
320.556063939432
  0
ARC
  5
580
  8
0
  6
CONTINUOUS
 62
     4
 10
494.3146629375382
 20
34.05784988403323
 30
0.0
 40
45.0
 50
288.1262062319009
 51
308.205739787877
  0
ARC
  5
581
  8
0
  6
CONTINUOUS
 62
     4
 10
494.3146629375382
 20
34.05784988403323
 30
0.0
 40
51.0
 50
285.9328070931672
 51
304.5743877533697
  0
CIRCLE
  5
582
  8
0
  6
CONTINUOUS
 62
     4
 10
527.2236595195695
 20
15.05788803100589
 30
0.0
 40
2.5
  0
CIRCLE
  5
583
  8
0
  6
CONTINUOUS
 62
     4
 10
461.4056892436906
 20
15.05785751342776
 30
0.0
 40
2.5
  0
CIRCLE
  5
584
  8
0
  6
CONTINUOUS
 62
     4
 10
461.4056892436906
 20
15.05785751342776
 30
0.0
 40
3.0
  0
CIRCLE
  5
585
  8
0
  6
CONTINUOUS
 62
     4
 10
527.2236595195695
 20
15.05788803100589
 30
0.0
 40
3.0
  0
ARC
  5
586
  8
0
  6
CONTINUOUS
 62
     4
 10
494.3146629375382
 20
34.05784988403323
 30
0.0
 40
51.0
 50
145.0621394042371
 51
215.0042463920298
  0
ARC
  5
587
  8
0
  6
CONTINUOUS
 62
     4
 10
494.3146629375382
 20
34.05784988403323
 30
0.0
 40
45.0
 50
141.2912056238514
 51
219.1603891812258
  0
ARC
  5
588
  8
0
  6
CONTINUOUS
 62
     4
 10
494.3146629375382
 20
34.05784988403323
 30
0.0
 40
39.0
 50
158.3534826234068
 51
200.9982878007583
  0
ARC
  5
589
  8
0
  6
CONTINUOUS
 62
     4
 10
494.3146629375382
 20
34.05784988403323
 30
0.0
 40
39.0
 50
38.75538127524445
 51
68.96278080421797
  0
ARC
  5
58A
  8
0
  6
CONTINUOUS
 62
     4
 10
494.3146629375382
 20
34.05784988403323
 30
0.0
 40
45.0
 50
50.47160432463377
 51
71.87379376809905
  0
ARC
  5
58B
  8
0
  6
CONTINUOUS
 62
     4
 10
494.3146629375382
 20
34.05784988403323
 30
0.0
 40
51.0
 50
54.79411686163303
 51
74.06719290683273
  0
CIRCLE
  5
58C
  8
0
  6
CONTINUOUS
 62
     4
 10
527.2236290019913
 20
53.05785751342776
 30
0.0
 40
2.5
  0
CIRCLE
  5
58D
  8
0
  6
CONTINUOUS
 62
     4
 10
461.4057273906632
 20
53.05791854858401
 30
0.0
 40
2.5
  0
CIRCLE
  5
58E
  8
0
  6
CONTINUOUS
 62
     4
 10
461.4057273906632
 20
53.05791854858401
 30
0.0
 40
3.0
  0
CIRCLE
  5
58F
  8
0
  6
CONTINUOUS
 62
     4
 10
527.2236290019913
 20
53.05785751342776
 30
0.0
 40
3.0
  0
CIRCLE
  5
590
  8
0
  6
CONTINUOUS
 62
     4
 10
494.3146629375382
 20
58.05784988403323
 30
0.0
 40
2.0
  0
CIRCLE
  5
591
  8
0
  6
CONTINUOUS
 62
     4
 10
473.5300444742372
 20
22.05786507841764
 30
0.0
 40
2.0
  0
CIRCLE
  5
592
  8
0
  6
CONTINUOUS
 62
     4
 10
515.0993030144841
 20
22.05790251448985
 30
0.0
 40
2.0
  0
LINE
  5
593
  8
0
  6
CONTINUOUS
 62
     4
 10
239.4786504393507
 20
105.9578552246094
 30
0.0
 11
259.4786504393508
 21
105.9578552246094
 31
0.0
  0
LINE
  5
594
  8
0
  6
CONTINUOUS
 62
     4
 10
239.4786504393507
 20
99.15783691406253
 30
0.0
 11
259.4786504393508
 21
99.15783691406253
 31
0.0
  0
LINE
  5
595
  8
0
  6
CONTINUOUS
 62
     4
 10
172.4786504393507
 20
-14.12714767456052
 30
0.0
 11
204.4786504393507
 21
-14.12714767456052
 31
0.0
  0
LINE
  5
596
  8
0
  6
CONTINUOUS
 62
     4
 10
172.4786504393507
 20
-22.52714920043943
 30
0.0
 11
204.4786504393507
 21
-22.52714920043943
 31
0.0
  0
LINE
  5
597
  8
0
  6
CONTINUOUS
 62
     4
 10
240.4786504393507
 20
-0.9421501159667685
 30
0.0
 11
240.4786504393507
 21
-6.942150115966769
 31
0.0
  0
LINE
  5
598
  8
0
  6
CONTINUOUS
 62
     4
 10
240.4786504393507
 20
-6.942150115966769
 30
0.0
 11
253.4786504393507
 21
-6.942150115966769
 31
0.0
  0
LINE
  5
599
  8
0
  6
CONTINUOUS
 62
     4
 10
240.4786504393507
 20
-0.9421501159667685
 30
0.0
 11
253.4786504393507
 21
-0.9421501159667685
 31
0.0
  0
LINE
  5
59A
  8
0
  6
CONTINUOUS
 62
     4
 10
239.4786504393507
 20
80.9578552246094
 30
0.0
 11
259.4786504393508
 21
80.9578552246094
 31
0.0
  0
LINE
  5
59B
  8
0
  6
CONTINUOUS
 62
     4
 10
239.4786504393507
 20
74.15783691406253
 30
0.0
 11
259.4786504393508
 21
74.15783691406253
 31
0.0
  0
LINE
  5
59C
  8
0
  6
CONTINUOUS
 62
     4
 10
251.4786504393507
 20
69.55784606933597
 30
0.0
 11
251.4786504393507
 21
66.05784988403323
 31
0.0
  0
LINE
  5
59D
  8
0
  6
CONTINUOUS
 62
     4
 10
251.4786504393507
 20
116.557861328125
 30
0.0
 11
251.4786504393507
 21
110.557861328125
 31
0.0
  0
LINE
  5
59E
  8
0
  6
CONTINUOUS
 62
     4
 10
233.2286504393507
 20
60.58084793090823
 30
0.0
 11
242.2286504393507
 21
60.58084793090823
 31
0.0
  0
LINE
  5
59F
  8
0
  6
CONTINUOUS
 62
     4
 10
233.2286504393507
 20
7.534851837158231
 30
0.0
 11
242.2286504393507
 21
7.534851837158231
 31
0.0
  0
LINE
  5
5A0
  8
0
  6
CONTINUOUS
 62
     4
 10
233.7286504393507
 20
59.55784606933597
 30
0.0
 11
237.2286504393507
 21
59.55784606933597
 31
0.0
  0
LINE
  5
5A1
  8
0
  6
CONTINUOUS
 62
     4
 10
233.7286504393507
 20
56.55784606933597
 30
0.0
 11
237.2286504393507
 21
56.55784606933597
 31
0.0
  0
LINE
  5
5A2
  8
0
  6
CONTINUOUS
 62
     4
 10
241.2286504393507
 20
60.05784606933597
 30
0.0
 11
242.2286504393507
 21
60.05784606933597
 31
0.0
  0
LINE
  5
5A3
  8
0
  6
CONTINUOUS
 62
     4
 10
241.2286504393507
 20
56.05784606933597
 30
0.0
 11
242.2286504393507
 21
56.05784606933597
 31
0.0
  0
LINE
  5
5A4
  8
0
  6
CONTINUOUS
 62
     4
 10
237.4786504393507
 20
59.55784606933597
 30
0.0
 11
241.2286504393507
 21
59.55784606933597
 31
0.0
  0
LINE
  5
5A5
  8
0
  6
CONTINUOUS
 62
     4
 10
237.4786504393507
 20
56.55784606933597
 30
0.0
 11
241.2286504393507
 21
56.55784606933597
 31
0.0
  0
LINE
  5
5A6
  8
0
  6
CONTINUOUS
 62
     5
 10
554.2950553935929
 20
47.6369438171387
 30
0.0
 11
554.2950553935929
 21
43.13693618774417
 31
0.0
  0
LINE
  5
5A7
  8
0
  6
CONTINUOUS
 62
     5
 10
555.0450511623034
 20
46.88698279531675
 30
0.0
 11
554.2950557609078
 21
47.63697825993225
 31
0.0
  0
LINE
  5
5A8
  8
0
  6
CONTINUOUS
 62
     5
 10
553.5450908296762
 20
46.88691006482171
 30
0.0
 11
554.2950969574439
 21
47.63691638225194
 31
0.0
  0
LINE
  5
5A9
  8
0
  6
CONTINUOUS
 62
     5
 10
554.2951137108206
 20
43.13688444145649
 30
0.0
 11
555.0451198385885
 21
43.88689075888672
 31
0.0
  0
LINE
  5
5AA
  8
0
  6
CONTINUOUS
 62
     5
 10
554.2950663608403
 20
43.13697329311802
 30
0.0
 11
553.5450601698516
 21
43.88697954732746
 31
0.0
  0
LINE
  5
5AB
  8
0
  6
CONTINUOUS
 62
     5
 10
546.7950401348038
 20
48.3869552612305
 30
0.0
 11
561.7950401348038
 21
48.3869552612305
 31
0.0
  0
LINE
  5
5AC
  8
0
  6
CONTINUOUS
 62
     5
 10
556.1708212662928
 20
53.91400883006909
 30
0.0
 11
555.1963953206725
 21
53.75967507600117
 31
0.0
  0
LINE
  5
5AD
  8
0
  6
CONTINUOUS
 62
     5
 10
556.1708523499688
 20
53.91401730831993
 30
0.0
 11
556.016520791788
 21
54.88842818301171
 31
0.0
  0
LINE
  5
5AE
  8
0
  6
CONTINUOUS
 62
     5
 10
561.7950401348038
 20
48.3869552612305
 30
0.0
 11
561.7950401348038
 21
55.8869552612305
 31
0.0
  0
LINE
  5
5AF
  8
0
  6
CONTINUOUS
 62
     5
 10
546.7950401348038
 20
55.88694763183597
 30
0.0
 11
561.7950401348038
 21
55.88694763183597
 31
0.0
  0
LINE
  5
5B0
  8
0
  6
CONTINUOUS
 62
     5
 10
546.7950401348038
 20
48.38695144653323
 30
0.0
 11
546.7950401348038
 21
59.63695144653323
 31
0.0
  0
LINE
  5
5B1
  8
0
  6
CONTINUOUS
 62
     5
 10
546.7950401348038
 20
59.63694763183597
 30
0.0
 11
549.0450401348038
 21
59.63694763183597
 31
0.0
  0
LINE
  5
5B2
  8
0
  6
CONTINUOUS
 62
     5
 10
549.0450401348038
 20
58.51194000244144
 30
0.0
 11
549.0450401348038
 21
59.6369323730469
 31
0.0
  0
LINE
  5
5B3
  8
0
  6
CONTINUOUS
 62
     5
 10
549.0450401348038
 20
58.51194763183597
 30
0.0
 11
550.5450401348038
 21
58.51194763183597
 31
0.0
  0
LINE
  5
5B4
  8
0
  6
CONTINUOUS
 62
     5
 10
550.5450248760149
 20
57.38695144653323
 30
0.0
 11
550.5450248760149
 21
58.51195144653323
 31
0.0
  0
LINE
  5
5B5
  8
0
  6
CONTINUOUS
 62
     5
 10
550.5450553935929
 20
57.38693618774417
 30
0.0
 11
552.0450553935929
 21
57.38693618774417
 31
0.0
  0
LINE
  5
5B6
  8
0
  6
CONTINUOUS
 62
     5
 10
552.0450248760149
 20
55.88695144653323
 30
0.0
 11
552.0450248760149
 21
57.38694763183597
 31
0.0
  0
LINE
  5
5B7
  8
0
  6
CONTINUOUS
 62
     5
 10
553.5450786049451
 20
58.23720635853718
 30
0.0
 11
554.2950847327128
 21
58.98721267596741
 31
0.0
  0
LINE
  5
5B8
  8
0
  6
CONTINUOUS
 62
     5
 10
551.3354148906632
 20
58.98720932006839
 30
0.0
 11
554.2950401348038
 21
58.98720932006839
 31
0.0
  0
LINE
  5
5B9
  8
0
  6
CONTINUOUS
 62
     5
 10
554.2950562392856
 20
58.98724218486862
 30
0.0
 11
553.54506083789
 21
59.73723764948412
 31
0.0
  0
ARC
  5
5BA
  8
0
  6
CONTINUOUS
 62
     5
 10
554.3146629375382
 20
52.0578422546387
 30
0.0
 40
2.625001907348633
 50
45.00008662960378
 51
339.9999320525513
  0
TEXT
  5
5BB
  8
0
 62
     5
 10
427.8146629375382
 20
62.8435574769974
 30
0.0
 40
5.0
  1
NIKKO
 50
-90.00000000000001
 41
0.635880610320819
  7
FDASTYLE1
 72
     5
 11
427.8146629375382
 21
46.94654221897692
 31
0.0
  0
TEXT
  5
5BC
  8
0
 62
     5
 10
428.3146629375382
 20
28.48643159866336
 30
0.0
 40
4.0
  1
HF2-6B
 50
-90.00000000000001
 41
0.7326009741935735
  7
FDASTYLE1
 72
     5
 11
428.3146629375382
 21
10.90400821801759
 31
0.0
  0
TEXT
  5
5BD
  8
0
 62
     5
 10
421.8146629375382
 20
28.12928843498233
 30
0.0
 40
3.0
  1
0001
 50
-90.00000000000001
 41
0.6190477764350817
  7
FDASTYLE1
 72
     5
 11
421.8146629375382
 21
20.70071511776135
 31
0.0
  0
TEXT
  5
5BE
  8
0
 62
     5
 10
559.5646781963274
 20
7.127498328685789
 30
0.0
 40
2.5
  1
F MAX   11KN
 50
90.0
 41
0.7578772143703342
  7
FDASTYLE1
 72
     5
 11
559.5646781963274
 21
29.86381475979582
 31
0.0
  0
TEXT
  5
5BF
  8
0
 62
     5
 10
563.5646781963274
 20
7.127500236034422
 30
0.0
 40
2.5
  1
ΣS MAX  39KN
 50
90.0
 41
0.6460330630949721
  7
FDASTYLE1
 72
     5
 11
563.5646781963274
 21
26.83150866043107
 31
0.0
  0
TEXT
  5
5C0
  8
0
 62
     5
 10
567.5646934551163
 20
7.127496421337156
 30
0.0
 40
2.5
  1
N MAX 6500 AT ΣS MAX
 50
90.0
 41
0.6445640188692571
  7
FDASTYLE1
 72
     5
 11
567.5646934551163
 21
39.67797937423464
 31
0.0
  0
TEXT
  5
5C1
  8
0
 62
     5
 10
552.4151573223038
 20
44.43294346332553
 30
0.0
 40
2.5
  1
F
 50
90.0
 41
0.5442179498218593
  7
FDASTYLE1
 72
     5
 11
552.4151573223038
 21
45.79348833788018
 31
0.0
  0
TEXT
  5
5C2
  8
0
 62
     5
 10
559.9342613262101
 20
52.22692072391513
 30
0.0
 40
2.5
  1
N min
 50
90.0
 41
0.6995393319099822
  7
FDASTYLE1
 72
     5
 11
559.9342613262101
 21
60.97116237278991
 31
0.0
  0
TEXT
  5
5C3
  8
0
 62
     5
 10
558.1554150623246
 20
65.16442005336288
 30
0.0
 40
1.25
  1
-1
 50
90.0
 41
0.6149070012128505
  7
FDASTYLE1
 72
     5
 11
558.1554150623246
 21
66.701687556395
 31
0.0
  0
TEXT
  5
5C4
  8
0
 62
     5
 10
554.1176109355851
 20
60.69120991230014
 30
0.0
 40
2.5
  1
ΣS
 50
90.0
 41
0.7846700504791732
  7
FDASTYLE1
 72
     5
 11
554.1176109355851
 21
65.00689518993559
 31
0.0
  0
INSERT
  5
5C5
  8
LAYER0001
  6
CONTINUOUS
  2
DC_GROUP_1
 10
0.0
 20
0.0
 30
0.0
  0
INSERT
  5
5C6
  8
LAYER0001
  6
CONTINUOUS
  2
DC_GROUP_4
 10
0.0
 20
0.0
 30
0.0
  0
INSERT
  5
5C7
  8
LAYER0001
  6
CONTINUOUS
  2
DC_GROUP_7
 10
0.0
 20
0.0
 30
0.0
  0
INSERT
  5
5C8
  8
LAYER0001
  6
CONTINUOUS
  2
DC_GROUP_10
 10
0.0
 20
0.0
 30
0.0
  0
INSERT
  5
5C9
  8
LAYER0001
  6
CONTINUOUS
  2
DC_GROUP_13
 10
0.0
 20
0.0
 30
0.0
  0
INSERT
  5
5CA
  8
LAYER0001
  6
CONTINUOUS
  2
DC_GROUP_15
 10
0.0
 20
0.0
 30
0.0
  0
INSERT
  5
5CB
  8
LAYER0001
  6
CONTINUOUS
  2
DC_GROUP_17
 10
0.0
 20
0.0
 30
0.0
  0
INSERT
  5
5CC
  8
LAYER0001
  6
CONTINUOUS
  2
DC_GROUP_20
 10
0.0
 20
0.0
 30
0.0
  0
INSERT
  5
5CD
  8
LAYER0001
  6
CONTINUOUS
  2
DC_GROUP_23
 10
0.0
 20
0.0
 30
0.0
  0
INSERT
  5
5CE
  8
LAYER0001
  6
CONTINUOUS
  2
DC_GROUP_26
 10
0.0
 20
0.0
 30
0.0
  0
INSERT
  5
5CF
  8
LAYER0001
  6
CONTINUOUS
  2
DC_GROUP_28
 10
0.0
 20
0.0
 30
0.0
  0
INSERT
  5
5D0
  8
LAYER0001
  6
CONTINUOUS
  2
DC_GROUP_31
 10
0.0
 20
0.0
 30
0.0
  0
INSERT
  5
5D1
  8
LAYER0001
  6
CONTINUOUS
  2
DC_GROUP_34
 10
0.0
 20
0.0
 30
0.0
  0
INSERT
  5
5D2
  8
LAYER0001
  6
CONTINUOUS
  2
DC_GROUP_37
 10
0.0
 20
0.0
 30
0.0
  0
INSERT
  5
5D3
  8
LAYER0001
  6
CONTINUOUS
  2
DC_GROUP_40
 10
0.0
 20
0.0
 30
0.0
  0
INSERT
  5
5D4
  8
LAYER0001
  6
CONTINUOUS
  2
DC_GROUP_43
 10
0.0
 20
0.0
 30
0.0
  0
INSERT
  5
5D5
  8
LAYER0001
  6
CONTINUOUS
  2
DC_GROUP_46
 10
0.0
 20
0.0
 30
0.0
  0
INSERT
  5
5D6
  8
LAYER0001
  6
CONTINUOUS
  2
DC_GROUP_49
 10
0.0
 20
0.0
 30
0.0
  0
INSERT
  5
5D7
  8
LAYER0001
  6
CONTINUOUS
  2
DC_GROUP_52
 10
0.0
 20
0.0
 30
0.0
  0
INSERT
  5
5D8
  8
LAYER0001
  6
CONTINUOUS
  2
DC_GROUP_55
 10
0.0
 20
0.0
 30
0.0
  0
INSERT
  5
5D9
  8
LAYER0001
  6
CONTINUOUS
  2
DC_GROUP_58
 10
0.0
 20
0.0
 30
0.0
  0
INSERT
  5
5DA
  8
LAYER0001
  6
CONTINUOUS
  2
DC_GROUP_61
 10
0.0
 20
0.0
 30
0.0
  0
INSERT
  5
5DB
  8
LAYER0001
  6
CONTINUOUS
  2
DC_GROUP_64
 10
0.0
 20
0.0
 30
0.0
  0
INSERT
  5
5DC
  8
LAYER0001
  6
CONTINUOUS
  2
DC_GROUP_67
 10
0.0
 20
0.0
 30
0.0
  0
INSERT
  5
5DD
  8
LAYER0001
  6
CONTINUOUS
  2
DC_GROUP_68
 10
0.0
 20
0.0
 30
0.0
  0
INSERT
  5
5DE
  8
LAYER0001
  6
CONTINUOUS
  2
DC_GROUP_69
 10
0.0
 20
0.0
 30
0.0
  0
INSERT
  5
5DF
  8
LAYER0001
  6
CONTINUOUS
  2
DC_GROUP_72
 10
0.0
 20
0.0
 30
0.0
  0
INSERT
  5
5E0
  8
LAYER0001
  6
CONTINUOUS
  2
DC_GROUP_73
 10
0.0
 20
0.0
 30
0.0
  0
INSERT
  5
5E1
  8
LAYER0001
  6
CONTINUOUS
  2
DC_GROUP_74
 10
0.0
 20
0.0
 30
0.0
  0
INSERT
  5
5E2
  8
LAYER0001
  6
CONTINUOUS
  2
DC_GROUP_77
 10
0.0
 20
0.0
 30
0.0
  0
INSERT
  5
5E3
  8
LAYER0001
  6
CONTINUOUS
  2
DC_GROUP_79
 10
0.0
 20
0.0
 30
0.0
  0
INSERT
  5
5E4
  8
LAYER0001
  6
CONTINUOUS
  2
DC_GROUP_82
 10
0.0
 20
0.0
 30
0.0
  0
INSERT
  5
5E5
  8
LAYER0001
  6
CONTINUOUS
  2
DC_GROUP_84
 10
0.0
 20
0.0
 30
0.0
  0
INSERT
  5
5E6
  8
LAYER0001
  6
CONTINUOUS
  2
DC_GROUP_86
 10
0.0
 20
0.0
 30
0.0
  0
INSERT
  5
5E7
  8
LAYER0001
  6
CONTINUOUS
  2
DC_GROUP_89
 10
0.0
 20
0.0
 30
0.0
  0
INSERT
  5
5E8
  8
LAYER0001
  6
CONTINUOUS
  2
DC_GROUP_92
 10
0.0
 20
0.0
 30
0.0
  0
INSERT
  5
5E9
  8
0
  6
CONTINUOUS
  2
DC_GROUP_95
 10
0.0
 20
0.0
 30
0.0
  0
INSERT
  5
5EA
  8
0
  6
CONTINUOUS
  2
DC_GROUP_96
 10
0.0
 20
0.0
 30
0.0
  0
INSERT
  5
5EB
  8
0
  6
CONTINUOUS
  2
DC_GROUP_97
 10
0.0
 20
0.0
 30
0.0
  0
INSERT
  5
5EC
  8
0
  6
CONTINUOUS
  2
DC_GROUP_98
 10
0.0
 20
0.0
 30
0.0
  0
INSERT
  5
5ED
  8
0
  6
CONTINUOUS
  2
DC_GROUP_99
 10
0.0
 20
0.0
 30
0.0
  0
INSERT
  5
5EE
  8
0
  6
CONTINUOUS
  2
DC_GROUP_100
 10
0.0
 20
0.0
 30
0.0
  0
INSERT
  5
5EF
  8
0
  6
CONTINUOUS
  2
DC_GROUP_103
 10
0.0
 20
0.0
 30
0.0
  0
INSERT
  5
5F0
  8
0
  6
CONTINUOUS
  2
DC_GROUP_106
 10
0.0
 20
0.0
 30
0.0
  0
INSERT
  5
5F1
  8
0
  6
CONTINUOUS
  2
DC_GROUP_109
 10
0.0
 20
0.0
 30
0.0
  0
INSERT
  5
5F2
  8
0
  6
CONTINUOUS
  2
DC_GROUP_112
 10
0.0
 20
0.0
 30
0.0
  0
INSERT
  5
5F3
  8
0
  6
CONTINUOUS
  2
DC_GROUP_115
 10
0.0
 20
0.0
 30
0.0
  0
INSERT
  5
5F4
  8
0
  6
CONTINUOUS
  2
DC_GROUP_117
 10
0.0
 20
0.0
 30
0.0
  0
INSERT
  5
5F5
  8
0
  6
CONTINUOUS
  2
DC_GROUP_120
 10
0.0
 20
0.0
 30
0.0
  0
LINE
  5
5F6
  8
0
  6
DIVIDE
 62
     9
 10
193.4786046629835
 20
63.55784988403323
 30
0.0
 11
193.4786046629835
 21
38.13300704956058
 31
0.0
  0
LINE
  5
5F7
  8
0
  6
DIVIDE
 62
     9
 10
193.4786469865553
 20
63.55783873787485
 30
0.0
 11
194.4786480481448
 21
64.55783979946435
 31
0.0
  0
LINE
  5
5F8
  8
0
  6
DIVIDE
 62
     9
 10
247.2085088377882
 20
64.55784988403323
 30
0.0
 11
249.9786504393507
 21
64.55784988403323
 31
0.0
  0
LINE
  5
5F9
  8
0
  6
DIVIDE
 62
     9
 10
250.9786567773847
 20
63.55785222486614
 30
0.0
 11
249.9786557157952
 21
64.55785328645564
 31
0.0
  0
LINE
  5
5FA
  8
0
  6
DIVIDE
 62
     9
 10
250.9786504393507
 20
63.55784988403323
 30
0.0
 11
250.9786504393507
 21
58.38180923461917
 31
0.0
  0
LINE
  5
5FB
  8
LAYER0001
  6
CONTINUOUS
 62
     7
 10
252.4786504393507
 20
134.0
 30
0.0
 11
246.0850652342726
 21
134.0
 31
0.0
  0
LINE
  5
5FC
  8
LAYER0001
  6
CONTINUOUS
 62
     7
 10
253.4786504393507
 20
12.38682937622073
 30
0.0
 11
264.9467404967238
 21
12.38682937622073
 31
0.0
  0
VIEWPORT
  5
48
 67
     1
  8
0
 10
356.5723937454768
 20
0.0
 30
0.0
 40
1662.0
 41
1140.0
 68
     1
 69
     1
1001
ACAD
1000
MVIEW
1002
{
1070
    16
1010
0.0
1020
0.0
1030
0.0
1020
0.0
1030
0.0
1010
0.0
1020
0.0
1030
1.0
1020
0.0
1030
1.0
1040
0.0
1040
1140.0
1040
356.5723937454768
1040
0.0
1040
50.0
1040
0.0
1040
0.0
1070
     0
1070
   100
1070
     0
1070
     1
1070
     0
1070
     0
1070
     0
1070
     0
1040
0.0
1040
0.0
1040
0.0
1040
0.5
1040
0.5
1040
0.0
1040
0.0
1070
     0
1002
{
1002
}
1002
}
  0
ENDSEC
  0
EOF
