  0
SECTION
  2
HEADER
  9
$ACADVER
  1
AC1009
  9
$DWGCODEPAGE
  3
ansi_932
  9
$INSBASE
 10
0.0
 20
0.0
 30
0.0
  9
$EXTMIN
 10
-836.531429682114
 20
-570.0
 30
0.0
  9
$EXTMAX
 10
825.468570317886
 20
570.0
 30
0.0
  9
$LIMMIN
 10
-297.25
 20
-210.25
  9
$LIMMAX
 10
297.25
 20
210.25
  9
$ORTHOMODE
 70
     0
  9
$REGENMODE
 70
     1
  9
$FILLMODE
 70
     1
  9
$QTEXTMODE
 70
     0
  9
$MIRRTEXT
 70
     1
  9
$DRAGMODE
 70
     2
  9
$LTSCALE
 40
0.5
  9
$OSMODE
 70
    37
  9
$ATTMODE
 70
     1
  9
$TEXTSIZE
 40
0.2
  9
$TRACEWID
 40
0.05
  9
$TEXTSTYLE
  7
STANDARD
  9
$CLAYER
  8
0
  9
$CELTYPE
  6
BYLAYER
  9
$CECOLOR
 62
   256
  9
$DIMSCALE
 40
1.0
  9
$DIMASZ
 40
1.25
  9
$DIMEXO
 40
0.0625
  9
$DIMDLI
 40
0.38
  9
$DIMRND
 40
0.0
  9
$DIMDLE
 40
0.0
  9
$DIMEXE
 40
0.18
  9
$DIMTP
 40
0.0
  9
$DIMTM
 40
0.0
  9
$DIMTXT
 40
0.18
  9
$DIMCEN
 40
0.09
  9
$DIMTSZ
 40
0.0
  9
$DIMTOL
 70
     0
  9
$DIMLIM
 70
     0
  9
$DIMTIH
 70
     1
  9
$DIMTOH
 70
     1
  9
$DIMSE1
 70
     0
  9
$DIMSE2
 70
     0
  9
$DIMTAD
 70
     3
  9
$DIMZIN
 70
     0
  9
$DIMBLK
  1

  9
$DIMASO
 70
     1
  9
$DIMSHO
 70
     1
  9
$DIMPOST
  1

  9
$DIMAPOST
  1

  9
$DIMALT
 70
     0
  9
$DIMALTD
 70
     2
  9
$DIMALTF
 40
25.4
  9
$DIMLFAC
 40
1.0
  9
$DIMTOFL
 70
     0
  9
$DIMTVP
 40
0.0
  9
$DIMTIX
 70
     0
  9
$DIMSOXD
 70
     0
  9
$DIMSAH
 70
     0
  9
$DIMBLK1
  1

  9
$DIMBLK2
  1

  9
$DIMSTYLE
  2
STANDARD
  9
$DIMCLRD
 70
     0
  9
$DIMCLRE
 70
     0
  9
$DIMCLRT
 70
     0
  9
$DIMTFAC
 40
1.0
  9
$DIMGAP
 40
0.09
  9
$LUNITS
 70
     2
  9
$LUPREC
 70
     4
  9
$SKETCHINC
 40
0.1
  9
$FILLETRAD
 40
0.5
  9
$AUNITS
 70
     0
  9
$AUPREC
 70
     0
  9
$MENU
  1
.
  9
$ELEVATION
 40
0.0
  9
$PELEVATION
 40
0.0
  9
$THICKNESS
 40
0.0
  9
$LIMCHECK
 70
     0
  9
$CHAMFERA
 40
0.5
  9
$CHAMFERB
 40
0.5
  9
$SKPOLY
 70
     0
  9
$TDCREATE
 40
2456329.45683603
  9
$TDUPDATE
 40
2456329.456836042
  9
$TDINDWG
 40
0.0000000116
  9
$TDUSRTIMER
 40
0.0000000116
  9
$USRTIMER
 70
     1
  9
$ANGBASE
 50
0.0
  9
$ANGDIR
 70
     0
  9
$PDMODE
 70
     0
  9
$PDSIZE
 40
1.0
  9
$PLINEWID
 40
0.0
  9
$COORDS
 70
     1
  9
$SPLFRAME
 70
     0
  9
$SPLINETYPE
 70
     6
  9
$SPLINESEGS
 70
     8
  9
$ATTDIA
 70
     0
  9
$ATTREQ
 70
     1
  9
$HANDLING
 70
     1
  9
$HANDSEED
  5
591
  9
$SURFTAB1
 70
     6
  9
$SURFTAB2
 70
     6
  9
$SURFTYPE
 70
     6
  9
$SURFU
 70
     6
  9
$SURFV
 70
     6
  9
$UCSNAME
  2

  9
$UCSORG
 10
0.0
 20
0.0
 30
0.0
  9
$UCSXDIR
 10
1.0
 20
0.0
 30
0.0
  9
$UCSYDIR
 10
0.0
 20
1.0
 30
0.0
  9
$PUCSNAME
  2

  9
$PUCSORG
 10
0.0
 20
0.0
 30
0.0
  9
$PUCSXDIR
 10
1.0
 20
0.0
 30
0.0
  9
$PUCSYDIR
 10
0.0
 20
1.0
 30
0.0
  9
$USERI1
 70
     0
  9
$USERI2
 70
     0
  9
$USERI3
 70
     0
  9
$USERI4
 70
     0
  9
$USERI5
 70
     0
  9
$USERR1
 40
0.0
  9
$USERR2
 40
0.0
  9
$USERR3
 40
0.0
  9
$USERR4
 40
0.0
  9
$USERR5
 40
0.0
  9
$WORLDVIEW
 70
     1
  9
$SHADEDGE
 70
     3
  9
$SHADEDIF
 70
    70
  9
$TILEMODE
 70
     1
  9
$MAXACTVP
 70
    64
  9
$PLIMCHECK
 70
     0
  9
$PEXTMIN
 10
1.000000000000000E+20
 20
1.000000000000000E+20
 30
1.000000000000000E+20
  9
$PEXTMAX
 10
-1.000000000000000E+20
 20
-1.000000000000000E+20
 30
-1.000000000000000E+20
  9
$PLIMMIN
 10
0.0
 20
0.0
  9
$PLIMMAX
 10
12.0
 20
9.0
  9
$UNITMODE
 70
     0
  9
$VISRETAIN
 70
     0
  9
$PLINEGEN
 70
     1
  9
$PSLTSCALE
 70
     0
  0
ENDSEC
  0
SECTION
  2
TABLES
  0
TABLE
  2
VPORT
 70
     1
  0
VPORT
  2
*ACTIVE
 70
     0
 10
0.0
 20
0.0
 11
1.0
 21
1.0
 12
0.0
 22
0.0
 13
0.0
 23
0.0
 14
0.5
 24
0.5
 15
0.5
 25
0.5
 16
0.0
 26
0.0
 36
1.0
 17
-5.531429682113984
 27
0.0
 37
0.0
 40
387.6
 41
1.457894736842105
 42
50.0
 43
0.0
 44
0.0
 50
0.0
 51
0.0
 71
     0
 72
  1000
 73
     1
 74
     1
 75
     0
 76
     0
 77
     0
 78
     0
  0
ENDTAB
  0
TABLE
  2
LTYPE
 70
    28
  0
LTYPE
  2
CONTINUOUS
 70
     0
  3
Solid line
 72
    65
 73
     0
 40
0.0
  0
LTYPE
  2
HIDDENX2
 70
     0
  3
CADPAC LINETYPE
 72
    65
 73
     2
 40
19.81154299175501
 49
14.85865724381625
 49
-4.952885747938751
  0
LTYPE
  2
HIDDEN
 70
     0
  3
CADPAC LINETYPE
 72
    65
 73
     2
 40
14.85865724381625
 49
9.905771495877502
 49
-4.952885747938751
  0
LTYPE
  2
HIDDEN2
 70
     0
  3
CADPAC LINETYPE
 72
    65
 73
     2
 40
12.38221436984688
 49
7.429328621908127
 49
-4.952885747938751
  0
LTYPE
  2
DASHED
 70
     0
  3
CADPAC LINETYPE
 72
    65
 73
     2
 40
13.8680800942285
 49
9.905771495877502
 49
-3.962308598351001
  0
LTYPE
  2
DASHED2
 70
     0
  3
CADPAC LINETYPE
 72
    65
 73
     2
 40
8.915194346289582
 49
5.943462897526388
 49
-2.971731448763194
  0
LTYPE
  2
DASHEDX2
 70
     0
  3
CADPAC LINETYPE
 72
    65
 73
     2
 40
23.77385159010601
 49
19.81154299175501
 49
-3.962308598351001
  0
LTYPE
  2
DOTX2
 70
     0
  3
CADPAC LINETYPE
 72
    65
 73
     2
 40
8.667550058892743
 49
0.0
 49
-8.667550058892743
  0
LTYPE
  2
DOT
 70
     0
  3
CADPAC LINETYPE
 72
    65
 73
     2
 40
6.934040047114195
 49
0.0
 49
-6.934040047114195
  0
LTYPE
  2
DOT2
 70
     0
  3
CADPAC LINETYPE
 72
    65
 73
     2
 40
5.200530035335646
 49
0.0
 49
-5.200530035335646
  0
LTYPE
  2
CENTERX2
 70
     0
  3
CADPAC LINETYPE
 72
    65
 73
     4
 40
29.71731448763251
 49
12.38221436984688
 49
-6.191107184923439
 49
4.952885747938751
 49
-6.191107184923439
  0
LTYPE
  2
CENTER
 70
     0
  3
CADPAC LINETYPE
 72
    65
 73
     4
 40
22.78327444051826
 49
9.905771495877502
 49
-4.952885747938751
 49
2.971731448763251
 49
-4.952885747938751
  0
LTYPE
  2
CENTER2
 70
     0
  3
CADPAC LINETYPE
 72
    65
 73
     4
 40
15.849234393404
 49
7.429328621908127
 49
-3.714664310954063
 49
0.9905771495877502
 49
-3.714664310954063
  0
LTYPE
  2
DASHDOTX2
 70
     0
  3
CADPAC LINETYPE
 72
    65
 73
     4
 40
47.54770318021156
 49
23.77385159010589
 49
-7.924617196701888
 49
7.924617196701888
 49
-7.924617196701888
  0
LTYPE
  2
DASHDOT
 70
     0
  3
CADPAC LINETYPE
 72
    65
 73
     4
 40
23.77385159010601
 49
11.886925795053
 49
-3.962308598351001
 49
3.962308598351001
 49
-3.962308598351001
  0
LTYPE
  2
DASHDOT2
 70
     0
  3
CADPAC LINETYPE
 72
    65
 73
     4
 40
15.25488810365135
 49
8.915194346289752
 49
-2.971731448763251
 49
0.3962308598351001
 49
-2.971731448763251
  0
LTYPE
  2
DIVIDEX2
 70
     0
  3
CADPAC LINETYPE
 72
    65
 73
     6
 40
63.39693757361533
 49
23.77385159010589
 49
-7.924617196701888
 49
7.924617196701888
 49
-7.924617196701888
 49
7.924617196701888
 49
-7.924617196701888
  0
LTYPE
  2
DIVIDE
 70
     0
  3
CADPAC LINETYPE
 72
    65
 73
     6
 40
31.69846878680801
 49
11.886925795053
 49
-3.962308598351001
 49
3.962308598351001
 49
-3.962308598351001
 49
3.962308598351001
 49
-3.962308598351001
  0
LTYPE
  2
DIVIDE2
 70
     0
  3
CADPAC LINETYPE
 72
    65
 73
     6
 40
23.77385159010601
 49
8.915194346289752
 49
-2.971731448763251
 49
2.971731448763251
 49
-2.971731448763251
 49
2.971731448763251
 49
-2.971731448763251
  0
LTYPE
  2
BORDERX2
 70
     0
  3
CADPAC LINETYPE
 72
    65
 73
     6
 40
43.33775029446407
 49
12.38221436984688
 49
-6.191107184923439
 49
12.38221436984688
 49
-6.191107184923439
 49
0.0
 49
-6.191107184923439
  0
LTYPE
  2
BORDER
 70
     0
  3
CADPAC LINETYPE
 72
    65
 73
     6
 40
34.67020023557126
 49
9.905771495877502
 49
-4.952885747938751
 49
9.905771495877502
 49
-4.952885747938751
 49
0.0
 49
-4.952885747938751
  0
LTYPE
  2
BORDER2
 70
     0
  3
CADPAC LINETYPE
 72
    65
 73
     6
 40
25.75500588928122
 49
7.924617196701888
 49
-4.952885747938694
 49
2.971731448763194
 49
-4.952885747938694
 49
0.0
 49
-4.952885747938751
  0
LTYPE
  2
PHANTOMX2
 70
     0
  3
CADPAC LINETYPE
 72
    65
 73
     6
 40
37.14664310954063
 49
12.38221436984688
 49
-4.952885747938751
 49
4.952885747938751
 49
-4.952885747938751
 49
4.952885747938751
 49
-4.952885747938751
  0
LTYPE
  2
PHANTOM
 70
     0
  3
CADPAC LINETYPE
 72
    65
 73
     6
 40
30.70789163722026
 49
9.905771495877502
 49
-4.952885747938751
 49
2.971731448763251
 49
-4.952885747938751
 49
2.971731448763251
 49
-4.952885747938751
  0
LTYPE
  2
PHANTOM2
 70
     0
  3
CADPAC LINETYPE
 72
    65
 73
     6
 40
26.25029446407538
 49
7.429328621908127
 49
-4.952885747938751
 49
1.981154299175501
 49
-4.952885747938751
 49
1.981154299175501
 49
-4.952885747938751
  0
LTYPE
  2
ACAD_ISO06W100
 70
     0
  3
CADPAC LINETYPE
 72
    65
 73
     8
 40
52.50058892815025
 49
23.77385159010589
 49
-4.952885747938694
 49
2.971731448763194
 49
-4.952885747938694
 49
2.971731448763194
 49
-4.952885747938694
 49
2.971731448763194
 49
-4.952885747938694
  0
LTYPE
  2
ACAD_ISO13W100
 70
     0
  3
CADPAC LINETYPE
 72
    65
 73
     8
 40
39.62308598351001
 49
9.905771495877502
 49
-4.952885747938751
 49
9.905771495877502
 49
-4.952885747938751
 49
0.0
 49
-4.952885747938751
 49
0.0
 49
-4.952885747938751
  0
LTYPE
  2
ACAD_ISO14W100
 70
     0
  3
CADPAC LINETYPE
 72
    65
 73
     8
 40
29.71731448763251
 49
9.905771495877502
 49
-4.952885747938751
 49
0.0
 49
-4.952885747938751
 49
0.0
 49
-4.952885747938751
 49
0.0
 49
-4.952885747938751
  0
ENDTAB
  0
TABLE
  2
LAYER
 70
     3
  0
LAYER
  2
0
 70
     0
 62
     7
  6
CONTINUOUS
  0
LAYER
  2
LAYER0014
 70
     0
 62
     7
  6
CONTINUOUS
  0
LAYER
  2
LAYER0002
 70
     0
 62
     7
  6
CONTINUOUS
  0
ENDTAB
  0
TABLE
  2
STYLE
 70
     5
  0
STYLE
  2
STANDARD
 70
     0
 40
0.0
 41
1.0
 50
0.0
 71
     0
 42
0.2
  3
txt
  4

  0
STYLE
  2
FDASTYLE1
 70
     0
 40
0.0
 41
0.7396449704142014
 50
0.0
 71
     0
 42
0.2
  3
txt.shx
  4
bigfont
  0
STYLE
  2
FDASTYLE0
 70
     4
 40
0.0
 41
0.8
 50
0.0
 71
     0
 42
0.2
  3
txt.shx
  4
bigfont
  0
STYLE
  2
FDASTYLE2
 70
     0
 40
0.0
 41
0.8123476848090981
 50
0.0
 71
     0
 42
0.2
  3
MSMINCHO.TTC
  4

  0
STYLE
  2
FDASTYLE3
 70
     0
 40
0.0
 41
0.6347897774113767
 50
0.0
 71
     0
 42
0.2
  3
MSGOTHIC.TTC
  4

  0
ENDTAB
  0
TABLE
  2
VIEW
 70
     0
  0
ENDTAB
  0
TABLE
  2
UCS
 70
     0
  0
ENDTAB
  0
TABLE
  2
APPID
 70
     2
  0
APPID
  2
ACAD
 70
     0
  0
APPID
  2
DAFUSIONOUT
 70
     0
  0
ENDTAB
  0
TABLE
  2
DIMSTYLE
 70
     1
  0
DIMSTYLE
  2
STANDARD
 70
     0
  3

  4

  5

  6

  7

 40
1.0
 41
0.18
 42
0.0625
 43
0.38
 44
0.18
 45
0.0
 46
0.0
 47
0.0
 48
0.0
140
0.18
141
0.09
142
0.0
143
25.4
144
1.0
145
0.0
146
1.0
147
0.09
 71
     0
 72
     0
 73
     1
 74
     1
 75
     0
 76
     0
 77
     0
 78
     0
170
     0
171
     2
172
     0
173
     0
174
     0
175
     0
176
     0
177
     0
178
     0
  0
ENDTAB
  0
ENDSEC
  0
SECTION
  2
BLOCKS
  0
BLOCK
  8
0
  2
$MODEL_SPACE
 70
     0
 10
0.0
 20
0.0
 30
0.0
  3
$MODEL_SPACE
  1

  0
ENDBLK
  5
21
  8
0
  0
BLOCK
 67
     1
  8
0
  2
$PAPER_SPACE
 70
     0
 10
0.0
 20
0.0
 30
0.0
  3
$PAPER_SPACE
  1

  0
ENDBLK
  5
1D
 67
     1
  8
0
  0
BLOCK
  8
0
  2
DC_GROUP_1
 70
     0
 10
0.0
 20
0.0
 30
0.0
  3
DC_GROUP_1
  1

  0
LINE
  5
17B
  8
LAYER0014
  6
CONTINUOUS
 62
     7
 10
-181.9527687190196
 20
166.4049758312382
 30
0.0
 11
-179.952770311389
 21
165.8690762963406
 31
0.0
  0
LINE
  5
17C
  8
LAYER0014
  6
CONTINUOUS
 62
     7
 10
-179.952770311389
 20
165.8690762963406
 30
0.0
 11
-181.9527687190196
 21
165.333176761443
 31
0.0
  0
LINE
  5
17D
  8
LAYER0014
  6
CONTINUOUS
 62
     7
 10
-179.952770311389
 20
165.8690762963406
 30
0.0
 11
-181.9527687190196
 21
165.8690762963406
 31
0.0
  0
ENDBLK
  5
4E
  8
0
  0
BLOCK
  8
0
  2
DC_GROUP_2
 70
     0
 10
0.0
 20
0.0
 30
0.0
  3
DC_GROUP_2
  1

  0
LINE
  5
17E
  8
LAYER0014
  6
CONTINUOUS
 62
     7
 10
-192.9310433881333
 20
165.333176761443
 30
0.0
 11
-194.931041795764
 21
165.8690762963406
 31
0.0
  0
LINE
  5
17F
  8
LAYER0014
  6
CONTINUOUS
 62
     7
 10
-194.931041795764
 20
165.8690762963406
 30
0.0
 11
-192.9310433881333
 21
166.4049758312382
 31
0.0
  0
LINE
  5
180
  8
LAYER0014
  6
CONTINUOUS
 62
     7
 10
-194.931041795764
 20
165.8690762963406
 30
0.0
 11
-192.9310433881333
 21
165.8690762963406
 31
0.0
  0
ENDBLK
  5
51
  8
0
  0
BLOCK
  8
0
  2
DC_GROUP_3
 70
     0
 10
0.0
 20
0.0
 30
0.0
  3
DC_GROUP_3
  1

  0
LINE
  5
181
  8
LAYER0014
  6
CONTINUOUS
 62
     7
 10
-79.69513005383509
 20
-14.11534607239594
 30
0.0
 11
-80.2310295887327
 21
-16.1153444800266
 31
0.0
  0
LINE
  5
182
  8
LAYER0014
  6
CONTINUOUS
 62
     7
 10
-80.2310295887327
 20
-16.1153444800266
 30
0.0
 11
-80.76692912363031
 21
-14.11534607239594
 31
0.0
  0
LINE
  5
183
  8
LAYER0014
  6
CONTINUOUS
 62
     7
 10
-80.2310295887327
 20
-16.1153444800266
 30
0.0
 11
-80.2310295887327
 21
-14.11534607239594
 31
0.0
  0
ENDBLK
  5
54
  8
0
  0
BLOCK
  8
0
  2
DC_GROUP_4
 70
     0
 10
0.0
 20
0.0
 30
0.0
  3
DC_GROUP_4
  1

  0
LINE
  5
184
  8
LAYER0014
  6
CONTINUOUS
 62
     7
 10
-197.471041795764
 20
77.88465551997339
 30
0.0
 11
-238.6226311512327
 21
77.88465551997339
 31
0.0
  0
LINE
  5
185
  8
LAYER0014
  6
CONTINUOUS
 62
     7
 10
-197.471041795764
 20
-20.1153444800266
 30
0.0
 11
-238.6226311512327
 21
-20.1153444800266
 31
0.0
  0
LINE
  5
186
  8
LAYER0014
  6
CONTINUOUS
 62
     7
 10
-236.3366356678343
 20
77.88465551997339
 30
0.0
 11
-236.3366356678343
 21
-20.1153444800266
 31
0.0
  0
INSERT
  5
187
  8
LAYER0014
  6
DOT2
  2
DC_GROUP_5
 10
0.0
 20
0.0
 30
0.0
  0
INSERT
  5
188
  8
LAYER0014
  6
DOT2
  2
DC_GROUP_6
 10
0.0
 20
0.0
 30
0.0
  0
TEXT
  5
18A
  8
LAYER0014
 62
     7
 10
-237.9505958578227
 20
20.88746023005254
 30
0.0
 40
4.0
  1
φ98H7
 50
89.90000000000001
 41
0.7396449704142014
  7
FDASTYLE1
 72
     5
 11
-237.9237446521935
 21
36.27205218256466
 31
0.0
  0
ENDBLK
  5
57
  8
0
  0
BLOCK
  8
0
  2
DC_GROUP_5
 70
     0
 10
0.0
 20
0.0
 30
0.0
  3
DC_GROUP_5
  1

  0
LINE
  5
18B
  8
LAYER0014
  6
CONTINUOUS
 62
     7
 10
-236.8725352027319
 20
75.88465711234274
 30
0.0
 11
-236.3366356678343
 21
77.88465551997339
 31
0.0
  0
LINE
  5
18C
  8
LAYER0014
  6
CONTINUOUS
 62
     7
 10
-236.3366356678343
 20
77.88465551997339
 30
0.0
 11
-235.8007361329367
 21
75.88465711234274
 31
0.0
  0
LINE
  5
18D
  8
LAYER0014
  6
CONTINUOUS
 62
     7
 10
-236.3366356678343
 20
77.88465551997339
 30
0.0
 11
-236.3366356678343
 21
75.88465711234274
 31
0.0
  0
ENDBLK
  5
5A
  8
0
  0
BLOCK
  8
0
  2
DC_GROUP_6
 70
     0
 10
0.0
 20
0.0
 30
0.0
  3
DC_GROUP_6
  1

  0
LINE
  5
18E
  8
LAYER0014
  6
CONTINUOUS
 62
     7
 10
-235.8007361329367
 20
-18.11534607239594
 30
0.0
 11
-236.3366356678343
 21
-20.1153444800266
 31
0.0
  0
LINE
  5
18F
  8
LAYER0014
  6
CONTINUOUS
 62
     7
 10
-236.3366356678343
 20
-20.1153444800266
 30
0.0
 11
-236.8725352027319
 21
-18.11534607239594
 31
0.0
  0
LINE
  5
190
  8
LAYER0014
  6
CONTINUOUS
 62
     7
 10
-236.3366356678343
 20
-20.1153444800266
 30
0.0
 11
-236.3366356678343
 21
-18.11534607239594
 31
0.0
  0
ENDBLK
  5
5D
  8
0
  0
BLOCK
  8
0
  2
DC_GROUP_7
 70
     0
 10
0.0
 20
0.0
 30
0.0
  3
DC_GROUP_7
  1

  0
LINE
  5
191
  8
LAYER0014
  6
CONTINUOUS
 62
     7
 10
-201.6710387440061
 20
141.3846555199734
 30
0.0
 11
-250.6226311512327
 21
141.3846555199734
 31
0.0
  0
LINE
  5
192
  8
LAYER0014
  6
CONTINUOUS
 62
     7
 10
-201.6710387440061
 20
-83.61534448002661
 30
0.0
 11
-250.6226311512327
 21
-83.61534448002661
 31
0.0
  0
LINE
  5
193
  8
LAYER0014
  6
CONTINUOUS
 62
     7
 10
-248.3366356678343
 20
141.3846555199734
 30
0.0
 11
-248.3366356678343
 21
-83.61534448002661
 31
0.0
  0
INSERT
  5
194
  8
LAYER0014
  6
DOT2
  2
DC_GROUP_8
 10
0.0
 20
0.0
 30
0.0
  0
INSERT
  5
195
  8
LAYER0014
  6
DOT2
  2
DC_GROUP_9
 10
0.0
 20
0.0
 30
0.0
  0
TEXT
  5
196
  8
LAYER0014
 62
     7
 10
-249.9533883832082
 20
19.28746266699129
 30
0.0
 40
4.0
  1
φ225H7
 50
89.90000000000001
 41
0.7492195629552542
  7
FDASTYLE1
 72
     5
 11
-249.9209590561515
 21
37.86807952834784
 31
0.0
  0
ENDBLK
  5
60
  8
0
  0
BLOCK
  8
0
  2
DC_GROUP_8
 70
     0
 10
0.0
 20
0.0
 30
0.0
  3
DC_GROUP_8
  1

  0
LINE
  5
197
  8
LAYER0014
  6
CONTINUOUS
 62
     7
 10
-248.8725352027319
 20
139.3846571123427
 30
0.0
 11
-248.3366356678343
 21
141.3846555199734
 31
0.0
  0
LINE
  5
198
  8
LAYER0014
  6
CONTINUOUS
 62
     7
 10
-248.3366356678343
 20
141.3846555199734
 30
0.0
 11
-247.8007361329367
 21
139.3846571123427
 31
0.0
  0
LINE
  5
199
  8
LAYER0014
  6
CONTINUOUS
 62
     7
 10
-248.3366356678343
 20
141.3846555199734
 30
0.0
 11
-248.3366356678343
 21
139.3846571123427
 31
0.0
  0
ENDBLK
  5
63
  8
0
  0
BLOCK
  8
0
  2
DC_GROUP_9
 70
     0
 10
0.0
 20
0.0
 30
0.0
  3
DC_GROUP_9
  1

  0
LINE
  5
19A
  8
LAYER0014
  6
CONTINUOUS
 62
     7
 10
-247.8007361329367
 20
-81.61534607239595
 30
0.0
 11
-248.3366356678343
 21
-83.61534448002661
 31
0.0
  0
LINE
  5
19B
  8
LAYER0014
  6
CONTINUOUS
 62
     7
 10
-248.3366356678343
 20
-83.61534448002661
 30
0.0
 11
-248.8725352027319
 21
-81.61534607239595
 31
0.0
  0
LINE
  5
19C
  8
LAYER0014
  6
CONTINUOUS
 62
     7
 10
-248.3366356678343
 20
-83.61534448002661
 30
0.0
 11
-248.3366356678343
 21
-81.61534607239595
 31
0.0
  0
ENDBLK
  5
66
  8
0
  0
BLOCK
  8
0
  2
DC_GROUP_10
 70
     0
 10
0.0
 20
0.0
 30
0.0
  3
DC_GROUP_10
  1

  0
LINE
  5
19D
  8
LAYER0014
  6
CONTINUOUS
 62
     7
 10
-201.6710387440061
 20
153.8846555199734
 30
0.0
 11
-262.6226311512327
 21
153.8846555199734
 31
0.0
  0
LINE
  5
19E
  8
LAYER0014
  6
CONTINUOUS
 62
     7
 10
-201.6710387440061
 20
-96.11534448002661
 30
0.0
 11
-262.6226311512327
 21
-96.11534448002661
 31
0.0
  0
LINE
  5
19F
  8
LAYER0014
  6
CONTINUOUS
 62
     7
 10
-260.3366356678343
 20
153.8846555199734
 30
0.0
 11
-260.3366356678343
 21
-96.11534448002661
 31
0.0
  0
INSERT
  5
1A0
  8
LAYER0014
  6
DOT2
  2
DC_GROUP_11
 10
0.0
 20
0.0
 30
0.0
  0
INSERT
  5
1A1
  8
LAYER0014
  6
DOT2
  2
DC_GROUP_12
 10
0.0
 20
0.0
 30
0.0
  0
TEXT
  5
1A2
  8
LAYER0014
 62
     7
 10
-261.9478033324373
 20
22.48745779311382
 30
0.0
 40
4.0
  1
φ250
 50
89.90000000000001
 41
0.725623582766439
  7
FDASTYLE1
 72
     5
 11
-261.9265269485483
 21
34.67791541643769
 31
0.0
  0
ENDBLK
  5
69
  8
0
  0
BLOCK
  8
0
  2
DC_GROUP_11
 70
     0
 10
0.0
 20
0.0
 30
0.0
  3
DC_GROUP_11
  1

  0
LINE
  5
1A3
  8
LAYER0014
  6
CONTINUOUS
 62
     7
 10
-260.8725352027319
 20
151.8846571123427
 30
0.0
 11
-260.3366356678343
 21
153.8846555199734
 31
0.0
  0
LINE
  5
1A4
  8
LAYER0014
  6
CONTINUOUS
 62
     7
 10
-260.3366356678343
 20
153.8846555199734
 30
0.0
 11
-259.8007361329367
 21
151.8846571123427
 31
0.0
  0
LINE
  5
1A5
  8
LAYER0014
  6
CONTINUOUS
 62
     7
 10
-260.3366356678343
 20
153.8846555199734
 30
0.0
 11
-260.3366356678343
 21
151.8846571123427
 31
0.0
  0
ENDBLK
  5
6C
  8
0
  0
BLOCK
  8
0
  2
DC_GROUP_12
 70
     0
 10
0.0
 20
0.0
 30
0.0
  3
DC_GROUP_12
  1

  0
LINE
  5
1A6
  8
LAYER0014
  6
CONTINUOUS
 62
     7
 10
-259.8007361329367
 20
-94.11534607239594
 30
0.0
 11
-260.3366356678343
 21
-96.11534448002661
 31
0.0
  0
LINE
  5
1A7
  8
LAYER0014
  6
CONTINUOUS
 62
     7
 10
-260.3366356678343
 20
-96.11534448002661
 30
0.0
 11
-260.8725352027319
 21
-94.11534607239594
 31
0.0
  0
LINE
  5
1A8
  8
LAYER0014
  6
CONTINUOUS
 62
     7
 10
-260.3366356678343
 20
-96.11534448002661
 30
0.0
 11
-260.3366356678343
 21
-94.11534607239594
 31
0.0
  0
ENDBLK
  5
6F
  8
0
  0
BLOCK
  8
0
  2
DC_GROUP_13
 70
     0
 10
0.0
 20
0.0
 30
0.0
  3
DC_GROUP_13
  1

  0
LINE
  5
1A9
  8
LAYER0014
  6
CONTINUOUS
 62
     7
 10
-179.952770311389
 20
9.956844851028087
 30
0.0
 11
-150.952770311389
 21
9.956844851028087
 31
0.0
  0
INSERT
  5
1AA
  8
LAYER0014
  6
DOT2
  2
DC_GROUP_14
 10
0.0
 20
0.0
 30
0.0
  0
INSERT
  5
1AB
  8
LAYER0014
  6
DOT2
  2
DC_GROUP_15
 10
0.0
 20
0.0
 30
0.0
  0
TEXT
  5
1AC
  8
LAYER0014
 62
     7
 10
-168.652770311389
 20
11.55684485102809
 30
0.0
 40
4.0
  1
29
 41
0.7999999999999972
  7
FDASTYLE1
 72
     5
 11
-162.252770311389
 21
11.55684485102809
 31
0.0
  0
ENDBLK
  5
72
  8
0
  0
BLOCK
  8
0
  2
DC_GROUP_14
 70
     0
 10
0.0
 20
0.0
 30
0.0
  3
DC_GROUP_14
  1

  0
LINE
  5
1AD
  8
LAYER0014
  6
CONTINUOUS
 62
     7
 10
-177.9527719037583
 20
9.42094531613048
 30
0.0
 11
-179.952770311389
 21
9.956844851028087
 31
0.0
  0
LINE
  5
1AE
  8
LAYER0014
  6
CONTINUOUS
 62
     7
 10
-179.952770311389
 20
9.956844851028087
 30
0.0
 11
-177.9527719037583
 21
10.4927443859257
 31
0.0
  0
LINE
  5
1AF
  8
LAYER0014
  6
CONTINUOUS
 62
     7
 10
-179.952770311389
 20
9.956844851028087
 30
0.0
 11
-177.9527719037583
 21
9.956844851028087
 31
0.0
  0
ENDBLK
  5
75
  8
0
  0
BLOCK
  8
0
  2
DC_GROUP_15
 70
     0
 10
0.0
 20
0.0
 30
0.0
  3
DC_GROUP_15
  1

  0
LINE
  5
1B0
  8
LAYER0014
  6
CONTINUOUS
 62
     7
 10
-152.9527687190196
 20
10.4927443859257
 30
0.0
 11
-150.952770311389
 21
9.956844851028087
 31
0.0
  0
LINE
  5
1B1
  8
LAYER0014
  6
CONTINUOUS
 62
     7
 10
-150.952770311389
 20
9.956844851028087
 30
0.0
 11
-152.9527687190196
 21
9.42094531613048
 31
0.0
  0
LINE
  5
1B2
  8
LAYER0014
  6
CONTINUOUS
 62
     7
 10
-150.952770311389
 20
9.956844851028087
 30
0.0
 11
-152.9527687190196
 21
9.956844851028087
 31
0.0
  0
ENDBLK
  5
78
  8
0
  0
BLOCK
  8
0
  2
DC_GROUP_16
 70
     0
 10
0.0
 20
0.0
 30
0.0
  3
DC_GROUP_16
  1

  0
LINE
  5
1B3
  8
LAYER0014
  6
CONTINUOUS
 62
     7
 10
-150.952770311389
 20
9.956844851028087
 30
0.0
 11
-132.952770311389
 21
9.956844851028087
 31
0.0
  0
INSERT
  5
1B4
  8
LAYER0014
  6
DOT2
  2
DC_GROUP_17
 10
0.0
 20
0.0
 30
0.0
  0
INSERT
  5
1B5
  8
LAYER0014
  6
CONTINUOUS
  2
DC_GROUP_18
 10
0.0
 20
0.0
 30
0.0
  0
TEXT
  5
1B6
  8
LAYER0014
 62
     7
 10
-145.152770311389
 20
11.55684485102809
 30
0.0
 40
4.0
  1
18
 41
0.7999999999999972
  7
FDASTYLE1
 72
     5
 11
-138.752770311389
 21
11.55684485102809
 31
0.0
  0
ENDBLK
  5
7B
  8
0
  0
BLOCK
  8
0
  2
DC_GROUP_17
 70
     0
 10
0.0
 20
0.0
 30
0.0
  3
DC_GROUP_17
  1

  0
LINE
  5
1B7
  8
LAYER0014
  6
CONTINUOUS
 62
     7
 10
-148.9527719037583
 20
9.42094531613048
 30
0.0
 11
-150.952770311389
 21
9.956844851028087
 31
0.0
  0
LINE
  5
1B8
  8
LAYER0014
  6
CONTINUOUS
 62
     7
 10
-150.952770311389
 20
9.956844851028087
 30
0.0
 11
-148.9527719037583
 21
10.4927443859257
 31
0.0
  0
LINE
  5
1B9
  8
LAYER0014
  6
CONTINUOUS
 62
     7
 10
-150.952770311389
 20
9.956844851028087
 30
0.0
 11
-148.9527719037583
 21
9.956844851028087
 31
0.0
  0
ENDBLK
  5
7E
  8
0
  0
BLOCK
  8
0
  2
DC_GROUP_18
 70
     0
 10
0.0
 20
0.0
 30
0.0
  3
DC_GROUP_18
  1

  0
LINE
  5
1BA
  8
LAYER0014
  6
CONTINUOUS
 62
     7
 10
-134.9527687190196
 20
10.4927443859257
 30
0.0
 11
-132.952770311389
 21
9.956844851028087
 31
0.0
  0
LINE
  5
1BB
  8
LAYER0014
  6
CONTINUOUS
 62
     7
 10
-132.952770311389
 20
9.956844851028087
 30
0.0
 11
-134.9527687190196
 21
9.42094531613048
 31
0.0
  0
LINE
  5
1BC
  8
LAYER0014
  6
CONTINUOUS
 62
     7
 10
-132.952770311389
 20
9.956844851028087
 30
0.0
 11
-134.9527687190196
 21
9.956844851028087
 31
0.0
  0
ENDBLK
  5
81
  8
0
  0
BLOCK
  8
0
  2
DC_GROUP_19
 70
     0
 10
0.0
 20
0.0
 30
0.0
  3
DC_GROUP_19
  1

  0
LINE
  5
1BD
  8
LAYER0014
  6
CONTINUOUS
 62
     7
 10
-132.952770311389
 20
9.956844851028087
 30
0.0
 11
-122.952770311389
 21
9.956844851028087
 31
0.0
  0
INSERT
  5
1BE
  8
LAYER0014
  6
CONTINUOUS
  2
DC_GROUP_20
 10
0.0
 20
0.0
 30
0.0
  0
INSERT
  5
1BF
  8
LAYER0014
  6
CONTINUOUS
  2
DC_GROUP_21
 10
0.0
 20
0.0
 30
0.0
  0
TEXT
  5
1C0
  8
LAYER0014
 62
     7
 10
-131.152770311389
 20
11.55684485102809
 30
0.0
 40
4.0
  1
10
 41
0.8000000000000007
  7
FDASTYLE1
 72
     5
 11
-124.752770311389
 21
11.55684485102809
 31
0.0
  0
ENDBLK
  5
84
  8
0
  0
BLOCK
  8
0
  2
DC_GROUP_20
 70
     0
 10
0.0
 20
0.0
 30
0.0
  3
DC_GROUP_20
  1

  0
LINE
  5
1C1
  8
LAYER0014
  6
CONTINUOUS
 62
     7
 10
-130.9527719037583
 20
9.42094531613048
 30
0.0
 11
-132.952770311389
 21
9.956844851028087
 31
0.0
  0
LINE
  5
1C2
  8
LAYER0014
  6
CONTINUOUS
 62
     7
 10
-132.952770311389
 20
9.956844851028087
 30
0.0
 11
-130.9527719037583
 21
10.4927443859257
 31
0.0
  0
LINE
  5
1C3
  8
LAYER0014
  6
CONTINUOUS
 62
     7
 10
-132.952770311389
 20
9.956844851028087
 30
0.0
 11
-130.9527719037583
 21
9.956844851028087
 31
0.0
  0
ENDBLK
  5
87
  8
0
  0
BLOCK
  8
0
  2
DC_GROUP_21
 70
     0
 10
0.0
 20
0.0
 30
0.0
  3
DC_GROUP_21
  1

  0
LINE
  5
1C4
  8
LAYER0014
  6
CONTINUOUS
 62
     7
 10
-124.9527687190196
 20
10.4927443859257
 30
0.0
 11
-122.952770311389
 21
9.956844851028087
 31
0.0
  0
LINE
  5
1C5
  8
LAYER0014
  6
CONTINUOUS
 62
     7
 10
-122.952770311389
 20
9.956844851028087
 30
0.0
 11
-124.9527687190196
 21
9.42094531613048
 31
0.0
  0
LINE
  5
1C6
  8
LAYER0014
  6
CONTINUOUS
 62
     7
 10
-122.952770311389
 20
9.956844851028087
 30
0.0
 11
-124.9527687190196
 21
9.956844851028087
 31
0.0
  0
ENDBLK
  5
8A
  8
0
  0
BLOCK
  8
0
  2
DC_GROUP_22
 70
     0
 10
0.0
 20
0.0
 30
0.0
  3
DC_GROUP_22
  1

  0
LINE
  5
1C7
  8
LAYER0014
  6
CONTINUOUS
 62
     7
 10
-219.6710387440061
 20
-31.79034753178441
 30
0.0
 11
-238.6226311512327
 21
-31.79034753178441
 31
0.0
  0
LINE
  5
1C8
  8
LAYER0014
  6
CONTINUOUS
 62
     7
 10
-219.6710387440061
 20
-43.79034753178441
 30
0.0
 11
-238.6226311512327
 21
-43.79034753178441
 31
0.0
  0
LINE
  5
1C9
  8
LAYER0014
  6
CONTINUOUS
 62
     7
 10
-236.3366356678343
 20
-31.79034753178441
 30
0.0
 11
-236.3366356678343
 21
-43.79034753178441
 31
0.0
  0
INSERT
  5
1CA
  8
LAYER0014
  6
DOT2
  2
DC_GROUP_23
 10
0.0
 20
0.0
 30
0.0
  0
INSERT
  5
1CB
  8
LAYER0014
  6
DOT2
  2
DC_GROUP_24
 10
0.0
 20
0.0
 30
0.0
  0
TEXT
  5
1CC
  8
LAYER0014
 62
     7
 10
-237.9450108070519
 20
-42.58754769558276
 30
0.0
 40
4.0
  1
M12
 50
89.90000000000001
 41
0.8000000000000019
  7
FDASTYLE1
 72
     5
 11
-237.9282556547393
 21
-32.98756231721517
 31
0.0
  0
ENDBLK
  5
8D
  8
0
  0
BLOCK
  8
0
  2
DC_GROUP_23
 70
     0
 10
0.0
 20
0.0
 30
0.0
  3
DC_GROUP_23
  1

  0
LINE
  5
1CD
  8
LAYER0014
  6
CONTINUOUS
 62
     7
 10
-236.8725352027319
 20
-33.79034593941508
 30
0.0
 11
-236.3366356678343
 21
-31.79034753178441
 31
0.0
  0
LINE
  5
1CE
  8
LAYER0014
  6
CONTINUOUS
 62
     7
 10
-236.3366356678343
 20
-31.79034753178441
 30
0.0
 11
-235.8007361329367
 21
-33.79034593941508
 31
0.0
  0
LINE
  5
1CF
  8
LAYER0014
  6
CONTINUOUS
 62
     7
 10
-236.3366356678343
 20
-31.79034753178441
 30
0.0
 11
-236.3366356678343
 21
-33.79034593941508
 31
0.0
  0
ENDBLK
  5
90
  8
0
  0
BLOCK
  8
0
  2
DC_GROUP_24
 70
     0
 10
0.0
 20
0.0
 30
0.0
  3
DC_GROUP_24
  1

  0
LINE
  5
1D0
  8
LAYER0014
  6
CONTINUOUS
 62
     7
 10
-235.8007361329367
 20
-41.79034912415375
 30
0.0
 11
-236.3366356678343
 21
-43.79034753178441
 31
0.0
  0
LINE
  5
1D1
  8
LAYER0014
  6
CONTINUOUS
 62
     7
 10
-236.3366356678343
 20
-43.79034753178441
 30
0.0
 11
-236.8725352027319
 21
-41.79034912415375
 31
0.0
  0
LINE
  5
1D2
  8
LAYER0014
  6
CONTINUOUS
 62
     7
 10
-236.3366356678343
 20
-43.79034753178441
 30
0.0
 11
-236.3366356678343
 21
-41.79034912415375
 31
0.0
  0
ENDBLK
  5
93
  8
0
  0
BLOCK
  8
0
  2
DC_GROUP_25
 70
     0
 10
0.0
 20
0.0
 30
0.0
  3
DC_GROUP_25
  1

  0
LINE
  5
1D3
  8
LAYER0014
  6
CONTINUOUS
 62
     7
 10
-106.6310387440062
 20
9.956844851028087
 30
0.0
 11
-104.1310387440061
 21
9.956844851028087
 31
0.0
  0
LINE
  5
1D4
  8
LAYER0014
  6
CONTINUOUS
 62
     7
 10
-106.6310387440062
 20
9.956844851028087
 30
0.0
 11
-112.9810387440062
 21
9.956844851028087
 31
0.0
  0
LINE
  5
1D5
  8
LAYER0014
  6
CONTINUOUS
 62
     7
 10
-97.78103874400614
 20
9.956844851028087
 30
0.0
 11
-104.1310387440061
 21
9.956844851028087
 31
0.0
  0
INSERT
  5
1D6
  8
LAYER0014
  6
CONTINUOUS
  2
DC_GROUP_26
 10
0.0
 20
0.0
 30
0.0
  0
INSERT
  5
1D7
  8
LAYER0014
  6
CONTINUOUS
  2
DC_GROUP_27
 10
0.0
 20
0.0
 30
0.0
  0
TEXT
  5
1D8
  8
LAYER0014
 62
     7
 10
-99.9122019204998
 20
11.56521999024566
 30
0.0
 40
4.0
  1
2.5
 50
-0.1000000000000078
 41
0.8000000000000002
  7
FDASTYLE1
 72
     5
 11
-90.31221654213223
 21
11.54846483793304
 31
0.0
  0
ENDBLK
  5
96
  8
0
  0
BLOCK
  8
0
  2
DC_GROUP_26
 70
     0
 10
0.0
 20
0.0
 30
0.0
  3
DC_GROUP_26
  1

  0
LINE
  5
1D9
  8
LAYER0014
  6
CONTINUOUS
 62
     7
 10
-108.6310371516369
 20
10.4927443859257
 30
0.0
 11
-106.6310387440062
 21
9.956844851028087
 31
0.0
  0
LINE
  5
1DA
  8
LAYER0014
  6
CONTINUOUS
 62
     7
 10
-106.6310387440062
 20
9.956844851028087
 30
0.0
 11
-108.6310371516369
 21
9.42094531613048
 31
0.0
  0
LINE
  5
1DB
  8
LAYER0014
  6
CONTINUOUS
 62
     7
 10
-106.6310387440062
 20
9.956844851028087
 30
0.0
 11
-108.6310371516369
 21
9.956844851028087
 31
0.0
  0
ENDBLK
  5
99
  8
0
  0
BLOCK
  8
0
  2
DC_GROUP_27
 70
     0
 10
0.0
 20
0.0
 30
0.0
  3
DC_GROUP_27
  1

  0
LINE
  5
1DC
  8
LAYER0014
  6
CONTINUOUS
 62
     7
 10
-102.1310403363755
 20
9.42094531613048
 30
0.0
 11
-104.1310387440061
 21
9.956844851028087
 31
0.0
  0
LINE
  5
1DD
  8
LAYER0014
  6
CONTINUOUS
 62
     7
 10
-104.1310387440061
 20
9.956844851028087
 30
0.0
 11
-102.1310403363755
 21
10.4927443859257
 31
0.0
  0
LINE
  5
1DE
  8
LAYER0014
  6
CONTINUOUS
 62
     7
 10
-104.1310387440061
 20
9.956844851028087
 30
0.0
 11
-102.1310403363755
 21
9.956844851028087
 31
0.0
  0
ENDBLK
  5
9C
  8
0
  0
BLOCK
  8
0
  2
DC_GROUP_28
 70
     0
 10
0.0
 20
0.0
 30
0.0
  3
DC_GROUP_28
  1

  0
LINE
  5
1DF
  8
LAYER0014
  6
CONTINUOUS
 62
     7
 10
-199.1310540027952
 20
-120.631281369675
 30
0.0
 11
-199.1310540027952
 21
-142.6544374976047
 31
0.0
  0
LINE
  5
1E0
  8
LAYER0014
  6
CONTINUOUS
 62
     7
 10
-104.1310387440061
 20
-96.6553444800266
 30
0.0
 11
-104.1310387440061
 21
-142.6544374976047
 31
0.0
  0
LINE
  5
1E1
  8
LAYER0014
  6
CONTINUOUS
 62
     7
 10
-199.1310387440062
 20
-140.3684420142063
 30
0.0
 11
-104.1310387440061
 21
-140.3684420142063
 31
0.0
  0
INSERT
  5
1E2
  8
LAYER0014
  6
CONTINUOUS
  2
DC_GROUP_29
 10
0.0
 20
0.0
 30
0.0
  0
INSERT
  5
1E3
  8
LAYER0014
  6
CONTINUOUS
  2
DC_GROUP_30
 10
0.0
 20
0.0
 30
0.0
  0
TEXT
  5
1E4
  8
LAYER0014
 62
     7
 10
-154.8282413447432
 20
-138.7628594003741
 30
0.0
 40
4.0
  1
95
 50
-0.1000000000000078
 41
0.7999999999999954
  7
FDASTYLE1
 72
     5
 11
-148.4282510924982
 21
-138.7740295019159
 31
0.0
  0
ENDBLK
  5
9F
  8
0
  0
BLOCK
  8
0
  2
DC_GROUP_29
 70
     0
 10
0.0
 20
0.0
 30
0.0
  3
DC_GROUP_29
  1

  0
LINE
  5
1E5
  8
LAYER0014
  6
CONTINUOUS
 62
     7
 10
-197.1310403363756
 20
-140.9043415491039
 30
0.0
 11
-199.1310387440062
 21
-140.3684420142063
 31
0.0
  0
LINE
  5
1E6
  8
LAYER0014
  6
CONTINUOUS
 62
     7
 10
-199.1310387440062
 20
-140.3684420142063
 30
0.0
 11
-197.1310403363756
 21
-139.8325424793087
 31
0.0
  0
LINE
  5
1E7
  8
LAYER0014
  6
CONTINUOUS
 62
     7
 10
-199.1310387440062
 20
-140.3684420142063
 30
0.0
 11
-197.1310403363756
 21
-140.3684420142063
 31
0.0
  0
ENDBLK
  5
A2
  8
0
  0
BLOCK
  8
0
  2
DC_GROUP_30
 70
     0
 10
0.0
 20
0.0
 30
0.0
  3
DC_GROUP_30
  1

  0
LINE
  5
1E8
  8
LAYER0014
  6
CONTINUOUS
 62
     7
 10
-106.1310371516368
 20
-139.8325424793087
 30
0.0
 11
-104.1310387440061
 21
-140.3684420142063
 31
0.0
  0
LINE
  5
1E9
  8
LAYER0014
  6
CONTINUOUS
 62
     7
 10
-104.1310387440061
 20
-140.3684420142063
 30
0.0
 11
-106.1310371516368
 21
-140.9043415491039
 31
0.0
  0
LINE
  5
1EA
  8
LAYER0014
  6
CONTINUOUS
 62
     7
 10
-104.1310387440061
 20
-140.3684420142063
 30
0.0
 11
-106.1310371516368
 21
-140.3684420142063
 31
0.0
  0
ENDBLK
  5
A5
  8
0
  0
BLOCK
  8
0
  2
DC_GROUP_31
 70
     0
 10
0.0
 20
0.0
 30
0.0
  3
DC_GROUP_31
  1

  0
LINE
  5
1EB
  8
LAYER0014
  6
CONTINUOUS
 62
     7
 10
-104.1310387440061
 20
154.4246555199734
 30
0.0
 11
-104.1310387440061
 21
166.8690762963406
 31
0.0
  0
LINE
  5
1EC
  8
LAYER0014
  6
CONTINUOUS
 62
     7
 10
-105.1310387440061
 20
156.4246555199734
 30
0.0
 11
-105.1310387440061
 21
166.8690762963406
 31
0.0
  0
LINE
  5
1ED
  8
LAYER0014
  6
CONTINUOUS
 62
     7
 10
-104.1310387440061
 20
165.8690762963406
 30
0.0
 11
-105.1310387440061
 21
165.8690762963406
 31
0.0
  0
LINE
  5
1EE
  8
LAYER0014
  6
CONTINUOUS
 62
     7
 10
-104.1310387440061
 20
165.8690762963406
 30
0.0
 11
-97.78103874400614
 21
165.8690762963406
 31
0.0
  0
LINE
  5
1EF
  8
LAYER0014
  6
CONTINUOUS
 62
     7
 10
-111.4810387440062
 20
165.8690762963406
 30
0.0
 11
-105.1310387440061
 21
165.8690762963406
 31
0.0
  0
INSERT
  5
1F0
  8
LAYER0014
  6
CONTINUOUS
  2
DC_GROUP_32
 10
0.0
 20
0.0
 30
0.0
  0
INSERT
  5
1F1
  8
LAYER0014
  6
CONTINUOUS
  2
DC_GROUP_33
 10
0.0
 20
0.0
 30
0.0
  0
TEXT
  5
1F2
  8
LAYER0014
 62
     7
 10
-100.3776985950804
 20
167.4690762963406
 30
0.0
 40
4.0
  1
1
 41
0.7999999999999972
  7
FDASTYLE1
 72
     5
 11
-97.17769859508036
 21
167.4690762963406
 31
0.0
  0
ENDBLK
  5
A8
  8
0
  0
BLOCK
  8
0
  2
DC_GROUP_32
 70
     0
 10
0.0
 20
0.0
 30
0.0
  3
DC_GROUP_32
  1

  0
LINE
  5
1F3
  8
LAYER0014
  6
CONTINUOUS
 62
     7
 10
-102.1310403363755
 20
165.333176761443
 30
0.0
 11
-104.1310387440061
 21
165.8690762963406
 31
0.0
  0
LINE
  5
1F4
  8
LAYER0014
  6
CONTINUOUS
 62
     7
 10
-104.1310387440061
 20
165.8690762963406
 30
0.0
 11
-102.1310403363755
 21
166.4049758312382
 31
0.0
  0
LINE
  5
1F5
  8
LAYER0014
  6
CONTINUOUS
 62
     7
 10
-104.1310387440061
 20
165.8690762963406
 30
0.0
 11
-102.1310403363755
 21
165.8690762963406
 31
0.0
  0
ENDBLK
  5
AB
  8
0
  0
BLOCK
  8
0
  2
DC_GROUP_33
 70
     0
 10
0.0
 20
0.0
 30
0.0
  3
DC_GROUP_33
  1

  0
LINE
  5
1F6
  8
LAYER0014
  6
CONTINUOUS
 62
     7
 10
-107.1310371516368
 20
166.4049758312382
 30
0.0
 11
-105.1310387440061
 21
165.8690762963406
 31
0.0
  0
LINE
  5
1F7
  8
LAYER0014
  6
CONTINUOUS
 62
     7
 10
-105.1310387440061
 20
165.8690762963406
 30
0.0
 11
-107.1310371516368
 21
165.333176761443
 31
0.0
  0
LINE
  5
1F8
  8
LAYER0014
  6
CONTINUOUS
 62
     7
 10
-105.1310387440061
 20
165.8690762963406
 30
0.0
 11
-107.1310371516368
 21
165.8690762963406
 31
0.0
  0
ENDBLK
  5
AE
  8
0
  0
BLOCK
  8
0
  2
DC_GROUP_34
 70
     0
 10
0.0
 20
0.0
 30
0.0
  3
DC_GROUP_34
  1

  0
LINE
  5
1F9
  8
LAYER0014
  6
CONTINUOUS
 62
     7
 10
-70.28867057994364
 20
100.8846555199734
 30
0.0
 11
-65.94503410533426
 21
100.8846555199734
 31
0.0
  0
LINE
  5
1FA
  8
LAYER0014
  6
CONTINUOUS
 62
     7
 10
-112.5910387440062
 20
81.88465551997339
 30
0.0
 11
-65.94503410533426
 21
81.88465551997339
 31
0.0
  0
LINE
  5
1FB
  8
LAYER0014
  6
CONTINUOUS
 62
     7
 10
-68.23103340342996
 20
100.8846555199734
 30
0.0
 11
-68.23103340342996
 21
81.88465551997339
 31
0.0
  0
INSERT
  5
1FC
  8
LAYER0014
  6
CONTINUOUS
  2
DC_GROUP_35
 10
0.0
 20
0.0
 30
0.0
  0
INSERT
  5
1FD
  8
LAYER0014
  6
CONTINUOUS
  2
DC_GROUP_36
 10
0.0
 20
0.0
 30
0.0
  0
TEXT
  5
1FE
  8
LAYER0014
 62
     7
 10
-69.84499359341842
 20
83.38746023005253
 30
0.0
 40
4.0
  1
NIN13
 50
89.90000000000001
 41
0.8000000000000004
  7
FDASTYLE1
 72
     5
 11
-69.81706833956405
 21
99.38743586066514
 31
0.0
  0
ENDBLK
  5
B1
  8
0
  0
BLOCK
  8
0
  2
DC_GROUP_35
 70
     0
 10
0.0
 20
0.0
 30
0.0
  3
DC_GROUP_35
  1

  0
LINE
  5
1FF
  8
LAYER0014
  6
CONTINUOUS
 62
     7
 10
-68.76693293832757
 20
98.88465711234274
 30
0.0
 11
-68.23103340342996
 21
100.8846555199734
 31
0.0
  0
LINE
  5
200
  8
LAYER0014
  6
CONTINUOUS
 62
     7
 10
-68.23103340342996
 20
100.8846555199734
 30
0.0
 11
-67.69513386853234
 21
98.88465711234274
 31
0.0
  0
LINE
  5
201
  8
LAYER0014
  6
CONTINUOUS
 62
     7
 10
-68.23103340342996
 20
100.8846555199734
 30
0.0
 11
-68.23103340342996
 21
98.88465711234274
 31
0.0
  0
ENDBLK
  5
B4
  8
0
  0
BLOCK
  8
0
  2
DC_GROUP_36
 70
     0
 10
0.0
 20
0.0
 30
0.0
  3
DC_GROUP_36
  1

  0
LINE
  5
202
  8
LAYER0014
  6
CONTINUOUS
 62
     7
 10
-67.69513386853234
 20
83.88465392760405
 30
0.0
 11
-68.23103340342996
 21
81.88465551997339
 31
0.0
  0
LINE
  5
203
  8
LAYER0014
  6
CONTINUOUS
 62
     7
 10
-68.23103340342996
 20
81.88465551997339
 30
0.0
 11
-68.76693293832757
 21
83.88465392760405
 31
0.0
  0
LINE
  5
204
  8
LAYER0014
  6
CONTINUOUS
 62
     7
 10
-68.23103340342996
 20
81.88465551997339
 30
0.0
 11
-68.23103340342996
 21
83.88465392760405
 31
0.0
  0
ENDBLK
  5
B7
  8
0
  0
BLOCK
  8
0
  2
DC_GROUP_37
 70
     0
 10
0.0
 20
0.0
 30
0.0
  3
DC_GROUP_37
  1

  0
LINE
  5
205
  8
LAYER0014
  6
CONTINUOUS
 62
     7
 10
-64.51499275401591
 20
28.8846555199734
 30
0.0
 11
-53.92838676646707
 21
28.8846555199734
 31
0.0
  0
LINE
  5
206
  8
LAYER0014
  6
CONTINUOUS
 62
     7
 10
-101.5910387440061
 20
81.88465551997339
 30
0.0
 11
-53.92838676646707
 21
81.88465551997339
 31
0.0
  0
LINE
  5
207
  8
LAYER0014
  6
CONTINUOUS
 62
     7
 10
-56.21438987926004
 20
28.8846555199734
 30
0.0
 11
-56.21438987926004
 21
81.88465551997339
 31
0.0
  0
INSERT
  5
208
  8
LAYER0014
  6
CONTINUOUS
  2
DC_GROUP_38
 10
0.0
 20
0.0
 30
0.0
  0
INSERT
  5
209
  8
LAYER0014
  6
CONTINUOUS
  2
DC_GROUP_39
 10
0.0
 20
0.0
 30
0.0
  0
TEXT
  5
20A
  8
LAYER0014
 62
     7
 10
-57.8367276454048
 20
42.58746754086875
 30
0.0
 40
4.0
  1
MAX 54.9
 50
89.90000000000001
 41
0.8000000000000005
  7
FDASTYLE1
 72
     5
 11
-57.7920472392378
 21
68.18742854984893
 31
0.0
  0
ENDBLK
  5
BA
  8
0
  0
BLOCK
  8
0
  2
DC_GROUP_38
 70
     0
 10
0.0
 20
0.0
 30
0.0
  3
DC_GROUP_38
  1

  0
LINE
  5
20B
  8
LAYER0014
  6
CONTINUOUS
 62
     7
 10
-55.67849034436243
 20
30.88465392760406
 30
0.0
 11
-56.21438987926004
 21
28.8846555199734
 31
0.0
  0
LINE
  5
20C
  8
LAYER0014
  6
CONTINUOUS
 62
     7
 10
-56.21438987926004
 20
28.8846555199734
 30
0.0
 11
-56.75028941415765
 21
30.88465392760406
 31
0.0
  0
LINE
  5
20D
  8
LAYER0014
  6
CONTINUOUS
 62
     7
 10
-56.21438987926004
 20
28.8846555199734
 30
0.0
 11
-56.21438987926004
 21
30.88465392760406
 31
0.0
  0
ENDBLK
  5
BD
  8
0
  0
BLOCK
  8
0
  2
DC_GROUP_39
 70
     0
 10
0.0
 20
0.0
 30
0.0
  3
DC_GROUP_39
  1

  0
LINE
  5
20E
  8
LAYER0014
  6
CONTINUOUS
 62
     7
 10
-56.75028941415765
 20
79.88465711234272
 30
0.0
 11
-56.21438987926004
 21
81.88465551997339
 31
0.0
  0
LINE
  5
20F
  8
LAYER0014
  6
CONTINUOUS
 62
     7
 10
-56.21438987926004
 20
81.88465551997339
 30
0.0
 11
-55.67849034436243
 21
79.88465711234272
 31
0.0
  0
LINE
  5
210
  8
LAYER0014
  6
CONTINUOUS
 62
     7
 10
-56.21438987926004
 20
81.88465551997339
 30
0.0
 11
-56.21438987926004
 21
79.88465711234272
 31
0.0
  0
ENDBLK
  5
C0
  8
0
  0
BLOCK
  8
0
  2
DC_GROUP_40
 70
     0
 10
0.0
 20
0.0
 30
0.0
  3
DC_GROUP_40
  1

  0
LINE
  5
211
  8
LAYER0014
  6
CONTINUOUS
 62
     7
 10
-100.5910387440061
 20
81.88465551997339
 30
0.0
 11
-41.92838676646707
 21
81.88465551997339
 31
0.0
  0
LINE
  5
212
  8
LAYER0014
  6
CONTINUOUS
 62
     7
 10
-100.659985582385
 20
153.8846555199734
 30
0.0
 11
-41.92838676646707
 21
153.8846555199734
 31
0.0
  0
LINE
  5
213
  8
LAYER0014
  6
CONTINUOUS
 62
     7
 10
-44.21438987926004
 20
81.88465551997339
 30
0.0
 11
-44.21438987926004
 21
153.8846555199734
 31
0.0
  0
INSERT
  5
214
  8
LAYER0014
  6
CONTINUOUS
  2
DC_GROUP_41
 10
0.0
 20
0.0
 30
0.0
  0
INSERT
  5
215
  8
LAYER0014
  6
CONTINUOUS
  2
DC_GROUP_42
 10
0.0
 20
0.0
 30
0.0
  0
TEXT
  5
216
  8
LAYER0014
 62
     7
 10
-45.81997249309217
 20
114.6874529192363
 30
0.0
 40
4.0
  1
72
 50
89.90000000000001
 41
0.8000000000000025
  7
FDASTYLE1
 72
     5
 11
-45.80880239155042
 21
121.0874431714814
 31
0.0
  0
ENDBLK
  5
C3
  8
0
  0
BLOCK
  8
0
  2
DC_GROUP_41
 70
     0
 10
0.0
 20
0.0
 30
0.0
  3
DC_GROUP_41
  1

  0
LINE
  5
217
  8
LAYER0014
  6
CONTINUOUS
 62
     7
 10
-43.67849034436243
 20
83.88465392760404
 30
0.0
 11
-44.21438987926004
 21
81.88465551997339
 31
0.0
  0
LINE
  5
218
  8
LAYER0014
  6
CONTINUOUS
 62
     7
 10
-44.21438987926004
 20
81.88465551997339
 30
0.0
 11
-44.75028941415765
 21
83.88465392760405
 31
0.0
  0
LINE
  5
219
  8
LAYER0014
  6
CONTINUOUS
 62
     7
 10
-44.21438987926004
 20
81.88465551997339
 30
0.0
 11
-44.21438987926004
 21
83.88465392760405
 31
0.0
  0
ENDBLK
  5
C6
  8
0
  0
BLOCK
  8
0
  2
DC_GROUP_42
 70
     0
 10
0.0
 20
0.0
 30
0.0
  3
DC_GROUP_42
  1

  0
LINE
  5
21A
  8
LAYER0014
  6
CONTINUOUS
 62
     7
 10
-44.75028941415765
 20
151.8846571123427
 30
0.0
 11
-44.21438987926004
 21
153.8846555199734
 31
0.0
  0
LINE
  5
21B
  8
LAYER0014
  6
CONTINUOUS
 62
     7
 10
-44.21438987926004
 20
153.8846555199734
 30
0.0
 11
-43.67849034436243
 21
151.8846571123427
 31
0.0
  0
LINE
  5
21C
  8
LAYER0014
  6
CONTINUOUS
 62
     7
 10
-44.21438987926004
 20
153.8846555199734
 30
0.0
 11
-44.21438987926004
 21
151.8846571123427
 31
0.0
  0
ENDBLK
  5
C9
  8
0
  0
BLOCK
  8
0
  2
DC_GROUP_43
 70
     0
 10
0.0
 20
0.0
 30
0.0
  3
DC_GROUP_43
  1

  0
LINE
  5
21D
  8
LAYER0014
  6
CONTINUOUS
 62
     7
 10
-87.80025912058287
 20
136.1303659843058
 30
0.0
 11
-63.82453751696985
 21
165.8812647129716
 31
0.0
  0
LINE
  5
21E
  8
LAYER0014
  6
CONTINUOUS
 62
     7
 10
-63.82453926280496
 20
165.8812680688015
 30
0.0
 11
-50.93952949717996
 21
165.8812680688015
 31
0.0
  0
INSERT
  5
21F
  8
LAYER0014
  6
CONTINUOUS
  2
DC_GROUP_44
 10
0.0
 20
0.0
 30
0.0
  0
TEXT
  5
220
  8
LAYER0014
 62
     7
 10
-62.36809929088113
 20
167.4812680688015
 30
0.0
 40
4.0
  1
M12
 41
0.8000000000000002
  7
FDASTYLE1
 72
     5
 11
-52.76809929088113
 21
167.4812680688015
 31
0.0
  0
ENDBLK
  5
CC
  8
0
  0
BLOCK
  8
0
  2
DC_GROUP_44
 70
     0
 10
0.0
 20
0.0
 30
0.0
  3
DC_GROUP_44
  1

  0
LINE
  5
221
  8
LAYER0014
  6
CONTINUOUS
 62
     7
 10
-86.12802527179542
 20
137.351355704573
 30
0.0
 11
-87.80025912058287
 21
136.1303659843058
 31
0.0
  0
LINE
  5
222
  8
LAYER0014
  6
CONTINUOUS
 62
     7
 10
-87.80025912058287
 20
136.1303659843058
 30
0.0
 11
-86.96255977214653
 21
138.0238922565445
 31
0.0
  0
LINE
  5
223
  8
LAYER0014
  6
CONTINUOUS
 62
     7
 10
-87.80025912058287
 20
136.1303659843058
 30
0.0
 11
-86.54529252197096
 21
137.6876239805587
 31
0.0
  0
ENDBLK
  5
CF
  8
0
  0
BLOCK
  8
0
  2
DC_GROUP_45
 70
     0
 10
0.0
 20
0.0
 30
0.0
  3
DC_GROUP_45
  1

  0
LINE
  5
224
  8
LAYER0014
  6
CONTINUOUS
 62
     7
 10
-2.850586885486738
 20
-26.22506385070103
 30
0.0
 11
-21.92798160153259
 21
-37.23940302313476
 31
0.0
  0
LINE
  5
225
  8
LAYER0014
  6
CONTINUOUS
 62
     7
 10
7.149408246137719
 20
-43.545571137442
 30
0.0
 11
-11.9279971739102
 21
-54.55991583332817
 31
0.0
  0
LINE
  5
226
  8
LAYER0014
  6
CONTINUOUS
 62
     7
 10
-19.9482568459205
 20
-36.09642836344258
 30
0.0
 11
-9.94825708433919
 21
-53.41693897216421
 31
0.0
  0
INSERT
  5
227
  8
LAYER0014
  6
CONTINUOUS
  2
DC_GROUP_46
 10
0.0
 20
0.0
 30
0.0
  0
INSERT
  5
228
  8
LAYER0014
  6
BORDER
  2
DC_GROUP_47
 10
0.0
 20
0.0
 30
0.0
  0
TEXT
  5
229
  8
LAYER0014
 62
     7
 10
-16.76261306377134
 20
-38.41410880010307
 30
0.0
 40
4.0
  1
20H8
 50
-59.99999999999999
 41
0.7999999999999998
  7
FDASTYLE1
 72
     5
 11
-10.36261306377134
 21
-49.49923396854388
 31
0.0
  0
ENDBLK
  5
D2
  8
0
  0
BLOCK
  8
0
  2
DC_GROUP_46
 70
     0
 10
0.0
 20
0.0
 30
0.0
  3
DC_GROUP_46
  1

  0
LINE
  5
22A
  8
LAYER0014
  6
CONTINUOUS
 62
     7
 10
-19.412360400502
 20
-38.09642759889655
 30
0.0
 11
-19.9482568459205
 21
-36.09642836344258
 31
0.0
  0
LINE
  5
22B
  8
LAYER0014
  6
CONTINUOUS
 62
     7
 10
-19.9482568459205
 20
-36.09642836344258
 30
0.0
 11
-18.484155138838
 21
-37.56052813236093
 31
0.0
  0
LINE
  5
22C
  8
LAYER0014
  6
CONTINUOUS
 62
     7
 10
-19.9482568459205
 20
-36.09642836344258
 30
0.0
 11
-18.94825776967
 21
-37.82847786562874
 31
0.0
  0
ENDBLK
  5
D5
  8
0
  0
BLOCK
  8
0
  2
DC_GROUP_47
 70
     0
 10
0.0
 20
0.0
 30
0.0
  3
DC_GROUP_47
  1

  0
LINE
  5
22D
  8
LAYER0014
  6
CONTINUOUS
 62
     7
 10
-10.48415352975769
 20
-51.41693973671024
 30
0.0
 11
-9.94825708433919
 21
-53.41693897216421
 31
0.0
  0
LINE
  5
22E
  8
LAYER0014
  6
CONTINUOUS
 62
     7
 10
-9.94825708433919
 20
-53.41693897216421
 30
0.0
 11
-11.41235879142169
 21
-51.95283920324586
 31
0.0
  0
LINE
  5
22F
  8
LAYER0014
  6
CONTINUOUS
 62
     7
 10
-9.94825708433919
 20
-53.41693897216421
 30
0.0
 11
-10.94825616058969
 21
-51.68488946997805
 31
0.0
  0
ENDBLK
  5
D8
  8
0
  0
BLOCK
  8
0
  2
DC_GROUP_48
 70
     0
 10
0.0
 20
0.0
 30
0.0
  3
DC_GROUP_48
  1

  0
LINE
  5
230
  8
LAYER0014
  6
CONTINUOUS
 62
     7
 10
-9.100585262190343
 20
-15.39978250004945
 30
0.0
 11
-40.23539460575435
 21
-33.37546999830035
 31
0.0
  0
LINE
  5
231
  8
LAYER0014
  6
CONTINUOUS
 62
     7
 10
13.3994228309184
 20
-54.37093774979748
 30
0.0
 11
-17.735384828055
 21
-72.34662320401517
 31
0.0
  0
LINE
  5
232
  8
LAYER0014
  6
CONTINUOUS
 62
     7
 10
-38.25565481105068
 20
-32.23245360852231
 30
0.0
 11
-15.75565519848092
 21
-71.2035977311713
 31
0.0
  0
INSERT
  5
233
  8
LAYER0014
  6
CONTINUOUS
  2
DC_GROUP_49
 10
0.0
 20
0.0
 30
0.0
  0
INSERT
  5
234
  8
LAYER0014
  6
CONTINUOUS
  2
DC_GROUP_50
 10
0.0
 20
0.0
 30
0.0
  0
TEXT
  5
235
  8
LAYER0014
 62
     7
 10
-27.22001662822447
 20
-48.14673957951796
 30
0.0
 40
4.0
  1
45
 50
-59.99999999999999
 41
0.7999999999999998
  7
FDASTYLE1
 72
     5
 11
-24.02001662822447
 21
-53.68930216373837
 31
0.0
  0
ENDBLK
  5
DB
  8
0
  0
BLOCK
  8
0
  2
DC_GROUP_49
 70
     0
 10
0.0
 20
0.0
 30
0.0
  3
DC_GROUP_49
  1

  0
LINE
  5
236
  8
LAYER0014
  6
CONTINUOUS
 62
     7
 10
-37.71975825440845
 20
-34.23245281417407
 30
0.0
 11
-38.25565481105068
 21
-32.23245360852231
 31
0.0
  0
LINE
  5
237
  8
LAYER0014
  6
CONTINUOUS
 62
     7
 10
-38.25565481105068
 20
-32.23245360852231
 30
0.0
 11
-36.79155302254683
 21
-33.6965532960192
 31
0.0
  0
LINE
  5
238
  8
LAYER0014
  6
CONTINUOUS
 62
     7
 10
-38.25565481105068
 20
-32.23245360852231
 30
0.0
 11
-37.25565563847763
 21
-33.96450305509664
 31
0.0
  0
ENDBLK
  5
DE
  8
0
  0
BLOCK
  8
0
  2
DC_GROUP_50
 70
     0
 10
0.0
 20
0.0
 30
0.0
  3
DC_GROUP_50
  1

  0
LINE
  5
239
  8
LAYER0014
  6
CONTINUOUS
 62
     7
 10
-16.29155175512316
 20
-69.20359852551955
 30
0.0
 11
-15.75565519848092
 21
-71.2035977311713
 31
0.0
  0
LINE
  5
23A
  8
LAYER0014
  6
CONTINUOUS
 62
     7
 10
-15.75565519848092
 20
-71.2035977311713
 30
0.0
 11
-17.21975698698477
 21
-69.73949804367442
 31
0.0
  0
LINE
  5
23B
  8
LAYER0014
  6
CONTINUOUS
 62
     7
 10
-15.75565519848092
 20
-71.2035977311713
 30
0.0
 11
-16.75565437105397
 21
-69.47154828459698
 31
0.0
  0
ENDBLK
  5
E1
  8
0
  0
BLOCK
  8
0
  2
DC_GROUP_51
 70
     0
 10
0.0
 20
0.0
 30
0.0
  3
DC_GROUP_51
  1

  0
LINE
  5
23C
  8
LAYER0014
  6
CONTINUOUS
 62
     7
 10
55.1746174993414
 20
86.31233091795136
 30
0.0
 11
12.41400608998546
 21
129.0728053584234
 31
0.0
  0
LINE
  5
23D
  8
LAYER0014
  6
CONTINUOUS
 62
     7
 10
34.15462164833583
 20
49.90462072391465
 30
0.0
 11
-24.25738460715039
 21
65.55602460877478
 31
0.0
  0
ARC
  5
23E
  8
LAYER0014
  6
CONTINUOUS
 62
     7
 10
112.6023520640993
 20
28.88462500239528
 30
0.0
 40
139.401611328125
 50
135.0000413227577
 51
165.0000216670162
  0
INSERT
  5
23F
  8
LAYER0014
  6
CONTINUOUS
  2
DC_GROUP_52
 10
0.0
 20
0.0
 30
0.0
  0
INSERT
  5
240
  8
LAYER0014
  6
CONTINUOUS
  2
DC_GROUP_53
 10
0.0
 20
0.0
 30
0.0
  0
TEXT
  5
241
  8
LAYER0014
 62
     7
 10
-11.90865326701437
 20
95.22844769313622
 30
0.0
 40
4.0
  1
30ﾟ
 50
59.99999999999999
 41
0.8000000000000012
  7
FDASTYLE1
 72
     5
 11
-7.108653267014359
 21
103.5422915694668
 31
0.0
  0
ENDBLK
  5
E4
  8
0
  0
BLOCK
  8
0
  2
DC_GROUP_52
 70
     0
 10
0.0
 20
0.0
 30
0.0
  3
DC_GROUP_52
  1

  0
LINE
  5
242
  8
LAYER0014
  6
CONTINUOUS
 62
     7
 10
12.24477904604483
 20
126.4082666157259
 30
0.0
 11
14.0304562938846
 21
127.4563785890265
 31
0.0
  0
LINE
  5
243
  8
LAYER0014
  6
CONTINUOUS
 62
     7
 10
14.0304562938846
 20
127.4563785890265
 30
0.0
 11
13.00807306969037
 21
125.6558468661972
 31
0.0
  0
LINE
  5
244
  8
LAYER0014
  6
CONTINUOUS
 62
     7
 10
14.0304562938846
 20
127.4563785890265
 30
0.0
 11
12.6264260578676
 21
126.0320567409615
 31
0.0
  0
ENDBLK
  5
E7
  8
0
  0
BLOCK
  8
0
  2
DC_GROUP_53
 70
     0
 10
0.0
 20
0.0
 30
0.0
  3
DC_GROUP_53
  1

  0
LINE
  5
245
  8
LAYER0014
  6
CONTINUOUS
 62
     7
 10
-21.00116555094174
 20
66.7500428703754
 30
0.0
 11
-22.0492781879997
 21
64.96436601213144
 31
0.0
  0
LINE
  5
246
  8
LAYER0014
  6
CONTINUOUS
 62
     7
 10
-22.0492781879997
 20
64.96436601213144
 30
0.0
 11
-22.03442749329237
 21
67.03486387469863
 31
0.0
  0
LINE
  5
247
  8
LAYER0014
  6
CONTINUOUS
 62
     7
 10
-22.0492781879997
 20
64.96436601213144
 30
0.0
 11
-21.51779652211705
 21
66.89245337253702
 31
0.0
  0
ENDBLK
  5
EA
  8
0
  0
BLOCK
  8
0
  2
DC_GROUP_54
 70
     0
 10
0.0
 20
0.0
 30
0.0
  3
DC_GROUP_54
  1

  0
LINE
  5
248
  8
LAYER0014
  6
CONTINUOUS
 62
     7
 10
34.15462045468932
 20
49.90462380439456
 30
0.0
 11
-24.25738401521258
 21
65.5560326174772
 31
0.0
  0
LINE
  5
249
  8
LAYER0014
  6
CONTINUOUS
 62
     7
 10
-25.03966364486398
 20
28.88470581806494
 30
0.0
 11
-29.08525114689705
 21
28.88478666555519
 31
0.0
  0
ARC
  5
24A
  8
LAYER0014
  6
CONTINUOUS
 62
     7
 10
112.6022223643923
 20
28.8846555199734
 30
0.0
 40
139.4014739990234
 50
165.0000216670162
 51
179.9999640278213
  0
INSERT
  5
24B
  8
LAYER0014
  6
CONTINUOUS
  2
DC_GROUP_55
 10
0.0
 20
0.0
 30
0.0
  0
INSERT
  5
24C
  8
LAYER0014
  6
CONTINUOUS
  2
DC_GROUP_56
 10
0.0
 20
0.0
 30
0.0
  0
TEXT
  5
24D
  8
LAYER0014
 62
     7
 10
-27.82743073672091
 20
42.53398779180239
 30
0.0
 40
4.0
  1
15ﾟ
 50
82.40000000000003
 41
0.8000000000000008
  7
FDASTYLE1
 72
     5
 11
-26.55776939025254
 21
52.0496569782172
 31
0.0
  0
ENDBLK
  5
ED
  8
0
  0
BLOCK
  8
0
  2
DC_GROUP_55
 70
     0
 10
0.0
 20
0.0
 30
0.0
  3
DC_GROUP_55
  1

  0
LINE
  5
24E
  8
LAYER0014
  6
CONTINUOUS
 62
     7
 10
-23.07166171586724
 20
63.16383111107602
 30
0.0
 11
-22.04927523796738
 21
64.96436098637278
 31
0.0
  0
LINE
  5
24F
  8
LAYER0014
  6
CONTINUOUS
 62
     7
 10
-22.04927523796738
 20
64.96436098637278
 30
0.0
 11
-22.03441991677562
 21
62.89386315699431
 31
0.0
  0
LINE
  5
250
  8
LAYER0014
  6
CONTINUOUS
 62
     7
 10
-22.04927523796738
 20
64.96436098637278
 30
0.0
 11
-22.55304081632143
 21
63.02884713403517
 31
0.0
  0
ENDBLK
  5
F0
  8
0
  0
BLOCK
  8
0
  2
DC_GROUP_56
 70
     0
 10
0.0
 20
0.0
 30
0.0
  3
DC_GROUP_56
  1

  0
LINE
  5
251
  8
LAYER0014
  6
CONTINUOUS
 62
     7
 10
-26.24901772674888
 20
30.88084539006161
 30
0.0
 11
-26.79925163460365
 21
28.88474304081307
 31
0.0
  0
LINE
  5
252
  8
LAYER0014
  6
CONTINUOUS
 62
     7
 10
-26.79925163460365
 20
28.88474304081307
 30
0.0
 11
-27.32078921476198
 21
30.88853457051651
 31
0.0
  0
LINE
  5
253
  8
LAYER0014
  6
CONTINUOUS
 62
     7
 10
-26.79925163460365
 20
28.88474304081307
 30
0.0
 11
-26.78490347075543
 21
30.88468998028906
 31
0.0
  0
ENDBLK
  5
F3
  8
0
  0
BLOCK
  8
0
  2
DC_GROUP_57
 70
     0
 10
0.0
 20
0.0
 30
0.0
  3
DC_GROUP_57
  1

  0
LINE
  5
254
  8
LAYER0014
  6
CONTINUOUS
 62
     7
 10
63.37072783010885
 20
85.80146490946137
 30
0.0
 11
51.44697231042196
 21
166.1299366495507
 31
0.0
  0
LINE
  5
255
  8
LAYER0014
  6
CONTINUOUS
 62
     7
 10
51.44697562977316
 20
166.1299405541531
 30
0.0
 11
19.87705222889426
 21
166.1299405541531
 31
0.0
  0
INSERT
  5
256
  8
LAYER0014
  6
CENTER
  2
DC_GROUP_58
 10
0.0
 20
0.0
 30
0.0
  0
TEXT
  5
257
  8
LAYER0014
 62
     7
 10
21.70562278553488
 20
167.7299405541531
 30
0.0
 40
4.0
  1
PCD133.35
 41
0.8000000000000002
  7
FDASTYLE1
 72
     5
 11
50.50562278553488
 21
167.7299405541531
 31
0.0
  0
ENDBLK
  5
F6
  8
0
  0
BLOCK
  8
0
  2
DC_GROUP_58
 70
     0
 10
0.0
 20
0.0
 30
0.0
  3
DC_GROUP_58
  1

  0
LINE
  5
258
  8
LAYER0014
  6
CONTINUOUS
 62
     7
 10
63.60716208463047
 20
87.85847263558139
 30
0.0
 11
63.37072783010885
 21
85.80146490946137
 31
0.0
  0
LINE
  5
259
  8
LAYER0014
  6
CONTINUOUS
 62
     7
 10
63.37072783010885
 20
85.80146490946137
 30
0.0
 11
62.54697924325015
 21
87.70110177151607
 31
0.0
  0
LINE
  5
25A
  8
LAYER0014
  6
CONTINUOUS
 62
     7
 10
63.37072783010885
 20
85.80146490946137
 30
0.0
 11
63.07707066394032
 21
87.77978720354874
 31
0.0
  0
ENDBLK
  5
F9
  8
0
  0
BLOCK
  8
0
  2
DC_GROUP_59
 70
     0
 10
0.0
 20
0.0
 30
0.0
  3
DC_GROUP_59
  1

  0
LINE
  5
25B
  8
LAYER0014
  6
CONTINUOUS
 62
     7
 10
-71.87764457896708
 20
100.8846555199734
 30
0.0
 11
-67.23103340342996
 21
100.8846555199734
 31
0.0
  0
LINE
  5
25C
  8
LAYER0014
  6
CONTINUOUS
 62
     7
 10
-71.87764457896708
 20
130.8846555199734
 30
0.0
 11
-67.23103340342996
 21
130.8846555199734
 31
0.0
  0
LINE
  5
25D
  8
LAYER0014
  6
CONTINUOUS
 62
     7
 10
-68.23103340342996
 20
100.8846555199734
 30
0.0
 11
-68.23103340342996
 21
130.8846555199734
 31
0.0
  0
INSERT
  5
25E
  8
LAYER0014
  6
CONTINUOUS
  2
DC_GROUP_60
 10
0.0
 20
0.0
 30
0.0
  0
INSERT
  5
25F
  8
LAYER0014
  6
CONTINUOUS
  2
DC_GROUP_61
 10
0.0
 20
0.0
 30
0.0
  0
TEXT
  5
260
  8
LAYER0014
 62
     7
 10
-69.83103340342996
 20
112.6846555199734
 30
0.0
 40
4.0
  1
30
 50
90.0
 41
0.8000000000000007
  7
FDASTYLE1
 72
     5
 11
-69.83103340342996
 21
119.0846555199734
 31
0.0
  0
ENDBLK
  5
FC
  8
0
  0
BLOCK
  8
0
  2
DC_GROUP_60
 70
     0
 10
0.0
 20
0.0
 30
0.0
  3
DC_GROUP_60
  1

  0
LINE
  5
261
  8
LAYER0014
  6
CONTINUOUS
 62
     7
 10
-67.69513386853234
 20
102.8846539276041
 30
0.0
 11
-68.23103340342996
 21
100.8846555199734
 31
0.0
  0
LINE
  5
262
  8
LAYER0014
  6
CONTINUOUS
 62
     7
 10
-68.23103340342996
 20
100.8846555199734
 30
0.0
 11
-68.76693293832757
 21
102.8846539276041
 31
0.0
  0
LINE
  5
263
  8
LAYER0014
  6
CONTINUOUS
 62
     7
 10
-68.23103340342996
 20
100.8846555199734
 30
0.0
 11
-68.23103340342996
 21
102.8846539276041
 31
0.0
  0
ENDBLK
  5
FF
  8
0
  0
BLOCK
  8
0
  2
DC_GROUP_61
 70
     0
 10
0.0
 20
0.0
 30
0.0
  3
DC_GROUP_61
  1

  0
LINE
  5
264
  8
LAYER0014
  6
CONTINUOUS
 62
     7
 10
-68.76693293832757
 20
128.8846571123427
 30
0.0
 11
-68.23103340342996
 21
130.8846555199734
 31
0.0
  0
LINE
  5
265
  8
LAYER0014
  6
CONTINUOUS
 62
     7
 10
-68.23103340342996
 20
130.8846555199734
 30
0.0
 11
-67.69513386853234
 21
128.8846571123427
 31
0.0
  0
LINE
  5
266
  8
LAYER0014
  6
CONTINUOUS
 62
     7
 10
-68.23103340342996
 20
130.8846555199734
 30
0.0
 11
-68.23103340342996
 21
128.8846571123427
 31
0.0
  0
ENDBLK
  5
102
  8
0
  0
BLOCK
  8
0
  2
DC_GROUP_62
 70
     0
 10
0.0
 20
0.0
 30
0.0
  3
DC_GROUP_62
  1

  0
LINE
  5
267
  8
LAYER0014
  6
CONTINUOUS
 62
     7
 10
-64.51883033946513
 20
87.88465551997339
 30
0.0
 11
-55.21438987926004
 21
87.88465551997339
 31
0.0
  0
LINE
  5
268
  8
LAYER0014
  6
CONTINUOUS
 62
     7
 10
-100.5910387440061
 20
143.8846555199734
 30
0.0
 11
-55.21438987926004
 21
143.8846555199734
 31
0.0
  0
LINE
  5
269
  8
LAYER0014
  6
CONTINUOUS
 62
     7
 10
-56.21438987926004
 20
87.88465551997339
 30
0.0
 11
-56.21438987926004
 21
143.8846555199734
 31
0.0
  0
INSERT
  5
26A
  8
LAYER0014
  6
CONTINUOUS
  2
DC_GROUP_63
 10
0.0
 20
0.0
 30
0.0
  0
INSERT
  5
26B
  8
LAYER0014
  6
CONTINUOUS
  2
DC_GROUP_64
 10
0.0
 20
0.0
 30
0.0
  0
TEXT
  5
26C
  8
LAYER0014
 62
     7
 10
-57.81438987926004
 20
112.6846555199734
 30
0.0
 40
4.0
  1
56
 50
90.0
 41
0.8000000000000007
  7
FDASTYLE1
 72
     5
 11
-57.81438987926004
 21
119.0846555199734
 31
0.0
  0
ENDBLK
  5
105
  8
0
  0
BLOCK
  8
0
  2
DC_GROUP_63
 70
     0
 10
0.0
 20
0.0
 30
0.0
  3
DC_GROUP_63
  1

  0
LINE
  5
26D
  8
LAYER0014
  6
CONTINUOUS
 62
     7
 10
-55.67849034436243
 20
89.88465392760405
 30
0.0
 11
-56.21438987926004
 21
87.88465551997339
 31
0.0
  0
LINE
  5
26E
  8
LAYER0014
  6
CONTINUOUS
 62
     7
 10
-56.21438987926004
 20
87.88465551997339
 30
0.0
 11
-56.75028941415765
 21
89.88465392760405
 31
0.0
  0
LINE
  5
26F
  8
LAYER0014
  6
CONTINUOUS
 62
     7
 10
-56.21438987926004
 20
87.88465551997339
 30
0.0
 11
-56.21438987926004
 21
89.88465392760405
 31
0.0
  0
ENDBLK
  5
108
  8
0
  0
BLOCK
  8
0
  2
DC_GROUP_64
 70
     0
 10
0.0
 20
0.0
 30
0.0
  3
DC_GROUP_64
  1

  0
LINE
  5
270
  8
LAYER0014
  6
CONTINUOUS
 62
     7
 10
-56.75028941415765
 20
141.8846571123427
 30
0.0
 11
-56.21438987926004
 21
143.8846555199734
 31
0.0
  0
LINE
  5
271
  8
LAYER0014
  6
CONTINUOUS
 62
     7
 10
-56.21438987926004
 20
143.8846555199734
 30
0.0
 11
-55.67849034436243
 21
141.8846571123427
 31
0.0
  0
LINE
  5
272
  8
LAYER0014
  6
CONTINUOUS
 62
     7
 10
-56.21438987926004
 20
143.8846555199734
 30
0.0
 11
-56.21438987926004
 21
141.8846571123427
 31
0.0
  0
ENDBLK
  5
10B
  8
0
  0
BLOCK
  8
0
  2
DC_GROUP_65
 70
     0
 10
0.0
 20
0.0
 30
0.0
  3
DC_GROUP_65
  1

  0
LINE
  5
273
  8
LAYER0014
  6
CONTINUOUS
 62
     7
 10
-194.931041795764
 20
-86.1553444800266
 30
0.0
 11
-194.931041795764
 21
-118.6692385229954
 31
0.0
  0
LINE
  5
274
  8
LAYER0014
  6
CONTINUOUS
 62
     7
 10
-150.952770311389
 20
-17.6553444800266
 30
0.0
 11
-150.952770311389
 21
-118.6692385229954
 31
0.0
  0
LINE
  5
275
  8
LAYER0014
  6
CONTINUOUS
 62
     7
 10
-194.931041795764
 20
-116.3832430395969
 30
0.0
 11
-150.952770311389
 21
-116.3832430395969
 31
0.0
  0
INSERT
  5
276
  8
LAYER0014
  6
DOT2
  2
DC_GROUP_66
 10
0.0
 20
0.0
 30
0.0
  0
INSERT
  5
277
  8
LAYER0014
  6
DOT2
  2
DC_GROUP_67
 10
0.0
 20
0.0
 30
0.0
  0
TEXT
  5
278
  8
LAYER0014
 62
     7
 10
-185.7419060535765
 20
-114.7832430395969
 30
0.0
 40
4.0
  1
MAX 60.3
 41
0.8000000000000007
  7
FDASTYLE1
 72
     5
 11
-160.1419060535765
 21
-114.7832430395969
 31
0.0
  0
ENDBLK
  5
10E
  8
0
  0
BLOCK
  8
0
  2
DC_GROUP_66
 70
     0
 10
0.0
 20
0.0
 30
0.0
  3
DC_GROUP_66
  1

  0
LINE
  5
279
  8
LAYER0014
  6
CONTINUOUS
 62
     7
 10
-192.9310433881333
 20
-116.9191425744945
 30
0.0
 11
-194.931041795764
 21
-116.3832430395969
 31
0.0
  0
LINE
  5
27A
  8
LAYER0014
  6
CONTINUOUS
 62
     7
 10
-194.931041795764
 20
-116.3832430395969
 30
0.0
 11
-192.9310433881333
 21
-115.8473435046993
 31
0.0
  0
LINE
  5
27B
  8
LAYER0014
  6
CONTINUOUS
 62
     7
 10
-194.931041795764
 20
-116.3832430395969
 30
0.0
 11
-192.9310433881333
 21
-116.3832430395969
 31
0.0
  0
ENDBLK
  5
111
  8
0
  0
BLOCK
  8
0
  2
DC_GROUP_67
 70
     0
 10
0.0
 20
0.0
 30
0.0
  3
DC_GROUP_67
  1

  0
LINE
  5
27C
  8
LAYER0014
  6
CONTINUOUS
 62
     7
 10
-152.9527687190196
 20
-115.8473435046993
 30
0.0
 11
-150.952770311389
 21
-116.3832430395969
 31
0.0
  0
LINE
  5
27D
  8
LAYER0014
  6
CONTINUOUS
 62
     7
 10
-150.952770311389
 20
-116.3832430395969
 30
0.0
 11
-152.9527687190196
 21
-116.9191425744945
 31
0.0
  0
LINE
  5
27E
  8
LAYER0014
  6
CONTINUOUS
 62
     7
 10
-150.952770311389
 20
-116.3832430395969
 30
0.0
 11
-152.9527687190196
 21
-116.3832430395969
 31
0.0
  0
ENDBLK
  5
114
  8
0
  0
BLOCK
  8
0
  2
DC_GROUP_68
 70
     0
 10
0.0
 20
0.0
 30
0.0
  3
DC_GROUP_68
  1

  0
LINE
  5
27F
  8
LAYER0014
  6
CONTINUOUS
 62
     7
 10
-199.1310540027952
 20
-97.71921990652234
 30
0.0
 11
-199.1310540027952
 21
-130.6544374976047
 31
0.0
  0
LINE
  5
280
  8
LAYER0014
  6
CONTINUOUS
 62
     7
 10
-194.931041795764
 20
-86.1553444800266
 30
0.0
 11
-194.931041795764
 21
-130.6544374976047
 31
0.0
  0
LINE
  5
281
  8
LAYER0014
  6
CONTINUOUS
 62
     7
 10
-199.1310387440062
 20
-128.3684420142063
 30
0.0
 11
-194.931041795764
 21
-128.3684420142063
 31
0.0
  0
LINE
  5
282
  8
LAYER0014
  6
CONTINUOUS
 62
     7
 10
-199.1310387440062
 20
-128.3684420142063
 30
0.0
 11
-205.4810387440062
 21
-128.3684420142063
 31
0.0
  0
LINE
  5
283
  8
LAYER0014
  6
CONTINUOUS
 62
     7
 10
-188.581041795764
 20
-128.3684420142063
 30
0.0
 11
-194.931041795764
 21
-128.3684420142063
 31
0.0
  0
INSERT
  5
284
  8
LAYER0014
  6
CONTINUOUS
  2
DC_GROUP_69
 10
0.0
 20
0.0
 30
0.0
  0
INSERT
  5
285
  8
LAYER0014
  6
DOT2
  2
DC_GROUP_70
 10
0.0
 20
0.0
 30
0.0
  0
TEXT
  5
286
  8
LAYER0014
 62
     7
 10
-213.6338358316326
 20
-126.7600668749887
 30
0.0
 40
4.0
  1
4.2
 50
-0.1000000000000078
 41
0.8000000000000025
  7
FDASTYLE1
 72
     5
 11
-204.033850453265
 21
-126.7768220273013
 31
0.0
  0
ENDBLK
  5
117
  8
0
  0
BLOCK
  8
0
  2
DC_GROUP_69
 70
     0
 10
0.0
 20
0.0
 30
0.0
  3
DC_GROUP_69
  1

  0
LINE
  5
287
  8
LAYER0014
  6
CONTINUOUS
 62
     7
 10
-201.1310371516369
 20
-127.8325424793087
 30
0.0
 11
-199.1310387440062
 21
-128.3684420142063
 31
0.0
  0
LINE
  5
288
  8
LAYER0014
  6
CONTINUOUS
 62
     7
 10
-199.1310387440062
 20
-128.3684420142063
 30
0.0
 11
-201.1310371516369
 21
-128.9043415491039
 31
0.0
  0
LINE
  5
289
  8
LAYER0014
  6
CONTINUOUS
 62
     7
 10
-199.1310387440062
 20
-128.3684420142063
 30
0.0
 11
-201.1310371516369
 21
-128.3684420142063
 31
0.0
  0
ENDBLK
  5
11A
  8
0
  0
BLOCK
  8
0
  2
DC_GROUP_70
 70
     0
 10
0.0
 20
0.0
 30
0.0
  3
DC_GROUP_70
  1

  0
LINE
  5
28A
  8
LAYER0014
  6
CONTINUOUS
 62
     7
 10
-192.9310433881333
 20
-128.9043415491039
 30
0.0
 11
-194.931041795764
 21
-128.3684420142063
 31
0.0
  0
LINE
  5
28B
  8
LAYER0014
  6
CONTINUOUS
 62
     7
 10
-194.931041795764
 20
-128.3684420142063
 30
0.0
 11
-192.9310433881333
 21
-127.8325424793087
 31
0.0
  0
LINE
  5
28C
  8
LAYER0014
  6
CONTINUOUS
 62
     7
 10
-194.931041795764
 20
-128.3684420142063
 30
0.0
 11
-192.9310433881333
 21
-128.3684420142063
 31
0.0
  0
ENDBLK
  5
11D
  8
0
  0
BLOCK
  8
0
  2
DC_GROUP_71
 70
     0
 10
0.0
 20
0.0
 30
0.0
  3
DC_GROUP_71
  1

  0
LINE
  5
28D
  8
LAYER0014
  6
CONTINUOUS
 62
     7
 10
-194.931041795764
 20
-86.1553444800266
 30
0.0
 11
-194.931041795764
 21
-130.6544374976047
 31
0.0
  0
LINE
  5
28E
  8
LAYER0014
  6
CONTINUOUS
 62
     7
 10
-104.1310387440061
 20
-96.6553444800266
 30
0.0
 11
-104.1310387440061
 21
-130.6544374976047
 31
0.0
  0
LINE
  5
28F
  8
LAYER0014
  6
CONTINUOUS
 62
     7
 10
-194.931041795764
 20
-128.3684420142063
 30
0.0
 11
-104.1310387440061
 21
-128.3684420142063
 31
0.0
  0
INSERT
  5
290
  8
LAYER0014
  6
DOT2
  2
DC_GROUP_72
 10
0.0
 20
0.0
 30
0.0
  0
INSERT
  5
291
  8
LAYER0014
  6
CONTINUOUS
  2
DC_GROUP_73
 10
0.0
 20
0.0
 30
0.0
  0
TEXT
  5
292
  8
LAYER0014
 62
     7
 10
-155.9282303673501
 20
-126.7572743496033
 30
0.0
 40
4.0
  1
90.8
 50
-0.1000000000000078
 41
0.8000000000000025
  7
FDASTYLE1
 72
     5
 11
-143.12824986286
 21
-126.7796145526868
 31
0.0
  0
ENDBLK
  5
120
  8
0
  0
BLOCK
  8
0
  2
DC_GROUP_72
 70
     0
 10
0.0
 20
0.0
 30
0.0
  3
DC_GROUP_72
  1

  0
LINE
  5
293
  8
LAYER0014
  6
CONTINUOUS
 62
     7
 10
-192.9310433881333
 20
-128.9043415491039
 30
0.0
 11
-194.931041795764
 21
-128.3684420142063
 31
0.0
  0
LINE
  5
294
  8
LAYER0014
  6
CONTINUOUS
 62
     7
 10
-194.931041795764
 20
-128.3684420142063
 30
0.0
 11
-192.9310433881333
 21
-127.8325424793087
 31
0.0
  0
LINE
  5
295
  8
LAYER0014
  6
CONTINUOUS
 62
     7
 10
-194.931041795764
 20
-128.3684420142063
 30
0.0
 11
-192.9310433881333
 21
-128.3684420142063
 31
0.0
  0
ENDBLK
  5
123
  8
0
  0
BLOCK
  8
0
  2
DC_GROUP_73
 70
     0
 10
0.0
 20
0.0
 30
0.0
  3
DC_GROUP_73
  1

  0
LINE
  5
296
  8
LAYER0014
  6
CONTINUOUS
 62
     7
 10
-106.1310371516368
 20
-127.8325424793087
 30
0.0
 11
-104.1310387440061
 21
-128.3684420142063
 31
0.0
  0
LINE
  5
297
  8
LAYER0014
  6
CONTINUOUS
 62
     7
 10
-104.1310387440061
 20
-128.3684420142063
 30
0.0
 11
-106.1310371516368
 21
-128.9043415491039
 31
0.0
  0
LINE
  5
298
  8
LAYER0014
  6
CONTINUOUS
 62
     7
 10
-104.1310387440061
 20
-128.3684420142063
 30
0.0
 11
-106.1310371516368
 21
-128.3684420142063
 31
0.0
  0
ENDBLK
  5
126
  8
0
  0
BLOCK
  8
0
  2
DC_GROUP_74
 70
     0
 10
0.0
 20
0.0
 30
0.0
  3
DC_GROUP_74
  1

  0
LINE
  5
299
  8
LAYER0014
  6
CONTINUOUS
 62
     7
 10
-100.6821947498655
 20
-23.6153444800266
 30
0.0
 11
-65.94503410533426
 21
-23.6153444800266
 31
0.0
  0
LINE
  5
29A
  8
LAYER0014
  6
CONTINUOUS
 62
     7
 10
-68.23103340342996
 20
-23.6153444800266
 30
0.0
 11
-68.23103340342996
 21
53.8846555199734
 31
0.0
  0
INSERT
  5
29B
  8
LAYER0014
  6
CONTINUOUS
  2
DC_GROUP_75
 10
0.0
 20
0.0
 30
0.0
  0
TEXT
  5
29C
  8
LAYER0014
 62
     7
 10
-69.83103340342996
 20
19.61798758174098
 30
0.0
 40
4.0
  1
φ105H7
 50
90.0
 41
0.7492195629552547
  7
FDASTYLE1
 72
     5
 11
-69.83103340342996
 21
38.1986327430313
 31
0.0
  0
ENDBLK
  5
129
  8
0
  0
BLOCK
  8
0
  2
DC_GROUP_75
 70
     0
 10
0.0
 20
0.0
 30
0.0
  3
DC_GROUP_75
  1

  0
LINE
  5
29D
  8
LAYER0014
  6
CONTINUOUS
 62
     7
 10
-67.69513386853234
 20
-21.61534607239594
 30
0.0
 11
-68.23103340342996
 21
-23.6153444800266
 31
0.0
  0
LINE
  5
29E
  8
LAYER0014
  6
CONTINUOUS
 62
     7
 10
-68.23103340342996
 20
-23.6153444800266
 30
0.0
 11
-68.76693293832757
 21
-21.61534607239594
 31
0.0
  0
LINE
  5
29F
  8
LAYER0014
  6
CONTINUOUS
 62
     7
 10
-68.23103340342996
 20
-23.6153444800266
 30
0.0
 11
-68.23103340342996
 21
-21.61534607239594
 31
0.0
  0
ENDBLK
  5
12C
  8
0
  0
BLOCK
  8
0
  2
DC_GROUP_76
 70
     0
 10
0.0
 20
0.0
 30
0.0
  3
DC_GROUP_76
  1

  0
LINE
  5
2A0
  8
LAYER0014
  6
CONTINUOUS
 62
     7
 10
-217.1310540027952
 20
-46.33034753178441
 30
0.0
 11
-217.1310540027952
 21
-117.3832430395969
 31
0.0
  0
LINE
  5
2A1
  8
LAYER0014
  6
CONTINUOUS
 62
     7
 10
-194.931041795764
 20
-86.1553444800266
 30
0.0
 11
-194.931041795764
 21
-117.3832430395969
 31
0.0
  0
LINE
  5
2A2
  8
LAYER0014
  6
CONTINUOUS
 62
     7
 10
-217.1310387440062
 20
-116.3832430395969
 30
0.0
 11
-194.931041795764
 21
-116.3832430395969
 31
0.0
  0
INSERT
  5
2A3
  8
LAYER0014
  6
CONTINUOUS
  2
DC_GROUP_77
 10
0.0
 20
0.0
 30
0.0
  0
INSERT
  5
2A4
  8
LAYER0014
  6
DOT2
  2
DC_GROUP_78
 10
0.0
 20
0.0
 30
0.0
  0
TEXT
  5
2A5
  8
LAYER0014
 62
     7
 10
-212.8147759266234
 20
-114.7832430395969
 30
0.0
 40
4.0
  1
22.2
 41
0.8000000000000007
  7
FDASTYLE1
 72
     5
 11
-200.0147759266234
 21
-114.7832430395969
 31
0.0
  0
ENDBLK
  5
12F
  8
0
  0
BLOCK
  8
0
  2
DC_GROUP_77
 70
     0
 10
0.0
 20
0.0
 30
0.0
  3
DC_GROUP_77
  1

  0
LINE
  5
2A6
  8
LAYER0014
  6
CONTINUOUS
 62
     7
 10
-215.1310403363756
 20
-116.9191425744945
 30
0.0
 11
-217.1310387440062
 21
-116.3832430395969
 31
0.0
  0
LINE
  5
2A7
  8
LAYER0014
  6
CONTINUOUS
 62
     7
 10
-217.1310387440062
 20
-116.3832430395969
 30
0.0
 11
-215.1310403363755
 21
-115.8473435046993
 31
0.0
  0
LINE
  5
2A8
  8
LAYER0014
  6
CONTINUOUS
 62
     7
 10
-217.1310387440062
 20
-116.3832430395969
 30
0.0
 11
-215.1310403363756
 21
-116.3832430395969
 31
0.0
  0
ENDBLK
  5
132
  8
0
  0
BLOCK
  8
0
  2
DC_GROUP_78
 70
     0
 10
0.0
 20
0.0
 30
0.0
  3
DC_GROUP_78
  1

  0
LINE
  5
2A9
  8
LAYER0014
  6
CONTINUOUS
 62
     7
 10
-196.9310402033946
 20
-115.8473435046993
 30
0.0
 11
-194.931041795764
 21
-116.3832430395969
 31
0.0
  0
LINE
  5
2AA
  8
LAYER0014
  6
CONTINUOUS
 62
     7
 10
-194.931041795764
 20
-116.3832430395969
 30
0.0
 11
-196.9310402033946
 21
-116.9191425744945
 31
0.0
  0
LINE
  5
2AB
  8
LAYER0014
  6
CONTINUOUS
 62
     7
 10
-194.931041795764
 20
-116.3832430395969
 30
0.0
 11
-196.9310402033946
 21
-116.3832430395969
 31
0.0
  0
ENDBLK
  5
135
  8
0
  0
BLOCK
  8
0
  2
DC_GROUP_79
 70
     0
 10
0.0
 20
0.0
 30
0.0
  3
DC_GROUP_79
  1

  0
LINE
  5
2AC
  8
LAYER0014
  6
CONTINUOUS
 62
     7
 10
-105.1477214819387
 20
147.5513277142183
 30
0.0
 11
-81.54697932576156
 21
175.8377072687112
 31
0.0
  0
LINE
  5
2AD
  8
LAYER0014
  6
CONTINUOUS
 62
     7
 10
-81.54697807506082
 20
175.8377042260281
 30
0.0
 11
-34.91730697825906
 21
175.8377042260281
 31
0.0
  0
INSERT
  5
2AE
  8
LAYER0014
  6
CONTINUOUS
  2
DC_GROUP_80
 10
0.0
 20
0.0
 30
0.0
  0
TEXT
  5
2AF
  8
LAYER0014
 62
     7
 10
-81.27267845347879
 20
177.4377042260281
 30
0.0
 40
4.0
  1
ｾﾚｰｼｮﾝP1.5山60ﾟ
 41
0.7776234874032931
  7
FDASTYLE1
 72
     5
 11
-37.10366436897174
 21
177.4377042260281
 31
0.0
  0
ENDBLK
  5
138
  8
0
  0
BLOCK
  8
0
  2
DC_GROUP_80
 70
     0
 10
0.0
 20
0.0
 30
0.0
  3
DC_GROUP_80
  1

  0
LINE
  5
2B0
  8
LAYER0014
  6
CONTINUOUS
 62
     7
 10
-103.4549488835535
 20
148.7436795382135
 30
0.0
 11
-105.1477214819387
 21
147.5513277142183
 31
0.0
  0
LINE
  5
2B1
  8
LAYER0014
  6
CONTINUOUS
 62
     7
 10
-105.1477214819387
 20
147.5513277142183
 30
0.0
 11
-104.2779160850752
 21
149.4303222628043
 31
0.0
  0
LINE
  5
2B2
  8
LAYER0014
  6
CONTINUOUS
 62
     7
 10
-105.1477214819387
 20
147.5513277142183
 30
0.0
 11
-103.8664324843143
 21
149.0870009005089
 31
0.0
  0
ENDBLK
  5
13B
  8
0
  0
BLOCK
  8
0
  2
DC_GROUP_81
 70
     0
 10
0.0
 20
0.0
 30
0.0
  3
DC_GROUP_81
  1

  0
LINE
  5
2B3
  8
LAYER0014
  6
CONTINUOUS
 62
     7
 10
225.0243626472128
 20
93.79155935820967
 30
0.0
 11
231.9801963823773
 21
97.80750224104756
 31
0.0
  0
ARC
  5
2B4
  8
LAYER0014
  6
CONTINUOUS
 62
     7
 10
112.6022910289431
 20
28.8846555199734
 30
0.0
 40
135.7012481689453
 50
0.0
 51
29.99999741973148
  0
INSERT
  5
2B5
  8
LAYER0014
  6
BORDER
  2
DC_GROUP_82
 10
0.0
 20
0.0
 30
0.0
  0
INSERT
  5
2B6
  8
LAYER0014
  6
CONTINUOUS
  2
DC_GROUP_83
 10
0.0
 20
0.0
 30
0.0
  0
TEXT
  5
2B7
  8
LAYER0014
 62
     7
 10
243.9827801068767
 20
69.05728027082498
 30
0.0
 40
4.0
  1
30ﾟ
 50
-75.00000000000003
 41
0.8000000000000043
  7
FDASTYLE1
 72
     5
 11
246.4674429398609
 21
59.78439233844987
 31
0.0
  0
ENDBLK
  5
13E
  8
0
  0
BLOCK
  8
0
  2
DC_GROUP_82
 70
     0
 10
0.0
 20
0.0
 30
0.0
  3
DC_GROUP_82
  1

  0
LINE
  5
2B8
  8
LAYER0014
  6
CONTINUOUS
 62
     7
 10
248.8246860774001
 20
30.88854869876411
 30
0.0
 11
248.3035391978884
 21
28.8846555199734
 31
0.0
  0
LINE
  5
2B9
  8
LAYER0014
  6
CONTINUOUS
 62
     7
 10
248.3035391978884
 20
28.8846555199734
 30
0.0
 11
247.7529161089626
 21
30.88065054901792
 31
0.0
  0
LINE
  5
2BA
  8
LAYER0014
  6
CONTINUOUS
 62
     7
 10
248.3035391978884
 20
28.8846555199734
 30
0.0
 11
248.2888010931813
 21
30.88459962389101
 31
0.0
  0
ENDBLK
  5
141
  8
0
  0
BLOCK
  8
0
  2
DC_GROUP_83
 70
     0
 10
0.0
 20
0.0
 30
0.0
  3
DC_GROUP_83
  1

  0
LINE
  5
2BB
  8
LAYER0014
  6
CONTINUOUS
 62
     7
 10
230.644166165462
 20
94.73138034308397
 30
0.0
 11
230.1230223241034
 21
96.73527431199619
 31
0.0
  0
LINE
  5
2BC
  8
LAYER0014
  6
CONTINUOUS
 62
     7
 10
230.1230223241034
 20
96.73527431199619
 30
0.0
 11
231.5762952838403
 21
95.26042528700194
 31
0.0
  0
LINE
  5
2BD
  8
LAYER0014
  6
CONTINUOUS
 62
     7
 10
230.1230223241034
 20
96.73527431199619
 30
0.0
 11
231.1102307246511
 21
94.99590281504297
 31
0.0
  0
ENDBLK
  5
144
  8
0
  0
BLOCK
  8
0
  2
DC_GROUP_84
 70
     0
 10
0.0
 20
0.0
 30
0.0
  3
DC_GROUP_84
  1

  0
LINE
  5
2BE
  8
LAYER0014
  6
CONTINUOUS
 62
     7
 10
165.9777790741774
 20
62.8953090440127
 30
0.0
 11
185.7460752087373
 21
166.1299191389607
 31
0.0
  0
LINE
  5
2BF
  8
LAYER0014
  6
CONTINUOUS
 62
     7
 10
185.7460669688845
 20
166.129910036575
 30
0.0
 11
233.6297797374392
 21
166.129910036575
 31
0.0
  0
INSERT
  5
2C0
  8
LAYER0014
  6
CONTINUOUS
  2
DC_GROUP_85
 10
0.0
 20
0.0
 30
0.0
  0
TEXT
  5
2C1
  8
LAYER0014
 62
     7
 10
187.0012091807985
 20
167.729910036575
 30
0.0
 40
4.0
  1
3-M8×１５ PCD120
 41
0.7355976731094014
  7
FDASTYLE1
 72
     5
 11
229.9601132903876
 21
167.729910036575
 31
0.0
  0
ENDBLK
  5
147
  8
0
  0
BLOCK
  8
0
  2
DC_GROUP_85
 70
     0
 10
0.0
 20
0.0
 30
0.0
  3
DC_GROUP_85
  1

  0
LINE
  5
2C2
  8
LAYER0014
  6
CONTINUOUS
 62
     7
 10
166.880259244205
 20
64.75883030354683
 30
0.0
 11
165.9777790741774
 21
62.8953090440127
 31
0.0
  0
LINE
  5
2C3
  8
LAYER0014
  6
CONTINUOUS
 62
     7
 10
165.9777790741774
 20
62.8953090440127
 30
0.0
 11
165.8275861601211
 21
64.96040565933024
 31
0.0
  0
LINE
  5
2C4
  8
LAYER0014
  6
CONTINUOUS
 62
     7
 10
165.9777790741774
 20
62.8953090440127
 30
0.0
 11
166.3539227021631
 21
64.85961798143853
 31
0.0
  0
ENDBLK
  5
14A
  8
0
  0
BLOCK
  8
0
  2
DC_GROUP_86
 70
     0
 10
0.0
 20
0.0
 30
0.0
  3
DC_GROUP_86
  1

  0
LINE
  5
2C5
  8
0
  6
CONTINUOUS
 62
     9
 10
-149.952770311389
 20
-14.86534448002659
 30
0.0
 11
-226.0111371084253
 21
-14.86534448002659
 31
0.0
  0
LINE
  5
2C6
  8
0
  6
CONTINUOUS
 62
     9
 10
-149.952770311389
 20
72.63465551997339
 30
0.0
 11
-226.0111371084253
 21
72.63465551997339
 31
0.0
  0
LINE
  5
2C7
  8
0
  6
CONTINUOUS
 62
     9
 10
-225.0111371084253
 20
-14.86534448002659
 30
0.0
 11
-225.0111371084253
 21
72.63465551997339
 31
0.0
  0
INSERT
  5
2C8
  8
0
  6
CONTINUOUS
  2
DC_GROUP_87
 10
0.0
 20
0.0
 30
0.0
  0
INSERT
  5
2C9
  8
0
  6
CONTINUOUS
  2
DC_GROUP_88
 10
0.0
 20
0.0
 30
0.0
  0
TEXT
  5
2CA
  8
0
 62
     7
 10
-226.0111371084253
 20
17.68465551997341
 30
0.0
 40
4.0
  1
φ87.5Ｈ7
 50
90.0
 41
0.7158509861212555
  7
FDASTYLE1
 72
     5
 11
-226.0111371084253
 21
38.87384470916258
 31
0.0
  0
ENDBLK
  5
14D
  8
0
  0
BLOCK
  8
0
  2
DC_GROUP_87
 70
     0
 10
0.0
 20
0.0
 30
0.0
  3
DC_GROUP_87
  1

  0
LINE
  5
2CB
  8
0
  6
CONTINUOUS
 62
     9
 10
-224.4752375735277
 20
-12.86534607239593
 30
0.0
 11
-225.0111371084253
 21
-14.86534448002659
 31
0.0
  0
LINE
  5
2CC
  8
0
  6
CONTINUOUS
 62
     9
 10
-225.0111371084253
 20
-14.86534448002659
 30
0.0
 11
-225.5470366433229
 21
-12.86534607239593
 31
0.0
  0
LINE
  5
2CD
  8
0
  6
CONTINUOUS
 62
     9
 10
-225.0111371084253
 20
-14.86534448002659
 30
0.0
 11
-225.0111371084253
 21
-12.86534607239593
 31
0.0
  0
ENDBLK
  5
150
  8
0
  0
BLOCK
  8
0
  2
DC_GROUP_88
 70
     0
 10
0.0
 20
0.0
 30
0.0
  3
DC_GROUP_88
  1

  0
LINE
  5
2CE
  8
0
  6
CONTINUOUS
 62
     9
 10
-225.5470366433229
 20
70.63465711234274
 30
0.0
 11
-225.0111371084253
 21
72.63465551997339
 31
0.0
  0
LINE
  5
2CF
  8
0
  6
CONTINUOUS
 62
     9
 10
-225.0111371084253
 20
72.63465551997339
 30
0.0
 11
-224.4752375735277
 21
70.63465711234274
 31
0.0
  0
LINE
  5
2D0
  8
0
  6
CONTINUOUS
 62
     9
 10
-225.0111371084253
 20
72.63465551997339
 30
0.0
 11
-225.0111371084253
 21
70.63465711234274
 31
0.0
  0
ENDBLK
  5
153
  8
0
  0
BLOCK
  8
0
  2
DC_GROUP_89
 70
     0
 10
0.0
 20
0.0
 30
0.0
  3
DC_GROUP_89
  1

  0
LINE
  5
2D1
  8
0
  6
CONTINUOUS
 62
     9
 10
-179.952770311389
 20
-6.1153444800266
 30
0.0
 11
-214.1546319971106
 21
-6.1153444800266
 31
0.0
  0
LINE
  5
2D2
  8
0
  6
CONTINUOUS
 62
     9
 10
-179.952770311389
 20
63.8846555199734
 30
0.0
 11
-214.1546319971106
 21
63.8846555199734
 31
0.0
  0
LINE
  5
2D3
  8
0
  6
CONTINUOUS
 62
     9
 10
-213.1546319971106
 20
-6.1153444800266
 30
0.0
 11
-213.1546319971106
 21
63.8846555199734
 31
0.0
  0
INSERT
  5
2D4
  8
0
  6
CONTINUOUS
  2
DC_GROUP_90
 10
0.0
 20
0.0
 30
0.0
  0
INSERT
  5
2D5
  8
0
  6
CONTINUOUS
  2
DC_GROUP_91
 10
0.0
 20
0.0
 30
0.0
  0
TEXT
  5
2D6
  8
0
 62
     7
 10
-214.1546319971106
 20
24.08465551997339
 30
0.0
 40
4.0
  1
φ70
 50
90.0
 41
0.7031250000000022
  7
FDASTYLE1
 72
     5
 11
-214.1546319971106
 21
33.08465551997342
 31
0.0
  0
TEXT
  5
2D7
  8
0
 62
     7
 10
-216.3546319971105
 20
34.68465551997341
 30
0.0
 40
2.2
  1
+0.5
 50
90.0
 41
0.7999999999999991
  7
FDASTYLE1
 72
     5
 11
-216.3546319971105
 21
41.7246555199734
 31
0.0
  0
TEXT
  5
2D8
  8
0
 62
     7
 10
-213.9546319971105
 20
34.68465551997341
 30
0.0
 40
2.2
  1
　0
 50
90.0
 41
0.661157024793392
  7
FDASTYLE1
 72
     5
 11
-213.9546319971105
 21
37.88465551997343
 31
0.0
  0
ENDBLK
  5
156
  8
0
  0
BLOCK
  8
0
  2
DC_GROUP_90
 70
     0
 10
0.0
 20
0.0
 30
0.0
  3
DC_GROUP_90
  1

  0
LINE
  5
2D9
  8
0
  6
CONTINUOUS
 62
     9
 10
-212.618732462213
 20
-4.115346072395938
 30
0.0
 11
-213.1546319971106
 21
-6.1153444800266
 31
0.0
  0
LINE
  5
2DA
  8
0
  6
CONTINUOUS
 62
     9
 10
-213.1546319971106
 20
-6.1153444800266
 30
0.0
 11
-213.6905315320082
 21
-4.115346072395938
 31
0.0
  0
LINE
  5
2DB
  8
0
  6
CONTINUOUS
 62
     9
 10
-213.1546319971106
 20
-6.1153444800266
 30
0.0
 11
-213.1546319971106
 21
-4.115346072395938
 31
0.0
  0
ENDBLK
  5
159
  8
0
  0
BLOCK
  8
0
  2
DC_GROUP_91
 70
     0
 10
0.0
 20
0.0
 30
0.0
  3
DC_GROUP_91
  1

  0
LINE
  5
2DC
  8
0
  6
CONTINUOUS
 62
     9
 10
-213.6905315320082
 20
61.88465711234274
 30
0.0
 11
-213.1546319971106
 21
63.8846555199734
 31
0.0
  0
LINE
  5
2DD
  8
0
  6
CONTINUOUS
 62
     9
 10
-213.1546319971106
 20
63.8846555199734
 30
0.0
 11
-212.618732462213
 21
61.88465711234274
 31
0.0
  0
LINE
  5
2DE
  8
0
  6
CONTINUOUS
 62
     9
 10
-213.1546319971106
 20
63.8846555199734
 30
0.0
 11
-213.1546319971106
 21
61.88465711234274
 31
0.0
  0
ENDBLK
  5
15C
  8
0
  0
BLOCK
  8
0
  2
DC_GROUP_92
 70
     0
 10
0.0
 20
0.0
 30
0.0
  3
DC_GROUP_92
  1

  0
LINE
  5
2DF
  8
0
  6
CONTINUOUS
 62
     9
 10
-149.931041795764
 20
-101.9462112288969
 30
0.0
 11
-149.931041795764
 21
-107.0085697528442
 31
0.0
  0
LINE
  5
2E0
  8
0
  6
CONTINUOUS
 62
     9
 10
-194.931041795764
 20
-84.61534448002661
 30
0.0
 11
-194.931041795764
 21
-107.0085697528442
 31
0.0
  0
LINE
  5
2E1
  8
0
  6
CONTINUOUS
 62
     9
 10
-194.931041795764
 20
-106.0085697528442
 30
0.0
 11
-149.931041795764
 21
-106.0085697528442
 31
0.0
  0
INSERT
  5
2E2
  8
0
  6
DOT2
  2
DC_GROUP_93
 10
0.0
 20
0.0
 30
0.0
  0
INSERT
  5
2E3
  8
0
  6
DOT2
  2
DC_GROUP_94
 10
0.0
 20
0.0
 30
0.0
  0
TEXT
  5
2E4
  8
0
 62
     7
 10
-175.631041795764
 20
-105.0085697528442
 30
0.0
 40
4.0
  1
45
 41
0.7999999999999972
  7
FDASTYLE1
 72
     5
 11
-169.231041795764
 21
-105.0085697528442
 31
0.0
  0
ENDBLK
  5
15F
  8
0
  0
BLOCK
  8
0
  2
DC_GROUP_93
 70
     0
 10
0.0
 20
0.0
 30
0.0
  3
DC_GROUP_93
  1

  0
LINE
  5
2E5
  8
0
  6
CONTINUOUS
 62
     9
 10
-192.9310433881333
 20
-106.5444692877418
 30
0.0
 11
-194.931041795764
 21
-106.0085697528442
 31
0.0
  0
LINE
  5
2E6
  8
0
  6
CONTINUOUS
 62
     9
 10
-194.931041795764
 20
-106.0085697528442
 30
0.0
 11
-192.9310433881333
 21
-105.4726702179466
 31
0.0
  0
LINE
  5
2E7
  8
0
  6
CONTINUOUS
 62
     9
 10
-194.931041795764
 20
-106.0085697528442
 30
0.0
 11
-192.9310433881333
 21
-106.0085697528442
 31
0.0
  0
ENDBLK
  5
162
  8
0
  0
BLOCK
  8
0
  2
DC_GROUP_94
 70
     0
 10
0.0
 20
0.0
 30
0.0
  3
DC_GROUP_94
  1

  0
LINE
  5
2E8
  8
0
  6
CONTINUOUS
 62
     9
 10
-151.9310402033946
 20
-105.4726702179466
 30
0.0
 11
-149.931041795764
 21
-106.0085697528442
 31
0.0
  0
LINE
  5
2E9
  8
0
  6
CONTINUOUS
 62
     9
 10
-149.931041795764
 20
-106.0085697528442
 30
0.0
 11
-151.9310402033946
 21
-106.5444692877418
 31
0.0
  0
LINE
  5
2EA
  8
0
  6
CONTINUOUS
 62
     9
 10
-149.931041795764
 20
-106.0085697528442
 30
0.0
 11
-151.9310402033946
 21
-106.0085697528442
 31
0.0
  0
ENDBLK
  5
165
  8
0
  0
BLOCK
  8
0
  2
DC_GROUP_95
 70
     0
 10
0.0
 20
0.0
 30
0.0
  3
DC_GROUP_95
  1

  0
LINE
  5
2EB
  8
0
  6
CONTINUOUS
 62
     7
 10
-149.931041795764
 20
-96.16685855039597
 30
0.0
 11
-138.3218368901659
 21
-110.214052315703
 31
0.0
  0
LINE
  5
2EC
  8
0
  6
CONTINUOUS
 62
     7
 10
-138.3218368901659
 20
-110.214052315703
 30
0.0
 11
-119.4989556017195
 21
-110.214052315703
 31
0.0
  0
INSERT
  5
2ED
  8
0
  6
DOT2
  2
DC_GROUP_96
 10
0.0
 20
0.0
 30
0.0
  0
TEXT
  5
2EE
  8
0
 62
     7
 10
-138.6989556017195
 20
-110.214052315703
 30
0.0
 40
4.0
  1
Ｍ10×20
 41
0.703125
  7
FDASTYLE1
 72
     5
 11
-120.6989556017195
 21
-110.214052315703
 31
0.0
  0
ENDBLK
  5
168
  8
0
  0
BLOCK
  8
0
  2
DC_GROUP_96
 70
     0
 10
0.0
 20
0.0
 30
0.0
  3
DC_GROUP_96
  1

  0
LINE
  5
2EF
  8
0
  6
CONTINUOUS
 62
     7
 10
-149.0700395136226
 20
-98.04990316276604
 30
0.0
 11
-149.931041795764
 21
-96.16685855039597
 31
0.0
  0
LINE
  5
2F0
  8
0
  6
CONTINUOUS
 62
     7
 10
-149.931041795764
 20
-96.16685855039597
 30
0.0
 11
-148.2438678748336
 21
-97.36711939811241
 31
0.0
  0
LINE
  5
2F1
  8
0
  6
CONTINUOUS
 62
     7
 10
-149.931041795764
 20
-96.16685855039597
 30
0.0
 11
-148.6569536942281
 21
-97.70851128043923
 31
0.0
  0
ENDBLK
  5
16B
  8
0
  0
BLOCK
  8
0
  2
DC_GROUP_97
 70
     0
 10
0.0
 20
0.0
 30
0.0
  3
DC_GROUP_97
  1

  0
LINE
  5
2F2
  8
0
  6
CONTINUOUS
 62
     9
 10
152.1022460331741
 20
35.20591668290101
 30
0.0
 11
152.1022460331741
 21
42.52728700431876
 31
0.0
  0
LINE
  5
2F3
  8
0
  6
CONTINUOUS
 62
     9
 10
73.10224603317413
 20
35.55066804093324
 30
0.0
 11
73.10224603317413
 21
42.52728700431876
 31
0.0
  0
LINE
  5
2F4
  8
0
  6
CONTINUOUS
 62
     9
 10
73.10224603317413
 20
41.52728700431876
 30
0.0
 11
152.1022460331741
 21
41.52728700431876
 31
0.0
  0
INSERT
  5
2F5
  8
0
  6
CONTINUOUS
  2
DC_GROUP_98
 10
0.0
 20
0.0
 30
0.0
  0
INSERT
  5
2F6
  8
0
  6
CONTINUOUS
  2
DC_GROUP_99
 10
0.0
 20
0.0
 30
0.0
  0
TEXT
  5
2F7
  8
0
 62
     7
 10
104.6022460331741
 20
42.52728700431876
 30
0.0
 40
4.0
  1
PCD79
 41
0.8
  7
FDASTYLE1
 72
     5
 11
120.6022460331741
 21
42.52728700431876
 31
0.0
  0
ENDBLK
  5
16E
  8
0
  0
BLOCK
  8
0
  2
DC_GROUP_98
 70
     0
 10
0.0
 20
0.0
 30
0.0
  3
DC_GROUP_98
  1

  0
LINE
  5
2F8
  8
0
  6
CONTINUOUS
 62
     9
 10
75.10224444080478
 20
40.99138746942115
 30
0.0
 11
73.10224603317413
 21
41.52728700431876
 31
0.0
  0
LINE
  5
2F9
  8
0
  6
CONTINUOUS
 62
     9
 10
73.10224603317413
 20
41.52728700431876
 30
0.0
 11
75.10224444080478
 21
42.06318653921637
 31
0.0
  0
LINE
  5
2FA
  8
0
  6
CONTINUOUS
 62
     9
 10
73.10224603317413
 20
41.52728700431876
 30
0.0
 11
75.10224444080478
 21
41.52728700431876
 31
0.0
  0
ENDBLK
  5
171
  8
0
  0
BLOCK
  8
0
  2
DC_GROUP_99
 70
     0
 10
0.0
 20
0.0
 30
0.0
  3
DC_GROUP_99
  1

  0
LINE
  5
2FB
  8
0
  6
CONTINUOUS
 62
     9
 10
150.1022476255434
 20
42.06318653921637
 30
0.0
 11
152.1022460331741
 21
41.52728700431876
 31
0.0
  0
LINE
  5
2FC
  8
0
  6
CONTINUOUS
 62
     9
 10
152.1022460331741
 20
41.52728700431876
 30
0.0
 11
150.1022476255434
 21
40.99138746942115
 31
0.0
  0
LINE
  5
2FD
  8
0
  6
CONTINUOUS
 62
     9
 10
152.1022460331741
 20
41.52728700431876
 30
0.0
 11
150.1022476255434
 21
41.52728700431876
 31
0.0
  0
ENDBLK
  5
174
  8
0
  0
BLOCK
  8
0
  2
DC_GROUP_100
 70
     0
 10
0.0
 20
0.0
 30
0.0
  3
DC_GROUP_100
  1

  0
LINE
  5
2FE
  8
0
  6
CONTINUOUS
 62
     7
 10
71.45630545268952
 20
31.51160483541783
 30
0.0
 11
15.75151272895289
 21
145.2174187012559
 31
0.0
  0
LINE
  5
2FF
  8
0
  6
CONTINUOUS
 62
     7
 10
15.75151272895289
 20
145.2174187012559
 30
0.0
 11
-3.448487271047111
 21
145.2174187012559
 31
0.0
  0
INSERT
  5
300
  8
0
  6
CONTINUOUS
  2
DC_GROUP_101
 10
0.0
 20
0.0
 30
0.0
  0
TEXT
  5
301
  8
0
 62
     7
 10
-3.44848727104711
 20
145.2174187012559
 30
0.0
 40
4.0
  1
2-φ6.2
 41
0.7492195629552549
  7
FDASTYLE1
 72
     5
 11
15.13215789024321
 21
145.2174187012559
 31
0.0
  0
ENDBLK
  5
177
  8
0
  0
BLOCK
  8
0
  2
DC_GROUP_101
 70
     0
 10
0.0
 20
0.0
 30
0.0
  3
DC_GROUP_101
  1

  0
LINE
  5
302
  8
0
  6
CONTINUOUS
 62
     7
 10
71.05766755855061
 20
33.54341923919223
 30
0.0
 11
71.45630545268952
 21
31.51160483541783
 31
0.0
  0
LINE
  5
303
  8
0
  6
CONTINUOUS
 62
     7
 10
71.45630545268952
 20
31.51160483541783
 30
0.0
 11
70.09516541224897
 21
33.07188677543321
 31
0.0
  0
LINE
  5
304
  8
0
  6
CONTINUOUS
 62
     7
 10
71.45630545268952
 20
31.51160483541783
 30
0.0
 11
70.57641648539979
 21
33.30765300731272
 31
0.0
  0
ENDBLK
  5
17A
  8
0
  0
ENDSEC
  0
SECTION
  2
ENTITIES
  0
LINE
  5
305
  8
LAYER0002
  6
CONTINUOUS
 62
     3
 10
-282.531429682114
 20
-190.0
 30
0.0
 11
-282.531429682114
 21
190.0
 31
0.0
  0
LINE
  5
306
  8
LAYER0002
  6
CONTINUOUS
 62
     3
 10
271.468570317886
 20
-190.0
 30
0.0
 11
271.468570317886
 21
190.0
 31
0.0
  0
LINE
  5
307
  8
LAYER0002
  6
CONTINUOUS
 62
     3
 10
-282.531429682114
 20
-190.0
 30
0.0
 11
271.468570317886
 21
-190.0
 31
0.0
  0
LINE
  5
308
  8
LAYER0002
  6
CONTINUOUS
 62
     3
 10
-282.531429682114
 20
189.9999999999999
 30
0.0
 11
271.468570317886
 21
189.9999999999999
 31
0.0
  0
LINE
  5
309
  8
LAYER0002
  6
CONTINUOUS
 62
     3
 10
91.46857031788603
 20
-190.0
 30
0.0
 11
91.46857031788603
 21
-130.0
 31
0.0
  0
LINE
  5
30A
  8
LAYER0002
  6
CONTINUOUS
 62
     3
 10
91.46857031788603
 20
-176.0
 30
0.0
 11
271.468570317886
 21
-176.0
 31
0.0
  0
LINE
  5
30B
  8
LAYER0002
  6
CONTINUOUS
 62
     3
 10
140.468570317886
 20
-162.0
 30
0.0
 11
271.468570317886
 21
-162.0
 31
0.0
  0
LINE
  5
30C
  8
LAYER0002
  6
CONTINUOUS
 62
     3
 10
140.468570317886
 20
-148.0
 30
0.0
 11
271.468570317886
 21
-148.0
 31
0.0
  0
LINE
  5
30D
  8
LAYER0002
  6
CONTINUOUS
 62
     3
 10
140.468570317886
 20
-138.0
 30
0.0
 11
271.468570317886
 21
-138.0
 31
0.0
  0
LINE
  5
30E
  8
LAYER0002
  6
CONTINUOUS
 62
     3
 10
140.468570317886
 20
-176.0
 30
0.0
 11
140.468570317886
 21
-130.0
 31
0.0
  0
LINE
  5
30F
  8
LAYER0002
  6
CONTINUOUS
 62
     3
 10
249.468570317886
 20
-176.0
 30
0.0
 11
249.468570317886
 21
-130.0
 31
0.0
  0
LINE
  5
310
  8
LAYER0002
  6
CONTINUOUS
 62
     3
 10
165.468570317886
 20
-190.0
 30
0.0
 11
165.468570317886
 21
-176.0
 31
0.0
  0
LINE
  5
311
  8
LAYER0002
  6
CONTINUOUS
 62
     3
 10
256.468570317886
 20
-188.0
 30
0.0
 11
266.468570317886
 21
-188.0
 31
0.0
  0
LINE
  5
312
  8
LAYER0002
  6
CONTINUOUS
 62
     3
 10
261.468570317886
 20
-178.0
 30
0.0
 11
256.468570317886
 21
-188.0
 31
0.0
  0
LINE
  5
313
  8
LAYER0002
  6
CONTINUOUS
 62
     3
 10
261.468570317886
 20
-178.0
 30
0.0
 11
266.468570317886
 21
-188.0
 31
0.0
  0
LINE
  5
314
  8
LAYER0002
  6
CONTINUOUS
 62
     3
 10
91.46857031788603
 20
-130.0
 30
0.0
 11
271.468570317886
 21
-130.0
 31
0.0
  0
LINE
  5
315
  8
LAYER0002
  6
CONTINUOUS
 62
     3
 10
220.468570317886
 20
-176.0
 30
0.0
 11
220.468570317886
 21
-148.0
 31
0.0
  0
LINE
  5
316
  8
LAYER0002
  6
CONTINUOUS
 62
     4
 10
99.46857031788602
 20
-172.0
 30
0.0
 11
99.46857031788602
 21
-130.0
 31
0.0
  0
LINE
  5
317
  8
LAYER0002
  6
CONTINUOUS
 62
     4
 10
103.468570317886
 20
-172.0
 30
0.0
 11
103.468570317886
 21
-130.0
 31
0.0
  0
LINE
  5
318
  8
LAYER0002
  6
CONTINUOUS
 62
     4
 10
115.968570317886
 20
-176.0
 30
0.0
 11
115.968570317886
 21
-130.0
 31
0.0
  0
LINE
  5
319
  8
LAYER0002
  6
CONTINUOUS
 62
     4
 10
91.46857031788603
 20
-137.0
 30
0.0
 11
140.468570317886
 21
-137.0
 31
0.0
  0
LINE
  5
31A
  8
LAYER0002
  6
CONTINUOUS
 62
     4
 10
91.46857031788603
 20
-144.0
 30
0.0
 11
140.468570317886
 21
-144.0
 31
0.0
  0
LINE
  5
31B
  8
LAYER0002
  6
CONTINUOUS
 62
     4
 10
91.46857031788603
 20
-165.0
 30
0.0
 11
140.468570317886
 21
-165.0
 31
0.0
  0
LINE
  5
31C
  8
LAYER0002
  6
CONTINUOUS
 62
     4
 10
91.46857031788603
 20
-172.0
 30
0.0
 11
140.468570317886
 21
-172.0
 31
0.0
  0
LINE
  5
31D
  8
LAYER0002
  6
CONTINUOUS
 62
     4
 10
249.468570317886
 20
-166.0
 30
0.0
 11
271.468570317886
 21
-166.0
 31
0.0
  0
LINE
  5
31E
  8
LAYER0002
  6
CONTINUOUS
 62
     4
 10
147.468570317886
 20
-139.5
 30
0.0
 11
147.468570317886
 21
-130.0
 31
0.0
  0
LINE
  5
31F
  8
LAYER0002
  6
CONTINUOUS
 62
     4
 10
196.468570317886
 20
-148.0
 30
0.0
 11
196.468570317886
 21
-146.5
 31
0.0
  0
LINE
  5
320
  8
LAYER0002
  6
CONTINUOUS
 62
     4
 10
220.468570317886
 20
-148.0
 30
0.0
 11
220.468570317886
 21
-146.5
 31
0.0
  0
LINE
  5
321
  8
LAYER0002
  6
CONTINUOUS
 62
     4
 10
237.468570317886
 20
-148.0
 30
0.0
 11
237.468570317886
 21
-146.5
 31
0.0
  0
LINE
  5
322
  8
LAYER0002
  6
CONTINUOUS
 62
     4
 10
196.468570317886
 20
-139.5
 30
0.0
 11
196.468570317886
 21
-130.0
 31
0.0
  0
LINE
  5
323
  8
LAYER0002
  6
CONTINUOUS
 62
     4
 10
220.468570317886
 20
-139.5
 30
0.0
 11
220.468570317886
 21
-130.0
 31
0.0
  0
LINE
  5
324
  8
LAYER0002
  6
CONTINUOUS
 62
     4
 10
237.468570317886
 20
-139.5
 30
0.0
 11
237.468570317886
 21
-130.0
 31
0.0
  0
LINE
  5
325
  8
LAYER0002
  6
CONTINUOUS
 62
     4
 10
91.46857031788603
 20
-151.0
 30
0.0
 11
140.468570317886
 21
-151.0
 31
0.0
  0
LINE
  5
326
  8
LAYER0002
  6
CONTINUOUS
 62
     4
 10
91.46857031788603
 20
-158.0
 30
0.0
 11
140.468570317886
 21
-158.0
 31
0.0
  0
LINE
  5
327
  8
LAYER0002
  6
CONTINUOUS
 62
     4
 10
95.46857031788602
 20
-130.5
 30
0.0
 11
92.46857031788603
 21
-136.5
 31
0.0
  0
LINE
  5
328
  8
LAYER0002
  6
CONTINUOUS
 62
     4
 10
95.46857031788602
 20
-130.5
 30
0.0
 11
98.46857031788602
 21
-136.5
 31
0.0
  0
LINE
  5
329
  8
LAYER0002
  6
CONTINUOUS
 62
     4
 10
92.46857031788603
 20
-136.5
 30
0.0
 11
98.46857031788602
 21
-136.5
 31
0.0
  0
LINE
  5
32A
  8
LAYER0002
  6
CONTINUOUS
 62
     4
 10
95.46857031788602
 20
-158.5
 30
0.0
 11
92.46857031788603
 21
-164.5
 31
0.0
  0
LINE
  5
32B
  8
LAYER0002
  6
CONTINUOUS
 62
     4
 10
95.46857031788602
 20
-158.5
 30
0.0
 11
98.46857031788602
 21
-164.5
 31
0.0
  0
LINE
  5
32C
  8
LAYER0002
  6
CONTINUOUS
 62
     4
 10
92.46857031788603
 20
-164.5
 30
0.0
 11
98.46857031788602
 21
-164.5
 31
0.0
  0
LINE
  5
32D
  8
LAYER0002
  6
CONTINUOUS
 62
     4
 10
95.46857031788602
 20
-151.5
 30
0.0
 11
92.46857031788603
 21
-157.5
 31
0.0
  0
LINE
  5
32E
  8
LAYER0002
  6
CONTINUOUS
 62
     4
 10
95.46857031788602
 20
-151.5
 30
0.0
 11
98.46857031788602
 21
-157.5
 31
0.0
  0
LINE
  5
32F
  8
LAYER0002
  6
CONTINUOUS
 62
     4
 10
92.46857031788603
 20
-157.5
 30
0.0
 11
98.46857031788602
 21
-157.5
 31
0.0
  0
LINE
  5
330
  8
LAYER0002
  6
CONTINUOUS
 62
     4
 10
95.46857031788602
 20
-144.5
 30
0.0
 11
92.46857031788603
 21
-150.5
 31
0.0
  0
LINE
  5
331
  8
LAYER0002
  6
CONTINUOUS
 62
     4
 10
95.46857031788602
 20
-144.5
 30
0.0
 11
98.46857031788602
 21
-150.5
 31
0.0
  0
LINE
  5
332
  8
LAYER0002
  6
CONTINUOUS
 62
     4
 10
92.46857031788603
 20
-150.5
 30
0.0
 11
98.46857031788602
 21
-150.5
 31
0.0
  0
LINE
  5
333
  8
LAYER0002
  6
CONTINUOUS
 62
     4
 10
95.46857031788602
 20
-137.5
 30
0.0
 11
92.46857031788603
 21
-143.5
 31
0.0
  0
LINE
  5
334
  8
LAYER0002
  6
CONTINUOUS
 62
     4
 10
95.46857031788602
 20
-137.5
 30
0.0
 11
98.46857031788602
 21
-143.5
 31
0.0
  0
LINE
  5
335
  8
LAYER0002
  6
CONTINUOUS
 62
     4
 10
92.46857031788603
 20
-143.5
 30
0.0
 11
98.46857031788602
 21
-143.5
 31
0.0
  0
LINE
  5
336
  8
LAYER0002
  6
CONTINUOUS
 62
     4
 10
167.1352369845526
 20
-176.0
 30
0.0
 11
167.1352369845526
 21
-162.0
 31
0.0
  0
LINE
  5
337
  8
LAYER0002
  6
CONTINUOUS
 62
     4
 10
193.8019036512193
 20
-176.0
 30
0.0
 11
193.8019036512193
 21
-161.9509415757253
 31
0.0
  0
LINE
  5
338
  8
LAYER0002
  6
CONTINUOUS
 62
     4
 10
207.1352369845526
 20
-167.5
 30
0.0
 11
207.1352369845526
 21
-161.9509415757253
 31
0.0
  0
LINE
  5
339
  8
LAYER0002
  6
CONTINUOUS
 62
     4
 10
220.468570317886
 20
-155.0
 30
0.0
 11
249.468570317886
 21
-155.0
 31
0.0
  0
LINE
  5
33A
  8
LAYER0002
  6
CONTINUOUS
 62
     4
 10
140.468570317886
 20
-166.0
 30
0.0
 11
220.468570317886
 21
-166.0
 31
0.0
  0
TEXT
  5
33C
  8
LAYER0002
 62
     7
 10
141.4623284653607
 20
-130.821188728956
 30
0.0
 40
2.44248928
  1
符号
 41
0.8
  7
FDASTYLE0
  0
TEXT
  5
33D
  8
LAYER0002
 62
     7
 10
156.8827014397918
 20
-135.8245525019963
 30
0.0
 40
4.0
  1
品       名
 41
0.7333635129017656
  7
FDASTYLE1
 72
     5
 11
184.4571695248982
 21
-135.8245525019963
 31
0.0
  0
TEXT
  5
33E
  8
LAYER0002
 62
     7
 10
201.7017267591956
 20
-135.8245525019963
 30
0.0
 40
4.0
  1
材  料
 41
0.6611570247933895
  7
FDASTYLE1
 72
     5
 11
213.3380903955593
 21
-135.8245525019963
 31
0.0
  0
TEXT
  5
33F
  8
LAYER0002
 62
     7
 10
223.984632002741
 20
-135.8245525019963
 30
0.0
 40
4.0
  1
個 数
 41
0.6228373702422144
  7
FDASTYLE1
 72
     5
 11
232.4552202380351
 21
-135.8245525019963
 31
0.0
  0
TEXT
  5
340
  8
LAYER0002
 62
     7
 10
240.190381270774
 20
-133.5649080050572
 30
0.0
 40
2.5
  1
単重量
 41
0.5555555555555556
  7
FDASTYLE1
 72
     5
 11
245.190381270774
 21
-133.5649080050572
 31
0.0
  0
TEXT
  5
341
  8
LAYER0002
 62
     7
 10
239.1775219415219
 20
-137.3631304897525
 30
0.0
 40
2.5
  1
(kg)
 41
0.8
  7
FDASTYLE1
 72
     5
 11
247.1775219415219
 21
-137.3631304897525
 31
0.0
  0
TEXT
  5
342
  8
LAYER0002
 62
     7
 10
253.6107673833638
 20
-135.8245525019963
 30
0.0
 40
4.0
  1
記  事
 41
0.6611570247933878
  7
FDASTYLE1
 72
     5
 11
265.2471310197274
 21
-135.8245525019963
 31
0.0
  0
TEXT
  5
343
  8
LAYER0002
 62
     7
 10
253.3136497730505
 20
-165.4873041997729
 30
0.0
 40
3.0
  1
コード番号
 41
0.5555555555555556
  7
FDASTYLE1
 72
     5
 11
263.3136497730505
 21
-165.4873041997729
 31
0.0
  0
TEXT
  5
344
  8
LAYER0002
 62
     7
 10
96.38056233371772
 20
-175.1879010540338
 30
0.0
 40
2.5
  1
訂 正 来 歴
 41
0.64431295200526
  7
FDASTYLE1
 72
     5
 11
108.9446648978203
 21
-175.1879010540338
 31
0.0
  0
TEXT
  5
345
  8
LAYER0002
 62
     7
 10
120.358905164651
 20
-175.2166697391651
 30
0.0
 40
2.5
  1
工 事 番 号
 41
0.64431295200526
  7
FDASTYLE1
 72
     5
 11
132.9230077287536
 21
-175.2166697391651
 31
0.0
  0
TEXT
  5
346
  8
LAYER0002
 62
     7
 10
93.40257066448891
 20
-165.9634530565915
 30
0.0
 40
1.90819475
  1
記号
 41
0.8
  7
FDASTYLE0
  0
TEXT
  5
347
  8
LAYER0002
 62
     7
 10
99.34195772464781
 20
-165.9634530565915
 30
0.0
 40
1.90819475
  1
理由
 41
0.8
  7
FDASTYLE0
  0
TEXT
  5
348
  8
LAYER0002
 62
     7
 10
106.0879371088703
 20
-169.8786046700178
 30
0.0
 40
3.0
  1
日 付
 41
0.6228373702422138
  7
FDASTYLE1
 72
     5
 11
112.4408782853409
 21
-169.8786046700178
 31
0.0
  0
TEXT
  5
349
  8
LAYER0002
 62
     7
 10
147.9167392998512
 20
-165.7187911464244
 30
0.0
 40
3.0
  1
承   認
 41
0.6858710562414269
  7
FDASTYLE1
 72
     5
 11
159.0278504109623
 21
-165.7187911464244
 31
0.0
  0
TEXT
  5
34A
  8
LAYER0002
 62
     7
 10
174.33179835112
 20
-165.4873041997729
 30
0.0
 40
3.0
  1
検   図
 41
0.6858710562414269
  7
FDASTYLE1
 72
     5
 11
185.4429094622311
 21
-165.4873041997729
 31
0.0
  0
TEXT
  5
34B
  8
LAYER0002
 62
     7
 10
195.9457624162611
 20
-165.4873041997729
 30
0.0
 40
3.0
  1
担  当
 41
0.6611570247933879
  7
FDASTYLE1
 72
     5
 11
204.6730351435338
 21
-165.4873041997729
 31
0.0
  0
TEXT
  5
34C
  8
LAYER0002
 62
     7
 10
209.1456278019972
 20
-165.4873041997729
 30
0.0
 40
3.0
  1
製  図
 41
0.6611570247933879
  7
FDASTYLE1
 72
     5
 11
217.8729005292699
 21
-165.4873041997729
 31
0.0
  0
TEXT
  5
34D
  8
LAYER0002
 62
     7
 10
221.4148075483059
 20
-153.2184960272417
 30
0.0
 40
3.0
  1
作図
 41
0.5555555555555556
  7
FDASTYLE1
 72
     5
 11
225.4148075483059
 21
-153.2184960272417
 31
0.0
  0
TEXT
  5
34E
  8
LAYER0002
 62
     7
 10
222.5722422815636
 20
-160.2371566401815
 30
0.0
 40
4.0
  1
第 三 角 法
 41
0.6443129520052602
  7
FDASTYLE1
 72
     5
 11
242.6748063841278
 21
-160.2371566401815
 31
0.0
  0
TEXT
  5
34F
  8
LAYER0002
 62
     7
 10
221.877781441609
 20
-166.413251986379
 30
0.0
 40
3.0
  1
尺度
 41
0.5555555555555556
  7
FDASTYLE1
 72
     5
 11
225.877781441609
 21
-166.413251986379
 31
0.0
  0
TEXT
  5
351
  8
LAYER0002
 62
     3
 10
99.84772468792002
 20
-185.9272077185017
 30
0.0
 40
7.0
  1
株式会社 野村製作所
 41
0.4314821561072638
  7
FDASTYLE2
 72
     5
 11
140.1938951768858
 21
-185.9272077185017
 31
0.0
  0
TEXT
  5
353
  8
LAYER0002
 62
     3
 10
178.0803921113025
 20
-187.1216685584563
 30
0.0
 40
8.0
  1
２－
 41
0.7311772135933162
  7
FDASTYLE3
 72
     5
 11
191.270829044526
 21
-187.1216685584563
 31
0.0
  0
TEXT
  5
354
  8
LAYER0002
 62
     3
 10
194.9923497357093
 20
-187.1216685584563
 30
0.0
 40
8.0
  1
9310036
 41
1.376887003393891
  7
FDASTYLE3
 72
     5
 11
250.1669657357093
 21
-187.1216685584563
 31
0.0
  0
TEXT
  5
355
  8
LAYER0002
 62
     6
 10
225.583783018673
 20
-146.1941968197806
 30
0.0
 40
4.0
  1
一式
 41
0.4861111111111102
  7
FDASTYLE1
 72
     5
 11
230.2504496853397
 21
-146.1941968197806
 31
0.0
  0
TEXT
  5
356
  8
LAYER0002
 62
     6
 10
157.3422528693647
 20
-145.3589000228561
 30
0.0
 40
5.0
  1
外　形　図
 41
0.4861111111111114
  7
FDASTYLE1
 72
     5
 11
171.9255862026981
 21
-145.3589000228561
 31
0.0
  0
TEXT
  5
357
  8
LAYER0002
 62
     4
 10
233.7697492085259
 20
-172.297487439201
 30
0.0
 40
3.0
  1
1/1
 41
0.7000000000000013
  7
FDASTYLE1
 72
     5
 11
240.0697492085259
 21
-172.297487439201
 31
0.0
  0
TEXT
  5
358
  8
0
 62
     6
 10
143.4009131816014
 20
-154.3580193026319
 30
0.0
 40
5.0
  1
日鋼プレシジォン
 41
0.5555555555555554
  7
FDASTYLE1
 72
     5
 11
170.0675798482681
 21
-154.3580193026319
 31
0.0
  0
TEXT
  5
359
  8
0
 62
     6
 10
152.1956421554559
 20
-160.926795036144
 30
0.0
 40
5.0
  1
HF3-10型 チャック
 41
0.681656804733728
  7
FDASTYLE1
 72
     5
 11
196.5033344631482
 21
-160.926795036144
 31
0.0
  0
TEXT
  5
35A
  8
0
 62
     6
 10
-87.53706153110025
 20
-111.5689210448154
 30
0.0
 40
4.199999809265137
  1
仕   様
 41
0.8322933113184806
  7
FDASTYLE1
 72
     5
 11
-68.6606500876328
 21
-111.5689210448154
 31
0.0
  0
TEXT
  5
35B
  8
0
 62
     6
 10
-87.42777319625375
 20
-119.7769135985264
 30
0.0
 40
4.199999809265137
  1
爪ノｽﾄﾛ-ｸ          
 41
0.8455568119648048
  7
FDASTYLE1
 72
     5
 11
-25.63448418408846
 21
-119.7769135985264
 31
0.0
  0
TEXT
  5
35C
  8
0
 62
     6
 10
-4.926645014438606
 20
-119.2519136223682
 30
0.0
 40
3.149999856948853
  1
 （直径ﾆﾃ）
 41
0.7494332860649495
  7
FDASTYLE1
 72
     5
 11
13.48692998796033
 21
-119.2519136223682
 31
0.0
  0
TEXT
  5
35D
  8
0
 62
     6
 10
17.13155112787726
 20
-119.7769135985264
 30
0.0
 40
4.199999809265137
  1
　    8 mm
 41
0.8571694973592612
  7
FDASTYLE1
 72
     5
 11
50.25257900171172
 21
-119.7769135985264
 31
0.0
  0
TEXT
  5
35E
  8
0
 62
     6
 10
-87.46641119197366
 20
-127.9849137816318
 30
0.0
 40
4.199999809265137
  1
ピｽﾄﾝｽﾄﾛ-ｸ 　　 　　　　　              30 mm
 41
0.8498750355045915
  7
FDASTYLE1
 72
     5
 11
50.31532330693989
 21
-127.9849137816318
 31
0.0
  0
TEXT
  5
35F
  8
0
 62
     6
 10
-87.44046421721933
 20
-136.1929139647372
 30
0.0
 40
4.199999809265137
  1
許容ｼﾘﾝダ力 
 41
0.7574196507801435
  7
FDASTYLE1
 72
     5
 11
-59.44623519568896
 21
-136.1929139647372
 31
0.0
  0
TEXT
  5
360
  8
0
 62
     6
 10
27.74411072718556
 20
-136.1929139647372
 30
0.0
 40
4.199999809265137
  1
 30 ｋN
 41
0.8547844168854317
  7
FDASTYLE1
 72
     5
 11
50.00269593205164
 21
-136.1929139647372
 31
0.0
  0
TEXT
  5
361
  8
0
 62
     6
 10
-87.46641119197366
 20
-144.4009065184482
 30
0.0
 40
4.199999809265137
  1
最大静的把握力   　　　　　　　　            112.8 ｋN
 41
0.7898857629987608
  7
FDASTYLE1
 72
     5
 11
49.21541503019128
 21
-144.4009065184482
 31
0.0
  0
TEXT
  5
362
  8
0
 62
     6
 10
-87.46641119197366
 20
-152.6089143309482
 30
0.0
 40
4.199999809265137
  1
最高使用回転速度   　　　 　　　　　　         4200 ｍin
 41
0.7775114761451889
  7
FDASTYLE1
 72
     5
 11
48.38038775089424
 21
-152.6089143309482
 31
0.0
  0
TEXT
  5
363
  8
0
 62
     6
 10
49.26307314812315
 20
-149.3041750423606
 30
0.0
 40
2.099999904632568
  1
-1
 41
0.8678280802765294
  7
FDASTYLE1
 72
     5
 11
52.9079509197595
 21
-149.3041750423606
 31
0.0
  0
TEXT
  5
364
  8
0
 62
     6
 10
-87.45334215835092
 20
-160.8169221434482
 30
0.0
 40
4.199999809265137
  1
慣性モーメント  
 41
0.6949533599516741
  7
FDASTYLE1
 72
     5
 11
-57.09778077420087
 21
-160.8169221434482
 31
0.0
  0
TEXT
  5
365
  8
0
 62
     6
 10
-24.6830664973543
 20
-161.1390277629155
 30
0.0
 40
4.199999809265137
  1
            0.3 ｋg・m
 41
0.8588119840674068
  7
FDASTYLE1
 72
     5
 11
48.89994095591122
 21
-161.1390277629155
 31
0.0
  0
TEXT
  5
366
  8
0
 62
     6
 10
49.6973070244342
 20
-157.7215520125942
 30
0.0
 40
2.099999904632568
  1
2
 41
0.8392550645217473
  7
FDASTYLE1
 72
     5
 11
51.45974257989227
 21
-157.7215520125942
 31
0.0
  0
TEXT
  5
367
  8
0
 62
     6
 10
-87.46641119197366
 20
-169.0249146971591
 30
0.0
 40
4.199999809265137
  1
質 量   　　　　　　　                   30 ｋg
 41
0.8327613417604552
  7
FDASTYLE1
 72
     5
 11
48.93989039376069
 21
-169.0249146971591
 31
0.0
  0
TEXT
  5
368
  8
0
 62
     6
 10
-87.46641119197366
 20
-177.2329225096591
 30
0.0
 40
4.199999809265137
  1
ｱﾝバﾗﾝｽ量           
 41
0.8614500332440472
  7
FDASTYLE1
 72
     5
 11
-20.8935556461511
 21
-177.2329225096591
 31
0.0
  0
TEXT
  5
369
  8
0
 62
     6
 10
1.841430004682565
 20
-176.707922533501
 30
0.0
 40
3.149999856948853
  1
    外周ﾆﾃ
 41
0.8338503166988699
  7
FDASTYLE1
 72
     5
 11
23.90510838255541
 21
-176.707922533501
 31
0.0
  0
TEXT
  5
36A
  8
0
 62
     6
 10
28.78744059429031
 20
-177.2329225096591
 30
0.0
 40
4.199999809265137
  1
  6g以内
 41
0.8179129614082661
  7
FDASTYLE1
 72
     5
 11
50.7729399985156
 21
-177.2329225096591
 31
0.0
  0
LINE
  5
36B
  8
0
  6
DASHED2
 62
     7
 10
-194.931041795764
 20
-44.79034753178441
 30
0.0
 11
-161.3056908436155
 21
-44.79034753178441
 31
0.0
  0
LINE
  5
36C
  8
0
  6
DASHED2
 62
     7
 10
-194.931041795764
 20
-30.79034753178441
 30
0.0
 11
-165.2149620838499
 21
-30.79034753178441
 31
0.0
  0
LINE
  5
36D
  8
0
  6
DASHED2
 62
     7
 10
50.10229865833762
 20
130.3846555199734
 30
0.0
 11
63.60229865833762
 21
130.3846555199734
 31
0.0
  0
LINE
  5
36E
  8
0
  6
DASHED2
 62
     7
 10
50.10229865833762
 20
112.3846555199734
 30
0.0
 11
63.60229865833762
 21
112.3846555199734
 31
0.0
  0
LINE
  5
36F
  8
0
  6
DASHED2
 62
     7
 10
50.10229865833762
 20
137.1378293480984
 30
0.0
 11
50.10229865833762
 21
109.3846555199734
 31
0.0
  0
LINE
  5
370
  8
0
  6
DASHED2
 62
     7
 10
16.97410957142356
 20
109.3846555199734
 30
0.0
 11
50.10229865833762
 21
109.3846555199734
 31
0.0
  0
LINE
  5
371
  8
0
  6
DASHED2
 62
     7
 10
38.10229865833762
 20
123.7846570458523
 30
0.0
 11
38.10229865833762
 21
118.9846539940945
 31
0.0
  0
LINE
  5
372
  8
0
  6
DASHED2
 62
     7
 10
40.80229942127707
 20
124.6846585717312
 30
0.0
 11
40.80229942127707
 21
118.0846524682156
 31
0.0
  0
LINE
  5
373
  8
0
  6
DASHED2
 62
     7
 10
46.54104987904074
 20
115.6846433129421
 30
0.0
 11
49.66354743763449
 21
115.6846433129421
 31
0.0
  0
LINE
  5
374
  8
0
  6
DASHED2
 62
     7
 10
46.54104987904074
 20
127.0846677270046
 30
0.0
 11
49.66354743763449
 21
127.0846677270046
 31
0.0
  0
LINE
  5
375
  8
0
  6
DASHED2
 62
     7
 10
40.80228606195365
 20
118.0846105230131
 30
0.0
 11
38.10228564588388
 21
118.9846105486112
 31
0.0
  0
LINE
  5
376
  8
0
  6
DASHED2
 62
     7
 10
40.8023158805041
 20
124.6845951819628
 30
0.0
 11
38.102319083374
 21
123.7845963626778
 31
0.0
  0
LINE
  5
377
  8
0
  6
DASHED2
 62
     7
 10
41.80229942127707
 20
124.1299863305203
 30
0.0
 11
41.80229942127707
 21
118.5891766991726
 31
0.0
  0
LINE
  5
378
  8
0
  6
DASHED2
 62
     7
 10
46.10229865833762
 20
125.8346524682156
 30
0.0
 11
46.10229865833762
 21
116.9346585717312
 31
0.0
  0
LINE
  5
379
  8
0
  6
DASHED2
 62
     7
 10
46.84618751331809
 20
124.2783322777859
 30
0.0
 11
49.35840980335715
 21
124.2783322777859
 31
0.0
  0
LINE
  5
37A
  8
0
  6
DASHED2
 62
     7
 10
46.84618751331809
 20
118.4909787621609
 30
0.0
 11
49.35840980335715
 21
118.4909787621609
 31
0.0
  0
LINE
  5
37B
  8
0
  6
DASHED2
 62
     7
 10
50.10229865833762
 20
117.8846555199734
 30
0.0
 11
55.30023567005637
 21
117.8846555199734
 31
0.0
  0
LINE
  5
37C
  8
0
  6
DASHED2
 62
     7
 10
50.10229865833762
 20
124.8846555199734
 30
0.0
 11
55.09335319324973
 21
124.8846555199734
 31
0.0
  0
LINE
  5
37D
  8
0
  6
DASHED2
 62
     7
 10
50.10229865833762
 20
116.8846555199734
 30
0.0
 11
55.50711814686301
 21
116.8846555199734
 31
0.0
  0
LINE
  5
37E
  8
0
  6
DASHED2
 62
     7
 10
50.10229865833762
 20
125.8846555199734
 30
0.0
 11
55.09335319324973
 21
125.8846555199734
 31
0.0
  0
ARC
  5
37F
  8
0
  6
DASHED2
 62
     7
 10
40.80229942127707
 20
121.3846555199734
 30
0.0
 40
3.299999952316284
 50
73.48282241201397
 51
89.99998201391068
  0
ARC
  5
380
  8
0
  6
DASHED2
 62
     7
 10
40.80229942127707
 20
121.3846555199734
 30
0.0
 40
3.299999952316284
 50
270.0000179860894
 51
286.5171775879861
  0
ARC
  5
381
  8
0
  6
DASHED2
 62
     7
 10
48.10229865833762
 20
125.8346677270046
 30
0.0
 40
2.0
 50
0.0
 51
38.68218896809866
  0
ARC
  5
382
  8
0
  6
DASHED2
 62
     7
 10
48.10229865833762
 20
116.9346433129421
 30
0.0
 40
2.0
 50
0.0
 51
51.09316519948326
  0
ARC
  5
383
  8
0
  6
DASHED2
 62
     7
 10
44.10229865833762
 20
121.3846555199734
 30
0.0
 40
6.0
 50
0.0
 51
28.83423780766658
  0
ARC
  5
384
  8
0
  6
DASHED2
 62
     7
 10
52.10229865833762
 20
121.3846555199734
 30
0.0
 40
6.0
 50
151.1657740314788
 51
208.8342086656771
  0
ARC
  5
385
  8
0
  6
DASHED2
 62
     7
 10
44.10229865833762
 20
121.3846555199734
 30
0.0
 40
6.0
 50
331.1657621923334
 51
360.0
  0
ARC
  5
386
  8
0
  6
DASHED2
 62
     7
 10
48.10229865833762
 20
125.8346677270046
 30
0.0
 40
2.0
 50
308.9068348005167
 51
360.0
  0
ARC
  5
387
  8
0
  6
DASHED2
 62
     7
 10
48.10229865833762
 20
125.8346677270046
 30
0.0
 40
2.0
 50
141.3178297012362
 51
231.0931121518319
  0
ARC
  5
388
  8
0
  6
DASHED2
 62
     7
 10
48.10229865833762
 20
116.9346433129421
 30
0.0
 40
2.0
 50
128.9068568849459
 51
218.6821529959199
  0
ARC
  5
389
  8
0
  6
DASHED2
 62
     7
 10
48.10229865833762
 20
116.9346433129421
 30
0.0
 40
2.0
 50
321.3178110319012
 51
360.0
  0
ARC
  5
38A
  8
0
  6
DASHED2
 62
     7
 10
42.13549415394309
 20
130.1846433129421
 30
0.0
 40
5.650000095367432
 50
265.9910930942637
 51
315.0592540539054
  0
ARC
  5
38B
  8
0
  6
DASHED2
 62
     7
 10
42.13549415394309
 20
112.5846677270046
 30
0.0
 40
5.650000095367432
 50
44.94074594609459
 51
94.00890690573625
  0
ARC
  5
38C
  8
0
  6
DASHED2
 62
     7
 10
38.80229942127707
 20
121.3846555199734
 30
0.0
 40
1.5
 50
117.818154050457
 51
242.1818423070773
  0
LINE
  5
38D
  8
0
  6
DASHED2
 62
     7
 10
-144.931041795764
 20
-76.11534448002661
 30
0.0
 11
-144.931041795764
 21
-96.11534448002661
 31
0.0
  0
LINE
  5
38E
  8
0
  6
DASHED2
 62
     7
 10
-154.931041795764
 20
-76.11534448002661
 30
0.0
 11
-154.931041795764
 21
-96.11534448002661
 31
0.0
  0
LINE
  5
38F
  8
0
  6
DASHED2
 62
     7
 10
-154.931041795764
 20
-76.11534448002661
 30
0.0
 11
-144.931041795764
 21
-76.11534448002661
 31
0.0
  0
LINE
  5
390
  8
0
  6
DASHED2
 62
     7
 10
-154.231041795764
 20
-71.11534448002661
 30
0.0
 11
-145.631041795764
 21
-71.11534448002661
 31
0.0
  0
LINE
  5
391
  8
0
  6
DASHED2
 62
     7
 10
-145.631041795764
 20
-71.11534448002661
 30
0.0
 11
-145.631041795764
 21
-96.11534448002661
 31
0.0
  0
LINE
  5
392
  8
0
  6
DASHED2
 62
     7
 10
-154.231041795764
 20
-71.11534448002661
 30
0.0
 11
-154.231041795764
 21
-96.11534448002661
 31
0.0
  0
LINE
  5
393
  8
0
  6
DASHED2
 62
     7
 10
-154.2310417957641
 20
-71.11534448002665
 30
0.0
 11
-149.9310417957641
 21
-68.63273832251124
 31
0.0
  0
LINE
  5
394
  8
0
  6
DASHED2
 62
     7
 10
-145.6310417957639
 20
-71.11534448002665
 30
0.0
 11
-149.9310417957639
 21
-68.63273832251124
 31
0.0
  0
LINE
  5
395
  8
0
  6
DASHED2
 62
     7
 10
205.9903532663628
 20
77.02877197811819
 30
0.0
 11
223.3108613420516
 21
87.02877197811819
 31
0.0
  0
LINE
  5
396
  8
0
  6
DASHED2
 62
     7
 10
205.9903532663628
 20
77.02877197811819
 30
0.0
 11
200.9903532663628
 21
85.68902601596258
 31
0.0
  0
LINE
  5
397
  8
0
  6
DASHED2
 62
     7
 10
201.3102262474406
 20
75.1349897607673
 30
0.0
 11
197.0102262474406
 21
82.5828082333135
 31
0.0
  0
LINE
  5
398
  8
0
  6
DASHED2
 62
     7
 10
201.3102262474406
 20
75.1349897607673
 30
0.0
 11
222.9608613420516
 21
87.6349897607673
 31
0.0
  0
LINE
  5
399
  8
0
  6
DASHED2
 62
     7
 10
201.3102262474407
 20
75.13498976076723
 30
0.0
 11
197.0102262474407
 21
77.61759591828263
 31
0.0
  0
LINE
  5
39A
  8
0
  6
DASHED2
 62
     7
 10
200.9903532663628
 20
85.68902601596258
 30
0.0
 11
218.3108613420516
 21
95.68902601596258
 31
0.0
  0
LINE
  5
39B
  8
0
  6
DASHED2
 62
     7
 10
197.0102262474406
 20
82.5828082333135
 30
0.0
 11
218.6608613420515
 21
95.08280823331349
 31
0.0
  0
LINE
  5
39C
  8
0
  6
DASHED2
 62
     7
 10
197.0102262474405
 20
82.58280823331359
 30
0.0
 11
197.0102262474406
 21
77.61759591828277
 31
0.0
  0
LINE
  5
39D
  8
0
  6
CENTER
 62
     7
 10
-149.931041795764
 20
-65.79199930201121
 30
0.0
 11
-149.931041795764
 21
-100.9462112288969
 31
0.0
  0
LINE
  5
39E
  8
0
  6
CENTER
 62
     7
 10
-223.0074425525999
 20
-37.79034753178441
 30
0.0
 11
-154.6136437244749
 21
-37.79034753178441
 31
0.0
  0
LINE
  5
39F
  8
0
  6
CENTER
 62
     7
 10
55.06288796246813
 20
62.10506743711031
 30
0.0
 11
66.30530357146549
 21
55.61425647603139
 31
0.0
  0
LINE
  5
3A0
  8
0
  6
CENTER
 62
     7
 10
36.60806919918591
 20
49.24722444979083
 30
0.0
 11
59.7902942315678
 21
43.03556663680056
 31
0.0
  0
LINE
  5
3A1
  8
0
  6
CENTER
 62
     7
 10
32.80229560657981
 20
121.3846555199734
 30
0.0
 11
64.91220466419699
 21
121.3846555199734
 31
0.0
  0
LINE
  5
3A2
  8
0
  6
CENTER
 62
     7
 10
17.20639919163327
 20
-9.884792519197639
 30
0.0
 11
31.1987056615869
 21
-34.12017491616702
 31
0.0
  0
LINE
  5
3A3
  8
0
  6
CENTER
 62
     7
 10
43.37858160385642
 20
4.783670267905656
 30
0.0
 11
56.97088840759611
 21
-18.75889247919601
 31
0.0
  0
ARC
  5
3A4
  8
0
  6
CENTER
 62
     7
 10
112.6022986583376
 20
28.8846555199734
 30
0.0
 40
66.67500305175781
 50
152.0510075290476
 51
178.2154951448854
  0
ARC
  5
3A5
  8
0
  6
CENTER
 62
     7
 10
112.6022986583376
 20
28.8846555199734
 30
0.0
 40
60.0
 50
143.2855662199818
 51
156.1868100148953
  0
LINE
  5
3A6
  8
0
  6
CENTER
 62
     7
 10
151.2633880741965
 20
67.5457287943336
 30
0.0
 11
168.2339627523402
 21
84.51630204196496
 31
0.0
  0
LINE
  5
3A7
  8
0
  6
CENTER
 62
     7
 10
165.4142539999851
 20
43.03556690900454
 30
0.0
 11
188.5965029830116
 21
49.24723113955
 31
0.0
  0
LINE
  5
3A8
  8
0
  6
CENTER
 62
     7
 10
91.46322790358144
 20
-50.0073275971645
 30
0.0
 11
99.22779813210792
 21
-21.02956058495604
 31
0.0
  0
LINE
  5
3A9
  8
0
  6
CENTER
 62
     7
 10
125.9767547143575
 20
-21.02956440904861
 30
0.0
 11
133.7413269175168
 21
-50.00733879068618
 31
0.0
  0
LINE
  5
3AA
  8
0
  6
CENTER
 62
     7
 10
194.2596465034195
 20
-33.68075273251818
 30
0.0
 11
207.4777495806048
 21
-10.78632976329302
 31
0.0
  0
LINE
  5
3AB
  8
0
  6
CENTER
 62
     7
 10
168.3577789379288
 20
-18.54401085241536
 30
0.0
 11
181.5646591744208
 21
4.330973589189831
 31
0.0
  0
LINE
  5
3AC
  8
0
  6
CENTER
 62
     7
 10
97.94833747669702
 20
130.8846555199734
 30
0.0
 11
126.3483313731814
 21
130.8846555199734
 31
0.0
  0
LINE
  5
3AD
  8
0
  6
CENTER
 62
     7
 10
97.94833747669702
 20
100.8846555199734
 30
0.0
 11
126.7483252696657
 21
100.8846555199734
 31
0.0
  0
LINE
  5
3AE
  8
0
  6
CENTER
 62
     7
 10
112.6023360664329
 20
28.88465525551917
 30
0.0
 11
228.936408218229
 21
-38.2808451966712
 31
0.0
  0
LINE
  5
3AF
  8
0
  6
CENTER
 62
     7
 10
159.0436453167859
 20
55.69757424915495
 30
0.0
 11
225.0243649953759
 21
93.79155630821725
 31
0.0
  0
ARC
  5
3B0
  8
0
  6
CENTER
 62
     7
 10
112.6022986583376
 20
28.8846555199734
 30
0.0
 40
66.67500305175781
 50
2.173592230470904
 51
28.50348248201417
  0
ARC
  5
3B1
  8
0
  6
CENTER
 62
     7
 10
112.6022986583376
 20
28.8846555199734
 30
0.0
 40
66.67500305175781
 50
242.0826989235511
 51
268.7174518939335
  0
ARC
  5
3B2
  8
0
  6
CENTER
 62
     7
 10
112.6022986583376
 20
28.8846555199734
 30
0.0
 40
66.67500305175781
 50
271.0089940208512
 51
297.9172824071142
  0
ARC
  5
3B3
  8
0
  6
CENTER
 62
     7
 10
112.6022986583376
 20
28.8846555199734
 30
0.0
 40
66.67500305175781
 50
31.83895413677112
 51
57.83743400483184
  0
ARC
  5
3B4
  8
0
  6
CENTER
 62
     7
 10
112.6022986583376
 20
28.8846555199734
 30
0.0
 40
60.0
 50
262.8711241531044
 51
276.5021258495097
  0
ARC
  5
3B5
  8
0
  6
CENTER
 62
     7
 10
112.6022986583376
 20
28.8846555199734
 30
0.0
 40
60.0
 50
23.07117861055644
 51
36.65199719958235
  0
LINE
  5
3B6
  8
0
  6
CENTER
 62
     7
 10
-207.5135460682249
 20
28.8846555199734
 30
0.0
 11
-89.33873375133035
 21
28.8846555199734
 31
0.0
  0
LINE
  5
3B7
  8
0
  6
CENTER
 62
     7
 10
-128.8025627918577
 20
-31.1153444800266
 30
0.0
 11
-99.5178948231077
 21
-31.1153444800266
 31
0.0
  0
LINE
  5
3B8
  8
0
  6
CENTER
 62
     7
 10
-127.7483483143187
 20
130.8846555199734
 30
0.0
 11
-74.41764457896707
 21
130.8846555199734
 31
0.0
  0
LINE
  5
3B9
  8
0
  6
CENTER
 62
     7
 10
-127.7483483143187
 20
100.8846555199734
 30
0.0
 11
-74.41764457896707
 21
100.8846555199734
 31
0.0
  0
LINE
  5
3BA
  8
0
  6
CENTER
 62
     7
 10
-22.49967582896707
 20
28.8846555199734
 30
0.0
 11
251.2689551524783
 21
28.8846555199734
 31
0.0
  0
LINE
  5
3BB
  8
0
  6
CENTER
 62
     7
 10
-5.010816210653417
 20
-39.01930281096738
 30
0.0
 11
112.6022972713436
 21
28.88465241593324
 31
0.0
  0
LINE
  5
3BC
  8
0
  6
CENTER
 62
     7
 10
56.97069329451856
 20
84.516304823659
 30
0.0
 11
73.94125718306836
 21
67.54574236562067
 31
0.0
  0
ARC
  5
3BD
  8
0
  6
CENTER
 62
     7
 10
112.6022986583376
 20
28.8846555199734
 30
0.0
 40
66.67500305175781
 50
121.9482464981587
 51
147.8909168905112
  0
LINE
  5
3BE
  8
0
  6
CENTER
 62
     7
 10
-136.9708824940062
 20
68.38465551997339
 30
0.0
 11
-119.2300835438108
 21
68.38465551997339
 31
0.0
  0
LINE
  5
3BF
  8
0
  6
CENTER
 62
     7
 10
108.4608504643265
 20
68.38465241593323
 30
0.0
 11
117.1399876167248
 21
68.38465241593323
 31
0.0
  0
LINE
  5
3C0
  8
0
  6
CENTER
 62
     7
 10
73.10224603317413
 20
34.55066804093324
 30
0.0
 11
73.10224603317413
 21
22.88465241593324
 31
0.0
  0
LINE
  5
3C1
  8
0
  6
CENTER
 62
     7
 10
152.1022460331741
 20
34.20591668290101
 30
0.0
 11
152.1022460331741
 21
22.88465241593324
 31
0.0
  0
LINE
  5
3C2
  8
0
  6
CENTER
 62
     7
 10
148.8810241243375
 20
12.72125055923209
 30
0.0
 11
144.5414555481383
 21
5.204897302325747
 31
0.0
  0
LINE
  5
3C3
  8
0
  6
CENTER
 62
     7
 10
80.46501722536694
 20
5.548054272634403
 30
0.0
 11
76.12544864916774
 21
13.06440752954077
 31
0.0
  0
LINE
  5
3C4
  8
0
  6
CENTER
 62
     7
 10
112.6022986583376
 20
163.1190762963406
 30
0.0
 11
112.6022986583376
 21
47.97670461981411
 31
0.0
  0
LINE
  5
3C5
  8
0
  6
CENTER
 62
     7
 10
112.6022986583376
 20
40.2080879466038
 30
0.0
 11
112.6022986583376
 21
-102.1170687231907
 31
0.0
  0
LINE
  5
3C6
  8
0
  6
CONTINUOUS
 62
     7
 10
-101.6130943856867
 20
87.88465551997339
 30
0.0
 11
-75.1313947826679
 21
87.88465551997339
 31
0.0
  0
LINE
  5
3C7
  8
0
  6
CONTINUOUS
 62
     4
 10
-217.1310387440062
 20
-42.79034753178441
 30
0.0
 11
-199.1310540027952
 21
-42.79034753178441
 31
0.0
  0
LINE
  5
3C8
  8
0
  6
CONTINUOUS
 62
     4
 10
-217.1310387440062
 20
-32.79034753178441
 30
0.0
 11
-199.1310540027952
 21
-32.79034753178441
 31
0.0
  0
LINE
  5
3C9
  8
0
  6
CONTINUOUS
 62
     4
 10
-217.1310387440062
 20
-43.79034753178441
 30
0.0
 11
-199.1310540027952
 21
-43.79034753178441
 31
0.0
  0
LINE
  5
3CA
  8
0
  6
CONTINUOUS
 62
     4
 10
-217.1310387440062
 20
-31.79034753178441
 30
0.0
 11
-199.1310540027952
 21
-31.79034753178441
 31
0.0
  0
LINE
  5
3CB
  8
0
  6
CONTINUOUS
 62
     4
 10
-217.1310540027952
 20
-31.79034753178441
 30
0.0
 11
-217.1310540027952
 21
-43.79034753178441
 31
0.0
  0
LINE
  5
3CC
  8
0
  6
CONTINUOUS
 62
     4
 10
-119.1310387440062
 20
-27.1153444800266
 30
0.0
 11
-119.1310387440062
 21
-35.1153444800266
 31
0.0
  0
LINE
  5
3CD
  8
0
  6
CONTINUOUS
 62
     4
 10
-151.952770311389
 20
63.8846555199734
 30
0.0
 11
-151.952770311389
 21
50.98728994990504
 31
0.0
  0
LINE
  5
3CE
  8
0
  6
CONTINUOUS
 62
     4
 10
-178.952770311389
 20
63.8846555199734
 30
0.0
 11
-178.952770311389
 21
51.26797918940699
 31
0.0
  0
LINE
  5
3CF
  8
0
  6
CONTINUOUS
 62
     4
 10
-178.952770311389
 20
5.66479353572047
 30
0.0
 11
-178.952770311389
 21
-6.1153444800266
 31
0.0
  0
LINE
  5
3D0
  8
0
  6
CONTINUOUS
 62
     4
 10
-151.952770311389
 20
6.226172014724376
 30
0.0
 11
-151.952770311389
 21
-6.1153444800266
 31
0.0
  0
LINE
  5
3D1
  8
0
  6
CONTINUOUS
 62
     4
 10
-132.952770311389
 20
-15.31534142826879
 30
0.0
 11
-122.952770311389
 21
-15.31534142826879
 31
0.0
  0
LINE
  5
3D2
  8
0
  6
CONTINUOUS
 62
     4
 10
-105.1310387440061
 20
153.8846555199734
 30
0.0
 11
-105.1310387440061
 21
143.8846555199734
 31
0.0
  0
LINE
  5
3D3
  8
0
  6
CONTINUOUS
 62
     4
 10
-106.1310387440062
 20
153.8846555199734
 30
0.0
 11
-106.1310387440062
 21
143.8846555199734
 31
0.0
  0
LINE
  5
3D4
  8
0
  6
CONTINUOUS
 62
     4
 10
-106.1310387440062
 20
87.88465551997339
 30
0.0
 11
-106.1310387440062
 21
81.88465551997339
 31
0.0
  0
LINE
  5
3D5
  8
0
  6
CONTINUOUS
 62
     4
 10
-105.1310387440061
 20
87.88465551997339
 30
0.0
 11
-105.1310387440061
 21
81.88465551997339
 31
0.0
  0
CIRCLE
  5
3D6
  8
0
  6
CONTINUOUS
 62
     4
 10
60.64078132435324
 20
58.88467077876246
 30
0.0
 40
4.0
  0
ARC
  5
3D7
  8
0
  6
CONTINUOUS
 62
     4
 10
112.6022986583376
 20
28.8846555199734
 30
0.0
 40
76.0
 50
170.4190254526127
 51
191.9882983986493
  0
ARC
  5
3D8
  8
0
  6
CONTINUOUS
 62
     4
 10
112.6022986583376
 20
28.8846555199734
 30
0.0
 40
70.0
 50
174.2428522179309
 51
190.3839825852617
  0
ARC
  5
3D9
  8
0
  6
CONTINUOUS
 62
     4
 10
112.6022986583376
 20
28.8846555199734
 30
0.0
 40
64.0
 50
174.8220795803047
 51
188.4576916543997
  0
ARC
  5
3DA
  8
0
  6
CONTINUOUS
 62
     4
 10
112.6022986583376
 20
28.8846555199734
 30
0.0
 40
58.0
 50
171.9600527331509
 51
186.0980252207004
  0
ARC
  5
3DB
  8
0
  6
CONTINUOUS
 62
     4
 10
112.6022986583376
 20
28.8846555199734
 30
0.0
 40
70.0
 50
144.2428308925374
 51
155.7572184368582
  0
ARC
  5
3DC
  8
0
  6
CONTINUOUS
 62
     4
 10
112.6022986583376
 20
28.8846555199734
 30
0.0
 40
64.0
 50
144.8220582549111
 51
148.2172496686761
  0
ARC
  5
3DD
  8
0
  6
CONTINUOUS
 62
     4
 10
112.6022986583376
 20
28.8846555199734
 30
0.0
 40
58.0
 50
141.960017747379
 51
146.058745966412
  0
ARC
  5
3DE
  8
0
  6
CONTINUOUS
 62
     4
 10
112.6022986583376
 20
28.8846555199734
 30
0.0
 40
58.0
 50
153.9212635879588
 51
158.0400315820166
  0
ARC
  5
3DF
  8
0
  6
CONTINUOUS
 62
     4
 10
112.6022986583376
 20
28.8846555199734
 30
0.0
 40
64.0
 50
151.8298869848576
 51
155.1779910744845
  0
ARC
  5
3E0
  8
0
  6
CONTINUOUS
 62
     4
 10
112.6022986583376
 20
28.8846555199734
 30
0.0
 40
76.0
 50
140.1622573163183
 51
159.5810452021765
  0
CIRCLE
  5
3E1
  8
0
  6
CONTINUOUS
 62
     4
 10
60.64078132435324
 20
58.88467077876246
 30
0.0
 40
3.150000095367432
  0
LINE
  5
3E2
  8
0
  6
CONTINUOUS
 62
     4
 10
165.3006942402481
 20
11.16096082596867
 30
0.0
 11
170.5506910513992
 21
20.25422079524785
 31
0.0
  0
LINE
  5
3E3
  8
0
  6
CONTINUOUS
 62
     4
 10
149.0506846737017
 20
-16.98487750635652
 30
0.0
 11
154.3006891142482
 21
-7.891604322578608
 31
0.0
  0
LINE
  5
3E4
  8
0
  6
CONTINUOUS
 62
     4
 10
225.056468643164
 20
-23.33906515279207
 30
0.0
 11
230.3064692690128
 21
-14.24579857626352
 31
0.0
  0
LINE
  5
3E5
  8
0
  6
CONTINUOUS
 62
     4
 10
208.8064667060131
 20
-51.48489027061853
 30
0.0
 11
214.0564711465596
 21
-42.39161708684062
 31
0.0
  0
LINE
  5
3E6
  8
0
  6
CONTINUOUS
 62
     4
 10
207.5074077797577
 20
-50.73489576631484
 30
0.0
 11
212.7574122203042
 21
-41.64162258253693
 31
0.0
  0
LINE
  5
3E7
  8
0
  6
CONTINUOUS
 62
     4
 10
206.2084037557893
 20
-49.98489772120004
 30
0.0
 11
211.4584081963358
 21
-40.89162453742213
 31
0.0
  0
LINE
  5
3E8
  8
0
  6
CONTINUOUS
 62
     4
 10
204.9093486442317
 20
-49.23489660964699
 30
0.0
 11
210.1593530847782
 21
-40.14162342586908
 31
0.0
  0
LINE
  5
3E9
  8
0
  6
CONTINUOUS
 62
     4
 10
203.6103124692193
 20
-48.48489321661534
 30
0.0
 11
208.8603188171147
 21
-39.39161672921275
 31
0.0
  0
LINE
  5
3EA
  8
0
  6
CONTINUOUS
 62
     4
 10
223.7574135316064
 20
-22.58906404123902
 30
0.0
 11
229.0074141574551
 21
-13.49579746471047
 31
0.0
  0
LINE
  5
3EB
  8
0
  6
CONTINUOUS
 62
     4
 10
222.458409507638
 20
-21.83906599612421
 30
0.0
 11
227.7084101334868
 21
-12.74579941959566
 31
0.0
  0
LINE
  5
3EC
  8
0
  6
CONTINUOUS
 62
     4
 10
221.1593582107781
 20
-21.0890582773218
 30
0.0
 11
226.4093550219291
 21
-11.99579830804262
 31
0.0
  0
LINE
  5
3ED
  8
0
  6
CONTINUOUS
 62
     4
 10
219.8603163137191
 20
-20.3390647951642
 30
0.0
 11
225.1103169395679
 21
-11.24579821863565
 31
0.0
  0
LINE
  5
3EE
  8
0
  6
CONTINUOUS
 62
     4
 10
166.5997795955009
 20
10.4109510628741
 30
0.0
 11
171.8497802213497
 21
19.50421763940265
 31
0.0
  0
LINE
  5
3EF
  8
0
  6
CONTINUOUS
 62
     4
 10
167.898796833968
 20
9.660945388363849
 30
0.0
 11
173.1487974598168
 21
18.7542119648924
 31
0.0
  0
LINE
  5
3F0
  8
0
  6
CONTINUOUS
 62
     4
 10
169.1978140724351
 20
8.910939713853601
 30
0.0
 11
174.4478146982838
 21
18.00420629038215
 31
0.0
  0
LINE
  5
3F1
  8
0
  6
CONTINUOUS
 62
     4
 10
170.4968389402976
 20
8.160947253842075
 30
0.0
 11
175.7468395661463
 21
17.25421383037062
 31
0.0
  0
LINE
  5
3F2
  8
0
  6
CONTINUOUS
 62
     4
 10
150.3497719363034
 20
-17.73488396582641
 30
0.0
 11
155.5997820988965
 21
-8.641600871174454
 31
0.0
  0
LINE
  5
3F3
  8
0
  6
CONTINUOUS
 62
     4
 10
151.6487929894682
 20
-18.48488303308729
 30
0.0
 11
156.8987955226658
 21
-9.391613152934063
 31
0.0
  0
LINE
  5
3F4
  8
0
  6
CONTINUOUS
 62
     4
 10
152.9478083205864
 20
-19.23489201122222
 30
0.0
 11
158.1978127611329
 21
-10.14161882744431
 31
0.0
  0
LINE
  5
3F5
  8
0
  6
CONTINUOUS
 62
     4
 10
154.2468331884489
 20
-19.98488447123375
 30
0.0
 11
159.4968376289954
 21
-10.89161128745584
 31
0.0
  0
LINE
  5
3F6
  8
0
  6
CONTINUOUS
 62
     4
 10
123.6022986583376
 20
83.38465551997339
 30
0.0
 11
134.1022986583376
 21
83.38465551997339
 31
0.0
  0
LINE
  5
3F7
  8
0
  6
CONTINUOUS
 62
     4
 10
91.10229865833762
 20
83.38465551997339
 30
0.0
 11
101.6022986583376
 21
83.38465551997339
 31
0.0
  0
LINE
  5
3F8
  8
0
  6
CONTINUOUS
 62
     4
 10
91.10229865833762
 20
152.3846555199734
 30
0.0
 11
101.6022986583376
 21
152.3846555199734
 31
0.0
  0
LINE
  5
3F9
  8
0
  6
CONTINUOUS
 62
     4
 10
123.6022986583376
 20
152.3846555199734
 30
0.0
 11
134.1022986583376
 21
152.3846555199734
 31
0.0
  0
LINE
  5
3FA
  8
0
  6
CONTINUOUS
 62
     4
 10
123.6022986583376
 20
84.88465551997339
 30
0.0
 11
134.1022986583376
 21
84.88465551997339
 31
0.0
  0
LINE
  5
3FB
  8
0
  6
CONTINUOUS
 62
     4
 10
123.6022986583376
 20
86.38465551997339
 30
0.0
 11
134.1022986583376
 21
86.38465551997339
 31
0.0
  0
LINE
  5
3FC
  8
0
  6
CONTINUOUS
 62
     4
 10
123.6022986583376
 20
87.88465551997339
 30
0.0
 11
134.1022986583376
 21
87.88465551997339
 31
0.0
  0
LINE
  5
3FD
  8
0
  6
CONTINUOUS
 62
     4
 10
123.6022986583376
 20
89.38465551997339
 30
0.0
 11
134.1022986583376
 21
89.38465551997339
 31
0.0
  0
LINE
  5
3FE
  8
0
  6
CONTINUOUS
 62
     4
 10
123.6022986583376
 20
90.88465551997339
 30
0.0
 11
134.1022986583376
 21
90.88465551997339
 31
0.0
  0
LINE
  5
3FF
  8
0
  6
CONTINUOUS
 62
     4
 10
91.10229865833762
 20
84.88465551997339
 30
0.0
 11
101.6022986583376
 21
84.88465551997339
 31
0.0
  0
LINE
  5
400
  8
0
  6
CONTINUOUS
 62
     4
 10
91.10229865833762
 20
86.38465551997339
 30
0.0
 11
101.6022986583376
 21
86.38465551997339
 31
0.0
  0
LINE
  5
401
  8
0
  6
CONTINUOUS
 62
     4
 10
91.10229865833762
 20
87.88465551997339
 30
0.0
 11
101.6022986583376
 21
87.88465551997339
 31
0.0
  0
LINE
  5
402
  8
0
  6
CONTINUOUS
 62
     4
 10
91.10229865833762
 20
89.38465551997339
 30
0.0
 11
101.6022986583376
 21
89.38465551997339
 31
0.0
  0
LINE
  5
403
  8
0
  6
CONTINUOUS
 62
     4
 10
91.10229865833762
 20
90.88465551997339
 30
0.0
 11
101.6022986583376
 21
90.88465551997339
 31
0.0
  0
LINE
  5
404
  8
0
  6
CONTINUOUS
 62
     4
 10
91.10229865833762
 20
150.8846555199734
 30
0.0
 11
101.6022986583376
 21
150.8846555199734
 31
0.0
  0
LINE
  5
405
  8
0
  6
CONTINUOUS
 62
     4
 10
91.10229865833762
 20
149.3846555199734
 30
0.0
 11
101.6022986583376
 21
149.3846555199734
 31
0.0
  0
LINE
  5
406
  8
0
  6
CONTINUOUS
 62
     4
 10
91.10229865833762
 20
147.8846555199734
 30
0.0
 11
101.6022986583376
 21
147.8846555199734
 31
0.0
  0
LINE
  5
407
  8
0
  6
CONTINUOUS
 62
     4
 10
91.10229865833762
 20
146.3846555199734
 30
0.0
 11
101.6022986583376
 21
146.3846555199734
 31
0.0
  0
LINE
  5
408
  8
0
  6
CONTINUOUS
 62
     4
 10
91.10229865833762
 20
144.8846555199734
 30
0.0
 11
101.6022986583376
 21
144.8846555199734
 31
0.0
  0
LINE
  5
409
  8
0
  6
CONTINUOUS
 62
     4
 10
123.6022986583376
 20
150.8846555199734
 30
0.0
 11
134.1022986583376
 21
150.8846555199734
 31
0.0
  0
LINE
  5
40A
  8
0
  6
CONTINUOUS
 62
     4
 10
123.6022986583376
 20
149.3846555199734
 30
0.0
 11
134.1022986583376
 21
149.3846555199734
 31
0.0
  0
LINE
  5
40B
  8
0
  6
CONTINUOUS
 62
     4
 10
123.6022986583376
 20
147.8846555199734
 30
0.0
 11
134.1022986583376
 21
147.8846555199734
 31
0.0
  0
LINE
  5
40C
  8
0
  6
CONTINUOUS
 62
     4
 10
123.6022986583376
 20
146.3846555199734
 30
0.0
 11
134.1022986583376
 21
146.3846555199734
 31
0.0
  0
LINE
  5
40D
  8
0
  6
CONTINUOUS
 62
     4
 10
123.6022986583376
 20
144.8846555199734
 30
0.0
 11
134.1022986583376
 21
144.8846555199734
 31
0.0
  0
CIRCLE
  5
40E
  8
0
  6
CONTINUOUS
 62
     4
 10
112.6022986583376
 20
-31.1153444800266
 30
0.0
 40
3.150000095367432
  0
CIRCLE
  5
40F
  8
0
  6
CONTINUOUS
 62
     4
 10
112.6022986583376
 20
-31.1153444800266
 30
0.0
 40
4.0
  0
ARC
  5
410
  8
0
  6
CONTINUOUS
 62
     4
 10
112.6022986583376
 20
28.8846555199734
 30
0.0
 40
58.0
 50
113.9019489766143
 51
128.0399965962447
  0
ARC
  5
411
  8
0
  6
CONTINUOUS
 62
     4
 10
112.6022986583376
 20
28.8846555199734
 30
0.0
 40
64.0
 50
111.5422893731042
 51
125.1779697490909
  0
ARC
  5
412
  8
0
  6
CONTINUOUS
 62
     4
 10
112.6022986583376
 20
28.8846555199734
 30
0.0
 40
58.0
 50
233.90190814706
 51
248.7653560074916
  0
ARC
  5
413
  8
0
  6
CONTINUOUS
 62
     4
 10
112.6022986583376
 20
28.8846555199734
 30
0.0
 40
64.0
 50
231.5422417133607
 51
245.6310368388861
  0
ARC
  5
414
  8
0
  6
CONTINUOUS
 62
     4
 10
112.6022986583376
 20
28.8846555199734
 30
0.0
 40
58.0
 50
353.9019469179706
 51
368.0399864267513
  0
ARC
  5
415
  8
0
  6
CONTINUOUS
 62
     4
 10
112.6022986583376
 20
28.8846555199734
 30
0.0
 40
64.0
 50
351.5422826187054
 51
365.1779527494084
  0
ARC
  5
416
  8
0
  6
CONTINUOUS
 62
     4
 10
112.6022986583376
 20
28.8846555199734
 30
0.0
 40
70.0
 50
349.6159908340697
 51
365.7571809655557
  0
ARC
  5
417
  8
0
  6
CONTINUOUS
 62
     4
 10
112.6022986583376
 20
28.8846555199734
 30
0.0
 40
76.0
 50
348.0116707518138
 51
369.5810043157794
  0
ARC
  5
418
  8
0
  6
CONTINUOUS
 62
     4
 10
112.6022986583376
 20
28.8846555199734
 30
0.0
 40
82.0
 50
346.6536472910287
 51
433.5706996258754
  0
ARC
  5
419
  8
0
  6
CONTINUOUS
 62
     4
 10
112.6022986583376
 20
28.8846555199734
 30
0.0
 40
88.0
 50
345.4885391082559
 51
434.5564120363241
  0
ARC
  5
41A
  8
0
  6
CONTINUOUS
 62
     4
 10
112.6022986583376
 20
28.8846555199734
 30
0.0
 40
94.0
 50
344.4775208469322
 51
435.3189002043184
  0
ARC
  5
41B
  8
0
  6
CONTINUOUS
 62
     4
 10
112.6022986583376
 20
28.8846555199734
 30
0.0
 40
76.0
 50
259.9193827712026
 51
280.3023679716238
  0
ARC
  5
41C
  8
0
  6
CONTINUOUS
 62
     4
 10
112.6022986583376
 20
28.8846555199734
 30
0.0
 40
76.0
 50
289.697634684435
 51
311.988356606838
  0
ARC
  5
41D
  8
0
  6
CONTINUOUS
 62
     4
 10
112.6022986583376
 20
28.8846555199734
 30
0.0
 40
70.0
 50
293.8024964133426
 51
310.3840373783558
  0
ARC
  5
41E
  8
0
  6
CONTINUOUS
 62
     4
 10
112.6022986583376
 20
28.8846555199734
 30
0.0
 40
64.0
 50
294.3689444917793
 51
308.4577430323992
  0
ARC
  5
41F
  8
0
  6
CONTINUOUS
 62
     4
 10
112.6022986583376
 20
28.8846555199734
 30
0.0
 40
58.0
 50
291.2346253231738
 51
306.0980868439837
  0
ARC
  5
420
  8
0
  6
CONTINUOUS
 62
     4
 10
112.6022986583376
 20
28.8846555199734
 30
0.0
 40
58.0
 50
274.4519626078603
 51
278.7653841630744
  0
ARC
  5
421
  8
0
  6
CONTINUOUS
 62
     4
 10
112.6022986583376
 20
28.8846555199734
 30
0.0
 40
58.0
 50
261.234597167591
 51
265.5480187228051
  0
ARC
  5
422
  8
0
  6
CONTINUOUS
 62
     4
 10
112.6022986583376
 20
28.8846555199734
 30
0.0
 40
64.0
 50
264.3689299965749
 51
267.2258888433645
  0
ARC
  5
423
  8
0
  6
CONTINUOUS
 62
     4
 10
112.6022986583376
 20
28.8846555199734
 30
0.0
 40
70.0
 50
263.802475087949
 51
276.1975062427163
  0
ARC
  5
424
  8
0
  6
CONTINUOUS
 62
     4
 10
112.6022986583376
 20
28.8846555199734
 30
0.0
 40
64.0
 50
272.7740924873007
 51
275.6310513340904
  0
CIRCLE
  5
425
  8
0
  6
CONTINUOUS
 62
     4
 10
164.563815992322
 20
58.8846555199734
 30
0.0
 40
4.0
  0
ARC
  5
426
  8
0
  6
CONTINUOUS
 62
     4
 10
112.6022986583376
 20
28.8846555199734
 30
0.0
 40
76.0
 50
50.41898454726798
 51
71.98834287066933
  0
ARC
  5
427
  8
0
  6
CONTINUOUS
 62
     4
 10
112.6022986583376
 20
28.8846555199734
 30
0.0
 40
70.0
 50
54.24280789749168
 51
70.38402022709252
  0
ARC
  5
428
  8
0
  6
CONTINUOUS
 62
     4
 10
112.6022986583376
 20
28.8846555199734
 30
0.0
 40
64.0
 50
54.82203867496002
 51
68.45772929623053
  0
ARC
  5
429
  8
0
  6
CONTINUOUS
 62
     4
 10
112.6022986583376
 20
28.8846555199734
 30
0.0
 40
58.0
 50
51.96000158252251
 51
66.09806969272037
  0
ARC
  5
42A
  8
0
  6
CONTINUOUS
 62
     4
 10
112.6022986583376
 20
28.8846555199734
 30
0.0
 40
58.0
 50
34.33012903274987
 51
38.03998043138815
  0
ARC
  5
42B
  8
0
  6
CONTINUOUS
 62
     4
 10
112.6022986583376
 20
28.8846555199734
 30
0.0
 40
64.0
 50
32.17201123617388
 51
35.1779467540452
  0
ARC
  5
42C
  8
0
  6
CONTINUOUS
 62
     4
 10
112.6022986583376
 20
28.8846555199734
 30
0.0
 40
58.0
 50
21.96001099298021
 51
25.56397567646307
  0
ARC
  5
42D
  8
0
  6
CONTINUOUS
 62
     4
 10
112.6022986583376
 20
28.8846555199734
 30
0.0
 40
64.0
 50
24.82204125522855
 51
27.74100626685084
  0
ARC
  5
42E
  8
0
  6
CONTINUOUS
 62
     4
 10
112.6022986583376
 20
28.8846555199734
 30
0.0
 40
70.0
 50
24.24281560040209
 51
35.75717753151357
  0
ARC
  5
42F
  8
0
  6
CONTINUOUS
 62
     4
 10
112.6022986583376
 20
28.8846555199734
 30
0.0
 40
76.0
 50
19.8552147757072
 51
39.58100088173724
  0
CIRCLE
  5
430
  8
0
  6
CONTINUOUS
 62
     4
 10
164.563815992322
 20
58.8846555199734
 30
0.0
 40
3.150000095367432
  0
LINE
  5
431
  8
0
  6
CONTINUOUS
 62
     4
 10
-119.1310387440062
 20
-27.1153444800266
 30
0.0
 11
-104.1310387440061
 21
-27.1153444800266
 31
0.0
  0
LINE
  5
432
  8
0
  6
CONTINUOUS
 62
     4
 10
-119.1310387440062
 20
-35.1153444800266
 30
0.0
 11
-104.1310387440061
 21
-35.1153444800266
 31
0.0
  0
LINE
  5
433
  8
0
  6
CONTINUOUS
 62
     4
 10
-124.1310387440062
 20
135.8846555199734
 30
0.0
 11
-93.13103874400613
 21
135.8846555199734
 31
0.0
  0
LINE
  5
434
  8
0
  6
CONTINUOUS
 62
     4
 10
-124.1310387440062
 20
125.8846555199734
 30
0.0
 11
-93.13103874400613
 21
125.8846555199734
 31
0.0
  0
LINE
  5
435
  8
0
  6
CONTINUOUS
 62
     4
 10
-124.1310387440062
 20
95.88465551997339
 30
0.0
 11
-93.13103874400613
 21
95.88465551997339
 31
0.0
  0
LINE
  5
436
  8
0
  6
CONTINUOUS
 62
     4
 10
-124.1310387440062
 20
105.8846555199734
 30
0.0
 11
-93.13103874400613
 21
105.8846555199734
 31
0.0
  0
CIRCLE
  5
437
  8
0
  6
CONTINUOUS
 62
     4
 10
112.6022986583376
 20
28.8846555199734
 30
0.0
 40
44.20000076293945
  0
ARC
  5
438
  8
0
  6
CONTINUOUS
 62
     4
 10
112.6022986583376
 20
28.8846555199734
 30
0.0
 40
70.0
 50
109.6159984422421
 51
125.7571834510863
  0
ARC
  5
439
  8
0
  6
CONTINUOUS
 62
     4
 10
112.6022986583376
 20
28.8846555199734
 30
0.0
 40
76.0
 50
108.0116757986654
 51
129.5810102164046
  0
ARC
  5
43A
  8
0
  6
CONTINUOUS
 62
     4
 10
112.6022986583376
 20
28.8846555199734
 30
0.0
 40
70.0
 50
229.6159507824987
 51
246.1974849173227
  0
ARC
  5
43B
  8
0
  6
CONTINUOUS
 62
     4
 10
112.6022986583376
 20
28.8846555199734
 30
0.0
 40
76.0
 50
228.011634969111
 51
250.3023534764195
  0
ARC
  5
43C
  8
0
  6
CONTINUOUS
 62
     4
 10
112.6022986583376
 20
28.8846555199734
 30
0.0
 40
94.0
 50
224.2820238332039
 51
315.5224979739833
  0
ARC
  5
43D
  8
0
  6
CONTINUOUS
 62
     4
 10
112.6022986583376
 20
28.8846555199734
 30
0.0
 40
88.0
 50
225.463277729401
 51
314.5114831277541
  0
ARC
  5
43E
  8
0
  6
CONTINUOUS
 62
     4
 10
112.6022986583376
 20
28.8846555199734
 30
0.0
 40
82.0
 50
226.6459523049454
 51
313.3463792138496
  0
ARC
  5
43F
  8
0
  6
CONTINUOUS
 62
     4
 10
112.6022986583376
 20
28.8846555199734
 30
0.0
 40
94.0
 50
104.3764373865203
 51
195.522443180889
  0
ARC
  5
440
  8
0
  6
CONTINUOUS
 62
     4
 10
112.6022986583376
 20
28.8846555199734
 30
0.0
 40
88.0
 50
105.6422695152096
 51
194.5114249195654
  0
ARC
  5
441
  8
0
  6
CONTINUOUS
 62
     4
 10
112.6022986583376
 20
28.8846555199734
 30
0.0
 40
82.0
 50
106.8110378256038
 51
193.3463175905663
  0
LINE
  5
442
  8
0
  6
CONTINUOUS
 62
     4
 10
-132.952770311389
 20
70.88465551997339
 30
0.0
 11
-122.952770311389
 21
70.88465551997339
 31
0.0
  0
LINE
  5
443
  8
0
  6
CONTINUOUS
 62
     4
 10
-132.952770311389
 20
65.88465551997339
 30
0.0
 11
-122.952770311389
 21
65.88465551997339
 31
0.0
  0
CIRCLE
  5
444
  8
0
  6
CONTINUOUS
 62
     4
 10
112.6022460331741
 20
68.38465241593323
 30
0.0
 40
2.5
  0
CIRCLE
  5
445
  8
0
  6
CONTINUOUS
 62
     4
 10
146.8103263399137
 20
9.134696789489681
 30
0.0
 40
2.5
  0
CIRCLE
  5
446
  8
0
  6
CONTINUOUS
 62
     4
 10
78.39431944094308
 20
9.134608042376783
 30
0.0
 40
2.499999999999999
  0
LINE
  5
447
  8
0
  6
CONTINUOUS
 62
     3
 10
-199.1310540027952
 20
153.8846555199734
 30
0.0
 11
-199.1310540027952
 21
-96.11534448002661
 31
0.0
  0
LINE
  5
448
  8
0
  6
CONTINUOUS
 62
     3
 10
-199.1310387440062
 20
153.8846555199734
 30
0.0
 11
-169.1310387440062
 21
153.8846555199734
 31
0.0
  0
LINE
  5
449
  8
0
  6
CONTINUOUS
 62
     3
 10
-194.931041795764
 20
141.3846555199734
 30
0.0
 11
-194.931041795764
 21
-83.61534448002661
 31
0.0
  0
LINE
  5
44A
  8
0
  6
CONTINUOUS
 62
     3
 10
-199.1310387440062
 20
-83.61534448002661
 30
0.0
 11
-194.931041795764
 21
-83.61534448002661
 31
0.0
  0
LINE
  5
44B
  8
0
  6
CONTINUOUS
 62
     3
 10
-199.1310387440062
 20
141.3846555199734
 30
0.0
 11
-194.931041795764
 21
141.3846555199734
 31
0.0
  0
LINE
  5
44C
  8
0
  6
CONTINUOUS
 62
     3
 10
-194.931041795764
 20
-20.1153444800266
 30
0.0
 11
-169.952770311389
 21
-20.1153444800266
 31
0.0
  0
LINE
  5
44D
  8
0
  6
CONTINUOUS
 62
     3
 10
-194.931041795764
 20
77.88465551997339
 30
0.0
 11
-178.9527528180474
 21
77.88465551997339
 31
0.0
  0
LINE
  5
44E
  8
0
  6
CONTINUOUS
 62
     3
 10
-124.1310387440062
 20
-27.96534295414769
 30
0.0
 11
-124.1310387440062
 21
-34.26534600590551
 31
0.0
  0
LINE
  5
44F
  8
0
  6
CONTINUOUS
 62
     3
 10
-125.9497062415798
 20
-31.11534300900123
 30
0.0
 11
-124.1310491033923
 21
-27.96533687615968
 31
0.0
  0
LINE
  5
450
  8
0
  6
CONTINUOUS
 62
     3
 10
-125.9497155127737
 20
-31.11535469967023
 30
0.0
 11
-124.1310631429583
 21
-34.26535257345008
 31
0.0
  0
LINE
  5
451
  8
0
  6
CONTINUOUS
 62
     3
 10
-169.1310387440062
 20
153.8846555199734
 30
0.0
 11
-169.1310387440062
 21
130.6715360131375
 31
0.0
  0
LINE
  5
452
  8
0
  6
CONTINUOUS
 62
     3
 10
-132.3310356922483
 20
85.88465551997339
 30
0.0
 11
-132.3310356922483
 21
77.88465551997339
 31
0.0
  0
LINE
  5
453
  8
0
  6
CONTINUOUS
 62
     3
 10
-139.8310356922483
 20
83.38465551997339
 30
0.0
 11
-139.8310356922483
 21
77.88465551997339
 31
0.0
  0
LINE
  5
454
  8
0
  6
CONTINUOUS
 62
     3
 10
-139.8310356922483
 20
83.38465551997339
 30
0.0
 11
-132.3310356922483
 21
83.38465551997339
 31
0.0
  0
LINE
  5
455
  8
0
  6
CONTINUOUS
 62
     3
 10
-139.8310356922483
 20
-25.6153444800266
 30
0.0
 11
-132.3310356922483
 21
-25.6153444800266
 31
0.0
  0
LINE
  5
456
  8
0
  6
CONTINUOUS
 62
     3
 10
-139.8310356922483
 20
-20.1153444800266
 30
0.0
 11
-139.8310356922483
 21
-25.6153444800266
 31
0.0
  0
LINE
  5
457
  8
0
  6
CONTINUOUS
 62
     3
 10
-132.3310356922483
 20
-20.1153444800266
 30
0.0
 11
-132.3310356922483
 21
-25.6153444800266
 31
0.0
  0
LINE
  5
458
  8
0
  6
CONTINUOUS
 62
     3
 10
-170.952770311389
 20
77.88465551997339
 30
0.0
 11
-123.952770311389
 21
77.88465551997339
 31
0.0
  0
LINE
  5
459
  8
0
  6
CONTINUOUS
 62
     3
 10
-139.1310387440062
 20
101.9055219140164
 30
0.0
 11
-139.1310387440062
 21
83.38465551997339
 31
0.0
  0
LINE
  5
45A
  8
0
  6
CONTINUOUS
 62
     3
 10
-139.1310387440062
 20
85.88465551997339
 30
0.0
 11
-132.3310356922483
 21
85.88465551997339
 31
0.0
  0
LINE
  5
45B
  8
0
  6
CONTINUOUS
 62
     3
 10
-116.1310387440062
 20
153.8846555199734
 30
0.0
 11
-116.1310387440062
 21
143.8846555199734
 31
0.0
  0
LINE
  5
45C
  8
0
  6
CONTINUOUS
 62
     3
 10
-125.1310387440062
 20
153.8846555199734
 30
0.0
 11
-125.1310387440062
 21
78.65098242427027
 31
0.0
  0
LINE
  5
45D
  8
0
  6
CONTINUOUS
 62
     3
 10
-123.3310356922483
 20
81.88465551997339
 30
0.0
 11
-123.3310356922483
 21
77.88465551997339
 31
0.0
  0
LINE
  5
45E
  8
0
  6
CONTINUOUS
 62
     3
 10
-125.1310387440062
 20
78.65098242427027
 30
0.0
 11
-123.3310356922483
 21
78.65098242427027
 31
0.0
  0
LINE
  5
45F
  8
0
  6
CONTINUOUS
 62
     3
 10
-124.1310387440062
 20
143.8846555199734
 30
0.0
 11
-124.1310387440062
 21
87.88465551997339
 31
0.0
  0
LINE
  5
460
  8
0
  6
CONTINUOUS
 62
     3
 10
-116.1310387440062
 20
87.88465551997339
 30
0.0
 11
-116.1310387440062
 21
81.88465551997339
 31
0.0
  0
LINE
  5
461
  8
0
  6
CONTINUOUS
 62
     3
 10
-118.1310387440062
 20
106.8846555199734
 30
0.0
 11
-118.1310387440062
 21
94.88465551997339
 31
0.0
  0
LINE
  5
462
  8
0
  6
CONTINUOUS
 62
     3
 10
-118.1310387440062
 20
136.8846555199734
 30
0.0
 11
-118.1310387440062
 21
124.8846555199734
 31
0.0
  0
LINE
  5
463
  8
0
  6
CONTINUOUS
 62
     3
 10
-178.952770311389
 20
77.88465551997339
 30
0.0
 11
-170.952770311389
 21
77.88465551997339
 31
0.0
  0
LINE
  5
464
  8
0
  6
CONTINUOUS
 62
     3
 10
-179.952770311389
 20
76.88465551997339
 30
0.0
 11
-179.952770311389
 21
-19.1153444800266
 31
0.0
  0
LINE
  5
465
  8
0
  6
CONTINUOUS
 62
     3
 10
-122.952770311389
 20
76.88465551997339
 30
0.0
 11
-122.952770311389
 21
-19.1153444800266
 31
0.0
  0
LINE
  5
466
  8
0
  6
CONTINUOUS
 62
     3
 10
-179.9527538796369
 20
76.88464342764516
 30
0.0
 11
-178.9527528180474
 21
77.88464448923466
 31
0.0
  0
LINE
  5
467
  8
0
  6
CONTINUOUS
 62
     3
 10
-123.9527638702926
 20
77.88465915755725
 30
0.0
 11
-122.952760869946
 21
76.88465995043109
 31
0.0
  0
LINE
  5
468
  8
0
  6
CONTINUOUS
 62
     3
 10
-122.9527688961866
 20
-19.1153613786096
 30
0.0
 11
-123.9527699577761
 21
-20.1153624401991
 31
0.0
  0
LINE
  5
469
  8
0
  6
CONTINUOUS
 62
     3
 10
-179.952786248416
 20
-19.11535058901657
 30
0.0
 11
-178.9527851868265
 21
-20.11535165060607
 31
0.0
  0
LINE
  5
46A
  8
0
  6
CONTINUOUS
 62
     3
 10
-150.952770311389
 20
72.88465551997339
 30
0.0
 11
-150.952770311389
 21
-15.1153444800266
 31
0.0
  0
LINE
  5
46B
  8
0
  6
CONTINUOUS
 62
     3
 10
-148.952770311389
 20
72.88465551997339
 30
0.0
 11
-148.952770311389
 21
14.3056931939236
 31
0.0
  0
LINE
  5
46C
  8
0
  6
CONTINUOUS
 62
     3
 10
-134.952770311389
 20
74.38465551997339
 30
0.0
 11
-134.952770311389
 21
14.3056931939236
 31
0.0
  0
LINE
  5
46D
  8
0
  6
CONTINUOUS
 62
     3
 10
-132.952770311389
 20
74.38465551997339
 30
0.0
 11
-132.952770311389
 21
-16.6153444800266
 31
0.0
  0
LINE
  5
46E
  8
0
  6
CONTINUOUS
 62
     3
 10
-178.952770311389
 20
-6.1153444800266
 30
0.0
 11
-151.952770311389
 21
-6.1153444800266
 31
0.0
  0
LINE
  5
46F
  8
0
  6
CONTINUOUS
 62
     3
 10
-178.952770311389
 20
63.8846555199734
 30
0.0
 11
-151.952770311389
 21
63.8846555199734
 31
0.0
  0
LINE
  5
470
  8
0
  6
CONTINUOUS
 62
     3
 10
-150.952770311389
 20
-15.1153444800266
 30
0.0
 11
-148.952770311389
 21
-15.1153444800266
 31
0.0
  0
LINE
  5
471
  8
0
  6
CONTINUOUS
 62
     3
 10
-150.952770311389
 20
72.88465551997339
 30
0.0
 11
-148.952770311389
 21
72.88465551997339
 31
0.0
  0
LINE
  5
472
  8
0
  6
CONTINUOUS
 62
     3
 10
-151.9527543975964
 20
-6.115334591599115
 30
0.0
 11
-150.9527549376034
 21
-7.115326465192105
 31
0.0
  0
LINE
  5
473
  8
0
  6
CONTINUOUS
 62
     3
 10
-151.9527508053606
 20
63.88463283660074
 30
0.0
 11
-150.952747805014
 21
64.8846320437269
 31
0.0
  0
LINE
  5
474
  8
0
  6
CONTINUOUS
 62
     3
 10
-178.9527708785862
 20
63.88466711491945
 30
0.0
 11
-179.9527700014186
 21
64.88467011526606
 31
0.0
  0
LINE
  5
475
  8
0
  6
CONTINUOUS
 62
     3
 10
-178.9527549490267
 20
-6.115373117587318
 30
0.0
 11
-179.9527490142026
 21
-7.115359596404254
 31
0.0
  0
LINE
  5
476
  8
0
  6
CONTINUOUS
 62
     3
 10
-148.952770311389
 20
72.63465551997339
 30
0.0
 11
-134.952770311389
 21
72.63465551997339
 31
0.0
  0
LINE
  5
477
  8
0
  6
CONTINUOUS
 62
     3
 10
-134.952770311389
 20
-16.6153444800266
 30
0.0
 11
-132.952770311389
 21
-16.6153444800266
 31
0.0
  0
LINE
  5
478
  8
0
  6
CONTINUOUS
 62
     3
 10
-134.952770311389
 20
74.38465551997339
 30
0.0
 11
-132.952770311389
 21
74.38465551997339
 31
0.0
  0
LINE
  5
479
  8
0
  6
CONTINUOUS
 62
     3
 10
-132.952770311389
 20
73.88465551997339
 30
0.0
 11
-122.952770311389
 21
73.88465551997339
 31
0.0
  0
LINE
  5
47A
  8
0
  6
CONTINUOUS
 62
     3
 10
-132.952770311389
 20
-16.1153444800266
 30
0.0
 11
-122.952770311389
 21
-16.1153444800266
 31
0.0
  0
LINE
  5
47B
  8
0
  6
CONTINUOUS
 62
     3
 10
-134.952770311389
 20
6.906976744186046
 30
0.0
 11
-134.952770311389
 21
-16.6153444800266
 31
0.0
  0
LINE
  5
47C
  8
0
  6
CONTINUOUS
 62
     3
 10
-148.952770311389
 20
6.906976744186046
 30
0.0
 11
-148.952770311389
 21
-15.1153444800266
 31
0.0
  0
LINE
  5
47D
  8
0
  6
CONTINUOUS
 62
     3
 10
-104.1310387440061
 20
151.8846555199734
 30
0.0
 11
-104.1310387440061
 21
143.8846555199734
 31
0.0
  0
LINE
  5
47E
  8
0
  6
CONTINUOUS
 62
     3
 10
-106.1310500225557
 20
-96.11535565575528
 30
0.0
 11
-104.1310478993767
 21
-94.11535353257628
 31
0.0
  0
LINE
  5
47F
  8
0
  6
CONTINUOUS
 62
     3
 10
-104.1310332638838
 20
151.8846502171047
 30
0.0
 11
-105.1310343254733
 21
152.8846512786942
 31
0.0
  0
LINE
  5
480
  8
0
  6
CONTINUOUS
 62
     3
 10
-106.6310387440062
 20
-23.6153444800266
 30
0.0
 11
-104.1310387440061
 21
-23.6153444800266
 31
0.0
  0
LINE
  5
481
  8
0
  6
CONTINUOUS
 62
     3
 10
-105.7316399402952
 20
76.31882910395777
 30
0.0
 11
-104.1310387440061
 21
76.31882910395777
 31
0.0
  0
LINE
  5
482
  8
0
  6
CONTINUOUS
 62
     3
 10
-103.1310387440061
 20
143.8846555199734
 30
0.0
 11
-103.1310387440061
 21
136.8846555199734
 31
0.0
  0
LINE
  5
483
  8
0
  6
CONTINUOUS
 62
     3
 10
-104.1310387440061
 20
87.88465551997339
 30
0.0
 11
-104.1310387440061
 21
-94.11534448002661
 31
0.0
  0
LINE
  5
484
  8
0
  6
CONTINUOUS
 62
     3
 10
-103.1310387440061
 20
124.8846555199734
 30
0.0
 11
-103.1310387440061
 21
106.8846555199734
 31
0.0
  0
LINE
  5
485
  8
0
  6
CONTINUOUS
 62
     3
 10
-103.1310387440061
 20
94.88465551997339
 30
0.0
 11
-103.1310387440061
 21
87.88465551997339
 31
0.0
  0
LINE
  5
486
  8
0
  6
CONTINUOUS
 62
     3
 10
-93.13103874400613
 20
91.88465551997339
 30
0.0
 11
-81.13103874400613
 21
91.88465551997339
 31
0.0
  0
LINE
  5
487
  8
0
  6
CONTINUOUS
 62
     3
 10
-93.13103874400613
 20
109.8846555199734
 30
0.0
 11
-81.13103874400613
 21
109.8846555199734
 31
0.0
  0
LINE
  5
488
  8
0
  6
CONTINUOUS
 62
     3
 10
-93.13103874400613
 20
121.8846555199734
 30
0.0
 11
-81.13103874400613
 21
121.8846555199734
 31
0.0
  0
LINE
  5
489
  8
0
  6
CONTINUOUS
 62
     3
 10
-93.13103874400613
 20
139.8846555199734
 30
0.0
 11
-81.13103874400613
 21
139.8846555199734
 31
0.0
  0
LINE
  5
48A
  8
0
  6
CONTINUOUS
 62
     3
 10
-93.13103874400613
 20
109.8846555199734
 30
0.0
 11
-93.13103874400613
 21
91.88465551997339
 31
0.0
  0
LINE
  5
48B
  8
0
  6
CONTINUOUS
 62
     3
 10
-93.13103874400613
 20
139.8846555199734
 30
0.0
 11
-93.13103874400613
 21
121.8846555199734
 31
0.0
  0
LINE
  5
48C
  8
0
  6
CONTINUOUS
 62
     3
 10
-81.13103874400613
 20
139.8846555199734
 30
0.0
 11
-81.13103874400613
 21
121.8846555199734
 31
0.0
  0
LINE
  5
48D
  8
0
  6
CONTINUOUS
 62
     3
 10
-81.13103874400613
 20
109.8846555199734
 30
0.0
 11
-81.13103874400613
 21
91.88465551997339
 31
0.0
  0
LINE
  5
48E
  8
0
  6
CONTINUOUS
 62
     3
 10
-106.6310387440062
 20
64.07387140902873
 30
0.0
 11
-106.6310387440062
 21
-23.6153444800266
 31
0.0
  0
LINE
  5
48F
  8
0
  6
CONTINUOUS
 62
     3
 10
-6.900882634637952
 20
-14.12977066192902
 30
0.0
 11
15.59912052440828
 21
-53.10091395867183
 31
0.0
  0
LINE
  5
490
  8
0
  6
CONTINUOUS
 62
     3
 10
55.45295847390278
 20
21.8702280102663
 30
0.0
 11
61.70295874212363
 21
11.04491148316229
 31
0.0
  0
LINE
  5
491
  8
0
  6
CONTINUOUS
 62
     3
 10
-6.900878466653211
 20
-14.12976203528211
 30
0.0
 11
63.65531180403949
 21
26.60586890994544
 31
0.0
  0
LINE
  5
492
  8
0
  6
CONTINUOUS
 62
     3
 10
-10.37384399979638
 20
-4.587868027089961
 30
0.0
 11
-6.900879441041155
 21
-14.12975938915675
 31
0.0
  0
LINE
  5
493
  8
0
  6
CONTINUOUS
 62
     3
 10
15.59914256218835
 20
-53.10090386188883
 30
0.0
 11
22.12616961438889
 21
-60.87951083164651
 31
0.0
  0
LINE
  5
494
  8
0
  6
CONTINUOUS
 62
     3
 10
-10.37384591812352
 20
-4.587864161258402
 30
0.0
 11
-8.177906620121036
 21
-3.320038156504459
 31
0.0
  0
LINE
  5
495
  8
0
  6
CONTINUOUS
 62
     3
 10
22.12616028519173
 20
-60.8795400003112
 30
0.0
 11
24.32208967231949
 21
-59.61171971760282
 31
0.0
  0
LINE
  5
496
  8
0
  6
CONTINUOUS
 62
     3
 10
-0.6508780132760137
 20
-24.95507965651321
 30
0.0
 11
61.7029591870344
 21
11.04492105874235
 31
0.0
  0
LINE
  5
497
  8
0
  6
CONTINUOUS
 62
     3
 10
9.349125903512769
 20
-42.2755926151855
 30
0.0
 11
71.70296145201073
 21
-6.275592853604188
 31
0.0
  0
LINE
  5
498
  8
0
  6
CONTINUOUS
 62
     3
 10
60.07795356184639
 20
13.85951367511482
 30
0.0
 11
62.87839014548868
 21
15.47634631189838
 31
0.0
  0
LINE
  5
499
  8
0
  6
CONTINUOUS
 62
     3
 10
56.50680780895456
 20
8.04491633650796
 30
0.0
 11
66.50681186207075
 21
-9.275596383745345
 31
0.0
  0
LINE
  5
49A
  8
0
  6
CONTINUOUS
 62
     3
 10
8.00937451501922
 20
-19.9550760518302
 30
0.0
 11
18.00937666078654
 21
-37.27558546845882
 31
0.0
  0
CIRCLE
  5
49B
  8
0
  6
CONTINUOUS
 62
     3
 10
48.19919196888449
 20
46.14141516352809
 30
0.0
 40
7.0
  0
CIRCLE
  5
49C
  8
0
  6
CONTINUOUS
 62
     3
 10
48.19918815418723
 20
46.14139990473903
 30
0.0
 40
10.0
  0
LINE
  5
49D
  8
0
  6
CONTINUOUS
 62
     3
 10
80.10229865833762
 20
152.1213956322781
 30
0.0
 11
80.10229865833762
 21
149.585735842239
 31
0.0
  0
LINE
  5
49E
  8
0
  6
CONTINUOUS
 62
     3
 10
145.1022986583376
 20
152.121380373489
 30
0.0
 11
145.1022986583376
 21
149.585735842239
 31
0.0
  0
LINE
  5
49F
  8
0
  6
CONTINUOUS
 62
     3
 10
90.10229865833762
 20
153.8846555199734
 30
0.0
 11
135.1022986583376
 21
153.8846555199734
 31
0.0
  0
LINE
  5
4A0
  8
0
  6
CONTINUOUS
 62
     3
 10
209.6055047287696
 20
-53.10091574826631
 30
0.0
 11
232.1055150403741
 21
-14.12976006293095
 31
0.0
  0
LINE
  5
4A1
  8
0
  6
CONTINUOUS
 62
     3
 10
147.2516635609323
 20
-17.10090382733645
 30
0.0
 11
153.5016681206881
 21
-6.275579867076907
 31
0.0
  0
LINE
  5
4A2
  8
0
  6
CONTINUOUS
 62
     3
 10
139.0492963773723
 20
-12.36527352211035
 30
0.0
 11
209.6054874739712
 21
-53.10090494417502
 31
0.0
  0
LINE
  5
4A3
  8
0
  6
CONTINUOUS
 62
     3
 10
161.5492894511622
 20
26.60589247482901
 30
0.0
 11
232.1054937622608
 21
-14.12974657662974
 31
0.0
  0
LINE
  5
4A4
  8
0
  6
CONTINUOUS
 62
     3
 10
80.10230694715855
 20
152.1213618945116
 30
0.0
 11
90.10230694559422
 21
153.884631752268
 31
0.0
  0
LINE
  5
4A5
  8
0
  6
CONTINUOUS
 62
     3
 10
135.1023096003874
 20
153.8846248439672
 30
0.0
 11
145.1023095988231
 21
152.1213549862109
 31
0.0
  0
LINE
  5
4A6
  8
0
  6
CONTINUOUS
 62
     3
 10
232.1054808554937
 20
-14.12976222178079
 30
0.0
 11
235.5784445988093
 21
-4.587873100115779
 31
0.0
  0
LINE
  5
4A7
  8
0
  6
CONTINUOUS
 62
     3
 10
203.078372375142
 20
-60.87946341278441
 30
0.0
 11
209.6054092355035
 21
-53.10084475411716
 31
0.0
  0
LINE
  5
4A8
  8
0
  6
CONTINUOUS
 62
     3
 10
233.3825328395756
 20
-3.320040016819824
 30
0.0
 11
235.5784655303283
 21
-4.587862206876729
 31
0.0
  0
LINE
  5
4A9
  8
0
  6
CONTINUOUS
 62
     3
 10
200.8825309620295
 20
-59.61170073402447
 30
0.0
 11
203.0784504382826
 21
-60.8795152946873
 31
0.0
  0
LINE
  5
4AA
  8
0
  6
CONTINUOUS
 62
     3
 10
153.5016586712662
 20
-6.27558238462418
 30
0.0
 11
215.8554909161392
 21
-42.27558023885697
 31
0.0
  0
LINE
  5
4AB
  8
0
  6
CONTINUOUS
 62
     3
 10
163.5016618899168
 20
11.04493317953482
 30
0.0
 11
225.8555073492895
 21
-24.95507230409205
 31
0.0
  0
LINE
  5
4AC
  8
0
  6
CONTINUOUS
 62
     3
 10
149.0762326064283
 20
-7.473329660785588
 30
0.0
 11
151.8766625828208
 21
-9.090158482872106
 31
0.0
  0
LINE
  5
4AD
  8
0
  6
CONTINUOUS
 62
     3
 10
162.3262186021671
 20
15.47635233651315
 30
0.0
 11
165.1266617930592
 21
13.85951588503256
 31
0.0
  0
LINE
  5
4AE
  8
0
  6
CONTINUOUS
 62
     3
 10
73.3279585626004
 20
-9.090185981048784
 30
0.0
 11
76.12838853899288
 21
-7.473357158962266
 31
0.0
  0
LINE
  5
4AF
  8
0
  6
CONTINUOUS
 62
     3
 10
163.501669312781
 20
11.04492789773938
 30
0.0
 11
169.7516662431413
 21
21.87023864350019
 31
0.0
  0
LINE
  5
4B0
  8
0
  6
CONTINUOUS
 62
     3
 10
207.1952554061173
 20
-37.27559119196032
 30
0.0
 11
217.1952527835125
 21
-19.9550900343934
 31
0.0
  0
LINE
  5
4B1
  8
0
  6
CONTINUOUS
 62
     3
 10
158.6978128207375
 20
-9.275593439203497
 30
0.0
 11
168.6978140128304
 21
8.044914325612787
 31
0.0
  0
LINE
  5
4B2
  8
0
  6
CONTINUOUS
 62
     3
 10
135.1022986583376
 20
153.8846555199734
 30
0.0
 11
135.1022986583376
 21
72.41338019038355
 31
0.0
  0
LINE
  5
4B3
  8
0
  6
CONTINUOUS
 62
     3
 10
90.10229865833762
 20
153.8846555199734
 30
0.0
 11
90.10229865833762
 21
72.41338019038355
 31
0.0
  0
LINE
  5
4B4
  8
0
  6
CONTINUOUS
 62
     3
 10
102.6022986583376
 20
153.8846555199734
 30
0.0
 11
102.6022986583376
 21
81.88465551997339
 31
0.0
  0
LINE
  5
4B5
  8
0
  6
CONTINUOUS
 62
     3
 10
122.6022986583376
 20
153.8846555199734
 30
0.0
 11
122.6022986583376
 21
81.88465551997339
 31
0.0
  0
LINE
  5
4B6
  8
0
  6
CONTINUOUS
 62
     3
 10
90.10229865833762
 20
81.88465551997339
 30
0.0
 11
102.6022986583376
 21
81.88465551997339
 31
0.0
  0
LINE
  5
4B7
  8
0
  6
CONTINUOUS
 62
     3
 10
99.35229865833762
 20
81.88465551997339
 30
0.0
 11
99.35229865833762
 21
78.65098242427027
 31
0.0
  0
LINE
  5
4B8
  8
0
  6
CONTINUOUS
 62
     3
 10
125.8522986583376
 20
81.88465551997339
 30
0.0
 11
125.8522986583376
 21
78.65098242427027
 31
0.0
  0
LINE
  5
4B9
  8
0
  6
CONTINUOUS
 62
     3
 10
122.6022986583376
 20
81.88465551997339
 30
0.0
 11
135.1022986583376
 21
81.88465551997339
 31
0.0
  0
LINE
  5
4BA
  8
0
  6
CONTINUOUS
 62
     3
 10
102.6022986583376
 20
87.88465551997339
 30
0.0
 11
122.6022986583376
 21
87.88465551997339
 31
0.0
  0
LINE
  5
4BB
  8
0
  6
CONTINUOUS
 62
     3
 10
102.6022986583376
 20
143.8846555199734
 30
0.0
 11
122.6022986583376
 21
143.8846555199734
 31
0.0
  0
CIRCLE
  5
4BC
  8
0
  6
CONTINUOUS
 62
     3
 10
159.748645704236
 20
76.03100256587183
 30
0.0
 40
7.0
  0
CIRCLE
  5
4BD
  8
0
  6
CONTINUOUS
 62
     3
 10
177.0054053477907
 20
46.14141516352809
 30
0.0
 40
7.0
  0
CIRCLE
  5
4BE
  8
0
  6
CONTINUOUS
 62
     3
 10
129.8590583018923
 20
-35.51845116947973
 30
0.0
 40
10.0
  0
CIRCLE
  5
4BF
  8
0
  6
CONTINUOUS
 62
     3
 10
95.34553901478292
 20
-35.51845116947973
 30
0.0
 40
10.0
  0
CIRCLE
  5
4C0
  8
0
  6
CONTINUOUS
 62
     3
 10
95.34553138538843
 20
-35.51845116947973
 30
0.0
 40
7.0
  0
ARC
  5
4C1
  8
0
  6
CONTINUOUS
 62
     3
 10
112.6022986583376
 20
28.8846555199734
 30
0.0
 40
125.0
 50
0.0
 51
79.63023855183556
  0
ARC
  5
4C2
  8
0
  6
CONTINUOUS
 62
     3
 10
112.6022986583376
 20
28.8846555199734
 30
0.0
 40
123.0
 50
340.5402958659188
 51
439.459716049017
  0
ARC
  5
4C3
  8
0
  6
CONTINUOUS
 62
     3
 10
112.6022986583376
 20
28.8846555199734
 30
0.0
 40
125.0
 50
340.3697682404584
 51
360.0
  0
ARC
  5
4C4
  8
0
  6
CONTINUOUS
 62
     3
 10
112.6022986583376
 20
28.8846555199734
 30
0.0
 40
51.5
 50
64.09417415250869
 51
115.9058376866368
  0
ARC
  5
4C5
  8
0
  6
CONTINUOUS
 62
     3
 10
112.6022986583376
 20
28.8846555199734
 30
0.0
 40
51.5
 50
304.0941981339611
 51
355.9058403237481
  0
ARC
  5
4C6
  8
0
  6
CONTINUOUS
 62
     3
 10
112.6022986583376
 20
28.8846555199734
 30
0.0
 40
52.5
 50
235.3769011587026
 51
304.6230870021519
  0
ARC
  5
4C7
  8
0
  6
CONTINUOUS
 62
     3
 10
112.6022986583376
 20
28.8846555199734
 30
0.0
 40
52.5
 50
355.3769506017837
 51
424.6230698508886
  0
CIRCLE
  5
4C8
  8
0
  6
CONTINUOUS
 62
     3
 10
177.0054053477907
 20
46.14141516352809
 30
0.0
 40
10.0
  0
CIRCLE
  5
4C9
  8
0
  6
CONTINUOUS
 62
     3
 10
159.7486609630251
 20
76.03100256587183
 30
0.0
 40
10.0
  0
LINE
  5
4CA
  8
0
  6
CONTINUOUS
 62
     3
 10
-199.1310387440062
 20
-96.11534448002661
 30
0.0
 11
-106.1310387440062
 21
-96.11534448002661
 31
0.0
  0
LINE
  5
4CB
  8
0
  6
CONTINUOUS
 62
     3
 10
-124.1310387440062
 20
-34.26533837651098
 30
0.0
 11
-104.1310387440061
 21
-34.26533837651098
 31
0.0
  0
LINE
  5
4CC
  8
0
  6
CONTINUOUS
 62
     3
 10
-124.1310387440062
 20
-27.96535058354223
 30
0.0
 11
-104.1310387440061
 21
-27.96535058354223
 31
0.0
  0
LINE
  5
4CD
  8
0
  6
CONTINUOUS
 62
     3
 10
-121.853893358264
 20
72.41337256098902
 30
0.0
 11
-107.6370812244749
 21
72.41337256098902
 31
0.0
  0
LINE
  5
4CE
  8
0
  6
CONTINUOUS
 62
     3
 10
-169.1310387440062
 20
153.8846555199734
 30
0.0
 11
-105.1310387440061
 21
153.8846555199734
 31
0.0
  0
LINE
  5
4CF
  8
0
  6
CONTINUOUS
 62
     3
 10
-123.3310356922483
 20
81.88465551997339
 30
0.0
 11
-105.1310387440061
 21
81.88465551997339
 31
0.0
  0
LINE
  5
4D0
  8
0
  6
CONTINUOUS
 62
     3
 10
-124.1310387440062
 20
87.88465551997339
 30
0.0
 11
-103.1310387440061
 21
87.88465551997339
 31
0.0
  0
LINE
  5
4D1
  8
0
  6
CONTINUOUS
 62
     3
 10
-124.1310387440062
 20
143.8846555199734
 30
0.0
 11
-103.1310387440061
 21
143.8846555199734
 31
0.0
  0
LINE
  5
4D2
  8
0
  6
CONTINUOUS
 62
     3
 10
-124.1310387440062
 20
106.8846555199734
 30
0.0
 11
-93.13103874400613
 21
106.8846555199734
 31
0.0
  0
LINE
  5
4D3
  8
0
  6
CONTINUOUS
 62
     3
 10
-124.1310387440062
 20
94.88465551997339
 30
0.0
 11
-93.13103874400613
 21
94.88465551997339
 31
0.0
  0
LINE
  5
4D4
  8
0
  6
CONTINUOUS
 62
     3
 10
-124.1310387440062
 20
136.8846555199734
 30
0.0
 11
-93.13103874400613
 21
136.8846555199734
 31
0.0
  0
LINE
  5
4D5
  8
0
  6
CONTINUOUS
 62
     3
 10
-124.1310387440062
 20
124.8846555199734
 30
0.0
 11
-93.13103874400613
 21
124.8846555199734
 31
0.0
  0
LINE
  5
4D6
  8
0
  6
CONTINUOUS
 62
     3
 10
-169.952770311389
 20
-20.1153444800266
 30
0.0
 11
-106.6310387440062
 21
-20.1153444800266
 31
0.0
  0
LINE
  5
4D7
  8
0
  6
CONTINUOUS
 62
     3
 10
15.59912985675291
 20
-53.10092583510188
 30
0.0
 11
86.15532756060165
 21
-12.36529059834017
 31
0.0
  0
LINE
  5
4D8
  8
0
  6
CONTINUOUS
 62
     3
 10
71.70296088789095
 20
-6.275597933466337
 30
0.0
 11
77.95296354029787
 21
-17.1009185901012
 31
0.0
  0
CIRCLE
  5
4D9
  8
0
  6
CONTINUOUS
 62
     3
 10
65.45595161243918
 20
76.03100256587183
 30
0.0
 40
7.0
  0
ARC
  5
4DA
  8
0
  6
CONTINUOUS
 62
     3
 10
112.6022986583376
 20
28.8846555199734
 30
0.0
 40
123.0
 50
100.5403026203177
 51
199.4596784071862
  0
CIRCLE
  5
4DB
  8
0
  6
CONTINUOUS
 62
     3
 10
112.6022986583376
 20
28.8846555199734
 30
0.0
 40
45.0
  0
CIRCLE
  5
4DC
  8
0
  6
CONTINUOUS
 62
     3
 10
112.6022986583376
 20
28.8846555199734
 30
0.0
 40
49.0
  0
ARC
  5
4DD
  8
0
  6
CONTINUOUS
 62
     3
 10
112.6022986583376
 20
28.8846555199734
 30
0.0
 40
125.0
 50
100.3697801174991
 51
199.6302009100047
  0
ARC
  5
4DE
  8
0
  6
CONTINUOUS
 62
     3
 10
112.6022986583376
 20
28.8846555199734
 30
0.0
 40
125.0
 50
220.3697324577557
 51
319.6302488729097
  0
ARC
  5
4DF
  8
0
  6
CONTINUOUS
 62
     3
 10
112.6022986583376
 20
28.8846555199734
 30
0.0
 40
52.5
 50
115.3769488184461
 51
184.6230185486794
  0
ARC
  5
4E0
  8
0
  6
CONTINUOUS
 62
     3
 10
112.6022986583376
 20
28.8846555199734
 30
0.0
 40
123.0
 50
220.5402686209525
 51
319.459719539902
  0
ARC
  5
4E1
  8
0
  6
CONTINUOUS
 62
     3
 10
112.6022986583376
 20
28.8846555199734
 30
0.0
 40
51.5
 50
184.094160643711
 51
235.9057900268934
  0
CIRCLE
  5
4E2
  8
0
  6
CONTINUOUS
 62
     3
 10
65.45595924183371
 20
76.03101782466089
 30
0.0
 40
10.0
  0
LINE
  5
4E3
  8
0
  6
CONTINUOUS
 62
     3
 10
-148.952770311389
 20
-14.86534448002659
 30
0.0
 11
-134.952770311389
 21
-14.86534448002659
 31
0.0
  0
LINE
  5
4E4
  8
0
  6
CONTINUOUS
 62
     3
 10
-127.952770311389
 20
71.38465551997339
 30
0.0
 11
-127.952770311389
 21
65.38465551997339
 31
0.0
  0
LINE
  5
4E5
  8
0
  6
CONTINUOUS
 62
     3
 10
-132.952770311389
 20
63.88465551997339
 30
0.0
 11
-122.952770311389
 21
63.88465551997339
 31
0.0
  0
LINE
  5
4E6
  8
0
  6
CONTINUOUS
 62
     3
 10
-132.952770311389
 20
71.38465551997339
 30
0.0
 11
-122.952770311389
 21
71.38465551997339
 31
0.0
  0
LINE
  5
4E7
  8
0
  6
CONTINUOUS
 62
     3
 10
-132.952770311389
 20
65.38465551997339
 30
0.0
 11
-122.952770311389
 21
65.38465551997339
 31
0.0
  0
LINE
  5
4E8
  8
0
  6
CONTINUOUS
 62
     3
 10
-123.952770311389
 20
71.38465551997339
 30
0.0
 11
-123.952770311389
 21
65.38465551997339
 31
0.0
  0
LINE
  5
4E9
  8
0
  6
CONTINUOUS
 62
     3
 10
-132.952770311389
 20
-6.1153444800266
 30
0.0
 11
-122.952770311389
 21
-6.1153444800266
 31
0.0
  0
CIRCLE
  5
4EA
  8
0
  6
CONTINUOUS
 62
     3
 10
73.10224603317413
 20
28.88465241593324
 30
0.0
 40
3.099999904632568
  0
CIRCLE
  5
4EB
  8
0
  6
CONTINUOUS
 62
     3
 10
152.1022460331741
 20
28.88465241593324
 30
0.0
 40
3.099999904632568
  0
CIRCLE
  5
4EC
  8
0
  6
CONTINUOUS
 62
     3
 10
112.6022460331741
 20
68.38465241593323
 30
0.0
 40
3.0
  0
CIRCLE
  5
4ED
  8
0
  6
CONTINUOUS
 62
     3
 10
112.6022460331741
 20
68.38465241593323
 30
0.0
 40
3.0
  0
CIRCLE
  5
4EE
  8
0
  6
CONTINUOUS
 62
     3
 10
112.6022972713436
 20
28.88465241593324
 30
0.0
 40
35.0
  0
CIRCLE
  5
4EF
  8
0
  6
CONTINUOUS
 62
     3
 10
146.8103263399137
 20
9.134696789489681
 30
0.0
 40
3.0
  0
CIRCLE
  5
4F0
  8
0
  6
CONTINUOUS
 62
     3
 10
146.8103263399137
 20
9.134696789489681
 30
0.0
 40
3.0
  0
CIRCLE
  5
4F1
  8
0
  6
CONTINUOUS
 62
     3
 10
78.39431944094308
 20
9.134608042376783
 30
0.0
 40
2.999999999999999
  0
CIRCLE
  5
4F2
  8
0
  6
CONTINUOUS
 62
     3
 10
78.39431944094308
 20
9.134608042376783
 30
0.0
 40
2.999999999999999
  0
LINE
  5
4F3
  8
0
  6
DIVIDE
 62
     9
 10
-181.1310387440062
 20
-31.79034753178441
 30
0.0
 11
-181.1310387440062
 21
-43.79034753178441
 31
0.0
  0
LINE
  5
4F4
  8
0
  6
DIVIDE
 62
     9
 10
-193.6310540027952
 20
76.88465551997339
 30
0.0
 11
-193.6310540027952
 21
66.21401428788569
 31
0.0
  0
LINE
  5
4F5
  8
0
  6
DIVIDE
 62
     9
 10
-193.631023077612
 20
76.88464342764516
 30
0.0
 11
-192.6310220160225
 21
77.88464448923466
 31
0.0
  0
LINE
  5
4F6
  8
0
  6
DIVIDE
 62
     9
 10
-199.1310540027952
 20
-32.79034753178441
 30
0.0
 11
-181.1310387440062
 21
-32.79034753178441
 31
0.0
  0
LINE
  5
4F7
  8
0
  6
DIVIDE
 62
     9
 10
-199.1310540027952
 20
-31.79034753178441
 30
0.0
 11
-164.539943773303
 21
-31.79034753178441
 31
0.0
  0
LINE
  5
4F8
  8
0
  6
DIVIDE
 62
     9
 10
-199.1310540027952
 20
-42.79034753178441
 30
0.0
 11
-181.1310387440062
 21
-42.79034753178441
 31
0.0
  0
LINE
  5
4F9
  8
0
  6
DIVIDE
 62
     9
 10
-199.1310540027952
 20
-43.79034753178441
 30
0.0
 11
-161.5847283192015
 21
-43.79034753178441
 31
0.0
  0
LINE
  5
4FA
  8
0
  6
DIVIDE
 62
     9
 10
-106.6310387440062
 20
76.88465551997339
 30
0.0
 11
-106.6310387440062
 21
66.21401428788569
 31
0.0
  0
LINE
  5
4FB
  8
0
  6
DIVIDE
 62
     9
 10
-106.6310264769637
 20
76.88464477634429
 30
0.0
 11
-107.6310275385532
 21
77.88464583793379
 31
0.0
  0
LINE
  5
4FC
  8
0
  6
DIVIDE
 62
     9
 10
-116.2115441150999
 20
77.88465551997339
 30
0.0
 11
-107.6310387440062
 21
77.88465551997339
 31
0.0
  0
TEXT
  5
4FD
  8
0
 62
     7
 10
-225.4581810779905
 20
161.4396329369656
 30
0.0
 40
4.0
  1
MIN  1.3
 41
0.7999999999999998
  7
FDASTYLE1
 72
     5
 11
-199.8581810779905
 21
161.4396329369656
 31
0.0
  0
TEXT
  5
4FE
  8
0
 62
     7
 10
-185.6080376453733
 20
-121.8829836401829
 30
0.0
 40
4.0
  1
MIN 30.3
 41
0.7999999999999998
  7
FDASTYLE1
 72
     5
 11
-160.0080376453733
 21
-121.8829836401829
 31
0.0
  0
TEXT
  5
4FF
  8
0
 62
     7
 10
-50.77388008311746
 20
42.61355108882106
 30
0.0
 40
4.0
  1
MIN 50.9
 50
90.0
 41
0.7999999999999996
  7
FDASTYLE1
 72
     5
 11
-50.77388008311746
 21
68.21355108882105
 31
0.0
  0
LINE
  5
500
  8
LAYER0014
  6
CONTINUOUS
 62
     7
 10
-194.931041795764
 20
165.8690762963406
 30
0.0
 11
-228.0723786346726
 21
165.8690762963406
 31
0.0
  0
LINE
  5
501
  8
LAYER0014
  6
CONTINUOUS
 62
     7
 10
-179.952770311389
 20
79.42465551997341
 30
0.0
 11
-179.952770311389
 21
166.8690762963406
 31
0.0
  0
LINE
  5
502
  8
LAYER0014
  6
CONTINUOUS
 62
     7
 10
-194.931041795764
 20
143.9246555199734
 30
0.0
 11
-194.931041795764
 21
166.8690762963406
 31
0.0
  0
LINE
  5
503
  8
LAYER0014
  6
CONTINUOUS
 62
     7
 10
-80.2310295887327
 20
21.01799444819606
 30
0.0
 11
-80.2310295887327
 21
53.8846555199734
 31
0.0
  0
LINE
  5
504
  8
LAYER0014
  6
CONTINUOUS
 62
     7
 10
-119.8188600941038
 20
-16.1153444800266
 30
0.0
 11
-77.94503410533426
 21
-16.1153444800266
 31
0.0
  0
LINE
  5
505
  8
LAYER0014
  6
CONTINUOUS
 62
     7
 10
-179.952770311389
 20
165.8690762963406
 30
0.0
 11
-194.931041795764
 21
165.8690762963406
 31
0.0
  0
LINE
  5
506
  8
LAYER0014
  6
CONTINUOUS
 62
     7
 10
-80.2310295887327
 20
-16.1153444800266
 30
0.0
 11
-80.2310295887327
 21
21.01799444819606
 31
0.0
  0
LINE
  5
507
  8
LAYER0014
  6
CONTINUOUS
 62
     7
 10
-104.1310387440061
 20
9.956844851028087
 30
0.0
 11
-90.7721443958616
 21
9.956844851028087
 31
0.0
  0
LINE
  5
508
  8
LAYER0014
  6
CONTINUOUS
 62
     7
 10
-199.1310387440062
 20
-128.3684420142063
 30
0.0
 11
-213.1795006580687
 21
-128.3684420142063
 31
0.0
  0
LINE
  5
509
  8
LAYER0014
  6
CONTINUOUS
 62
     7
 10
-104.1310387440061
 20
165.8690762963406
 30
0.0
 11
-97.6348381824827
 21
165.8690762963406
 31
0.0
  0
INSERT
  5
50A
  8
LAYER0014
  6
DOT2
  2
DC_GROUP_1
 10
0.0
 20
0.0
 30
0.0
  0
INSERT
  5
50B
  8
LAYER0014
  6
DOT2
  2
DC_GROUP_2
 10
0.0
 20
0.0
 30
0.0
  0
INSERT
  5
50C
  8
LAYER0014
  6
CONTINUOUS
  2
DC_GROUP_3
 10
0.0
 20
0.0
 30
0.0
  0
TEXT
  5
50D
  8
LAYER0014
 62
     7
 10
-225.4523552723265
 20
167.4690762963406
 30
0.0
 40
4.0
  1
MAX 31.3
 41
0.8000000000000007
  7
FDASTYLE1
 72
     5
 11
-199.8523552723265
 21
167.4690762963406
 31
0.0
  0
TEXT
  5
50E
  8
LAYER0014
 62
     7
 10
-81.83102958873269
 20
15.15132345820582
 30
0.0
 40
4.0
  1
M90×P1.25
 50
90.0
 41
0.7655954631379965
  7
FDASTYLE1
 72
     5
 11
-81.83102958873269
 21
43.32523650168409
 31
0.0
  0
INSERT
  5
50F
  8
LAYER0014
  6
CONTINUOUS
  2
DC_GROUP_4
 10
0.0
 20
0.0
 30
0.0
  0
INSERT
  5
510
  8
LAYER0014
  6
CONTINUOUS
  2
DC_GROUP_7
 10
0.0
 20
0.0
 30
0.0
  0
INSERT
  5
511
  8
LAYER0014
  6
CONTINUOUS
  2
DC_GROUP_10
 10
0.0
 20
0.0
 30
0.0
  0
INSERT
  5
512
  8
LAYER0014
  6
CONTINUOUS
  2
DC_GROUP_13
 10
0.0
 20
0.0
 30
0.0
  0
INSERT
  5
513
  8
LAYER0014
  6
CONTINUOUS
  2
DC_GROUP_16
 10
0.0
 20
0.0
 30
0.0
  0
INSERT
  5
514
  8
LAYER0014
  6
CONTINUOUS
  2
DC_GROUP_19
 10
0.0
 20
0.0
 30
0.0
  0
INSERT
  5
515
  8
LAYER0014
  6
CONTINUOUS
  2
DC_GROUP_22
 10
0.0
 20
0.0
 30
0.0
  0
INSERT
  5
516
  8
LAYER0014
  6
CONTINUOUS
  2
DC_GROUP_25
 10
0.0
 20
0.0
 30
0.0
  0
INSERT
  5
517
  8
LAYER0014
  6
CONTINUOUS
  2
DC_GROUP_28
 10
0.0
 20
0.0
 30
0.0
  0
INSERT
  5
518
  8
LAYER0014
  6
CONTINUOUS
  2
DC_GROUP_31
 10
0.0
 20
0.0
 30
0.0
  0
INSERT
  5
519
  8
LAYER0014
  6
CONTINUOUS
  2
DC_GROUP_34
 10
0.0
 20
0.0
 30
0.0
  0
INSERT
  5
51A
  8
LAYER0014
  6
CONTINUOUS
  2
DC_GROUP_37
 10
0.0
 20
0.0
 30
0.0
  0
INSERT
  5
51B
  8
LAYER0014
  6
CONTINUOUS
  2
DC_GROUP_40
 10
0.0
 20
0.0
 30
0.0
  0
INSERT
  5
51C
  8
LAYER0014
  6
CONTINUOUS
  2
DC_GROUP_43
 10
0.0
 20
0.0
 30
0.0
  0
INSERT
  5
51D
  8
LAYER0014
  6
CONTINUOUS
  2
DC_GROUP_45
 10
0.0
 20
0.0
 30
0.0
  0
INSERT
  5
51E
  8
LAYER0014
  6
CONTINUOUS
  2
DC_GROUP_48
 10
0.0
 20
0.0
 30
0.0
  0
INSERT
  5
51F
  8
LAYER0014
  6
CONTINUOUS
  2
DC_GROUP_51
 10
0.0
 20
0.0
 30
0.0
  0
INSERT
  5
520
  8
LAYER0014
  6
CONTINUOUS
  2
DC_GROUP_54
 10
0.0
 20
0.0
 30
0.0
  0
INSERT
  5
521
  8
LAYER0014
  6
CONTINUOUS
  2
DC_GROUP_57
 10
0.0
 20
0.0
 30
0.0
  0
INSERT
  5
522
  8
LAYER0014
  6
CONTINUOUS
  2
DC_GROUP_59
 10
0.0
 20
0.0
 30
0.0
  0
INSERT
  5
523
  8
LAYER0014
  6
CONTINUOUS
  2
DC_GROUP_62
 10
0.0
 20
0.0
 30
0.0
  0
INSERT
  5
524
  8
LAYER0014
  6
CONTINUOUS
  2
DC_GROUP_65
 10
0.0
 20
0.0
 30
0.0
  0
INSERT
  5
525
  8
LAYER0014
  6
CONTINUOUS
  2
DC_GROUP_68
 10
0.0
 20
0.0
 30
0.0
  0
INSERT
  5
526
  8
LAYER0014
  6
CONTINUOUS
  2
DC_GROUP_71
 10
0.0
 20
0.0
 30
0.0
  0
INSERT
  5
527
  8
LAYER0014
  6
CONTINUOUS
  2
DC_GROUP_74
 10
0.0
 20
0.0
 30
0.0
  0
INSERT
  5
528
  8
LAYER0014
  6
CONTINUOUS
  2
DC_GROUP_76
 10
0.0
 20
0.0
 30
0.0
  0
INSERT
  5
529
  8
LAYER0014
  6
CONTINUOUS
  2
DC_GROUP_79
 10
0.0
 20
0.0
 30
0.0
  0
INSERT
  5
52A
  8
LAYER0014
  6
CONTINUOUS
  2
DC_GROUP_81
 10
0.0
 20
0.0
 30
0.0
  0
INSERT
  5
52B
  8
LAYER0014
  6
CONTINUOUS
  2
DC_GROUP_84
 10
0.0
 20
0.0
 30
0.0
  0
LINE
  5
52C
  8
0
  6
CONTINUOUS
 62
     6
 10
-89.83239372447488
 20
-138.1969179663547
 30
0.0
 11
61.90517799183371
 21
-138.1969179663547
 31
0.0
  0
LINE
  5
52D
  8
0
  6
CONTINUOUS
 62
     6
 10
-89.83239372447488
 20
-129.9889101538547
 30
0.0
 11
61.90517799183371
 21
-129.9889101538547
 31
0.0
  0
LINE
  5
52E
  8
0
  6
CONTINUOUS
 62
     6
 10
-89.83239372447488
 20
-121.7809176001438
 30
0.0
 11
61.90517799183371
 21
-121.7809176001438
 31
0.0
  0
LINE
  5
52F
  8
0
  6
CONTINUOUS
 62
     6
 10
-87.99491508677957
 20
-113.5729174170383
 30
0.0
 11
-64.35008629039285
 21
-113.5729174170383
 31
0.0
  0
LINE
  5
530
  8
0
  6
CONTINUOUS
 62
     6
 10
-89.83239372447488
 20
-146.4049105200656
 30
0.0
 11
61.90517799183371
 21
-146.4049105200656
 31
0.0
  0
LINE
  5
531
  8
0
  6
CONTINUOUS
 62
     6
 10
-89.83239372447488
 20
-154.6129183325656
 30
0.0
 11
61.90517799183371
 21
-154.6129183325656
 31
0.0
  0
LINE
  5
532
  8
0
  6
CONTINUOUS
 62
     6
 10
-89.83239372447488
 20
-162.8209108862765
 30
0.0
 11
61.90517799183371
 21
-162.8209108862765
 31
0.0
  0
LINE
  5
533
  8
0
  6
CONTINUOUS
 62
     6
 10
-89.83239372447488
 20
-171.0289186987765
 30
0.0
 11
61.90517799183371
 21
-171.0289186987765
 31
0.0
  0
LINE
  5
534
  8
0
  6
CONTINUOUS
 62
     6
 10
-89.83239372447488
 20
-179.2369112524875
 30
0.0
 11
61.90517799183371
 21
-179.2369112524875
 31
0.0
  0
LINE
  5
535
  8
0
  6
CONTINUOUS
 62
     2
 10
45.18222621182153
 20
-4.190333906279442
 30
0.0
 11
50.2484831570176
 21
-1.265336084834665
 31
0.0
  0
LINE
  5
536
  8
0
  6
CONTINUOUS
 62
     2
 10
50.2484826816893
 20
-1.265331187806417
 30
0.0
 11
55.31472569720322
 21
-4.190337747295665
 31
0.0
  0
LINE
  5
537
  8
0
  6
CONTINUOUS
 62
     2
 10
55.31472007557395
 20
-4.190343335617421
 30
0.0
 11
55.31472007557395
 21
-10.04034180973851
 31
0.0
  0
LINE
  5
538
  8
0
  6
CONTINUOUS
 62
     2
 10
55.31472915624099
 20
-10.04034489867265
 30
0.0
 11
50.24847881829837
 21
-12.96533890542698
 31
0.0
  0
LINE
  5
539
  8
0
  6
CONTINUOUS
 62
     2
 10
50.24846487212435
 20
-12.96533866476423
 30
0.0
 11
45.18222011317502
 21
-10.04033524345871
 31
0.0
  0
LINE
  5
53A
  8
0
  6
CONTINUOUS
 62
     2
 10
45.18222038074973
 20
-10.04033227299535
 30
0.0
 11
45.18222038074973
 21
-4.190333798874256
 31
0.0
  0
LINE
  5
53B
  8
0
  6
CONTINUOUS
 62
     2
 10
19.20146233382329
 20
-19.19033872417506
 30
0.0
 11
24.26771927901936
 21
-16.26534090273028
 31
0.0
  0
LINE
  5
53C
  8
0
  6
CONTINUOUS
 62
     2
 10
24.26771543666659
 20
-16.26534889717843
 30
0.0
 11
29.3339584521805
 21
-19.19035545666768
 31
0.0
  0
LINE
  5
53D
  8
0
  6
CONTINUOUS
 62
     2
 10
29.33395759388449
 20
-19.19034524296605
 30
0.0
 11
29.33395759388449
 21
-25.04034371708715
 31
0.0
  0
LINE
  5
53E
  8
0
  6
CONTINUOUS
 62
     2
 10
29.33395511183071
 20
-25.04035118130459
 30
0.0
 11
24.26770477388809
 21
-27.96534518805893
 31
0.0
  0
LINE
  5
53F
  8
0
  6
CONTINUOUS
 62
     2
 10
24.26770417459588
 20
-27.9653238144065
 30
0.0
 11
19.20145941564655
 21
-25.04032039310098
 31
0.0
  0
LINE
  5
540
  8
0
  6
CONTINUOUS
 62
     2
 10
19.20145789906027
 20
-25.04033227299535
 30
0.0
 11
19.20145789906027
 21
-19.19033379887426
 31
0.0
  0
CIRCLE
  5
541
  8
0
  6
CONTINUOUS
 62
     2
 10
50.24847022816184
 20
-7.1153444800266
 30
0.0
 40
9.0
  0
CIRCLE
  5
542
  8
0
  6
CONTINUOUS
 62
     2
 10
24.26770774647238
 20
-22.1153444800266
 30
0.0
 40
9.0
  0
LINE
  5
543
  8
0
  6
CONTINUOUS
 62
     2
 10
124.7928054771565
 20
-32.59345495285927
 30
0.0
 11
129.8590624223526
 21
-29.66845713141449
 31
0.0
  0
LINE
  5
544
  8
0
  6
CONTINUOUS
 62
     2
 10
129.8590493927303
 20
-29.66843790616419
 30
0.0
 11
134.9252990154881
 21
-32.59344828036026
 31
0.0
  0
LINE
  5
545
  8
0
  6
CONTINUOUS
 62
     2
 10
134.9252967052126
 20
-32.59346337651098
 30
0.0
 11
134.9252967052126
 21
-38.44346185063207
 31
0.0
  0
LINE
  5
546
  8
0
  6
CONTINUOUS
 62
     2
 10
134.925303210604
 20
-38.44346454897097
 30
0.0
 11
129.8590462654079
 21
-41.36846237041575
 31
0.0
  0
LINE
  5
547
  8
0
  6
CONTINUOUS
 62
     2
 10
129.8590394161752
 20
-41.36845724620709
 30
0.0
 11
124.7927880499797
 21
-38.44345001019885
 31
0.0
  0
LINE
  5
548
  8
0
  6
CONTINUOUS
 62
     2
 10
124.7927893809939
 20
-38.44345040654027
 30
0.0
 11
124.7927893809939
 21
-32.59345193241918
 31
0.0
  0
LINE
  5
549
  8
0
  6
CONTINUOUS
 62
     2
 10
195.870654752494
 20
-19.19030880193079
 30
0.0
 11
200.9369116976901
 21
-16.26531098048601
 31
0.0
  0
LINE
  5
54A
  8
0
  6
CONTINUOUS
 62
     2
 10
200.9368918457754
 20
-16.26529270118365
 30
0.0
 11
206.0031414685332
 21
-19.19030307537971
 31
0.0
  0
LINE
  5
54B
  8
0
  6
CONTINUOUS
 62
     2
 10
206.0031470470095
 20
-19.19033379887426
 30
0.0
 11
206.0031470470095
 21
-25.04033227299535
 31
0.0
  0
LINE
  5
54C
  8
0
  6
CONTINUOUS
 62
     2
 10
206.0031524859415
 20
-25.04031839804249
 30
0.0
 11
200.9368955407454
 21
-27.96531621948727
 31
0.0
  0
LINE
  5
54D
  8
0
  6
CONTINUOUS
 62
     2
 10
200.9368981269
 20
-27.96534698488997
 30
0.0
 11
195.8706467607045
 21
-25.04033974888173
 31
0.0
  0
LINE
  5
54E
  8
0
  6
CONTINUOUS
 62
     2
 10
195.8706397227907
 20
-25.04032082890355
 30
0.0
 11
195.8706397227907
 21
-19.19032235478246
 31
0.0
  0
LINE
  5
54F
  8
0
  6
CONTINUOUS
 62
     2
 10
169.8898947924245
 20
-4.190319922870025
 30
0.0
 11
174.9561517376206
 21
-1.265322101425248
 31
0.0
  0
LINE
  5
550
  8
0
  6
CONTINUOUS
 62
     2
 10
174.9561628263715
 20
-1.265296838060316
 30
0.0
 11
180.0224124491293
 21
-4.190307212256379
 31
0.0
  0
LINE
  5
551
  8
0
  6
CONTINUOUS
 62
     2
 10
180.0223883800173
 20
-4.190331891525624
 30
0.0
 11
180.0223883800173
 21
-10.04033036564672
 31
0.0
  0
LINE
  5
552
  8
0
  6
CONTINUOUS
 62
     2
 10
180.022392525872
 20
-10.04032951898173
 30
0.0
 11
174.956135580676
 21
-12.96532734042651
 31
0.0
  0
LINE
  5
553
  8
0
  6
CONTINUOUS
 62
     2
 10
174.9561337378401
 20
-12.96535195620256
 30
0.0
 11
169.8898823716446
 21
-10.04034472019432
 31
0.0
  0
LINE
  5
554
  8
0
  6
CONTINUOUS
 62
     2
 10
169.8898810557985
 20
-10.04032082890355
 30
0.0
 11
169.8898810557985
 21
-4.19032235478246
 31
0.0
  0
LINE
  5
555
  8
0
  6
CONTINUOUS
 62
     2
 10
107.5360463288155
 20
133.8096594204207
 30
0.0
 11
112.6023032740116
 21
136.7346572418655
 31
0.0
  0
LINE
  5
556
  8
0
  6
CONTINUOUS
 62
     2
 10
112.6023315934884
 20
136.7346933936426
 30
0.0
 11
117.6685746090023
 21
133.8096868341533
 31
0.0
  0
LINE
  5
557
  8
0
  6
CONTINUOUS
 62
     2
 10
117.6685446910524
 20
133.8096433129421
 30
0.0
 11
117.6685446910524
 21
127.9596524682156
 31
0.0
  0
LINE
  5
558
  8
0
  6
CONTINUOUS
 62
     2
 10
117.6685459696083
 20
127.9596465206823
 30
0.0
 11
112.6022890244122
 21
125.0346486992375
 31
0.0
  0
LINE
  5
559
  8
0
  6
CONTINUOUS
 62
     2
 10
112.6022802452645
 20
125.0346598543947
 30
0.0
 11
107.5360354863152
 21
127.9596632757002
 31
0.0
  0
LINE
  5
55A
  8
0
  6
CONTINUOUS
 62
     2
 10
107.5360526256228
 20
127.9596600976101
 30
0.0
 11
107.5360526256228
 21
133.8096585717312
 31
0.0
  0
LINE
  5
55B
  8
0
  6
CONTINUOUS
 62
     2
 10
107.5360514365492
 20
103.8096577199294
 30
0.0
 11
112.6023083817452
 21
106.7346555413742
 31
0.0
  0
LINE
  5
55C
  8
0
  6
CONTINUOUS
 62
     2
 10
112.6023218487665
 20
106.7346604869647
 30
0.0
 11
117.6685648642804
 21
103.8096539274754
 31
0.0
  0
LINE
  5
55D
  8
0
  6
CONTINUOUS
 62
     2
 10
117.6685446910524
 20
103.8096509423367
 30
0.0
 11
117.6685446910524
 21
97.95965246821558
 31
0.0
  0
LINE
  5
55E
  8
0
  6
CONTINUOUS
 62
     2
 10
117.6685510773419
 20
97.95964482019096
 30
0.0
 11
112.6022941321458
 21
95.03464699874618
 31
0.0
  0
LINE
  5
55F
  8
0
  6
CONTINUOUS
 62
     2
 10
112.6022823008316
 20
95.03463106619708
 30
0.0
 11
107.5360375418823
 21
97.9596344875026
 31
0.0
  0
LINE
  5
560
  8
0
  6
CONTINUOUS
 62
     2
 10
107.5360526256228
 20
97.95966009761011
 30
0.0
 11
107.5360526256228
 21
103.8096585717312
 31
0.0
  0
CIRCLE
  5
561
  8
0
  6
CONTINUOUS
 62
     2
 10
129.8590430431032
 20
-35.51845116947973
 30
0.0
 40
9.0
  0
CIRCLE
  5
562
  8
0
  6
CONTINUOUS
 62
     2
 10
200.9368933849001
 20
-22.11532922123754
 30
0.0
 40
9.0
  0
CIRCLE
  5
563
  8
0
  6
CONTINUOUS
 62
     2
 10
174.9561347179079
 20
-7.115329221237538
 30
0.0
 40
9.0
  0
CIRCLE
  5
564
  8
0
  6
CONTINUOUS
 62
     2
 10
112.6022986583376
 20
130.8846555199734
 30
0.0
 40
9.0
  0
CIRCLE
  5
565
  8
0
  6
CONTINUOUS
 62
     2
 10
112.6022986583376
 20
100.8846555199734
 30
0.0
 40
9.0
  0
LINE
  5
566
  8
0
  6
CONTINUOUS
 62
     5
 10
194.1303622115839
 20
91.63468257017209
 30
0.0
 11
196.3803650875064
 21
87.73756117939635
 31
0.0
  0
LINE
  5
567
  8
0
  6
CONTINUOUS
 62
     5
 10
195.1548480422872
 20
91.36018568686356
 30
0.0
 11
194.1303352681162
 21
91.63470315446872
 31
0.0
  0
LINE
  5
568
  8
0
  6
CONTINUOUS
 62
     5
 10
193.8558698656453
 20
90.61013341858686
 30
0.0
 11
194.130391124465
 21
91.63466093161603
 31
0.0
  0
LINE
  5
569
  8
0
  6
CONTINUOUS
 62
     5
 10
196.3804285752158
 20
87.73752540566326
 30
0.0
 11
196.6549498340356
 21
88.76205291869243
 31
0.0
  0
LINE
  5
56A
  8
0
  6
CONTINUOUS
 62
     5
 10
196.3803467162634
 20
87.73758979174906
 30
0.0
 11
195.3558192032343
 21
88.01211120862078
 31
0.0
  0
LINE
  5
56B
  8
0
  6
CONTINUOUS
 62
     5
 10
187.2601521256262
 20
88.53420554686565
 30
0.0
 11
200.2505347373778
 21
96.0342024176218
 31
0.0
  0
LINE
  5
56C
  8
0
  6
CONTINUOUS
 62
     5
 10
192.6162972308671
 20
98.0086682361725
 30
0.0
 11
191.849586441284
 21
97.38779831764984
 31
0.0
  0
LINE
  5
56D
  8
0
  6
CONTINUOUS
 62
     5
 10
192.6163134370082
 20
98.00868020193545
 30
0.0
 11
191.9954530035439
 21
98.77537901560342
 31
0.0
  0
LINE
  5
56E
  8
0
  6
CONTINUOUS
 62
     5
 10
200.2505347373778
 20
96.0342024176218
 30
0.0
 11
196.5005358251628
 21
102.5293945494039
 31
0.0
  0
LINE
  5
56F
  8
0
  6
CONTINUOUS
 62
     5
 10
183.5101579817808
 20
95.02938941958487
 30
0.0
 11
196.5005405935324
 21
102.529386290341
 31
0.0
  0
LINE
  5
570
  8
0
  6
CONTINUOUS
 62
     5
 10
187.2601540329741
 20
88.53420224324051
 30
0.0
 11
181.6351578104179
 21
98.27698672433533
 31
0.0
  0
LINE
  5
571
  8
0
  6
CONTINUOUS
 62
     5
 10
181.6351587640918
 20
98.27698507252276
 30
0.0
 11
183.5837161558545
 21
99.40198460313619
 31
0.0
  0
LINE
  5
572
  8
0
  6
CONTINUOUS
 62
     5
 10
184.1462197358569
 20
98.42769930000455
 30
0.0
 11
183.5837237852459
 21
99.40197138863564
 31
0.0
  0
LINE
  5
573
  8
0
  6
CONTINUOUS
 62
     5
 10
184.1462159211612
 20
98.42770590725482
 30
0.0
 11
185.4452541823364
 21
99.17770559433043
 31
0.0
  0
LINE
  5
574
  8
0
  6
CONTINUOUS
 62
     5
 10
186.0077397794686
 20
98.20342092087029
 30
0.0
 11
185.4452400141619
 21
99.17769961675165
 31
0.0
  0
LINE
  5
575
  8
0
  6
CONTINUOUS
 62
     5
 10
186.0077719305132
 20
98.20342626877758
 30
0.0
 11
187.3068101916884
 21
98.95342595585319
 31
0.0
  0
LINE
  5
576
  8
0
  6
CONTINUOUS
 62
     5
 10
188.0567777277194
 20
97.65438234677075
 30
0.0
 11
187.3067780406438
 21
98.9534206079459
 31
0.0
  0
LINE
  5
577
  8
0
  6
CONTINUOUS
 62
     5
 10
188.1807268743942
 20
100.4397681602631
 30
0.0
 11
188.455248133214
 21
101.4642956732923
 31
0.0
  0
LINE
  5
578
  8
0
  6
CONTINUOUS
 62
     5
 10
185.8921090900603
 20
99.98447990028561
 30
0.0
 11
188.4552200439793
 21
101.46429190493
 31
0.0
  0
LINE
  5
579
  8
0
  6
CONTINUOUS
 62
     5
 10
188.4552042624037
 20
101.4643204039671
 30
0.0
 11
187.4306914882328
 21
101.7388378715723
 31
0.0
  0
ARC
  5
57A
  8
0
  6
CONTINUOUS
 62
     5
 10
191.9368933849001
 20
95.47309546137964
 30
0.0
 40
2.625001907348633
 50
75.00008746442975
 51
369.9999260571885
  0
TEXT
  5
57B
  8
0
 62
     5
 10
83.81658343597891
 20
-78.61534448002661
 30
0.0
 40
5.0
  1
NIKKO
 41
0.767442115904438
  7
FDASTYLE1
 72
     5
 11
103.0026363335899
 21
-78.61534448002661
 31
0.0
  0
TEXT
  5
57C
  8
0
 62
     5
 10
115.1737112216616
 20
-78.11534448002661
 30
0.0
 40
4.0
  1
 HF3-10
 41
0.7704920544480071
  7
FDASTYLE1
 72
     5
 11
136.7474887462058
 21
-78.11534448002661
 31
0.0
  0
TEXT
  5
57D
  8
0
 62
     5
 10
118.5308543853426
 20
-84.11534448002661
 30
0.0
 40
3.0
  1
0001
 41
0.7647060767727455
  7
FDASTYLE1
 72
     5
 11
127.7073273066156
 21
-84.11534448002661
 31
0.0
  0
TEXT
  5
57E
  8
0
 62
     5
 10
218.5261935340529
 20
56.41909544800123
 30
0.0
 40
3.0
  1
F MAX   30KN
 50
120.0
 41
0.7991006890253236
  7
FDASTYLE1
 72
     5
 11
204.1423811315971
 21
81.33258933559408
 31
0.0
  0
TEXT
  5
57F
  8
0
 62
     5
 10
221.9902896033888
 20
58.41909544800123
 30
0.0
 40
3.0
  1
ΣS MAX 112KN
 50
120.0
 41
0.7910609221164375
  7
FDASTYLE1
 72
     5
 11
207.513874728658
 21
83.49298152248083
 31
0.0
  0
TEXT
  5
580
  8
0
 62
     5
 10
225.4544009315138
 20
60.41909544800122
 30
0.0
 40
3.0
  1
N MAX 4200 AT ΣS MAX
 50
120.0
 41
0.7957580761047244
  7
FDASTYLE1
 72
     5
 11
201.3429312255407
 21
102.1813860239045
 31
0.0
  0
TEXT
  5
581
  8
0
 62
     5
 10
194.1043221213468
 20
87.91998593372465
 30
0.0
 40
2.5
  1
F
 50
120.0
 41
0.8791213035583498
  7
FDASTYLE1
 72
     5
 11
193.0054204918989
 21
89.8233393884487
 31
0.0
  0
TEXT
  5
582
  8
0
 62
     5
 10
196.7190713145383
 20
98.42932377702317
 30
0.0
 40
2.5
  1
N min
 50
120.0
 41
0.7983872809842211
  7
FDASTYLE1
 72
     5
 11
191.729150808387
 21
107.0721196194072
 31
0.0
  0
TEXT
  5
583
  8
0
 62
     5
 10
188.7097955958626
 20
108.7441037258263
 30
0.0
 40
1.25
  1
-1
 50
120.0
 41
0.7826089106345529
  7
FDASTYLE1
 72
     5
 11
187.7315344575694
 21
110.4385017204203
 31
0.0
  0
TEXT
  5
584
  8
0
 62
     5
 10
187.4495522238859
 20
102.8512832359707
 30
0.0
 40
2.5
  1
ΣS
 50
120.0
 41
0.8718556116435173
  7
FDASTYLE1
 72
     5
 11
185.0519492918662
 21
107.0040533306049
 31
0.0
  0
INSERT
  5
585
  8
0
  6
CONTINUOUS
  2
DC_GROUP_86
 10
0.0
 20
0.0
 30
0.0
  0
INSERT
  5
586
  8
0
  6
CONTINUOUS
  2
DC_GROUP_89
 10
0.0
 20
0.0
 30
0.0
  0
INSERT
  5
587
  8
0
  6
CONTINUOUS
  2
DC_GROUP_92
 10
0.0
 20
0.0
 30
0.0
  0
INSERT
  5
588
  8
0
  6
CONTINUOUS
  2
DC_GROUP_95
 10
0.0
 20
0.0
 30
0.0
  0
INSERT
  5
589
  8
0
  6
CONTINUOUS
  2
DC_GROUP_97
 10
0.0
 20
0.0
 30
0.0
  0
INSERT
  5
58A
  8
0
  6
CONTINUOUS
  2
DC_GROUP_100
 10
0.0
 20
0.0
 30
0.0
  0
VIEWPORT
  5
48
 67
     1
  8
0
 10
-5.531429682113981
 20
0.0
 30
0.0
 40
1662.0
 41
1140.0
 68
     1
 69
     1
1001
ACAD
1000
MVIEW
1002
{
1070
    16
1010
0.0
1020
0.0
1030
0.0
1020
0.0
1030
0.0
1010
0.0
1020
0.0
1030
1.0
1020
0.0
1030
1.0
1040
0.0
1040
1140.0
1040
-5.531429682113981
1040
0.0
1040
50.0
1040
0.0
1040
0.0
1070
     0
1070
   100
1070
     0
1070
     1
1070
     0
1070
     0
1070
     0
1070
     0
1040
0.0
1040
0.0
1040
0.0
1040
0.5
1040
0.5
1040
0.0
1040
0.0
1070
     0
1002
{
1002
}
1002
}
  0
ENDSEC
  0
EOF
