  0
SECTION
  2
HEADER
  9
$ACADVER
  1
AC1009
  9
$DWGCODEPAGE
  3
ansi_932
  9
$INSBASE
 10
0.0
 20
0.0
 30
0.0
  9
$EXTMIN
 10
-838.3857258355411
 20
-570.0
 30
0.0
  9
$EXTMAX
 10
823.614274164459
 20
570.0
 30
0.0
  9
$LIMMIN
 10
-297.25
 20
-210.25
  9
$LIMMAX
 10
297.25
 20
210.25
  9
$ORTHOMODE
 70
     0
  9
$REGENMODE
 70
     1
  9
$FILLMODE
 70
     1
  9
$QTEXTMODE
 70
     0
  9
$MIRRTEXT
 70
     1
  9
$DRAGMODE
 70
     2
  9
$LTSCALE
 40
0.5
  9
$OSMODE
 70
    37
  9
$ATTMODE
 70
     1
  9
$TEXTSIZE
 40
0.2
  9
$TRACEWID
 40
0.05
  9
$TEXTSTYLE
  7
STANDARD
  9
$CLAYER
  8
0
  9
$CELTYPE
  6
BYLAYER
  9
$CECOLOR
 62
   256
  9
$DIMSCALE
 40
1.0
  9
$DIMASZ
 40
1.25
  9
$DIMEXO
 40
0.0625
  9
$DIMDLI
 40
0.38
  9
$DIMRND
 40
0.0
  9
$DIMDLE
 40
0.0
  9
$DIMEXE
 40
0.18
  9
$DIMTP
 40
0.0
  9
$DIMTM
 40
0.0
  9
$DIMTXT
 40
0.18
  9
$DIMCEN
 40
0.09
  9
$DIMTSZ
 40
0.0
  9
$DIMTOL
 70
     0
  9
$DIMLIM
 70
     0
  9
$DIMTIH
 70
     1
  9
$DIMTOH
 70
     1
  9
$DIMSE1
 70
     0
  9
$DIMSE2
 70
     0
  9
$DIMTAD
 70
     3
  9
$DIMZIN
 70
     0
  9
$DIMBLK
  1

  9
$DIMASO
 70
     1
  9
$DIMSHO
 70
     1
  9
$DIMPOST
  1

  9
$DIMAPOST
  1

  9
$DIMALT
 70
     0
  9
$DIMALTD
 70
     2
  9
$DIMALTF
 40
25.4
  9
$DIMLFAC
 40
1.0
  9
$DIMTOFL
 70
     0
  9
$DIMTVP
 40
0.0
  9
$DIMTIX
 70
     0
  9
$DIMSOXD
 70
     0
  9
$DIMSAH
 70
     0
  9
$DIMBLK1
  1

  9
$DIMBLK2
  1

  9
$DIMSTYLE
  2
STANDARD
  9
$DIMCLRD
 70
     0
  9
$DIMCLRE
 70
     0
  9
$DIMCLRT
 70
     0
  9
$DIMTFAC
 40
1.0
  9
$DIMGAP
 40
0.09
  9
$LUNITS
 70
     2
  9
$LUPREC
 70
     4
  9
$SKETCHINC
 40
0.1
  9
$FILLETRAD
 40
0.5
  9
$AUNITS
 70
     0
  9
$AUPREC
 70
     0
  9
$MENU
  1
.
  9
$ELEVATION
 40
0.0
  9
$PELEVATION
 40
0.0
  9
$THICKNESS
 40
0.0
  9
$LIMCHECK
 70
     0
  9
$CHAMFERA
 40
0.5
  9
$CHAMFERB
 40
0.5
  9
$SKPOLY
 70
     0
  9
$TDCREATE
 40
2456329.465359155
  9
$TDUPDATE
 40
2456329.465359167
  9
$TDINDWG
 40
0.0000000116
  9
$TDUSRTIMER
 40
0.0000000116
  9
$USRTIMER
 70
     1
  9
$ANGBASE
 50
0.0
  9
$ANGDIR
 70
     0
  9
$PDMODE
 70
     0
  9
$PDSIZE
 40
1.0
  9
$PLINEWID
 40
0.0
  9
$COORDS
 70
     1
  9
$SPLFRAME
 70
     0
  9
$SPLINETYPE
 70
     6
  9
$SPLINESEGS
 70
     8
  9
$ATTDIA
 70
     0
  9
$ATTREQ
 70
     1
  9
$HANDLING
 70
     1
  9
$HANDSEED
  5
593
  9
$SURFTAB1
 70
     6
  9
$SURFTAB2
 70
     6
  9
$SURFTYPE
 70
     6
  9
$SURFU
 70
     6
  9
$SURFV
 70
     6
  9
$UCSNAME
  2

  9
$UCSORG
 10
0.0
 20
0.0
 30
0.0
  9
$UCSXDIR
 10
1.0
 20
0.0
 30
0.0
  9
$UCSYDIR
 10
0.0
 20
1.0
 30
0.0
  9
$PUCSNAME
  2

  9
$PUCSORG
 10
0.0
 20
0.0
 30
0.0
  9
$PUCSXDIR
 10
1.0
 20
0.0
 30
0.0
  9
$PUCSYDIR
 10
0.0
 20
1.0
 30
0.0
  9
$USERI1
 70
     0
  9
$USERI2
 70
     0
  9
$USERI3
 70
     0
  9
$USERI4
 70
     0
  9
$USERI5
 70
     0
  9
$USERR1
 40
0.0
  9
$USERR2
 40
0.0
  9
$USERR3
 40
0.0
  9
$USERR4
 40
0.0
  9
$USERR5
 40
0.0
  9
$WORLDVIEW
 70
     1
  9
$SHADEDGE
 70
     3
  9
$SHADEDIF
 70
    70
  9
$TILEMODE
 70
     1
  9
$MAXACTVP
 70
    64
  9
$PLIMCHECK
 70
     0
  9
$PEXTMIN
 10
1.000000000000000E+20
 20
1.000000000000000E+20
 30
1.000000000000000E+20
  9
$PEXTMAX
 10
-1.000000000000000E+20
 20
-1.000000000000000E+20
 30
-1.000000000000000E+20
  9
$PLIMMIN
 10
0.0
 20
0.0
  9
$PLIMMAX
 10
12.0
 20
9.0
  9
$UNITMODE
 70
     0
  9
$VISRETAIN
 70
     0
  9
$PLINEGEN
 70
     1
  9
$PSLTSCALE
 70
     0
  0
ENDSEC
  0
SECTION
  2
TABLES
  0
TABLE
  2
VPORT
 70
     1
  0
VPORT
  2
*ACTIVE
 70
     0
 10
0.0
 20
0.0
 11
1.0
 21
1.0
 12
0.0
 22
0.0
 13
0.0
 23
0.0
 14
0.5
 24
0.5
 15
0.5
 25
0.5
 16
0.0
 26
0.0
 36
1.0
 17
-7.385725835541056
 27
0.0
 37
0.0
 40
387.6
 41
1.457894736842105
 42
50.0
 43
0.0
 44
0.0
 50
0.0
 51
0.0
 71
     0
 72
  1000
 73
     1
 74
     1
 75
     0
 76
     0
 77
     0
 78
     0
  0
ENDTAB
  0
TABLE
  2
LTYPE
 70
    28
  0
LTYPE
  2
CONTINUOUS
 70
     0
  3
Solid line
 72
    65
 73
     0
 40
0.0
  0
LTYPE
  2
HIDDENX2
 70
     0
  3
CADPAC LINETYPE
 72
    65
 73
     2
 40
20.63803680981596
 49
15.47852760736197
 49
-5.15950920245399
  0
LTYPE
  2
HIDDEN
 70
     0
  3
CADPAC LINETYPE
 72
    65
 73
     2
 40
15.47852760736197
 49
10.31901840490798
 49
-5.15950920245399
  0
LTYPE
  2
HIDDEN2
 70
     0
  3
CADPAC LINETYPE
 72
    65
 73
     2
 40
12.89877300613497
 49
7.739263803680984
 49
-5.15950920245399
  0
LTYPE
  2
DASHED
 70
     0
  3
CADPAC LINETYPE
 72
    65
 73
     2
 40
14.44662576687119
 49
10.31901840490798
 49
-4.127607361963214
  0
LTYPE
  2
DASHED2
 70
     0
  3
CADPAC LINETYPE
 72
    65
 73
     2
 40
9.287116564417147
 49
6.191411042944765
 49
-3.095705521472382
  0
LTYPE
  2
DASHEDX2
 70
     0
  3
CADPAC LINETYPE
 72
    65
 73
     2
 40
24.76564417177917
 49
20.63803680981596
 49
-4.127607361963214
  0
LTYPE
  2
DOTX2
 70
     0
  3
CADPAC LINETYPE
 72
    65
 73
     2
 40
9.029141104294496
 49
0.0
 49
-9.029141104294496
  0
LTYPE
  2
DOT
 70
     0
  3
CADPAC LINETYPE
 72
    65
 73
     2
 40
7.223312883435597
 49
0.0
 49
-7.223312883435597
  0
LTYPE
  2
DOT2
 70
     0
  3
CADPAC LINETYPE
 72
    65
 73
     2
 40
5.417484662576698
 49
0.0
 49
-5.417484662576698
  0
LTYPE
  2
CENTERX2
 70
     0
  3
CADPAC LINETYPE
 72
    65
 73
     4
 40
30.95705521472394
 49
12.89877300613497
 49
-6.449386503067487
 49
5.15950920245399
 49
-6.449386503067487
  0
LTYPE
  2
CENTER
 70
     0
  3
CADPAC LINETYPE
 72
    65
 73
     4
 40
23.73374233128835
 49
10.31901840490798
 49
-5.15950920245399
 49
3.095705521472393
 49
-5.15950920245399
  0
LTYPE
  2
CENTER2
 70
     0
  3
CADPAC LINETYPE
 72
    65
 73
     4
 40
16.51042944785277
 49
7.739263803680984
 49
-3.869631901840492
 49
1.031901840490798
 49
-3.869631901840492
  0
LTYPE
  2
DASHDOTX2
 70
     0
  3
CADPAC LINETYPE
 72
    65
 73
     4
 40
49.53128834355846
 49
24.76564417177917
 49
-8.255214723926429
 49
8.255214723926429
 49
-8.255214723926429
  0
LTYPE
  2
DASHDOT
 70
     0
  3
CADPAC LINETYPE
 72
    65
 73
     4
 40
24.76564417177929
 49
12.38282208588964
 49
-4.127607361963214
 49
4.127607361963214
 49
-4.127607361963214
  0
LTYPE
  2
DASHDOT2
 70
     0
  3
CADPAC LINETYPE
 72
    65
 73
     4
 40
15.89128834355838
 49
9.287116564417232
 49
-3.095705521472411
 49
0.4127607361963215
 49
-3.095705521472411
  0
LTYPE
  2
DIVIDEX2
 70
     0
  3
CADPAC LINETYPE
 72
    65
 73
     6
 40
66.04171779141132
 49
24.76564417177917
 49
-8.255214723926429
 49
8.255214723926429
 49
-8.255214723926429
 49
8.255214723926429
 49
-8.255214723926429
  0
LTYPE
  2
DIVIDE
 70
     0
  3
CADPAC LINETYPE
 72
    65
 73
     6
 40
33.02085889570572
 49
12.38282208588964
 49
-4.127607361963214
 49
4.127607361963214
 49
-4.127607361963214
 49
4.127607361963214
 49
-4.127607361963214
  0
LTYPE
  2
DIVIDE2
 70
     0
  3
CADPAC LINETYPE
 72
    65
 73
     6
 40
24.76564417177929
 49
9.287116564417232
 49
-3.095705521472411
 49
3.095705521472411
 49
-3.095705521472411
 49
3.095705521472411
 49
-3.095705521472411
  0
LTYPE
  2
BORDERX2
 70
     0
  3
CADPAC LINETYPE
 72
    65
 73
     6
 40
45.14570552147241
 49
12.89877300613497
 49
-6.449386503067487
 49
12.89877300613497
 49
-6.449386503067487
 49
0.0
 49
-6.449386503067487
  0
LTYPE
  2
BORDER
 70
     0
  3
CADPAC LINETYPE
 72
    65
 73
     6
 40
36.11656441717793
 49
10.31901840490798
 49
-5.15950920245399
 49
10.31901840490798
 49
-5.15950920245399
 49
0.0
 49
-5.15950920245399
  0
LTYPE
  2
BORDER2
 70
     0
  3
CADPAC LINETYPE
 72
    65
 73
     6
 40
26.82944785276067
 49
8.255214723926429
 49
-5.159509202453933
 49
3.095705521472382
 49
-5.159509202453933
 49
0.0
 49
-5.15950920245399
  0
LTYPE
  2
PHANTOMX2
 70
     0
  3
CADPAC LINETYPE
 72
    65
 73
     6
 40
38.69631901840492
 49
12.89877300613497
 49
-5.15950920245399
 49
5.15950920245399
 49
-5.15950920245399
 49
5.15950920245399
 49
-5.15950920245399
  0
LTYPE
  2
PHANTOM
 70
     0
  3
CADPAC LINETYPE
 72
    65
 73
     6
 40
31.98895705521473
 49
10.31901840490798
 49
-5.15950920245399
 49
3.095705521472393
 49
-5.15950920245399
 49
3.095705521472393
 49
-5.15950920245399
  0
LTYPE
  2
PHANTOM2
 70
     0
  3
CADPAC LINETYPE
 72
    65
 73
     6
 40
27.34539877300615
 49
7.739263803680984
 49
-5.15950920245399
 49
2.063803680981596
 49
-5.15950920245399
 49
2.063803680981596
 49
-5.15950920245399
  0
LTYPE
  2
ACAD_ISO06W100
 70
     0
  3
CADPAC LINETYPE
 72
    65
 73
     8
 40
54.69079754601205
 49
24.76564417177917
 49
-5.159509202453933
 49
3.095705521472382
 49
-5.159509202453933
 49
3.095705521472382
 49
-5.159509202453933
 49
3.095705521472382
 49
-5.159509202453933
  0
LTYPE
  2
ACAD_ISO13W100
 70
     0
  3
CADPAC LINETYPE
 72
    65
 73
     8
 40
41.27607361963192
 49
10.31901840490798
 49
-5.15950920245399
 49
10.31901840490798
 49
-5.15950920245399
 49
0.0
 49
-5.15950920245399
 49
0.0
 49
-5.15950920245399
  0
LTYPE
  2
ACAD_ISO14W100
 70
     0
  3
CADPAC LINETYPE
 72
    65
 73
     8
 40
30.95705521472394
 49
10.31901840490798
 49
-5.15950920245399
 49
0.0
 49
-5.15950920245399
 49
0.0
 49
-5.15950920245399
 49
0.0
 49
-5.15950920245399
  0
ENDTAB
  0
TABLE
  2
LAYER
 70
     3
  0
LAYER
  2
0
 70
     0
 62
     7
  6
CONTINUOUS
  0
LAYER
  2
LAYER0014
 70
     0
 62
     7
  6
CONTINUOUS
  0
LAYER
  2
LAYER0002
 70
     0
 62
     7
  6
CONTINUOUS
  0
ENDTAB
  0
TABLE
  2
STYLE
 70
     5
  0
STYLE
  2
STANDARD
 70
     0
 40
0.0
 41
1.0
 50
0.0
 71
     0
 42
0.2
  3
txt
  4

  0
STYLE
  2
FDASTYLE1
 70
     0
 40
0.0
 41
0.7999999999999998
 50
0.0
 71
     0
 42
0.2
  3
txt.shx
  4
bigfont
  0
STYLE
  2
FDASTYLE0
 70
     4
 40
0.0
 41
0.8
 50
0.0
 71
     0
 42
0.2
  3
txt.shx
  4
bigfont
  0
STYLE
  2
FDASTYLE2
 70
     0
 40
0.0
 41
0.8123476848090981
 50
0.0
 71
     0
 42
0.2
  3
MSMINCHO.TTC
  4

  0
STYLE
  2
FDASTYLE3
 70
     0
 40
0.0
 41
0.6347897774113767
 50
0.0
 71
     0
 42
0.2
  3
MSGOTHIC.TTC
  4

  0
ENDTAB
  0
TABLE
  2
VIEW
 70
     0
  0
ENDTAB
  0
TABLE
  2
UCS
 70
     0
  0
ENDTAB
  0
TABLE
  2
APPID
 70
     2
  0
APPID
  2
ACAD
 70
     0
  0
APPID
  2
DAFUSIONOUT
 70
     0
  0
ENDTAB
  0
TABLE
  2
DIMSTYLE
 70
     1
  0
DIMSTYLE
  2
STANDARD
 70
     0
  3

  4

  5

  6

  7

 40
1.0
 41
0.18
 42
0.0625
 43
0.38
 44
0.18
 45
0.0
 46
0.0
 47
0.0
 48
0.0
140
0.18
141
0.09
142
0.0
143
25.4
144
1.0
145
0.0
146
1.0
147
0.09
 71
     0
 72
     0
 73
     1
 74
     1
 75
     0
 76
     0
 77
     0
 78
     0
170
     0
171
     2
172
     0
173
     0
174
     0
175
     0
176
     0
177
     0
178
     0
  0
ENDTAB
  0
ENDSEC
  0
SECTION
  2
BLOCKS
  0
BLOCK
  8
0
  2
$MODEL_SPACE
 70
     0
 10
0.0
 20
0.0
 30
0.0
  3
$MODEL_SPACE
  1

  0
ENDBLK
  5
21
  8
0
  0
BLOCK
 67
     1
  8
0
  2
$PAPER_SPACE
 70
     0
 10
0.0
 20
0.0
 30
0.0
  3
$PAPER_SPACE
  1

  0
ENDBLK
  5
1D
 67
     1
  8
0
  0
BLOCK
  8
0
  2
DC_GROUP_1
 70
     0
 10
0.0
 20
0.0
 30
0.0
  3
DC_GROUP_1
  1

  0
LINE
  5
181
  8
LAYER0014
  6
CONTINUOUS
 62
     7
 10
-1.826806805497936
 20
-58.11765827152647
 30
0.0
 11
-18.97192287773825
 21
-68.01638847483434
 31
0.0
  0
LINE
  5
182
  8
LAYER0014
  6
CONTINUOUS
 62
     7
 10
-11.82682045839147
 20
-40.79718314954437
 30
0.0
 11
-28.97192876092598
 21
-50.69591190834012
 31
0.0
  0
LINE
  5
183
  8
LAYER0014
  6
CONTINUOUS
 62
     7
 10
-16.9921941245594
 20
-66.8733974770347
 30
0.0
 11
-26.99218887935135
 21
-49.55289347556288
 31
0.0
  0
INSERT
  5
184
  8
LAYER0014
  6
CONTINUOUS
  2
DC_GROUP_2
 10
0.0
 20
0.0
 30
0.0
  0
INSERT
  5
185
  8
LAYER0014
  6
CONTINUOUS
  2
DC_GROUP_3
 10
0.0
 20
0.0
 30
0.0
  0
TEXT
  5
187
  8
LAYER0014
 62
     7
 10
-23.80654230913993
 20
-51.87057823482296
 30
0.0
 40
4.0
  1
20H8
 50
-59.99999999999999
 41
0.7999999999999998
  7
FDASTYLE1
 72
     5
 11
-17.40654230913993
 21
-62.95570340326377
 31
0.0
  0
ENDBLK
  5
4E
  8
0
  0
BLOCK
  8
0
  2
DC_GROUP_2
 70
     0
 10
0.0
 20
0.0
 30
0.0
  3
DC_GROUP_2
  1

  0
LINE
  5
188
  8
LAYER0014
  6
CONTINUOUS
 62
     7
 10
-17.52809046673966
 20
-64.87339821391822
 30
0.0
 11
-16.9921941245594
 21
-66.8733974770347
 31
0.0
  0
LINE
  5
189
  8
LAYER0014
  6
CONTINUOUS
 62
     7
 10
-16.9921941245594
 20
-66.8733974770347
 30
0.0
 11
-18.45629575606633
 21
-65.40929763254069
 31
0.0
  0
LINE
  5
18A
  8
LAYER0014
  6
CONTINUOUS
 62
     7
 10
-16.9921941245594
 20
-66.8733974770347
 30
0.0
 11
-17.99219311140299
 21
-65.14134792322946
 31
0.0
  0
ENDBLK
  5
51
  8
0
  0
BLOCK
  8
0
  2
DC_GROUP_3
 70
     0
 10
0.0
 20
0.0
 30
0.0
  3
DC_GROUP_3
  1

  0
LINE
  5
18B
  8
LAYER0014
  6
CONTINUOUS
 62
     7
 10
-26.45629253717109
 20
-51.55289273867936
 30
0.0
 11
-26.99218887935135
 21
-49.55289347556288
 31
0.0
  0
LINE
  5
18C
  8
LAYER0014
  6
CONTINUOUS
 62
     7
 10
-26.99218887935135
 20
-49.55289347556288
 30
0.0
 11
-25.52808724784442
 21
-51.0169933200569
 31
0.0
  0
LINE
  5
18D
  8
LAYER0014
  6
CONTINUOUS
 62
     7
 10
-26.99218887935135
 20
-49.55289347556288
 30
0.0
 11
-25.99218989250775
 21
-51.28494302936813
 31
0.0
  0
ENDBLK
  5
54
  8
0
  0
BLOCK
  8
0
  2
DC_GROUP_4
 70
     0
 10
0.0
 20
0.0
 30
0.0
  3
DC_GROUP_4
  1

  0
LINE
  5
18E
  8
LAYER0014
  6
CONTINUOUS
 62
     7
 10
-18.0768315605852
 20
-29.97184185547375
 30
0.0
 11
-42.28888296687117
 21
-43.9506747081175
 31
0.0
  0
LINE
  5
18F
  8
LAYER0014
  6
CONTINUOUS
 62
     7
 10
4.423167403972419
 20
-68.94294939096508
 30
0.0
 11
-19.78890052043809
 21
-82.92179178035144
 31
0.0
  0
LINE
  5
190
  8
LAYER0014
  6
CONTINUOUS
 62
     7
 10
-41.42286610209405
 20
-43.45065987160774
 30
0.0
 11
-18.92286553585004
 21
-82.4218083282783
 31
0.0
  0
INSERT
  5
191
  8
LAYER0014
  6
CONTINUOUS
  2
DC_GROUP_5
 10
0.0
 20
0.0
 30
0.0
  0
INSERT
  5
192
  8
LAYER0014
  6
CONTINUOUS
  2
DC_GROUP_6
 10
0.0
 20
0.0
 30
0.0
  0
TEXT
  5
193
  8
LAYER0014
 62
     7
 10
-30.38722544512626
 20
-59.36495065242144
 30
0.0
 40
4.0
  1
45
 50
-59.99999999999999
 41
0.7999999999999998
  7
FDASTYLE1
 72
     5
 11
-27.18722544512626
 21
-64.90751323664185
 31
0.0
  0
ENDBLK
  5
57
  8
0
  0
BLOCK
  8
0
  2
DC_GROUP_5
 70
     0
 10
0.0
 20
0.0
 30
0.0
  3
DC_GROUP_5
  1

  0
LINE
  5
194
  8
LAYER0014
  6
CONTINUOUS
 62
     7
 10
-40.88696960505643
 20
-45.45065909323046
 30
0.0
 11
-41.42286610209405
 21
-43.45065987160774
 31
0.0
  0
LINE
  5
195
  8
LAYER0014
  6
CONTINUOUS
 62
     7
 10
-41.42286610209405
 20
-43.45065987160774
 30
0.0
 11
-39.95876435722376
 21
-44.91475960273826
 31
0.0
  0
LINE
  5
196
  8
LAYER0014
  6
CONTINUOUS
 62
     7
 10
-41.42286610209405
 20
-43.45065987160774
 30
0.0
 11
-40.4228669811401
 21
-45.18270934798436
 31
0.0
  0
ENDBLK
  5
5A
  8
0
  0
BLOCK
  8
0
  2
DC_GROUP_6
 70
     0
 10
0.0
 20
0.0
 30
0.0
  3
DC_GROUP_6
  1

  0
LINE
  5
197
  8
LAYER0014
  6
CONTINUOUS
 62
     7
 10
-19.45876203288766
 20
-80.42180910665559
 30
0.0
 11
-18.92286553585004
 21
-82.4218083282783
 31
0.0
  0
LINE
  5
198
  8
LAYER0014
  6
CONTINUOUS
 62
     7
 10
-18.92286553585004
 20
-82.4218083282783
 30
0.0
 11
-20.38696728072033
 21
-80.95770859714779
 31
0.0
  0
LINE
  5
199
  8
LAYER0014
  6
CONTINUOUS
 62
     7
 10
-18.92286553585004
 20
-82.4218083282783
 30
0.0
 11
-19.922864656804
 21
-80.68975885190169
 31
0.0
  0
ENDBLK
  5
5D
  8
0
  0
BLOCK
  8
0
  2
DC_GROUP_7
 70
     0
 10
0.0
 20
0.0
 30
0.0
  3
DC_GROUP_7
  1

  0
LINE
  5
19A
  8
LAYER0014
  6
CONTINUOUS
 62
     7
 10
57.45667084823407
 20
78.24025756782775
 30
0.0
 11
6.451567409529989
 21
129.2453051142503
 31
0.0
  0
LINE
  5
19B
  8
LAYER0014
  6
CONTINUOUS
 62
     7
 10
36.43674396752404
 20
41.83257415181578
 30
0.0
 11
-33.23753914433664
 21
60.50168715235407
 31
0.0
  0
ARC
  5
19C
  8
LAYER0014
  6
CONTINUOUS
 62
     7
 10
114.884426847051
 20
20.81255498173789
 30
0.0
 40
151.0611267089844
 50
135.000014002001
 51
165.0000216670162
  0
INSERT
  5
19D
  8
LAYER0014
  6
CONTINUOUS
  2
DC_GROUP_8
 10
0.0
 20
0.0
 30
0.0
  0
INSERT
  5
19E
  8
LAYER0014
  6
CONTINUOUS
  2
DC_GROUP_9
 10
0.0
 20
0.0
 30
0.0
  0
TEXT
  5
19F
  8
LAYER0014
 62
     7
 10
-19.72402111101577
 20
92.98615062169758
 30
0.0
 40
4.0
  1
30ﾟ
 50
59.99999999999999
 41
0.8000000000000012
  7
FDASTYLE1
 72
     5
 11
-14.92402111101577
 21
101.2999944980282
 31
0.0
  0
ENDBLK
  5
60
  8
0
  0
BLOCK
  8
0
  2
DC_GROUP_8
 70
     0
 10
0.0
 20
0.0
 30
0.0
  3
DC_GROUP_8
  1

  0
LINE
  5
1A0
  8
LAYER0014
  6
CONTINUOUS
 62
     7
 10
6.281795880302973
 20
126.581753682361
 30
0.0
 11
8.068053673563334
 21
127.6288759474501
 31
0.0
  0
LINE
  5
1A1
  8
LAYER0014
  6
CONTINUOUS
 62
     7
 10
8.068053673563334
 20
127.6288759474501
 30
0.0
 11
7.044672827347171
 21
125.8289110628964
 31
0.0
  0
LINE
  5
1A2
  8
LAYER0014
  6
CONTINUOUS
 62
     7
 10
8.068053673563334
 20
127.6288759474501
 30
0.0
 11
6.663234353825068
 21
126.2053323726287
 31
0.0
  0
ENDBLK
  5
63
  8
0
  0
BLOCK
  8
0
  2
DC_GROUP_9
 70
     0
 10
0.0
 20
0.0
 30
0.0
  3
DC_GROUP_9
  1

  0
LINE
  5
1A3
  8
LAYER0014
  6
CONTINUOUS
 62
     7
 10
-29.98230779379537
 20
61.69625327449868
 30
0.0
 11
-31.02943157461138
 21
59.90999636977354
 31
0.0
  0
LINE
  5
1A4
  8
LAYER0014
  6
CONTINUOUS
 62
     7
 10
-31.02943157461138
 20
59.90999636977354
 30
0.0
 11
-31.01572727778249
 21
61.98050213752138
 31
0.0
  0
LINE
  5
1A5
  8
LAYER0014
  6
CONTINUOUS
 62
     7
 10
-31.02943157461138
 20
59.90999636977354
 30
0.0
 11
-30.49901753578893
 21
61.83837770601003
 31
0.0
  0
ENDBLK
  5
66
  8
0
  0
BLOCK
  8
0
  2
DC_GROUP_10
 70
     0
 10
0.0
 20
0.0
 30
0.0
  3
DC_GROUP_10
  1

  0
LINE
  5
1A6
  8
LAYER0014
  6
CONTINUOUS
 62
     7
 10
36.43674947621455
 20
41.83257616680632
 30
0.0
 11
-33.2375288455963
 21
60.50168458213454
 31
0.0
  0
LINE
  5
1A7
  8
LAYER0014
  6
CONTINUOUS
 62
     7
 10
-38.22227539194442
 20
20.81302625732605
 30
0.0
 11
-38.46269382787652
 21
20.81306889055654
 31
0.0
  0
ARC
  5
1A8
  8
LAYER0014
  6
CONTINUOUS
 62
     7
 10
114.8843429237112
 20
20.81258549931602
 30
0.0
 40
151.06103515625
 50
165.0000216670162
 51
179.9999640278213
  0
INSERT
  5
1A9
  8
LAYER0014
  6
CONTINUOUS
  2
DC_GROUP_11
 10
0.0
 20
0.0
 30
0.0
  0
INSERT
  5
1AA
  8
LAYER0014
  6
CONTINUOUS
  2
DC_GROUP_12
 10
0.0
 20
0.0
 30
0.0
  0
TEXT
  5
1AB
  8
LAYER0014
 62
     7
 10
-37.10510937173793
 20
35.98379887466064
 30
0.0
 40
4.0
  1
15ﾟ
 50
82.40000000000003
 41
0.7999999999999997
  7
FDASTYLE1
 72
     5
 11
-35.83544802526956
 21
45.49946806107544
 31
0.0
  0
ENDBLK
  5
69
  8
0
  0
BLOCK
  8
0
  2
DC_GROUP_11
 70
     0
 10
0.0
 20
0.0
 30
0.0
  3
DC_GROUP_11
  1

  0
LINE
  5
1AC
  8
LAYER0014
  6
CONTINUOUS
 62
     7
 10
-32.05281031089835
 20
58.11003967171437
 30
0.0
 11
-31.02942706479166
 21
59.91000319179382
 31
0.0
  0
LINE
  5
1AD
  8
LAYER0014
  6
CONTINUOUS
 62
     7
 10
-31.02942706479166
 20
59.91000319179382
 30
0.0
 11
-31.01571814778571
 21
57.83949745463123
 31
0.0
  0
LINE
  5
1AE
  8
LAYER0014
  6
CONTINUOUS
 62
     7
 10
-31.02942706479166
 20
59.91000319179382
 30
0.0
 11
-31.53426422934203
 21
57.9747685631728
 31
0.0
  0
ENDBLK
  5
6C
  8
0
  0
BLOCK
  8
0
  2
DC_GROUP_12
 70
     0
 10
0.0
 20
0.0
 30
0.0
  3
DC_GROUP_12
  1

  0
LINE
  5
1AF
  8
LAYER0014
  6
CONTINUOUS
 62
     7
 10
-35.62756361930356
 20
22.80908703950653
 30
0.0
 11
-36.176692232509
 21
20.81268034041245
 31
0.0
  0
LINE
  5
1B0
  8
LAYER0014
  6
CONTINUOUS
 62
     7
 10
-36.176692232509
 20
20.81268034041245
 30
0.0
 11
-36.69933920040984
 21
22.8161827958571
 31
0.0
  0
LINE
  5
1B1
  8
LAYER0014
  6
CONTINUOUS
 62
     7
 10
-36.176692232509
 20
20.81268034041245
 30
0.0
 11
-36.16345140985671
 21
22.81263491768181
 31
0.0
  0
ENDBLK
  5
6F
  8
0
  0
BLOCK
  8
0
  2
DC_GROUP_13
 70
     0
 10
0.0
 20
0.0
 30
0.0
  3
DC_GROUP_13
  1

  0
LINE
  5
1B2
  8
LAYER0014
  6
CONTINUOUS
 62
     7
 10
55.51835276590828
 20
55.08760434862999
 30
0.0
 11
8.108966169802129
 21
82.45936620062014
 31
0.0
  0
ARC
  5
1B3
  8
LAYER0014
  6
CONTINUOUS
 62
     7
 10
114.8844726234182
 20
20.81258549931602
 30
0.0
 40
121.007698059082
 50
150.0000246646978
 51
179.9999640278213
  0
INSERT
  5
1B4
  8
LAYER0014
  6
CONTINUOUS
  2
DC_GROUP_14
 10
0.0
 20
0.0
 30
0.0
  0
INSERT
  5
1B5
  8
LAYER0014
  6
CONTINUOUS
  2
DC_GROUP_15
 10
0.0
 20
0.0
 30
0.0
  0
TEXT
  5
1B6
  8
LAYER0014
 62
     7
 10
-3.324724416743553
 20
53.73954108394003
 30
0.0
 40
4.0
  1
30ﾟ
 50
72.09999999999999
 41
0.7999999999999999
  7
FDASTYLE1
 72
     5
 11
-0.3741008858654054
 21
62.87484736118263
 31
0.0
  0
ENDBLK
  5
72
  8
0
  0
BLOCK
  8
0
  2
DC_GROUP_14
 70
     0
 10
0.0
 20
0.0
 30
0.0
  3
DC_GROUP_14
  1

  0
LINE
  5
1B7
  8
LAYER0014
  6
CONTINUOUS
 62
     7
 10
8.636753902040574
 20
79.84024002266388
 30
0.0
 11
10.08870600507787
 21
81.3163894163616
 31
0.0
  0
LINE
  5
1B8
  8
LAYER0014
  6
CONTINUOUS
 62
     7
 10
10.08870600507787
 20
81.3163894163616
 30
0.0
 11
9.569356244212774
 21
79.31202972610689
 31
0.0
  0
LINE
  5
1B9
  8
LAYER0014
  6
CONTINUOUS
 62
     7
 10
10.08870600507787
 20
81.3163894163616
 30
0.0
 11
9.103055073126672
 21
79.57613487438537
 31
0.0
  0
ENDBLK
  5
75
  8
0
  0
BLOCK
  8
0
  2
DC_GROUP_15
 70
     0
 10
0.0
 20
0.0
 30
0.0
  3
DC_GROUP_15
  1

  0
LINE
  5
1BA
  8
LAYER0014
  6
CONTINUOUS
 62
     7
 10
-5.570815283053418
 20
22.80816265343196
 30
0.0
 11
-6.123225435639938
 21
20.81266147193695
 31
0.0
  0
LINE
  5
1BB
  8
LAYER0014
  6
CONTINUOUS
 62
     7
 10
-6.123225435639938
 20
20.81266147193695
 30
0.0
 11
-6.642577749533802
 21
22.8170205006745
 31
0.0
  0
LINE
  5
1BC
  8
LAYER0014
  6
CONTINUOUS
 62
     7
 10
-6.123225435639938
 20
20.81266147193695
 30
0.0
 11
-6.10669651629361
 21
22.81259157705323
 31
0.0
  0
ENDBLK
  5
78
  8
0
  0
BLOCK
  8
0
  2
DC_GROUP_16
 70
     0
 10
0.0
 20
0.0
 30
0.0
  3
DC_GROUP_16
  1

  0
LINE
  5
1BD
  8
LAYER0014
  6
CONTINUOUS
 62
     7
 10
60.99892999617205
 20
54.1255850043616
 30
0.0
 11
4.72923599088327
 21
163.0492293089266
 31
0.0
  0
LINE
  5
1BE
  8
LAYER0014
  6
CONTINUOUS
 62
     7
 10
4.729233279775059
 20
163.0492340588863
 30
0.0
 11
-41.90043567125949
 21
163.0492340588863
 31
0.0
  0
INSERT
  5
1BF
  8
LAYER0014
  6
CONTINUOUS
  2
DC_GROUP_17
 10
0.0
 20
0.0
 30
0.0
  0
TEXT
  5
1C0
  8
LAYER0014
 62
     7
 10
-40.74871471827182
 20
164.6492340588863
 30
0.0
 40
4.0
  1
3-M8×15 PCD120
 41
0.7776234874032931
  7
FDASTYLE1
 72
     5
 11
3.420299366235227
 21
164.6492340588863
 31
0.0
  0
ENDBLK
  5
7B
  8
0
  0
BLOCK
  8
0
  2
DC_GROUP_17
 70
     0
 10
0.0
 20
0.0
 30
0.0
  3
DC_GROUP_17
  1

  0
LINE
  5
1C1
  8
LAYER0014
  6
CONTINUOUS
 62
     7
 10
60.55710791981367
 20
56.14844812253619
 30
0.0
 11
60.99892999617205
 21
54.1255850043616
 31
0.0
  0
LINE
  5
1C2
  8
LAYER0014
  6
CONTINUOUS
 62
     7
 10
60.99892999617205
 20
54.1255850043616
 30
0.0
 11
59.60486704285562
 21
55.65652276410864
 31
0.0
  0
LINE
  5
1C3
  8
LAYER0014
  6
CONTINUOUS
 62
     7
 10
60.99892999617205
 20
54.1255850043616
 30
0.0
 11
60.08098748133465
 21
55.90248544332241
 31
0.0
  0
ENDBLK
  5
7E
  8
0
  0
BLOCK
  8
0
  2
DC_GROUP_18
 70
     0
 10
0.0
 20
0.0
 30
0.0
  3
DC_GROUP_18
  1

  0
LINE
  5
1C4
  8
LAYER0014
  6
CONTINUOUS
 62
     7
 10
65.29258816995289
 20
77.62776535800333
 30
0.0
 11
23.48579563258127
 21
172.5404945778297
 31
0.0
  0
LINE
  5
1C5
  8
LAYER0014
  6
CONTINUOUS
 62
     7
 10
23.48579479749051
 20
172.5404907727535
 30
0.0
 11
-7.358404383112514
 21
172.5404907727535
 31
0.0
  0
INSERT
  5
1C6
  8
LAYER0014
  6
CONTINUOUS
  2
DC_GROUP_19
 10
0.0
 20
0.0
 30
0.0
  0
TEXT
  5
1C7
  8
LAYER0014
 62
     7
 10
-6.444118532587613
 20
174.1404907727535
 30
0.0
 40
4.0
  1
PCD133.35
 41
0.8
  7
FDASTYLE1
 72
     5
 11
22.35588146741239
 21
174.1404907727535
 31
0.0
  0
ENDBLK
  5
81
  8
0
  0
BLOCK
  8
0
  2
DC_GROUP_19
 70
     0
 10
0.0
 20
0.0
 30
0.0
  3
DC_GROUP_19
  1

  0
LINE
  5
1C8
  8
LAYER0014
  6
CONTINUOUS
 62
     7
 10
64.97681229892754
 20
79.67409562003505
 30
0.0
 11
65.29258816995289
 21
77.62776535800333
 31
0.0
  0
LINE
  5
1C9
  8
LAYER0014
  6
CONTINUOUS
 62
     7
 10
65.29258816995289
 20
77.62776535800333
 30
0.0
 11
63.99595073796692
 21
79.24204950647331
 31
0.0
  0
LINE
  5
1CA
  8
LAYER0014
  6
CONTINUOUS
 62
     7
 10
65.29258816995289
 20
77.62776535800333
 30
0.0
 11
64.48638151844723
 21
79.45807256325418
 31
0.0
  0
ENDBLK
  5
84
  8
0
  0
BLOCK
  8
0
  2
DC_GROUP_20
 70
     0
 10
0.0
 20
0.0
 30
0.0
  3
DC_GROUP_20
  1

  0
LINE
  5
1CB
  8
LAYER0014
  6
CONTINUOUS
 62
     7
 10
-142.9945762337809
 20
3.574439773718929
 30
0.0
 11
-132.9945762337809
 21
3.574439773718929
 31
0.0
  0
INSERT
  5
1CC
  8
LAYER0014
  6
CONTINUOUS
  2
DC_GROUP_21
 10
0.0
 20
0.0
 30
0.0
  0
INSERT
  5
1CD
  8
LAYER0014
  6
CONTINUOUS
  2
DC_GROUP_22
 10
0.0
 20
0.0
 30
0.0
  0
TEXT
  5
1CE
  8
LAYER0014
 62
     7
 10
-141.1945762337809
 20
4.574439773718929
 30
0.0
 40
4.0
  1
10
 41
0.7999999999999972
  7
FDASTYLE1
 72
     5
 11
-134.7945762337809
 21
4.574439773718929
 31
0.0
  0
ENDBLK
  5
87
  8
0
  0
BLOCK
  8
0
  2
DC_GROUP_21
 70
     0
 10
0.0
 20
0.0
 30
0.0
  3
DC_GROUP_21
  1

  0
LINE
  5
1CF
  8
LAYER0014
  6
CONTINUOUS
 62
     7
 10
-140.9945778261503
 20
3.038540238821321
 30
0.0
 11
-142.9945762337809
 21
3.574439773718929
 31
0.0
  0
LINE
  5
1D0
  8
LAYER0014
  6
CONTINUOUS
 62
     7
 10
-142.9945762337809
 20
3.574439773718929
 30
0.0
 11
-140.9945778261503
 21
4.110339308616537
 31
0.0
  0
LINE
  5
1D1
  8
LAYER0014
  6
CONTINUOUS
 62
     7
 10
-142.9945762337809
 20
3.574439773718929
 30
0.0
 11
-140.9945778261503
 21
3.574439773718929
 31
0.0
  0
ENDBLK
  5
8A
  8
0
  0
BLOCK
  8
0
  2
DC_GROUP_22
 70
     0
 10
0.0
 20
0.0
 30
0.0
  3
DC_GROUP_22
  1

  0
LINE
  5
1D2
  8
LAYER0014
  6
CONTINUOUS
 62
     7
 10
-134.9945746414115
 20
4.110339308616537
 30
0.0
 11
-132.9945762337809
 21
3.574439773718929
 31
0.0
  0
LINE
  5
1D3
  8
LAYER0014
  6
CONTINUOUS
 62
     7
 10
-132.9945762337809
 20
3.574439773718929
 30
0.0
 11
-134.9945746414115
 21
3.038540238821321
 31
0.0
  0
LINE
  5
1D4
  8
LAYER0014
  6
CONTINUOUS
 62
     7
 10
-132.9945762337809
 20
3.574439773718929
 30
0.0
 11
-134.9945746414115
 21
3.574439773718929
 31
0.0
  0
ENDBLK
  5
8D
  8
0
  0
BLOCK
  8
0
  2
DC_GROUP_23
 70
     0
 10
0.0
 20
0.0
 30
0.0
  3
DC_GROUP_23
  1

  0
LINE
  5
1D5
  8
LAYER0014
  6
CONTINUOUS
 62
     7
 10
-160.9945762337809
 20
3.574439773718929
 30
0.0
 11
-142.9945762337809
 21
3.574439773718929
 31
0.0
  0
INSERT
  5
1D6
  8
LAYER0014
  6
CONTINUOUS
  2
DC_GROUP_24
 10
0.0
 20
0.0
 30
0.0
  0
INSERT
  5
1D7
  8
LAYER0014
  6
CONTINUOUS
  2
DC_GROUP_25
 10
0.0
 20
0.0
 30
0.0
  0
TEXT
  5
1D8
  8
LAYER0014
 62
     7
 10
-155.1945762337809
 20
4.574439773718929
 30
0.0
 40
4.0
  1
18
 41
0.7999999999999972
  7
FDASTYLE1
 72
     5
 11
-148.7945762337809
 21
4.574439773718929
 31
0.0
  0
ENDBLK
  5
90
  8
0
  0
BLOCK
  8
0
  2
DC_GROUP_24
 70
     0
 10
0.0
 20
0.0
 30
0.0
  3
DC_GROUP_24
  1

  0
LINE
  5
1D9
  8
LAYER0014
  6
CONTINUOUS
 62
     7
 10
-158.9945778261503
 20
3.038540238821321
 30
0.0
 11
-160.9945762337809
 21
3.574439773718929
 31
0.0
  0
LINE
  5
1DA
  8
LAYER0014
  6
CONTINUOUS
 62
     7
 10
-160.9945762337809
 20
3.574439773718929
 30
0.0
 11
-158.9945778261503
 21
4.110339308616537
 31
0.0
  0
LINE
  5
1DB
  8
LAYER0014
  6
CONTINUOUS
 62
     7
 10
-160.9945762337809
 20
3.574439773718929
 30
0.0
 11
-158.9945778261503
 21
3.574439773718929
 31
0.0
  0
ENDBLK
  5
93
  8
0
  0
BLOCK
  8
0
  2
DC_GROUP_25
 70
     0
 10
0.0
 20
0.0
 30
0.0
  3
DC_GROUP_25
  1

  0
LINE
  5
1DC
  8
LAYER0014
  6
CONTINUOUS
 62
     7
 10
-144.9945746414116
 20
4.110339308616537
 30
0.0
 11
-142.9945762337809
 21
3.574439773718929
 31
0.0
  0
LINE
  5
1DD
  8
LAYER0014
  6
CONTINUOUS
 62
     7
 10
-142.9945762337809
 20
3.574439773718929
 30
0.0
 11
-144.9945746414116
 21
3.038540238821321
 31
0.0
  0
LINE
  5
1DE
  8
LAYER0014
  6
CONTINUOUS
 62
     7
 10
-142.9945762337809
 20
3.574439773718929
 30
0.0
 11
-144.9945746414116
 21
3.574439773718929
 31
0.0
  0
ENDBLK
  5
96
  8
0
  0
BLOCK
  8
0
  2
DC_GROUP_26
 70
     0
 10
0.0
 20
0.0
 30
0.0
  3
DC_GROUP_26
  1

  0
LINE
  5
1DF
  8
LAYER0014
  6
CONTINUOUS
 62
     7
 10
-192.9945762337809
 20
3.574439773718929
 30
0.0
 11
-160.9945762337809
 21
3.574439773718929
 31
0.0
  0
INSERT
  5
1E0
  8
LAYER0014
  6
CONTINUOUS
  2
DC_GROUP_27
 10
0.0
 20
0.0
 30
0.0
  0
INSERT
  5
1E1
  8
LAYER0014
  6
CONTINUOUS
  2
DC_GROUP_28
 10
0.0
 20
0.0
 30
0.0
  0
TEXT
  5
1E2
  8
LAYER0014
 62
     7
 10
-180.1945762337809
 20
4.574439773718929
 30
0.0
 40
4.0
  1
32
 41
0.7999999999999972
  7
FDASTYLE1
 72
     5
 11
-173.7945762337809
 21
4.574439773718929
 31
0.0
  0
ENDBLK
  5
99
  8
0
  0
BLOCK
  8
0
  2
DC_GROUP_27
 70
     0
 10
0.0
 20
0.0
 30
0.0
  3
DC_GROUP_27
  1

  0
LINE
  5
1E3
  8
LAYER0014
  6
CONTINUOUS
 62
     7
 10
-190.9945778261502
 20
3.038540238821321
 30
0.0
 11
-192.9945762337809
 21
3.574439773718929
 31
0.0
  0
LINE
  5
1E4
  8
LAYER0014
  6
CONTINUOUS
 62
     7
 10
-192.9945762337809
 20
3.574439773718929
 30
0.0
 11
-190.9945778261502
 21
4.110339308616537
 31
0.0
  0
LINE
  5
1E5
  8
LAYER0014
  6
CONTINUOUS
 62
     7
 10
-192.9945762337809
 20
3.574439773718929
 30
0.0
 11
-190.9945778261502
 21
3.574439773718929
 31
0.0
  0
ENDBLK
  5
9C
  8
0
  0
BLOCK
  8
0
  2
DC_GROUP_28
 70
     0
 10
0.0
 20
0.0
 30
0.0
  3
DC_GROUP_28
  1

  0
LINE
  5
1E6
  8
LAYER0014
  6
CONTINUOUS
 62
     7
 10
-162.9945746414116
 20
4.110339308616537
 30
0.0
 11
-160.9945762337809
 21
3.574439773718929
 31
0.0
  0
LINE
  5
1E7
  8
LAYER0014
  6
CONTINUOUS
 62
     7
 10
-160.9945762337809
 20
3.574439773718929
 30
0.0
 11
-162.9945746414116
 21
3.038540238821321
 31
0.0
  0
LINE
  5
1E8
  8
LAYER0014
  6
CONTINUOUS
 62
     7
 10
-160.9945762337809
 20
3.574439773718929
 30
0.0
 11
-162.9945746414116
 21
3.574439773718929
 31
0.0
  0
ENDBLK
  5
9F
  8
0
  0
BLOCK
  8
0
  2
DC_GROUP_29
 70
     0
 10
0.0
 20
0.0
 30
0.0
  3
DC_GROUP_29
  1

  0
LINE
  5
1E9
  8
LAYER0014
  6
CONTINUOUS
 62
     7
 10
-231.5345762337809
 20
-39.86241125090876
 30
0.0
 11
-247.2612388314371
 21
-39.86241125090876
 31
0.0
  0
LINE
  5
1EA
  8
LAYER0014
  6
CONTINUOUS
 62
     7
 10
-231.5345762337809
 20
-51.86241125090876
 30
0.0
 11
-247.2612388314371
 21
-51.86241125090876
 31
0.0
  0
LINE
  5
1EB
  8
LAYER0014
  6
CONTINUOUS
 62
     7
 10
-246.2612388314371
 20
-39.86241125090876
 30
0.0
 11
-246.2612388314371
 21
-51.86241125090876
 31
0.0
  0
INSERT
  5
1EC
  8
LAYER0014
  6
CONTINUOUS
  2
DC_GROUP_30
 10
0.0
 20
0.0
 30
0.0
  0
INSERT
  5
1ED
  8
LAYER0014
  6
CONTINUOUS
  2
DC_GROUP_31
 10
0.0
 20
0.0
 30
0.0
  0
TEXT
  5
1EE
  8
LAYER0014
 62
     7
 10
-247.8612388314371
 20
-50.66241125090877
 30
0.0
 40
4.0
  1
M12
 50
90.0
 41
0.8000000000000019
  7
FDASTYLE1
 72
     5
 11
-247.8612388314371
 21
-41.06241125090875
 31
0.0
  0
ENDBLK
  5
A2
  8
0
  0
BLOCK
  8
0
  2
DC_GROUP_30
 70
     0
 10
0.0
 20
0.0
 30
0.0
  3
DC_GROUP_30
  1

  0
LINE
  5
1EF
  8
LAYER0014
  6
CONTINUOUS
 62
     7
 10
-246.7971383663347
 20
-41.86240965853942
 30
0.0
 11
-246.2612388314371
 21
-39.86241125090876
 31
0.0
  0
LINE
  5
1F0
  8
LAYER0014
  6
CONTINUOUS
 62
     7
 10
-246.2612388314371
 20
-39.86241125090876
 30
0.0
 11
-245.7253392965395
 21
-41.86240965853942
 31
0.0
  0
LINE
  5
1F1
  8
LAYER0014
  6
CONTINUOUS
 62
     7
 10
-246.2612388314371
 20
-39.86241125090876
 30
0.0
 11
-246.2612388314371
 21
-41.86240965853942
 31
0.0
  0
ENDBLK
  5
A5
  8
0
  0
BLOCK
  8
0
  2
DC_GROUP_31
 70
     0
 10
0.0
 20
0.0
 30
0.0
  3
DC_GROUP_31
  1

  0
LINE
  5
1F2
  8
LAYER0014
  6
CONTINUOUS
 62
     7
 10
-245.7253392965395
 20
-49.86241284327809
 30
0.0
 11
-246.2612388314371
 21
-51.86241125090876
 31
0.0
  0
LINE
  5
1F3
  8
LAYER0014
  6
CONTINUOUS
 62
     7
 10
-246.2612388314371
 20
-51.86241125090876
 30
0.0
 11
-246.7971383663347
 21
-49.86241284327809
 31
0.0
  0
LINE
  5
1F4
  8
LAYER0014
  6
CONTINUOUS
 62
     7
 10
-246.2612388314371
 20
-51.86241125090876
 30
0.0
 11
-246.2612388314371
 21
-49.86241284327809
 31
0.0
  0
ENDBLK
  5
A8
  8
0
  0
BLOCK
  8
0
  2
DC_GROUP_32
 70
     0
 10
0.0
 20
0.0
 30
0.0
  3
DC_GROUP_32
  1

  0
LINE
  5
1F5
  8
LAYER0014
  6
CONTINUOUS
 62
     7
 10
-257.9509300640327
 20
-106.687408199151
 30
0.0
 11
-257.9509300640327
 21
148.3125918008491
 31
0.0
  0
LINE
  5
1F6
  8
LAYER0014
  6
CONTINUOUS
 62
     7
 10
-215.1819705320302
 20
-106.687408199151
 30
0.0
 11
-258.9509300640327
 21
-106.687408199151
 31
0.0
  0
LINE
  5
1F7
  8
LAYER0014
  6
CONTINUOUS
 62
     7
 10
-215.3694909167035
 20
148.3125918008491
 30
0.0
 11
-258.9509300640327
 21
148.3125918008491
 31
0.0
  0
INSERT
  5
1F8
  8
LAYER0014
  6
CONTINUOUS
  2
DC_GROUP_33
 10
0.0
 20
0.0
 30
0.0
  0
INSERT
  5
1F9
  8
LAYER0014
  6
CONTINUOUS
  2
DC_GROUP_34
 10
0.0
 20
0.0
 30
0.0
  0
TEXT
  5
1FA
  8
LAYER0014
 62
     7
 10
-259.5509300640326
 20
11.2125898935004
 30
0.0
 40
4.0
  1
φ255H7
 50
90.0
 41
0.7492195629552554
  7
FDASTYLE1
 72
     5
 11
-259.5509300640326
 21
29.79323505479074
 31
0.0
  0
ENDBLK
  5
AB
  8
0
  0
BLOCK
  8
0
  2
DC_GROUP_33
 70
     0
 10
0.0
 20
0.0
 30
0.0
  3
DC_GROUP_33
  1

  0
LINE
  5
1FB
  8
LAYER0014
  6
CONTINUOUS
 62
     7
 10
-257.415030529135
 20
-104.6874097915203
 30
0.0
 11
-257.9509300640327
 21
-106.687408199151
 31
0.0
  0
LINE
  5
1FC
  8
LAYER0014
  6
CONTINUOUS
 62
     7
 10
-257.9509300640327
 20
-106.687408199151
 30
0.0
 11
-258.4868295989303
 21
-104.6874097915203
 31
0.0
  0
LINE
  5
1FD
  8
LAYER0014
  6
CONTINUOUS
 62
     7
 10
-257.9509300640327
 20
-106.687408199151
 30
0.0
 11
-257.9509300640327
 21
-104.6874097915203
 31
0.0
  0
ENDBLK
  5
AE
  8
0
  0
BLOCK
  8
0
  2
DC_GROUP_34
 70
     0
 10
0.0
 20
0.0
 30
0.0
  3
DC_GROUP_34
  1

  0
LINE
  5
1FE
  8
LAYER0014
  6
CONTINUOUS
 62
     7
 10
-258.4868295989303
 20
146.3125933932184
 30
0.0
 11
-257.9509300640327
 21
148.3125918008491
 31
0.0
  0
LINE
  5
1FF
  8
LAYER0014
  6
CONTINUOUS
 62
     7
 10
-257.9509300640327
 20
148.3125918008491
 30
0.0
 11
-257.415030529135
 21
146.3125933932184
 31
0.0
  0
LINE
  5
200
  8
LAYER0014
  6
CONTINUOUS
 62
     7
 10
-257.9509300640327
 20
148.3125918008491
 30
0.0
 11
-257.9509300640327
 21
146.3125933932184
 31
0.0
  0
ENDBLK
  5
B1
  8
0
  0
BLOCK
  8
0
  2
DC_GROUP_35
 70
     0
 10
0.0
 20
0.0
 30
0.0
  3
DC_GROUP_35
  1

  0
LINE
  5
201
  8
LAYER0014
  6
CONTINUOUS
 62
     7
 10
-247.8612388314371
 20
-30.18740819915094
 30
0.0
 11
-247.8612388314371
 21
71.81259180084905
 31
0.0
  0
LINE
  5
202
  8
LAYER0014
  6
CONTINUOUS
 62
     7
 10
-210.8345792855387
 20
-30.18740819915094
 30
0.0
 11
-248.8612388314371
 21
-30.18740819915094
 31
0.0
  0
LINE
  5
203
  8
LAYER0014
  6
CONTINUOUS
 62
     7
 10
-210.8345792855387
 20
71.81259180084905
 30
0.0
 11
-248.8612388314371
 21
71.81259180084905
 31
0.0
  0
INSERT
  5
204
  8
LAYER0014
  6
CONTINUOUS
  2
DC_GROUP_36
 10
0.0
 20
0.0
 30
0.0
  0
INSERT
  5
205
  8
LAYER0014
  6
CONTINUOUS
  2
DC_GROUP_37
 10
0.0
 20
0.0
 30
0.0
  0
TEXT
  5
206
  8
LAYER0014
 62
     7
 10
-249.4612388314371
 20
11.21259180084906
 30
0.0
 40
4.0
  1
φ102H7
 50
90.0
 41
0.7492195629552543
  7
FDASTYLE1
 72
     5
 11
-249.4612388314371
 21
29.79323696213937
 31
0.0
  0
ENDBLK
  5
B4
  8
0
  0
BLOCK
  8
0
  2
DC_GROUP_36
 70
     0
 10
0.0
 20
0.0
 30
0.0
  3
DC_GROUP_36
  1

  0
LINE
  5
207
  8
LAYER0014
  6
CONTINUOUS
 62
     7
 10
-247.3253392965395
 20
-28.18740979152028
 30
0.0
 11
-247.8612388314371
 21
-30.18740819915094
 31
0.0
  0
LINE
  5
208
  8
LAYER0014
  6
CONTINUOUS
 62
     7
 10
-247.8612388314371
 20
-30.18740819915094
 30
0.0
 11
-248.3971383663347
 21
-28.18740979152028
 31
0.0
  0
LINE
  5
209
  8
LAYER0014
  6
CONTINUOUS
 62
     7
 10
-247.8612388314371
 20
-30.18740819915094
 30
0.0
 11
-247.8612388314371
 21
-28.18740979152028
 31
0.0
  0
ENDBLK
  5
B7
  8
0
  0
BLOCK
  8
0
  2
DC_GROUP_37
 70
     0
 10
0.0
 20
0.0
 30
0.0
  3
DC_GROUP_37
  1

  0
LINE
  5
20A
  8
LAYER0014
  6
CONTINUOUS
 62
     7
 10
-248.3971383663347
 20
69.81259339321839
 30
0.0
 11
-247.8612388314371
 21
71.81259180084905
 31
0.0
  0
LINE
  5
20B
  8
LAYER0014
  6
CONTINUOUS
 62
     7
 10
-247.8612388314371
 20
71.81259180084905
 30
0.0
 11
-247.3253392965395
 21
69.81259339321839
 31
0.0
  0
LINE
  5
20C
  8
LAYER0014
  6
CONTINUOUS
 62
     7
 10
-247.8612388314371
 20
71.81259180084905
 30
0.0
 11
-247.8612388314371
 21
69.81259339321839
 31
0.0
  0
ENDBLK
  5
BA
  8
0
  0
BLOCK
  8
0
  2
DC_GROUP_38
 70
     0
 10
0.0
 20
0.0
 30
0.0
  3
DC_GROUP_38
  1

  0
LINE
  5
20D
  8
LAYER0014
  6
CONTINUOUS
 62
     7
 10
-213.9945762337809
 20
-166.7889191961538
 30
0.0
 11
-115.9945762337809
 21
-166.7889191961538
 31
0.0
  0
LINE
  5
20E
  8
LAYER0014
  6
CONTINUOUS
 62
     7
 10
-213.9945762337809
 20
-121.7274081991509
 30
0.0
 11
-213.9945762337809
 21
-167.7889191961538
 31
0.0
  0
LINE
  5
20F
  8
LAYER0014
  6
CONTINUOUS
 62
     7
 10
-115.9945762337809
 20
-118.7274081991509
 30
0.0
 11
-115.9945762337809
 21
-167.7889191961538
 31
0.0
  0
INSERT
  5
210
  8
LAYER0014
  6
CONTINUOUS
  2
DC_GROUP_39
 10
0.0
 20
0.0
 30
0.0
  0
INSERT
  5
211
  8
LAYER0014
  6
CONTINUOUS
  2
DC_GROUP_40
 10
0.0
 20
0.0
 30
0.0
  0
TEXT
  5
212
  8
LAYER0014
 62
     7
 10
-168.1945762337809
 20
-165.7889191961538
 30
0.0
 40
4.0
  1
98
 41
0.7999999999999972
  7
FDASTYLE1
 72
     5
 11
-161.7945762337809
 21
-165.7889191961538
 31
0.0
  0
ENDBLK
  5
BD
  8
0
  0
BLOCK
  8
0
  2
DC_GROUP_39
 70
     0
 10
0.0
 20
0.0
 30
0.0
  3
DC_GROUP_39
  1

  0
LINE
  5
213
  8
LAYER0014
  6
CONTINUOUS
 62
     7
 10
-211.9945778261502
 20
-167.3248187310514
 30
0.0
 11
-213.9945762337809
 21
-166.7889191961538
 31
0.0
  0
LINE
  5
214
  8
LAYER0014
  6
CONTINUOUS
 62
     7
 10
-213.9945762337809
 20
-166.7889191961538
 30
0.0
 11
-211.9945778261502
 21
-166.2530196612562
 31
0.0
  0
LINE
  5
215
  8
LAYER0014
  6
CONTINUOUS
 62
     7
 10
-213.9945762337809
 20
-166.7889191961538
 30
0.0
 11
-211.9945778261502
 21
-166.7889191961538
 31
0.0
  0
ENDBLK
  5
C0
  8
0
  0
BLOCK
  8
0
  2
DC_GROUP_40
 70
     0
 10
0.0
 20
0.0
 30
0.0
  3
DC_GROUP_40
  1

  0
LINE
  5
216
  8
LAYER0014
  6
CONTINUOUS
 62
     7
 10
-117.9945746414115
 20
-166.2530196612562
 30
0.0
 11
-115.9945762337809
 21
-166.7889191961538
 31
0.0
  0
LINE
  5
217
  8
LAYER0014
  6
CONTINUOUS
 62
     7
 10
-115.9945762337809
 20
-166.7889191961538
 30
0.0
 11
-117.9945746414115
 21
-167.3248187310514
 31
0.0
  0
LINE
  5
218
  8
LAYER0014
  6
CONTINUOUS
 62
     7
 10
-115.9945762337809
 20
-166.7889191961538
 30
0.0
 11
-117.9945746414115
 21
-166.7889191961538
 31
0.0
  0
ENDBLK
  5
C3
  8
0
  0
BLOCK
  8
0
  2
DC_GROUP_41
 70
     0
 10
0.0
 20
0.0
 30
0.0
  3
DC_GROUP_41
  1

  0
LINE
  5
219
  8
LAYER0014
  6
CONTINUOUS
 62
     7
 10
-213.9945762337809
 20
-155.2953862595884
 30
0.0
 11
-208.2945792855387
 21
-155.2953862595884
 31
0.0
  0
LINE
  5
21A
  8
LAYER0014
  6
CONTINUOUS
 62
     7
 10
-213.9945762337809
 20
-120.0889959923947
 30
0.0
 11
-213.9945762337809
 21
-156.2953862595884
 31
0.0
  0
LINE
  5
21B
  8
LAYER0014
  6
CONTINUOUS
 62
     7
 10
-208.2945792855387
 20
-109.2274081991509
 30
0.0
 11
-208.2945792855387
 21
-156.2953862595884
 31
0.0
  0
LINE
  5
21C
  8
LAYER0014
  6
CONTINUOUS
 62
     7
 10
-227.8043256961889
 20
-155.2953862595884
 30
0.0
 11
-213.9945762337809
 21
-155.2953862595884
 31
0.0
  0
INSERT
  5
21D
  8
LAYER0014
  6
CONTINUOUS
  2
DC_GROUP_42
 10
0.0
 20
0.0
 30
0.0
  0
TEXT
  5
21E
  8
LAYER0014
 62
     7
 10
-226.8043256961889
 20
-154.2953862595884
 30
0.0
 40
4.0
  1
5.7
 41
0.7999999999999995
  7
FDASTYLE1
 72
     5
 11
-217.2043256961889
 21
-154.2953862595884
 31
0.0
  0
ENDBLK
  5
C6
  8
0
  0
BLOCK
  8
0
  2
DC_GROUP_42
 70
     0
 10
0.0
 20
0.0
 30
0.0
  3
DC_GROUP_42
  1

  0
LINE
  5
21F
  8
LAYER0014
  6
CONTINUOUS
 62
     7
 10
-215.9945746414116
 20
-154.7594867246908
 30
0.0
 11
-213.9945762337809
 21
-155.2953862595884
 31
0.0
  0
LINE
  5
220
  8
LAYER0014
  6
CONTINUOUS
 62
     7
 10
-213.9945762337809
 20
-155.2953862595884
 30
0.0
 11
-215.9945746414116
 21
-155.831285794486
 31
0.0
  0
LINE
  5
221
  8
LAYER0014
  6
CONTINUOUS
 62
     7
 10
-213.9945762337809
 20
-155.2953862595884
 30
0.0
 11
-215.9945746414116
 21
-155.2953862595884
 31
0.0
  0
ENDBLK
  5
C9
  8
0
  0
BLOCK
  8
0
  2
DC_GROUP_43
 70
     0
 10
0.0
 20
0.0
 30
0.0
  3
DC_GROUP_43
  1

  0
LINE
  5
222
  8
LAYER0014
  6
CONTINUOUS
 62
     7
 10
-208.2945792855387
 20
-141.284043670996
 30
0.0
 11
-160.9945762337809
 21
-141.284043670996
 31
0.0
  0
LINE
  5
223
  8
LAYER0014
  6
CONTINUOUS
 62
     7
 10
-208.2945792855387
 20
-109.2274081991509
 30
0.0
 11
-208.2945792855387
 21
-142.284043670996
 31
0.0
  0
LINE
  5
224
  8
LAYER0014
  6
CONTINUOUS
 62
     7
 10
-160.9945762337809
 20
-25.72740819915094
 30
0.0
 11
-160.9945762337809
 21
-142.284043670996
 31
0.0
  0
INSERT
  5
225
  8
LAYER0014
  6
CONTINUOUS
  2
DC_GROUP_44
 10
0.0
 20
0.0
 30
0.0
  0
INSERT
  5
226
  8
LAYER0014
  6
CONTINUOUS
  2
DC_GROUP_45
 10
0.0
 20
0.0
 30
0.0
  0
TEXT
  5
227
  8
LAYER0014
 62
     7
 10
-197.4445777596598
 20
-140.284043670996
 30
0.0
 40
4.0
  1
MAX 62.3
 41
0.8000000000000007
  7
FDASTYLE1
 72
     5
 11
-171.8445777596598
 21
-140.284043670996
 31
0.0
  0
ENDBLK
  5
CC
  8
0
  0
BLOCK
  8
0
  2
DC_GROUP_44
 70
     0
 10
0.0
 20
0.0
 30
0.0
  3
DC_GROUP_44
  1

  0
LINE
  5
228
  8
LAYER0014
  6
CONTINUOUS
 62
     7
 10
-206.294580877908
 20
-141.8199432058936
 30
0.0
 11
-208.2945792855387
 21
-141.284043670996
 31
0.0
  0
LINE
  5
229
  8
LAYER0014
  6
CONTINUOUS
 62
     7
 10
-208.2945792855387
 20
-141.284043670996
 30
0.0
 11
-206.294580877908
 21
-140.7481441360984
 31
0.0
  0
LINE
  5
22A
  8
LAYER0014
  6
CONTINUOUS
 62
     7
 10
-208.2945792855387
 20
-141.284043670996
 30
0.0
 11
-206.294580877908
 21
-141.284043670996
 31
0.0
  0
ENDBLK
  5
CF
  8
0
  0
BLOCK
  8
0
  2
DC_GROUP_45
 70
     0
 10
0.0
 20
0.0
 30
0.0
  3
DC_GROUP_45
  1

  0
LINE
  5
22B
  8
LAYER0014
  6
CONTINUOUS
 62
     7
 10
-162.9945746414116
 20
-140.7481441360984
 30
0.0
 11
-160.9945762337809
 21
-141.284043670996
 31
0.0
  0
LINE
  5
22C
  8
LAYER0014
  6
CONTINUOUS
 62
     7
 10
-160.9945762337809
 20
-141.284043670996
 30
0.0
 11
-162.9945746414116
 21
-141.8199432058936
 31
0.0
  0
LINE
  5
22D
  8
LAYER0014
  6
CONTINUOUS
 62
     7
 10
-160.9945762337809
 20
-141.284043670996
 30
0.0
 11
-162.9945746414116
 21
-141.284043670996
 31
0.0
  0
ENDBLK
  5
D2
  8
0
  0
BLOCK
  8
0
  2
DC_GROUP_46
 70
     0
 10
0.0
 20
0.0
 30
0.0
  3
DC_GROUP_46
  1

  0
LINE
  5
22E
  8
LAYER0014
  6
CONTINUOUS
 62
     7
 10
-268.3489505443483
 20
-119.187408199151
 30
0.0
 11
-268.3489505443483
 21
160.8125918008491
 31
0.0
  0
LINE
  5
22F
  8
LAYER0014
  6
CONTINUOUS
 62
     7
 10
-215.409261647157
 20
-119.187408199151
 30
0.0
 11
-269.3489505443483
 21
-119.187408199151
 31
0.0
  0
LINE
  5
230
  8
LAYER0014
  6
CONTINUOUS
 62
     7
 10
-215.3694909167035
 20
160.8125918008491
 30
0.0
 11
-269.3489505443483
 21
160.8125918008491
 31
0.0
  0
INSERT
  5
231
  8
LAYER0014
  6
CONTINUOUS
  2
DC_GROUP_47
 10
0.0
 20
0.0
 30
0.0
  0
INSERT
  5
232
  8
LAYER0014
  6
CONTINUOUS
  2
DC_GROUP_48
 10
0.0
 20
0.0
 30
0.0
  0
TEXT
  5
233
  8
LAYER0014
 62
     7
 10
-269.9489505443482
 20
14.41258989350045
 30
0.0
 40
4.0
  1
φ280
 50
90.0
 41
0.7256235827664374
  7
FDASTYLE1
 72
     5
 11
-269.9489505443482
 21
26.6030660839766
 31
0.0
  0
ENDBLK
  5
D5
  8
0
  0
BLOCK
  8
0
  2
DC_GROUP_47
 70
     0
 10
0.0
 20
0.0
 30
0.0
  3
DC_GROUP_47
  1

  0
LINE
  5
234
  8
LAYER0014
  6
CONTINUOUS
 62
     7
 10
-267.8130510094508
 20
-117.1874097915203
 30
0.0
 11
-268.3489505443483
 21
-119.187408199151
 31
0.0
  0
LINE
  5
235
  8
LAYER0014
  6
CONTINUOUS
 62
     7
 10
-268.3489505443483
 20
-119.187408199151
 30
0.0
 11
-268.8848500792459
 21
-117.1874097915203
 31
0.0
  0
LINE
  5
236
  8
LAYER0014
  6
CONTINUOUS
 62
     7
 10
-268.3489505443483
 20
-119.187408199151
 30
0.0
 11
-268.3489505443483
 21
-117.1874097915203
 31
0.0
  0
ENDBLK
  5
D8
  8
0
  0
BLOCK
  8
0
  2
DC_GROUP_48
 70
     0
 10
0.0
 20
0.0
 30
0.0
  3
DC_GROUP_48
  1

  0
LINE
  5
237
  8
LAYER0014
  6
CONTINUOUS
 62
     7
 10
-268.8848500792459
 20
158.8125933932184
 30
0.0
 11
-268.3489505443483
 21
160.8125918008491
 31
0.0
  0
LINE
  5
238
  8
LAYER0014
  6
CONTINUOUS
 62
     7
 10
-268.3489505443483
 20
160.8125918008491
 30
0.0
 11
-267.8130510094508
 21
158.8125933932184
 31
0.0
  0
LINE
  5
239
  8
LAYER0014
  6
CONTINUOUS
 62
     7
 10
-268.3489505443483
 20
160.8125918008491
 30
0.0
 11
-268.3489505443483
 21
158.8125933932184
 31
0.0
  0
ENDBLK
  5
DB
  8
0
  0
BLOCK
  8
0
  2
DC_GROUP_49
 70
     0
 10
0.0
 20
0.0
 30
0.0
  3
DC_GROUP_49
  1

  0
LINE
  5
23A
  8
LAYER0014
  6
CONTINUOUS
 62
     7
 10
-208.2945792855387
 20
-155.2953862595884
 30
0.0
 11
-115.9945762337809
 21
-155.2953862595884
 31
0.0
  0
LINE
  5
23B
  8
LAYER0014
  6
CONTINUOUS
 62
     7
 10
-208.2945792855387
 20
-109.2274081991509
 30
0.0
 11
-208.2945792855387
 21
-156.2953862595884
 31
0.0
  0
LINE
  5
23C
  8
LAYER0014
  6
CONTINUOUS
 62
     7
 10
-115.9945762337809
 20
-118.7274081991509
 30
0.0
 11
-115.9945762337809
 21
-156.2953862595884
 31
0.0
  0
INSERT
  5
23D
  8
LAYER0014
  6
CONTINUOUS
  2
DC_GROUP_50
 10
0.0
 20
0.0
 30
0.0
  0
INSERT
  5
23E
  8
LAYER0014
  6
CONTINUOUS
  2
DC_GROUP_51
 10
0.0
 20
0.0
 30
0.0
  0
TEXT
  5
23F
  8
LAYER0014
 62
     7
 10
-168.5445777596598
 20
-154.2953862595884
 30
0.0
 40
4.0
  1
92.3
 41
0.8000000000000007
  7
FDASTYLE1
 72
     5
 11
-155.7445777596598
 21
-154.2953862595884
 31
0.0
  0
ENDBLK
  5
DE
  8
0
  0
BLOCK
  8
0
  2
DC_GROUP_50
 70
     0
 10
0.0
 20
0.0
 30
0.0
  3
DC_GROUP_50
  1

  0
LINE
  5
240
  8
LAYER0014
  6
CONTINUOUS
 62
     7
 10
-206.294580877908
 20
-155.831285794486
 30
0.0
 11
-208.2945792855387
 21
-155.2953862595884
 31
0.0
  0
LINE
  5
241
  8
LAYER0014
  6
CONTINUOUS
 62
     7
 10
-208.2945792855387
 20
-155.2953862595884
 30
0.0
 11
-206.294580877908
 21
-154.7594867246908
 31
0.0
  0
LINE
  5
242
  8
LAYER0014
  6
CONTINUOUS
 62
     7
 10
-208.2945792855387
 20
-155.2953862595884
 30
0.0
 11
-206.294580877908
 21
-155.2953862595884
 31
0.0
  0
ENDBLK
  5
E1
  8
0
  0
BLOCK
  8
0
  2
DC_GROUP_51
 70
     0
 10
0.0
 20
0.0
 30
0.0
  3
DC_GROUP_51
  1

  0
LINE
  5
243
  8
LAYER0014
  6
CONTINUOUS
 62
     7
 10
-117.9945746414115
 20
-154.7594867246908
 30
0.0
 11
-115.9945762337809
 21
-155.2953862595884
 31
0.0
  0
LINE
  5
244
  8
LAYER0014
  6
CONTINUOUS
 62
     7
 10
-115.9945762337809
 20
-155.2953862595884
 30
0.0
 11
-117.9945746414115
 21
-155.831285794486
 31
0.0
  0
LINE
  5
245
  8
LAYER0014
  6
CONTINUOUS
 62
     7
 10
-115.9945762337809
 20
-155.2953862595884
 30
0.0
 11
-117.9945746414115
 21
-155.2953862595884
 31
0.0
  0
ENDBLK
  5
E4
  8
0
  0
BLOCK
  8
0
  2
DC_GROUP_52
 70
     0
 10
0.0
 20
0.0
 30
0.0
  3
DC_GROUP_52
  1

  0
LINE
  5
246
  8
LAYER0014
  6
CONTINUOUS
 62
     7
 10
-83.78189251796054
 20
98.81259180084905
 30
0.0
 11
-83.26123883143711
 21
98.81259180084905
 31
0.0
  0
LINE
  5
247
  8
LAYER0014
  6
CONTINUOUS
 62
     7
 10
-83.78189251796054
 20
133.8125918008491
 30
0.0
 11
-83.26123883143711
 21
133.8125918008491
 31
0.0
  0
LINE
  5
248
  8
LAYER0014
  6
CONTINUOUS
 62
     7
 10
-84.26123883143711
 20
98.81259180084905
 30
0.0
 11
-84.26123883143711
 21
133.8125918008491
 31
0.0
  0
INSERT
  5
249
  8
LAYER0014
  6
CONTINUOUS
  2
DC_GROUP_53
 10
0.0
 20
0.0
 30
0.0
  0
INSERT
  5
24A
  8
LAYER0014
  6
CONTINUOUS
  2
DC_GROUP_54
 10
0.0
 20
0.0
 30
0.0
  0
TEXT
  5
24B
  8
LAYER0014
 62
     7
 10
-85.86123883143711
 20
113.1125918008491
 30
0.0
 40
4.0
  1
35
 50
90.0
 41
0.8000000000000007
  7
FDASTYLE1
 72
     5
 11
-85.86123883143711
 21
119.5125918008491
 31
0.0
  0
ENDBLK
  5
E7
  8
0
  0
BLOCK
  8
0
  2
DC_GROUP_53
 70
     0
 10
0.0
 20
0.0
 30
0.0
  3
DC_GROUP_53
  1

  0
LINE
  5
24C
  8
LAYER0014
  6
CONTINUOUS
 62
     7
 10
-83.7253392965395
 20
100.8125902084797
 30
0.0
 11
-84.26123883143711
 21
98.81259180084905
 31
0.0
  0
LINE
  5
24D
  8
LAYER0014
  6
CONTINUOUS
 62
     7
 10
-84.26123883143711
 20
98.81259180084905
 30
0.0
 11
-84.79713836633472
 21
100.8125902084797
 31
0.0
  0
LINE
  5
24E
  8
LAYER0014
  6
CONTINUOUS
 62
     7
 10
-84.26123883143711
 20
98.81259180084905
 30
0.0
 11
-84.26123883143711
 21
100.8125902084797
 31
0.0
  0
ENDBLK
  5
EA
  8
0
  0
BLOCK
  8
0
  2
DC_GROUP_54
 70
     0
 10
0.0
 20
0.0
 30
0.0
  3
DC_GROUP_54
  1

  0
LINE
  5
24F
  8
LAYER0014
  6
CONTINUOUS
 62
     7
 10
-84.79713836633472
 20
131.8125933932185
 30
0.0
 11
-84.26123883143711
 21
133.8125918008491
 31
0.0
  0
LINE
  5
250
  8
LAYER0014
  6
CONTINUOUS
 62
     7
 10
-84.26123883143711
 20
133.8125918008491
 30
0.0
 11
-83.7253392965395
 21
131.8125933932185
 31
0.0
  0
LINE
  5
251
  8
LAYER0014
  6
CONTINUOUS
 62
     7
 10
-84.26123883143711
 20
133.8125918008491
 30
0.0
 11
-84.26123883143711
 21
131.8125933932185
 31
0.0
  0
ENDBLK
  5
ED
  8
0
  0
BLOCK
  8
0
  2
DC_GROUP_55
 70
     0
 10
0.0
 20
0.0
 30
0.0
  3
DC_GROUP_55
  1

  0
LINE
  5
252
  8
LAYER0014
  6
CONTINUOUS
 62
     7
 10
-102.2901760402769
 20
140.5624834938091
 30
0.0
 11
-79.5295092904764
 21
168.2542495507464
 31
0.0
  0
LINE
  5
253
  8
LAYER0014
  6
CONTINUOUS
 62
     7
 10
-79.52951123133946
 20
168.2542574502631
 30
0.0
 11
-68.09984280482578
 21
168.2542574502631
 31
0.0
  0
INSERT
  5
254
  8
LAYER0014
  6
CONTINUOUS
  2
DC_GROUP_56
 10
0.0
 20
0.0
 30
0.0
  0
TEXT
  5
255
  8
LAYER0014
 62
     7
 10
-78.89491345301914
 20
169.8542574502631
 30
0.0
 40
4.0
  1
M12
 41
0.7999999999999995
  7
FDASTYLE1
 72
     5
 11
-69.29491345301915
 21
169.8542574502631
 31
0.0
  0
ENDBLK
  5
F0
  8
0
  0
BLOCK
  8
0
  2
DC_GROUP_56
 70
     0
 10
0.0
 20
0.0
 30
0.0
  3
DC_GROUP_56
  1

  0
LINE
  5
256
  8
LAYER0014
  6
CONTINUOUS
 62
     7
 10
-100.6062345444151
 20
141.7672751689727
 30
0.0
 11
-102.2901760402769
 21
140.5624834938091
 31
0.0
  0
LINE
  5
257
  8
LAYER0014
  6
CONTINUOUS
 62
     7
 10
-102.2901760402769
 20
140.5624834938091
 30
0.0
 11
-101.434238537479
 21
142.4478356978635
 31
0.0
  0
LINE
  5
258
  8
LAYER0014
  6
CONTINUOUS
 62
     7
 10
-102.2901760402769
 20
140.5624834938091
 30
0.0
 11
-101.020236540947
 21
142.1075554334181
 31
0.0
  0
ENDBLK
  5
F3
  8
0
  0
BLOCK
  8
0
  2
DC_GROUP_57
 70
     0
 10
0.0
 20
0.0
 30
0.0
  3
DC_GROUP_57
  1

  0
LINE
  5
259
  8
LAYER0014
  6
CONTINUOUS
 62
     7
 10
-118.4945762337809
 20
3.574439773718929
 30
0.0
 11
-115.9945762337809
 21
3.574439773718929
 31
0.0
  0
LINE
  5
25A
  8
LAYER0014
  6
CONTINUOUS
 62
     7
 10
-102.3734224923715
 20
3.574439773718929
 30
0.0
 11
-115.9945762337809
 21
3.574439773718929
 31
0.0
  0
LINE
  5
25B
  8
LAYER0014
  6
CONTINUOUS
 62
     7
 10
-123.4945762337809
 20
3.574439773718929
 30
0.0
 11
-118.4945762337809
 21
3.574439773718929
 31
0.0
  0
INSERT
  5
25C
  8
LAYER0014
  6
CONTINUOUS
  2
DC_GROUP_58
 10
0.0
 20
0.0
 30
0.0
  0
INSERT
  5
25D
  8
LAYER0014
  6
CONTINUOUS
  2
DC_GROUP_59
 10
0.0
 20
0.0
 30
0.0
  0
TEXT
  5
25E
  8
LAYER0014
 62
     7
 10
-112.9734224923715
 20
4.574439773718929
 30
0.0
 40
4.0
  1
2.5
 41
0.7999999999999995
  7
FDASTYLE1
 72
     5
 11
-103.3734224923715
 21
4.574439773718929
 31
0.0
  0
ENDBLK
  5
F6
  8
0
  0
BLOCK
  8
0
  2
DC_GROUP_58
 70
     0
 10
0.0
 20
0.0
 30
0.0
  3
DC_GROUP_58
  1

  0
LINE
  5
25F
  8
LAYER0014
  6
CONTINUOUS
 62
     7
 10
-113.9945778261502
 20
3.038540238821321
 30
0.0
 11
-115.9945762337809
 21
3.574439773718929
 31
0.0
  0
LINE
  5
260
  8
LAYER0014
  6
CONTINUOUS
 62
     7
 10
-115.9945762337809
 20
3.574439773718929
 30
0.0
 11
-113.9945778261502
 21
4.110339308616537
 31
0.0
  0
LINE
  5
261
  8
LAYER0014
  6
CONTINUOUS
 62
     7
 10
-115.9945762337809
 20
3.574439773718929
 30
0.0
 11
-113.9945778261502
 21
3.574439773718928
 31
0.0
  0
ENDBLK
  5
F9
  8
0
  0
BLOCK
  8
0
  2
DC_GROUP_59
 70
     0
 10
0.0
 20
0.0
 30
0.0
  3
DC_GROUP_59
  1

  0
LINE
  5
262
  8
LAYER0014
  6
CONTINUOUS
 62
     7
 10
-120.4945746414116
 20
4.110339308616537
 30
0.0
 11
-118.4945762337809
 21
3.574439773718929
 31
0.0
  0
LINE
  5
263
  8
LAYER0014
  6
CONTINUOUS
 62
     7
 10
-118.4945762337809
 20
3.574439773718929
 30
0.0
 11
-120.4945746414116
 21
3.038540238821321
 31
0.0
  0
LINE
  5
264
  8
LAYER0014
  6
CONTINUOUS
 62
     7
 10
-118.4945762337809
 20
3.574439773718929
 30
0.0
 11
-120.4945746414116
 21
3.574439773718929
 31
0.0
  0
ENDBLK
  5
FC
  8
0
  0
BLOCK
  8
0
  2
DC_GROUP_60
 70
     0
 10
0.0
 20
0.0
 30
0.0
  3
DC_GROUP_60
  1

  0
LINE
  5
265
  8
LAYER0014
  6
CONTINUOUS
 62
     7
 10
-115.9945762337809
 20
158.352591800849
 30
0.0
 11
-115.9945762337809
 21
173.2521212197944
 31
0.0
  0
LINE
  5
266
  8
LAYER0014
  6
CONTINUOUS
 62
     7
 10
-116.9945762337809
 20
161.352591800849
 30
0.0
 11
-116.9945762337809
 21
173.2521212197944
 31
0.0
  0
LINE
  5
267
  8
LAYER0014
  6
CONTINUOUS
 62
     7
 10
-115.9945762337809
 20
172.2521212197944
 30
0.0
 11
-116.9945762337809
 21
172.2521212197944
 31
0.0
  0
LINE
  5
268
  8
LAYER0014
  6
CONTINUOUS
 62
     7
 10
-115.9945762337809
 20
172.2521212197944
 30
0.0
 11
-109.6445762337809
 21
172.2521212197944
 31
0.0
  0
LINE
  5
269
  8
LAYER0014
  6
CONTINUOUS
 62
     7
 10
-123.3445762337809
 20
172.2521212197944
 30
0.0
 11
-116.9945762337809
 21
172.2521212197944
 31
0.0
  0
INSERT
  5
26A
  8
LAYER0014
  6
CONTINUOUS
  2
DC_GROUP_61
 10
0.0
 20
0.0
 30
0.0
  0
INSERT
  5
26B
  8
LAYER0014
  6
CONTINUOUS
  2
DC_GROUP_62
 10
0.0
 20
0.0
 30
0.0
  0
TEXT
  5
26C
  8
LAYER0014
 62
     7
 10
-111.3960288704996
 20
173.8521212197944
 30
0.0
 40
4.0
  1
1
 41
0.7999999999999972
  7
FDASTYLE1
 72
     5
 11
-108.1960288704996
 21
173.8521212197944
 31
0.0
  0
ENDBLK
  5
FF
  8
0
  0
BLOCK
  8
0
  2
DC_GROUP_61
 70
     0
 10
0.0
 20
0.0
 30
0.0
  3
DC_GROUP_61
  1

  0
LINE
  5
26D
  8
LAYER0014
  6
CONTINUOUS
 62
     7
 10
-113.9945778261502
 20
171.7162216848968
 30
0.0
 11
-115.9945762337809
 21
172.2521212197944
 31
0.0
  0
LINE
  5
26E
  8
LAYER0014
  6
CONTINUOUS
 62
     7
 10
-115.9945762337809
 20
172.2521212197944
 30
0.0
 11
-113.9945778261502
 21
172.788020754692
 31
0.0
  0
LINE
  5
26F
  8
LAYER0014
  6
CONTINUOUS
 62
     7
 10
-115.9945762337809
 20
172.2521212197944
 30
0.0
 11
-113.9945778261502
 21
172.2521212197944
 31
0.0
  0
ENDBLK
  5
102
  8
0
  0
BLOCK
  8
0
  2
DC_GROUP_62
 70
     0
 10
0.0
 20
0.0
 30
0.0
  3
DC_GROUP_62
  1

  0
LINE
  5
270
  8
LAYER0014
  6
CONTINUOUS
 62
     7
 10
-118.9945746414115
 20
172.788020754692
 30
0.0
 11
-116.9945762337809
 21
172.2521212197944
 31
0.0
  0
LINE
  5
271
  8
LAYER0014
  6
CONTINUOUS
 62
     7
 10
-116.9945762337809
 20
172.2521212197944
 30
0.0
 11
-118.9945746414115
 21
171.7162216848968
 31
0.0
  0
LINE
  5
272
  8
LAYER0014
  6
CONTINUOUS
 62
     7
 10
-116.9945762337809
 20
172.2521212197944
 30
0.0
 11
-118.9945746414115
 21
172.2521212197944
 31
0.0
  0
ENDBLK
  5
105
  8
0
  0
BLOCK
  8
0
  2
DC_GROUP_63
 70
     0
 10
0.0
 20
0.0
 30
0.0
  3
DC_GROUP_63
  1

  0
LINE
  5
273
  8
LAYER0014
  6
CONTINUOUS
 62
     7
 10
-116.7612580526911
 20
151.3459141684509
 30
0.0
 11
-91.22092009707487
 21
179.2961261842815
 31
0.0
  0
LINE
  5
274
  8
LAYER0014
  6
CONTINUOUS
 62
     7
 10
-91.22092511073399
 20
179.2961275674506
 30
0.0
 11
-42.92569043055821
 21
179.2961275674506
 31
0.0
  0
INSERT
  5
275
  8
LAYER0014
  6
CONTINUOUS
  2
DC_GROUP_64
 10
0.0
 20
0.0
 30
0.0
  0
TEXT
  5
276
  8
LAYER0014
 62
     7
 10
-89.55426098719883
 20
180.8961580850287
 30
0.0
 40
4.0
  1
ｾﾚｰｼｮﾝP1.5山60ﾟ
 41
0.7776234874032931
  7
FDASTYLE1
 72
     5
 11
-45.38524690269178
 21
180.8961580850287
 31
0.0
  0
ENDBLK
  5
108
  8
0
  0
BLOCK
  8
0
  2
DC_GROUP_64
 70
     0
 10
0.0
 20
0.0
 30
0.0
  3
DC_GROUP_64
  1

  0
LINE
  5
277
  8
LAYER0014
  6
CONTINUOUS
 62
     7
 10
-115.0165187030417
 20
152.4608431096009
 30
0.0
 11
-116.7612580526911
 21
151.3459141684509
 31
0.0
  0
LINE
  5
278
  8
LAYER0014
  6
CONTINUOUS
 62
     7
 10
-116.7612580526911
 20
151.3459141684509
 30
0.0
 11
-115.8077366272452
 21
153.1838420324446
 31
0.0
  0
LINE
  5
279
  8
LAYER0014
  6
CONTINUOUS
 62
     7
 10
-116.7612580526911
 20
151.3459141684509
 30
0.0
 11
-115.4121276651435
 21
152.8223425710227
 31
0.0
  0
ENDBLK
  5
10B
  8
0
  0
BLOCK
  8
0
  2
DC_GROUP_65
 70
     0
 10
0.0
 20
0.0
 30
0.0
  3
DC_GROUP_65
  1

  0
LINE
  5
27A
  8
LAYER0014
  6
CONTINUOUS
 62
     7
 10
-86.01159832850742
 20
98.81259180084905
 30
0.0
 11
-83.26123883143711
 21
98.81259180084905
 31
0.0
  0
LINE
  5
27B
  8
LAYER0014
  6
CONTINUOUS
 62
     7
 10
-115.9945762337809
 20
78.81259180084905
 30
0.0
 11
-83.26123883143711
 21
78.81259180084905
 31
0.0
  0
LINE
  5
27C
  8
LAYER0014
  6
CONTINUOUS
 62
     7
 10
-84.26123883143711
 20
98.81259180084905
 30
0.0
 11
-84.26123883143711
 21
78.81259180084905
 31
0.0
  0
INSERT
  5
27D
  8
LAYER0014
  6
CONTINUOUS
  2
DC_GROUP_66
 10
0.0
 20
0.0
 30
0.0
  0
INSERT
  5
27E
  8
LAYER0014
  6
CONTINUOUS
  2
DC_GROUP_67
 10
0.0
 20
0.0
 30
0.0
  0
TEXT
  5
27F
  8
LAYER0014
 62
     7
 10
-85.86123883143711
 20
80.65909601227483
 30
0.0
 40
4.0
  1
MIN13
 50
90.0
 41
0.8
  7
FDASTYLE1
 72
     5
 11
-85.86123883143711
 21
96.65909601227483
 31
0.0
  0
ENDBLK
  5
10E
  8
0
  0
BLOCK
  8
0
  2
DC_GROUP_66
 70
     0
 10
0.0
 20
0.0
 30
0.0
  3
DC_GROUP_66
  1

  0
LINE
  5
280
  8
LAYER0014
  6
CONTINUOUS
 62
     7
 10
-84.79713836633472
 20
96.81259339321839
 30
0.0
 11
-84.26123883143711
 21
98.81259180084905
 31
0.0
  0
LINE
  5
281
  8
LAYER0014
  6
CONTINUOUS
 62
     7
 10
-84.26123883143711
 20
98.81259180084905
 30
0.0
 11
-83.7253392965395
 21
96.81259339321839
 31
0.0
  0
LINE
  5
282
  8
LAYER0014
  6
CONTINUOUS
 62
     7
 10
-84.26123883143711
 20
98.81259180084905
 30
0.0
 11
-84.26123883143711
 21
96.81259339321839
 31
0.0
  0
ENDBLK
  5
111
  8
0
  0
BLOCK
  8
0
  2
DC_GROUP_67
 70
     0
 10
0.0
 20
0.0
 30
0.0
  3
DC_GROUP_67
  1

  0
LINE
  5
283
  8
LAYER0014
  6
CONTINUOUS
 62
     7
 10
-83.7253392965395
 20
80.81259020847971
 30
0.0
 11
-84.26123883143711
 21
78.81259180084905
 31
0.0
  0
LINE
  5
284
  8
LAYER0014
  6
CONTINUOUS
 62
     7
 10
-84.26123883143711
 20
78.81259180084905
 30
0.0
 11
-84.79713836633472
 21
80.81259020847971
 31
0.0
  0
LINE
  5
285
  8
LAYER0014
  6
CONTINUOUS
 62
     7
 10
-84.26123883143711
 20
78.81259180084905
 30
0.0
 11
-84.26123883143711
 21
80.81259020847971
 31
0.0
  0
ENDBLK
  5
114
  8
0
  0
BLOCK
  8
0
  2
DC_GROUP_68
 70
     0
 10
0.0
 20
0.0
 30
0.0
  3
DC_GROUP_68
  1

  0
LINE
  5
286
  8
LAYER0014
  6
CONTINUOUS
 62
     7
 10
-72.84773014417351
 20
-31.68740819915094
 30
0.0
 11
-72.84773014417351
 21
54.81259180084906
 31
0.0
  0
LINE
  5
287
  8
LAYER0014
  6
CONTINUOUS
 62
     7
 10
-115.6395769241766
 20
-31.68740819915094
 30
0.0
 11
-71.84773014417351
 21
-31.68740819915094
 31
0.0
  0
INSERT
  5
288
  8
LAYER0014
  6
CONTINUOUS
  2
DC_GROUP_69
 10
0.0
 20
0.0
 30
0.0
  0
TEXT
  5
289
  8
LAYER0014
 62
     7
 10
-74.44773014417351
 20
11.3409830667182
 30
0.0
 40
4.0
  1
φ105H7
 50
90.0
 41
0.7492195629552548
  7
FDASTYLE1
 72
     5
 11
-74.44773014417351
 21
29.92162822800852
 31
0.0
  0
ENDBLK
  5
117
  8
0
  0
BLOCK
  8
0
  2
DC_GROUP_69
 70
     0
 10
0.0
 20
0.0
 30
0.0
  3
DC_GROUP_69
  1

  0
LINE
  5
28A
  8
LAYER0014
  6
CONTINUOUS
 62
     7
 10
-72.3118306092759
 20
-29.68740979152028
 30
0.0
 11
-72.84773014417351
 21
-31.68740819915094
 31
0.0
  0
LINE
  5
28B
  8
LAYER0014
  6
CONTINUOUS
 62
     7
 10
-72.84773014417351
 20
-31.68740819915094
 30
0.0
 11
-73.38362967907112
 21
-29.68740979152028
 31
0.0
  0
LINE
  5
28C
  8
LAYER0014
  6
CONTINUOUS
 62
     7
 10
-72.84773014417351
 20
-31.68740819915094
 30
0.0
 11
-72.84773014417351
 21
-29.68740979152028
 31
0.0
  0
ENDBLK
  5
11A
  8
0
  0
BLOCK
  8
0
  2
DC_GROUP_70
 70
     0
 10
0.0
 20
0.0
 30
0.0
  3
DC_GROUP_70
  1

  0
LINE
  5
28D
  8
LAYER0014
  6
CONTINUOUS
 62
     7
 10
-72.70526671992623
 20
85.81259180084905
 30
0.0
 11
-72.70526671992623
 21
146.8125918008491
 31
0.0
  0
LINE
  5
28E
  8
LAYER0014
  6
CONTINUOUS
 62
     7
 10
-81.00909588710117
 20
85.81259180084905
 30
0.0
 11
-71.70526671992623
 21
85.81259180084905
 31
0.0
  0
LINE
  5
28F
  8
LAYER0014
  6
CONTINUOUS
 62
     7
 10
-112.9545762337809
 20
146.8125918008491
 30
0.0
 11
-71.70526671992623
 21
146.8125918008491
 31
0.0
  0
INSERT
  5
290
  8
LAYER0014
  6
CONTINUOUS
  2
DC_GROUP_71
 10
0.0
 20
0.0
 30
0.0
  0
INSERT
  5
291
  8
LAYER0014
  6
CONTINUOUS
  2
DC_GROUP_72
 10
0.0
 20
0.0
 30
0.0
  0
TEXT
  5
292
  8
LAYER0014
 62
     7
 10
-74.30526671992622
 20
113.1125918008491
 30
0.0
 40
4.0
  1
61
 50
90.0
 41
0.8000000000000007
  7
FDASTYLE1
 72
     5
 11
-74.30526671992622
 21
119.5125918008491
 31
0.0
  0
ENDBLK
  5
11D
  8
0
  0
BLOCK
  8
0
  2
DC_GROUP_71
 70
     0
 10
0.0
 20
0.0
 30
0.0
  3
DC_GROUP_71
  1

  0
LINE
  5
293
  8
LAYER0014
  6
CONTINUOUS
 62
     7
 10
-72.16936718502862
 20
87.81259020847971
 30
0.0
 11
-72.70526671992623
 21
85.81259180084905
 31
0.0
  0
LINE
  5
294
  8
LAYER0014
  6
CONTINUOUS
 62
     7
 10
-72.70526671992623
 20
85.81259180084905
 30
0.0
 11
-73.24116625482385
 21
87.81259020847971
 31
0.0
  0
LINE
  5
295
  8
LAYER0014
  6
CONTINUOUS
 62
     7
 10
-72.70526671992623
 20
85.81259180084905
 30
0.0
 11
-72.70526671992623
 21
87.81259020847971
 31
0.0
  0
ENDBLK
  5
120
  8
0
  0
BLOCK
  8
0
  2
DC_GROUP_72
 70
     0
 10
0.0
 20
0.0
 30
0.0
  3
DC_GROUP_72
  1

  0
LINE
  5
296
  8
LAYER0014
  6
CONTINUOUS
 62
     7
 10
-73.24116625482385
 20
144.8125933932184
 30
0.0
 11
-72.70526671992623
 21
146.8125918008491
 31
0.0
  0
LINE
  5
297
  8
LAYER0014
  6
CONTINUOUS
 62
     7
 10
-72.70526671992623
 20
146.8125918008491
 30
0.0
 11
-72.16936718502862
 21
144.8125933932184
 31
0.0
  0
LINE
  5
298
  8
LAYER0014
  6
CONTINUOUS
 62
     7
 10
-72.70526671992623
 20
146.8125918008491
 30
0.0
 11
-72.70526671992623
 21
144.8125933932184
 31
0.0
  0
ENDBLK
  5
123
  8
0
  0
BLOCK
  8
0
  2
DC_GROUP_73
 70
     0
 10
0.0
 20
0.0
 30
0.0
  3
DC_GROUP_73
  1

  0
TEXT
  5
299
  8
LAYER0014
 62
     7
 10
-55.18685642272747
 20
37.06447964619617
 30
0.0
 40
4.0
  1
MIN 55.7
 50
90.0
 41
0.7999999999999998
  7
FDASTYLE1
 72
     5
 11
-55.18685642272747
 21
62.66447964619616
 31
0.0
  0
ENDBLK
  5
126
  8
0
  0
BLOCK
  8
0
  2
DC_GROUP_74
 70
     0
 10
0.0
 20
0.0
 30
0.0
  3
DC_GROUP_74
  1

  0
LINE
  5
29A
  8
LAYER0014
  6
CONTINUOUS
 62
     7
 10
-206.294580877908
 20
171.407673711264
 30
0.0
 11
-208.2945792855387
 21
171.9435732461616
 31
0.0
  0
LINE
  5
29B
  8
LAYER0014
  6
CONTINUOUS
 62
     7
 10
-208.2945792855387
 20
171.9435732461616
 30
0.0
 11
-206.294580877908
 21
172.4794727810592
 31
0.0
  0
LINE
  5
29C
  8
LAYER0014
  6
CONTINUOUS
 62
     7
 10
-208.2945792855387
 20
171.9435732461616
 30
0.0
 11
-206.294580877908
 21
171.9435732461616
 31
0.0
  0
ENDBLK
  5
129
  8
0
  0
BLOCK
  8
0
  2
DC_GROUP_75
 70
     0
 10
0.0
 20
0.0
 30
0.0
  3
DC_GROUP_75
  1

  0
LINE
  5
29D
  8
LAYER0014
  6
CONTINUOUS
 62
     7
 10
-194.9945746414116
 20
172.4794727810592
 30
0.0
 11
-192.9945762337809
 21
171.9435732461616
 31
0.0
  0
LINE
  5
29E
  8
LAYER0014
  6
CONTINUOUS
 62
     7
 10
-192.9945762337809
 20
171.9435732461616
 30
0.0
 11
-194.9945746414116
 21
171.407673711264
 31
0.0
  0
LINE
  5
29F
  8
LAYER0014
  6
CONTINUOUS
 62
     7
 10
-192.9945762337809
 20
171.9435732461616
 30
0.0
 11
-194.9945746414116
 21
171.9435732461616
 31
0.0
  0
ENDBLK
  5
12C
  8
0
  0
BLOCK
  8
0
  2
DC_GROUP_76
 70
     0
 10
0.0
 20
0.0
 30
0.0
  3
DC_GROUP_76
  1

  0
LINE
  5
2A0
  8
LAYER0014
  6
CONTINUOUS
 62
     7
 10
-83.75014356895159
 20
-22.18740979152028
 30
0.0
 11
-84.2860431038492
 21
-24.18740819915094
 31
0.0
  0
LINE
  5
2A1
  8
LAYER0014
  6
CONTINUOUS
 62
     7
 10
-84.2860431038492
 20
-24.18740819915094
 30
0.0
 11
-84.82194263874681
 21
-22.18740979152028
 31
0.0
  0
LINE
  5
2A2
  8
LAYER0014
  6
CONTINUOUS
 62
     7
 10
-84.2860431038492
 20
-24.18740819915094
 30
0.0
 11
-84.2860431038492
 21
-22.18740979152028
 31
0.0
  0
ENDBLK
  5
12F
  8
0
  0
BLOCK
  8
0
  2
DC_GROUP_77
 70
     0
 10
0.0
 20
0.0
 30
0.0
  3
DC_GROUP_77
  1

  0
LINE
  5
2A3
  8
0
  6
CONTINUOUS
 62
     9
 10
-192.9945778042072
 20
-14.18741745485206
 30
0.0
 11
-226.2740038822895
 21
-14.18741745485206
 31
0.0
  0
LINE
  5
2A4
  8
0
  6
CONTINUOUS
 62
     9
 10
-192.9945715873298
 20
55.81259561552995
 30
0.0
 11
-226.2740038822895
 21
55.81259561552995
 31
0.0
  0
LINE
  5
2A5
  8
0
  6
CONTINUOUS
 62
     9
 10
-225.2740038822895
 20
-14.18741745485206
 30
0.0
 11
-225.2740038822895
 21
55.81259561552995
 31
0.0
  0
INSERT
  5
2A6
  8
0
  6
CONTINUOUS
  2
DC_GROUP_78
 10
0.0
 20
0.0
 30
0.0
  0
INSERT
  5
2A7
  8
0
  6
CONTINUOUS
  2
DC_GROUP_79
 10
0.0
 20
0.0
 30
0.0
  0
TEXT
  5
2A8
  8
0
 62
     7
 10
-226.2740038822895
 20
11.99258908033894
 30
0.0
 40
4.0
  1
φ70
 50
90.0
 41
0.703125000000002
  7
FDASTYLE1
 72
     5
 11
-226.2740038822895
 21
20.99258908033897
 31
0.0
  0
TEXT
  5
2A9
  8
0
 62
     7
 10
-228.4740038822895
 20
22.59258908033896
 30
0.0
 40
2.2
  1
+0.5
 50
90.0
 41
0.7999999999999991
  7
FDASTYLE1
 72
     5
 11
-228.4740038822895
 21
29.63258908033895
 31
0.0
  0
TEXT
  5
2AA
  8
0
 62
     7
 10
-226.0740038822895
 20
22.59258908033896
 30
0.0
 40
2.2
  1
　0
 50
90.0
 41
0.661157024793392
  7
FDASTYLE1
 72
     5
 11
-226.0740038822895
 21
25.79258908033898
 31
0.0
  0
ENDBLK
  5
132
  8
0
  0
BLOCK
  8
0
  2
DC_GROUP_78
 70
     0
 10
0.0
 20
0.0
 30
0.0
  3
DC_GROUP_78
  1

  0
LINE
  5
2AB
  8
0
  6
CONTINUOUS
 62
     9
 10
-224.7381043473919
 20
-12.1874190472214
 30
0.0
 11
-225.2740038822895
 21
-14.18741745485206
 31
0.0
  0
LINE
  5
2AC
  8
0
  6
CONTINUOUS
 62
     9
 10
-225.2740038822895
 20
-14.18741745485206
 30
0.0
 11
-225.8099034171871
 21
-12.1874190472214
 31
0.0
  0
LINE
  5
2AD
  8
0
  6
CONTINUOUS
 62
     9
 10
-225.2740038822895
 20
-14.18741745485206
 30
0.0
 11
-225.2740038822895
 21
-12.1874190472214
 31
0.0
  0
ENDBLK
  5
135
  8
0
  0
BLOCK
  8
0
  2
DC_GROUP_79
 70
     0
 10
0.0
 20
0.0
 30
0.0
  3
DC_GROUP_79
  1

  0
LINE
  5
2AE
  8
0
  6
CONTINUOUS
 62
     9
 10
-225.8099034171871
 20
53.81259720789929
 30
0.0
 11
-225.2740038822895
 21
55.81259561552995
 31
0.0
  0
LINE
  5
2AF
  8
0
  6
CONTINUOUS
 62
     9
 10
-225.2740038822895
 20
55.81259561552995
 30
0.0
 11
-224.7381043473919
 21
53.81259720789929
 31
0.0
  0
LINE
  5
2B0
  8
0
  6
CONTINUOUS
 62
     9
 10
-225.2740038822895
 20
55.81259561552995
 30
0.0
 11
-225.2740038822895
 21
53.81259720789929
 31
0.0
  0
ENDBLK
  5
138
  8
0
  0
BLOCK
  8
0
  2
DC_GROUP_80
 70
     0
 10
0.0
 20
0.0
 30
0.0
  3
DC_GROUP_80
  1

  0
LINE
  5
2B1
  8
0
  6
CONTINUOUS
 62
     9
 10
-159.9945762337809
 20
-22.93740819915094
 30
0.0
 11
-237.1838808494199
 21
-22.93740819915094
 31
0.0
  0
LINE
  5
2B2
  8
0
  6
CONTINUOUS
 62
     9
 10
-159.9945762337809
 20
64.56259180084905
 30
0.0
 11
-237.1838808494199
 21
64.56259180084905
 31
0.0
  0
LINE
  5
2B3
  8
0
  6
CONTINUOUS
 62
     9
 10
-236.1838808494199
 20
-22.93740819915094
 30
0.0
 11
-236.1838808494199
 21
64.56259180084905
 31
0.0
  0
INSERT
  5
2B4
  8
0
  6
CONTINUOUS
  2
DC_GROUP_81
 10
0.0
 20
0.0
 30
0.0
  0
INSERT
  5
2B5
  8
0
  6
CONTINUOUS
  2
DC_GROUP_82
 10
0.0
 20
0.0
 30
0.0
  0
TEXT
  5
2B6
  8
0
 62
     7
 10
-237.1838808494199
 20
9.612591800849067
 30
0.0
 40
4.0
  1
φ87.5Ｈ7
 50
90.0
 41
0.7158509861212555
  7
FDASTYLE1
 72
     5
 11
-237.1838808494199
 21
30.80178099003823
 31
0.0
  0
ENDBLK
  5
13B
  8
0
  0
BLOCK
  8
0
  2
DC_GROUP_81
 70
     0
 10
0.0
 20
0.0
 30
0.0
  3
DC_GROUP_81
  1

  0
LINE
  5
2B7
  8
0
  6
CONTINUOUS
 62
     9
 10
-235.6479813145223
 20
-20.93740979152028
 30
0.0
 11
-236.1838808494199
 21
-22.93740819915094
 31
0.0
  0
LINE
  5
2B8
  8
0
  6
CONTINUOUS
 62
     9
 10
-236.1838808494199
 20
-22.93740819915094
 30
0.0
 11
-236.7197803843175
 21
-20.93740979152028
 31
0.0
  0
LINE
  5
2B9
  8
0
  6
CONTINUOUS
 62
     9
 10
-236.1838808494199
 20
-22.93740819915094
 30
0.0
 11
-236.1838808494199
 21
-20.93740979152028
 31
0.0
  0
ENDBLK
  5
13E
  8
0
  0
BLOCK
  8
0
  2
DC_GROUP_82
 70
     0
 10
0.0
 20
0.0
 30
0.0
  3
DC_GROUP_82
  1

  0
LINE
  5
2BA
  8
0
  6
CONTINUOUS
 62
     9
 10
-236.7197803843175
 20
62.56259339321839
 30
0.0
 11
-236.1838808494199
 21
64.56259180084905
 31
0.0
  0
LINE
  5
2BB
  8
0
  6
CONTINUOUS
 62
     9
 10
-236.1838808494199
 20
64.56259180084905
 30
0.0
 11
-235.6479813145223
 21
62.56259339321839
 31
0.0
  0
LINE
  5
2BC
  8
0
  6
CONTINUOUS
 62
     9
 10
-236.1838808494199
 20
64.56259180084905
 30
0.0
 11
-236.1838808494199
 21
62.56259339321839
 31
0.0
  0
ENDBLK
  5
141
  8
0
  0
BLOCK
  8
0
  2
DC_GROUP_83
 70
     0
 10
0.0
 20
0.0
 30
0.0
  3
DC_GROUP_83
  1

  0
LINE
  5
2BD
  8
0
  6
CONTINUOUS
 62
     9
 10
-162.2945792855387
 20
-124.7400400318712
 30
0.0
 11
-162.2945792855387
 21
-131.8667607293314
 31
0.0
  0
LINE
  5
2BE
  8
0
  6
CONTINUOUS
 62
     9
 10
-208.2945792855387
 20
-107.687408199151
 30
0.0
 11
-208.2945792855387
 21
-131.8667607293314
 31
0.0
  0
LINE
  5
2BF
  8
0
  6
CONTINUOUS
 62
     9
 10
-208.2945792855387
 20
-130.8667607293314
 30
0.0
 11
-162.2945792855387
 21
-130.8667607293314
 31
0.0
  0
INSERT
  5
2C0
  8
0
  6
CONTINUOUS
  2
DC_GROUP_84
 10
0.0
 20
0.0
 30
0.0
  0
INSERT
  5
2C1
  8
0
  6
CONTINUOUS
  2
DC_GROUP_85
 10
0.0
 20
0.0
 30
0.0
  0
TEXT
  5
2C2
  8
0
 62
     7
 10
-188.4945792855387
 20
-129.8667607293314
 30
0.0
 40
4.0
  1
46
 41
0.7999999999999972
  7
FDASTYLE1
 72
     5
 11
-182.0945792855387
 21
-129.8667607293314
 31
0.0
  0
ENDBLK
  5
144
  8
0
  0
BLOCK
  8
0
  2
DC_GROUP_84
 70
     0
 10
0.0
 20
0.0
 30
0.0
  3
DC_GROUP_84
  1

  0
LINE
  5
2C3
  8
0
  6
CONTINUOUS
 62
     9
 10
-206.294580877908
 20
-131.402660264229
 30
0.0
 11
-208.2945792855387
 21
-130.8667607293314
 31
0.0
  0
LINE
  5
2C4
  8
0
  6
CONTINUOUS
 62
     9
 10
-208.2945792855387
 20
-130.8667607293314
 30
0.0
 11
-206.294580877908
 21
-130.3308611944338
 31
0.0
  0
LINE
  5
2C5
  8
0
  6
CONTINUOUS
 62
     9
 10
-208.2945792855387
 20
-130.8667607293314
 30
0.0
 11
-206.294580877908
 21
-130.8667607293314
 31
0.0
  0
ENDBLK
  5
147
  8
0
  0
BLOCK
  8
0
  2
DC_GROUP_85
 70
     0
 10
0.0
 20
0.0
 30
0.0
  3
DC_GROUP_85
  1

  0
LINE
  5
2C6
  8
0
  6
CONTINUOUS
 62
     9
 10
-164.2945776931693
 20
-130.3308611944338
 30
0.0
 11
-162.2945792855387
 21
-130.8667607293314
 31
0.0
  0
LINE
  5
2C7
  8
0
  6
CONTINUOUS
 62
     9
 10
-162.2945792855387
 20
-130.8667607293314
 30
0.0
 11
-164.2945776931693
 21
-131.402660264229
 31
0.0
  0
LINE
  5
2C8
  8
0
  6
CONTINUOUS
 62
     9
 10
-162.2945792855387
 20
-130.8667607293314
 30
0.0
 11
-164.2945776931693
 21
-130.8667607293314
 31
0.0
  0
ENDBLK
  5
14A
  8
0
  0
BLOCK
  8
0
  2
DC_GROUP_86
 70
     0
 10
0.0
 20
0.0
 30
0.0
  3
DC_GROUP_86
  1

  0
LINE
  5
2C9
  8
0
  6
CONTINUOUS
 62
     7
 10
-162.2945792855387
 20
-119.2266888137713
 30
0.0
 11
-148.0951583994686
 21
-136.4080563719915
 31
0.0
  0
LINE
  5
2CA
  8
0
  6
CONTINUOUS
 62
     7
 10
-148.0951583994686
 20
-136.4080563719915
 30
0.0
 11
-128.8951583994686
 21
-136.4080563719915
 31
0.0
  0
INSERT
  5
2CB
  8
0
  6
CONTINUOUS
  2
DC_GROUP_87
 10
0.0
 20
0.0
 30
0.0
  0
TEXT
  5
2CC
  8
0
 62
     7
 10
-148.0951583994686
 20
-136.4080563719915
 30
0.0
 40
4.0
  1
M12×25
 41
0.7492195629552554
  7
FDASTYLE1
 72
     5
 11
-129.5145132381782
 21
-136.4080563719915
 31
0.0
  0
ENDBLK
  5
14D
  8
0
  0
BLOCK
  8
0
  2
DC_GROUP_87
 70
     0
 10
0.0
 20
0.0
 30
0.0
  3
DC_GROUP_87
  1

  0
LINE
  5
2CD
  8
0
  6
CONTINUOUS
 62
     7
 10
-161.4335770033973
 20
-121.1097334261414
 30
0.0
 11
-162.2945792855387
 21
-119.2266888137713
 31
0.0
  0
LINE
  5
2CE
  8
0
  6
CONTINUOUS
 62
     7
 10
-162.2945792855387
 20
-119.2266888137713
 30
0.0
 11
-160.6074053646083
 21
-120.4269496614878
 31
0.0
  0
LINE
  5
2CF
  8
0
  6
CONTINUOUS
 62
     7
 10
-162.2945792855387
 20
-119.2266888137713
 30
0.0
 11
-161.0204911840028
 21
-120.7683415438146
 31
0.0
  0
ENDBLK
  5
150
  8
0
  0
BLOCK
  8
0
  2
DC_GROUP_88
 70
     0
 10
0.0
 20
0.0
 30
0.0
  3
DC_GROUP_88
  1

  0
LINE
  5
2D0
  8
0
  6
CONTINUOUS
 62
     9
 10
-208.2945792855387
 20
-107.687408199151
 30
0.0
 11
-208.2945792855387
 21
-142.2107548344563
 31
0.0
  0
LINE
  5
2D1
  8
0
  6
CONTINUOUS
 62
     9
 10
-228.9945762337809
 20
-52.86241125090876
 30
0.0
 11
-228.9945762337809
 21
-142.2107548344563
 31
0.0
  0
LINE
  5
2D2
  8
0
  6
CONTINUOUS
 62
     9
 10
-228.9945762337809
 20
-141.2107548344563
 30
0.0
 11
-208.2945792855387
 21
-141.2107548344563
 31
0.0
  0
LINE
  5
2D3
  8
0
  6
CONTINUOUS
 62
     9
 10
-245.7264262337809
 20
-141.2107548344563
 30
0.0
 11
-228.9945762337809
 21
-141.2107548344563
 31
0.0
  0
LINE
  5
2D4
  8
0
  6
CONTINUOUS
 62
     9
 10
-203.2945792855387
 20
-141.2107548344563
 30
0.0
 11
-208.2945792855387
 21
-141.2107548344563
 31
0.0
  0
INSERT
  5
2D5
  8
0
  6
CONTINUOUS
  2
DC_GROUP_89
 10
0.0
 20
0.0
 30
0.0
  0
INSERT
  5
2D6
  8
0
  6
CONTINUOUS
  2
DC_GROUP_90
 10
0.0
 20
0.0
 30
0.0
  0
TEXT
  5
2D7
  8
0
 62
     7
 10
-244.7264262337809
 20
-140.2107548344563
 30
0.0
 40
4.0
  1
20.7
 41
0.8000000000000007
  7
FDASTYLE1
 72
     5
 11
-231.9264262337809
 21
-140.2107548344563
 31
0.0
  0
ENDBLK
  5
153
  8
0
  0
BLOCK
  8
0
  2
DC_GROUP_89
 70
     0
 10
0.0
 20
0.0
 30
0.0
  3
DC_GROUP_89
  1

  0
LINE
  5
2D8
  8
0
  6
CONTINUOUS
 62
     9
 10
-230.9945746414115
 20
-140.6748552995587
 30
0.0
 11
-228.9945762337809
 21
-141.2107548344563
 31
0.0
  0
LINE
  5
2D9
  8
0
  6
CONTINUOUS
 62
     9
 10
-228.9945762337809
 20
-141.2107548344563
 30
0.0
 11
-230.9945746414115
 21
-141.7466543693539
 31
0.0
  0
LINE
  5
2DA
  8
0
  6
CONTINUOUS
 62
     9
 10
-228.9945762337809
 20
-141.2107548344563
 30
0.0
 11
-230.9945746414115
 21
-141.2107548344563
 31
0.0
  0
ENDBLK
  5
156
  8
0
  0
BLOCK
  8
0
  2
DC_GROUP_90
 70
     0
 10
0.0
 20
0.0
 30
0.0
  3
DC_GROUP_90
  1

  0
LINE
  5
2DB
  8
0
  6
CONTINUOUS
 62
     9
 10
-206.294580877908
 20
-141.7466543693539
 30
0.0
 11
-208.2945792855387
 21
-141.2107548344563
 31
0.0
  0
LINE
  5
2DC
  8
0
  6
CONTINUOUS
 62
     9
 10
-208.2945792855387
 20
-141.2107548344563
 30
0.0
 11
-206.294580877908
 21
-140.6748552995587
 31
0.0
  0
LINE
  5
2DD
  8
0
  6
CONTINUOUS
 62
     9
 10
-208.2945792855387
 20
-141.2107548344563
 30
0.0
 11
-206.294580877908
 21
-141.2107548344563
 31
0.0
  0
ENDBLK
  5
159
  8
0
  0
BLOCK
  8
0
  2
DC_GROUP_91
 70
     0
 10
0.0
 20
0.0
 30
0.0
  3
DC_GROUP_91
  1

  0
LINE
  5
2DE
  8
0
  6
CONTINUOUS
 62
     9
 10
-115.9945762337809
 20
78.81259180084905
 30
0.0
 11
-59.11840988431626
 21
78.81259180084905
 31
0.0
  0
LINE
  5
2DF
  8
0
  6
CONTINUOUS
 62
     9
 10
-115.9945762337809
 20
158.8125918008491
 30
0.0
 11
-59.11840988431626
 21
158.8125918008491
 31
0.0
  0
LINE
  5
2E0
  8
0
  6
CONTINUOUS
 62
     9
 10
-112.6080987482985
 20
20.81259180084906
 30
0.0
 11
-91.42969913746478
 21
20.81259180084906
 31
0.0
  0
LINE
  5
2E1
  8
0
  6
CONTINUOUS
 62
     9
 10
-71.6417132717404
 20
20.81259180084906
 30
0.0
 11
-59.11840988431626
 21
20.81259180084906
 31
0.0
  0
LINE
  5
2E2
  8
0
  6
CONTINUOUS
 62
     9
 10
-60.11840988431626
 20
20.81259180084906
 30
0.0
 11
-60.11840988431626
 21
78.81259180084905
 31
0.0
  0
LINE
  5
2E3
  8
0
  6
CONTINUOUS
 62
     9
 10
-60.11840988431626
 20
78.81259180084905
 30
0.0
 11
-60.11840988431626
 21
158.8125918008491
 31
0.0
  0
INSERT
  5
2E4
  8
0
  6
CONTINUOUS
  2
DC_GROUP_92
 10
0.0
 20
0.0
 30
0.0
  0
INSERT
  5
2E5
  8
0
  6
CONTINUOUS
  2
DC_GROUP_93
 10
0.0
 20
0.0
 30
0.0
  0
INSERT
  5
2E6
  8
0
  6
CONTINUOUS
  2
DC_GROUP_94
 10
0.0
 20
0.0
 30
0.0
  0
INSERT
  5
2E7
  8
0
  6
CONTINUOUS
  2
DC_GROUP_95
 10
0.0
 20
0.0
 30
0.0
  0
TEXT
  5
2E8
  8
0
 62
     7
 10
-61.11840988431626
 20
37.01259180084906
 30
0.0
 40
4.0
  1
MAX 59.9
 50
90.0
 41
0.7999999999999998
  7
FDASTYLE1
 72
     5
 11
-61.11840988431626
 21
62.61259180084905
 31
0.0
  0
TEXT
  5
2E9
  8
0
 62
     7
 10
-61.11840988431626
 20
115.6125918008491
 30
0.0
 40
4.0
  1
80
 50
90.0
 41
0.8000000000000007
  7
FDASTYLE1
 72
     5
 11
-61.11840988431626
 21
122.0125918008491
 31
0.0
  0
ENDBLK
  5
15C
  8
0
  0
BLOCK
  8
0
  2
DC_GROUP_92
 70
     0
 10
0.0
 20
0.0
 30
0.0
  3
DC_GROUP_92
  1

  0
LINE
  5
2EA
  8
0
  6
CONTINUOUS
 62
     9
 10
-59.58251034941865
 20
22.81259020847972
 30
0.0
 11
-60.11840988431626
 21
20.81259180084906
 31
0.0
  0
LINE
  5
2EB
  8
0
  6
CONTINUOUS
 62
     9
 10
-60.11840988431626
 20
20.81259180084906
 30
0.0
 11
-60.65430941921387
 21
22.81259020847972
 31
0.0
  0
LINE
  5
2EC
  8
0
  6
CONTINUOUS
 62
     9
 10
-60.11840988431626
 20
20.81259180084906
 30
0.0
 11
-60.11840988431626
 21
22.81259020847972
 31
0.0
  0
ENDBLK
  5
15F
  8
0
  0
BLOCK
  8
0
  2
DC_GROUP_93
 70
     0
 10
0.0
 20
0.0
 30
0.0
  3
DC_GROUP_93
  1

  0
LINE
  5
2ED
  8
0
  6
CONTINUOUS
 62
     9
 10
-60.65430941921387
 20
76.81259339321838
 30
0.0
 11
-60.11840988431626
 21
78.81259180084905
 31
0.0
  0
LINE
  5
2EE
  8
0
  6
CONTINUOUS
 62
     9
 10
-60.11840988431626
 20
78.81259180084905
 30
0.0
 11
-59.58251034941865
 21
76.81259339321838
 31
0.0
  0
LINE
  5
2EF
  8
0
  6
CONTINUOUS
 62
     9
 10
-60.11840988431626
 20
78.81259180084905
 30
0.0
 11
-60.11840988431626
 21
76.81259339321838
 31
0.0
  0
ENDBLK
  5
162
  8
0
  0
BLOCK
  8
0
  2
DC_GROUP_94
 70
     0
 10
0.0
 20
0.0
 30
0.0
  3
DC_GROUP_94
  1

  0
LINE
  5
2F0
  8
0
  6
CONTINUOUS
 62
     9
 10
-59.58251034941865
 20
80.81259020847971
 30
0.0
 11
-60.11840988431626
 21
78.81259180084905
 31
0.0
  0
LINE
  5
2F1
  8
0
  6
CONTINUOUS
 62
     9
 10
-60.11840988431626
 20
78.81259180084905
 30
0.0
 11
-60.65430941921387
 21
80.81259020847971
 31
0.0
  0
LINE
  5
2F2
  8
0
  6
CONTINUOUS
 62
     9
 10
-60.11840988431626
 20
78.81259180084905
 30
0.0
 11
-60.11840988431626
 21
80.81259020847971
 31
0.0
  0
ENDBLK
  5
165
  8
0
  0
BLOCK
  8
0
  2
DC_GROUP_95
 70
     0
 10
0.0
 20
0.0
 30
0.0
  3
DC_GROUP_95
  1

  0
LINE
  5
2F3
  8
0
  6
CONTINUOUS
 62
     9
 10
-60.65430941921387
 20
156.8125933932184
 30
0.0
 11
-60.11840988431626
 21
158.8125918008491
 31
0.0
  0
LINE
  5
2F4
  8
0
  6
CONTINUOUS
 62
     9
 10
-60.11840988431626
 20
158.8125918008491
 30
0.0
 11
-59.58251034941865
 21
156.8125933932184
 31
0.0
  0
LINE
  5
2F5
  8
0
  6
CONTINUOUS
 62
     9
 10
-60.11840988431626
 20
158.8125918008491
 30
0.0
 11
-60.11840988431626
 21
156.8125933932184
 31
0.0
  0
ENDBLK
  5
168
  8
0
  0
BLOCK
  8
0
  2
DC_GROUP_96
 70
     0
 10
0.0
 20
0.0
 30
0.0
  3
DC_GROUP_96
  1

  0
LINE
  5
2F6
  8
0
  6
CONTINUOUS
 62
     9
 10
268.4844285716176
 20
20.81258549931602
 30
0.0
 11
265.9717147498831
 21
20.81258549931602
 31
0.0
  0
LINE
  5
2F7
  8
0
  6
CONTINUOUS
 62
     9
 10
247.9059359235001
 20
97.61257295350769
 30
0.0
 11
242.2436346614825
 21
94.34344215682896
 31
0.0
  0
ARC
  5
2F8
  8
0
  6
CONTINUOUS
 62
     9
 10
114.8844409357172
 20
20.81258549931602
 30
0.0
 40
152.5999876359004
 50
0.0
 51
29.99999725896548
  0
INSERT
  5
2F9
  8
0
  6
CONTINUOUS
  2
DC_GROUP_97
 10
0.0
 20
0.0
 30
0.0
  0
INSERT
  5
2FA
  8
0
  6
CONTINUOUS
  2
DC_GROUP_98
 10
0.0
 20
0.0
 30
0.0
  0
TEXT
  5
2FB
  8
0
 62
     7
 10
262.5611165024748
 20
55.41310203817439
 30
0.0
 40
4.0
  1
30°
 50
104.9999986294827
 41
0.7031249999999996
  7
FDASTYLE1
 72
     5
 11
260.2317453044969
 21
64.10643453049465
 31
0.0
  0
ENDBLK
  5
16B
  8
0
  0
BLOCK
  8
0
  2
DC_GROUP_97
 70
     0
 10
0.0
 20
0.0
 30
0.0
  3
DC_GROUP_97
  1

  0
LINE
  5
2FC
  8
0
  6
CONTINUOUS
 62
     9
 10
268.0072105505401
 20
22.81605273002943
 30
0.0
 11
267.4844285716176
 21
20.81258549931602
 31
0.0
  0
LINE
  5
2FD
  8
0
  6
CONTINUOUS
 62
     9
 10
267.4844285716176
 20
20.81258549931602
 30
0.0
 11
266.9354344936979
 21
22.80902919860679
 31
0.0
  0
LINE
  5
2FE
  8
0
  6
CONTINUOUS
 62
     9
 10
267.4844285716176
 20
20.81258549931602
 30
0.0
 11
267.4713225221191
 21
22.81254096431811
 31
0.0
  0
ENDBLK
  5
16E
  8
0
  0
BLOCK
  8
0
  2
DC_GROUP_98
 70
     0
 10
0.0
 20
0.0
 30
0.0
  3
DC_GROUP_98
  1

  0
LINE
  5
2FF
  8
0
  6
CONTINUOUS
 62
     9
 10
247.5626894315894
 20
95.10910497015762
 30
0.0
 11
247.0399104957957
 21
97.11257299493842
 31
0.0
  0
LINE
  5
300
  8
0
  6
CONTINUOUS
 62
     9
 10
247.0399104957957
 20
97.11257299493842
 30
0.0
 11
248.4943865150399
 21
95.63891039736997
 31
0.0
  0
LINE
  5
301
  8
0
  6
CONTINUOUS
 62
     9
 10
247.0399104957957
 20
97.11257299493842
 30
0.0
 11
248.0285379733147
 21
95.37400768376379
 31
0.0
  0
ENDBLK
  5
171
  8
0
  0
BLOCK
  8
0
  2
DC_GROUP_99
 70
     0
 10
0.0
 20
0.0
 30
0.0
  3
DC_GROUP_99
  1

  0
LINE
  5
302
  8
0
  6
CONTINUOUS
 62
     9
 10
154.3843527206979
 20
27.13382841769199
 30
0.0
 11
154.3843527206979
 21
35.34498102342625
 31
0.0
  0
LINE
  5
303
  8
0
  6
CONTINUOUS
 62
     9
 10
75.38435272069795
 20
27.47857977572421
 30
0.0
 11
75.38435272069795
 21
35.34498102342625
 31
0.0
  0
LINE
  5
304
  8
0
  6
CONTINUOUS
 62
     9
 10
75.38435272069795
 20
34.34498102342625
 30
0.0
 11
154.3843527206979
 21
34.34498102342625
 31
0.0
  0
INSERT
  5
305
  8
0
  6
CONTINUOUS
  2
DC_GROUP_100
 10
0.0
 20
0.0
 30
0.0
  0
INSERT
  5
306
  8
0
  6
CONTINUOUS
  2
DC_GROUP_101
 10
0.0
 20
0.0
 30
0.0
  0
TEXT
  5
307
  8
0
 62
     7
 10
106.8843527206979
 20
35.34498102342625
 30
0.0
 40
4.0
  1
PCD79
 41
0.8
  7
FDASTYLE1
 72
     5
 11
122.8843527206979
 21
35.34498102342625
 31
0.0
  0
ENDBLK
  5
174
  8
0
  0
BLOCK
  8
0
  2
DC_GROUP_100
 70
     0
 10
0.0
 20
0.0
 30
0.0
  3
DC_GROUP_100
  1

  0
LINE
  5
308
  8
0
  6
CONTINUOUS
 62
     9
 10
77.38435112832862
 20
33.80908148852864
 30
0.0
 11
75.38435272069795
 21
34.34498102342625
 31
0.0
  0
LINE
  5
309
  8
0
  6
CONTINUOUS
 62
     9
 10
75.38435272069795
 20
34.34498102342625
 30
0.0
 11
77.38435112832862
 21
34.88088055832386
 31
0.0
  0
LINE
  5
30A
  8
0
  6
CONTINUOUS
 62
     9
 10
75.38435272069795
 20
34.34498102342625
 30
0.0
 11
77.38435112832862
 21
34.34498102342625
 31
0.0
  0
ENDBLK
  5
177
  8
0
  0
BLOCK
  8
0
  2
DC_GROUP_101
 70
     0
 10
0.0
 20
0.0
 30
0.0
  3
DC_GROUP_101
  1

  0
LINE
  5
30B
  8
0
  6
CONTINUOUS
 62
     9
 10
152.3843543130673
 20
34.88088055832386
 30
0.0
 11
154.3843527206979
 21
34.34498102342625
 31
0.0
  0
LINE
  5
30C
  8
0
  6
CONTINUOUS
 62
     9
 10
154.3843527206979
 20
34.34498102342625
 30
0.0
 11
152.3843543130673
 21
33.80908148852864
 31
0.0
  0
LINE
  5
30D
  8
0
  6
CONTINUOUS
 62
     9
 10
154.3843527206979
 20
34.34498102342625
 30
0.0
 11
152.3843543130673
 21
34.34498102342625
 31
0.0
  0
ENDBLK
  5
17A
  8
0
  0
BLOCK
  8
0
  2
DC_GROUP_102
 70
     0
 10
0.0
 20
0.0
 30
0.0
  3
DC_GROUP_102
  1

  0
LINE
  5
30E
  8
0
  6
CONTINUOUS
 62
     7
 10
156.0874283873103
 20
23.40284071559423
 30
0.0
 11
198.0062385670241
 21
148.3824106792306
 31
0.0
  0
LINE
  5
30F
  8
0
  6
CONTINUOUS
 62
     7
 10
198.0062385670241
 20
148.3824106792306
 30
0.0
 11
217.2062385670241
 21
148.3824106792306
 31
0.0
  0
INSERT
  5
310
  8
0
  6
CONTINUOUS
  2
DC_GROUP_103
 10
0.0
 20
0.0
 30
0.0
  0
TEXT
  5
311
  8
0
 62
     7
 10
198.0062385670241
 20
148.3824106792306
 30
0.0
 40
4.0
  1
2-φ6.2
 41
0.7492195629552554
  7
FDASTYLE1
 72
     5
 11
216.5868837283145
 21
148.3824106792306
 31
0.0
  0
ENDBLK
  5
17D
  8
0
  0
BLOCK
  8
0
  2
DC_GROUP_103
 70
     0
 10
0.0
 20
0.0
 30
0.0
  3
DC_GROUP_103
  1

  0
LINE
  5
312
  8
0
  6
CONTINUOUS
 62
     7
 10
157.2315004997438
 20
25.1286103826068
 30
0.0
 11
156.0874283873103
 21
23.40284071559423
 31
0.0
  0
LINE
  5
313
  8
0
  6
CONTINUOUS
 62
     7
 10
156.0874283873103
 20
23.40284071559423
 30
0.0
 11
156.2153360267816
 21
25.46943733269045
 31
0.0
  0
LINE
  5
314
  8
0
  6
CONTINUOUS
 62
     7
 10
156.0874283873103
 20
23.40284071559423
 30
0.0
 11
156.7234182632627
 21
25.29902385764863
 31
0.0
  0
ENDBLK
  5
180
  8
0
  0
ENDSEC
  0
SECTION
  2
ENTITIES
  0
LINE
  5
315
  8
LAYER0002
  6
CONTINUOUS
 62
     3
 10
-284.3857258355411
 20
-190.0
 30
0.0
 11
-284.3857258355411
 21
190.0
 31
0.0
  0
LINE
  5
316
  8
LAYER0002
  6
CONTINUOUS
 62
     3
 10
269.614274164459
 20
-190.0
 30
0.0
 11
269.614274164459
 21
190.0
 31
0.0
  0
LINE
  5
317
  8
LAYER0002
  6
CONTINUOUS
 62
     3
 10
-284.3857258355411
 20
-190.0
 30
0.0
 11
269.614274164459
 21
-190.0
 31
0.0
  0
LINE
  5
318
  8
LAYER0002
  6
CONTINUOUS
 62
     3
 10
-284.3857258355411
 20
189.9999999999999
 30
0.0
 11
269.614274164459
 21
189.9999999999999
 31
0.0
  0
LINE
  5
319
  8
LAYER0002
  6
CONTINUOUS
 62
     3
 10
89.61427416445893
 20
-190.0
 30
0.0
 11
89.61427416445893
 21
-130.0
 31
0.0
  0
LINE
  5
31A
  8
LAYER0002
  6
CONTINUOUS
 62
     3
 10
89.61427416445893
 20
-176.0
 30
0.0
 11
269.614274164459
 21
-176.0
 31
0.0
  0
LINE
  5
31B
  8
LAYER0002
  6
CONTINUOUS
 62
     3
 10
138.6142741644589
 20
-162.0
 30
0.0
 11
269.614274164459
 21
-162.0
 31
0.0
  0
LINE
  5
31C
  8
LAYER0002
  6
CONTINUOUS
 62
     3
 10
138.6142741644589
 20
-148.0
 30
0.0
 11
269.614274164459
 21
-148.0
 31
0.0
  0
LINE
  5
31D
  8
LAYER0002
  6
CONTINUOUS
 62
     3
 10
138.6142741644589
 20
-138.0
 30
0.0
 11
269.614274164459
 21
-138.0
 31
0.0
  0
LINE
  5
31E
  8
LAYER0002
  6
CONTINUOUS
 62
     3
 10
138.6142741644589
 20
-176.0
 30
0.0
 11
138.6142741644589
 21
-130.0
 31
0.0
  0
LINE
  5
31F
  8
LAYER0002
  6
CONTINUOUS
 62
     3
 10
247.6142741644589
 20
-176.0
 30
0.0
 11
247.6142741644589
 21
-130.0
 31
0.0
  0
LINE
  5
320
  8
LAYER0002
  6
CONTINUOUS
 62
     3
 10
163.6142741644589
 20
-190.0
 30
0.0
 11
163.6142741644589
 21
-176.0
 31
0.0
  0
LINE
  5
321
  8
LAYER0002
  6
CONTINUOUS
 62
     3
 10
254.6142741644589
 20
-188.0
 30
0.0
 11
264.614274164459
 21
-188.0
 31
0.0
  0
LINE
  5
322
  8
LAYER0002
  6
CONTINUOUS
 62
     3
 10
259.614274164459
 20
-178.0
 30
0.0
 11
254.6142741644589
 21
-188.0
 31
0.0
  0
LINE
  5
323
  8
LAYER0002
  6
CONTINUOUS
 62
     3
 10
259.614274164459
 20
-178.0
 30
0.0
 11
264.614274164459
 21
-188.0
 31
0.0
  0
LINE
  5
324
  8
LAYER0002
  6
CONTINUOUS
 62
     3
 10
89.61427416445893
 20
-130.0
 30
0.0
 11
269.614274164459
 21
-130.0
 31
0.0
  0
LINE
  5
325
  8
LAYER0002
  6
CONTINUOUS
 62
     3
 10
218.6142741644589
 20
-176.0
 30
0.0
 11
218.6142741644589
 21
-148.0
 31
0.0
  0
LINE
  5
326
  8
LAYER0002
  6
CONTINUOUS
 62
     4
 10
97.61427416445892
 20
-172.0
 30
0.0
 11
97.61427416445892
 21
-130.0
 31
0.0
  0
LINE
  5
327
  8
LAYER0002
  6
CONTINUOUS
 62
     4
 10
101.6142741644589
 20
-172.0
 30
0.0
 11
101.6142741644589
 21
-130.0
 31
0.0
  0
LINE
  5
328
  8
LAYER0002
  6
CONTINUOUS
 62
     4
 10
114.1142741644589
 20
-176.0
 30
0.0
 11
114.1142741644589
 21
-130.0
 31
0.0
  0
LINE
  5
329
  8
LAYER0002
  6
CONTINUOUS
 62
     4
 10
89.61427416445893
 20
-137.0
 30
0.0
 11
138.6142741644589
 21
-137.0
 31
0.0
  0
LINE
  5
32A
  8
LAYER0002
  6
CONTINUOUS
 62
     4
 10
89.61427416445893
 20
-144.0
 30
0.0
 11
138.6142741644589
 21
-144.0
 31
0.0
  0
LINE
  5
32B
  8
LAYER0002
  6
CONTINUOUS
 62
     4
 10
89.61427416445893
 20
-165.0
 30
0.0
 11
138.6142741644589
 21
-165.0
 31
0.0
  0
LINE
  5
32C
  8
LAYER0002
  6
CONTINUOUS
 62
     4
 10
89.61427416445893
 20
-172.0
 30
0.0
 11
138.6142741644589
 21
-172.0
 31
0.0
  0
LINE
  5
32D
  8
LAYER0002
  6
CONTINUOUS
 62
     4
 10
247.6142741644589
 20
-166.0
 30
0.0
 11
269.614274164459
 21
-166.0
 31
0.0
  0
LINE
  5
32E
  8
LAYER0002
  6
CONTINUOUS
 62
     4
 10
145.6142741644589
 20
-139.5
 30
0.0
 11
145.6142741644589
 21
-130.0
 31
0.0
  0
LINE
  5
32F
  8
LAYER0002
  6
CONTINUOUS
 62
     4
 10
194.6142741644589
 20
-148.0
 30
0.0
 11
194.6142741644589
 21
-146.5
 31
0.0
  0
LINE
  5
330
  8
LAYER0002
  6
CONTINUOUS
 62
     4
 10
218.6142741644589
 20
-148.0
 30
0.0
 11
218.6142741644589
 21
-146.5
 31
0.0
  0
LINE
  5
331
  8
LAYER0002
  6
CONTINUOUS
 62
     4
 10
235.6142741644589
 20
-148.0
 30
0.0
 11
235.6142741644589
 21
-146.5
 31
0.0
  0
LINE
  5
332
  8
LAYER0002
  6
CONTINUOUS
 62
     4
 10
194.6142741644589
 20
-139.5
 30
0.0
 11
194.6142741644589
 21
-130.0
 31
0.0
  0
LINE
  5
333
  8
LAYER0002
  6
CONTINUOUS
 62
     4
 10
218.6142741644589
 20
-139.5
 30
0.0
 11
218.6142741644589
 21
-130.0
 31
0.0
  0
LINE
  5
334
  8
LAYER0002
  6
CONTINUOUS
 62
     4
 10
235.6142741644589
 20
-139.5
 30
0.0
 11
235.6142741644589
 21
-130.0
 31
0.0
  0
LINE
  5
335
  8
LAYER0002
  6
CONTINUOUS
 62
     4
 10
89.61427416445893
 20
-151.0
 30
0.0
 11
138.6142741644589
 21
-151.0
 31
0.0
  0
LINE
  5
336
  8
LAYER0002
  6
CONTINUOUS
 62
     4
 10
89.61427416445893
 20
-158.0
 30
0.0
 11
138.6142741644589
 21
-158.0
 31
0.0
  0
LINE
  5
337
  8
LAYER0002
  6
CONTINUOUS
 62
     4
 10
93.61427416445892
 20
-130.5
 30
0.0
 11
90.61427416445893
 21
-136.5
 31
0.0
  0
LINE
  5
338
  8
LAYER0002
  6
CONTINUOUS
 62
     4
 10
93.61427416445892
 20
-130.5
 30
0.0
 11
96.61427416445892
 21
-136.5
 31
0.0
  0
LINE
  5
339
  8
LAYER0002
  6
CONTINUOUS
 62
     4
 10
90.61427416445893
 20
-136.5
 30
0.0
 11
96.61427416445892
 21
-136.5
 31
0.0
  0
LINE
  5
33A
  8
LAYER0002
  6
CONTINUOUS
 62
     4
 10
93.61427416445892
 20
-158.5
 30
0.0
 11
90.61427416445893
 21
-164.5
 31
0.0
  0
LINE
  5
33B
  8
LAYER0002
  6
CONTINUOUS
 62
     4
 10
93.61427416445892
 20
-158.5
 30
0.0
 11
96.61427416445892
 21
-164.5
 31
0.0
  0
LINE
  5
33C
  8
LAYER0002
  6
CONTINUOUS
 62
     4
 10
90.61427416445893
 20
-164.5
 30
0.0
 11
96.61427416445892
 21
-164.5
 31
0.0
  0
LINE
  5
33D
  8
LAYER0002
  6
CONTINUOUS
 62
     4
 10
93.61427416445892
 20
-151.5
 30
0.0
 11
90.61427416445893
 21
-157.5
 31
0.0
  0
LINE
  5
33E
  8
LAYER0002
  6
CONTINUOUS
 62
     4
 10
93.61427416445892
 20
-151.5
 30
0.0
 11
96.61427416445892
 21
-157.5
 31
0.0
  0
LINE
  5
33F
  8
LAYER0002
  6
CONTINUOUS
 62
     4
 10
90.61427416445893
 20
-157.5
 30
0.0
 11
96.61427416445892
 21
-157.5
 31
0.0
  0
LINE
  5
340
  8
LAYER0002
  6
CONTINUOUS
 62
     4
 10
93.61427416445892
 20
-144.5
 30
0.0
 11
90.61427416445893
 21
-150.5
 31
0.0
  0
LINE
  5
341
  8
LAYER0002
  6
CONTINUOUS
 62
     4
 10
93.61427416445892
 20
-144.5
 30
0.0
 11
96.61427416445892
 21
-150.5
 31
0.0
  0
LINE
  5
342
  8
LAYER0002
  6
CONTINUOUS
 62
     4
 10
90.61427416445893
 20
-150.5
 30
0.0
 11
96.61427416445892
 21
-150.5
 31
0.0
  0
LINE
  5
343
  8
LAYER0002
  6
CONTINUOUS
 62
     4
 10
93.61427416445892
 20
-137.5
 30
0.0
 11
90.61427416445893
 21
-143.5
 31
0.0
  0
LINE
  5
344
  8
LAYER0002
  6
CONTINUOUS
 62
     4
 10
93.61427416445892
 20
-137.5
 30
0.0
 11
96.61427416445892
 21
-143.5
 31
0.0
  0
LINE
  5
345
  8
LAYER0002
  6
CONTINUOUS
 62
     4
 10
90.61427416445893
 20
-143.5
 30
0.0
 11
96.61427416445892
 21
-143.5
 31
0.0
  0
LINE
  5
346
  8
LAYER0002
  6
CONTINUOUS
 62
     4
 10
165.2809408311255
 20
-176.0
 30
0.0
 11
165.2809408311255
 21
-162.0
 31
0.0
  0
LINE
  5
347
  8
LAYER0002
  6
CONTINUOUS
 62
     4
 10
191.9476074977922
 20
-176.0
 30
0.0
 11
191.9476074977922
 21
-161.9509415757253
 31
0.0
  0
LINE
  5
348
  8
LAYER0002
  6
CONTINUOUS
 62
     4
 10
205.2809408311255
 20
-167.5
 30
0.0
 11
205.2809408311255
 21
-161.9509415757253
 31
0.0
  0
LINE
  5
349
  8
LAYER0002
  6
CONTINUOUS
 62
     4
 10
218.6142741644589
 20
-155.0
 30
0.0
 11
247.6142741644589
 21
-155.0
 31
0.0
  0
LINE
  5
34A
  8
LAYER0002
  6
CONTINUOUS
 62
     4
 10
138.6142741644589
 20
-166.0
 30
0.0
 11
218.6142741644589
 21
-166.0
 31
0.0
  0
TEXT
  5
34C
  8
LAYER0002
 62
     7
 10
139.6080323119336
 20
-130.821188728956
 30
0.0
 40
2.44248928
  1
符号
 41
0.8
  7
FDASTYLE0
  0
TEXT
  5
34D
  8
LAYER0002
 62
     7
 10
155.0284052863647
 20
-135.8245525019963
 30
0.0
 40
4.0
  1
品       名
 41
0.7333635129017656
  7
FDASTYLE1
 72
     5
 11
182.6028733714711
 21
-135.8245525019963
 31
0.0
  0
TEXT
  5
34E
  8
LAYER0002
 62
     7
 10
199.8474306057685
 20
-135.8245525019963
 30
0.0
 40
4.0
  1
材  料
 41
0.6611570247933895
  7
FDASTYLE1
 72
     5
 11
211.4837942421322
 21
-135.8245525019963
 31
0.0
  0
TEXT
  5
34F
  8
LAYER0002
 62
     7
 10
222.1303358493139
 20
-135.8245525019963
 30
0.0
 40
4.0
  1
個 数
 41
0.6228373702422144
  7
FDASTYLE1
 72
     5
 11
230.600924084608
 21
-135.8245525019963
 31
0.0
  0
TEXT
  5
350
  8
LAYER0002
 62
     7
 10
238.3360851173469
 20
-133.5649080050572
 30
0.0
 40
2.5
  1
単重量
 41
0.5555555555555556
  7
FDASTYLE1
 72
     5
 11
243.3360851173469
 21
-133.5649080050572
 31
0.0
  0
TEXT
  5
351
  8
LAYER0002
 62
     7
 10
237.3232257880948
 20
-137.3631304897525
 30
0.0
 40
2.5
  1
(kg)
 41
0.8
  7
FDASTYLE1
 72
     5
 11
245.3232257880948
 21
-137.3631304897525
 31
0.0
  0
TEXT
  5
352
  8
LAYER0002
 62
     7
 10
251.7564712299367
 20
-135.8245525019963
 30
0.0
 40
4.0
  1
記  事
 41
0.6611570247933895
  7
FDASTYLE1
 72
     5
 11
263.3928348663004
 21
-135.8245525019963
 31
0.0
  0
TEXT
  5
353
  8
LAYER0002
 62
     7
 10
251.4593536196234
 20
-165.4873041997729
 30
0.0
 40
3.0
  1
コード番号
 41
0.5555555555555571
  7
FDASTYLE1
 72
     5
 11
261.4593536196235
 21
-165.4873041997729
 31
0.0
  0
TEXT
  5
354
  8
LAYER0002
 62
     7
 10
94.52626618029062
 20
-175.1879010540338
 30
0.0
 40
2.5
  1
訂 正 来 歴
 41
0.64431295200526
  7
FDASTYLE1
 72
     5
 11
107.0903687443932
 21
-175.1879010540338
 31
0.0
  0
TEXT
  5
355
  8
LAYER0002
 62
     7
 10
118.5046090112239
 20
-175.2166697391651
 30
0.0
 40
2.5
  1
工 事 番 号
 41
0.64431295200526
  7
FDASTYLE1
 72
     5
 11
131.0687115753265
 21
-175.2166697391651
 31
0.0
  0
TEXT
  5
356
  8
LAYER0002
 62
     7
 10
91.54827451106181
 20
-165.9634530565915
 30
0.0
 40
1.90819475
  1
記号
 41
0.8
  7
FDASTYLE0
  0
TEXT
  5
357
  8
LAYER0002
 62
     7
 10
97.48766157122071
 20
-165.9634530565915
 30
0.0
 40
1.90819475
  1
理由
 41
0.8
  7
FDASTYLE0
  0
TEXT
  5
358
  8
LAYER0002
 62
     7
 10
104.2336409554432
 20
-169.8786046700178
 30
0.0
 40
3.0
  1
日 付
 41
0.6228373702422138
  7
FDASTYLE1
 72
     5
 11
110.5865821319138
 21
-169.8786046700178
 31
0.0
  0
TEXT
  5
359
  8
LAYER0002
 62
     7
 10
146.0624431464241
 20
-165.7187911464244
 30
0.0
 40
3.0
  1
承   認
 41
0.6858710562414269
  7
FDASTYLE1
 72
     5
 11
157.1735542575352
 21
-165.7187911464244
 31
0.0
  0
TEXT
  5
35A
  8
LAYER0002
 62
     7
 10
172.4775021976929
 20
-165.4873041997729
 30
0.0
 40
3.0
  1
検   図
 41
0.6858710562414269
  7
FDASTYLE1
 72
     5
 11
183.588613308804
 21
-165.4873041997729
 31
0.0
  0
TEXT
  5
35B
  8
LAYER0002
 62
     7
 10
194.091466262834
 20
-165.4873041997729
 30
0.0
 40
3.0
  1
担  当
 41
0.6611570247933879
  7
FDASTYLE1
 72
     5
 11
202.8187389901067
 21
-165.4873041997729
 31
0.0
  0
TEXT
  5
35C
  8
LAYER0002
 62
     7
 10
207.2913316485701
 20
-165.4873041997729
 30
0.0
 40
3.0
  1
製  図
 41
0.6611570247933879
  7
FDASTYLE1
 72
     5
 11
216.0186043758428
 21
-165.4873041997729
 31
0.0
  0
TEXT
  5
35D
  8
LAYER0002
 62
     7
 10
219.5605113948788
 20
-153.2184960272417
 30
0.0
 40
3.0
  1
作図
 41
0.5555555555555556
  7
FDASTYLE1
 72
     5
 11
223.5605113948788
 21
-153.2184960272417
 31
0.0
  0
TEXT
  5
35E
  8
LAYER0002
 62
     7
 10
220.7179461281365
 20
-160.2371566401815
 30
0.0
 40
4.0
  1
第 三 角 法
 41
0.6443129520052602
  7
FDASTYLE1
 72
     5
 11
240.8205102307007
 21
-160.2371566401815
 31
0.0
  0
TEXT
  5
35F
  8
LAYER0002
 62
     7
 10
220.0234852881819
 20
-166.413251986379
 30
0.0
 40
3.0
  1
尺度
 41
0.5555555555555556
  7
FDASTYLE1
 72
     5
 11
224.0234852881819
 21
-166.413251986379
 31
0.0
  0
TEXT
  5
361
  8
LAYER0002
 62
     3
 10
97.99342853449292
 20
-185.9272077185017
 30
0.0
 40
7.0
  1
株式会社 野村製作所
 41
0.4314821561072638
  7
FDASTYLE2
 72
     5
 11
138.3395990234587
 21
-185.9272077185017
 31
0.0
  0
TEXT
  5
363
  8
LAYER0002
 62
     3
 10
176.2260959578754
 20
-187.1216685584563
 30
0.0
 40
8.0
  1
２－
 41
0.7311772135933162
  7
FDASTYLE3
 72
     5
 11
189.4165328910989
 21
-187.1216685584563
 31
0.0
  0
TEXT
  5
364
  8
LAYER0002
 62
     3
 10
193.1380535822822
 20
-187.1216685584563
 30
0.0
 40
8.0
  1
9312011
 41
1.432065406976745
  7
FDASTYLE3
 72
     5
 11
248.3126695822822
 21
-187.1216685584563
 31
0.0
  0
TEXT
  5
365
  8
LAYER0002
 62
     6
 10
223.7294868652459
 20
-146.1941968197806
 30
0.0
 40
4.0
  1
一式
 41
0.4861111111111102
  7
FDASTYLE1
 72
     5
 11
228.3961535319126
 21
-146.1941968197806
 31
0.0
  0
TEXT
  5
366
  8
LAYER0002
 62
     6
 10
155.4879567159376
 20
-145.3589000228561
 30
0.0
 40
5.0
  1
外　形　図
 41
0.4861111111111114
  7
FDASTYLE1
 72
     5
 11
170.071290049271
 21
-145.3589000228561
 31
0.0
  0
TEXT
  5
367
  8
LAYER0002
 62
     4
 10
231.9154530550988
 20
-172.297487439201
 30
0.0
 40
3.0
  1
1/1
 41
0.7000000000000013
  7
FDASTYLE1
 72
     5
 11
238.2154530550988
 21
-172.297487439201
 31
0.0
  0
TEXT
  5
368
  8
0
 62
     6
 10
141.5466170281743
 20
-154.3580193026319
 30
0.0
 40
5.0
  1
日鋼プレシジォン
 41
0.5555555555555554
  7
FDASTYLE1
 72
     5
 11
168.213283694841
 21
-154.3580193026319
 31
0.0
  0
TEXT
  5
369
  8
0
 62
     6
 10
150.3413460020288
 20
-160.926795036144
 30
0.0
 40
5.0
  1
HF3-12型 チャック
 41
0.6816568047337276
  7
FDASTYLE1
 72
     5
 11
194.6490383097211
 21
-160.926795036144
 31
0.0
  0
TEXT
  5
36A
  8
0
 62
     6
 10
-86.27392496864414
 20
-119.9706405138676
 30
0.0
 40
4.0
  1
仕   様
 41
0.7838853415085123
  7
FDASTYLE1
 72
     5
 11
-69.34200159206027
 21
-119.9706405138676
 31
0.0
  0
TEXT
  5
36B
  8
0
 62
     6
 10
-86.27392496864414
 20
-127.0295165514652
 30
0.0
 40
4.0
  1
爪ノｽﾄﾛ-ｸ           
 41
0.84262704369236
  7
FDASTYLE1
 72
     5
 11
-24.25657455288645
 21
-127.0295165514652
 31
0.0
  0
TEXT
  5
36C
  8
0
 62
     6
 10
1.555566591503464
 20
-126.6897651512455
 30
0.0
 40
2.708999812602997
  1
 （直径ﾆﾃ）
 41
0.7379986096525061
  7
FDASTYLE1
 72
     5
 11
17.14962373445277
 21
-126.6897651512455
 31
0.0
  0
TEXT
  5
36D
  8
0
 62
     6
 10
14.58123550148112
 20
-127.0295165514652
 30
0.0
 40
4.0
  1
　  8.4 mm
 41
0.8390641758271568
  7
FDASTYLE1
 72
     5
 11
45.45879717192049
 21
-127.0295165514652
 31
0.0
  0
TEXT
  5
36E
  8
0
 62
     6
 10
-86.27392496864414
 20
-134.0884002184574
 30
0.0
 40
4.0
  1
ピｽﾄﾝｽﾄﾛ-ｸ　  　　　　　　               33 mm
 41
0.8329333402610695
  7
FDASTYLE1
 72
     5
 11
45.66271612870926
 21
-134.0884002184574
 31
0.0
  0
TEXT
  5
36F
  8
0
 62
     6
 10
-86.27392496864414
 20
-141.1472686266606
 30
0.0
 40
4.0
  1
許容ｼﾘﾝダ力 
 41
0.7473437344992941
  7
FDASTYLE1
 72
     5
 11
-59.96742551426898
 21
-141.1472686266606
 31
0.0
  0
TEXT
  5
370
  8
0
 62
     6
 10
21.95747502435444
 20
-141.1472686266606
 30
0.0
 40
4.0
  1
  30 ｋN
 41
0.8478993846407787
  7
FDASTYLE1
 72
     5
 11
46.37697730200887
 21
-141.1472686266606
 31
0.0
  0
TEXT
  5
371
  8
0
 62
     6
 10
-86.27392496864414
 20
-148.2061522936528
 30
0.0
 40
4.0
  1
最大静的把握力    　　　　　　　　　            117.7 ｋN
 41
0.7728611065510729
  7
FDASTYLE1
 72
     5
 11
47.89476312862212
 21
-148.2061522936528
 31
0.0
  0
TEXT
  5
372
  8
0
 62
     6
 10
-86.27392496864414
 20
-155.265035960645
 30
0.0
 40
4.0
  1
最高使用回転速度  　　　　　　　　　　            3400 ｍin
 41
0.7611539886853097
  7
FDASTYLE1
 72
     5
 11
47.08025384902211
 21
-155.265035960645
 31
0.0
  0
TEXT
  5
373
  8
0
 62
     6
 10
48.11989719867886
 20
-152.4815113041946
 30
0.0
 40
1.805999875068665
  1
-1
 41
0.8691368385283814
  7
FDASTYLE1
 72
     5
 11
51.25921924227852
 21
-152.4815113041946
 31
0.0
  0
TEXT
  5
374
  8
0
 62
     6
 10
-86.27392496864414
 20
-162.3239196276371
 30
0.0
 40
4.0
  1
慣性モーメント   
 41
0.6971435505335175
  7
FDASTYLE1
 72
     5
 11
-54.48417906431574
 21
-162.3239196276371
 31
0.0
  0
TEXT
  5
375
  8
0
 62
     6
 10
-40.60391487876987
 20
-162.3239196276371
 30
0.0
 40
4.0
  1
 　　　　　            0.5 ｋg・m
 41
0.8178675584032333
  7
FDASTYLE1
 72
     5
 11
49.0343695222245
 21
-162.3239196276371
 31
0.0
  0
TEXT
  5
376
  8
0
 62
     6
 10
49.37770335436682
 20
-159.1369139980288
 30
0.0
 40
1.805999875068665
  1
2
 41
0.840131156630522
  7
FDASTYLE1
 72
     5
 11
50.89498011828284
 21
-159.1369139980288
 31
0.0
  0
TEXT
  5
377
  8
0
 62
     6
 10
-86.27392496864414
 20
-169.3827880358403
 30
0.0
 40
4.0
  1
質 量  　　　　　　　　                     37 ｋg
 41
0.813491700277806
  7
FDASTYLE1
 72
     5
 11
47.78950723713831
 21
-169.3827880358403
 31
0.0
  0
TEXT
  5
378
  8
0
 62
     6
 10
-86.27392496864414
 20
-176.4416717028325
 30
0.0
 40
4.0
  1
ｱﾝバﾗﾝｽ量            
 41
0.8438781879607356
  7
FDASTYLE1
 72
     5
 11
-20.78897758289106
 21
-176.4416717028325
 31
0.0
  0
TEXT
  5
379
  8
0
 62
     6
 10
-4.926250937736512
 20
-175.796171609134
 30
0.0
 40
2.708999812602997
  1
    外周ﾆﾃ
 41
0.8350343281777289
  7
FDASTYLE1
 72
     5
 11
14.075454906088
 21
-175.796171609134
 31
0.0
  0
TEXT
  5
37A
  8
0
 62
     6
 10
20.79989764888668
 20
-176.4416717028325
 30
0.0
 40
4.0
  1
　　  8g以内
 41
0.7727821895140967
  7
FDASTYLE1
 72
     5
 11
48.00183071978289
 21
-176.4416717028325
 31
0.0
  0
TEXT
  5
37B
  8
0
 62
     7
 10
249.6086713546619
 20
-142.7641187278597
 30
0.0
 40
3.200000047683716
  1
標 準
 41
0.6497949343786904
  7
FDASTYLE1
 72
     5
 11
256.6784403460499
 21
-142.7641187278597
 31
0.0
  0
TEXT
  5
37C
  8
0
 62
     7
 10
-239.3344138802653
 20
166.8957827188178
 30
0.0
 40
4.0
  1
MIN-2.7
 41
0.8000000000000002
  7
FDASTYLE1
 72
     5
 11
-216.9344138802653
 21
166.8957827188178
 31
0.0
  0
TEXT
  5
37D
  8
0
 62
     7
 10
-197.4355491341715
 20
-146.4182846509745
 30
0.0
 40
4.0
  1
MIN 29.3
 41
0.7999999999999998
  7
FDASTYLE1
 72
     5
 11
-171.8355491341715
 21
-146.4182846509745
 31
0.0
  0
LINE
  5
37E
  8
0
  6
CENTER
 62
     7
 10
-13.96716818543436
 20
-53.57991749326959
 30
0.0
 11
114.8844048147329
 21
20.8125646448583
 31
0.0
  0
LINE
  5
37F
  8
0
  6
CENTER
 62
     7
 10
57.71807484181286
 20
53.81764901947355
 30
0.0
 11
68.47002108249004
 21
47.6100106489381
 31
0.0
  0
LINE
  5
380
  8
0
  6
CENTER
 62
     7
 10
153.5454885408671
 20
59.47364603204653
 30
0.0
 11
170.5160632190108
 21
76.4442192796779
 31
0.0
  0
LINE
  5
381
  8
0
  6
CENTER
 62
     7
 10
59.25279030514835
 20
76.44422534882568
 30
0.0
 11
76.22335419369816
 21
59.47366289078735
 31
0.0
  0
LINE
  5
382
  8
0
  6
CENTER
 62
     7
 10
167.696380964732
 20
34.96353371057182
 30
0.0
 11
190.8786299477585
 21
41.17519794111729
 31
0.0
  0
LINE
  5
383
  8
0
  6
CENTER
 62
     7
 10
38.89019178008712
 20
41.17516701312184
 30
0.0
 11
62.07241865482629
 21
34.96350870647348
 31
0.0
  0
LINE
  5
384
  8
0
  6
CENTER
 62
     7
 10
93.74536500742352
 20
-58.07942420364668
 30
0.0
 11
101.509936346681
 21
-29.10165304613435
 31
0.0
  0
LINE
  5
385
  8
0
  6
CENTER
 62
     7
 10
128.2588784705869
 20
-29.10167370651595
 30
0.0
 11
136.0234506737462
 21
-58.07944808815353
 31
0.0
  0
LINE
  5
386
  8
0
  6
CENTER
 62
     7
 10
10.72629620129911
 20
120.812585499316
 30
0.0
 11
51.80503918225614
 21
120.812585499316
 31
0.0
  0
LINE
  5
387
  8
0
  6
CENTER
 62
     7
 10
9.957348503064598
 20
-23.44838979264426
 30
0.0
 11
23.85248603901047
 21
-47.51547068207873
 31
0.0
  0
LINE
  5
388
  8
0
  6
CENTER
 62
     7
 10
205.628736692474
 20
-48.01368890798096
 30
0.0
 11
219.8198489951482
 21
-23.4339647551277
 31
0.0
  0
LINE
  5
389
  8
0
  6
CENTER
 62
     7
 10
175.2400533399717
 20
-30.64837025212489
 30
0.0
 11
189.5104636715081
 21
-5.931297903180507
 31
0.0
  0
LINE
  5
38A
  8
0
  6
CENTER
 62
     7
 10
40.64198795046141
 20
-6.595745002146146
 30
0.0
 11
54.24115548805119
 21
-30.15019088722352
 31
0.0
  0
LINE
  5
38B
  8
0
  6
CENTER
 62
     7
 10
100.1208846717581
 20
133.812585499316
 30
0.0
 11
129.4460799842581
 21
133.812585499316
 31
0.0
  0
LINE
  5
38C
  8
0
  6
CENTER
 62
     7
 10
100.5521438270315
 20
98.81258549931602
 30
0.0
 11
129.4460799842581
 21
98.81258549931602
 31
0.0
  0
LINE
  5
38D
  8
0
  6
CENTER
 62
     7
 10
161.6988113992701
 20
47.84087190225375
 30
0.0
 11
241.377609233778
 21
93.84344219825968
 31
0.0
  0
ARC
  5
38E
  8
0
  6
CENTER
 62
     7
 10
114.8844039588675
 20
20.81258549931602
 30
0.0
 40
66.67500305175781
 50
1.771650005245935
 51
28.53358483323371
  0
ARC
  5
38F
  8
0
  6
CENTER
 62
     7
 10
114.8844039588675
 20
20.81258549931602
 30
0.0
 40
66.67500305175781
 50
121.3816686461278
 51
148.5678296183945
  0
ARC
  5
390
  8
0
  6
CENTER
 62
     7
 10
114.8844039588675
 20
20.81258549931602
 30
0.0
 40
66.67500305175781
 50
241.8519341522529
 51
297.9172824071142
  0
ARC
  5
391
  8
0
  6
CENTER
 62
     7
 10
114.8844039588675
 20
20.81258549931602
 30
0.0
 40
66.67500305175781
 50
31.52266515178076
 51
58.88687891042596
  0
ARC
  5
392
  8
0
  6
CENTER
 62
     7
 10
114.8844039588675
 20
20.81258549931602
 30
0.0
 40
66.67500305175781
 50
151.5490979080784
 51
178.5911009077228
  0
ARC
  5
393
  8
0
  6
CENTER
 62
     7
 10
114.8844039588675
 20
20.81258549931602
 30
0.0
 40
60.0
 50
21.92083473544832
 51
38.27396905197445
  0
ARC
  5
394
  8
0
  6
CENTER
 62
     7
 10
114.8844039588675
 20
20.81258549931602
 30
0.0
 40
60.0
 50
263.3941732095548
 51
276.9180297284501
  0
ARC
  5
395
  8
0
  6
CENTER
 62
     7
 10
114.8844039588675
 20
20.81258549931602
 30
0.0
 40
60.0
 50
142.3207200374474
 51
157.4554630117119
  0
LINE
  5
396
  8
0
  6
CENTER
 62
     7
 10
-39.48527835314425
 20
20.81258549931602
 30
0.0
 11
264.9717147498831
 21
20.81258549931602
 31
0.0
  0
LINE
  5
397
  8
0
  6
CENTER
 62
     7
 10
114.8844842284322
 20
20.81261081796504
 30
0.0
 11
245.1615185183415
 21
-54.40286168858927
 31
0.0
  0
LINE
  5
398
  8
0
  6
CENTER
 62
     7
 10
110.7429571518503
 20
60.31256415072421
 30
0.0
 11
119.4220943042487
 21
60.31256415072421
 31
0.0
  0
LINE
  5
399
  8
0
  6
CENTER
 62
     7
 10
75.38435272069795
 20
26.47857977572421
 30
0.0
 11
75.38435272069795
 21
14.81256415072421
 31
0.0
  0
LINE
  5
39A
  8
0
  6
CENTER
 62
     7
 10
154.3843527206979
 20
26.13382841769199
 30
0.0
 11
154.3843527206979
 21
14.81256415072421
 31
0.0
  0
LINE
  5
39B
  8
0
  6
CENTER
 62
     7
 10
151.1631308118614
 20
4.649162294023064
 30
0.0
 11
146.8235622356622
 21
-2.867190962883278
 31
0.0
  0
LINE
  5
39C
  8
0
  6
CENTER
 62
     7
 10
82.74712391289076
 20
-2.524033992574623
 30
0.0
 11
78.40755533669156
 21
4.992319264331748
 31
0.0
  0
LINE
  5
39D
  8
0
  6
CENTER
 62
     7
 10
-237.8709800423746
 20
-45.86241125090876
 30
0.0
 11
-167.1467521371012
 21
-45.86241125090876
 31
0.0
  0
LINE
  5
39E
  8
0
  6
CENTER
 62
     7
 10
-218.4943215271297
 20
20.81259180084906
 30
0.0
 11
-113.6080987482985
 21
20.81259180084906
 31
0.0
  0
LINE
  5
39F
  8
0
  6
CENTER
 62
     7
 10
-147.0126884163981
 20
60.31259180084905
 30
0.0
 11
-129.2718894662028
 21
60.31259180084905
 31
0.0
  0
LINE
  5
3A0
  8
0
  6
CENTER
 62
     7
 10
-162.2945792855387
 20
-81.57360923856516
 30
0.0
 11
-162.2945792855387
 21
-123.7400400318712
 31
0.0
  0
LINE
  5
3A1
  8
0
  6
CENTER
 62
     7
 10
-141.6844566048746
 20
-39.18740819915094
 30
0.0
 11
-110.1629722298746
 21
-39.18740819915094
 31
0.0
  0
LINE
  5
3A2
  8
0
  6
CENTER
 62
     7
 10
-141.7004478158121
 20
98.81259180084905
 30
0.0
 11
-86.32189251796055
 21
98.81259180084905
 31
0.0
  0
LINE
  5
3A3
  8
0
  6
CENTER
 62
     7
 10
-141.9496238412028
 20
133.8125918008491
 30
0.0
 11
-86.32189251796055
 21
133.8125918008491
 31
0.0
  0
LINE
  5
3A4
  8
0
  6
CENTER
 62
     7
 10
114.8844039588675
 20
165.6187967684266
 30
0.0
 11
114.8844039588675
 21
41.23413165815992
 31
0.0
  0
LINE
  5
3A5
  8
0
  6
CENTER
 62
     7
 10
114.8844039588675
 20
33.02578196571128
 30
0.0
 11
114.8844039588675
 21
-126.1568365741232
 31
0.0
  0
LINE
  5
3A6
  8
0
  6
CONTINUOUS
 62
     7
 10
-113.8560831186191
 20
85.81259180084905
 30
0.0
 11
-91.69100964514692
 21
85.81259180084905
 31
0.0
  0
LINE
  5
3A7
  8
0
  6
DASHED2
 62
     7
 10
208.041554241218
 20
-70.49944526087563
 30
0.0
 11
216.5658447329648
 21
-75.42094612719927
 31
0.0
  0
LINE
  5
3A8
  8
0
  6
DASHED2
 62
     7
 10
39.88440395886747
 20
110.812585499316
 30
0.0
 11
47.88440395886747
 21
110.812585499316
 31
0.0
  0
LINE
  5
3A9
  8
0
  6
DASHED2
 62
     7
 10
39.88440395886747
 20
130.812585499316
 30
0.0
 11
47.88440395886747
 21
130.812585499316
 31
0.0
  0
LINE
  5
3AA
  8
0
  6
DASHED2
 62
     7
 10
39.88440395886747
 20
139.0284973645504
 30
0.0
 11
39.88440395886747
 21
108.812585499316
 31
0.0
  0
LINE
  5
3AB
  8
0
  6
DASHED2
 62
     7
 10
5.99914242322294
 20
108.812585499316
 30
0.0
 11
39.88440395886747
 21
108.812585499316
 31
0.0
  0
LINE
  5
3AC
  8
0
  6
DASHED2
 62
     7
 10
27.88440395886747
 20
123.2125870251949
 30
0.0
 11
27.88440395886747
 21
118.4125839734371
 31
0.0
  0
LINE
  5
3AD
  8
0
  6
DASHED2
 62
     7
 10
30.58441616589872
 20
124.1125885510738
 30
0.0
 11
30.58441616589872
 21
117.5125824475582
 31
0.0
  0
LINE
  5
3AE
  8
0
  6
DASHED2
 62
     7
 10
36.32315517957059
 20
115.1125732922848
 30
0.0
 11
39.44565273816434
 21
115.1125732922848
 31
0.0
  0
LINE
  5
3AF
  8
0
  6
DASHED2
 62
     7
 10
36.32315517957059
 20
126.5125977063473
 30
0.0
 11
39.44565273816434
 21
126.5125977063473
 31
0.0
  0
LINE
  5
3B0
  8
0
  6
DASHED2
 62
     7
 10
30.58437295366625
 20
117.5125305812466
 30
0.0
 11
27.88437253759648
 21
118.4125306068447
 31
0.0
  0
LINE
  5
3B1
  8
0
  6
DASHED2
 62
     7
 10
30.58444322140704
 20
124.1125500347927
 30
0.0
 11
27.88445004321662
 21
123.2125524218208
 31
0.0
  0
LINE
  5
3B2
  8
0
  6
DASHED2
 62
     7
 10
31.58441616589872
 20
123.5579163098629
 30
0.0
 11
31.58441616589872
 21
118.0171066785152
 31
0.0
  0
LINE
  5
3B3
  8
0
  6
DASHED2
 62
     7
 10
35.88440395886747
 20
125.2625824475582
 30
0.0
 11
35.88440395886747
 21
116.3625885510738
 31
0.0
  0
LINE
  5
3B4
  8
0
  6
DASHED2
 62
     7
 10
36.62829281384794
 20
123.7062622571285
 30
0.0
 11
39.140515103887
 21
123.7062622571285
 31
0.0
  0
LINE
  5
3B5
  8
0
  6
DASHED2
 62
     7
 10
36.62829281384794
 20
117.9189087415035
 30
0.0
 11
39.140515103887
 21
117.9189087415035
 31
0.0
  0
LINE
  5
3B6
  8
0
  6
DASHED2
 62
     7
 10
39.8843973765118
 20
125.5626337993254
 30
0.0
 11
47.88439957479687
 21
125.4229932489939
 31
0.0
  0
LINE
  5
3B7
  8
0
  6
DASHED2
 62
     7
 10
39.88439853647144
 20
116.062602584408
 30
0.0
 11
47.88439692064019
 21
116.2022430681639
 31
0.0
  0
LINE
  5
3B8
  8
0
  6
DASHED2
 62
     7
 10
39.88439923955973
 20
116.8627733066378
 30
0.0
 11
47.8844014378448
 21
117.0024138569693
 31
0.0
  0
LINE
  5
3B9
  8
0
  6
DASHED2
 62
     7
 10
39.88439807960009
 20
124.7624630770957
 30
0.0
 11
47.88439646376884
 21
124.6228225933398
 31
0.0
  0
ARC
  5
3BA
  8
0
  6
DASHED2
 62
     7
 10
30.58441616589872
 20
120.812585499316
 30
0.0
 40
3.299999952316284
 50
73.48282241201397
 51
89.99998201391068
  0
ARC
  5
3BB
  8
0
  6
DASHED2
 62
     7
 10
30.58441616589872
 20
120.812585499316
 30
0.0
 40
3.299999952316284
 50
270.0000179860894
 51
286.5171775879861
  0
ARC
  5
3BC
  8
0
  6
DASHED2
 62
     7
 10
37.88440395886747
 20
125.2625977063473
 30
0.0
 40
2.0
 50
0.0
 51
38.68218896809866
  0
ARC
  5
3BD
  8
0
  6
DASHED2
 62
     7
 10
37.88440395886747
 20
116.3625732922848
 30
0.0
 40
2.0
 50
0.0
 51
51.09316519948326
  0
ARC
  5
3BE
  8
0
  6
DASHED2
 62
     7
 10
33.88440395886747
 20
120.812585499316
 30
0.0
 40
6.0
 50
0.0
 51
28.83423780766658
  0
ARC
  5
3BF
  8
0
  6
DASHED2
 62
     7
 10
41.88440395886747
 20
120.812585499316
 30
0.0
 40
6.0
 50
151.1657740314788
 51
208.8342086656771
  0
ARC
  5
3C0
  8
0
  6
DASHED2
 62
     7
 10
33.88440395886747
 20
120.812585499316
 30
0.0
 40
6.0
 50
331.1657621923334
 51
360.0
  0
ARC
  5
3C1
  8
0
  6
DASHED2
 62
     7
 10
37.88440395886747
 20
125.2625977063473
 30
0.0
 40
2.0
 50
308.9068348005167
 51
360.0
  0
ARC
  5
3C2
  8
0
  6
DASHED2
 62
     7
 10
37.88440395886747
 20
125.2625977063473
 30
0.0
 40
2.0
 50
141.3178297012362
 51
231.0931121518317
  0
ARC
  5
3C3
  8
0
  6
DASHED2
 62
     7
 10
37.88440395886747
 20
116.3625732922848
 30
0.0
 40
2.0
 50
128.9068568849459
 51
218.6821529959199
  0
ARC
  5
3C4
  8
0
  6
DASHED2
 62
     7
 10
37.88440395886747
 20
116.3625732922848
 30
0.0
 40
2.0
 50
321.3178110319012
 51
360.0
  0
ARC
  5
3C5
  8
0
  6
DASHED2
 62
     7
 10
31.91760708386747
 20
129.6125732922848
 30
0.0
 40
5.650000095367432
 50
265.9910930942637
 51
315.0592540539054
  0
ARC
  5
3C6
  8
0
  6
DASHED2
 62
     7
 10
31.91760708386747
 20
112.0125977063473
 30
0.0
 40
5.650000095367432
 50
44.94074594609464
 51
94.00890690573625
  0
ARC
  5
3C7
  8
0
  6
DASHED2
 62
     7
 10
28.58441616589872
 20
120.812585499316
 30
0.0
 40
1.5
 50
117.818154050457
 51
242.1818423070773
  0
LINE
  5
3C8
  8
0
  6
DASHED2
 62
     7
 10
240.1160001873306
 20
-13.96208092958148
 30
0.0
 11
249.0658372107083
 21
-19.12927117335073
 31
0.0
  0
LINE
  5
3C9
  8
0
  6
DASHED2
 62
     7
 10
217.4433014885319
 20
73.09676028325822
 30
0.0
 11
239.0939365831429
 21
85.59676028325821
 31
0.0
  0
LINE
  5
3CA
  8
0
  6
DASHED2
 62
     7
 10
210.9561236620408
 20
70.33288187647497
 30
0.0
 11
238.6689365831428
 21
86.33288187647494
 31
0.0
  0
LINE
  5
3CB
  8
0
  6
DASHED2
 62
     7
 10
217.4433014885319
 20
73.09676028325822
 30
0.0
 11
211.4433014885319
 21
83.48906512867148
 31
0.0
  0
LINE
  5
3CC
  8
0
  6
DASHED2
 62
     7
 10
210.9561236620408
 20
70.33288187647497
 30
0.0
 11
205.8061236620408
 21
79.25294353545466
 31
0.0
  0
LINE
  5
3CD
  8
0
  6
DASHED2
 62
     7
 10
210.9561236620409
 20
70.33288187647493
 30
0.0
 11
205.8061236620408
 21
73.30623576280154
 31
0.0
  0
LINE
  5
3CE
  8
0
  6
DASHED2
 62
     7
 10
205.8061236620408
 20
79.25294353545466
 30
0.0
 11
233.5189365831429
 21
95.25294353545468
 31
0.0
  0
LINE
  5
3CF
  8
0
  6
DASHED2
 62
     7
 10
205.8061236620409
 20
79.25294353545478
 30
0.0
 11
205.8061236620408
 21
73.30623576280154
 31
0.0
  0
LINE
  5
3D0
  8
0
  6
DASHED2
 62
     7
 10
211.4433014885319
 20
83.48906512867148
 30
0.0
 11
233.0165757830289
 21
95.94440084990096
 31
0.0
  0
LINE
  5
3D1
  8
0
  6
DASHED2
 62
     7
 10
-208.2945792855387
 20
-38.86241125090876
 30
0.0
 11
-171.4675834359293
 21
-38.86241125090876
 31
0.0
  0
LINE
  5
3D2
  8
0
  6
DASHED2
 62
     7
 10
-208.2945792855387
 20
-52.86241125090876
 30
0.0
 11
-168.958718079484
 21
-52.86241125090876
 31
0.0
  0
LINE
  5
3D3
  8
0
  6
DASHED2
 62
     7
 10
-168.2945792855387
 20
-94.18740819915095
 30
0.0
 11
-156.2945792855387
 21
-94.18740819915095
 31
0.0
  0
LINE
  5
3D4
  8
0
  6
DASHED2
 62
     7
 10
-156.2945792855387
 20
-94.18740819915095
 30
0.0
 11
-156.2945792855387
 21
-119.187408199151
 31
0.0
  0
LINE
  5
3D5
  8
0
  6
DASHED2
 62
     7
 10
-168.2945792855387
 20
-94.18740819915095
 30
0.0
 11
-168.2945792855387
 21
-119.187408199151
 31
0.0
  0
LINE
  5
3D6
  8
0
  6
DASHED2
 62
     7
 10
-167.4445792855387
 20
-87.18740819915095
 30
0.0
 11
-157.1445792855387
 21
-87.18740819915095
 31
0.0
  0
LINE
  5
3D7
  8
0
  6
DASHED2
 62
     7
 10
-157.1445792855387
 20
-87.18740819915095
 30
0.0
 11
-157.1445792855387
 21
-119.187408199151
 31
0.0
  0
LINE
  5
3D8
  8
0
  6
DASHED2
 62
     7
 10
-167.4445792855387
 20
-87.18740819915095
 30
0.0
 11
-167.4445792855387
 21
-119.187408199151
 31
0.0
  0
LINE
  5
3D9
  8
0
  6
DASHED2
 62
     7
 10
-167.4445792855388
 20
-87.18740819915098
 30
0.0
 11
-162.2945792855387
 21
-84.21405431282437
 31
0.0
  0
LINE
  5
3DA
  8
0
  6
DASHED2
 62
     7
 10
-157.1445792855386
 20
-87.18740819915098
 30
0.0
 11
-162.2945792855387
 21
-84.21405431282437
 31
0.0
  0
LINE
  5
3DB
  8
0
  6
CONTINUOUS
 62
     2
 10
127.0749118700068
 20
-40.66551286372021
 30
0.0
 11
132.1411688152028
 21
-37.74051504227543
 31
0.0
  0
LINE
  5
3DC
  8
0
  6
CONTINUOUS
 62
     2
 10
132.1411643215387
 20
-37.74053905474727
 30
0.0
 11
137.2074139442965
 21
-40.66554942894334
 31
0.0
  0
LINE
  5
3DD
  8
0
  6
CONTINUOUS
 62
     2
 10
137.2074020057425
 20
-40.66553339716836
 30
0.0
 11
137.2074020057425
 21
-46.51553187128945
 31
0.0
  0
LINE
  5
3DE
  8
0
  6
CONTINUOUS
 62
     2
 10
137.2074040183283
 20
-46.51554330371971
 30
0.0
 11
132.1411470731322
 21
-49.44054112516449
 31
0.0
  0
LINE
  5
3DF
  8
0
  6
CONTINUOUS
 62
     2
 10
132.1411550534889
 20
-49.44053969863478
 30
0.0
 11
127.074890472801
 21
-46.51552483322109
 31
0.0
  0
LINE
  5
3E0
  8
0
  6
CONTINUOUS
 62
     2
 10
127.0749023109182
 20
-46.51552042719766
 30
0.0
 11
127.0749023109182
 21
-40.66552195307656
 31
0.0
  0
LINE
  5
3E1
  8
0
  6
CONTINUOUS
 62
     2
 10
207.6790368460178
 20
-32.76237990280777
 30
0.0
 11
212.7452937912139
 21
-29.83738208136299
 31
0.0
  0
LINE
  5
3E2
  8
0
  6
CONTINUOUS
 62
     2
 10
212.7452821291125
 20
-29.83737025642847
 30
0.0
 11
217.8115317518704
 21
-32.76238063062453
 31
0.0
  0
LINE
  5
3E3
  8
0
  6
CONTINUOUS
 62
     2
 10
217.811527982305
 20
-32.76240381953164
 30
0.0
 11
217.811527982305
 21
-38.61240229365274
 31
0.0
  0
LINE
  5
3E4
  8
0
  6
CONTINUOUS
 62
     2
 10
217.8115307647748
 20
-38.61238289166602
 30
0.0
 11
212.7452738195788
 21
-41.53738071311079
 31
0.0
  0
LINE
  5
3E5
  8
0
  6
CONTINUOUS
 62
     2
 10
212.7452526165306
 20
-41.53740780966825
 30
0.0
 11
207.6790012503351
 21
-38.61240057366001
 31
0.0
  0
LINE
  5
3E6
  8
0
  6
CONTINUOUS
 62
     2
 10
207.6790206580862
 20
-38.61239084956094
 30
0.0
 11
207.6790206580862
 21
-32.76239237543985
 31
0.0
  0
LINE
  5
3E7
  8
0
  6
CONTINUOUS
 62
     2
 10
177.3681633948071
 20
-15.26237499626666
 30
0.0
 11
182.4344203400032
 21
-12.33737717482188
 31
0.0
  0
LINE
  5
3E8
  8
0
  6
CONTINUOUS
 62
     2
 10
182.4344127155886
 20
-12.33736711264771
 30
0.0
 11
187.5006623383464
 21
-15.26237748684378
 31
0.0
  0
LINE
  5
3E9
  8
0
  6
CONTINUOUS
 62
     2
 10
187.5006454139456
 20
-15.26240191218301
 30
0.0
 11
187.5006454139456
 21
-21.1124003863041
 31
0.0
  0
LINE
  5
3EA
  8
0
  6
CONTINUOUS
 62
     2
 10
187.5006402843668
 20
-21.11237900725234
 30
0.0
 11
182.4343833391707
 21
-24.03737682869712
 31
0.0
  0
LINE
  5
3EB
  8
0
  6
CONTINUOUS
 62
     2
 10
182.4343786312401
 20
-24.03738277571745
 30
0.0
 11
177.3681272650446
 21
-21.11237553970921
 31
0.0
  0
LINE
  5
3EC
  8
0
  6
CONTINUOUS
 62
     2
 10
177.3681380897268
 20
-21.11239084956094
 30
0.0
 11
177.3681380897268
 21
-15.26239237543985
 31
0.0
  0
LINE
  5
3ED
  8
0
  6
CONTINUOUS
 62
     2
 10
42.26816002737874
 20
-15.26238747484979
 30
0.0
 11
47.33441532076145
 21
-12.33739060707762
 31
0.0
  0
LINE
  5
3EE
  8
0
  6
CONTINUOUS
 62
     2
 10
47.33443495344133
 20
-12.33745030114909
 30
0.0
 11
52.40067796895525
 21
-15.26245686063834
 31
0.0
  0
LINE
  5
3EF
  8
0
  6
CONTINUOUS
 62
     2
 10
52.40066982800809
 20
-15.26241335627481
 30
0.0
 11
52.40066982800809
 21
-21.1124118303959
 31
0.0
  0
LINE
  5
3F0
  8
0
  6
CONTINUOUS
 62
     2
 10
52.40067390480581
 20
-21.11240977440468
 30
0.0
 11
47.33442026323647
 21
-24.03740568850424
 31
0.0
  0
LINE
  5
3F1
  8
0
  6
CONTINUOUS
 62
     2
 10
47.3344383215133
 20
-24.03739480700307
 30
0.0
 11
42.26819356256398
 21
-21.11239138569755
 31
0.0
  0
LINE
  5
3F2
  8
0
  6
CONTINUOUS
 62
     2
 10
42.26816250378934
 20
-21.11240229365274
 30
0.0
 11
42.26816250378934
 21
-15.26240381953164
 31
0.0
  0
LINE
  5
3F3
  8
0
  6
CONTINUOUS
 62
     2
 10
11.95729816595318
 20
-32.76237395991677
 30
0.0
 11
17.02355511114925
 21
-29.837376138472
 31
0.0
  0
LINE
  5
3F4
  8
0
  6
CONTINUOUS
 62
     2
 10
17.02355186151968
 20
-29.83745521655771
 30
0.0
 11
22.08979652884457
 21
-32.76246272972367
 31
0.0
  0
LINE
  5
3F5
  8
0
  6
CONTINUOUS
 62
     2
 10
22.08978725964872
 20
-32.76241526362344
 30
0.0
 11
22.08978725964872
 21
-38.61241373774453
 31
0.0
  0
LINE
  5
3F6
  8
0
  6
CONTINUOUS
 62
     2
 10
22.08978767913314
 20
-38.61241032614268
 30
0.0
 11
17.02353692823718
 21
-41.53740457131517
 31
0.0
  0
LINE
  5
3F7
  8
0
  6
CONTINUOUS
 62
     2
 10
17.02354308547402
 20
-41.53738582837912
 30
0.0
 11
11.95729832652469
 21
-38.6123824070736
 31
0.0
  0
LINE
  5
3F8
  8
0
  6
CONTINUOUS
 62
     2
 10
11.95727993542997
 20
-38.61240229365274
 30
0.0
 11
11.95727993542997
 21
-32.76240381953164
 31
0.0
  0
LINE
  5
3F9
  8
0
  6
CONTINUOUS
 62
     2
 10
109.8181511679628
 20
101.7375916071861
 30
0.0
 11
114.8844081131589
 21
104.6625894286309
 31
0.0
  0
LINE
  5
3FA
  8
0
  6
CONTINUOUS
 62
     2
 10
114.8844516364465
 20
104.6626386341692
 30
0.0
 11
119.9506946519604
 21
101.7376320746799
 31
0.0
  0
LINE
  5
3FB
  8
0
  6
CONTINUOUS
 62
     2
 10
119.9506499915823
 20
101.7375809216793
 30
0.0
 11
119.9506499915823
 21
95.8875824475582
 31
0.0
  0
LINE
  5
3FC
  8
0
  6
CONTINUOUS
 62
     2
 10
119.9506442699569
 20
95.88755951537326
 30
0.0
 11
114.8843873247609
 21
92.96256169392848
 31
0.0
  0
LINE
  5
3FD
  8
0
  6
CONTINUOUS
 62
     2
 10
114.8843932086073
 20
92.96256215045935
 30
0.0
 11
109.818148449658
 21
95.88756557176487
 31
0.0
  0
LINE
  5
3FE
  8
0
  6
CONTINUOUS
 62
     2
 10
109.8181579261526
 20
95.88759007695273
 30
0.0
 11
109.8181579261526
 21
101.7375885510738
 31
0.0
  0
LINE
  5
3FF
  8
0
  6
CONTINUOUS
 62
     2
 10
109.8181602851559
 20
136.7376081684362
 30
0.0
 11
114.8844172303519
 21
139.6626059898809
 31
0.0
  0
LINE
  5
400
  8
0
  6
CONTINUOUS
 62
     2
 10
114.8844590474526
 20
139.6626205792036
 30
0.0
 11
119.9507004111555
 21
136.737614973391
 31
0.0
  0
LINE
  5
401
  8
0
  6
CONTINUOUS
 62
     2
 10
119.9506499915823
 20
136.7375732922848
 30
0.0
 11
119.9506499915823
 21
130.8875824475582
 31
0.0
  0
LINE
  5
402
  8
0
  6
CONTINUOUS
 62
     2
 10
119.9506522965677
 20
130.8876084832046
 30
0.0
 11
114.8843953513716
 21
127.9626106617599
 31
0.0
  0
LINE
  5
403
  8
0
  6
CONTINUOUS
 62
     2
 10
114.8843927511897
 20
127.9625711237451
 30
0.0
 11
109.8181463404288
 21
130.8875754987263
 31
0.0
  0
LINE
  5
404
  8
0
  6
CONTINUOUS
 62
     2
 10
109.8181579261526
 20
130.8875977063473
 30
0.0
 11
109.8181579261526
 21
136.7375885510738
 31
0.0
  0
CIRCLE
  5
405
  8
0
  6
CONTINUOUS
 62
     2
 10
132.1411483436331
 20
-43.59052119013711
 30
0.0
 40
9.0
  0
CIRCLE
  5
406
  8
0
  6
CONTINUOUS
 62
     2
 10
212.7452438026175
 20
-35.68738398310586
 30
0.0
 40
9.0
  0
CIRCLE
  5
407
  8
0
  6
CONTINUOUS
 62
     2
 10
182.4343917518362
 20
-18.18738398310586
 30
0.0
 40
9.0
  0
CIRCLE
  5
408
  8
0
  6
CONTINUOUS
 62
     2
 10
47.33441616589872
 20
-18.18741450068399
 30
0.0
 40
9.0
  0
CIRCLE
  5
409
  8
0
  6
CONTINUOUS
 62
     2
 10
17.02353359753934
 20
-35.68741450068399
 30
0.0
 40
9.0
  0
CIRCLE
  5
40A
  8
0
  6
CONTINUOUS
 62
     2
 10
114.8844039588675
 20
98.81258549931602
 30
0.0
 40
9.0
  0
CIRCLE
  5
40B
  8
0
  6
CONTINUOUS
 62
     2
 10
114.8844039588675
 20
133.812585499316
 30
0.0
 40
9.0
  0
LINE
  5
40C
  8
0
  6
CONTINUOUS
 62
     3
 10
6.62290034503352
 20
-67.67299479327357
 30
0.0
 11
86.49777488234761
 21
-21.55721957262779
 31
0.0
  0
LINE
  5
40D
  8
0
  6
CONTINUOUS
 62
     3
 10
-15.87712327811485
 20
-28.70187506542686
 30
0.0
 11
63.99776117007397
 21
17.41390587726448
 31
0.0
  0
LINE
  5
40E
  8
0
  6
CONTINUOUS
 62
     3
 10
143.2710780581356
 20
-21.55720541362587
 30
0.0
 11
223.1459360773251
 21
-67.67297109752906
 31
0.0
  0
LINE
  5
40F
  8
0
  6
CONTINUOUS
 62
     3
 10
92.38440395886747
 20
158.812585499316
 30
0.0
 11
137.3844039588675
 21
158.812585499316
 31
0.0
  0
LINE
  5
410
  8
0
  6
CONTINUOUS
 62
     3
 10
-15.87709083042327
 20
-28.70183581501067
 30
0.0
 11
6.622908037088029
 21
-67.67297167859795
 31
0.0
  0
LINE
  5
411
  8
0
  6
CONTINUOUS
 62
     3
 10
53.40492503852264
 20
11.29818000497426
 30
0.0
 11
59.65492959827841
 21
0.4728560447147174
 31
0.0
  0
LINE
  5
412
  8
0
  6
CONTINUOUS
 62
     3
 10
153.8639209465654
 20
-27.67294652728367
 30
0.0
 11
160.1139216916234
 21
-16.84762917427349
 31
0.0
  0
LINE
  5
413
  8
0
  6
CONTINUOUS
 62
     3
 10
-9.627120347018973
 20
-39.52719125614658
 30
0.0
 11
59.65491878424265
 21
0.4728082670161484
 31
0.0
  0
LINE
  5
414
  8
0
  6
CONTINUOUS
 62
     3
 10
0.3728974139376362
 20
-56.84767860255386
 30
0.0
 11
69.65493654519926
 21
-16.84767907939113
 31
0.0
  0
LINE
  5
415
  8
0
  6
CONTINUOUS
 62
     3
 10
160.113905599205
 20
-16.84764547277189
 30
0.0
 11
229.3959414268417
 21
-56.8476430885861
 31
0.0
  0
LINE
  5
416
  8
0
  6
CONTINUOUS
 62
     3
 10
170.11390323275
 20
0.4728909352808159
 30
0.0
 11
239.395965489386
 21
-39.52712193932155
 31
0.0
  0
LINE
  5
417
  8
0
  6
CONTINUOUS
 62
     3
 10
153.4164897688414
 20
-16.73367661046575
 30
0.0
 11
158.4889150958651
 21
-19.66224241491352
 31
0.0
  0
LINE
  5
418
  8
0
  6
CONTINUOUS
 62
     3
 10
166.6664739941717
 20
6.216032837976513
 30
0.0
 11
171.738912535695
 21
3.287459404134665
 31
0.0
  0
LINE
  5
419
  8
0
  6
CONTINUOUS
 62
     3
 10
71.27993593726959
 20
-19.66225327029054
 30
0.0
 11
76.35236126429325
 21
-16.73368746584276
 31
0.0
  0
LINE
  5
41A
  8
0
  6
CONTINUOUS
 62
     3
 10
58.0299236494715
 20
3.287382713451621
 30
0.0
 11
63.10235558374498
 21
6.21595233259643
 31
0.0
  0
LINE
  5
41B
  8
0
  6
CONTINUOUS
 62
     3
 10
69.65492983669688
 20
-16.84765006828923
 30
0.0
 11
75.9049229523595
 21
-27.67295420680068
 31
0.0
  0
LINE
  5
41C
  8
0
  6
CONTINUOUS
 62
     3
 10
170.1139228837163
 20
0.4728785905427912
 30
0.0
 11
176.3639312581698
 21
11.29820915805169
 31
0.0
  0
LINE
  5
41D
  8
0
  6
CONTINUOUS
 62
     3
 10
53.59277323555992
 20
-3.027158472219298
 30
0.0
 11
63.59277538132724
 21
-20.34766788884792
 31
0.0
  0
LINE
  5
41E
  8
0
  6
CONTINUOUS
 62
     3
 10
0.7652129217122194
 20
-33.52715340643954
 30
0.0
 11
10.76521411380512
 21
-50.84766117125582
 31
0.0
  0
LINE
  5
41F
  8
0
  6
CONTINUOUS
 62
     3
 10
166.1760747507173
 20
-20.34764178385865
 30
0.0
 11
176.1760759428102
 21
-3.027134019042364
 31
0.0
  0
LINE
  5
420
  8
0
  6
CONTINUOUS
 62
     3
 10
219.0036460477067
 20
-50.84766728578222
 30
0.0
 11
229.0036472397995
 21
-33.52715952096594
 31
0.0
  0
LINE
  5
421
  8
0
  6
CONTINUOUS
 62
     3
 10
137.3844039588675
 20
158.9927155041988
 30
0.0
 11
137.3844039588675
 21
66.58102574589805
 31
0.0
  0
LINE
  5
422
  8
0
  6
CONTINUOUS
 62
     3
 10
92.38440395886747
 20
158.9927155041988
 30
0.0
 11
92.38440395886747
 21
66.58102574589805
 31
0.0
  0
LINE
  5
423
  8
0
  6
CONTINUOUS
 62
     3
 10
92.38440395886747
 20
78.81258549931602
 30
0.0
 11
104.8844039588675
 21
78.81258549931602
 31
0.0
  0
LINE
  5
424
  8
0
  6
CONTINUOUS
 62
     3
 10
124.884411588262
 20
158.812585499316
 30
0.0
 11
124.884411588262
 21
78.81258549931602
 31
0.0
  0
LINE
  5
425
  8
0
  6
CONTINUOUS
 62
     3
 10
104.8844039588675
 20
158.812585499316
 30
0.0
 11
104.8844039588675
 21
78.81258549931602
 31
0.0
  0
LINE
  5
426
  8
0
  6
CONTINUOUS
 62
     3
 10
128.134411588262
 20
78.81258549931602
 30
0.0
 11
128.134411588262
 21
72.95543828251914
 31
0.0
  0
LINE
  5
427
  8
0
  6
CONTINUOUS
 62
     3
 10
101.6344039588675
 20
78.81258549931602
 30
0.0
 11
101.6344039588675
 21
72.95543828251914
 31
0.0
  0
LINE
  5
428
  8
0
  6
CONTINUOUS
 62
     3
 10
124.8844039588675
 20
78.81258549931602
 30
0.0
 11
137.3844039588675
 21
78.81258549931602
 31
0.0
  0
LINE
  5
429
  8
0
  6
CONTINUOUS
 62
     3
 10
104.8844039588675
 20
85.81258549931602
 30
0.0
 11
124.8844039588675
 21
85.81258549931602
 31
0.0
  0
LINE
  5
42A
  8
0
  6
CONTINUOUS
 62
     3
 10
104.8844039588675
 20
146.812585499316
 30
0.0
 11
124.8844039588675
 21
146.812585499316
 31
0.0
  0
CIRCLE
  5
42B
  8
0
  6
CONTINUOUS
 62
     3
 10
162.030766263555
 20
67.95894780400352
 30
0.0
 40
7.0
  0
CIRCLE
  5
42C
  8
0
  6
CONTINUOUS
 62
     3
 10
179.2875106483206
 20
38.06936040165977
 30
0.0
 40
7.0
  0
CIRCLE
  5
42D
  8
0
  6
CONTINUOUS
 62
     3
 10
67.73804165417997
 20
67.95894780400352
 30
0.0
 40
7.0
  0
CIRCLE
  5
42E
  8
0
  6
CONTINUOUS
 62
     3
 10
50.48129726941434
 20
38.06936040165977
 30
0.0
 40
7.0
  0
CIRCLE
  5
42F
  8
0
  6
CONTINUOUS
 62
     3
 10
132.1411788612112
 20
-43.59052119013711
 30
0.0
 40
10.0
  0
CIRCLE
  5
430
  8
0
  6
CONTINUOUS
 62
     3
 10
97.62762905652372
 20
-43.59052119013711
 30
0.0
 40
10.0
  0
CIRCLE
  5
431
  8
0
  6
CONTINUOUS
 62
     3
 10
97.62762905652372
 20
-43.59052119013711
 30
0.0
 40
7.0
  0
CIRCLE
  5
432
  8
0
  6
CONTINUOUS
 62
     3
 10
114.8844039588675
 20
20.81258549931602
 30
0.0
 40
45.0
  0
ARC
  5
433
  8
0
  6
CONTINUOUS
 62
     3
 10
114.8844039588675
 20
20.81258549931602
 30
0.0
 40
52.5
 50
115.3769488184461
 51
184.6230185486794
  0
ARC
  5
434
  8
0
  6
CONTINUOUS
 62
     3
 10
114.8844039588675
 20
20.81258549931602
 30
0.0
 40
137.0
 50
99.45273159877652
 51
200.5472494287273
  0
ARC
  5
435
  8
0
  6
CONTINUOUS
 62
     3
 10
114.8844039588675
 20
20.81258549931602
 30
0.0
 40
52.5
 50
235.3769011587026
 51
304.6230870021519
  0
ARC
  5
436
  8
0
  6
CONTINUOUS
 62
     3
 10
114.8844039588675
 20
20.81258549931602
 30
0.0
 40
52.5
 50
355.3769506017837
 51
424.6230698508886
  0
CIRCLE
  5
437
  8
0
  6
CONTINUOUS
 62
     3
 10
114.8844039588675
 20
20.81258549931602
 30
0.0
 40
51.0
  0
ARC
  5
438
  8
0
  6
CONTINUOUS
 62
     3
 10
114.8844039588675
 20
20.81258549931602
 30
0.0
 40
53.79999923706055
 50
185.277982691036
 51
234.7219543191901
  0
ARC
  5
439
  8
0
  6
CONTINUOUS
 62
     3
 10
114.8844039588675
 20
20.81258549931602
 30
0.0
 40
53.79999923706055
 50
305.2780304265698
 51
354.7219990665163
  0
ARC
  5
43A
  8
0
  6
CONTINUOUS
 62
     3
 10
114.8844039588675
 20
20.81258549931602
 30
0.0
 40
53.79999923706055
 50
65.27801669040113
 51
114.7220019789336
  0
CIRCLE
  5
43B
  8
0
  6
CONTINUOUS
 62
     3
 10
50.48129345471708
 20
38.06932988408164
 30
0.0
 40
10.0
  0
CIRCLE
  5
43C
  8
0
  6
CONTINUOUS
 62
     3
 10
67.73805691296903
 20
67.95891728642539
 30
0.0
 40
10.0
  0
CIRCLE
  5
43D
  8
0
  6
CONTINUOUS
 62
     3
 10
162.0307357459768
 20
67.95891728642539
 30
0.0
 40
10.0
  0
CIRCLE
  5
43E
  8
0
  6
CONTINUOUS
 62
     3
 10
179.2875106483206
 20
38.06936040165977
 30
0.0
 40
10.0
  0
LINE
  5
43F
  8
0
  6
CONTINUOUS
 62
     3
 10
165.7710542396689
 20
17.41399236022619
 30
0.0
 11
245.6459519023573
 21
-28.70179621185923
 31
0.0
  0
LINE
  5
440
  8
0
  6
CONTINUOUS
 62
     3
 10
223.1459725758381
 20
-67.67300722008838
 30
0.0
 11
245.6459790727448
 21
-28.70185814200238
 31
0.0
  0
ARC
  5
441
  8
0
  6
CONTINUOUS
 62
     3
 10
114.8844039588675
 20
20.81258549931602
 30
0.0
 40
140.0
 50
0.0
 51
209.9999580324582
  0
ARC
  5
442
  8
0
  6
CONTINUOUS
 62
     3
 10
114.8844039588675
 20
20.81258549931602
 30
0.0
 40
140.0
 50
209.9999753353022
 51
330.0000094104577
  0
ARC
  5
443
  8
0
  6
CONTINUOUS
 62
     3
 10
114.8844039588675
 20
20.81258549931602
 30
0.0
 40
137.0
 50
219.4526975994114
 51
320.5472973916322
  0
ARC
  5
444
  8
0
  6
CONTINUOUS
 62
     3
 10
114.8844039588675
 20
20.81258549931602
 30
0.0
 40
137.0
 50
339.4527214292831
 51
440.5472870705581
  0
ARC
  5
445
  8
0
  6
CONTINUOUS
 62
     3
 10
114.8844039588675
 20
20.81258549931602
 30
0.0
 40
140.0
 50
330.0000094104577
 51
360.0
  0
CIRCLE
  5
446
  8
0
  6
CONTINUOUS
 62
     3
 10
75.38435272069795
 20
20.81256415072421
 30
0.0
 40
3.099999904632568
  0
CIRCLE
  5
447
  8
0
  6
CONTINUOUS
 62
     3
 10
154.3843527206979
 20
20.81256415072421
 30
0.0
 40
3.099999904632568
  0
LINE
  5
448
  8
0
  6
CONTINUOUS
 62
     3
 10
-132.449929016984
 20
66.74658990875921
 30
0.0
 11
-118.4945762337809
 21
66.74658990875921
 31
0.0
  0
LINE
  5
449
  8
0
  6
CONTINUOUS
 62
     3
 10
-118.4945762337809
 20
68.24658990875921
 30
0.0
 11
-115.9945762337809
 21
68.24658990875921
 31
0.0
  0
LINE
  5
44A
  8
0
  6
CONTINUOUS
 62
     3
 10
-144.9945762337809
 20
1.458028564612484
 30
0.0
 11
-144.9945762337809
 21
-24.68740819915094
 31
0.0
  0
LINE
  5
44B
  8
0
  6
CONTINUOUS
 62
     3
 10
-208.2945792855387
 20
-30.18740819915094
 30
0.0
 11
-118.4945762337809
 21
-30.18740819915094
 31
0.0
  0
LINE
  5
44C
  8
0
  6
CONTINUOUS
 62
     3
 10
-142.9945762337809
 20
65.81259180084905
 30
0.0
 11
-132.9945762337809
 21
65.81259180084905
 31
0.0
  0
LINE
  5
44D
  8
0
  6
CONTINUOUS
 62
     3
 10
-142.9945762337809
 20
-24.18740819915094
 30
0.0
 11
-132.9945762337809
 21
-24.18740819915094
 31
0.0
  0
LINE
  5
44E
  8
0
  6
CONTINUOUS
 62
     3
 10
-158.9945762337809
 20
64.56259180084905
 30
0.0
 11
-144.9945762337809
 21
64.56259180084905
 31
0.0
  0
LINE
  5
44F
  8
0
  6
CONTINUOUS
 62
     3
 10
-158.9945762337809
 20
-22.93740819915094
 30
0.0
 11
-144.9945762337809
 21
-22.93740819915094
 31
0.0
  0
LINE
  5
450
  8
0
  6
CONTINUOUS
 62
     3
 10
-161.9945716460791
 20
-14.18740313625815
 30
0.0
 11
-160.9945734504784
 21
-15.18740706383644
 31
0.0
  0
LINE
  5
451
  8
0
  6
CONTINUOUS
 62
     3
 10
-191.9945778042072
 20
-14.18741745485206
 30
0.0
 11
-192.9945797930284
 21
-15.18741758920989
 31
0.0
  0
LINE
  5
452
  8
0
  6
CONTINUOUS
 62
     3
 10
-191.9945715873298
 20
55.81259561552995
 30
0.0
 11
-192.9945745876764
 21
56.81259482265612
 31
0.0
  0
LINE
  5
453
  8
0
  6
CONTINUOUS
 62
     3
 10
-161.9945799527643
 20
55.81259928447387
 30
0.0
 11
-160.9945792283868
 21
56.81261147286839
 31
0.0
  0
LINE
  5
454
  8
0
  6
CONTINUOUS
 62
     3
 10
-160.9945762337809
 20
64.81259180084905
 30
0.0
 11
-160.9945762337809
 21
-23.18740819915094
 31
0.0
  0
LINE
  5
455
  8
0
  6
CONTINUOUS
 62
     3
 10
-158.9945762337809
 20
64.81259180084905
 30
0.0
 11
-158.9945762337809
 21
6.727559814612484
 31
0.0
  0
LINE
  5
456
  8
0
  6
CONTINUOUS
 62
     3
 10
-144.9945762337809
 20
66.31259180084905
 30
0.0
 11
-144.9945762337809
 21
7.845045337836361
 31
0.0
  0
LINE
  5
457
  8
0
  6
CONTINUOUS
 62
     3
 10
-142.9945762337809
 20
66.31259180084905
 30
0.0
 11
-142.9945762337809
 21
-24.68740819915094
 31
0.0
  0
LINE
  5
458
  8
0
  6
CONTINUOUS
 62
     3
 10
-144.9945762337809
 20
66.31259180084905
 30
0.0
 11
-142.9945762337809
 21
66.31259180084905
 31
0.0
  0
LINE
  5
459
  8
0
  6
CONTINUOUS
 62
     3
 10
-144.9945762337809
 20
-24.68740819915094
 30
0.0
 11
-142.9945762337809
 21
-24.68740819915094
 31
0.0
  0
LINE
  5
45A
  8
0
  6
CONTINUOUS
 62
     3
 10
-160.9945762337809
 20
64.81259180084905
 30
0.0
 11
-158.9945762337809
 21
64.81259180084905
 31
0.0
  0
LINE
  5
45B
  8
0
  6
CONTINUOUS
 62
     3
 10
-160.9945762337809
 20
-23.18740819915094
 30
0.0
 11
-158.9945762337809
 21
-23.18740819915094
 31
0.0
  0
LINE
  5
45C
  8
0
  6
CONTINUOUS
 62
     3
 10
-191.9945762337809
 20
-14.18740915282526
 30
0.0
 11
-161.9945762337809
 21
-14.18740915282526
 31
0.0
  0
LINE
  5
45D
  8
0
  6
CONTINUOUS
 62
     3
 10
-191.9945762337809
 20
55.81259180084906
 30
0.0
 11
-161.9945762337809
 21
55.81259180084906
 31
0.0
  0
LINE
  5
45E
  8
0
  6
CONTINUOUS
 62
     3
 10
-192.9945719746236
 20
-29.18740767805686
 30
0.0
 11
-191.9945709130341
 21
-30.18740873964637
 31
0.0
  0
LINE
  5
45F
  8
0
  6
CONTINUOUS
 62
     3
 10
-132.9945730168117
 20
-29.18740767805686
 30
0.0
 11
-133.9945740784012
 21
-30.18740873964637
 31
0.0
  0
LINE
  5
460
  8
0
  6
CONTINUOUS
 62
     3
 10
-133.9945709065819
 20
71.81259303766771
 30
0.0
 11
-132.9945786958492
 21
70.81260462011457
 31
0.0
  0
LINE
  5
461
  8
0
  6
CONTINUOUS
 62
     3
 10
-192.9945719746236
 20
70.81259058496286
 30
0.0
 11
-191.9945707587374
 21
71.81259180084905
 31
0.0
  0
LINE
  5
462
  8
0
  6
CONTINUOUS
 62
     3
 10
-191.9945707587374
 20
71.81259180084905
 30
0.0
 11
-133.9945762337809
 21
71.81259180084905
 31
0.0
  0
LINE
  5
463
  8
0
  6
CONTINUOUS
 62
     3
 10
-132.9945762337809
 20
70.81259180084905
 30
0.0
 11
-132.9945762337809
 21
-29.18740819915094
 31
0.0
  0
LINE
  5
464
  8
0
  6
CONTINUOUS
 62
     3
 10
-192.9945762337809
 20
70.81259180084905
 30
0.0
 11
-192.9945762337809
 21
-29.18740819915094
 31
0.0
  0
LINE
  5
465
  8
0
  6
CONTINUOUS
 62
     3
 10
-129.9945762337809
 20
139.8125918008491
 30
0.0
 11
-129.9945762337809
 21
127.8125841714545
 31
0.0
  0
LINE
  5
466
  8
0
  6
CONTINUOUS
 62
     3
 10
-129.9945762337809
 20
104.8125918008491
 30
0.0
 11
-129.9945762337809
 21
92.81259180084905
 31
0.0
  0
LINE
  5
467
  8
0
  6
CONTINUOUS
 62
     3
 10
-115.4945762337809
 20
127.8125841714545
 30
0.0
 11
-115.4945762337809
 21
104.8125918008491
 31
0.0
  0
LINE
  5
468
  8
0
  6
CONTINUOUS
 62
     3
 10
-115.4945762337809
 20
92.81259180084905
 30
0.0
 11
-115.4945762337809
 21
85.81259180084905
 31
0.0
  0
LINE
  5
469
  8
0
  6
CONTINUOUS
 62
     3
 10
-115.9945762337809
 20
85.81259180084905
 30
0.0
 11
-115.9945762337809
 21
-116.187408199151
 31
0.0
  0
LINE
  5
46A
  8
0
  6
CONTINUOUS
 62
     3
 10
-127.9945762337809
 20
85.81259180084905
 30
0.0
 11
-127.9945762337809
 21
78.81259180084905
 31
0.0
  0
LINE
  5
46B
  8
0
  6
CONTINUOUS
 62
     3
 10
-115.4945762337809
 20
146.8125918008491
 30
0.0
 11
-115.4945762337809
 21
139.8125918008491
 31
0.0
  0
LINE
  5
46C
  8
0
  6
CONTINUOUS
 62
     3
 10
-135.9945762337809
 20
146.8125918008491
 30
0.0
 11
-135.9945762337809
 21
85.81259180084905
 31
0.0
  0
LINE
  5
46D
  8
0
  6
CONTINUOUS
 62
     3
 10
-135.9945762337809
 20
146.8125918008491
 30
0.0
 11
-115.4945762337809
 21
146.8125918008491
 31
0.0
  0
LINE
  5
46E
  8
0
  6
CONTINUOUS
 62
     3
 10
-135.9945762337809
 20
85.81259180084905
 30
0.0
 11
-115.4945762337809
 21
85.81259180084905
 31
0.0
  0
LINE
  5
46F
  8
0
  6
CONTINUOUS
 62
     3
 10
-144.1945731820231
 20
72.95544458405217
 30
0.0
 11
-133.1945731820231
 21
72.95544458405217
 31
0.0
  0
LINE
  5
470
  8
0
  6
CONTINUOUS
 62
     3
 10
-115.9945900359676
 20
155.8126025955209
 30
0.0
 11
-116.994580307964
 21
156.8125928675174
 31
0.0
  0
LINE
  5
471
  8
0
  6
CONTINUOUS
 62
     3
 10
-136.9945762337809
 20
158.8125918008491
 30
0.0
 11
-136.9945762337809
 21
72.95544458405217
 31
0.0
  0
LINE
  5
472
  8
0
  6
CONTINUOUS
 62
     3
 10
-153.9945762337809
 20
100.3125918008491
 30
0.0
 11
-153.9945762337809
 21
77.81259180084905
 31
0.0
  0
LINE
  5
473
  8
0
  6
CONTINUOUS
 62
     3
 10
-153.9945762337809
 20
81.01258874909124
 30
0.0
 11
-144.1945731820231
 21
81.01258874909124
 31
0.0
  0
LINE
  5
474
  8
0
  6
CONTINUOUS
 62
     3
 10
-133.1945731820231
 20
78.81259180084905
 30
0.0
 11
-133.1945731820231
 21
71.81259180084905
 31
0.0
  0
LINE
  5
475
  8
0
  6
CONTINUOUS
 62
     3
 10
-133.1945731820231
 20
78.81259180084905
 30
0.0
 11
-116.9945762337809
 21
78.81259180084905
 31
0.0
  0
LINE
  5
476
  8
0
  6
CONTINUOUS
 62
     3
 10
-127.9945762337809
 20
158.8125918008491
 30
0.0
 11
-127.9945762337809
 21
146.8125918008491
 31
0.0
  0
LINE
  5
477
  8
0
  6
CONTINUOUS
 62
     3
 10
-183.9945762337809
 20
158.8125918008491
 30
0.0
 11
-116.9945762337809
 21
158.8125918008491
 31
0.0
  0
LINE
  5
478
  8
0
  6
CONTINUOUS
 62
     3
 10
-135.9945762337809
 20
-36.03740667327204
 30
0.0
 11
-135.9945762337809
 21
-42.33740972502985
 31
0.0
  0
LINE
  5
479
  8
0
  6
CONTINUOUS
 62
     3
 10
-137.813233727863
 20
-39.18741445739968
 30
0.0
 11
-135.9945813580476
 21
-42.33741233117953
 31
0.0
  0
LINE
  5
47A
  8
0
  6
CONTINUOUS
 62
     3
 10
-137.8132355416794
 20
-39.18741341915349
 30
0.0
 11
-135.9945822181896
 21
-36.0374138935613
 31
0.0
  0
LINE
  5
47B
  8
0
  6
CONTINUOUS
 62
     3
 10
-154.1945731820231
 20
-36.18740819915094
 30
0.0
 11
-144.1945731820231
 21
-36.18740819915094
 31
0.0
  0
LINE
  5
47C
  8
0
  6
CONTINUOUS
 62
     3
 10
-144.1945731820231
 20
-30.18740819915094
 30
0.0
 11
-144.1945731820231
 21
-36.18740819915094
 31
0.0
  0
LINE
  5
47D
  8
0
  6
CONTINUOUS
 62
     3
 10
-154.1945731820231
 20
-30.18740819915094
 30
0.0
 11
-154.1945731820231
 21
-36.18740819915094
 31
0.0
  0
LINE
  5
47E
  8
0
  6
CONTINUOUS
 62
     3
 10
-183.9945762337809
 20
160.8125918008491
 30
0.0
 11
-183.9945762337809
 21
131.4534609414741
 31
0.0
  0
LINE
  5
47F
  8
0
  6
CONTINUOUS
 62
     3
 10
-144.1945731820231
 20
81.01258874909124
 30
0.0
 11
-144.1945731820231
 21
71.81259180084905
 31
0.0
  0
LINE
  5
480
  8
0
  6
CONTINUOUS
 62
     3
 10
-154.1945731820231
 20
77.81259180084905
 30
0.0
 11
-154.1945731820231
 21
71.81259180084905
 31
0.0
  0
LINE
  5
481
  8
0
  6
CONTINUOUS
 62
     3
 10
-154.1945731820231
 20
77.81259180084905
 30
0.0
 11
-144.1945731820231
 21
77.81259180084905
 31
0.0
  0
LINE
  5
482
  8
0
  6
CONTINUOUS
 62
     3
 10
-213.9945762337809
 20
-106.687408199151
 30
0.0
 11
-208.2945792855387
 21
-106.687408199151
 31
0.0
  0
LINE
  5
483
  8
0
  6
CONTINUOUS
 62
     3
 10
-208.2945792855387
 20
71.81259180084905
 30
0.0
 11
-191.9945707587374
 21
71.81259180084905
 31
0.0
  0
LINE
  5
484
  8
0
  6
CONTINUOUS
 62
     3
 10
-118.4945762337809
 20
68.24658990875921
 30
0.0
 11
-118.4945762337809
 21
-31.68740819915094
 31
0.0
  0
LINE
  5
485
  8
0
  6
CONTINUOUS
 62
     3
 10
-118.4945762337809
 20
-31.68740819915094
 30
0.0
 11
-115.9945762337809
 21
-31.68740819915094
 31
0.0
  0
LINE
  5
486
  8
0
  6
CONTINUOUS
 62
     3
 10
-213.9945762337809
 20
148.3125918008491
 30
0.0
 11
-208.2945792855387
 21
148.3125918008491
 31
0.0
  0
LINE
  5
487
  8
0
  6
CONTINUOUS
 62
     3
 10
-208.2945792855387
 20
148.3125918008491
 30
0.0
 11
-208.2945792855387
 21
-106.687408199151
 31
0.0
  0
LINE
  5
488
  8
0
  6
CONTINUOUS
 62
     3
 10
-213.9945762337809
 20
160.8125918008491
 30
0.0
 11
-183.9945762337809
 21
160.8125918008491
 31
0.0
  0
LINE
  5
489
  8
0
  6
CONTINUOUS
 62
     3
 10
-115.9945762337809
 20
155.8125918008491
 30
0.0
 11
-115.9945762337809
 21
146.8125918008491
 31
0.0
  0
LINE
  5
48A
  8
0
  6
CONTINUOUS
 62
     3
 10
-135.9945762337809
 20
-36.03740667327204
 30
0.0
 11
-115.9945762337809
 21
-36.03740667327204
 31
0.0
  0
LINE
  5
48B
  8
0
  6
CONTINUOUS
 62
     3
 10
-135.9945762337809
 20
-42.33740972502985
 30
0.0
 11
-115.9945762337809
 21
-42.33740972502985
 31
0.0
  0
LINE
  5
48C
  8
0
  6
CONTINUOUS
 62
     3
 10
-158.9945762337809
 20
1.458028564612484
 30
0.0
 11
-158.9945762337809
 21
-23.18740819915094
 31
0.0
  0
LINE
  5
48D
  8
0
  6
CONTINUOUS
 62
     3
 10
-213.9945762337809
 20
-119.187408199151
 30
0.0
 11
-118.9945762337809
 21
-119.187408199151
 31
0.0
  0
LINE
  5
48E
  8
0
  6
CONTINUOUS
 62
     3
 10
-118.994582431143
 20
-119.1874142069694
 30
0.0
 11
-115.9945792463745
 21
-116.1874110222009
 31
0.0
  0
LINE
  5
48F
  8
0
  6
CONTINUOUS
 62
     3
 10
-213.9945762337809
 20
160.8125918008491
 30
0.0
 11
-213.9945762337809
 21
-119.187408199151
 31
0.0
  0
LINE
  5
490
  8
0
  6
CONTINUOUS
 62
     3
 10
-137.9945762337809
 20
63.31259180084905
 30
0.0
 11
-137.9945762337809
 21
57.31259180084905
 31
0.0
  0
LINE
  5
491
  8
0
  6
CONTINUOUS
 62
     3
 10
-142.9945762337809
 20
55.81259180084905
 30
0.0
 11
-132.9945762337809
 21
55.81259180084905
 31
0.0
  0
LINE
  5
492
  8
0
  6
CONTINUOUS
 62
     3
 10
-142.9945762337809
 20
63.31259180084905
 30
0.0
 11
-132.9945762337809
 21
63.31259180084905
 31
0.0
  0
LINE
  5
493
  8
0
  6
CONTINUOUS
 62
     3
 10
-142.9945762337809
 20
57.31259180084905
 30
0.0
 11
-132.9945762337809
 21
57.31259180084905
 31
0.0
  0
LINE
  5
494
  8
0
  6
CONTINUOUS
 62
     3
 10
-133.9945762337809
 20
63.31259180084905
 30
0.0
 11
-133.9945762337809
 21
57.31259180084905
 31
0.0
  0
LINE
  5
495
  8
0
  6
CONTINUOUS
 62
     3
 10
-142.9945762337809
 20
-14.18740819915094
 30
0.0
 11
-132.9945762337809
 21
-14.18740819915094
 31
0.0
  0
LINE
  5
496
  8
0
  6
CONTINUOUS
 62
     3
 10
-104.9945762337809
 20
107.8125918008491
 30
0.0
 11
-104.9945762337809
 21
89.81259180084905
 31
0.0
  0
LINE
  5
497
  8
0
  6
CONTINUOUS
 62
     3
 10
-104.9945762337809
 20
142.8125918008491
 30
0.0
 11
-104.9945762337809
 21
124.8125918008491
 31
0.0
  0
LINE
  5
498
  8
0
  6
CONTINUOUS
 62
     3
 10
-92.99457623378086
 20
142.8125918008491
 30
0.0
 11
-92.99457623378086
 21
124.8125918008491
 31
0.0
  0
LINE
  5
499
  8
0
  6
CONTINUOUS
 62
     3
 10
-92.99457623378086
 20
107.8125918008491
 30
0.0
 11
-92.99457623378086
 21
89.81259180084905
 31
0.0
  0
LINE
  5
49A
  8
0
  6
CONTINUOUS
 62
     3
 10
-104.9945762337809
 20
107.8125918008491
 30
0.0
 11
-92.99457623378086
 21
107.8125918008491
 31
0.0
  0
LINE
  5
49B
  8
0
  6
CONTINUOUS
 62
     3
 10
-104.9945762337809
 20
89.81259180084905
 30
0.0
 11
-92.99457623378086
 21
89.81259180084905
 31
0.0
  0
LINE
  5
49C
  8
0
  6
CONTINUOUS
 62
     3
 10
-104.9945762337809
 20
142.8125918008491
 30
0.0
 11
-92.99457623378086
 21
142.8125918008491
 31
0.0
  0
LINE
  5
49D
  8
0
  6
CONTINUOUS
 62
     3
 10
-104.9945762337809
 20
124.8125918008491
 30
0.0
 11
-92.99457623378086
 21
124.8125918008491
 31
0.0
  0
LINE
  5
49E
  8
0
  6
CONTINUOUS
 62
     3
 10
-135.9945762337809
 20
92.81259180084905
 30
0.0
 11
-104.9945762337809
 21
92.81259180084905
 31
0.0
  0
LINE
  5
49F
  8
0
  6
CONTINUOUS
 62
     3
 10
-135.9945762337809
 20
104.8125918008491
 30
0.0
 11
-104.9945762337809
 21
104.8125918008491
 31
0.0
  0
LINE
  5
4A0
  8
0
  6
CONTINUOUS
 62
     3
 10
-135.9945762337809
 20
139.8125918008491
 30
0.0
 11
-104.9945762337809
 21
139.8125918008491
 31
0.0
  0
LINE
  5
4A1
  8
0
  6
CONTINUOUS
 62
     3
 10
-135.9945762337809
 20
127.8125841714545
 30
0.0
 11
-104.9945762337809
 21
127.8125841714545
 31
0.0
  0
CIRCLE
  5
4A2
  8
0
  6
CONTINUOUS
 62
     3
 10
114.8843527206979
 20
60.31256415072421
 30
0.0
 40
3.0
  0
CIRCLE
  5
4A3
  8
0
  6
CONTINUOUS
 62
     3
 10
114.8843527206979
 20
60.31256415072421
 30
0.0
 40
3.0
  0
CIRCLE
  5
4A4
  8
0
  6
CONTINUOUS
 62
     3
 10
114.8844039588675
 20
20.81256415072421
 30
0.0
 40
35.0
  0
CIRCLE
  5
4A5
  8
0
  6
CONTINUOUS
 62
     3
 10
149.0924330274375
 20
1.062608524280655
 30
0.0
 40
3.0
  0
CIRCLE
  5
4A6
  8
0
  6
CONTINUOUS
 62
     3
 10
149.0924330274375
 20
1.062608524280655
 30
0.0
 40
3.0
  0
CIRCLE
  5
4A7
  8
0
  6
CONTINUOUS
 62
     3
 10
80.6764261284669
 20
1.062519777167758
 30
0.0
 40
2.999999999999999
  0
CIRCLE
  5
4A8
  8
0
  6
CONTINUOUS
 62
     3
 10
80.6764261284669
 20
1.062519777167758
 30
0.0
 40
2.999999999999999
  0
LINE
  5
4A9
  8
0
  6
CONTINUOUS
 62
     4
 10
171.9129457668913
 20
0.5888774603791944
 30
0.0
 11
177.1629425780424
 21
9.682137429658383
 31
0.0
  0
LINE
  5
4AA
  8
0
  6
CONTINUOUS
 62
     4
 10
155.6629381076938
 20
-27.55695756832131
 30
0.0
 11
160.9129387335426
 21
-18.46369099179276
 31
0.0
  0
LINE
  5
4AB
  8
0
  6
CONTINUOUS
 62
     4
 10
238.5969044761317
 20
-37.91112052192909
 30
0.0
 11
243.8469012872828
 21
-28.8178605526499
 31
0.0
  0
LINE
  5
4AC
  8
0
  6
CONTINUOUS
 62
     4
 10
222.3468968169342
 20
-66.0569555506296
 30
0.0
 11
227.596897442783
 21
-56.96368897410105
 31
0.0
  0
LINE
  5
4AD
  8
0
  6
CONTINUOUS
 62
     4
 10
237.2978663937705
 20
-37.16112043252213
 30
0.0
 11
242.5478670196193
 21
-28.06785385599358
 31
0.0
  0
LINE
  5
4AE
  8
0
  6
CONTINUOUS
 62
     4
 10
235.9988206820139
 20
-36.41113355761388
 30
0.0
 11
241.2488213078626
 21
-27.31786698108533
 31
0.0
  0
LINE
  5
4AF
  8
0
  6
CONTINUOUS
 62
     4
 10
234.6997975845569
 20
-35.66116854874588
 30
0.0
 11
239.9497982104057
 21
-26.56790197221733
 31
0.0
  0
LINE
  5
4B0
  8
0
  6
CONTINUOUS
 62
     4
 10
233.4007236733973
 20
-34.91113896390323
 30
0.0
 11
238.650724299246
 21
-25.81787238737468
 31
0.0
  0
LINE
  5
4B1
  8
0
  6
CONTINUOUS
 62
     4
 10
232.1016970351292
 20
-34.16111905274818
 30
0.0
 11
237.351697660978
 21
-25.06785247621963
 31
0.0
  0
LINE
  5
4B2
  8
0
  6
CONTINUOUS
 62
     4
 10
221.0478682713173
 20
-65.30693894309923
 30
0.0
 11
226.2978688971661
 21
-56.21367236657068
 31
0.0
  0
LINE
  5
4B3
  8
0
  6
CONTINUOUS
 62
     4
 10
219.748816837514
 20
-64.55696197906502
 30
0.0
 11
224.9988193707117
 21
-55.46369209891179
 31
0.0
  0
LINE
  5
4B4
  8
0
  6
CONTINUOUS
 62
     4
 10
218.449795647406
 20
-63.80699366657234
 30
0.0
 11
223.6997962732547
 21
-54.71372709004379
 31
0.0
  0
LINE
  5
4B5
  8
0
  6
CONTINUOUS
 62
     4
 10
217.1507160141997
 20
-63.05697399260373
 30
0.0
 11
222.4007166400485
 21
-53.96370741607518
 31
0.0
  0
LINE
  5
4B6
  8
0
  6
CONTINUOUS
 62
     4
 10
215.8516950979782
 20
-62.30694417057464
 30
0.0
 11
221.101695723827
 21
-53.21367759404609
 31
0.0
  0
LINE
  5
4B7
  8
0
  6
CONTINUOUS
 62
     4
 10
156.9619838194505
 20
-28.30694444322955
 30
0.0
 11
162.2119844452992
 21
-19.21367786670101
 31
0.0
  0
LINE
  5
4B8
  8
0
  6
CONTINUOUS
 62
     4
 10
158.2610219018117
 20
-29.05694453263652
 30
0.0
 11
163.5110225276604
 21
-19.96367795610797
 31
0.0
  0
LINE
  5
4B9
  8
0
  6
CONTINUOUS
 62
     4
 10
159.5600618915218
 20
-29.80694131841881
 30
0.0
 11
164.8100625173705
 21
-20.71367474189026
 31
0.0
  0
LINE
  5
4BA
  8
0
  6
CONTINUOUS
 62
     4
 10
160.8590829446865
 20
-30.5569403856797
 30
0.0
 11
166.1090835705353
 21
-21.46367380915115
 31
0.0
  0
LINE
  5
4BB
  8
0
  6
CONTINUOUS
 62
     4
 10
162.158085061306
 20
-31.30694173441918
 30
0.0
 11
167.4080856871548
 21
-22.21367515789063
 31
0.0
  0
LINE
  5
4BC
  8
0
  6
CONTINUOUS
 62
     4
 10
173.2119876639503
 20
-0.1611160217784118
 30
0.0
 11
178.461988289799
 21
8.932150554750137
 31
0.0
  0
LINE
  5
4BD
  8
0
  6
CONTINUOUS
 62
     4
 10
174.511018116916
 20
-0.9111293256841009
 30
0.0
 11
179.7610187427648
 21
8.182137250844448
 31
0.0
  0
LINE
  5
4BE
  8
0
  6
CONTINUOUS
 62
     4
 10
175.8100638286727
 20
-1.661116200592346
 30
0.0
 11
181.0600644545215
 21
7.432150375936203
 31
0.0
  0
LINE
  5
4BF
  8
0
  6
CONTINUOUS
 62
     4
 10
177.1090886965352
 20
-2.411108660603873
 30
0.0
 11
182.3590855076863
 21
6.682151308675316
 31
0.0
  0
LINE
  5
4C0
  8
0
  6
CONTINUOUS
 62
     4
 10
178.4080850911081
 20
-3.161119920217402
 30
0.0
 11
183.6580819022592
 21
5.932140049061786
 31
0.0
  0
LINE
  5
4C1
  8
0
  6
CONTINUOUS
 62
     4
 10
93.38440395886752
 20
80.31258549931602
 30
0.0
 11
103.8844039588675
 21
80.31258549931602
 31
0.0
  0
LINE
  5
4C2
  8
0
  6
CONTINUOUS
 62
     4
 10
125.8844039588675
 20
80.31258549931602
 30
0.0
 11
136.3844039588675
 21
80.31258549931602
 31
0.0
  0
LINE
  5
4C3
  8
0
  6
CONTINUOUS
 62
     4
 10
93.38440395886752
 20
157.312585499316
 30
0.0
 11
103.8844039588675
 21
157.312585499316
 31
0.0
  0
LINE
  5
4C4
  8
0
  6
CONTINUOUS
 62
     4
 10
125.8844039588675
 20
157.312585499316
 30
0.0
 11
136.3844039588675
 21
157.312585499316
 31
0.0
  0
LINE
  5
4C5
  8
0
  6
CONTINUOUS
 62
     4
 10
125.8844039588675
 20
81.81258549931602
 30
0.0
 11
136.3844039588675
 21
81.81258549931602
 31
0.0
  0
LINE
  5
4C6
  8
0
  6
CONTINUOUS
 62
     4
 10
125.8844039588675
 20
83.31258549931602
 30
0.0
 11
136.3844039588675
 21
83.31258549931602
 31
0.0
  0
LINE
  5
4C7
  8
0
  6
CONTINUOUS
 62
     4
 10
125.8844039588675
 20
84.81258549931602
 30
0.0
 11
136.3844039588675
 21
84.81258549931602
 31
0.0
  0
LINE
  5
4C8
  8
0
  6
CONTINUOUS
 62
     4
 10
125.8844039588675
 20
86.31258549931602
 30
0.0
 11
136.3844039588675
 21
86.31258549931602
 31
0.0
  0
LINE
  5
4C9
  8
0
  6
CONTINUOUS
 62
     4
 10
125.8844039588675
 20
87.81258549931602
 30
0.0
 11
136.3844039588675
 21
87.81258549931602
 31
0.0
  0
LINE
  5
4CA
  8
0
  6
CONTINUOUS
 62
     4
 10
93.38440395886752
 20
81.81258549931602
 30
0.0
 11
103.8844039588675
 21
81.81258549931602
 31
0.0
  0
LINE
  5
4CB
  8
0
  6
CONTINUOUS
 62
     4
 10
93.38440395886752
 20
83.31258549931602
 30
0.0
 11
103.8844039588675
 21
83.31258549931602
 31
0.0
  0
LINE
  5
4CC
  8
0
  6
CONTINUOUS
 62
     4
 10
93.38440395886752
 20
84.81258549931602
 30
0.0
 11
103.8844039588675
 21
84.81258549931602
 31
0.0
  0
LINE
  5
4CD
  8
0
  6
CONTINUOUS
 62
     4
 10
93.38440395886752
 20
86.31258549931602
 30
0.0
 11
103.8844039588675
 21
86.31258549931602
 31
0.0
  0
LINE
  5
4CE
  8
0
  6
CONTINUOUS
 62
     4
 10
93.38440395886752
 20
87.81258549931602
 30
0.0
 11
103.8844039588675
 21
87.81258549931602
 31
0.0
  0
LINE
  5
4CF
  8
0
  6
CONTINUOUS
 62
     4
 10
93.38440395886752
 20
155.812585499316
 30
0.0
 11
103.8844039588675
 21
155.812585499316
 31
0.0
  0
LINE
  5
4D0
  8
0
  6
CONTINUOUS
 62
     4
 10
93.38440395886752
 20
154.312585499316
 30
0.0
 11
103.8844039588675
 21
154.312585499316
 31
0.0
  0
LINE
  5
4D1
  8
0
  6
CONTINUOUS
 62
     4
 10
93.38440395886752
 20
152.812585499316
 30
0.0
 11
103.8844039588675
 21
152.812585499316
 31
0.0
  0
LINE
  5
4D2
  8
0
  6
CONTINUOUS
 62
     4
 10
93.38440395886752
 20
151.312585499316
 30
0.0
 11
103.8844039588675
 21
151.312585499316
 31
0.0
  0
LINE
  5
4D3
  8
0
  6
CONTINUOUS
 62
     4
 10
93.38440395886752
 20
149.812585499316
 30
0.0
 11
103.8844039588675
 21
149.812585499316
 31
0.0
  0
LINE
  5
4D4
  8
0
  6
CONTINUOUS
 62
     4
 10
125.8844039588675
 20
155.812585499316
 30
0.0
 11
136.3844039588675
 21
155.812585499316
 31
0.0
  0
LINE
  5
4D5
  8
0
  6
CONTINUOUS
 62
     4
 10
125.8844039588675
 20
154.312585499316
 30
0.0
 11
136.3844039588675
 21
154.312585499316
 31
0.0
  0
LINE
  5
4D6
  8
0
  6
CONTINUOUS
 62
     4
 10
125.8844039588675
 20
152.812585499316
 30
0.0
 11
136.3844039588675
 21
152.812585499316
 31
0.0
  0
LINE
  5
4D7
  8
0
  6
CONTINUOUS
 62
     4
 10
125.8844039588675
 20
151.312585499316
 30
0.0
 11
136.3844039588675
 21
151.312585499316
 31
0.0
  0
LINE
  5
4D8
  8
0
  6
CONTINUOUS
 62
     4
 10
125.8844039588675
 20
149.812585499316
 30
0.0
 11
136.3844039588675
 21
149.812585499316
 31
0.0
  0
CIRCLE
  5
4D9
  8
0
  6
CONTINUOUS
 62
     4
 10
114.8844039588675
 20
20.81258549931602
 30
0.0
 40
44.20000076293945
  0
CIRCLE
  5
4DA
  8
0
  6
CONTINUOUS
 62
     4
 10
114.8844039588675
 20
-39.18741450068399
 30
0.0
 40
3.150000095367432
  0
CIRCLE
  5
4DB
  8
0
  6
CONTINUOUS
 62
     4
 10
114.8844039588675
 20
-39.18741450068399
 30
0.0
 40
4.0
  0
ARC
  5
4DC
  8
0
  6
CONTINUOUS
 62
     4
 10
114.8844039588675
 20
20.81258549931602
 30
0.0
 40
57.0
 50
114.901075878593
 51
129.2199800772561
  0
ARC
  5
4DD
  8
0
  6
CONTINUOUS
 62
     4
 10
114.8844039588675
 20
20.81258549931602
 30
0.0
 40
57.0
 50
234.9010282188495
 51
249.2199460778909
  0
ARC
  5
4DE
  8
0
  6
CONTINUOUS
 62
     4
 10
114.8844039588675
 20
20.81258549931602
 30
0.0
 40
57.0
 50
354.9010776619306
 51
369.2199673464417
  0
ARC
  5
4DF
  8
0
  6
CONTINUOUS
 62
     4
 10
114.8844039588675
 20
20.81258549931602
 30
0.0
 40
63.0
 50
112.3927025662841
 51
125.3552951203228
  0
ARC
  5
4E0
  8
0
  6
CONTINUOUS
 62
     4
 10
114.8844039588675
 20
20.81258549931602
 30
0.0
 40
69.0
 50
110.3544238537906
 51
125.4753015440399
  0
ARC
  5
4E1
  8
0
  6
CONTINUOUS
 62
     4
 10
114.8844039588675
 20
20.81258549931602
 30
0.0
 40
75.0
 50
108.6629411662152
 51
128.5684483323285
  0
ARC
  5
4E2
  8
0
  6
CONTINUOUS
 62
     4
 10
114.8844039588675
 20
20.81258549931602
 30
0.0
 40
81.0
 50
107.2353018560883
 51
192.8388345352343
  0
ARC
  5
4E3
  8
0
  6
CONTINUOUS
 62
     4
 10
114.8844039588675
 20
20.81258549931602
 30
0.0
 40
87.0
 50
106.0134151645189
 51
194.1893268586859
  0
ARC
  5
4E4
  8
0
  6
CONTINUOUS
 62
     4
 10
114.8844039588675
 20
20.81258549931602
 30
0.0
 40
93.0
 50
104.9552685979222
 51
195.4152638524332
  0
ARC
  5
4E5
  8
0
  6
CONTINUOUS
 62
     4
 10
114.8844039588675
 20
20.81258549931602
 30
0.0
 40
99.0
 50
104.0296823427371
 51
195.9669245713168
  0
ARC
  5
4E6
  8
0
  6
CONTINUOUS
 62
     4
 10
114.8844039588675
 20
20.81258549931602
 30
0.0
 40
105.0
 50
103.2129966236787
 51
197.0409718183013
  0
ARC
  5
4E7
  8
0
  6
CONTINUOUS
 62
     4
 10
114.8844039588675
 20
20.81258549931602
 30
0.0
 40
63.0
 50
352.3927009345272
 51
365.3552742786588
  0
ARC
  5
4E8
  8
0
  6
CONTINUOUS
 62
     4
 10
114.8844039588675
 20
20.81258549931602
 30
0.0
 40
69.0
 50
350.3544179531654
 51
365.47528283681
  0
ARC
  5
4E9
  8
0
  6
CONTINUOUS
 62
     4
 10
114.8844039588675
 20
20.81258549931602
 30
0.0
 40
75.0
 50
348.6629352655901
 51
368.5684330401933
  0
ARC
  5
4EA
  8
0
  6
CONTINUOUS
 62
     4
 10
114.8844039588675
 20
20.81258549931602
 30
0.0
 40
81.0
 50
347.2352959554632
 51
433.0205483787983
  0
ARC
  5
4EB
  8
0
  6
CONTINUOUS
 62
     4
 10
114.8844039588675
 20
20.81258549931602
 30
0.0
 40
87.0
 50
346.0134058487992
 51
434.3547916822145
  0
ARC
  5
4EC
  8
0
  6
CONTINUOUS
 62
     4
 10
114.8844039588675
 20
20.81258549931602
 30
0.0
 40
93.0
 50
344.9552567208815
 51
435.4988142172458
  0
ARC
  5
4ED
  8
0
  6
CONTINUOUS
 62
     4
 10
114.8844039588675
 20
20.81258549931602
 30
0.0
 40
99.0
 50
344.0296755883383
 51
436.3142705022536
  0
ARC
  5
4EE
  8
0
  6
CONTINUOUS
 62
     4
 10
114.8844039588675
 20
20.81258549931602
 30
0.0
 40
105.0
 50
343.2129898692799
 51
437.0973926717306
  0
ARC
  5
4EF
  8
0
  6
CONTINUOUS
 62
     4
 10
114.8844039588675
 20
20.81258549931602
 30
0.0
 40
63.0
 50
232.3926549065406
 51
245.3552474605793
  0
ARC
  5
4F0
  8
0
  6
CONTINUOUS
 62
     4
 10
114.8844039588675
 20
20.81258549931602
 30
0.0
 40
69.0
 50
230.3543761940471
 51
245.4752607144856
  0
ARC
  5
4F1
  8
0
  6
CONTINUOUS
 62
     4
 10
114.8844039588675
 20
20.81258549931602
 30
0.0
 40
75.0
 50
228.6628935064718
 51
248.5684143329634
  0
ARC
  5
4F2
  8
0
  6
CONTINUOUS
 62
     4
 10
114.8844039588675
 20
20.81258549931602
 30
0.0
 40
57.0
 50
260.78002075757
 51
265.4824420765837
  0
ARC
  5
4F3
  8
0
  6
CONTINUOUS
 62
     4
 10
114.8844039588675
 20
20.81258549931602
 30
0.0
 40
57.0
 50
290.7800420829636
 51
305.0989531118158
  0
ARC
  5
4F4
  8
0
  6
CONTINUOUS
 62
     4
 10
114.8844039588675
 20
20.81258549931602
 30
0.0
 40
63.0
 50
294.6447270398969
 51
307.6073264241247
  0
ARC
  5
4F5
  8
0
  6
CONTINUOUS
 62
     4
 10
114.8844039588675
 20
20.81258549931602
 30
0.0
 40
69.0
 50
294.5247274463689
 51
309.6456085517128
  0
ARC
  5
4F6
  8
0
  6
CONTINUOUS
 62
     4
 10
114.8844039588675
 20
20.81258549931602
 30
0.0
 40
69.0
 50
264.5247061209753
 51
275.47527520969
  0
ARC
  5
4F7
  8
0
  6
CONTINUOUS
 62
     4
 10
114.8844039588675
 20
20.81258549931602
 30
0.0
 40
75.0
 50
261.4315525024975
 51
278.5684288281678
  0
ARC
  5
4F8
  8
0
  6
CONTINUOUS
 62
     4
 10
114.8844039588675
 20
20.81258549931602
 30
0.0
 40
75.0
 50
291.4315738278911
 51
311.3370878241935
  0
ARC
  5
4F9
  8
0
  6
CONTINUOUS
 62
     4
 10
114.8844039588675
 20
20.81258549931602
 30
0.0
 40
81.0
 50
227.5809369004284
 51
312.7647305494151
  0
ARC
  5
4FA
  8
0
  6
CONTINUOUS
 62
     4
 10
114.8844039588675
 20
20.81258549931602
 30
0.0
 40
87.0
 50
226.1968946877737
 51
313.9866138258899
  0
ARC
  5
4FB
  8
0
  6
CONTINUOUS
 62
     4
 10
114.8844039588675
 20
20.81258549931602
 30
0.0
 40
93.0
 50
224.9780610907633
 51
315.0447638075812
  0
ARC
  5
4FC
  8
0
  6
CONTINUOUS
 62
     4
 10
114.8844039588675
 20
20.81258549931602
 30
0.0
 40
99.0
 50
223.7366605487351
 51
315.9703432325771
  0
ARC
  5
4FD
  8
0
  6
CONTINUOUS
 62
     4
 10
114.8844039588675
 20
20.81258549931602
 30
0.0
 40
105.0
 50
222.9571173983832
 51
316.7870289516355
  0
ARC
  5
4FE
  8
0
  6
CONTINUOUS
 62
     4
 10
114.8844039588675
 20
20.81258549931602
 30
0.0
 40
57.0
 50
274.5175392540816
 51
279.2199605730953
  0
CIRCLE
  5
4FF
  8
0
  6
CONTINUOUS
 62
     4
 10
62.92289425427762
 20
50.81261601689414
 30
0.0
 40
3.150000095367432
  0
CIRCLE
  5
500
  8
0
  6
CONTINUOUS
 62
     4
 10
166.8459212928518
 20
50.81258549931602
 30
0.0
 40
3.150000095367432
  0
CIRCLE
  5
501
  8
0
  6
CONTINUOUS
 62
     4
 10
166.8459212928518
 20
50.81258549931602
 30
0.0
 40
4.0
  0
CIRCLE
  5
502
  8
0
  6
CONTINUOUS
 62
     4
 10
62.92289425427762
 20
50.81261601689414
 30
0.0
 40
4.0
  0
ARC
  5
503
  8
0
  6
CONTINUOUS
 62
     4
 10
114.8844039588675
 20
20.81258549931602
 30
0.0
 40
75.0
 50
141.4315933320518
 51
158.5684559973438
  0
ARC
  5
504
  8
0
  6
CONTINUOUS
 62
     4
 10
114.8844039588675
 20
20.81258549931602
 30
0.0
 40
69.0
 50
144.5247401203405
 51
155.4753092090551
  0
ARC
  5
505
  8
0
  6
CONTINUOUS
 62
     4
 10
114.8844039588675
 20
20.81258549931602
 30
0.0
 40
57.0
 50
140.7800615871243
 51
145.4824555853813
  0
ARC
  5
506
  8
0
  6
CONTINUOUS
 62
     4
 10
114.8844039588675
 20
20.81258549931602
 30
0.0
 40
57.0
 50
154.5175254421226
 51
159.2200014026496
  0
ARC
  5
507
  8
0
  6
CONTINUOUS
 62
     4
 10
114.8844039588675
 20
20.81258549931602
 30
0.0
 40
57.0
 50
170.7800692521395
 51
185.0988914885326
  0
ARC
  5
508
  8
0
  6
CONTINUOUS
 62
     4
 10
114.8844039588675
 20
20.81258549931602
 30
0.0
 40
63.0
 50
174.6447678694512
 51
187.6072648008414
  0
ARC
  5
509
  8
0
  6
CONTINUOUS
 62
     4
 10
114.8844039588675
 20
20.81258549931602
 30
0.0
 40
69.0
 50
174.524761445734
 51
189.645543513335
  0
ARC
  5
50A
  8
0
  6
CONTINUOUS
 62
     4
 10
114.8844039588675
 20
20.81258549931602
 30
0.0
 40
75.0
 50
171.4316009970671
 51
191.3370262009103
  0
ARC
  5
50B
  8
0
  6
CONTINUOUS
 62
     4
 10
114.8844039588675
 20
20.81258549931602
 30
0.0
 40
57.0
 50
20.78004287989444
 51
25.48246761400273
  0
ARC
  5
50C
  8
0
  6
CONTINUOUS
 62
     4
 10
114.8844039588675
 20
20.81258549931602
 30
0.0
 40
69.0
 50
24.52472653575249
 51
35.47527513389962
  0
ARC
  5
50D
  8
0
  6
CONTINUOUS
 62
     4
 10
114.8844039588675
 20
20.81258549931602
 30
0.0
 40
75.0
 50
21.43157462482196
 51
38.56842192218826
  0
ARC
  5
50E
  8
0
  6
CONTINUOUS
 62
     4
 10
114.8844039588675
 20
20.81258549931602
 30
0.0
 40
57.0
 50
34.51752551791293
 51
39.21995708221039
  0
ARC
  5
50F
  8
0
  6
CONTINUOUS
 62
     4
 10
114.8844039588675
 20
20.81258549931602
 30
0.0
 40
57.0
 50
50.78003176188945
 51
65.09893596055257
  0
ARC
  5
510
  8
0
  6
CONTINUOUS
 62
     4
 10
114.8844039588675
 20
20.81258549931602
 30
0.0
 40
63.0
 50
54.64472696410652
 51
67.60731610305059
  0
ARC
  5
511
  8
0
  6
CONTINUOUS
 62
     4
 10
114.8844039588675
 20
20.81258549931602
 30
0.0
 40
69.0
 50
54.52472054038937
 51
69.64559481554412
  0
ARC
  5
512
  8
0
  6
CONTINUOUS
 62
     4
 10
114.8844039588675
 20
20.81258549931602
 30
0.0
 40
75.0
 50
51.43157033700614
 51
71.33707750311943
  0
CIRCLE
  5
513
  8
0
  6
CONTINUOUS
 62
     4
 10
114.8843527206979
 20
60.31256415072421
 30
0.0
 40
2.5
  0
CIRCLE
  5
514
  8
0
  6
CONTINUOUS
 62
     4
 10
149.0924330274375
 20
1.062608524280655
 30
0.0
 40
2.5
  0
CIRCLE
  5
515
  8
0
  6
CONTINUOUS
 62
     4
 10
80.6764261284669
 20
1.062519777167758
 30
0.0
 40
2.499999999999999
  0
LINE
  5
516
  8
0
  6
CONTINUOUS
 62
     4
 10
-142.9945762337809
 20
65.01258874909124
 30
0.0
 11
-132.9945762337809
 21
65.01258874909124
 31
0.0
  0
LINE
  5
517
  8
0
  6
CONTINUOUS
 62
     4
 10
-142.9945762337809
 20
-23.3874089620904
 30
0.0
 11
-132.9945762337809
 21
-23.3874089620904
 31
0.0
  0
LINE
  5
518
  8
0
  6
CONTINUOUS
 62
     4
 10
-161.9945762337809
 20
-0.9374089144066815
 30
0.0
 11
-161.9945762337809
 21
-14.18740915282526
 31
0.0
  0
LINE
  5
519
  8
0
  6
CONTINUOUS
 62
     4
 10
-191.9945762337809
 20
-0.9374089144066815
 30
0.0
 11
-191.9945762337809
 21
-14.18740915282526
 31
0.0
  0
LINE
  5
51A
  8
0
  6
CONTINUOUS
 62
     4
 10
-191.9945762337809
 20
55.81259180084906
 30
0.0
 11
-191.9945762337809
 21
42.56259180084906
 31
0.0
  0
LINE
  5
51B
  8
0
  6
CONTINUOUS
 62
     4
 10
-161.9945762337809
 20
55.81259180084906
 30
0.0
 11
-161.9945762337809
 21
42.56259180084906
 31
0.0
  0
LINE
  5
51C
  8
0
  6
CONTINUOUS
 62
     4
 10
-116.9945762337809
 20
85.81259180084905
 30
0.0
 11
-116.9945762337809
 21
78.81259180084905
 31
0.0
  0
LINE
  5
51D
  8
0
  6
CONTINUOUS
 62
     4
 10
-117.9945762337809
 20
85.81259180084905
 30
0.0
 11
-117.9945762337809
 21
78.81259180084905
 31
0.0
  0
LINE
  5
51E
  8
0
  6
CONTINUOUS
 62
     4
 10
-116.9945762337809
 20
158.8125918008491
 30
0.0
 11
-116.9945762337809
 21
146.8125918008491
 31
0.0
  0
LINE
  5
51F
  8
0
  6
CONTINUOUS
 62
     4
 10
-117.9945762337809
 20
158.8125918008491
 30
0.0
 11
-117.9945762337809
 21
146.8125918008491
 31
0.0
  0
LINE
  5
520
  8
0
  6
CONTINUOUS
 62
     4
 10
-130.9945762337809
 20
-35.18740819915094
 30
0.0
 11
-130.9945762337809
 21
-43.18740819915094
 31
0.0
  0
LINE
  5
521
  8
0
  6
CONTINUOUS
 62
     4
 10
-130.9945762337809
 20
-43.18740819915094
 30
0.0
 11
-115.9945762337809
 21
-43.18740819915094
 31
0.0
  0
LINE
  5
522
  8
0
  6
CONTINUOUS
 62
     4
 10
-130.9945762337809
 20
-35.18740819915094
 30
0.0
 11
-115.9945762337809
 21
-35.18740819915094
 31
0.0
  0
LINE
  5
523
  8
0
  6
CONTINUOUS
 62
     4
 10
-142.9945762337809
 20
62.81259180084905
 30
0.0
 11
-132.9945762337809
 21
62.81259180084905
 31
0.0
  0
LINE
  5
524
  8
0
  6
CONTINUOUS
 62
     4
 10
-142.9945762337809
 20
57.81259180084905
 30
0.0
 11
-132.9945762337809
 21
57.81259180084905
 31
0.0
  0
LINE
  5
525
  8
0
  6
CONTINUOUS
 62
     4
 10
-135.9945762337809
 20
138.9625856973334
 30
0.0
 11
-104.9945762337809
 21
138.9625856973334
 31
0.0
  0
LINE
  5
526
  8
0
  6
CONTINUOUS
 62
     4
 10
-135.9945762337809
 20
128.6625902749701
 30
0.0
 11
-104.9945762337809
 21
128.6625902749701
 31
0.0
  0
LINE
  5
527
  8
0
  6
CONTINUOUS
 62
     4
 10
-135.9945762337809
 20
93.66259027497014
 30
0.0
 11
-104.9945762337809
 21
93.66259027497014
 31
0.0
  0
LINE
  5
528
  8
0
  6
CONTINUOUS
 62
     4
 10
-135.9945762337809
 20
103.962593326728
 30
0.0
 11
-104.9945762337809
 21
103.962593326728
 31
0.0
  0
LINE
  5
529
  8
0
  6
CONTINUOUS
 62
     5
 10
207.6707935866417
 20
90.06263633099366
 30
0.0
 11
209.9207955088903
 21
86.16551659203049
 31
0.0
  0
LINE
  5
52A
  8
0
  6
CONTINUOUS
 62
     5
 10
208.6952963000798
 20
89.78815531811063
 30
0.0
 11
207.6707835259089
 21
90.06267278571579
 31
0.0
  0
LINE
  5
52B
  8
0
  6
CONTINUOUS
 62
     5
 10
207.3963181083017
 20
89.03810339416862
 30
0.0
 11
207.6708393671214
 21
90.06263090719779
 31
0.0
  0
LINE
  5
52C
  8
0
  6
CONTINUOUS
 62
     5
 10
209.9208768178722
 20
86.16549538124502
 30
0.0
 11
210.195398076692
 21
87.19002289427419
 31
0.0
  0
LINE
  5
52D
  8
0
  6
CONTINUOUS
 62
     5
 10
209.9207949740561
 20
86.16555942299613
 30
0.0
 11
208.8962674610269
 21
86.44008083986785
 31
0.0
  0
LINE
  5
52E
  8
0
  6
CONTINUOUS
 62
     5
 10
200.8005825470101
 20
86.96216095949978
 30
0.0
 11
213.7909651587617
 21
94.46215783025593
 31
0.0
  0
LINE
  5
52F
  8
0
  6
CONTINUOUS
 62
     5
 10
206.1567342883458
 20
96.4366314621667
 30
0.0
 11
205.3900234987626
 21
95.81576154364404
 31
0.0
  0
LINE
  5
530
  8
0
  6
CONTINUOUS
 62
     5
 10
206.1567505385164
 20
96.43664381538076
 30
0.0
 11
205.5358901050521
 21
97.20334262904873
 31
0.0
  0
LINE
  5
531
  8
0
  6
CONTINUOUS
 62
     5
 10
213.7909651587617
 20
94.46215783025593
 30
0.0
 11
210.0409657697097
 21
100.9573507879443
 31
0.0
  0
LINE
  5
532
  8
0
  6
CONTINUOUS
 62
     5
 10
197.0505879263277
 20
93.45734565812529
 30
0.0
 11
210.0409705380793
 21
100.9573425288814
 31
0.0
  0
LINE
  5
533
  8
0
  6
CONTINUOUS
 62
     5
 10
200.8005854080319
 20
86.96215600406208
 30
0.0
 11
195.1755877549648
 21
96.70494296287575
 31
0.0
  0
LINE
  5
534
  8
0
  6
CONTINUOUS
 62
     5
 10
195.1755882318017
 20
96.70494213696946
 30
0.0
 11
197.1241456235644
 21
97.82994166758289
 31
0.0
  0
LINE
  5
535
  8
0
  6
CONTINUOUS
 62
     5
 10
197.6866496804038
 20
96.85565553854497
 30
0.0
 11
197.1241537297928
 21
97.82992762717606
 31
0.0
  0
LINE
  5
536
  8
0
  6
CONTINUOUS
 62
     5
 10
197.6866453888712
 20
96.85566297170152
 30
0.0
 11
198.9856836500463
 21
97.60566265877714
 31
0.0
  0
LINE
  5
537
  8
0
  6
CONTINUOUS
 62
     5
 10
199.5481697240155
 20
96.6313771594107
 30
0.0
 11
198.9856699587088
 21
97.60565585529207
 31
0.0
  0
LINE
  5
538
  8
0
  6
CONTINUOUS
 62
     5
 10
199.5482018750601
 20
96.63138250731799
 30
0.0
 11
200.8472401362353
 21
97.38138219439361
 31
0.0
  0
LINE
  5
539
  8
0
  6
CONTINUOUS
 62
     5
 10
201.5972076722663
 20
96.08233858531116
 30
0.0
 11
200.8472079851907
 21
97.38137684648632
 31
0.0
  0
LINE
  5
53A
  8
0
  6
CONTINUOUS
 62
     5
 10
201.7211711677864
 20
98.86772339698666
 30
0.0
 11
201.9956924266061
 21
99.89225091001583
 31
0.0
  0
LINE
  5
53B
  8
0
  6
CONTINUOUS
 62
     5
 10
199.4325385577702
 20
98.41243696473231
 30
0.0
 11
201.9956495116892
 21
99.89224896937668
 31
0.0
  0
LINE
  5
53C
  8
0
  6
CONTINUOUS
 62
     5
 10
201.9956525201964
 20
99.89229003521416
 30
0.0
 11
200.9711397460254
 21
100.1668075028193
 31
0.0
  0
ARC
  5
53D
  8
0
  6
CONTINUOUS
 62
     5
 10
205.4773299842581
 20
93.90105595830039
 30
0.0
 40
2.625001907348633
 50
75.00008746442975
 51
369.9999260571885
  0
TEXT
  5
53E
  8
0
 62
     5
 10
231.5690715396608
 20
55.79600003671883
 30
0.0
 40
3.0
  1
F MAX   30KN
 50
120.0
 41
0.7991006890253238
  7
FDASTYLE1
 72
     5
 11
217.185259137205
 21
80.70949392431169
 31
0.0
  0
TEXT
  5
53F
  8
0
 62
     5
 10
235.8992106998171
 20
58.29600003671884
 30
0.0
 40
3.0
  1
ΣS MAX 117KN
 50
120.0
 41
0.7910609221164364
  7
FDASTYLE1
 72
     5
 11
221.4227958250864
 21
83.36988611119841
 31
0.0
  0
TEXT
  5
540
  8
0
 62
     5
 10
240.2293498599733
 20
60.79600003671884
 30
0.0
 40
3.0
  1
N MAX 3400 AT ΣS MAX
 50
120.0
 41
0.7957580761047238
  7
FDASTYLE1
 72
     5
 11
216.1178801540002
 21
102.5582906126221
 31
0.0
  0
TEXT
  5
541
  8
0
 62
     5
 10
207.6447587207048
 20
86.34794643064539
 30
0.0
 40
2.5
  1
F
 50
120.0
 41
0.8791213035583498
  7
FDASTYLE1
 72
     5
 11
206.5458570912569
 21
88.25129988536945
 31
0.0
  0
TEXT
  5
542
  8
0
 62
     5
 10
210.2595079138963
 20
96.85728427394392
 30
0.0
 40
2.5
  1
N min
 50
120.0
 41
0.7983872809842211
  7
FDASTYLE1
 72
     5
 11
205.269587407745
 21
105.5000801163279
 31
0.0
  0
TEXT
  5
543
  8
0
 62
     5
 10
202.2502321952206
 20
107.1720642227471
 30
0.0
 40
1.25
  1
-1
 50
120.0
 41
0.7826089106345529
  7
FDASTYLE1
 72
     5
 11
201.2719710569274
 21
108.8664622173411
 31
0.0
  0
TEXT
  5
544
  8
0
 62
     5
 10
200.9899888232438
 20
101.2792437328915
 30
0.0
 40
2.5
  1
ΣS
 50
120.0
 41
0.8718556116435173
  7
FDASTYLE1
 72
     5
 11
198.5923858912241
 21
105.4320138275257
 31
0.0
  0
TEXT
  5
545
  8
0
 62
     5
 10
86.09868873650876
 20
-99.68741450068399
 30
0.0
 40
5.0
  1
NIKKO
 41
0.767442115904438
  7
FDASTYLE1
 72
     5
 11
105.2847416341197
 21
-99.68741450068399
 31
0.0
  0
TEXT
  5
546
  8
0
 62
     5
 10
117.4558088927969
 20
-99.18741450068399
 30
0.0
 40
4.0
  1
 HF3-12
 41
0.7704920544480066
  7
FDASTYLE1
 72
     5
 11
139.0295864173411
 21
-99.18741450068399
 31
0.0
  0
TEXT
  5
547
  8
0
 62
     5
 10
117.8129520564779
 20
-105.687414500684
 30
0.0
 40
3.0
  1
 0001
 41
0.7674420500137302
  7
FDASTYLE1
 72
     5
 11
129.3245828066839
 21
-105.687414500684
 31
0.0
  0
INSERT
  5
548
  8
LAYER0014
  6
CONTINUOUS
  2
DC_GROUP_1
 10
0.0
 20
0.0
 30
0.0
  0
INSERT
  5
549
  8
LAYER0014
  6
CONTINUOUS
  2
DC_GROUP_4
 10
0.0
 20
0.0
 30
0.0
  0
INSERT
  5
54A
  8
LAYER0014
  6
CONTINUOUS
  2
DC_GROUP_7
 10
0.0
 20
0.0
 30
0.0
  0
INSERT
  5
54B
  8
LAYER0014
  6
CONTINUOUS
  2
DC_GROUP_10
 10
0.0
 20
0.0
 30
0.0
  0
INSERT
  5
54C
  8
LAYER0014
  6
CONTINUOUS
  2
DC_GROUP_13
 10
0.0
 20
0.0
 30
0.0
  0
INSERT
  5
54D
  8
LAYER0014
  6
CONTINUOUS
  2
DC_GROUP_16
 10
0.0
 20
0.0
 30
0.0
  0
INSERT
  5
54E
  8
LAYER0014
  6
CONTINUOUS
  2
DC_GROUP_18
 10
0.0
 20
0.0
 30
0.0
  0
INSERT
  5
54F
  8
LAYER0014
  6
CONTINUOUS
  2
DC_GROUP_20
 10
0.0
 20
0.0
 30
0.0
  0
INSERT
  5
550
  8
LAYER0014
  6
CONTINUOUS
  2
DC_GROUP_23
 10
0.0
 20
0.0
 30
0.0
  0
INSERT
  5
551
  8
LAYER0014
  6
CONTINUOUS
  2
DC_GROUP_26
 10
0.0
 20
0.0
 30
0.0
  0
INSERT
  5
552
  8
LAYER0014
  6
CONTINUOUS
  2
DC_GROUP_29
 10
0.0
 20
0.0
 30
0.0
  0
INSERT
  5
553
  8
LAYER0014
  6
CONTINUOUS
  2
DC_GROUP_32
 10
0.0
 20
0.0
 30
0.0
  0
INSERT
  5
554
  8
LAYER0014
  6
CONTINUOUS
  2
DC_GROUP_35
 10
0.0
 20
0.0
 30
0.0
  0
INSERT
  5
555
  8
LAYER0014
  6
CONTINUOUS
  2
DC_GROUP_38
 10
0.0
 20
0.0
 30
0.0
  0
INSERT
  5
556
  8
LAYER0014
  6
CONTINUOUS
  2
DC_GROUP_41
 10
0.0
 20
0.0
 30
0.0
  0
INSERT
  5
557
  8
LAYER0014
  6
CONTINUOUS
  2
DC_GROUP_43
 10
0.0
 20
0.0
 30
0.0
  0
INSERT
  5
558
  8
LAYER0014
  6
CONTINUOUS
  2
DC_GROUP_46
 10
0.0
 20
0.0
 30
0.0
  0
INSERT
  5
559
  8
LAYER0014
  6
CONTINUOUS
  2
DC_GROUP_49
 10
0.0
 20
0.0
 30
0.0
  0
INSERT
  5
55A
  8
LAYER0014
  6
CONTINUOUS
  2
DC_GROUP_52
 10
0.0
 20
0.0
 30
0.0
  0
INSERT
  5
55B
  8
LAYER0014
  6
CONTINUOUS
  2
DC_GROUP_55
 10
0.0
 20
0.0
 30
0.0
  0
INSERT
  5
55C
  8
LAYER0014
  6
CONTINUOUS
  2
DC_GROUP_57
 10
0.0
 20
0.0
 30
0.0
  0
INSERT
  5
55D
  8
LAYER0014
  6
CONTINUOUS
  2
DC_GROUP_60
 10
0.0
 20
0.0
 30
0.0
  0
INSERT
  5
55E
  8
LAYER0014
  6
CONTINUOUS
  2
DC_GROUP_63
 10
0.0
 20
0.0
 30
0.0
  0
INSERT
  5
55F
  8
LAYER0014
  6
CONTINUOUS
  2
DC_GROUP_65
 10
0.0
 20
0.0
 30
0.0
  0
INSERT
  5
560
  8
LAYER0014
  6
CONTINUOUS
  2
DC_GROUP_68
 10
0.0
 20
0.0
 30
0.0
  0
INSERT
  5
561
  8
LAYER0014
  6
CONTINUOUS
  2
DC_GROUP_70
 10
0.0
 20
0.0
 30
0.0
  0
INSERT
  5
562
  8
LAYER0014
  6
CONTINUOUS
  2
DC_GROUP_73
 10
0.0
 20
0.0
 30
0.0
  0
INSERT
  5
563
  8
LAYER0014
  6
CONTINUOUS
  2
DC_GROUP_74
 10
0.0
 20
0.0
 30
0.0
  0
INSERT
  5
564
  8
LAYER0014
  6
CONTINUOUS
  2
DC_GROUP_75
 10
0.0
 20
0.0
 30
0.0
  0
INSERT
  5
565
  8
LAYER0014
  6
CONTINUOUS
  2
DC_GROUP_76
 10
0.0
 20
0.0
 30
0.0
  0
LINE
  5
566
  8
0
  6
CONTINUOUS
 62
     6
 10
-88.1814506234293
 20
-142.6767180895512
 30
0.0
 11
52.82865289931789
 21
-142.6767180895512
 31
0.0
  0
LINE
  5
567
  8
0
  6
CONTINUOUS
 62
     6
 10
-88.1814506234293
 20
-135.6178191637699
 30
0.0
 11
52.82865289931789
 21
-135.6178191637699
 31
0.0
  0
LINE
  5
568
  8
0
  6
CONTINUOUS
 62
     6
 10
-88.1814506234293
 20
-128.5589507555668
 30
0.0
 11
52.82865289931789
 21
-128.5589507555668
 31
0.0
  0
LINE
  5
569
  8
0
  6
CONTINUOUS
 62
     6
 10
-86.60121228114414
 20
-121.5000747179691
 30
0.0
 11
-66.26665951625157
 21
-121.5000747179691
 31
0.0
  0
LINE
  5
56A
  8
0
  6
CONTINUOUS
 62
     6
 10
-88.1814506234293
 20
-149.7355864977543
 30
0.0
 11
52.82865289931789
 21
-149.7355864977543
 31
0.0
  0
LINE
  5
56B
  8
0
  6
CONTINUOUS
 62
     6
 10
-88.1814506234293
 20
-156.7944701647465
 30
0.0
 11
52.82865289931789
 21
-156.7944701647465
 31
0.0
  0
LINE
  5
56C
  8
0
  6
CONTINUOUS
 62
     6
 10
-88.1814506234293
 20
-163.8533538317387
 30
0.0
 11
52.82865289931789
 21
-163.8533538317387
 31
0.0
  0
LINE
  5
56D
  8
0
  6
CONTINUOUS
 62
     6
 10
-88.1814506234293
 20
-170.9122374987309
 30
0.0
 11
52.82865289931789
 21
-170.9122374987309
 31
0.0
  0
LINE
  5
56E
  8
0
  6
CONTINUOUS
 62
     6
 10
-88.1814506234293
 20
-177.971105906934
 30
0.0
 11
52.82865289931789
 21
-177.971105906934
 31
0.0
  0
LINE
  5
56F
  8
0
  6
DIVIDE
 62
     9
 10
-192.9945762337809
 20
-39.86241125090876
 30
0.0
 11
-192.9945762337809
 21
-51.86241125090876
 31
0.0
  0
LINE
  5
570
  8
0
  6
DIVIDE
 62
     9
 10
-228.9945762337809
 20
-39.86241125090876
 30
0.0
 11
-228.9945762337809
 21
-51.86241125090876
 31
0.0
  0
LINE
  5
571
  8
0
  6
DIVIDE
 62
     9
 10
-125.1307609261637
 20
71.81259180084905
 30
0.0
 11
-118.9945762337809
 21
71.81259180084905
 31
0.0
  0
LINE
  5
572
  8
0
  6
DIVIDE
 62
     9
 10
-117.994575974757
 20
70.81259328236112
 30
0.0
 11
-118.9945770363465
 21
71.81259434395062
 31
0.0
  0
LINE
  5
573
  8
0
  6
DIVIDE
 62
     9
 10
-210.9945695040485
 20
70.81259058496286
 30
0.0
 11
-209.994568442459
 21
71.81259164655236
 31
0.0
  0
LINE
  5
574
  8
0
  6
DIVIDE
 62
     9
 10
-210.9945762337809
 20
70.81259180084905
 30
0.0
 11
-210.9945762337809
 21
28.18320489899359
 31
0.0
  0
LINE
  5
575
  8
0
  6
DIVIDE
 62
     9
 10
-117.9945762337809
 20
70.81259180084905
 30
0.0
 11
-117.9945762337809
 21
28.84987283722601
 31
0.0
  0
LINE
  5
576
  8
0
  6
DIVIDE
 62
     9
 10
-228.9945762337809
 20
-39.86241125090876
 30
0.0
 11
-171.8237235726481
 21
-39.86241125090876
 31
0.0
  0
LINE
  5
577
  8
0
  6
DIVIDE
 62
     9
 10
-228.9945762337809
 20
-51.86241125090876
 30
0.0
 11
-168.7877586068278
 21
-51.86241125090876
 31
0.0
  0
LINE
  5
578
  8
0
  6
DIVIDE
 62
     9
 10
-228.9945762337809
 20
-40.86241125090876
 30
0.0
 11
-192.9945762337809
 21
-40.86241125090876
 31
0.0
  0
LINE
  5
579
  8
0
  6
DIVIDE
 62
     9
 10
-228.9945762337809
 20
-50.86241125090876
 30
0.0
 11
-192.9945762337809
 21
-50.86241125090876
 31
0.0
  0
LINE
  5
57A
  8
LAYER0014
  6
CONTINUOUS
 62
     7
 10
-208.2945792855387
 20
171.9435732461616
 30
0.0
 11
-238.9952476204996
 21
171.9435732461616
 31
0.0
  0
LINE
  5
57B
  8
LAYER0014
  6
CONTINUOUS
 62
     7
 10
-208.2945792855387
 20
150.852591800849
 30
0.0
 11
-208.2945792855387
 21
174.22956872956
 31
0.0
  0
LINE
  5
57C
  8
LAYER0014
  6
CONTINUOUS
 62
     7
 10
-192.9945762337809
 20
73.55259637848579
 30
0.0
 11
-192.9945762337809
 21
174.22956872956
 31
0.0
  0
LINE
  5
57D
  8
LAYER0014
  6
CONTINUOUS
 62
     7
 10
-115.9945762337809
 20
3.574439773718929
 30
0.0
 11
-102.1626975716715
 21
3.574439773718929
 31
0.0
  0
LINE
  5
57E
  8
LAYER0014
  6
CONTINUOUS
 62
     7
 10
-115.9945762337809
 20
172.2521212197944
 30
0.0
 11
-108.6530311288004
 21
172.2521212197944
 31
0.0
  0
LINE
  5
57F
  8
LAYER0014
  6
CONTINUOUS
 62
     7
 10
-132.4623279928475
 20
-24.18740819915094
 30
0.0
 11
-82.72992178983851
 21
-24.18740819915094
 31
0.0
  0
LINE
  5
580
  8
LAYER0014
  6
CONTINUOUS
 62
     7
 10
-208.2945792855387
 20
171.9435732461616
 30
0.0
 11
-192.9945762337809
 21
171.9435732461616
 31
0.0
  0
LINE
  5
581
  8
LAYER0014
  6
CONTINUOUS
 62
     7
 10
-84.2860431038492
 20
54.81259180084906
 30
0.0
 11
-84.2860431038492
 21
-24.18740819915094
 31
0.0
  0
TEXT
  5
582
  8
LAYER0014
 62
     7
 10
-239.4495791498243
 20
173.5631184869209
 30
0.0
 40
4.0
  1
MAX30.3
 50
-0.1000000000000078
 41
0.7999999999999995
  7
FDASTYLE1
 72
     5
 11
-217.0496132669667
 21
173.5240231315248
 31
0.0
  0
TEXT
  5
583
  8
LAYER0014
 62
     7
 10
-85.88604310384919
 20
8.140983066718199
 30
0.0
 40
4.0
  1
M90×1.25
 50
90.0
 41
0.7614515169541938
  7
FDASTYLE1
 72
     5
 11
-85.88604310384919
 21
33.11659282281575
 31
0.0
  0
INSERT
  5
584
  8
0
  6
CONTINUOUS
  2
DC_GROUP_77
 10
0.0
 20
0.0
 30
0.0
  0
INSERT
  5
585
  8
0
  6
CONTINUOUS
  2
DC_GROUP_80
 10
0.0
 20
0.0
 30
0.0
  0
INSERT
  5
586
  8
0
  6
CONTINUOUS
  2
DC_GROUP_83
 10
0.0
 20
0.0
 30
0.0
  0
INSERT
  5
587
  8
0
  6
CONTINUOUS
  2
DC_GROUP_86
 10
0.0
 20
0.0
 30
0.0
  0
INSERT
  5
588
  8
0
  6
CONTINUOUS
  2
DC_GROUP_88
 10
0.0
 20
0.0
 30
0.0
  0
INSERT
  5
589
  8
0
  6
CONTINUOUS
  2
DC_GROUP_91
 10
0.0
 20
0.0
 30
0.0
  0
INSERT
  5
58A
  8
0
  6
CONTINUOUS
  2
DC_GROUP_96
 10
0.0
 20
0.0
 30
0.0
  0
INSERT
  5
58B
  8
0
  6
CONTINUOUS
  2
DC_GROUP_99
 10
0.0
 20
0.0
 30
0.0
  0
INSERT
  5
58C
  8
0
  6
CONTINUOUS
  2
DC_GROUP_102
 10
0.0
 20
0.0
 30
0.0
  0
VIEWPORT
  5
48
 67
     1
  8
0
 10
-7.385725835541052
 20
0.0
 30
0.0
 40
1662.0
 41
1140.0
 68
     1
 69
     1
1001
ACAD
1000
MVIEW
1002
{
1070
    16
1010
0.0
1020
0.0
1030
0.0
1020
0.0
1030
0.0
1010
0.0
1020
0.0
1030
1.0
1020
0.0
1030
1.0
1040
0.0
1040
1140.0
1040
-7.385725835541052
1040
0.0
1040
50.0
1040
0.0
1040
0.0
1070
     0
1070
   100
1070
     0
1070
     1
1070
     0
1070
     0
1070
     0
1070
     0
1040
0.0
1040
0.0
1040
0.0
1040
0.5
1040
0.5
1040
0.0
1040
0.0
1070
     0
1002
{
1002
}
1002
}
  0
ENDSEC
  0
EOF
