  0
SECTION
  2
HEADER
  9
$ACADVER
  1
AC1009
  9
$DWGCODEPAGE
  3
ansi_932
  9
$INSBASE
 10
0.0
 20
0.0
 30
0.0
  9
$EXTMIN
 10
-1246.5
 20
-854.9999999999998
 30
0.0
  9
$EXTMAX
 10
1246.5
 20
854.9999999999998
 30
0.0
  9
$LIMMIN
 10
-445.5
 20
-315.0
  9
$LIMMAX
 10
445.5
 20
315.0
  9
$ORTHOMODE
 70
     0
  9
$REGENMODE
 70
     1
  9
$FILLMODE
 70
     1
  9
$QTEXTMODE
 70
     0
  9
$MIRRTEXT
 70
     1
  9
$DRAGMODE
 70
     2
  9
$LTSCALE
 40
1.5
  9
$OSMODE
 70
    37
  9
$ATTMODE
 70
     1
  9
$TEXTSIZE
 40
0.2
  9
$TRACEWID
 40
0.05
  9
$TEXTSTYLE
  7
STANDARD
  9
$CLAYER
  8
0
  9
$CELTYPE
  6
BYLAYER
  9
$CECOLOR
 62
   256
  9
$DIMSCALE
 40
1.0
  9
$DIMASZ
 40
3.75
  9
$DIMEXO
 40
0.0625
  9
$DIMDLI
 40
0.38
  9
$DIMRND
 40
0.0
  9
$DIMDLE
 40
0.0
  9
$DIMEXE
 40
0.18
  9
$DIMTP
 40
0.0
  9
$DIMTM
 40
0.0
  9
$DIMTXT
 40
0.18
  9
$DIMCEN
 40
0.09
  9
$DIMTSZ
 40
0.0
  9
$DIMTOL
 70
     0
  9
$DIMLIM
 70
     0
  9
$DIMTIH
 70
     1
  9
$DIMTOH
 70
     1
  9
$DIMSE1
 70
     0
  9
$DIMSE2
 70
     0
  9
$DIMTAD
 70
     3
  9
$DIMZIN
 70
     0
  9
$DIMBLK
  1

  9
$DIMASO
 70
     1
  9
$DIMSHO
 70
     1
  9
$DIMPOST
  1

  9
$DIMAPOST
  1

  9
$DIMALT
 70
     0
  9
$DIMALTD
 70
     2
  9
$DIMALTF
 40
25.4
  9
$DIMLFAC
 40
1.0
  9
$DIMTOFL
 70
     0
  9
$DIMTVP
 40
0.0
  9
$DIMTIX
 70
     0
  9
$DIMSOXD
 70
     0
  9
$DIMSAH
 70
     0
  9
$DIMBLK1
  1

  9
$DIMBLK2
  1

  9
$DIMSTYLE
  2
STANDARD
  9
$DIMCLRD
 70
     0
  9
$DIMCLRE
 70
     0
  9
$DIMCLRT
 70
     0
  9
$DIMTFAC
 40
1.0
  9
$DIMGAP
 40
0.09
  9
$LUNITS
 70
     2
  9
$LUPREC
 70
     4
  9
$SKETCHINC
 40
0.1
  9
$FILLETRAD
 40
0.5
  9
$AUNITS
 70
     0
  9
$AUPREC
 70
     0
  9
$MENU
  1
.
  9
$ELEVATION
 40
0.0
  9
$PELEVATION
 40
0.0
  9
$THICKNESS
 40
0.0
  9
$LIMCHECK
 70
     0
  9
$CHAMFERA
 40
0.5
  9
$CHAMFERB
 40
0.5
  9
$SKPOLY
 70
     0
  9
$TDCREATE
 40
2456329.442603912
  9
$TDUPDATE
 40
2456329.442603923
  9
$TDINDWG
 40
0.0000000116
  9
$TDUSRTIMER
 40
0.0000000116
  9
$USRTIMER
 70
     1
  9
$ANGBASE
 50
0.0
  9
$ANGDIR
 70
     0
  9
$PDMODE
 70
     0
  9
$PDSIZE
 40
1.0
  9
$PLINEWID
 40
0.0
  9
$COORDS
 70
     1
  9
$SPLFRAME
 70
     0
  9
$SPLINETYPE
 70
     6
  9
$SPLINESEGS
 70
     8
  9
$ATTDIA
 70
     0
  9
$ATTREQ
 70
     1
  9
$HANDLING
 70
     1
  9
$HANDSEED
  5
44B
  9
$SURFTAB1
 70
     6
  9
$SURFTAB2
 70
     6
  9
$SURFTYPE
 70
     6
  9
$SURFU
 70
     6
  9
$SURFV
 70
     6
  9
$UCSNAME
  2

  9
$UCSORG
 10
0.0
 20
0.0
 30
0.0
  9
$UCSXDIR
 10
1.0
 20
0.0
 30
0.0
  9
$UCSYDIR
 10
0.0
 20
1.0
 30
0.0
  9
$PUCSNAME
  2

  9
$PUCSORG
 10
0.0
 20
0.0
 30
0.0
  9
$PUCSXDIR
 10
1.0
 20
0.0
 30
0.0
  9
$PUCSYDIR
 10
0.0
 20
1.0
 30
0.0
  9
$USERI1
 70
     0
  9
$USERI2
 70
     0
  9
$USERI3
 70
     0
  9
$USERI4
 70
     0
  9
$USERI5
 70
     0
  9
$USERR1
 40
0.0
  9
$USERR2
 40
0.0
  9
$USERR3
 40
0.0
  9
$USERR4
 40
0.0
  9
$USERR5
 40
0.0
  9
$WORLDVIEW
 70
     1
  9
$SHADEDGE
 70
     3
  9
$SHADEDIF
 70
    70
  9
$TILEMODE
 70
     1
  9
$MAXACTVP
 70
    64
  9
$PLIMCHECK
 70
     0
  9
$PEXTMIN
 10
1.000000000000000E+20
 20
1.000000000000000E+20
 30
1.000000000000000E+20
  9
$PEXTMAX
 10
-1.000000000000000E+20
 20
-1.000000000000000E+20
 30
-1.000000000000000E+20
  9
$PLIMMIN
 10
0.0
 20
0.0
  9
$PLIMMAX
 10
12.0
 20
9.0
  9
$UNITMODE
 70
     0
  9
$VISRETAIN
 70
     0
  9
$PLINEGEN
 70
     1
  9
$PSLTSCALE
 70
     0
  0
ENDSEC
  0
SECTION
  2
TABLES
  0
TABLE
  2
VPORT
 70
     1
  0
VPORT
  2
*ACTIVE
 70
     0
 10
0.0
 20
0.0
 11
1.0
 21
1.0
 12
0.0
 22
0.0
 13
0.0
 23
0.0
 14
0.5
 24
0.5
 15
0.5
 25
0.5
 16
0.0
 26
0.0
 36
1.0
 17
-0.0000000000000036
 27
0.0
 37
0.0
 40
581.3999999999999
 41
1.457894736842106
 42
50.0
 43
0.0
 44
0.0
 50
0.0
 51
0.0
 71
     0
 72
  1000
 73
     1
 74
     1
 75
     0
 76
     0
 77
     0
 78
     0
  0
ENDTAB
  0
TABLE
  2
LTYPE
 70
    28
  0
LTYPE
  2
CONTINUOUS
 70
     0
  3
Solid line
 72
    65
 73
     0
 40
0.0
  0
LTYPE
  2
HIDDENX2
 70
     0
  3
CADPAC LINETYPE
 72
    65
 73
     2
 40
10.30674846625758
 49
7.730061349693187
 49
-2.576687116564396
  0
LTYPE
  2
HIDDEN
 70
     0
  3
CADPAC LINETYPE
 72
    65
 73
     2
 40
7.730061349693187
 49
5.153374233128791
 49
-2.576687116564396
  0
LTYPE
  2
HIDDEN2
 70
     0
  3
CADPAC LINETYPE
 72
    65
 73
     2
 40
6.441717791410989
 49
3.865030674846594
 49
-2.576687116564396
  0
LTYPE
  2
DASHED
 70
     0
  3
CADPAC LINETYPE
 72
    65
 73
     2
 40
7.214723926380353
 49
5.153374233128791
 49
-2.061349693251562
  0
LTYPE
  2
DASHED2
 70
     0
  3
CADPAC LINETYPE
 72
    65
 73
     2
 40
4.638036809815958
 49
3.092024539877305
 49
-1.546012269938653
  0
LTYPE
  2
DASHEDX2
 70
     0
  3
CADPAC LINETYPE
 72
    65
 73
     2
 40
12.36809815950922
 49
10.30674846625766
 49
-2.061349693251562
  0
LTYPE
  2
DOTX2
 70
     0
  3
CADPAC LINETYPE
 72
    65
 73
     2
 40
4.509202453987673
 49
0.0
 49
-4.509202453987673
  0
LTYPE
  2
DOT
 70
     0
  3
CADPAC LINETYPE
 72
    65
 73
     2
 40
3.607361963190139
 49
0.0
 49
-3.607361963190139
  0
LTYPE
  2
DOT2
 70
     0
  3
CADPAC LINETYPE
 72
    65
 73
     2
 40
2.705521472392604
 49
0.0
 49
-2.705521472392604
  0
LTYPE
  2
CENTERX2
 70
     0
  3
CADPAC LINETYPE
 72
    65
 73
     4
 40
15.46012269938638
 49
6.441717791410989
 49
-3.220858895705494
 49
2.576687116564396
 49
-3.220858895705494
  0
LTYPE
  2
CENTER
 70
     0
  3
CADPAC LINETYPE
 72
    65
 73
     4
 40
11.85276073619622
 49
5.153374233128791
 49
-2.576687116564396
 49
1.546012269938637
 49
-2.576687116564396
  0
LTYPE
  2
CENTER2
 70
     0
  3
CADPAC LINETYPE
 72
    65
 73
     4
 40
8.245398773006066
 49
3.865030674846594
 49
-1.932515337423297
 49
0.5153374233128791
 49
-1.932515337423297
  0
LTYPE
  2
DASHDOTX2
 70
     0
  3
CADPAC LINETYPE
 72
    65
 73
     4
 40
24.73619631901836
 49
12.36809815950922
 49
-4.122699386503048
 49
4.122699386503048
 49
-4.122699386503048
  0
LTYPE
  2
DASHDOT
 70
     0
  3
CADPAC LINETYPE
 72
    65
 73
     4
 40
12.36809815950922
 49
6.184049079754534
 49
-2.061349693251562
 49
2.061349693251562
 49
-2.061349693251562
  0
LTYPE
  2
DASHDOT2
 70
     0
  3
CADPAC LINETYPE
 72
    65
 73
     4
 40
7.9361963190184
 49
4.638036809815901
 49
-1.546012269938671
 49
0.2061349693251562
 49
-1.546012269938671
  0
LTYPE
  2
DIVIDEX2
 70
     0
  3
CADPAC LINETYPE
 72
    65
 73
     6
 40
32.98159509202446
 49
12.36809815950922
 49
-4.122699386503048
 49
4.122699386503048
 49
-4.122699386503048
 49
4.122699386503048
 49
-4.122699386503048
  0
LTYPE
  2
DIVIDE
 70
     0
  3
CADPAC LINETYPE
 72
    65
 73
     6
 40
16.49079754601235
 49
6.184049079754534
 49
-2.061349693251562
 49
2.061349693251562
 49
-2.061349693251562
 49
2.061349693251562
 49
-2.061349693251562
  0
LTYPE
  2
DIVIDE2
 70
     0
  3
CADPAC LINETYPE
 72
    65
 73
     6
 40
12.36809815950926
 49
4.638036809815901
 49
-1.546012269938671
 49
1.546012269938671
 49
-1.546012269938671
 49
1.546012269938671
 49
-1.546012269938671
  0
LTYPE
  2
BORDERX2
 70
     0
  3
CADPAC LINETYPE
 72
    65
 73
     6
 40
22.54601226993846
 49
6.441717791410989
 49
-3.220858895705494
 49
6.441717791410989
 49
-3.220858895705494
 49
0.0
 49
-3.220858895705494
  0
LTYPE
  2
BORDER
 70
     0
  3
CADPAC LINETYPE
 72
    65
 73
     6
 40
18.03680981595077
 49
5.153374233128791
 49
-2.576687116564396
 49
5.153374233128791
 49
-2.576687116564396
 49
0.0
 49
-2.576687116564396
  0
LTYPE
  2
BORDER2
 70
     0
  3
CADPAC LINETYPE
 72
    65
 73
     6
 40
13.39877300613489
 49
4.122699386503048
 49
-2.576687116564396
 49
1.546012269938653
 49
-2.576687116564396
 49
0.0
 49
-2.576687116564396
  0
LTYPE
  2
PHANTOMX2
 70
     0
  3
CADPAC LINETYPE
 72
    65
 73
     6
 40
19.32515337423297
 49
6.441717791410989
 49
-2.576687116564396
 49
2.576687116564396
 49
-2.576687116564396
 49
2.576687116564396
 49
-2.576687116564396
  0
LTYPE
  2
PHANTOM
 70
     0
  3
CADPAC LINETYPE
 72
    65
 73
     6
 40
15.97546012269925
 49
5.153374233128791
 49
-2.576687116564396
 49
1.546012269938637
 49
-2.576687116564396
 49
1.546012269938637
 49
-2.576687116564396
  0
LTYPE
  2
PHANTOM2
 70
     0
  3
CADPAC LINETYPE
 72
    65
 73
     6
 40
13.6564417177913
 49
3.865030674846594
 49
-2.576687116564396
 49
1.030674846625758
 49
-2.576687116564396
 49
1.030674846625758
 49
-2.576687116564396
  0
LTYPE
  2
ACAD_ISO06W100
 70
     0
  3
CADPAC LINETYPE
 72
    65
 73
     8
 40
27.31288343558276
 49
12.36809815950922
 49
-2.576687116564396
 49
1.546012269938653
 49
-2.576687116564396
 49
1.546012269938653
 49
-2.576687116564396
 49
1.546012269938653
 49
-2.576687116564396
  0
LTYPE
  2
ACAD_ISO13W100
 70
     0
  3
CADPAC LINETYPE
 72
    65
 73
     8
 40
20.61349693251517
 49
5.153374233128791
 49
-2.576687116564396
 49
5.153374233128791
 49
-2.576687116564396
 49
0.0
 49
-2.576687116564396
 49
0.0
 49
-2.576687116564396
  0
LTYPE
  2
ACAD_ISO14W100
 70
     0
  3
CADPAC LINETYPE
 72
    65
 73
     8
 40
15.46012269938637
 49
5.153374233128791
 49
-2.576687116564396
 49
0.0
 49
-2.576687116564396
 49
0.0
 49
-2.576687116564396
 49
0.0
 49
-2.576687116564396
  0
ENDTAB
  0
TABLE
  2
LAYER
 70
     3
  0
LAYER
  2
0
 70
     0
 62
     7
  6
CONTINUOUS
  0
LAYER
  2
LAYER0014
 70
     0
 62
     7
  6
CONTINUOUS
  0
LAYER
  2
ZUWAKU
 70
     0
 62
     7
  6
CONTINUOUS
  0
ENDTAB
  0
TABLE
  2
STYLE
 70
     5
  0
STYLE
  2
STANDARD
 70
     0
 40
0.0
 41
1.0
 50
0.0
 71
     0
 42
0.2
  3
txt
  4

  0
STYLE
  2
FDASTYLE1
 70
     0
 40
0.0
 41
0.7999999999999998
 50
0.0
 71
     0
 42
0.2
  3
txt.shx
  4
bigfont
  0
STYLE
  2
FDASTYLE0
 70
     4
 40
0.0
 41
0.8
 50
0.0
 71
     0
 42
0.2
  3
txt.shx
  4
bigfont
  0
STYLE
  2
FDASTYLE2
 70
     0
 40
0.0
 41
0.8123476848090984
 50
0.0
 71
     0
 42
0.2
  3
MSMINCHO.TTC
  4

  0
STYLE
  2
FDASTYLE3
 70
     0
 40
0.0
 41
0.77
 50
0.0
 71
     0
 42
0.2
  3
MSGOTHIC.TTC
  4

  0
ENDTAB
  0
TABLE
  2
VIEW
 70
     0
  0
ENDTAB
  0
TABLE
  2
UCS
 70
     0
  0
ENDTAB
  0
TABLE
  2
APPID
 70
     2
  0
APPID
  2
ACAD
 70
     0
  0
APPID
  2
DAFUSIONOUT
 70
     0
  0
ENDTAB
  0
TABLE
  2
DIMSTYLE
 70
     1
  0
DIMSTYLE
  2
STANDARD
 70
     0
  3

  4

  5

  6

  7

 40
1.0
 41
0.18
 42
0.0625
 43
0.38
 44
0.18
 45
0.0
 46
0.0
 47
0.0
 48
0.0
140
0.18
141
0.09
142
0.0
143
25.4
144
1.0
145
0.0
146
1.0
147
0.09
 71
     0
 72
     0
 73
     1
 74
     1
 75
     0
 76
     0
 77
     0
 78
     0
170
     0
171
     2
172
     0
173
     0
174
     0
175
     0
176
     0
177
     0
178
     0
  0
ENDTAB
  0
ENDSEC
  0
SECTION
  2
BLOCKS
  0
BLOCK
  8
0
  2
$MODEL_SPACE
 70
     0
 10
0.0
 20
0.0
 30
0.0
  3
$MODEL_SPACE
  1

  0
ENDBLK
  5
21
  8
0
  0
BLOCK
 67
     1
  8
0
  2
$PAPER_SPACE
 70
     0
 10
0.0
 20
0.0
 30
0.0
  3
$PAPER_SPACE
  1

  0
ENDBLK
  5
1D
 67
     1
  8
0
  0
BLOCK
  8
0
  2
DA_IMAGEDIMGROUP_1
 70
     0
 10
0.0
 20
0.0
 30
0.0
  3
DA_IMAGEDIMGROUP_1
  1

  0
LINE
  5
C4
  8
LAYER0014
  6
CONTINUOUS
 62
     7
 10
24.70892368857166
 20
-35.63340469117317
 30
0.0
 11
-1.00440065981465
 21
-50.47899778530432
 31
0.0
  0
LINE
  5
C5
  8
LAYER0014
  6
CONTINUOUS
 62
     7
 10
34.94051983921289
 20
-53.97489442223495
 30
0.0
 11
9.49559554038953
 21
-68.6655266926208
 31
0.0
  0
LINE
  5
C6
  8
LAYER0014
  6
CONTINUOUS
 62
     7
 10
0.2946403342618789
 20
-49.72900280779675
 30
0.0
 11
10.79463939548875
 21
-67.91553667055045
 31
0.0
  0
LINE
  5
C7
  8
LAYER0014
  6
CONTINUOUS
 62
     7
 10
0.2946403342618789
 20
-49.72900280779675
 30
0.0
 11
-4.46785912917694
 21
-41.48011085474775
 31
0.0
  0
INSERT
  5
CE
  8
LAYER0014
 62
     7
  2
_OPEN30
 10
0.2946403342618789
 20
-49.72900280779675
 30
0.0
 41
2.250002090868945
 42
2.249997751034238
 50
299.9999972589655
  0
LINE
  5
CF
  8
LAYER0014
  6
CONTINUOUS
 62
     7
 10
15.55713885892757
 20
-76.16442862359945
 30
0.0
 11
10.79463939548875
 21
-67.91553667055045
 31
0.0
  0
INSERT
  5
D0
  8
LAYER0014
 62
     7
  2
_OPEN30
 10
10.79463939548875
 20
-67.91553667055045
 30
0.0
 41
2.250002090868945
 42
2.249997751034238
 50
119.9999972589655
  0
TEXT
  5
D2
  8
LAYER0014
 62
     7
 10
2.823099999662523
 20
-49.30842244569018
 30
0.0
 40
6.0
  1
21H8
 50
-59.99999999999999
 41
0.7999999999999998
  7
FDASTYLE1
 72
     5
 11
12.42309999966252
 21
-65.9361101983514
 31
0.0
  0
ENDBLK
  5
4E
  8
0
  0
BLOCK
  8
0
  2
DA_IMAGEDIMGROUP_2
 70
     0
 10
0.0
 20
0.0
 30
0.0
  3
DA_IMAGEDIMGROUP_2
  1

  0
LINE
  5
D3
  8
LAYER0014
  6
CONTINUOUS
 62
     7
 10
17.26548811554762
 20
-23.18769741621313
 30
0.0
 11
-21.89482117135593
 21
-45.79690867903216
 31
0.0
  0
LINE
  5
D4
  8
LAYER0014
  6
CONTINUOUS
 62
     7
 10
42.18893950161439
 20
-66.53316943101135
 30
0.0
 11
3.105178441213496
 21
-89.09818556217009
 31
0.0
  0
LINE
  5
D5
  8
LAYER0014
  6
CONTINUOUS
 62
     7
 10
-20.59577731625705
 20
-45.04691870166529
 30
0.0
 11
4.404225157334899
 21
-88.34820054024044
 31
0.0
  0
INSERT
  5
D6
  8
LAYER0014
 62
     7
  2
_OPEN30
 10
-20.59577731625705
 20
-45.04691870166529
 30
0.0
 41
2.250002090868945
 42
2.249997751034238
 50
119.9999957801861
  0
INSERT
  5
D7
  8
LAYER0014
 62
     7
  2
_OPEN30
 10
4.404225157334899
 20
-88.34820054024044
 30
0.0
 41
2.250002090868945
 42
2.249997751034238
 50
299.9999957801861
  0
TEXT
  5
D8
  8
LAYER0014
 62
     7
 10
-8.417316812029693
 20
-61.34063597349434
 30
0.0
 40
6.0
  1
50
 50
-59.99999999999999
 41
0.8000000000000004
  7
FDASTYLE1
 72
     5
 11
-3.617316812029691
 21
-69.65447984982495
 31
0.0
  0
ENDBLK
  5
51
  8
0
  0
BLOCK
  8
0
  2
DA_IMAGEDIMGROUP_3
 70
     0
 10
0.0
 20
0.0
 30
0.0
  3
DA_IMAGEDIMGROUP_3
  1

  0
LINE
  5
D9
  8
LAYER0014
  6
CONTINUOUS
 62
     7
 10
109.8776993413473
 20
170.3297979437962
 30
0.0
 11
81.0528292142902
 21
220.255881223008
 31
0.0
  0
LINE
  5
DA
  8
LAYER0014
  6
CONTINUOUS
 62
     7
 10
-10.87826155023325
 20
43.64358456021975
 30
0.0
 11
-20.91443081305367
 21
43.64338227721984
 31
0.0
  0
ARC
  5
DB
  8
LAYER0014
  6
CONTINUOUS
 62
     7
 10
183.0202538346942
 20
43.64331636864783
 30
0.0
 40
202.4346710910001
 50
120.0000306600609
 51
179.9999776881997
  0
INSERT
  5
DC
  8
LAYER0014
 62
     7
  2
_OPEN30
 10
81.80282447558551
 20
218.9568299768555
 30
0.0
 41
2.250002090868945
 42
2.249997751034238
 50
30.31844352469173
  0
INSERT
  5
DD
  8
LAYER0014
 62
     7
  2
_OPEN30
 10
-19.41441725629059
 20
43.6433951996194
 30
0.0
 41
2.250002090868945
 42
2.249997751034238
 50
269.681564823568
  0
TEXT
  5
DE
  8
LAYER0014
 62
     7
 10
2.028216685631382
 20
139.8252804152286
 30
0.0
 40
6.0
  1
60ﾟ
 50
59.99999999999999
 41
0.7999999999999994
  7
FDASTYLE1
 72
     5
 11
9.228216685631381
 21
152.2960462297245
 31
0.0
  0
ENDBLK
  5
54
  8
0
  0
BLOCK
  8
0
  2
DA_IMAGEDIMGROUP_4
 70
     0
 10
0.0
 20
0.0
 30
0.0
  3
DA_IMAGEDIMGROUP_4
  1

  0
LINE
  5
DF
  8
LAYER0014
  6
CONTINUOUS
 62
     7
 10
-305.0449230558709
 20
-10.90667933534753
 30
0.0
 11
-305.0449230558709
 21
98.19331207264318
 31
0.0
  0
INSERT
  5
E0
  8
LAYER0014
 62
     7
  2
_OPEN30
 10
-305.0449230558709
 20
-10.90667933534753
 30
0.0
 41
2.250002090868945
 42
2.249997751034238
 50
270.0
  0
INSERT
  5
E1
  8
LAYER0014
 62
     7
  2
_OPEN30
 10
-305.0449230558709
 20
98.19331207264318
 30
0.0
 41
2.250002090868945
 42
2.249997751034238
 50
90.0
  0
LINE
  5
E2
  8
LAYER0014
  6
CONTINUOUS
 62
     7
 10
-216.2385295850704
 20
-10.90667933534753
 30
0.0
 11
-306.5449230558709
 21
-10.90667933534753
 31
0.0
  0
LINE
  5
E3
  8
LAYER0014
  6
CONTINUOUS
 62
     7
 10
-216.2385295850704
 20
98.19331207264318
 30
0.0
 11
-306.5449230558709
 21
98.19331207264318
 31
0.0
  0
TEXT
  5
E4
  8
LAYER0014
 62
     7
 10
-306.5449230558709
 20
24.44331636864784
 30
0.0
 40
6.0
  1
φ109.1Ｈ7
 50
90.0
 41
0.7619047619047615
  7
FDASTYLE1
 72
     5
 11
-306.5449230558709
 21
62.84331636864781
 31
0.0
  0
ENDBLK
  5
57
  8
0
  0
BLOCK
  8
0
  2
DA_IMAGEDIMGROUP_5
 70
     0
 10
0.0
 20
0.0
 30
0.0
  3
DA_IMAGEDIMGROUP_5
  1

  0
LINE
  5
E5
  8
LAYER0014
  6
CONTINUOUS
 62
     7
 10
-318.7004993131988
 20
-23.85667875867261
 30
0.0
 11
-318.7004993131988
 21
111.1433029128997
 31
0.0
  0
INSERT
  5
E6
  8
LAYER0014
 62
     7
  2
_OPEN30
 10
-318.7004993131988
 20
-23.85667875867261
 30
0.0
 41
2.250002090868945
 42
2.249997751034238
 50
270.0
  0
INSERT
  5
E7
  8
LAYER0014
 62
     7
  2
_OPEN30
 10
-318.7004993131988
 20
111.1433029128997
 30
0.0
 41
2.250002090868945
 42
2.249997751034238
 50
90.0
  0
LINE
  5
E8
  8
LAYER0014
  6
CONTINUOUS
 62
     7
 10
-272.9009958529402
 20
-23.85667875867261
 30
0.0
 11
-320.2004993131988
 21
-23.85667875867261
 31
0.0
  0
LINE
  5
E9
  8
LAYER0014
  6
CONTINUOUS
 62
     7
 10
-272.9009958529402
 20
111.1433029128997
 30
0.0
 11
-320.2004993131988
 21
111.1433029128997
 31
0.0
  0
TEXT
  5
EA
  8
LAYER0014
 62
     7
 10
-320.2004993131988
 20
29.24331207711356
 30
0.0
 40
6.0
  1
φ135H7
 50
90.0
 41
0.7741935483870955
  7
FDASTYLE1
 72
     5
 11
-320.2004993131988
 21
58.04331207711351
 31
0.0
  0
ENDBLK
  5
5A
  8
0
  0
BLOCK
  8
0
  2
DA_IMAGEDIMGROUP_6
 70
     0
 10
0.0
 20
0.0
 30
0.0
  3
DA_IMAGEDIMGROUP_6
  1

  0
LINE
  5
EB
  8
LAYER0014
  6
CONTINUOUS
 62
     7
 10
-333.0063411065899
 20
-116.356686492375
 30
0.0
 11
-333.0063411065899
 21
203.6432963414878
 31
0.0
  0
INSERT
  5
EC
  8
LAYER0014
 62
     7
  2
_OPEN30
 10
-333.0063411065899
 20
-116.356686492375
 30
0.0
 41
2.250002090868945
 42
2.249997751034238
 50
270.0
  0
INSERT
  5
ED
  8
LAYER0014
 62
     7
  2
_OPEN30
 10
-333.0063411065899
 20
203.6432963414878
 30
0.0
 41
2.250002090868945
 42
2.249997751034238
 50
90.0
  0
LINE
  5
EE
  8
LAYER0014
  6
CONTINUOUS
 62
     7
 10
-278.6009773725207
 20
-116.356686492375
 30
0.0
 11
-334.5063411065899
 21
-116.356686492375
 31
0.0
  0
LINE
  5
EF
  8
LAYER0014
  6
CONTINUOUS
 62
     7
 10
-278.6009773725207
 20
203.6432963414878
 30
0.0
 11
-334.5063411065899
 21
203.6432963414878
 31
0.0
  0
TEXT
  5
F0
  8
LAYER0014
 62
     7
 10
-334.5063411065899
 20
29.24330492455638
 30
0.0
 40
6.0
  1
φ320H7
 50
90.0
 41
0.7741935483870955
  7
FDASTYLE1
 72
     5
 11
-334.5063411065899
 21
58.04330492455634
 31
0.0
  0
ENDBLK
  5
5D
  8
0
  0
BLOCK
  8
0
  2
DA_IMAGEDIMGROUP_7
 70
     0
 10
0.0
 20
0.0
 30
0.0
  3
DA_IMAGEDIMGROUP_7
  1

  0
LINE
  5
F1
  8
LAYER0014
  6
CONTINUOUS
 62
     7
 10
-347.312182899981
 20
-131.3566860453402
 30
0.0
 11
-347.312182899981
 21
218.643295894453
 31
0.0
  0
INSERT
  5
F2
  8
LAYER0014
 62
     7
  2
_OPEN30
 10
-347.312182899981
 20
-131.3566860453402
 30
0.0
 41
2.250002090868945
 42
2.249997751034238
 50
270.0
  0
INSERT
  5
F3
  8
LAYER0014
 62
     7
  2
_OPEN30
 10
-347.312182899981
 20
218.643295894453
 30
0.0
 41
2.250002090868945
 42
2.249997751034238
 50
90.0
  0
LINE
  5
F4
  8
LAYER0014
  6
CONTINUOUS
 62
     7
 10
-278.6009773725207
 20
-131.3566860453402
 30
0.0
 11
-348.812182899981
 21
-131.3566860453402
 31
0.0
  0
LINE
  5
F5
  8
LAYER0014
  6
CONTINUOUS
 62
     7
 10
-278.6009773725207
 20
218.643295894453
 30
0.0
 11
-348.812182899981
 21
218.643295894453
 31
0.0
  0
TEXT
  5
F6
  8
LAYER0014
 62
     7
 10
-348.812182899981
 20
34.04330492455634
 30
0.0
 40
6.0
  1
φ350
 50
90.0
 41
0.7619047619047638
  7
FDASTYLE1
 72
     5
 11
-348.812182899981
 21
53.24330492455638
 31
0.0
  0
ENDBLK
  5
60
  8
0
  0
BLOCK
  8
0
  2
DA_IMAGEDIMGROUP_8
 70
     0
 10
0.0
 20
0.0
 30
0.0
  3
DA_IMAGEDIMGROUP_8
  1

  0
LINE
  5
F7
  8
LAYER0014
  6
CONTINUOUS
 62
     7
 10
-175.1185269958447
 20
-12.3566800550736
 30
0.0
 11
-109.0884067407952
 21
-12.3566800550736
 31
0.0
  0
LINE
  5
F8
  8
LAYER0014
  6
CONTINUOUS
 62
     7
 10
-143.8916176318594
 20
43.64331636864783
 30
0.0
 11
-121.1385787559056
 21
43.64331636864783
 31
0.0
  0
LINE
  5
F9
  8
LAYER0014
  6
CONTINUOUS
 62
     7
 10
-110.5884066960918
 20
-12.3566800550736
 30
0.0
 11
-110.5884066960918
 21
77.63388733135788
 31
0.0
  0
INSERT
  5
FA
  8
LAYER0014
 62
     7
  2
_OPEN30
 10
-110.5884066960918
 20
-12.3566800550736
 30
0.0
 41
2.250002090868945
 42
2.249997751034238
 50
270.0
  0
TEXT
  5
FB
  8
LAYER0014
 62
     7
 10
-112.9884066245662
 20
21.94904566528055
 30
0.0
 40
6.0
  1
M112×P1.5
 50
90.0
 41
0.7826086956521742
  7
FDASTYLE1
 72
     5
 11
-112.9884066245662
 21
65.14904566528057
 31
0.0
  0
ENDBLK
  5
63
  8
0
  0
BLOCK
  8
0
  2
DA_IMAGEDIMGROUP_9
 70
     0
 10
0.0
 20
0.0
 30
0.0
  3
DA_IMAGEDIMGROUP_9
  1

  0
LINE
  5
FC
  8
LAYER0014
  6
CONTINUOUS
 62
     7
 10
-148.9809774208005
 20
-26.35667773049252
 30
0.0
 11
-94.08840718783006
 21
-26.35667773049252
 31
0.0
  0
LINE
  5
FD
  8
LAYER0014
  6
CONTINUOUS
 62
     7
 10
-95.58840714312657
 20
-26.35667773049252
 30
0.0
 11
-95.58840714312657
 21
77.65556816262092
 31
0.0
  0
INSERT
  5
FE
  8
LAYER0014
 62
     7
  2
_OPEN30
 10
-95.58840714312657
 20
-26.35667773049252
 30
0.0
 41
2.250002090868945
 42
2.249997751034238
 50
270.0
  0
TEXT
  5
FF
  8
LAYER0014
 62
     7
 10
-97.988407071601
 20
29.14904566528055
 30
0.0
 40
6.0
  1
φ140H7
 50
90.0
 41
0.774193548387097
  7
FDASTYLE1
 72
     5
 11
-97.988407071601
 21
57.94904566528057
 31
0.0
  0
ENDBLK
  5
66
  8
0
  0
BLOCK
  8
0
  2
DA_IMAGEDIMGROUP_10
 70
     0
 10
0.0
 20
0.0
 30
0.0
  3
DA_IMAGEDIMGROUP_10
  1

  0
LINE
  5
100
  8
LAYER0014
  6
CONTINUOUS
 62
     7
 10
-107.597128556479
 20
144.9433125867332
 30
0.0
 11
-94.08840718783006
 21
144.9433125867332
 31
0.0
  0
LINE
  5
101
  8
LAYER0014
  6
CONTINUOUS
 62
     7
 10
-151.6278005594895
 20
116.9433057918039
 30
0.0
 11
-94.08840718783006
 21
116.9433057918039
 31
0.0
  0
LINE
  5
102
  8
LAYER0014
  6
CONTINUOUS
 62
     7
 10
-95.58840714312657
 20
144.9433125867332
 30
0.0
 11
-95.58840714312657
 21
116.9433057918039
 31
0.0
  0
INSERT
  5
103
  8
LAYER0014
 62
     7
  2
_OPEN30
 10
-95.58840714312657
 20
144.9433125867332
 30
0.0
 41
2.250002090868945
 42
2.249997751034238
 50
90.0
  0
INSERT
  5
104
  8
LAYER0014
 62
     7
  2
_OPEN30
 10
-95.58840714312657
 20
116.9433057918039
 30
0.0
 41
2.250002090868945
 42
2.249997751034238
 50
270.0
  0
TEXT
  5
105
  8
LAYER0014
 62
     7
 10
-97.988407071601
 20
118.9433091892686
 30
0.0
 40
6.0
  1
MIN14
 50
90.0
 41
0.8
  7
FDASTYLE1
 72
     5
 11
-97.988407071601
 21
142.9433091892686
 31
0.0
  0
ENDBLK
  5
69
  8
0
  0
BLOCK
  8
0
  2
DA_IMAGEDIMGROUP_11
 70
     0
 10
0.0
 20
0.0
 30
0.0
  3
DA_IMAGEDIMGROUP_11
  1

  0
LINE
  5
106
  8
LAYER0014
  6
CONTINUOUS
 62
     7
 10
-65.60764724182023
 20
43.64331636864783
 30
0.0
 11
-65.60764724182023
 21
116.9433057918039
 31
0.0
  0
INSERT
  5
107
  8
LAYER0014
 62
     7
  2
_OPEN30
 10
-65.60764724182023
 20
43.64331636864783
 30
0.0
 41
2.250002090868945
 42
2.249997751034238
 50
270.0
  0
INSERT
  5
108
  8
LAYER0014
 62
     7
  2
_OPEN30
 10
-65.60764724182023
 20
116.9433057918039
 30
0.0
 41
2.250002090868945
 42
2.249997751034238
 50
90.0
  0
LINE
  5
109
  8
LAYER0014
  6
CONTINUOUS
 62
     7
 10
-93.84496028540774
 20
43.64331636864783
 30
0.0
 11
-64.10764724182023
 21
43.64331636864783
 31
0.0
  0
LINE
  5
10A
  8
LAYER0014
  6
CONTINUOUS
 62
     7
 10
-149.980973576301
 20
116.9433057918039
 30
0.0
 11
-64.10764724182023
 21
116.9433057918039
 31
0.0
  0
TEXT
  5
10B
  8
LAYER0014
 62
     7
 10
-67.10764724182023
 20
63.49331108022588
 30
0.0
 40
6.0
  1
MAX75.8
 50
90.0
 41
0.7999999999999998
  7
FDASTYLE1
 72
     5
 11
-67.10764724182023
 21
97.09331108022587
 31
0.0
  0
ENDBLK
  5
6C
  8
0
  0
BLOCK
  8
0
  2
DA_IMAGEDIMGROUP_12
 70
     0
 10
0.0
 20
0.0
 30
0.0
  3
DA_IMAGEDIMGROUP_12
  1

  0
LINE
  5
10C
  8
LAYER0014
  6
CONTINUOUS
 62
     7
 10
-149.980973576301
 20
116.9433057918039
 30
0.0
 11
-64.0884080818997
 21
116.9433057918039
 31
0.0
  0
LINE
  5
10D
  8
LAYER0014
  6
CONTINUOUS
 62
     7
 10
-151.8472724614966
 20
218.9433141960586
 30
0.0
 11
-64.0884080818997
 21
218.9433141960586
 31
0.0
  0
LINE
  5
10E
  8
LAYER0014
  6
CONTINUOUS
 62
     7
 10
-65.58840803719622
 20
116.9433057918039
 30
0.0
 11
-65.58840803719622
 21
218.9433141960586
 31
0.0
  0
INSERT
  5
10F
  8
LAYER0014
 62
     7
  2
_OPEN30
 10
-65.58840803719622
 20
116.9433057918039
 30
0.0
 41
2.250002090868945
 42
2.249997751034238
 50
270.0
  0
INSERT
  5
110
  8
LAYER0014
 62
     7
  2
_OPEN30
 10
-65.58840803719622
 20
218.9433141960586
 30
0.0
 41
2.250002090868945
 42
2.249997751034238
 50
90.0
  0
TEXT
  5
111
  8
LAYER0014
 62
     7
 10
-67.98840796567065
 20
160.743315715977
 30
0.0
 40
6.0
  1
102
 50
90.0
 41
0.8000000000000019
  7
FDASTYLE1
 72
     5
 11
-67.98840796567065
 21
175.143315715977
 31
0.0
  0
ENDBLK
  5
6F
  8
0
  0
BLOCK
  8
0
  2
DA_IMAGEDIMGROUP_13
 70
     0
 10
0.0
 20
0.0
 30
0.0
  3
DA_IMAGEDIMGROUP_13
  1

  0
LINE
  5
112
  8
LAYER0014
  6
CONTINUOUS
 62
     7
 10
-251.9285208920312
 20
19.32633434722609
 30
0.0
 11
-214.9285372535057
 21
19.32633434722609
 31
0.0
  0
INSERT
  5
113
  8
LAYER0014
 62
     7
  2
_OPEN30
 10
-251.9285208920312
 20
19.32633434722609
 30
0.0
 41
2.250002090868945
 42
2.249997751034238
 50
180.0
  0
INSERT
  5
114
  8
LAYER0014
 62
     7
  2
_OPEN30
 10
-214.9285372535057
 20
19.32633434722609
 30
0.0
 41
2.250002090868945
 42
2.249997751034238
 50
360.0
  0
TEXT
  5
115
  8
LAYER0014
 62
     7
 10
-238.2285290727685
 20
20.82633434722609
 30
0.0
 40
6.0
  1
37
 41
0.8000000000000019
  7
FDASTYLE1
 72
     5
 11
-228.6285290727685
 21
20.82633434722609
 31
0.0
  0
ENDBLK
  5
72
  8
0
  0
BLOCK
  8
0
  2
DA_IMAGEDIMGROUP_14
 70
     0
 10
0.0
 20
0.0
 30
0.0
  3
DA_IMAGEDIMGROUP_14
  1

  0
LINE
  5
116
  8
LAYER0014
  6
CONTINUOUS
 62
     7
 10
-214.9285372535057
 20
19.32633434722609
 30
0.0
 11
-192.9285302797625
 21
19.32633434722609
 31
0.0
  0
INSERT
  5
117
  8
LAYER0014
 62
     7
  2
_OPEN30
 10
-214.9285372535057
 20
19.32633434722609
 30
0.0
 41
2.250002090868945
 42
2.249997751034238
 50
180.0
  0
INSERT
  5
118
  8
LAYER0014
 62
     7
  2
_OPEN30
 10
-192.9285302797625
 20
19.32633434722609
 30
0.0
 41
2.250002090868945
 42
2.249997751034238
 50
360.0
  0
TEXT
  5
119
  8
LAYER0014
 62
     7
 10
-208.7285337666341
 20
20.82633434722609
 30
0.0
 40
6.0
  1
22
 41
0.8000000000000019
  7
FDASTYLE1
 72
     5
 11
-199.1285337666341
 21
20.82633434722609
 31
0.0
  0
ENDBLK
  5
75
  8
0
  0
BLOCK
  8
0
  2
DA_IMAGEDIMGROUP_15
 70
     0
 10
0.0
 20
0.0
 30
0.0
  3
DA_IMAGEDIMGROUP_15
  1

  0
LINE
  5
11A
  8
LAYER0014
  6
CONTINUOUS
 62
     7
 10
-192.9285302797625
 20
19.32633434722609
 30
0.0
 11
-178.9285268822978
 21
19.32633434722609
 31
0.0
  0
INSERT
  5
11B
  8
LAYER0014
 62
     7
  2
_OPEN30
 10
-192.9285302797625
 20
19.32633434722609
 30
0.0
 41
2.250002090868945
 42
2.249997751034238
 50
180.0
  0
INSERT
  5
11C
  8
LAYER0014
 62
     7
  2
_OPEN30
 10
-178.9285268822978
 20
19.32633434722609
 30
0.0
 41
2.250002090868945
 42
2.249997751034238
 50
360.0
  0
TEXT
  5
11D
  8
LAYER0014
 62
     7
 10
-190.7285285810302
 20
20.82633434722609
 30
0.0
 40
6.0
  1
14
 41
0.8000000000000019
  7
FDASTYLE1
 72
     5
 11
-181.1285285810301
 21
20.82633434722609
 31
0.0
  0
ENDBLK
  5
78
  8
0
  0
BLOCK
  8
0
  2
DA_IMAGEDIMGROUP_16
 70
     0
 10
0.0
 20
0.0
 30
0.0
  3
DA_IMAGEDIMGROUP_16
  1

  0
LINE
  5
11E
  8
LAYER0014
  6
CONTINUOUS
 62
     7
 10
-178.9285268822978
 20
19.32633434722609
 30
0.0
 11
-176.9285345712968
 21
19.32633434722609
 31
0.0
  0
LINE
  5
11F
  8
LAYER0014
  6
CONTINUOUS
 62
     7
 10
-166.2018744362766
 20
19.32633434722609
 30
0.0
 11
-176.9285345712968
 21
19.32633434722609
 31
0.0
  0
INSERT
  5
120
  8
LAYER0014
 62
     7
  2
_OPEN30
 10
-176.9285345712968
 20
19.32633434722609
 30
0.0
 41
2.250002090868945
 42
2.249997751034238
 50
180.0
  0
LINE
  5
121
  8
LAYER0014
  6
CONTINUOUS
 62
     7
 10
-186.4285268822978
 20
19.32633434722609
 30
0.0
 11
-178.9285268822978
 21
19.32633434722609
 31
0.0
  0
INSERT
  5
122
  8
LAYER0014
 62
     7
  2
_OPEN30
 10
-178.9285268822978
 20
19.32633434722609
 30
0.0
 41
2.250002090868945
 42
2.249997751034238
 50
360.0
  0
TEXT
  5
123
  8
LAYER0014
 62
     7
 10
-172.5018744362766
 20
20.82633434722609
 30
0.0
 40
6.0
  1
2
 41
0.8000000000000019
  7
FDASTYLE1
 72
     5
 11
-167.7018744362766
 21
20.82633434722609
 31
0.0
  0
ENDBLK
  5
7B
  8
0
  0
BLOCK
  8
0
  2
DA_IMAGEDIMGROUP_17
 70
     0
 10
0.0
 20
0.0
 30
0.0
  3
DA_IMAGEDIMGROUP_17
  1

  0
LINE
  5
124
  8
LAYER0014
  6
CONTINUOUS
 62
     7
 10
-155.2909734180507
 20
4.67146427387394
 30
0.0
 11
-152.7909773072536
 21
4.67146427387394
 31
0.0
  0
LINE
  5
125
  8
LAYER0014
  6
CONTINUOUS
 62
     7
 10
-132.3052667330212
 20
4.67146427387394
 30
0.0
 11
-152.7909773072536
 21
4.67146427387394
 31
0.0
  0
INSERT
  5
126
  8
LAYER0014
 62
     7
  2
_OPEN30
 10
-152.7909773072536
 20
4.67146427387394
 30
0.0
 41
2.250002090868945
 42
2.249997751034238
 50
180.0
  0
LINE
  5
127
  8
LAYER0014
  6
CONTINUOUS
 62
     7
 10
-162.7909734180507
 20
4.671464273873941
 30
0.0
 11
-155.2909734180507
 21
4.67146427387394
 31
0.0
  0
INSERT
  5
128
  8
LAYER0014
 62
     7
  2
_OPEN30
 10
-155.2909734180507
 20
4.67146427387394
 30
0.0
 41
2.250002090868945
 42
2.249997751034238
 50
360.0
  0
TEXT
  5
129
  8
LAYER0014
 62
     7
 10
-148.2052667330212
 20
6.17146427387394
 30
0.0
 40
6.0
  1
2.5
 41
0.8000000000000003
  7
FDASTYLE1
 72
     5
 11
-133.8052667330211
 21
6.17146427387394
 31
0.0
  0
ENDBLK
  5
7E
  8
0
  0
BLOCK
  8
0
  2
DA_IMAGEDIMGROUP_18
 70
     0
 10
0.0
 20
0.0
 30
0.0
  3
DA_IMAGEDIMGROUP_18
  1

  0
LINE
  5
12A
  8
LAYER0014
  6
CONTINUOUS
 62
     7
 10
-299.790961482221
 20
-87.64168010022411
 30
0.0
 11
-299.790961482221
 21
-106.0253154929008
 31
0.0
  0
LINE
  5
12B
  8
LAYER0014
  6
CONTINUOUS
 62
     7
 10
-269.0909959664871
 20
-104.0253231818998
 30
0.0
 11
-299.790961482221
 21
-104.0253231818998
 31
0.0
  0
INSERT
  5
12C
  8
LAYER0014
 62
     7
  2
_OPEN30
 10
-269.0909959664871
 20
-104.0253231818998
 30
0.0
 41
2.250002090868945
 42
2.249997751034238
 50
360.0
  0
INSERT
  5
12D
  8
LAYER0014
 62
     7
  2
_OPEN30
 10
-299.790961482221
 20
-104.0253231818998
 30
0.0
 41
2.250002090868945
 42
2.249997751034238
 50
180.0
  0
TEXT
  5
12E
  8
LAYER0014
 62
     7
 10
-294.0410016125369
 20
-101.6253232534254
 30
0.0
 40
6.0
  1
30.7
 41
0.8000000000000019
  7
FDASTYLE1
 72
     5
 11
-274.8410016125368
 21
-101.6253232534254
 31
0.0
  0
ENDBLK
  5
81
  8
0
  0
BLOCK
  8
0
  2
DA_IMAGEDIMGROUP_19
 70
     0
 10
0.0
 20
0.0
 30
0.0
  3
DA_IMAGEDIMGROUP_19
  1

  0
LINE
  5
12F
  8
LAYER0014
  6
CONTINUOUS
 62
     7
 10
-303.6009613686741
 20
-63.83167699512023
 30
0.0
 11
-319.2909609010757
 21
-63.83167699512023
 31
0.0
  0
LINE
  5
130
  8
LAYER0014
  6
CONTINUOUS
 62
     7
 10
-303.6009613686741
 20
-83.83168021377095
 30
0.0
 11
-319.2909609010757
 21
-83.83168021377095
 31
0.0
  0
LINE
  5
131
  8
LAYER0014
  6
CONTINUOUS
 62
     7
 10
-317.7909609457792
 20
-63.83167699512023
 30
0.0
 11
-317.7909609457792
 21
-83.83168021377095
 31
0.0
  0
INSERT
  5
132
  8
LAYER0014
 62
     7
  2
_OPEN30
 10
-317.7909609457792
 20
-63.83167699512023
 30
0.0
 41
2.250002090868945
 42
2.249997751034238
 50
90.0
  0
INSERT
  5
133
  8
LAYER0014
 62
     7
  2
_OPEN30
 10
-317.7909609457792
 20
-83.83168021377095
 30
0.0
 41
2.250002090868945
 42
2.249997751034238
 50
270.0
  0
TEXT
  5
134
  8
LAYER0014
 62
     7
 10
-320.1909608742535
 20
-81.03167860444559
 30
0.0
 40
6.0
  1
M20
 50
90.0
 41
0.7999999999999987
  7
FDASTYLE1
 72
     5
 11
-320.1909608742535
 21
-66.63167860444561
 31
0.0
  0
ENDBLK
  5
84
  8
0
  0
BLOCK
  8
0
  2
DA_IMAGEDIMGROUP_20
 70
     0
 10
0.0
 20
0.0
 30
0.0
  3
DA_IMAGEDIMGROUP_20
  1

  0
LINE
  5
135
  8
LAYER0014
  6
CONTINUOUS
 62
     7
 10
-274.7909774860675
 20
-211.7492922491423
 30
0.0
 11
-152.7909773072536
 21
-211.7492922491423
 31
0.0
  0
INSERT
  5
136
  8
LAYER0014
 62
     7
  2
_OPEN30
 10
-274.7909774860675
 20
-211.7492922491423
 30
0.0
 41
2.250002090868945
 42
2.249997751034238
 50
180.0
  0
INSERT
  5
137
  8
LAYER0014
 62
     7
  2
_OPEN30
 10
-152.7909773072536
 20
-211.7492922491423
 30
0.0
 41
2.250002090868945
 42
2.249997751034238
 50
360.0
  0
LINE
  5
138
  8
LAYER0014
  6
CONTINUOUS
 62
     7
 10
-274.7909774860675
 20
-135.1666859317934
 30
0.0
 11
-274.7909774860675
 21
-213.2492922491423
 31
0.0
  0
LINE
  5
139
  8
LAYER0014
  6
CONTINUOUS
 62
     7
 10
-152.7909773072536
 20
-133.1558675102751
 30
0.0
 11
-152.7909773072536
 21
-213.2492922491423
 31
0.0
  0
TEXT
  5
13A
  8
LAYER0014
 62
     7
 10
-220.9909773966606
 20
-210.2492922491423
 30
0.0
 40
6.0
  1
122
 41
0.7999999999999987
  7
FDASTYLE1
 72
     5
 11
-206.5909773966606
 21
-210.2492922491423
 31
0.0
  0
ENDBLK
  5
87
  8
0
  0
BLOCK
  8
0
  2
DA_IMAGEDIMGROUP_21
 70
     0
 10
0.0
 20
0.0
 30
0.0
  3
DA_IMAGEDIMGROUP_21
  1

  0
LINE
  5
13B
  8
LAYER0014
  6
CONTINUOUS
 62
     7
 10
-269.0909959664871
 20
-175.6856458987708
 30
0.0
 11
-214.9285372535057
 21
-175.6856458987708
 31
0.0
  0
INSERT
  5
13C
  8
LAYER0014
 62
     7
  2
_OPEN30
 10
-269.0909959664871
 20
-175.6856458987708
 30
0.0
 41
2.250002090868945
 42
2.249997751034238
 50
180.0
  0
INSERT
  5
13D
  8
LAYER0014
 62
     7
  2
_OPEN30
 10
-214.9285372535057
 20
-175.6856458987708
 30
0.0
 41
2.250002090868945
 42
2.249997751034238
 50
360.0
  0
LINE
  5
13E
  8
LAYER0014
  6
CONTINUOUS
 62
     7
 10
-269.0909959664871
 20
-149.166689329258
 30
0.0
 11
-269.0909959664871
 21
-177.1856458987708
 31
0.0
  0
LINE
  5
13F
  8
LAYER0014
  6
CONTINUOUS
 62
     7
 10
-214.9285372535057
 20
-14.01918616626314
 30
0.0
 11
-214.9285372535057
 21
-177.1856458987708
 31
0.0
  0
TEXT
  5
140
  8
LAYER0014
 62
     7
 10
-258.8097666099964
 20
-174.1856458987708
 30
0.0
 40
6.0
  1
MAX76.8
 41
0.8000000000000005
  7
FDASTYLE1
 72
     5
 11
-225.2097666099964
 21
-174.1856458987708
 31
0.0
  0
ENDBLK
  5
8A
  8
0
  0
BLOCK
  8
0
  2
DA_IMAGEDIMGROUP_22
 70
     0
 10
0.0
 20
0.0
 30
0.0
  3
DA_IMAGEDIMGROUP_22
  1

  0
LINE
  5
141
  8
LAYER0014
  6
CONTINUOUS
 62
     7
 10
-251.9285208920312
 20
113.9533180879438
 30
0.0
 11
-251.9285208920312
 21
241.639991681266
 31
0.0
  0
LINE
  5
142
  8
LAYER0014
  6
CONTINUOUS
 62
     7
 10
-269.0909959664871
 20
207.4532962279409
 30
0.0
 11
-269.0909959664871
 21
241.639991681266
 31
0.0
  0
LINE
  5
143
  8
LAYER0014
  6
CONTINUOUS
 62
     7
 10
-251.9285208920312
 20
240.1399917259695
 30
0.0
 11
-269.0909959664871
 21
240.1399917259695
 31
0.0
  0
LINE
  5
144
  8
LAYER0014
  6
CONTINUOUS
 62
     7
 10
-309.5795937331482
 20
240.1399917259695
 30
0.0
 11
-269.0909959664871
 21
240.1399917259695
 31
0.0
  0
INSERT
  5
145
  8
LAYER0014
 62
     7
  2
_OPEN30
 10
-269.0909959664871
 20
240.1399917259695
 30
0.0
 41
2.250002090868945
 42
2.249997751034238
 50
360.0
  0
LINE
  5
146
  8
LAYER0014
  6
CONTINUOUS
 62
     7
 10
-244.4285208920312
 20
240.1399917259695
 30
0.0
 11
-251.9285208920312
 21
240.1399917259695
 31
0.0
  0
INSERT
  5
147
  8
LAYER0014
 62
     7
  2
_OPEN30
 10
-251.9285208920312
 20
240.1399917259695
 30
0.0
 41
2.250002090868945
 42
2.249997751034238
 50
180.0
  0
TEXT
  5
148
  8
LAYER0014
 62
     7
 10
-308.0795937331482
 20
241.6399917259695
 30
0.0
 40
6.0
  1
MAX39.8
 41
0.8000000000000005
  7
FDASTYLE1
 72
     5
 11
-274.4795937331482
 21
241.6399917259695
 31
0.0
  0
ENDBLK
  5
8D
  8
0
  0
BLOCK
  8
0
  2
DA_IMAGEDIMGROUP_23
 70
     0
 10
0.0
 20
0.0
 30
0.0
  3
DA_IMAGEDIMGROUP_23
  1

  0
LINE
  5
149
  8
LAYER0014
  6
CONTINUOUS
 62
     7
 10
-153.7909734627542
 20
219.9837372568243
 30
0.0
 11
-153.7909734627542
 21
241.639991681266
 31
0.0
  0
LINE
  5
14A
  8
LAYER0014
  6
CONTINUOUS
 62
     7
 10
-152.7909773072536
 20
219.4532958703131
 30
0.0
 11
-152.7909773072536
 21
241.639991681266
 31
0.0
  0
LINE
  5
14B
  8
LAYER0014
  6
CONTINUOUS
 62
     7
 10
-153.7909734627542
 20
240.1399917259695
 30
0.0
 11
-152.7909773072536
 21
240.1399917259695
 31
0.0
  0
LINE
  5
14C
  8
LAYER0014
  6
CONTINUOUS
 62
     7
 10
-153.7909734627542
 20
240.1399917259695
 30
0.0
 11
-163.3159731788871
 21
240.1399917259695
 31
0.0
  0
INSERT
  5
14D
  8
LAYER0014
 62
     7
  2
_OPEN30
 10
-153.7909734627542
 20
240.1399917259695
 30
0.0
 41
2.250002090868945
 42
2.249997751034238
 50
360.0
  0
LINE
  5
14E
  8
LAYER0014
  6
CONTINUOUS
 62
     7
 10
-143.2659775911207
 20
240.1399917259695
 30
0.0
 11
-152.7909773072536
 21
240.1399917259695
 31
0.0
  0
INSERT
  5
14F
  8
LAYER0014
 62
     7
  2
_OPEN30
 10
-152.7909773072536
 20
240.1399917259695
 30
0.0
 41
2.250002090868945
 42
2.249997751034238
 50
180.0
  0
TEXT
  5
150
  8
LAYER0014
 62
     7
 10
-166.1944369097449
 20
242.5399916544439
 30
0.0
 40
6.0
  1
1
 41
0.8000000000000019
  7
FDASTYLE1
 72
     5
 11
-161.3944369097449
 21
242.5399916544439
 31
0.0
  0
ENDBLK
  5
90
  8
0
  0
BLOCK
  8
0
  2
DC_GROUP_1
 70
     0
 10
0.0
 20
0.0
 30
0.0
  3
DC_GROUP_1
  1

  0
LINE
  5
151
  8
LAYER0014
  6
CONTINUOUS
 62
     7
 10
-153.5905254123561
 20
209.4948136145104
 30
0.0
 11
-124.2856825116747
 21
252.7734737441746
 31
0.0
  0
INSERT
  5
152
  8
LAYER0014
 62
     7
  2
_OPEN30
 10
-153.5905254123561
 20
209.4948136145104
 30
0.0
 41
2.250002090868945
 42
2.249997751034238
 50
235.8972884860926
  0
LINE
  5
153
  8
LAYER0014
  6
CONTINUOUS
 62
     7
 10
-124.2856795422757
 20
252.7734676067868
 30
0.0
 11
-57.30798988797581
 21
252.7734676067868
 31
0.0
  0
TEXT
  5
154
  8
LAYER0014
 62
     7
 10
-122.8794181400938
 20
255.1734675352612
 30
0.0
 40
6.0
  1
ｾﾚｰｼｮﾝP1.5山60ﾟ
 41
0.7887323943661974
  7
FDASTYLE1
 72
     5
 11
-55.67941814009377
 21
255.1734675352612
 31
0.0
  0
ENDBLK
  5
93
  8
0
  0
BLOCK
  8
0
  2
DC_GROUP_2
 70
     0
 10
0.0
 20
0.0
 30
0.0
  3
DC_GROUP_2
  1

  0
LINE
  5
155
  8
LAYER0014
  6
CONTINUOUS
 62
     7
 10
-129.945872078367
 20
194.284685304443
 30
0.0
 11
-101.0159296341076
 21
240.1952445929811
 31
0.0
  0
INSERT
  5
156
  8
LAYER0014
 62
     7
  2
_OPEN30
 10
-129.945872078367
 20
194.284685304443
 30
0.0
 41
2.250002090868945
 42
2.249997751034238
 50
237.7834530706753
  0
LINE
  5
157
  8
LAYER0014
  6
CONTINUOUS
 62
     7
 10
-101.015927733327
 20
240.1952437995181
 30
0.0
 11
-84.94285577887017
 21
240.1952437995181
 31
0.0
  0
TEXT
  5
158
  8
LAYER0014
 62
     7
 10
-100.3870234094184
 20
242.5952437279926
 30
0.0
 40
6.0
  1
M16
 41
0.8000000000000003
  7
FDASTYLE1
 72
     5
 11
-85.98702340941841
 21
242.5952437279926
 31
0.0
  0
ENDBLK
  5
96
  8
0
  0
BLOCK
  8
0
  2
DC_GROUP_3
 70
     0
 10
0.0
 20
0.0
 30
0.0
  3
DC_GROUP_3
  1

  0
LINE
  5
159
  8
LAYER0014
  6
CONTINUOUS
 62
     7
 10
-220.9490061600251
 20
-131.8810707284802
 30
0.0
 11
-234.8062473730284
 21
-148.7755152452446
 31
0.0
  0
INSERT
  5
15A
  8
LAYER0014
 62
     7
  2
_OPEN30
 10
-220.9490061600251
 20
-131.8810707284802
 30
0.0
 41
2.250002090868945
 42
2.249997751034238
 50
50.64054901679854
  0
LINE
  5
15B
  8
LAYER0014
  6
CONTINUOUS
 62
     7
 10
-234.8062603549511
 20
-148.7755202124978
 30
0.0
 11
-265.4228791887089
 21
-148.7755202124978
 31
0.0
  0
TEXT
  5
15C
  8
LAYER0014
 62
     7
 10
-264.1757412339753
 20
-146.3755317281149
 30
0.0
 40
6.0
  1
M12×25
 41
0.774193548387097
  7
FDASTYLE1
 72
     5
 11
-235.3757412339753
 21
-146.3755317281149
 31
0.0
  0
ENDBLK
  5
99
  8
0
  0
BLOCK
  8
0
  2
DA_IMAGEDIMGROUP_24
 70
     0
 10
0.0
 20
0.0
 30
0.0
  3
DA_IMAGEDIMGROUP_24
  1

  0
LINE
  5
15D
  8
LAYER0014
  6
CONTINUOUS
 62
     7
 10
-110.784800122856
 20
144.9433125867332
 30
0.0
 11
-94.08840718783006
 21
144.9433125867332
 31
0.0
  0
LINE
  5
15E
  8
LAYER0014
  6
CONTINUOUS
 62
     7
 10
-111.0650315903345
 20
189.9433112456288
 30
0.0
 11
-94.08840718783006
 21
189.9433112456288
 31
0.0
  0
LINE
  5
15F
  8
LAYER0014
  6
CONTINUOUS
 62
     7
 10
-95.58840714312657
 20
144.9433125867332
 30
0.0
 11
-95.58840714312657
 21
189.9433112456288
 31
0.0
  0
INSERT
  5
160
  8
LAYER0014
 62
     7
  2
_OPEN30
 10
-95.58840714312657
 20
144.9433125867332
 30
0.0
 41
2.250002090868945
 42
2.249997751034238
 50
270.0
  0
INSERT
  5
161
  8
LAYER0014
 62
     7
  2
_OPEN30
 10
-95.58840714312657
 20
189.9433112456288
 30
0.0
 41
2.250002090868945
 42
2.249997751034238
 50
90.0
  0
TEXT
  5
162
  8
LAYER0014
 62
     7
 10
-97.988407071601
 20
162.643311916181
 30
0.0
 40
6.0
  1
45
 50
90.0
 41
0.7999999999999972
  7
FDASTYLE1
 72
     5
 11
-97.988407071601
 21
172.243311916181
 31
0.0
  0
ENDBLK
  5
9C
  8
0
  0
BLOCK
  8
0
  2
DA_IMAGEDIMGROUP_25
 70
     0
 10
0.0
 20
0.0
 30
0.0
  3
DA_IMAGEDIMGROUP_25
  1

  0
LINE
  5
163
  8
LAYER0014
  6
CONTINUOUS
 62
     7
 10
-90.38813897230098
 20
129.9433130337681
 30
0.0
 11
-79.08840763486488
 21
129.9433130337681
 31
0.0
  0
LINE
  5
164
  8
LAYER0014
  6
CONTINUOUS
 62
     7
 10
-147.480977465504
 20
204.9433222426854
 30
0.0
 11
-79.08840763486488
 21
204.9433222426854
 31
0.0
  0
LINE
  5
165
  8
LAYER0014
  6
CONTINUOUS
 62
     7
 10
-80.5884075901614
 20
129.9433130337681
 30
0.0
 11
-80.5884075901614
 21
204.9433222426854
 31
0.0
  0
INSERT
  5
166
  8
LAYER0014
 62
     7
  2
_OPEN30
 10
-80.5884075901614
 20
129.9433130337681
 30
0.0
 41
2.250002090868945
 42
2.249997751034238
 50
270.0
  0
INSERT
  5
167
  8
LAYER0014
 62
     7
  2
_OPEN30
 10
-80.5884075901614
 20
204.9433222426854
 30
0.0
 41
2.250002090868945
 42
2.249997751034238
 50
90.0
  0
TEXT
  5
168
  8
LAYER0014
 62
     7
 10
-82.98840751863583
 20
162.643311916181
 30
0.0
 40
6.0
  1
75
 50
90.0
 41
0.7999999999999972
  7
FDASTYLE1
 72
     5
 11
-82.98840751863583
 21
172.243311916181
 31
0.0
  0
ENDBLK
  5
9F
  8
0
  0
BLOCK
  8
0
  2
DA_IMAGEDIMGROUP_26
 70
     0
 10
0.0
 20
0.0
 30
0.0
  3
DA_IMAGEDIMGROUP_26
  1

  0
LINE
  5
169
  8
LAYER0014
  6
CONTINUOUS
 62
     7
 10
375.4084074333558
 20
43.64308748681872
 30
0.0
 11
386.9549134368994
 21
43.64308748681872
 31
0.0
  0
LINE
  5
16A
  8
LAYER0014
  6
CONTINUOUS
 62
     7
 10
343.1212172378634
 20
136.0774201631436
 30
0.0
 11
359.6329695979542
 21
145.6104321068006
 31
0.0
  0
ARC
  5
16B
  8
LAYER0014
  6
CONTINUOUS
 62
     7
 10
183.0202538346942
 20
43.64331636864783
 30
0.0
 40
202.4346710910001
 50
359.9999352187912
 51
389.9999291178398
  0
INSERT
  5
16C
  8
LAYER0014
 62
     7
  2
_OPEN30
 10
385.4549249255649
 20
43.64308748682073
 30
0.0
 41
2.250002090868945
 42
2.249997751034238
 50
270.318348083422
  0
INSERT
  5
16D
  8
LAYER0014
 62
     7
  2
_OPEN30
 10
358.3339468248199
 20
144.8604350289087
 30
0.0
 41
2.250002090868945
 42
2.249997751034238
 50
119.6815162532071
  0
TEXT
  5
16E
  8
LAYER0014
 62
     7
 10
379.0118723631582
 20
103.6130883254744
 30
0.0
 40
6.0
  1
30ﾟ
 50
-74.99999999999997
 41
0.7999999999999996
  7
FDASTYLE1
 72
     5
 11
382.7388666126345
 21
89.70375642691178
 31
0.0
  0
ENDBLK
  5
A2
  8
0
  0
BLOCK
  8
0
  2
DC_GROUP_4
 70
     0
 10
0.0
 20
0.0
 30
0.0
  3
DC_GROUP_4
  1

  0
LINE
  5
16F
  8
LAYER0014
  6
CONTINUOUS
 62
     7
 10
186.2418452217547
 20
-38.81284390648682
 30
0.0
 11
241.3998152539887
 21
-157.5991108085075
 31
0.0
  0
INSERT
  5
170
  8
LAYER0014
 62
     7
  2
_OPEN30
 10
186.2418452217547
 20
-38.81284390648682
 30
0.0
 41
2.250002090868945
 42
2.249997751034238
 50
114.9076270459628
  0
LINE
  5
171
  8
LAYER0014
  6
CONTINUOUS
 62
     7
 10
241.3998030286859
 20
-157.5991092744855
 30
0.0
 11
316.1443228958522
 21
-157.5991092744855
 31
0.0
  0
TEXT
  5
172
  8
LAYER0014
 62
     7
 10
241.7544554229016
 20
-155.1991207901026
 30
0.0
 40
6.0
  1
3-M10×20 PCD156
 41
0.7894736842105266
  7
FDASTYLE1
 72
     5
 11
313.7544554229016
 21
-155.1991207901026
 31
0.0
  0
ENDBLK
  5
A5
  8
0
  0
BLOCK
  8
0
  2
DA_IMAGEDIMGROUP_27
 70
     0
 10
0.0
 20
0.0
 30
0.0
  3
DA_IMAGEDIMGROUP_27
  1

  0
LINE
  5
173
  8
LAYER0014
  6
CONTINUOUS
 62
     7
 10
183.0195443010242
 20
232.9341380588845
 30
0.0
 11
183.0195443010242
 21
247.5779874149442
 31
0.0
  0
LINE
  5
174
  8
LAYER0014
  6
CONTINUOUS
 62
     7
 10
109.8777107389227
 20
170.3298196011135
 30
0.0
 11
81.05218999475555
 21
220.2555150356494
 31
0.0
  0
ARC
  5
175
  8
LAYER0014
  6
CONTINUOUS
 62
     7
 10
183.0202309465113
 20
43.64334783989933
 30
0.0
 40
202.4346482028172
 50
90.00019374977492
 51
120.000235565736
  0
INSERT
  5
176
  8
LAYER0014
 62
     7
  2
_OPEN30
 10
183.0195463992748
 20
246.0779960415591
 30
0.0
 41
2.250002090868945
 42
2.249997751034238
 50
0.3186066504077366
  0
INSERT
  5
177
  8
LAYER0014
 62
     7
  2
_OPEN30
 10
81.80218606224065
 20
218.9564796435499
 30
0.0
 41
2.250002090868945
 42
2.249997751034238
 50
209.6818226651024
  0
TEXT
  5
178
  8
LAYER0014
 62
     7
 10
123.0497322898773
 20
239.6347403475571
 30
0.0
 40
6.0
  1
30ﾟ
 50
15.0
 41
0.8000000000000007
  7
FDASTYLE1
 72
     5
 11
136.9590641884399
 21
243.3617345970334
 31
0.0
  0
ENDBLK
  5
A8
  8
0
  0
BLOCK
  8
0
  2
DC_GROUP_5
 70
     0
 10
0.0
 20
0.0
 30
0.0
  3
DC_GROUP_5
  1

  0
LINE
  5
179
  8
LAYER0014
  6
CONTINUOUS
 62
     7
 10
119.4392267101704
 20
-74.21250373805141
 30
0.0
 11
85.00627115104496
 21
-157.5991087165822
 31
0.0
  0
INSERT
  5
17A
  8
LAYER0014
 62
     7
  2
_OPEN30
 10
119.4392267101704
 20
-74.21250373805141
 30
0.0
 41
2.250002090868945
 42
2.249997751034238
 50
67.56272786181421
  0
LINE
  5
17B
  8
LAYER0014
  6
CONTINUOUS
 62
     7
 10
85.00627398291124
 20
-157.5991092744855
 30
0.0
 11
34.49574501644054
 21
-157.5991092744855
 31
0.0
  0
TEXT
  5
17C
  8
LAYER0014
 62
     7
 10
37.23859948219771
 20
-155.1991093460111
 30
0.0
 40
6.0
  1
PCD234.95
 41
0.8
  7
FDASTYLE1
 72
     5
 11
80.43859948219772
 21
-155.1991093460111
 31
0.0
  0
ENDBLK
  5
AB
  8
0
  0
BLOCK
  8
0
  2
DA_IMAGEDIMGROUP_28
 70
     0
 10
0.0
 20
0.0
 30
0.0
  3
DA_IMAGEDIMGROUP_28
  1

  0
LINE
  5
17D
  8
0
  6
CONTINUOUS
 62
     9
 10
-252.4285105070493
 20
88.89330002891457
 30
0.0
 11
-292.5642140305114
 21
88.89330002891457
 31
0.0
  0
LINE
  5
17E
  8
0
  6
CONTINUOUS
 62
     9
 10
-252.4284786782866
 20
-1.606726679096186
 30
0.0
 11
-292.5642140305114
 21
-1.606726679096186
 31
0.0
  0
LINE
  5
17F
  8
0
  6
CONTINUOUS
 62
     9
 10
-291.0642140305114
 20
-1.606726679096186
 30
0.0
 11
-291.0642140305114
 21
88.89330002891457
 31
0.0
  0
INSERT
  5
180
  8
0
 62
     9
  2
_OPEN30
 10
-291.0642140305114
 20
-1.606726679096186
 30
0.0
 41
2.250002090868945
 42
2.249997751034238
 50
270.0
  0
INSERT
  5
181
  8
0
 62
     9
  2
_OPEN30
 10
-291.0642140305114
 20
88.89330002891457
 30
0.0
 41
2.250002090868945
 42
2.249997751034238
 50
90.0
  0
TEXT
  5
182
  8
0
 62
     7
 10
-292.5642140305114
 20
25.61328667490919
 30
0.0
 40
6.0
  1
φ90.5
 50
90.0
 41
0.7692307692307693
  7
FDASTYLE1
 72
     5
 11
-292.5642140305114
 21
49.61328667490919
 31
0.0
  0
TEXT
  5
183
  8
0
 62
     7
 10
-295.8642140305114
 20
51.11328667490919
 30
0.0
 40
3.3
  1
+0.5
 50
90.0
 41
0.8000000000000002
  7
FDASTYLE1
 72
     5
 11
-295.8642140305114
 21
61.67328667490919
 31
0.0
  0
TEXT
  5
184
  8
0
 62
     7
 10
-292.2642140305114
 20
51.11328667490919
 30
0.0
 40
3.3
  1
　0
 50
90.0
 41
0.7272727272727314
  7
FDASTYLE1
 72
     5
 11
-292.2642140305114
 21
56.39328667490922
 31
0.0
  0
ENDBLK
  5
AE
  8
0
  0
BLOCK
  8
0
  2
DA_IMAGEDIMGROUP_29
 70
     0
 10
0.0
 20
0.0
 30
0.0
  3
DA_IMAGEDIMGROUP_29
  1

  0
LINE
  5
185
  8
0
  6
CONTINUOUS
 62
     9
 10
-274.7909774860675
 20
-197.7685832237828
 30
0.0
 11
-269.0909959664871
 21
-197.7685832237828
 31
0.0
  0
LINE
  5
186
  8
0
  6
CONTINUOUS
 62
     9
 10
-274.7909774860675
 20
-132.8566860453402
 30
0.0
 11
-274.7909774860675
 21
-199.2685832237828
 31
0.0
  0
LINE
  5
187
  8
0
  6
CONTINUOUS
 62
     9
 10
-269.0909959664871
 20
-117.856686492375
 30
0.0
 11
-269.0909959664871
 21
-199.2685832237828
 31
0.0
  0
LINE
  5
188
  8
0
  6
CONTINUOUS
 62
     9
 10
-152.7909773072536
 20
-129.8566861347472
 30
0.0
 11
-152.7909773072536
 21
-199.2685832237828
 31
0.0
  0
LINE
  5
189
  8
0
  6
CONTINUOUS
 62
     9
 10
-295.0887524860675
 20
-197.7685832237828
 30
0.0
 11
-274.7909774860675
 21
-197.7685832237828
 31
0.0
  0
INSERT
  5
18A
  8
0
 62
     9
  2
_OPEN30
 10
-274.7909774860675
 20
-197.7685832237828
 30
0.0
 41
2.250002090868945
 42
2.249997751034238
 50
360.0
  0
LINE
  5
18B
  8
0
  6
CONTINUOUS
 62
     9
 10
-269.0909959664871
 20
-197.7685832237828
 30
0.0
 11
-152.7909773072536
 21
-197.7685832237828
 31
0.0
  0
INSERT
  5
18C
  8
0
 62
     9
  2
_OPEN30
 10
-269.0909959664871
 20
-197.7685832237828
 30
0.0
 41
2.250002090868945
 42
2.249997751034238
 50
180.0
  0
INSERT
  5
18D
  8
0
 62
     9
  2
_OPEN30
 10
-152.7909773072536
 20
-197.7685832237828
 30
0.0
 41
2.250002090868945
 42
2.249997751034238
 50
360.0
  0
TEXT
  5
18E
  8
0
 62
     7
 10
-293.5887524860675
 20
-196.2685832237828
 30
0.0
 40
6.0
  1
5.7
 41
0.7999999999999987
  7
FDASTYLE1
 72
     5
 11
-279.1887524860675
 21
-196.2685832237828
 31
0.0
  0
TEXT
  5
18F
  8
0
 62
     7
 10
-222.9409866368704
 20
-196.2685832237828
 30
0.0
 40
6.0
  1
116.3
 41
0.8
  7
FDASTYLE1
 72
     5
 11
-198.9409866368704
 21
-196.2685832237828
 31
0.0
  0
ENDBLK
  5
B1
  8
0
  0
BLOCK
  8
0
  2
DA_IMAGEDIMGROUP_30
 70
     0
 10
0.0
 20
0.0
 30
0.0
  3
DA_IMAGEDIMGROUP_30
  1

  0
LINE
  5
190
  8
0
  6
CONTINUOUS
 62
     9
 10
-269.0909959664871
 20
-161.042629382977
 30
0.0
 11
-220.2909638515055
 21
-161.042629382977
 31
0.0
  0
INSERT
  5
191
  8
0
 62
     9
  2
_OPEN30
 10
-269.0909959664871
 20
-161.042629382977
 30
0.0
 41
2.250002090868945
 42
2.249997751034238
 50
180.0
  0
INSERT
  5
192
  8
0
 62
     9
  2
_OPEN30
 10
-220.2909638515055
 20
-161.042629382977
 30
0.0
 41
2.250002090868945
 42
2.249997751034238
 50
360.0
  0
LINE
  5
193
  8
0
  6
CONTINUOUS
 62
     9
 10
-269.0909959664871
 20
-117.856686492375
 30
0.0
 11
-269.0909959664871
 21
-162.542629382977
 31
0.0
  0
LINE
  5
194
  8
0
  6
CONTINUOUS
 62
     9
 10
-220.2909638515055
 20
-139.0785181353058
 30
0.0
 11
-220.2909638515055
 21
-162.542629382977
 31
0.0
  0
TEXT
  5
195
  8
0
 62
     7
 10
-254.2909799089963
 20
-159.542629382977
 30
0.0
 40
6.0
  1
48.8
 41
0.7999999999999995
  7
FDASTYLE1
 72
     5
 11
-235.0909799089963
 21
-159.542629382977
 31
0.0
  0
ENDBLK
  5
B4
  8
0
  0
BLOCK
  8
0
  2
DA_IMAGEDIMGROUP_31
 70
     0
 10
0.0
 20
0.0
 30
0.0
  3
DA_IMAGEDIMGROUP_31
  1

  0
TEXT
  5
196
  8
LAYER0014
 62
     7
 10
-259.2573985504797
 20
-183.3924966965572
 30
0.0
 40
6.0
  1
MIN35.3
 41
0.7999999999999998
  7
FDASTYLE1
 72
     5
 11
-225.6573985504797
 21
-183.3924966965572
 31
0.0
  0
ENDBLK
  5
B7
  8
0
  0
BLOCK
  8
0
  2
DA_IMAGEDIMGROUP_32
 70
     0
 10
0.0
 20
0.0
 30
0.0
  3
DA_IMAGEDIMGROUP_32
  1

  0
TEXT
  5
197
  8
LAYER0014
 62
     7
 10
-308.579932429441
 20
232.5965370296435
 30
0.0
 40
6.0
  1
MIN-1.7
 41
0.8000000000000005
  7
FDASTYLE1
 72
     5
 11
-274.979932429441
 21
232.5965370296435
 31
0.0
  0
ENDBLK
  5
BA
  8
0
  0
BLOCK
  8
0
  2
DA_IMAGEDIMGROUP_33
 70
     0
 10
0.0
 20
0.0
 30
0.0
  3
DA_IMAGEDIMGROUP_33
  1

  0
TEXT
  5
198
  8
LAYER0014
 62
     7
 10
-57.75751579548378
 20
63.49331108022585
 30
0.0
 40
6.0
  1
MIN70.8
 50
90.0
 41
0.8000000000000005
  7
FDASTYLE1
 72
     5
 11
-57.75751579548378
 21
97.09331108022587
 31
0.0
  0
ENDBLK
  5
BD
  8
0
  0
BLOCK
  8
0
  2
DA_IMAGEDIMGROUP_34
 70
     0
 10
0.0
 20
0.0
 30
0.0
  3
DA_IMAGEDIMGROUP_34
  1

  0
LINE
  5
199
  8
0
  6
CONTINUOUS
 62
     9
 10
133.0202323770227
 20
53.14331422288068
 30
0.0
 11
133.0202323770227
 21
62.99391440910873
 31
0.0
  0
LINE
  5
19A
  8
0
  6
CONTINUOUS
 62
     9
 10
233.0202409600913
 20
53.14331422288068
 30
0.0
 11
233.0202409600913
 21
62.99391440910873
 31
0.0
  0
LINE
  5
19B
  8
0
  6
CONTINUOUS
 62
     9
 10
133.0202323770227
 20
61.49391440910873
 30
0.0
 11
233.0202409600913
 21
61.49391440910873
 31
0.0
  0
INSERT
  5
19C
  8
0
 62
     9
  2
_OPEN30
 10
133.0202323770227
 20
61.49391440910873
 30
0.0
 41
2.250002090868945
 42
2.249997751034238
 50
180.0
  0
INSERT
  5
19D
  8
0
 62
     9
  2
_OPEN30
 10
233.0202409600913
 20
61.49391440910873
 30
0.0
 41
2.250002090868945
 42
2.249997751034238
 50
360.0
  0
TEXT
  5
19E
  8
0
 62
     7
 10
168.6202366685569
 20
62.99391440910873
 30
0.0
 40
6.0
  1
PCD100
 41
0.8000000000000003
  7
FDASTYLE1
 72
     5
 11
197.420236668557
 21
62.99391440910873
 31
0.0
  0
ENDBLK
  5
C0
  8
0
  0
BLOCK
  8
0
  2
DC_GROUP_6
 70
     0
 10
0.0
 20
0.0
 30
0.0
  3
DC_GROUP_6
  1

  0
LINE
  5
19F
  8
0
  6
CONTINUOUS
 62
     7
 10
234.7173662202425
 20
46.23749559363527
 30
0.0
 11
323.2312524538672
 21
193.6336866902237
 31
0.0
  0
INSERT
  5
1A0
  8
0
 62
     7
  2
_OPEN30
 10
234.7173662202425
 20
46.23749559363527
 30
0.0
 41
2.250002090868945
 42
2.249997751034238
 50
239.0144768287846
  0
LINE
  5
1A1
  8
0
  6
CONTINUOUS
 62
     7
 10
323.2312524538672
 20
193.6336866902237
 30
0.0
 11
352.0312524538672
 21
193.6336866902237
 31
0.0
  0
TEXT
  5
1A2
  8
0
 62
     7
 10
323.2312524538672
 20
193.6336866902237
 30
0.0
 40
6.0
  1
2-φ6.2
 41
0.774193548387097
  7
FDASTYLE1
 72
     5
 11
352.0312524538672
 21
193.6336866902237
 31
0.0
  0
ENDBLK
  5
C3
  8
0
  0
BLOCK
  8
0
  2
_OPEN30
 70
     0
 10
0.0
 20
0.0
 30
0.0
  3
_OPEN30
  1

  0
LINE
  5
CB
  8
0
  6
BYBLOCK
 62
     0
 10
-1.0
 20
0.267949
 30
0.0
 11
0.0
 21
0.0
 31
0.0
  0
LINE
  5
CC
  8
0
  6
BYBLOCK
 62
     0
 10
0.0
 20
0.0
 30
0.0
 11
-1.0
 21
-0.267949
 31
0.0
  0
LINE
  5
CD
  8
0
  6
BYBLOCK
 62
     0
 10
0.0
 20
0.0
 30
0.0
 11
-1.0
 21
0.0
 31
0.0
  0
ENDBLK
  5
CA
  8
0
  0
ENDSEC
  0
SECTION
  2
ENTITIES
  0
LINE
  5
1A3
  8
ZUWAKU
  6
CONTINUOUS
 62
     3
 10
-415.5
 20
-284.9999999999999
 30
0.0
 11
-415.5
 21
284.9999999999999
 31
0.0
  0
LINE
  5
1A4
  8
ZUWAKU
  6
CONTINUOUS
 62
     3
 10
415.5
 20
-284.9999999999999
 30
0.0
 11
415.5
 21
284.9999999999999
 31
0.0
  0
LINE
  5
1A5
  8
ZUWAKU
  6
CONTINUOUS
 62
     3
 10
-415.5
 20
-284.9999999999999
 30
0.0
 11
415.5
 21
-284.9999999999999
 31
0.0
  0
LINE
  5
1A6
  8
ZUWAKU
  6
CONTINUOUS
 62
     3
 10
-415.5
 20
284.9999999999999
 30
0.0
 11
415.5
 21
284.9999999999999
 31
0.0
  0
LINE
  5
1A7
  8
ZUWAKU
  6
CONTINUOUS
 62
     3
 10
145.5
 20
-284.9999999999999
 30
0.0
 11
145.5
 21
-194.9999999999999
 31
0.0
  0
LINE
  5
1A8
  8
ZUWAKU
  6
CONTINUOUS
 62
     3
 10
145.5
 20
-263.9999999999999
 30
0.0
 11
415.5
 21
-263.9999999999999
 31
0.0
  0
LINE
  5
1A9
  8
ZUWAKU
  6
CONTINUOUS
 62
     3
 10
219.0
 20
-242.9999999999999
 30
0.0
 11
415.5
 21
-242.9999999999999
 31
0.0
  0
LINE
  5
1AA
  8
ZUWAKU
  6
CONTINUOUS
 62
     3
 10
219.0
 20
-221.9999999999999
 30
0.0
 11
415.5
 21
-221.9999999999999
 31
0.0
  0
LINE
  5
1AB
  8
ZUWAKU
  6
CONTINUOUS
 62
     3
 10
219.0
 20
-206.9999999999999
 30
0.0
 11
415.5
 21
-206.9999999999999
 31
0.0
  0
LINE
  5
1AC
  8
ZUWAKU
  6
CONTINUOUS
 62
     3
 10
219.0
 20
-263.9999999999999
 30
0.0
 11
219.0
 21
-194.9999999999999
 31
0.0
  0
LINE
  5
1AD
  8
ZUWAKU
  6
CONTINUOUS
 62
     3
 10
382.5
 20
-263.9999999999999
 30
0.0
 11
382.5
 21
-194.9999999999999
 31
0.0
  0
LINE
  5
1AE
  8
ZUWAKU
  6
CONTINUOUS
 62
     3
 10
256.5
 20
-284.9999999999999
 30
0.0
 11
256.5
 21
-263.9999999999999
 31
0.0
  0
LINE
  5
1AF
  8
ZUWAKU
  6
CONTINUOUS
 62
     3
 10
393.0
 20
-281.9999999999999
 30
0.0
 11
408.0
 21
-281.9999999999999
 31
0.0
  0
LINE
  5
1B0
  8
ZUWAKU
  6
CONTINUOUS
 62
     3
 10
400.5
 20
-266.9999999999999
 30
0.0
 11
393.0
 21
-281.9999999999999
 31
0.0
  0
LINE
  5
1B1
  8
ZUWAKU
  6
CONTINUOUS
 62
     3
 10
400.5
 20
-266.9999999999999
 30
0.0
 11
408.0
 21
-281.9999999999999
 31
0.0
  0
LINE
  5
1B2
  8
ZUWAKU
  6
CONTINUOUS
 62
     3
 10
145.5
 20
-194.9999999999999
 30
0.0
 11
415.5
 21
-194.9999999999999
 31
0.0
  0
LINE
  5
1B3
  8
ZUWAKU
  6
CONTINUOUS
 62
     3
 10
338.9999999999999
 20
-263.9999999999999
 30
0.0
 11
338.9999999999999
 21
-221.9999999999999
 31
0.0
  0
LINE
  5
1B4
  8
ZUWAKU
  6
CONTINUOUS
 62
     4
 10
157.5
 20
-257.9999999999999
 30
0.0
 11
157.5
 21
-194.9999999999999
 31
0.0
  0
LINE
  5
1B5
  8
ZUWAKU
  6
CONTINUOUS
 62
     4
 10
163.5
 20
-257.9999999999999
 30
0.0
 11
163.5
 21
-194.9999999999999
 31
0.0
  0
LINE
  5
1B6
  8
ZUWAKU
  6
CONTINUOUS
 62
     4
 10
182.25
 20
-263.9999999999999
 30
0.0
 11
182.25
 21
-194.9999999999999
 31
0.0
  0
LINE
  5
1B7
  8
ZUWAKU
  6
CONTINUOUS
 62
     4
 10
145.5
 20
-205.4999999999999
 30
0.0
 11
219.0
 21
-205.4999999999999
 31
0.0
  0
LINE
  5
1B8
  8
ZUWAKU
  6
CONTINUOUS
 62
     4
 10
145.5
 20
-215.9999999999999
 30
0.0
 11
219.0
 21
-215.9999999999999
 31
0.0
  0
LINE
  5
1B9
  8
ZUWAKU
  6
CONTINUOUS
 62
     4
 10
145.5
 20
-247.4999999999999
 30
0.0
 11
219.0
 21
-247.4999999999999
 31
0.0
  0
LINE
  5
1BA
  8
ZUWAKU
  6
CONTINUOUS
 62
     4
 10
145.5
 20
-257.9999999999999
 30
0.0
 11
219.0
 21
-257.9999999999999
 31
0.0
  0
LINE
  5
1BB
  8
ZUWAKU
  6
CONTINUOUS
 62
     4
 10
382.5
 20
-248.9999999999999
 30
0.0
 11
415.5
 21
-248.9999999999999
 31
0.0
  0
LINE
  5
1BC
  8
ZUWAKU
  6
CONTINUOUS
 62
     4
 10
229.5
 20
-209.2499999999999
 30
0.0
 11
229.5
 21
-194.9999999999999
 31
0.0
  0
LINE
  5
1BD
  8
ZUWAKU
  6
CONTINUOUS
 62
     4
 10
303.0
 20
-221.9999999999999
 30
0.0
 11
303.0
 21
-219.7499999999999
 31
0.0
  0
LINE
  5
1BE
  8
ZUWAKU
  6
CONTINUOUS
 62
     4
 10
339.0
 20
-221.9999999999999
 30
0.0
 11
339.0
 21
-219.7499999999999
 31
0.0
  0
LINE
  5
1BF
  8
ZUWAKU
  6
CONTINUOUS
 62
     4
 10
364.5
 20
-221.9999999999999
 30
0.0
 11
364.5
 21
-219.7499999999999
 31
0.0
  0
LINE
  5
1C0
  8
ZUWAKU
  6
CONTINUOUS
 62
     4
 10
303.0
 20
-209.2499999999999
 30
0.0
 11
303.0
 21
-194.9999999999999
 31
0.0
  0
LINE
  5
1C1
  8
ZUWAKU
  6
CONTINUOUS
 62
     4
 10
339.0
 20
-209.2499999999999
 30
0.0
 11
339.0
 21
-194.9999999999999
 31
0.0
  0
LINE
  5
1C2
  8
ZUWAKU
  6
CONTINUOUS
 62
     4
 10
364.5
 20
-209.2499999999999
 30
0.0
 11
364.5
 21
-194.9999999999999
 31
0.0
  0
LINE
  5
1C3
  8
ZUWAKU
  6
CONTINUOUS
 62
     4
 10
145.5
 20
-226.4999999999999
 30
0.0
 11
219.0
 21
-226.4999999999999
 31
0.0
  0
LINE
  5
1C4
  8
ZUWAKU
  6
CONTINUOUS
 62
     4
 10
145.5
 20
-236.9999999999999
 30
0.0
 11
219.0
 21
-236.9999999999999
 31
0.0
  0
LINE
  5
1C5
  8
ZUWAKU
  6
CONTINUOUS
 62
     4
 10
151.5
 20
-195.7499999999999
 30
0.0
 11
147.0
 21
-204.7499999999999
 31
0.0
  0
LINE
  5
1C6
  8
ZUWAKU
  6
CONTINUOUS
 62
     4
 10
151.5
 20
-195.7499999999999
 30
0.0
 11
156.0
 21
-204.7499999999999
 31
0.0
  0
LINE
  5
1C7
  8
ZUWAKU
  6
CONTINUOUS
 62
     4
 10
147.0
 20
-204.7499999999999
 30
0.0
 11
156.0
 21
-204.7499999999999
 31
0.0
  0
LINE
  5
1C8
  8
ZUWAKU
  6
CONTINUOUS
 62
     4
 10
151.5
 20
-237.7499999999999
 30
0.0
 11
147.0
 21
-246.7499999999999
 31
0.0
  0
LINE
  5
1C9
  8
ZUWAKU
  6
CONTINUOUS
 62
     4
 10
151.5
 20
-237.7499999999999
 30
0.0
 11
156.0
 21
-246.7499999999999
 31
0.0
  0
LINE
  5
1CA
  8
ZUWAKU
  6
CONTINUOUS
 62
     4
 10
147.0
 20
-246.7499999999999
 30
0.0
 11
156.0
 21
-246.7499999999999
 31
0.0
  0
LINE
  5
1CB
  8
ZUWAKU
  6
CONTINUOUS
 62
     4
 10
151.5
 20
-227.2499999999999
 30
0.0
 11
147.0
 21
-236.2499999999999
 31
0.0
  0
LINE
  5
1CC
  8
ZUWAKU
  6
CONTINUOUS
 62
     4
 10
151.5
 20
-227.2499999999999
 30
0.0
 11
156.0
 21
-236.2499999999999
 31
0.0
  0
LINE
  5
1CD
  8
ZUWAKU
  6
CONTINUOUS
 62
     4
 10
147.0
 20
-236.2499999999999
 30
0.0
 11
156.0
 21
-236.2499999999999
 31
0.0
  0
LINE
  5
1CE
  8
ZUWAKU
  6
CONTINUOUS
 62
     4
 10
151.5
 20
-216.7499999999999
 30
0.0
 11
147.0
 21
-225.7499999999999
 31
0.0
  0
LINE
  5
1CF
  8
ZUWAKU
  6
CONTINUOUS
 62
     4
 10
151.5
 20
-216.7499999999999
 30
0.0
 11
156.0
 21
-225.7499999999999
 31
0.0
  0
LINE
  5
1D0
  8
ZUWAKU
  6
CONTINUOUS
 62
     4
 10
147.0
 20
-225.7499999999999
 30
0.0
 11
156.0
 21
-225.7499999999999
 31
0.0
  0
LINE
  5
1D1
  8
ZUWAKU
  6
CONTINUOUS
 62
     4
 10
151.5
 20
-206.2499999999999
 30
0.0
 11
147.0
 21
-215.2499999999999
 31
0.0
  0
LINE
  5
1D2
  8
ZUWAKU
  6
CONTINUOUS
 62
     4
 10
151.5
 20
-206.2499999999999
 30
0.0
 11
156.0
 21
-215.2499999999999
 31
0.0
  0
LINE
  5
1D3
  8
ZUWAKU
  6
CONTINUOUS
 62
     4
 10
147.0
 20
-215.2499999999999
 30
0.0
 11
156.0
 21
-215.2499999999999
 31
0.0
  0
LINE
  5
1D4
  8
ZUWAKU
  6
CONTINUOUS
 62
     4
 10
258.9999999999999
 20
-263.9999999999999
 30
0.0
 11
258.9999999999999
 21
-242.9999999999999
 31
0.0
  0
LINE
  5
1D5
  8
ZUWAKU
  6
CONTINUOUS
 62
     4
 10
299.0
 20
-263.9999999999999
 30
0.0
 11
299.0
 21
-242.9264123635879
 31
0.0
  0
LINE
  5
1D6
  8
ZUWAKU
  6
CONTINUOUS
 62
     4
 10
318.9999999999999
 20
-251.2499999999999
 30
0.0
 11
318.9999999999999
 21
-242.9264123635879
 31
0.0
  0
LINE
  5
1D7
  8
ZUWAKU
  6
CONTINUOUS
 62
     4
 10
338.9999999999999
 20
-232.4999999999999
 30
0.0
 11
382.4999999999999
 21
-232.4999999999999
 31
0.0
  0
LINE
  5
1D8
  8
ZUWAKU
  6
CONTINUOUS
 62
     4
 10
219.0
 20
-248.9999999999999
 30
0.0
 11
338.9999999999999
 21
-248.9999999999999
 31
0.0
  0
TEXT
  5
1DA
  8
ZUWAKU
 62
     7
 10
222.4698452212121
 20
-196.2317830934339
 30
0.0
 40
3.998400000000001
  1
符号
 41
0.8
  7
FDASTYLE0
  0
TEXT
  5
1DB
  8
ZUWAKU
 62
     7
 10
243.6211966828587
 20
-203.7368287529944
 30
0.0
 40
6.0
  1
品       名
 41
0.7659574468085104
  7
FDASTYLE1
 72
     5
 11
286.8211966828587
 21
-203.7368287529944
 31
0.0
  0
TEXT
  5
1DC
  8
ZUWAKU
 62
     7
 10
310.8497346619644
 20
-203.7368287529944
 30
0.0
 40
6.0
  1
材  料
 41
0.7272727272727269
  7
FDASTYLE1
 72
     5
 11
330.0497346619644
 21
-203.7368287529944
 31
0.0
  0
TEXT
  5
1DD
  8
ZUWAKU
 62
     7
 10
344.2740925272825
 20
-203.7368287529944
 30
0.0
 40
6.0
  1
個 数
 41
0.7058823529411754
  7
FDASTYLE1
 72
     5
 11
358.6740925272825
 21
-203.7368287529944
 31
0.0
  0
TEXT
  5
1DE
  8
ZUWAKU
 62
     7
 10
368.582716429332
 20
-200.3473620075858
 30
0.0
 40
3.75
  1
単重量
 41
0.6666666666666666
  7
FDASTYLE1
 72
     5
 11
377.582716429332
 21
-200.3473620075858
 31
0.0
  0
TEXT
  5
1DF
  8
ZUWAKU
 62
     7
 10
367.0634274354539
 20
-206.0446957346287
 30
0.0
 40
3.75
  1
(kg)
 41
0.8
  7
FDASTYLE1
 72
     5
 11
379.0634274354539
 21
-206.0446957346287
 31
0.0
  0
TEXT
  5
1E0
  8
ZUWAKU
 62
     7
 10
388.7132955982168
 20
-203.7368287529944
 30
0.0
 40
6.0
  1
記  事
 41
0.7272727272727269
  7
FDASTYLE1
 72
     5
 11
407.9132955982167
 21
-203.7368287529944
 31
0.0
  0
TEXT
  5
1E1
  8
ZUWAKU
 62
     7
 10
388.2676191827468
 20
-248.2309562996593
 30
0.0
 40
4.5
  1
コード番号
 41
0.6666666666666666
  7
FDASTYLE1
 72
     5
 11
406.2676191827468
 21
-248.2309562996593
 31
0.0
  0
TEXT
  5
1E2
  8
ZUWAKU
 62
     7
 10
152.8679880237475
 20
-262.7818515810507
 30
0.0
 40
3.75
  1
訂 正 来 歴
 41
0.717948717948718
  7
FDASTYLE1
 72
     5
 11
173.8679880237475
 21
-262.7818515810507
 31
0.0
  0
TEXT
  5
1E3
  8
ZUWAKU
 62
     7
 10
188.8355022701475
 20
-262.8250046087477
 30
0.0
 40
3.75
  1
工 事 番 号
 41
0.717948717948718
  7
FDASTYLE1
 72
     5
 11
209.8355022701475
 21
-262.8250046087477
 31
0.0
  0
TEXT
  5
1E4
  8
ZUWAKU
 62
     7
 10
149.9472567699043
 20
-248.9451795848872
 30
0.0
 40
3.12375
  1
記号
 41
0.8
  7
FDASTYLE0
  0
TEXT
  5
1E5
  8
ZUWAKU
 62
     7
 10
158.8563373601427
 20
-248.9451795848872
 30
0.0
 40
3.12375
  1
理由
 41
0.8
  7
FDASTYLE0
  0
TEXT
  5
1E6
  8
ZUWAKU
 62
     7
 10
167.4290501864765
 20
-254.8179070050267
 30
0.0
 40
4.5
  1
日 付
 41
0.7058823529411773
  7
FDASTYLE1
 72
     5
 11
178.2290501864765
 21
-254.8179070050267
 31
0.0
  0
TEXT
  5
1E7
  8
ZUWAKU
 62
     7
 10
230.1722534729479
 20
-248.5781867196366
 30
0.0
 40
4.5
  1
承   認
 41
0.7407407407407408
  7
FDASTYLE1
 72
     5
 11
248.1722534729479
 21
-248.5781867196366
 31
0.0
  0
TEXT
  5
1E8
  8
ZUWAKU
 62
     7
 10
269.794842049851
 20
-248.2309562996593
 30
0.0
 40
4.5
  1
検   図
 41
0.7407407407407408
  7
FDASTYLE1
 72
     5
 11
287.794842049851
 21
-248.2309562996593
 31
0.0
  0
TEXT
  5
1E9
  8
ZUWAKU
 62
     7
 10
302.2157881475626
 20
-248.2309562996593
 30
0.0
 40
4.5
  1
担  当
 41
0.7272727272727262
  7
FDASTYLE1
 72
     5
 11
316.6157881475626
 21
-248.2309562996593
 31
0.0
  0
TEXT
  5
1EA
  8
ZUWAKU
 62
     7
 10
322.0155862261668
 20
-248.2309562996593
 30
0.0
 40
4.5
  1
製  図
 41
0.7272727272727262
  7
FDASTYLE1
 72
     5
 11
336.4155862261668
 21
-248.2309562996593
 31
0.0
  0
TEXT
  5
1EB
  8
ZUWAKU
 62
     7
 10
340.4193558456298
 20
-229.8277440408625
 30
0.0
 40
4.5
  1
作図
 41
0.6666666666666656
  7
FDASTYLE1
 72
     5
 11
347.6193558456298
 21
-229.8277440408625
 31
0.0
  0
TEXT
  5
1EC
  8
ZUWAKU
 62
     7
 10
342.1555079455163
 20
-240.3557349602723
 30
0.0
 40
6.0
  1
第 三 角 法
 41
0.7179487179487185
  7
FDASTYLE1
 72
     5
 11
375.7555079455163
 21
-240.3557349602723
 31
0.0
  0
TEXT
  5
1ED
  8
ZUWAKU
 62
     7
 10
341.1138166855845
 20
-249.6198779795685
 30
0.0
 40
4.5
  1
尺度
 41
0.6666666666666656
  7
FDASTYLE1
 72
     5
 11
348.3138166855845
 21
-249.6198779795685
 31
0.0
  0
TEXT
  5
1EF
  8
ZUWAKU
 62
     3
 10
158.068731555051
 20
-278.8908115777525
 30
0.0
 40
10.5
  1
株式会社 野村製作所
 41
0.576373864128083
  7
FDASTYLE2
 72
     5
 11
242.068731555051
 21
-278.8908115777525
 31
0.0
  0
TEXT
  5
1F1
  8
ZUWAKU
 62
     3
 10
275.4177326901248
 20
-280.6825028376844
 30
0.0
 40
12.0
  1
２－
 41
0.8244023083264632
  7
FDASTYLE3
 72
     5
 11
299.4177326901248
 21
-280.6825028376844
 31
0.0
  0
TEXT
  5
1F2
  8
ZUWAKU
 62
     3
 10
300.785669126735
 20
-280.6825028376844
 30
0.0
 40
12.0
  1
9314014
 41
1.55417406749556
  7
FDASTYLE3
 72
     5
 11
384.785669126735
 21
-280.6825028376844
 31
0.0
  0
TEXT
  5
1F3
  8
ZUWAKU
 62
     6
 10
346.6728190511805
 20
-219.291295229671
 30
0.0
 40
6.0
  1
一式
 41
0.5833333333333318
  7
FDASTYLE1
 72
     5
 11
355.0728190511804
 21
-219.291295229671
 31
0.0
  0
TEXT
  5
1F4
  8
ZUWAKU
 62
     6
 10
244.3105238272181
 20
-218.0383500342842
 30
0.0
 40
7.5
  1
外　形　図
 41
0.5833333333333334
  7
FDASTYLE1
 72
     5
 11
270.5605238272181
 21
-218.0383500342842
 31
0.0
  0
TEXT
  5
1F5
  8
ZUWAKU
 62
     4
 10
353.7275248771778
 20
-257.5369147878799
 30
0.0
 40
4.5
  1
1/1.5
 41
0.7
  7
FDASTYLE1
 72
     5
 11
369.4775248771778
 21
-257.5369147878799
 31
0.0
  0
TEXT
  5
1F6
  8
0
 62
     6
 10
229.0271657324713
 20
-231.447385208653
 30
0.0
 40
7.5
  1
日鋼プレシジォン
 41
0.6666666666666663
  7
FDASTYLE1
 72
     5
 11
277.0271657324713
 21
-231.447385208653
 31
0.0
  0
TEXT
  5
1F7
  8
0
 62
     6
 10
242.219259193253
 20
-241.3005488089211
 30
0.0
 40
7.5
  1
HF3-14型 チャック
 41
0.7384615384615385
  7
FDASTYLE1
 72
     5
 11
314.219259193253
 21
-241.3005488089211
 31
0.0
  0
TEXT
  5
1F8
  8
0
 62
     6
 10
-124.322176287241
 20
-169.8424419260825
 30
0.0
 40
6.047999630928051
  1
仕   様
 41
0.8988767626867559
  7
FDASTYLE1
 72
     5
 11
-89.2304771606308
 21
-169.8424419260825
 31
0.0
  0
TEXT
  5
1F9
  8
0
 62
     6
 10
-124.1648010039215
 20
-181.6619453580136
 30
0.0
 40
6.047999630928051
  1
爪ノｽﾄﾛ-ｸ           
 41
0.8657113693348633
  7
FDASTYLE1
 72
     5
 11
-0.110897545025324
 21
-181.6619453580136
 31
0.0
  0
TEXT
  5
1FA
  8
0
 62
     6
 10
1.639861390463167
 20
-180.9059454041475
 30
0.0
 40
4.535999723196039
  1
 （直径ﾆﾃ
 41
0.8350827760798441
  7
FDASTYLE1
 72
     5
 11
31.65290357776522
 21
-180.9059454041475
 31
0.0
  0
TEXT
  5
1FB
  8
0
 62
     6
 10
33.4036625132537
 20
-181.6619453580136
 30
0.0
 40
6.047999630928051
  1
）   １０ mm
 41
0.8468040834262742
  7
FDASTYLE1
 72
     5
 11
94.4301805652798
 21
-181.6619453580136
 31
0.0
  0
TEXT
  5
1FC
  8
0
 62
     6
 10
-124.2204398877614
 20
-193.4814762557641
 30
0.0
 40
6.047999630928051
  1
ピｽﾄﾝｽﾄﾛ-ｸ               ４１．５ mm
 41
0.8695934142781058
  7
FDASTYLE1
 72
     5
 11
95.65795269303413
 21
-193.4814762557641
 31
0.0
  0
TEXT
  5
1FD
  8
0
 62
     6
 10
-124.1638974213755
 20
-205.3009796876951
 30
0.0
 40
6.047999630928051
  1
許容ｼﾘﾝダ力
 41
0.8220961378041113
  7
FDASTYLE1
 72
     5
 11
-77.16045262467755
 21
-205.3009796876951
 31
0.0
  0
TEXT
  5
1FE
  8
0
 62
     6
 10
42.09828036598273
 20
-205.3009796876951
 30
0.0
 40
6.047999630928051
  1
 3６．３ ｋN
 41
0.8279861311394442
  7
FDASTYLE1
 72
     5
 11
96.10223791162208
 21
-205.3009796876951
 31
0.0
  0
TEXT
  5
1FF
  8
0
 62
     6
 10
-124.2249485736927
 20
-217.1204831196262
 30
0.0
 40
6.047999630928051
  1
最大静的把握力                1４7.１ ｋN
 41
0.8504334610439471
  7
FDASTYLE1
 72
     5
 11
96.04118713481418
 21
-217.1204831196262
 31
0.0
  0
TEXT
  5
200
  8
0
 62
     6
 10
-124.2249485736927
 20
-228.9400140173767
 30
0.0
 40
6.047999630928051
  1
最高使用回転速度              ２６00 ｍin
 41
0.8452208323081375
  7
FDASTYLE1
 72
     5
 11
88.86973163145339
 21
-228.9400140173767
 31
0.0
  0
TEXT
  5
201
  8
0
 62
     6
 10
90.40647030321101
 20
-227.4280141096447
 30
0.0
 40
3.023999815464026
  1
-1
 41
0.869136788993684
  7
FDASTYLE1
 72
     5
 11
96.55343335873336
 21
-227.4280141096447
 31
0.0
  0
TEXT
  5
202
  8
0
 62
     6
 10
-124.204269601111
 20
-240.7595449151272
 30
0.0
 40
6.047999630928051
  1
慣性モーメント   
 41
0.8110052209875066
  7
FDASTYLE1
 72
     5
 11
-55.10116597244891
 21
-240.7595449151272
 31
0.0
  0
TEXT
  5
203
  8
0
 62
     6
 10
-53.32277931933513
 20
-240.0035449612612
 30
0.0
 40
4.535999723196039
  1
 
 41
0.840131113192701
  7
FDASTYLE1
 72
     5
 11
-49.51194482244466
 21
-240.0035449612612
 31
0.0
  0
TEXT
  5
204
  8
0
 62
     6
 10
-47.73355816933091
 20
-240.7595449151272
 30
0.0
 40
6.047999630928051
  1
            １.5 ｋg・m
 41
0.8701139136454583
  7
FDASTYLE1
 72
     5
 11
92.50509097726621
 21
-240.7595449151272
 31
0.0
  0
TEXT
  5
205
  8
0
 62
     6
 10
94.02942239422085
 20
-236.4561602982571
 30
0.0
 40
3.023999815464026
  1
2
 41
0.8401311131927026
  7
FDASTYLE1
 72
     5
 11
96.56997872548116
 21
-236.4561602982571
 31
0.0
  0
TEXT
  5
206
  8
0
 62
     6
 10
-124.2249485736927
 20
-252.5790758128778
 30
0.0
 40
6.047999630928051
  1
質 量                       7１ ｋg
 41
0.8749505624602251
  7
FDASTYLE1
 72
     5
 11
96.04118713481418
 21
-252.5790758128778
 31
0.0
  0
TEXT
  5
207
  8
0
 62
     6
 10
-124.2249485736927
 20
-264.3986067106283
 30
0.0
 40
6.047999630928051
  1
ｱﾝバﾗﾝｽ量            
 41
0.8820005129830213
  7
FDASTYLE1
 72
     5
 11
9.983721094484992
 21
-264.3986067106283
 31
0.0
  0
TEXT
  5
208
  8
0
 62
     6
 10
11.77658287820221
 20
-263.6426067567622
 30
0.0
 40
4.535999723196039
  1
    外周ﾆﾃ
 41
0.8767859954004177
  7
FDASTYLE1
 72
     5
 11
53.26857722660918
 21
-263.6426067567622
 31
0.0
  0
TEXT
  5
209
  8
0
 62
     6
 10
55.0614390103264
 20
-264.3986067106283
 30
0.0
 40
6.047999630928051
  1
 １５g以内
 41
0.8308557654885715
  7
FDASTYLE1
 72
     5
 11
96.04118713481415
 21
-264.3986067106283
 31
0.0
  0
TEXT
  5
20A
  8
0
 62
     7
 10
384.2003513797795
 20
-213.8596169917673
 30
0.0
 40
4.800000071525574
  1
標 準
 41
0.7364342589625179
  7
FDASTYLE1
 72
     5
 11
397.2289245351827
 21
-213.8596169917673
 31
0.0
  0
LINE
  5
20B
  8
0
  6
CONTINUOUS
 62
     3
 10
-415.3363533408833
 20
66.31258549931602
 30
0.0
 11
-415.3363533408833
 21
-24.68741450068399
 31
0.0
  0
LINE
  5
20C
  8
0
  6
CONTINUOUS
 62
     3
 10
14.5384222340022
 20
-10.9057787192047
 30
0.0
 11
16.39190813177108
 21
-9.835668255416532
 31
0.0
  0
LINE
  5
20D
  8
0
  6
CONTINUOUS
 62
     3
 10
51.53844089804638
 20
-74.99166653540671
 30
0.0
 11
53.39191936265943
 21
-73.92156036315258
 31
0.0
  0
LINE
  5
20E
  8
0
  6
CONTINUOUS
 62
     3
 10
18.7059870124985
 20
-22.35604725788433
 30
0.0
 11
43.70598543297501
 21
-65.65730877219752
 31
0.0
  0
LINE
  5
20F
  8
0
  6
CONTINUOUS
 62
     3
 10
14.53842125878296
 20
-10.90577318005053
 30
0.0
 11
18.70597713729512
 21
-22.35603844056298
 31
0.0
  0
LINE
  5
210
  8
0
  6
CONTINUOUS
 62
     3
 10
43.70598598944834
 20
-65.65731328773234
 30
0.0
 11
51.53842998845709
 21
-74.99165539994797
 31
0.0
  0
LINE
  5
211
  8
0
  6
CONTINUOUS
 62
     3
 10
36.45599005948566
 20
-53.09995059377707
 30
0.0
 11
56.53957740456499
 21
-41.50468731486929
 31
0.0
  0
LINE
  5
212
  8
0
  6
CONTINUOUS
 62
     3
 10
25.95598418453263
 20
-34.91342066492958
 30
0.0
 11
46.03957834333811
 21
-23.3181534521156
 31
0.0
  0
LINE
  5
213
  8
0
  6
CONTINUOUS
 62
     3
 10
56.10187854421421
 20
-17.50868236431457
 30
0.0
 11
85.01070994636014
 21
-0.8181626163290305
 31
0.0
  0
LINE
  5
214
  8
0
  6
CONTINUOUS
 62
     3
 10
66.60188999403411
 20
-35.69520907451152
 30
0.0
 11
95.51070900758701
 21
-19.00469647908273
 31
0.0
  0
LINE
  5
215
  8
0
  6
CONTINUOUS
 62
     3
 10
-201.2909796765382
 20
145.7272328514565
 30
0.0
 11
-201.2909796765382
 21
118.1433103336777
 31
0.0
  0
LINE
  5
216
  8
0
  6
CONTINUOUS
 62
     3
 10
-191.4909692874489
 20
114.4433211250983
 30
0.0
 11
-177.7909727474984
 21
114.4433211250983
 31
0.0
  0
LINE
  5
217
  8
0
  6
CONTINUOUS
 62
     3
 10
-201.2909796765382
 20
121.9433209015809
 30
0.0
 11
-191.4909692874489
 21
121.9433209015809
 31
0.0
  0
LINE
  5
218
  8
0
  6
CONTINUOUS
 62
     3
 10
-171.9909698685942
 20
116.9433057918039
 30
0.0
 11
-171.9909698685942
 21
106.9433099045243
 31
0.0
  0
LINE
  5
219
  8
0
  6
CONTINUOUS
 62
     3
 10
-171.9909698685942
 20
116.9433057918039
 30
0.0
 11
-153.7909734627542
 21
116.9433057918039
 31
0.0
  0
LINE
  5
21A
  8
0
  6
CONTINUOUS
 62
     3
 10
-238.2909633150637
 20
218.9433141960586
 30
0.0
 11
-153.7909734627542
 21
218.9433141960586
 31
0.0
  0
LINE
  5
21B
  8
0
  6
CONTINUOUS
 62
     3
 10
-177.7909727474984
 20
218.9433141960586
 30
0.0
 11
-177.7909727474984
 21
113.1924132644291
 31
0.0
  0
LINE
  5
21C
  8
0
  6
CONTINUOUS
 62
     3
 10
-165.7909731051263
 20
218.9433141960586
 30
0.0
 11
-165.7909731051263
 21
204.9433222426854
 31
0.0
  0
LINE
  5
21D
  8
0
  6
CONTINUOUS
 62
     3
 10
-191.4909692874489
 20
-23.85667875867261
 30
0.0
 11
-191.4909692874489
 21
-30.85667759638207
 31
0.0
  0
LINE
  5
21E
  8
0
  6
CONTINUOUS
 62
     3
 10
-201.49097661882
 20
-23.85667875867261
 30
0.0
 11
-201.49097661882
 21
-30.85667759638207
 31
0.0
  0
LINE
  5
21F
  8
0
  6
CONTINUOUS
 62
     3
 10
-201.49097661882
 20
-30.85667759638207
 30
0.0
 11
-191.4909692874489
 21
-30.85667759638207
 31
0.0
  0
LINE
  5
220
  8
0
  6
CONTINUOUS
 62
     3
 10
-201.49097661882
 20
118.1433103336777
 30
0.0
 11
-191.4909692874489
 21
118.1433103336777
 31
0.0
  0
LINE
  5
221
  8
0
  6
CONTINUOUS
 62
     3
 10
-201.49097661882
 20
118.1433103336777
 30
0.0
 11
-201.49097661882
 21
111.1433029128997
 31
0.0
  0
LINE
  5
222
  8
0
  6
CONTINUOUS
 62
     3
 10
-191.4909692874489
 20
121.9433209015809
 30
0.0
 11
-191.4909692874489
 21
111.1433029128997
 31
0.0
  0
LINE
  5
223
  8
0
  6
CONTINUOUS
 62
     3
 10
-155.2909734180507
 20
109.0267868626955
 30
0.0
 11
-155.2909734180507
 21
-26.35667773049252
 31
0.0
  0
LINE
  5
224
  8
0
  6
CONTINUOUS
 62
     3
 10
-155.2909734180507
 20
-26.35667773049252
 30
0.0
 11
-152.7909773072536
 21
-26.35667773049252
 31
0.0
  0
LINE
  5
225
  8
0
  6
CONTINUOUS
 62
     3
 10
-274.7909774860675
 20
-116.356686492375
 30
0.0
 11
-269.0909959664871
 21
-116.356686492375
 31
0.0
  0
LINE
  5
226
  8
0
  6
CONTINUOUS
 62
     3
 10
-274.7909774860675
 20
203.6432963414878
 30
0.0
 11
-269.0909959664871
 21
203.6432963414878
 31
0.0
  0
LINE
  5
227
  8
0
  6
CONTINUOUS
 62
     3
 10
-238.2909633150637
 20
218.9433141960586
 30
0.0
 11
-238.2909633150637
 21
188.0377998280864
 31
0.0
  0
LINE
  5
228
  8
0
  6
CONTINUOUS
 62
     3
 10
-269.0909959664871
 20
203.6432963414878
 30
0.0
 11
-269.0909959664871
 21
-116.356686492375
 31
0.0
  0
LINE
  5
229
  8
0
  6
CONTINUOUS
 62
     3
 10
-152.7909887558494
 20
-128.3567101387932
 30
0.0
 11
-155.7909756668217
 21
-131.3566970497656
 31
0.0
  0
LINE
  5
22A
  8
0
  6
CONTINUOUS
 62
     3
 10
-153.7909564073341
 20
216.6433373128561
 30
0.0
 11
-152.7909553755469
 21
215.643336281069
 31
0.0
  0
LINE
  5
22B
  8
0
  6
CONTINUOUS
 62
     3
 10
-274.7909774860675
 20
218.643295894453
 30
0.0
 11
-238.2909633150637
 21
218.643295894453
 31
0.0
  0
LINE
  5
22C
  8
0
  6
CONTINUOUS
 62
     3
 10
-274.7909774860675
 20
-131.3566860453402
 30
0.0
 11
-155.7909772178467
 21
-131.3566860453402
 31
0.0
  0
LINE
  5
22D
  8
0
  6
CONTINUOUS
 62
     3
 10
-152.7909773072536
 20
215.6432959838599
 30
0.0
 11
-152.7909773072536
 21
204.9433222426854
 31
0.0
  0
LINE
  5
22E
  8
0
  6
CONTINUOUS
 62
     3
 10
-274.7909774860675
 20
218.643295894453
 30
0.0
 11
-274.7909774860675
 21
-94.81072384714125
 31
0.0
  0
LINE
  5
22F
  8
0
  6
CONTINUOUS
 62
     3
 10
-177.7909727474984
 20
113.1924132644291
 30
0.0
 11
-171.9909698685942
 21
113.1924132644291
 31
0.0
  0
LINE
  5
230
  8
0
  6
CONTINUOUS
 62
     3
 10
-172.7909690818129
 20
106.9433099045243
 30
0.0
 11
-172.7909690818129
 21
100.0990451243684
 31
0.0
  0
LINE
  5
231
  8
0
  6
CONTINUOUS
 62
     3
 10
-175.8263541231873
 20
106.9433099045243
 30
0.0
 11
-171.9909698685942
 21
106.9433099045243
 31
0.0
  0
LINE
  5
232
  8
0
  6
CONTINUOUS
 62
     3
 10
-165.7909731051263
 20
129.9433130337681
 30
0.0
 11
-165.7909731051263
 21
116.9433057918039
 31
0.0
  0
LINE
  5
233
  8
0
  6
CONTINUOUS
 62
     3
 10
-152.7909773072536
 20
129.9433130337681
 30
0.0
 11
-152.7909773072536
 21
-128.3566861347472
 31
0.0
  0
LINE
  5
234
  8
0
  6
CONTINUOUS
 62
     3
 10
-176.7909765919979
 20
204.9433222426854
 30
0.0
 11
-176.7909765919979
 21
129.9433130337681
 31
0.0
  0
LINE
  5
235
  8
0
  6
CONTINUOUS
 62
     3
 10
-151.2909773519571
 20
204.9433222426854
 30
0.0
 11
-151.2909773519571
 21
197.9433148219073
 31
0.0
  0
LINE
  5
236
  8
0
  6
CONTINUOUS
 62
     3
 10
-176.7909765919979
 20
152.9433047189204
 30
0.0
 11
-137.7909777542884
 21
152.9433047189204
 31
0.0
  0
LINE
  5
237
  8
0
  6
CONTINUOUS
 62
     3
 10
-176.7909765919979
 20
136.9433090104546
 30
0.0
 11
-137.7909777542884
 21
136.9433090104546
 31
0.0
  0
LINE
  5
238
  8
0
  6
CONTINUOUS
 62
     3
 10
-176.7909765919979
 20
197.9433148219073
 30
0.0
 11
-137.7909777542884
 21
197.9433148219073
 31
0.0
  0
LINE
  5
239
  8
0
  6
CONTINUOUS
 62
     3
 10
-176.7909765919979
 20
181.9433076693502
 30
0.0
 11
-137.7909777542884
 21
181.9433076693502
 31
0.0
  0
LINE
  5
23A
  8
0
  6
CONTINUOUS
 62
     3
 10
-137.7909777542884
 20
156.9433122291054
 30
0.0
 11
-137.7909777542884
 21
132.9433129443611
 31
0.0
  0
LINE
  5
23B
  8
0
  6
CONTINUOUS
 62
     3
 10
-137.7909777542884
 20
201.9432994439094
 30
0.0
 11
-137.7909777542884
 21
177.9433116032566
 31
0.0
  0
LINE
  5
23C
  8
0
  6
CONTINUOUS
 62
     3
 10
-121.7909706017313
 20
201.9432994439094
 30
0.0
 11
-121.7909706017313
 21
177.9433116032566
 31
0.0
  0
LINE
  5
23D
  8
0
  6
CONTINUOUS
 62
     3
 10
-121.7909706017313
 20
156.9433122291054
 30
0.0
 11
-121.7909706017313
 21
132.9433129443611
 31
0.0
  0
LINE
  5
23E
  8
0
  6
CONTINUOUS
 62
     3
 10
-137.7909777542884
 20
177.9433116032566
 30
0.0
 11
-121.7909706017313
 21
177.9433116032566
 31
0.0
  0
LINE
  5
23F
  8
0
  6
CONTINUOUS
 62
     3
 10
-137.7909777542884
 20
201.9432994439094
 30
0.0
 11
-121.7909706017313
 21
201.9432994439094
 31
0.0
  0
LINE
  5
240
  8
0
  6
CONTINUOUS
 62
     3
 10
-137.7909777542884
 20
132.9433129443611
 30
0.0
 11
-121.7909706017313
 21
132.9433129443611
 31
0.0
  0
LINE
  5
241
  8
0
  6
CONTINUOUS
 62
     3
 10
-137.7909777542884
 20
156.9433122291054
 30
0.0
 11
-121.7909706017313
 21
156.9433122291054
 31
0.0
  0
LINE
  5
242
  8
0
  6
CONTINUOUS
 62
     3
 10
-172.7909690818129
 20
152.9433047189204
 30
0.0
 11
-172.7909690818129
 21
136.9433090104546
 31
0.0
  0
LINE
  5
243
  8
0
  6
CONTINUOUS
 62
     3
 10
-172.7909690818129
 20
197.9433148219073
 30
0.0
 11
-172.7909690818129
 21
181.9433076693502
 31
0.0
  0
LINE
  5
244
  8
0
  6
CONTINUOUS
 62
     3
 10
-151.2909773519571
 20
181.9433076693502
 30
0.0
 11
-151.2909773519571
 21
152.9433047189204
 31
0.0
  0
LINE
  5
245
  8
0
  6
CONTINUOUS
 62
     3
 10
-151.2909773519571
 20
136.9433090104546
 30
0.0
 11
-151.2909773519571
 21
129.9433130337681
 31
0.0
  0
LINE
  5
246
  8
0
  6
CONTINUOUS
 62
     3
 10
-251.9285208920312
 20
110.1433182014906
 30
0.0
 11
-251.9285208920312
 21
-22.85667974214922
 31
0.0
  0
LINE
  5
247
  8
0
  6
CONTINUOUS
 62
     3
 10
-269.0909959664871
 20
111.1433029128997
 30
0.0
 11
-177.9285307267973
 21
111.1433029128997
 31
0.0
  0
LINE
  5
248
  8
0
  6
CONTINUOUS
 62
     3
 10
-176.9285345712968
 20
110.1433067573992
 30
0.0
 11
-176.9285345712968
 21
-22.85667974214922
 31
0.0
  0
LINE
  5
249
  8
0
  6
CONTINUOUS
 62
     3
 10
-155.2909734180507
 20
109.0267868626955
 30
0.0
 11
-152.7909773072536
 21
109.0267868626955
 31
0.0
  0
LINE
  5
24A
  8
0
  6
CONTINUOUS
 62
     3
 10
-172.7909690818129
 20
106.3429986431181
 30
0.0
 11
-155.2909734180507
 21
106.3429986431181
 31
0.0
  0
LINE
  5
24B
  8
0
  6
CONTINUOUS
 62
     3
 10
-175.5461340998002
 20
100.0990451243684
 30
0.0
 11
-172.7909690818129
 21
100.0990451243684
 31
0.0
  0
LINE
  5
24C
  8
0
  6
CONTINUOUS
 62
     3
 10
-176.9285251919889
 20
110.1433144186162
 30
0.0
 11
-177.9285100393869
 21
111.1432992660142
 31
0.0
  0
LINE
  5
24D
  8
0
  6
CONTINUOUS
 62
     3
 10
-250.928503602924
 20
111.1432851319382
 30
0.0
 11
-251.9285003357063
 21
110.1432959855352
 31
0.0
  0
LINE
  5
24E
  8
0
  6
CONTINUOUS
 62
     3
 10
-251.928519631031
 20
-22.85667512652423
 30
0.0
 11
-250.9285185992438
 21
-23.85667615831137
 31
0.0
  0
LINE
  5
24F
  8
0
  6
CONTINUOUS
 62
     3
 10
-176.9285150767457
 20
-22.85668321871876
 30
0.0
 11
-177.9285161085329
 21
-23.85668425050591
 31
0.0
  0
LINE
  5
250
  8
0
  6
CONTINUOUS
 62
     3
 10
-194.928534034855
 20
100.1433108701195
 30
0.0
 11
-194.928534034855
 21
23.4901640266011
 31
0.0
  0
LINE
  5
251
  8
0
  6
CONTINUOUS
 62
     3
 10
-214.9285372535057
 20
98.64331663686872
 30
0.0
 11
-214.9285372535057
 21
-11.35667960803877
 31
0.0
  0
LINE
  5
252
  8
0
  6
CONTINUOUS
 62
     3
 10
-250.9285361806222
 20
-1.606680211535783
 30
0.0
 11
-215.9285219649148
 21
-1.606680211535783
 31
0.0
  0
LINE
  5
253
  8
0
  6
CONTINUOUS
 62
     3
 10
-250.9285361806222
 20
88.89331509459858
 30
0.0
 11
-215.9285219649148
 21
88.89331509459858
 31
0.0
  0
LINE
  5
254
  8
0
  6
CONTINUOUS
 62
     3
 10
-214.9285372535057
 20
-11.35667960803877
 30
0.0
 11
-212.4285296986172
 21
-11.35667960803877
 31
0.0
  0
LINE
  5
255
  8
0
  6
CONTINUOUS
 62
     3
 10
-214.9285372535057
 20
98.64331663686872
 30
0.0
 11
-212.4285296986172
 21
98.64331663686872
 31
0.0
  0
LINE
  5
256
  8
0
  6
CONTINUOUS
 62
     3
 10
-194.928534034855
 20
-12.85667956333529
 30
0.0
 11
-192.4285264799665
 21
-12.85667956333529
 31
0.0
  0
LINE
  5
257
  8
0
  6
CONTINUOUS
 62
     3
 10
-194.928534034855
 20
100.1433108701195
 30
0.0
 11
-192.4285264799665
 21
100.1433108701195
 31
0.0
  0
LINE
  5
258
  8
0
  6
CONTINUOUS
 62
     3
 10
-192.4285264799665
 20
100.1433108701195
 30
0.0
 11
-192.4285264799665
 21
99.64331851441497
 31
0.0
  0
LINE
  5
259
  8
0
  6
CONTINUOUS
 62
     3
 10
-212.4285296986172
 20
98.64331663686872
 30
0.0
 11
-212.4285296986172
 21
23.10886978747627
 31
0.0
  0
LINE
  5
25A
  8
0
  6
CONTINUOUS
 62
     3
 10
-269.0909959664871
 20
-23.85667875867261
 30
0.0
 11
-155.2909734180507
 21
-23.85667875867261
 31
0.0
  0
LINE
  5
25B
  8
0
  6
CONTINUOUS
 62
     3
 10
-212.4285296986172
 20
-10.90667933534753
 30
0.0
 11
-194.928534034855
 21
-10.90667933534753
 31
0.0
  0
LINE
  5
25C
  8
0
  6
CONTINUOUS
 62
     3
 10
-212.4285296986172
 20
98.19331207264318
 30
0.0
 11
-194.928534034855
 21
98.19331207264318
 31
0.0
  0
LINE
  5
25D
  8
0
  6
CONTINUOUS
 62
     3
 10
-192.9285302797625
 20
-12.3566800550736
 30
0.0
 11
-178.9285268822978
 21
-12.3566800550736
 31
0.0
  0
LINE
  5
25E
  8
0
  6
CONTINUOUS
 62
     3
 10
-192.9285302797625
 20
99.64331851441497
 30
0.0
 11
-178.9285268822978
 21
99.64331851441497
 31
0.0
  0
LINE
  5
25F
  8
0
  6
CONTINUOUS
 62
     3
 10
-179.4285306820938
 20
100.1433108701195
 30
0.0
 11
-179.4285306820938
 21
98.84331930119626
 31
0.0
  0
LINE
  5
260
  8
0
  6
CONTINUOUS
 62
     3
 10
-179.4285306820938
 20
100.1433108701195
 30
0.0
 11
-176.9285345712968
 21
100.1433108701195
 31
0.0
  0
LINE
  5
261
  8
0
  6
CONTINUOUS
 62
     3
 10
-179.4285306820938
 20
-12.85667956333529
 30
0.0
 11
-176.9285345712968
 21
-12.85667956333529
 31
0.0
  0
LINE
  5
262
  8
0
  6
CONTINUOUS
 62
     3
 10
-250.9285105070493
 20
88.89330002891457
 30
0.0
 11
-251.9285439076146
 21
89.89333342947985
 31
0.0
  0
LINE
  5
263
  8
0
  6
CONTINUOUS
 62
     3
 10
-250.9284786782866
 20
-1.606726679096186
 30
0.0
 11
-251.9284787828421
 21
-2.606728722408759
 31
0.0
  0
LINE
  5
264
  8
0
  6
CONTINUOUS
 62
     3
 10
-215.9285229476663
 20
-1.606674898163074
 30
0.0
 11
-214.9285219158792
 21
-2.606675929950221
 31
0.0
  0
LINE
  5
265
  8
0
  6
CONTINUOUS
 62
     3
 10
-215.9284865327909
 20
88.89328789062276
 30
0.0
 11
-214.9284855010038
 21
89.89328892240991
 31
0.0
  0
LINE
  5
266
  8
0
  6
CONTINUOUS
 62
     3
 10
-192.9285302797625
 20
99.64331851441497
 30
0.0
 11
-192.9285302797625
 21
-12.3566800550736
 31
0.0
  0
LINE
  5
267
  8
0
  6
CONTINUOUS
 62
     3
 10
-178.9285268822978
 20
99.64331851441497
 30
0.0
 11
-178.9285268822978
 21
-12.3566800550736
 31
0.0
  0
LINE
  5
268
  8
0
  6
CONTINUOUS
 62
     3
 10
-192.4285264799665
 20
-11.55668084185488
 30
0.0
 11
-192.4285264799665
 21
-12.85667956333529
 31
0.0
  0
LINE
  5
269
  8
0
  6
CONTINUOUS
 62
     3
 10
-179.4285306820938
 20
-11.55668084185488
 30
0.0
 11
-179.4285306820938
 21
-12.85667956333529
 31
0.0
  0
LINE
  5
26A
  8
0
  6
CONTINUOUS
 62
     3
 10
-177.7909727474984
 20
-30.3566795186318
 30
0.0
 11
-177.7909727474984
 21
-38.35668023388752
 31
0.0
  0
LINE
  5
26B
  8
0
  6
CONTINUOUS
 62
     3
 10
-177.7909727474984
 20
-38.35668023388752
 30
0.0
 11
-152.7909773072536
 21
-38.35668023388752
 31
0.0
  0
LINE
  5
26C
  8
0
  6
CONTINUOUS
 62
     3
 10
-177.7909727474984
 20
-30.3566795186318
 30
0.0
 11
-152.7909773072536
 21
-30.3566795186318
 31
0.0
  0
LINE
  5
26D
  8
0
  6
CONTINUOUS
 62
     3
 10
-180.100372183194
 20
-34.35668444808975
 30
0.0
 11
-177.7909714182458
 21
-30.35668553679104
 31
0.0
  0
LINE
  5
26E
  8
0
  6
CONTINUOUS
 62
     3
 10
-180.1004037039498
 20
-34.35668582933569
 30
0.0
 11
-177.7910029390016
 21
-38.35668474063441
 31
0.0
  0
LINE
  5
26F
  8
0
  6
CONTINUOUS
 62
     3
 10
-194.928534034855
 20
16.37644811311807
 30
0.0
 11
-194.928534034855
 21
-12.85667956333529
 31
0.0
  0
LINE
  5
270
  8
0
  6
CONTINUOUS
 62
     3
 10
-274.7909774860675
 20
-107.5530330377033
 30
0.0
 11
-274.7909774860675
 21
-131.3566860453402
 31
0.0
  0
LINE
  5
271
  8
0
  6
CONTINUOUS
 62
     3
 10
-212.4285296986172
 20
15.99515530450468
 30
0.0
 11
-212.4285296986172
 21
-11.35667960803877
 31
0.0
  0
LINE
  5
272
  8
0
  6
CONTINUOUS
 62
     3
 10
-176.7909765919979
 20
204.9433222426854
 30
0.0
 11
-151.2909773519571
 21
204.9433222426854
 31
0.0
  0
LINE
  5
273
  8
0
  6
CONTINUOUS
 62
     3
 10
-176.7909765919979
 20
129.9433130337681
 30
0.0
 11
-151.2909773519571
 21
129.9433130337681
 31
0.0
  0
LINE
  5
274
  8
0
  6
CONTINUOUS
 62
     3
 10
38.08033817284098
 20
-27.9134060090179
 30
0.0
 11
48.58033911161411
 21
-46.0999386200741
 31
0.0
  0
CIRCLE
  5
275
  8
0
  6
CONTINUOUS
 62
     3
 10
65.54523025137209
 20
43.64331636864783
 30
0.0
 40
10.49999968707562
  0
CIRCLE
  5
276
  8
0
  6
CONTINUOUS
 62
     3
 10
65.54523025137209
 20
43.64331636864783
 30
0.0
 40
16.0
  0
LINE
  5
277
  8
0
  6
CONTINUOUS
 62
     3
 10
208.0202263867561
 20
218.9433141960586
 30
0.0
 11
208.0202263867561
 21
106.3429986431181
 31
0.0
  0
LINE
  5
278
  8
0
  6
CONTINUOUS
 62
     3
 10
158.0202355062664
 20
218.9433141960586
 30
0.0
 11
158.0202355062664
 21
106.3429986431181
 31
0.0
  0
LINE
  5
279
  8
0
  6
CONTINUOUS
 62
     3
 10
249.8197642259718
 20
33.94415239631792
 30
0.0
 11
347.334522751996
 21
-22.3560134684922
 31
0.0
  0
LINE
  5
27A
  8
0
  6
CONTINUOUS
 62
     3
 10
224.8197729314555
 20
-9.357153274941034
 30
0.0
 11
322.3345512792286
 21
-65.65733058384193
 31
0.0
  0
LINE
  5
27B
  8
0
  6
CONTINUOUS
 62
     3
 10
349.6485887287089
 20
-9.835633948330123
 30
0.0
 11
351.5021006425232
 21
-10.90575943248743
 31
0.0
  0
LINE
  5
27C
  8
0
  6
CONTINUOUS
 62
     3
 10
312.6485872683954
 20
-73.92152343804803
 30
0.0
 11
314.5020793604608
 21
-74.99163747811456
 31
0.0
  0
LINE
  5
27D
  8
0
  6
CONTINUOUS
 62
     3
 10
146.0202358638943
 20
216.8273932386101
 30
0.0
 11
146.0202358638943
 21
214.6871650309095
 31
0.0
  0
LINE
  5
27E
  8
0
  6
CONTINUOUS
 62
     3
 10
220.0202260291282
 20
216.8273932386101
 30
0.0
 11
220.0202260291282
 21
214.6871650309095
 31
0.0
  0
LINE
  5
27F
  8
0
  6
CONTINUOUS
 62
     3
 10
158.0202355062664
 20
218.9433141960586
 30
0.0
 11
208.0202263867561
 21
218.9433141960586
 31
0.0
  0
LINE
  5
280
  8
0
  6
CONTINUOUS
 62
     3
 10
322.3345447526014
 20
-65.6573141873405
 30
0.0
 11
347.3345546171706
 21
-22.35603285127982
 31
0.0
  0
LINE
  5
281
  8
0
  6
CONTINUOUS
 62
     3
 10
146.0202212741077
 20
216.8273589007704
 30
0.0
 11
158.0202321848324
 21
218.9432846542641
 31
0.0
  0
LINE
  5
282
  8
0
  6
CONTINUOUS
 62
     3
 10
208.020202784945
 20
218.9432416292566
 30
0.0
 11
220.0202024254399
 21
216.8273178630084
 31
0.0
  0
LINE
  5
283
  8
0
  6
CONTINUOUS
 62
     3
 10
347.3345090293772
 20
-22.35605117713868
 30
0.0
 11
351.5020614830431
 21
-10.90579532631345
 31
0.0
  0
LINE
  5
284
  8
0
  6
CONTINUOUS
 62
     3
 10
314.5020096101983
 20
-74.99158806651579
 30
0.0
 11
322.3344462530866
 21
-65.65725472098208
 31
0.0
  0
LINE
  5
285
  8
0
  6
CONTINUOUS
 62
     3
 10
169.7702389707863
 20
116.9433286799868
 30
0.0
 11
169.7702389707863
 21
113.1924132644291
 31
0.0
  0
LINE
  5
286
  8
0
  6
CONTINUOUS
 62
     3
 10
196.2702343663276
 20
116.9433286799868
 30
0.0
 11
196.2702343663276
 21
113.1924132644291
 31
0.0
  0
LINE
  5
287
  8
0
  6
CONTINUOUS
 62
     3
 10
126.1655847443818
 20
-4.481515238230806
 30
0.0
 11
129.4139630360963
 21
-2.606063364283305
 31
0.0
  0
LINE
  5
288
  8
0
  6
CONTINUOUS
 62
     3
 10
112.9155864058612
 20
18.46815761981408
 30
0.0
 11
116.1639646975756
 21
20.34360949376158
 31
0.0
  0
LINE
  5
289
  8
0
  6
CONTINUOUS
 62
     3
 10
249.8765542193673
 20
20.34361620023377
 30
0.0
 11
253.124962243705
 21
18.46814716015011
 31
0.0
  0
LINE
  5
28A
  8
0
  6
CONTINUOUS
 62
     3
 10
236.6265432116545
 20
-2.606032825127304
 30
0.0
 11
239.8749115924945
 21
-4.481478977029418
 31
0.0
  0
LINE
  5
28B
  8
0
  6
CONTINUOUS
 62
     3
 10
251.7499265378387
 20
16.08660674498258
 30
0.0
 11
270.9674886673587
 21
4.99134330216204
 31
0.0
  0
LINE
  5
28C
  8
0
  6
CONTINUOUS
 62
     3
 10
241.249907654863
 20
-2.09991567368034
 30
0.0
 11
260.4674896061318
 21
-13.19519056059166
 31
0.0
  0
LINE
  5
28D
  8
0
  6
CONTINUOUS
 62
     3
 10
172.5202312594356
 20
218.9433141960586
 30
0.0
 11
172.5202312594356
 21
195.7528012763499
 31
0.0
  0
LINE
  5
28E
  8
0
  6
CONTINUOUS
 62
     3
 10
193.5202420776783
 20
218.9433141960586
 30
0.0
 11
193.5202420776783
 21
195.7528012763499
 31
0.0
  0
LINE
  5
28F
  8
0
  6
CONTINUOUS
 62
     3
 10
158.0202355062664
 20
116.9433286799868
 30
0.0
 11
172.5202312594356
 21
116.9433286799868
 31
0.0
  0
LINE
  5
290
  8
0
  6
CONTINUOUS
 62
     3
 10
233.9999463405213
 20
-14.65732944933281
 30
0.0
 11
241.2499393593266
 21
-2.099974908578056
 31
0.0
  0
LINE
  5
291
  8
0
  6
CONTINUOUS
 62
     3
 10
124.7905911513195
 20
-2.099942876757464
 30
0.0
 11
132.040587031148
 21
-14.65730237294909
 31
0.0
  0
LINE
  5
292
  8
0
  6
CONTINUOUS
 62
     3
 10
193.5202420776783
 20
116.9433286799868
 30
0.0
 11
208.0202263867561
 21
116.9433286799868
 31
0.0
  0
LINE
  5
293
  8
0
  6
CONTINUOUS
 62
     3
 10
251.7499574642389
 20
16.08658743509937
 30
0.0
 11
258.9999562050906
 21
28.64395188672787
 31
0.0
  0
LINE
  5
294
  8
0
  6
CONTINUOUS
 62
     3
 10
172.5202312594356
 20
184.1338441030906
 30
0.0
 11
172.5202312594356
 21
150.7528026174544
 31
0.0
  0
LINE
  5
295
  8
0
  6
CONTINUOUS
 62
     3
 10
193.5202420776783
 20
184.1338441030906
 30
0.0
 11
193.5202420776783
 21
150.7528026174544
 31
0.0
  0
LINE
  5
296
  8
0
  6
CONTINUOUS
 62
     3
 10
193.5202420776783
 20
139.133845444195
 30
0.0
 11
193.5202420776783
 21
116.9433286799868
 31
0.0
  0
LINE
  5
297
  8
0
  6
CONTINUOUS
 62
     3
 10
172.5202312594356
 20
139.133845444195
 30
0.0
 11
172.5202312594356
 21
116.9433286799868
 31
0.0
  0
LINE
  5
298
  8
0
  6
CONTINUOUS
 62
     3
 10
281.0298012568278
 20
-0.8181349381957244
 30
0.0
 11
309.9386326589738
 21
-17.50865468618126
 31
0.0
  0
LINE
  5
299
  8
0
  6
CONTINUOUS
 62
     3
 10
270.529802195601
 20
-19.00466880094942
 30
0.0
 11
299.4386534194957
 21
-35.69519999302572
 31
0.0
  0
LINE
  5
29A
  8
0
  6
CONTINUOUS
 62
     3
 10
309.5009263654672
 20
-41.50465534520194
 30
0.0
 11
329.5845205242727
 21
-53.09992255801592
 31
0.0
  0
LINE
  5
29B
  8
0
  6
CONTINUOUS
 62
     3
 10
320.0009452484429
 20
-23.31813292653903
 30
0.0
 11
340.0845195854995
 21
-34.91338869526223
 31
0.0
  0
LINE
  5
29C
  8
0
  6
CONTINUOUS
 62
     3
 10
172.5202312594356
 20
204.9433222426854
 30
0.0
 11
193.5202420776783
 21
204.9433222426854
 31
0.0
  0
LINE
  5
29D
  8
0
  6
CONTINUOUS
 62
     3
 10
172.5202312594356
 20
129.9433244778595
 30
0.0
 11
193.5202420776783
 21
129.9433244778595
 31
0.0
  0
LINE
  5
29E
  8
0
  6
CONTINUOUS
 62
     3
 10
252.5082673005273
 20
-8.599948038580621
 30
0.0
 11
263.0082682393004
 21
9.586584572475569
 31
0.0
  0
LINE
  5
29F
  8
0
  6
CONTINUOUS
 62
     3
 10
317.4602007487112
 20
-46.09994301368711
 30
0.0
 11
327.9602016874843
 21
-27.91341040263093
 31
0.0
  0
ARC
  5
2A0
  8
0
  6
CONTINUOUS
 62
     3
 10
183.0202309465113
 20
43.64331636864783
 30
0.0
 40
174.9999909698966
 50
0.0
 51
81.78678881999704
  0
ARC
  5
2A1
  8
0
  6
CONTINUOUS
 62
     3
 10
183.0202309465113
 20
43.64331636864783
 30
0.0
 40
174.9999909698966
 50
338.2132162647496
 51
360.0
  0
CIRCLE
  5
2A2
  8
0
  6
CONTINUOUS
 62
     3
 10
183.0202309465113
 20
43.64331636864783
 30
0.0
 40
67.4999979883433
  0
ARC
  5
2A3
  8
0
  6
CONTINUOUS
 62
     3
 10
183.0202309465113
 20
43.64331636864783
 30
0.0
 40
69.99999982118607
 50
0.0
 51
69.07516473682134
  0
ARC
  5
2A4
  8
0
  6
CONTINUOUS
 62
     3
 10
183.0202309465113
 20
43.64331636864783
 30
0.0
 40
69.99999982118607
 50
110.9248539325133
 51
189.0751270949905
  0
ARC
  5
2A5
  8
0
  6
CONTINUOUS
 62
     3
 10
183.0202309465113
 20
43.64331636864783
 30
0.0
 40
69.99999982118607
 50
230.9248062727699
 51
309.0751853031792
  0
ARC
  5
2A6
  8
0
  6
CONTINUOUS
 62
     3
 10
183.0202309465113
 20
43.64331636864783
 30
0.0
 40
69.99999982118607
 50
350.9248386403781
 51
360.0
  0
ARC
  5
2A7
  8
0
  6
CONTINUOUS
 62
     3
 10
183.0202309465113
 20
43.64331636864783
 30
0.0
 40
70.79999903440478
 50
69.32251320742418
 51
110.6775327826672
  0
ARC
  5
2A8
  8
0
  6
CONTINUOUS
 62
     3
 10
183.0202309465113
 20
43.64331636864783
 30
0.0
 40
70.79999903440478
 50
189.3224928684374
 51
230.677457802167
  0
ARC
  5
2A9
  8
0
  6
CONTINUOUS
 62
     3
 10
183.0202309465113
 20
43.64331636864783
 30
0.0
 40
70.79999903440478
 50
309.3225166983091
 51
350.677500415059
  0
CIRCLE
  5
2AA
  8
0
  6
CONTINUOUS
 62
     3
 10
241.757728433058
 20
145.3796529057605
 30
0.0
 40
10.49999968707562
  0
CIRCLE
  5
2AB
  8
0
  6
CONTINUOUS
 62
     3
 10
124.2827334599645
 20
145.3796300175776
 30
0.0
 40
10.49999968707562
  0
CIRCLE
  5
2AC
  8
0
  6
CONTINUOUS
 62
     3
 10
241.7577513212409
 20
-58.09300872437342
 30
0.0
 40
10.49999968707562
  0
CIRCLE
  5
2AD
  8
0
  6
CONTINUOUS
 62
     3
 10
300.4952373636961
 20
43.64331636864783
 30
0.0
 40
10.49999968707562
  0
CIRCLE
  5
2AE
  8
0
  6
CONTINUOUS
 62
     3
 10
300.4952373636961
 20
43.64331636864783
 30
0.0
 40
16.0
  0
CIRCLE
  5
2AF
  8
0
  6
CONTINUOUS
 62
     3
 10
241.757728433058
 20
145.3796529057605
 30
0.0
 40
16.0
  0
CIRCLE
  5
2B0
  8
0
  6
CONTINUOUS
 62
     3
 10
241.7577513212409
 20
-58.09300872437342
 30
0.0
 40
16.0
  0
ARC
  5
2B1
  8
0
  6
CONTINUOUS
 62
     3
 10
183.0202309465113
 20
43.64331636864783
 30
0.0
 40
171.9999910593035
 50
338.3574954732297
 51
441.642521564348
  0
CIRCLE
  5
2B2
  8
0
  6
CONTINUOUS
 62
     3
 10
183.0202309465113
 20
93.64331681568265
 30
0.0
 40
2.999999910593036
  0
LINE
  5
2B3
  8
0
  6
CONTINUOUS
 62
     3
 10
43.70598069021055
 20
-65.65731984357888
 30
0.0
 11
141.2207416939533
 21
-9.357152548257403
 31
0.0
  0
LINE
  5
2B4
  8
0
  6
CONTINUOUS
 62
     3
 10
18.70597958752485
 20
-22.35604296044095
 30
0.0
 11
116.2207405912676
 21
33.94412433488052
 31
0.0
  0
LINE
  5
2B5
  8
0
  6
CONTINUOUS
 62
     3
 10
107.0405857496483
 20
28.64396409680098
 30
0.0
 11
114.2905902125464
 21
16.08658973429873
 31
0.0
  0
LINE
  5
2B6
  8
0
  6
CONTINUOUS
 62
     3
 10
105.5730364633678
 20
-13.19520965565688
 30
0.0
 11
124.7905886820133
 21
-2.099951934881727
 31
0.0
  0
LINE
  5
2B7
  8
0
  6
CONTINUOUS
 62
     3
 10
95.07302253582927
 20
4.991315624028733
 30
0.0
 11
114.2905896207865
 21
16.08658192787197
 31
0.0
  0
LINE
  5
2B8
  8
0
  6
CONTINUOUS
 62
     3
 10
103.0322411217941
 20
9.586584571846313
 30
0.0
 11
113.5322420605672
 21
-8.599948039209878
 31
0.0
  0
ARC
  5
2B9
  8
0
  6
CONTINUOUS
 62
     3
 10
183.0202309465113
 20
43.64331636864783
 30
0.0
 40
174.9999909698966
 50
98.21322984933764
 51
201.7867511781662
  0
ARC
  5
2BA
  8
0
  6
CONTINUOUS
 62
     3
 10
183.0202309465113
 20
43.64331636864783
 30
0.0
 40
174.9999909698966
 50
218.2131958499725
 51
321.786792310882
  0
CIRCLE
  5
2BB
  8
0
  6
CONTINUOUS
 62
     3
 10
124.2827334599645
 20
145.3796300175776
 30
0.0
 40
16.0
  0
CIRCLE
  5
2BC
  8
0
  6
CONTINUOUS
 62
     3
 10
124.2827334599645
 20
-58.09300872437342
 30
0.0
 40
16.0
  0
ARC
  5
2BD
  8
0
  6
CONTINUOUS
 62
     3
 10
183.0202309465113
 20
43.64331636864783
 30
0.0
 40
171.9999910593035
 50
98.35749710498664
 51
201.6424839225172
  0
ARC
  5
2BE
  8
0
  6
CONTINUOUS
 62
     3
 10
183.0202309465113
 20
43.64331636864783
 30
0.0
 40
171.9999910593035
 50
218.3574631056215
 51
321.642525055233
  0
CIRCLE
  5
2BF
  8
0
  6
CONTINUOUS
 62
     3
 10
139.7189455240063
 20
18.64329043086242
 30
0.0
 40
2.999999910593035
  0
CIRCLE
  5
2C0
  8
0
  6
CONTINUOUS
 62
     3
 10
226.3215163690163
 20
18.64329043086244
 30
0.0
 40
2.999999910593035
  0
LINE
  5
2C1
  8
0
  6
CONTINUOUS
 62
     3
 10
-192.9285268822978
 20
88.89331636864783
 30
0.0
 11
-178.9285268822978
 21
88.89331636864783
 31
0.0
  0
LINE
  5
2C2
  8
0
  6
CONTINUOUS
 62
     3
 10
-192.9285268822978
 20
90.64331636864783
 30
0.0
 11
-178.9285268822978
 21
90.64331636864783
 31
0.0
  0
LINE
  5
2C3
  8
0
  6
CONTINUOUS
 62
     3
 10
-192.9285268822978
 20
96.64331636864783
 30
0.0
 11
-178.9285268822978
 21
96.64331636864783
 31
0.0
  0
LINE
  5
2C4
  8
0
  6
CONTINUOUS
 62
     3
 10
-186.9285268822978
 20
96.64331636864783
 30
0.0
 11
-186.9285268822978
 21
90.64331636864783
 31
0.0
  0
LINE
  5
2C5
  8
0
  6
CONTINUOUS
 62
     3
 10
-180.9285268822978
 20
96.64331636864783
 30
0.0
 11
-180.9285268822978
 21
90.64331636864783
 31
0.0
  0
LINE
  5
2C6
  8
0
  6
CONTINUOUS
 62
     3
 10
-192.9285268822978
 20
-1.606687446049435
 30
0.0
 11
-178.9285268822978
 21
-1.606687446049435
 31
0.0
  0
LINE
  5
2C7
  8
0
  6
CENTER
 62
     7
 10
341.0985192524482
 20
134.9098875963348
 30
0.0
 11
301.6490451797305
 21
112.1337256374165
 31
0.0
  0
LINE
  5
2C8
  8
0
  6
CENTER
 62
     7
 10
47.5804691403052
 20
-14.36811675621642
 30
0.0
 11
65.45677870289659
 21
-45.33078892369062
 31
0.0
  0
LINE
  5
2C9
  8
0
  6
CENTER
 62
     7
 10
86.32248826736097
 20
8.528736461981028
 30
0.0
 11
104.3908268464497
 21
-22.76653967297493
 31
0.0
  0
LINE
  5
2CA
  8
0
  6
CENTER
 62
     7
 10
58.64261204888302
 20
171.1433011247604
 30
0.0
 11
102.9135019190829
 21
171.1433011247604
 31
0.0
  0
LINE
  5
2CB
  8
0
  6
CENTER
 62
     7
 10
-279.6845671494049
 20
43.64331636864783
 30
0.0
 11
-146.3801322564423
 21
43.64331636864783
 31
0.0
  0
LINE
  5
2CC
  8
0
  6
CENTER
 62
     7
 10
-181.5711964812745
 20
189.9433112456288
 30
0.0
 11
-114.8750314767876
 21
189.9433112456288
 31
0.0
  0
LINE
  5
2CD
  8
0
  6
CENTER
 62
     7
 10
-181.5711964812745
 20
144.9433125867332
 30
0.0
 11
-114.5948000093091
 21
144.9433125867332
 31
0.0
  0
LINE
  5
2CE
  8
0
  6
CENTER
 62
     7
 10
-185.6405208534074
 20
-34.35667844574823
 30
0.0
 11
-148.5337295093248
 21
-34.35667844574823
 31
0.0
  0
LINE
  5
2CF
  8
0
  6
CENTER
 62
     7
 10
-220.2909638515055
 20
-94.24992246882763
 30
0.0
 11
-220.2909638515055
 21
-137.5785181353058
 31
0.0
  0
ARC
  5
2D0
  8
0
  6
CENTER
 62
     7
 10
183.0202309465113
 20
43.64331636864783
 30
0.0
 40
117.4749949730934
 50
167.78370624439
 51
191.2805268760959
  0
LINE
  5
2D1
  8
0
  6
CENTER
 62
     7
 10
111.7827581752943
 20
-79.74364504933429
 30
0.0
 11
135.7920450566175
 21
-38.15834602112217
 31
0.0
  0
LINE
  5
2D2
  8
0
  6
CENTER
 62
     7
 10
111.7827812858472
 20
167.0302993294348
 30
0.0
 11
135.7574133083438
 21
125.5050242692066
 31
0.0
  0
LINE
  5
2D3
  8
0
  6
CENTER
 62
     7
 10
300.8134524779819
 20
-44.93300211097611
 30
0.0
 11
318.4165843924005
 21
-14.44348744473218
 31
0.0
  0
LINE
  5
2D4
  8
0
  6
CENTER
 62
     7
 10
165.6382353097499
 20
189.9433226897202
 30
0.0
 11
200.6716548284168
 21
189.9433226897202
 31
0.0
  0
LINE
  5
2D5
  8
0
  6
CENTER
 62
     7
 10
165.6382353097499
 20
144.9433240308247
 30
0.0
 11
200.2282191726869
 21
144.9433240308247
 31
0.0
  0
LINE
  5
2D6
  8
0
  6
CENTER
 62
     7
 10
261.6061570020173
 20
-22.84193950539222
 30
0.0
 11
279.6744970116176
 21
8.453339107282172
 31
0.0
  0
LINE
  5
2D7
  8
0
  6
CENTER
 62
     7
 10
177.0884722426762
 20
93.64331681568265
 30
0.0
 11
189.0409560173238
 21
93.64331681568265
 31
0.0
  0
LINE
  5
2D8
  8
0
  6
CENTER
 62
     7
 10
233.0202409600913
 20
51.64331422288068
 30
0.0
 11
233.0202409600913
 21
35.64331851441497
 31
0.0
  0
LINE
  5
2D9
  8
0
  6
CENTER
 62
     7
 10
133.0202323770227
 20
51.64331422288068
 30
0.0
 11
133.0202323770227
 21
35.64331851441497
 31
0.0
  0
LINE
  5
2DA
  8
0
  6
CENTER
 62
     7
 10
230.3757999463212
 20
125.6655005488128
 30
0.0
 11
254.2577562746494
 21
167.0302566201309
 31
0.0
  0
LINE
  5
2DB
  8
0
  6
CENTER
 62
     7
 10
230.6286466707106
 20
-38.81674955316852
 30
0.0
 11
254.2577858225046
 21
-79.74361348976338
 31
0.0
  0
LINE
  5
2DC
  8
0
  6
CENTER
 62
     7
 10
183.020290661718
 20
43.64332089658309
 30
0.0
 11
344.5932229171216
 21
-49.64084472861617
 31
0.0
  0
LINE
  5
2DD
  8
0
  6
CENTER
 62
     7
 10
242.6304582481543
 20
78.05927620251714
 30
0.0
 11
259.7014637287668
 21
87.91522472318208
 31
0.0
  0
ARC
  5
2DE
  8
0
  6
CENTER
 62
     7
 10
183.0202309465113
 20
43.64331636864783
 30
0.0
 40
77.99999767541893
 50
21.892800224
 51
38.10720315319941
  0
ARC
  5
2DF
  8
0
  6
CENTER
 62
     7
 10
183.0202309465113
 20
43.64331636864783
 30
0.0
 40
117.4749949730934
 50
0.0
 51
12.21631327871837
  0
ARC
  5
2E0
  8
0
  6
CENTER
 62
     7
 10
183.0202309465113
 20
43.64331636864783
 30
0.0
 40
117.4749949730934
 50
287.9327889349846
 51
311.5345759138553
  0
ARC
  5
2E1
  8
0
  6
CENTER
 62
     7
 10
183.0202309465113
 20
43.64331636864783
 30
0.0
 40
117.4749949730934
 50
347.7836875750553
 51
360.0
  0
ARC
  5
2E2
  8
0
  6
CENTER
 62
     7
 10
183.0202309465113
 20
43.64331636864783
 30
0.0
 40
117.4749949730934
 50
48.29055075282486
 51
71.17377451025361
  0
ARC
  5
2E3
  8
0
  6
CENTER
 62
     7
 10
183.0202309465113
 20
43.64331636864783
 30
0.0
 40
77.99999767541893
 50
261.8927815167701
 51
278.1071998138952
  0
ARC
  5
2E4
  8
0
  6
CENTER
 62
     7
 10
183.0202309465113
 20
43.64331636864783
 30
0.0
 40
77.99999767541893
 50
141.8928086859461
 51
158.1072133226928
  0
LINE
  5
2E5
  8
0
  6
CENTER
 62
     7
 10
25.70321223931787
 20
-47.18371383816082
 30
0.0
 11
183.0202552295305
 21
43.64331324560864
 31
0.0
  0
LINE
  5
2E6
  8
0
  6
CENTER
 62
     7
 10
-7.068257808461906
 20
43.64331636864783
 30
0.0
 11
371.5983846587197
 21
43.64331636864783
 31
0.0
  0
LINE
  5
2E7
  8
0
  6
CENTER
 62
     7
 10
106.617062368444
 20
87.75474044514625
 30
0.0
 11
123.8048972368162
 21
77.83134045346115
 31
0.0
  0
ARC
  5
2E8
  8
0
  6
CENTER
 62
     7
 10
183.0202309465113
 20
43.64331636864783
 30
0.0
 40
117.4749949730934
 50
108.196746604416
 51
131.9921762764458
  0
ARC
  5
2E9
  8
0
  6
CENTER
 62
     7
 10
183.0202309465113
 20
43.64331636864783
 30
0.0
 40
117.4749949730934
 50
228.5830212743176
 51
252.216288595073
  0
LINE
  5
2EA
  8
0
  6
CENTER
 62
     7
 10
142.6848248759238
 20
13.50623670422182
 30
0.0
 11
136.7085829886
 21
23.85739129138794
 31
0.0
  0
LINE
  5
2EB
  8
0
  6
CENTER
 62
     7
 10
229.2873957209338
 20
23.78034415750304
 30
0.0
 11
223.31115383361
 21
13.4291895703369
 31
0.0
  0
LINE
  5
2EC
  8
0
  6
CENTER
 62
     7
 10
183.0202309465113
 20
229.1241381724315
 30
0.0
 11
183.0202309465113
 21
70.50844130349429
 31
0.0
  0
LINE
  5
2ED
  8
0
  6
CENTER
 62
     7
 10
183.0202309465113
 20
58.41578327444049
 30
0.0
 11
183.0202309465113
 21
-146.2091827035314
 31
0.0
  0
LINE
  5
2EE
  8
0
  6
CONTINUOUS
 62
     7
 10
-149.5262210538493
 20
129.9433130337681
 30
0.0
 11
-106.4744141585628
 21
129.9433130337681
 31
0.0
  0
LINE
  5
2EF
  8
0
  6
CONTINUOUS
 62
     2
 10
88.2337492512191
 20
-2.931670527013559
 30
0.0
 11
95.29186660392493
 21
1.143325445941054
 31
0.0
  0
LINE
  5
2F0
  8
0
  6
CONTINUOUS
 62
     2
 10
95.29188060577711
 20
1.143326516775195
 30
0.0
 11
102.3499778462737
 21
-2.931681950803899
 31
0.0
  0
LINE
  5
2F1
  8
0
  6
CONTINUOUS
 62
     2
 10
102.3499605235242
 20
-2.931685748062058
 30
0.0
 11
102.3499605235242
 21
-11.08168381240128
 31
0.0
  0
LINE
  5
2F2
  8
0
  6
CONTINUOUS
 62
     2
 10
102.3499432434517
 20
-11.08166874627388
 30
0.0
 11
95.29183580162574
 21
-15.15665924008214
 31
0.0
  0
LINE
  5
2F3
  8
0
  6
CONTINUOUS
 62
     2
 10
95.29184214220379
 20
-15.15668072463157
 30
0.0
 11
88.2337424728193
 21
-11.08167711482838
 31
0.0
  0
LINE
  5
2F4
  8
0
  6
CONTINUOUS
 62
     2
 10
88.23375382141722
 20
-11.08167236830982
 30
0.0
 11
88.23375382141722
 21
-2.931674303970603
 31
0.0
  0
LINE
  5
2F5
  8
0
  6
CONTINUOUS
 62
     2
 10
49.26262155639302
 20
-25.43165934268964
 30
0.0
 11
56.32073890909884
 21
-21.35666336973503
 31
0.0
  0
LINE
  5
2F6
  8
0
  6
CONTINUOUS
 62
     2
 10
56.32074243492502
 20
-21.35667403275155
 30
0.0
 11
63.37883471998877
 21
-25.43167963930028
 31
0.0
  0
LINE
  5
2F7
  8
0
  6
CONTINUOUS
 62
     2
 10
63.37881796242058
 20
-25.4316861503934
 30
0.0
 11
63.37881796242058
 21
-33.58168171133761
 31
0.0
  0
LINE
  5
2F8
  8
0
  6
CONTINUOUS
 62
     2
 10
63.37879705469382
 20
-33.58164975876959
 30
0.0
 11
56.32069209058786
 21
-37.65663882206897
 31
0.0
  0
LINE
  5
2F9
  8
0
  6
CONTINUOUS
 62
     2
 10
56.32071671465396
 20
-37.65667851409089
 30
0.0
 11
49.26261208983498
 21
-33.58167204326074
 31
0.0
  0
LINE
  5
2FA
  8
0
  6
CONTINUOUS
 62
     2
 10
49.26261698235933
 20
-33.58166740622329
 30
0.0
 11
49.26261698235933
 21
-25.43166898425622
 31
0.0
  0
CIRCLE
  5
2FB
  8
0
  6
CONTINUOUS
 62
     2
 10
95.29186289451644
 20
-7.006676733604863
 30
0.0
 40
11.99999964237214
  0
CIRCLE
  5
2FC
  8
0
  6
CONTINUOUS
 62
     2
 10
56.32072033341282
 20
-29.50667534779691
 30
0.0
 40
11.99999964237214
  0
LINE
  5
2FD
  8
0
  6
CONTINUOUS
 62
     2
 10
115.7091142672189
 20
-53.14303422587557
 30
0.0
 11
124.2827607780186
 21
-48.19304162429926
 31
0.0
  0
LINE
  5
2FE
  8
0
  6
CONTINUOUS
 62
     2
 10
124.282745409305
 20
-48.1929915551124
 30
0.0
 11
132.8563921548563
 21
-53.14299439378257
 31
0.0
  0
LINE
  5
2FF
  8
0
  6
CONTINUOUS
 62
     2
 10
132.8563835645573
 20
-53.14301001630405
 30
0.0
 11
132.8563835645573
 21
-63.04301315448851
 31
0.0
  0
LINE
  5
300
  8
0
  6
CONTINUOUS
 62
     2
 10
132.8563935291051
 20
-63.04305494291845
 30
0.0
 11
124.2827487885619
 21
-67.99304960979397
 31
0.0
  0
LINE
  5
301
  8
0
  6
CONTINUOUS
 62
     2
 10
124.2827370358807
 20
-67.99300592818864
 30
0.0
 11
115.7090885200719
 21
-63.04300603994761
 31
0.0
  0
LINE
  5
302
  8
0
  6
CONTINUOUS
 62
     2
 10
115.7090833553718
 20
-63.04300743244278
 30
0.0
 11
115.7090833553718
 21
-53.14300429425832
 31
0.0
  0
LINE
  5
303
  8
0
  6
CONTINUOUS
 62
     2
 10
263.6904956595305
 20
-2.931664558284737
 30
0.0
 11
270.7486278785561
 21
1.143339997722607
 31
0.0
  0
LINE
  5
304
  8
0
  6
CONTINUOUS
 62
     2
 10
270.7486519218656
 20
1.143316025885431
 30
0.0
 11
277.8067739395261
 21
-2.931706746845499
 31
0.0
  0
LINE
  5
305
  8
0
  6
CONTINUOUS
 62
     2
 10
277.8067309597882
 20
-2.931685748062058
 30
0.0
 11
277.8067309597882
 21
-11.08168381240128
 31
0.0
  0
LINE
  5
306
  8
0
  6
CONTINUOUS
 62
     2
 10
277.8066800556009
 20
-11.08162565542187
 30
0.0
 11
270.7485478365752
 21
-15.15663045431886
 31
0.0
  0
LINE
  5
307
  8
0
  6
CONTINUOUS
 62
     2
 10
270.7486208052434
 20
-15.15669841462131
 30
0.0
 11
263.6904963586865
 21
-11.08168049968334
 31
0.0
  0
LINE
  5
308
  8
0
  6
CONTINUOUS
 62
     2
 10
263.6905128135898
 20
-11.08167236830982
 30
0.0
 11
263.6905128135898
 21
-2.931674303970603
 31
0.0
  0
LINE
  5
309
  8
0
  6
CONTINUOUS
 62
     2
 10
302.661664542605
 20
-25.43165625456721
 30
0.0
 11
309.7197967616306
 21
-21.35665169855987
 31
0.0
  0
LINE
  5
30A
  8
0
  6
CONTINUOUS
 62
     2
 10
309.7198182653719
 20
-21.3566432035033
 30
0.0
 11
316.7779402830323
 21
-25.43166597623423
 31
0.0
  0
LINE
  5
30B
  8
0
  6
CONTINUOUS
 62
     2
 10
316.777890687029
 20
-25.4316861503934
 30
0.0
 11
316.777890687029
 21
-33.58168171133761
 31
0.0
  0
LINE
  5
30C
  8
0
  6
CONTINUOUS
 62
     2
 10
316.7778245563102
 20
-33.58161821434116
 30
0.0
 11
309.7196923372845
 21
-37.65662301323816
 31
0.0
  0
LINE
  5
30D
  8
0
  6
CONTINUOUS
 62
     2
 10
309.7197719494566
 20
-37.65668037623144
 30
0.0
 11
302.6616475028997
 21
-33.58166246129346
 31
0.0
  0
LINE
  5
30E
  8
0
  6
CONTINUOUS
 62
     2
 10
302.6616725408305
 20
-33.58166740622329
 30
0.0
 11
302.6616725408305
 21
-25.43166898425622
 31
0.0
  0
LINE
  5
30F
  8
0
  6
CONTINUOUS
 62
     2
 10
175.9621098807536
 20
149.018317049054
 30
0.0
 11
183.0202420997793
 21
153.0933216050613
 31
0.0
  0
LINE
  5
310
  8
0
  6
CONTINUOUS
 62
     2
 10
183.0202986555537
 20
153.09339210212
 30
0.0
 11
190.0783909406175
 21
149.0183864955712
 31
0.0
  0
LINE
  5
311
  8
0
  6
CONTINUOUS
 62
     2
 10
190.0783400196105
 20
149.0183017841368
 30
0.0
 11
190.0783400196105
 21
140.8683119452383
 31
0.0
  0
LINE
  5
312
  8
0
  6
CONTINUOUS
 62
     2
 10
190.0783410560152
 20
140.8683116472824
 30
0.0
 11
183.0202088369895
 21
136.7933068483854
 31
0.0
  0
LINE
  5
313
  8
0
  6
CONTINUOUS
 62
     2
 10
183.0202267738024
 20
136.7933200817048
 30
0.0
 11
175.9621271044179
 21
140.868323691508
 31
0.0
  0
LINE
  5
314
  8
0
  6
CONTINUOUS
 62
     2
 10
175.9621333175035
 20
140.8683233893297
 30
0.0
 11
175.9621333175035
 21
149.0183361164111
 31
0.0
  0
LINE
  5
315
  8
0
  6
CONTINUOUS
 62
     2
 10
175.9621048110937
 20
194.0183151104156
 30
0.0
 11
183.0202370301193
 21
198.093319666423
 31
0.0
  0
LINE
  5
316
  8
0
  6
CONTINUOUS
 62
     2
 10
183.0202599081468
 20
198.0933678972757
 30
0.0
 11
190.0783571486433
 21
194.0183594296966
 31
0.0
  0
LINE
  5
317
  8
0
  6
CONTINUOUS
 62
     2
 10
190.0783400196105
 20
194.0183233312152
 30
0.0
 11
190.0783400196105
 21
185.8683106041338
 31
0.0
  0
LINE
  5
318
  8
0
  6
CONTINUOUS
 62
     2
 10
190.0783851972599
 20
185.868314684437
 30
0.0
 11
183.0202529782343
 21
181.7933098855401
 31
0.0
  0
LINE
  5
319
  8
0
  6
CONTINUOUS
 62
     2
 10
183.0202091798662
 20
181.7932910135737
 30
0.0
 11
175.9621144659162
 21
185.86829176235
 31
0.0
  0
LINE
  5
31A
  8
0
  6
CONTINUOUS
 62
     2
 10
175.9621333175035
 20
185.8683220482253
 30
0.0
 11
175.9621333175035
 21
194.0183233312152
 31
0.0
  0
CIRCLE
  5
31B
  8
0
  6
CONTINUOUS
 62
     2
 10
270.7486333307804
 20
-7.006676733604863
 30
0.0
 40
11.99999964237214
  0
CIRCLE
  5
31C
  8
0
  6
CONTINUOUS
 62
     2
 10
309.7197930580212
 20
-29.50667534779691
 30
0.0
 40
11.99999964237214
  0
CIRCLE
  5
31D
  8
0
  6
CONTINUOUS
 62
     2
 10
183.0202309465113
 20
144.9433240308247
 30
0.0
 40
11.99999964237214
  0
CIRCLE
  5
31E
  8
0
  6
CONTINUOUS
 62
     2
 10
183.0202309465113
 20
189.9433226897202
 30
0.0
 40
11.99999964237214
  0
CIRCLE
  5
31F
  8
0
  6
CONTINUOUS
 62
     2
 10
124.2827334599645
 20
-58.09300872437342
 30
0.0
 40
14.99999955296518
  0
LINE
  5
320
  8
0
  6
DASHED2
 62
     7
 10
91.02024131771913
 20
192.5090307736566
 30
0.0
 11
91.02024131771913
 21
158.1433053268877
 31
0.0
  0
LINE
  5
321
  8
0
  6
DASHED2
 62
     7
 10
91.02024131771913
 20
183.1433007671325
 30
0.0
 11
107.718967474111
 21
183.1433007671325
 31
0.0
  0
LINE
  5
322
  8
0
  6
DASHED2
 62
     7
 10
91.02024131771913
 20
159.1433014823882
 30
0.0
 11
107.718967474111
 21
159.1433014823882
 31
0.0
  0
LINE
  5
323
  8
0
  6
DASHED2
 62
     7
 10
50.67692930288043
 20
158.1433053268877
 30
0.0
 11
91.02024131771913
 21
158.1433053268877
 31
0.0
  0
LINE
  5
324
  8
0
  6
DASHED2
 62
     7
 10
79.02023595330125
 20
173.5432987644165
 30
0.0
 11
79.02023595330125
 21
168.7433149291957
 31
0.0
  0
LINE
  5
325
  8
0
  6
DASHED2
 62
     7
 10
81.72023472842584
 20
174.4433078928676
 30
0.0
 11
81.72023472842584
 21
167.8433058007446
 31
0.0
  0
LINE
  5
326
  8
0
  6
DASHED2
 62
     7
 10
87.45898882985858
 20
165.4433081610885
 30
0.0
 11
90.58148629539465
 21
165.4433081610885
 31
0.0
  0
LINE
  5
327
  8
0
  6
DASHED2
 62
     7
 10
87.45898882985858
 20
176.8433055325237
 30
0.0
 11
90.58148629539465
 21
176.8433055325237
 31
0.0
  0
LINE
  5
328
  8
0
  6
DASHED2
 62
     7
 10
81.72020888882864
 20
167.84325957201
 30
0.0
 11
79.02021036269493
 21
168.7432589676294
 31
0.0
  0
LINE
  5
329
  8
0
  6
DASHED2
 62
     7
 10
81.72026411442525
 20
174.4432532242114
 30
0.0
 11
79.0202601598822
 21
173.5432520191224
 31
0.0
  0
LINE
  5
32A
  8
0
  6
DASHED2
 62
     7
 10
82.72023088392638
 20
173.8886356681872
 30
0.0
 11
82.72023088392638
 21
168.3478300166657
 31
0.0
  0
LINE
  5
32B
  8
0
  6
DASHED2
 62
     7
 10
87.02023380753411
 20
175.5933017550795
 30
0.0
 11
87.02023380753411
 21
166.6933119385327
 31
0.0
  0
LINE
  5
32C
  8
0
  6
DASHED2
 62
     7
 10
87.76411691829924
 20
174.036962537546
 30
0.0
 11
90.27635248490827
 21
174.036962537546
 31
0.0
  0
LINE
  5
32D
  8
0
  6
DASHED2
 62
     7
 10
87.76411691829924
 20
168.2496397119748
 30
0.0
 11
90.27635248490827
 21
168.2496397119748
 31
0.0
  0
LINE
  5
32E
  8
0
  6
DASHED2
 62
     7
 10
91.02024131771913
 20
175.6433009906499
 30
0.0
 11
97.78740725373717
 21
175.6433009906499
 31
0.0
  0
LINE
  5
32F
  8
0
  6
DASHED2
 62
     7
 10
91.02024131771913
 20
166.6433012588708
 30
0.0
 11
97.55440555169679
 21
166.6433012588708
 31
0.0
  0
LINE
  5
330
  8
0
  6
DASHED2
 62
     7
 10
91.02024131771913
 20
174.6433048351494
 30
0.0
 11
97.78740725373717
 21
174.6433048351494
 31
0.0
  0
LINE
  5
331
  8
0
  6
DASHED2
 62
     7
 10
91.02024131771913
 20
167.6433088584628
 30
0.0
 11
97.78740725373717
 21
167.6433088584628
 31
0.0
  0
LINE
  5
332
  8
0
  6
DASHED2
 62
     7
 10
337.4855598758463
 20
125.895741764575
 30
0.0
 11
315.9240257702538
 21
113.4471856199105
 31
0.0
  0
LINE
  5
333
  8
0
  6
DASHED2
 62
     7
 10
331.4855579345695
 20
136.2880453984944
 30
0.0
 11
309.9240232095473
 21
123.839488896202
 31
0.0
  0
LINE
  5
334
  8
0
  6
DASHED2
 62
     7
 10
337.0127894776712
 20
126.7774837721751
 30
0.0
 11
311.0192287805594
 21
111.770096164546
 31
0.0
  0
LINE
  5
335
  8
0
  6
DASHED2
 62
     7
 10
332.0128017429289
 20
135.4377404109546
 30
0.0
 11
306.0938964108791
 21
120.4734550936784
 31
0.0
  0
LINE
  5
336
  8
0
  6
DASHED2
 62
     7
 10
315.9240197028776
 20
113.4471952286018
 30
0.0
 11
309.9240191664359
 21
123.8394995777768
 31
0.0
  0
LINE
  5
337
  8
0
  6
DASHED2
 62
     7
 10
311.0938971717885
 20
111.8132052456685
 30
0.0
 11
306.0938929100561
 21
120.4734654772302
 31
0.0
  0
LINE
  5
338
  8
0
  6
DASHED2
 62
     7
 10
311.093894917631
 20
111.8132057638828
 30
0.0
 11
306.0938984120987
 21
114.6999547733654
 31
0.0
  0
LINE
  5
339
  8
0
  6
DASHED2
 62
     7
 10
306.0938928975268
 20
114.6999434319035
 30
0.0
 11
306.0938928975268
 21
120.4734417949961
 31
0.0
  0
LINE
  5
33A
  8
0
  6
DASHED2
 62
     7
 10
-226.2909636726915
 20
-106.3566906050954
 30
0.0
 11
-214.2909640303194
 21
-106.3566906050954
 31
0.0
  0
LINE
  5
33B
  8
0
  6
DASHED2
 62
     7
 10
-225.2909789612825
 20
-101.3566869394099
 30
0.0
 11
-215.2909716299114
 21
-101.3566869394099
 31
0.0
  0
LINE
  5
33C
  8
0
  6
DASHED2
 62
     7
 10
-225.2909789612825
 20
-101.3566869394099
 30
0.0
 11
-225.2909789612825
 21
-131.3566860453402
 31
0.0
  0
LINE
  5
33D
  8
0
  6
DASHED2
 62
     7
 10
-215.2909716299114
 20
-101.3566869394099
 30
0.0
 11
-215.2909716299114
 21
-131.3566860453402
 31
0.0
  0
LINE
  5
33E
  8
0
  6
DASHED2
 62
     7
 10
-226.2909636726915
 20
-106.3566906050954
 30
0.0
 11
-226.2909636726915
 21
-131.3566860453402
 31
0.0
  0
LINE
  5
33F
  8
0
  6
DASHED2
 62
     7
 10
-214.2909640303194
 20
-106.3566906050954
 30
0.0
 11
-214.2909640303194
 21
-131.3566860453402
 31
0.0
  0
LINE
  5
340
  8
0
  6
DASHED2
 62
     7
 10
-225.2909887568538
 20
-101.3566893426845
 30
0.0
 11
-220.2909922513215
 21
-98.46994033320188
 31
0.0
  0
LINE
  5
341
  8
0
  6
DASHED2
 62
     7
 10
-220.2909830953628
 20
-98.4699407864631
 30
0.0
 11
-215.2909865898305
 21
-101.3566897959457
 31
0.0
  0
ARC
  5
342
  8
0
  6
DASHED2
 62
     7
 10
81.72023472842584
 20
171.1433011247604
 30
0.0
 40
3.299999973177911
 50
73.48282241201396
 51
89.99998201391065
  0
ARC
  5
343
  8
0
  6
DASHED2
 62
     7
 10
81.72023472842584
 20
171.1433011247604
 30
0.0
 40
3.299999973177911
 50
270.0000179860894
 51
286.5171775879861
  0
ARC
  5
344
  8
0
  6
DASHED2
 62
     7
 10
89.02023756262662
 20
175.5933017550795
 30
0.0
 40
2.0
 50
0.0
 51
38.68218896809859
  0
ARC
  5
345
  8
0
  6
DASHED2
 62
     7
 10
89.02023756262662
 20
166.6933119385327
 30
0.0
 40
2.0
 50
0.0
 51
51.09316519948327
  0
ARC
  5
346
  8
0
  6
DASHED2
 62
     7
 10
85.02023577448733
 20
171.1433011247604
 30
0.0
 40
5.999999821186071
 50
0.0
 51
28.83423780766662
  0
ARC
  5
347
  8
0
  6
DASHED2
 62
     7
 10
93.02023362872018
 20
171.1433011247604
 30
0.0
 40
5.999999821186071
 50
151.1657740314789
 51
208.8342086656771
  0
ARC
  5
348
  8
0
  6
DASHED2
 62
     7
 10
85.02023577448733
 20
171.1433011247604
 30
0.0
 40
5.999999821186071
 50
331.1657621923334
 51
360.0
  0
ARC
  5
349
  8
0
  6
DASHED2
 62
     7
 10
89.02023756262662
 20
175.5933017550795
 30
0.0
 40
2.0
 50
308.9068348005167
 51
360.0
  0
ARC
  5
34A
  8
0
  6
DASHED2
 62
     7
 10
89.02023756262662
 20
175.5933017550795
 30
0.0
 40
2.0
 50
141.3178297012361
 51
231.0931121518317
  0
ARC
  5
34B
  8
0
  6
DASHED2
 62
     7
 10
89.02023756262662
 20
166.6933119385327
 30
0.0
 40
2.0
 50
128.906856884946
 51
218.6821529959199
  0
ARC
  5
34C
  8
0
  6
DASHED2
 62
     7
 10
89.02023756262662
 20
166.6933119385327
 30
0.0
 40
2.0
 50
321.3178110319014
 51
360.0
  0
ARC
  5
34D
  8
0
  6
DASHED2
 62
     7
 10
83.05343705075387
 20
179.9433039142577
 30
0.0
 40
5.649999807775027
 50
265.9910930942637
 51
315.0592540539054
  0
ARC
  5
34E
  8
0
  6
DASHED2
 62
     7
 10
83.05343705075387
 20
162.3432983352631
 30
0.0
 40
5.649999807775027
 50
44.94074594609464
 51
94.00890690573628
  0
ARC
  5
34F
  8
0
  6
DASHED2
 62
     7
 10
79.72023097333333
 20
171.1433011247604
 30
0.0
 40
1.499999955296518
 50
117.818154050457
 51
242.1818423070773
  0
LINE
  5
350
  8
0
  6
CENTER
 62
     7
 10
-196.2470083276103
 20
93.64331636864783
 30
0.0
 11
-174.6816549340556
 21
93.64331636864783
 31
0.0
  0
LINE
  5
351
  8
0
  6
CONTINUOUS
 62
     4
 10
-154.7909696182547
 20
218.9433141960586
 30
0.0
 11
-154.7909696182547
 21
204.9433222426854
 31
0.0
  0
LINE
  5
352
  8
0
  6
CONTINUOUS
 62
     4
 10
-153.7909734627542
 20
218.9433141960586
 30
0.0
 11
-153.7909734627542
 21
204.9433222426854
 31
0.0
  0
LINE
  5
353
  8
0
  6
CONTINUOUS
 62
     4
 10
-154.7909696182547
 20
129.9433130337681
 30
0.0
 11
-154.7909696182547
 21
116.9433057918039
 31
0.0
  0
LINE
  5
354
  8
0
  6
CONTINUOUS
 62
     4
 10
-153.7909734627542
 20
129.9433130337681
 30
0.0
 11
-153.7909734627542
 21
116.9433057918039
 31
0.0
  0
LINE
  5
355
  8
0
  6
CONTINUOUS
 62
     4
 10
-176.7909765919979
 20
196.9433072223154
 30
0.0
 11
-137.7909777542884
 21
196.9433072223154
 31
0.0
  0
LINE
  5
356
  8
0
  6
CONTINUOUS
 62
     4
 10
-176.7909765919979
 20
182.9433038248507
 30
0.0
 11
-137.7909777542884
 21
182.9433038248507
 31
0.0
  0
LINE
  5
357
  8
0
  6
CONTINUOUS
 62
     4
 10
-176.7909765919979
 20
151.9433085634198
 30
0.0
 11
-137.7909777542884
 21
151.9433085634198
 31
0.0
  0
LINE
  5
358
  8
0
  6
CONTINUOUS
 62
     4
 10
-176.7909765919979
 20
137.9433051659552
 30
0.0
 11
-137.7909777542884
 21
137.9433051659552
 31
0.0
  0
LINE
  5
359
  8
0
  6
CONTINUOUS
 62
     4
 10
-192.9285302797625
 20
-11.55668084185488
 30
0.0
 11
-178.9285268822978
 21
-11.55668084185488
 31
0.0
  0
LINE
  5
35A
  8
0
  6
CONTINUOUS
 62
     4
 10
-215.9285219649148
 20
88.89331509459858
 30
0.0
 11
-215.9285219649148
 21
76.40290752311614
 31
0.0
  0
LINE
  5
35B
  8
0
  6
CONTINUOUS
 62
     4
 10
-250.9285132924393
 20
88.89331509459858
 30
0.0
 11
-250.9285132924393
 21
76.12267605563761
 31
0.0
  0
LINE
  5
35C
  8
0
  6
CONTINUOUS
 62
     4
 10
-250.9285132924393
 20
10.59170633250148
 30
0.0
 11
-250.9285132924393
 21
-1.606680211535783
 31
0.0
  0
LINE
  5
35D
  8
0
  6
CONTINUOUS
 62
     4
 10
-215.9285219649148
 20
10.31147128874438
 30
0.0
 11
-215.9285219649148
 21
-1.606680211535783
 31
0.0
  0
LINE
  5
35E
  8
0
  6
CONTINUOUS
 62
     4
 10
-192.9285302797625
 20
98.84331930119626
 30
0.0
 11
-178.9285268822978
 21
98.84331930119626
 31
0.0
  0
LINE
  5
35F
  8
0
  6
CONTINUOUS
 62
     4
 10
-172.7909690818129
 20
-29.35667764108555
 30
0.0
 11
-172.7909690818129
 21
-39.35667925041091
 31
0.0
  0
LINE
  5
360
  8
0
  6
CONTINUOUS
 62
     4
 10
-172.7909690818129
 20
-29.35667764108555
 30
0.0
 11
-152.7909773072536
 21
-29.35667764108555
 31
0.0
  0
LINE
  5
361
  8
0
  6
CONTINUOUS
 62
     4
 10
-172.7909690818129
 20
-39.35667925041091
 30
0.0
 11
-152.7909773072536
 21
-39.35667925041091
 31
0.0
  0
LINE
  5
362
  8
0
  6
CONTINUOUS
 62
     4
 10
-299.790961482221
 20
-63.83167699512023
 30
0.0
 11
-299.790961482221
 21
-83.83168021377095
 31
0.0
  0
LINE
  5
363
  8
0
  6
CONTINUOUS
 62
     4
 10
-299.790961482221
 20
-63.83167699512023
 30
0.0
 11
-272.1574631602555
 21
-63.83167699512023
 31
0.0
  0
LINE
  5
364
  8
0
  6
CONTINUOUS
 62
     4
 10
-299.790961482221
 20
-83.83168021377095
 30
0.0
 11
-271.488327132834
 21
-83.83168021377095
 31
0.0
  0
LINE
  5
365
  8
0
  6
CONTINUOUS
 62
     4
 10
-299.790961482221
 20
-82.8316783362247
 30
0.0
 11
-272.1574631602555
 21
-82.8316783362247
 31
0.0
  0
LINE
  5
366
  8
0
  6
CONTINUOUS
 62
     4
 10
-299.790961482221
 20
-64.83167887266649
 30
0.0
 11
-272.826576299494
 21
-64.83167887266649
 31
0.0
  0
ARC
  5
367
  8
0
  6
CONTINUOUS
 62
     4
 10
183.0202309465113
 20
43.64331636864783
 30
0.0
 40
116.9999965131284
 50
223.3423400675719
 51
227.6361521496788
  0
ARC
  5
368
  8
0
  6
CONTINUOUS
 62
     4
 10
183.0202309465113
 20
43.64331636864783
 30
0.0
 40
122.9999963343145
 50
222.6803581332143
 51
231.8275523753705
  0
ARC
  5
369
  8
0
  6
CONTINUOUS
 62
     4
 10
183.0202309465113
 20
43.64331636864783
 30
0.0
 40
122.9999963343145
 50
188.172398295234
 51
197.3195925373902
  0
ARC
  5
36A
  8
0
  6
CONTINUOUS
 62
     4
 10
183.0202309465113
 20
43.64331636864783
 30
0.0
 40
116.9999965131284
 50
192.3947392778658
 51
196.6576106030325
  0
ARC
  5
36B
  8
0
  6
CONTINUOUS
 62
     4
 10
183.0202309465113
 20
43.64331636864783
 30
0.0
 40
110.9999966919423
 50
188.4345409555791
 51
195.9219445879088
  0
ARC
  5
36C
  8
0
  6
CONTINUOUS
 62
     4
 10
183.0202309465113
 20
43.64331636864783
 30
0.0
 40
104.9999968707563
 50
186.69791071759
 51
195.0993849061642
  0
ARC
  5
36D
  8
0
  6
CONTINUOUS
 62
     4
 10
183.0202309465113
 20
43.64331636864783
 30
0.0
 40
122.9999963343145
 50
127.9605478358191
 51
171.827601704766
  0
ARC
  5
36E
  8
0
  6
CONTINUOUS
 62
     4
 10
183.0202309465113
 20
43.64331636864783
 30
0.0
 40
116.9999965131284
 50
133.2290688936218
 51
166.6968455625225
  0
ARC
  5
36F
  8
0
  6
CONTINUOUS
 62
     4
 10
183.0202309465113
 20
43.64331636864783
 30
0.0
 40
80.99999758601196
 50
154.5601594829218
 51
190.528741614531
  0
LINE
  5
370
  8
0
  6
CONTINUOUS
 62
     4
 10
159.520235461563
 20
118.4433286352834
 30
0.0
 11
171.0202313041391
 21
118.4433286352834
 31
0.0
  0
LINE
  5
371
  8
0
  6
CONTINUOUS
 62
     4
 10
195.0202420329748
 20
118.4433286352834
 30
0.0
 11
206.5202264314596
 21
118.4433286352834
 31
0.0
  0
LINE
  5
372
  8
0
  6
CONTINUOUS
 62
     4
 10
159.520235461563
 20
217.4433142407621
 30
0.0
 11
171.0202313041391
 21
217.4433142407621
 31
0.0
  0
LINE
  5
373
  8
0
  6
CONTINUOUS
 62
     4
 10
195.0202420329748
 20
217.4433142407621
 30
0.0
 11
206.5202264314596
 21
217.4433142407621
 31
0.0
  0
LINE
  5
374
  8
0
  6
CONTINUOUS
 62
     4
 10
195.0202420329748
 20
119.9433285905799
 30
0.0
 11
206.5202264314596
 21
119.9433285905799
 31
0.0
  0
LINE
  5
375
  8
0
  6
CONTINUOUS
 62
     4
 10
195.0202420329748
 20
121.4433285458764
 30
0.0
 11
206.5202264314596
 21
121.4433285458764
 31
0.0
  0
LINE
  5
376
  8
0
  6
CONTINUOUS
 62
     4
 10
195.0202420329748
 20
122.9433285011729
 30
0.0
 11
206.5202264314596
 21
122.9433285011729
 31
0.0
  0
LINE
  5
377
  8
0
  6
CONTINUOUS
 62
     4
 10
195.0202420329748
 20
124.4433284564694
 30
0.0
 11
206.5202264314596
 21
124.4433284564694
 31
0.0
  0
LINE
  5
378
  8
0
  6
CONTINUOUS
 62
     4
 10
195.0202420329748
 20
125.943328411766
 30
0.0
 11
206.5202264314596
 21
125.943328411766
 31
0.0
  0
LINE
  5
379
  8
0
  6
CONTINUOUS
 62
     4
 10
159.520235461563
 20
119.9433285905799
 30
0.0
 11
171.0202313041391
 21
119.9433285905799
 31
0.0
  0
LINE
  5
37A
  8
0
  6
CONTINUOUS
 62
     4
 10
159.520235461563
 20
121.4433285458764
 30
0.0
 11
171.0202313041391
 21
121.4433285458764
 31
0.0
  0
LINE
  5
37B
  8
0
  6
CONTINUOUS
 62
     4
 10
159.520235461563
 20
122.9433285011729
 30
0.0
 11
171.0202313041391
 21
122.9433285011729
 31
0.0
  0
LINE
  5
37C
  8
0
  6
CONTINUOUS
 62
     4
 10
159.520235461563
 20
124.4433284564694
 30
0.0
 11
171.0202313041391
 21
124.4433284564694
 31
0.0
  0
LINE
  5
37D
  8
0
  6
CONTINUOUS
 62
     4
 10
159.520235461563
 20
125.943328411766
 30
0.0
 11
171.0202313041391
 21
125.943328411766
 31
0.0
  0
LINE
  5
37E
  8
0
  6
CONTINUOUS
 62
     4
 10
159.520235461563
 20
215.9433142854656
 30
0.0
 11
171.0202313041391
 21
215.9433142854656
 31
0.0
  0
LINE
  5
37F
  8
0
  6
CONTINUOUS
 62
     4
 10
159.520235461563
 20
214.443314330169
 30
0.0
 11
171.0202313041391
 21
214.443314330169
 31
0.0
  0
LINE
  5
380
  8
0
  6
CONTINUOUS
 62
     4
 10
159.520235461563
 20
212.9433143748725
 30
0.0
 11
171.0202313041391
 21
212.9433143748725
 31
0.0
  0
LINE
  5
381
  8
0
  6
CONTINUOUS
 62
     4
 10
159.520235461563
 20
211.443314419576
 30
0.0
 11
171.0202313041391
 21
211.443314419576
 31
0.0
  0
LINE
  5
382
  8
0
  6
CONTINUOUS
 62
     4
 10
159.520235461563
 20
209.9433144642795
 30
0.0
 11
171.0202313041391
 21
209.9433144642795
 31
0.0
  0
LINE
  5
383
  8
0
  6
CONTINUOUS
 62
     4
 10
195.0202420329748
 20
215.9433142854656
 30
0.0
 11
206.5202264314596
 21
215.9433142854656
 31
0.0
  0
LINE
  5
384
  8
0
  6
CONTINUOUS
 62
     4
 10
195.0202420329748
 20
214.443314330169
 30
0.0
 11
206.5202264314596
 21
214.443314330169
 31
0.0
  0
LINE
  5
385
  8
0
  6
CONTINUOUS
 62
     4
 10
195.0202420329748
 20
212.9433143748725
 30
0.0
 11
206.5202264314596
 21
212.9433143748725
 31
0.0
  0
LINE
  5
386
  8
0
  6
CONTINUOUS
 62
     4
 10
195.0202420329748
 20
211.443314419576
 30
0.0
 11
206.5202264314596
 21
211.443314419576
 31
0.0
  0
LINE
  5
387
  8
0
  6
CONTINUOUS
 62
     4
 10
195.0202420329748
 20
209.9433144642795
 30
0.0
 11
206.5202264314596
 21
209.9433144642795
 31
0.0
  0
LINE
  5
388
  8
0
  6
CONTINUOUS
 62
     4
 10
236.0489730071306
 20
-14.10831129448866
 30
0.0
 11
241.7989716138718
 21
-4.149022930153897
 31
0.0
  0
LINE
  5
389
  8
0
  6
CONTINUOUS
 62
     4
 10
253.7989784088018
 20
16.63559567906978
 30
0.0
 11
259.5489827375894
 21
26.59489395427829
 31
0.0
  0
LINE
  5
38A
  8
0
  6
CONTINUOUS
 62
     4
 10
321.7854953319169
 20
-63.6082958983859
 30
0.0
 11
327.5354996607046
 21
-53.64899762317739
 31
0.0
  0
LINE
  5
38B
  8
0
  6
CONTINUOUS
 62
     4
 10
339.5355064556345
 20
-32.86437901395372
 30
0.0
 11
345.2855050623757
 21
-22.90509064961896
 31
0.0
  0
LINE
  5
38C
  8
0
  6
CONTINUOUS
 62
     4
 10
338.2364684119876
 20
-32.1143789468985
 30
0.0
 11
343.9864670187288
 21
-22.15509058256374
 31
0.0
  0
LINE
  5
38D
  8
0
  6
CONTINUOUS
 62
     4
 10
336.9374303683408
 20
-31.36437887984328
 30
0.0
 11
342.687428975082
 21
-21.40509051550852
 31
0.0
  0
LINE
  5
38E
  8
0
  6
CONTINUOUS
 62
     4
 10
335.6384178684878
 20
-30.61438034600713
 30
0.0
 11
341.3884221972754
 21
-20.65508207079862
 31
0.0
  0
LINE
  5
38F
  8
0
  6
CONTINUOUS
 62
     4
 10
334.3393741027945
 20
-29.86439018982565
 30
0.0
 11
340.0893727095357
 21
-19.90510182549089
 31
0.0
  0
LINE
  5
390
  8
0
  6
CONTINUOUS
 62
     4
 10
333.0403105153537
 20
-29.11438858955135
 30
0.0
 11
338.790309122095
 21
-19.15510022521659
 31
0.0
  0
LINE
  5
391
  8
0
  6
CONTINUOUS
 62
     4
 10
320.4864687323628
 20
-62.85827600958319
 30
0.0
 11
326.236467339104
 21
-52.89898764524843
 31
0.0
  0
LINE
  5
392
  8
0
  6
CONTINUOUS
 62
     4
 10
319.187430688716
 20
-62.10827594252797
 30
0.0
 11
324.9374292954572
 21
-52.1489875781932
 31
0.0
  0
LINE
  5
393
  8
0
  6
CONTINUOUS
 62
     4
 10
317.8884124668166
 20
-61.35828731956556
 30
0.0
 11
323.6384167956043
 21
-51.39898904435705
 31
0.0
  0
LINE
  5
394
  8
0
  6
CONTINUOUS
 62
     4
 10
316.5893744231697
 20
-60.60828725251035
 30
0.0
 11
322.3393673078646
 21
-50.64900879904933
 31
0.0
  0
LINE
  5
395
  8
0
  6
CONTINUOUS
 62
     4
 10
315.2903051136825
 20
-59.85829556310979
 30
0.0
 11
321.0403094424702
 21
-49.89899728790128
 31
0.0
  0
LINE
  5
396
  8
0
  6
CONTINUOUS
 62
     4
 10
237.3480224948703
 20
-14.85829153979639
 30
0.0
 11
243.0980153795651
 21
-4.899013086335373
 31
0.0
  0
LINE
  5
397
  8
0
  6
CONTINUOUS
 62
     4
 10
238.6470548164707
 20
-15.60830151772536
 30
0.0
 11
244.397053423212
 21
-5.649013153390598
 31
0.0
  0
LINE
  5
398
  8
0
  6
CONTINUOUS
 62
     4
 10
239.9460928601176
 20
-16.35830158478058
 30
0.0
 11
245.6960914668588
 21
-6.39901322044582
 31
0.0
  0
LINE
  5
399
  8
0
  6
CONTINUOUS
 62
     4
 10
241.245125181718
 20
-17.10831156270955
 30
0.0
 11
246.9951237884593
 21
-7.149023198374788
 31
0.0
  0
LINE
  5
39A
  8
0
  6
CONTINUOUS
 62
     4
 10
242.5441746694577
 20
-17.85829180801728
 30
0.0
 11
248.2941675541526
 21
-7.899013354556267
 31
0.0
  0
LINE
  5
39B
  8
0
  6
CONTINUOUS
 62
     4
 10
255.0980278965415
 20
15.88561543376205
 30
0.0
 11
260.8480265032828
 21
25.84490379809681
 31
0.0
  0
LINE
  5
39C
  8
0
  6
CONTINUOUS
 62
     4
 10
256.3970659401883
 20
15.13561536670683
 30
0.0
 11
262.1470645469296
 21
25.09490373104159
 31
0.0
  0
LINE
  5
39D
  8
0
  6
CONTINUOUS
 62
     4
 10
257.6961039838352
 20
14.3856152996516
 30
0.0
 11
263.4461025905765
 21
24.34490366398636
 31
0.0
  0
LINE
  5
39E
  8
0
  6
CONTINUOUS
 62
     4
 10
258.9951305833893
 20
13.63559541084889
 30
0.0
 11
264.7451349121769
 21
23.59489368605739
 31
0.0
  0
LINE
  5
39F
  8
0
  6
CONTINUOUS
 62
     4
 10
260.294180071129
 20
12.88561516554116
 30
0.0
 11
266.0441786778702
 21
22.84490352987592
 31
0.0
  0
CIRCLE
  5
3A0
  8
0
  6
CONTINUOUS
 62
     4
 10
183.0202309465113
 20
43.64331636864783
 30
0.0
 40
55.00000026822089
  0
CIRCLE
  5
3A1
  8
0
  6
CONTINUOUS
 62
     4
 10
183.0202309465113
 20
43.64331636864783
 30
0.0
 40
56.50000022351741
  0
CIRCLE
  5
3A2
  8
0
  6
CONTINUOUS
 62
     4
 10
183.0202309465113
 20
-34.35668130677109
 30
0.0
 40
4.0
  0
CIRCLE
  5
3A3
  8
0
  6
CONTINUOUS
 62
     4
 10
115.470245166689
 20
82.64332092840301
 30
0.0
 40
4.0
  0
CIRCLE
  5
3A4
  8
0
  6
CONTINUOUS
 62
     4
 10
250.570228170425
 20
82.64331520635729
 30
0.0
 40
4.0
  0
CIRCLE
  5
3A5
  8
0
  6
CONTINUOUS
 62
     4
 10
250.570228170425
 20
82.64331520635729
 30
0.0
 40
4.999999731779107
  0
CIRCLE
  5
3A6
  8
0
  6
CONTINUOUS
 62
     4
 10
115.470245166689
 20
82.64332092840301
 30
0.0
 40
4.999999731779107
  0
CIRCLE
  5
3A7
  8
0
  6
CONTINUOUS
 62
     4
 10
183.0202309465113
 20
-34.35668130677109
 30
0.0
 40
4.999999731779107
  0
ARC
  5
3A8
  8
0
  6
CONTINUOUS
 62
     4
 10
183.0202309465113
 20
43.64331636864783
 30
0.0
 40
74.99999776482589
 50
351.1002063086391
 51
385.2608706641181
  0
ARC
  5
3A9
  8
0
  6
CONTINUOUS
 62
     4
 10
183.0202309465113
 20
43.64331636864783
 30
0.0
 40
74.99999776482589
 50
111.1002122092642
 51
145.2608979090844
  0
ARC
  5
3AA
  8
0
  6
CONTINUOUS
 62
     4
 10
183.0202309465113
 20
43.64331636864783
 30
0.0
 40
74.99999776482589
 50
231.1001782098991
 51
265.2608570795301
  0
ARC
  5
3AB
  8
0
  6
CONTINUOUS
 62
     4
 10
183.0202309465113
 20
43.64331636864783
 30
0.0
 40
80.99999758601196
 50
349.4712292434795
 51
385.4398626015075
  0
ARC
  5
3AC
  8
0
  6
CONTINUOUS
 62
     4
 10
183.0202309465113
 20
43.64331636864783
 30
0.0
 40
86.99999740719802
 50
348.0800196010645
 51
431.9199863374558
  0
ARC
  5
3AD
  8
0
  6
CONTINUOUS
 62
     4
 10
183.0202309465113
 20
43.64331636864783
 30
0.0
 40
92.9999972283841
 50
346.8772787835123
 51
433.0478554751001
  0
ARC
  5
3AE
  8
0
  6
CONTINUOUS
 62
     4
 10
183.0202309465113
 20
43.64331636864783
 30
0.0
 40
98.99999704957017
 50
345.8266249344351
 51
434.167398612146
  0
ARC
  5
3AF
  8
0
  6
CONTINUOUS
 62
     4
 10
183.0202309465113
 20
43.64331636864783
 30
0.0
 40
104.9999968707563
 50
344.9006015471431
 51
353.3020736012832
  0
ARC
  5
3B0
  8
0
  6
CONTINUOUS
 62
     4
 10
183.0202309465113
 20
43.64331636864783
 30
0.0
 40
110.9999966919423
 50
344.0780486955876
 51
351.5654420826336
  0
ARC
  5
3B1
  8
0
  6
CONTINUOUS
 62
     4
 10
183.0202309465113
 20
43.64331636864783
 30
0.0
 40
116.9999965131284
 50
343.3423690200855
 51
347.1820290176735
  0
ARC
  5
3B2
  8
0
  6
CONTINUOUS
 62
     4
 10
183.0202309465113
 20
43.64331636864783
 30
0.0
 40
122.9999963343145
 50
342.6803905008225
 51
351.8275804741105
  0
ARC
  5
3B3
  8
0
  6
CONTINUOUS
 62
     4
 10
183.0202309465113
 20
43.64331636864783
 30
0.0
 40
80.99999758601196
 50
109.4712394129729
 51
145.4398898464738
  0
ARC
  5
3B4
  8
0
  6
CONTINUOUS
 62
     4
 10
183.0202309465113
 20
43.64331636864783
 30
0.0
 40
104.9999968707563
 50
104.9006134241838
 51
113.3020944429471
  0
ARC
  5
3B5
  8
0
  6
CONTINUOUS
 62
     4
 10
183.0202309465113
 20
43.64331636864783
 30
0.0
 40
110.9999966919423
 50
104.0780537424391
 51
111.565464204958
  0
ARC
  5
3B6
  8
0
  6
CONTINUOUS
 62
     4
 10
183.0202309465113
 20
43.64331636864783
 30
0.0
 40
116.9999965131284
 50
103.3423808971262
 51
107.0031368960105
  0
ARC
  5
3B7
  8
0
  6
CONTINUOUS
 62
     4
 10
183.0202309465113
 20
43.64331636864783
 30
0.0
 40
122.9999963343145
 50
102.6804057929577
 51
111.8276000351139
  0
ARC
  5
3B8
  8
0
  6
CONTINUOUS
 62
     4
 10
183.0202309465113
 20
43.64331636864783
 30
0.0
 40
80.99999758601196
 50
229.4711917532294
 51
265.4398558471087
  0
ARC
  5
3B9
  8
0
  6
CONTINUOUS
 62
     4
 10
183.0202309465113
 20
43.64331636864783
 30
0.0
 40
86.99999740719802
 50
228.0799915023245
 51
311.9199932434354
  0
ARC
  5
3BA
  8
0
  6
CONTINUOUS
 62
     4
 10
183.0202309465113
 20
43.64331636864783
 30
0.0
 40
74.99999776482589
 50
274.7391242511352
 51
308.8998167811445
  0
ARC
  5
3BB
  8
0
  6
CONTINUOUS
 62
     4
 10
183.0202309465113
 20
43.64331636864783
 30
0.0
 40
80.99999758601196
 50
274.5601254835567
 51
310.5287861623413
  0
ARC
  5
3BC
  8
0
  6
CONTINUOUS
 62
     4
 10
183.0202309465113
 20
43.64331636864783
 30
0.0
 40
92.9999972283841
 50
227.0020100663781
 51
313.1227417449504
  0
ARC
  5
3BD
  8
0
  6
CONTINUOUS
 62
     4
 10
183.0202309465113
 20
43.64331636864783
 30
0.0
 40
98.99999704957017
 50
225.8671194942671
 51
314.1733819336493
  0
ARC
  5
3BE
  8
0
  6
CONTINUOUS
 62
     4
 10
183.0202309465113
 20
43.64331636864783
 30
0.0
 40
104.9999968707563
 50
246.4005532715364
 51
293.3020894339908
  0
ARC
  5
3BF
  8
0
  6
CONTINUOUS
 62
     4
 10
183.0202309465113
 20
43.64331636864783
 30
0.0
 40
110.9999966919423
 50
248.2763212931078
 51
291.5654523658125
  0
ARC
  5
3C0
  8
0
  6
CONTINUOUS
 62
     4
 10
183.0202309465113
 20
43.64331636864783
 30
0.0
 40
116.9999965131284
 50
253.2290758753917
 51
286.8360927807123
  0
ARC
  5
3C1
  8
0
  6
CONTINUOUS
 62
     4
 10
183.0202309465113
 20
43.64331636864783
 30
0.0
 40
122.9999963343145
 50
248.1970842685465
 51
291.8275813657792
  0
ARC
  5
3C2
  8
0
  6
CONTINUOUS
 62
     4
 10
183.0202309465113
 20
43.64331636864783
 30
0.0
 40
104.9999968707563
 50
306.6979413776509
 51
315.0994053209413
  0
ARC
  5
3C3
  8
0
  6
CONTINUOUS
 62
     4
 10
183.0202309465113
 20
43.64331636864783
 30
0.0
 40
110.9999966919423
 50
308.43457161564
 51
315.9219684177805
  0
ARC
  5
3C4
  8
0
  6
CONTINUOUS
 62
     4
 10
183.0202309465113
 20
43.64331636864783
 30
0.0
 40
116.9999965131284
 50
312.5881872348431
 51
316.6576378479988
  0
ARC
  5
3C5
  8
0
  6
CONTINUOUS
 62
     4
 10
183.0202309465113
 20
43.64331636864783
 30
0.0
 40
122.9999963343145
 50
308.1724255402003
 51
317.3196266125456
  0
ARC
  5
3C6
  8
0
  6
CONTINUOUS
 62
     4
 10
183.0202309465113
 20
43.64331636864783
 30
0.0
 40
122.9999963343145
 50
68.17241863422075
 51
77.31961287637692
  0
ARC
  5
3C7
  8
0
  6
CONTINUOUS
 62
     4
 10
183.0202309465113
 20
43.64331636864783
 30
0.0
 40
116.9999965131284
 50
72.54037241976809
 51
76.65763777220846
  0
ARC
  5
3C8
  8
0
  6
CONTINUOUS
 62
     4
 10
183.0202309465113
 20
43.64331636864783
 30
0.0
 40
110.9999966919423
 50
68.43456129456584
 51
75.92196492689556
  0
ARC
  5
3C9
  8
0
  6
CONTINUOUS
 62
     4
 10
183.0202309465113
 20
43.64331636864783
 30
0.0
 40
104.9999968707563
 50
66.69794471695508
 51
75.09940524515092
  0
ARC
  5
3CA
  8
0
  6
CONTINUOUS
 62
     4
 10
183.0202309465113
 20
43.64331636864783
 30
0.0
 40
74.99999776482589
 50
34.7391275904394
 51
68.89980646007042
  0
ARC
  5
3CB
  8
0
  6
CONTINUOUS
 62
     4
 10
183.0202309465113
 20
43.64331636864783
 30
0.0
 40
80.99999758601196
 50
34.56013565305005
 51
70.52877925636179
  0
ARC
  5
3CC
  8
0
  6
CONTINUOUS
 62
     4
 10
183.0202309465113
 20
43.64331636864783
 30
0.0
 40
122.9999963343145
 50
8.172420379663222
 51
52.01817430368351
  0
ARC
  5
3CD
  8
0
  6
CONTINUOUS
 62
     4
 10
183.0202309465113
 20
43.64331636864783
 30
0.0
 40
116.9999965131284
 50
13.03759571508822
 51
46.89111670887554
  0
ARC
  5
3CE
  8
0
  6
CONTINUOUS
 62
     4
 10
183.0202309465113
 20
43.64331636864783
 30
0.0
 40
110.9999966919423
 50
8.434558771140081
 51
51.66815442947704
  0
ARC
  5
3CF
  8
0
  6
CONTINUOUS
 62
     4
 10
183.0202309465113
 20
43.64331636864783
 30
0.0
 40
104.9999968707563
 50
6.697925544943216
 51
53.54773711169992
  0
CIRCLE
  5
3D0
  8
0
  6
CONTINUOUS
 62
     4
 10
183.0202309465113
 20
93.64331681568265
 30
0.0
 40
2.500000044703482
  0
ARC
  5
3D1
  8
0
  6
CONTINUOUS
 62
     4
 10
183.0202309465113
 20
43.64331636864783
 30
0.0
 40
86.99999740719802
 50
108.0800323318788
 51
191.9199418654359
  0
ARC
  5
3D2
  8
0
  6
CONTINUOUS
 62
     4
 10
183.0202309465113
 20
43.64331636864783
 30
0.0
 40
104.9999968707563
 50
224.9005657644403
 51
233.3020536133928
  0
ARC
  5
3D3
  8
0
  6
CONTINUOUS
 62
     4
 10
183.0202309465113
 20
43.64331636864783
 30
0.0
 40
110.9999966919423
 50
224.078019743074
 51
231.5654233754037
  0
ARC
  5
3D4
  8
0
  6
CONTINUOUS
 62
     4
 10
183.0202309465113
 20
43.64331636864783
 30
0.0
 40
110.9999966919423
 50
128.1072193180559
 51
171.565459044421
  0
ARC
  5
3D5
  8
0
  6
CONTINUOUS
 62
     4
 10
183.0202309465113
 20
43.64331636864783
 30
0.0
 40
104.9999968707563
 50
126.4319514995702
 51
173.30208928241
  0
ARC
  5
3D6
  8
0
  6
CONTINUOUS
 62
     4
 10
183.0202309465113
 20
43.64331636864783
 30
0.0
 40
98.99999704957017
 50
105.8101009234951
 51
194.1733442160281
  0
ARC
  5
3D7
  8
0
  6
CONTINUOUS
 62
     4
 10
183.0202309465113
 20
43.64331636864783
 30
0.0
 40
92.9999972283841
 50
106.7016523460461
 51
193.1226971971401
  0
ARC
  5
3D8
  8
0
  6
CONTINUOUS
 62
     4
 10
183.0202309465113
 20
43.64331636864783
 30
0.0
 40
74.99999776482589
 50
154.7391514203112
 51
188.8997688182396
  0
CIRCLE
  5
3D9
  8
0
  6
CONTINUOUS
 62
     4
 10
139.7189455240063
 20
18.64329043086242
 30
0.0
 40
2.500000044703482
  0
CIRCLE
  5
3DA
  8
0
  6
CONTINUOUS
 62
     4
 10
226.3215163690163
 20
18.64329043086244
 30
0.0
 40
2.500000044703481
  0
LINE
  5
3DB
  8
0
  6
CONTINUOUS
 62
     4
 10
-192.9285268822978
 20
96.14331636864783
 30
0.0
 11
-178.9285268822978
 21
96.14331636864783
 31
0.0
  0
LINE
  5
3DC
  8
0
  6
CONTINUOUS
 62
     4
 10
-192.9285268822978
 20
91.14331636864783
 30
0.0
 11
-178.9285268822978
 21
91.14331636864783
 31
0.0
  0
LINE
  5
3DD
  8
0
  6
DIVIDE
 62
     9
 10
-307.4855794780011
 20
-73.8316786044456
 30
0.0
 11
-144.8478851977848
 21
-73.8316786044456
 31
0.0
  0
LINE
  5
3DE
  8
0
  6
DIVIDE
 62
     9
 10
-247.7909782907302
 20
-63.83167699512023
 30
0.0
 11
-247.7909782907302
 21
-83.83168021377095
 31
0.0
  0
LINE
  5
3DF
  8
0
  6
DIVIDE
 62
     9
 10
-174.7909728369054
 20
-57.83167717393417
 30
0.0
 11
-174.7909728369054
 21
-89.83168003495703
 31
0.0
  0
LINE
  5
3E0
  8
0
  6
DIVIDE
 62
     9
 10
-174.7909728369054
 20
-58.83167905148042
 30
0.0
 11
-154.7909696182547
 21
-58.83167905148042
 31
0.0
  0
LINE
  5
3E1
  8
0
  6
DIVIDE
 62
     9
 10
-174.7909728369054
 20
-88.83167815741078
 30
0.0
 11
-154.7909696182547
 21
-88.83167815741078
 31
0.0
  0
LINE
  5
3E2
  8
0
  6
DIVIDE
 62
     9
 10
-174.7909728369054
 20
-57.83167717393417
 30
0.0
 11
-152.7909773072536
 21
-57.83167717393417
 31
0.0
  0
LINE
  5
3E3
  8
0
  6
DIVIDE
 62
     9
 10
-174.7909728369054
 20
-89.83168003495703
 30
0.0
 11
-152.7909773072536
 21
-89.83168003495703
 31
0.0
  0
LINE
  5
3E4
  8
0
  6
DIVIDE
 62
     9
 10
-154.7909696182547
 20
-58.83167905148042
 30
0.0
 11
-154.7909696182547
 21
-88.83167815741078
 31
0.0
  0
LINE
  5
3E5
  8
0
  6
DIVIDE
 62
     9
 10
-270.7909928640654
 20
110.1433067573992
 30
0.0
 11
-270.7909928640654
 21
60.16249045214374
 31
0.0
  0
LINE
  5
3E6
  8
0
  6
DIVIDE
 62
     9
 10
-154.2909887066416
 20
110.1433067573992
 30
0.0
 11
-154.2909887066416
 21
60.40634115288424
 31
0.0
  0
LINE
  5
3E7
  8
0
  6
DIVIDE
 62
     9
 10
-270.7909719279014
 20
110.1433002572757
 30
0.0
 11
-269.7909708961142
 21
111.1433012890629
 31
0.0
  0
LINE
  5
3E8
  8
0
  6
DIVIDE
 62
     9
 10
-155.2909862776957
 20
111.1433134273547
 30
0.0
 11
-154.2909852459085
 21
110.1433123955675
 31
0.0
  0
LINE
  5
3E9
  8
0
  6
DIVIDE
 62
     9
 10
-163.390746583641
 20
111.1433029128997
 30
0.0
 11
-155.2909848621421
 21
111.1433029128997
 31
0.0
  0
LINE
  5
3EA
  8
0
  6
DIVIDE
 62
     9
 10
-269.0909959664871
 20
-83.83168021377095
 30
0.0
 11
-174.7909728369054
 21
-83.83168021377095
 31
0.0
  0
LINE
  5
3EB
  8
0
  6
DIVIDE
 62
     9
 10
-269.0909959664871
 20
-82.8316783362247
 30
0.0
 11
-247.7909782907302
 21
-82.8316783362247
 31
0.0
  0
LINE
  5
3EC
  8
0
  6
DIVIDE
 62
     9
 10
-269.0909959664871
 20
-63.83167699512023
 30
0.0
 11
-174.7909728369054
 21
-63.83167699512023
 31
0.0
  0
LINE
  5
3ED
  8
0
  6
DIVIDE
 62
     9
 10
-269.0909959664871
 20
-64.83167887266649
 30
0.0
 11
-247.7909782907302
 21
-64.83167887266649
 31
0.0
  0
LINE
  5
3EE
  8
0
  6
CONTINUOUS
 62
     6
 10
-127.6274490540316
 20
-208.1867453211063
 30
0.0
 11
99.53775032215812
 21
-208.1867453211063
 31
0.0
  0
LINE
  5
3EF
  8
0
  6
CONTINUOUS
 62
     6
 10
-127.6274490540316
 20
-196.3672144233558
 30
0.0
 11
99.53775032215812
 21
-196.3672144233558
 31
0.0
  0
LINE
  5
3F0
  8
0
  6
CONTINUOUS
 62
     6
 10
-127.6274490540316
 20
-184.5477109914248
 30
0.0
 11
99.53775032215812
 21
-184.5477109914248
 31
0.0
  0
LINE
  5
3F1
  8
0
  6
CONTINUOUS
 62
     6
 10
-124.9814812678974
 20
-172.728193826584
 30
0.0
 11
-86.29774905284249
 21
-172.728193826584
 31
0.0
  0
LINE
  5
3F2
  8
0
  6
CONTINUOUS
 62
     6
 10
-127.6274490540316
 20
-220.0062487530374
 30
0.0
 11
99.53775032215812
 21
-220.0062487530374
 31
0.0
  0
LINE
  5
3F3
  8
0
  6
CONTINUOUS
 62
     6
 10
-127.6274490540316
 20
-231.8257796507879
 30
0.0
 11
99.53775032215812
 21
-231.8257796507879
 31
0.0
  0
LINE
  5
3F4
  8
0
  6
CONTINUOUS
 62
     6
 10
-127.6274490540316
 20
-243.6453105485385
 30
0.0
 11
99.53775032215812
 21
-243.6453105485385
 31
0.0
  0
LINE
  5
3F5
  8
0
  6
CONTINUOUS
 62
     6
 10
-127.6274490540316
 20
-255.464841446289
 30
0.0
 11
99.53775032215812
 21
-255.464841446289
 31
0.0
  0
LINE
  5
3F6
  8
0
  6
CONTINUOUS
 62
     6
 10
-127.6274490540316
 20
-267.28434487822
 30
0.0
 11
99.53775032215812
 21
-267.28434487822
 31
0.0
  0
LINE
  5
3F7
  8
LAYER0014
  6
CONTINUOUS
 62
     7
 10
-176.9285345712968
 20
19.32633434722609
 30
0.0
 11
-166.7835191570891
 21
19.32633434722609
 31
0.0
  0
LINE
  5
3F8
  8
LAYER0014
  6
CONTINUOUS
 62
     7
 10
-152.7909773072536
 20
4.67146427387394
 30
0.0
 11
-132.3052667330212
 21
4.67146427387394
 31
0.0
  0
LINE
  5
3F9
  8
LAYER0014
  6
CONTINUOUS
 62
     7
 10
-269.0909959664871
 20
240.1399917259695
 30
0.0
 11
-310.3040965849997
 21
240.1399917259695
 31
0.0
  0
LINE
  5
3FA
  8
LAYER0014
  6
CONTINUOUS
 62
     7
 10
-153.7909734627542
 20
240.1399917259695
 30
0.0
 11
-165.4015764492507
 21
240.1399917259695
 31
0.0
  0
INSERT
  5
3FB
  8
LAYER0014
  6
CONTINUOUS
  2
DA_IMAGEDIMGROUP_1
 10
0.0
 20
0.0
 30
0.0
  0
INSERT
  5
3FC
  8
LAYER0014
  6
CONTINUOUS
  2
DA_IMAGEDIMGROUP_2
 10
0.0
 20
0.0
 30
0.0
  0
INSERT
  5
3FD
  8
LAYER0014
  6
CONTINUOUS
  2
DA_IMAGEDIMGROUP_3
 10
0.0
 20
0.0
 30
0.0
  0
INSERT
  5
3FE
  8
LAYER0014
  6
CONTINUOUS
  2
DA_IMAGEDIMGROUP_4
 10
0.0
 20
0.0
 30
0.0
  0
INSERT
  5
3FF
  8
LAYER0014
  6
CONTINUOUS
  2
DA_IMAGEDIMGROUP_5
 10
0.0
 20
0.0
 30
0.0
  0
INSERT
  5
400
  8
LAYER0014
  6
CONTINUOUS
  2
DA_IMAGEDIMGROUP_6
 10
0.0
 20
0.0
 30
0.0
  0
INSERT
  5
401
  8
LAYER0014
  6
CONTINUOUS
  2
DA_IMAGEDIMGROUP_7
 10
0.0
 20
0.0
 30
0.0
  0
INSERT
  5
402
  8
LAYER0014
  6
CONTINUOUS
  2
DA_IMAGEDIMGROUP_8
 10
0.0
 20
0.0
 30
0.0
  0
INSERT
  5
403
  8
LAYER0014
  6
CONTINUOUS
  2
DA_IMAGEDIMGROUP_9
 10
0.0
 20
0.0
 30
0.0
  0
INSERT
  5
404
  8
LAYER0014
  6
CONTINUOUS
  2
DA_IMAGEDIMGROUP_10
 10
0.0
 20
0.0
 30
0.0
  0
INSERT
  5
405
  8
LAYER0014
  6
CONTINUOUS
  2
DA_IMAGEDIMGROUP_11
 10
0.0
 20
0.0
 30
0.0
  0
INSERT
  5
406
  8
LAYER0014
  6
CONTINUOUS
  2
DA_IMAGEDIMGROUP_12
 10
0.0
 20
0.0
 30
0.0
  0
INSERT
  5
407
  8
LAYER0014
  6
CONTINUOUS
  2
DA_IMAGEDIMGROUP_13
 10
0.0
 20
0.0
 30
0.0
  0
INSERT
  5
408
  8
LAYER0014
  6
CONTINUOUS
  2
DA_IMAGEDIMGROUP_14
 10
0.0
 20
0.0
 30
0.0
  0
INSERT
  5
409
  8
LAYER0014
  6
CONTINUOUS
  2
DA_IMAGEDIMGROUP_15
 10
0.0
 20
0.0
 30
0.0
  0
INSERT
  5
40A
  8
LAYER0014
  6
CONTINUOUS
  2
DA_IMAGEDIMGROUP_16
 10
0.0
 20
0.0
 30
0.0
  0
INSERT
  5
40B
  8
LAYER0014
  6
CONTINUOUS
  2
DA_IMAGEDIMGROUP_17
 10
0.0
 20
0.0
 30
0.0
  0
INSERT
  5
40C
  8
LAYER0014
  6
CONTINUOUS
  2
DA_IMAGEDIMGROUP_18
 10
0.0
 20
0.0
 30
0.0
  0
INSERT
  5
40D
  8
LAYER0014
  6
CONTINUOUS
  2
DA_IMAGEDIMGROUP_19
 10
0.0
 20
0.0
 30
0.0
  0
INSERT
  5
40E
  8
LAYER0014
  6
CONTINUOUS
  2
DA_IMAGEDIMGROUP_20
 10
0.0
 20
0.0
 30
0.0
  0
INSERT
  5
40F
  8
LAYER0014
  6
CONTINUOUS
  2
DA_IMAGEDIMGROUP_21
 10
0.0
 20
0.0
 30
0.0
  0
INSERT
  5
410
  8
LAYER0014
  6
CONTINUOUS
  2
DA_IMAGEDIMGROUP_22
 10
0.0
 20
0.0
 30
0.0
  0
INSERT
  5
411
  8
LAYER0014
  6
CONTINUOUS
  2
DA_IMAGEDIMGROUP_23
 10
0.0
 20
0.0
 30
0.0
  0
INSERT
  5
412
  8
LAYER0014
  6
CONTINUOUS
  2
DC_GROUP_1
 10
0.0
 20
0.0
 30
0.0
  0
INSERT
  5
413
  8
LAYER0014
  6
CONTINUOUS
  2
DC_GROUP_2
 10
0.0
 20
0.0
 30
0.0
  0
INSERT
  5
414
  8
LAYER0014
  6
CONTINUOUS
  2
DC_GROUP_3
 10
0.0
 20
0.0
 30
0.0
  0
INSERT
  5
415
  8
LAYER0014
  6
CONTINUOUS
  2
DA_IMAGEDIMGROUP_24
 10
0.0
 20
0.0
 30
0.0
  0
INSERT
  5
416
  8
LAYER0014
  6
CONTINUOUS
  2
DA_IMAGEDIMGROUP_25
 10
0.0
 20
0.0
 30
0.0
  0
INSERT
  5
417
  8
LAYER0014
  6
CONTINUOUS
  2
DA_IMAGEDIMGROUP_26
 10
0.0
 20
0.0
 30
0.0
  0
INSERT
  5
418
  8
LAYER0014
  6
CONTINUOUS
  2
DC_GROUP_4
 10
0.0
 20
0.0
 30
0.0
  0
INSERT
  5
419
  8
LAYER0014
  6
CONTINUOUS
  2
DA_IMAGEDIMGROUP_27
 10
0.0
 20
0.0
 30
0.0
  0
INSERT
  5
41A
  8
LAYER0014
  6
CONTINUOUS
  2
DC_GROUP_5
 10
0.0
 20
0.0
 30
0.0
  0
INSERT
  5
41B
  8
LAYER0014
  6
CONTINUOUS
  2
DA_IMAGEDIMGROUP_31
 10
0.0
 20
0.0
 30
0.0
  0
INSERT
  5
41C
  8
LAYER0014
  6
CONTINUOUS
  2
DA_IMAGEDIMGROUP_32
 10
0.0
 20
0.0
 30
0.0
  0
INSERT
  5
41D
  8
LAYER0014
  6
CONTINUOUS
  2
DA_IMAGEDIMGROUP_33
 10
0.0
 20
0.0
 30
0.0
  0
LINE
  5
41E
  8
0
  6
CONTINUOUS
 62
     5
 10
212.1315849068062
 20
-106.3305637443018
 30
0.0
 11
206.1375817895429
 21
-106.3305637443018
 31
0.0
  0
LINE
  5
41F
  8
0
  6
CONTINUOUS
 62
     5
 10
211.1326321251448
 20
-107.3295578643003
 30
0.0
 11
212.1316175023097
 21
-106.3305722345109
 31
0.0
  0
LINE
  5
420
  8
0
  6
CONTINUOUS
 62
     5
 10
211.1325489253751
 20
-105.3315948280152
 30
0.0
 11
212.1315630462713
 21
-106.3306083594374
 31
0.0
  0
LINE
  5
421
  8
0
  6
CONTINUOUS
 62
     5
 10
206.1375084120087
 20
-106.3306465427279
 30
0.0
 11
207.1365063485104
 21
-107.3296438897652
 31
0.0
  0
LINE
  5
422
  8
0
  6
CONTINUOUS
 62
     5
 10
206.1376316516928
 20
-106.3305729923937
 30
0.0
 11
207.1366413054393
 21
-105.3315630860165
 31
0.0
  0
LINE
  5
423
  8
0
  6
CONTINUOUS
 62
     5
 10
213.1306083145329
 20
-96.34053566068016
 30
0.0
 11
213.1306083145329
 21
-116.3205346074661
 31
0.0
  0
LINE
  5
424
  8
0
  6
CONTINUOUS
 62
     5
 10
220.4926761865898
 20
-108.8290862881064
 30
0.0
 11
220.2871034779882
 21
-107.5311516002008
 31
0.0
  0
LINE
  5
425
  8
0
  6
CONTINUOUS
 62
     5
 10
220.4926310622808
 20
-108.8291080641702
 30
0.0
 11
221.7905317622734
 21
-108.6235404913452
 31
0.0
  0
LINE
  5
426
  8
0
  6
CONTINUOUS
 62
     5
 10
213.1306083145329
 20
-116.3205460515576
 30
0.0
 11
223.1206135099716
 21
-116.3205460515576
 31
0.0
  0
LINE
  5
427
  8
0
  6
CONTINUOUS
 62
     5
 10
223.1206135099716
 20
-96.34053566068016
 30
0.0
 11
223.1206135099716
 21
-116.3205346074661
 31
0.0
  0
LINE
  5
428
  8
0
  6
CONTINUOUS
 62
     5
 10
213.1306083145329
 20
-96.34053566068016
 30
0.0
 11
228.1155932195081
 21
-96.34053566068016
 31
0.0
  0
LINE
  5
429
  8
0
  6
CONTINUOUS
 62
     5
 10
228.1155932195081
 20
-96.34053566068016
 30
0.0
 11
228.1155932195081
 21
-99.33753721931177
 31
0.0
  0
LINE
  5
42A
  8
0
  6
CONTINUOUS
 62
     5
 10
226.6171038842837
 20
-99.33754866340323
 30
0.0
 11
228.1155703313252
 21
-99.33754866340323
 31
0.0
  0
LINE
  5
42B
  8
0
  6
CONTINUOUS
 62
     5
 10
226.6171038842837
 20
-99.33753721931177
 30
0.0
 11
226.6171038842837
 21
-101.3355382583995
 31
0.0
  0
LINE
  5
42C
  8
0
  6
CONTINUOUS
 62
     5
 10
225.1185916608765
 20
-101.3355268143081
 30
0.0
 11
226.6171038842837
 21
-101.3355268143081
 31
0.0
  0
LINE
  5
42D
  8
0
  6
CONTINUOUS
 62
     5
 10
225.1185916608765
 20
-101.335549702491
 30
0.0
 11
225.1185916608765
 21
-103.3335507415787
 31
0.0
  0
LINE
  5
42E
  8
0
  6
CONTINUOUS
 62
     5
 10
223.1206135099716
 20
-103.3335164093044
 30
0.0
 11
225.1185916608765
 21
-103.3335164093044
 31
0.0
  0
LINE
  5
42F
  8
0
  6
CONTINUOUS
 62
     5
 10
226.2511399658939
 20
-105.3315822754137
 30
0.0
 11
227.2501540867901
 21
-106.3305958068359
 31
0.0
  0
LINE
  5
430
  8
0
  6
CONTINUOUS
 62
     5
 10
227.2501452472536
 20
-102.3883145636943
 30
0.0
 11
227.2501452472536
 21
-106.3305408561189
 31
0.0
  0
LINE
  5
431
  8
0
  6
CONTINUOUS
 62
     5
 10
227.2501802201473
 20
-106.3305581846193
 30
0.0
 11
228.249177735603
 21
-105.331560416536
 31
0.0
  0
ARC
  5
432
  8
0
  6
CONTINUOUS
 62
     5
 10
218.0202337181271
 20
-106.356679161004
 30
0.0
 40
3.496502533659263
 50
315.0000977855039
 51
609.9999500386407
  0
TEXT
  5
433
  8
0
 62
     5
 10
142.873376073416
 20
-88.35267998748194
 30
0.0
 40
5.999999821186072
  1
NIKKO
 41
0.7674421177096609
  7
FDASTYLE1
 72
     5
 11
171.1590931946083
 21
-88.35267998748194
 31
0.0
  0
TEXT
  5
434
  8
0
 62
     5
 10
184.9689236870502
 20
-87.22768002100955
 30
0.0
 40
3.749999888241295
  1
  HF3-14
 41
0.7714287806920123
  7
FDASTYLE1
 72
     5
 11
213.8974954796357
 21
-87.22768002100955
 31
0.0
  0
TEXT
  5
435
  8
0
 62
     5
 10
184.9689237764571
 20
-96.55167914803994
 30
0.0
 40
3.749999888241295
  1
   0001
 41
0.7704919721900595
  7
FDASTYLE1
 72
     5
 11
210.1474938926621
 21
-96.55167914803994
 31
0.0
  0
TEXT
  5
436
  8
0
 62
     5
 10
117.2887222066675
 20
-100.8956846032953
 30
0.0
 40
3.749999888241295
  1
F MAX   36KN
 41
0.7991006951884336
  7
FDASTYLE1
 72
     5
 11
163.0616236888652
 21
-100.8956846032953
 31
0.0
  0
TEXT
  5
437
  8
0
 62
     5
 10
117.2887222066675
 20
-106.2236759301045
 30
0.0
 40
3.749999888241295
  1
ΣS MAX 147KN
 41
0.8042452795139595
  7
FDASTYLE1
 72
     5
 11
163.0616246723418
 21
-106.2236759301045
 31
0.0
  0
TEXT
  5
438
  8
0
 62
     5
 10
117.2887222066675
 20
-111.5516901450966
 30
0.0
 40
3.749999888241295
  1
N MAX 2600 AT ΣS MAX
 41
0.8037156657795982
  7
FDASTYLE1
 72
     5
 11
194.3211669212005
 21
-111.5516901450966
 31
0.0
  0
TEXT
  5
439
  8
0
 62
     5
 10
207.6792469996211
 20
-104.0365383915265
 30
0.0
 40
3.749999888241295
  1
F
 41
0.879121303558346
  7
FDASTYLE1
 72
     5
 11
210.9759517897155
 21
-104.0365383915265
 31
0.0
  0
TEXT
  5
43A
  8
0
 62
     5
 10
218.0879594043278
 20
-114.0519952463629
 30
0.0
 40
3.749999888241295
  1
N min
 41
0.7983872456307785
  7
FDASTYLE1
 72
     5
 11
236.6504583146804
 21
-114.0519952463629
 31
0.0
  0
TEXT
  5
43B
  8
0
 62
     5
 10
237.4942073507616
 20
-111.3837259300553
 30
0.0
 40
1.874999944120647
  1
-1
 41
0.7826088714239318
  7
FDASTYLE1
 72
     5
 11
240.8692075183997
 21
-111.3837259300553
 31
0.0
  0
TEXT
  5
43C
  8
0
 62
     5
 10
229.3352674723855
 20
-106.3041965575876
 30
0.0
 40
3.749999888241295
  1
ΣS
 41
0.9590411728078673
  7
FDASTYLE1
 72
     5
 11
237.2473569122518
 21
-106.3041965575876
 31
0.0
  0
INSERT
  5
43D
  8
0
  6
CONTINUOUS
  2
DA_IMAGEDIMGROUP_28
 10
0.0
 20
0.0
 30
0.0
  0
INSERT
  5
43E
  8
0
  6
CONTINUOUS
  2
DA_IMAGEDIMGROUP_29
 10
0.0
 20
0.0
 30
0.0
  0
INSERT
  5
43F
  8
0
  6
CONTINUOUS
  2
DA_IMAGEDIMGROUP_30
 10
0.0
 20
0.0
 30
0.0
  0
INSERT
  5
440
  8
0
  6
CONTINUOUS
  2
DA_IMAGEDIMGROUP_34
 10
0.0
 20
0.0
 30
0.0
  0
INSERT
  5
441
  8
0
  6
CONTINUOUS
  2
DC_GROUP_6
 10
0.0
 20
0.0
 30
0.0
  0
CIRCLE
  5
442
  8
0
  6
CONTINUOUS
 62
     3
 10
183.0202985043328
 20
43.64331636864783
 30
0.0
 40
45.25
  0
CIRCLE
  5
443
  8
0
  6
CONTINUOUS
 62
     3
 10
133.0202323770227
 20
43.64331636864783
 30
0.0
 40
3.1
  0
CIRCLE
  5
444
  8
0
  6
CONTINUOUS
 62
     3
 10
233.0202409600913
 20
43.64331636864783
 30
0.0
 40
3.1
  0
VIEWPORT
  5
48
 67
     1
  8
0
 10
0.0
 20
0.0
 30
0.0
 40
2493.0
 41
1710.0
 68
     1
 69
     1
1001
ACAD
1000
MVIEW
1002
{
1070
    16
1010
0.0
1020
0.0
1030
0.0
1020
0.0
1030
0.0
1010
0.0
1020
0.0
1030
1.0
1020
0.0
1030
1.0
1040
0.0
1040
1710.0
1040
0.0
1040
0.0
1040
50.0
1040
0.0
1040
0.0
1070
     0
1070
   100
1070
     0
1070
     1
1070
     0
1070
     0
1070
     0
1070
     0
1040
0.0
1040
0.0
1040
0.0
1040
0.5
1040
0.5
1040
0.0
1040
0.0
1070
     0
1002
{
1002
}
1002
}
  0
ENDSEC
  0
EOF
