  0
SECTION
  2
HEADER
  9
$ACADVER
  1
AC1009
  9
$DWGCODEPAGE
  3
ansi_932
  9
$INSBASE
 10
0.0
 20
0.0
 30
0.0
  9
$EXTMIN
 10
-474.4276062545233
 20
-570.0
 30
0.0
  9
$EXTMAX
 10
1187.572393745477
 20
570.0
 30
0.0
  9
$LIMMIN
 10
-660.5555555555555
 20
-467.2222222222222
  9
$LIMMAX
 10
660.5555555555555
 20
467.2222222222222
  9
$ORTHOMODE
 70
     0
  9
$REGENMODE
 70
     1
  9
$FILLMODE
 70
     1
  9
$QTEXTMODE
 70
     0
  9
$MIRRTEXT
 70
     1
  9
$DRAGMODE
 70
     2
  9
$LTSCALE
 40
1.111111111111111
  9
$OSMODE
 70
    37
  9
$ATTMODE
 70
     1
  9
$TEXTSIZE
 40
0.2
  9
$TRACEWID
 40
0.05
  9
$TEXTSTYLE
  7
STANDARD
  9
$CLAYER
  8
0
  9
$CELTYPE
  6
BYLAYER
  9
$CECOLOR
 62
   256
  9
$DIMSCALE
 40
1.0
  9
$DIMASZ
 40
2.777777777777778
  9
$DIMEXO
 40
0.0625
  9
$DIMDLI
 40
0.38
  9
$DIMRND
 40
0.0
  9
$DIMDLE
 40
0.0
  9
$DIMEXE
 40
0.18
  9
$DIMTP
 40
0.0
  9
$DIMTM
 40
0.0
  9
$DIMTXT
 40
0.18
  9
$DIMCEN
 40
0.09
  9
$DIMTSZ
 40
0.0
  9
$DIMTOL
 70
     0
  9
$DIMLIM
 70
     0
  9
$DIMTIH
 70
     1
  9
$DIMTOH
 70
     1
  9
$DIMSE1
 70
     0
  9
$DIMSE2
 70
     0
  9
$DIMTAD
 70
     3
  9
$DIMZIN
 70
     0
  9
$DIMBLK
  1

  9
$DIMASO
 70
     1
  9
$DIMSHO
 70
     1
  9
$DIMPOST
  1

  9
$DIMAPOST
  1

  9
$DIMALT
 70
     0
  9
$DIMALTD
 70
     2
  9
$DIMALTF
 40
25.4
  9
$DIMLFAC
 40
1.0
  9
$DIMTOFL
 70
     0
  9
$DIMTVP
 40
0.0
  9
$DIMTIX
 70
     0
  9
$DIMSOXD
 70
     0
  9
$DIMSAH
 70
     0
  9
$DIMBLK1
  1

  9
$DIMBLK2
  1

  9
$DIMSTYLE
  2
STANDARD
  9
$DIMCLRD
 70
     0
  9
$DIMCLRE
 70
     0
  9
$DIMCLRT
 70
     0
  9
$DIMTFAC
 40
1.0
  9
$DIMGAP
 40
0.09
  9
$LUNITS
 70
     2
  9
$LUPREC
 70
     4
  9
$SKETCHINC
 40
0.1
  9
$FILLETRAD
 40
0.5
  9
$AUNITS
 70
     0
  9
$AUPREC
 70
     0
  9
$MENU
  1
.
  9
$ELEVATION
 40
0.0
  9
$PELEVATION
 40
0.0
  9
$THICKNESS
 40
0.0
  9
$LIMCHECK
 70
     0
  9
$CHAMFERA
 40
0.5
  9
$CHAMFERB
 40
0.5
  9
$SKPOLY
 70
     0
  9
$TDCREATE
 40
2455483.577648229
  9
$TDUPDATE
 40
2455483.577648241
  9
$TDINDWG
 40
0.0000000116
  9
$TDUSRTIMER
 40
0.0000000116
  9
$USRTIMER
 70
     1
  9
$ANGBASE
 50
0.0
  9
$ANGDIR
 70
     0
  9
$PDMODE
 70
     0
  9
$PDSIZE
 40
1.0
  9
$PLINEWID
 40
0.0
  9
$COORDS
 70
     1
  9
$SPLFRAME
 70
     0
  9
$SPLINETYPE
 70
     6
  9
$SPLINESEGS
 70
     8
  9
$ATTDIA
 70
     0
  9
$ATTREQ
 70
     1
  9
$HANDLING
 70
     1
  9
$HANDSEED
  5
64F
  9
$SURFTAB1
 70
     6
  9
$SURFTAB2
 70
     6
  9
$SURFTYPE
 70
     6
  9
$SURFU
 70
     6
  9
$SURFV
 70
     6
  9
$UCSNAME
  2

  9
$UCSORG
 10
0.0
 20
0.0
 30
0.0
  9
$UCSXDIR
 10
1.0
 20
0.0
 30
0.0
  9
$UCSYDIR
 10
0.0
 20
1.0
 30
0.0
  9
$PUCSNAME
  2

  9
$PUCSORG
 10
0.0
 20
0.0
 30
0.0
  9
$PUCSXDIR
 10
1.0
 20
0.0
 30
0.0
  9
$PUCSYDIR
 10
0.0
 20
1.0
 30
0.0
  9
$USERI1
 70
     0
  9
$USERI2
 70
     0
  9
$USERI3
 70
     0
  9
$USERI4
 70
     0
  9
$USERI5
 70
     0
  9
$USERR1
 40
0.0
  9
$USERR2
 40
0.0
  9
$USERR3
 40
0.0
  9
$USERR4
 40
0.0
  9
$USERR5
 40
0.0
  9
$WORLDVIEW
 70
     1
  9
$SHADEDGE
 70
     3
  9
$SHADEDIF
 70
    70
  9
$TILEMODE
 70
     1
  9
$MAXACTVP
 70
    64
  9
$PLIMCHECK
 70
     0
  9
$PEXTMIN
 10
1.000000000000000E+20
 20
1.000000000000000E+20
 30
1.000000000000000E+20
  9
$PEXTMAX
 10
-1.000000000000000E+20
 20
-1.000000000000000E+20
 30
-1.000000000000000E+20
  9
$PLIMMIN
 10
0.0
 20
0.0
  9
$PLIMMAX
 10
12.0
 20
9.0
  9
$UNITMODE
 70
     0
  9
$VISRETAIN
 70
     0
  9
$PLINEGEN
 70
     1
  9
$PSLTSCALE
 70
     0
  0
ENDSEC
  0
SECTION
  2
TABLES
  0
TABLE
  2
VPORT
 70
     1
  0
VPORT
  2
*ACTIVE
 70
     0
 10
0.0
 20
0.0
 11
1.0
 21
1.0
 12
0.0
 22
0.0
 13
0.0
 23
0.0
 14
0.5
 24
0.5
 15
0.5
 25
0.5
 16
0.0
 26
0.0
 36
1.0
 17
356.5723937454767
 27
0.0
 37
0.0
 40
387.6
 41
1.457894736842105
 42
50.0
 43
0.0
 44
0.0
 50
0.0
 51
0.0
 71
     0
 72
  1000
 73
     1
 74
     1
 75
     0
 76
     0
 77
     0
 78
     0
  0
ENDTAB
  0
TABLE
  2
LTYPE
 70
    28
  0
LTYPE
  2
CONTINUOUS
 70
     0
  3
Solid line
 72
    65
 73
     0
 40
0.0
  0
LTYPE
  2
HIDDENX2
 70
     0
  3
CADPAC LINETYPE
 72
    65
 73
     2
 40
18.58563535911603
 49
13.93922651933703
 49
-4.646408839779008
  0
LTYPE
  2
HIDDEN
 70
     0
  3
CADPAC LINETYPE
 72
    65
 73
     2
 40
13.93922651933703
 49
9.292817679558016
 49
-4.646408839779008
  0
LTYPE
  2
HIDDEN2
 70
     0
  3
CADPAC LINETYPE
 72
    65
 73
     2
 40
11.61602209944752
 49
6.969613259668512
 49
-4.646408839779008
  0
LTYPE
  2
DASHED
 70
     0
  3
CADPAC LINETYPE
 72
    65
 73
     2
 40
13.00994475138128
 49
9.292817679558016
 49
-3.717127071823268
  0
LTYPE
  2
DASHED2
 70
     0
  3
CADPAC LINETYPE
 72
    65
 73
     2
 40
8.363535911602174
 49
5.575690607734851
 49
-2.787845303867323
  0
LTYPE
  2
DASHEDX2
 70
     0
  3
CADPAC LINETYPE
 72
    65
 73
     2
 40
22.3027624309393
 49
18.58563535911603
 49
-3.717127071823268
  0
LTYPE
  2
DOTX2
 70
     0
  3
CADPAC LINETYPE
 72
    65
 73
     2
 40
8.131215469613366
 49
0.0
 49
-8.131215469613366
  0
LTYPE
  2
DOT
 70
     0
  3
CADPAC LINETYPE
 72
    65
 73
     2
 40
6.504972375690693
 49
0.0
 49
-6.504972375690693
  0
LTYPE
  2
DOT2
 70
     0
  3
CADPAC LINETYPE
 72
    65
 73
     2
 40
4.87872928176802
 49
0.0
 49
-4.87872928176802
  0
LTYPE
  2
CENTERX2
 70
     0
  3
CADPAC LINETYPE
 72
    65
 73
     4
 40
27.87845303867405
 49
11.61602209944752
 49
-5.80801104972376
 49
4.646408839779008
 49
-5.80801104972376
  0
LTYPE
  2
CENTER
 70
     0
  3
CADPAC LINETYPE
 72
    65
 73
     4
 40
21.37348066298344
 49
9.292817679558016
 49
-4.646408839779008
 49
2.787845303867405
 49
-4.646408839779008
  0
LTYPE
  2
CENTER2
 70
     0
  3
CADPAC LINETYPE
 72
    65
 73
     4
 40
14.86850828729283
 49
6.969613259668512
 49
-3.484806629834256
 49
0.9292817679558016
 49
-3.484806629834256
  0
LTYPE
  2
DASHDOTX2
 70
     0
  3
CADPAC LINETYPE
 72
    65
 73
     4
 40
44.6055248618785
 49
22.3027624309392
 49
-7.434254143646434
 49
7.434254143646434
 49
-7.434254143646434
  0
LTYPE
  2
DASHDOT
 70
     0
  3
CADPAC LINETYPE
 72
    65
 73
     4
 40
22.3027624309394
 49
11.1513812154696
 49
-3.717127071823268
 49
3.717127071823268
 49
-3.717127071823268
  0
LTYPE
  2
DASHDOT2
 70
     0
  3
CADPAC LINETYPE
 72
    65
 73
     4
 40
14.31093922651943
 49
8.363535911602199
 49
-2.787845303867451
 49
0.3717127071823268
 49
-2.787845303867451
  0
LTYPE
  2
DIVIDEX2
 70
     0
  3
CADPAC LINETYPE
 72
    65
 73
     6
 40
59.47403314917137
 49
22.3027624309392
 49
-7.434254143646434
 49
7.434254143646434
 49
-7.434254143646434
 49
7.434254143646434
 49
-7.434254143646434
  0
LTYPE
  2
DIVIDE
 70
     0
  3
CADPAC LINETYPE
 72
    65
 73
     6
 40
29.73701657458594
 49
11.1513812154696
 49
-3.717127071823268
 49
3.717127071823268
 49
-3.717127071823268
 49
3.717127071823268
 49
-3.717127071823268
  0
LTYPE
  2
DIVIDE2
 70
     0
  3
CADPAC LINETYPE
 72
    65
 73
     6
 40
22.30276243093946
 49
8.363535911602199
 49
-2.787845303867451
 49
2.787845303867451
 49
-2.787845303867451
 49
2.787845303867451
 49
-2.787845303867451
  0
LTYPE
  2
BORDERX2
 70
     0
  3
CADPAC LINETYPE
 72
    65
 73
     6
 40
40.65607734806632
 49
11.61602209944752
 49
-5.80801104972376
 49
11.61602209944752
 49
-5.80801104972376
 49
0.0
 49
-5.80801104972376
  0
LTYPE
  2
BORDER
 70
     0
  3
CADPAC LINETYPE
 72
    65
 73
     6
 40
32.52486187845306
 49
9.292817679558016
 49
-4.646408839779008
 49
9.292817679558016
 49
-4.646408839779008
 49
0.0
 49
-4.646408839779008
  0
LTYPE
  2
BORDER2
 70
     0
  3
CADPAC LINETYPE
 72
    65
 73
     6
 40
24.16132596685078
 49
7.434254143646434
 49
-4.646408839779008
 49
2.787845303867323
 49
-4.646408839779008
 49
0.0
 49
-4.646408839779008
  0
LTYPE
  2
PHANTOMX2
 70
     0
  3
CADPAC LINETYPE
 72
    65
 73
     6
 40
34.84806629834256
 49
11.61602209944752
 49
-4.646408839779008
 49
4.646408839779008
 49
-4.646408839779008
 49
4.646408839779008
 49
-4.646408839779008
  0
LTYPE
  2
PHANTOM
 70
     0
  3
CADPAC LINETYPE
 72
    65
 73
     6
 40
28.80773480662985
 49
9.292817679558016
 49
-4.646408839779008
 49
2.787845303867405
 49
-4.646408839779008
 49
2.787845303867405
 49
-4.646408839779008
  0
LTYPE
  2
PHANTOM2
 70
     0
  3
CADPAC LINETYPE
 72
    65
 73
     6
 40
24.62596685082875
 49
6.969613259668512
 49
-4.646408839779008
 49
1.858563535911603
 49
-4.646408839779008
 49
1.858563535911603
 49
-4.646408839779008
  0
LTYPE
  2
ACAD_ISO06W100
 70
     0
  3
CADPAC LINETYPE
 72
    65
 73
     8
 40
49.25193370165719
 49
22.3027624309392
 49
-4.646408839779008
 49
2.787845303867323
 49
-4.646408839779008
 49
2.787845303867323
 49
-4.646408839779008
 49
2.787845303867323
 49
-4.646408839779008
  0
LTYPE
  2
ACAD_ISO13W100
 70
     0
  3
CADPAC LINETYPE
 72
    65
 73
     8
 40
37.17127071823207
 49
9.292817679558016
 49
-4.646408839779008
 49
9.292817679558016
 49
-4.646408839779008
 49
0.0
 49
-4.646408839779008
 49
0.0
 49
-4.646408839779008
  0
LTYPE
  2
ACAD_ISO14W100
 70
     0
  3
CADPAC LINETYPE
 72
    65
 73
     8
 40
27.87845303867405
 49
9.292817679558016
 49
-4.646408839779008
 49
0.0
 49
-4.646408839779008
 49
0.0
 49
-4.646408839779008
 49
0.0
 49
-4.646408839779008
  0
ENDTAB
  0
TABLE
  2
LAYER
 70
     3
  0
LAYER
  2
0
 70
     0
 62
     7
  6
CONTINUOUS
  0
LAYER
  2
LAYER0001
 70
     0
 62
     7
  6
CONTINUOUS
  0
LAYER
  2
LAYER0002
 70
     0
 62
     7
  6
CONTINUOUS
  0
ENDTAB
  0
TABLE
  2
STYLE
 70
     5
  0
STYLE
  2
STANDARD
 70
     0
 40
0.0
 41
1.0
 50
0.0
 71
     0
 42
0.2
  3
txt
  4

  0
STYLE
  2
FDASTYLE1
 70
     0
 40
0.0
 41
0.647619047619046
 50
0.0
 71
     0
 42
0.2
  3
txt.shx
  4
bigfont
  0
STYLE
  2
FDASTYLE0
 70
     4
 40
0.0
 41
0.8
 50
0.0
 71
     0
 42
0.2
  3
txt.shx
  4
bigfont
  0
STYLE
  2
FDASTYLE2
 70
     0
 40
0.0
 41
0.8123476848090979
 50
0.0
 71
     0
 42
0.2
  3
MSMINCHO.TTC
  4

  0
STYLE
  2
FDASTYLE3
 70
     0
 40
0.0
 41
0.6684336356141793
 50
0.0
 71
     0
 42
0.2
  3
MSGOTHIC.TTC
  4

  0
ENDTAB
  0
TABLE
  2
VIEW
 70
     0
  0
ENDTAB
  0
TABLE
  2
UCS
 70
     0
  0
ENDTAB
  0
TABLE
  2
APPID
 70
     2
  0
APPID
  2
ACAD
 70
     0
  0
APPID
  2
DAFUSIONOUT
 70
     0
  0
ENDTAB
  0
TABLE
  2
DIMSTYLE
 70
     1
  0
DIMSTYLE
  2
STANDARD
 70
     0
  3

  4

  5

  6

  7

 40
1.0
 41
0.18
 42
0.0625
 43
0.38
 44
0.18
 45
0.0
 46
0.0
 47
0.0
 48
0.0
140
0.18
141
0.09
142
0.0
143
25.4
144
1.0
145
0.0
146
1.0
147
0.09
 71
     0
 72
     0
 73
     1
 74
     1
 75
     0
 76
     0
 77
     0
 78
     0
170
     0
171
     2
172
     0
173
     0
174
     0
175
     0
176
     0
177
     0
178
     0
  0
ENDTAB
  0
ENDSEC
  0
SECTION
  2
BLOCKS
  0
BLOCK
  8
0
  2
$MODEL_SPACE
 70
     0
 10
0.0
 20
0.0
 30
0.0
  3
$MODEL_SPACE
  1

  0
ENDBLK
  5
21
  8
0
  0
BLOCK
 67
     1
  8
0
  2
$PAPER_SPACE
 70
     0
 10
0.0
 20
0.0
 30
0.0
  3
$PAPER_SPACE
  1

  0
ENDBLK
  5
1D
 67
     1
  8
0
  0
BLOCK
  8
0
  2
DC_GROUP_1
 70
     0
 10
0.0
 20
0.0
 30
0.0
  3
DC_GROUP_1
  1

  0
LINE
  5
1AB
  8
LAYER0001
  6
CONTINUOUS
 62
     7
 10
399.0799893586125
 20
-43.91688416163779
 30
0.0
 11
367.4088085934565
 21
-62.20224923014391
 31
0.0
  0
LINE
  5
1AC
  8
LAYER0001
  6
CONTINUOUS
 62
     7
 10
381.5800069746596
 20
-13.60597925944953
 30
0.0
 11
349.9088352289151
 21
-31.89134130038062
 31
0.0
  0
LINE
  5
1AD
  8
LAYER0001
  6
CONTINUOUS
 62
     7
 10
369.3885646752443
 20
-61.05925667099544
 30
0.0
 11
351.8885676256741
 21
-30.74837138619162
 31
0.0
  0
INSERT
  5
1AE
  8
LAYER0001
  6
CONTINUOUS
  2
DC_GROUP_2
 10
0.0
 20
0.0
 30
0.0
  0
INSERT
  5
1AF
  8
LAYER0001
  6
CONTINUOUS
  2
DC_GROUP_3
 10
0.0
 20
0.0
 30
0.0
  0
TEXT
  5
1B1
  8
LAYER0001
 62
     7
 10
360.6527676774358
 20
-42.72842419253367
 30
0.0
 40
4.0
  1
35
 50
-59.99999999999999
 41
0.647619047619046
  7
FDASTYLE1
 72
     5
 11
363.2432438679119
 21
-47.21526057023589
 31
0.0
  0
ENDBLK
  5
4E
  8
0
  0
BLOCK
  8
0
  2
DC_GROUP_2
 70
     0
 10
0.0
 20
0.0
 30
0.0
  3
DC_GROUP_2
  1

  0
LINE
  5
1B2
  8
LAYER0001
  6
CONTINUOUS
 62
     7
 10
368.8526681186021
 20
-59.05925746534368
 30
0.0
 11
369.3885646752443
 21
-61.05925667099544
 31
0.0
  0
LINE
  5
1B3
  8
LAYER0001
  6
CONTINUOUS
 62
     7
 10
369.3885646752443
 20
-61.05925667099544
 30
0.0
 11
367.9244628867405
 21
-59.59515698349855
 31
0.0
  0
LINE
  5
1B4
  8
LAYER0001
  6
CONTINUOUS
 62
     7
 10
369.3885646752443
 20
-61.05925667099544
 30
0.0
 11
368.3885655026713
 21
-59.32720722442112
 31
0.0
  0
ENDBLK
  5
51
  8
0
  0
BLOCK
  8
0
  2
DC_GROUP_3
 70
     0
 10
0.0
 20
0.0
 30
0.0
  3
DC_GROUP_3
  1

  0
LINE
  5
1B5
  8
LAYER0001
  6
CONTINUOUS
 62
     7
 10
352.4244641823163
 20
-32.74837059184338
 30
0.0
 11
351.8885676256741
 21
-30.74837138619162
 31
0.0
  0
LINE
  5
1B6
  8
LAYER0001
  6
CONTINUOUS
 62
     7
 10
351.8885676256741
 20
-30.74837138619162
 30
0.0
 11
353.352669414178
 21
-32.21247107368851
 31
0.0
  0
LINE
  5
1B7
  8
LAYER0001
  6
CONTINUOUS
 62
     7
 10
351.8885676256741
 20
-30.74837138619162
 30
0.0
 11
352.8885667982472
 21
-32.48042083276594
 31
0.0
  0
ENDBLK
  5
54
  8
0
  0
BLOCK
  8
0
  2
DC_GROUP_4
 70
     0
 10
0.0
 20
0.0
 30
0.0
  3
DC_GROUP_4
  1

  0
LINE
  5
1B8
  8
LAYER0001
  6
CONTINUOUS
 62
     7
 10
386.8299985307818
 20
-22.69924763179067
 30
0.0
 11
367.5495188886714
 21
-33.83083727956606
 31
0.0
  0
LINE
  5
1B9
  8
LAYER0001
  6
CONTINUOUS
 62
     7
 10
393.8299895989513
 20
-34.82360357823443
 30
0.0
 11
374.5495083050287
 21
-45.95519417968407
 31
0.0
  0
LINE
  5
1BA
  8
LAYER0001
  6
CONTINUOUS
 62
     7
 10
369.5292779718732
 20
-32.68784445352463
 30
0.0
 11
376.5292786275239
 21
-44.81220402698597
 31
0.0
  0
INSERT
  5
1BB
  8
LAYER0001
  6
CONTINUOUS
  2
DC_GROUP_5
 10
0.0
 20
0.0
 30
0.0
  0
INSERT
  5
1BC
  8
LAYER0001
  6
CONTINUOUS
  2
DC_GROUP_6
 10
0.0
 20
0.0
 30
0.0
  0
TEXT
  5
1BD
  8
LAYER0001
 62
     7
 10
371.4434842301701
 20
-32.8033648242516
 30
0.0
 40
4.0
  1
14H8
 50
-59.99999999999999
 41
0.6952380952380968
  7
FDASTYLE1
 72
     5
 11
377.0053889920749
 21
-42.43686645872995
 31
0.0
  0
ENDBLK
  5
57
  8
0
  0
BLOCK
  8
0
  2
DC_GROUP_5
 70
     0
 10
0.0
 20
0.0
 30
0.0
  3
DC_GROUP_5
  1

  0
LINE
  5
1BE
  8
LAYER0001
  6
CONTINUOUS
 62
     7
 10
370.0651743656725
 20
-34.68784370280987
 30
0.0
 11
369.5292779718732
 21
-32.68784445352463
 31
0.0
  0
LINE
  5
1BF
  8
LAYER0001
  6
CONTINUOUS
 62
     7
 10
369.5292779718732
 20
-32.68784445352463
 30
0.0
 11
370.9933796411679
 21
-34.15194426023083
 31
0.0
  0
LINE
  5
1C0
  8
LAYER0001
  6
CONTINUOUS
 62
     7
 10
369.5292779718732
 20
-32.68784445352463
 30
0.0
 11
370.5292770034202
 21
-34.41989398152035
 31
0.0
  0
ENDBLK
  5
5A
  8
0
  0
BLOCK
  8
0
  2
DC_GROUP_6
 70
     0
 10
0.0
 20
0.0
 30
0.0
  3
DC_GROUP_6
  1

  0
LINE
  5
1C1
  8
LAYER0001
  6
CONTINUOUS
 62
     7
 10
375.9933822337246
 20
-42.81220477770074
 30
0.0
 11
376.5292786275239
 21
-44.81220402698597
 31
0.0
  0
LINE
  5
1C2
  8
LAYER0001
  6
CONTINUOUS
 62
     7
 10
376.5292786275239
 20
-44.81220402698597
 30
0.0
 11
375.0651769582292
 21
-43.34810422027978
 31
0.0
  0
LINE
  5
1C3
  8
LAYER0001
  6
CONTINUOUS
 62
     7
 10
376.5292786275239
 20
-44.81220402698597
 30
0.0
 11
375.5292795959769
 21
-43.08015449899026
 31
0.0
  0
ENDBLK
  5
5D
  8
0
  0
BLOCK
  8
0
  2
DC_GROUP_7
 70
     0
 10
0.0
 20
0.0
 30
0.0
  3
DC_GROUP_7
  1

  0
LINE
  5
1C4
  8
LAYER0001
  6
CONTINUOUS
 62
     7
 10
425.472254086479
 20
85.45756518562455
 30
0.0
 11
394.2123076670745
 21
116.7174246496093
 31
0.0
  0
LINE
  5
1C5
  8
LAYER0001
  6
CONTINUOUS
 62
     7
 10
403.6757914460933
 20
47.70497143976773
 30
0.0
 11
360.9739510008488
 21
59.14685284889495
 31
0.0
  0
ARC
  5
1C6
  8
LAYER0001
  6
CONTINUOUS
 62
     7
 10
485.0212615433283
 20
25.90853309631351
 30
0.0
 40
126.1372146606445
 50
135.0000276623794
 51
165.0000216670162
  0
INSERT
  5
1C7
  8
LAYER0001
  6
CONTINUOUS
  2
DC_GROUP_8
 10
0.0
 20
0.0
 30
0.0
  0
INSERT
  5
1C8
  8
LAYER0001
  6
CONTINUOUS
  2
DC_GROUP_9
 10
0.0
 20
0.0
 30
0.0
  0
TEXT
  5
1C9
  8
LAYER0001
 62
     7
 10
372.226139705638
 20
86.01607151034581
 30
0.0
 40
4.0
  1
30ﾟ
 50
59.99999999999999
 41
0.4500000000000042
  7
FDASTYLE1
 72
     5
 11
374.926139705638
 21
90.69260869078181
 31
0.0
  0
ENDBLK
  5
60
  8
0
  0
BLOCK
  8
0
  2
DC_GROUP_8
 70
     0
 10
0.0
 20
0.0
 30
0.0
  3
DC_GROUP_8
  1

  0
LINE
  5
1CA
  8
LAYER0001
  6
CONTINUOUS
 62
     7
 10
394.0438522940083
 20
114.0515115953471
 30
0.0
 11
395.8287386347203
 21
115.1009698807346
 31
0.0
  0
LINE
  5
1CB
  8
LAYER0001
  6
CONTINUOUS
 62
     7
 10
395.8287386347203
 20
115.1009698807346
 30
0.0
 11
394.8077135133677
 21
113.2996676729983
 31
0.0
  0
LINE
  5
1CC
  8
LAYER0001
  6
CONTINUOUS
 62
     7
 10
395.8287386347203
 20
115.1009698807346
 30
0.0
 11
394.425782903688
 21
113.6755896341727
 31
0.0
  0
ENDBLK
  5
63
  8
0
  0
BLOCK
  8
0
  2
DC_GROUP_9
 70
     0
 10
0.0
 20
0.0
 30
0.0
  3
DC_GROUP_9
  1

  0
LINE
  5
1CD
  8
LAYER0001
  6
CONTINUOUS
 62
     7
 10
364.2315152751468
 20
60.34008617227263
 30
0.0
 11
363.1820559007459
 21
58.55520047186745
 31
0.0
  0
LINE
  5
1CE
  8
LAYER0001
  6
CONTINUOUS
 62
     7
 10
363.1820559007459
 20
58.55520047186745
 30
0.0
 11
363.1984684831412
 21
60.62568654261697
 31
0.0
  0
LINE
  5
1CF
  8
LAYER0001
  6
CONTINUOUS
 62
     7
 10
363.1820559007459
 20
58.55520047186745
 30
0.0
 11
363.714991879144
 21
60.4828863574448
 31
0.0
  0
ENDBLK
  5
66
  8
0
  0
BLOCK
  8
0
  2
DC_GROUP_10
 70
     0
 10
0.0
 20
0.0
 30
0.0
  3
DC_GROUP_10
  1

  0
LINE
  5
1D0
  8
LAYER0001
  6
CONTINUOUS
 62
     7
 10
403.6758011295302
 20
47.70498608807227
 30
0.0
 11
360.9739524755667
 21
59.14686240312963
 31
0.0
  0
LINE
  5
1D1
  8
LAYER0001
  6
CONTINUOUS
 62
     7
 10
362.4812530680297
 20
25.9085870302022
 30
0.0
 11
356.5980610435835
 21
25.9086636311688
 31
0.0
  0
ARC
  5
1D2
  8
LAYER0001
  6
CONTINUOUS
 62
     7
 10
485.021200508172
 20
25.90855407714847
 30
0.0
 40
126.1371383666992
 50
165.0000216670162
 51
179.9999640278213
  0
INSERT
  5
1D3
  8
LAYER0001
  6
CONTINUOUS
  2
DC_GROUP_11
 10
0.0
 20
0.0
 30
0.0
  0
INSERT
  5
1D4
  8
LAYER0001
  6
CONTINUOUS
  2
DC_GROUP_12
 10
0.0
 20
0.0
 30
0.0
  0
TEXT
  5
1D5
  8
LAYER0001
 62
     7
 10
357.8028634225743
 20
38.27967445245901
 30
0.0
 40
4.0
  1
15ﾟ
 50
82.40000000000003
 41
0.4499999999999979
  7
FDASTYLE1
 72
     5
 11
358.5170479299627
 21
43.63223836981732
 31
0.0
  0
ENDBLK
  5
69
  8
0
  0
BLOCK
  8
0
  2
DC_GROUP_11
 70
     0
 10
0.0
 20
0.0
 30
0.0
  3
DC_GROUP_11
  1

  0
LINE
  5
1D6
  8
LAYER0001
  6
CONTINUOUS
 62
     7
 10
362.1610406088103
 20
56.75390110263373
 30
0.0
 11
363.1820685598893
 21
58.55520170640421
 31
0.0
  0
LINE
  5
1D7
  8
LAYER0001
  6
CONTINUOUS
 62
     7
 10
363.1820685598893
 20
58.55520170640421
 30
0.0
 11
363.1984857640391
 21
56.48471567229614
 31
0.0
  0
LINE
  5
1D8
  8
LAYER0001
  6
CONTINUOUS
 62
     7
 10
363.1820685598893
 20
58.55520170640421
 30
0.0
 11
362.6797631864247
 21
56.61930838746494
 31
0.0
  0
ENDBLK
  5
6C
  8
0
  0
BLOCK
  8
0
  2
DC_GROUP_12
 70
     0
 10
0.0
 20
0.0
 30
0.0
  3
DC_GROUP_12
  1

  0
LINE
  5
1D9
  8
LAYER0001
  6
CONTINUOUS
 62
     7
 10
359.4358016594948
 20
27.90431998066163
 30
0.0
 11
358.8840621414976
 21
25.90863327020107
 31
0.0
  0
LINE
  5
1DA
  8
LAYER0001
  6
CONTINUOUS
 62
     7
 10
358.8840621414976
 20
25.90863327020107
 30
0.0
 11
358.3640362767869
 21
27.9128176534504
 31
0.0
  0
LINE
  5
1DB
  8
LAYER0001
  6
CONTINUOUS
 62
     7
 10
358.8840621414976
 20
25.90863327020107
 30
0.0
 11
358.8999189681409
 21
27.90856881705602
 31
0.0
  0
ENDBLK
  5
6F
  8
0
  0
BLOCK
  8
0
  2
DC_GROUP_13
 70
     0
 10
0.0
 20
0.0
 30
0.0
  3
DC_GROUP_13
  1

  0
LINE
  5
1DC
  8
LAYER0001
  6
CONTINUOUS
 62
     7
 10
397.8251900153673
 20
-81.01443597477012
 30
0.0
 11
407.3184790208335
 21
-75.53348291359586
 31
0.0
  0
LINE
  5
1DD
  8
LAYER0001
  6
CONTINUOUS
 62
     7
 10
388.8251900153673
 20
-65.42597898643547
 30
0.0
 11
398.3184790208335
 21
-59.94502592526121
 31
0.0
  0
LINE
  5
1DE
  8
LAYER0001
  6
CONTINUOUS
 62
     7
 10
406.4524536325927
 20
-76.03348291359586
 30
0.0
 11
397.4524536325927
 21
-60.44502592526121
 31
0.0
  0
INSERT
  5
1DF
  8
LAYER0001
  6
CONTINUOUS
  2
DC_GROUP_14
 10
0.0
 20
0.0
 30
0.0
  0
INSERT
  5
1E0
  8
LAYER0001
  6
CONTINUOUS
  2
DC_GROUP_15
 10
0.0
 20
0.0
 30
0.0
  0
TEXT
  5
1E1
  8
LAYER0001
 62
     7
 10
401.1665964884852
 20
-63.67810947292091
 30
0.0
 40
4.0
  1
φ18
 50
-59.99999999999999
 41
0.6093749999999994
  7
FDASTYLE1
 72
     5
 11
405.0665964884852
 21
-70.43310762243954
 31
0.0
  0
ENDBLK
  5
72
  8
0
  0
BLOCK
  8
0
  2
DC_GROUP_14
 70
     0
 10
0.0
 20
0.0
 30
0.0
  3
DC_GROUP_14
  1

  0
LINE
  5
1E2
  8
LAYER0001
  6
CONTINUOUS
 62
     7
 10
405.9165570243314
 20
-74.03348372177536
 30
0.0
 11
406.4524536325927
 21
-76.03348291359586
 31
0.0
  0
LINE
  5
1E3
  8
LAYER0001
  6
CONTINUOUS
 62
     7
 10
406.4524536325927
 20
-76.03348291359586
 30
0.0
 11
404.9883518063011
 21
-74.56938326388679
 31
0.0
  0
LINE
  5
1E4
  8
LAYER0001
  6
CONTINUOUS
 62
     7
 10
406.4524536325927
 20
-76.03348291359586
 30
0.0
 11
405.4524544153163
 21
-74.30143349283108
 31
0.0
  0
ENDBLK
  5
75
  8
0
  0
BLOCK
  8
0
  2
DC_GROUP_15
 70
     0
 10
0.0
 20
0.0
 30
0.0
  3
DC_GROUP_15
  1

  0
LINE
  5
1E5
  8
LAYER0001
  6
CONTINUOUS
 62
     7
 10
397.9883502408541
 20
-62.44502511708171
 30
0.0
 11
397.4524536325927
 21
-60.44502592526121
 31
0.0
  0
LINE
  5
1E6
  8
LAYER0001
  6
CONTINUOUS
 62
     7
 10
397.4524536325927
 20
-60.44502592526121
 30
0.0
 11
398.9165554588844
 21
-61.90912557497026
 31
0.0
  0
LINE
  5
1E7
  8
LAYER0001
  6
CONTINUOUS
 62
     7
 10
397.4524536325927
 20
-60.44502592526121
 30
0.0
 11
398.4524528498693
 21
-62.17707534602599
 31
0.0
  0
ENDBLK
  5
78
  8
0
  0
BLOCK
  8
0
  2
DC_GROUP_16
 70
     0
 10
0.0
 20
0.0
 30
0.0
  3
DC_GROUP_16
  1

  0
LINE
  5
1E8
  8
LAYER0001
  6
CONTINUOUS
 62
     7
 10
401.3260605850763
 20
100.4085540771485
 30
0.0
 11
346.3959735336847
 21
100.4085540771485
 31
0.0
  0
LINE
  5
1E9
  8
LAYER0001
  6
CONTINUOUS
 62
     7
 10
362.4812462845392
 20
25.90855407714847
 30
0.0
 11
346.3959735336847
 21
25.90855407714847
 31
0.0
  0
LINE
  5
1EA
  8
LAYER0001
  6
CONTINUOUS
 62
     7
 10
347.3959735336847
 20
100.4085540771485
 30
0.0
 11
347.3959735336847
 21
25.90855407714847
 31
0.0
  0
INSERT
  5
1EB
  8
LAYER0001
  6
CONTINUOUS
  2
DC_GROUP_17
 10
0.0
 20
0.0
 30
0.0
  0
INSERT
  5
1EC
  8
LAYER0001
  6
CONTINUOUS
  2
DC_GROUP_18
 10
0.0
 20
0.0
 30
0.0
  0
TEXT
  5
1ED
  8
LAYER0001
 62
     7
 10
345.7959735336847
 20
57.21555406451228
 30
0.0
 40
4.0
  1
74.5
 50
90.0
 41
0.6095238095238105
  7
FDASTYLE1
 72
     5
 11
345.7959735336847
 21
66.96793501689325
 31
0.0
  0
ENDBLK
  5
7B
  8
0
  0
BLOCK
  8
0
  2
DC_GROUP_17
 70
     0
 10
0.0
 20
0.0
 30
0.0
  3
DC_GROUP_17
  1

  0
LINE
  5
1EE
  8
LAYER0001
  6
CONTINUOUS
 62
     7
 10
346.8600739987871
 20
98.40855566951782
 30
0.0
 11
347.3959735336847
 21
100.4085540771485
 31
0.0
  0
LINE
  5
1EF
  8
LAYER0001
  6
CONTINUOUS
 62
     7
 10
347.3959735336847
 20
100.4085540771485
 30
0.0
 11
347.9318730685823
 21
98.40855566951782
 31
0.0
  0
LINE
  5
1F0
  8
LAYER0001
  6
CONTINUOUS
 62
     7
 10
347.3959735336847
 20
100.4085540771485
 30
0.0
 11
347.3959735336847
 21
98.40855566951782
 31
0.0
  0
ENDBLK
  5
7E
  8
0
  0
BLOCK
  8
0
  2
DC_GROUP_18
 70
     0
 10
0.0
 20
0.0
 30
0.0
  3
DC_GROUP_18
  1

  0
LINE
  5
1F1
  8
LAYER0001
  6
CONTINUOUS
 62
     7
 10
347.9318730685823
 20
27.90855248477913
 30
0.0
 11
347.3959735336847
 21
25.90855407714847
 31
0.0
  0
LINE
  5
1F2
  8
LAYER0001
  6
CONTINUOUS
 62
     7
 10
347.3959735336847
 20
25.90855407714847
 30
0.0
 11
346.8600739987871
 21
27.90855248477913
 31
0.0
  0
LINE
  5
1F3
  8
LAYER0001
  6
CONTINUOUS
 62
     7
 10
347.3959735336847
 20
25.90855407714847
 30
0.0
 11
347.3959735336847
 21
27.90855248477913
 31
0.0
  0
ENDBLK
  5
81
  8
0
  0
BLOCK
  8
0
  2
DC_GROUP_19
 70
     0
 10
0.0
 20
0.0
 30
0.0
  3
DC_GROUP_19
  1

  0
LINE
  5
1F4
  8
LAYER0001
  6
CONTINUOUS
 62
     7
 10
385.9276017430748
 20
-79.61979417757519
 30
0.0
 11
397.5057277578185
 21
-99.68854648885898
 31
0.0
  0
LINE
  5
1F5
  8
LAYER0001
  6
CONTINUOUS
 62
     7
 10
397.5057280960626
 20
-99.68854522705075
 30
0.0
 11
427.9087279739923
 21
-99.68854522705075
 31
0.0
  0
TEXT
  5
1F6
  8
LAYER0001
 62
     7
 10
403.6807273331232
 20
-98.08854522705076
 30
0.0
 40
4.0
  1
A-PT1/8
 41
0.756462585034013
  7
FDASTYLE1
 72
     5
 11
424.8616797140755
 21
-98.08854522705076
 31
0.0
  0
ENDBLK
  5
84
  8
0
  0
BLOCK
  8
0
  2
DC_GROUP_20
 70
     0
 10
0.0
 20
0.0
 30
0.0
  3
DC_GROUP_20
  1

  0
LINE
  5
1F7
  8
LAYER0001
  6
CONTINUOUS
 62
     7
 10
607.5612462845392
 20
25.90847015380862
 30
0.0
 11
610.4646819534845
 21
25.90847015380862
 31
0.0
  0
LINE
  5
1F8
  8
LAYER0001
  6
CONTINUOUS
 62
     7
 10
580.3686686364024
 20
80.95743270278096
 30
0.0
 11
593.6584572727178
 21
88.63027885697241
 31
0.0
  0
ARC
  5
1F9
  8
LAYER0001
  6
CONTINUOUS
 62
     7
 10
485.0212310257501
 20
25.90855407714847
 30
0.0
 40
123.1574554443359
 50
0.0
 51
29.99999741973147
  0
INSERT
  5
1FA
  8
LAYER0001
  6
DASHED2
  2
DC_GROUP_21
 10
0.0
 20
0.0
 30
0.0
  0
INSERT
  5
1FB
  8
LAYER0001
  6
CONTINUOUS
  2
DC_GROUP_22
 10
0.0
 20
0.0
 30
0.0
  0
TEXT
  5
1FC
  8
LAYER0001
 62
     7
 10
604.403666096193
 20
62.39303500633816
 30
0.0
 40
4.0
  1
30ﾟ
 50
-75.00000000000003
 41
0.4499999999999967
  7
FDASTYLE1
 72
     5
 11
605.8012889397465
 21
57.17703554437722
 31
0.0
  0
ENDBLK
  5
87
  8
0
  0
BLOCK
  8
0
  2
DC_GROUP_21
 70
     0
 10
0.0
 20
0.0
 30
0.0
  3
DC_GROUP_21
  1

  0
LINE
  5
1FD
  8
LAYER0001
  6
CONTINUOUS
 62
     7
 10
608.6983291655092
 20
27.9128378422681
 30
0.0
 11
608.1786864700861
 21
25.90855407714847
 31
0.0
  0
LINE
  5
1FE
  8
LAYER0001
  6
CONTINUOUS
 62
     7
 10
608.1786864700861
 20
25.90855407714847
 30
0.0
 11
607.6265654269719
 21
27.90413526962827
 31
0.0
  0
LINE
  5
1FF
  8
LAYER0001
  6
CONTINUOUS
 62
     7
 10
608.1786864700861
 20
25.90855407714847
 30
0.0
 11
608.1624472962405
 21
27.90848655594819
 31
0.0
  0
ENDBLK
  5
8A
  8
0
  0
BLOCK
  8
0
  2
DC_GROUP_22
 70
     0
 10
0.0
 20
0.0
 30
0.0
  3
DC_GROUP_22
  1

  0
LINE
  5
200
  8
LAYER0001
  6
CONTINUOUS
 62
     7
 10
592.1983585358204
 20
85.48299244312321
 30
0.0
 11
591.6787188791427
 21
87.48727699608384
 31
0.0
  0
LINE
  5
201
  8
LAYER0001
  6
CONTINUOUS
 62
     7
 10
591.6787188791427
 20
87.48727699608384
 30
0.0
 11
593.1308844703622
 21
86.01133762141191
 31
0.0
  0
LINE
  5
202
  8
LAYER0001
  6
CONTINUOUS
 62
     7
 10
591.6787188791427
 20
87.48727699608384
 30
0.0
 11
592.6646215030912
 21
85.74716503226756
 31
0.0
  0
ENDBLK
  5
8D
  8
0
  0
BLOCK
  8
0
  2
DC_GROUP_23
 70
     0
 10
0.0
 20
0.0
 30
0.0
  3
DC_GROUP_23
  1

  0
LINE
  5
203
  8
LAYER0001
  6
CONTINUOUS
 62
     7
 10
525.2253253826621
 20
51.67856308142294
 30
0.0
 11
543.8919781671729
 21
144.4785720895034
 31
0.0
  0
LINE
  5
204
  8
LAYER0001
  6
CONTINUOUS
 62
     7
 10
543.8919890823908
 20
144.4785766601563
 30
0.0
 11
591.7396300736017
 21
144.4785766601563
 31
0.0
  0
INSERT
  5
205
  8
LAYER0001
  6
CONTINUOUS
  2
DC_GROUP_24
 10
0.0
 20
0.0
 30
0.0
  0
TEXT
  5
206
  8
LAYER0001
 62
     7
 10
546.025350898797
 20
146.0785766601563
 30
0.0
 40
4.0
  1
3-M8×15 PCD 90
 41
0.6332076968855396
  7
FDASTYLE1
 72
     5
 11
581.9915480818956
 21
146.0785766601563
 31
0.0
  0
ENDBLK
  5
90
  8
0
  0
BLOCK
  8
0
  2
DC_GROUP_24
 70
     0
 10
0.0
 20
0.0
 30
0.0
  3
DC_GROUP_24
  1

  0
LINE
  5
207
  8
LAYER0001
  6
CONTINUOUS
 62
     7
 10
526.1451001020567
 20
53.5336092823546
 30
0.0
 11
525.2253253826621
 21
51.67856308142294
 31
0.0
  0
LINE
  5
208
  8
LAYER0001
  6
CONTINUOUS
 62
     7
 10
525.2253253826621
 20
51.67856308142294
 30
0.0
 11
525.0943475150822
 21
53.74496738364285
 31
0.0
  0
LINE
  5
209
  8
LAYER0001
  6
CONTINUOUS
 62
     7
 10
525.2253253826621
 20
51.67856308142294
 30
0.0
 11
525.6197238085695
 21
53.63928833299872
 31
0.0
  0
ENDBLK
  5
93
  8
0
  0
BLOCK
  8
0
  2
DC_GROUP_25
 70
     0
 10
0.0
 20
0.0
 30
0.0
  3
DC_GROUP_25
  1

  0
LINE
  5
20A
  8
LAYER0001
  6
CONTINUOUS
 62
     7
 10
445.0212462845392
 20
114.8752661132813
 30
0.0
 11
445.0212462845392
 21
155.0345916748047
 31
0.0
  0
LINE
  5
20B
  8
LAYER0001
  6
CONTINUOUS
 62
     7
 10
485.0212462845392
 20
148.4485540771485
 30
0.0
 11
485.0212462845392
 21
155.0345916748047
 31
0.0
  0
LINE
  5
20C
  8
LAYER0001
  6
CONTINUOUS
 62
     7
 10
445.0212462845392
 20
154.0345916748047
 30
0.0
 11
485.0212462845392
 21
154.0345916748047
 31
0.0
  0
INSERT
  5
20D
  8
LAYER0001
  6
CONTINUOUS
  2
DC_GROUP_26
 10
0.0
 20
0.0
 30
0.0
  0
INSERT
  5
20E
  8
LAYER0001
  6
CONTINUOUS
  2
DC_GROUP_27
 10
0.0
 20
0.0
 30
0.0
  0
TEXT
  5
20F
  8
LAYER0001
 62
     7
 10
462.278246271903
 20
155.6345916748047
 30
0.0
 40
4.0
  1
40
 41
0.6476190476190453
  7
FDASTYLE1
 72
     5
 11
467.4591986528553
 21
155.6345916748047
 31
0.0
  0
ENDBLK
  5
96
  8
0
  0
BLOCK
  8
0
  2
DC_GROUP_26
 70
     0
 10
0.0
 20
0.0
 30
0.0
  3
DC_GROUP_26
  1

  0
LINE
  5
210
  8
LAYER0001
  6
CONTINUOUS
 62
     7
 10
447.0212446921698
 20
153.4986921399071
 30
0.0
 11
445.0212462845392
 21
154.0345916748047
 31
0.0
  0
LINE
  5
211
  8
LAYER0001
  6
CONTINUOUS
 62
     7
 10
445.0212462845392
 20
154.0345916748047
 30
0.0
 11
447.0212446921698
 21
154.5704912097023
 31
0.0
  0
LINE
  5
212
  8
LAYER0001
  6
CONTINUOUS
 62
     7
 10
445.0212462845392
 20
154.0345916748047
 30
0.0
 11
447.0212446921698
 21
154.0345916748047
 31
0.0
  0
ENDBLK
  5
99
  8
0
  0
BLOCK
  8
0
  2
DC_GROUP_27
 70
     0
 10
0.0
 20
0.0
 30
0.0
  3
DC_GROUP_27
  1

  0
LINE
  5
213
  8
LAYER0001
  6
CONTINUOUS
 62
     7
 10
483.0212478769086
 20
154.5704912097023
 30
0.0
 11
485.0212462845392
 21
154.0345916748047
 31
0.0
  0
LINE
  5
214
  8
LAYER0001
  6
CONTINUOUS
 62
     7
 10
485.0212462845392
 20
154.0345916748047
 30
0.0
 11
483.0212478769086
 21
153.4986921399071
 31
0.0
  0
LINE
  5
215
  8
LAYER0001
  6
CONTINUOUS
 62
     7
 10
485.0212462845392
 20
154.0345916748047
 30
0.0
 11
483.0212478769086
 21
154.0345916748047
 31
0.0
  0
ENDBLK
  5
9C
  8
0
  0
BLOCK
  8
0
  2
DC_GROUP_28
 70
     0
 10
0.0
 20
0.0
 30
0.0
  3
DC_GROUP_28
  1

  0
LINE
  5
216
  8
LAYER0001
  6
CONTINUOUS
 62
     7
 10
174.5255690337842
 20
62.90859526141423
 30
0.0
 11
132.1589985992139
 21
62.90859526141423
 31
0.0
  0
LINE
  5
217
  8
LAYER0001
  6
CONTINUOUS
 62
     7
 10
177.2687483550733
 20
-11.09140473858577
 30
0.0
 11
132.1589985992139
 21
-11.09140473858577
 31
0.0
  0
LINE
  5
218
  8
LAYER0001
  6
CONTINUOUS
 62
     7
 10
134.4449788238233
 20
62.90859526141423
 30
0.0
 11
134.4449788238233
 21
-11.09140473858577
 31
0.0
  0
INSERT
  5
219
  8
LAYER0001
  6
CONTINUOUS
  2
DC_GROUP_29
 10
0.0
 20
0.0
 30
0.0
  0
INSERT
  5
21A
  8
LAYER0001
  6
CONTINUOUS
  2
DC_GROUP_30
 10
0.0
 20
0.0
 30
0.0
  0
TEXT
  5
21B
  8
LAYER0001
 62
     7
 10
132.8318164973509
 20
18.36854162828379
 30
0.0
 40
4.0
  1
φ74H7
 50
89.90000000000001
 41
0.6213017751479282
  7
FDASTYLE1
 72
     5
 11
132.8543715100794
 21
31.29159886839396
 31
0.0
  0
ENDBLK
  5
9F
  8
0
  0
BLOCK
  8
0
  2
DC_GROUP_29
 70
     0
 10
0.0
 20
0.0
 30
0.0
  3
DC_GROUP_29
  1

  0
LINE
  5
21C
  8
LAYER0001
  6
CONTINUOUS
 62
     7
 10
133.9090792889257
 20
60.90859685378356
 30
0.0
 11
134.4449788238233
 21
62.90859526141423
 31
0.0
  0
LINE
  5
21D
  8
LAYER0001
  6
CONTINUOUS
 62
     7
 10
134.4449788238233
 20
62.90859526141423
 30
0.0
 11
134.9808783587209
 21
60.90859685378356
 31
0.0
  0
LINE
  5
21E
  8
LAYER0001
  6
CONTINUOUS
 62
     7
 10
134.4449788238233
 20
62.90859526141423
 30
0.0
 11
134.4449788238233
 21
60.90859685378356
 31
0.0
  0
ENDBLK
  5
A2
  8
0
  0
BLOCK
  8
0
  2
DC_GROUP_30
 70
     0
 10
0.0
 20
0.0
 30
0.0
  3
DC_GROUP_30
  1

  0
LINE
  5
21F
  8
LAYER0001
  6
CONTINUOUS
 62
     7
 10
134.9808783587209
 20
-9.091406330955106
 30
0.0
 11
134.4449788238233
 21
-11.09140473858577
 31
0.0
  0
LINE
  5
220
  8
LAYER0001
  6
CONTINUOUS
 62
     7
 10
134.4449788238233
 20
-11.09140473858577
 30
0.0
 11
133.9090792889257
 21
-9.091406330955106
 31
0.0
  0
LINE
  5
221
  8
LAYER0001
  6
CONTINUOUS
 62
     7
 10
134.4449788238233
 20
-11.09140473858577
 30
0.0
 11
134.4449788238233
 21
-9.091406330955106
 31
0.0
  0
ENDBLK
  5
A5
  8
0
  0
BLOCK
  8
0
  2
DC_GROUP_31
 70
     0
 10
0.0
 20
0.0
 30
0.0
  3
DC_GROUP_31
  1

  0
LINE
  5
222
  8
LAYER0001
  6
CONTINUOUS
 62
     7
 10
173.068736148042
 20
133.4085952614142
 30
0.0
 11
107.776704898042
 21
133.4085952614142
 31
0.0
  0
LINE
  5
223
  8
LAYER0001
  6
CONTINUOUS
 62
     7
 10
173.068736148042
 20
-81.59140473858577
 30
0.0
 11
107.776704898042
 21
-81.59140473858577
 31
0.0
  0
LINE
  5
224
  8
LAYER0001
  6
CONTINUOUS
 62
     7
 10
110.0627156402295
 20
133.4085952614142
 30
0.0
 11
110.0627156402295
 21
-81.59140473858577
 31
0.0
  0
INSERT
  5
225
  8
LAYER0001
  6
CONTINUOUS
  2
DC_GROUP_32
 10
0.0
 20
0.0
 30
0.0
  0
INSERT
  5
226
  8
LAYER0001
  6
CONTINUOUS
  2
DC_GROUP_33
 10
0.0
 20
0.0
 30
0.0
  0
TEXT
  5
227
  8
LAYER0001
 62
     7
 10
108.4523458391426
 20
19.96853919134505
 30
0.0
 40
4.0
  1
φ215
 50
89.90000000000001
 41
0.6167800453514744
  7
FDASTYLE1
 72
     5
 11
108.4704307654483
 21
30.33042817117036
 31
0.0
  0
ENDBLK
  5
A8
  8
0
  0
BLOCK
  8
0
  2
DC_GROUP_32
 70
     0
 10
0.0
 20
0.0
 30
0.0
  3
DC_GROUP_32
  1

  0
LINE
  5
228
  8
LAYER0001
  6
CONTINUOUS
 62
     7
 10
109.5268161053319
 20
131.4085968537836
 30
0.0
 11
110.0627156402295
 21
133.4085952614142
 31
0.0
  0
LINE
  5
229
  8
LAYER0001
  6
CONTINUOUS
 62
     7
 10
110.0627156402295
 20
133.4085952614142
 30
0.0
 11
110.5986151751271
 21
131.4085968537836
 31
0.0
  0
LINE
  5
22A
  8
LAYER0001
  6
CONTINUOUS
 62
     7
 10
110.0627156402295
 20
133.4085952614142
 30
0.0
 11
110.0627156402295
 21
131.4085968537836
 31
0.0
  0
ENDBLK
  5
AB
  8
0
  0
BLOCK
  8
0
  2
DC_GROUP_33
 70
     0
 10
0.0
 20
0.0
 30
0.0
  3
DC_GROUP_33
  1

  0
LINE
  5
22B
  8
LAYER0001
  6
CONTINUOUS
 62
     7
 10
110.5986151751271
 20
-79.59140633095511
 30
0.0
 11
110.0627156402295
 21
-81.59140473858577
 31
0.0
  0
LINE
  5
22C
  8
LAYER0001
  6
CONTINUOUS
 62
     7
 10
110.0627156402295
 20
-81.59140473858577
 30
0.0
 11
109.5268161053319
 21
-79.59140633095511
 31
0.0
  0
LINE
  5
22D
  8
LAYER0001
  6
CONTINUOUS
 62
     7
 10
110.0627156402295
 20
-81.59140473858577
 30
0.0
 11
110.0627156402295
 21
-79.59140633095511
 31
0.0
  0
ENDBLK
  5
AE
  8
0
  0
BLOCK
  8
0
  2
DC_GROUP_34
 70
     0
 10
0.0
 20
0.0
 30
0.0
  3
DC_GROUP_34
  1

  0
LINE
  5
22E
  8
LAYER0001
  6
CONTINUOUS
 62
     7
 10
179.8087483550733
 20
-119.4247166540929
 30
0.0
 11
252.608736148042
 21
-119.4247166540929
 31
0.0
  0
LINE
  5
22F
  8
LAYER0001
  6
CONTINUOUS
 62
     7
 10
179.8087483550733
 20
-71.63140473858577
 30
0.0
 11
179.8087483550733
 21
-120.4247166540929
 31
0.0
  0
LINE
  5
230
  8
LAYER0001
  6
CONTINUOUS
 62
     7
 10
252.608736148042
 20
-82.13140473858577
 30
0.0
 11
252.608736148042
 21
-120.4247166540929
 31
0.0
  0
INSERT
  5
231
  8
LAYER0001
  6
CONTINUOUS
  2
DC_GROUP_35
 10
0.0
 20
0.0
 30
0.0
  0
INSERT
  5
232
  8
LAYER0001
  6
CONTINUOUS
  2
DC_GROUP_36
 10
0.0
 20
0.0
 30
0.0
  0
TEXT
  5
233
  8
LAYER0001
 62
     7
 10
210.2658846046155
 20
-117.8247166540929
 30
0.0
 40
4.0
  1
72.8
 41
0.6095238095238091
  7
FDASTYLE1
 72
     5
 11
220.0182655569964
 21
-117.8247166540929
 31
0.0
  0
ENDBLK
  5
B1
  8
0
  0
BLOCK
  8
0
  2
DC_GROUP_35
 70
     0
 10
0.0
 20
0.0
 30
0.0
  3
DC_GROUP_35
  1

  0
LINE
  5
234
  8
LAYER0001
  6
CONTINUOUS
 62
     7
 10
181.808746762704
 20
-119.9606161889905
 30
0.0
 11
179.8087483550733
 21
-119.4247166540929
 31
0.0
  0
LINE
  5
235
  8
LAYER0001
  6
CONTINUOUS
 62
     7
 10
179.8087483550733
 20
-119.4247166540929
 30
0.0
 11
181.808746762704
 21
-118.8888171191953
 31
0.0
  0
LINE
  5
236
  8
LAYER0001
  6
CONTINUOUS
 62
     7
 10
179.8087483550733
 20
-119.4247166540929
 30
0.0
 11
181.808746762704
 21
-119.4247166540929
 31
0.0
  0
ENDBLK
  5
B4
  8
0
  0
BLOCK
  8
0
  2
DC_GROUP_36
 70
     0
 10
0.0
 20
0.0
 30
0.0
  3
DC_GROUP_36
  1

  0
LINE
  5
237
  8
LAYER0001
  6
CONTINUOUS
 62
     7
 10
250.6087377404113
 20
-118.8888171191953
 30
0.0
 11
252.608736148042
 21
-119.4247166540929
 31
0.0
  0
LINE
  5
238
  8
LAYER0001
  6
CONTINUOUS
 62
     7
 10
252.608736148042
 20
-119.4247166540929
 30
0.0
 11
250.6087377404113
 21
-119.9606161889905
 31
0.0
  0
LINE
  5
239
  8
LAYER0001
  6
CONTINUOUS
 62
     7
 10
252.608736148042
 20
-119.4247166540929
 30
0.0
 11
250.6087377404113
 21
-119.4247166540929
 31
0.0
  0
ENDBLK
  5
B7
  8
0
  0
BLOCK
  8
0
  2
DC_GROUP_37
 70
     0
 10
0.0
 20
0.0
 30
0.0
  3
DC_GROUP_37
  1

  0
LINE
  5
23A
  8
LAYER0001
  6
CONTINUOUS
 62
     7
 10
175.608736148042
 20
-119.4247166540928
 30
0.0
 11
179.8087483550733
 21
-119.4247166540928
 31
0.0
  0
LINE
  5
23B
  8
LAYER0001
  6
CONTINUOUS
 62
     7
 10
175.608736148042
 20
-84.13140473858577
 30
0.0
 11
175.608736148042
 21
-120.4247166540928
 31
0.0
  0
LINE
  5
23C
  8
LAYER0001
  6
CONTINUOUS
 62
     7
 10
179.8087483550733
 20
-71.63140473858577
 30
0.0
 11
179.8087483550733
 21
-120.4247166540928
 31
0.0
  0
LINE
  5
23D
  8
LAYER0001
  6
CONTINUOUS
 62
     7
 10
162.076886148042
 20
-119.4247166540928
 30
0.0
 11
175.608736148042
 21
-119.4247166540928
 31
0.0
  0
LINE
  5
23E
  8
LAYER0001
  6
CONTINUOUS
 62
     7
 10
184.8087483550733
 20
-119.4247166540928
 30
0.0
 11
179.8087483550733
 21
-119.4247166540928
 31
0.0
  0
INSERT
  5
23F
  8
LAYER0001
  6
CONTINUOUS
  2
DC_GROUP_38
 10
0.0
 20
0.0
 30
0.0
  0
INSERT
  5
240
  8
LAYER0001
  6
CONTINUOUS
  2
DC_GROUP_39
 10
0.0
 20
0.0
 30
0.0
  0
TEXT
  5
241
  8
LAYER0001
 62
     7
 10
163.076886148042
 20
-118.4247166540928
 30
0.0
 40
4.0
  1
4.2
 41
0.5587301587301591
  7
FDASTYLE1
 72
     5
 11
169.7816480528039
 21
-118.4247166540928
 31
0.0
  0
ENDBLK
  5
BA
  8
0
  0
BLOCK
  8
0
  2
DC_GROUP_38
 70
     0
 10
0.0
 20
0.0
 30
0.0
  3
DC_GROUP_38
  1

  0
LINE
  5
242
  8
LAYER0001
  6
CONTINUOUS
 62
     7
 10
173.6087377404113
 20
-118.8888171191952
 30
0.0
 11
175.608736148042
 21
-119.4247166540928
 31
0.0
  0
LINE
  5
243
  8
LAYER0001
  6
CONTINUOUS
 62
     7
 10
175.608736148042
 20
-119.4247166540928
 30
0.0
 11
173.6087377404113
 21
-119.9606161889904
 31
0.0
  0
LINE
  5
244
  8
LAYER0001
  6
CONTINUOUS
 62
     7
 10
175.608736148042
 20
-119.4247166540928
 30
0.0
 11
173.6087377404113
 21
-119.4247166540928
 31
0.0
  0
ENDBLK
  5
BD
  8
0
  0
BLOCK
  8
0
  2
DC_GROUP_39
 70
     0
 10
0.0
 20
0.0
 30
0.0
  3
DC_GROUP_39
  1

  0
LINE
  5
245
  8
LAYER0001
  6
CONTINUOUS
 62
     7
 10
181.808746762704
 20
-119.9606161889904
 30
0.0
 11
179.8087483550733
 21
-119.4247166540928
 31
0.0
  0
LINE
  5
246
  8
LAYER0001
  6
CONTINUOUS
 62
     7
 10
179.8087483550733
 20
-119.4247166540928
 30
0.0
 11
181.808746762704
 21
-118.8888171191952
 31
0.0
  0
LINE
  5
247
  8
LAYER0001
  6
CONTINUOUS
 62
     7
 10
179.8087483550733
 20
-119.4247166540928
 30
0.0
 11
181.808746762704
 21
-119.4247166540928
 31
0.0
  0
ENDBLK
  5
C0
  8
0
  0
BLOCK
  8
0
  2
DC_GROUP_40
 70
     0
 10
0.0
 20
0.0
 30
0.0
  3
DC_GROUP_40
  1

  0
LINE
  5
248
  8
LAYER0001
  6
CONTINUOUS
 62
     7
 10
252.608736148042
 20
-82.13140473858577
 30
0.0
 11
252.608736148042
 21
-131.6765182639764
 31
0.0
  0
LINE
  5
249
  8
LAYER0001
  6
CONTINUOUS
 62
     7
 10
175.608736148042
 20
-84.13140473858577
 30
0.0
 11
175.608736148042
 21
-131.6765182639764
 31
0.0
  0
LINE
  5
24A
  8
LAYER0001
  6
CONTINUOUS
 62
     7
 10
252.608736148042
 20
-129.390522780578
 30
0.0
 11
175.608736148042
 21
-129.390522780578
 31
0.0
  0
INSERT
  5
24B
  8
LAYER0001
  6
CONTINUOUS
  2
DC_GROUP_41
 10
0.0
 20
0.0
 30
0.0
  0
INSERT
  5
24C
  8
LAYER0001
  6
CONTINUOUS
  2
DC_GROUP_42
 10
0.0
 20
0.0
 30
0.0
  0
TEXT
  5
24D
  8
LAYER0001
 62
     7
 10
211.3658785010999
 20
-127.790522780578
 30
0.0
 40
4.0
  1
77
 41
0.6476190476190453
  7
FDASTYLE1
 72
     5
 11
216.5468308820523
 21
-127.790522780578
 31
0.0
  0
ENDBLK
  5
C3
  8
0
  0
BLOCK
  8
0
  2
DC_GROUP_41
 70
     0
 10
0.0
 20
0.0
 30
0.0
  3
DC_GROUP_41
  1

  0
LINE
  5
24E
  8
LAYER0001
  6
CONTINUOUS
 62
     7
 10
250.6087377404113
 20
-128.8546232456804
 30
0.0
 11
252.608736148042
 21
-129.390522780578
 31
0.0
  0
LINE
  5
24F
  8
LAYER0001
  6
CONTINUOUS
 62
     7
 10
252.608736148042
 20
-129.390522780578
 30
0.0
 11
250.6087377404113
 21
-129.9264223154756
 31
0.0
  0
LINE
  5
250
  8
LAYER0001
  6
CONTINUOUS
 62
     7
 10
252.608736148042
 20
-129.390522780578
 30
0.0
 11
250.6087377404113
 21
-129.390522780578
 31
0.0
  0
ENDBLK
  5
C6
  8
0
  0
BLOCK
  8
0
  2
DC_GROUP_42
 70
     0
 10
0.0
 20
0.0
 30
0.0
  3
DC_GROUP_42
  1

  0
LINE
  5
251
  8
LAYER0001
  6
CONTINUOUS
 62
     7
 10
177.6087345556726
 20
-129.9264223154756
 30
0.0
 11
175.608736148042
 21
-129.390522780578
 31
0.0
  0
LINE
  5
252
  8
LAYER0001
  6
CONTINUOUS
 62
     7
 10
175.608736148042
 20
-129.390522780578
 30
0.0
 11
177.6087345556726
 21
-128.8546232456804
 31
0.0
  0
LINE
  5
253
  8
LAYER0001
  6
CONTINUOUS
 62
     7
 10
175.608736148042
 20
-129.390522780578
 30
0.0
 11
177.6087345556726
 21
-129.390522780578
 31
0.0
  0
ENDBLK
  5
C9
  8
0
  0
BLOCK
  8
0
  2
DC_GROUP_43
 70
     0
 10
0.0
 20
0.0
 30
0.0
  3
DC_GROUP_43
  1

  0
LINE
  5
254
  8
LAYER0001
  6
CONTINUOUS
 62
     7
 10
179.8087483550733
 20
-105.2462403646318
 30
0.0
 11
217.7256184722608
 21
-105.2462403646318
 31
0.0
  0
LINE
  5
255
  8
LAYER0001
  6
CONTINUOUS
 62
     7
 10
179.8087483550733
 20
-71.63140473858577
 30
0.0
 11
179.8087483550733
 21
-106.2462403646318
 31
0.0
  0
LINE
  5
256
  8
LAYER0001
  6
CONTINUOUS
 62
     7
 10
217.7256184722608
 20
-8.131404738585765
 30
0.0
 11
217.7256184722608
 21
-106.2462403646318
 31
0.0
  0
INSERT
  5
257
  8
LAYER0001
  6
CONTINUOUS
  2
DC_GROUP_44
 10
0.0
 20
0.0
 30
0.0
  0
INSERT
  5
258
  8
LAYER0001
  6
CONTINUOUS
  2
DC_GROUP_45
 10
0.0
 20
0.0
 30
0.0
  0
TEXT
  5
259
  8
LAYER0001
 62
     7
 10
186.4243257667249
 20
-103.6462403646318
 30
0.0
 40
4.0
  1
MAX 49.8
 41
0.6952380952380963
  7
FDASTYLE1
 72
     5
 11
208.671944814344
 21
-103.6462403646318
 31
0.0
  0
ENDBLK
  5
CC
  8
0
  0
BLOCK
  8
0
  2
DC_GROUP_44
 70
     0
 10
0.0
 20
0.0
 30
0.0
  3
DC_GROUP_44
  1

  0
LINE
  5
25A
  8
LAYER0001
  6
CONTINUOUS
 62
     7
 10
181.808746762704
 20
-105.7821398995294
 30
0.0
 11
179.8087483550733
 21
-105.2462403646318
 31
0.0
  0
LINE
  5
25B
  8
LAYER0001
  6
CONTINUOUS
 62
     7
 10
179.8087483550733
 20
-105.2462403646318
 30
0.0
 11
181.808746762704
 21
-104.7103408297342
 31
0.0
  0
LINE
  5
25C
  8
LAYER0001
  6
CONTINUOUS
 62
     7
 10
179.8087483550733
 20
-105.2462403646318
 30
0.0
 11
181.808746762704
 21
-105.2462403646318
 31
0.0
  0
ENDBLK
  5
CF
  8
0
  0
BLOCK
  8
0
  2
DC_GROUP_45
 70
     0
 10
0.0
 20
0.0
 30
0.0
  3
DC_GROUP_45
  1

  0
LINE
  5
25D
  8
LAYER0001
  6
CONTINUOUS
 62
     7
 10
215.7256200646301
 20
-104.7103408297342
 30
0.0
 11
217.7256184722608
 21
-105.2462403646318
 31
0.0
  0
LINE
  5
25E
  8
LAYER0001
  6
CONTINUOUS
 62
     7
 10
217.7256184722608
 20
-105.2462403646318
 30
0.0
 11
215.7256200646301
 21
-105.7821398995294
 31
0.0
  0
LINE
  5
25F
  8
LAYER0001
  6
CONTINUOUS
 62
     7
 10
217.7256184722608
 20
-105.2462403646318
 30
0.0
 11
215.7256200646301
 21
-105.2462403646318
 31
0.0
  0
ENDBLK
  5
D2
  8
0
  0
BLOCK
  8
0
  2
DC_GROUP_46
 70
     0
 10
0.0
 20
0.0
 30
0.0
  3
DC_GROUP_46
  1

  0
LINE
  5
260
  8
LAYER0001
  6
CONTINUOUS
 62
     7
 10
188.7256184722608
 20
10.39843321781293
 30
0.0
 11
217.7256184722608
 21
10.39843321781293
 31
0.0
  0
INSERT
  5
261
  8
LAYER0001
  6
CONTINUOUS
  2
DC_GROUP_47
 10
0.0
 20
0.0
 30
0.0
  0
INSERT
  5
262
  8
LAYER0001
  6
CONTINUOUS
  2
DC_GROUP_48
 10
0.0
 20
0.0
 30
0.0
  0
TEXT
  5
263
  8
LAYER0001
 62
     7
 10
200.4827608253187
 20
11.99843321781292
 30
0.0
 40
4.0
  1
29
 41
0.6285714285714263
  7
FDASTYLE1
 72
     5
 11
205.5113322538901
 21
11.99843321781292
 31
0.0
  0
ENDBLK
  5
D5
  8
0
  0
BLOCK
  8
0
  2
DC_GROUP_47
 70
     0
 10
0.0
 20
0.0
 30
0.0
  3
DC_GROUP_47
  1

  0
LINE
  5
264
  8
LAYER0001
  6
CONTINUOUS
 62
     7
 10
190.7256168798915
 20
9.86253368291532
 30
0.0
 11
188.7256184722608
 21
10.39843321781293
 31
0.0
  0
LINE
  5
265
  8
LAYER0001
  6
CONTINUOUS
 62
     7
 10
188.7256184722608
 20
10.39843321781293
 30
0.0
 11
190.7256168798915
 21
10.93433275271053
 31
0.0
  0
LINE
  5
266
  8
LAYER0001
  6
CONTINUOUS
 62
     7
 10
188.7256184722608
 20
10.39843321781293
 30
0.0
 11
190.7256168798915
 21
10.39843321781293
 31
0.0
  0
ENDBLK
  5
D8
  8
0
  0
BLOCK
  8
0
  2
DC_GROUP_48
 70
     0
 10
0.0
 20
0.0
 30
0.0
  3
DC_GROUP_48
  1

  0
LINE
  5
267
  8
LAYER0001
  6
CONTINUOUS
 62
     7
 10
215.7256200646301
 20
10.93433275271054
 30
0.0
 11
217.7256184722608
 21
10.39843321781293
 31
0.0
  0
LINE
  5
268
  8
LAYER0001
  6
CONTINUOUS
 62
     7
 10
217.7256184722608
 20
10.39843321781293
 30
0.0
 11
215.7256200646301
 21
9.862533682915322
 31
0.0
  0
LINE
  5
269
  8
LAYER0001
  6
CONTINUOUS
 62
     7
 10
217.7256184722608
 20
10.39843321781293
 30
0.0
 11
215.7256200646301
 21
10.39843321781293
 31
0.0
  0
ENDBLK
  5
DB
  8
0
  0
BLOCK
  8
0
  2
DC_GROUP_49
 70
     0
 10
0.0
 20
0.0
 30
0.0
  3
DC_GROUP_49
  1

  0
LINE
  5
26A
  8
LAYER0001
  6
CONTINUOUS
 62
     7
 10
217.7256184722608
 20
10.29975431903142
 30
0.0
 11
229.7256184722608
 21
10.29975431903142
 31
0.0
  0
INSERT
  5
26B
  8
LAYER0001
  6
CONTINUOUS
  2
DC_GROUP_50
 10
0.0
 20
0.0
 30
0.0
  0
INSERT
  5
26C
  8
LAYER0001
  6
CONTINUOUS
  2
DC_GROUP_51
 10
0.0
 20
0.0
 30
0.0
  0
TEXT
  5
26D
  8
LAYER0001
 62
     7
 10
220.5256184722608
 20
11.29975431903142
 30
0.0
 40
4.0
  1
12
 41
0.5904761904761884
  7
FDASTYLE1
 72
     5
 11
225.2494279960703
 21
11.29975431903142
 31
0.0
  0
ENDBLK
  5
DE
  8
0
  0
BLOCK
  8
0
  2
DC_GROUP_50
 70
     0
 10
0.0
 20
0.0
 30
0.0
  3
DC_GROUP_50
  1

  0
LINE
  5
26E
  8
LAYER0001
  6
CONTINUOUS
 62
     7
 10
219.7256168798914
 20
9.763854784133811
 30
0.0
 11
217.7256184722608
 21
10.29975431903142
 31
0.0
  0
LINE
  5
26F
  8
LAYER0001
  6
CONTINUOUS
 62
     7
 10
217.7256184722608
 20
10.29975431903142
 30
0.0
 11
219.7256168798914
 21
10.83565385392903
 31
0.0
  0
LINE
  5
270
  8
LAYER0001
  6
CONTINUOUS
 62
     7
 10
217.7256184722608
 20
10.29975431903142
 30
0.0
 11
219.7256168798914
 21
10.29975431903142
 31
0.0
  0
ENDBLK
  5
E1
  8
0
  0
BLOCK
  8
0
  2
DC_GROUP_51
 70
     0
 10
0.0
 20
0.0
 30
0.0
  3
DC_GROUP_51
  1

  0
LINE
  5
271
  8
LAYER0001
  6
CONTINUOUS
 62
     7
 10
227.7256200646301
 20
10.83565385392903
 30
0.0
 11
229.7256184722608
 21
10.29975431903142
 31
0.0
  0
LINE
  5
272
  8
LAYER0001
  6
CONTINUOUS
 62
     7
 10
229.7256184722608
 20
10.29975431903142
 30
0.0
 11
227.7256200646301
 21
9.763854784133812
 31
0.0
  0
LINE
  5
273
  8
LAYER0001
  6
CONTINUOUS
 62
     7
 10
229.7256184722608
 20
10.29975431903142
 30
0.0
 11
227.7256200646301
 21
10.29975431903142
 31
0.0
  0
ENDBLK
  5
E4
  8
0
  0
BLOCK
  8
0
  2
DC_GROUP_52
 70
     0
 10
0.0
 20
0.0
 30
0.0
  3
DC_GROUP_52
  1

  0
LINE
  5
274
  8
LAYER0001
  6
CONTINUOUS
 62
     7
 10
229.7256184722608
 20
10.29975431903142
 30
0.0
 11
238.7256184722608
 21
10.29975431903142
 31
0.0
  0
LINE
  5
275
  8
LAYER0001
  6
CONTINUOUS
 62
     7
 10
229.7256184722608
 20
10.29975431903142
 30
0.0
 11
223.3756184722608
 21
10.29975431903142
 31
0.0
  0
LINE
  5
276
  8
LAYER0001
  6
CONTINUOUS
 62
     7
 10
245.0756184722608
 20
10.29975431903142
 30
0.0
 11
238.7256184722608
 21
10.29975431903142
 31
0.0
  0
INSERT
  5
277
  8
LAYER0001
  6
CONTINUOUS
  2
DC_GROUP_53
 10
0.0
 20
0.0
 30
0.0
  0
INSERT
  5
278
  8
LAYER0001
  6
CONTINUOUS
  2
DC_GROUP_54
 10
0.0
 20
0.0
 30
0.0
  0
TEXT
  5
279
  8
LAYER0001
 62
     7
 10
233.0827608253187
 20
11.89975431903142
 30
0.0
 40
4.0
  1
9
 41
0.4952380952380935
  7
FDASTYLE1
 72
     5
 11
235.0637132062711
 21
11.89975431903142
 31
0.0
  0
ENDBLK
  5
E7
  8
0
  0
BLOCK
  8
0
  2
DC_GROUP_53
 70
     0
 10
0.0
 20
0.0
 30
0.0
  3
DC_GROUP_53
  1

  0
LINE
  5
27A
  8
LAYER0001
  6
CONTINUOUS
 62
     7
 10
227.7256200646301
 20
10.83565385392903
 30
0.0
 11
229.7256184722608
 21
10.29975431903142
 31
0.0
  0
LINE
  5
27B
  8
LAYER0001
  6
CONTINUOUS
 62
     7
 10
229.7256184722608
 20
10.29975431903142
 30
0.0
 11
227.7256200646301
 21
9.763854784133812
 31
0.0
  0
LINE
  5
27C
  8
LAYER0001
  6
CONTINUOUS
 62
     7
 10
229.7256184722608
 20
10.29975431903142
 30
0.0
 11
227.7256200646301
 21
10.29975431903142
 31
0.0
  0
ENDBLK
  5
EA
  8
0
  0
BLOCK
  8
0
  2
DC_GROUP_54
 70
     0
 10
0.0
 20
0.0
 30
0.0
  3
DC_GROUP_54
  1

  0
LINE
  5
27D
  8
LAYER0001
  6
CONTINUOUS
 62
     7
 10
240.7256168798915
 20
9.763854784133812
 30
0.0
 11
238.7256184722608
 21
10.29975431903142
 31
0.0
  0
LINE
  5
27E
  8
LAYER0001
  6
CONTINUOUS
 62
     7
 10
238.7256184722608
 20
10.29975431903142
 30
0.0
 11
240.7256168798915
 21
10.83565385392903
 31
0.0
  0
LINE
  5
27F
  8
LAYER0001
  6
CONTINUOUS
 62
     7
 10
238.7256184722608
 20
10.29975431903142
 30
0.0
 11
240.7256168798915
 21
10.29975431903142
 31
0.0
  0
ENDBLK
  5
ED
  8
0
  0
BLOCK
  8
0
  2
DC_GROUP_55
 70
     0
 10
0.0
 20
0.0
 30
0.0
  3
DC_GROUP_55
  1

  0
LINE
  5
280
  8
LAYER0001
  6
CONTINUOUS
 62
     7
 10
250.108736148042
 20
16.59834799970614
 30
0.0
 11
252.608736148042
 21
16.59834799970614
 31
0.0
  0
LINE
  5
281
  8
LAYER0001
  6
CONTINUOUS
 62
     7
 10
250.108736148042
 20
16.59834799970614
 30
0.0
 11
243.758736148042
 21
16.59834799970614
 31
0.0
  0
LINE
  5
282
  8
LAYER0001
  6
CONTINUOUS
 62
     7
 10
265.0019358440205
 20
16.59834799970614
 30
0.0
 11
252.608736148042
 21
16.59834799970614
 31
0.0
  0
INSERT
  5
283
  8
LAYER0001
  6
CONTINUOUS
  2
DC_GROUP_56
 10
0.0
 20
0.0
 30
0.0
  0
INSERT
  5
284
  8
LAYER0001
  6
CONTINUOUS
  2
DC_GROUP_57
 10
0.0
 20
0.0
 30
0.0
  0
TEXT
  5
285
  8
LAYER0001
 62
     7
 10
255.4093331586122
 20
18.20592527540767
 30
0.0
 40
4.0
  1
2.5
 50
-0.1000000000000078
 41
0.5587301587301553
  7
FDASTYLE1
 72
     5
 11
262.1140848514403
 21
18.19422326426869
 31
0.0
  0
ENDBLK
  5
F0
  8
0
  0
BLOCK
  8
0
  2
DC_GROUP_56
 70
     0
 10
0.0
 20
0.0
 30
0.0
  3
DC_GROUP_56
  1

  0
LINE
  5
286
  8
LAYER0001
  6
CONTINUOUS
 62
     7
 10
248.1087377404113
 20
17.13424753460375
 30
0.0
 11
250.108736148042
 21
16.59834799970614
 31
0.0
  0
LINE
  5
287
  8
LAYER0001
  6
CONTINUOUS
 62
     7
 10
250.108736148042
 20
16.59834799970614
 30
0.0
 11
248.1087377404113
 21
16.06244846480853
 31
0.0
  0
LINE
  5
288
  8
LAYER0001
  6
CONTINUOUS
 62
     7
 10
250.108736148042
 20
16.59834799970614
 30
0.0
 11
248.1087377404113
 21
16.59834799970614
 31
0.0
  0
ENDBLK
  5
F3
  8
0
  0
BLOCK
  8
0
  2
DC_GROUP_57
 70
     0
 10
0.0
 20
0.0
 30
0.0
  3
DC_GROUP_57
  1

  0
LINE
  5
289
  8
LAYER0001
  6
CONTINUOUS
 62
     7
 10
254.6087345556726
 20
16.06244846480853
 30
0.0
 11
252.608736148042
 21
16.59834799970614
 31
0.0
  0
LINE
  5
28A
  8
LAYER0001
  6
CONTINUOUS
 62
     7
 10
252.608736148042
 20
16.59834799970614
 30
0.0
 11
254.6087345556726
 21
17.13424753460375
 31
0.0
  0
LINE
  5
28B
  8
LAYER0001
  6
CONTINUOUS
 62
     7
 10
252.608736148042
 20
16.59834799970614
 30
0.0
 11
254.6087345556726
 21
16.59834799970614
 31
0.0
  0
ENDBLK
  5
F6
  8
0
  0
BLOCK
  8
0
  2
DC_GROUP_58
 70
     0
 10
0.0
 20
0.0
 30
0.0
  3
DC_GROUP_58
  1

  0
LINE
  5
28C
  8
LAYER0001
  6
CONTINUOUS
 62
     7
 10
188.7256184722608
 20
64.44859526141423
 30
0.0
 11
188.7256184722608
 21
156.3206283424689
 31
0.0
  0
LINE
  5
28D
  8
LAYER0001
  6
CONTINUOUS
 62
     7
 10
179.8087483550733
 20
111.6108520848222
 30
0.0
 11
179.8087483550733
 21
156.3206283424689
 31
0.0
  0
LINE
  5
28E
  8
LAYER0001
  6
CONTINUOUS
 62
     7
 10
188.7256184722608
 20
154.0346328590705
 30
0.0
 11
179.8087483550733
 21
154.0346328590705
 31
0.0
  0
LINE
  5
28F
  8
LAYER0001
  6
CONTINUOUS
 62
     7
 10
188.7256184722608
 20
154.0346328590705
 30
0.0
 11
195.0756184722608
 21
154.0346328590705
 31
0.0
  0
LINE
  5
290
  8
LAYER0001
  6
CONTINUOUS
 62
     7
 10
173.4587483550733
 20
154.0346328590705
 30
0.0
 11
179.8087483550733
 21
154.0346328590705
 31
0.0
  0
INSERT
  5
291
  8
LAYER0001
  6
CONTINUOUS
  2
DC_GROUP_59
 10
0.0
 20
0.0
 30
0.0
  0
INSERT
  5
292
  8
LAYER0001
  6
CONTINUOUS
  2
DC_GROUP_60
 10
0.0
 20
0.0
 30
0.0
  0
TEXT
  5
293
  8
LAYER0001
 62
     7
 10
154.6452974464124
 20
155.6346328590705
 30
0.0
 40
4.0
  1
MAX20.8
 41
0.6802721088435371
  7
FDASTYLE1
 72
     5
 11
173.6929164940314
 21
155.6346328590705
 31
0.0
  0
ENDBLK
  5
F9
  8
0
  0
BLOCK
  8
0
  2
DC_GROUP_59
 70
     0
 10
0.0
 20
0.0
 30
0.0
  3
DC_GROUP_59
  1

  0
LINE
  5
294
  8
LAYER0001
  6
CONTINUOUS
 62
     7
 10
190.7256168798915
 20
153.4987333241729
 30
0.0
 11
188.7256184722608
 21
154.0346328590705
 31
0.0
  0
LINE
  5
295
  8
LAYER0001
  6
CONTINUOUS
 62
     7
 10
188.7256184722608
 20
154.0346328590705
 30
0.0
 11
190.7256168798915
 21
154.5705323939681
 31
0.0
  0
LINE
  5
296
  8
LAYER0001
  6
CONTINUOUS
 62
     7
 10
188.7256184722608
 20
154.0346328590705
 30
0.0
 11
190.7256168798915
 21
154.0346328590705
 31
0.0
  0
ENDBLK
  5
FC
  8
0
  0
BLOCK
  8
0
  2
DC_GROUP_60
 70
     0
 10
0.0
 20
0.0
 30
0.0
  3
DC_GROUP_60
  1

  0
LINE
  5
297
  8
LAYER0001
  6
CONTINUOUS
 62
     7
 10
177.8087499474426
 20
154.5705323939681
 30
0.0
 11
179.8087483550733
 21
154.0346328590705
 31
0.0
  0
LINE
  5
298
  8
LAYER0001
  6
CONTINUOUS
 62
     7
 10
179.8087483550733
 20
154.0346328590705
 30
0.0
 11
177.8087499474426
 21
153.4987333241729
 31
0.0
  0
LINE
  5
299
  8
LAYER0001
  6
CONTINUOUS
 62
     7
 10
179.8087483550733
 20
154.0346328590705
 30
0.0
 11
177.8087499474426
 21
154.0346328590705
 31
0.0
  0
ENDBLK
  5
FF
  8
0
  0
BLOCK
  8
0
  2
DC_GROUP_61
 70
     0
 10
0.0
 20
0.0
 30
0.0
  3
DC_GROUP_61
  1

  0
LINE
  5
29A
  8
LAYER0001
  6
CONTINUOUS
 62
     7
 10
252.608736148042
 20
133.9485952614142
 30
0.0
 11
252.608736148042
 21
156.2202865455939
 31
0.0
  0
LINE
  5
29B
  8
LAYER0001
  6
CONTINUOUS
 62
     7
 10
251.608736148042
 20
135.248598313172
 30
0.0
 11
251.608736148042
 21
156.2202865455939
 31
0.0
  0
LINE
  5
29C
  8
LAYER0001
  6
CONTINUOUS
 62
     7
 10
252.608736148042
 20
153.9342910621955
 30
0.0
 11
251.608736148042
 21
153.9342910621955
 31
0.0
  0
LINE
  5
29D
  8
LAYER0001
  6
CONTINUOUS
 62
     7
 10
252.608736148042
 20
153.9342910621955
 30
0.0
 11
258.958736148042
 21
153.9342910621955
 31
0.0
  0
LINE
  5
29E
  8
LAYER0001
  6
CONTINUOUS
 62
     7
 10
245.258736148042
 20
153.9342910621955
 30
0.0
 11
251.608736148042
 21
153.9342910621955
 31
0.0
  0
INSERT
  5
29F
  8
LAYER0001
  6
CONTINUOUS
  2
DC_GROUP_62
 10
0.0
 20
0.0
 30
0.0
  0
INSERT
  5
2A0
  8
LAYER0001
  6
CONTINUOUS
  2
DC_GROUP_63
 10
0.0
 20
0.0
 30
0.0
  0
TEXT
  5
2A1
  8
LAYER0001
 62
     7
 10
245.7959413673108
 20
155.5342910621955
 30
0.0
 40
4.0
  1
1
 41
0.1904761904761898
  7
FDASTYLE1
 72
     5
 11
246.5578461292155
 21
155.5342910621955
 31
0.0
  0
ENDBLK
  5
102
  8
0
  0
BLOCK
  8
0
  2
DC_GROUP_62
 70
     0
 10
0.0
 20
0.0
 30
0.0
  3
DC_GROUP_62
  1

  0
LINE
  5
2A2
  8
LAYER0001
  6
CONTINUOUS
 62
     7
 10
254.6087345556726
 20
153.3983915272979
 30
0.0
 11
252.608736148042
 21
153.9342910621955
 31
0.0
  0
LINE
  5
2A3
  8
LAYER0001
  6
CONTINUOUS
 62
     7
 10
252.608736148042
 20
153.9342910621955
 30
0.0
 11
254.6087345556726
 21
154.4701905970931
 31
0.0
  0
LINE
  5
2A4
  8
LAYER0001
  6
CONTINUOUS
 62
     7
 10
252.608736148042
 20
153.9342910621955
 30
0.0
 11
254.6087345556726
 21
153.9342910621955
 31
0.0
  0
ENDBLK
  5
105
  8
0
  0
BLOCK
  8
0
  2
DC_GROUP_63
 70
     0
 10
0.0
 20
0.0
 30
0.0
  3
DC_GROUP_63
  1

  0
LINE
  5
2A5
  8
LAYER0001
  6
CONTINUOUS
 62
     7
 10
249.6087377404113
 20
154.4701905970931
 30
0.0
 11
251.608736148042
 21
153.9342910621955
 31
0.0
  0
LINE
  5
2A6
  8
LAYER0001
  6
CONTINUOUS
 62
     7
 10
251.608736148042
 20
153.9342910621955
 30
0.0
 11
249.6087377404113
 21
153.3983915272979
 31
0.0
  0
LINE
  5
2A7
  8
LAYER0001
  6
CONTINUOUS
 62
     7
 10
251.608736148042
 20
153.9342910621955
 30
0.0
 11
249.6087377404113
 21
153.9342910621955
 31
0.0
  0
ENDBLK
  5
108
  8
0
  0
BLOCK
  8
0
  2
DC_GROUP_64
 70
     0
 10
0.0
 20
0.0
 30
0.0
  3
DC_GROUP_64
  1

  0
LINE
  5
2A8
  8
LAYER0001
  6
CONTINUOUS
 62
     7
 10
157.068736148042
 20
-34.76640779034358
 30
0.0
 11
143.7079793121045
 21
-34.76640779034358
 31
0.0
  0
LINE
  5
2A9
  8
LAYER0001
  6
CONTINUOUS
 62
     7
 10
157.068736148042
 20
-46.76640779034358
 30
0.0
 11
143.7079793121045
 21
-46.76640779034358
 31
0.0
  0
LINE
  5
2AA
  8
LAYER0001
  6
CONTINUOUS
 62
     7
 10
145.993990054292
 20
-34.76640779034358
 30
0.0
 11
145.993990054292
 21
-46.76640779034358
 31
0.0
  0
INSERT
  5
2AB
  8
LAYER0001
  6
CONTINUOUS
  2
DC_GROUP_65
 10
0.0
 20
0.0
 30
0.0
  0
INSERT
  5
2AC
  8
LAYER0001
  6
CONTINUOUS
  2
DC_GROUP_66
 10
0.0
 20
0.0
 30
0.0
  0
TEXT
  5
2AD
  8
LAYER0001
 62
     7
 10
144.3864127785905
 20
-45.10646629735151
 30
0.0
 40
4.0
  1
M12
 50
89.90000000000001
 41
0.723809523809528
  7
FDASTYLE1
 72
     5
 11
144.4015722021114
 21
-36.42076524073319
 31
0.0
  0
ENDBLK
  5
10B
  8
0
  0
BLOCK
  8
0
  2
DC_GROUP_65
 70
     0
 10
0.0
 20
0.0
 30
0.0
  3
DC_GROUP_65
  1

  0
LINE
  5
2AE
  8
LAYER0001
  6
CONTINUOUS
 62
     7
 10
145.4580905193944
 20
-36.76640619797424
 30
0.0
 11
145.993990054292
 21
-34.76640779034358
 31
0.0
  0
LINE
  5
2AF
  8
LAYER0001
  6
CONTINUOUS
 62
     7
 10
145.993990054292
 20
-34.76640779034358
 30
0.0
 11
146.5298895891896
 21
-36.76640619797424
 31
0.0
  0
LINE
  5
2B0
  8
LAYER0001
  6
CONTINUOUS
 62
     7
 10
145.993990054292
 20
-34.76640779034358
 30
0.0
 11
145.993990054292
 21
-36.76640619797424
 31
0.0
  0
ENDBLK
  5
10E
  8
0
  0
BLOCK
  8
0
  2
DC_GROUP_66
 70
     0
 10
0.0
 20
0.0
 30
0.0
  3
DC_GROUP_66
  1

  0
LINE
  5
2B1
  8
LAYER0001
  6
CONTINUOUS
 62
     7
 10
146.5298895891896
 20
-44.76640938271292
 30
0.0
 11
145.993990054292
 21
-46.76640779034358
 31
0.0
  0
LINE
  5
2B2
  8
LAYER0001
  6
CONTINUOUS
 62
     7
 10
145.993990054292
 20
-46.76640779034358
 30
0.0
 11
145.4580905193944
 21
-44.76640938271292
 31
0.0
  0
LINE
  5
2B3
  8
LAYER0001
  6
CONTINUOUS
 62
     7
 10
145.993990054292
 20
-46.76640779034358
 30
0.0
 11
145.993990054292
 21
-44.76640938271292
 31
0.0
  0
ENDBLK
  5
111
  8
0
  0
BLOCK
  8
0
  2
DC_GROUP_67
 70
     0
 10
0.0
 20
0.0
 30
0.0
  3
DC_GROUP_67
  1

  0
LINE
  5
2B4
  8
LAYER0001
  6
CONTINUOUS
 62
     7
 10
266.9483939671839
 20
117.6023972437332
 30
0.0
 11
285.952760879263
 21
144.6086158050372
 31
0.0
  0
LINE
  5
2B5
  8
LAYER0001
  6
CONTINUOUS
 62
     7
 10
285.9527608062451
 20
144.6086074684455
 30
0.0
 11
297.9673825408643
 21
144.6086074684455
 31
0.0
  0
INSERT
  5
2B6
  8
LAYER0001
  6
CONTINUOUS
  2
DC_GROUP_68
 10
0.0
 20
0.0
 30
0.0
  0
TEXT
  5
2B7
  8
LAYER0001
 62
     7
 10
287.4530964996045
 20
146.2086074684455
 30
0.0
 40
4.0
  1
M10
 41
0.723809523809526
  7
FDASTYLE1
 72
     5
 11
296.1388107853188
 21
146.2086074684455
 31
0.0
  0
ENDBLK
  5
114
  8
0
  0
BLOCK
  8
0
  2
DC_GROUP_68
 70
     0
 10
0.0
 20
0.0
 30
0.0
  3
DC_GROUP_68
  1

  0
LINE
  5
2B8
  8
LAYER0001
  6
CONTINUOUS
 62
     7
 10
268.5376416433621
 20
118.9296024900273
 30
0.0
 11
266.9483939671839
 21
117.6023972437332
 31
0.0
  0
LINE
  5
2B9
  8
LAYER0001
  6
CONTINUOUS
 62
     7
 10
266.9483939671839
 20
117.6023972437332
 30
0.0
 11
267.6611173446858
 21
119.5464155896319
 31
0.0
  0
LINE
  5
2BA
  8
LAYER0001
  6
CONTINUOUS
 62
     7
 10
266.9483939671839
 20
117.6023972437332
 30
0.0
 11
268.099379494024
 21
119.2380090398296
 31
0.0
  0
ENDBLK
  5
117
  8
0
  0
BLOCK
  8
0
  2
DC_GROUP_69
 70
     0
 10
0.0
 20
0.0
 30
0.0
  3
DC_GROUP_69
  1

  0
LINE
  5
2BB
  8
LAYER0001
  6
CONTINUOUS
 62
     7
 10
299.3742390777295
 20
-14.09140473858577
 30
0.0
 11
299.3742390777295
 21
48.65859526141423
 31
0.0
  0
LINE
  5
2BC
  8
LAYER0001
  6
CONTINUOUS
 62
     7
 10
255.148736148042
 20
-14.09140473858577
 30
0.0
 11
300.3742390777295
 21
-14.09140473858577
 31
0.0
  0
INSERT
  5
2BD
  8
LAYER0001
  6
CONTINUOUS
  2
DC_GROUP_70
 10
0.0
 20
0.0
 30
0.0
  0
TEXT
  5
2BE
  8
LAYER0001
 62
     7
 10
297.7742390777295
 20
18.62311523898381
 30
0.0
 40
4.0
  1
φ80H7
 50
90.0
 41
0.6213017751479282
  7
FDASTYLE1
 72
     5
 11
297.7742390777295
 21
31.54619216206072
 31
0.0
  0
ENDBLK
  5
11A
  8
0
  0
BLOCK
  8
0
  2
DC_GROUP_70
 70
     0
 10
0.0
 20
0.0
 30
0.0
  3
DC_GROUP_70
  1

  0
LINE
  5
2BF
  8
LAYER0001
  6
CONTINUOUS
 62
     7
 10
299.9101386126271
 20
-12.09140633095511
 30
0.0
 11
299.3742390777295
 21
-14.09140473858577
 31
0.0
  0
LINE
  5
2C0
  8
LAYER0001
  6
CONTINUOUS
 62
     7
 10
299.3742390777295
 20
-14.09140473858577
 30
0.0
 11
298.8383395428319
 21
-12.09140633095511
 31
0.0
  0
LINE
  5
2C1
  8
LAYER0001
  6
CONTINUOUS
 62
     7
 10
299.3742390777295
 20
-14.09140473858577
 30
0.0
 11
299.3742390777295
 21
-12.09140633095511
 31
0.0
  0
ENDBLK
  5
11D
  8
0
  0
BLOCK
  8
0
  2
DC_GROUP_71
 70
     0
 10
0.0
 20
0.0
 30
0.0
  3
DC_GROUP_71
  1

  0
LINE
  5
2C2
  8
LAYER0001
  6
CONTINUOUS
 62
     7
 10
312.9096394683545
 20
25.90859526141423
 30
0.0
 11
312.9096394683545
 21
68.20859831317205
 31
0.0
  0
LINE
  5
2C3
  8
LAYER0001
  6
CONTINUOUS
 62
     7
 10
301.8049545708223
 20
25.90859526141423
 30
0.0
 11
313.9096394683545
 21
25.90859526141423
 31
0.0
  0
LINE
  5
2C4
  8
LAYER0001
  6
CONTINUOUS
 62
     7
 10
254.148736148042
 20
68.20859831317205
 30
0.0
 11
313.9096394683545
 21
68.20859831317205
 31
0.0
  0
INSERT
  5
2C5
  8
LAYER0001
  6
CONTINUOUS
  2
DC_GROUP_72
 10
0.0
 20
0.0
 30
0.0
  0
INSERT
  5
2C6
  8
LAYER0001
  6
CONTINUOUS
  2
DC_GROUP_73
 10
0.0
 20
0.0
 30
0.0
  0
TEXT
  5
2C7
  8
LAYER0001
 62
     7
 10
311.3096394683545
 20
34.715739140351
 30
0.0
 40
4.0
  1
MAX 43.9
 50
90.0
 41
0.6904761904761916
  7
FDASTYLE1
 72
     5
 11
311.3096394683545
 21
56.81097723558913
 31
0.0
  0
ENDBLK
  5
120
  8
0
  0
BLOCK
  8
0
  2
DC_GROUP_72
 70
     0
 10
0.0
 20
0.0
 30
0.0
  3
DC_GROUP_72
  1

  0
LINE
  5
2C8
  8
LAYER0001
  6
CONTINUOUS
 62
     7
 10
313.4455390032521
 20
27.90859366904489
 30
0.0
 11
312.9096394683545
 21
25.90859526141423
 31
0.0
  0
LINE
  5
2C9
  8
LAYER0001
  6
CONTINUOUS
 62
     7
 10
312.9096394683545
 20
25.90859526141423
 30
0.0
 11
312.3737399334569
 21
27.90859366904489
 31
0.0
  0
LINE
  5
2CA
  8
LAYER0001
  6
CONTINUOUS
 62
     7
 10
312.9096394683545
 20
25.90859526141423
 30
0.0
 11
312.9096394683545
 21
27.90859366904489
 31
0.0
  0
ENDBLK
  5
123
  8
0
  0
BLOCK
  8
0
  2
DC_GROUP_73
 70
     0
 10
0.0
 20
0.0
 30
0.0
  3
DC_GROUP_73
  1

  0
LINE
  5
2CB
  8
LAYER0001
  6
CONTINUOUS
 62
     7
 10
312.3737399334569
 20
66.20859990554139
 30
0.0
 11
312.9096394683545
 21
68.20859831317205
 31
0.0
  0
LINE
  5
2CC
  8
LAYER0001
  6
CONTINUOUS
 62
     7
 10
312.9096394683545
 20
68.20859831317205
 30
0.0
 11
313.4455390032521
 21
66.20859990554139
 31
0.0
  0
LINE
  5
2CD
  8
LAYER0001
  6
CONTINUOUS
 62
     7
 10
312.9096394683545
 20
68.20859831317205
 30
0.0
 11
312.9096394683545
 21
66.20859990554139
 31
0.0
  0
ENDBLK
  5
126
  8
0
  0
BLOCK
  8
0
  2
DC_GROUP_74
 70
     0
 10
0.0
 20
0.0
 30
0.0
  3
DC_GROUP_74
  1

  0
LINE
  5
2CE
  8
LAYER0001
  6
CONTINUOUS
 62
     7
 10
312.9096394683545
 20
68.20859831317205
 30
0.0
 11
312.9096394683545
 21
132.7085983131721
 31
0.0
  0
LINE
  5
2CF
  8
LAYER0001
  6
CONTINUOUS
 62
     7
 10
254.148736148042
 20
68.20859831317205
 30
0.0
 11
313.9096394683545
 21
68.20859831317205
 31
0.0
  0
LINE
  5
2D0
  8
LAYER0001
  6
CONTINUOUS
 62
     7
 10
254.148736148042
 20
132.7085983131721
 30
0.0
 11
313.9096394683545
 21
132.7085983131721
 31
0.0
  0
INSERT
  5
2D1
  8
LAYER0001
  6
CONTINUOUS
  2
DC_GROUP_75
 10
0.0
 20
0.0
 30
0.0
  0
INSERT
  5
2D2
  8
LAYER0001
  6
CONTINUOUS
  2
DC_GROUP_76
 10
0.0
 20
0.0
 30
0.0
  0
TEXT
  5
2D3
  8
LAYER0001
 62
     7
 10
311.3096394683545
 20
94.5157406662299
 30
0.0
 40
4.0
  1
64.5
 50
90.0
 41
0.6000000000000014
  7
FDASTYLE1
 72
     5
 11
311.3096394683545
 21
104.1157406662299
 31
0.0
  0
ENDBLK
  5
129
  8
0
  0
BLOCK
  8
0
  2
DC_GROUP_75
 70
     0
 10
0.0
 20
0.0
 30
0.0
  3
DC_GROUP_75
  1

  0
LINE
  5
2D4
  8
LAYER0001
  6
CONTINUOUS
 62
     7
 10
313.4455390032521
 20
70.20859672080272
 30
0.0
 11
312.9096394683545
 21
68.20859831317205
 31
0.0
  0
LINE
  5
2D5
  8
LAYER0001
  6
CONTINUOUS
 62
     7
 10
312.9096394683545
 20
68.20859831317205
 30
0.0
 11
312.3737399334569
 21
70.20859672080272
 31
0.0
  0
LINE
  5
2D6
  8
LAYER0001
  6
CONTINUOUS
 62
     7
 10
312.9096394683545
 20
68.20859831317205
 30
0.0
 11
312.9096394683545
 21
70.20859672080272
 31
0.0
  0
ENDBLK
  5
12C
  8
0
  0
BLOCK
  8
0
  2
DC_GROUP_76
 70
     0
 10
0.0
 20
0.0
 30
0.0
  3
DC_GROUP_76
  1

  0
LINE
  5
2D7
  8
LAYER0001
  6
CONTINUOUS
 62
     7
 10
312.3737399334569
 20
130.7085999055414
 30
0.0
 11
312.9096394683545
 21
132.7085983131721
 31
0.0
  0
LINE
  5
2D8
  8
LAYER0001
  6
CONTINUOUS
 62
     7
 10
312.9096394683545
 20
132.7085983131721
 30
0.0
 11
313.4455390032521
 21
130.7085999055414
 31
0.0
  0
LINE
  5
2D9
  8
LAYER0001
  6
CONTINUOUS
 62
     7
 10
312.9096394683545
 20
132.7085983131721
 30
0.0
 11
312.9096394683545
 21
130.7085999055414
 31
0.0
  0
ENDBLK
  5
12F
  8
0
  0
BLOCK
  8
0
  2
DC_GROUP_77
 70
     0
 10
0.0
 20
0.0
 30
0.0
  3
DC_GROUP_77
  1

  0
LINE
  5
2DA
  8
LAYER0001
  6
CONTINUOUS
 62
     7
 10
251.6246986091758
 20
128.0113157730144
 30
0.0
 11
277.7885423363198
 21
158.8534657324541
 31
0.0
  0
LINE
  5
2DB
  8
LAYER0001
  6
CONTINUOUS
 62
     7
 10
277.78853808896
 20
158.8534805153205
 30
0.0
 11
324.4182072784131
 21
158.8534805153205
 31
0.0
  0
INSERT
  5
2DC
  8
LAYER0001
  6
CONTINUOUS
  2
DC_GROUP_78
 10
0.0
 20
0.0
 30
0.0
  0
TEXT
  5
2DD
  8
LAYER0001
 62
     7
 10
278.3083668853467
 20
160.4534805153205
 30
0.0
 40
4.0
  1
ｾﾚｰｼｮﾝP1.5山60ﾟ
 41
0.6332076968855386
  7
FDASTYLE1
 72
     5
 11
314.2745640684453
 21
160.4534805153205
 31
0.0
  0
ENDBLK
  5
132
  8
0
  0
BLOCK
  8
0
  2
DC_GROUP_78
 70
     0
 10
0.0
 20
0.0
 30
0.0
  3
DC_GROUP_78
  1

  0
LINE
  5
2DE
  8
LAYER0001
  6
CONTINUOUS
 62
     7
 10
253.3271640600408
 20
129.1897865323631
 30
0.0
 11
251.6246986091758
 21
128.0113157730144
 31
0.0
  0
LINE
  5
2DF
  8
LAYER0001
  6
CONTINUOUS
 62
     7
 10
251.6246986091758
 20
128.0113157730144
 30
0.0
 11
252.5098388054001
 21
129.8831354157836
 31
0.0
  0
LINE
  5
2E0
  8
LAYER0001
  6
CONTINUOUS
 62
     7
 10
251.6246986091758
 20
128.0113157730144
 30
0.0
 11
252.9185014327204
 21
129.5364609740734
 31
0.0
  0
ENDBLK
  5
135
  8
0
  0
BLOCK
  8
0
  2
DC_GROUP_79
 70
     0
 10
0.0
 20
0.0
 30
0.0
  3
DC_GROUP_79
  1

  0
LINE
  5
2E1
  8
0
  6
CONTINUOUS
 62
     5
 10
552.6928978754406
 20
80.65859480140134
 30
0.0
 11
554.9428997976892
 21
76.76147506243817
 31
0.0
  0
LINE
  5
2E2
  8
0
  6
CONTINUOUS
 62
     5
 10
553.7173889505789
 20
80.38409783097089
 30
0.0
 11
552.6928761803733
 21
80.6586153168433
 31
0.0
  0
LINE
  5
2E3
  8
0
  6
CONTINUOUS
 62
     5
 10
552.4184212882016
 20
79.63405521742601
 30
0.0
 11
552.6929425506185
 21
80.65858277277064
 31
0.0
  0
LINE
  5
2E4
  8
0
  6
CONTINUOUS
 62
     5
 10
554.9429776911638
 20
76.76144726556402
 30
0.0
 11
555.2174989535807
 21
77.78597482090865
 31
0.0
  0
LINE
  5
2E5
  8
0
  6
CONTINUOUS
 62
     5
 10
554.9428883023099
 20
76.7615046747534
 30
0.0
 11
553.9183607932461
 21
77.03602610989263
 31
0.0
  0
LINE
  5
2E6
  8
0
  6
CONTINUOUS
 62
     5
 10
545.82268149888
 20
77.55811497212162
 30
0.0
 11
558.8130641106316
 21
85.05811184287776
 31
0.0
  0
LINE
  5
2E7
  8
0
  6
CONTINUOUS
 62
     5
 10
551.1788216476347
 20
87.03257529835938
 30
0.0
 11
550.4121108640009
 21
86.41170539563748
 31
0.0
  0
LINE
  5
2E8
  8
0
  6
CONTINUOUS
 62
     5
 10
551.1788409671973
 20
87.03259369069347
 30
0.0
 11
550.5579805437664
 21
87.79929247688877
 31
0.0
  0
LINE
  5
2E9
  8
0
  6
CONTINUOUS
 62
     5
 10
558.8130701218357
 20
85.05811668995629
 30
0.0
 11
555.0630712096206
 21
91.55330882173836
 31
0.0
  0
LINE
  5
2EA
  8
0
  6
CONTINUOUS
 62
     5
 10
542.0726859330821
 20
84.05329940038673
 30
0.0
 11
555.0630685448336
 21
91.55329627114288
 31
0.0
  0
LINE
  5
2EB
  8
0
  6
CONTINUOUS
 62
     5
 10
545.8226812861367
 20
77.55810961855589
 30
0.0
 11
540.1976841099066
 21
87.30089575146327
 31
0.0
  0
LINE
  5
2EC
  8
0
  6
CONTINUOUS
 62
     5
 10
540.1976855871844
 20
87.30089605376557
 30
0.0
 11
542.1462429789472
 21
88.42589558437899
 31
0.0
  0
LINE
  5
2ED
  8
0
  6
CONTINUOUS
 62
     5
 10
542.70875405599
 20
87.45161350845523
 30
0.0
 11
542.1462581053791
 21
88.42588559708632
 31
0.0
  0
LINE
  5
2EE
  8
0
  6
CONTINUOUS
 62
     5
 10
542.7087429826725
 20
87.45161647554448
 30
0.0
 11
544.0077812438476
 21
88.2016161626201
 31
0.0
  0
LINE
  5
2EF
  8
0
  6
CONTINUOUS
 62
     5
 10
544.5702728607423
 20
87.22733441406552
 30
0.0
 11
544.0077730954356
 21
88.20161310994689
 31
0.0
  0
LINE
  5
2F0
  8
0
  6
CONTINUOUS
 62
     5
 10
544.5702992304429
 20
87.2273364241141
 30
0.0
 11
545.869337491618
 21
87.97733611118972
 31
0.0
  0
LINE
  5
2F1
  8
0
  6
CONTINUOUS
 62
     5
 10
546.6193061472992
 20
86.67829342383928
 30
0.0
 11
545.8693065794329
 21
87.97733147853786
 31
0.0
  0
LINE
  5
2F2
  8
0
  6
CONTINUOUS
 62
     5
 10
546.7432678048738
 20
89.46368909008857
 30
0.0
 11
547.0177890672906
 21
90.48821664543318
 31
0.0
  0
LINE
  5
2F3
  8
0
  6
CONTINUOUS
 62
     5
 10
544.4546390103014
 20
89.00839266966702
 30
0.0
 11
547.0177499787385
 21
90.48820468269328
 31
0.0
  0
LINE
  5
2F4
  8
0
  6
CONTINUOUS
 62
     5
 10
547.0177457131362
 20
90.48823405633041
 30
0.0
 11
545.9932329429306
 21
90.76275154220282
 31
0.0
  0
ARC
  5
2F5
  8
0
  6
CONTINUOUS
 62
     5
 10
550.4994262161798
 20
84.49700927734378
 30
0.0
 40
2.625001907348633
 50
75.00008446424575
 51
369.9999367173826
  0
TEXT
  5
2F6
  8
0
 62
     5
 10
552.6668544138488
 20
76.94389930954763
 30
0.0
 40
2.5
  1
F
 50
119.9999866787419
 41
0.5442179498218793
  7
FDASTYLE1
 72
     5
 11
551.9865822505182
 21
78.12216589206388
 31
0.0
  0
TEXT
  5
2F7
  8
0
 62
     5
 10
555.2816041096161
 20
87.45323664610172
 30
0.0
 40
2.5
  1
N min
 50
119.9999866787419
 41
0.6995393319099857
  7
FDASTYLE1
 72
     5
 11
550.9094850458383
 21
95.0259730673743
 31
0.0
  0
TEXT
  5
2F8
  8
0
 62
     5
 10
546.012085584243
 20
91.87519722869179
 30
0.0
 40
2.5
  1
ΣS
 50
119.9999866787419
 41
0.7846700504791676
  7
FDASTYLE1
 72
     5
 11
543.8542438143918
 21
95.61269081556048
 31
0.0
  0
ENDBLK
  5
138
  8
0
  0
BLOCK
  8
0
  2
DC_GROUP_80
 70
     0
 10
0.0
 20
0.0
 30
0.0
  3
DC_GROUP_80
  1

  0
LINE
  5
2F9
  8
0
  6
CONTINUOUS
 62
     9
 10
187.7256184722608
 20
0.9085952614142343
 30
0.0
 11
156.1920554360187
 21
0.9085952614142343
 31
0.0
  0
LINE
  5
2FA
  8
0
  6
CONTINUOUS
 62
     9
 10
187.7256184722608
 20
50.90859526141423
 30
0.0
 11
156.1920554360187
 21
50.90859526141423
 31
0.0
  0
LINE
  5
2FB
  8
0
  6
CONTINUOUS
 62
     9
 10
157.1920554360187
 20
0.9085952614142343
 30
0.0
 11
157.1920554360187
 21
50.90859526141423
 31
0.0
  0
INSERT
  5
2FC
  8
0
  6
BORDER
  2
DC_GROUP_81
 10
0.0
 20
0.0
 30
0.0
  0
INSERT
  5
2FD
  8
0
  6
BORDER
  2
DC_GROUP_82
 10
0.0
 20
0.0
 30
0.0
  0
TEXT
  5
2FE
  8
0
 62
     7
 10
156.1920554360187
 20
17.08859526141423
 30
0.0
 40
4.0
  1
φ50
 50
90.0
 41
0.6093750000000009
  7
FDASTYLE1
 72
     5
 11
156.1920554360187
 21
24.88859526141424
 31
0.0
  0
TEXT
  5
2FF
  8
0
 62
     7
 10
153.9920554360186
 20
27.68859526141425
 30
0.0
 40
2.2
  1
+0.5
 50
90.0
 41
0.657142857142855
  7
FDASTYLE1
 72
     5
 11
153.9920554360186
 21
33.47145240427138
 31
0.0
  0
TEXT
  5
300
  8
0
 62
     7
 10
156.3920554360186
 20
27.68859526141425
 30
0.0
 40
2.2
  1
 0
 50
90.0
 41
0.2666666666666696
  7
FDASTYLE1
 72
     5
 11
156.3920554360186
 21
28.8619285947476
 31
0.0
  0
ENDBLK
  5
13B
  8
0
  0
BLOCK
  8
0
  2
DC_GROUP_81
 70
     0
 10
0.0
 20
0.0
 30
0.0
  3
DC_GROUP_81
  1

  0
LINE
  5
301
  8
0
  6
CONTINUOUS
 62
     9
 10
157.7279549709163
 20
2.908593669044896
 30
0.0
 11
157.1920554360187
 21
0.9085952614142343
 31
0.0
  0
LINE
  5
302
  8
0
  6
CONTINUOUS
 62
     9
 10
157.1920554360187
 20
0.9085952614142343
 30
0.0
 11
156.6561559011211
 21
2.908593669044897
 31
0.0
  0
LINE
  5
303
  8
0
  6
CONTINUOUS
 62
     9
 10
157.1920554360187
 20
0.9085952614142343
 30
0.0
 11
157.1920554360187
 21
2.908593669044896
 31
0.0
  0
ENDBLK
  5
13E
  8
0
  0
BLOCK
  8
0
  2
DC_GROUP_82
 70
     0
 10
0.0
 20
0.0
 30
0.0
  3
DC_GROUP_82
  1

  0
LINE
  5
304
  8
0
  6
CONTINUOUS
 62
     9
 10
156.6561559011211
 20
48.90859685378356
 30
0.0
 11
157.1920554360187
 21
50.90859526141423
 31
0.0
  0
LINE
  5
305
  8
0
  6
CONTINUOUS
 62
     9
 10
157.1920554360187
 20
50.90859526141423
 30
0.0
 11
157.7279549709163
 21
48.90859685378356
 31
0.0
  0
LINE
  5
306
  8
0
  6
CONTINUOUS
 62
     9
 10
157.1920554360187
 20
50.90859526141423
 30
0.0
 11
157.1920554360187
 21
48.90859685378356
 31
0.0
  0
ENDBLK
  5
141
  8
0
  0
BLOCK
  8
0
  2
DC_GROUP_83
 70
     0
 10
0.0
 20
0.0
 30
0.0
  3
DC_GROUP_83
  1

  0
LINE
  5
307
  8
0
  6
CONTINUOUS
 62
     9
 10
218.7256184722608
 20
-5.341404738585766
 30
0.0
 11
144.8567099426744
 21
-5.341404738585766
 31
0.0
  0
LINE
  5
308
  8
0
  6
CONTINUOUS
 62
     9
 10
218.7256184722608
 20
57.15859526141423
 30
0.0
 11
144.8567099426744
 21
57.15859526141423
 31
0.0
  0
LINE
  5
309
  8
0
  6
CONTINUOUS
 62
     9
 10
145.8567099426744
 20
-5.341404738585766
 30
0.0
 11
145.8567099426744
 21
57.15859526141423
 31
0.0
  0
INSERT
  5
30A
  8
0
  6
DASHED
  2
DC_GROUP_84
 10
0.0
 20
0.0
 30
0.0
  0
INSERT
  5
30B
  8
0
  6
DASHED
  2
DC_GROUP_85
 10
0.0
 20
0.0
 30
0.0
  0
TEXT
  5
30C
  8
0
 62
     7
 10
144.8567099426744
 20
14.70859526141425
 30
0.0
 40
4.0
  1
φ62.5H7
 50
90.0
 41
0.6265432098765423
  7
FDASTYLE1
 72
     5
 11
144.8567099426744
 21
32.75303970585867
 31
0.0
  0
ENDBLK
  5
144
  8
0
  0
BLOCK
  8
0
  2
DC_GROUP_84
 70
     0
 10
0.0
 20
0.0
 30
0.0
  3
DC_GROUP_84
  1

  0
LINE
  5
30D
  8
0
  6
CONTINUOUS
 62
     9
 10
146.392609477572
 20
-3.341406330955104
 30
0.0
 11
145.8567099426744
 21
-5.341404738585766
 31
0.0
  0
LINE
  5
30E
  8
0
  6
CONTINUOUS
 62
     9
 10
145.8567099426744
 20
-5.341404738585766
 30
0.0
 11
145.3208104077768
 21
-3.341406330955104
 31
0.0
  0
LINE
  5
30F
  8
0
  6
CONTINUOUS
 62
     9
 10
145.8567099426744
 20
-5.341404738585766
 30
0.0
 11
145.8567099426744
 21
-3.341406330955104
 31
0.0
  0
ENDBLK
  5
147
  8
0
  0
BLOCK
  8
0
  2
DC_GROUP_85
 70
     0
 10
0.0
 20
0.0
 30
0.0
  3
DC_GROUP_85
  1

  0
LINE
  5
310
  8
0
  6
CONTINUOUS
 62
     9
 10
145.3208104077768
 20
55.15859685378356
 30
0.0
 11
145.8567099426744
 21
57.15859526141423
 31
0.0
  0
LINE
  5
311
  8
0
  6
CONTINUOUS
 62
     9
 10
145.8567099426744
 20
57.15859526141423
 30
0.0
 11
146.392609477572
 21
55.15859685378356
 31
0.0
  0
LINE
  5
312
  8
0
  6
CONTINUOUS
 62
     9
 10
145.8567099426744
 20
57.15859526141423
 30
0.0
 11
145.8567099426744
 21
55.15859685378356
 31
0.0
  0
ENDBLK
  5
14A
  8
0
  0
BLOCK
  8
0
  2
DC_GROUP_86
 70
     0
 10
0.0
 20
0.0
 30
0.0
  3
DC_GROUP_86
  1

  0
LINE
  5
313
  8
0
  6
CONTINUOUS
 62
     9
 10
179.8087483550733
 20
-60.32570197328661
 30
0.0
 11
179.8087483550733
 21
-106.2535902549856
 31
0.0
  0
LINE
  5
314
  8
0
  6
CONTINUOUS
 62
     9
 10
159.608736148042
 20
-47.76640779034358
 30
0.0
 11
159.608736148042
 21
-106.2535902549856
 31
0.0
  0
LINE
  5
315
  8
0
  6
CONTINUOUS
 62
     9
 10
159.608736148042
 20
-105.2535902549856
 30
0.0
 11
179.8087483550733
 21
-105.2535902549856
 31
0.0
  0
LINE
  5
316
  8
0
  6
CONTINUOUS
 62
     9
 10
142.876886148042
 20
-105.2535902549856
 30
0.0
 11
159.608736148042
 21
-105.2535902549856
 31
0.0
  0
LINE
  5
317
  8
0
  6
CONTINUOUS
 62
     9
 10
184.8087483550733
 20
-105.2535902549856
 30
0.0
 11
179.8087483550733
 21
-105.2535902549856
 31
0.0
  0
INSERT
  5
318
  8
0
  6
CONTINUOUS
  2
DC_GROUP_87
 10
0.0
 20
0.0
 30
0.0
  0
INSERT
  5
319
  8
0
  6
CONTINUOUS
  2
DC_GROUP_88
 10
0.0
 20
0.0
 30
0.0
  0
TEXT
  5
31A
  8
0
 62
     7
 10
143.876886148042
 20
-104.2535902549856
 30
0.0
 40
4.0
  1
20.2
 41
0.6095238095238109
  7
FDASTYLE1
 72
     5
 11
153.629267100423
 21
-104.2535902549856
 31
0.0
  0
ENDBLK
  5
14D
  8
0
  0
BLOCK
  8
0
  2
DC_GROUP_87
 70
     0
 10
0.0
 20
0.0
 30
0.0
  3
DC_GROUP_87
  1

  0
LINE
  5
31B
  8
0
  6
CONTINUOUS
 62
     9
 10
157.6087377404113
 20
-104.717690720088
 30
0.0
 11
159.608736148042
 21
-105.2535902549856
 31
0.0
  0
LINE
  5
31C
  8
0
  6
CONTINUOUS
 62
     9
 10
159.608736148042
 20
-105.2535902549856
 30
0.0
 11
157.6087377404113
 21
-105.7894897898832
 31
0.0
  0
LINE
  5
31D
  8
0
  6
CONTINUOUS
 62
     9
 10
159.608736148042
 20
-105.2535902549856
 30
0.0
 11
157.6087377404113
 21
-105.2535902549856
 31
0.0
  0
ENDBLK
  5
150
  8
0
  0
BLOCK
  8
0
  2
DC_GROUP_88
 70
     0
 10
0.0
 20
0.0
 30
0.0
  3
DC_GROUP_88
  1

  0
LINE
  5
31E
  8
0
  6
CONTINUOUS
 62
     9
 10
181.808746762704
 20
-105.7894897898832
 30
0.0
 11
179.8087483550733
 21
-105.2535902549856
 31
0.0
  0
LINE
  5
31F
  8
0
  6
CONTINUOUS
 62
     9
 10
179.8087483550733
 20
-105.2535902549856
 30
0.0
 11
181.808746762704
 21
-104.717690720088
 31
0.0
  0
LINE
  5
320
  8
0
  6
CONTINUOUS
 62
     9
 10
179.8087483550733
 20
-105.2535902549856
 30
0.0
 11
181.808746762704
 21
-105.2535902549856
 31
0.0
  0
ENDBLK
  5
153
  8
0
  0
BLOCK
  8
0
  2
DC_GROUP_89
 70
     0
 10
0.0
 20
0.0
 30
0.0
  3
DC_GROUP_89
  1

  0
LINE
  5
321
  8
0
  6
CONTINUOUS
 62
     7
 10
215.608736148042
 20
-81.59140473858577
 30
0.0
 11
230.5518494585857
 21
-96.63403677338283
 31
0.0
  0
LINE
  5
322
  8
0
  6
CONTINUOUS
 62
     7
 10
230.5518494585857
 20
-96.63403677338283
 30
0.0
 11
246.5518494585857
 21
-96.63403677338283
 31
0.0
  0
INSERT
  5
323
  8
0
  6
CONTINUOUS
  2
DC_GROUP_90
 10
0.0
 20
0.0
 30
0.0
  0
TEXT
  5
324
  8
0
 62
     7
 10
230.5518494585857
 20
-96.63403677338283
 30
0.0
 40
4.0
  1
M8×16
 41
0.6213017751479295
  7
FDASTYLE1
 72
     5
 11
243.4749263816626
 21
-96.63403677338283
 31
0.0
  0
ENDBLK
  5
156
  8
0
  0
BLOCK
  8
0
  2
DC_GROUP_90
 70
     0
 10
0.0
 20
0.0
 30
0.0
  3
DC_GROUP_90
  1

  0
LINE
  5
325
  8
0
  6
CONTINUOUS
 62
     7
 10
216.6380534905237
 20
-83.38798141395898
 30
0.0
 11
215.608736148042
 21
-81.59140473858577
 31
0.0
  0
LINE
  5
326
  8
0
  6
CONTINUOUS
 62
     7
 10
215.608736148042
 20
-81.59140473858577
 30
0.0
 11
217.3984409846044
 21
-82.6326244752475
 31
0.0
  0
LINE
  5
327
  8
0
  6
CONTINUOUS
 62
     7
 10
215.608736148042
 20
-81.59140473858577
 30
0.0
 11
217.018247237564
 21
-83.01030294460324
 31
0.0
  0
ENDBLK
  5
159
  8
0
  0
BLOCK
  8
0
  2
DC_GROUP_91
 70
     0
 10
0.0
 20
0.0
 30
0.0
  3
DC_GROUP_91
  1

  0
LINE
  5
328
  8
0
  6
CONTINUOUS
 62
     9
 10
215.608736148042
 20
-85.60920060643197
 30
0.0
 11
215.608736148042
 21
-93.86296096187917
 31
0.0
  0
LINE
  5
329
  8
0
  6
CONTINUOUS
 62
     9
 10
179.8087483550733
 20
-70.09140473858577
 30
0.0
 11
179.8087483550733
 21
-93.86296096187917
 31
0.0
  0
LINE
  5
32A
  8
0
  6
CONTINUOUS
 62
     9
 10
179.8087483550733
 20
-92.86296096187917
 30
0.0
 11
215.608736148042
 21
-92.86296096187917
 31
0.0
  0
INSERT
  5
32B
  8
0
  6
CONTINUOUS
  2
DC_GROUP_92
 10
0.0
 20
0.0
 30
0.0
  0
INSERT
  5
32C
  8
0
  6
CONTINUOUS
  2
DC_GROUP_93
 10
0.0
 20
0.0
 30
0.0
  0
TEXT
  5
32D
  8
0
 62
     7
 10
191.3087422515577
 20
-91.86296096187917
 30
0.0
 40
4.0
  1
35.8
 41
0.6095238095238091
  7
FDASTYLE1
 72
     5
 11
201.0611232039386
 21
-91.86296096187917
 31
0.0
  0
ENDBLK
  5
15C
  8
0
  0
BLOCK
  8
0
  2
DC_GROUP_92
 70
     0
 10
0.0
 20
0.0
 30
0.0
  3
DC_GROUP_92
  1

  0
LINE
  5
32E
  8
0
  6
CONTINUOUS
 62
     9
 10
181.808746762704
 20
-93.39886049677678
 30
0.0
 11
179.8087483550733
 21
-92.86296096187917
 31
0.0
  0
LINE
  5
32F
  8
0
  6
CONTINUOUS
 62
     9
 10
179.8087483550733
 20
-92.86296096187917
 30
0.0
 11
181.808746762704
 21
-92.32706142698154
 31
0.0
  0
LINE
  5
330
  8
0
  6
CONTINUOUS
 62
     9
 10
179.8087483550733
 20
-92.86296096187917
 30
0.0
 11
181.808746762704
 21
-92.86296096187917
 31
0.0
  0
ENDBLK
  5
15F
  8
0
  0
BLOCK
  8
0
  2
DC_GROUP_93
 70
     0
 10
0.0
 20
0.0
 30
0.0
  3
DC_GROUP_93
  1

  0
LINE
  5
331
  8
0
  6
CONTINUOUS
 62
     9
 10
213.6087377404113
 20
-92.32706142698154
 30
0.0
 11
215.608736148042
 21
-92.86296096187917
 31
0.0
  0
LINE
  5
332
  8
0
  6
CONTINUOUS
 62
     9
 10
215.608736148042
 20
-92.86296096187917
 30
0.0
 11
213.6087377404113
 21
-93.39886049677678
 31
0.0
  0
LINE
  5
333
  8
0
  6
CONTINUOUS
 62
     9
 10
215.608736148042
 20
-92.86296096187917
 30
0.0
 11
213.6087377404113
 21
-92.86296096187917
 31
0.0
  0
ENDBLK
  5
162
  8
0
  0
BLOCK
  8
0
  2
DC_GROUP_94
 70
     0
 10
0.0
 20
0.0
 30
0.0
  3
DC_GROUP_94
  1

  0
LINE
  5
334
  8
0
  6
CONTINUOUS
 62
     9
 10
252.608736148042
 20
68.20859831317205
 30
0.0
 11
287.4069258455565
 21
68.20859831317205
 31
0.0
  0
LINE
  5
335
  8
0
  6
CONTINUOUS
 62
     9
 10
278.0108204986279
 20
82.70859831317205
 30
0.0
 11
287.4069258455565
 21
82.70859831317205
 31
0.0
  0
LINE
  5
336
  8
0
  6
CONTINUOUS
 62
     9
 10
278.2834416534131
 20
112.7085983131721
 30
0.0
 11
287.4069258455565
 21
112.7085983131721
 31
0.0
  0
LINE
  5
337
  8
0
  6
CONTINUOUS
 62
     9
 10
286.4069258455565
 20
68.20859831317205
 30
0.0
 11
286.4069258455565
 21
82.70859831317205
 31
0.0
  0
LINE
  5
338
  8
0
  6
CONTINUOUS
 62
     9
 10
286.4069258455565
 20
82.70859831317205
 30
0.0
 11
286.4069258455565
 21
112.7085983131721
 31
0.0
  0
INSERT
  5
339
  8
0
  6
CONTINUOUS
  2
DC_GROUP_95
 10
0.0
 20
0.0
 30
0.0
  0
INSERT
  5
33A
  8
0
  6
CONTINUOUS
  2
DC_GROUP_96
 10
0.0
 20
0.0
 30
0.0
  0
INSERT
  5
33B
  8
0
  6
CONTINUOUS
  2
DC_GROUP_97
 10
0.0
 20
0.0
 30
0.0
  0
INSERT
  5
33C
  8
0
  6
CONTINUOUS
  2
DC_GROUP_98
 10
0.0
 20
0.0
 30
0.0
  0
TEXT
  5
33D
  8
0
 62
     7
 10
285.4069258455565
 20
72.25859831317204
 30
0.0
 40
4.0
  1
10
 50
90.0
 41
0.5904761904761955
  7
FDASTYLE1
 72
     5
 11
285.4069258455565
 21
76.98240783698161
 31
0.0
  0
TEXT
  5
33E
  8
0
 62
     7
 10
285.4069258455565
 20
94.50859831317204
 30
0.0
 40
4.0
  1
30
 50
90.0
 41
0.6476190476190453
  7
FDASTYLE1
 72
     5
 11
285.4069258455565
 21
99.68955069412441
 31
0.0
  0
ENDBLK
  5
165
  8
0
  0
BLOCK
  8
0
  2
DC_GROUP_95
 70
     0
 10
0.0
 20
0.0
 30
0.0
  3
DC_GROUP_95
  1

  0
LINE
  5
33F
  8
0
  6
CONTINUOUS
 62
     9
 10
286.9428253804542
 20
70.20859672080272
 30
0.0
 11
286.4069258455565
 21
68.20859831317205
 31
0.0
  0
LINE
  5
340
  8
0
  6
CONTINUOUS
 62
     9
 10
286.4069258455565
 20
68.20859831317205
 30
0.0
 11
285.871026310659
 21
70.20859672080272
 31
0.0
  0
LINE
  5
341
  8
0
  6
CONTINUOUS
 62
     9
 10
286.4069258455565
 20
68.20859831317205
 30
0.0
 11
286.4069258455565
 21
70.20859672080272
 31
0.0
  0
ENDBLK
  5
168
  8
0
  0
BLOCK
  8
0
  2
DC_GROUP_96
 70
     0
 10
0.0
 20
0.0
 30
0.0
  3
DC_GROUP_96
  1

  0
LINE
  5
342
  8
0
  6
CONTINUOUS
 62
     9
 10
285.871026310659
 20
80.70859990554138
 30
0.0
 11
286.4069258455565
 21
82.70859831317205
 31
0.0
  0
LINE
  5
343
  8
0
  6
CONTINUOUS
 62
     9
 10
286.4069258455565
 20
82.70859831317205
 30
0.0
 11
286.9428253804542
 21
80.70859990554138
 31
0.0
  0
LINE
  5
344
  8
0
  6
CONTINUOUS
 62
     9
 10
286.4069258455565
 20
82.70859831317205
 30
0.0
 11
286.4069258455565
 21
80.70859990554138
 31
0.0
  0
ENDBLK
  5
16B
  8
0
  0
BLOCK
  8
0
  2
DC_GROUP_97
 70
     0
 10
0.0
 20
0.0
 30
0.0
  3
DC_GROUP_97
  1

  0
LINE
  5
345
  8
0
  6
CONTINUOUS
 62
     9
 10
286.9428253804542
 20
84.7085967208027
 30
0.0
 11
286.4069258455565
 21
82.70859831317205
 31
0.0
  0
LINE
  5
346
  8
0
  6
CONTINUOUS
 62
     9
 10
286.4069258455565
 20
82.70859831317205
 30
0.0
 11
285.871026310659
 21
84.7085967208027
 31
0.0
  0
LINE
  5
347
  8
0
  6
CONTINUOUS
 62
     9
 10
286.4069258455565
 20
82.70859831317205
 30
0.0
 11
286.4069258455565
 21
84.7085967208027
 31
0.0
  0
ENDBLK
  5
16E
  8
0
  0
BLOCK
  8
0
  2
DC_GROUP_98
 70
     0
 10
0.0
 20
0.0
 30
0.0
  3
DC_GROUP_98
  1

  0
LINE
  5
348
  8
0
  6
CONTINUOUS
 62
     9
 10
285.871026310659
 20
110.7085999055414
 30
0.0
 11
286.4069258455565
 21
112.7085983131721
 31
0.0
  0
LINE
  5
349
  8
0
  6
CONTINUOUS
 62
     9
 10
286.4069258455565
 20
112.7085983131721
 30
0.0
 11
286.9428253804542
 21
110.7085999055414
 31
0.0
  0
LINE
  5
34A
  8
0
  6
CONTINUOUS
 62
     9
 10
286.4069258455565
 20
112.7085983131721
 30
0.0
 11
286.4069258455565
 21
110.7085999055414
 31
0.0
  0
ENDBLK
  5
171
  8
0
  0
BLOCK
  8
0
  2
DC_GROUP_99
 70
     0
 10
0.0
 20
0.0
 30
0.0
  3
DC_GROUP_99
  1

  0
LINE
  5
34B
  8
0
  6
CONTINUOUS
 62
     9
 10
299.3742390777295
 20
72.70859831317205
 30
0.0
 11
299.3742390777295
 21
122.7085983131721
 31
0.0
  0
LINE
  5
34C
  8
0
  6
CONTINUOUS
 62
     9
 10
254.108736148042
 20
122.7085983131721
 30
0.0
 11
300.3742390777295
 21
122.7085983131721
 31
0.0
  0
LINE
  5
34D
  8
0
  6
CONTINUOUS
 62
     9
 10
254.108736148042
 20
72.70859831317205
 30
0.0
 11
275.6749664309776
 21
72.70859831317205
 31
0.0
  0
LINE
  5
34E
  8
0
  6
CONTINUOUS
 62
     9
 10
288.5844248572105
 20
72.70859831317205
 30
0.0
 11
300.3742390777295
 21
72.70859831317205
 31
0.0
  0
INSERT
  5
34F
  8
0
  6
CONTINUOUS
  2
DC_GROUP_100
 10
0.0
 20
0.0
 30
0.0
  0
INSERT
  5
350
  8
0
  6
CONTINUOUS
  2
DC_GROUP_101
 10
0.0
 20
0.0
 30
0.0
  0
TEXT
  5
351
  8
0
 62
     7
 10
298.3742390777295
 20
94.50859831317204
 30
0.0
 40
4.0
  1
50
 50
90.0
 41
0.6476190476190453
  7
FDASTYLE1
 72
     5
 11
298.3742390777295
 21
99.68955069412441
 31
0.0
  0
ENDBLK
  5
174
  8
0
  0
BLOCK
  8
0
  2
DC_GROUP_100
 70
     0
 10
0.0
 20
0.0
 30
0.0
  3
DC_GROUP_100
  1

  0
LINE
  5
352
  8
0
  6
CONTINUOUS
 62
     9
 10
299.9101386126271
 20
74.7085967208027
 30
0.0
 11
299.3742390777295
 21
72.70859831317205
 31
0.0
  0
LINE
  5
353
  8
0
  6
CONTINUOUS
 62
     9
 10
299.3742390777295
 20
72.70859831317205
 30
0.0
 11
298.8383395428319
 21
74.7085967208027
 31
0.0
  0
LINE
  5
354
  8
0
  6
CONTINUOUS
 62
     9
 10
299.3742390777295
 20
72.70859831317205
 30
0.0
 11
299.3742390777295
 21
74.7085967208027
 31
0.0
  0
ENDBLK
  5
177
  8
0
  0
BLOCK
  8
0
  2
DC_GROUP_101
 70
     0
 10
0.0
 20
0.0
 30
0.0
  3
DC_GROUP_101
  1

  0
LINE
  5
355
  8
0
  6
CONTINUOUS
 62
     9
 10
298.8383395428319
 20
120.7085999055414
 30
0.0
 11
299.3742390777295
 21
122.7085983131721
 31
0.0
  0
LINE
  5
356
  8
0
  6
CONTINUOUS
 62
     9
 10
299.3742390777295
 20
122.7085983131721
 30
0.0
 11
299.9101386126271
 21
120.7085999055414
 31
0.0
  0
LINE
  5
357
  8
0
  6
CONTINUOUS
 62
     9
 10
299.3742390777295
 20
122.7085983131721
 30
0.0
 11
299.3742390777295
 21
120.7085999055414
 31
0.0
  0
ENDBLK
  5
17A
  8
0
  0
BLOCK
  8
0
  2
DC_GROUP_102
 70
     0
 10
0.0
 20
0.0
 30
0.0
  3
DC_GROUP_102
  1

  0
LINE
  5
358
  8
0
  6
CONTINUOUS
 62
     9
 10
286.2316959680408
 20
-6.591404738585766
 30
0.0
 11
286.2316959680408
 21
58.40859526141423
 31
0.0
  0
LINE
  5
359
  8
0
  6
CONTINUOUS
 62
     9
 10
239.7256184722608
 20
-6.591404738585766
 30
0.0
 11
287.2316959680408
 21
-6.591404738585766
 31
0.0
  0
LINE
  5
35A
  8
0
  6
CONTINUOUS
 62
     9
 10
239.7256184722608
 20
58.40859526141423
 30
0.0
 11
287.2316959680408
 21
58.40859526141423
 31
0.0
  0
INSERT
  5
35B
  8
0
  6
ACAD_ISO14W100
  2
DC_GROUP_103
 10
0.0
 20
0.0
 30
0.0
  0
INSERT
  5
35C
  8
0
  6
ACAD_ISO14W100
  2
DC_GROUP_104
 10
0.0
 20
0.0
 30
0.0
  0
TEXT
  5
35D
  8
0
 62
     7
 10
285.2316959680408
 20
11.50859526141423
 30
0.0
 40
4.0
  1
M65×P1.25
 50
90.0
 41
0.6294896030245745
  7
FDASTYLE1
 72
     5
 11
285.2316959680408
 21
34.67381265271857
 31
0.0
  0
ENDBLK
  5
17D
  8
0
  0
BLOCK
  8
0
  2
DC_GROUP_103
 70
     0
 10
0.0
 20
0.0
 30
0.0
  3
DC_GROUP_103
  1

  0
LINE
  5
35E
  8
0
  6
CONTINUOUS
 62
     9
 10
286.7675955029384
 20
-4.591406330955104
 30
0.0
 11
286.2316959680408
 21
-6.591404738585766
 31
0.0
  0
LINE
  5
35F
  8
0
  6
CONTINUOUS
 62
     9
 10
286.2316959680408
 20
-6.591404738585766
 30
0.0
 11
285.6957964331432
 21
-4.591406330955103
 31
0.0
  0
LINE
  5
360
  8
0
  6
CONTINUOUS
 62
     9
 10
286.2316959680408
 20
-6.591404738585766
 30
0.0
 11
286.2316959680408
 21
-4.591406330955103
 31
0.0
  0
ENDBLK
  5
180
  8
0
  0
BLOCK
  8
0
  2
DC_GROUP_104
 70
     0
 10
0.0
 20
0.0
 30
0.0
  3
DC_GROUP_104
  1

  0
LINE
  5
361
  8
0
  6
CONTINUOUS
 62
     9
 10
285.6957964331432
 20
56.40859685378356
 30
0.0
 11
286.2316959680408
 21
58.40859526141423
 31
0.0
  0
LINE
  5
362
  8
0
  6
CONTINUOUS
 62
     9
 10
286.2316959680408
 20
58.40859526141423
 30
0.0
 11
286.7675955029384
 21
56.40859685378356
 31
0.0
  0
LINE
  5
363
  8
0
  6
CONTINUOUS
 62
     9
 10
286.2316959680408
 20
58.40859526141423
 30
0.0
 11
286.2316959680408
 21
56.40859685378356
 31
0.0
  0
ENDBLK
  5
183
  8
0
  0
BLOCK
  8
0
  2
DC_GROUP_105
 70
     0
 10
0.0
 20
0.0
 30
0.0
  3
DC_GROUP_105
  1

  0
LINE
  5
364
  8
0
  6
CONTINUOUS
 62
     9
 10
458.0212462845392
 20
31.90855407714847
 30
0.0
 11
458.0212462845392
 21
37.43371286480829
 31
0.0
  0
LINE
  5
365
  8
0
  6
CONTINUOUS
 62
     9
 10
512.0212462845392
 20
31.90855407714847
 30
0.0
 11
512.0212462845392
 21
37.43371286480829
 31
0.0
  0
LINE
  5
366
  8
0
  6
CONTINUOUS
 62
     9
 10
458.0212462845392
 20
36.43371286480829
 30
0.0
 11
512.0212462845392
 21
36.43371286480829
 31
0.0
  0
INSERT
  5
367
  8
0
  6
CONTINUOUS
  2
DC_GROUP_106
 10
0.0
 20
0.0
 30
0.0
  0
INSERT
  5
368
  8
0
  6
CONTINUOUS
  2
DC_GROUP_107
 10
0.0
 20
0.0
 30
0.0
  0
TEXT
  5
369
  8
0
 62
     7
 10
477.0212462845392
 20
37.43371286480829
 30
0.0
 40
4.0
  1
PCD54
 41
0.7390476190476193
  7
FDASTYLE1
 72
     5
 11
491.8021986654916
 21
37.43371286480829
 31
0.0
  0
ENDBLK
  5
186
  8
0
  0
BLOCK
  8
0
  2
DC_GROUP_106
 70
     0
 10
0.0
 20
0.0
 30
0.0
  3
DC_GROUP_106
  1

  0
LINE
  5
36A
  8
0
  6
CONTINUOUS
 62
     9
 10
460.0212446921698
 20
35.89781332991068
 30
0.0
 11
458.0212462845392
 21
36.43371286480829
 31
0.0
  0
LINE
  5
36B
  8
0
  6
CONTINUOUS
 62
     9
 10
458.0212462845392
 20
36.43371286480829
 30
0.0
 11
460.0212446921698
 21
36.96961239970591
 31
0.0
  0
LINE
  5
36C
  8
0
  6
CONTINUOUS
 62
     9
 10
458.0212462845392
 20
36.43371286480829
 30
0.0
 11
460.0212446921698
 21
36.43371286480829
 31
0.0
  0
ENDBLK
  5
189
  8
0
  0
BLOCK
  8
0
  2
DC_GROUP_107
 70
     0
 10
0.0
 20
0.0
 30
0.0
  3
DC_GROUP_107
  1

  0
LINE
  5
36D
  8
0
  6
CONTINUOUS
 62
     9
 10
510.0212478769086
 20
36.96961239970591
 30
0.0
 11
512.0212462845392
 21
36.43371286480829
 31
0.0
  0
LINE
  5
36E
  8
0
  6
CONTINUOUS
 62
     9
 10
512.0212462845392
 20
36.43371286480829
 30
0.0
 11
510.0212478769086
 21
35.89781332991068
 31
0.0
  0
LINE
  5
36F
  8
0
  6
CONTINUOUS
 62
     9
 10
512.0212462845392
 20
36.43371286480829
 30
0.0
 11
510.0212478769086
 21
36.43371286480829
 31
0.0
  0
ENDBLK
  5
18C
  8
0
  0
BLOCK
  8
0
  2
DC_GROUP_108
 70
     0
 10
0.0
 20
0.0
 30
0.0
  3
DC_GROUP_108
  1

  0
LINE
  5
370
  8
0
  6
CONTINUOUS
 62
     7
 10
456.7108763214729
 20
28.2119061040635
 30
0.0
 11
407.8562571141457
 21
130.2434236356498
 31
0.0
  0
LINE
  5
371
  8
0
  6
CONTINUOUS
 62
     7
 10
407.8562571141457
 20
130.2434236356498
 30
0.0
 11
388.6562571141457
 21
130.2434236356498
 31
0.0
  0
INSERT
  5
372
  8
0
  6
ACAD_ISO13W100
  2
DC_GROUP_109
 10
0.0
 20
0.0
 30
0.0
  0
TEXT
  5
373
  8
0
 62
     7
 10
388.6562571141457
 20
130.2434236356498
 30
0.0
 40
4.0
  1
２-φ5.3
 41
0.6093750000000009
  7
FDASTYLE1
 72
     5
 11
404.2562571141457
 21
130.2434236356498
 31
0.0
  0
ENDBLK
  5
18F
  8
0
  0
BLOCK
  8
0
  2
DC_GROUP_109
 70
     0
 10
0.0
 20
0.0
 30
0.0
  3
DC_GROUP_109
  1

  0
LINE
  5
374
  8
0
  6
CONTINUOUS
 62
     7
 10
456.3304951432639
 20
30.24721740735178
 30
0.0
 11
456.7108763214729
 21
28.2119061040635
 31
0.0
  0
LINE
  5
375
  8
0
  6
CONTINUOUS
 62
     7
 10
456.7108763214729
 20
28.2119061040635
 30
0.0
 11
455.3637985931767
 21
29.78434482654431
 31
0.0
  0
LINE
  5
376
  8
0
  6
CONTINUOUS
 62
     7
 10
456.7108763214729
 20
28.2119061040635
 30
0.0
 11
455.8471468682203
 21
30.01578111694805
 31
0.0
  0
ENDBLK
  5
192
  8
0
  0
BLOCK
  8
0
  2
DC_GROUP_110
 70
     0
 10
0.0
 20
0.0
 30
0.0
  3
DC_GROUP_110
  1

  0
LINE
  5
377
  8
0
  6
CONTINUOUS
 62
     7
 10
122.7238429330471
 20
-59.09140473858577
 30
0.0
 11
122.7238429330471
 21
110.9085952614143
 31
0.0
  0
LINE
  5
378
  8
0
  6
CONTINUOUS
 62
     7
 10
174.608736148042
 20
-59.09140473858577
 30
0.0
 11
121.7238429330471
 21
-59.09140473858577
 31
0.0
  0
LINE
  5
379
  8
0
  6
CONTINUOUS
 62
     7
 10
174.608736148042
 20
110.9085952614143
 30
0.0
 11
121.7238429330471
 21
110.9085952614143
 31
0.0
  0
INSERT
  5
37A
  8
0
  6
CONTINUOUS
  2
DC_GROUP_111
 10
0.0
 20
0.0
 30
0.0
  0
INSERT
  5
37B
  8
0
  6
CONTINUOUS
  2
DC_GROUP_112
 10
0.0
 20
0.0
 30
0.0
  0
TEXT
  5
37C
  8
0
 62
     7
 10
122.2238429330471
 20
16.30859526141425
 30
0.0
 40
4.0
  1
φ170H7
 50
90.0
 41
0.6243496357960452
  7
FDASTYLE1
 72
     5
 11
122.2238429330471
 21
31.79246622915617
 31
0.0
  0
ENDBLK
  5
195
  8
0
  0
BLOCK
  8
0
  2
DC_GROUP_111
 70
     0
 10
0.0
 20
0.0
 30
0.0
  3
DC_GROUP_111
  1

  0
LINE
  5
37D
  8
0
  6
CONTINUOUS
 62
     7
 10
123.2597424679447
 20
-57.09140633095511
 30
0.0
 11
122.7238429330471
 21
-59.09140473858577
 31
0.0
  0
LINE
  5
37E
  8
0
  6
CONTINUOUS
 62
     7
 10
122.7238429330471
 20
-59.09140473858577
 30
0.0
 11
122.1879433981495
 21
-57.09140633095511
 31
0.0
  0
LINE
  5
37F
  8
0
  6
CONTINUOUS
 62
     7
 10
122.7238429330471
 20
-59.09140473858577
 30
0.0
 11
122.7238429330471
 21
-57.09140633095511
 31
0.0
  0
ENDBLK
  5
198
  8
0
  0
BLOCK
  8
0
  2
DC_GROUP_112
 70
     0
 10
0.0
 20
0.0
 30
0.0
  3
DC_GROUP_112
  1

  0
LINE
  5
380
  8
0
  6
CONTINUOUS
 62
     7
 10
122.1879433981495
 20
108.9085968537836
 30
0.0
 11
122.7238429330471
 21
110.9085952614143
 31
0.0
  0
LINE
  5
381
  8
0
  6
CONTINUOUS
 62
     7
 10
122.7238429330471
 20
110.9085952614143
 30
0.0
 11
123.2597424679447
 21
108.9085968537836
 31
0.0
  0
LINE
  5
382
  8
0
  6
CONTINUOUS
 62
     7
 10
122.7238429330471
 20
110.9085952614143
 30
0.0
 11
122.7238429330471
 21
108.9085968537836
 31
0.0
  0
ENDBLK
  5
19B
  8
0
  0
BLOCK
  8
0
  2
DC_GROUP_113
 70
     0
 10
0.0
 20
0.0
 30
0.0
  3
DC_GROUP_113
  1

  0
LINE
  5
383
  8
0
  6
CONTINUOUS
 62
     7
 10
341.2960804087927
 20
-36.28660631019413
 30
0.0
 11
359.2960763657902
 21
-67.46351310849234
 31
0.0
  0
LINE
  5
384
  8
0
  6
CONTINUOUS
 62
     7
 10
382.7400350234508
 20
-12.35892720791735
 30
0.0
 11
340.4300550117874
 21
-36.7866063219361
 31
0.0
  0
LINE
  5
385
  8
0
  6
CONTINUOUS
 62
     7
 10
400.7400244021962
 20
-43.53582679208835
 30
0.0
 11
358.4300510684263
 21
-67.96351329281815
 31
0.0
  0
INSERT
  5
386
  8
0
  6
DASHDOT2
  2
DC_GROUP_114
 10
0.0
 20
0.0
 30
0.0
  0
INSERT
  5
387
  8
0
  6
DOT2
  2
DC_GROUP_115
 10
0.0
 20
0.0
 30
0.0
  0
TEXT
  5
388
  8
0
 62
     7
 10
349.1290910583306
 20
-48.85377842915019
 30
0.0
 40
4.0
  1
36
 50
-59.99999941490185
 41
0.6476190476190457
  7
FDASTYLE1
 72
     5
 11
351.7195672946259
 21
-53.34061478039875
 31
0.0
  0
ENDBLK
  5
19E
  8
0
  0
BLOCK
  8
0
  2
DC_GROUP_114
 70
     0
 10
0.0
 20
0.0
 30
0.0
  3
DC_GROUP_114
  1

  0
LINE
  5
389
  8
0
  6
CONTINUOUS
 62
     7
 10
341.8319770219342
 20
-38.286605500707
 30
0.0
 11
341.2960804087927
 21
-36.28660631019413
 31
0.0
  0
LINE
  5
38A
  8
0
  6
CONTINUOUS
 62
     7
 10
341.2960804087927
 20
-36.28660631019413
 30
0.0
 11
342.7601822386568
 21
-37.75070595633066
 31
0.0
  0
LINE
  5
38B
  8
0
  6
CONTINUOUS
 62
     7
 10
341.2960804087927
 20
-36.28660631019413
 30
0.0
 11
342.2960796302955
 21
-38.01865572851883
 31
0.0
  0
ENDBLK
  5
1A1
  8
0
  0
BLOCK
  8
0
  2
DC_GROUP_115
 70
     0
 10
0.0
 20
0.0
 30
0.0
  3
DC_GROUP_115
  1

  0
LINE
  5
38C
  8
0
  6
CONTINUOUS
 62
     7
 10
358.7601797526487
 20
-65.46351391797947
 30
0.0
 11
359.2960763657902
 21
-67.46351310849234
 31
0.0
  0
LINE
  5
38D
  8
0
  6
CONTINUOUS
 62
     7
 10
359.2960763657902
 20
-67.46351310849234
 30
0.0
 11
357.8319745359261
 21
-65.9994134623558
 31
0.0
  0
LINE
  5
38E
  8
0
  6
CONTINUOUS
 62
     7
 10
359.2960763657902
 20
-67.46351310849234
 30
0.0
 11
358.2960771442874
 21
-65.73146369016763
 31
0.0
  0
ENDBLK
  5
1A4
  8
0
  0
BLOCK
  8
0
  2
DC_GROUP_116
 70
     0
 10
0.0
 20
0.0
 30
0.0
  3
DC_GROUP_116
  1

  0
LINE
  5
38F
  8
0
  6
CONTINUOUS
 62
     7
 10
508.7603143741944
 20
-46.56839332493885
 30
0.0
 11
538.8461407241864
 21
-85.47247912234236
 31
0.0
  0
LINE
  5
390
  8
0
  6
CONTINUOUS
 62
     7
 10
538.8461407241864
 20
-85.47247912234236
 30
0.0
 11
567.6461407241864
 21
-85.47247912234236
 31
0.0
  0
INSERT
  5
391
  8
0
  6
CONTINUOUS
  2
DC_GROUP_117
 10
0.0
 20
0.0
 30
0.0
  0
TEXT
  5
392
  8
0
 62
     7
 10
538.8461407241864
 20
-84.97247912234236
 30
0.0
 40
4.0
  1
PCD133.35
 41
0.7026455026455033
  7
FDASTYLE1
 72
     5
 11
564.1413788194245
 21
-84.97247912234236
 31
0.0
  0
ENDBLK
  5
1A7
  8
0
  0
BLOCK
  8
0
  2
DC_GROUP_117
 70
     0
 10
0.0
 20
0.0
 30
0.0
  3
DC_GROUP_117
  1

  0
LINE
  5
393
  8
0
  6
CONTINUOUS
 62
     7
 10
509.559883755895
 20
-48.47833330982726
 30
0.0
 11
508.7603143741944
 21
-46.56839332493885
 31
0.0
  0
LINE
  5
394
  8
0
  6
CONTINUOUS
 62
     7
 10
508.7603143741944
 20
-46.56839332493885
 30
0.0
 11
510.4077336084256
 21
-47.82266275720362
 31
0.0
  0
LINE
  5
395
  8
0
  6
CONTINUOUS
 62
     7
 10
508.7603143741944
 20
-46.56839332493885
 30
0.0
 11
509.9838086821603
 21
-48.15049803351545
 31
0.0
  0
ENDBLK
  5
1AA
  8
0
  0
ENDSEC
  0
SECTION
  2
ENTITIES
  0
LINE
  5
396
  8
LAYER0002
  6
CONTINUOUS
 62
     3
 10
79.57239374547669
 20
-190.0
 30
0.0
 11
79.57239374547669
 21
190.0
 31
0.0
  0
LINE
  5
397
  8
LAYER0002
  6
CONTINUOUS
 62
     3
 10
633.5723937454767
 20
-190.0
 30
0.0
 11
633.5723937454767
 21
190.0
 31
0.0
  0
LINE
  5
398
  8
LAYER0002
  6
CONTINUOUS
 62
     3
 10
79.57239374547669
 20
-190.0
 30
0.0
 11
633.5723937454767
 21
-190.0
 31
0.0
  0
LINE
  5
399
  8
LAYER0002
  6
CONTINUOUS
 62
     3
 10
79.57239374547669
 20
189.9999999999999
 30
0.0
 11
633.5723937454767
 21
189.9999999999999
 31
0.0
  0
LINE
  5
39A
  8
LAYER0002
  6
CONTINUOUS
 62
     3
 10
453.5723937454767
 20
-190.0
 30
0.0
 11
453.5723937454767
 21
-130.0
 31
0.0
  0
LINE
  5
39B
  8
LAYER0002
  6
CONTINUOUS
 62
     3
 10
453.5723937454767
 20
-176.0
 30
0.0
 11
633.5723937454767
 21
-176.0
 31
0.0
  0
LINE
  5
39C
  8
LAYER0002
  6
CONTINUOUS
 62
     3
 10
502.5723937454767
 20
-162.0
 30
0.0
 11
633.5723937454767
 21
-162.0
 31
0.0
  0
LINE
  5
39D
  8
LAYER0002
  6
CONTINUOUS
 62
     3
 10
502.5723937454767
 20
-148.0
 30
0.0
 11
633.5723937454767
 21
-148.0
 31
0.0
  0
LINE
  5
39E
  8
LAYER0002
  6
CONTINUOUS
 62
     3
 10
502.5723937454767
 20
-138.0
 30
0.0
 11
633.5723937454767
 21
-138.0
 31
0.0
  0
LINE
  5
39F
  8
LAYER0002
  6
CONTINUOUS
 62
     3
 10
502.5723937454767
 20
-176.0
 30
0.0
 11
502.5723937454767
 21
-130.0
 31
0.0
  0
LINE
  5
3A0
  8
LAYER0002
  6
CONTINUOUS
 62
     3
 10
611.5723937454767
 20
-176.0
 30
0.0
 11
611.5723937454767
 21
-130.0
 31
0.0
  0
LINE
  5
3A1
  8
LAYER0002
  6
CONTINUOUS
 62
     3
 10
527.5723937454767
 20
-190.0
 30
0.0
 11
527.5723937454767
 21
-176.0
 31
0.0
  0
LINE
  5
3A2
  8
LAYER0002
  6
CONTINUOUS
 62
     3
 10
618.5723937454767
 20
-188.0
 30
0.0
 11
628.5723937454767
 21
-188.0
 31
0.0
  0
LINE
  5
3A3
  8
LAYER0002
  6
CONTINUOUS
 62
     3
 10
623.5723937454767
 20
-178.0
 30
0.0
 11
618.5723937454767
 21
-188.0
 31
0.0
  0
LINE
  5
3A4
  8
LAYER0002
  6
CONTINUOUS
 62
     3
 10
623.5723937454767
 20
-178.0
 30
0.0
 11
628.5723937454767
 21
-188.0
 31
0.0
  0
LINE
  5
3A5
  8
LAYER0002
  6
CONTINUOUS
 62
     3
 10
453.5723937454767
 20
-130.0
 30
0.0
 11
633.5723937454767
 21
-130.0
 31
0.0
  0
LINE
  5
3A6
  8
LAYER0002
  6
CONTINUOUS
 62
     3
 10
582.5723937454767
 20
-176.0
 30
0.0
 11
582.5723937454767
 21
-148.0
 31
0.0
  0
LINE
  5
3A7
  8
LAYER0002
  6
CONTINUOUS
 62
     4
 10
461.5723937454767
 20
-172.0
 30
0.0
 11
461.5723937454767
 21
-130.0
 31
0.0
  0
LINE
  5
3A8
  8
LAYER0002
  6
CONTINUOUS
 62
     4
 10
465.5723937454767
 20
-172.0
 30
0.0
 11
465.5723937454767
 21
-130.0
 31
0.0
  0
LINE
  5
3A9
  8
LAYER0002
  6
CONTINUOUS
 62
     4
 10
478.0723937454767
 20
-176.0
 30
0.0
 11
478.0723937454767
 21
-130.0
 31
0.0
  0
LINE
  5
3AA
  8
LAYER0002
  6
CONTINUOUS
 62
     4
 10
453.5723937454767
 20
-137.0
 30
0.0
 11
502.5723937454767
 21
-137.0
 31
0.0
  0
LINE
  5
3AB
  8
LAYER0002
  6
CONTINUOUS
 62
     4
 10
453.5723937454767
 20
-144.0
 30
0.0
 11
502.5723937454767
 21
-144.0
 31
0.0
  0
LINE
  5
3AC
  8
LAYER0002
  6
CONTINUOUS
 62
     4
 10
453.5723937454767
 20
-165.0
 30
0.0
 11
502.5723937454767
 21
-165.0
 31
0.0
  0
LINE
  5
3AD
  8
LAYER0002
  6
CONTINUOUS
 62
     4
 10
453.5723937454767
 20
-172.0
 30
0.0
 11
502.5723937454767
 21
-172.0
 31
0.0
  0
LINE
  5
3AE
  8
LAYER0002
  6
CONTINUOUS
 62
     4
 10
611.5723937454767
 20
-166.0
 30
0.0
 11
633.5723937454767
 21
-166.0
 31
0.0
  0
LINE
  5
3AF
  8
LAYER0002
  6
CONTINUOUS
 62
     4
 10
509.5723937454767
 20
-139.5
 30
0.0
 11
509.5723937454767
 21
-130.0
 31
0.0
  0
LINE
  5
3B0
  8
LAYER0002
  6
CONTINUOUS
 62
     4
 10
558.5723937454767
 20
-148.0
 30
0.0
 11
558.5723937454767
 21
-146.5
 31
0.0
  0
LINE
  5
3B1
  8
LAYER0002
  6
CONTINUOUS
 62
     4
 10
582.5723937454767
 20
-148.0
 30
0.0
 11
582.5723937454767
 21
-146.5
 31
0.0
  0
LINE
  5
3B2
  8
LAYER0002
  6
CONTINUOUS
 62
     4
 10
599.5723937454767
 20
-148.0
 30
0.0
 11
599.5723937454767
 21
-146.5
 31
0.0
  0
LINE
  5
3B3
  8
LAYER0002
  6
CONTINUOUS
 62
     4
 10
558.5723937454767
 20
-139.5
 30
0.0
 11
558.5723937454767
 21
-130.0
 31
0.0
  0
LINE
  5
3B4
  8
LAYER0002
  6
CONTINUOUS
 62
     4
 10
582.5723937454767
 20
-139.5
 30
0.0
 11
582.5723937454767
 21
-130.0
 31
0.0
  0
LINE
  5
3B5
  8
LAYER0002
  6
CONTINUOUS
 62
     4
 10
599.5723937454767
 20
-139.5
 30
0.0
 11
599.5723937454767
 21
-130.0
 31
0.0
  0
LINE
  5
3B6
  8
LAYER0002
  6
CONTINUOUS
 62
     4
 10
453.5723937454767
 20
-151.0
 30
0.0
 11
502.5723937454767
 21
-151.0
 31
0.0
  0
LINE
  5
3B7
  8
LAYER0002
  6
CONTINUOUS
 62
     4
 10
453.5723937454767
 20
-158.0
 30
0.0
 11
502.5723937454767
 21
-158.0
 31
0.0
  0
LINE
  5
3B8
  8
LAYER0002
  6
CONTINUOUS
 62
     4
 10
457.5723937454767
 20
-130.5
 30
0.0
 11
454.5723937454767
 21
-136.5
 31
0.0
  0
LINE
  5
3B9
  8
LAYER0002
  6
CONTINUOUS
 62
     4
 10
457.5723937454767
 20
-130.5
 30
0.0
 11
460.5723937454767
 21
-136.5
 31
0.0
  0
LINE
  5
3BA
  8
LAYER0002
  6
CONTINUOUS
 62
     4
 10
454.5723937454767
 20
-136.5
 30
0.0
 11
460.5723937454767
 21
-136.5
 31
0.0
  0
LINE
  5
3BB
  8
LAYER0002
  6
CONTINUOUS
 62
     4
 10
457.5723937454767
 20
-158.5
 30
0.0
 11
454.5723937454767
 21
-164.5
 31
0.0
  0
LINE
  5
3BC
  8
LAYER0002
  6
CONTINUOUS
 62
     4
 10
457.5723937454767
 20
-158.5
 30
0.0
 11
460.5723937454767
 21
-164.5
 31
0.0
  0
LINE
  5
3BD
  8
LAYER0002
  6
CONTINUOUS
 62
     4
 10
454.5723937454767
 20
-164.5
 30
0.0
 11
460.5723937454767
 21
-164.5
 31
0.0
  0
LINE
  5
3BE
  8
LAYER0002
  6
CONTINUOUS
 62
     4
 10
457.5723937454767
 20
-151.5
 30
0.0
 11
454.5723937454767
 21
-157.5
 31
0.0
  0
LINE
  5
3BF
  8
LAYER0002
  6
CONTINUOUS
 62
     4
 10
457.5723937454767
 20
-151.5
 30
0.0
 11
460.5723937454767
 21
-157.5
 31
0.0
  0
LINE
  5
3C0
  8
LAYER0002
  6
CONTINUOUS
 62
     4
 10
454.5723937454767
 20
-157.5
 30
0.0
 11
460.5723937454767
 21
-157.5
 31
0.0
  0
LINE
  5
3C1
  8
LAYER0002
  6
CONTINUOUS
 62
     4
 10
457.5723937454767
 20
-144.5
 30
0.0
 11
454.5723937454767
 21
-150.5
 31
0.0
  0
LINE
  5
3C2
  8
LAYER0002
  6
CONTINUOUS
 62
     4
 10
457.5723937454767
 20
-144.5
 30
0.0
 11
460.5723937454767
 21
-150.5
 31
0.0
  0
LINE
  5
3C3
  8
LAYER0002
  6
CONTINUOUS
 62
     4
 10
454.5723937454767
 20
-150.5
 30
0.0
 11
460.5723937454767
 21
-150.5
 31
0.0
  0
LINE
  5
3C4
  8
LAYER0002
  6
CONTINUOUS
 62
     4
 10
457.5723937454767
 20
-137.5
 30
0.0
 11
454.5723937454767
 21
-143.5
 31
0.0
  0
LINE
  5
3C5
  8
LAYER0002
  6
CONTINUOUS
 62
     4
 10
457.5723937454767
 20
-137.5
 30
0.0
 11
460.5723937454767
 21
-143.5
 31
0.0
  0
LINE
  5
3C6
  8
LAYER0002
  6
CONTINUOUS
 62
     4
 10
454.5723937454767
 20
-143.5
 30
0.0
 11
460.5723937454767
 21
-143.5
 31
0.0
  0
LINE
  5
3C7
  8
LAYER0002
  6
CONTINUOUS
 62
     4
 10
529.2390604121433
 20
-176.0
 30
0.0
 11
529.2390604121433
 21
-162.0
 31
0.0
  0
LINE
  5
3C8
  8
LAYER0002
  6
CONTINUOUS
 62
     4
 10
555.90572707881
 20
-176.0
 30
0.0
 11
555.90572707881
 21
-161.9509415757253
 31
0.0
  0
LINE
  5
3C9
  8
LAYER0002
  6
CONTINUOUS
 62
     4
 10
569.2390604121433
 20
-167.5
 30
0.0
 11
569.2390604121433
 21
-161.9509415757253
 31
0.0
  0
LINE
  5
3CA
  8
LAYER0002
  6
CONTINUOUS
 62
     4
 10
582.5723937454767
 20
-155.0
 30
0.0
 11
611.5723937454767
 21
-155.0
 31
0.0
  0
LINE
  5
3CB
  8
LAYER0002
  6
CONTINUOUS
 62
     4
 10
502.5723937454767
 20
-166.0
 30
0.0
 11
582.5723937454767
 21
-166.0
 31
0.0
  0
TEXT
  5
3CD
  8
LAYER0002
 62
     7
 10
503.5661518929514
 20
-130.821188728956
 30
0.0
 40
2.44248928
  1
符号
 41
0.8
  7
FDASTYLE0
  0
TEXT
  5
3CE
  8
LAYER0002
 62
     7
 10
518.9865248673825
 20
-135.8245525019963
 30
0.0
 40
4.0
  1
品       名
 41
0.6192847442281572
  7
FDASTYLE1
 72
     5
 11
542.2716312503612
 21
-135.8245525019963
 31
0.0
  0
TEXT
  5
3CF
  8
LAYER0002
 62
     7
 10
563.8055501867863
 20
-135.8245525019963
 30
0.0
 40
4.0
  1
材  料
 41
0.5950413223140509
  7
FDASTYLE1
 72
     5
 11
574.2782774595136
 21
-135.8245525019963
 31
0.0
  0
TEXT
  5
3D0
  8
LAYER0002
 62
     7
 10
586.0884554303317
 20
-135.8245525019963
 30
0.0
 40
4.0
  1
個 数
 41
0.5813148788927315
  7
FDASTYLE1
 72
     5
 11
593.9943377832728
 21
-135.8245525019963
 31
0.0
  0
TEXT
  5
3D1
  8
LAYER0002
 62
     7
 10
602.2942046983646
 20
-133.5649080050572
 30
0.0
 40
2.5
  1
単重量
 41
0.6666666666666666
  7
FDASTYLE1
 72
     5
 11
608.2942046983646
 21
-133.5649080050572
 31
0.0
  0
TEXT
  5
3D2
  8
LAYER0002
 62
     7
 10
601.2813453691126
 20
-137.3631304897525
 30
0.0
 40
2.5
  1
(kg)
 41
0.5333333333333371
  7
FDASTYLE1
 72
     5
 11
606.614678702446
 21
-137.3631304897525
 31
0.0
  0
TEXT
  5
3D3
  8
LAYER0002
 62
     7
 10
615.7145908109544
 20
-135.8245525019963
 30
0.0
 40
4.0
  1
記  事
 41
0.5950413223140509
  7
FDASTYLE1
 72
     5
 11
626.1873180836817
 21
-135.8245525019963
 31
0.0
  0
TEXT
  5
3D4
  8
LAYER0002
 62
     7
 10
615.4174732006412
 20
-165.4873041997729
 30
0.0
 40
3.0
  1
コード番号
 41
0.6666666666666666
  7
FDASTYLE1
 72
     5
 11
627.4174732006412
 21
-165.4873041997729
 31
0.0
  0
TEXT
  5
3D5
  8
LAYER0002
 62
     7
 10
458.4843857613084
 20
-175.1879010540338
 30
0.0
 40
2.5
  1
訂 正 来 歴
 41
0.5890861275476669
  7
FDASTYLE1
 72
     5
 11
469.9715652484879
 21
-175.1879010540338
 31
0.0
  0
TEXT
  5
3D6
  8
LAYER0002
 62
     7
 10
482.4627285922417
 20
-175.2166697391651
 30
0.0
 40
2.5
  1
工 事 番 号
 41
0.5890861275476669
  7
FDASTYLE1
 72
     5
 11
493.9499080794212
 21
-175.2166697391651
 31
0.0
  0
TEXT
  5
3D7
  8
LAYER0002
 62
     7
 10
455.5063940920796
 20
-165.9634530565915
 30
0.0
 40
1.90819475
  1
記号
 41
0.8
  7
FDASTYLE0
  0
TEXT
  5
3D8
  8
LAYER0002
 62
     7
 10
461.4457811522385
 20
-165.9634530565915
 30
0.0
 40
1.90819475
  1
理由
 41
0.8
  7
FDASTYLE0
  0
TEXT
  5
3D9
  8
LAYER0002
 62
     7
 10
468.191760536461
 20
-169.8786046700178
 30
0.0
 40
3.0
  1
日 付
 41
0.5813148788927344
  7
FDASTYLE1
 72
     5
 11
474.1211723011669
 21
-169.8786046700178
 31
0.0
  0
TEXT
  5
3DA
  8
LAYER0002
 62
     7
 10
510.0205627274419
 20
-165.7187911464244
 30
0.0
 40
3.0
  1
承   認
 41
0.6035665294924586
  7
FDASTYLE1
 72
     5
 11
519.7983405052197
 21
-165.7187911464244
 31
0.0
  0
TEXT
  5
3DB
  8
LAYER0002
 62
     7
 10
536.4356217787107
 20
-165.4873041997729
 30
0.0
 40
3.0
  1
検   図
 41
0.6035665294924586
  7
FDASTYLE1
 72
     5
 11
546.2133995564885
 21
-165.4873041997729
 31
0.0
  0
TEXT
  5
3DC
  8
LAYER0002
 62
     7
 10
558.0495858438518
 20
-165.4873041997729
 30
0.0
 40
3.0
  1
担  当
 41
0.5950413223140511
  7
FDASTYLE1
 72
     5
 11
565.9041312983973
 21
-165.4873041997729
 31
0.0
  0
TEXT
  5
3DD
  8
LAYER0002
 62
     7
 10
571.2494512295879
 20
-165.4873041997729
 30
0.0
 40
3.0
  1
製  図
 41
0.5950413223140511
  7
FDASTYLE1
 72
     5
 11
579.1039966841333
 21
-165.4873041997729
 31
0.0
  0
TEXT
  5
3DE
  8
LAYER0002
 62
     7
 10
583.5186309758966
 20
-153.2184960272417
 30
0.0
 40
3.0
  1
作図
 41
0.6666666666666762
  7
FDASTYLE1
 72
     5
 11
588.3186309758967
 21
-153.2184960272417
 31
0.0
  0
TEXT
  5
3DF
  8
LAYER0002
 62
     7
 10
584.6760657091543
 20
-160.2371566401815
 30
0.0
 40
4.0
  1
第 三 角 法
 41
0.5890861275476675
  7
FDASTYLE1
 72
     5
 11
603.0555528886415
 21
-160.2371566401815
 31
0.0
  0
TEXT
  5
3E0
  8
LAYER0002
 62
     7
 10
583.9816048691997
 20
-166.413251986379
 30
0.0
 40
3.0
  1
尺度
 41
0.6666666666666762
  7
FDASTYLE1
 72
     5
 11
588.7816048691998
 21
-166.413251986379
 31
0.0
  0
TEXT
  5
3E2
  8
LAYER0002
 62
     3
 10
461.9515481155107
 20
-185.9272077185017
 30
0.0
 40
7.0
  1
株式会社 野村製作所
 41
0.5976394989045255
  7
FDASTYLE2
 72
     5
 11
517.8344271000773
 21
-185.9272077185017
 31
0.0
  0
TEXT
  5
3E4
  8
LAYER0002
 62
     3
 10
533.6311292844923
 20
-187.1216685584563
 30
0.0
 40
8.0
  1
２－
 41
0.7699296059137625
  7
FDASTYLE3
 72
     5
 11
547.5206593751766
 21
-187.1216685584563
 31
0.0
  0
TEXT
  5
3E5
  8
LAYER0002
 62
     3
 10
550.5430869088992
 20
-187.1216685584563
 30
0.0
 40
8.0
  1
C808022
 41
1.317144444106304
  7
FDASTYLE3
 72
     5
 11
605.9053021835754
 21
-187.1216685584563
 31
0.0
  0
TEXT
  5
3E6
  8
LAYER0002
 62
     4
 10
590.1032971299989
 20
-145.0216474852281
 30
0.0
 40
3.0
  1
1式
 41
0.520661157024785
  7
FDASTYLE1
 72
     5
 11
593.5396607663624
 21
-145.0216474852281
 31
0.0
  0
TEXT
  5
3E7
  8
LAYER0002
 62
     4
 10
595.8735726361166
 20
-172.297487439201
 30
0.0
 40
3.0
  1
1/1
 41
0.5222222222222273
  7
FDASTYLE1
 72
     5
 11
600.5735726361166
 21
-172.297487439201
 31
0.0
  0
TEXT
  5
3E8
  8
LAYER0002
 62
     6
 10
521.6085333514537
 20
-145.7243747487088
 30
0.0
 40
5.0
  1
外　形　図
 41
0.5833333333333334
  7
FDASTYLE1
 72
     5
 11
539.1085333514537
 21
-145.7243747487088
 31
0.0
  0
TEXT
  5
3E9
  8
LAYER0002
 62
     6
 10
508.9768756015056
 20
-154.3920863201719
 30
0.0
 40
5.0
  1
日鋼プレシジォン
 41
0.5833333333333322
  7
FDASTYLE1
 72
     5
 11
536.9768756015055
 21
-154.3920863201719
 31
0.0
  0
TEXT
  5
3EA
  8
LAYER0002
 62
     6
 10
517.4424132567851
 20
-160.8053724226564
 30
0.0
 40
5.0
  1
  HF3-8Ｂ型 ﾁｬｯｸ
 41
0.5482253086419746
  7
FDASTYLE1
 72
     5
 11
556.9146354790073
 21
-160.8053724226564
 31
0.0
  0
CIRCLE
  5
3EB
  8
0
  6
CONTINUOUS
 62
     3
 10
458.0212462845392
 20
25.90855407714847
 30
0.0
 40
2.65
  0
CIRCLE
  5
3EC
  8
0
  6
CONTINUOUS
 62
     3
 10
512.0212462845392
 20
25.90855407714847
 30
0.0
 40
2.65
  0
LINE
  5
3ED
  8
0
  6
CONTINUOUS
 62
     3
 10
383.7796804237159
 20
-12.33600363456984
 30
0.0
 11
401.2796844172273
 21
-42.64689552662301
 31
0.0
  0
LINE
  5
3EE
  8
0
  6
CONTINUOUS
 62
     3
 10
407.8067759921304
 20
-50.42551554981972
 30
0.0
 11
408.7712461586051
 21
-49.86867850110062
 31
0.0
  0
LINE
  5
3EF
  8
0
  6
CONTINUOUS
 62
     3
 10
380.3067462034145
 20
-2.794097723319453
 30
0.0
 11
381.2712394952636
 21
-2.237247323160716
 31
0.0
  0
LINE
  5
3F0
  8
0
  6
CONTINUOUS
 62
     3
 10
380.3067338208854
 20
-2.794102187346397
 30
0.0
 11
383.7796969118493
 21
-12.33598951668998
 31
0.0
  0
LINE
  5
3F1
  8
0
  6
CONTINUOUS
 62
     3
 10
401.2797227392246
 20
-42.64686074393021
 30
0.0
 11
407.8067620516263
 21
-50.42548232482486
 31
0.0
  0
LINE
  5
3F2
  8
0
  6
CONTINUOUS
 62
     3
 10
389.0297046060611
 20
-21.42926674218555
 30
0.0
 11
402.9961043110831
 21
-13.36576300375268
 31
0.0
  0
LINE
  5
3F3
  8
0
  6
CONTINUOUS
 62
     3
 10
396.0297050147348
 20
-33.55362253518484
 30
0.0
 11
409.9961071974755
 21
-25.49011736624058
 31
0.0
  0
LINE
  5
3F4
  8
0
  6
CONTINUOUS
 62
     3
 10
397.689963464559
 20
-16.42927516591939
 30
0.0
 11
404.6899681137218
 21
-28.55363720854015
 31
0.0
  0
LINE
  5
3F5
  8
0
  6
CONTINUOUS
 62
     3
 10
409.7043195112325
 20
-9.492773580059833
 30
0.0
 11
428.9768710500717
 21
1.634238009526172
 31
0.0
  0
LINE
  5
3F6
  8
0
  6
CONTINUOUS
 62
     3
 10
416.7043091831253
 20
-21.61713557194182
 30
0.0
 11
435.976877240089
 21
-10.49011444561322
 31
0.0
  0
LINE
  5
3F7
  8
0
  6
CONTINUOUS
 62
     3
 10
407.5627132519114
 20
-13.52937803729603
 30
0.0
 11
405.275211713368
 21
-17.49144979682828
 31
0.0
  0
LINE
  5
3F8
  8
0
  6
CONTINUOUS
 62
     3
 10
405.2752549186664
 20
-17.49142536294531
 30
0.0
 11
407.5627521656777
 21
-21.45348968932049
 31
0.0
  0
LINE
  5
3F9
  8
0
  6
CONTINUOUS
 62
     3
 10
407.5627196732111
 20
-21.45350646972653
 30
0.0
 11
412.1377166214533
 21
-21.45350646972653
 31
0.0
  0
LINE
  5
3FA
  8
0
  6
CONTINUOUS
 62
     3
 10
412.1377000800093
 20
-21.45350212460514
 30
0.0
 11
414.4251983499842
 21
-17.49143944220933
 31
0.0
  0
LINE
  5
3FB
  8
0
  6
CONTINUOUS
 62
     3
 10
414.425225872155
 20
-17.49144156959343
 30
0.0
 11
412.1377284902895
 21
-13.52937284882771
 31
0.0
  0
LINE
  5
3FC
  8
0
  6
CONTINUOUS
 62
     3
 10
412.1377166214533
 20
-13.52938079833982
 30
0.0
 11
407.5627196732111
 21
-13.52938079833982
 31
0.0
  0
LINE
  5
3FD
  8
0
  6
CONTINUOUS
 62
     3
 10
433.5434710983203
 20
1.470637121804003
 30
0.0
 11
431.2559671733528
 21
-2.49143217567277
 31
0.0
  0
LINE
  5
3FE
  8
0
  6
CONTINUOUS
 62
     3
 10
431.255976404936
 20
-2.491449978854547
 30
0.0
 11
433.5434744700204
 21
-6.453513759847596
 31
0.0
  0
LINE
  5
3FF
  8
0
  6
CONTINUOUS
 62
     3
 10
433.5434783402033
 20
-6.453552246093722
 30
0.0
 11
438.11848291784
 21
-6.453552246093722
 31
0.0
  0
LINE
  5
400
  8
0
  6
CONTINUOUS
 62
     3
 10
438.1184901241236
 20
-6.45350865503562
 30
0.0
 11
440.405990098789
 21
-2.491448162000751
 31
0.0
  0
LINE
  5
401
  8
0
  6
CONTINUOUS
 62
     3
 10
440.4059758742354
 20
-2.491463033470808
 30
0.0
 11
438.1184737217628
 21
1.470607354772056
 31
0.0
  0
LINE
  5
402
  8
0
  6
CONTINUOUS
 62
     3
 10
438.11848291784
 20
1.470621109008818
 30
0.0
 11
433.5434859695978
 21
1.470621109008818
 31
0.0
  0
LINE
  5
403
  8
0
  6
CONTINUOUS
 62
     3
 10
437.6523582622139
 20
-41.04611684529883
 30
0.0
 11
434.8023547693806
 21
-45.98246305804534
 31
0.0
  0
LINE
  5
404
  8
0
  6
CONTINUOUS
 62
     3
 10
434.8023536961383
 20
-45.98246228808736
 30
0.0
 11
437.6523513208937
 21
-50.91880503765285
 31
0.0
  0
LINE
  5
405
  8
0
  6
CONTINUOUS
 62
     3
 10
381.6349997625673
 20
-58.05220647692099
 30
0.0
 11
400.4335440262332
 21
-90.61223578406984
 31
0.0
  0
LINE
  5
406
  8
0
  6
CONTINUOUS
 62
     3
 10
375.3671554524944
 20
-73.19597900353116
 30
0.0
 11
386.625485499625
 21
-66.69597900353116
 31
0.0
  0
LINE
  5
407
  8
0
  6
CONTINUOUS
 62
     3
 10
384.3671554524944
 20
-88.78443599186582
 30
0.0
 11
395.625485499625
 21
-82.28443599186582
 31
0.0
  0
LINE
  5
408
  8
0
  6
CONTINUOUS
 62
     3
 10
375.3671564553686
 20
-73.19598265428326
 30
0.0
 11
384.3671575282522
 21
-88.78443964261791
 31
0.0
  0
LINE
  5
409
  8
0
  6
CONTINUOUS
 62
     3
 10
391.4594608743237
 20
-77.06866975092632
 30
0.0
 11
389.0594593484448
 21
-72.91174524447067
 31
0.0
  0
LINE
  5
40A
  8
0
  6
CONTINUOUS
 62
     3
 10
389.5711940801003
 20
-79.19809334958833
 30
0.0
 11
386.2711948430398
 21
-73.48232710864883
 31
0.0
  0
LINE
  5
40B
  8
0
  6
CONTINUOUS
 62
     3
 10
380.1012904868984
 20
-74.27324008430284
 30
0.0
 11
377.3971266746239
 21
-75.83448981727403
 31
0.0
  0
LINE
  5
40C
  8
0
  6
CONTINUOUS
 62
     3
 10
385.8012912498379
 20
-84.145930831698
 30
0.0
 11
383.0971274375634
 21
-85.70718056466919
 31
0.0
  0
LINE
  5
40D
  8
0
  6
CONTINUOUS
 62
     3
 10
386.2711927757495
 20
-73.48232889811405
 30
0.0
 11
389.0594612170822
 21
-72.91175173676918
 31
0.0
  0
LINE
  5
40E
  8
0
  6
CONTINUOUS
 62
     3
 10
389.5711917926911
 20
-79.19809458223742
 30
0.0
 11
391.4594606755821
 21
-77.06867146551846
 31
0.0
  0
LINE
  5
40F
  8
0
  6
CONTINUOUS
 62
     3
 10
388.427832571254
 20
-79.21773310654723
 30
0.0
 11
385.6574277555802
 21
-74.41925129439093
 31
0.0
  0
LINE
  5
410
  8
0
  6
CONTINUOUS
 62
     3
 10
385.5562592942761
 20
-82.84402443971973
 30
0.0
 11
381.1062585313366
 21
-75.13639716292661
 31
0.0
  0
LINE
  5
411
  8
0
  6
CONTINUOUS
 62
     3
 10
384.1338611205269
 20
-81.868136248318
 30
0.0
 11
381.9582128364486
 21
-83.12424739333753
 31
0.0
  0
LINE
  5
412
  8
0
  6
CONTINUOUS
 62
     3
 10
381.2401996215035
 20
-76.85616760205946
 30
0.0
 11
379.0645513374252
 21
-78.11227874707899
 31
0.0
  0
LINE
  5
413
  8
0
  6
CONTINUOUS
 62
     3
 10
370.9436953331391
 20
-81.53432080257832
 30
0.0
 11
377.7671535162339
 21
-77.35290032296879
 31
0.0
  0
LINE
  5
414
  8
0
  6
CONTINUOUS
 62
     3
 10
374.9342082593586
 20
-88.44609433486457
 30
0.0
 11
381.9671541025434
 21
-84.62751646901407
 31
0.0
  0
LINE
  5
415
  8
0
  6
CONTINUOUS
 62
     3
 10
370.5435585769363
 20
-80.84126962973457
 30
0.0
 11
375.3343458912067
 21
-89.13915552818978
 31
0.0
  0
LINE
  5
416
  8
0
  6
CONTINUOUS
 62
     3
 10
370.525698886523
 20
-80.85221258407316
 30
0.0
 11
377.3491570696177
 21
-76.67079210446363
 31
0.0
  0
LINE
  5
417
  8
0
  6
CONTINUOUS
 62
     3
 10
375.3159367195827
 20
-89.14915072964649
 30
0.0
 11
382.3488825627676
 21
-85.33057286379599
 31
0.0
  0
LINE
  5
418
  8
0
  6
CONTINUOUS
 62
     3
 10
364.0341168462857
 20
-87.82201570711774
 30
0.0
 11
371.9389539983803
 21
-83.25815576754255
 31
0.0
  0
LINE
  5
419
  8
0
  6
CONTINUOUS
 62
     3
 10
365.6746362303035
 20
-91.49366349421186
 30
0.0
 11
373.9389539983803
 21
-86.7222573205058
 31
0.0
  0
CIRCLE
  5
41A
  8
0
  6
CONTINUOUS
 62
     3
 10
420.6181395950861
 20
43.16531372070315
 30
0.0
 40
7.0
  0
CIRCLE
  5
41B
  8
0
  6
CONTINUOUS
 62
     3
 10
409.8502257767267
 20
-17.49143981933591
 30
0.0
 40
8.0
  0
ARC
  5
41C
  8
0
  6
CONTINUOUS
 62
     3
 10
425.0212462845392
 20
95.95855712890628
 30
0.0
 40
2.0
 50
321.3178110319012
 51
360.0
  0
CIRCLE
  5
41D
  8
0
  6
CONTINUOUS
 62
     3
 10
420.6181395950861
 20
43.16529846191409
 30
0.0
 40
10.0
  0
ARC
  5
41E
  8
0
  6
CONTINUOUS
 62
     3
 10
387.9211924973077
 20
-76.34020996093747
 30
0.0
 40
3.299999952316284
 50
283.4828250680728
 51
299.9999846699694
  0
ARC
  5
41F
  8
0
  6
CONTINUOUS
 62
     3
 10
387.9211924973077
 20
-76.34020996093747
 30
0.0
 40
3.299999952316284
 50
120.0000169996826
 51
136.5171766015794
  0
ARC
  5
420
  8
0
  6
CONTINUOUS
 62
     3
 10
383.8242076340265
 20
-83.8440246582031
 30
0.0
 40
2.0
 50
210.0000026560591
 51
248.6821916241574
  0
ARC
  5
421
  8
0
  6
CONTINUOUS
 62
     3
 10
379.374206871087
 20
-76.13639831542966
 30
0.0
 40
2.0
 50
210.0000026560591
 51
261.0931644404476
  0
ARC
  5
422
  8
0
  6
CONTINUOUS
 62
     3
 10
385.0633090439386
 20
-77.99021148681638
 30
0.0
 40
6.0
 50
210.0000026560589
 51
238.8342336335362
  0
ARC
  5
423
  8
0
  6
CONTINUOUS
 62
     3
 10
378.1351054611749
 20
-81.99021148681638
 30
0.0
 40
6.0
 50
1.16577401949511
 51
58.83421132173599
  0
ARC
  5
424
  8
0
  6
CONTINUOUS
 62
     3
 10
385.0633090439386
 20
-77.99021148681638
 30
0.0
 40
6.0
 50
181.1657580182032
 51
210.0000026560589
  0
ARC
  5
425
  8
0
  6
CONTINUOUS
 62
     3
 10
383.8242076340265
 20
-83.8440246582031
 30
0.0
 40
2.0
 50
158.9068372292046
 51
209.9999990135933
  0
ARC
  5
426
  8
0
  6
CONTINUOUS
 62
     3
 10
383.8242076340265
 20
-83.8440246582031
 30
0.0
 40
2.0
 50
351.3178297959738
 51
441.0931148078906
  0
ARC
  5
427
  8
0
  6
CONTINUOUS
 62
     3
 10
379.374206871087
 20
-76.13639831542966
 30
0.0
 40
2.0
 50
338.9068561259102
 51
428.6821556519789
  0
ARC
  5
428
  8
0
  6
CONTINUOUS
 62
     3
 10
379.374206871087
 20
-76.13639831542966
 30
0.0
 40
2.0
 50
171.3178100454947
 51
209.9999990135933
  0
ARC
  5
429
  8
0
  6
CONTINUOUS
 62
     3
 10
391.1666091385431
 20
-84.62783050537107
 30
0.0
 40
5.650000095367432
 50
115.9910921078569
 51
165.0592530674986
  0
ARC
  5
42A
  8
0
  6
CONTINUOUS
 62
     3
 10
382.3666099014826
 20
-69.38578796386716
 30
0.0
 40
5.650000095367432
 50
254.9407486021534
 51
304.0089061467006
  0
ARC
  5
42B
  8
0
  6
CONTINUOUS
 62
     3
 10
389.6532424393243
 20
-75.34020996093747
 30
0.0
 40
1.5
 50
327.8181532914211
 51
452.1818449631363
  0
LINE
  5
42C
  8
0
  6
CONTINUOUS
 62
     3
 10
568.7628580699216
 20
-42.64694078604904
 30
0.0
 11
586.2628639707817
 21
-12.33604559037119
 31
0.0
  0
LINE
  5
42D
  8
0
  6
CONTINUOUS
 62
     3
 10
467.5212233963556
 20
132.7085571289063
 30
0.0
 11
502.5212768021173
 21
132.7085571289063
 31
0.0
  0
LINE
  5
42E
  8
0
  6
CONTINUOUS
 62
     3
 10
504.5035438283561
 20
-5.546796043154444
 30
0.0
 11
568.7628210258339
 21
-42.64690293215742
 31
0.0
  0
LINE
  5
42F
  8
0
  6
CONTINUOUS
 62
     3
 10
522.0035504146689
 20
24.76410784593625
 30
0.0
 11
586.2628540411461
 21
-12.33601430185487
 31
0.0
  0
LINE
  5
430
  8
0
  6
CONTINUOUS
 62
     3
 10
457.5212462845392
 20
130.9452667236328
 30
0.0
 11
457.5212462845392
 21
129.8316040039063
 31
0.0
  0
LINE
  5
431
  8
0
  6
CONTINUOUS
 62
     3
 10
512.5212462845392
 20
130.9452362060547
 30
0.0
 11
512.5212462845392
 21
129.8316040039063
 31
0.0
  0
LINE
  5
432
  8
0
  6
CONTINUOUS
 62
     3
 10
561.2712670618497
 20
-49.86865804566966
 30
0.0
 11
562.2357141029501
 21
-50.42548174294913
 31
0.0
  0
LINE
  5
433
  8
0
  6
CONTINUOUS
 62
     3
 10
588.7712636523135
 20
-2.237230963025894
 30
0.0
 11
589.7357371224131
 21
-2.794069919093516
 31
0.0
  0
LINE
  5
434
  8
0
  6
CONTINUOUS
 62
     3
 10
457.5212392856578
 20
130.9452534790685
 30
0.0
 11
467.5212167436333
 21
132.7085193623334
 31
0.0
  0
LINE
  5
435
  8
0
  6
CONTINUOUS
 62
     3
 10
502.5212568460137
 20
132.7084703070009
 30
0.0
 11
512.5212343039892
 21
130.945204423736
 31
0.0
  0
LINE
  5
436
  8
0
  6
CONTINUOUS
 62
     3
 10
586.2627843737886
 20
-12.33600342027009
 30
0.0
 11
589.7357468124009
 21
-2.794117883247935
 31
0.0
  0
LINE
  5
437
  8
0
  6
CONTINUOUS
 62
     3
 10
562.2356860662507
 20
-50.42543443386236
 30
0.0
 11
568.7627229266121
 21
-42.64681577519511
 31
0.0
  0
LINE
  5
438
  8
0
  6
CONTINUOUS
 62
     3
 10
512.9041733924406
 20
-10.39689651309365
 30
0.0
 11
518.1541721109405
 21
-1.303633240189782
 31
0.0
  0
LINE
  5
439
  8
0
  6
CONTINUOUS
 62
     3
 10
518.1541473127726
 20
-1.303601549348031
 30
0.0
 11
527.3574120100819
 21
-6.617108312716454
 31
0.0
  0
LINE
  5
43A
  8
0
  6
CONTINUOUS
 62
     3
 10
525.1541260516464
 20
10.82074913538284
 30
0.0
 11
534.3573907489557
 21
5.507242372014417
 31
0.0
  0
LINE
  5
43B
  8
0
  6
CONTINUOUS
 62
     3
 10
522.6670773771405
 20
15.72075760814326
 30
0.0
 11
526.6541429914361
 21
13.41882445677496
 31
0.0
  0
LINE
  5
43C
  8
0
  6
CONTINUOUS
 62
     3
 10
512.6670873729894
 20
-1.599765585409813
 30
0.0
 11
516.6541397727855
 21
-3.901691107384039
 31
0.0
  0
LINE
  5
43D
  8
0
  6
CONTINUOUS
 62
     3
 10
443.3883624125586
 20
13.41880609575858
 30
0.0
 11
447.3754148123547
 21
15.72073161773281
 31
0.0
  0
LINE
  5
43E
  8
0
  6
CONTINUOUS
 62
     3
 10
453.3883731921333
 20
-3.901707305515828
 30
0.0
 11
457.3754255919294
 21
-1.599781783541602
 31
0.0
  0
LINE
  5
43F
  8
0
  6
CONTINUOUS
 62
     3
 10
451.8883760389582
 20
-1.30361114037234
 30
0.0
 11
457.138376664807
 21
-10.39687771690089
 31
0.0
  0
LINE
  5
440
  8
0
  6
CONTINUOUS
 62
     3
 10
525.1541691307078
 20
10.82071558793226
 30
0.0
 11
530.4041697565566
 21
19.91398216446081
 31
0.0
  0
LINE
  5
441
  8
0
  6
CONTINUOUS
 62
     3
 10
440.9912581648579
 20
8.570733604831077
 30
0.0
 11
447.9912589993229
 21
-3.553621830540322
 31
0.0
  0
LINE
  5
442
  8
0
  6
CONTINUOUS
 62
     3
 10
522.0512731435255
 20
-3.553625879015243
 30
0.0
 11
529.0512739779905
 21
8.570729556356156
 31
0.0
  0
LINE
  5
443
  8
0
  6
CONTINUOUS
 62
     3
 10
565.3525745696669
 20
-28.55366496193253
 30
0.0
 11
572.3525754041319
 21
-16.42930952656113
 31
0.0
  0
LINE
  5
444
  8
0
  6
CONTINUOUS
 62
     3
 10
442.6850792257388
 20
-6.617132651314449
 30
0.0
 11
451.888350530298
 21
-1.303622073248988
 31
0.0
  0
LINE
  5
445
  8
0
  6
CONTINUOUS
 62
     3
 10
531.9239153934041
 20
1.470674355266993
 30
0.0
 11
529.6364152831366
 21
-2.491388334961783
 31
0.0
  0
LINE
  5
446
  8
0
  6
CONTINUOUS
 62
     3
 10
529.636497151408
 20
-2.491443467207745
 30
0.0
 11
531.9239952164925
 21
-6.453507248200793
 31
0.0
  0
LINE
  5
447
  8
0
  6
CONTINUOUS
 62
     3
 10
531.9240020218439
 20
-6.453468322753878
 30
0.0
 11
536.4989989700861
 21
-6.453468322753878
 31
0.0
  0
LINE
  5
448
  8
0
  6
CONTINUOUS
 62
     3
 10
536.4989762110407
 20
-6.453471183853225
 30
0.0
 11
538.7864771393814
 21
-2.491409039006584
 31
0.0
  0
LINE
  5
449
  8
0
  6
CONTINUOUS
 62
     3
 10
538.7864472057481
 20
-2.491490475680593
 30
0.0
 11
536.4989488679727
 21
1.470573305312456
 31
0.0
  0
LINE
  5
44A
  8
0
  6
CONTINUOUS
 62
     3
 10
536.4989989700861
 20
1.470621109008818
 30
0.0
 11
531.9240172806331
 21
1.470621109008818
 31
0.0
  0
LINE
  5
44B
  8
0
  6
CONTINUOUS
 62
     3
 10
557.9045885975303
 20
-13.52930063225583
 30
0.0
 11
555.617091350519
 21
-17.49136495863101
 31
0.0
  0
LINE
  5
44C
  8
0
  6
CONTINUOUS
 62
     3
 10
555.6171385233487
 20
-17.49149799961649
 30
0.0
 11
557.90463577036
 21
-21.45356232599167
 31
0.0
  0
LINE
  5
44D
  8
0
  6
CONTINUOUS
 62
     3
 10
557.9047759476251
 20
-21.45350646972653
 30
0.0
 11
562.4797728958673
 21
-21.45350646972653
 31
0.0
  0
LINE
  5
44E
  8
0
  6
CONTINUOUS
 62
     3
 10
562.4797183685281
 20
-21.45345687014785
 30
0.0
 11
564.7672171153403
 21
-17.49139336184587
 31
0.0
  0
LINE
  5
44F
  8
0
  6
CONTINUOUS
 62
     3
 10
564.7671643720418
 20
-17.4915255567748
 30
0.0
 11
562.4796650828303
 21
-13.5294535323828
 31
0.0
  0
LINE
  5
450
  8
0
  6
CONTINUOUS
 62
     3
 10
562.4797728958673
 20
-13.52938079833982
 30
0.0
 11
557.9047759476251
 21
-13.52938079833982
 31
0.0
  0
LINE
  5
451
  8
0
  6
CONTINUOUS
 62
     3
 10
541.0655861273557
 20
1.634264392412689
 30
0.0
 11
560.3381409698199
 21
-9.492749104521835
 31
0.0
  0
LINE
  5
452
  8
0
  6
CONTINUOUS
 62
     3
 10
567.0463627772191
 20
-13.36574234291172
 30
0.0
 11
581.0127542231787
 21
-21.42924131297329
 31
0.0
  0
LINE
  5
453
  8
0
  6
CONTINUOUS
 62
     3
 10
560.0463708238457
 20
-25.49008539824851
 30
0.0
 11
574.0127754843051
 21
-33.55359199770416
 31
0.0
  0
LINE
  5
454
  8
0
  6
CONTINUOUS
 62
     3
 10
534.0656073884819
 20
-10.49008629231818
 30
0.0
 11
553.3381754454457
 21
-21.61710741864678
 31
0.0
  0
LINE
  5
455
  8
0
  6
CONTINUOUS
 62
     3
 10
467.5212462845392
 20
132.7085571289063
 30
0.0
 11
467.5212462845392
 21
58.50839996337894
 31
0.0
  0
LINE
  5
456
  8
0
  6
CONTINUOUS
 62
     3
 10
502.5212462845392
 20
132.7085571289063
 30
0.0
 11
502.5212462845392
 21
58.50839996337894
 31
0.0
  0
LINE
  5
457
  8
0
  6
CONTINUOUS
 62
     3
 10
457.5212462845392
 20
130.9452667236328
 30
0.0
 11
457.5212462845392
 21
129.8316040039063
 31
0.0
  0
LINE
  5
458
  8
0
  6
CONTINUOUS
 62
     3
 10
512.5212462845392
 20
130.9452362060547
 30
0.0
 11
512.5212462845392
 21
129.8316040039063
 31
0.0
  0
LINE
  5
459
  8
0
  6
CONTINUOUS
 62
     3
 10
478.0212462845392
 20
132.7085571289063
 30
0.0
 11
478.0212462845392
 21
116.58154296875
 31
0.0
  0
LINE
  5
45A
  8
0
  6
CONTINUOUS
 62
     3
 10
492.0212462845392
 20
132.7085571289063
 30
0.0
 11
492.0212462845392
 21
116.58154296875
 31
0.0
  0
LINE
  5
45B
  8
0
  6
CONTINUOUS
 62
     3
 10
475.2712462845392
 20
68.20855712890628
 30
0.0
 11
475.2712462845392
 21
63.6701469421387
 31
0.0
  0
LINE
  5
45C
  8
0
  6
CONTINUOUS
 62
     3
 10
494.7712462845392
 20
68.20855712890628
 30
0.0
 11
494.7712462845392
 21
63.6701469421387
 31
0.0
  0
LINE
  5
45D
  8
0
  6
CONTINUOUS
 62
     3
 10
467.5212233963556
 20
68.20855712890628
 30
0.0
 11
478.0212462845392
 21
68.20855712890628
 31
0.0
  0
LINE
  5
45E
  8
0
  6
CONTINUOUS
 62
     3
 10
492.0212462845392
 20
68.20855712890628
 30
0.0
 11
502.5212768021173
 21
68.20855712890628
 31
0.0
  0
LINE
  5
45F
  8
0
  6
CONTINUOUS
 62
     3
 10
478.0212462845392
 20
72.70855712890628
 30
0.0
 11
492.0212462845392
 21
72.70855712890628
 31
0.0
  0
LINE
  5
460
  8
0
  6
CONTINUOUS
 62
     3
 10
478.0212462845392
 20
122.7085571289063
 30
0.0
 11
492.0212462845392
 21
122.7085571289063
 31
0.0
  0
LINE
  5
461
  8
0
  6
CONTINUOUS
 62
     3
 10
478.0212462845392
 20
78.83557128906253
 30
0.0
 11
478.0212462845392
 21
68.20855712890628
 31
0.0
  0
LINE
  5
462
  8
0
  6
CONTINUOUS
 62
     3
 10
478.0212462845392
 20
108.8355712890625
 30
0.0
 11
478.0212462845392
 21
86.58154296875003
 31
0.0
  0
LINE
  5
463
  8
0
  6
CONTINUOUS
 62
     3
 10
492.0212462845392
 20
108.8355712890625
 30
0.0
 11
492.0212462845392
 21
86.58154296875003
 31
0.0
  0
LINE
  5
464
  8
0
  6
CONTINUOUS
 62
     3
 10
492.0212462845392
 20
78.83557128906253
 30
0.0
 11
492.0212462845392
 21
68.20855712890628
 31
0.0
  0
LINE
  5
465
  8
0
  6
CONTINUOUS
 62
     3
 10
442.1712479242993
 20
95.47221180479529
 30
0.0
 11
447.8712448725415
 21
95.47220942061031
 31
0.0
  0
LINE
  5
466
  8
0
  6
CONTINUOUS
 62
     3
 10
447.8712412691323
 20
95.47220568286346
 30
0.0
 11
450.7212431407163
 21
100.4085457144586
 31
0.0
  0
LINE
  5
467
  8
0
  6
CONTINUOUS
 62
     3
 10
450.7212495832863
 20
100.4085549627148
 30
0.0
 11
447.8712510704224
 21
105.3449016953985
 31
0.0
  0
LINE
  5
468
  8
0
  6
CONTINUOUS
 62
     3
 10
447.8712464560197
 20
105.3448957311324
 30
0.0
 11
442.1712495077775
 21
105.3448966848063
 31
0.0
  0
LINE
  5
469
  8
0
  6
CONTINUOUS
 62
     3
 10
443.3523531484456
 20
-50.91880890099921
 30
0.0
 11
446.2023541736453
 21
-45.98246544565376
 31
0.0
  0
LINE
  5
46A
  8
0
  6
CONTINUOUS
 62
     3
 10
446.2023551204946
 20
-45.98246387062497
 30
0.0
 11
443.3523586848513
 21
-41.0461204415669
 31
0.0
  0
LINE
  5
46B
  8
0
  6
CONTINUOUS
 62
     3
 10
572.3901427689142
 20
28.23591613769534
 30
0.0
 11
566.690145820672
 21
28.23591613769534
 31
0.0
  0
LINE
  5
46C
  8
0
  6
CONTINUOUS
 62
     3
 10
566.690143966939
 20
28.23591615075932
 30
0.0
 11
563.8401434543403
 21
23.29957509992531
 31
0.0
  0
LINE
  5
46D
  8
0
  6
CONTINUOUS
 62
     3
 10
563.8402043981004
 20
23.29961337517491
 30
0.0
 11
566.6902028722215
 21
18.36327130510202
 31
0.0
  0
LINE
  5
46E
  8
0
  6
CONTINUOUS
 62
     3
 10
566.6901305618831
 20
18.36322879791263
 30
0.0
 11
572.3901427689142
 21
18.36322879791263
 31
0.0
  0
LINE
  5
46F
  8
0
  6
CONTINUOUS
 62
     3
 10
572.3901301939776
 20
18.36323140185507
 30
0.0
 11
575.2401331622895
 21
23.29957973943058
 31
0.0
  0
LINE
  5
470
  8
0
  6
CONTINUOUS
 62
     3
 10
575.2401591484949
 20
23.29958214170031
 30
0.0
 11
572.3901568596765
 21
28.23593081902257
 31
0.0
  0
ARC
  5
471
  8
0
  6
CONTINUOUS
 62
     3
 10
485.0212462845392
 20
25.90855407714847
 30
0.0
 40
107.5
 50
0.0
 51
80.3608366744017
  0
CIRCLE
  5
472
  8
0
  6
CONTINUOUS
 62
     3
 10
532.1675933304376
 20
73.0549011230469
 30
0.0
 40
7.0
  0
CIRCLE
  5
473
  8
0
  6
CONTINUOUS
 62
     3
 10
549.4243529739923
 20
43.16531372070315
 30
0.0
 40
7.0
  0
CIRCLE
  5
474
  8
0
  6
CONTINUOUS
 62
     3
 10
502.2780059280939
 20
-38.49455261230466
 30
0.0
 40
10.0
  0
CIRCLE
  5
475
  8
0
  6
CONTINUOUS
 62
     3
 10
467.7644866409845
 20
-38.49455261230466
 30
0.0
 40
10.0
  0
ARC
  5
476
  8
0
  6
CONTINUOUS
 62
     3
 10
485.0212462845392
 20
25.90855407714847
 30
0.0
 40
40.0
 50
116.743521404866
 51
183.2563299835709
  0
CIRCLE
  5
477
  8
0
  6
CONTINUOUS
 62
     3
 10
485.0212462845392
 20
25.90855407714847
 30
0.0
 40
37.0
  0
ARC
  5
478
  8
0
  6
CONTINUOUS
 62
     3
 10
485.0212462845392
 20
25.90855407714847
 30
0.0
 40
107.5
 50
339.6391096019596
 51
360.0
  0
ARC
  5
479
  8
0
  6
CONTINUOUS
 62
     3
 10
485.0212462845392
 20
25.90855407714847
 30
0.0
 40
40.0
 50
236.7436685966197
 51
303.2563299835791
  0
ARC
  5
47A
  8
0
  6
CONTINUOUS
 62
     3
 10
485.0212462845392
 20
25.90855407714847
 30
0.0
 40
40.0
 50
356.7436685966279
 51
423.2561827916319
  0
ARC
  5
47B
  8
0
  6
CONTINUOUS
 62
     3
 10
485.0212462845392
 20
25.90855407714847
 30
0.0
 40
39.0
 50
63.33854349444098
 51
116.6614751748937
  0
ARC
  5
47C
  8
0
  6
CONTINUOUS
 62
     3
 10
485.0212462845392
 20
25.90855407714847
 30
0.0
 40
39.0
 50
303.3385435702314
 51
356.6614609499755
  0
CIRCLE
  5
47D
  8
0
  6
CONTINUOUS
 62
     3
 10
534.2115081253595
 20
-2.491445541381808
 30
0.0
 40
8.0
  0
CIRCLE
  5
47E
  8
0
  6
CONTINUOUS
 62
     3
 10
560.1922667923517
 20
-17.49143981933591
 30
0.0
 40
8.0
  0
CIRCLE
  5
47F
  8
0
  6
CONTINUOUS
 62
     3
 10
485.0212462845392
 20
25.90855407714847
 30
0.0
 40
31.82341766357422
  0
CIRCLE
  5
480
  8
0
  6
CONTINUOUS
 62
     3
 10
467.76447901159
 20
-38.49455261230466
 30
0.0
 40
7.0
  0
ARC
  5
481
  8
0
  6
CONTINUOUS
 62
     3
 10
485.0212462845392
 20
25.90855407714847
 30
0.0
 40
39.0
 50
183.3385231554542
 51
236.6614275151502
  0
CIRCLE
  5
482
  8
0
  6
CONTINUOUS
 62
     3
 10
532.1675933304376
 20
73.0549011230469
 30
0.0
 40
10.0
  0
CIRCLE
  5
483
  8
0
  6
CONTINUOUS
 62
     3
 10
549.4243529739923
 20
43.16530990600589
 30
0.0
 40
10.0
  0
ARC
  5
484
  8
0
  6
CONTINUOUS
 62
     3
 10
485.0212462845392
 20
25.90855407714847
 30
0.0
 40
105.5
 50
339.8236360580645
 51
440.176309276607
  0
CIRCLE
  5
485
  8
0
  6
CONTINUOUS
 62
     3
 10
445.0212462845392
 20
100.4085540771485
 30
0.0
 40
0.75
  0
CIRCLE
  5
486
  8
0
  6
CONTINUOUS
 62
     3
 10
445.0212462845392
 20
100.4085540771485
 30
0.0
 40
2.400000095367432
  0
CIRCLE
  5
487
  8
0
  6
CONTINUOUS
 62
     3
 10
445.0212462845392
 20
100.4085540771485
 30
0.0
 40
3.299999952316284
  0
CIRCLE
  5
488
  8
0
  6
CONTINUOUS
 62
     3
 10
569.5401366653986
 20
23.29957008361819
 30
0.0
 40
9.0
  0
CIRCLE
  5
489
  8
0
  6
CONTINUOUS
 62
     3
 10
569.5401366653986
 20
23.29957008361819
 30
0.0
 40
0.75
  0
CIRCLE
  5
48A
  8
0
  6
CONTINUOUS
 62
     3
 10
569.5401366653986
 20
23.29957008361819
 30
0.0
 40
2.400000095367432
  0
CIRCLE
  5
48B
  8
0
  6
CONTINUOUS
 62
     3
 10
569.5401366653986
 20
23.29957008361819
 30
0.0
 40
3.299999952316284
  0
LINE
  5
48C
  8
0
  6
CONTINUOUS
 62
     3
 10
383.7796947617466
 20
-12.33602963067347
 30
0.0
 11
448.0389645260684
 21
24.76407296679534
 31
0.0
  0
LINE
  5
48D
  8
0
  6
CONTINUOUS
 62
     3
 10
401.2796906021065
 20
-42.646911092528
 30
0.0
 11
465.538952107366
 21
-5.546813263430494
 31
0.0
  0
LINE
  5
48E
  8
0
  6
CONTINUOUS
 62
     3
 10
439.6383745786444
 20
19.91401087152761
 30
0.0
 11
444.888377111842
 21
10.82074099137438
 31
0.0
  0
LINE
  5
48F
  8
0
  6
CONTINUOUS
 62
     3
 10
435.6850796429714
 20
5.507223618521977
 30
0.0
 11
444.8883443402807
 21
10.8207303818904
 31
0.0
  0
LINE
  5
490
  8
0
  6
CONTINUOUS
 62
     3
 10
439.3212400470615
 20
100.4085521705131
 30
0.0
 11
442.1712390695451
 21
95.47220611732249
 31
0.0
  0
LINE
  5
491
  8
0
  6
CONTINUOUS
 62
     3
 10
442.1712491210316
 20
105.344903237616
 30
0.0
 11
439.321245812973
 21
100.4085549000405
 31
0.0
  0
LINE
  5
492
  8
0
  6
CONTINUOUS
 62
     3
 10
443.3523543778009
 20
-41.04620361328122
 30
0.0
 11
437.6523574295587
 21
-41.04620361328122
 31
0.0
  0
LINE
  5
493
  8
0
  6
CONTINUOUS
 62
     3
 10
437.6523498001642
 20
-50.918830871582
 30
0.0
 11
443.3523543778009
 21
-50.918830871582
 31
0.0
  0
CIRCLE
  5
494
  8
0
  6
CONTINUOUS
 62
     3
 10
437.8748992386408
 20
73.0549011230469
 30
0.0
 40
7.0
  0
ARC
  5
495
  8
0
  6
CONTINUOUS
 62
     3
 10
485.0212462845392
 20
25.90855407714847
 30
0.0
 40
105.5
 50
219.8236413144231
 51
320.176359855776
  0
ARC
  5
496
  8
0
  6
CONTINUOUS
 62
     3
 10
485.0212462845392
 20
25.90855407714847
 30
0.0
 40
107.5
 50
99.6390599912141
 51
200.3608862851515
  0
ARC
  5
497
  8
0
  6
CONTINUOUS
 62
     3
 10
485.0212462845392
 20
25.90855407714847
 30
0.0
 40
107.5
 50
219.6391147576771
 51
320.3608862851542
  0
CIRCLE
  5
498
  8
0
  6
CONTINUOUS
 62
     3
 10
435.8309844437189
 20
-2.491445541381808
 30
0.0
 40
8.0
  0
CIRCLE
  5
499
  8
0
  6
CONTINUOUS
 62
     3
 10
437.8748992386408
 20
73.0549011230469
 30
0.0
 40
10.0
  0
ARC
  5
49A
  8
0
  6
CONTINUOUS
 62
     3
 10
485.0212462845392
 20
25.90855407714847
 30
0.0
 40
105.5
 50
99.82358547890289
 51
200.1763598557733
  0
CIRCLE
  5
49B
  8
0
  6
CONTINUOUS
 62
     3
 10
445.0212462845392
 20
100.4085540771485
 30
0.0
 40
9.0
  0
CIRCLE
  5
49C
  8
0
  6
CONTINUOUS
 62
     3
 10
440.5023559036798
 20
-45.98246383666989
 30
0.0
 40
9.0
  0
CIRCLE
  5
49D
  8
0
  6
CONTINUOUS
 62
     3
 10
440.5023559036798
 20
-45.98246383666989
 30
0.0
 40
0.75
  0
CIRCLE
  5
49E
  8
0
  6
CONTINUOUS
 62
     3
 10
440.5023559036798
 20
-45.98246383666989
 30
0.0
 40
2.400000095367432
  0
CIRCLE
  5
49F
  8
0
  6
CONTINUOUS
 62
     3
 10
440.5023559036798
 20
-45.98246383666989
 30
0.0
 40
3.299999952316284
  0
CIRCLE
  5
4A0
  8
0
  6
CONTINUOUS
 62
     3
 10
485.0212544377578
 20
52.90859526141423
 30
0.0
 40
2.0
  0
CIRCLE
  5
4A1
  8
0
  6
CONTINUOUS
 62
     3
 10
461.6385716374648
 20
12.40859526141423
 30
0.0
 40
2.0
  0
CIRCLE
  5
4A2
  8
0
  6
CONTINUOUS
 62
     3
 10
508.4039448674453
 20
12.40859526141423
 30
0.0
 40
2.0
  0
CIRCLE
  5
4A3
  8
0
  6
CONTINUOUS
 62
     3
 10
485.0212544377578
 20
25.90859526141423
 30
0.0
 40
24.0
  0
LINE
  5
4A4
  8
0
  6
CONTINUOUS
 62
     3
 10
252.608736148042
 20
131.4085952614142
 30
0.0
 11
252.608736148042
 21
122.7085983131721
 31
0.0
  0
LINE
  5
4A5
  8
0
  6
CONTINUOUS
 62
     3
 10
175.608736148042
 20
133.4085952614142
 30
0.0
 11
175.608736148042
 21
67.41838758929509
 31
0.0
  0
LINE
  5
4A6
  8
0
  6
CONTINUOUS
 62
     3
 10
175.608736148042
 20
-81.59140473858577
 30
0.0
 11
250.608736148042
 21
-81.59140473858577
 31
0.0
  0
LINE
  5
4A7
  8
0
  6
CONTINUOUS
 62
     3
 10
175.608736148042
 20
110.9085952614143
 30
0.0
 11
179.8087483550733
 21
110.9085952614143
 31
0.0
  0
LINE
  5
4A8
  8
0
  6
CONTINUOUS
 62
     3
 10
175.608736148042
 20
-59.09140473858577
 30
0.0
 11
179.8087483550733
 21
-59.09140473858577
 31
0.0
  0
LINE
  5
4A9
  8
0
  6
CONTINUOUS
 62
     3
 10
250.108736148042
 20
-14.09140473858577
 30
0.0
 11
252.608736148042
 21
-14.09140473858577
 31
0.0
  0
LINE
  5
4AA
  8
0
  6
CONTINUOUS
 62
     3
 10
179.8087483550733
 20
110.9085952614143
 30
0.0
 11
179.8087483550733
 21
-59.09140473858577
 31
0.0
  0
LINE
  5
4AB
  8
0
  6
CONTINUOUS
 62
     3
 10
250.108736148042
 20
64.90859144671697
 30
0.0
 11
250.108736148042
 21
-14.09140473858577
 31
0.0
  0
LINE
  5
4AC
  8
0
  6
CONTINUOUS
 62
     3
 10
232.0087605621045
 20
67.55860060199041
 30
0.0
 11
232.0087605621045
 21
62.90859526141423
 31
0.0
  0
LINE
  5
4AD
  8
0
  6
CONTINUOUS
 62
     3
 10
224.5087605621045
 20
67.55860060199041
 30
0.0
 11
224.5087605621045
 21
62.90859526141423
 31
0.0
  0
LINE
  5
4AE
  8
0
  6
CONTINUOUS
 62
     3
 10
224.5087453033155
 20
-15.74140626446467
 30
0.0
 11
232.0087453033155
 21
-15.74140626446467
 31
0.0
  0
LINE
  5
4AF
  8
0
  6
CONTINUOUS
 62
     3
 10
224.5087453033155
 20
67.55858534320134
 30
0.0
 11
232.0087453033155
 21
67.55858534320134
 31
0.0
  0
LINE
  5
4B0
  8
0
  6
CONTINUOUS
 62
     3
 10
251.6087469489148
 20
132.4085820458516
 30
0.0
 11
252.6087480105043
 21
131.4085809842621
 31
0.0
  0
LINE
  5
4B1
  8
0
  6
CONTINUOUS
 62
     3
 10
252.6087348606878
 20
-79.59141946424185
 30
0.0
 11
250.6087381323054
 21
-81.59141619262434
 31
0.0
  0
LINE
  5
4B2
  8
0
  6
CONTINUOUS
 62
     3
 10
224.5087605621045
 20
-11.09140473858577
 30
0.0
 11
224.5087605621045
 21
-15.74140626446467
 31
0.0
  0
LINE
  5
4B3
  8
0
  6
CONTINUOUS
 62
     3
 10
232.0087605621045
 20
-11.09140473858577
 30
0.0
 11
232.0087605621045
 21
-15.74140626446467
 31
0.0
  0
LINE
  5
4B4
  8
0
  6
CONTINUOUS
 62
     3
 10
179.8087483550733
 20
62.90859526141423
 30
0.0
 11
197.7256184722608
 21
62.90859526141423
 31
0.0
  0
LINE
  5
4B5
  8
0
  6
CONTINUOUS
 62
     3
 10
179.8087483550733
 20
-11.09140473858577
 30
0.0
 11
198.7256184722608
 21
-11.09140473858577
 31
0.0
  0
LINE
  5
4B6
  8
0
  6
CONTINUOUS
 62
     3
 10
200.108736148042
 20
133.4085952614142
 30
0.0
 11
200.108736148042
 21
106.8352004860236
 31
0.0
  0
LINE
  5
4B7
  8
0
  6
CONTINUOUS
 62
     3
 10
234.608736148042
 20
-22.44140321270686
 30
0.0
 11
252.608736148042
 21
-22.44140321270686
 31
0.0
  0
LINE
  5
4B8
  8
0
  6
CONTINUOUS
 62
     3
 10
234.608736148042
 20
-15.74140626446467
 30
0.0
 11
252.608736148042
 21
-15.74140626446467
 31
0.0
  0
LINE
  5
4B9
  8
0
  6
CONTINUOUS
 62
     3
 10
234.608736148042
 20
-15.74140626446467
 30
0.0
 11
234.608736148042
 21
-22.44140321270686
 31
0.0
  0
LINE
  5
4BA
  8
0
  6
CONTINUOUS
 62
     3
 10
232.6746081409881
 20
-19.09137488956083
 30
0.0
 11
234.6087209203804
 21
-15.74139374756021
 31
0.0
  0
LINE
  5
4BB
  8
0
  6
CONTINUOUS
 62
     3
 10
232.6745787775313
 20
-19.09142550891568
 30
0.0
 11
234.608699186319
 21
-22.44141986541501
 31
0.0
  0
LINE
  5
4BC
  8
0
  6
CONTINUOUS
 62
     3
 10
188.7256184722608
 20
61.90859526141423
 30
0.0
 11
188.7256184722608
 21
-10.09140473858577
 31
0.0
  0
LINE
  5
4BD
  8
0
  6
CONTINUOUS
 62
     3
 10
238.7256184722608
 20
61.90859526141423
 30
0.0
 11
238.7256184722608
 21
-10.09140473858577
 31
0.0
  0
LINE
  5
4BE
  8
0
  6
CONTINUOUS
 62
     3
 10
188.7256184722608
 20
0.9085952614142343
 30
0.0
 11
217.7256184722608
 21
0.9085952614142343
 31
0.0
  0
LINE
  5
4BF
  8
0
  6
CONTINUOUS
 62
     3
 10
188.7256184722608
 20
50.90859526141423
 30
0.0
 11
217.7256184722608
 21
50.90859526141423
 31
0.0
  0
LINE
  5
4C0
  8
0
  6
CONTINUOUS
 62
     3
 10
197.7256184722608
 20
62.90859526141423
 30
0.0
 11
237.7256184722608
 21
62.90859526141423
 31
0.0
  0
LINE
  5
4C1
  8
0
  6
CONTINUOUS
 62
     3
 10
217.7256184722608
 20
57.40859526141423
 30
0.0
 11
217.7256184722608
 21
-5.591404738585766
 31
0.0
  0
LINE
  5
4C2
  8
0
  6
CONTINUOUS
 62
     3
 10
219.7256184722608
 20
57.40859526141423
 30
0.0
 11
219.7256184722608
 21
48.65859526141423
 31
0.0
  0
LINE
  5
4C3
  8
0
  6
CONTINUOUS
 62
     3
 10
227.7256184722608
 20
58.90859526141423
 30
0.0
 11
227.7256184722608
 21
-7.091404738585766
 31
0.0
  0
LINE
  5
4C4
  8
0
  6
CONTINUOUS
 62
     3
 10
229.7256184722608
 20
58.90859526141423
 30
0.0
 11
229.7256184722608
 21
-7.091404738585766
 31
0.0
  0
LINE
  5
4C5
  8
0
  6
CONTINUOUS
 62
     3
 10
217.7256184722608
 20
-5.591404738585766
 30
0.0
 11
219.7256184722608
 21
-5.591404738585766
 31
0.0
  0
LINE
  5
4C6
  8
0
  6
CONTINUOUS
 62
     3
 10
217.7256184722608
 20
57.40859526141423
 30
0.0
 11
219.7256184722608
 21
57.40859526141423
 31
0.0
  0
LINE
  5
4C7
  8
0
  6
CONTINUOUS
 62
     3
 10
219.7256184722608
 20
3.158595261414234
 30
0.0
 11
219.7256184722608
 21
-5.591404738585766
 31
0.0
  0
LINE
  5
4C8
  8
0
  6
CONTINUOUS
 62
     3
 10
219.7256184722608
 20
57.15859526141423
 30
0.0
 11
227.7256184722608
 21
57.15859526141423
 31
0.0
  0
LINE
  5
4C9
  8
0
  6
CONTINUOUS
 62
     3
 10
227.7256184722608
 20
-7.091404738585766
 30
0.0
 11
229.7256184722608
 21
-7.091404738585766
 31
0.0
  0
LINE
  5
4CA
  8
0
  6
CONTINUOUS
 62
     3
 10
227.7256184722608
 20
58.90859526141423
 30
0.0
 11
229.7256184722608
 21
58.90859526141423
 31
0.0
  0
LINE
  5
4CB
  8
0
  6
CONTINUOUS
 62
     3
 10
198.7256184722608
 20
-11.09140473858577
 30
0.0
 11
250.108736148042
 21
-11.09140473858577
 31
0.0
  0
LINE
  5
4CC
  8
0
  6
CONTINUOUS
 62
     3
 10
188.7256041910889
 20
61.90859082313784
 30
0.0
 11
189.7256052526784
 21
62.90859188472734
 31
0.0
  0
LINE
  5
4CD
  8
0
  6
CONTINUOUS
 62
     3
 10
238.7256491783692
 20
61.90858273094307
 30
0.0
 11
237.7256481167797
 21
62.90858379253257
 31
0.0
  0
LINE
  5
4CE
  8
0
  6
CONTINUOUS
 62
     3
 10
238.7256626653605
 20
-10.09143705813756
 30
0.0
 11
237.725661603771
 21
-11.09143811972706
 31
0.0
  0
LINE
  5
4CF
  8
0
  6
CONTINUOUS
 62
     3
 10
188.725636559868
 20
-10.09139929456194
 30
0.0
 11
189.7256376214575
 21
-11.09140035615144
 31
0.0
  0
LINE
  5
4D0
  8
0
  6
CONTINUOUS
 62
     3
 10
243.608736148042
 20
132.7085983131721
 30
0.0
 11
243.608736148042
 21
122.7085983131721
 31
0.0
  0
LINE
  5
4D1
  8
0
  6
CONTINUOUS
 62
     3
 10
238.9087239410108
 20
68.20859831317205
 30
0.0
 11
238.9087239410108
 21
62.90859526141423
 31
0.0
  0
LINE
  5
4D2
  8
0
  6
CONTINUOUS
 62
     3
 10
224.608736148042
 20
70.10859220965642
 30
0.0
 11
232.0087453033155
 21
70.10859220965642
 31
0.0
  0
LINE
  5
4D3
  8
0
  6
CONTINUOUS
 62
     3
 10
232.0087605621045
 20
70.10859220965642
 30
0.0
 11
232.0087605621045
 21
67.55860060199041
 31
0.0
  0
LINE
  5
4D4
  8
0
  6
CONTINUOUS
 62
     3
 10
232.0087453033155
 20
64.90859144671697
 30
0.0
 11
238.9087391997998
 21
64.90859144671697
 31
0.0
  0
LINE
  5
4D5
  8
0
  6
CONTINUOUS
 62
     3
 10
250.108736148042
 20
64.90859144671697
 30
0.0
 11
252.608736148042
 21
64.90859144671697
 31
0.0
  0
LINE
  5
4D6
  8
0
  6
CONTINUOUS
 62
     3
 10
236.608736148042
 20
132.7085983131721
 30
0.0
 11
236.608736148042
 21
64.90859144671697
 31
0.0
  0
LINE
  5
4D7
  8
0
  6
CONTINUOUS
 62
     3
 10
239.714449038667
 20
61.59031218035955
 30
0.0
 11
250.108736148042
 21
61.59031218035955
 31
0.0
  0
LINE
  5
4D8
  8
0
  6
CONTINUOUS
 62
     3
 10
224.608736148042
 20
83.90859526141423
 30
0.0
 11
224.608736148042
 21
68.47100370867986
 31
0.0
  0
LINE
  5
4D9
  8
0
  6
CONTINUOUS
 62
     3
 10
175.608736148042
 20
133.4085952614142
 30
0.0
 11
200.108736148042
 21
133.4085952614142
 31
0.0
  0
LINE
  5
4DA
  8
0
  6
CONTINUOUS
 62
     3
 10
237.608736148042
 20
122.7085983131721
 30
0.0
 11
253.108736148042
 21
122.7085983131721
 31
0.0
  0
LINE
  5
4DB
  8
0
  6
CONTINUOUS
 62
     3
 10
237.608736148042
 20
72.70859831317205
 30
0.0
 11
253.108736148042
 21
72.70859831317205
 31
0.0
  0
LINE
  5
4DC
  8
0
  6
CONTINUOUS
 62
     3
 10
237.608736148042
 20
122.7085983131721
 30
0.0
 11
237.608736148042
 21
92.70859831317205
 31
0.0
  0
LINE
  5
4DD
  8
0
  6
CONTINUOUS
 62
     3
 10
253.108736148042
 20
122.7085983131721
 30
0.0
 11
253.108736148042
 21
117.7085983131721
 31
0.0
  0
LINE
  5
4DE
  8
0
  6
CONTINUOUS
 62
     3
 10
243.608736148042
 20
72.70859831317205
 30
0.0
 11
243.608736148042
 21
68.20859831317205
 31
0.0
  0
LINE
  5
4DF
  8
0
  6
CONTINUOUS
 62
     3
 10
237.608736148042
 20
92.70859831317205
 30
0.0
 11
237.608736148042
 21
72.70859831317205
 31
0.0
  0
LINE
  5
4E0
  8
0
  6
CONTINUOUS
 62
     3
 10
253.108736148042
 20
92.70859831317205
 30
0.0
 11
253.108736148042
 21
87.70859831317205
 31
0.0
  0
LINE
  5
4E1
  8
0
  6
CONTINUOUS
 62
     3
 10
252.608736148042
 20
72.70859831317205
 30
0.0
 11
252.608736148042
 21
-79.59140473858577
 31
0.0
  0
LINE
  5
4E2
  8
0
  6
CONTINUOUS
 62
     3
 10
253.108736148042
 20
107.7085983131721
 30
0.0
 11
253.108736148042
 21
92.70859831317205
 31
0.0
  0
LINE
  5
4E3
  8
0
  6
CONTINUOUS
 62
     3
 10
253.108736148042
 20
77.70859831317205
 30
0.0
 11
253.108736148042
 21
72.70859831317205
 31
0.0
  0
LINE
  5
4E4
  8
0
  6
CONTINUOUS
 62
     3
 10
260.608736148042
 20
120.7085983131721
 30
0.0
 11
260.608736148042
 21
104.7085983131721
 31
0.0
  0
LINE
  5
4E5
  8
0
  6
CONTINUOUS
 62
     3
 10
237.608736148042
 20
107.7085983131721
 30
0.0
 11
260.608736148042
 21
107.7085983131721
 31
0.0
  0
LINE
  5
4E6
  8
0
  6
CONTINUOUS
 62
     3
 10
237.608736148042
 20
117.7085983131721
 30
0.0
 11
260.608736148042
 21
117.7085983131721
 31
0.0
  0
LINE
  5
4E7
  8
0
  6
CONTINUOUS
 62
     3
 10
237.608736148042
 20
87.70859831317205
 30
0.0
 11
260.608736148042
 21
87.70859831317205
 31
0.0
  0
LINE
  5
4E8
  8
0
  6
CONTINUOUS
 62
     3
 10
237.608736148042
 20
77.70859831317205
 30
0.0
 11
260.608736148042
 21
77.70859831317205
 31
0.0
  0
LINE
  5
4E9
  8
0
  6
CONTINUOUS
 62
     3
 10
260.608736148042
 20
90.70859831317205
 30
0.0
 11
260.608736148042
 21
74.70859831317205
 31
0.0
  0
LINE
  5
4EA
  8
0
  6
CONTINUOUS
 62
     3
 10
240.608736148042
 20
117.7085983131721
 30
0.0
 11
240.608736148042
 21
107.7085983131721
 31
0.0
  0
LINE
  5
4EB
  8
0
  6
CONTINUOUS
 62
     3
 10
240.608736148042
 20
87.70859831317205
 30
0.0
 11
240.608736148042
 21
77.70859831317205
 31
0.0
  0
LINE
  5
4EC
  8
0
  6
CONTINUOUS
 62
     3
 10
200.108736148042
 20
132.7085983131721
 30
0.0
 11
251.608736148042
 21
132.7085983131721
 31
0.0
  0
LINE
  5
4ED
  8
0
  6
CONTINUOUS
 62
     3
 10
238.9087239410108
 20
68.20859831317205
 30
0.0
 11
251.608736148042
 21
68.20859831317205
 31
0.0
  0
LINE
  5
4EE
  8
0
  6
CONTINUOUS
 62
     3
 10
175.608736148042
 20
25.90859526141423
 30
0.0
 11
175.608736148042
 21
-81.59140473858577
 31
0.0
  0
LINE
  5
4EF
  8
0
  6
CONTINUOUS
 62
     3
 10
233.7256184722608
 20
54.90859526141423
 30
0.0
 11
233.7256184722608
 21
50.90859526141423
 31
0.0
  0
LINE
  5
4F0
  8
0
  6
CONTINUOUS
 62
     3
 10
237.7256184722608
 20
54.90859526141423
 30
0.0
 11
237.7256184722608
 21
50.90859526141423
 31
0.0
  0
LINE
  5
4F1
  8
0
  6
CONTINUOUS
 62
     3
 10
229.7256184722608
 20
58.40859526141423
 30
0.0
 11
238.7256184722608
 21
58.40859526141423
 31
0.0
  0
LINE
  5
4F2
  8
0
  6
CONTINUOUS
 62
     3
 10
229.7256184722608
 20
50.90859526141423
 30
0.0
 11
238.7256184722608
 21
50.90859526141423
 31
0.0
  0
LINE
  5
4F3
  8
0
  6
CONTINUOUS
 62
     3
 10
229.7256184722608
 20
54.90859526141423
 30
0.0
 11
238.7256184722608
 21
54.90859526141423
 31
0.0
  0
LINE
  5
4F4
  8
0
  6
CONTINUOUS
 62
     3
 10
229.7256184722608
 20
49.90859526141423
 30
0.0
 11
238.7256184722608
 21
49.90859526141423
 31
0.0
  0
LINE
  5
4F5
  8
0
  6
CONTINUOUS
 62
     3
 10
229.7256184722608
 20
-6.591404738585766
 30
0.0
 11
238.7256184722608
 21
-6.591404738585766
 31
0.0
  0
LINE
  5
4F6
  8
0
  6
CONTINUOUS
 62
     3
 10
229.7256184722608
 20
1.908595261414234
 30
0.0
 11
238.7256184722608
 21
1.908595261414234
 31
0.0
  0
LINE
  5
4F7
  8
0
  6
CONTINUOUS
 62
     3
 10
219.7256184722608
 20
-5.341404738585766
 30
0.0
 11
227.7256184722608
 21
-5.341404738585766
 31
0.0
  0
LINE
  5
4F8
  8
0
  6
CONTINUOUS
 62
     3
 10
270.608736148042
 20
120.7085983131721
 30
0.0
 11
270.608736148042
 21
104.7085983131721
 31
0.0
  0
LINE
  5
4F9
  8
0
  6
CONTINUOUS
 62
     3
 10
270.608736148042
 20
90.70859831317205
 30
0.0
 11
270.608736148042
 21
74.70859831317205
 31
0.0
  0
LINE
  5
4FA
  8
0
  6
CONTINUOUS
 62
     3
 10
260.608736148042
 20
120.7085983131721
 30
0.0
 11
270.608736148042
 21
120.7085983131721
 31
0.0
  0
LINE
  5
4FB
  8
0
  6
CONTINUOUS
 62
     3
 10
260.608736148042
 20
104.7085983131721
 30
0.0
 11
270.608736148042
 21
104.7085983131721
 31
0.0
  0
LINE
  5
4FC
  8
0
  6
CONTINUOUS
 62
     3
 10
260.608736148042
 20
74.70859831317205
 30
0.0
 11
270.608736148042
 21
74.70859831317205
 31
0.0
  0
LINE
  5
4FD
  8
0
  6
CONTINUOUS
 62
     3
 10
260.608736148042
 20
90.70859831317205
 30
0.0
 11
270.608736148042
 21
90.70859831317205
 31
0.0
  0
LINE
  5
4FE
  8
0
  6
CENTER
 62
     7
 10
406.1292456524374
 20
47.04757711461369
 30
0.0
 11
435.1070200340749
 21
39.2830066995937
 31
0.0
  0
LINE
  5
4FF
  8
0
  6
CENTER
 62
     7
 10
403.8502183767481
 20
-7.099127040311231
 30
0.0
 11
415.8502245756317
 21
-27.88374461715247
 31
0.0
  0
LINE
  5
500
  8
0
  6
CENTER
 62
     7
 10
359.3604916417704
 20
-92.82973558149976
 30
0.0
 11
396.610009575617
 21
-71.32371598921461
 31
0.0
  0
ARC
  5
501
  8
0
  6
CENTER
 62
     7
 10
485.0212462845392
 20
25.90855407714847
 30
0.0
 40
66.67500305175781
 50
152.0827542483098
 51
177.9173164064794
  0
LINE
  5
502
  8
0
  6
CENTER
 62
     7
 10
440.8016011152357
 20
51.4388106196175
 30
0.0
 11
451.7940198647683
 21
45.09233539670063
 31
0.0
  0
LINE
  5
503
  8
0
  6
CENTER
 62
     7
 10
521.561008446079
 20
62.44829487724113
 30
0.0
 11
542.7742133067662
 21
83.66149794978904
 31
0.0
  0
LINE
  5
504
  8
0
  6
CENTER
 62
     7
 10
534.9354546145975
 20
39.28302235043694
 30
0.0
 11
563.9132289962352
 21
47.04759276545693
 31
0.0
  0
LINE
  5
505
  8
0
  6
CENTER
 62
     7
 10
463.8821791573455
 20
-52.98343336935633
 30
0.0
 11
471.646750743432
 21
-24.00566129066536
 31
0.0
  0
LINE
  5
506
  8
0
  6
CENTER
 62
     7
 10
498.3957076467278
 20
-24.00567513436747
 30
0.0
 11
506.1602798498872
 21
-52.98344951600504
 31
0.0
  0
LINE
  5
507
  8
0
  6
CENTER
 62
     7
 10
554.1922789753338
 20
-27.8837409677603
 30
0.0
 11
566.1922765911476
 21
-7.099138257230123
 31
0.0
  0
LINE
  5
508
  8
0
  6
CENTER
 62
     7
 10
528.2115323130137
 20
-12.88377426015993
 30
0.0
 11
540.2115337435253
 21
7.900835057619617
 31
0.0
  0
LINE
  5
509
  8
0
  6
CENTER
 62
     7
 10
512.0212462845392
 20
30.90855407714847
 30
0.0
 11
512.0212462845392
 21
20.90855407714847
 31
0.0
  0
LINE
  5
50A
  8
0
  6
CENTER
 62
     7
 10
458.0212462845392
 20
30.90855407714847
 30
0.0
 11
458.0212462845392
 21
20.90855407714847
 31
0.0
  0
LINE
  5
50B
  8
0
  6
CENTER
 62
     7
 10
472.6183608475275
 20
112.7085571289063
 30
0.0
 11
497.201361030633
 21
112.7085571289063
 31
0.0
  0
LINE
  5
50C
  8
0
  6
CENTER
 62
     7
 10
472.6183608475275
 20
82.70855712890628
 30
0.0
 11
497.201361030633
 21
82.70855712890628
 31
0.0
  0
LINE
  5
50D
  8
0
  6
CENTER
 62
     7
 10
485.0212878391429
 20
25.90856540671965
 30
0.0
 11
588.9442953298493
 21
-34.0914043141224
 31
0.0
  0
LINE
  5
50E
  8
0
  6
CENTER
 62
     7
 10
518.3928223761971
 20
45.17563892607407
 30
0.0
 11
579.4391758078697
 21
80.42076361894574
 31
0.0
  0
LINE
  5
50F
  8
0
  6
CENTER
 62
     7
 10
445.0212462845392
 20
112.3352661132813
 30
0.0
 11
445.0212462845392
 21
88.12083435058597
 31
0.0
  0
LINE
  5
510
  8
0
  6
CENTER
 62
     7
 10
575.4599275684722
 20
33.55295992633731
 30
0.0
 11
563.144955644644
 21
12.22280324332135
 31
0.0
  0
LINE
  5
511
  8
0
  6
CENTER
 62
     7
 10
579.868980214509
 20
17.33620903780096
 30
0.0
 11
558.8986543316913
 21
29.44343254854314
 31
0.0
  0
ARC
  5
512
  8
0
  6
CENTER
 62
     7
 10
485.0212462845392
 20
25.90855407714847
 30
0.0
 40
66.67500305175781
 50
2.082718697997996
 51
27.91727295876137
  0
ARC
  5
513
  8
0
  6
CENTER
 62
     7
 10
485.0212462845392
 20
25.90855407714847
 30
0.0
 40
66.67500305175781
 50
242.0826989235511
 51
268.7174518939335
  0
ARC
  5
514
  8
0
  6
CENTER
 62
     7
 10
485.0212462845392
 20
25.90855407714847
 30
0.0
 40
66.67500305175781
 50
271.0089940208512
 51
297.9172824071142
  0
ARC
  5
515
  8
0
  6
CENTER
 62
     7
 10
485.0212462845392
 20
25.90855407714847
 30
0.0
 40
66.67500305175781
 50
32.08272017315429
 51
57.91727891622929
  0
ARC
  5
516
  8
0
  6
CENTER
 62
     7
 10
485.0212462845392
 20
25.90855407714847
 30
0.0
 40
45.0
 50
142.9679077820628
 51
157.058465096394
  0
ARC
  5
517
  8
0
  6
CENTER
 62
     7
 10
485.0212462845392
 20
25.90855407714847
 30
0.0
 40
45.0
 50
261.3701149509133
 51
278.9631659508704
  0
ARC
  5
518
  8
0
  6
CENTER
 62
     7
 10
485.0212462845392
 20
25.90855407714847
 30
0.0
 40
45.0
 50
23.13907922864284
 51
36.82925426892253
  0
LINE
  5
519
  8
0
  6
CENTER
 62
     7
 10
365.0212462845392
 20
25.90855407714847
 30
0.0
 11
605.0212462845392
 21
25.90855407714847
 31
0.0
  0
LINE
  5
51A
  8
0
  6
CENTER
 62
     7
 10
381.0981958466734
 20
-34.09144190145503
 30
0.0
 11
485.0212421549725
 21
25.90855023073212
 31
0.0
  0
LINE
  5
51B
  8
0
  6
CENTER
 62
     7
 10
427.2683161186272
 20
83.66152024116209
 30
0.0
 11
448.4815209793145
 21
62.44831716861418
 31
0.0
  0
LINE
  5
51C
  8
0
  6
CENTER
 62
     7
 10
429.8309897477817
 20
7.900869349789701
 30
0.0
 11
441.8309911782932
 21
-12.88373996798984
 31
0.0
  0
LINE
  5
51D
  8
0
  6
CENTER
 62
     7
 10
403.8660605850763
 20
100.4085540771485
 30
0.0
 11
458.2508758011408
 21
100.4085540771485
 31
0.0
  0
LINE
  5
51E
  8
0
  6
CENTER
 62
     7
 10
446.91081612903
 20
-57.08224138534249
 30
0.0
 11
433.8875388463151
 21
-34.52526385548069
 31
0.0
  0
LINE
  5
51F
  8
0
  6
CENTER
 62
     7
 10
429.1974127168684
 20
-52.50936967573804
 30
0.0
 11
451.1438308514065
 21
-39.83859903059644
 31
0.0
  0
ARC
  5
520
  8
0
  6
CENTER
 62
     7
 10
485.0212462845392
 20
25.90855407714847
 30
0.0
 40
66.67500305175781
 50
122.0827465832946
 51
147.9172950810858
  0
LINE
  5
521
  8
0
  6
CENTER
 62
     7
 10
481.074034589125
 20
52.90859526141423
 30
0.0
 11
488.5009755070937
 21
52.90859526141423
 31
0.0
  0
LINE
  5
522
  8
0
  6
CENTER
 62
     7
 10
463.6121756908765
 20
8.990199619733062
 30
0.0
 11
459.8987052318921
 21
15.42211901165854
 31
0.0
  0
LINE
  5
523
  8
0
  6
CENTER
 62
     7
 10
510.3775464817659
 20
15.82698942186073
 30
0.0
 11
506.6640760227815
 21
9.395070029935255
 31
0.0
  0
LINE
  5
524
  8
0
  6
CENTER
 62
     7
 10
167.336031069917
 20
25.90859526141423
 30
0.0
 11
256.5673456479053
 21
25.90859526141423
 31
0.0
  0
LINE
  5
525
  8
0
  6
CENTER
 62
     7
 10
228.8502217437452
 20
-19.09140473858577
 30
0.0
 11
255.8502217437452
 21
-19.09140473858577
 31
0.0
  0
LINE
  5
526
  8
0
  6
CENTER
 62
     7
 10
153.9703694488233
 20
-40.76640779034358
 30
0.0
 11
256.1835652496045
 21
-40.76640779034358
 31
0.0
  0
LINE
  5
527
  8
0
  6
CENTER
 62
     7
 10
226.8113118316358
 20
52.90859526141423
 30
0.0
 11
240.1075917388623
 21
52.90859526141423
 31
0.0
  0
LINE
  5
528
  8
0
  6
CENTER
 62
     7
 10
215.608736148042
 20
-57.69157356484357
 30
0.0
 11
215.608736148042
 21
-84.60920060643197
 31
0.0
  0
LINE
  5
529
  8
0
  6
CENTER
 62
     7
 10
235.608720889253
 20
112.7085983131721
 30
0.0
 11
277.2834416534131
 21
112.7085983131721
 31
0.0
  0
LINE
  5
52A
  8
0
  6
CENTER
 62
     7
 10
235.608720889253
 20
82.70859831317205
 30
0.0
 11
277.0108204986279
 21
82.70859831317205
 31
0.0
  0
LINE
  5
52B
  8
0
  6
CENTER
 62
     7
 10
485.0212462845392
 20
145.9085540771485
 30
0.0
 11
485.0212462845392
 21
42.88313048030365
 31
0.0
  0
LINE
  5
52C
  8
0
  6
CENTER
 62
     7
 10
485.0212462845392
 20
34.67478078785501
 30
0.0
 11
485.0212462845392
 21
-88.61238098144528
 31
0.0
  0
LINE
  5
52D
  8
0
  6
DASHED2
 62
     7
 10
427.0212462845392
 20
108.4085540771485
 30
0.0
 11
435.974211067254
 21
108.4085540771485
 31
0.0
  0
LINE
  5
52E
  8
0
  6
DASHED2
 62
     7
 10
427.0212462845392
 20
92.40855407714847
 30
0.0
 11
436.326734870965
 21
92.40855407714847
 31
0.0
  0
LINE
  5
52F
  8
0
  6
DASHED2
 62
     7
 10
427.0212462845392
 20
116.4196014404297
 30
0.0
 11
427.0212462845392
 21
89.40855407714847
 31
0.0
  0
LINE
  5
530
  8
0
  6
DASHED2
 62
     7
 10
398.2802489700861
 20
89.40855407714847
 30
0.0
 11
427.0212462845392
 21
89.40855407714847
 31
0.0
  0
LINE
  5
531
  8
0
  6
DASHED2
 62
     7
 10
415.0212462845392
 20
102.8085479736328
 30
0.0
 11
415.0212462845392
 21
98.00856018066409
 31
0.0
  0
LINE
  5
532
  8
0
  6
DASHED2
 62
     7
 10
417.7212432327814
 20
103.7085571289063
 30
0.0
 11
417.7212432327814
 21
97.10855102539065
 31
0.0
  0
LINE
  5
533
  8
0
  6
DASHED2
 62
     7
 10
423.4599975052423
 20
94.70855712890628
 30
0.0
 11
426.5824950638361
 21
94.70855712890628
 31
0.0
  0
LINE
  5
534
  8
0
  6
DASHED2
 62
     7
 10
423.4599975052423
 20
106.1085510253907
 30
0.0
 11
426.5824950638361
 21
106.1085510253907
 31
0.0
  0
LINE
  5
535
  8
0
  6
DASHED2
 62
     7
 10
417.7212202623532
 20
97.10847579212205
 30
0.0
 11
415.0212234652231
 21
98.00847461140702
 31
0.0
  0
LINE
  5
536
  8
0
  6
DASHED2
 62
     7
 10
417.7212715614609
 20
103.708465280181
 30
0.0
 11
415.0212675264514
 21
102.8084640482698
 31
0.0
  0
LINE
  5
537
  8
0
  6
DASHED2
 62
     7
 10
418.7212432327814
 20
103.1538848876953
 30
0.0
 11
418.7212432327814
 21
97.61308288574222
 31
0.0
  0
LINE
  5
538
  8
0
  6
DASHED2
 62
     7
 10
423.0212462845392
 20
104.8585510253907
 30
0.0
 11
423.0212462845392
 21
95.95855712890628
 31
0.0
  0
LINE
  5
539
  8
0
  6
DASHED2
 62
     7
 10
423.7651351395197
 20
103.3022155761719
 30
0.0
 11
426.2773574295587
 21
103.3022155761719
 31
0.0
  0
LINE
  5
53A
  8
0
  6
DASHED2
 62
     7
 10
423.7651351395197
 20
97.51489257812503
 30
0.0
 11
426.2773574295587
 21
97.51489257812503
 31
0.0
  0
ARC
  5
53B
  8
0
  6
DASHED2
 62
     7
 10
417.7212432327814
 20
100.4085540771485
 30
0.0
 40
3.299999952316284
 50
73.48282241201397
 51
89.99998201391068
  0
ARC
  5
53C
  8
0
  6
DASHED2
 62
     7
 10
417.7212432327814
 20
100.4085540771485
 30
0.0
 40
3.299999952316284
 50
270.0000179860894
 51
286.5171775879861
  0
ARC
  5
53D
  8
0
  6
DASHED2
 62
     7
 10
425.0212462845392
 20
104.8585510253907
 30
0.0
 40
2.0
 50
0.0
 51
38.68218896809879
  0
ARC
  5
53E
  8
0
  6
DASHED2
 62
     7
 10
425.0212462845392
 20
95.95855712890628
 30
0.0
 40
2.0
 50
0.0
 51
51.09316519948326
  0
ARC
  5
53F
  8
0
  6
DASHED2
 62
     7
 10
421.0212462845392
 20
100.4085540771485
 30
0.0
 40
6.0
 50
0.0
 51
28.83423780766661
  0
ARC
  5
540
  8
0
  6
DASHED2
 62
     7
 10
429.0212462845392
 20
100.4085540771485
 30
0.0
 40
6.0
 50
151.1657740314789
 51
208.8342086656771
  0
ARC
  5
541
  8
0
  6
DASHED2
 62
     7
 10
421.0212462845392
 20
100.4085540771485
 30
0.0
 40
6.0
 50
331.1657621923334
 51
360.0
  0
ARC
  5
542
  8
0
  6
DASHED2
 62
     7
 10
425.0212462845392
 20
104.8585510253907
 30
0.0
 40
2.0
 50
308.9068348005167
 51
360.0
  0
ARC
  5
543
  8
0
  6
DASHED2
 62
     7
 10
425.0212462845392
 20
104.8585510253907
 30
0.0
 40
2.0
 50
141.317829701236
 51
231.0931121518319
  0
ARC
  5
544
  8
0
  6
DASHED2
 62
     7
 10
425.0212462845392
 20
95.95855712890628
 30
0.0
 40
2.0
 50
128.9068568849459
 51
218.68215299592
  0
ARC
  5
545
  8
0
  6
DASHED2
 62
     7
 10
419.0544494095392
 20
109.2085571289063
 30
0.0
 40
5.650000095367432
 50
265.9910930942637
 51
315.0592540539054
  0
ARC
  5
546
  8
0
  6
DASHED2
 62
     7
 10
419.0544494095392
 20
91.60855102539065
 30
0.0
 40
5.650000095367432
 50
44.94074594609464
 51
94.00890690573625
  0
ARC
  5
547
  8
0
  6
DASHED2
 62
     7
 10
415.7212432327814
 20
100.4085540771485
 30
0.0
 40
1.5
 50
117.818154050457
 51
242.1818423070773
  0
LINE
  5
548
  8
0
  6
DASHED2
 62
     7
 10
561.6323692601043
 20
66.21405080071187
 30
0.0
 11
558.2323692601044
 21
72.10302354644607
 31
0.0
  0
LINE
  5
549
  8
0
  6
DASHED2
 62
     7
 10
558.2323692601044
 20
72.10302354644607
 30
0.0
 11
576.3582651504047
 21
82.56801441801407
 31
0.0
  0
LINE
  5
54A
  8
0
  6
DASHED2
 62
     7
 10
558.2323692601044
 20
72.10302354644584
 30
0.0
 11
558.2323692601044
 21
68.17704171595673
 31
0.0
  0
LINE
  5
54B
  8
0
  6
DASHED2
 62
     7
 10
561.6323692601042
 20
66.21405080071199
 30
0.0
 11
558.2323692601045
 21
68.17704171595653
 31
0.0
  0
LINE
  5
54C
  8
0
  6
DASHED2
 62
     7
 10
561.6323692601043
 20
66.21405080071187
 30
0.0
 11
579.7723908957114
 21
76.68719717513528
 31
0.0
  0
LINE
  5
54D
  8
0
  6
DASHED2
 62
     7
 10
562.2624962790266
 20
75.12263878871673
 30
0.0
 11
576.0544944442058
 21
83.08545264204578
 31
0.0
  0
LINE
  5
54E
  8
0
  6
DASHED2
 62
     7
 10
566.2624962790266
 20
68.19443555844123
 30
0.0
 11
580.0544959009089
 21
76.15725025279821
 31
0.0
  0
LINE
  5
54F
  8
0
  6
DASHED2
 62
     7
 10
212.208736148042
 20
-60.59140473858577
 30
0.0
 11
219.008736148042
 21
-60.59140473858577
 31
0.0
  0
LINE
  5
550
  8
0
  6
DASHED2
 62
     7
 10
211.608736148042
 20
-65.59140473858577
 30
0.0
 11
211.608736148042
 21
-81.59140473858577
 31
0.0
  0
LINE
  5
551
  8
0
  6
DASHED2
 62
     7
 10
212.208736148042
 20
-60.59140473858577
 30
0.0
 11
212.208736148042
 21
-81.59140473858577
 31
0.0
  0
LINE
  5
552
  8
0
  6
DASHED2
 62
     7
 10
219.008736148042
 20
-60.59140473858577
 30
0.0
 11
219.008736148042
 21
-81.59140473858577
 31
0.0
  0
LINE
  5
553
  8
0
  6
DASHED2
 62
     7
 10
219.0087361480418
 20
-60.59140473858565
 30
0.0
 11
215.6087361480421
 21
-58.6284138233411
 31
0.0
  0
LINE
  5
554
  8
0
  6
DASHED2
 62
     7
 10
211.608736148042
 20
-65.59140473858577
 30
0.0
 11
219.608736148042
 21
-65.59140473858577
 31
0.0
  0
LINE
  5
555
  8
0
  6
DASHED2
 62
     7
 10
212.2087361480422
 20
-60.59140473858565
 30
0.0
 11
215.6087361480419
 21
-58.6284138233411
 31
0.0
  0
LINE
  5
556
  8
0
  6
DASHED2
 62
     7
 10
219.608736148042
 20
-65.59140473858577
 30
0.0
 11
219.608736148042
 21
-81.59140473858577
 31
0.0
  0
LINE
  5
557
  8
0
  6
DASHED2
 62
     7
 10
566.2624962790266
 20
68.19443555844123
 30
0.0
 11
562.2624962790266
 21
75.12263878871673
 31
0.0
  0
LINE
  5
558
  8
0
  6
CONTINUOUS
 62
     6
 10
285.2623504105158
 20
-180.59765625
 30
0.0
 11
439.9290374222345
 21
-180.59765625
 31
0.0
  0
LINE
  5
559
  8
0
  6
CONTINUOUS
 62
     6
 10
285.2623504105158
 20
-172.59765625
 30
0.0
 11
439.9290374222345
 21
-172.59765625
 31
0.0
  0
LINE
  5
55A
  8
0
  6
CONTINUOUS
 62
     6
 10
285.2623504105158
 20
-164.59765625
 30
0.0
 11
439.9290374222345
 21
-164.59765625
 31
0.0
  0
LINE
  5
55B
  8
0
  6
CONTINUOUS
 62
     6
 10
285.2623504105158
 20
-156.59765625
 30
0.0
 11
439.9290374222345
 21
-156.59765625
 31
0.0
  0
LINE
  5
55C
  8
0
  6
CONTINUOUS
 62
     6
 10
285.2623504105158
 20
-148.59765625
 30
0.0
 11
439.9290374222345
 21
-148.59765625
 31
0.0
  0
LINE
  5
55D
  8
0
  6
CONTINUOUS
 62
     6
 10
285.2623504105158
 20
-140.59765625
 30
0.0
 11
439.9290374222345
 21
-140.59765625
 31
0.0
  0
LINE
  5
55E
  8
0
  6
CONTINUOUS
 62
     6
 10
285.2623504105158
 20
-132.59765625
 30
0.0
 11
439.9290374222345
 21
-132.59765625
 31
0.0
  0
LINE
  5
55F
  8
0
  6
CONTINUOUS
 62
     6
 10
285.2623504105158
 20
-124.59765625
 30
0.0
 11
439.9290374222345
 21
-124.59765625
 31
0.0
  0
LINE
  5
560
  8
0
  6
CONTINUOUS
 62
     6
 10
285.2623504105158
 20
-116.59765625
 30
0.0
 11
439.9290374222345
 21
-116.59765625
 31
0.0
  0
LINE
  5
561
  8
0
  6
CONTINUOUS
 62
     6
 10
285.2623504105158
 20
-108.59765625
 30
0.0
 11
301.2623504105158
 21
-108.59765625
 31
0.0
  0
ARC
  5
562
  8
0
  6
CONTINUOUS
 62
     4
 10
485.0212462845392
 20
25.90855407714847
 30
0.0
 40
72.0
 50
172.9038892537983
 51
195.5224936172726
  0
ARC
  5
563
  8
0
  6
CONTINUOUS
 62
     4
 10
485.0212462845392
 20
25.90855407714847
 30
0.0
 40
66.0
 50
177.992147959026
 51
194.1733865077048
  0
ARC
  5
564
  8
0
  6
CONTINUOUS
 62
     4
 10
485.0212462845392
 20
25.90855407714847
 30
0.0
 40
60.0
 50
172.790986226818
 51
192.5424045420976
  0
ARC
  5
565
  8
0
  6
CONTINUOUS
 62
     4
 10
485.0212462845392
 20
25.90855407714847
 30
0.0
 40
60.0
 50
143.0088206151912
 51
157.2610894883116
  0
ARC
  5
566
  8
0
  6
CONTINUOUS
 62
     4
 10
485.0212462845392
 20
25.90855407714847
 30
0.0
 40
66.0
 50
147.9018725139399
 51
152.1471492718047
  0
ARC
  5
567
  8
0
  6
CONTINUOUS
 62
     4
 10
485.0212462845392
 20
25.90855407714847
 30
0.0
 40
72.0
 50
142.6794279122781
 51
157.3914777995672
  0
LINE
  5
568
  8
0
  6
CONTINUOUS
 62
     4
 10
526.9532072726737
 20
10.9367408867661
 30
0.0
 11
531.2032077793132
 21
18.29795668681302
 31
0.0
  0
LINE
  5
569
  8
0
  6
CONTINUOUS
 62
     4
 10
514.7031981829645
 20
-10.28089433963257
 30
0.0
 11
518.9532063189994
 21
-2.919665325086925
 31
0.0
  0
LINE
  5
56A
  8
0
  6
CONTINUOUS
 62
     4
 10
580.2137724641815
 20
-19.81325617167019
 30
0.0
 11
584.463772970821
 21
-12.45204037162327
 31
0.0
  0
LINE
  5
56B
  8
0
  6
CONTINUOUS
 62
     4
 10
567.9637652818211
 20
-41.03088809444418
 30
0.0
 11
572.2137715105072
 21
-33.66966238352322
 31
0.0
  0
LINE
  5
56C
  8
0
  6
CONTINUOUS
 62
     4
 10
566.6647291068088
 20
-40.28088470141253
 30
0.0
 11
570.9147372428437
 21
-32.91965568686689
 31
0.0
  0
LINE
  5
56D
  8
0
  6
CONTINUOUS
 62
     4
 10
565.3656910244475
 20
-39.53088461200557
 30
0.0
 11
569.6156991604825
 21
-32.16965559745992
 31
0.0
  0
LINE
  5
56E
  8
0
  6
CONTINUOUS
 62
     4
 10
564.0666472200397
 20
-38.78089443347264
 30
0.0
 11
568.3166572634235
 21
-31.41966211530232
 31
0.0
  0
LINE
  5
56F
  8
0
  6
CONTINUOUS
 62
     4
 10
562.7675959231798
 20
-38.03088671467023
 30
0.0
 11
567.017602151866
 21
-30.66966100374927
 31
0.0
  0
LINE
  5
570
  8
0
  6
CONTINUOUS
 62
     4
 10
578.9147420112157
 20
-19.0632428677645
 30
0.0
 11
583.1647425178552
 21
-11.70202706771758
 31
0.0
  0
LINE
  5
571
  8
0
  6
CONTINUOUS
 62
     4
 10
577.6157001141568
 20
-18.3132493856069
 30
0.0
 11
581.8657006207963
 21
-10.95203358555997
 31
0.0
  0
LINE
  5
572
  8
0
  6
CONTINUOUS
 62
     4
 10
576.3166582170978
 20
-17.56325590344929
 30
0.0
 11
580.5666587237373
 21
-10.20204010340237
 31
0.0
  0
LINE
  5
573
  8
0
  6
CONTINUOUS
 62
     4
 10
575.0176031055402
 20
-16.81325479189624
 30
0.0
 11
579.2676036121798
 21
-9.452038991849321
 31
0.0
  0
LINE
  5
574
  8
0
  6
CONTINUOUS
 62
     4
 10
528.2522491697328
 20
10.1867474046085
 30
0.0
 11
532.5022496763721
 21
17.54796320465542
 31
0.0
  0
LINE
  5
575
  8
0
  6
CONTINUOUS
 62
     4
 10
529.5512740375953
 20
9.43675494459697
 30
0.0
 11
533.8012745442346
 21
16.79797074464389
 31
0.0
  0
LINE
  5
576
  8
0
  6
CONTINUOUS
 62
     4
 10
530.8503121199564
 20
8.686754855190003
 30
0.0
 11
535.100312626596
 21
16.04797065523692
 31
0.0
  0
LINE
  5
577
  8
0
  6
CONTINUOUS
 62
     4
 10
532.1493596021186
 20
7.936740529138234
 30
0.0
 11
536.3993601087581
 21
15.29795632918516
 31
0.0
  0
LINE
  5
578
  8
0
  6
CONTINUOUS
 62
     4
 10
516.0022419873723
 20
-11.03088451816549
 30
0.0
 11
520.2522482160583
 21
-3.669658807244531
 31
0.0
  0
LINE
  5
579
  8
0
  6
CONTINUOUS
 62
     4
 10
517.3012668552348
 20
-11.78087697817702
 30
0.0
 11
521.5512730839208
 21
-4.419651267256057
 31
0.0
  0
LINE
  5
57A
  8
0
  6
CONTINUOUS
 62
     4
 10
518.6003030302471
 20
-12.53088037120867
 30
0.0
 11
522.8503111662822
 21
-5.169651356663024
 31
0.0
  0
LINE
  5
57B
  8
0
  6
CONTINUOUS
 62
     4
 10
519.8993543271071
 20
-13.28088809001108
 30
0.0
 11
524.149362463142
 21
-5.919659075465432
 31
0.0
  0
LINE
  5
57C
  8
0
  6
CONTINUOUS
 62
     4
 10
468.5212462845392
 20
69.70855712890628
 30
0.0
 11
477.0212462845392
 21
69.70855712890628
 31
0.0
  0
LINE
  5
57D
  8
0
  6
CONTINUOUS
 62
     4
 10
493.0212462845392
 20
69.70855712890628
 30
0.0
 11
501.5212462845392
 21
69.70855712890628
 31
0.0
  0
LINE
  5
57E
  8
0
  6
CONTINUOUS
 62
     4
 10
493.0212462845392
 20
131.2085571289063
 30
0.0
 11
501.5212462845392
 21
131.2085571289063
 31
0.0
  0
LINE
  5
57F
  8
0
  6
CONTINUOUS
 62
     4
 10
468.5212462845392
 20
131.2085571289063
 30
0.0
 11
477.0212462845392
 21
131.2085571289063
 31
0.0
  0
LINE
  5
580
  8
0
  6
CONTINUOUS
 62
     4
 10
468.5212462845392
 20
71.20855712890628
 30
0.0
 11
477.0212462845392
 21
71.20855712890628
 31
0.0
  0
LINE
  5
581
  8
0
  6
CONTINUOUS
 62
     4
 10
468.5212462845392
 20
72.70855712890628
 30
0.0
 11
477.0212462845392
 21
72.70855712890628
 31
0.0
  0
LINE
  5
582
  8
0
  6
CONTINUOUS
 62
     4
 10
468.5212462845392
 20
74.20855712890628
 30
0.0
 11
477.0212462845392
 21
74.20855712890628
 31
0.0
  0
LINE
  5
583
  8
0
  6
CONTINUOUS
 62
     4
 10
468.5212462845392
 20
75.70855712890628
 30
0.0
 11
477.0212462845392
 21
75.70855712890628
 31
0.0
  0
LINE
  5
584
  8
0
  6
CONTINUOUS
 62
     4
 10
493.0212462845392
 20
71.20855712890628
 30
0.0
 11
501.5212462845392
 21
71.20855712890628
 31
0.0
  0
LINE
  5
585
  8
0
  6
CONTINUOUS
 62
     4
 10
493.0212462845392
 20
72.70855712890628
 30
0.0
 11
501.5212462845392
 21
72.70855712890628
 31
0.0
  0
LINE
  5
586
  8
0
  6
CONTINUOUS
 62
     4
 10
493.0212462845392
 20
74.20855712890628
 30
0.0
 11
501.5212462845392
 21
74.20855712890628
 31
0.0
  0
LINE
  5
587
  8
0
  6
CONTINUOUS
 62
     4
 10
493.0212462845392
 20
75.70855712890628
 30
0.0
 11
501.5212462845392
 21
75.70855712890628
 31
0.0
  0
LINE
  5
588
  8
0
  6
CONTINUOUS
 62
     4
 10
493.0212462845392
 20
129.7085571289063
 30
0.0
 11
501.5212462845392
 21
129.7085571289063
 31
0.0
  0
LINE
  5
589
  8
0
  6
CONTINUOUS
 62
     4
 10
493.0212462845392
 20
128.2085571289063
 30
0.0
 11
501.5212462845392
 21
128.2085571289063
 31
0.0
  0
LINE
  5
58A
  8
0
  6
CONTINUOUS
 62
     4
 10
493.0212462845392
 20
126.7085571289063
 30
0.0
 11
501.5212462845392
 21
126.7085571289063
 31
0.0
  0
LINE
  5
58B
  8
0
  6
CONTINUOUS
 62
     4
 10
493.0212462845392
 20
125.2085571289063
 30
0.0
 11
501.5212462845392
 21
125.2085571289063
 31
0.0
  0
LINE
  5
58C
  8
0
  6
CONTINUOUS
 62
     4
 10
468.5212462845392
 20
129.7085571289063
 30
0.0
 11
477.0212462845392
 21
129.7085571289063
 31
0.0
  0
LINE
  5
58D
  8
0
  6
CONTINUOUS
 62
     4
 10
468.5212462845392
 20
128.2085571289063
 30
0.0
 11
477.0212462845392
 21
128.2085571289063
 31
0.0
  0
LINE
  5
58E
  8
0
  6
CONTINUOUS
 62
     4
 10
468.5212462845392
 20
126.7085571289063
 30
0.0
 11
477.0212462845392
 21
126.7085571289063
 31
0.0
  0
LINE
  5
58F
  8
0
  6
CONTINUOUS
 62
     4
 10
468.5212462845392
 20
125.2085571289063
 30
0.0
 11
477.0212462845392
 21
125.2085571289063
 31
0.0
  0
CIRCLE
  5
590
  8
0
  6
CONTINUOUS
 62
     4
 10
485.0212462845392
 20
-19.09144592285153
 30
0.0
 40
3.349999904632568
  0
CIRCLE
  5
591
  8
0
  6
CONTINUOUS
 62
     4
 10
485.0212462845392
 20
-19.09144592285153
 30
0.0
 40
4.0
  0
CIRCLE
  5
592
  8
0
  6
CONTINUOUS
 62
     4
 10
485.0212462845392
 20
25.90855407714847
 30
0.0
 40
32.5
  0
ARC
  5
593
  8
0
  6
CONTINUOUS
 62
     4
 10
485.0212462845392
 20
25.90855407714847
 30
0.0
 40
72.0
 50
104.4774275613876
 51
127.5692189775124
  0
ARC
  5
594
  8
0
  6
CONTINUOUS
 62
     4
 10
485.0212462845392
 20
25.90855407714847
 30
0.0
 40
66.0
 50
105.8265274919548
 51
121.9959348789437
  0
ARC
  5
595
  8
0
  6
CONTINUOUS
 62
     4
 10
485.0212462845392
 20
25.90855407714847
 30
0.0
 40
60.0
 50
107.4575006488366
 51
127.5576896181934
  0
ARC
  5
596
  8
0
  6
CONTINUOUS
 62
     4
 10
485.0212462845392
 20
25.90855407714847
 30
0.0
 40
48.0
 50
112.0241818092402
 51
146.737858015208
  0
ARC
  5
597
  8
0
  6
CONTINUOUS
 62
     4
 10
485.0212462845392
 20
25.90855407714847
 30
0.0
 40
42.0
 50
115.3767803545743
 51
146.512557395246
  0
ARC
  5
598
  8
0
  6
CONTINUOUS
 62
     4
 10
485.0212462845392
 20
25.90855407714847
 30
0.0
 40
42.0
 50
235.3769189112989
 51
266.51253022607
  0
ARC
  5
599
  8
0
  6
CONTINUOUS
 62
     4
 10
485.0212462845392
 20
25.90855407714847
 30
0.0
 40
48.0
 50
232.0242999708336
 51
266.7378308460321
  0
ARC
  5
59A
  8
0
  6
CONTINUOUS
 62
     4
 10
485.0212462845392
 20
25.90855407714847
 30
0.0
 40
54.0
 50
229.4712090439793
 51
310.5287883241587
  0
ARC
  5
59B
  8
0
  6
CONTINUOUS
 62
     4
 10
485.0212462845392
 20
25.90855407714847
 30
0.0
 40
60.0
 50
227.4575925110851
 51
248.2508924988279
  0
ARC
  5
59C
  8
0
  6
CONTINUOUS
 62
     4
 10
485.0212462845392
 20
25.90855407714847
 30
0.0
 40
42.0
 50
355.3769189113066
 51
386.5125608861309
  0
ARC
  5
59D
  8
0
  6
CONTINUOUS
 62
     4
 10
485.0212462845392
 20
25.90855407714847
 30
0.0
 40
48.0
 50
352.0242999708401
 51
386.7378512608092
  0
ARC
  5
59E
  8
0
  6
CONTINUOUS
 62
     4
 10
485.0212462845392
 20
25.90855407714847
 30
0.0
 40
54.0
 50
349.471209043985
 51
430.5286850499732
  0
ARC
  5
59F
  8
0
  6
CONTINUOUS
 62
     4
 10
485.0212462845392
 20
25.90855407714847
 30
0.0
 40
60.0
 50
347.4575925110902
 51
367.3811813841313
  0
ARC
  5
5A0
  8
0
  6
CONTINUOUS
 62
     4
 10
485.0212462845392
 20
25.90855407714847
 30
0.0
 40
66.0
 50
345.8266102954758
 51
361.6508721970394
  0
ARC
  5
5A1
  8
0
  6
CONTINUOUS
 62
     4
 10
485.0212462845392
 20
25.90855407714847
 30
0.0
 40
72.0
 50
344.4775029821554
 51
366.9435656144799
  0
ARC
  5
5A2
  8
0
  6
CONTINUOUS
 62
     4
 10
485.0212462845392
 20
25.90855407714847
 30
0.0
 40
42.0
 50
273.4874511045953
 51
304.6230794305859
  0
ARC
  5
5A3
  8
0
  6
CONTINUOUS
 62
     4
 10
485.0212462845392
 20
25.90855407714847
 30
0.0
 40
48.0
 50
273.2621504846333
 51
307.9756978081763
  0
ARC
  5
5A4
  8
0
  6
CONTINUOUS
 62
     4
 10
485.0212462845392
 20
25.90855407714847
 30
0.0
 40
60.0
 50
261.7490675064439
 51
278.2509069940323
  0
ARC
  5
5A5
  8
0
  6
CONTINUOUS
 62
     4
 10
485.0212462845392
 20
25.90855407714847
 30
0.0
 40
60.0
 50
291.7490888318375
 51
312.5424045421028
  0
ARC
  5
5A6
  8
0
  6
CONTINUOUS
 62
     4
 10
485.0212462845392
 20
25.90855407714847
 30
0.0
 40
66.0
 50
293.6255671930826
 51
314.1733865077094
  0
ARC
  5
5A7
  8
0
  6
CONTINUOUS
 62
     4
 10
485.0212462845392
 20
25.90855407714847
 30
0.0
 40
72.0
 50
292.0038412275006
 51
315.5224936172767
  0
ARC
  5
5A8
  8
0
  6
CONTINUOUS
 62
     4
 10
485.0212462845392
 20
25.90855407714847
 30
0.0
 40
66.0
 50
263.625545867689
 51
276.3744286327873
  0
ARC
  5
5A9
  8
0
  6
CONTINUOUS
 62
     4
 10
485.0212462845392
 20
25.90855407714847
 30
0.0
 40
72.0
 50
262.0038267322962
 51
277.9961545983691
  0
ARC
  5
5AA
  8
0
  6
CONTINUOUS
 62
     4
 10
485.0212462845392
 20
25.90855407714847
 30
0.0
 40
60.0
 50
52.48380878997079
 51
72.54231267980407
  0
ARC
  5
5AB
  8
0
  6
CONTINUOUS
 62
     4
 10
485.0212462845392
 20
25.90855407714847
 30
0.0
 40
66.0
 50
57.76611999970774
 51
74.17330370415546
  0
ARC
  5
5AC
  8
0
  6
CONTINUOUS
 62
     4
 10
485.0212462845392
 20
25.90855407714847
 30
0.0
 40
72.0
 50
52.71851458041994
 51
75.52241819648407
  0
ARC
  5
5AD
  8
0
  6
CONTINUOUS
 62
     4
 10
485.0212462845392
 20
25.90855407714847
 30
0.0
 40
60.0
 50
22.50849738144704
 51
37.52340980936551
  0
ARC
  5
5AE
  8
0
  6
CONTINUOUS
 62
     4
 10
485.0212462845392
 20
25.90855407714847
 30
0.0
 40
66.0
 50
27.4017746764384
 51
32.42009395211249
  0
ARC
  5
5AF
  8
0
  6
CONTINUOUS
 62
     4
 10
485.0212462845392
 20
25.90855407714847
 30
0.0
 40
72.0
 50
22.77198046641675
 51
37.12413061086488
  0
CIRCLE
  5
5B0
  8
0
  6
CONTINUOUS
 62
     4
 10
523.992391914422
 20
48.40855789184573
 30
0.0
 40
3.349999904632568
  0
CIRCLE
  5
5B1
  8
0
  6
CONTINUOUS
 62
     4
 10
446.0501082840509
 20
48.408561706543
 30
0.0
 40
3.349999904632568
  0
CIRCLE
  5
5B2
  8
0
  6
CONTINUOUS
 62
     4
 10
446.0501082840509
 20
48.408561706543
 30
0.0
 40
4.0
  0
CIRCLE
  5
5B3
  8
0
  6
CONTINUOUS
 62
     4
 10
523.992391914422
 20
48.40855789184573
 30
0.0
 40
4.0
  0
ARC
  5
5B4
  8
0
  6
CONTINUOUS
 62
     4
 10
485.0212462845392
 20
25.90855407714847
 30
0.0
 40
42.0
 50
153.4874509530146
 51
184.6230794305782
  0
ARC
  5
5B5
  8
0
  6
CONTINUOUS
 62
     4
 10
485.0212462845392
 20
25.90855407714847
 30
0.0
 40
48.0
 50
33.26215382393751
 51
67.97557964648046
  0
ARC
  5
5B6
  8
0
  6
CONTINUOUS
 62
     4
 10
485.0212462845392
 20
25.90855407714847
 30
0.0
 40
42.0
 50
33.48744078352119
 51
64.62294087369905
  0
ARC
  5
5B7
  8
0
  6
CONTINUOUS
 62
     4
 10
485.0212462845392
 20
25.90855407714847
 30
0.0
 40
54.0
 50
109.4711057698635
 51
190.528788324153
  0
ARC
  5
5B8
  8
0
  6
CONTINUOUS
 62
     4
 10
485.0212462845392
 20
25.90855407714847
 30
0.0
 40
66.0
 50
225.8266102954712
 51
246.3744141375827
  0
ARC
  5
5B9
  8
0
  6
CONTINUOUS
 62
     4
 10
485.0212462845392
 20
25.90855407714847
 30
0.0
 40
72.0
 50
224.4775029821512
 51
247.9961332729756
  0
ARC
  5
5BA
  8
0
  6
CONTINUOUS
 62
     4
 10
485.0212462845392
 20
25.90855407714847
 30
0.0
 40
48.0
 50
153.2621503330526
 51
187.9756978081697
  0
CIRCLE
  5
5BB
  8
0
  6
CONTINUOUS
 62
     4
 10
485.0212544377578
 20
52.90859526141423
 30
0.0
 40
1.5
  0
CIRCLE
  5
5BC
  8
0
  6
CONTINUOUS
 62
     4
 10
461.6385716374648
 20
12.40859526141423
 30
0.0
 40
1.5
  0
CIRCLE
  5
5BD
  8
0
  6
CONTINUOUS
 62
     4
 10
508.4039448674453
 20
12.40859526141423
 30
0.0
 40
1.5
  0
LINE
  5
5BE
  8
0
  6
CONTINUOUS
 62
     4
 10
237.608736148042
 20
-23.09140473858577
 30
0.0
 11
252.608736148042
 21
-23.09140473858577
 31
0.0
  0
LINE
  5
5BF
  8
0
  6
CONTINUOUS
 62
     4
 10
237.608736148042
 20
-15.09140473858577
 30
0.0
 11
252.608736148042
 21
-15.09140473858577
 31
0.0
  0
LINE
  5
5C0
  8
0
  6
CONTINUOUS
 62
     4
 10
237.608736148042
 20
-15.09140473858577
 30
0.0
 11
237.608736148042
 21
-23.09140473858577
 31
0.0
  0
LINE
  5
5C1
  8
0
  6
CONTINUOUS
 62
     4
 10
251.608736148042
 20
132.7085983131721
 30
0.0
 11
251.608736148042
 21
122.7085983131721
 31
0.0
  0
LINE
  5
5C2
  8
0
  6
CONTINUOUS
 62
     4
 10
250.608736148042
 20
132.7085983131721
 30
0.0
 11
250.608736148042
 21
122.7085983131721
 31
0.0
  0
LINE
  5
5C3
  8
0
  6
CONTINUOUS
 62
     4
 10
250.608736148042
 20
72.70859831317205
 30
0.0
 11
250.608736148042
 21
68.20859831317205
 31
0.0
  0
LINE
  5
5C4
  8
0
  6
CONTINUOUS
 62
     4
 10
251.608736148042
 20
72.70859831317205
 30
0.0
 11
251.608736148042
 21
68.20859831317205
 31
0.0
  0
LINE
  5
5C5
  8
0
  6
CONTINUOUS
 62
     4
 10
237.608736148042
 20
78.55860441668767
 30
0.0
 11
260.608736148042
 21
78.55860441668767
 31
0.0
  0
LINE
  5
5C6
  8
0
  6
CONTINUOUS
 62
     4
 10
237.608736148042
 20
86.85859220965642
 30
0.0
 11
260.608736148042
 21
86.85859220965642
 31
0.0
  0
LINE
  5
5C7
  8
0
  6
CONTINUOUS
 62
     4
 10
237.608736148042
 20
108.5586044166877
 30
0.0
 11
260.608736148042
 21
108.5586044166877
 31
0.0
  0
LINE
  5
5C8
  8
0
  6
CONTINUOUS
 62
     4
 10
237.608736148042
 20
116.8585922096564
 30
0.0
 11
260.608736148042
 21
116.8585922096564
 31
0.0
  0
LINE
  5
5C9
  8
0
  6
CONTINUOUS
 62
     4
 10
229.7256184722608
 20
57.73202055438298
 30
0.0
 11
238.7256184722608
 21
57.73202055438298
 31
0.0
  0
LINE
  5
5CA
  8
0
  6
CONTINUOUS
 62
     4
 10
229.7256184722608
 20
54.40859526141423
 30
0.0
 11
238.7256184722608
 21
54.40859526141423
 31
0.0
  0
LINE
  5
5CB
  8
0
  6
CONTINUOUS
 62
     4
 10
229.7256184722608
 20
51.40859526141423
 30
0.0
 11
238.7256184722608
 21
51.40859526141423
 31
0.0
  0
LINE
  5
5CC
  8
0
  6
CONTINUOUS
 62
     4
 10
229.7256184722608
 20
-5.914822402159984
 30
0.0
 11
238.7256184722608
 21
-5.914822402159984
 31
0.0
  0
LINE
  5
5CD
  8
0
  6
CONTINUOUS
 62
     4
 10
383.6060604221293
 20
-11.85892719907359
 30
0.0
 11
445.0858302405882
 21
23.63643053373405
 31
0.0
  0
LINE
  5
5CE
  8
0
  6
CONTINUOUS
 62
     4
 10
401.6060498008746
 20
-43.0358267832446
 30
0.0
 11
463.0858207245516
 21
-7.540468412339074
 31
0.0
  0
LINE
  5
5CF
  8
0
  6
CONTINUOUS
 62
     4
 10
568.4365292049038
 20
-43.03588555280908
 30
0.0
 11
506.9566710156531
 21
-7.540468955903425
 31
0.0
  0
LINE
  5
5D0
  8
0
  6
CONTINUOUS
 62
     4
 10
586.4365215666596
 20
-11.85898769087999
 30
0.0
 11
524.9566622721865
 21
23.63642954412617
 31
0.0
  0
LINE
  5
5D1
  8
0
  6
CONTINUOUS
 62
     4
 10
503.021332760581
 20
132.6204749833281
 30
0.0
 11
503.0213293643746
 21
61.62965441181093
 31
0.0
  0
LINE
  5
5D2
  8
0
  6
CONTINUOUS
 62
     4
 10
467.0213510200797
 20
132.62047670557
 30
0.0
 11
467.0213476238777
 21
61.62974734117472
 31
0.0
  0
TEXT
  5
5D3
  8
0
 62
     6
 10
287.8337783518381
 20
-178.9309997558594
 30
0.0
 40
4.0
  1
アンバランス量
 41
0.6638419631282793
  7
FDASTYLE1
 72
     5
 11
310.1388683129483
 21
-178.9309997558594
 31
0.0
  0
TEXT
  5
5D4
  8
0
 62
     6
 10
287.8337783518381
 20
-170.9309997558594
 30
0.0
 40
4.0
  1
質　量
 41
0.6506851053211331
  7
FDASTYLE1
 72
     5
 11
297.2036438684624
 21
-170.9309997558594
 31
0.0
  0
TEXT
  5
5D5
  8
0
 62
     6
 10
287.8337783518381
 20
-162.9309997558594
 30
0.0
 40
4.0
  1
慣性モーメント
 41
0.6638419631282793
  7
FDASTYLE1
 72
     5
 11
310.1388683129483
 21
-162.9309997558594
 31
0.0
  0
TEXT
  5
5D6
  8
0
 62
     6
 10
287.8337783518381
 20
-154.9309997558594
 30
0.0
 40
4.0
  1
最高使用回転速度
 41
0.6650247841349815
  7
FDASTYLE1
 72
     5
 11
313.3707300626214
 21
-154.9309997558594
 31
0.0
  0
TEXT
  5
5D7
  8
0
 62
     6
 10
287.8337783518381
 20
-146.9309997558594
 30
0.0
 40
4.0
  1
最大静的把握力
 41
0.6638419631282793
  7
FDASTYLE1
 72
     5
 11
310.1388683129483
 21
-146.9309997558594
 31
0.0
  0
TEXT
  5
5D8
  8
0
 62
     6
 10
287.8337783518381
 20
-138.9309997558594
 30
0.0
 40
4.0
  1
許容シリンダ力
 41
0.6638419631282793
  7
FDASTYLE1
 72
     5
 11
310.1388683129483
 21
-138.9309997558594
 31
0.0
  0
TEXT
  5
5D9
  8
0
 62
     6
 10
287.8337783518381
 20
-130.9309997558594
 30
0.0
 40
4.0
  1
推奨シリンダ
 41
0.6622518130451897
  7
FDASTYLE1
 72
     5
 11
306.9066305675395
 21
-130.9309997558594
 31
0.0
  0
TEXT
  5
5DA
  8
0
 62
     6
 10
287.8337783518381
 20
-122.9309997558594
 30
0.0
 40
4.0
  1
ピストンストローク
 41
0.6659390169707115
  7
FDASTYLE1
 72
     5
 11
316.6023438849728
 21
-122.9309997558594
 31
0.0
  0
TEXT
  5
5DB
  8
0
 62
     6
 10
287.8337783518381
 20
-114.9309997558594
 30
0.0
 40
4.0
  1
爪ﾉｽﾄﾛｰｸ
 41
0.6268397317836794
  7
FDASTYLE1
 72
     5
 11
305.886762627208
 21
-114.9309997558594
 31
0.0
  0
TEXT
  5
5DC
  8
0
 62
     6
 10
287.8337783518381
 20
-106.9309997558594
 30
0.0
 40
4.0
  1
仕　様
 41
0.6506851053211331
  7
FDASTYLE1
 72
     5
 11
297.2036438684624
 21
-106.9309997558594
 31
0.0
  0
TEXT
  5
5DD
  8
0
 62
     6
 10
377.0423240366525
 20
-114.6556701660156
 30
0.0
 40
4.0
  1
(直径ﾆﾃ) 6.2   mm
 41
0.6198436807297042
  7
FDASTYLE1
 72
     5
 11
415.2246947696023
 21
-114.6556701660156
 31
0.0
  0
TEXT
  5
5DE
  8
0
 62
     6
 10
408.9817847910471
 20
-122.4353942871094
 30
0.0
 40
4.0
  1
25   mm
 41
0.8176649865628666
  7
FDASTYLE1
 72
     5
 11
431.8764044148073
 21
-122.4353942871094
 31
0.0
  0
TEXT
  5
5DF
  8
0
 62
     6
 10
392.7294196787424
 20
-130.7117004394531
 30
0.0
 40
4.0
  1
52TS-TA1 　型
 41
0.6188786283534254
  7
FDASTYLE1
 72
     5
 11
420.9502851316586
 21
-130.7117004394531
 31
0.0
  0
TEXT
  5
5E0
  8
0
 62
     6
 10
401.0104942026682
 20
-138.6569519042969
 30
0.0
 40
4.0
  1
23.3   kN
 41
0.6741010388916524
  7
FDASTYLE1
 72
     5
 11
425.2781316027676
 21
-138.6569519042969
 31
0.0
  0
TEXT
  5
5E1
  8
0
 62
     6
 10
400.999706238801
 20
-146.6022033691406
 30
0.0
 40
4.0
  1
93.2   kN
 41
0.6741010388916524
  7
FDASTYLE1
 72
     5
 11
425.2673436389005
 21
-146.6022033691406
 31
0.0
  0
TEXT
  5
5E2
  8
0
 62
     6
 10
401.3557510080881
 20
-154.5474853515625
 30
0.0
 40
4.0
  1
5000  min
 41
0.7026992647840255
  7
FDASTYLE1
 72
     5
 11
426.652924540313
 21
-154.5474853515625
 31
0.0
  0
TEXT
  5
5E3
  8
0
 62
     6
 10
397.12574002176
 20
-162.6582641601562
 30
0.0
 40
4.0
  1
０．１２５ kg・m
 41
0.5917071515696267
  7
FDASTYLE1
 72
     5
 11
423.6342204120792
 21
-162.6582641601562
 31
0.0
  0
TEXT
  5
5E4
  8
0
 62
     6
 10
436.2557612125324
 20
-159.6784715750236
 30
0.0
 40
2.0
  1
2
 41
0.4761906862258911
  7
FDASTYLE1
 72
     5
 11
437.2081425849842
 21
-159.6784715750236
 31
0.0
  0
TEXT
  5
5E5
  8
0
 62
     6
 10
409.4509925547189
 20
-170.6035461425781
 30
0.0
 40
4.0
  1
17   kg
 41
0.6761460465808317
  7
FDASTYLE1
 72
     5
 11
428.3830818589822
 21
-170.6035461425781
 31
0.0
  0
TEXT
  5
5E6
  8
0
 62
     6
 10
384.8115348520822
 20
-178.7143249511719
 30
0.0
 40
4.0
  1
外周ﾆﾃ   4  g以内
 41
0.6090379479135303
  7
FDASTYLE1
 72
     5
 11
418.4304295769091
 21
-178.7143249511719
 31
0.0
  0
TEXT
  5
5E7
  8
0
 62
     6
 10
322.4004896839743
 20
-138.59765625
 30
0.0
 40
3.0
  1
52TS-TA1型　引側使用油圧力  3.5MPa
 41
0.6024139503691626
  7
FDASTYLE1
 72
     5
 11
370.834571293655
 21
-138.59765625
 31
0.0
  0
TEXT
  5
5E8
  8
0
 62
     6
 10
436.0898711845734
 20
-151.6287666977325
 30
0.0
 40
2.0
  1
-1
 41
0.5892859038098806
  7
FDASTYLE1
 72
     5
 11
438.447014799813
 21
-151.6287666977325
 31
0.0
  0
INSERT
  5
5E9
  8
LAYER0001
  6
CONTINUOUS
  2
DC_GROUP_1
 10
0.0
 20
0.0
 30
0.0
  0
INSERT
  5
5EA
  8
LAYER0001
  6
CONTINUOUS
  2
DC_GROUP_4
 10
0.0
 20
0.0
 30
0.0
  0
INSERT
  5
5EB
  8
LAYER0001
  6
CONTINUOUS
  2
DC_GROUP_7
 10
0.0
 20
0.0
 30
0.0
  0
INSERT
  5
5EC
  8
LAYER0001
  6
CONTINUOUS
  2
DC_GROUP_10
 10
0.0
 20
0.0
 30
0.0
  0
INSERT
  5
5ED
  8
LAYER0001
  6
CONTINUOUS
  2
DC_GROUP_13
 10
0.0
 20
0.0
 30
0.0
  0
INSERT
  5
5EE
  8
LAYER0001
  6
CONTINUOUS
  2
DC_GROUP_16
 10
0.0
 20
0.0
 30
0.0
  0
INSERT
  5
5EF
  8
LAYER0001
  6
CONTINUOUS
  2
DC_GROUP_19
 10
0.0
 20
0.0
 30
0.0
  0
INSERT
  5
5F0
  8
LAYER0001
  6
CONTINUOUS
  2
DC_GROUP_20
 10
0.0
 20
0.0
 30
0.0
  0
INSERT
  5
5F1
  8
LAYER0001
  6
CONTINUOUS
  2
DC_GROUP_23
 10
0.0
 20
0.0
 30
0.0
  0
INSERT
  5
5F2
  8
LAYER0001
  6
CONTINUOUS
  2
DC_GROUP_25
 10
0.0
 20
0.0
 30
0.0
  0
INSERT
  5
5F3
  8
LAYER0001
  6
CONTINUOUS
  2
DC_GROUP_28
 10
0.0
 20
0.0
 30
0.0
  0
INSERT
  5
5F4
  8
LAYER0001
  6
CONTINUOUS
  2
DC_GROUP_31
 10
0.0
 20
0.0
 30
0.0
  0
INSERT
  5
5F5
  8
LAYER0001
  6
CONTINUOUS
  2
DC_GROUP_34
 10
0.0
 20
0.0
 30
0.0
  0
INSERT
  5
5F6
  8
LAYER0001
  6
CONTINUOUS
  2
DC_GROUP_37
 10
0.0
 20
0.0
 30
0.0
  0
INSERT
  5
5F7
  8
LAYER0001
  6
CONTINUOUS
  2
DC_GROUP_40
 10
0.0
 20
0.0
 30
0.0
  0
INSERT
  5
5F8
  8
LAYER0001
  6
CONTINUOUS
  2
DC_GROUP_43
 10
0.0
 20
0.0
 30
0.0
  0
INSERT
  5
5F9
  8
LAYER0001
  6
CONTINUOUS
  2
DC_GROUP_46
 10
0.0
 20
0.0
 30
0.0
  0
INSERT
  5
5FA
  8
LAYER0001
  6
CONTINUOUS
  2
DC_GROUP_49
 10
0.0
 20
0.0
 30
0.0
  0
INSERT
  5
5FB
  8
LAYER0001
  6
CONTINUOUS
  2
DC_GROUP_52
 10
0.0
 20
0.0
 30
0.0
  0
INSERT
  5
5FC
  8
LAYER0001
  6
CONTINUOUS
  2
DC_GROUP_55
 10
0.0
 20
0.0
 30
0.0
  0
INSERT
  5
5FD
  8
LAYER0001
  6
CONTINUOUS
  2
DC_GROUP_58
 10
0.0
 20
0.0
 30
0.0
  0
INSERT
  5
5FE
  8
LAYER0001
  6
CONTINUOUS
  2
DC_GROUP_61
 10
0.0
 20
0.0
 30
0.0
  0
INSERT
  5
5FF
  8
LAYER0001
  6
CONTINUOUS
  2
DC_GROUP_64
 10
0.0
 20
0.0
 30
0.0
  0
INSERT
  5
600
  8
LAYER0001
  6
CONTINUOUS
  2
DC_GROUP_67
 10
0.0
 20
0.0
 30
0.0
  0
INSERT
  5
601
  8
LAYER0001
  6
CONTINUOUS
  2
DC_GROUP_69
 10
0.0
 20
0.0
 30
0.0
  0
INSERT
  5
602
  8
LAYER0001
  6
CONTINUOUS
  2
DC_GROUP_71
 10
0.0
 20
0.0
 30
0.0
  0
INSERT
  5
603
  8
LAYER0001
  6
CONTINUOUS
  2
DC_GROUP_74
 10
0.0
 20
0.0
 30
0.0
  0
INSERT
  5
604
  8
LAYER0001
  6
CONTINUOUS
  2
DC_GROUP_77
 10
0.0
 20
0.0
 30
0.0
  0
LINE
  5
605
  8
0
  6
CONTINUOUS
 62
     2
 10
497.2117576759173
 20
-35.56956259266551
 30
0.0
 11
502.2780146211134
 21
-32.64456477122073
 31
0.0
  0
LINE
  5
606
  8
0
  6
CONTINUOUS
 62
     2
 10
502.277990629509
 20
-32.64454710832067
 30
0.0
 11
507.3442402522668
 21
-35.56955748251673
 31
0.0
  0
LINE
  5
607
  8
0
  6
CONTINUOUS
 62
     2
 10
507.3442443314142
 20
-35.56956481933591
 30
0.0
 11
507.3442443314142
 21
-41.419563293457
 31
0.0
  0
LINE
  5
608
  8
0
  6
CONTINUOUS
 62
     2
 10
507.3442477799839
 20
-41.4195589742703
 30
0.0
 11
502.2779908347878
 21
-44.34455679571508
 31
0.0
  0
LINE
  5
609
  8
0
  6
CONTINUOUS
 62
     2
 10
502.2779875972714
 20
-44.34456012773987
 30
0.0
 11
497.2117362310759
 21
-41.41955289173163
 31
0.0
  0
LINE
  5
60A
  8
0
  6
CONTINUOUS
 62
     2
 10
497.2117370071955
 20
-41.41955184936521
 30
0.0
 11
497.2117370071955
 21
-35.56955337524411
 31
0.0
  0
LINE
  5
60B
  8
0
  6
CONTINUOUS
 62
     2
 10
485.0212526992379
 20
87.40855286533545
 30
0.0
 11
480.950920281624
 21
85.05855110402948
 31
0.0
  0
LINE
  5
60C
  8
0
  6
CONTINUOUS
 62
     2
 10
480.9509261551447
 20
85.05854797363284
 30
0.0
 11
480.9509261551447
 21
80.35855102539065
 31
0.0
  0
LINE
  5
60D
  8
0
  6
CONTINUOUS
 62
     2
 10
480.9509044322002
 20
80.35853555699217
 30
0.0
 11
485.0212191530408
 21
78.00853372117129
 31
0.0
  0
LINE
  5
60E
  8
0
  6
CONTINUOUS
 62
     2
 10
485.0212455124741
 20
78.00855826323644
 30
0.0
 11
489.0915779300879
 21
80.35856016461369
 31
0.0
  0
LINE
  5
60F
  8
0
  6
CONTINUOUS
 62
     2
 10
489.0915740433283
 20
80.35855102539065
 30
0.0
 11
489.0915740433283
 21
85.05854797363284
 31
0.0
  0
LINE
  5
610
  8
0
  6
CONTINUOUS
 62
     2
 10
489.0915508049892
 20
85.05851812946642
 30
0.0
 11
485.0212339010931
 21
87.40852411377367
 31
0.0
  0
LINE
  5
611
  8
0
  6
CONTINUOUS
 62
     2
 10
485.021265394989
 20
117.4085551409198
 30
0.0
 11
480.9509329773752
 21
115.0585533796139
 31
0.0
  0
LINE
  5
612
  8
0
  6
CONTINUOUS
 62
     2
 10
480.9509261551447
 20
115.0585479736328
 30
0.0
 11
480.9509261551447
 21
110.3585510253907
 31
0.0
  0
LINE
  5
613
  8
0
  6
CONTINUOUS
 62
     2
 10
480.9509074506403
 20
110.3585349866944
 30
0.0
 11
485.0212221714809
 21
108.0085331508736
 31
0.0
  0
LINE
  5
614
  8
0
  6
CONTINUOUS
 62
     2
 10
485.0212540960837
 20
108.008566767202
 30
0.0
 11
489.0915865136975
 21
110.3585686685792
 31
0.0
  0
LINE
  5
615
  8
0
  6
CONTINUOUS
 62
     2
 10
489.0915740433283
 20
110.3585510253907
 30
0.0
 11
489.0915740433283
 21
115.0585479736328
 31
0.0
  0
LINE
  5
616
  8
0
  6
CONTINUOUS
 62
     2
 10
489.0915385224479
 20
115.0585101398274
 30
0.0
 11
485.0212249221739
 21
117.4085142167815
 31
0.0
  0
CIRCLE
  5
617
  8
0
  6
CONTINUOUS
 62
     2
 10
502.2779906693048
 20
-38.49455261230466
 30
0.0
 40
9.0
  0
CIRCLE
  5
618
  8
0
  6
CONTINUOUS
 62
     2
 10
485.0212462845392
 20
82.70855712890628
 30
0.0
 40
8.0
  0
CIRCLE
  5
619
  8
0
  6
CONTINUOUS
 62
     2
 10
485.0212462845392
 20
112.7085571289063
 30
0.0
 40
8.0
  0
LINE
  5
61A
  8
0
  6
DASHED
 62
     2
 10
179.8087483550733
 20
-47.76640779034358
 30
0.0
 11
239.608736148042
 21
-47.76640779034358
 31
0.0
  0
LINE
  5
61B
  8
0
  6
DASHED
 62
     2
 10
179.8087483550733
 20
-33.76640779034358
 30
0.0
 11
239.608736148042
 21
-33.76640779034358
 31
0.0
  0
LINE
  5
61C
  8
0
  6
DASHED
 62
     2
 10
239.608736148042
 20
-50.76640779034358
 30
0.0
 11
252.608736148042
 21
-50.76640779034358
 31
0.0
  0
LINE
  5
61D
  8
0
  6
DASHED
 62
     2
 10
239.608736148042
 20
-30.76640779034358
 30
0.0
 11
252.608736148042
 21
-30.76640779034358
 31
0.0
  0
LINE
  5
61E
  8
0
  6
DASHED
 62
     2
 10
239.608736148042
 20
-30.76640779034358
 30
0.0
 11
239.608736148042
 21
-50.76640779034358
 31
0.0
  0
TEXT
  5
61F
  8
0
 62
     5
 10
456.2355310621805
 20
-65.59144592285153
 30
0.0
 40
5.0
  1
NIKKO
 41
0.635880610320819
  7
FDASTYLE1
 72
     5
 11
472.132546320201
 21
-65.59144592285153
 31
0.0
  0
TEXT
  5
620
  8
0
 62
     5
 10
491.5926588478632
 20
-65.09144592285153
 30
0.0
 40
4.0
  1
HF3-8B
 41
0.7326009741935735
  7
FDASTYLE1
 72
     5
 11
509.1750822285089
 21
-65.09144592285153
 31
0.0
  0
TEXT
  5
621
  8
0
 62
     5
 10
491.9498020115442
 20
-71.59144592285153
 30
0.0
 40
3.0
  1
0001
 41
0.6190477764350817
  7
FDASTYLE1
 72
     5
 11
499.3783753287652
 21
-71.59144592285153
 31
0.0
  0
TEXT
  5
622
  8
0
 62
     5
 10
575.7792008567384
 20
47.21119382005773
 30
0.0
 40
2.5
  1
F MAX   23KN
 50
120.0
 41
0.7578772143703342
  7
FDASTYLE1
 72
     5
 11
564.4110426411834
 21
66.90142143788056
 31
0.0
  0
TEXT
  5
623
  8
0
 62
     5
 10
579.2432969260743
 20
49.2111938200577
 30
0.0
 40
2.5
  1
ΣS MAX  93KN
 50
120.0
 41
0.6460330630949739
  7
FDASTYLE1
 72
     5
 11
569.3912927138759
 21
66.27536567196782
 31
0.0
  0
TEXT
  5
624
  8
0
 62
     5
 10
582.7074082541993
 20
51.21119382005773
 30
0.0
 40
2.5
  1
N MAX 5000 AT ΣS MAX
 50
120.0
 41
0.6445640188692571
  7
FDASTYLE1
 72
     5
 11
566.4321667777506
 21
79.40073896271926
 31
0.0
  0
TEXT
  5
625
  8
0
 62
     5
 10
547.7599678107677
 20
97.57784496474122
 30
0.0
 40
1.2
  1
-1
 50
120.0
 41
0.6285714285714266
  7
FDASTYLE1
 72
     5
 11
547.0056820964819
 21
98.88430614530743
 31
0.0
  0
INSERT
  5
626
  8
0
  6
CONTINUOUS
  2
DC_GROUP_79
 10
0.0
 20
0.0
 30
0.0
  0
INSERT
  5
627
  8
0
  6
CONTINUOUS
  2
DC_GROUP_80
 10
0.0
 20
0.0
 30
0.0
  0
INSERT
  5
628
  8
0
  6
CONTINUOUS
  2
DC_GROUP_83
 10
0.0
 20
0.0
 30
0.0
  0
INSERT
  5
629
  8
0
  6
CONTINUOUS
  2
DC_GROUP_86
 10
0.0
 20
0.0
 30
0.0
  0
INSERT
  5
62A
  8
0
  6
CONTINUOUS
  2
DC_GROUP_89
 10
0.0
 20
0.0
 30
0.0
  0
INSERT
  5
62B
  8
0
  6
CONTINUOUS
  2
DC_GROUP_91
 10
0.0
 20
0.0
 30
0.0
  0
INSERT
  5
62C
  8
0
  6
CONTINUOUS
  2
DC_GROUP_94
 10
0.0
 20
0.0
 30
0.0
  0
INSERT
  5
62D
  8
0
  6
CONTINUOUS
  2
DC_GROUP_99
 10
0.0
 20
0.0
 30
0.0
  0
INSERT
  5
62E
  8
0
  6
CONTINUOUS
  2
DC_GROUP_102
 10
0.0
 20
0.0
 30
0.0
  0
INSERT
  5
62F
  8
0
  6
CONTINUOUS
  2
DC_GROUP_105
 10
0.0
 20
0.0
 30
0.0
  0
INSERT
  5
630
  8
0
  6
CONTINUOUS
  2
DC_GROUP_108
 10
0.0
 20
0.0
 30
0.0
  0
INSERT
  5
631
  8
0
  6
CONTINUOUS
  2
DC_GROUP_110
 10
0.0
 20
0.0
 30
0.0
  0
INSERT
  5
632
  8
0
  6
CONTINUOUS
  2
DC_GROUP_113
 10
0.0
 20
0.0
 30
0.0
  0
INSERT
  5
633
  8
0
  6
CONTINUOUS
  2
DC_GROUP_116
 10
0.0
 20
0.0
 30
0.0
  0
TEXT
  5
634
  8
0
 62
     7
 10
614.7974697132397
 20
-142.6560311798123
 30
0.0
 40
3.0
  1
標　準
 41
0.6666666666666604
  7
FDASTYLE1
 72
     5
 11
621.9974697132396
 21
-142.6560311798123
 31
0.0
  0
TEXT
  5
635
  8
0
 62
     7
 10
186.073921694917
 20
-110.6198209167746
 30
0.0
 40
4.0
  1
MIN 24.8
 41
0.6571428571428566
  7
FDASTYLE1
 72
     5
 11
207.1024931234884
 21
-110.6198209167746
 31
0.0
  0
TEXT
  5
636
  8
0
 62
     7
 10
154.0488362456983
 20
148.9180404518439
 30
0.0
 40
4.0
  1
MIN-4.2
 41
0.6693877551020405
  7
FDASTYLE1
 72
     5
 11
172.7916933885554
 21
148.9180404518439
 31
0.0
  0
TEXT
  5
637
  8
0
 62
     7
 10
318.1270070886444
 20
34.71586291816451
 30
0.0
 40
4.0
  1
MIN 40.8
 50
90.0
 41
0.6571428571428566
  7
FDASTYLE1
 72
     5
 11
318.1270070886444
 21
55.74443434673592
 31
0.0
  0
TEXT
  5
638
  8
0
 62
     7
 10
280.4746080173896
 20
69.93209876471626
 30
0.0
 40
4.0
  1
MIN
 50
90.0
 41
0.5460852577109515
  7
FDASTYLE1
 72
     5
 11
280.4746080173896
 21
76.48512185724768
 31
0.0
  0
LINE
  5
639
  8
0
  6
DIVIDE
 62
     9
 10
250.6087514068311
 20
61.90859526141423
 30
0.0
 11
250.6087514068311
 21
30.2538024757697
 31
0.0
  0
LINE
  5
63A
  8
0
  6
DIVIDE
 62
     9
 10
175.608736148042
 20
61.90859526141423
 30
0.0
 11
175.608736148042
 21
30.07682722552556
 31
0.0
  0
LINE
  5
63B
  8
0
  6
DIVIDE
 62
     9
 10
250.6087472360245
 20
61.90860565882826
 30
0.0
 11
249.608756964028
 21
62.90859593082473
 31
0.0
  0
LINE
  5
63C
  8
0
  6
DIVIDE
 62
     9
 10
175.6087930458309
 20
61.90853687517267
 30
0.0
 11
176.6087941074204
 21
62.90853793676217
 31
0.0
  0
LINE
  5
63D
  8
0
  6
DIVIDE
 62
     9
 10
245.2006550933545
 20
62.90859526141423
 30
0.0
 11
249.6087514068311
 21
62.90859526141423
 31
0.0
  0
LINE
  5
63E
  8
0
  6
DIVIDE
 62
     9
 10
251.608736148042
 20
-31.76640779034358
 30
0.0
 11
251.608736148042
 21
-49.76640779034358
 31
0.0
  0
LINE
  5
63F
  8
0
  6
DIVIDE
 62
     9
 10
159.608736148042
 20
-34.76640779034358
 30
0.0
 11
159.608736148042
 21
-46.76640779034358
 31
0.0
  0
LINE
  5
640
  8
0
  6
DIVIDE
 62
     9
 10
159.608736148042
 20
-45.76640779034358
 30
0.0
 11
195.608736148042
 21
-45.76640779034358
 31
0.0
  0
LINE
  5
641
  8
0
  6
DIVIDE
 62
     9
 10
159.608736148042
 20
-35.76640779034358
 30
0.0
 11
195.608736148042
 21
-35.76640779034358
 31
0.0
  0
LINE
  5
642
  8
0
  6
DIVIDE
 62
     9
 10
159.608736148042
 20
-46.76640779034358
 30
0.0
 11
239.608736148042
 21
-46.76640779034358
 31
0.0
  0
LINE
  5
643
  8
0
  6
DIVIDE
 62
     9
 10
159.608736148042
 20
-34.76640779034358
 30
0.0
 11
239.608736148042
 21
-34.76640779034358
 31
0.0
  0
LINE
  5
644
  8
0
  6
DIVIDE
 62
     9
 10
239.608736148042
 20
-49.76640779034358
 30
0.0
 11
251.608736148042
 21
-49.76640779034358
 31
0.0
  0
LINE
  5
645
  8
0
  6
DIVIDE
 62
     9
 10
239.608736148042
 20
-31.76640779034358
 30
0.0
 11
251.608736148042
 21
-31.76640779034358
 31
0.0
  0
LINE
  5
646
  8
0
  6
DIVIDE
 62
     9
 10
195.608736148042
 20
-34.76640779034358
 30
0.0
 11
195.608736148042
 21
-46.76640779034358
 31
0.0
  0
LINE
  5
647
  8
LAYER0001
  6
CONTINUOUS
 62
     7
 10
179.8087483550733
 20
154.0346328590705
 30
0.0
 11
152.8213298888144
 21
154.0346328590705
 31
0.0
  0
LINE
  5
648
  8
LAYER0001
  6
CONTINUOUS
 62
     7
 10
251.608736148042
 20
153.9342910621955
 30
0.0
 11
245.7959462310498
 21
153.9342910621955
 31
0.0
  0
VIEWPORT
  5
48
 67
     1
  8
0
 10
356.5723937454768
 20
0.0
 30
0.0
 40
1662.0
 41
1140.0
 68
     1
 69
     1
1001
ACAD
1000
MVIEW
1002
{
1070
    16
1010
0.0
1020
0.0
1030
0.0
1020
0.0
1030
0.0
1010
0.0
1020
0.0
1030
1.0
1020
0.0
1030
1.0
1040
0.0
1040
1140.0
1040
356.5723937454768
1040
0.0
1040
50.0
1040
0.0
1040
0.0
1070
     0
1070
   100
1070
     0
1070
     1
1070
     0
1070
     0
1070
     0
1070
     0
1040
0.0
1040
0.0
1040
0.0
1040
0.5
1040
0.5
1040
0.0
1040
0.0
1070
     0
1002
{
1002
}
1002
}
  0
ENDSEC
  0
EOF
