  0
SECTION
  2
HEADER
  9
$ACADVER
  1
AC1009
  9
$DWGCODEPAGE
  3
ansi_932
  9
$INSBASE
 10
0.0
 20
0.0
 30
0.0
  9
$EXTMIN
 10
-807.0
 20
-582.0
 30
0.0
  9
$EXTMAX
 10
807.0
 20
582.0
 30
0.0
  9
$LIMMIN
 10
-297.0
 20
-210.0
  9
$LIMMAX
 10
297.0
 20
210.0
  9
$ORTHOMODE
 70
     0
  9
$REGENMODE
 70
     1
  9
$FILLMODE
 70
     1
  9
$QTEXTMODE
 70
     0
  9
$MIRRTEXT
 70
     1
  9
$DRAGMODE
 70
     2
  9
$LTSCALE
 40
1.0
  9
$OSMODE
 70
    37
  9
$ATTMODE
 70
     1
  9
$TEXTSIZE
 40
0.2
  9
$TRACEWID
 40
0.05
  9
$TEXTSTYLE
  7
STANDARD
  9
$CLAYER
  8
0
  9
$CELTYPE
  6
BYLAYER
  9
$CECOLOR
 62
   256
  9
$DIMSCALE
 40
1.0
  9
$DIMASZ
 40
2.5
  9
$DIMEXO
 40
0.0625
  9
$DIMDLI
 40
0.38
  9
$DIMRND
 40
0.0
  9
$DIMDLE
 40
0.0
  9
$DIMEXE
 40
0.18
  9
$DIMTP
 40
0.0
  9
$DIMTM
 40
0.0
  9
$DIMTXT
 40
0.18
  9
$DIMCEN
 40
0.09
  9
$DIMTSZ
 40
0.0
  9
$DIMTOL
 70
     0
  9
$DIMLIM
 70
     0
  9
$DIMTIH
 70
     1
  9
$DIMTOH
 70
     1
  9
$DIMSE1
 70
     0
  9
$DIMSE2
 70
     0
  9
$DIMTAD
 70
     3
  9
$DIMZIN
 70
     0
  9
$DIMBLK
  1

  9
$DIMASO
 70
     1
  9
$DIMSHO
 70
     1
  9
$DIMPOST
  1

  9
$DIMAPOST
  1

  9
$DIMALT
 70
     0
  9
$DIMALTD
 70
     2
  9
$DIMALTF
 40
25.4
  9
$DIMLFAC
 40
1.0
  9
$DIMTOFL
 70
     0
  9
$DIMTVP
 40
0.0
  9
$DIMTIX
 70
     0
  9
$DIMSOXD
 70
     0
  9
$DIMSAH
 70
     0
  9
$DIMBLK1
  1

  9
$DIMBLK2
  1

  9
$DIMSTYLE
  2
STANDARD
  9
$DIMCLRD
 70
     0
  9
$DIMCLRE
 70
     0
  9
$DIMCLRT
 70
     0
  9
$DIMTFAC
 40
1.0
  9
$DIMGAP
 40
0.09
  9
$LUNITS
 70
     2
  9
$LUPREC
 70
     4
  9
$SKETCHINC
 40
0.1
  9
$FILLETRAD
 40
0.5
  9
$AUNITS
 70
     0
  9
$AUPREC
 70
     0
  9
$MENU
  1
.
  9
$ELEVATION
 40
0.0
  9
$PELEVATION
 40
0.0
  9
$THICKNESS
 40
0.0
  9
$LIMCHECK
 70
     0
  9
$CHAMFERA
 40
0.5
  9
$CHAMFERB
 40
0.5
  9
$SKPOLY
 70
     0
  9
$TDCREATE
 40
2455483.581599386
  9
$TDUPDATE
 40
2455483.581599398
  9
$TDINDWG
 40
0.0000000116
  9
$TDUSRTIMER
 40
0.0000000116
  9
$USRTIMER
 70
     1
  9
$ANGBASE
 50
0.0
  9
$ANGDIR
 70
     0
  9
$PDMODE
 70
     0
  9
$PDSIZE
 40
1.0
  9
$PLINEWID
 40
0.0
  9
$COORDS
 70
     1
  9
$SPLFRAME
 70
     0
  9
$SPLINETYPE
 70
     6
  9
$SPLINESEGS
 70
     8
  9
$ATTDIA
 70
     0
  9
$ATTREQ
 70
     1
  9
$HANDLING
 70
     1
  9
$HANDSEED
  5
DF5
  9
$SURFTAB1
 70
     6
  9
$SURFTAB2
 70
     6
  9
$SURFTYPE
 70
     6
  9
$SURFU
 70
     6
  9
$SURFV
 70
     6
  9
$UCSNAME
  2

  9
$UCSORG
 10
0.0
 20
0.0
 30
0.0
  9
$UCSXDIR
 10
1.0
 20
0.0
 30
0.0
  9
$UCSYDIR
 10
0.0
 20
1.0
 30
0.0
  9
$PUCSNAME
  2

  9
$PUCSORG
 10
0.0
 20
0.0
 30
0.0
  9
$PUCSXDIR
 10
1.0
 20
0.0
 30
0.0
  9
$PUCSYDIR
 10
0.0
 20
1.0
 30
0.0
  9
$USERI1
 70
     0
  9
$USERI2
 70
     0
  9
$USERI3
 70
     0
  9
$USERI4
 70
     0
  9
$USERI5
 70
     0
  9
$USERR1
 40
0.0
  9
$USERR2
 40
0.0
  9
$USERR3
 40
0.0
  9
$USERR4
 40
0.0
  9
$USERR5
 40
0.0
  9
$WORLDVIEW
 70
     1
  9
$SHADEDGE
 70
     3
  9
$SHADEDIF
 70
    70
  9
$TILEMODE
 70
     1
  9
$MAXACTVP
 70
    64
  9
$PLIMCHECK
 70
     0
  9
$PEXTMIN
 10
1.000000000000000E+20
 20
1.000000000000000E+20
 30
1.000000000000000E+20
  9
$PEXTMAX
 10
-1.000000000000000E+20
 20
-1.000000000000000E+20
 30
-1.000000000000000E+20
  9
$PLIMMIN
 10
0.0
 20
0.0
  9
$PLIMMAX
 10
12.0
 20
9.0
  9
$UNITMODE
 70
     0
  9
$VISRETAIN
 70
     0
  9
$PLINEGEN
 70
     1
  9
$PSLTSCALE
 70
     0
  0
ENDSEC
  0
SECTION
  2
TABLES
  0
TABLE
  2
VPORT
 70
     1
  0
VPORT
  2
*ACTIVE
 70
     0
 10
0.0
 20
0.0
 11
1.0
 21
1.0
 12
0.0
 22
0.0
 13
0.0
 23
0.0
 14
0.5
 24
0.5
 15
0.5
 25
0.5
 16
0.0
 26
0.0
 36
1.0
 17
-0.0000000000000036
 27
0.0
 37
0.0
 40
395.76
 41
1.38659793814433
 42
50.0
 43
0.0
 44
0.0
 50
0.0
 51
0.0
 71
     0
 72
  1000
 73
     1
 74
     1
 75
     0
 76
     0
 77
     0
 78
     0
  0
ENDTAB
  0
TABLE
  2
LTYPE
 70
    28
  0
LTYPE
  2
CONTINUOUS
 70
     0
  3
Solid line
 72
    65
 73
     0
 40
0.0
  0
LTYPE
  2
HIDDENX2
 70
     0
  3
CADPAC LINETYPE
 72
    65
 73
     2
 40
9.281767955801115
 49
6.961325966850836
 49
-2.320441988950279
  0
LTYPE
  2
HIDDEN
 70
     0
  3
CADPAC LINETYPE
 72
    65
 73
     2
 40
6.961325966850836
 49
4.640883977900558
 49
-2.320441988950279
  0
LTYPE
  2
HIDDEN2
 70
     0
  3
CADPAC LINETYPE
 72
    65
 73
     2
 40
5.801104972375697
 49
3.480662983425418
 49
-2.320441988950279
  0
LTYPE
  2
DASHED
 70
     0
  3
CADPAC LINETYPE
 72
    65
 73
     2
 40
6.497237569060758
 49
4.640883977900558
 49
-1.8563535911602
  0
LTYPE
  2
DASHED2
 70
     0
  3
CADPAC LINETYPE
 72
    65
 73
     2
 40
4.176795580110536
 49
2.784530386740357
 49
-1.392265193370179
  0
LTYPE
  2
DASHEDX2
 70
     0
  3
CADPAC LINETYPE
 72
    65
 73
     2
 40
11.13812154696132
 49
9.281767955801115
 49
-1.8563535911602
  0
LTYPE
  2
DOTX2
 70
     0
  3
CADPAC LINETYPE
 72
    65
 73
     2
 40
4.060773480663045
 49
0.0
 49
-4.060773480663045
  0
LTYPE
  2
DOT
 70
     0
  3
CADPAC LINETYPE
 72
    65
 73
     2
 40
3.248618784530436
 49
0.0
 49
-3.248618784530436
  0
LTYPE
  2
DOT2
 70
     0
  3
CADPAC LINETYPE
 72
    65
 73
     2
 40
2.436464088397827
 49
0.0
 49
-2.436464088397827
  0
LTYPE
  2
CENTERX2
 70
     0
  3
CADPAC LINETYPE
 72
    65
 73
     4
 40
13.92265193370167
 49
5.801104972375697
 49
-2.900552486187848
 49
2.320441988950279
 49
-2.900552486187848
  0
LTYPE
  2
CENTER
 70
     0
  3
CADPAC LINETYPE
 72
    65
 73
     4
 40
10.67403314917128
 49
4.640883977900558
 49
-2.320441988950279
 49
1.392265193370167
 49
-2.320441988950279
  0
LTYPE
  2
CENTER2
 70
     0
  3
CADPAC LINETYPE
 72
    65
 73
     4
 40
7.425414364640892
 49
3.480662983425418
 49
-1.740331491712709
 49
0.4640883977900558
 49
-1.740331491712709
  0
LTYPE
  2
DASHDOTX2
 70
     0
  3
CADPAC LINETYPE
 72
    65
 73
     4
 40
22.27624309392252
 49
11.13812154696132
 49
-3.712707182320401
 49
3.712707182320401
 49
-3.712707182320401
  0
LTYPE
  2
DASHDOT
 70
     0
  3
CADPAC LINETYPE
 72
    65
 73
     4
 40
11.13812154696126
 49
5.569060773480658
 49
-1.8563535911602
 49
1.8563535911602
 49
-1.8563535911602
  0
LTYPE
  2
DASHDOT2
 70
     0
  3
CADPAC LINETYPE
 72
    65
 73
     4
 40
7.146961325966814
 49
4.176795580110493
 49
-1.39226519337015
 49
0.18563535911602
 49
-1.39226519337015
  0
LTYPE
  2
DIVIDEX2
 70
     0
  3
CADPAC LINETYPE
 72
    65
 73
     6
 40
29.70165745856332
 49
11.13812154696132
 49
-3.712707182320401
 49
3.712707182320401
 49
-3.712707182320401
 49
3.712707182320401
 49
-3.712707182320401
  0
LTYPE
  2
DIVIDE
 70
     0
  3
CADPAC LINETYPE
 72
    65
 73
     6
 40
14.85082872928166
 49
5.569060773480658
 49
-1.8563535911602
 49
1.8563535911602
 49
-1.8563535911602
 49
1.8563535911602
 49
-1.8563535911602
  0
LTYPE
  2
DIVIDE2
 70
     0
  3
CADPAC LINETYPE
 72
    65
 73
     6
 40
11.13812154696124
 49
4.176795580110493
 49
-1.39226519337015
 49
1.39226519337015
 49
-1.39226519337015
 49
1.39226519337015
 49
-1.39226519337015
  0
LTYPE
  2
BORDERX2
 70
     0
  3
CADPAC LINETYPE
 72
    65
 73
     6
 40
20.30386740331494
 49
5.801104972375697
 49
-2.900552486187848
 49
5.801104972375697
 49
-2.900552486187848
 49
0.0
 49
-2.900552486187848
  0
LTYPE
  2
BORDER
 70
     0
  3
CADPAC LINETYPE
 72
    65
 73
     6
 40
16.24309392265195
 49
4.640883977900558
 49
-2.320441988950279
 49
4.640883977900558
 49
-2.320441988950279
 49
0.0
 49
-2.320441988950279
  0
LTYPE
  2
BORDER2
 70
     0
  3
CADPAC LINETYPE
 72
    65
 73
     6
 40
12.06629834254142
 49
3.712707182320401
 49
-2.320441988950279
 49
1.392265193370179
 49
-2.320441988950279
 49
0.0
 49
-2.320441988950279
  0
LTYPE
  2
PHANTOMX2
 70
     0
  3
CADPAC LINETYPE
 72
    65
 73
     6
 40
17.40331491712709
 49
5.801104972375697
 49
-2.320441988950279
 49
2.320441988950279
 49
-2.320441988950279
 49
2.320441988950279
 49
-2.320441988950279
  0
LTYPE
  2
PHANTOM
 70
     0
  3
CADPAC LINETYPE
 72
    65
 73
     6
 40
14.38674033149173
 49
4.640883977900558
 49
-2.320441988950279
 49
1.392265193370167
 49
-2.320441988950279
 49
1.392265193370167
 49
-2.320441988950279
  0
LTYPE
  2
PHANTOM2
 70
     0
  3
CADPAC LINETYPE
 72
    65
 73
     6
 40
12.29834254143648
 49
3.480662983425418
 49
-2.320441988950279
 49
0.9281767955801116
 49
-2.320441988950279
 49
0.9281767955801116
 49
-2.320441988950279
  0
LTYPE
  2
ACAD_ISO06W100
 70
     0
  3
CADPAC LINETYPE
 72
    65
 73
     8
 40
24.59668508287297
 49
11.13812154696132
 49
-2.320441988950279
 49
1.392265193370179
 49
-2.320441988950279
 49
1.392265193370179
 49
-2.320441988950279
 49
1.392265193370179
 49
-2.320441988950279
  0
LTYPE
  2
ACAD_ISO13W100
 70
     0
  3
CADPAC LINETYPE
 72
    65
 73
     8
 40
18.56353591160223
 49
4.640883977900558
 49
-2.320441988950279
 49
4.640883977900558
 49
-2.320441988950279
 49
0.0
 49
-2.320441988950279
 49
0.0
 49
-2.320441988950279
  0
LTYPE
  2
ACAD_ISO14W100
 70
     0
  3
CADPAC LINETYPE
 72
    65
 73
     8
 40
13.92265193370167
 49
4.640883977900558
 49
-2.320441988950279
 49
0.0
 49
-2.320441988950279
 49
0.0
 49
-2.320441988950279
 49
0.0
 49
-2.320441988950279
  0
ENDTAB
  0
TABLE
  2
LAYER
 70
     2
  0
LAYER
  2
0
 70
     0
 62
     7
  6
CONTINUOUS
  0
LAYER
  2
LAYER0014
 70
     0
 62
     7
  6
CONTINUOUS
  0
ENDTAB
  0
TABLE
  2
STYLE
 70
     2
  0
STYLE
  2
STANDARD
 70
     0
 40
0.0
 41
1.0
 50
0.0
 71
     0
 42
0.2
  3
txt
  4

  0
STYLE
  2
FDASTYLE0
 70
     0
 40
0.0
 41
0.5803573749999998
 50
0.0
 71
     0
 42
0.2
  3
txt.shx
  4
bigfont
  0
ENDTAB
  0
TABLE
  2
VIEW
 70
     0
  0
ENDTAB
  0
TABLE
  2
UCS
 70
     0
  0
ENDTAB
  0
TABLE
  2
APPID
 70
     2
  0
APPID
  2
ACAD
 70
     0
  0
APPID
  2
DAFUSIONOUT
 70
     0
  0
ENDTAB
  0
TABLE
  2
DIMSTYLE
 70
     1
  0
DIMSTYLE
  2
STANDARD
 70
     0
  3

  4

  5

  6

  7

 40
1.0
 41
0.18
 42
0.0625
 43
0.38
 44
0.18
 45
0.0
 46
0.0
 47
0.0
 48
0.0
140
0.18
141
0.09
142
0.0
143
25.4
144
1.0
145
0.0
146
1.0
147
0.09
 71
     0
 72
     0
 73
     1
 74
     1
 75
     0
 76
     0
 77
     0
 78
     0
170
     0
171
     2
172
     0
173
     0
174
     0
175
     0
176
     0
177
     0
178
     0
  0
ENDTAB
  0
ENDSEC
  0
SECTION
  2
BLOCKS
  0
BLOCK
  8
0
  2
$MODEL_SPACE
 70
     0
 10
0.0
 20
0.0
 30
0.0
  3
$MODEL_SPACE
  1

  0
ENDBLK
  5
21
  8
0
  0
BLOCK
 67
     1
  8
0
  2
$PAPER_SPACE
 70
     0
 10
0.0
 20
0.0
 30
0.0
  3
$PAPER_SPACE
  1

  0
ENDBLK
  5
1D
 67
     1
  8
0
  0
BLOCK
  8
0
  2
DC_GROUP_1
 70
     0
 10
0.0
 20
0.0
 30
0.0
  3
DC_GROUP_1
  1

  0
LINE
  5
7DD
  8
0
  6
CENTER
 62
     7
 10
71.19769442000001
 20
70.49928297
 30
0.0
 11
108.14682622
 21
49.16669413
 31
0.0
  0
ENDBLK
  5
4D
  8
0
  0
BLOCK
  8
0
  2
DC_GROUP_2
 70
     0
 10
0.0
 20
0.0
 30
0.0
  3
DC_GROUP_2
  1

  0
LINE
  5
7DE
  8
0
  6
CENTER
 62
     7
 10
126.33334351
 20
108.33333588
 30
0.0
 11
126.33334351
 21
-31.99999237
 31
0.0
  0
ENDBLK
  5
50
  8
0
  0
BLOCK
  8
0
  2
DC_GROUP_3
 70
     0
 10
0.0
 20
0.0
 30
0.0
  3
DC_GROUP_3
  1

  0
LINE
  5
7DF
  8
0
  6
CENTER
 62
     7
 10
70.12254333
 20
82.66667175000001
 30
0.0
 11
105.83126831
 21
82.66667175000001
 31
0.0
  0
ENDBLK
  5
53
  8
0
  0
BLOCK
  8
0
  2
DC_GROUP_4
 70
     0
 10
0.0
 20
0.0
 30
0.0
  3
DC_GROUP_4
  1

  0
LINE
  5
7E0
  8
0
  6
CENTER
 62
     7
 10
-148.66665649
 20
38.66667175
 30
0.0
 11
-67.3478241
 21
38.66667175
 31
0.0
  0
ENDBLK
  5
56
  8
0
  0
BLOCK
  8
0
  2
DC_GROUP_5
 70
     0
 10
0.0
 20
0.0
 30
0.0
  3
DC_GROUP_5
  1

  0
LINE
  5
7E1
  8
0
  6
CENTER
 62
     7
 10
67.7594002
 20
4.8489776
 30
0.0
 11
126.33334375
 21
38.66665594
 31
0.0
  0
ENDBLK
  5
59
  8
0
  0
BLOCK
  8
0
  2
DC_GROUP_6
 70
     0
 10
0.0
 20
0.0
 30
0.0
  3
DC_GROUP_6
  1

  0
LINE
  5
7E2
  8
0
  6
CENTER
 62
     7
 10
-148.66665649
 20
-11.33332825
 30
0.0
 11
-68.55899048000001
 21
-11.33332825
 31
0.0
  0
ENDBLK
  5
5C
  8
0
  0
BLOCK
  8
0
  2
DC_GROUP_7
 70
     0
 10
0.0
 20
0.0
 30
0.0
  3
DC_GROUP_7
  1

  0
LINE
  5
7E3
  8
0
  6
CENTER
 62
     7
 10
-97.08209229000001
 20
8.666671750000001
 30
0.0
 11
-68.30432129
 21
8.666671750000001
 31
0.0
  0
ENDBLK
  5
5F
  8
0
  0
BLOCK
  8
0
  2
DC_GROUP_8
 70
     0
 10
0.0
 20
0.0
 30
0.0
  3
DC_GROUP_8
  1

  0
LINE
  5
7E4
  8
0
  6
CENTER
 62
     7
 10
-90.03636169000001
 20
74.16667175000001
 30
0.0
 11
-53.7881012
 21
74.16667175000001
 31
0.0
  0
ENDBLK
  5
62
  8
0
  0
BLOCK
  8
0
  2
DC_GROUP_9
 70
     0
 10
0.0
 20
0.0
 30
0.0
  3
DC_GROUP_9
  1

  0
LINE
  5
7E5
  8
0
  6
CENTER
 62
     7
 10
-90.03636169000001
 20
91.16667175000001
 30
0.0
 11
-53.7881012
 21
91.16667175000001
 31
0.0
  0
ENDBLK
  5
65
  8
0
  0
BLOCK
  8
0
  2
DC_GROUP_10
 70
     0
 10
0.0
 20
0.0
 30
0.0
  3
DC_GROUP_10
  1

  0
LINE
  5
7E6
  8
0
  6
CENTER
 62
     7
 10
76.36701082
 20
20.2108715
 30
0.0
 11
85.36701285
 21
4.62241286
 31
0.0
  0
ENDBLK
  5
68
  8
0
  0
BLOCK
  8
0
  2
DC_GROUP_11
 70
     0
 10
0.0
 20
0.0
 30
0.0
  3
DC_GROUP_11
  1

  0
LINE
  5
7E7
  8
0
  6
CENTER
 62
     7
 10
91.08944998
 20
28.71087468
 30
0.0
 11
100.08945105
 21
13.12241769
 31
0.0
  0
ENDBLK
  5
6B
  8
0
  0
BLOCK
  8
0
  2
DC_GROUP_12
 70
     0
 10
0.0
 20
0.0
 30
0.0
  3
DC_GROUP_12
  1

  0
LINE
  5
7E8
  8
0
  6
CENTER
 62
     7
 10
152.57728726
 20
13.12242624
 30
0.0
 11
161.57729596
 21
28.71089645
 31
0.0
  0
ENDBLK
  5
6E
  8
0
  0
BLOCK
  8
0
  2
DC_GROUP_13
 70
     0
 10
0.0
 20
0.0
 30
0.0
  3
DC_GROUP_13
  1

  0
LINE
  5
7E9
  8
0
  6
CENTER
 62
     7
 10
167.29968303
 20
4.62245473
 30
0.0
 11
176.29967647
 21
20.2108985
 31
0.0
  0
ENDBLK
  5
71
  8
0
  0
BLOCK
  8
0
  2
DC_GROUP_14
 70
     0
 10
0.0
 20
0.0
 30
0.0
  3
DC_GROUP_14
  1

  0
LINE
  5
7EA
  8
0
  6
CENTER
 62
     7
 10
54.66667175
 20
38.66667175
 30
0.0
 11
196.83334351
 21
38.66667175
 31
0.0
  0
ENDBLK
  5
74
  8
0
  0
BLOCK
  8
0
  2
DC_GROUP_15
 70
     0
 10
0.0
 20
0.0
 30
0.0
  3
DC_GROUP_15
  1

  0
LINE
  5
7EB
  8
0
  6
CENTER
 62
     7
 10
126.33336063
 20
38.66669476
 30
0.0
 11
186.99777195
 21
3.64208442
 31
0.0
  0
ENDBLK
  5
77
  8
0
  0
BLOCK
  8
0
  2
DC_GROUP_16
 70
     0
 10
0.0
 20
0.0
 30
0.0
  3
DC_GROUP_16
  1

  0
LINE
  5
7EC
  8
0
  6
CENTER
 62
     7
 10
144.51989137
 20
49.16666294
 30
0.0
 11
181.5513462
 21
70.54678099
 31
0.0
  0
ENDBLK
  5
7A
  8
0
  0
BLOCK
  8
0
  2
DC_GROUP_17
 70
     0
 10
0.0
 20
0.0
 30
0.0
  3
DC_GROUP_17
  1

  0
LINE
  5
7ED
  8
0
  6
CENTER
 62
     7
 10
116.83334351
 20
74.16667175000001
 30
0.0
 11
135.83334351
 21
74.16667175000001
 31
0.0
  0
ENDBLK
  5
7D
  8
0
  0
BLOCK
  8
0
  2
DC_GROUP_18
 70
     0
 10
0.0
 20
0.0
 30
0.0
  3
DC_GROUP_18
  1

  0
LINE
  5
7EE
  8
0
  6
CENTER
 62
     7
 10
116.83334351
 20
91.16667175000001
 30
0.0
 11
135.83334351
 21
91.16667175000001
 31
0.0
  0
ENDBLK
  5
80
  8
0
  0
BLOCK
  8
0
  2
DC_GROUP_19
 70
     0
 10
0.0
 20
0.0
 30
0.0
  3
DC_GROUP_19
  1

  0
LINE
  5
7EF
  8
0
  6
DASHED2
 62
     7
 10
74.55255127
 20
73.66667175000001
 30
0.0
 11
92.33334351000001
 21
73.66667175000001
 31
0.0
  0
ENDBLK
  5
83
  8
0
  0
BLOCK
  8
0
  2
DC_GROUP_20
 70
     0
 10
0.0
 20
0.0
 30
0.0
  3
DC_GROUP_20
  1

  0
LINE
  5
7F0
  8
0
  6
DASHED2
 62
     7
 10
92.33334351000001
 20
91.10949707
 30
0.0
 11
92.33334351000001
 21
73.66667175000001
 31
0.0
  0
ENDBLK
  5
86
  8
0
  0
BLOCK
  8
0
  2
DC_GROUP_21
 70
     0
 10
0.0
 20
0.0
 30
0.0
  3
DC_GROUP_21
  1

  0
LINE
  5
7F1
  8
0
  6
DASHED2
 62
     7
 10
92.33334351000001
 20
88.16667175000001
 30
0.0
 11
102.54470062
 21
88.16667175000001
 31
0.0
  0
ENDBLK
  5
89
  8
0
  0
BLOCK
  8
0
  2
DC_GROUP_22
 70
     0
 10
0.0
 20
0.0
 30
0.0
  3
DC_GROUP_22
  1

  0
LINE
  5
7F2
  8
0
  6
DASHED2
 62
     7
 10
92.33334351000001
 20
77.16667175000001
 30
0.0
 11
102.75010681
 21
77.16667175000001
 31
0.0
  0
ENDBLK
  5
8C
  8
0
  0
BLOCK
  8
0
  2
DC_GROUP_23
 70
     0
 10
0.0
 20
0.0
 30
0.0
  3
DC_GROUP_23
  1

  0
LINE
  5
7F3
  8
0
  6
DASHED2
 62
     7
 10
82.83334351000001
 20
85.06667328
 30
0.0
 11
82.83334351000001
 21
80.26667023
 31
0.0
  0
ENDBLK
  5
8F
  8
0
  0
BLOCK
  8
0
  2
DC_GROUP_24
 70
     0
 10
0.0
 20
0.0
 30
0.0
  3
DC_GROUP_24
  1

  0
LINE
  5
7F4
  8
0
  6
DASHED2
 62
     7
 10
89.95645141999999
 20
78.71665955
 30
0.0
 11
91.64268494
 21
78.71665955
 31
0.0
  0
ENDBLK
  5
92
  8
0
  0
BLOCK
  8
0
  2
DC_GROUP_25
 70
     0
 10
0.0
 20
0.0
 30
0.0
  3
DC_GROUP_25
  1

  0
LINE
  5
7F5
  8
0
  6
DASHED2
 62
     7
 10
89.95645141999999
 20
86.61668396
 30
0.0
 11
91.64268494
 21
86.61668396
 31
0.0
  0
ENDBLK
  5
95
  8
0
  0
BLOCK
  8
0
  2
DC_GROUP_26
 70
     0
 10
0.0
 20
0.0
 30
0.0
  3
DC_GROUP_26
  1

  0
LINE
  5
7F6
  8
0
  6
DASHED2
 62
     7
 10
85.13334656000001
 20
85.96667480000001
 30
0.0
 11
85.13334656000001
 21
79.36666870000001
 31
0.0
  0
ENDBLK
  5
98
  8
0
  0
BLOCK
  8
0
  2
DC_GROUP_27
 70
     0
 10
0.0
 20
0.0
 30
0.0
  3
DC_GROUP_27
  1

  0
LINE
  5
7F7
  8
0
  6
DASHED2
 62
     7
 10
89.33334351000001
 20
86.05924988
 30
0.0
 11
89.33334351000001
 21
79.27405548
 31
0.0
  0
ENDBLK
  5
9B
  8
0
  0
BLOCK
  8
0
  2
DC_GROUP_28
 70
     0
 10
0.0
 20
0.0
 30
0.0
  3
DC_GROUP_28
  1

  0
LINE
  5
7F8
  8
0
  6
DASHED2
 62
     7
 10
90.09727478000001
 20
84.66667175000001
 30
0.0
 11
91.56941223
 21
84.66667175000001
 31
0.0
  0
ENDBLK
  5
9E
  8
0
  0
BLOCK
  8
0
  2
DC_GROUP_29
 70
     0
 10
0.0
 20
0.0
 30
0.0
  3
DC_GROUP_29
  1

  0
LINE
  5
7F9
  8
0
  6
DASHED2
 62
     7
 10
90.09727478000001
 20
80.66667175000001
 30
0.0
 11
91.56941223
 21
80.66667175000001
 31
0.0
  0
ENDBLK
  5
A1
  8
0
  0
BLOCK
  8
0
  2
DC_GROUP_30
 70
     0
 10
0.0
 20
0.0
 30
0.0
  3
DC_GROUP_30
  1

  0
LINE
  5
7FA
  8
0
  6
DASHED2
 62
     7
 10
85.13335149
 20
79.36668355000001
 30
0.0
 11
82.83335108999999
 21
80.2666835
 31
0.0
  0
ENDBLK
  5
A4
  8
0
  0
BLOCK
  8
0
  2
DC_GROUP_31
 70
     0
 10
0.0
 20
0.0
 30
0.0
  3
DC_GROUP_31
  1

  0
LINE
  5
7FB
  8
0
  6
DASHED2
 62
     7
 10
82.83333374
 20
85.06668466000001
 30
0.0
 11
85.13333414
 21
85.96668462
 31
0.0
  0
ENDBLK
  5
A7
  8
0
  0
BLOCK
  8
0
  2
DC_GROUP_32
 70
     0
 10
0.0
 20
0.0
 30
0.0
  3
DC_GROUP_32
  1

  0
LINE
  5
7FC
  8
0
  6
DASHED2
 62
     7
 10
86.13334656000001
 20
85.27974700999999
 30
0.0
 11
86.13334656000001
 21
79.98771667
 31
0.0
  0
ENDBLK
  5
AA
  8
0
  0
BLOCK
  8
0
  2
DC_GROUP_33
 70
     0
 10
0.0
 20
0.0
 30
0.0
  3
DC_GROUP_33
  1

  0
LINE
  5
7FD
  8
0
  6
DIVIDE
 62
     7
 10
-128.33332825
 20
63.66667175
 30
0.0
 11
-128.33332825
 21
33.40166855
 31
0.0
  0
ENDBLK
  5
AD
  8
0
  0
BLOCK
  8
0
  2
DC_GROUP_34
 70
     0
 10
0.0
 20
0.0
 30
0.0
  3
DC_GROUP_34
  1

  0
LINE
  5
7FE
  8
0
  6
DIVIDE
 62
     7
 10
-128.3333641
 20
63.70432343
 30
0.0
 11
-127.37098087
 21
64.66670657
 31
0.0
  0
ENDBLK
  5
B0
  8
0
  0
BLOCK
  8
0
  2
DC_GROUP_35
 70
     0
 10
0.0
 20
0.0
 30
0.0
  3
DC_GROUP_35
  1

  0
LINE
  5
7FF
  8
0
  6
DIVIDE
 62
     7
 10
-140.33336116
 20
63.70431854
 30
0.0
 11
-139.37097793
 21
64.66670168
 31
0.0
  0
ENDBLK
  5
B3
  8
0
  0
BLOCK
  8
0
  2
DC_GROUP_36
 70
     0
 10
0.0
 20
0.0
 30
0.0
  3
DC_GROUP_36
  1

  0
LINE
  5
800
  8
0
  6
DIVIDE
 62
     7
 10
-140.33332825
 20
63.66667175
 30
0.0
 11
-140.33332825
 21
13.66666222
 31
0.0
  0
ENDBLK
  5
B6
  8
0
  0
BLOCK
  8
0
  2
DC_GROUP_37
 70
     0
 10
0.0
 20
0.0
 30
0.0
  3
DC_GROUP_37
  1

  0
LINE
  5
801
  8
0
  6
CONTINUOUS
 62
     3
 10
150.60111275
 20
40.35960215
 30
0.0
 11
187.2599385
 21
19.19462157
 31
0.0
  0
ENDBLK
  5
B9
  8
0
  0
BLOCK
  8
0
  2
DC_GROUP_38
 70
     0
 10
0.0
 20
0.0
 30
0.0
  3
DC_GROUP_38
  1

  0
LINE
  5
802
  8
0
  6
CONTINUOUS
 62
     3
 10
137.00108968
 20
16.8037449
 30
0.0
 11
173.65994847
 21
-4.36125475
 31
0.0
  0
ENDBLK
  5
BC
  8
0
  0
BLOCK
  8
0
  2
DC_GROUP_39
 70
     0
 10
0.0
 20
0.0
 30
0.0
  3
DC_GROUP_39
  1

  0
LINE
  5
803
  8
0
  6
CONTINUOUS
 62
     3
 10
65.40673916999999
 20
19.194629
 30
0.0
 11
102.06560457
 21
40.35963247
 31
0.0
  0
ENDBLK
  5
BF
  8
0
  0
BLOCK
  8
0
  2
DC_GROUP_40
 70
     0
 10
0.0
 20
0.0
 30
0.0
  3
DC_GROUP_40
  1

  0
LINE
  5
804
  8
0
  6
CONTINUOUS
 62
     3
 10
79.00676912
 20
-4.36128594
 30
0.0
 11
115.66562792
 21
16.80371371
 31
0.0
  0
ENDBLK
  5
C2
  8
0
  0
BLOCK
  8
0
  2
DC_GROUP_41
 70
     0
 10
0.0
 20
0.0
 30
0.0
  3
DC_GROUP_41
  1

  0
LINE
  5
805
  8
0
  6
CONTINUOUS
 62
     3
 10
173.65997704
 20
-4.36128422
 30
0.0
 11
187.25997714
 21
19.1946037
 31
0.0
  0
ENDBLK
  5
C5
  8
0
  0
BLOCK
  8
0
  2
DC_GROUP_42
 70
     0
 10
0.0
 20
0.0
 30
0.0
  3
DC_GROUP_42
  1

  0
LINE
  5
806
  8
0
  6
CONTINUOUS
 62
     3
 10
65.40676219
 20
19.19457811
 30
0.0
 11
79.00676229
 21
-4.3613098
 31
0.0
  0
ENDBLK
  5
C8
  8
0
  0
BLOCK
  8
0
  2
DC_GROUP_43
 70
     0
 10
0.0
 20
0.0
 30
0.0
  3
DC_GROUP_43
  1

  0
LINE
  5
807
  8
0
  6
CONTINUOUS
 62
     3
 10
142.48302138
 20
13.63870675
 30
0.0
 11
156.08302148
 21
37.19459467
 31
0.0
  0
ENDBLK
  5
CB
  8
0
  0
BLOCK
  8
0
  2
DC_GROUP_44
 70
     0
 10
0.0
 20
0.0
 30
0.0
  3
DC_GROUP_44
  1

  0
LINE
  5
808
  8
0
  6
CONTINUOUS
 62
     3
 10
96.5836853
 20
37.194656
 30
0.0
 11
110.1836873
 21
13.63876478
 31
0.0
  0
ENDBLK
  5
CE
  8
0
  0
BLOCK
  8
0
  2
DC_GROUP_45
 70
     0
 10
0.0
 20
0.0
 30
0.0
  3
DC_GROUP_45
  1

  0
LINE
  5
809
  8
0
  6
CONTINUOUS
 62
     3
 10
140.75099526
 20
14.63871906
 30
0.0
 11
154.35099536
 21
38.19460698
 31
0.0
  0
ENDBLK
  5
D1
  8
0
  0
BLOCK
  8
0
  2
DC_GROUP_46
 70
     0
 10
0.0
 20
0.0
 30
0.0
  3
DC_GROUP_46
  1

  0
LINE
  5
80A
  8
0
  6
CONTINUOUS
 62
     3
 10
98.31574179
 20
38.19464621
 30
0.0
 11
111.9157438
 21
14.63875499
 31
0.0
  0
ENDBLK
  5
D4
  8
0
  0
BLOCK
  8
0
  2
DC_GROUP_47
 70
     0
 10
0.0
 20
0.0
 30
0.0
  3
DC_GROUP_47
  1

  0
LINE
  5
80B
  8
0
  6
CONTINUOUS
 62
     3
 10
102.06559932
 20
40.35962997
 30
0.0
 11
115.66561372
 21
16.80371727
 31
0.0
  0
ENDBLK
  5
D7
  8
0
  0
BLOCK
  8
0
  2
DC_GROUP_48
 70
     0
 10
0.0
 20
0.0
 30
0.0
  3
DC_GROUP_48
  1

  0
LINE
  5
80C
  8
0
  6
CONTINUOUS
 62
     3
 10
137.00111798
 20
16.80372964
 30
0.0
 11
150.60111045
 21
40.35960434
 31
0.0
  0
ENDBLK
  5
DA
  8
0
  0
BLOCK
  8
0
  2
DC_GROUP_49
 70
     0
 10
0.0
 20
0.0
 30
0.0
  3
DC_GROUP_49
  1

  0
LINE
  5
80D
  8
0
  6
CONTINUOUS
 62
     3
 10
187.61385328
 20
26.38043565
 30
0.0
 11
188.97484102
 21
25.59466909
 31
0.0
  0
ENDBLK
  5
DD
  8
0
  0
BLOCK
  8
0
  2
DC_GROUP_50
 70
     0
 10
0.0
 20
0.0
 30
0.0
  3
DC_GROUP_50
  1

  0
LINE
  5
80E
  8
0
  6
CONTINUOUS
 62
     3
 10
167.61385419
 20
-8.260643780000001
 30
0.0
 11
168.97481551
 21
-9.046395070000001
 31
0.0
  0
ENDBLK
  5
E0
  8
0
  0
BLOCK
  8
0
  2
DC_GROUP_51
 70
     0
 10
0.0
 20
0.0
 30
0.0
  3
DC_GROUP_51
  1

  0
LINE
  5
80F
  8
0
  6
CONTINUOUS
 62
     3
 10
83.69188403
 20
-9.04641026
 30
0.0
 11
85.05286517
 21
-8.260647519999999
 31
0.0
  0
ENDBLK
  5
E3
  8
0
  0
BLOCK
  8
0
  2
DC_GROUP_52
 70
     0
 10
0.0
 20
0.0
 30
0.0
  3
DC_GROUP_52
  1

  0
LINE
  5
810
  8
0
  6
CONTINUOUS
 62
     3
 10
63.69187671
 20
25.59460715
 30
0.0
 11
65.05286445
 21
26.3803737
 31
0.0
  0
ENDBLK
  5
E6
  8
0
  0
BLOCK
  8
0
  2
DC_GROUP_53
 70
     0
 10
0.0
 20
0.0
 30
0.0
  3
DC_GROUP_53
  1

  0
LINE
  5
811
  8
0
  6
CONTINUOUS
 62
     3
 10
112.7333374
 20
101.16667175
 30
0.0
 11
139.93334961
 21
101.16667175
 31
0.0
  0
ENDBLK
  5
E9
  8
0
  0
BLOCK
  8
0
  2
DC_GROUP_54
 70
     0
 10
0.0
 20
0.0
 30
0.0
  3
DC_GROUP_54
  1

  0
LINE
  5
812
  8
0
  6
CONTINUOUS
 62
     3
 10
106.3333487
 20
99.45177447
 30
0.0
 11
112.73335889
 21
101.16665185
 31
0.0
  0
ENDBLK
  5
EC
  8
0
  0
BLOCK
  8
0
  2
DC_GROUP_55
 70
     0
 10
0.0
 20
0.0
 30
0.0
  3
DC_GROUP_55
  1

  0
LINE
  5
813
  8
0
  6
CONTINUOUS
 62
     3
 10
139.93334277
 20
101.16661947
 30
0.0
 11
146.33333823
 21
99.45174604
 31
0.0
  0
ENDBLK
  5
EF
  8
0
  0
BLOCK
  8
0
  2
DC_GROUP_56
 70
     0
 10
0.0
 20
0.0
 30
0.0
  3
DC_GROUP_56
  1

  0
LINE
  5
814
  8
0
  6
CONTINUOUS
 62
     3
 10
106.33334351
 20
99.45179749
 30
0.0
 11
106.33334351
 21
97.88026428000001
 31
0.0
  0
ENDBLK
  5
F2
  8
0
  0
BLOCK
  8
0
  2
DC_GROUP_57
 70
     0
 10
0.0
 20
0.0
 30
0.0
  3
DC_GROUP_57
  1

  0
LINE
  5
815
  8
0
  6
CONTINUOUS
 62
     3
 10
146.33334351
 20
99.45179749
 30
0.0
 11
146.33334351
 21
97.88026428000001
 31
0.0
  0
ENDBLK
  5
F5
  8
0
  0
BLOCK
  8
0
  2
DC_GROUP_58
 70
     0
 10
0.0
 20
0.0
 30
0.0
  3
DC_GROUP_58
  1

  0
LINE
  5
816
  8
0
  6
CONTINUOUS
 62
     3
 10
65.40674688
 20
19.19464267
 30
0.0
 11
63.69187429
 21
25.5946376
 31
0.0
  0
ENDBLK
  5
F8
  8
0
  0
BLOCK
  8
0
  2
DC_GROUP_59
 70
     0
 10
0.0
 20
0.0
 30
0.0
  3
DC_GROUP_59
  1

  0
LINE
  5
817
  8
0
  6
CONTINUOUS
 62
     3
 10
188.9748
 20
25.5946131
 30
0.0
 11
187.25992716
 21
19.19461725
 31
0.0
  0
ENDBLK
  5
FB
  8
0
  0
BLOCK
  8
0
  2
DC_GROUP_60
 70
     0
 10
0.0
 20
0.0
 30
0.0
  3
DC_GROUP_60
  1

  0
LINE
  5
818
  8
0
  6
CONTINUOUS
 62
     3
 10
79.00674512000001
 20
-4.3612724
 30
0.0
 11
83.69187813000001
 21
-9.04640502
 31
0.0
  0
ENDBLK
  5
FE
  8
0
  0
BLOCK
  8
0
  2
DC_GROUP_61
 70
     0
 10
0.0
 20
0.0
 30
0.0
  3
DC_GROUP_61
  1

  0
LINE
  5
819
  8
0
  6
CONTINUOUS
 62
     3
 10
168.97483128
 20
-9.04641741
 30
0.0
 11
173.6599535
 21
-4.36129559
 31
0.0
  0
ENDBLK
  5
101
  8
0
  0
BLOCK
  8
0
  2
DC_GROUP_62
 70
     0
 10
0.0
 20
0.0
 30
0.0
  3
DC_GROUP_62
  1

  0
LINE
  5
81A
  8
0
  6
CONTINUOUS
 62
     3
 10
124.04579425
 20
-7.37121806
 30
0.0
 11
121.75829169
 21
-11.33328818
 31
0.0
  0
ENDBLK
  5
104
  8
0
  0
BLOCK
  8
0
  2
DC_GROUP_63
 70
     0
 10
0.0
 20
0.0
 30
0.0
  3
DC_GROUP_63
  1

  0
LINE
  5
81B
  8
0
  6
CONTINUOUS
 62
     3
 10
121.75827957
 20
-11.33337686
 30
0.0
 11
124.04577682
 21
-15.29544119
 31
0.0
  0
ENDBLK
  5
107
  8
0
  0
BLOCK
  8
0
  2
DC_GROUP_64
 70
     0
 10
0.0
 20
0.0
 30
0.0
  3
DC_GROUP_64
  1

  0
LINE
  5
81C
  8
0
  6
CONTINUOUS
 62
     3
 10
124.0458374
 20
-15.2953949
 30
0.0
 11
128.62084961
 21
-15.2953949
 31
0.0
  0
ENDBLK
  5
10A
  8
0
  0
BLOCK
  8
0
  2
DC_GROUP_65
 70
     0
 10
0.0
 20
0.0
 30
0.0
  3
DC_GROUP_65
  1

  0
LINE
  5
81D
  8
0
  6
CONTINUOUS
 62
     3
 10
128.62094556
 20
-15.29544827
 30
0.0
 11
130.90844704
 21
-11.3333864
 31
0.0
  0
ENDBLK
  5
10D
  8
0
  0
BLOCK
  8
0
  2
DC_GROUP_66
 70
     0
 10
0.0
 20
0.0
 30
0.0
  3
DC_GROUP_66
  1

  0
LINE
  5
81E
  8
0
  6
CONTINUOUS
 62
     3
 10
130.9083098
 20
-11.33335618
 30
0.0
 11
128.62080956
 21
-7.3712847
 31
0.0
  0
ENDBLK
  5
110
  8
0
  0
BLOCK
  8
0
  2
DC_GROUP_67
 70
     0
 10
0.0
 20
0.0
 30
0.0
  3
DC_GROUP_67
  1

  0
LINE
  5
81F
  8
0
  6
CONTINUOUS
 62
     3
 10
128.62084961
 20
-7.3712616
 30
0.0
 11
124.0458374
 21
-7.3712616
 31
0.0
  0
ENDBLK
  5
113
  8
0
  0
BLOCK
  8
0
  2
DC_GROUP_68
 70
     0
 10
0.0
 20
0.0
 30
0.0
  3
DC_GROUP_68
  1

  0
LINE
  5
820
  8
0
  6
CONTINUOUS
 62
     3
 10
-133.33332825
 20
101.16667175
 30
0.0
 11
-133.33332825
 21
64.66667175000001
 31
0.0
  0
ENDBLK
  5
116
  8
0
  0
BLOCK
  8
0
  2
DC_GROUP_69
 70
     0
 10
0.0
 20
0.0
 30
0.0
  3
DC_GROUP_69
  1

  0
LINE
  5
821
  8
0
  6
CONTINUOUS
 62
     3
 10
-133.33332825
 20
-23.83332825
 30
0.0
 11
-74.83332824999999
 21
-23.83332825
 31
0.0
  0
ENDBLK
  5
119
  8
0
  0
BLOCK
  8
0
  2
DC_GROUP_70
 70
     0
 10
0.0
 20
0.0
 30
0.0
  3
DC_GROUP_70
  1

  0
LINE
  5
822
  8
0
  6
CONTINUOUS
 62
     3
 10
-133.33332825
 20
96.16667175000001
 30
0.0
 11
-129.1333313
 21
96.16667175000001
 31
0.0
  0
ENDBLK
  5
11C
  8
0
  0
BLOCK
  8
0
  2
DC_GROUP_71
 70
     0
 10
0.0
 20
0.0
 30
0.0
  3
DC_GROUP_71
  1

  0
LINE
  5
823
  8
0
  6
CONTINUOUS
 62
     3
 10
-133.33332825
 20
-18.83332825
 30
0.0
 11
-129.1333313
 21
-18.83332825
 31
0.0
  0
ENDBLK
  5
11F
  8
0
  0
BLOCK
  8
0
  2
DC_GROUP_72
 70
     0
 10
0.0
 20
0.0
 30
0.0
  3
DC_GROUP_72
  1

  0
LINE
  5
824
  8
0
  6
CONTINUOUS
 62
     3
 10
-129.1333313
 20
96.16667175000001
 30
0.0
 11
-129.1333313
 21
64.66667175000001
 31
0.0
  0
ENDBLK
  5
122
  8
0
  0
BLOCK
  8
0
  2
DC_GROUP_73
 70
     0
 10
0.0
 20
0.0
 30
0.0
  3
DC_GROUP_73
  1

  0
LINE
  5
825
  8
0
  6
CONTINUOUS
 62
     3
 10
-134.33332825
 20
63.66667175
 30
0.0
 11
-134.33332825
 21
13.66666222
 31
0.0
  0
ENDBLK
  5
125
  8
0
  0
BLOCK
  8
0
  2
DC_GROUP_74
 70
     0
 10
0.0
 20
0.0
 30
0.0
  3
DC_GROUP_74
  1

  0
LINE
  5
826
  8
0
  6
CONTINUOUS
 62
     3
 10
-133.33334351
 20
64.66667175000001
 30
0.0
 11
-97.33328637
 21
64.66667175000001
 31
0.0
  0
ENDBLK
  5
128
  8
0
  0
BLOCK
  8
0
  2
DC_GROUP_75
 70
     0
 10
0.0
 20
0.0
 30
0.0
  3
DC_GROUP_75
  1

  0
LINE
  5
827
  8
0
  6
CONTINUOUS
 62
     3
 10
-81.33332824999999
 20
57.16667175
 30
0.0
 11
-81.33332824999999
 21
20.16667175
 31
0.0
  0
ENDBLK
  5
12B
  8
0
  0
BLOCK
  8
0
  2
DC_GROUP_76
 70
     0
 10
0.0
 20
0.0
 30
0.0
  3
DC_GROUP_76
  1

  0
LINE
  5
828
  8
0
  6
CONTINUOUS
 62
     3
 10
-82.33332824999999
 20
65.16667175000001
 30
0.0
 11
-82.33332824999999
 21
59.16667175
 31
0.0
  0
ENDBLK
  5
12E
  8
0
  0
BLOCK
  8
0
  2
DC_GROUP_77
 70
     0
 10
0.0
 20
0.0
 30
0.0
  3
DC_GROUP_77
  1

  0
LINE
  5
829
  8
0
  6
CONTINUOUS
 62
     3
 10
-82.33332824999999
 20
2.66667175
 30
0.0
 11
-73.33332824999999
 21
2.66667175
 31
0.0
  0
ENDBLK
  5
131
  8
0
  0
BLOCK
  8
0
  2
DC_GROUP_78
 70
     0
 10
0.0
 20
0.0
 30
0.0
  3
DC_GROUP_78
  1

  0
LINE
  5
82A
  8
0
  6
CONTINUOUS
 62
     3
 10
-82.33332824999999
 20
18.16667175
 30
0.0
 11
-82.33332824999999
 21
11.66667175
 31
0.0
  0
ENDBLK
  5
134
  8
0
  0
BLOCK
  8
0
  2
DC_GROUP_79
 70
     0
 10
0.0
 20
0.0
 30
0.0
  3
DC_GROUP_79
  1

  0
LINE
  5
82B
  8
0
  6
CONTINUOUS
 62
     3
 10
-96.33332824999999
 20
63.66667175
 30
0.0
 11
-96.33332824999999
 21
57.16667175
 31
0.0
  0
ENDBLK
  5
137
  8
0
  0
BLOCK
  8
0
  2
DC_GROUP_80
 70
     0
 10
0.0
 20
0.0
 30
0.0
  3
DC_GROUP_80
  1

  0
LINE
  5
82C
  8
0
  6
CONTINUOUS
 62
     3
 10
-96.33332824999999
 20
20.16667175
 30
0.0
 11
-96.33332824999999
 21
13.66667175
 31
0.0
  0
ENDBLK
  5
13A
  8
0
  0
BLOCK
  8
0
  2
DC_GROUP_81
 70
     0
 10
0.0
 20
0.0
 30
0.0
  3
DC_GROUP_81
  1

  0
LINE
  5
82D
  8
0
  6
CONTINUOUS
 62
     3
 10
-116.33332825
 20
54.91667175
 30
0.0
 11
-91.83332824999999
 21
54.91667175
 31
0.0
  0
ENDBLK
  5
13D
  8
0
  0
BLOCK
  8
0
  2
DC_GROUP_82
 70
     0
 10
0.0
 20
0.0
 30
0.0
  3
DC_GROUP_82
  1

  0
LINE
  5
82E
  8
0
  6
CONTINUOUS
 62
     3
 10
-116.33332825
 20
22.41667175
 30
0.0
 11
-91.83332824999999
 21
22.41667175
 31
0.0
  0
ENDBLK
  5
140
  8
0
  0
BLOCK
  8
0
  2
DC_GROUP_83
 70
     0
 10
0.0
 20
0.0
 30
0.0
  3
DC_GROUP_83
  1

  0
LINE
  5
82F
  8
0
  6
CONTINUOUS
 62
     3
 10
-89.33332824999999
 20
55.76667023
 30
0.0
 11
-89.33332824999999
 21
21.56667328
 31
0.0
  0
ENDBLK
  5
143
  8
0
  0
BLOCK
  8
0
  2
DC_GROUP_84
 70
     0
 10
0.0
 20
0.0
 30
0.0
  3
DC_GROUP_84
  1

  0
LINE
  5
830
  8
0
  6
CONTINUOUS
 62
     3
 10
-91.83332824999999
 20
55.76667023
 30
0.0
 11
-91.83332824999999
 21
21.56667328
 31
0.0
  0
ENDBLK
  5
146
  8
0
  0
BLOCK
  8
0
  2
DC_GROUP_85
 70
     0
 10
0.0
 20
0.0
 30
0.0
  3
DC_GROUP_85
  1

  0
LINE
  5
831
  8
0
  6
CONTINUOUS
 62
     3
 10
-122.33332825
 20
61.41667175
 30
0.0
 11
-122.33332825
 21
15.91667175
 31
0.0
  0
ENDBLK
  5
149
  8
0
  0
BLOCK
  8
0
  2
DC_GROUP_86
 70
     0
 10
0.0
 20
0.0
 30
0.0
  3
DC_GROUP_86
  1

  0
LINE
  5
832
  8
0
  6
CONTINUOUS
 62
     3
 10
-119.33332825
 20
61.41667175
 30
0.0
 11
-119.33332825
 21
15.91667175
 31
0.0
  0
ENDBLK
  5
14C
  8
0
  0
BLOCK
  8
0
  2
DC_GROUP_87
 70
     0
 10
0.0
 20
0.0
 30
0.0
  3
DC_GROUP_87
  1

  0
LINE
  5
833
  8
0
  6
CONTINUOUS
 62
     3
 10
-116.33332825
 20
60.16667175
 30
0.0
 11
-116.33332825
 21
17.16667175
 31
0.0
  0
ENDBLK
  5
14F
  8
0
  0
BLOCK
  8
0
  2
DC_GROUP_88
 70
     0
 10
0.0
 20
0.0
 30
0.0
  3
DC_GROUP_88
  1

  0
LINE
  5
834
  8
0
  6
CONTINUOUS
 62
     3
 10
-91.83332824999999
 20
55.76667786
 30
0.0
 11
-89.33332824999999
 21
55.76667786
 31
0.0
  0
ENDBLK
  5
152
  8
0
  0
BLOCK
  8
0
  2
DC_GROUP_89
 70
     0
 10
0.0
 20
0.0
 30
0.0
  3
DC_GROUP_89
  1

  0
LINE
  5
835
  8
0
  6
CONTINUOUS
 62
     3
 10
-91.83332824999999
 20
21.56666565
 30
0.0
 11
-89.33332824999999
 21
21.56666565
 31
0.0
  0
ENDBLK
  5
155
  8
0
  0
BLOCK
  8
0
  2
DC_GROUP_90
 70
     0
 10
0.0
 20
0.0
 30
0.0
  3
DC_GROUP_90
  1

  0
LINE
  5
836
  8
0
  6
CONTINUOUS
 62
     3
 10
-119.33332825
 20
17.16667175
 30
0.0
 11
-116.33332825
 21
17.16667175
 31
0.0
  0
ENDBLK
  5
158
  8
0
  0
BLOCK
  8
0
  2
DC_GROUP_91
 70
     0
 10
0.0
 20
0.0
 30
0.0
  3
DC_GROUP_91
  1

  0
LINE
  5
837
  8
0
  6
CONTINUOUS
 62
     3
 10
-119.33332825
 20
60.16667175
 30
0.0
 11
-116.33332825
 21
60.16667175
 31
0.0
  0
ENDBLK
  5
15B
  8
0
  0
BLOCK
  8
0
  2
DC_GROUP_92
 70
     0
 10
0.0
 20
0.0
 30
0.0
  3
DC_GROUP_92
  1

  0
LINE
  5
838
  8
0
  6
CONTINUOUS
 62
     3
 10
-122.33332825
 20
15.91667175
 30
0.0
 11
-119.33332825
 21
15.91667175
 31
0.0
  0
ENDBLK
  5
15E
  8
0
  0
BLOCK
  8
0
  2
DC_GROUP_93
 70
     0
 10
0.0
 20
0.0
 30
0.0
  3
DC_GROUP_93
  1

  0
LINE
  5
839
  8
0
  6
CONTINUOUS
 62
     3
 10
-122.33332825
 20
61.41667175
 30
0.0
 11
-119.33332825
 21
61.41667175
 31
0.0
  0
ENDBLK
  5
161
  8
0
  0
BLOCK
  8
0
  2
DC_GROUP_94
 70
     0
 10
0.0
 20
0.0
 30
0.0
  3
DC_GROUP_94
  1

  0
LINE
  5
83A
  8
0
  6
CONTINUOUS
 62
     3
 10
-133.33319092
 20
12.66667175
 30
0.0
 11
-82.33332824999999
 21
12.66667175
 31
0.0
  0
ENDBLK
  5
164
  8
0
  0
BLOCK
  8
0
  2
DC_GROUP_95
 70
     0
 10
0.0
 20
0.0
 30
0.0
  3
DC_GROUP_95
  1

  0
LINE
  5
83B
  8
0
  6
CONTINUOUS
 62
     3
 10
-134.33332825
 20
60.35667419
 30
0.0
 11
-122.33332825
 21
60.35667419
 31
0.0
  0
ENDBLK
  5
167
  8
0
  0
BLOCK
  8
0
  2
DC_GROUP_96
 70
     0
 10
0.0
 20
0.0
 30
0.0
  3
DC_GROUP_96
  1

  0
LINE
  5
83C
  8
0
  6
CONTINUOUS
 62
     3
 10
-134.33332825
 20
16.97666931
 30
0.0
 11
-122.33332825
 21
16.97666931
 31
0.0
  0
ENDBLK
  5
16A
  8
0
  0
BLOCK
  8
0
  2
DC_GROUP_97
 70
     0
 10
0.0
 20
0.0
 30
0.0
  3
DC_GROUP_97
  1

  0
LINE
  5
83D
  8
0
  6
CONTINUOUS
 62
     3
 10
-97.33329191
 20
64.66667729
 30
0.0
 11
-96.3332997
 21
63.66668887
 31
0.0
  0
ENDBLK
  5
16D
  8
0
  0
BLOCK
  8
0
  2
DC_GROUP_98
 70
     0
 10
0.0
 20
0.0
 30
0.0
  3
DC_GROUP_98
  1

  0
LINE
  5
83E
  8
0
  6
CONTINUOUS
 62
     3
 10
-96.33330073000001
 20
13.66664452
 30
0.0
 11
-97.33330178999999
 21
12.66664346
 31
0.0
  0
ENDBLK
  5
170
  8
0
  0
BLOCK
  8
0
  2
DC_GROUP_99
 70
     0
 10
0.0
 20
0.0
 30
0.0
  3
DC_GROUP_99
  1

  0
LINE
  5
83F
  8
0
  6
CONTINUOUS
 62
     3
 10
-133.33326101
 20
12.66673735
 30
0.0
 11
-134.33326688
 21
13.66673369
 31
0.0
  0
ENDBLK
  5
173
  8
0
  0
BLOCK
  8
0
  2
DC_GROUP_100
 70
     0
 10
0.0
 20
0.0
 30
0.0
  3
DC_GROUP_100
  1

  0
LINE
  5
840
  8
0
  6
CONTINUOUS
 62
     3
 10
-134.33322465
 20
63.6665415
 30
0.0
 11
-133.33323657
 21
64.66654484
 31
0.0
  0
ENDBLK
  5
176
  8
0
  0
BLOCK
  8
0
  2
DC_GROUP_101
 70
     0
 10
0.0
 20
0.0
 30
0.0
  3
DC_GROUP_101
  1

  0
LINE
  5
841
  8
0
  6
CONTINUOUS
 62
     3
 10
-114.33332825
 20
101.16667175
 30
0.0
 11
-114.33332825
 21
93.66667175000001
 31
0.0
  0
ENDBLK
  5
179
  8
0
  0
BLOCK
  8
0
  2
DC_GROUP_102
 70
     0
 10
0.0
 20
0.0
 30
0.0
  3
DC_GROUP_102
  1

  0
LINE
  5
842
  8
0
  6
CONTINUOUS
 62
     3
 10
-84.33332824999999
 20
-2.83332825
 30
0.0
 11
-73.33332824999999
 21
-2.83332825
 31
0.0
  0
ENDBLK
  5
17C
  8
0
  0
BLOCK
  8
0
  2
DC_GROUP_103
 70
     0
 10
0.0
 20
0.0
 30
0.0
  3
DC_GROUP_103
  1

  0
LINE
  5
843
  8
0
  6
CONTINUOUS
 62
     3
 10
-84.33332824999999
 20
-19.83332825
 30
0.0
 11
-73.33332824999999
 21
-19.83332825
 31
0.0
  0
ENDBLK
  5
17F
  8
0
  0
BLOCK
  8
0
  2
DC_GROUP_104
 70
     0
 10
0.0
 20
0.0
 30
0.0
  3
DC_GROUP_104
  1

  0
LINE
  5
844
  8
0
  6
CONTINUOUS
 62
     3
 10
-84.33332824999999
 20
-2.83332825
 30
0.0
 11
-84.33332824999999
 21
-19.83332825
 31
0.0
  0
ENDBLK
  5
182
  8
0
  0
BLOCK
  8
0
  2
DC_GROUP_105
 70
     0
 10
0.0
 20
0.0
 30
0.0
  3
DC_GROUP_105
  1

  0
LINE
  5
845
  8
0
  6
CONTINUOUS
 62
     3
 10
-74.33332824999999
 20
-3.33332825
 30
0.0
 11
-74.33332824999999
 21
-19.33332825
 31
0.0
  0
ENDBLK
  5
185
  8
0
  0
BLOCK
  8
0
  2
DC_GROUP_106
 70
     0
 10
0.0
 20
0.0
 30
0.0
  3
DC_GROUP_106
  1

  0
LINE
  5
846
  8
0
  6
CONTINUOUS
 62
     3
 10
-84.33332824999999
 20
-19.33332825
 30
0.0
 11
-74.33332824999999
 21
-19.33332825
 31
0.0
  0
ENDBLK
  5
188
  8
0
  0
BLOCK
  8
0
  2
DC_GROUP_107
 70
     0
 10
0.0
 20
0.0
 30
0.0
  3
DC_GROUP_107
  1

  0
LINE
  5
847
  8
0
  6
CONTINUOUS
 62
     3
 10
-84.33332824999999
 20
-3.33332825
 30
0.0
 11
-74.33332824999999
 21
-3.33332825
 31
0.0
  0
ENDBLK
  5
18B
  8
0
  0
BLOCK
  8
0
  2
DC_GROUP_108
 70
     0
 10
0.0
 20
0.0
 30
0.0
  3
DC_GROUP_108
  1

  0
LINE
  5
848
  8
0
  6
CONTINUOUS
 62
     3
 10
-144.33332825
 20
-16.33332825
 30
0.0
 11
-84.33332824999999
 21
-16.33332825
 31
0.0
  0
ENDBLK
  5
18E
  8
0
  0
BLOCK
  8
0
  2
DC_GROUP_109
 70
     0
 10
0.0
 20
0.0
 30
0.0
  3
DC_GROUP_109
  1

  0
LINE
  5
849
  8
0
  6
CONTINUOUS
 62
     3
 10
-144.33332825
 20
-6.33332825
 30
0.0
 11
-84.33332824999999
 21
-6.33332825
 31
0.0
  0
ENDBLK
  5
191
  8
0
  0
BLOCK
  8
0
  2
DC_GROUP_110
 70
     0
 10
0.0
 20
0.0
 30
0.0
  3
DC_GROUP_110
  1

  0
LINE
  5
84A
  8
0
  6
CONTINUOUS
 62
     3
 10
-144.33332825
 20
-6.33332825
 30
0.0
 11
-144.33332825
 21
-16.33332825
 31
0.0
  0
ENDBLK
  5
194
  8
0
  0
BLOCK
  8
0
  2
DC_GROUP_111
 70
     0
 10
0.0
 20
0.0
 30
0.0
  3
DC_GROUP_111
  1

  0
LINE
  5
84B
  8
0
  6
CONTINUOUS
 62
     3
 10
-112.33332825
 20
-6.33332825
 30
0.0
 11
-112.33332825
 21
-16.33332825
 31
0.0
  0
ENDBLK
  5
197
  8
0
  0
BLOCK
  8
0
  2
DC_GROUP_112
 70
     0
 10
0.0
 20
0.0
 30
0.0
  3
DC_GROUP_112
  1

  0
LINE
  5
84C
  8
0
  6
CONTINUOUS
 62
     3
 10
-89.33332824999999
 20
59.16667175
 30
0.0
 11
-89.33332824999999
 21
57.16667175
 31
0.0
  0
ENDBLK
  5
19A
  8
0
  0
BLOCK
  8
0
  2
DC_GROUP_113
 70
     0
 10
0.0
 20
0.0
 30
0.0
  3
DC_GROUP_113
  1

  0
LINE
  5
84D
  8
0
  6
CONTINUOUS
 62
     3
 10
-89.33332824999999
 20
18.16667175
 30
0.0
 11
-82.33332824999999
 21
18.16667175
 31
0.0
  0
ENDBLK
  5
19D
  8
0
  0
BLOCK
  8
0
  2
DC_GROUP_114
 70
     0
 10
0.0
 20
0.0
 30
0.0
  3
DC_GROUP_114
  1

  0
LINE
  5
84E
  8
0
  6
CONTINUOUS
 62
     3
 10
-89.33332824999999
 20
59.16667175
 30
0.0
 11
-82.33332824999999
 21
59.16667175
 31
0.0
  0
ENDBLK
  5
1A0
  8
0
  0
BLOCK
  8
0
  2
DC_GROUP_115
 70
     0
 10
0.0
 20
0.0
 30
0.0
  3
DC_GROUP_115
  1

  0
LINE
  5
84F
  8
0
  6
CONTINUOUS
 62
     3
 10
-89.33332824999999
 20
20.16667175
 30
0.0
 11
-89.33332824999999
 21
18.16667175
 31
0.0
  0
ENDBLK
  5
1A3
  8
0
  0
BLOCK
  8
0
  2
DC_GROUP_116
 70
     0
 10
0.0
 20
0.0
 30
0.0
  3
DC_GROUP_116
  1

  0
LINE
  5
850
  8
0
  6
CONTINUOUS
 62
     3
 10
-96.33332824999999
 20
20.16667175
 30
0.0
 11
-73.33332824999999
 21
20.16667175
 31
0.0
  0
ENDBLK
  5
1A6
  8
0
  0
BLOCK
  8
0
  2
DC_GROUP_117
 70
     0
 10
0.0
 20
0.0
 30
0.0
  3
DC_GROUP_117
  1

  0
LINE
  5
851
  8
0
  6
CONTINUOUS
 62
     3
 10
-96.33332824999999
 20
57.16667175
 30
0.0
 11
-73.33332824999999
 21
57.16667175
 31
0.0
  0
ENDBLK
  5
1A9
  8
0
  0
BLOCK
  8
0
  2
DC_GROUP_118
 70
     0
 10
0.0
 20
0.0
 30
0.0
  3
DC_GROUP_118
  1

  0
LINE
  5
852
  8
0
  6
CONTINUOUS
 62
     3
 10
-82.33332824999999
 20
63.16667175
 30
0.0
 11
-80.83332824999999
 21
63.16667175
 31
0.0
  0
ENDBLK
  5
1AC
  8
0
  0
BLOCK
  8
0
  2
DC_GROUP_119
 70
     0
 10
0.0
 20
0.0
 30
0.0
  3
DC_GROUP_119
  1

  0
LINE
  5
853
  8
0
  6
CONTINUOUS
 62
     3
 10
-80.83332895
 20
63.16667193
 30
0.0
 11
-73.33334057
 21
58.8365521
 31
0.0
  0
ENDBLK
  5
1AF
  8
0
  0
BLOCK
  8
0
  2
DC_GROUP_120
 70
     0
 10
0.0
 20
0.0
 30
0.0
  3
DC_GROUP_120
  1

  0
LINE
  5
854
  8
0
  6
CONTINUOUS
 62
     3
 10
-79.33332824999999
 20
14.16667175
 30
0.0
 11
-79.33332824999999
 21
3.16667175
 31
0.0
  0
ENDBLK
  5
1B2
  8
0
  0
BLOCK
  8
0
  2
DC_GROUP_121
 70
     0
 10
0.0
 20
0.0
 30
0.0
  3
DC_GROUP_121
  1

  0
LINE
  5
855
  8
0
  6
CONTINUOUS
 62
     3
 10
-79.33332824999999
 20
14.16667175
 30
0.0
 11
-73.33332824999999
 21
14.16667175
 31
0.0
  0
ENDBLK
  5
1B5
  8
0
  0
BLOCK
  8
0
  2
DC_GROUP_122
 70
     0
 10
0.0
 20
0.0
 30
0.0
  3
DC_GROUP_122
  1

  0
LINE
  5
856
  8
0
  6
CONTINUOUS
 62
     3
 10
-79.33332824999999
 20
3.16667175
 30
0.0
 11
-73.33332824999999
 21
3.16667175
 31
0.0
  0
ENDBLK
  5
1B8
  8
0
  0
BLOCK
  8
0
  2
DC_GROUP_123
 70
     0
 10
0.0
 20
0.0
 30
0.0
  3
DC_GROUP_123
  1

  0
LINE
  5
857
  8
0
  6
CONTINUOUS
 62
     3
 10
-94.33332824999999
 20
5.66667175
 30
0.0
 11
-79.33332824999999
 21
5.66667175
 31
0.0
  0
ENDBLK
  5
1BB
  8
0
  0
BLOCK
  8
0
  2
DC_GROUP_124
 70
     0
 10
0.0
 20
0.0
 30
0.0
  3
DC_GROUP_124
  1

  0
LINE
  5
858
  8
0
  6
CONTINUOUS
 62
     3
 10
-94.33332824999999
 20
11.66667175
 30
0.0
 11
-79.33332824999999
 21
11.66667175
 31
0.0
  0
ENDBLK
  5
1BE
  8
0
  0
BLOCK
  8
0
  2
DC_GROUP_125
 70
     0
 10
0.0
 20
0.0
 30
0.0
  3
DC_GROUP_125
  1

  0
LINE
  5
859
  8
0
  6
CONTINUOUS
 62
     3
 10
-94.33332824999999
 20
11.66667175
 30
0.0
 11
-94.33332824999999
 21
5.66667175
 31
0.0
  0
ENDBLK
  5
1C1
  8
0
  0
BLOCK
  8
0
  2
DC_GROUP_126
 70
     0
 10
0.0
 20
0.0
 30
0.0
  3
DC_GROUP_126
  1

  0
LINE
  5
85A
  8
0
  6
CONTINUOUS
 62
     3
 10
-82.33332824999999
 20
5.66667175
 30
0.0
 11
-82.33332824999999
 21
2.66667175
 31
0.0
  0
ENDBLK
  5
1C4
  8
0
  0
BLOCK
  8
0
  2
DC_GROUP_127
 70
     0
 10
0.0
 20
0.0
 30
0.0
  3
DC_GROUP_127
  1

  0
LINE
  5
85B
  8
0
  6
CONTINUOUS
 62
     3
 10
-73.33332824999999
 20
99.66667175000001
 30
0.0
 11
-73.33332824999999
 21
98.16667175000001
 31
0.0
  0
ENDBLK
  5
1C7
  8
0
  0
BLOCK
  8
0
  2
DC_GROUP_128
 70
     0
 10
0.0
 20
0.0
 30
0.0
  3
DC_GROUP_128
  1

  0
LINE
  5
85C
  8
0
  6
CONTINUOUS
 62
     3
 10
-133.33332825
 20
101.16667175
 30
0.0
 11
-74.33332824999999
 21
101.16667175
 31
0.0
  0
ENDBLK
  5
1CA
  8
0
  0
BLOCK
  8
0
  2
DC_GROUP_129
 70
     0
 10
0.0
 20
0.0
 30
0.0
  3
DC_GROUP_129
  1

  0
LINE
  5
85D
  8
0
  6
CONTINUOUS
 62
     3
 10
-87.33332824999999
 20
98.16667175000001
 30
0.0
 11
-72.83332824999999
 21
98.16667175000001
 31
0.0
  0
ENDBLK
  5
1CD
  8
0
  0
BLOCK
  8
0
  2
DC_GROUP_130
 70
     0
 10
0.0
 20
0.0
 30
0.0
  3
DC_GROUP_130
  1

  0
LINE
  5
85E
  8
0
  6
CONTINUOUS
 62
     3
 10
-87.33332824999999
 20
67.16667175000001
 30
0.0
 11
-72.83332824999999
 21
67.16667175000001
 31
0.0
  0
ENDBLK
  5
1D0
  8
0
  0
BLOCK
  8
0
  2
DC_GROUP_131
 70
     0
 10
0.0
 20
0.0
 30
0.0
  3
DC_GROUP_131
  1

  0
LINE
  5
85F
  8
0
  6
CONTINUOUS
 62
     3
 10
-66.33332824999999
 20
97.66667175000001
 30
0.0
 11
-66.33332824999999
 21
84.66667175000001
 31
0.0
  0
ENDBLK
  5
1D3
  8
0
  0
BLOCK
  8
0
  2
DC_GROUP_132
 70
     0
 10
0.0
 20
0.0
 30
0.0
  3
DC_GROUP_132
  1

  0
LINE
  5
860
  8
0
  6
CONTINUOUS
 62
     3
 10
-75.33332824999999
 20
101.16667175
 30
0.0
 11
-75.33332824999999
 21
98.16667175000001
 31
0.0
  0
ENDBLK
  5
1D6
  8
0
  0
BLOCK
  8
0
  2
DC_GROUP_133
 70
     0
 10
0.0
 20
0.0
 30
0.0
  3
DC_GROUP_133
  1

  0
LINE
  5
861
  8
0
  6
CONTINUOUS
 62
     3
 10
-81.33332824999999
 20
101.16667175
 30
0.0
 11
-81.33332824999999
 21
98.16667175000001
 31
0.0
  0
ENDBLK
  5
1D9
  8
0
  0
BLOCK
  8
0
  2
DC_GROUP_134
 70
     0
 10
0.0
 20
0.0
 30
0.0
  3
DC_GROUP_134
  1

  0
LINE
  5
862
  8
0
  6
CONTINUOUS
 62
     3
 10
-82.33332824999999
 20
65.16667175000001
 30
0.0
 11
-74.33332824999999
 21
65.16667175000001
 31
0.0
  0
ENDBLK
  5
1DC
  8
0
  0
BLOCK
  8
0
  2
DC_GROUP_135
 70
     0
 10
0.0
 20
0.0
 30
0.0
  3
DC_GROUP_135
  1

  0
LINE
  5
863
  8
0
  6
CONTINUOUS
 62
     3
 10
-87.33332824999999
 20
98.16667175000001
 30
0.0
 11
-87.33332824999999
 21
67.16667175000001
 31
0.0
  0
ENDBLK
  5
1DF
  8
0
  0
BLOCK
  8
0
  2
DC_GROUP_136
 70
     0
 10
0.0
 20
0.0
 30
0.0
  3
DC_GROUP_136
  1

  0
LINE
  5
864
  8
0
  6
CONTINUOUS
 62
     3
 10
-81.33332824999999
 20
67.16667175000001
 30
0.0
 11
-81.33332824999999
 21
65.16667175000001
 31
0.0
  0
ENDBLK
  5
1E2
  8
0
  0
BLOCK
  8
0
  2
DC_GROUP_137
 70
     0
 10
0.0
 20
0.0
 30
0.0
  3
DC_GROUP_137
  1

  0
LINE
  5
865
  8
0
  6
CONTINUOUS
 62
     3
 10
-72.83332824999999
 20
87.16667175000001
 30
0.0
 11
-72.83332824999999
 21
78.16667175000001
 31
0.0
  0
ENDBLK
  5
1E5
  8
0
  0
BLOCK
  8
0
  2
DC_GROUP_138
 70
     0
 10
0.0
 20
0.0
 30
0.0
  3
DC_GROUP_138
  1

  0
LINE
  5
866
  8
0
  6
CONTINUOUS
 62
     3
 10
-66.33332824999999
 20
80.66667175000001
 30
0.0
 11
-66.33332824999999
 21
67.66667175000001
 31
0.0
  0
ENDBLK
  5
1E8
  8
0
  0
BLOCK
  8
0
  2
DC_GROUP_139
 70
     0
 10
0.0
 20
0.0
 30
0.0
  3
DC_GROUP_139
  1

  0
LINE
  5
867
  8
0
  6
CONTINUOUS
 62
     3
 10
-72.83332824999999
 20
98.16667175000001
 30
0.0
 11
-72.83332824999999
 21
95.16667175000001
 31
0.0
  0
ENDBLK
  5
1EB
  8
0
  0
BLOCK
  8
0
  2
DC_GROUP_140
 70
     0
 10
0.0
 20
0.0
 30
0.0
  3
DC_GROUP_140
  1

  0
LINE
  5
868
  8
0
  6
CONTINUOUS
 62
     3
 10
-87.33332824999999
 20
87.16667175000001
 30
0.0
 11
-66.33332824999999
 21
87.16667175000001
 31
0.0
  0
ENDBLK
  5
1EE
  8
0
  0
BLOCK
  8
0
  2
DC_GROUP_141
 70
     0
 10
0.0
 20
0.0
 30
0.0
  3
DC_GROUP_141
  1

  0
LINE
  5
869
  8
0
  6
CONTINUOUS
 62
     3
 10
-87.33332824999999
 20
95.16667175000001
 30
0.0
 11
-66.33332824999999
 21
95.16667175000001
 31
0.0
  0
ENDBLK
  5
1F1
  8
0
  0
BLOCK
  8
0
  2
DC_GROUP_142
 70
     0
 10
0.0
 20
0.0
 30
0.0
  3
DC_GROUP_142
  1

  0
LINE
  5
86A
  8
0
  6
CONTINUOUS
 62
     3
 10
-87.33332824999999
 20
70.16667175000001
 30
0.0
 11
-66.33332824999999
 21
70.16667175000001
 31
0.0
  0
ENDBLK
  5
1F4
  8
0
  0
BLOCK
  8
0
  2
DC_GROUP_143
 70
     0
 10
0.0
 20
0.0
 30
0.0
  3
DC_GROUP_143
  1

  0
LINE
  5
86B
  8
0
  6
CONTINUOUS
 62
     3
 10
-87.33332824999999
 20
78.16667175000001
 30
0.0
 11
-66.33332824999999
 21
78.16667175000001
 31
0.0
  0
ENDBLK
  5
1F7
  8
0
  0
BLOCK
  8
0
  2
DC_GROUP_144
 70
     0
 10
0.0
 20
0.0
 30
0.0
  3
DC_GROUP_144
  1

  0
LINE
  5
86C
  8
0
  6
CONTINUOUS
 62
     3
 10
-66.33332824999999
 20
84.66667175000001
 30
0.0
 11
-58.33332825
 21
84.66667175000001
 31
0.0
  0
ENDBLK
  5
1FA
  8
0
  0
BLOCK
  8
0
  2
DC_GROUP_145
 70
     0
 10
0.0
 20
0.0
 30
0.0
  3
DC_GROUP_145
  1

  0
LINE
  5
86D
  8
0
  6
CONTINUOUS
 62
     3
 10
-66.33332824999999
 20
97.66667175000001
 30
0.0
 11
-58.33332825
 21
97.66667175000001
 31
0.0
  0
ENDBLK
  5
1FD
  8
0
  0
BLOCK
  8
0
  2
DC_GROUP_146
 70
     0
 10
0.0
 20
0.0
 30
0.0
  3
DC_GROUP_146
  1

  0
LINE
  5
86E
  8
0
  6
CONTINUOUS
 62
     3
 10
-66.33332824999999
 20
67.66667175000001
 30
0.0
 11
-58.33332825
 21
67.66667175000001
 31
0.0
  0
ENDBLK
  5
200
  8
0
  0
BLOCK
  8
0
  2
DC_GROUP_147
 70
     0
 10
0.0
 20
0.0
 30
0.0
  3
DC_GROUP_147
  1

  0
LINE
  5
86F
  8
0
  6
CONTINUOUS
 62
     3
 10
-66.33332824999999
 20
80.66667175000001
 30
0.0
 11
-58.33332825
 21
80.66667175000001
 31
0.0
  0
ENDBLK
  5
203
  8
0
  0
BLOCK
  8
0
  2
DC_GROUP_148
 70
     0
 10
0.0
 20
0.0
 30
0.0
  3
DC_GROUP_148
  1

  0
LINE
  5
870
  8
0
  6
CONTINUOUS
 62
     3
 10
-58.33332825
 20
80.66667175000001
 30
0.0
 11
-58.33332825
 21
67.66667175000001
 31
0.0
  0
ENDBLK
  5
206
  8
0
  0
BLOCK
  8
0
  2
DC_GROUP_149
 70
     0
 10
0.0
 20
0.0
 30
0.0
  3
DC_GROUP_149
  1

  0
LINE
  5
871
  8
0
  6
CONTINUOUS
 62
     3
 10
-58.33332825
 20
97.66667175000001
 30
0.0
 11
-58.33332825
 21
84.66667175000001
 31
0.0
  0
ENDBLK
  5
209
  8
0
  0
BLOCK
  8
0
  2
DC_GROUP_150
 70
     0
 10
0.0
 20
0.0
 30
0.0
  3
DC_GROUP_150
  1

  0
LINE
  5
872
  8
0
  6
CONTINUOUS
 62
     3
 10
-72.83332824999999
 20
70.16667175000001
 30
0.0
 11
-72.83332824999999
 21
67.16667175000001
 31
0.0
  0
ENDBLK
  5
20C
  8
0
  0
BLOCK
  8
0
  2
DC_GROUP_151
 70
     0
 10
0.0
 20
0.0
 30
0.0
  3
DC_GROUP_151
  1

  0
LINE
  5
873
  8
0
  6
CONTINUOUS
 62
     3
 10
-84.33332824999999
 20
78.16667175000001
 30
0.0
 11
-84.33332824999999
 21
70.16667175000001
 31
0.0
  0
ENDBLK
  5
20F
  8
0
  0
BLOCK
  8
0
  2
DC_GROUP_152
 70
     0
 10
0.0
 20
0.0
 30
0.0
  3
DC_GROUP_152
  1

  0
LINE
  5
874
  8
0
  6
CONTINUOUS
 62
     3
 10
-84.33332824999999
 20
95.16667175000001
 30
0.0
 11
-84.33332824999999
 21
87.16667175000001
 31
0.0
  0
ENDBLK
  5
212
  8
0
  0
BLOCK
  8
0
  2
DC_GROUP_153
 70
     0
 10
0.0
 20
0.0
 30
0.0
  3
DC_GROUP_153
  1

  0
LINE
  5
875
  8
0
  6
CONTINUOUS
 62
     3
 10
-75.33332824999999
 20
67.16667175000001
 30
0.0
 11
-75.33332824999999
 21
65.16667175000001
 31
0.0
  0
ENDBLK
  5
215
  8
0
  0
BLOCK
  8
0
  2
DC_GROUP_154
 70
     0
 10
0.0
 20
0.0
 30
0.0
  3
DC_GROUP_154
  1

  0
LINE
  5
876
  8
0
  6
CONTINUOUS
 62
     3
 10
-73.33336802
 20
-22.3332912
 30
0.0
 11
-74.83336961000001
 21
-23.83329279
 31
0.0
  0
ENDBLK
  5
218
  8
0
  0
BLOCK
  8
0
  2
DC_GROUP_155
 70
     0
 10
0.0
 20
0.0
 30
0.0
  3
DC_GROUP_155
  1

  0
LINE
  5
877
  8
0
  6
CONTINUOUS
 62
     3
 10
72.05484278
 20
13.67978109
 30
0.0
 11
77.55484343000001
 21
4.15350182
 31
0.0
  0
ENDBLK
  5
21B
  8
0
  0
BLOCK
  8
0
  2
DC_GROUP_156
 70
     0
 10
0.0
 20
0.0
 30
0.0
  3
DC_GROUP_156
  1

  0
LINE
  5
878
  8
0
  6
CONTINUOUS
 62
     3
 10
98.90163172
 20
29.17977963
 30
0.0
 11
104.40163238
 21
19.65350036
 31
0.0
  0
ENDBLK
  5
21E
  8
0
  0
BLOCK
  8
0
  2
DC_GROUP_157
 70
     0
 10
0.0
 20
0.0
 30
0.0
  3
DC_GROUP_157
  1

  0
LINE
  5
879
  8
0
  6
CONTINUOUS
 62
     3
 10
175.11189678
 20
4.15351367
 30
0.0
 11
180.61189744
 21
13.67979294
 31
0.0
  0
ENDBLK
  5
221
  8
0
  0
BLOCK
  8
0
  2
DC_GROUP_158
 70
     0
 10
0.0
 20
0.0
 30
0.0
  3
DC_GROUP_158
  1

  0
LINE
  5
87A
  8
0
  6
CONTINUOUS
 62
     3
 10
148.26509653
 20
19.65352315
 30
0.0
 11
153.76509719
 21
29.17980242
 31
0.0
  0
ENDBLK
  5
224
  8
0
  0
BLOCK
  8
0
  2
DC_GROUP_159
 70
     0
 10
0.0
 20
0.0
 30
0.0
  3
DC_GROUP_159
  1

  0
LINE
  5
87B
  8
0
  6
CONTINUOUS
 62
     3
 10
79.1170248
 20
15.44777434
 30
0.0
 11
77.36702819999999
 21
12.4166923
 31
0.0
  0
ENDBLK
  5
227
  8
0
  0
BLOCK
  8
0
  2
DC_GROUP_160
 70
     0
 10
0.0
 20
0.0
 30
0.0
  3
DC_GROUP_160
  1

  0
LINE
  5
87C
  8
0
  6
CONTINUOUS
 62
     3
 10
77.36700926
 20
12.41668964
 30
0.0
 11
79.11700895
 21
9.385600569999999
 31
0.0
  0
ENDBLK
  5
22A
  8
0
  0
BLOCK
  8
0
  2
DC_GROUP_161
 70
     0
 10
0.0
 20
0.0
 30
0.0
  3
DC_GROUP_161
  1

  0
LINE
  5
87D
  8
0
  6
CONTINUOUS
 62
     3
 10
79.11700439000001
 20
9.38557434
 30
0.0
 11
82.61700439000001
 21
9.38557434
 31
0.0
  0
ENDBLK
  5
22D
  8
0
  0
BLOCK
  8
0
  2
DC_GROUP_162
 70
     0
 10
0.0
 20
0.0
 30
0.0
  3
DC_GROUP_162
  1

  0
LINE
  5
87E
  8
0
  6
CONTINUOUS
 62
     3
 10
82.61699035
 20
9.3855802
 30
0.0
 11
84.36699077
 21
12.41666885
 31
0.0
  0
ENDBLK
  5
230
  8
0
  0
BLOCK
  8
0
  2
DC_GROUP_163
 70
     0
 10
0.0
 20
0.0
 30
0.0
  3
DC_GROUP_163
  1

  0
LINE
  5
87F
  8
0
  6
CONTINUOUS
 62
     3
 10
84.3670156
 20
12.41667956
 30
0.0
 11
82.61701675000001
 21
15.44776925
 31
0.0
  0
ENDBLK
  5
233
  8
0
  0
BLOCK
  8
0
  2
DC_GROUP_164
 70
     0
 10
0.0
 20
0.0
 30
0.0
  3
DC_GROUP_164
  1

  0
LINE
  5
880
  8
0
  6
CONTINUOUS
 62
     3
 10
82.61701202
 20
15.44779968
 30
0.0
 11
79.11701202
 21
15.44779968
 31
0.0
  0
ENDBLK
  5
236
  8
0
  0
BLOCK
  8
0
  2
DC_GROUP_165
 70
     0
 10
0.0
 20
0.0
 30
0.0
  3
DC_GROUP_165
  1

  0
LINE
  5
881
  8
0
  6
CONTINUOUS
 62
     3
 10
93.83944363000001
 20
23.94777015
 30
0.0
 11
92.08944363000001
 21
20.91668129
 31
0.0
  0
ENDBLK
  5
239
  8
0
  0
BLOCK
  8
0
  2
DC_GROUP_166
 70
     0
 10
0.0
 20
0.0
 30
0.0
  3
DC_GROUP_166
  1

  0
LINE
  5
882
  8
0
  6
CONTINUOUS
 62
     3
 10
92.08944848
 20
20.91669194
 30
0.0
 11
93.83944817
 21
17.88560287
 31
0.0
  0
ENDBLK
  5
23C
  8
0
  0
BLOCK
  8
0
  2
DC_GROUP_167
 70
     0
 10
0.0
 20
0.0
 30
0.0
  3
DC_GROUP_167
  1

  0
LINE
  5
883
  8
0
  6
CONTINUOUS
 62
     3
 10
93.83944701999999
 20
17.88557434
 30
0.0
 11
97.33944701999999
 21
17.88557434
 31
0.0
  0
ENDBLK
  5
23F
  8
0
  0
BLOCK
  8
0
  2
DC_GROUP_168
 70
     0
 10
0.0
 20
0.0
 30
0.0
  3
DC_GROUP_168
  1

  0
LINE
  5
884
  8
0
  6
CONTINUOUS
 62
     3
 10
97.33942211
 20
17.88559122
 30
0.0
 11
99.08942252999999
 21
20.91667987
 31
0.0
  0
ENDBLK
  5
242
  8
0
  0
BLOCK
  8
0
  2
DC_GROUP_169
 70
     0
 10
0.0
 20
0.0
 30
0.0
  3
DC_GROUP_169
  1

  0
LINE
  5
885
  8
0
  6
CONTINUOUS
 62
     3
 10
99.0894318
 20
20.91667486
 30
0.0
 11
97.33943263000001
 21
23.94776413
 31
0.0
  0
ENDBLK
  5
245
  8
0
  0
BLOCK
  8
0
  2
DC_GROUP_170
 70
     0
 10
0.0
 20
0.0
 30
0.0
  3
DC_GROUP_170
  1

  0
LINE
  5
886
  8
0
  6
CONTINUOUS
 62
     3
 10
97.33944701999999
 20
23.94776917
 30
0.0
 11
93.83944701999999
 21
23.94776917
 31
0.0
  0
ENDBLK
  5
248
  8
0
  0
BLOCK
  8
0
  2
DC_GROUP_171
 70
     0
 10
0.0
 20
0.0
 30
0.0
  3
DC_GROUP_171
  1

  0
LINE
  5
887
  8
0
  6
CONTINUOUS
 62
     3
 10
155.32720033
 20
23.94778132
 30
0.0
 11
153.57720033
 21
20.91669246
 31
0.0
  0
ENDBLK
  5
24B
  8
0
  0
BLOCK
  8
0
  2
DC_GROUP_172
 70
     0
 10
0.0
 20
0.0
 30
0.0
  3
DC_GROUP_172
  1

  0
LINE
  5
888
  8
0
  6
CONTINUOUS
 62
     3
 10
153.57722939
 20
20.91664825
 30
0.0
 11
155.32722907
 21
17.88555919
 31
0.0
  0
ENDBLK
  5
24E
  8
0
  0
BLOCK
  8
0
  2
DC_GROUP_173
 70
     0
 10
0.0
 20
0.0
 30
0.0
  3
DC_GROUP_173
  1

  0
LINE
  5
889
  8
0
  6
CONTINUOUS
 62
     3
 10
155.32723999
 20
17.88557434
 30
0.0
 11
158.82723999
 21
17.88557434
 31
0.0
  0
ENDBLK
  5
251
  8
0
  0
BLOCK
  8
0
  2
DC_GROUP_174
 70
     0
 10
0.0
 20
0.0
 30
0.0
  3
DC_GROUP_174
  1

  0
LINE
  5
88A
  8
0
  6
CONTINUOUS
 62
     3
 10
158.82723979
 20
17.88557691
 30
0.0
 11
160.57724021
 21
20.91666556
 31
0.0
  0
ENDBLK
  5
254
  8
0
  0
BLOCK
  8
0
  2
DC_GROUP_175
 70
     0
 10
0.0
 20
0.0
 30
0.0
  3
DC_GROUP_175
  1

  0
LINE
  5
88B
  8
0
  6
CONTINUOUS
 62
     3
 10
160.57715449
 20
20.91662825
 30
0.0
 11
158.82715532
 21
23.94771753
 31
0.0
  0
ENDBLK
  5
257
  8
0
  0
BLOCK
  8
0
  2
DC_GROUP_176
 70
     0
 10
0.0
 20
0.0
 30
0.0
  3
DC_GROUP_176
  1

  0
LINE
  5
88C
  8
0
  6
CONTINUOUS
 62
     3
 10
158.82723999
 20
23.94776917
 30
0.0
 11
155.32723999
 21
23.94776917
 31
0.0
  0
ENDBLK
  5
25A
  8
0
  0
BLOCK
  8
0
  2
DC_GROUP_177
 70
     0
 10
0.0
 20
0.0
 30
0.0
  3
DC_GROUP_177
  1

  0
LINE
  5
88D
  8
0
  6
CONTINUOUS
 62
     3
 10
170.04966416
 20
15.44777488
 30
0.0
 11
168.29966375
 21
12.41668623
 31
0.0
  0
ENDBLK
  5
25D
  8
0
  0
BLOCK
  8
0
  2
DC_GROUP_178
 70
     0
 10
0.0
 20
0.0
 30
0.0
  3
DC_GROUP_178
  1

  0
LINE
  5
88E
  8
0
  6
CONTINUOUS
 62
     3
 10
168.29964103
 20
12.41664972
 30
0.0
 11
170.04964072
 21
9.38556065
 31
0.0
  0
ENDBLK
  5
260
  8
0
  0
BLOCK
  8
0
  2
DC_GROUP_179
 70
     0
 10
0.0
 20
0.0
 30
0.0
  3
DC_GROUP_179
  1

  0
LINE
  5
88F
  8
0
  6
CONTINUOUS
 62
     3
 10
170.04968262
 20
9.38557434
 30
0.0
 11
173.54968262
 21
9.38557434
 31
0.0
  0
ENDBLK
  5
263
  8
0
  0
BLOCK
  8
0
  2
DC_GROUP_180
 70
     0
 10
0.0
 20
0.0
 30
0.0
  3
DC_GROUP_180
  1

  0
LINE
  5
890
  8
0
  6
CONTINUOUS
 62
     3
 10
173.54964777
 20
9.38559675
 30
0.0
 11
175.29964818
 21
12.4166854
 31
0.0
  0
ENDBLK
  5
266
  8
0
  0
BLOCK
  8
0
  2
DC_GROUP_181
 70
     0
 10
0.0
 20
0.0
 30
0.0
  3
DC_GROUP_181
  1

  0
LINE
  5
891
  8
0
  6
CONTINUOUS
 62
     3
 10
175.29971171
 20
12.41670527
 30
0.0
 11
173.54970905
 21
15.44780157
 31
0.0
  0
ENDBLK
  5
269
  8
0
  0
BLOCK
  8
0
  2
DC_GROUP_182
 70
     0
 10
0.0
 20
0.0
 30
0.0
  3
DC_GROUP_182
  1

  0
LINE
  5
892
  8
0
  6
CONTINUOUS
 62
     3
 10
173.54968262
 20
15.44773865
 30
0.0
 11
170.04968262
 21
15.44773865
 31
0.0
  0
ENDBLK
  5
26C
  8
0
  0
BLOCK
  8
0
  2
DC_GROUP_183
 70
     0
 10
0.0
 20
0.0
 30
0.0
  3
DC_GROUP_183
  1

  0
LINE
  5
893
  8
0
  6
CONTINUOUS
 62
     3
 10
74.95675119000001
 20
2.65352114
 30
0.0
 11
80.61701032000001
 21
5.92147291
 31
0.0
  0
ENDBLK
  5
26F
  8
0
  0
BLOCK
  8
0
  2
DC_GROUP_184
 70
     0
 10
0.0
 20
0.0
 30
0.0
  3
DC_GROUP_184
  1

  0
LINE
  5
894
  8
0
  6
CONTINUOUS
 62
     3
 10
69.45674682000001
 20
12.17979395
 30
0.0
 11
75.11700595000001
 21
15.44774572
 31
0.0
  0
ENDBLK
  5
272
  8
0
  0
BLOCK
  8
0
  2
DC_GROUP_185
 70
     0
 10
0.0
 20
0.0
 30
0.0
  3
DC_GROUP_185
  1

  0
LINE
  5
895
  8
0
  6
CONTINUOUS
 62
     3
 10
152.03303306
 20
30.17986296
 30
0.0
 11
156.82727995
 21
27.41190353
 31
0.0
  0
ENDBLK
  5
275
  8
0
  0
BLOCK
  8
0
  2
DC_GROUP_186
 70
     0
 10
0.0
 20
0.0
 30
0.0
  3
DC_GROUP_186
  1

  0
LINE
  5
896
  8
0
  6
CONTINUOUS
 62
     3
 10
146.53304456
 20
20.65354135
 30
0.0
 11
151.32727824
 21
17.88558955
 31
0.0
  0
ENDBLK
  5
278
  8
0
  0
BLOCK
  8
0
  2
DC_GROUP_187
 70
     0
 10
0.0
 20
0.0
 30
0.0
  3
DC_GROUP_187
  1

  0
LINE
  5
897
  8
0
  6
CONTINUOUS
 62
     3
 10
157.32728215
 20
14.42148606
 30
0.0
 11
166.04971085
 21
9.38559006
 31
0.0
  0
ENDBLK
  5
27B
  8
0
  0
BLOCK
  8
0
  2
DC_GROUP_188
 70
     0
 10
0.0
 20
0.0
 30
0.0
  3
DC_GROUP_188
  1

  0
LINE
  5
898
  8
0
  6
CONTINUOUS
 62
     3
 10
162.82727065
 20
23.94780767
 30
0.0
 11
171.54971257
 21
18.91190404
 31
0.0
  0
ENDBLK
  5
27E
  8
0
  0
BLOCK
  8
0
  2
DC_GROUP_189
 70
     0
 10
0.0
 20
0.0
 30
0.0
  3
DC_GROUP_189
  1

  0
LINE
  5
899
  8
0
  6
CONTINUOUS
 62
     3
 10
177.54970327
 20
15.44780818
 30
0.0
 11
183.20994918
 21
12.17986404
 31
0.0
  0
ENDBLK
  5
281
  8
0
  0
BLOCK
  8
0
  2
DC_GROUP_190
 70
     0
 10
0.0
 20
0.0
 30
0.0
  3
DC_GROUP_190
  1

  0
LINE
  5
89A
  8
0
  6
CONTINUOUS
 62
     3
 10
172.04970155
 20
5.92149419
 30
0.0
 11
177.70994746
 21
2.65355005
 31
0.0
  0
ENDBLK
  5
284
  8
0
  0
BLOCK
  8
0
  2
DC_GROUP_191
 70
     0
 10
0.0
 20
0.0
 30
0.0
  3
DC_GROUP_191
  1

  0
LINE
  5
89B
  8
0
  6
CONTINUOUS
 62
     3
 10
101.33943363
 20
17.88556827
 30
0.0
 11
106.13366731
 21
20.65352007
 31
0.0
  0
ENDBLK
  5
287
  8
0
  0
BLOCK
  8
0
  2
DC_GROUP_192
 70
     0
 10
0.0
 20
0.0
 30
0.0
  3
DC_GROUP_192
  1

  0
LINE
  5
89C
  8
0
  6
CONTINUOUS
 62
     3
 10
95.83943587
 20
27.41184489
 30
0.0
 11
100.63366955
 21
30.17979669
 31
0.0
  0
ENDBLK
  5
28A
  8
0
  0
BLOCK
  8
0
  2
DC_GROUP_193
 70
     0
 10
0.0
 20
0.0
 30
0.0
  3
DC_GROUP_193
  1

  0
LINE
  5
89D
  8
0
  6
CONTINUOUS
 62
     3
 10
81.11700326
 20
18.9118454
 30
0.0
 11
89.83943195000001
 21
23.9477414
 31
0.0
  0
ENDBLK
  5
28D
  8
0
  0
BLOCK
  8
0
  2
DC_GROUP_194
 70
     0
 10
0.0
 20
0.0
 30
0.0
  3
DC_GROUP_194
  1

  0
LINE
  5
89E
  8
0
  6
CONTINUOUS
 62
     3
 10
86.61700102
 20
9.38556878
 30
0.0
 11
95.33944293
 21
14.42147241
 31
0.0
  0
ENDBLK
  5
290
  8
0
  0
BLOCK
  8
0
  2
DC_GROUP_195
 70
     0
 10
0.0
 20
0.0
 30
0.0
  3
DC_GROUP_195
  1

  0
LINE
  5
89F
  8
0
  6
CONTINUOUS
 62
     3
 10
-73.33332824999999
 20
66.24022675000001
 30
0.0
 11
-73.33332824999999
 21
-22.33332825
 31
0.0
  0
ENDBLK
  5
293
  8
0
  0
BLOCK
  8
0
  2
DC_GROUP_196
 70
     0
 10
0.0
 20
0.0
 30
0.0
  3
DC_GROUP_196
  1

  0
LINE
  5
8A0
  8
0
  6
CONTINUOUS
 62
     3
 10
-79.33332824999999
 20
3.66667175
 30
0.0
 11
-73.33332824999999
 21
3.66667175
 31
0.0
  0
ENDBLK
  5
296
  8
0
  0
BLOCK
  8
0
  2
DC_GROUP_197
 70
     0
 10
0.0
 20
0.0
 30
0.0
  3
DC_GROUP_197
  1

  0
LINE
  5
8A1
  8
0
  6
CONTINUOUS
 62
     3
 10
-79.33332824999999
 20
13.66667175
 30
0.0
 11
-73.33332824999999
 21
13.66667175
 31
0.0
  0
ENDBLK
  5
299
  8
0
  0
BLOCK
  8
0
  2
DC_GROUP_198
 70
     0
 10
0.0
 20
0.0
 30
0.0
  3
DC_GROUP_198
  1

  0
LINE
  5
8A2
  8
0
  6
CONTINUOUS
 62
     3
 10
-89.33332824999999
 20
55.16667175
 30
0.0
 11
-81.33332824999999
 21
55.16667175
 31
0.0
  0
ENDBLK
  5
29C
  8
0
  0
BLOCK
  8
0
  2
DC_GROUP_199
 70
     0
 10
0.0
 20
0.0
 30
0.0
  3
DC_GROUP_199
  1

  0
LINE
  5
8A3
  8
0
  6
CONTINUOUS
 62
     3
 10
-89.33332824999999
 20
22.16667175
 30
0.0
 11
-81.33332824999999
 21
22.16667175
 31
0.0
  0
ENDBLK
  5
29F
  8
0
  0
BLOCK
  8
0
  2
DC_GROUP_200
 70
     0
 10
0.0
 20
0.0
 30
0.0
  3
DC_GROUP_200
  1

  0
LINE
  5
8A4
  8
0
  6
CONTINUOUS
 62
     3
 10
139.83334351
 20
101.16667175
 30
0.0
 11
139.83334351
 21
58.83666992
 31
0.0
  0
ENDBLK
  5
2A2
  8
0
  0
BLOCK
  8
0
  2
DC_GROUP_201
 70
     0
 10
0.0
 20
0.0
 30
0.0
  3
DC_GROUP_201
  1

  0
LINE
  5
8A5
  8
0
  6
CONTINUOUS
 62
     3
 10
112.83334351
 20
101.16667175
 30
0.0
 11
112.83334351
 21
58.83666992
 31
0.0
  0
ENDBLK
  5
2A5
  8
0
  0
BLOCK
  8
0
  2
DC_GROUP_202
 70
     0
 10
0.0
 20
0.0
 30
0.0
  3
DC_GROUP_202
  1

  0
LINE
  5
8A6
  8
0
  6
CONTINUOUS
 62
     3
 10
112.83334351
 20
65.16667175000001
 30
0.0
 11
139.83334351
 21
65.16667175000001
 31
0.0
  0
ENDBLK
  5
2A8
  8
0
  0
BLOCK
  8
0
  2
DC_GROUP_203
 70
     0
 10
0.0
 20
0.0
 30
0.0
  3
DC_GROUP_203
  1

  0
LINE
  5
8A7
  8
0
  6
CONTINUOUS
 62
     3
 10
112.83334351
 20
63.16667175
 30
0.0
 11
139.83334351
 21
63.16667175
 31
0.0
  0
ENDBLK
  5
2AB
  8
0
  0
BLOCK
  8
0
  2
DC_GROUP_204
 70
     0
 10
0.0
 20
0.0
 30
0.0
  3
DC_GROUP_204
  1

  0
LINE
  5
8A8
  8
0
  6
CONTINUOUS
 62
     3
 10
112.83334351
 20
58.83666992
 30
0.0
 11
139.83334351
 21
58.83666992
 31
0.0
  0
ENDBLK
  5
2AE
  8
0
  0
BLOCK
  8
0
  2
DC_GROUP_205
 70
     0
 10
0.0
 20
0.0
 30
0.0
  3
DC_GROUP_205
  1

  0
LINE
  5
8A9
  8
0
  6
CONTINUOUS
 62
     3
 10
97.79781849
 20
55.14169142
 30
0.0
 11
100.35260554
 21
56.61669489
 31
0.0
  0
ENDBLK
  5
2B1
  8
0
  0
BLOCK
  8
0
  2
DC_GROUP_206
 70
     0
 10
0.0
 20
0.0
 30
0.0
  3
DC_GROUP_206
  1

  0
LINE
  5
8AA
  8
0
  6
CONTINUOUS
 62
     3
 10
100.35259818
 20
56.61668639
 30
0.0
 11
102.90736832
 21
55.14168423
 31
0.0
  0
ENDBLK
  5
2B4
  8
0
  0
BLOCK
  8
0
  2
DC_GROUP_207
 70
     0
 10
0.0
 20
0.0
 30
0.0
  3
DC_GROUP_207
  1

  0
LINE
  5
8AB
  8
0
  6
CONTINUOUS
 62
     3
 10
102.90736389
 20
55.14168549
 30
0.0
 11
102.90736389
 21
52.19168854
 31
0.0
  0
ENDBLK
  5
2B7
  8
0
  0
BLOCK
  8
0
  2
DC_GROUP_208
 70
     0
 10
0.0
 20
0.0
 30
0.0
  3
DC_GROUP_208
  1

  0
LINE
  5
8AC
  8
0
  6
CONTINUOUS
 62
     3
 10
102.9073592
 20
52.19168588
 30
0.0
 11
100.35257215
 21
50.7166825
 31
0.0
  0
ENDBLK
  5
2BA
  8
0
  0
BLOCK
  8
0
  2
DC_GROUP_209
 70
     0
 10
0.0
 20
0.0
 30
0.0
  3
DC_GROUP_209
  1

  0
LINE
  5
8AD
  8
0
  6
CONTINUOUS
 62
     3
 10
100.3525936
 20
50.71669292
 30
0.0
 11
97.79782258
 21
52.19169368
 31
0.0
  0
ENDBLK
  5
2BD
  8
0
  0
BLOCK
  8
0
  2
DC_GROUP_210
 70
     0
 10
0.0
 20
0.0
 30
0.0
  3
DC_GROUP_210
  1

  0
LINE
  5
8AE
  8
0
  6
CONTINUOUS
 62
     3
 10
97.79782104
 20
52.19169235
 30
0.0
 11
97.79782104
 21
55.14169312
 31
0.0
  0
ENDBLK
  5
2C0
  8
0
  0
BLOCK
  8
0
  2
DC_GROUP_211
 70
     0
 10
0.0
 20
0.0
 30
0.0
  3
DC_GROUP_211
  1

  0
LINE
  5
8AF
  8
0
  6
CONTINUOUS
 62
     3
 10
149.7593312
 20
55.14165799
 30
0.0
 11
152.31411825
 21
56.61666145
 31
0.0
  0
ENDBLK
  5
2C3
  8
0
  0
BLOCK
  8
0
  2
DC_GROUP_212
 70
     0
 10
0.0
 20
0.0
 30
0.0
  3
DC_GROUP_212
  1

  0
LINE
  5
8B0
  8
0
  6
CONTINUOUS
 62
     3
 10
152.31412338
 20
56.61665918
 30
0.0
 11
154.86889352
 21
55.14165701
 31
0.0
  0
ENDBLK
  5
2C6
  8
0
  0
BLOCK
  8
0
  2
DC_GROUP_213
 70
     0
 10
0.0
 20
0.0
 30
0.0
  3
DC_GROUP_213
  1

  0
LINE
  5
8B1
  8
0
  6
CONTINUOUS
 62
     3
 10
154.86889648
 20
55.14165497
 30
0.0
 11
154.86889648
 21
52.19165802
 31
0.0
  0
ENDBLK
  5
2C9
  8
0
  0
BLOCK
  8
0
  2
DC_GROUP_214
 70
     0
 10
0.0
 20
0.0
 30
0.0
  3
DC_GROUP_214
  1

  0
LINE
  5
8B2
  8
0
  6
CONTINUOUS
 62
     3
 10
154.8689009
 20
52.19166058
 30
0.0
 11
152.31411385
 21
50.7166572
 31
0.0
  0
ENDBLK
  5
2CC
  8
0
  0
BLOCK
  8
0
  2
DC_GROUP_215
 70
     0
 10
0.0
 20
0.0
 30
0.0
  3
DC_GROUP_215
  1

  0
LINE
  5
8B3
  8
0
  6
CONTINUOUS
 62
     3
 10
152.31411778
 20
50.71666086
 30
0.0
 11
149.75934676
 21
52.19166162
 31
0.0
  0
ENDBLK
  5
2CF
  8
0
  0
BLOCK
  8
0
  2
DC_GROUP_216
 70
     0
 10
0.0
 20
0.0
 30
0.0
  3
DC_GROUP_216
  1

  0
LINE
  5
8B4
  8
0
  6
CONTINUOUS
 62
     3
 10
149.75933838
 20
52.19166183
 30
0.0
 11
149.75933838
 21
55.1416626
 31
0.0
  0
ENDBLK
  5
2D2
  8
0
  0
BLOCK
  8
0
  2
DC_GROUP_217
 70
     0
 10
0.0
 20
0.0
 30
0.0
  3
DC_GROUP_217
  1

  0
LINE
  5
8B5
  8
0
  6
CONTINUOUS
 62
     3
 10
123.77856429
 20
10.1416732
 30
0.0
 11
126.33335133
 21
11.61667666
 31
0.0
  0
ENDBLK
  5
2D5
  8
0
  0
BLOCK
  8
0
  2
DC_GROUP_218
 70
     0
 10
0.0
 20
0.0
 30
0.0
  3
DC_GROUP_218
  1

  0
LINE
  5
8B6
  8
0
  6
CONTINUOUS
 62
     3
 10
126.33334211
 20
11.61666981
 30
0.0
 11
128.88811225
 21
10.14166765
 31
0.0
  0
ENDBLK
  5
2D8
  8
0
  0
BLOCK
  8
0
  2
DC_GROUP_219
 70
     0
 10
0.0
 20
0.0
 30
0.0
  3
DC_GROUP_219
  1

  0
LINE
  5
8B7
  8
0
  6
CONTINUOUS
 62
     3
 10
128.88812256
 20
10.14166832
 30
0.0
 11
128.88812256
 21
7.19166851
 31
0.0
  0
ENDBLK
  5
2DB
  8
0
  0
BLOCK
  8
0
  2
DC_GROUP_220
 70
     0
 10
0.0
 20
0.0
 30
0.0
  3
DC_GROUP_220
  1

  0
LINE
  5
8B8
  8
0
  6
CONTINUOUS
 62
     3
 10
128.88811809
 20
7.1916728
 30
0.0
 11
126.33333104
 21
5.71666943
 31
0.0
  0
ENDBLK
  5
2DE
  8
0
  0
BLOCK
  8
0
  2
DC_GROUP_221
 70
     0
 10
0.0
 20
0.0
 30
0.0
  3
DC_GROUP_221
  1

  0
LINE
  5
8B9
  8
0
  6
CONTINUOUS
 62
     3
 10
126.33334528
 20
5.71667405
 30
0.0
 11
123.77857426
 21
7.19167481
 31
0.0
  0
ENDBLK
  5
2E1
  8
0
  0
BLOCK
  8
0
  2
DC_GROUP_222
 70
     0
 10
0.0
 20
0.0
 30
0.0
  3
DC_GROUP_222
  1

  0
LINE
  5
8BA
  8
0
  6
CONTINUOUS
 62
     3
 10
123.77856445
 20
7.19167328
 30
0.0
 11
123.77856445
 21
10.14167309
 31
0.0
  0
ENDBLK
  5
2E4
  8
0
  0
BLOCK
  8
0
  2
DC_GROUP_223
 70
     0
 10
0.0
 20
0.0
 30
0.0
  3
DC_GROUP_223
  1

  0
LINE
  5
8BB
  8
0
  6
CONTINUOUS
 62
     3
 10
131.83334351
 20
101.16667175
 30
0.0
 11
131.83334351
 21
94.63076782
 31
0.0
  0
ENDBLK
  5
2E7
  8
0
  0
BLOCK
  8
0
  2
DC_GROUP_224
 70
     0
 10
0.0
 20
0.0
 30
0.0
  3
DC_GROUP_224
  1

  0
LINE
  5
8BC
  8
0
  6
CONTINUOUS
 62
     3
 10
120.83334351
 20
101.16667175
 30
0.0
 11
120.83334351
 21
94.6308136
 31
0.0
  0
ENDBLK
  5
2EA
  8
0
  0
BLOCK
  8
0
  2
DC_GROUP_225
 70
     0
 10
0.0
 20
0.0
 30
0.0
  3
DC_GROUP_225
  1

  0
LINE
  5
8BD
  8
0
  6
CONTINUOUS
 62
     3
 10
120.83334351
 20
98.16667175000001
 30
0.0
 11
131.83334351
 21
98.16667175000001
 31
0.0
  0
ENDBLK
  5
2ED
  8
0
  0
BLOCK
  8
0
  2
DC_GROUP_226
 70
     0
 10
0.0
 20
0.0
 30
0.0
  3
DC_GROUP_226
  1

  0
LINE
  5
8BE
  8
0
  6
CONTINUOUS
 62
     3
 10
120.83334351
 20
67.16667175000001
 30
0.0
 11
131.83334351
 21
67.16667175000001
 31
0.0
  0
ENDBLK
  5
2F0
  8
0
  0
BLOCK
  8
0
  2
DC_GROUP_227
 70
     0
 10
0.0
 20
0.0
 30
0.0
  3
DC_GROUP_227
  1

  0
LINE
  5
8BF
  8
0
  6
CONTINUOUS
 62
     3
 10
124.58334215
 20
77.19779398
 30
0.0
 11
122.83334215
 21
74.16670513
 31
0.0
  0
ENDBLK
  5
2F3
  8
0
  0
BLOCK
  8
0
  2
DC_GROUP_228
 70
     0
 10
0.0
 20
0.0
 30
0.0
  3
DC_GROUP_228
  1

  0
LINE
  5
8C0
  8
0
  6
CONTINUOUS
 62
     3
 10
128.08334351
 20
77.19778442000001
 30
0.0
 11
124.58334351
 21
77.19778442000001
 31
0.0
  0
ENDBLK
  5
2F6
  8
0
  0
BLOCK
  8
0
  2
DC_GROUP_229
 70
     0
 10
0.0
 20
0.0
 30
0.0
  3
DC_GROUP_229
  1

  0
LINE
  5
8C1
  8
0
  6
CONTINUOUS
 62
     3
 10
129.83331408
 20
74.1666757
 30
0.0
 11
128.08331491
 21
77.19776498
 31
0.0
  0
ENDBLK
  5
2F9
  8
0
  0
BLOCK
  8
0
  2
DC_GROUP_230
 70
     0
 10
0.0
 20
0.0
 30
0.0
  3
DC_GROUP_230
  1

  0
LINE
  5
8C2
  8
0
  6
CONTINUOUS
 62
     3
 10
128.0833061
 20
71.13558878000001
 30
0.0
 11
129.83330652
 21
74.16667742999999
 31
0.0
  0
ENDBLK
  5
2FC
  8
0
  0
BLOCK
  8
0
  2
DC_GROUP_231
 70
     0
 10
0.0
 20
0.0
 30
0.0
  3
DC_GROUP_231
  1

  0
LINE
  5
8C3
  8
0
  6
CONTINUOUS
 62
     3
 10
124.58334351
 20
71.1355896
 30
0.0
 11
128.08334351
 21
71.1355896
 31
0.0
  0
ENDBLK
  5
2FF
  8
0
  0
BLOCK
  8
0
  2
DC_GROUP_232
 70
     0
 10
0.0
 20
0.0
 30
0.0
  3
DC_GROUP_232
  1

  0
LINE
  5
8C4
  8
0
  6
CONTINUOUS
 62
     3
 10
122.83334051
 20
74.16669908
 30
0.0
 11
124.5833402
 21
71.13561000999999
 31
0.0
  0
ENDBLK
  5
302
  8
0
  0
BLOCK
  8
0
  2
DC_GROUP_233
 70
     0
 10
0.0
 20
0.0
 30
0.0
  3
DC_GROUP_233
  1

  0
LINE
  5
8C5
  8
0
  6
CONTINUOUS
 62
     3
 10
124.58333241
 20
94.19777664999999
 30
0.0
 11
122.83333241
 21
91.16668779
 31
0.0
  0
ENDBLK
  5
305
  8
0
  0
BLOCK
  8
0
  2
DC_GROUP_234
 70
     0
 10
0.0
 20
0.0
 30
0.0
  3
DC_GROUP_234
  1

  0
LINE
  5
8C6
  8
0
  6
CONTINUOUS
 62
     3
 10
128.08334351
 20
94.19778442000001
 30
0.0
 11
124.58334351
 21
94.19778442000001
 31
0.0
  0
ENDBLK
  5
308
  8
0
  0
BLOCK
  8
0
  2
DC_GROUP_235
 70
     0
 10
0.0
 20
0.0
 30
0.0
  3
DC_GROUP_235
  1

  0
LINE
  5
8C7
  8
0
  6
CONTINUOUS
 62
     3
 10
129.83330464
 20
91.16666863
 30
0.0
 11
128.08330547
 21
94.19775791000001
 31
0.0
  0
ENDBLK
  5
30B
  8
0
  0
BLOCK
  8
0
  2
DC_GROUP_236
 70
     0
 10
0.0
 20
0.0
 30
0.0
  3
DC_GROUP_236
  1

  0
LINE
  5
8C8
  8
0
  6
CONTINUOUS
 62
     3
 10
128.08331388
 20
88.135598
 30
0.0
 11
129.83331429
 21
91.16668665
 31
0.0
  0
ENDBLK
  5
30E
  8
0
  0
BLOCK
  8
0
  2
DC_GROUP_237
 70
     0
 10
0.0
 20
0.0
 30
0.0
  3
DC_GROUP_237
  1

  0
LINE
  5
8C9
  8
0
  6
CONTINUOUS
 62
     3
 10
124.58334351
 20
88.1355896
 30
0.0
 11
128.08334351
 21
88.1355896
 31
0.0
  0
ENDBLK
  5
311
  8
0
  0
BLOCK
  8
0
  2
DC_GROUP_238
 70
     0
 10
0.0
 20
0.0
 30
0.0
  3
DC_GROUP_238
  1

  0
LINE
  5
8CA
  8
0
  6
CONTINUOUS
 62
     3
 10
122.83334206
 20
91.1666992
 30
0.0
 11
124.58334175
 21
88.13561013
 31
0.0
  0
ENDBLK
  5
314
  8
0
  0
BLOCK
  8
0
  2
DC_GROUP_239
 70
     0
 10
0.0
 20
0.0
 30
0.0
  3
DC_GROUP_239
  1

  0
LINE
  5
8CB
  8
0
  6
CONTINUOUS
 62
     3
 10
120.83334351
 20
70.70256042
 30
0.0
 11
120.83334351
 21
65.16667175000001
 31
0.0
  0
ENDBLK
  5
317
  8
0
  0
BLOCK
  8
0
  2
DC_GROUP_240
 70
     0
 10
0.0
 20
0.0
 30
0.0
  3
DC_GROUP_240
  1

  0
LINE
  5
8CC
  8
0
  6
CONTINUOUS
 62
     3
 10
120.83334351
 20
87.70256042
 30
0.0
 11
120.83334351
 21
77.6308136
 31
0.0
  0
ENDBLK
  5
31A
  8
0
  0
BLOCK
  8
0
  2
DC_GROUP_241
 70
     0
 10
0.0
 20
0.0
 30
0.0
  3
DC_GROUP_241
  1

  0
LINE
  5
8CD
  8
0
  6
CONTINUOUS
 62
     3
 10
131.83334351
 20
87.70260620000001
 30
0.0
 11
131.83334351
 21
77.63076782
 31
0.0
  0
ENDBLK
  5
31D
  8
0
  0
BLOCK
  8
0
  2
DC_GROUP_242
 70
     0
 10
0.0
 20
0.0
 30
0.0
  3
DC_GROUP_242
  1

  0
LINE
  5
8CE
  8
0
  6
CONTINUOUS
 62
     3
 10
131.83334351
 20
70.70260620000001
 30
0.0
 11
131.83334351
 21
65.16667175000001
 31
0.0
  0
ENDBLK
  5
320
  8
0
  0
BLOCK
  8
0
  2
DC_GROUP_243
 70
     0
 10
0.0
 20
0.0
 30
0.0
  3
DC_GROUP_243
  1

  0
LINE
  5
8CF
  8
0
  6
CONTINUOUS
 62
     3
 10
89.00000763
 20
194.0
 30
0.0
 11
89.00000763
 21
182.0
 31
0.0
  0
ENDBLK
  5
323
  8
0
  0
BLOCK
  8
0
  2
DC_GROUP_244
 70
     0
 10
0.0
 20
0.0
 30
0.0
  3
DC_GROUP_244
  1

  0
LINE
  5
8D0
  8
0
  6
CONTINUOUS
 62
     3
 10
-88.99999237
 20
194.0
 30
0.0
 11
-88.99999237
 21
190.0
 31
0.0
  0
ENDBLK
  5
326
  8
0
  0
BLOCK
  8
0
  2
DC_GROUP_245
 70
     0
 10
0.0
 20
0.0
 30
0.0
  3
DC_GROUP_245
  1

  0
LINE
  5
8D1
  8
0
  6
CONTINUOUS
 62
     3
 10
-269.0
 20
-194.0
 30
0.0
 11
269.0
 21
-194.0
 31
0.0
  0
ENDBLK
  5
329
  8
0
  0
BLOCK
  8
0
  2
DC_GROUP_246
 70
     0
 10
0.0
 20
0.0
 30
0.0
  3
DC_GROUP_246
  1

  0
LINE
  5
8D2
  8
0
  6
CONTINUOUS
 62
     3
 10
-269.0
 20
190.0
 30
0.0
 11
-88.99999237
 21
190.0
 31
0.0
  0
ENDBLK
  5
32C
  8
0
  0
BLOCK
  8
0
  2
DC_GROUP_247
 70
     0
 10
0.0
 20
0.0
 30
0.0
  3
DC_GROUP_247
  1

  0
LINE
  5
8D3
  8
0
  6
CONTINUOUS
 62
     3
 10
89.00000763
 20
182.0
 30
0.0
 11
269.0
 21
182.0
 31
0.0
  0
ENDBLK
  5
32F
  8
0
  0
BLOCK
  8
0
  2
DC_GROUP_248
 70
     0
 10
0.0
 20
0.0
 30
0.0
  3
DC_GROUP_248
  1

  0
LINE
  5
8D4
  8
0
  6
CONTINUOUS
 62
     3
 10
269.0
 20
194.0
 30
0.0
 11
269.0
 21
-194.0
 31
0.0
  0
ENDBLK
  5
332
  8
0
  0
BLOCK
  8
0
  2
DC_GROUP_249
 70
     0
 10
0.0
 20
0.0
 30
0.0
  3
DC_GROUP_249
  1

  0
LINE
  5
8D5
  8
0
  6
CONTINUOUS
 62
     3
 10
-269.0
 20
194.0
 30
0.0
 11
-269.0
 21
-194.0
 31
0.0
  0
ENDBLK
  5
335
  8
0
  0
BLOCK
  8
0
  2
DC_GROUP_250
 70
     0
 10
0.0
 20
0.0
 30
0.0
  3
DC_GROUP_250
  1

  0
LINE
  5
8D6
  8
0
  6
CONTINUOUS
 62
     3
 10
-269.0
 20
194.0
 30
0.0
 11
269.0
 21
194.0
 31
0.0
  0
ENDBLK
  5
338
  8
0
  0
BLOCK
  8
0
  2
DC_GROUP_251
 70
     0
 10
0.0
 20
0.0
 30
0.0
  3
DC_GROUP_251
  1

  0
LINE
  5
8D7
  8
0
  6
CONTINUOUS
 62
     3
 10
89.00000763
 20
-180.0
 30
0.0
 11
269.0
 21
-180.0
 31
0.0
  0
ENDBLK
  5
33B
  8
0
  0
BLOCK
  8
0
  2
DC_GROUP_252
 70
     0
 10
0.0
 20
0.0
 30
0.0
  3
DC_GROUP_252
  1

  0
LINE
  5
8D8
  8
0
  6
CONTINUOUS
 62
     3
 10
138.00001526
 20
-166.0
 30
0.0
 11
269.0
 21
-166.0
 31
0.0
  0
ENDBLK
  5
33E
  8
0
  0
BLOCK
  8
0
  2
DC_GROUP_253
 70
     0
 10
0.0
 20
0.0
 30
0.0
  3
DC_GROUP_253
  1

  0
LINE
  5
8D9
  8
0
  6
CONTINUOUS
 62
     3
 10
138.00001526
 20
-152.0
 30
0.0
 11
247.00001526
 21
-152.0
 31
0.0
  0
ENDBLK
  5
341
  8
0
  0
BLOCK
  8
0
  2
DC_GROUP_254
 70
     0
 10
0.0
 20
0.0
 30
0.0
  3
DC_GROUP_254
  1

  0
LINE
  5
8DA
  8
0
  6
CONTINUOUS
 62
     3
 10
89.00000763
 20
-134.0
 30
0.0
 11
269.0
 21
-134.0
 31
0.0
  0
ENDBLK
  5
344
  8
0
  0
BLOCK
  8
0
  2
DC_GROUP_255
 70
     0
 10
0.0
 20
0.0
 30
0.0
  3
DC_GROUP_255
  1

  0
LINE
  5
8DB
  8
0
  6
CONTINUOUS
 62
     3
 10
220.00001526
 20
-152.0
 30
0.0
 11
220.00001526
 21
-180.0
 31
0.0
  0
ENDBLK
  5
347
  8
0
  0
BLOCK
  8
0
  2
DC_GROUP_256
 70
     0
 10
0.0
 20
0.0
 30
0.0
  3
DC_GROUP_256
  1

  0
LINE
  5
8DC
  8
0
  6
CONTINUOUS
 62
     3
 10
247.00001526
 20
-134.0
 30
0.0
 11
247.00001526
 21
-180.0
 31
0.0
  0
ENDBLK
  5
34A
  8
0
  0
BLOCK
  8
0
  2
DC_GROUP_257
 70
     0
 10
0.0
 20
0.0
 30
0.0
  3
DC_GROUP_257
  1

  0
LINE
  5
8DD
  8
0
  6
CONTINUOUS
 62
     3
 10
163.00001526
 20
-180.0
 30
0.0
 11
163.00001526
 21
-194.0
 31
0.0
  0
ENDBLK
  5
34D
  8
0
  0
BLOCK
  8
0
  2
DC_GROUP_258
 70
     0
 10
0.0
 20
0.0
 30
0.0
  3
DC_GROUP_258
  1

  0
LINE
  5
8DE
  8
0
  6
CONTINUOUS
 62
     3
 10
89.00000763
 20
-134.0
 30
0.0
 11
89.00000763
 21
-194.0
 31
0.0
  0
ENDBLK
  5
350
  8
0
  0
BLOCK
  8
0
  2
DC_GROUP_259
 70
     0
 10
0.0
 20
0.0
 30
0.0
  3
DC_GROUP_259
  1

  0
LINE
  5
8DF
  8
0
  6
CONTINUOUS
 62
     3
 10
138.00001526
 20
-134.0
 30
0.0
 11
138.00001526
 21
-180.0
 31
0.0
  0
ENDBLK
  5
353
  8
0
  0
BLOCK
  8
0
  2
DC_GROUP_260
 70
     0
 10
0.0
 20
0.0
 30
0.0
  3
DC_GROUP_260
  1

  0
LINE
  5
8E0
  8
0
  6
CONTINUOUS
 62
     3
 10
147.8777388
 20
76.31141565999999
 30
0.0
 11
160.86811962
 21
83.81141565999999
 31
0.0
  0
ENDBLK
  5
356
  8
0
  0
BLOCK
  8
0
  2
DC_GROUP_261
 70
     0
 10
0.0
 20
0.0
 30
0.0
  3
DC_GROUP_261
  1

  0
LINE
  5
8E1
  8
0
  6
CONTINUOUS
 62
     3
 10
150.25968729
 20
81.2665092
 30
0.0
 11
152.82279789
 21
82.74632182000001
 31
0.0
  0
ENDBLK
  5
359
  8
0
  0
BLOCK
  8
0
  2
DC_GROUP_262
 70
     0
 10
0.0
 20
0.0
 30
0.0
  3
DC_GROUP_262
  1

  0
LINE
  5
8E2
  8
0
  6
CONTINUOUS
 62
     3
 10
164.61813283
 20
77.31623288
 30
0.0
 11
160.86813283
 21
83.81142328999999
 31
0.0
  0
ENDBLK
  5
35C
  8
0
  0
BLOCK
  8
0
  2
DC_GROUP_263
 70
     0
 10
0.0
 20
0.0
 30
0.0
  3
DC_GROUP_263
  1

  0
LINE
  5
8E3
  8
0
  6
CONTINUOUS
 62
     3
 10
151.62773689
 20
69.81622855000001
 30
0.0
 11
164.61811771
 21
77.31622855000001
 31
0.0
  0
ENDBLK
  5
35F
  8
0
  0
BLOCK
  8
0
  2
DC_GROUP_264
 70
     0
 10
0.0
 20
0.0
 30
0.0
  3
DC_GROUP_264
  1

  0
LINE
  5
8E4
  8
0
  6
CONTINUOUS
 62
     3
 10
151.6277388
 20
69.81622525
 30
0.0
 11
146.00273641
 21
79.559015
 31
0.0
  0
ENDBLK
  5
362
  8
0
  0
BLOCK
  8
0
  2
DC_GROUP_265
 70
     0
 10
0.0
 20
0.0
 30
0.0
  3
DC_GROUP_265
  1

  0
LINE
  5
8E5
  8
0
  6
CONTINUOUS
 62
     3
 10
146.00273641
 20
79.559015
 30
0.0
 11
147.95129353
 21
80.684015
 31
0.0
  0
ENDBLK
  5
365
  8
0
  0
BLOCK
  8
0
  2
DC_GROUP_266
 70
     0
 10
0.0
 20
0.0
 30
0.0
  3
DC_GROUP_266
  1

  0
LINE
  5
8E6
  8
0
  6
CONTINUOUS
 62
     3
 10
152.54830001
 20
81.72180609
 30
0.0
 11
152.82282124
 21
82.74633366000001
 31
0.0
  0
ENDBLK
  5
368
  8
0
  0
BLOCK
  8
0
  2
DC_GROUP_267
 70
     0
 10
0.0
 20
0.0
 30
0.0
  3
DC_GROUP_267
  1

  0
LINE
  5
8E7
  8
0
  6
CONTINUOUS
 62
     3
 10
152.82279145
 20
82.74636916999999
 30
0.0
 11
151.79826394
 21
83.02089049999999
 31
0.0
  0
ENDBLK
  5
36B
  8
0
  0
BLOCK
  8
0
  2
DC_GROUP_268
 70
     0
 10
0.0
 20
0.0
 30
0.0
  3
DC_GROUP_268
  1

  0
LINE
  5
8E8
  8
0
  6
CONTINUOUS
 62
     3
 10
148.51380866
 20
79.70974076
 30
0.0
 11
147.95131056
 21
80.68401602
 31
0.0
  0
ENDBLK
  5
36E
  8
0
  0
BLOCK
  8
0
  2
DC_GROUP_269
 70
     0
 10
0.0
 20
0.0
 30
0.0
  3
DC_GROUP_269
  1

  0
LINE
  5
8E9
  8
0
  6
CONTINUOUS
 62
     3
 10
148.51379544
 20
79.70973313
 30
0.0
 11
149.81283352
 21
80.45973313
 31
0.0
  0
ENDBLK
  5
371
  8
0
  0
BLOCK
  8
0
  2
DC_GROUP_270
 70
     0
 10
0.0
 20
0.0
 30
0.0
  3
DC_GROUP_270
  1

  0
LINE
  5
8EA
  8
0
  6
CONTINUOUS
 62
     3
 10
150.37534674
 20
79.4854622
 30
0.0
 11
149.81284674
 21
80.45974076
 31
0.0
  0
ENDBLK
  5
374
  8
0
  0
BLOCK
  8
0
  2
DC_GROUP_271
 70
     0
 10
0.0
 20
0.0
 30
0.0
  3
DC_GROUP_271
  1

  0
LINE
  5
8EB
  8
0
  6
CONTINUOUS
 62
     3
 10
152.42437208
 20
78.93641565999999
 30
0.0
 11
151.67437161
 21
80.23545457
 31
0.0
  0
ENDBLK
  5
377
  8
0
  0
BLOCK
  8
0
  2
DC_GROUP_272
 70
     0
 10
0.0
 20
0.0
 30
0.0
  3
DC_GROUP_272
  1

  0
LINE
  5
8EC
  8
0
  6
CONTINUOUS
 62
     3
 10
150.3753184
 20
79.48545024000001
 30
0.0
 11
151.6743697
 21
80.23545787000001
 31
0.0
  0
ENDBLK
  5
37A
  8
0
  0
BLOCK
  8
0
  2
DC_GROUP_273
 70
     0
 10
0.0
 20
0.0
 30
0.0
  3
DC_GROUP_273
  1

  0
LINE
  5
8ED
  8
0
  6
CONTINUOUS
 62
     3
 10
156.98387099
 20
79.29070039
 30
0.0
 11
156.21716026
 21
78.66983042
 31
0.0
  0
ENDBLK
  5
37D
  8
0
  0
BLOCK
  8
0
  2
DC_GROUP_274
 70
     0
 10
0.0
 20
0.0
 30
0.0
  3
DC_GROUP_274
  1

  0
LINE
  5
8EE
  8
0
  6
CONTINUOUS
 62
     3
 10
156.98389261
 20
79.29070575
 30
0.0
 11
156.36303212
 21
80.05740451
 31
0.0
  0
ENDBLK
  5
380
  8
0
  0
BLOCK
  8
0
  2
DC_GROUP_275
 70
     0
 10
0.0
 20
0.0
 30
0.0
  3
DC_GROUP_275
  1

  0
LINE
  5
8EF
  8
0
  6
CONTINUOUS
 62
     3
 10
158.49794242
 20
72.91671384
 30
0.0
 11
160.74794242
 21
69.01959959
 31
0.0
  0
ENDBLK
  5
383
  8
0
  0
BLOCK
  8
0
  2
DC_GROUP_276
 70
     0
 10
0.0
 20
0.0
 30
0.0
  3
DC_GROUP_276
  1

  0
LINE
  5
8F0
  8
0
  6
CONTINUOUS
 62
     3
 10
158.2234624
 20
71.8921819
 30
0.0
 11
158.49798363
 21
72.91670947
 31
0.0
  0
ENDBLK
  5
386
  8
0
  0
BLOCK
  8
0
  2
DC_GROUP_277
 70
     0
 10
0.0
 20
0.0
 30
0.0
  3
DC_GROUP_277
  1

  0
LINE
  5
8F1
  8
0
  6
CONTINUOUS
 62
     3
 10
159.52243002
 20
72.64221316
 30
0.0
 11
158.49793199
 21
72.91672659
 31
0.0
  0
ENDBLK
  5
389
  8
0
  0
BLOCK
  8
0
  2
DC_GROUP_278
 70
     0
 10
0.0
 20
0.0
 30
0.0
  3
DC_GROUP_278
  1

  0
LINE
  5
8F2
  8
0
  6
CONTINUOUS
 62
     3
 10
160.74799189
 20
69.01958175
 30
0.0
 11
161.02251312
 21
70.04410933
 31
0.0
  0
ENDBLK
  5
38C
  8
0
  0
BLOCK
  8
0
  2
DC_GROUP_279
 70
     0
 10
0.0
 20
0.0
 30
0.0
  3
DC_GROUP_279
  1

  0
LINE
  5
8F3
  8
0
  6
CONTINUOUS
 62
     3
 10
160.74791227
 20
69.01961403999999
 30
0.0
 11
159.7233995
 21
69.29413141000001
 31
0.0
  0
ENDBLK
  5
38F
  8
0
  0
BLOCK
  8
0
  2
DC_GROUP_280
 70
     0
 10
0.0
 20
0.0
 30
0.0
  3
DC_GROUP_280
  1

  0
LINE
  5
8F4
  8
0
  6
CONTINUOUS
 62
     3
 10
-94.33484226
 20
61.16667175
 30
0.0
 11
-82.33332824999999
 21
61.16667175
 31
0.0
  0
ENDBLK
  5
392
  8
0
  0
BLOCK
  8
0
  2
DC_GROUP_281
 70
     0
 10
0.0
 20
0.0
 30
0.0
  3
DC_GROUP_281
  1

  0
LINE
  5
8F5
  8
0
  6
CONTINUOUS
 62
     3
 10
-88.33332824999999
 20
62.66667175
 30
0.0
 11
-82.33332824999999
 21
62.66667175
 31
0.0
  0
ENDBLK
  5
395
  8
0
  0
BLOCK
  8
0
  2
DC_GROUP_282
 70
     0
 10
0.0
 20
0.0
 30
0.0
  3
DC_GROUP_282
  1

  0
LINE
  5
8F6
  8
0
  6
CONTINUOUS
 62
     3
 10
-88.33332824999999
 20
101.16667175
 30
0.0
 11
-88.33332824999999
 21
62.66667175
 31
0.0
  0
ENDBLK
  5
398
  8
0
  0
BLOCK
  8
0
  2
DC_GROUP_283
 70
     0
 10
0.0
 20
0.0
 30
0.0
  3
DC_GROUP_283
  1

  0
LINE
  5
8F7
  8
0
  6
CONTINUOUS
 62
     3
 10
-89.33332824999999
 20
61.16667175
 30
0.0
 11
-89.33332824999999
 21
66.66667175000001
 31
0.0
  0
ENDBLK
  5
39B
  8
0
  0
BLOCK
  8
0
  2
DC_GROUP_284
 70
     0
 10
0.0
 20
0.0
 30
0.0
  3
DC_GROUP_284
  1

  0
LINE
  5
8F8
  8
0
  6
CONTINUOUS
 62
     3
 10
-89.33332824999999
 20
66.66667175000001
 30
0.0
 11
-92.40627687999999
 21
66.66667175000001
 31
0.0
  0
ENDBLK
  5
39E
  8
0
  0
BLOCK
  8
0
  2
DC_GROUP_285
 70
     0
 10
0.0
 20
0.0
 30
0.0
  3
DC_GROUP_285
  1

  0
LINE
  5
8F9
  8
0
  6
CONTINUOUS
 62
     3
 10
-129.1333313
 20
-5.83332825
 30
0.0
 11
-84.33332824999999
 21
-5.83332825
 31
0.0
  0
ENDBLK
  5
3A1
  8
0
  0
BLOCK
  8
0
  2
DC_GROUP_286
 70
     0
 10
0.0
 20
0.0
 30
0.0
  3
DC_GROUP_286
  1

  0
LINE
  5
8FA
  8
0
  6
CONTINUOUS
 62
     3
 10
-129.1333313
 20
-16.83332825
 30
0.0
 11
-84.33332824999999
 21
-16.83332825
 31
0.0
  0
ENDBLK
  5
3A4
  8
0
  0
BLOCK
  8
0
  2
DC_GROUP_287
 70
     0
 10
0.0
 20
0.0
 30
0.0
  3
DC_GROUP_287
  1

  0
LINE
  5
8FB
  8
0
  6
CONTINUOUS
 62
     3
 10
-129.1333313
 20
12.66667175
 30
0.0
 11
-129.1333313
 21
-5.84995806
 31
0.0
  0
ENDBLK
  5
3A7
  8
0
  0
BLOCK
  8
0
  2
DC_GROUP_288
 70
     0
 10
0.0
 20
0.0
 30
0.0
  3
DC_GROUP_288
  1

  0
LINE
  5
8FC
  8
0
  6
CONTINUOUS
 62
     3
 10
-129.1333313
 20
-17.0043301
 30
0.0
 11
-129.1333313
 21
-18.83332825
 31
0.0
  0
ENDBLK
  5
3AA
  8
0
  0
BLOCK
  8
0
  2
DC_GROUP_289
 70
     0
 10
0.0
 20
0.0
 30
0.0
  3
DC_GROUP_289
  1

  0
LINE
  5
8FD
  8
0
  6
CONTINUOUS
 62
     3
 10
-133.33332825
 20
12.66667175
 30
0.0
 11
-133.33332825
 21
-5.84995806
 31
0.0
  0
ENDBLK
  5
3AD
  8
0
  0
BLOCK
  8
0
  2
DC_GROUP_290
 70
     0
 10
0.0
 20
0.0
 30
0.0
  3
DC_GROUP_290
  1

  0
LINE
  5
8FE
  8
0
  6
CONTINUOUS
 62
     3
 10
-133.33332825
 20
-17.0043301
 30
0.0
 11
-133.33332825
 21
-23.83332825
 31
0.0
  0
ENDBLK
  5
3B0
  8
0
  0
BLOCK
  8
0
  2
DC_GROUP_291
 70
     0
 10
0.0
 20
0.0
 30
0.0
  3
DC_GROUP_291
  1

  0
LINE
  5
8FF
  8
0
  6
CONTINUOUS
 62
     4
 10
-89.33332824999999
 20
55.66667175
 30
0.0
 11
-81.33332824999999
 21
55.66667175
 31
0.0
  0
ENDBLK
  5
3B3
  8
0
  0
BLOCK
  8
0
  2
DC_GROUP_292
 70
     0
 10
0.0
 20
0.0
 30
0.0
  3
DC_GROUP_292
  1

  0
LINE
  5
900
  8
0
  6
CONTINUOUS
 62
     4
 10
-89.33332824999999
 20
21.66667175
 30
0.0
 11
-81.33332824999999
 21
21.66667175
 31
0.0
  0
ENDBLK
  5
3B6
  8
0
  0
BLOCK
  8
0
  2
DC_GROUP_293
 70
     0
 10
0.0
 20
0.0
 30
0.0
  3
DC_GROUP_293
  1

  0
LINE
  5
901
  8
0
  6
CONTINUOUS
 62
     4
 10
-134.33332825
 20
61.16667175
 30
0.0
 11
-122.33332825
 21
61.16667175
 31
0.0
  0
ENDBLK
  5
3B9
  8
0
  0
BLOCK
  8
0
  2
DC_GROUP_294
 70
     0
 10
0.0
 20
0.0
 30
0.0
  3
DC_GROUP_294
  1

  0
LINE
  5
902
  8
0
  6
CONTINUOUS
 62
     4
 10
-134.33332825
 20
16.16667175
 30
0.0
 11
-122.33332825
 21
16.16667175
 31
0.0
  0
ENDBLK
  5
3BC
  8
0
  0
BLOCK
  8
0
  2
DC_GROUP_295
 70
     0
 10
0.0
 20
0.0
 30
0.0
  3
DC_GROUP_295
  1

  0
LINE
  5
903
  8
0
  6
CONTINUOUS
 62
     4
 10
-144.33332825
 20
-7.0333252
 30
0.0
 11
-112.33332825
 21
-7.0333252
 31
0.0
  0
ENDBLK
  5
3BF
  8
0
  0
BLOCK
  8
0
  2
DC_GROUP_296
 70
     0
 10
0.0
 20
0.0
 30
0.0
  3
DC_GROUP_296
  1

  0
LINE
  5
904
  8
0
  6
CONTINUOUS
 62
     4
 10
-144.33332825
 20
-15.6333313
 30
0.0
 11
-112.33332825
 21
-15.6333313
 31
0.0
  0
ENDBLK
  5
3C2
  8
0
  0
BLOCK
  8
0
  2
DC_GROUP_297
 70
     0
 10
0.0
 20
0.0
 30
0.0
  3
DC_GROUP_297
  1

  0
LINE
  5
905
  8
0
  6
CONTINUOUS
 62
     4
 10
-94.33332824999999
 20
6.16667175
 30
0.0
 11
-79.33332824999999
 21
6.16667175
 31
0.0
  0
ENDBLK
  5
3C5
  8
0
  0
BLOCK
  8
0
  2
DC_GROUP_298
 70
     0
 10
0.0
 20
0.0
 30
0.0
  3
DC_GROUP_298
  1

  0
LINE
  5
906
  8
0
  6
CONTINUOUS
 62
     4
 10
-94.33332824999999
 20
11.16667175
 30
0.0
 11
-79.33332824999999
 21
11.16667175
 31
0.0
  0
ENDBLK
  5
3C8
  8
0
  0
BLOCK
  8
0
  2
DC_GROUP_299
 70
     0
 10
0.0
 20
0.0
 30
0.0
  3
DC_GROUP_299
  1

  0
LINE
  5
907
  8
0
  6
CONTINUOUS
 62
     4
 10
-74.33332824999999
 20
101.16667175
 30
0.0
 11
-74.33332824999999
 21
98.16667175000001
 31
0.0
  0
ENDBLK
  5
3CB
  8
0
  0
BLOCK
  8
0
  2
DC_GROUP_300
 70
     0
 10
0.0
 20
0.0
 30
0.0
  3
DC_GROUP_300
  1

  0
LINE
  5
908
  8
0
  6
CONTINUOUS
 62
     4
 10
-87.33332824999999
 20
70.81666565
 30
0.0
 11
-66.33332824999999
 21
70.81666565
 31
0.0
  0
ENDBLK
  5
3CE
  8
0
  0
BLOCK
  8
0
  2
DC_GROUP_301
 70
     0
 10
0.0
 20
0.0
 30
0.0
  3
DC_GROUP_301
  1

  0
LINE
  5
909
  8
0
  6
CONTINUOUS
 62
     4
 10
-87.33332824999999
 20
77.51667786
 30
0.0
 11
-66.33332824999999
 21
77.51667786
 31
0.0
  0
ENDBLK
  5
3D1
  8
0
  0
BLOCK
  8
0
  2
DC_GROUP_302
 70
     0
 10
0.0
 20
0.0
 30
0.0
  3
DC_GROUP_302
  1

  0
LINE
  5
90A
  8
0
  6
CONTINUOUS
 62
     4
 10
-87.33332824999999
 20
94.51667786
 30
0.0
 11
-66.33332824999999
 21
94.51667786
 31
0.0
  0
ENDBLK
  5
3D4
  8
0
  0
BLOCK
  8
0
  2
DC_GROUP_303
 70
     0
 10
0.0
 20
0.0
 30
0.0
  3
DC_GROUP_303
  1

  0
LINE
  5
90B
  8
0
  6
CONTINUOUS
 62
     4
 10
-87.33332824999999
 20
87.81666565
 30
0.0
 11
-66.33332824999999
 21
87.81666565
 31
0.0
  0
ENDBLK
  5
3D7
  8
0
  0
BLOCK
  8
0
  2
DC_GROUP_304
 70
     0
 10
0.0
 20
0.0
 30
0.0
  3
DC_GROUP_304
  1

  0
LINE
  5
90C
  8
0
  6
CONTINUOUS
 62
     4
 10
-74.33332824999999
 20
67.16667175000001
 30
0.0
 11
-74.33332824999999
 21
65.16667175000001
 31
0.0
  0
ENDBLK
  5
3DA
  8
0
  0
BLOCK
  8
0
  2
DC_GROUP_305
 70
     0
 10
0.0
 20
0.0
 30
0.0
  3
DC_GROUP_305
  1

  0
LINE
  5
90D
  8
0
  6
CONTINUOUS
 62
     4
 10
67.20580681
 20
19.07858738
 30
0.0
 11
70.25580831000001
 21
13.79583053
 31
0.0
  0
ENDBLK
  5
3DD
  8
0
  0
BLOCK
  8
0
  2
DC_GROUP_306
 70
     0
 10
0.0
 20
0.0
 30
0.0
  3
DC_GROUP_306
  1

  0
LINE
  5
90E
  8
0
  6
CONTINUOUS
 62
     4
 10
76.7558129
 20
2.53749388
 30
0.0
 11
79.80581632000001
 21
-2.74526628
 31
0.0
  0
ENDBLK
  5
3E0
  8
0
  0
BLOCK
  8
0
  2
DC_GROUP_307
 70
     0
 10
0.0
 20
0.0
 30
0.0
  3
DC_GROUP_307
  1

  0
LINE
  5
90F
  8
0
  6
CONTINUOUS
 62
     4
 10
105.33464895
 20
19.03746839
 30
0.0
 11
108.38465236
 21
13.75470824
 31
0.0
  0
ENDBLK
  5
3E3
  8
0
  0
BLOCK
  8
0
  2
DC_GROUP_308
 70
     0
 10
0.0
 20
0.0
 30
0.0
  3
DC_GROUP_308
  1

  0
LINE
  5
910
  8
0
  6
CONTINUOUS
 62
     4
 10
95.78464285
 20
35.5785619
 30
0.0
 11
98.83464626
 21
30.29580175
 31
0.0
  0
ENDBLK
  5
3E6
  8
0
  0
BLOCK
  8
0
  2
DC_GROUP_309
 70
     0
 10
0.0
 20
0.0
 30
0.0
  3
DC_GROUP_309
  1

  0
LINE
  5
911
  8
0
  6
CONTINUOUS
 62
     4
 10
68.5048393
 20
19.82856663
 30
0.0
 11
71.55484272
 21
14.54580647
 31
0.0
  0
ENDBLK
  5
3E9
  8
0
  0
BLOCK
  8
0
  2
DC_GROUP_310
 70
     0
 10
0.0
 20
0.0
 30
0.0
  3
DC_GROUP_310
  1

  0
LINE
  5
912
  8
0
  6
CONTINUOUS
 62
     4
 10
69.80388781000001
 20
20.57856393
 30
0.0
 11
72.85389121999999
 21
15.29580377
 31
0.0
  0
ENDBLK
  5
3EC
  8
0
  0
BLOCK
  8
0
  2
DC_GROUP_311
 70
     0
 10
0.0
 20
0.0
 30
0.0
  3
DC_GROUP_311
  1

  0
LINE
  5
913
  8
0
  6
CONTINUOUS
 62
     4
 10
71.10289272
 20
21.3285757
 30
0.0
 11
74.15289613
 21
16.04581554
 31
0.0
  0
ENDBLK
  5
3EF
  8
0
  0
BLOCK
  8
0
  2
DC_GROUP_312
 70
     0
 10
0.0
 20
0.0
 30
0.0
  3
DC_GROUP_312
  1

  0
LINE
  5
914
  8
0
  6
CONTINUOUS
 62
     4
 10
78.05484540000001
 20
3.28747312
 30
0.0
 11
81.10484882
 21
-1.99528703
 31
0.0
  0
ENDBLK
  5
3F2
  8
0
  0
BLOCK
  8
0
  2
DC_GROUP_313
 70
     0
 10
0.0
 20
0.0
 30
0.0
  3
DC_GROUP_313
  1

  0
LINE
  5
915
  8
0
  6
CONTINUOUS
 62
     4
 10
79.35389391
 20
4.03747042
 30
0.0
 11
82.40389732
 21
-1.24528973
 31
0.0
  0
ENDBLK
  5
3F5
  8
0
  0
BLOCK
  8
0
  2
DC_GROUP_314
 70
     0
 10
0.0
 20
0.0
 30
0.0
  3
DC_GROUP_314
  1

  0
LINE
  5
916
  8
0
  6
CONTINUOUS
 62
     4
 10
80.65289881
 20
4.78748219
 30
0.0
 11
83.70290223000001
 21
-0.49527796
 31
0.0
  0
ENDBLK
  5
3F8
  8
0
  0
BLOCK
  8
0
  2
DC_GROUP_315
 70
     0
 10
0.0
 20
0.0
 30
0.0
  3
DC_GROUP_315
  1

  0
LINE
  5
917
  8
0
  6
CONTINUOUS
 62
     4
 10
82.37925130000001
 20
4.79744369
 30
0.0
 11
85.00198568
 21
0.2547351
 31
0.0
  0
ENDBLK
  5
3FB
  8
0
  0
BLOCK
  8
0
  2
DC_GROUP_316
 70
     0
 10
0.0
 20
0.0
 30
0.0
  3
DC_GROUP_316
  1

  0
LINE
  5
918
  8
0
  6
CONTINUOUS
 62
     4
 10
104.03559002
 20
18.28747389
 30
0.0
 11
107.08559153
 21
13.00471704
 31
0.0
  0
ENDBLK
  5
3FE
  8
0
  0
BLOCK
  8
0
  2
DC_GROUP_317
 70
     0
 10
0.0
 20
0.0
 30
0.0
  3
DC_GROUP_317
  1

  0
LINE
  5
919
  8
0
  6
CONTINUOUS
 62
     4
 10
102.73657469
 20
17.53746491
 30
0.0
 11
105.7865781
 21
12.25470476
 31
0.0
  0
ENDBLK
  5
401
  8
0
  0
BLOCK
  8
0
  2
DC_GROUP_318
 70
     0
 10
0.0
 20
0.0
 30
0.0
  3
DC_GROUP_318
  1

  0
LINE
  5
91A
  8
0
  6
CONTINUOUS
 62
     4
 10
101.43754103
 20
16.78753345
 30
0.0
 11
104.48754254
 21
11.5047766
 31
0.0
  0
ENDBLK
  5
404
  8
0
  0
BLOCK
  8
0
  2
DC_GROUP_319
 70
     0
 10
0.0
 20
0.0
 30
0.0
  3
DC_GROUP_319
  1

  0
LINE
  5
91B
  8
0
  6
CONTINUOUS
 62
     4
 10
100.69578199
 20
15.07222158
 30
0.0
 11
103.18850003
 21
10.75470788
 31
0.0
  0
ENDBLK
  5
407
  8
0
  0
BLOCK
  8
0
  2
DC_GROUP_320
 70
     0
 10
0.0
 20
0.0
 30
0.0
  3
DC_GROUP_320
  1

  0
LINE
  5
91C
  8
0
  6
CONTINUOUS
 62
     4
 10
94.48558392
 20
34.82856739
 30
0.0
 11
97.53558734000001
 21
29.54580724
 31
0.0
  0
ENDBLK
  5
40A
  8
0
  0
BLOCK
  8
0
  2
DC_GROUP_321
 70
     0
 10
0.0
 20
0.0
 30
0.0
  3
DC_GROUP_321
  1

  0
LINE
  5
91D
  8
0
  6
CONTINUOUS
 62
     4
 10
93.18656858999999
 20
34.07855842
 30
0.0
 11
96.23657201
 21
28.79579826
 31
0.0
  0
ENDBLK
  5
40D
  8
0
  0
BLOCK
  8
0
  2
DC_GROUP_322
 70
     0
 10
0.0
 20
0.0
 30
0.0
  3
DC_GROUP_322
  1

  0
LINE
  5
91E
  8
0
  6
CONTINUOUS
 62
     4
 10
91.88753493
 20
33.32862696
 30
0.0
 11
94.93753835
 21
28.0458668
 31
0.0
  0
ENDBLK
  5
410
  8
0
  0
BLOCK
  8
0
  2
DC_GROUP_323
 70
     0
 10
0.0
 20
0.0
 30
0.0
  3
DC_GROUP_323
  1

  0
LINE
  5
91F
  8
0
  6
CONTINUOUS
 62
     4
 10
90.58849051999999
 20
32.57856154
 30
0.0
 11
93.24017655
 21
27.98570724
 31
0.0
  0
ENDBLK
  5
413
  8
0
  0
BLOCK
  8
0
  2
DC_GROUP_324
 70
     0
 10
0.0
 20
0.0
 30
0.0
  3
DC_GROUP_324
  1

  0
LINE
  5
920
  8
0
  6
CONTINUOUS
 62
     4
 10
72.40197616
 20
22.07858876
 30
0.0
 11
75.04583443999999
 21
17.49929254
 31
0.0
  0
ENDBLK
  5
416
  8
0
  0
BLOCK
  8
0
  2
DC_GROUP_325
 70
     0
 10
0.0
 20
0.0
 30
0.0
  3
DC_GROUP_325
  1

  0
LINE
  5
921
  8
0
  6
CONTINUOUS
 62
     4
 10
-76.33333619
 20
7.86667442
 30
0.0
 11
-74.13334664999999
 21
6.59651001
 31
0.0
  0
ENDBLK
  5
419
  8
0
  0
BLOCK
  8
0
  2
DC_GROUP_326
 70
     0
 10
0.0
 20
0.0
 30
0.0
  3
DC_GROUP_326
  1

  0
LINE
  5
922
  8
0
  6
CONTINUOUS
 62
     4
 10
-78.53334048000001
 20
6.59650318
 30
0.0
 11
-76.33333772
 21
7.86667522
 31
0.0
  0
ENDBLK
  5
41C
  8
0
  0
BLOCK
  8
0
  2
DC_GROUP_327
 70
     0
 10
0.0
 20
0.0
 30
0.0
  3
DC_GROUP_327
  1

  0
LINE
  5
923
  8
0
  6
CONTINUOUS
 62
     4
 10
-77.73332670000001
 20
7.86667018
 30
0.0
 11
-74.13332699999999
 21
5.78820961
 31
0.0
  0
ENDBLK
  5
41F
  8
0
  0
BLOCK
  8
0
  2
DC_GROUP_328
 70
     0
 10
0.0
 20
0.0
 30
0.0
  3
DC_GROUP_328
  1

  0
LINE
  5
924
  8
0
  6
CONTINUOUS
 62
     4
 10
-78.53331851
 20
7.52025876
 30
0.0
 11
-74.13332952
 21
4.97992421
 31
0.0
  0
ENDBLK
  5
422
  8
0
  0
BLOCK
  8
0
  2
DC_GROUP_329
 70
     0
 10
0.0
 20
0.0
 30
0.0
  3
DC_GROUP_329
  1

  0
LINE
  5
925
  8
0
  6
CONTINUOUS
 62
     4
 10
-78.53334518
 20
6.71196969
 30
0.0
 11
-74.64437079
 21
4.46666953
 31
0.0
  0
ENDBLK
  5
425
  8
0
  0
BLOCK
  8
0
  2
DC_GROUP_330
 70
     0
 10
0.0
 20
0.0
 30
0.0
  3
DC_GROUP_330
  1

  0
LINE
  5
926
  8
0
  6
CONTINUOUS
 62
     4
 10
-78.53332457000001
 20
5.90367094
 30
0.0
 11
-76.04436035000001
 21
4.46666694
 31
0.0
  0
ENDBLK
  5
428
  8
0
  0
BLOCK
  8
0
  2
DC_GROUP_331
 70
     0
 10
0.0
 20
0.0
 30
0.0
  3
DC_GROUP_331
  1

  0
LINE
  5
927
  8
0
  6
CONTINUOUS
 62
     4
 10
-78.53333986
 20
5.09538632
 30
0.0
 11
-77.44437259
 21
4.46667084
 31
0.0
  0
ENDBLK
  5
42B
  8
0
  0
BLOCK
  8
0
  2
DC_GROUP_332
 70
     0
 10
0.0
 20
0.0
 30
0.0
  3
DC_GROUP_332
  1

  0
LINE
  5
928
  8
0
  6
CONTINUOUS
 62
     4
 10
-78.53333503
 20
5.78819745
 30
0.0
 11
-74.93333533000001
 21
7.86665802
 31
0.0
  0
ENDBLK
  5
42E
  8
0
  0
BLOCK
  8
0
  2
DC_GROUP_333
 70
     0
 10
0.0
 20
0.0
 30
0.0
  3
DC_GROUP_333
  1

  0
LINE
  5
929
  8
0
  6
CONTINUOUS
 62
     4
 10
-78.53334014000001
 20
4.97992527
 30
0.0
 11
-74.13335115
 21
7.52025982
 31
0.0
  0
ENDBLK
  5
431
  8
0
  0
BLOCK
  8
0
  2
DC_GROUP_334
 70
     0
 10
0.0
 20
0.0
 30
0.0
  3
DC_GROUP_334
  1

  0
LINE
  5
92A
  8
0
  6
CONTINUOUS
 62
     4
 10
-78.02230166
 20
4.46666017
 30
0.0
 11
-74.13333388
 21
6.71195651
 31
0.0
  0
ENDBLK
  5
434
  8
0
  0
BLOCK
  8
0
  2
DC_GROUP_335
 70
     0
 10
0.0
 20
0.0
 30
0.0
  3
DC_GROUP_335
  1

  0
LINE
  5
92B
  8
0
  6
CONTINUOUS
 62
     4
 10
-76.62231503
 20
4.46667791
 30
0.0
 11
-74.13335081
 21
5.90368191
 31
0.0
  0
ENDBLK
  5
437
  8
0
  0
BLOCK
  8
0
  2
DC_GROUP_336
 70
     0
 10
0.0
 20
0.0
 30
0.0
  3
DC_GROUP_336
  1

  0
LINE
  5
92C
  8
0
  6
CONTINUOUS
 62
     4
 10
-75.22230272
 20
4.46666643
 30
0.0
 11
-74.13333545
 21
5.09538191
 31
0.0
  0
ENDBLK
  5
43A
  8
0
  0
BLOCK
  8
0
  2
DC_GROUP_337
 70
     0
 10
0.0
 20
0.0
 30
0.0
  3
DC_GROUP_337
  1

  0
LINE
  5
92D
  8
0
  6
CONTINUOUS
 62
     4
 10
-74.93332586
 20
7.86666722
 30
0.0
 11
-74.13333326
 21
7.40479133
 31
0.0
  0
ENDBLK
  5
43D
  8
0
  0
BLOCK
  8
0
  2
DC_GROUP_338
 70
     0
 10
0.0
 20
0.0
 30
0.0
  3
DC_GROUP_338
  1

  0
LINE
  5
92E
  8
0
  6
CONTINUOUS
 62
     4
 10
-78.53333868
 20
7.40477345
 30
0.0
 11
-77.73334939
 21
7.86664743
 31
0.0
  0
ENDBLK
  5
440
  8
0
  0
BLOCK
  8
0
  2
DC_GROUP_339
 70
     0
 10
0.0
 20
0.0
 30
0.0
  3
DC_GROUP_339
  1

  0
LINE
  5
92F
  8
0
  6
CONTINUOUS
 62
     4
 10
-65.33333603
 20
88.43464722
 30
0.0
 11
-62.33333407
 21
90.16669897
 31
0.0
  0
ENDBLK
  5
443
  8
0
  0
BLOCK
  8
0
  2
DC_GROUP_340
 70
     0
 10
0.0
 20
0.0
 30
0.0
  3
DC_GROUP_340
  1

  0
LINE
  5
930
  8
0
  6
CONTINUOUS
 62
     4
 10
-62.33333959
 20
90.16668872
 30
0.0
 11
-59.33333103
 21
88.43463316
 31
0.0
  0
ENDBLK
  5
446
  8
0
  0
BLOCK
  8
0
  2
DC_GROUP_341
 70
     0
 10
0.0
 20
0.0
 30
0.0
  3
DC_GROUP_341
  1

  0
LINE
  5
931
  8
0
  6
CONTINUOUS
 62
     4
 10
-60.33333534
 20
90.16668639
 30
0.0
 11
-59.33332808
 21
89.58933199000001
 31
0.0
  0
ENDBLK
  5
449
  8
0
  0
BLOCK
  8
0
  2
DC_GROUP_342
 70
     0
 10
0.0
 20
0.0
 30
0.0
  3
DC_GROUP_342
  1

  0
LINE
  5
932
  8
0
  6
CONTINUOUS
 62
     4
 10
-65.33333528
 20
89.58931294999999
 30
0.0
 11
-64.33333463
 21
90.16666352999999
 31
0.0
  0
ENDBLK
  5
44C
  8
0
  0
BLOCK
  8
0
  2
DC_GROUP_343
 70
     0
 10
0.0
 20
0.0
 30
0.0
  3
DC_GROUP_343
  1

  0
LINE
  5
933
  8
0
  6
CONTINUOUS
 62
     4
 10
-64.33331932
 20
90.16667249
 30
0.0
 11
-59.33332267
 21
87.2799234
 31
0.0
  0
ENDBLK
  5
44F
  8
0
  0
BLOCK
  8
0
  2
DC_GROUP_344
 70
     0
 10
0.0
 20
0.0
 30
0.0
  3
DC_GROUP_344
  1

  0
LINE
  5
934
  8
0
  6
CONTINUOUS
 62
     4
 10
-65.33332292
 20
89.58932424
 30
0.0
 11
-59.33331901
 21
86.12522075
 31
0.0
  0
ENDBLK
  5
452
  8
0
  0
BLOCK
  8
0
  2
DC_GROUP_345
 70
     0
 10
0.0
 20
0.0
 30
0.0
  3
DC_GROUP_345
  1

  0
LINE
  5
935
  8
0
  6
CONTINUOUS
 62
     4
 10
-65.33331456000001
 20
88.43461447999999
 30
0.0
 11
-60.5390941
 21
85.66667031
 31
0.0
  0
ENDBLK
  5
455
  8
0
  0
BLOCK
  8
0
  2
DC_GROUP_346
 70
     0
 10
0.0
 20
0.0
 30
0.0
  3
DC_GROUP_346
  1

  0
LINE
  5
936
  8
0
  6
CONTINUOUS
 62
     4
 10
-65.3333109
 20
87.27991183
 30
0.0
 11
-62.53907853
 21
85.66666119999999
 31
0.0
  0
ENDBLK
  5
458
  8
0
  0
BLOCK
  8
0
  2
DC_GROUP_347
 70
     0
 10
0.0
 20
0.0
 30
0.0
  3
DC_GROUP_347
  1

  0
LINE
  5
937
  8
0
  6
CONTINUOUS
 62
     4
 10
-65.33330915000001
 20
86.12520588
 30
0.0
 11
-64.53907808
 21
85.66665641
 31
0.0
  0
ENDBLK
  5
45B
  8
0
  0
BLOCK
  8
0
  2
DC_GROUP_348
 70
     0
 10
0.0
 20
0.0
 30
0.0
  3
DC_GROUP_348
  1

  0
LINE
  5
938
  8
0
  6
CONTINUOUS
 62
     4
 10
-65.33333473
 20
87.27994744
 30
0.0
 11
-60.33333477
 21
90.16669844000001
 31
0.0
  0
ENDBLK
  5
45E
  8
0
  0
BLOCK
  8
0
  2
DC_GROUP_349
 70
     0
 10
0.0
 20
0.0
 30
0.0
  3
DC_GROUP_349
  1

  0
LINE
  5
939
  8
0
  6
CONTINUOUS
 62
     4
 10
-65.33333292
 20
86.12523914000001
 30
0.0
 11
-59.33333231
 21
89.58934072
 31
0.0
  0
ENDBLK
  5
461
  8
0
  0
BLOCK
  8
0
  2
DC_GROUP_350
 70
     0
 10
0.0
 20
0.0
 30
0.0
  3
DC_GROUP_350
  1

  0
LINE
  5
93A
  8
0
  6
CONTINUOUS
 62
     4
 10
-64.12756128
 20
85.66671753999999
 30
0.0
 11
-59.3333342
 21
88.43466553
 31
0.0
  0
ENDBLK
  5
464
  8
0
  0
BLOCK
  8
0
  2
DC_GROUP_351
 70
     0
 10
0.0
 20
0.0
 30
0.0
  3
DC_GROUP_351
  1

  0
LINE
  5
93B
  8
0
  6
CONTINUOUS
 62
     4
 10
-62.12757366
 20
85.66668384000001
 30
0.0
 11
-59.33334459
 21
87.27993257
 31
0.0
  0
ENDBLK
  5
467
  8
0
  0
BLOCK
  8
0
  2
DC_GROUP_352
 70
     0
 10
0.0
 20
0.0
 30
0.0
  3
DC_GROUP_352
  1

  0
LINE
  5
93C
  8
0
  6
CONTINUOUS
 62
     4
 10
-60.12756724
 20
85.66667861000001
 30
0.0
 11
-59.33333948
 21
86.12522618
 31
0.0
  0
ENDBLK
  5
46A
  8
0
  0
BLOCK
  8
0
  2
DC_GROUP_353
 70
     0
 10
0.0
 20
0.0
 30
0.0
  3
DC_GROUP_353
  1

  0
LINE
  5
93D
  8
0
  6
CONTINUOUS
 62
     4
 10
-65.33333653
 20
71.43460815
 30
0.0
 11
-62.33333457
 21
73.1666599
 31
0.0
  0
ENDBLK
  5
46D
  8
0
  0
BLOCK
  8
0
  2
DC_GROUP_354
 70
     0
 10
0.0
 20
0.0
 30
0.0
  3
DC_GROUP_354
  1

  0
LINE
  5
93E
  8
0
  6
CONTINUOUS
 62
     4
 10
-62.33332052
 20
73.16667416999999
 30
0.0
 11
-59.33332517
 21
71.43462624
 31
0.0
  0
ENDBLK
  5
470
  8
0
  0
BLOCK
  8
0
  2
DC_GROUP_355
 70
     0
 10
0.0
 20
0.0
 30
0.0
  3
DC_GROUP_355
  1

  0
LINE
  5
93F
  8
0
  6
CONTINUOUS
 62
     4
 10
-60.33332949
 20
73.16667947000001
 30
0.0
 11
-59.33332883
 21
72.58932888
 31
0.0
  0
ENDBLK
  5
473
  8
0
  0
BLOCK
  8
0
  2
DC_GROUP_356
 70
     0
 10
0.0
 20
0.0
 30
0.0
  3
DC_GROUP_356
  1

  0
LINE
  5
940
  8
0
  6
CONTINUOUS
 62
     4
 10
-65.33332957
 20
72.58931269999999
 30
0.0
 11
-64.33332892
 21
73.16666328
 31
0.0
  0
ENDBLK
  5
476
  8
0
  0
BLOCK
  8
0
  2
DC_GROUP_357
 70
     0
 10
0.0
 20
0.0
 30
0.0
  3
DC_GROUP_357
  1

  0
LINE
  5
941
  8
0
  6
CONTINUOUS
 62
     4
 10
-64.33334650000001
 20
73.16668464
 30
0.0
 11
-59.33334324
 21
70.27993173
 31
0.0
  0
ENDBLK
  5
479
  8
0
  0
BLOCK
  8
0
  2
DC_GROUP_358
 70
     0
 10
0.0
 20
0.0
 30
0.0
  3
DC_GROUP_358
  1

  0
LINE
  5
942
  8
0
  6
CONTINUOUS
 62
     4
 10
-65.3333435
 20
72.58933258
 30
0.0
 11
-59.33334619
 21
69.1252329
 31
0.0
  0
ENDBLK
  5
47C
  8
0
  0
BLOCK
  8
0
  2
DC_GROUP_359
 70
     0
 10
0.0
 20
0.0
 30
0.0
  3
DC_GROUP_359
  1

  0
LINE
  5
943
  8
0
  6
CONTINUOUS
 62
     4
 10
-65.33333514
 20
71.43462280999999
 30
0.0
 11
-60.53910146
 21
68.66667101
 31
0.0
  0
ENDBLK
  5
47F
  8
0
  0
BLOCK
  8
0
  2
DC_GROUP_360
 70
     0
 10
0.0
 20
0.0
 30
0.0
  3
DC_GROUP_360
  1

  0
LINE
  5
944
  8
0
  6
CONTINUOUS
 62
     4
 10
-65.33333148
 20
70.27992017
 30
0.0
 11
-62.5390991
 21
68.66666952999999
 31
0.0
  0
ENDBLK
  5
482
  8
0
  0
BLOCK
  8
0
  2
DC_GROUP_361
 70
     0
 10
0.0
 20
0.0
 30
0.0
  3
DC_GROUP_361
  1

  0
LINE
  5
945
  8
0
  6
CONTINUOUS
 62
     4
 10
-65.33333633
 20
69.12521803
 30
0.0
 11
-64.53910526
 21
68.66666856000001
 31
0.0
  0
ENDBLK
  5
485
  8
0
  0
BLOCK
  8
0
  2
DC_GROUP_362
 70
     0
 10
0.0
 20
0.0
 30
0.0
  3
DC_GROUP_362
  1

  0
LINE
  5
946
  8
0
  6
CONTINUOUS
 62
     4
 10
-65.33332151000001
 20
70.27990748000001
 30
0.0
 11
-60.33332155
 21
73.16665848
 31
0.0
  0
ENDBLK
  5
488
  8
0
  0
BLOCK
  8
0
  2
DC_GROUP_363
 70
     0
 10
0.0
 20
0.0
 30
0.0
  3
DC_GROUP_363
  1

  0
LINE
  5
947
  8
0
  6
CONTINUOUS
 62
     4
 10
-65.33332847
 20
69.12520292000001
 30
0.0
 11
-59.33332786
 21
72.58930451000001
 31
0.0
  0
ENDBLK
  5
48B
  8
0
  0
BLOCK
  8
0
  2
DC_GROUP_364
 70
     0
 10
0.0
 20
0.0
 30
0.0
  3
DC_GROUP_364
  1

  0
LINE
  5
948
  8
0
  6
CONTINUOUS
 62
     4
 10
-64.12754907999999
 20
68.66669460999999
 30
0.0
 11
-59.333322
 21
71.4346426
 31
0.0
  0
ENDBLK
  5
48E
  8
0
  0
BLOCK
  8
0
  2
DC_GROUP_365
 70
     0
 10
0.0
 20
0.0
 30
0.0
  3
DC_GROUP_365
  1

  0
LINE
  5
949
  8
0
  6
CONTINUOUS
 62
     4
 10
-62.12755308
 20
68.66669218
 30
0.0
 11
-59.33332401
 21
70.27994090999999
 31
0.0
  0
ENDBLK
  5
491
  8
0
  0
BLOCK
  8
0
  2
DC_GROUP_366
 70
     0
 10
0.0
 20
0.0
 30
0.0
  3
DC_GROUP_366
  1

  0
LINE
  5
94A
  8
0
  6
CONTINUOUS
 62
     4
 10
-60.12755328
 20
68.66668313
 30
0.0
 11
-59.33332551
 21
69.1252307
 31
0.0
  0
ENDBLK
  5
494
  8
0
  0
BLOCK
  8
0
  2
DC_GROUP_367
 70
     0
 10
0.0
 20
0.0
 30
0.0
  3
DC_GROUP_367
  1

  0
LINE
  5
94B
  8
0
  6
CONTINUOUS
 62
     4
 10
113.83334351
 20
66.66667175000001
 30
0.0
 11
119.83334351
 21
66.66667175000001
 31
0.0
  0
ENDBLK
  5
497
  8
0
  0
BLOCK
  8
0
  2
DC_GROUP_368
 70
     0
 10
0.0
 20
0.0
 30
0.0
  3
DC_GROUP_368
  1

  0
LINE
  5
94C
  8
0
  6
CONTINUOUS
 62
     4
 10
132.83334351
 20
66.66667175000001
 30
0.0
 11
138.83334351
 21
66.66667175000001
 31
0.0
  0
ENDBLK
  5
49A
  8
0
  0
BLOCK
  8
0
  2
DC_GROUP_369
 70
     0
 10
0.0
 20
0.0
 30
0.0
  3
DC_GROUP_369
  1

  0
LINE
  5
94D
  8
0
  6
CONTINUOUS
 62
     4
 10
113.83334351
 20
99.66667175000001
 30
0.0
 11
119.83334351
 21
99.66667175000001
 31
0.0
  0
ENDBLK
  5
49D
  8
0
  0
BLOCK
  8
0
  2
DC_GROUP_370
 70
     0
 10
0.0
 20
0.0
 30
0.0
  3
DC_GROUP_370
  1

  0
LINE
  5
94E
  8
0
  6
CONTINUOUS
 62
     4
 10
132.83334351
 20
99.66667175000001
 30
0.0
 11
138.83334351
 21
99.66667175000001
 31
0.0
  0
ENDBLK
  5
4A0
  8
0
  0
BLOCK
  8
0
  2
DC_GROUP_371
 70
     0
 10
0.0
 20
0.0
 30
0.0
  3
DC_GROUP_371
  1

  0
LINE
  5
94F
  8
0
  6
CONTINUOUS
 62
     4
 10
132.83334351
 20
68.16667175000001
 30
0.0
 11
138.83334351
 21
68.16667175000001
 31
0.0
  0
ENDBLK
  5
4A3
  8
0
  0
BLOCK
  8
0
  2
DC_GROUP_372
 70
     0
 10
0.0
 20
0.0
 30
0.0
  3
DC_GROUP_372
  1

  0
LINE
  5
950
  8
0
  6
CONTINUOUS
 62
     4
 10
132.83334351
 20
69.66667175000001
 30
0.0
 11
138.83334351
 21
69.66667175000001
 31
0.0
  0
ENDBLK
  5
4A6
  8
0
  0
BLOCK
  8
0
  2
DC_GROUP_373
 70
     0
 10
0.0
 20
0.0
 30
0.0
  3
DC_GROUP_373
  1

  0
LINE
  5
951
  8
0
  6
CONTINUOUS
 62
     4
 10
132.83334351
 20
71.16667175000001
 30
0.0
 11
138.83334351
 21
71.16667175000001
 31
0.0
  0
ENDBLK
  5
4A9
  8
0
  0
BLOCK
  8
0
  2
DC_GROUP_374
 70
     0
 10
0.0
 20
0.0
 30
0.0
  3
DC_GROUP_374
  1

  0
LINE
  5
952
  8
0
  6
CONTINUOUS
 62
     4
 10
133.76712036
 20
72.66667175000001
 30
0.0
 11
138.83334351
 21
72.66667175000001
 31
0.0
  0
ENDBLK
  5
4AC
  8
0
  0
BLOCK
  8
0
  2
DC_GROUP_375
 70
     0
 10
0.0
 20
0.0
 30
0.0
  3
DC_GROUP_375
  1

  0
LINE
  5
953
  8
0
  6
CONTINUOUS
 62
     4
 10
132.83334351
 20
98.16667175000001
 30
0.0
 11
138.83334351
 21
98.16667175000001
 31
0.0
  0
ENDBLK
  5
4AF
  8
0
  0
BLOCK
  8
0
  2
DC_GROUP_376
 70
     0
 10
0.0
 20
0.0
 30
0.0
  3
DC_GROUP_376
  1

  0
LINE
  5
954
  8
0
  6
CONTINUOUS
 62
     4
 10
132.83334351
 20
96.66667175000001
 30
0.0
 11
138.83334351
 21
96.66667175000001
 31
0.0
  0
ENDBLK
  5
4B2
  8
0
  0
BLOCK
  8
0
  2
DC_GROUP_377
 70
     0
 10
0.0
 20
0.0
 30
0.0
  3
DC_GROUP_377
  1

  0
LINE
  5
955
  8
0
  6
CONTINUOUS
 62
     4
 10
132.83334351
 20
95.16667175000001
 30
0.0
 11
138.83334351
 21
95.16667175000001
 31
0.0
  0
ENDBLK
  5
4B5
  8
0
  0
BLOCK
  8
0
  2
DC_GROUP_378
 70
     0
 10
0.0
 20
0.0
 30
0.0
  3
DC_GROUP_378
  1

  0
LINE
  5
956
  8
0
  6
CONTINUOUS
 62
     4
 10
133.56170654
 20
93.66667175000001
 30
0.0
 11
138.83334351
 21
93.66667175000001
 31
0.0
  0
ENDBLK
  5
4B8
  8
0
  0
BLOCK
  8
0
  2
DC_GROUP_379
 70
     0
 10
0.0
 20
0.0
 30
0.0
  3
DC_GROUP_379
  1

  0
LINE
  5
957
  8
0
  6
CONTINUOUS
 62
     4
 10
113.83334351
 20
98.16667175000001
 30
0.0
 11
119.83334351
 21
98.16667175000001
 31
0.0
  0
ENDBLK
  5
4BB
  8
0
  0
BLOCK
  8
0
  2
DC_GROUP_380
 70
     0
 10
0.0
 20
0.0
 30
0.0
  3
DC_GROUP_380
  1

  0
LINE
  5
958
  8
0
  6
CONTINUOUS
 62
     4
 10
113.83334351
 20
96.66667175000001
 30
0.0
 11
119.83334351
 21
96.66667175000001
 31
0.0
  0
ENDBLK
  5
4BE
  8
0
  0
BLOCK
  8
0
  2
DC_GROUP_381
 70
     0
 10
0.0
 20
0.0
 30
0.0
  3
DC_GROUP_381
  1

  0
LINE
  5
959
  8
0
  6
CONTINUOUS
 62
     4
 10
113.83334351
 20
95.16667175000001
 30
0.0
 11
119.83334351
 21
95.16667175000001
 31
0.0
  0
ENDBLK
  5
4C1
  8
0
  0
BLOCK
  8
0
  2
DC_GROUP_382
 70
     0
 10
0.0
 20
0.0
 30
0.0
  3
DC_GROUP_382
  1

  0
LINE
  5
95A
  8
0
  6
CONTINUOUS
 62
     4
 10
113.83334351
 20
93.66667175000001
 30
0.0
 11
119.18296814
 21
93.66667175000001
 31
0.0
  0
ENDBLK
  5
4C4
  8
0
  0
BLOCK
  8
0
  2
DC_GROUP_383
 70
     0
 10
0.0
 20
0.0
 30
0.0
  3
DC_GROUP_383
  1

  0
LINE
  5
95B
  8
0
  6
CONTINUOUS
 62
     4
 10
113.83334351
 20
68.16667175000001
 30
0.0
 11
119.83334351
 21
68.16667175000001
 31
0.0
  0
ENDBLK
  5
4C7
  8
0
  0
BLOCK
  8
0
  2
DC_GROUP_384
 70
     0
 10
0.0
 20
0.0
 30
0.0
  3
DC_GROUP_384
  1

  0
LINE
  5
95C
  8
0
  6
CONTINUOUS
 62
     4
 10
113.83334351
 20
69.66667175000001
 30
0.0
 11
119.83334351
 21
69.66667175000001
 31
0.0
  0
ENDBLK
  5
4CA
  8
0
  0
BLOCK
  8
0
  2
DC_GROUP_385
 70
     0
 10
0.0
 20
0.0
 30
0.0
  3
DC_GROUP_385
  1

  0
LINE
  5
95D
  8
0
  6
CONTINUOUS
 62
     4
 10
113.83334351
 20
71.16667175000001
 30
0.0
 11
119.83334351
 21
71.16667175000001
 31
0.0
  0
ENDBLK
  5
4CD
  8
0
  0
BLOCK
  8
0
  2
DC_GROUP_386
 70
     0
 10
0.0
 20
0.0
 30
0.0
  3
DC_GROUP_386
  1

  0
LINE
  5
95E
  8
0
  6
CONTINUOUS
 62
     4
 10
113.83334351
 20
72.66667175000001
 30
0.0
 11
118.97755432
 21
72.66667175000001
 31
0.0
  0
ENDBLK
  5
4D0
  8
0
  0
BLOCK
  8
0
  2
DC_GROUP_387
 70
     0
 10
0.0
 20
0.0
 30
0.0
  3
DC_GROUP_387
  1

  0
LINE
  5
95F
  8
0
  6
CONTINUOUS
 62
     4
 10
124.00001526
 20
186.0
 30
0.0
 11
269.0
 21
186.0
 31
0.0
  0
ENDBLK
  5
4D3
  8
0
  0
BLOCK
  8
0
  2
DC_GROUP_388
 70
     0
 10
0.0
 20
0.0
 30
0.0
  3
DC_GROUP_388
  1

  0
LINE
  5
960
  8
0
  6
CONTINUOUS
 62
     4
 10
124.00001526
 20
194.0
 30
0.0
 11
124.00001526
 21
182.0
 31
0.0
  0
ENDBLK
  5
4D6
  8
0
  0
BLOCK
  8
0
  2
DC_GROUP_389
 70
     0
 10
0.0
 20
0.0
 30
0.0
  3
DC_GROUP_389
  1

  0
LINE
  5
961
  8
0
  6
CONTINUOUS
 62
     4
 10
142.12501526
 20
194.0
 30
0.0
 11
142.12501526
 21
182.0
 31
0.0
  0
ENDBLK
  5
4D9
  8
0
  0
BLOCK
  8
0
  2
DC_GROUP_390
 70
     0
 10
0.0
 20
0.0
 30
0.0
  3
DC_GROUP_390
  1

  0
LINE
  5
962
  8
0
  6
CONTINUOUS
 62
     4
 10
160.25001526
 20
194.0
 30
0.0
 11
160.25001526
 21
182.0
 31
0.0
  0
ENDBLK
  5
4DC
  8
0
  0
BLOCK
  8
0
  2
DC_GROUP_391
 70
     0
 10
0.0
 20
0.0
 30
0.0
  3
DC_GROUP_391
  1

  0
LINE
  5
963
  8
0
  6
CONTINUOUS
 62
     4
 10
178.37501526
 20
194.0
 30
0.0
 11
178.37501526
 21
182.0
 31
0.0
  0
ENDBLK
  5
4DF
  8
0
  0
BLOCK
  8
0
  2
DC_GROUP_392
 70
     0
 10
0.0
 20
0.0
 30
0.0
  3
DC_GROUP_392
  1

  0
LINE
  5
964
  8
0
  6
CONTINUOUS
 62
     4
 10
196.50001526
 20
194.0
 30
0.0
 11
196.50001526
 21
182.0
 31
0.0
  0
ENDBLK
  5
4E2
  8
0
  0
BLOCK
  8
0
  2
DC_GROUP_393
 70
     0
 10
0.0
 20
0.0
 30
0.0
  3
DC_GROUP_393
  1

  0
LINE
  5
965
  8
0
  6
CONTINUOUS
 62
     4
 10
214.62501526
 20
194.0
 30
0.0
 11
214.62501526
 21
182.0
 31
0.0
  0
ENDBLK
  5
4E5
  8
0
  0
BLOCK
  8
0
  2
DC_GROUP_394
 70
     0
 10
0.0
 20
0.0
 30
0.0
  3
DC_GROUP_394
  1

  0
LINE
  5
966
  8
0
  6
CONTINUOUS
 62
     4
 10
232.75001526
 20
194.0
 30
0.0
 11
232.75001526
 21
182.0
 31
0.0
  0
ENDBLK
  5
4E8
  8
0
  0
BLOCK
  8
0
  2
DC_GROUP_395
 70
     0
 10
0.0
 20
0.0
 30
0.0
  3
DC_GROUP_395
  1

  0
LINE
  5
967
  8
0
  6
CONTINUOUS
 62
     4
 10
250.875
 20
194.0
 30
0.0
 11
250.875
 21
182.0
 31
0.0
  0
ENDBLK
  5
4EB
  8
0
  0
BLOCK
  8
0
  2
DC_GROUP_396
 70
     0
 10
0.0
 20
0.0
 30
0.0
  3
DC_GROUP_396
  1

  0
LINE
  5
968
  8
0
  6
CONTINUOUS
 62
     4
 10
-199.14931446
 20
192.15884911
 30
0.0
 11
-198.3993091
 21
190.65883839
 31
0.0
  0
ENDBLK
  5
4EE
  8
0
  0
BLOCK
  8
0
  2
DC_GROUP_397
 70
     0
 10
0.0
 20
0.0
 30
0.0
  3
DC_GROUP_397
  1

  0
LINE
  5
969
  8
0
  6
CONTINUOUS
 62
     4
 10
-198.39929545
 20
190.65884522
 30
0.0
 11
-197.64929692
 21
192.15884229
 31
0.0
  0
ENDBLK
  5
4F1
  8
0
  0
BLOCK
  8
0
  2
DC_GROUP_398
 70
     0
 10
0.0
 20
0.0
 30
0.0
  3
DC_GROUP_398
  1

  0
LINE
  5
96A
  8
0
  6
CONTINUOUS
 62
     4
 10
-199.14930725
 20
192.15884399
 30
0.0
 11
-197.64930725
 21
192.15884399
 31
0.0
  0
ENDBLK
  5
4F4
  8
0
  0
BLOCK
  8
0
  2
DC_GROUP_399
 70
     0
 10
0.0
 20
0.0
 30
0.0
  3
DC_GROUP_399
  1

  0
LINE
  5
96B
  8
0
  6
CONTINUOUS
 62
     4
 10
-180.06939319
 20
192.15884229
 30
0.0
 11
-179.31938784
 21
190.65883157
 31
0.0
  0
ENDBLK
  5
4F7
  8
0
  0
BLOCK
  8
0
  2
DC_GROUP_400
 70
     0
 10
0.0
 20
0.0
 30
0.0
  3
DC_GROUP_400
  1

  0
LINE
  5
96C
  8
0
  6
CONTINUOUS
 62
     4
 10
-179.31939125
 20
190.65885204
 30
0.0
 11
-178.5693893
 21
192.15885594
 31
0.0
  0
ENDBLK
  5
4FA
  8
0
  0
BLOCK
  8
0
  2
DC_GROUP_401
 70
     0
 10
0.0
 20
0.0
 30
0.0
  3
DC_GROUP_401
  1

  0
LINE
  5
96D
  8
0
  6
CONTINUOUS
 62
     4
 10
-180.06938171
 20
192.15884399
 30
0.0
 11
-177.06938171
 21
192.15884399
 31
0.0
  0
ENDBLK
  5
4FD
  8
0
  0
BLOCK
  8
0
  2
DC_GROUP_402
 70
     0
 10
0.0
 20
0.0
 30
0.0
  3
DC_GROUP_402
  1

  0
LINE
  5
96E
  8
0
  6
CONTINUOUS
 62
     4
 10
-178.56937565
 20
192.15884911
 30
0.0
 11
-177.81937712
 21
190.65885204
 31
0.0
  0
ENDBLK
  5
500
  8
0
  0
BLOCK
  8
0
  2
DC_GROUP_403
 70
     0
 10
0.0
 20
0.0
 30
0.0
  3
DC_GROUP_403
  1

  0
LINE
  5
96F
  8
0
  6
CONTINUOUS
 62
     4
 10
-177.8193737
 20
190.65884522
 30
0.0
 11
-177.06937517
 21
192.15884229
 31
0.0
  0
ENDBLK
  5
503
  8
0
  0
BLOCK
  8
0
  2
DC_GROUP_404
 70
     0
 10
0.0
 20
0.0
 30
0.0
  3
DC_GROUP_404
  1

  0
LINE
  5
970
  8
0
  6
CONTINUOUS
 62
     4
 10
-161.46845436
 20
192.15883035
 30
0.0
 11
-160.71845583
 21
190.65883327
 31
0.0
  0
ENDBLK
  5
506
  8
0
  0
BLOCK
  8
0
  2
DC_GROUP_405
 70
     0
 10
0.0
 20
0.0
 30
0.0
  3
DC_GROUP_405
  1

  0
LINE
  5
971
  8
0
  6
CONTINUOUS
 62
     4
 10
-160.71846265
 20
190.65885204
 30
0.0
 11
-159.9684607
 21
192.15885594
 31
0.0
  0
ENDBLK
  5
509
  8
0
  0
BLOCK
  8
0
  2
DC_GROUP_406
 70
     0
 10
0.0
 20
0.0
 30
0.0
  3
DC_GROUP_406
  1

  0
LINE
  5
972
  8
0
  6
CONTINUOUS
 62
     4
 10
-158.46845681
 20
192.15884229
 30
0.0
 11
-157.71845827
 21
190.65884522
 31
0.0
  0
ENDBLK
  5
50C
  8
0
  0
BLOCK
  8
0
  2
DC_GROUP_407
 70
     0
 10
0.0
 20
0.0
 30
0.0
  3
DC_GROUP_407
  1

  0
LINE
  5
973
  8
0
  6
CONTINUOUS
 62
     4
 10
-157.71845827
 20
190.65884522
 30
0.0
 11
-156.96845973
 21
192.15884229
 31
0.0
  0
ENDBLK
  5
50F
  8
0
  0
BLOCK
  8
0
  2
DC_GROUP_408
 70
     0
 10
0.0
 20
0.0
 30
0.0
  3
DC_GROUP_408
  1

  0
LINE
  5
974
  8
0
  6
CONTINUOUS
 62
     4
 10
-161.46846008
 20
192.15884399
 30
0.0
 11
-156.96846008
 21
192.15884399
 31
0.0
  0
ENDBLK
  5
512
  8
0
  0
BLOCK
  8
0
  2
DC_GROUP_409
 70
     0
 10
0.0
 20
0.0
 30
0.0
  3
DC_GROUP_409
  1

  0
LINE
  5
975
  8
0
  6
CONTINUOUS
 62
     4
 10
-159.96845729
 20
192.15884399
 30
0.0
 11
-159.21845875
 21
190.65884692
 31
0.0
  0
ENDBLK
  5
515
  8
0
  0
BLOCK
  8
0
  2
DC_GROUP_410
 70
     0
 10
0.0
 20
0.0
 30
0.0
  3
DC_GROUP_410
  1

  0
LINE
  5
976
  8
0
  6
CONTINUOUS
 62
     4
 10
-159.21846217
 20
190.65884522
 30
0.0
 11
-158.46846363
 21
192.15884229
 31
0.0
  0
ENDBLK
  5
518
  8
0
  0
BLOCK
  8
0
  2
DC_GROUP_411
 70
     0
 10
0.0
 20
0.0
 30
0.0
  3
DC_GROUP_411
  1

  0
LINE
  5
977
  8
0
  6
CONTINUOUS
 62
     4
 10
-143.55448476
 20
192.15883376
 30
0.0
 11
-142.80448623
 21
190.65883669
 31
0.0
  0
ENDBLK
  5
51B
  8
0
  0
BLOCK
  8
0
  2
DC_GROUP_412
 70
     0
 10
0.0
 20
0.0
 30
0.0
  3
DC_GROUP_412
  1

  0
LINE
  5
978
  8
0
  6
CONTINUOUS
 62
     4
 10
-142.80448282
 20
190.65885204
 30
0.0
 11
-142.05448087
 21
192.15885594
 31
0.0
  0
ENDBLK
  5
51E
  8
0
  0
BLOCK
  8
0
  2
DC_GROUP_413
 70
     0
 10
0.0
 20
0.0
 30
0.0
  3
DC_GROUP_413
  1

  0
LINE
  5
979
  8
0
  6
CONTINUOUS
 62
     4
 10
-140.55449062
 20
192.15884399
 30
0.0
 11
-139.80449208
 21
190.65884692
 31
0.0
  0
ENDBLK
  5
521
  8
0
  0
BLOCK
  8
0
  2
DC_GROUP_414
 70
     0
 10
0.0
 20
0.0
 30
0.0
  3
DC_GROUP_414
  1

  0
LINE
  5
97A
  8
0
  6
CONTINUOUS
 62
     4
 10
-139.8044955
 20
190.65884522
 30
0.0
 11
-139.05449696
 21
192.15884229
 31
0.0
  0
ENDBLK
  5
524
  8
0
  0
BLOCK
  8
0
  2
DC_GROUP_415
 70
     0
 10
0.0
 20
0.0
 30
0.0
  3
DC_GROUP_415
  1

  0
LINE
  5
97B
  8
0
  6
CONTINUOUS
 62
     4
 10
-143.55448914
 20
192.15884399
 30
0.0
 11
-139.05448914
 21
192.15884399
 31
0.0
  0
ENDBLK
  5
527
  8
0
  0
BLOCK
  8
0
  2
DC_GROUP_416
 70
     0
 10
0.0
 20
0.0
 30
0.0
  3
DC_GROUP_416
  1

  0
LINE
  5
97C
  8
0
  6
CONTINUOUS
 62
     4
 10
-142.05448428
 20
192.15883205
 30
0.0
 11
-141.30448574
 21
190.65883498
 31
0.0
  0
ENDBLK
  5
52A
  8
0
  0
BLOCK
  8
0
  2
DC_GROUP_417
 70
     0
 10
0.0
 20
0.0
 30
0.0
  3
DC_GROUP_417
  1

  0
LINE
  5
97D
  8
0
  6
CONTINUOUS
 62
     4
 10
-141.30448233
 20
190.65884522
 30
0.0
 11
-140.5544838
 21
192.15884229
 31
0.0
  0
ENDBLK
  5
52D
  8
0
  0
BLOCK
  8
0
  2
DC_GROUP_418
 70
     0
 10
0.0
 20
0.0
 30
0.0
  3
DC_GROUP_418
  1

  0
LINE
  5
97E
  8
0
  6
CONTINUOUS
 62
     4
 10
-126.2152801
 20
192.15882779
 30
0.0
 11
-125.46528156
 21
190.65883072
 31
0.0
  0
ENDBLK
  5
530
  8
0
  0
BLOCK
  8
0
  2
DC_GROUP_419
 70
     0
 10
0.0
 20
0.0
 30
0.0
  3
DC_GROUP_419
  1

  0
LINE
  5
97F
  8
0
  6
CONTINUOUS
 62
     4
 10
-125.46528327
 20
190.65885204
 30
0.0
 11
-124.71528132
 21
192.15885594
 31
0.0
  0
ENDBLK
  5
533
  8
0
  0
BLOCK
  8
0
  2
DC_GROUP_420
 70
     0
 10
0.0
 20
0.0
 30
0.0
  3
DC_GROUP_420
  1

  0
LINE
  5
980
  8
0
  6
CONTINUOUS
 62
     4
 10
-123.21528595
 20
192.15883802
 30
0.0
 11
-122.46528742
 21
190.65884095
 31
0.0
  0
ENDBLK
  5
536
  8
0
  0
BLOCK
  8
0
  2
DC_GROUP_421
 70
     0
 10
0.0
 20
0.0
 30
0.0
  3
DC_GROUP_421
  1

  0
LINE
  5
981
  8
0
  6
CONTINUOUS
 62
     4
 10
-122.4652823
 20
190.65883839
 30
0.0
 11
-121.71528376
 21
192.15883546
 31
0.0
  0
ENDBLK
  5
539
  8
0
  0
BLOCK
  8
0
  2
DC_GROUP_422
 70
     0
 10
0.0
 20
0.0
 30
0.0
  3
DC_GROUP_422
  1

  0
LINE
  5
982
  8
0
  6
CONTINUOUS
 62
     4
 10
-126.21529388
 20
192.15884399
 30
0.0
 11
-121.71529388
 21
192.15884399
 31
0.0
  0
ENDBLK
  5
53C
  8
0
  0
BLOCK
  8
0
  2
DC_GROUP_423
 70
     0
 10
0.0
 20
0.0
 30
0.0
  3
DC_GROUP_423
  1

  0
LINE
  5
983
  8
0
  6
CONTINUOUS
 62
     4
 10
-124.71528644
 20
192.15883973
 30
0.0
 11
-123.9652879
 21
190.65884266
 31
0.0
  0
ENDBLK
  5
53F
  8
0
  0
BLOCK
  8
0
  2
DC_GROUP_424
 70
     0
 10
0.0
 20
0.0
 30
0.0
  3
DC_GROUP_424
  1

  0
LINE
  5
984
  8
0
  6
CONTINUOUS
 62
     4
 10
-123.96528278
 20
190.65884522
 30
0.0
 11
-123.21528425
 21
192.15884229
 31
0.0
  0
ENDBLK
  5
542
  8
0
  0
BLOCK
  8
0
  2
DC_GROUP_425
 70
     0
 10
0.0
 20
0.0
 30
0.0
  3
DC_GROUP_425
  1

  0
LINE
  5
985
  8
0
  6
CONTINUOUS
 62
     4
 10
138.00001526
 20
-142.0
 30
0.0
 11
269.0
 21
-142.0
 31
0.0
  0
ENDBLK
  5
545
  8
0
  0
BLOCK
  8
0
  2
DC_GROUP_426
 70
     0
 10
0.0
 20
0.0
 30
0.0
  3
DC_GROUP_426
  1

  0
LINE
  5
986
  8
0
  6
CONTINUOUS
 62
     4
 10
89.00000763
 20
-176.0
 30
0.0
 11
138.00001526
 21
-176.0
 31
0.0
  0
ENDBLK
  5
548
  8
0
  0
BLOCK
  8
0
  2
DC_GROUP_427
 70
     0
 10
0.0
 20
0.0
 30
0.0
  3
DC_GROUP_427
  1

  0
LINE
  5
987
  8
0
  6
CONTINUOUS
 62
     4
 10
138.00001526
 20
-141.0
 30
0.0
 11
89.00000763
 21
-141.0
 31
0.0
  0
ENDBLK
  5
54B
  8
0
  0
BLOCK
  8
0
  2
DC_GROUP_428
 70
     0
 10
0.0
 20
0.0
 30
0.0
  3
DC_GROUP_428
  1

  0
LINE
  5
988
  8
0
  6
CONTINUOUS
 62
     4
 10
138.00001526
 20
-148.0
 30
0.0
 11
89.00000763
 21
-148.0
 31
0.0
  0
ENDBLK
  5
54E
  8
0
  0
BLOCK
  8
0
  2
DC_GROUP_429
 70
     0
 10
0.0
 20
0.0
 30
0.0
  3
DC_GROUP_429
  1

  0
LINE
  5
989
  8
0
  6
CONTINUOUS
 62
     4
 10
138.00001526
 20
-155.0
 30
0.0
 11
89.00000763
 21
-155.0
 31
0.0
  0
ENDBLK
  5
551
  8
0
  0
BLOCK
  8
0
  2
DC_GROUP_430
 70
     0
 10
0.0
 20
0.0
 30
0.0
  3
DC_GROUP_430
  1

  0
LINE
  5
98A
  8
0
  6
CONTINUOUS
 62
     4
 10
138.00001526
 20
-162.0
 30
0.0
 11
89.00000763
 21
-162.0
 31
0.0
  0
ENDBLK
  5
554
  8
0
  0
BLOCK
  8
0
  2
DC_GROUP_431
 70
     0
 10
0.0
 20
0.0
 30
0.0
  3
DC_GROUP_431
  1

  0
LINE
  5
98B
  8
0
  6
CONTINUOUS
 62
     4
 10
138.00001526
 20
-169.0
 30
0.0
 11
89.00000763
 21
-169.0
 31
0.0
  0
ENDBLK
  5
557
  8
0
  0
BLOCK
  8
0
  2
DC_GROUP_432
 70
     0
 10
0.0
 20
0.0
 30
0.0
  3
DC_GROUP_432
  1

  0
LINE
  5
98C
  8
0
  6
CONTINUOUS
 62
     4
 10
113.50000763
 20
-134.0
 30
0.0
 11
113.50000763
 21
-180.0
 31
0.0
  0
ENDBLK
  5
55A
  8
0
  0
BLOCK
  8
0
  2
DC_GROUP_433
 70
     0
 10
0.0
 20
0.0
 30
0.0
  3
DC_GROUP_433
  1

  0
LINE
  5
98D
  8
0
  6
CONTINUOUS
 62
     4
 10
101.00000763
 20
-134.0
 30
0.0
 11
101.00000763
 21
-176.0
 31
0.0
  0
ENDBLK
  5
55D
  8
0
  0
BLOCK
  8
0
  2
DC_GROUP_434
 70
     0
 10
0.0
 20
0.0
 30
0.0
  3
DC_GROUP_434
  1

  0
LINE
  5
98E
  8
0
  6
CONTINUOUS
 62
     4
 10
97.00000763
 20
-134.0
 30
0.0
 11
97.00000763
 21
-176.0
 31
0.0
  0
ENDBLK
  5
560
  8
0
  0
BLOCK
  8
0
  2
DC_GROUP_435
 70
     0
 10
0.0
 20
0.0
 30
0.0
  3
DC_GROUP_435
  1

  0
LINE
  5
98F
  8
0
  6
CONTINUOUS
 62
     4
 10
206.33335876
 20
-171.42375183
 30
0.0
 11
206.33335876
 21
-166.0
 31
0.0
  0
ENDBLK
  5
563
  8
0
  0
BLOCK
  8
0
  2
DC_GROUP_436
 70
     0
 10
0.0
 20
0.0
 30
0.0
  3
DC_GROUP_436
  1

  0
LINE
  5
990
  8
0
  6
CONTINUOUS
 62
     4
 10
192.66668701
 20
-180.0
 30
0.0
 11
192.66668701
 21
-166.0
 31
0.0
  0
ENDBLK
  5
566
  8
0
  0
BLOCK
  8
0
  2
DC_GROUP_437
 70
     0
 10
0.0
 20
0.0
 30
0.0
  3
DC_GROUP_437
  1

  0
LINE
  5
991
  8
0
  6
CONTINUOUS
 62
     4
 10
165.33335876
 20
-180.0
 30
0.0
 11
165.33335876
 21
-166.0
 31
0.0
  0
ENDBLK
  5
569
  8
0
  0
BLOCK
  8
0
  2
DC_GROUP_438
 70
     0
 10
0.0
 20
0.0
 30
0.0
  3
DC_GROUP_438
  1

  0
LINE
  5
992
  8
0
  6
CONTINUOUS
 62
     4
 10
138.00001526
 20
-170.0
 30
0.0
 11
220.00001526
 21
-170.0
 31
0.0
  0
ENDBLK
  5
56C
  8
0
  0
BLOCK
  8
0
  2
DC_GROUP_439
 70
     0
 10
0.0
 20
0.0
 30
0.0
  3
DC_GROUP_439
  1

  0
LINE
  5
993
  8
0
  6
CONTINUOUS
 62
     4
 10
220.00001526
 20
-159.0
 30
0.0
 11
247.00001526
 21
-159.0
 31
0.0
  0
ENDBLK
  5
56F
  8
0
  0
BLOCK
  8
0
  2
DC_GROUP_440
 70
     0
 10
0.0
 20
0.0
 30
0.0
  3
DC_GROUP_440
  1

  0
LINE
  5
994
  8
0
  6
CONTINUOUS
 62
     4
 10
194.00001526
 20
-151.0
 30
0.0
 11
194.00001526
 21
-152.0
 31
0.0
  0
ENDBLK
  5
572
  8
0
  0
BLOCK
  8
0
  2
DC_GROUP_441
 70
     0
 10
0.0
 20
0.0
 30
0.0
  3
DC_GROUP_441
  1

  0
LINE
  5
995
  8
0
  6
CONTINUOUS
 62
     4
 10
218.00001526
 20
-151.0
 30
0.0
 11
218.00001526
 21
-152.0
 31
0.0
  0
ENDBLK
  5
575
  8
0
  0
BLOCK
  8
0
  2
DC_GROUP_442
 70
     0
 10
0.0
 20
0.0
 30
0.0
  3
DC_GROUP_442
  1

  0
LINE
  5
996
  8
0
  6
CONTINUOUS
 62
     4
 10
235.00001526
 20
-151.0
 30
0.0
 11
235.00001526
 21
-152.0
 31
0.0
  0
ENDBLK
  5
578
  8
0
  0
BLOCK
  8
0
  2
DC_GROUP_443
 70
     0
 10
0.0
 20
0.0
 30
0.0
  3
DC_GROUP_443
  1

  0
LINE
  5
997
  8
0
  6
CONTINUOUS
 62
     4
 10
247.00001526
 20
-170.0
 30
0.0
 11
269.0
 21
-170.0
 31
0.0
  0
ENDBLK
  5
57B
  8
0
  0
BLOCK
  8
0
  2
DC_GROUP_444
 70
     0
 10
0.0
 20
0.0
 30
0.0
  3
DC_GROUP_444
  1

  0
LINE
  5
998
  8
0
  6
CONTINUOUS
 62
     4
 10
90.00001146
 20
-140.49998635
 30
0.0
 11
93.00000901999999
 21
-134.49999124
 31
0.0
  0
ENDBLK
  5
57E
  8
0
  0
BLOCK
  8
0
  2
DC_GROUP_445
 70
     0
 10
0.0
 20
0.0
 30
0.0
  3
DC_GROUP_445
  1

  0
LINE
  5
999
  8
0
  6
CONTINUOUS
 62
     4
 10
93.00001243
 20
-134.50000148
 30
0.0
 11
96.00000657
 21
-140.49998976
 31
0.0
  0
ENDBLK
  5
581
  8
0
  0
BLOCK
  8
0
  2
DC_GROUP_446
 70
     0
 10
0.0
 20
0.0
 30
0.0
  3
DC_GROUP_446
  1

  0
LINE
  5
99A
  8
0
  6
CONTINUOUS
 62
     4
 10
90.00000763
 20
-140.5
 30
0.0
 11
96.00000763
 21
-140.5
 31
0.0
  0
ENDBLK
  5
584
  8
0
  0
BLOCK
  8
0
  2
DC_GROUP_447
 70
     0
 10
0.0
 20
0.0
 30
0.0
  3
DC_GROUP_447
  1

  0
LINE
  5
99B
  8
0
  6
CONTINUOUS
 62
     4
 10
90.00000464
 20
-147.49999543
 30
0.0
 11
93.00000901999999
 21
-141.49998667
 31
0.0
  0
ENDBLK
  5
587
  8
0
  0
BLOCK
  8
0
  2
DC_GROUP_448
 70
     0
 10
0.0
 20
0.0
 30
0.0
  3
DC_GROUP_448
  1

  0
LINE
  5
99C
  8
0
  6
CONTINUOUS
 62
     4
 10
93.00000731
 20
-141.49999947
 30
0.0
 11
96.00000828
 21
-147.5000014
 31
0.0
  0
ENDBLK
  5
58A
  8
0
  0
BLOCK
  8
0
  2
DC_GROUP_449
 70
     0
 10
0.0
 20
0.0
 30
0.0
  3
DC_GROUP_449
  1

  0
LINE
  5
99D
  8
0
  6
CONTINUOUS
 62
     4
 10
90.00000763
 20
-147.5
 30
0.0
 11
96.00000763
 21
-147.5
 31
0.0
  0
ENDBLK
  5
58D
  8
0
  0
BLOCK
  8
0
  2
DC_GROUP_450
 70
     0
 10
0.0
 20
0.0
 30
0.0
  3
DC_GROUP_450
  1

  0
LINE
  5
99E
  8
0
  6
CONTINUOUS
 62
     4
 10
90.00000464
 20
-154.49999087
 30
0.0
 11
93.00000561
 21
-148.49998893
 31
0.0
  0
ENDBLK
  5
590
  8
0
  0
BLOCK
  8
0
  2
DC_GROUP_451
 70
     0
 10
0.0
 20
0.0
 30
0.0
  3
DC_GROUP_451
  1

  0
LINE
  5
99F
  8
0
  6
CONTINUOUS
 62
     4
 10
93.00001243
 20
-148.49999234
 30
0.0
 11
96.0000134
 21
-154.49999428
 31
0.0
  0
ENDBLK
  5
593
  8
0
  0
BLOCK
  8
0
  2
DC_GROUP_452
 70
     0
 10
0.0
 20
0.0
 30
0.0
  3
DC_GROUP_452
  1

  0
LINE
  5
9A0
  8
0
  6
CONTINUOUS
 62
     4
 10
90.00000763
 20
-154.5
 30
0.0
 11
96.00000763
 21
-154.5
 31
0.0
  0
ENDBLK
  5
596
  8
0
  0
BLOCK
  8
0
  2
DC_GROUP_453
 70
     0
 10
0.0
 20
0.0
 30
0.0
  3
DC_GROUP_453
  1

  0
LINE
  5
9A1
  8
0
  6
CONTINUOUS
 62
     4
 10
90.00000123
 20
-161.49999313
 30
0.0
 11
93.00000219
 21
-155.49999119
 31
0.0
  0
ENDBLK
  5
599
  8
0
  0
BLOCK
  8
0
  2
DC_GROUP_454
 70
     0
 10
0.0
 20
0.0
 30
0.0
  3
DC_GROUP_454
  1

  0
LINE
  5
9A2
  8
0
  6
CONTINUOUS
 62
     4
 10
93.00000901999999
 20
-155.49998948
 30
0.0
 11
96.00000999
 21
-161.49999142
 31
0.0
  0
ENDBLK
  5
59C
  8
0
  0
BLOCK
  8
0
  2
DC_GROUP_455
 70
     0
 10
0.0
 20
0.0
 30
0.0
  3
DC_GROUP_455
  1

  0
LINE
  5
9A3
  8
0
  6
CONTINUOUS
 62
     4
 10
90.00000763
 20
-161.5
 30
0.0
 11
96.00000763
 21
-161.5
 31
0.0
  0
ENDBLK
  5
59F
  8
0
  0
BLOCK
  8
0
  2
DC_GROUP_456
 70
     0
 10
0.0
 20
0.0
 30
0.0
  3
DC_GROUP_456
  1

  0
LINE
  5
9A4
  8
0
  6
CONTINUOUS
 62
     4
 10
-114.04303614
 20
-149.55572289
 30
0.0
 11
25.95698293
 21
-149.55572289
 31
0.0
  0
ENDBLK
  5
5A2
  8
0
  0
BLOCK
  8
0
  2
DC_GROUP_457
 70
     0
 10
0.0
 20
0.0
 30
0.0
  3
DC_GROUP_457
  1

  0
LINE
  5
9A5
  8
0
  6
CONTINUOUS
 62
     4
 10
-114.04303614
 20
-143.30572289
 30
0.0
 11
25.95698293
 21
-143.30572289
 31
0.0
  0
ENDBLK
  5
5A5
  8
0
  0
BLOCK
  8
0
  2
DC_GROUP_458
 70
     0
 10
0.0
 20
0.0
 30
0.0
  3
DC_GROUP_458
  1

  0
LINE
  5
9A6
  8
0
  6
CONTINUOUS
 62
     4
 10
-114.04303614
 20
-137.05572289
 30
0.0
 11
25.95698293
 21
-137.05572289
 31
0.0
  0
ENDBLK
  5
5A8
  8
0
  0
BLOCK
  8
0
  2
DC_GROUP_459
 70
     0
 10
0.0
 20
0.0
 30
0.0
  3
DC_GROUP_459
  1

  0
LINE
  5
9A7
  8
0
  6
CONTINUOUS
 62
     4
 10
-114.04303614
 20
-130.80572289
 30
0.0
 11
25.95698293
 21
-130.80572289
 31
0.0
  0
ENDBLK
  5
5AB
  8
0
  0
BLOCK
  8
0
  2
DC_GROUP_460
 70
     0
 10
0.0
 20
0.0
 30
0.0
  3
DC_GROUP_460
  1

  0
LINE
  5
9A8
  8
0
  6
CONTINUOUS
 62
     4
 10
-114.04303614
 20
-124.55572289
 30
0.0
 11
25.95698293
 21
-124.55572289
 31
0.0
  0
ENDBLK
  5
5AE
  8
0
  0
BLOCK
  8
0
  2
DC_GROUP_461
 70
     0
 10
0.0
 20
0.0
 30
0.0
  3
DC_GROUP_461
  1

  0
LINE
  5
9A9
  8
0
  6
CONTINUOUS
 62
     4
 10
-114.04303614
 20
-155.80572289
 30
0.0
 11
25.95698293
 21
-155.80572289
 31
0.0
  0
ENDBLK
  5
5B1
  8
0
  0
BLOCK
  8
0
  2
DC_GROUP_462
 70
     0
 10
0.0
 20
0.0
 30
0.0
  3
DC_GROUP_462
  1

  0
LINE
  5
9AA
  8
0
  6
CONTINUOUS
 62
     4
 10
-114.04303614
 20
-162.05572289
 30
0.0
 11
25.95698293
 21
-162.05572289
 31
0.0
  0
ENDBLK
  5
5B4
  8
0
  0
BLOCK
  8
0
  2
DC_GROUP_463
 70
     0
 10
0.0
 20
0.0
 30
0.0
  3
DC_GROUP_463
  1

  0
LINE
  5
9AB
  8
0
  6
CONTINUOUS
 62
     4
 10
-114.04303614
 20
-168.30572289
 30
0.0
 11
25.95698293
 21
-168.30572289
 31
0.0
  0
ENDBLK
  5
5B7
  8
0
  0
BLOCK
  8
0
  2
DC_GROUP_464
 70
     0
 10
0.0
 20
0.0
 30
0.0
  3
DC_GROUP_464
  1

  0
LINE
  5
9AC
  8
0
  6
CONTINUOUS
 62
     4
 10
-114.04303614
 20
-180.80572289
 30
0.0
 11
25.95698293
 21
-180.80572289
 31
0.0
  0
ENDBLK
  5
5BA
  8
0
  0
BLOCK
  8
0
  2
DC_GROUP_465
 70
     0
 10
0.0
 20
0.0
 30
0.0
  3
DC_GROUP_465
  1

  0
LINE
  5
9AD
  8
0
  6
CONTINUOUS
 62
     4
 10
145.00001526
 20
-134.0
 30
0.0
 11
145.00001526
 21
-142.0
 31
0.0
  0
ENDBLK
  5
5BD
  8
0
  0
BLOCK
  8
0
  2
DC_GROUP_466
 70
     0
 10
0.0
 20
0.0
 30
0.0
  3
DC_GROUP_466
  1

  0
LINE
  5
9AE
  8
0
  6
CONTINUOUS
 62
     4
 10
194.00001526
 20
-134.0
 30
0.0
 11
194.00001526
 21
-142.0
 31
0.0
  0
ENDBLK
  5
5C0
  8
0
  0
BLOCK
  8
0
  2
DC_GROUP_467
 70
     0
 10
0.0
 20
0.0
 30
0.0
  3
DC_GROUP_467
  1

  0
LINE
  5
9AF
  8
0
  6
CONTINUOUS
 62
     4
 10
218.00001526
 20
-134.0
 30
0.0
 11
218.00001526
 21
-142.0
 31
0.0
  0
ENDBLK
  5
5C3
  8
0
  0
BLOCK
  8
0
  2
DC_GROUP_468
 70
     0
 10
0.0
 20
0.0
 30
0.0
  3
DC_GROUP_468
  1

  0
LINE
  5
9B0
  8
0
  6
CONTINUOUS
 62
     4
 10
235.00001526
 20
-134.0
 30
0.0
 11
235.00001526
 21
-142.0
 31
0.0
  0
ENDBLK
  5
5C6
  8
0
  0
BLOCK
  8
0
  2
DC_GROUP_469
 70
     0
 10
0.0
 20
0.0
 30
0.0
  3
DC_GROUP_469
  1

  0
LINE
  5
9B1
  8
0
  6
CONTINUOUS
 62
     4
 10
-114.04303614
 20
-174.55572289
 30
0.0
 11
25.95698293
 21
-174.55572289
 31
0.0
  0
ENDBLK
  5
5C9
  8
0
  0
BLOCK
  8
0
  2
DC_GROUP_470
 70
     0
 10
0.0
 20
0.0
 30
0.0
  3
DC_GROUP_470
  1

  0
LINE
  5
9B2
  8
0
  6
CONTINUOUS
 62
     4
 10
90.00001487
 20
-168.49999538
 30
0.0
 11
93.00001584
 21
-162.49999345
 31
0.0
  0
ENDBLK
  5
5CC
  8
0
  0
BLOCK
  8
0
  2
DC_GROUP_471
 70
     0
 10
0.0
 20
0.0
 30
0.0
  3
DC_GROUP_471
  1

  0
LINE
  5
9B3
  8
0
  6
CONTINUOUS
 62
     4
 10
93.00000731
 20
-162.50000283
 30
0.0
 11
96.00000828
 21
-168.50000477
 31
0.0
  0
ENDBLK
  5
5CF
  8
0
  0
BLOCK
  8
0
  2
DC_GROUP_472
 70
     0
 10
0.0
 20
0.0
 30
0.0
  3
DC_GROUP_472
  1

  0
LINE
  5
9B4
  8
0
  6
CONTINUOUS
 62
     4
 10
90.00000763
 20
-168.5
 30
0.0
 11
96.00000763
 21
-168.5
 31
0.0
  0
ENDBLK
  5
5D2
  8
0
  0
BLOCK
  8
0
  2
DC_GROUP_473
 70
     0
 10
0.0
 20
0.0
 30
0.0
  3
DC_GROUP_473
  1

  0
LINE
  5
9B5
  8
0
  6
CONTINUOUS
 62
     4
 10
96.31785583
 20
-51.34113312
 30
0.0
 11
78.12955475
 21
-51.34113312
 31
0.0
  0
ENDBLK
  5
5D5
  8
0
  0
BLOCK
  8
0
  2
DC_GROUP_474
 70
     0
 10
0.0
 20
0.0
 30
0.0
  3
DC_GROUP_474
  1

  0
LINE
  5
9B6
  8
0
  6
CONTINUOUS
 62
     4
 10
146.5146637
 20
-51.34112549
 30
0.0
 11
167.64816284
 21
-51.34112549
 31
0.0
  0
ENDBLK
  5
5D8
  8
0
  0
BLOCK
  8
0
  2
DC_GROUP_475
 70
     0
 10
0.0
 20
0.0
 30
0.0
  3
DC_GROUP_475
  1

  0
LINE
  5
9B7
  8
0
  6
CONTINUOUS
 62
     4
 10
-55.53741074
 20
125.15679932
 30
0.0
 11
-8.907742020000001
 21
125.15679932
 31
0.0
  0
ENDBLK
  5
5DB
  8
0
  0
BLOCK
  8
0
  2
DC_GROUP_476
 70
     0
 10
0.0
 20
0.0
 30
0.0
  3
DC_GROUP_476
  1

  0
LINE
  5
9B8
  8
0
  6
CONTINUOUS
 62
     4
 10
-51.67910385
 20
112.90368652
 30
0.0
 11
-43.44943237
 21
112.90368652
 31
0.0
  0
ENDBLK
  5
5DE
  8
0
  0
BLOCK
  8
0
  2
DC_GROUP_477
 70
     0
 10
0.0
 20
0.0
 30
0.0
  3
DC_GROUP_477
  1

  0
LINE
  5
9B9
  8
0
  6
CONTINUOUS
 62
     4
 10
-79.0525681
 20
-13.98017222
 30
0.0
 11
-75.88458316000001
 21
-15.80920898
 31
0.0
  0
ENDBLK
  5
5E1
  8
0
  0
BLOCK
  8
0
  2
DC_GROUP_478
 70
     0
 10
0.0
 20
0.0
 30
0.0
  3
DC_GROUP_478
  1

  0
LINE
  5
9BA
  8
0
  6
CONTINUOUS
 62
     4
 10
-82.22057427999999
 20
-15.80921881
 30
0.0
 11
-79.05257030999999
 21
-13.98017107
 31
0.0
  0
ENDBLK
  5
5E4
  8
0
  0
BLOCK
  8
0
  2
DC_GROUP_479
 70
     0
 10
0.0
 20
0.0
 30
0.0
  3
DC_GROUP_479
  1

  0
LINE
  5
9BB
  8
0
  6
CONTINUOUS
 62
     4
 10
-81.06855444
 20
-13.98017833
 30
0.0
 11
-75.88455485999999
 21
-16.97316155
 31
0.0
  0
ENDBLK
  5
5E7
  8
0
  0
BLOCK
  8
0
  2
DC_GROUP_480
 70
     0
 10
0.0
 20
0.0
 30
0.0
  3
DC_GROUP_480
  1

  0
LINE
  5
9BC
  8
0
  6
CONTINUOUS
 62
     4
 10
-82.22054265
 20
-14.47901077
 30
0.0
 11
-75.88455849
 21
-18.13709252
 31
0.0
  0
ENDBLK
  5
5EA
  8
0
  0
BLOCK
  8
0
  2
DC_GROUP_481
 70
     0
 10
0.0
 20
0.0
 30
0.0
  3
DC_GROUP_481
  1

  0
LINE
  5
9BD
  8
0
  6
CONTINUOUS
 62
     4
 10
-82.22058105000001
 20
-15.64294703
 30
0.0
 11
-76.62045793
 21
-18.87617926
 31
0.0
  0
ENDBLK
  5
5ED
  8
0
  0
BLOCK
  8
0
  2
DC_GROUP_482
 70
     0
 10
0.0
 20
0.0
 30
0.0
  3
DC_GROUP_482
  1

  0
LINE
  5
9BE
  8
0
  6
CONTINUOUS
 62
     4
 10
-82.22055137
 20
-16.80689723
 30
0.0
 11
-78.63644290000001
 21
-18.87618299
 31
0.0
  0
ENDBLK
  5
5F0
  8
0
  0
BLOCK
  8
0
  2
DC_GROUP_483
 70
     0
 10
0.0
 20
0.0
 30
0.0
  3
DC_GROUP_483
  1

  0
LINE
  5
9BF
  8
0
  6
CONTINUOUS
 62
     4
 10
-82.22057339
 20
-17.97082709
 30
0.0
 11
-80.65246052000001
 21
-18.87617738
 31
0.0
  0
ENDBLK
  5
5F3
  8
0
  0
BLOCK
  8
0
  2
DC_GROUP_484
 70
     0
 10
0.0
 20
0.0
 30
0.0
  3
DC_GROUP_484
  1

  0
LINE
  5
9C0
  8
0
  6
CONTINUOUS
 62
     4
 10
-82.22056644
 20
-16.97317906
 30
0.0
 11
-77.03656685999999
 21
-13.98019584
 31
0.0
  0
ENDBLK
  5
5F6
  8
0
  0
BLOCK
  8
0
  2
DC_GROUP_485
 70
     0
 10
0.0
 20
0.0
 30
0.0
  3
DC_GROUP_485
  1

  0
LINE
  5
9C1
  8
0
  6
CONTINUOUS
 62
     4
 10
-82.22057379
 20
-18.137091
 30
0.0
 11
-75.88458964
 21
-14.47900924
 31
0.0
  0
ENDBLK
  5
5F9
  8
0
  0
BLOCK
  8
0
  2
DC_GROUP_486
 70
     0
 10
0.0
 20
0.0
 30
0.0
  3
DC_GROUP_486
  1

  0
LINE
  5
9C2
  8
0
  6
CONTINUOUS
 62
     4
 10
-81.48467837
 20
-18.87619274
 30
0.0
 11
-75.88456478000001
 21
-15.64296601
 31
0.0
  0
ENDBLK
  5
5FC
  8
0
  0
BLOCK
  8
0
  2
DC_GROUP_487
 70
     0
 10
0.0
 20
0.0
 30
0.0
  3
DC_GROUP_487
  1

  0
LINE
  5
9C3
  8
0
  6
CONTINUOUS
 62
     4
 10
-79.46869762999999
 20
-18.8761672
 30
0.0
 11
-75.88458915
 21
-16.80688143
 31
0.0
  0
ENDBLK
  5
5FF
  8
0
  0
BLOCK
  8
0
  2
DC_GROUP_488
 70
     0
 10
0.0
 20
0.0
 30
0.0
  3
DC_GROUP_488
  1

  0
LINE
  5
9C4
  8
0
  6
CONTINUOUS
 62
     4
 10
-77.45267990000001
 20
-18.87618373
 30
0.0
 11
-75.88456703
 21
-17.97083344
 31
0.0
  0
ENDBLK
  5
602
  8
0
  0
BLOCK
  8
0
  2
DC_GROUP_489
 70
     0
 10
0.0
 20
0.0
 30
0.0
  3
DC_GROUP_489
  1

  0
LINE
  5
9C5
  8
0
  6
CONTINUOUS
 62
     4
 10
-77.03655322
 20
-13.98018259
 30
0.0
 11
-75.88456389
 21
-14.64528387
 31
0.0
  0
ENDBLK
  5
605
  8
0
  0
BLOCK
  8
0
  2
DC_GROUP_490
 70
     0
 10
0.0
 20
0.0
 30
0.0
  3
DC_GROUP_490
  1

  0
LINE
  5
9C6
  8
0
  6
CONTINUOUS
 62
     4
 10
-82.22057168000001
 20
-14.64530962
 30
0.0
 11
-81.06858711
 21
-13.98021108
 31
0.0
  0
ENDBLK
  5
608
  8
0
  0
BLOCK
  8
0
  2
DC_GROUP_491
 70
     0
 10
0.0
 20
0.0
 30
0.0
  3
DC_GROUP_491
  1

  0
LINE
  5
9C7
  8
0
  6
CONTINUOUS
 62
     4
 10
156.88204416
 20
35.5785619
 30
0.0
 11
153.83204075
 21
30.29580175
 31
0.0
  0
ENDBLK
  5
60B
  8
0
  0
BLOCK
  8
0
  2
DC_GROUP_492
 70
     0
 10
0.0
 20
0.0
 30
0.0
  3
DC_GROUP_492
  1

  0
LINE
  5
9C8
  8
0
  6
CONTINUOUS
 62
     4
 10
158.18110309
 20
34.82856739
 30
0.0
 11
155.13109968
 21
29.54580724
 31
0.0
  0
ENDBLK
  5
60E
  8
0
  0
BLOCK
  8
0
  2
DC_GROUP_493
 70
     0
 10
0.0
 20
0.0
 30
0.0
  3
DC_GROUP_493
  1

  0
LINE
  5
9C9
  8
0
  6
CONTINUOUS
 62
     4
 10
159.48011842
 20
34.07855842
 30
0.0
 11
156.43011501
 21
28.79579826
 31
0.0
  0
ENDBLK
  5
611
  8
0
  0
BLOCK
  8
0
  2
DC_GROUP_494
 70
     0
 10
0.0
 20
0.0
 30
0.0
  3
DC_GROUP_494
  1

  0
LINE
  5
9CA
  8
0
  6
CONTINUOUS
 62
     4
 10
160.77915208
 20
33.32862696
 30
0.0
 11
157.72914866
 21
28.0458668
 31
0.0
  0
ENDBLK
  5
614
  8
0
  0
BLOCK
  8
0
  2
DC_GROUP_495
 70
     0
 10
0.0
 20
0.0
 30
0.0
  3
DC_GROUP_495
  1

  0
LINE
  5
9CB
  8
0
  6
CONTINUOUS
 62
     4
 10
162.07819649
 20
32.57856154
 30
0.0
 11
159.42651046
 21
27.98570724
 31
0.0
  0
ENDBLK
  5
617
  8
0
  0
BLOCK
  8
0
  2
DC_GROUP_496
 70
     0
 10
0.0
 20
0.0
 30
0.0
  3
DC_GROUP_496
  1

  0
LINE
  5
9CC
  8
0
  6
CONTINUOUS
 62
     4
 10
147.33203807
 20
19.03746839
 30
0.0
 11
144.28203465
 21
13.75470824
 31
0.0
  0
ENDBLK
  5
61A
  8
0
  0
BLOCK
  8
0
  2
DC_GROUP_497
 70
     0
 10
0.0
 20
0.0
 30
0.0
  3
DC_GROUP_497
  1

  0
LINE
  5
9CD
  8
0
  6
CONTINUOUS
 62
     4
 10
148.63109699
 20
18.28747389
 30
0.0
 11
145.58109548
 21
13.00471704
 31
0.0
  0
ENDBLK
  5
61D
  8
0
  0
BLOCK
  8
0
  2
DC_GROUP_498
 70
     0
 10
0.0
 20
0.0
 30
0.0
  3
DC_GROUP_498
  1

  0
LINE
  5
9CE
  8
0
  6
CONTINUOUS
 62
     4
 10
149.93011232
 20
17.53746491
 30
0.0
 11
146.88010891
 21
12.25470476
 31
0.0
  0
ENDBLK
  5
620
  8
0
  0
BLOCK
  8
0
  2
DC_GROUP_499
 70
     0
 10
0.0
 20
0.0
 30
0.0
  3
DC_GROUP_499
  1

  0
LINE
  5
9CF
  8
0
  6
CONTINUOUS
 62
     4
 10
151.22914598
 20
16.78753345
 30
0.0
 11
148.17914447
 21
11.5047766
 31
0.0
  0
ENDBLK
  5
623
  8
0
  0
BLOCK
  8
0
  2
DC_GROUP_500
 70
     0
 10
0.0
 20
0.0
 30
0.0
  3
DC_GROUP_500
  1

  0
LINE
  5
9D0
  8
0
  6
CONTINUOUS
 62
     4
 10
151.97090502
 20
15.07222158
 30
0.0
 11
149.47818698
 21
10.75470788
 31
0.0
  0
ENDBLK
  5
626
  8
0
  0
BLOCK
  8
0
  2
DC_GROUP_501
 70
     0
 10
0.0
 20
0.0
 30
0.0
  3
DC_GROUP_501
  1

  0
LINE
  5
9D1
  8
0
  6
CONTINUOUS
 62
     4
 10
185.46088021
 20
19.07858738
 30
0.0
 11
182.4108787
 21
13.79583053
 31
0.0
  0
ENDBLK
  5
629
  8
0
  0
BLOCK
  8
0
  2
DC_GROUP_502
 70
     0
 10
0.0
 20
0.0
 30
0.0
  3
DC_GROUP_502
  1

  0
LINE
  5
9D2
  8
0
  6
CONTINUOUS
 62
     4
 10
184.16184771
 20
19.82856663
 30
0.0
 11
181.11184429
 21
14.54580647
 31
0.0
  0
ENDBLK
  5
62C
  8
0
  0
BLOCK
  8
0
  2
DC_GROUP_503
 70
     0
 10
0.0
 20
0.0
 30
0.0
  3
DC_GROUP_503
  1

  0
LINE
  5
9D3
  8
0
  6
CONTINUOUS
 62
     4
 10
182.8627992
 20
20.57856393
 30
0.0
 11
179.81279579
 21
15.29580377
 31
0.0
  0
ENDBLK
  5
62F
  8
0
  0
BLOCK
  8
0
  2
DC_GROUP_504
 70
     0
 10
0.0
 20
0.0
 30
0.0
  3
DC_GROUP_504
  1

  0
LINE
  5
9D4
  8
0
  6
CONTINUOUS
 62
     4
 10
181.56379429
 20
21.3285757
 30
0.0
 11
178.51379088
 21
16.04581554
 31
0.0
  0
ENDBLK
  5
632
  8
0
  0
BLOCK
  8
0
  2
DC_GROUP_505
 70
     0
 10
0.0
 20
0.0
 30
0.0
  3
DC_GROUP_505
  1

  0
LINE
  5
9D5
  8
0
  6
CONTINUOUS
 62
     4
 10
180.26471085
 20
22.07858876
 30
0.0
 11
177.62085258
 21
17.49929254
 31
0.0
  0
ENDBLK
  5
635
  8
0
  0
BLOCK
  8
0
  2
DC_GROUP_506
 70
     0
 10
0.0
 20
0.0
 30
0.0
  3
DC_GROUP_506
  1

  0
LINE
  5
9D6
  8
0
  6
CONTINUOUS
 62
     4
 10
175.91087411
 20
2.53749388
 30
0.0
 11
172.86087069
 21
-2.74526628
 31
0.0
  0
ENDBLK
  5
638
  8
0
  0
BLOCK
  8
0
  2
DC_GROUP_507
 70
     0
 10
0.0
 20
0.0
 30
0.0
  3
DC_GROUP_507
  1

  0
LINE
  5
9D7
  8
0
  6
CONTINUOUS
 62
     4
 10
174.61184161
 20
3.28747312
 30
0.0
 11
171.5618382
 21
-1.99528703
 31
0.0
  0
ENDBLK
  5
63B
  8
0
  0
BLOCK
  8
0
  2
DC_GROUP_508
 70
     0
 10
0.0
 20
0.0
 30
0.0
  3
DC_GROUP_508
  1

  0
LINE
  5
9D8
  8
0
  6
CONTINUOUS
 62
     4
 10
173.31279311
 20
4.03747042
 30
0.0
 11
170.26278969
 21
-1.24528973
 31
0.0
  0
ENDBLK
  5
63E
  8
0
  0
BLOCK
  8
0
  2
DC_GROUP_509
 70
     0
 10
0.0
 20
0.0
 30
0.0
  3
DC_GROUP_509
  1

  0
LINE
  5
9D9
  8
0
  6
CONTINUOUS
 62
     4
 10
172.0137882
 20
4.78748219
 30
0.0
 11
168.96378478
 21
-0.49527796
 31
0.0
  0
ENDBLK
  5
641
  8
0
  0
BLOCK
  8
0
  2
DC_GROUP_510
 70
     0
 10
0.0
 20
0.0
 30
0.0
  3
DC_GROUP_510
  1

  0
LINE
  5
9DA
  8
0
  6
CONTINUOUS
 62
     4
 10
170.28743572
 20
4.79744369
 30
0.0
 11
167.66470133
 21
0.2547351
 31
0.0
  0
ENDBLK
  5
644
  8
0
  0
BLOCK
  8
0
  2
DC_GROUP_511
 70
     0
 10
0.0
 20
0.0
 30
0.0
  3
DC_GROUP_511
  1

  0
LINE
  5
9DB
  8
0
  6
CONTINUOUS
 62
     4
 10
123.32729422
 20
4.20660334
 30
0.0
 11
96.31784998000001
 21
-51.34113026
 31
0.0
  0
ENDBLK
  5
647
  8
0
  0
BLOCK
  8
0
  2
DC_GROUP_512
 70
     0
 10
0.0
 20
0.0
 30
0.0
  3
DC_GROUP_512
  1

  0
LINE
  5
9DC
  8
0
  6
CONTINUOUS
 62
     4
 10
130.20704161
 20
-18.98076194
 30
0.0
 11
146.51465834
 21
-51.34112899
 31
0.0
  0
ENDBLK
  5
64A
  8
0
  0
BLOCK
  8
0
  2
DC_GROUP_513
 70
     0
 10
0.0
 20
0.0
 30
0.0
  3
DC_GROUP_513
  1

  0
LINE
  5
9DD
  8
0
  6
CONTINUOUS
 62
     4
 10
-73.80669791
 20
99.2605142
 30
0.0
 11
-55.53740583
 21
125.15679409
 31
0.0
  0
ENDBLK
  5
64D
  8
0
  0
BLOCK
  8
0
  2
DC_GROUP_514
 70
     0
 10
0.0
 20
0.0
 30
0.0
  3
DC_GROUP_514
  1

  0
LINE
  5
9DE
  8
0
  6
CONTINUOUS
 62
     4
 10
-62.58332762
 20
95.33333979
 30
0.0
 11
-51.67910584
 21
112.90368333
 31
0.0
  0
ENDBLK
  5
650
  8
0
  0
BLOCK
  8
0
  2
DC_GROUP_515
 70
     0
 10
0.0
 20
0.0
 30
0.0
  3
DC_GROUP_515
  1

  0
LINE
  5
9DF
  8
0
  6
CONTINUOUS
 62
     4
 10
123.32729422
 20
4.20660334
 30
0.0
 11
122.016999394509
 21
2.695602641621441
 31
0.0
  0
LINE
  5
9E0
  8
0
  6
CONTINUOUS
 62
     4
 10
123.32729422
 20
4.20660334
 30
0.0
 11
122.9480495722701
 21
2.24289024044161
 31
0.0
  0
ENDBLK
  5
653
  8
0
  0
BLOCK
  8
0
  2
DC_GROUP_516
 70
     0
 10
0.0
 20
0.0
 30
0.0
  3
DC_GROUP_516
  1

  0
LINE
  5
9E1
  8
0
  6
CONTINUOUS
 62
     4
 10
130.20704161
 20
-18.98076194
 30
0.0
 11
130.6141613937253
 21
-20.93888581808039
 31
0.0
  0
LINE
  5
9E2
  8
0
  6
CONTINUOUS
 62
     4
 10
130.20704161
 20
-18.98076194
 30
0.0
 11
131.5386823661526
 21
-20.47298462336951
 31
0.0
  0
ENDBLK
  5
656
  8
0
  0
BLOCK
  8
0
  2
DC_GROUP_517
 70
     0
 10
0.0
 20
0.0
 30
0.0
  3
DC_GROUP_517
  1

  0
LINE
  5
9E3
  8
0
  6
CONTINUOUS
 62
     4
 10
-73.80669791
 20
99.2605142
 30
0.0
 11
-72.27008179906568
 21
100.5406730057058
 31
0.0
  0
LINE
  5
9E4
  8
0
  6
CONTINUOUS
 62
     4
 10
-73.80669791
 20
99.2605142
 30
0.0
 11
-73.11603217390859
 21
101.1374735712167
 31
0.0
  0
ENDBLK
  5
659
  8
0
  0
BLOCK
  8
0
  2
DC_GROUP_518
 70
     0
 10
0.0
 20
0.0
 30
0.0
  3
DC_GROUP_518
  1

  0
LINE
  5
9E5
  8
0
  6
CONTINUOUS
 62
     4
 10
-62.58332762
 20
95.33333979
 30
0.0
 11
-61.12481905555161
 21
96.70182377150644
 31
0.0
  0
LINE
  5
9E6
  8
0
  6
CONTINUOUS
 62
     4
 10
-62.58332762
 20
95.33333979
 30
0.0
 11
-62.00446766008678
 21
97.24773702856317
 31
0.0
  0
ENDBLK
  5
65C
  8
0
  0
BLOCK
  8
0
  2
DC_GROUP_519
 70
     0
 10
0.0
 20
0.0
 30
0.0
  3
DC_GROUP_519
  1

  0
LINE
  5
9E7
  8
0
  6
DIVIDE
 62
     9
 10
-128.3333459
 20
13.71311615
 30
0.0
 11
-127.28689555
 21
12.66666589
 31
0.0
  0
ENDBLK
  5
65F
  8
0
  0
BLOCK
  8
0
  2
DC_GROUP_520
 70
     0
 10
0.0
 20
0.0
 30
0.0
  3
DC_GROUP_520
  1

  0
LINE
  5
9E8
  8
0
  6
DIVIDE
 62
     9
 10
-140.33334835
 20
13.71311565
 30
0.0
 11
-139.286898
 21
12.66666539
 31
0.0
  0
ENDBLK
  5
662
  8
0
  0
BLOCK
  8
0
  2
DC_GROUP_521
 70
     0
 10
0.0
 20
0.0
 30
0.0
  3
DC_GROUP_521
  1

  0
LINE
  5
9E9
  8
0
  6
DIVIDE
 62
     9
 10
-128.33332825
 20
27.01294327
 30
0.0
 11
-128.33332825
 21
13.66666222
 31
0.0
  0
ENDBLK
  5
665
  8
0
  0
BLOCK
  8
0
  2
DC_GROUP_522
 70
     0
 10
0.0
 20
0.0
 30
0.0
  3
DC_GROUP_522
  1

  0
LINE
  5
9EA
  8
0
  6
CONTINUOUS
 62
     2
 10
255.71154892
 20
-190.74999744
 30
0.0
 11
251.96154942
 21
-183.24999844
 31
0.0
  0
ENDBLK
  5
668
  8
0
  0
BLOCK
  8
0
  2
DC_GROUP_523
 70
     0
 10
0.0
 20
0.0
 30
0.0
  3
DC_GROUP_523
  1

  0
LINE
  5
9EB
  8
0
  6
CONTINUOUS
 62
     2
 10
251.961546
 20
-183.24999161
 30
0.0
 11
248.2115465
 21
-190.74999062
 31
0.0
  0
ENDBLK
  5
66B
  8
0
  0
BLOCK
  8
0
  2
DC_GROUP_524
 70
     0
 10
0.0
 20
0.0
 30
0.0
  3
DC_GROUP_524
  1

  0
LINE
  5
9EC
  8
0
  6
CONTINUOUS
 62
     2
 10
255.71154785
 20
-190.75
 30
0.0
 11
248.21156311
 21
-190.75
 31
0.0
  0
ENDBLK
  5
66E
  8
0
  0
BLOCK
  8
0
  2
DC_GROUP_525
 70
     0
 10
0.0
 20
0.0
 30
0.0
  3
DC_GROUP_525
  1

  0
LINE
  5
9ED
  8
0
  6
CONTINUOUS
 62
     9
 10
-122.46529388
 20
190.65884399
 30
0.0
 11
-123.21529388
 21
192.15884399
 31
0.0
  0
LINE
  5
9EE
  8
0
  6
CONTINUOUS
 62
     9
 10
-123.21529388
 20
192.15884399
 30
0.0
 11
-121.71529388
 21
192.15884399
 31
0.0
  0
LINE
  5
9EF
  8
0
  6
CONTINUOUS
 62
     9
 10
-121.71529388
 20
192.15884399
 30
0.0
 11
-122.46529388
 21
190.65884399
 31
0.0
  0
ENDBLK
  5
671
  8
0
  0
BLOCK
  8
0
  2
DC_GROUP_526
 70
     0
 10
0.0
 20
0.0
 30
0.0
  3
DC_GROUP_526
  1

  0
LINE
  5
9F0
  8
0
  6
CONTINUOUS
 62
     4
 10
-74.33332824999999
 20
125.16667175
 30
0.0
 11
-73.33332824999999
 21
125.16667175
 31
0.0
  0
TEXT
  5
9F2
  8
0
 62
     3
 10
-114.75089565
 20
126.16667175
 30
0.0
 40
3.2
  1
-1(ﾁｬｯｸ上面より)
 41
0.5803573749999998
  7
FDASTYLE0
 72
     5
 11
-90.97945757000001
 21
126.16667175
 31
0.0
  0
ENDBLK
  5
674
  8
0
  0
BLOCK
  8
0
  2
DC_GROUP_527
 70
     0
 10
0.0
 20
0.0
 30
0.0
  3
DC_GROUP_527
  1

  0
LINE
  5
9F3
  8
0
  6
CONTINUOUS
 62
     4
 10
-74.33332824999999
 20
102.16667175
 30
0.0
 11
-74.33332824999999
 21
126.16667175
 31
0.0
  0
LINE
  5
9F4
  8
0
  6
CONTINUOUS
 62
     4
 10
-73.33332824999999
 20
100.66667175
 30
0.0
 11
-73.33332824999999
 21
126.16667175
 31
0.0
  0
LINE
  5
9F5
  8
0
  6
CONTINUOUS
 62
     4
 10
-115.75089565
 20
125.16667175
 30
0.0
 11
-74.33332824999999
 21
125.16667175
 31
0.0
  0
LINE
  5
9F6
  8
0
  6
CONTINUOUS
 62
     4
 10
-68.33332824999999
 20
125.16667175
 30
0.0
 11
-73.33332824999999
 21
125.16667175
 31
0.0
  0
INSERT
  5
9F7
  8
0
  6
CONTINUOUS
  2
DC_GROUP_528
 10
0.0
 20
0.0
 30
0.0
  0
INSERT
  5
9F8
  8
0
  6
CONTINUOUS
  2
DC_GROUP_529
 10
0.0
 20
0.0
 30
0.0
  0
ENDBLK
  5
677
  8
0
  0
BLOCK
  8
0
  2
DC_GROUP_528
 70
     0
 10
0.0
 20
0.0
 30
0.0
  3
DC_GROUP_528
  1

  0
LINE
  5
9F9
  8
0
  6
CONTINUOUS
 62
     4
 10
-74.33332824999999
 20
125.16667175
 30
0.0
 11
-76.26517837417794
 21
125.6843113330332
 31
0.0
  0
LINE
  5
9FA
  8
0
  6
CONTINUOUS
 62
     4
 10
-74.33332824999999
 20
125.16667175
 30
0.0
 11
-76.26517837417794
 21
124.6490321669669
 31
0.0
  0
ENDBLK
  5
67A
  8
0
  0
BLOCK
  8
0
  2
DC_GROUP_529
 70
     0
 10
0.0
 20
0.0
 30
0.0
  3
DC_GROUP_529
  1

  0
LINE
  5
9FB
  8
0
  6
CONTINUOUS
 62
     4
 10
-73.33332824999999
 20
125.16667175
 30
0.0
 11
-71.40147812582205
 21
124.6490321669669
 31
0.0
  0
LINE
  5
9FC
  8
0
  6
CONTINUOUS
 62
     4
 10
-73.33332824999999
 20
125.16667175
 30
0.0
 11
-71.40147812582205
 21
125.6843113330332
 31
0.0
  0
ENDBLK
  5
67D
  8
0
  0
BLOCK
  8
0
  2
DC_GROUP_530
 70
     0
 10
0.0
 20
0.0
 30
0.0
  3
DC_GROUP_530
  1

  0
LINE
  5
9FD
  8
0
  6
CONTINUOUS
 62
     4
 10
194.16012457
 20
-6.84401392
 30
0.0
 11
199.66012894
 21
2.68225889
 31
0.0
  0
INSERT
  5
9FE
  8
0
  6
CONTINUOUS
  2
DC_GROUP_531
 10
0.0
 20
0.0
 30
0.0
  0
INSERT
  5
9FF
  8
0
  6
CONTINUOUS
  2
DC_GROUP_532
 10
0.0
 20
0.0
 30
0.0
  0
TEXT
  5
A00
  8
0
 62
     3
 10
193.35838412
 20
-6.232669280000002
 30
0.0
 40
2.8
  1
11H8
 50
59.999963
 41
0.620748547619051
  7
FDASTYLE0
 72
     5
 11
196.83457987482
 21
-0.2117305949036261
 31
0.0
  0
ENDBLK
  5
680
  8
0
  0
BLOCK
  8
0
  2
DC_GROUP_531
 70
     0
 10
0.0
 20
0.0
 30
0.0
  3
DC_GROUP_531
  1

  0
LINE
  5
A01
  8
0
  6
CONTINUOUS
 62
     4
 10
194.16012457
 20
-6.84401392
 30
0.0
 11
195.5743395742577
 21
-5.429803340934276
 31
0.0
  0
LINE
  5
A02
  8
0
  6
CONTINUOUS
 62
     4
 10
194.16012457
 20
-6.84401392
 30
0.0
 11
194.6777618507127
 21
-4.912163178916378
 31
0.0
  0
ENDBLK
  5
683
  8
0
  0
BLOCK
  8
0
  2
DC_GROUP_532
 70
     0
 10
0.0
 20
0.0
 30
0.0
  3
DC_GROUP_532
  1

  0
LINE
  5
A03
  8
0
  6
CONTINUOUS
 62
     4
 10
199.66012894
 20
2.68225889
 30
0.0
 11
198.2459139357423
 21
1.268048310934276
 31
0.0
  0
LINE
  5
A04
  8
0
  6
CONTINUOUS
 62
     4
 10
199.66012894
 20
2.68225889
 30
0.0
 11
199.1424916592873
 21
0.7504081489163781
 31
0.0
  0
ENDBLK
  5
686
  8
0
  0
BLOCK
  8
0
  2
DC_GROUP_533
 70
     0
 10
0.0
 20
0.0
 30
0.0
  3
DC_GROUP_533
  1

  0
LINE
  5
A05
  8
0
  6
CONTINUOUS
 62
     4
 10
178.5759609
 20
2.15352058
 30
0.0
 11
195.02614965
 21
-7.34401448
 31
0.0
  0
LINE
  5
A06
  8
0
  6
CONTINUOUS
 62
     4
 10
184.07596527
 20
11.67979339
 30
0.0
 11
200.52615402
 21
2.18225833
 31
0.0
  0
ENDBLK
  5
689
  8
0
  0
BLOCK
  8
0
  2
DC_GROUP_534
 70
     0
 10
0.0
 20
0.0
 30
0.0
  3
DC_GROUP_534
  1

  0
LINE
  5
A07
  8
0
  6
CONTINUOUS
 62
     4
 10
48.18108517
 20
38.66667175
 30
0.0
 11
53.66667175
 21
38.66667175
 31
0.0
  0
ARC
  5
A08
  8
0
  6
CONTINUOUS
 62
     4
 10
126.33340047
 20
38.66667175
 30
0.0
 40
77.1523153
 50
150.00000274
 51
180.0
  0
LINE
  5
A09
  8
0
  6
CONTINUOUS
 62
     4
 10
59.51753361
 20
77.24282621
 30
0.0
 11
58.12176797826726
 21
75.81040380669757
 31
0.0
  0
LINE
  5
A0A
  8
0
  6
CONTINUOUS
 62
     4
 10
59.51753361
 20
77.24282621
 30
0.0
 11
59.02497987872684
 21
75.30442829883266
 31
0.0
  0
LINE
  5
A0B
  8
0
  6
CONTINUOUS
 62
     4
 10
49.18108517
 20
38.66667175
 30
0.0
 11
49.72371998951593
 21
40.59165047530009
 31
0.0
  0
LINE
  5
A0C
  8
0
  6
CONTINUOUS
 62
     4
 10
49.18108517
 20
38.66667175
 30
0.0
 11
48.68852778414337
 21
40.60506873252115
 31
0.0
  0
TEXT
  5
A0D
  8
0
 62
     3
 10
49.72004605000001
 20
54.69909903
 30
0.0
 40
3.2
  1
30°
 50
75.00000137000001
 41
0.5803573749999996
  7
FDASTYLE0
 72
     5
 11
51.25817113888699
 21
60.43946055915398
 31
0.0
  0
ENDBLK
  5
68C
  8
0
  0
BLOCK
  8
0
  2
DC_GROUP_535
 70
     0
 10
0.0
 20
0.0
 30
0.0
  3
DC_GROUP_535
  1

  0
LINE
  5
A0E
  8
0
  6
CONTINUOUS
 62
     4
 10
126.33334351
 20
116.89687384
 30
0.0
 11
126.33334351
 21
109.33333588
 31
0.0
  0
LINE
  5
A0F
  8
0
  6
CONTINUOUS
 62
     4
 10
58.58402777
 20
77.781786
 30
0.0
 11
70.33166900000001
 21
70.99928292
 31
0.0
  0
ARC
  5
A10
  8
0
  6
CONTINUOUS
 62
     4
 10
126.33334351
 20
38.66670464
 30
0.0
 40
77.23016920000001
 50
90.0
 51
150.00000274
  0
LINE
  5
A11
  8
0
  6
CONTINUOUS
 62
     4
 10
126.33334351
 20
115.89687384
 30
0.0
 11
124.3949529634279
 21
116.3894565530227
 31
0.0
  0
LINE
  5
A12
  8
0
  6
CONTINUOUS
 62
     4
 10
126.33334351
 20
115.89687384
 30
0.0
 11
124.408357694766
 21
115.3542641724148
 31
0.0
  0
LINE
  5
A13
  8
0
  6
CONTINUOUS
 62
     4
 10
59.4500532
 20
77.28178604
 30
0.0
 11
60.88245979733571
 21
78.67756789262533
 31
0.0
  0
LINE
  5
A14
  8
0
  6
CONTINUOUS
 62
     4
 10
59.4500532
 20
77.28178604
 30
0.0
 11
59.99265923828657
 21
79.20677287824697
 31
0.0
  0
TEXT
  5
A15
  8
0
 62
     3
 10
83.45723216000002
 20
104.24458858
 30
0.0
 40
3.2
  1
60°
 50
30.00000137
 41
0.5803573749999986
  7
FDASTYLE0
 72
     5
 11
88.60389940439231
 21
107.216018463062
 31
0.0
  0
ENDBLK
  5
68F
  8
0
  0
BLOCK
  8
0
  2
DC_GROUP_536
 70
     0
 10
0.0
 20
0.0
 30
0.0
  3
DC_GROUP_536
  1

  0
LINE
  5
A16
  8
LAYER0014
  6
CONTINUOUS
 62
     4
 10
-119.33332825
 20
17.16667175
 30
0.0
 11
-155.71961975
 21
17.16667175
 31
0.0
  0
ENDBLK
  5
692
  8
0
  0
BLOCK
  8
0
  2
DC_GROUP_537
 70
     0
 10
0.0
 20
0.0
 30
0.0
  3
DC_GROUP_537
  1

  0
LINE
  5
A17
  8
LAYER0014
  6
CONTINUOUS
 62
     4
 10
-119.33332825
 20
60.16667175
 30
0.0
 11
-155.71961975
 21
60.16667175
 31
0.0
  0
ENDBLK
  5
695
  8
0
  0
BLOCK
  8
0
  2
DC_GROUP_538
 70
     0
 10
0.0
 20
0.0
 30
0.0
  3
DC_GROUP_538
  1

  0
LINE
  5
A18
  8
LAYER0014
  6
CONTINUOUS
 62
     4
 10
-134.33332825
 20
61.16667175
 30
0.0
 11
-167.73535156
 21
61.16667175
 31
0.0
  0
ENDBLK
  5
698
  8
0
  0
BLOCK
  8
0
  2
DC_GROUP_539
 70
     0
 10
0.0
 20
0.0
 30
0.0
  3
DC_GROUP_539
  1

  0
LINE
  5
A19
  8
LAYER0014
  6
CONTINUOUS
 62
     4
 10
-134.33332825
 20
16.16667175
 30
0.0
 11
-167.73535156
 21
16.16667175
 31
0.0
  0
ENDBLK
  5
69B
  8
0
  0
BLOCK
  8
0
  2
DC_GROUP_540
 70
     0
 10
0.0
 20
0.0
 30
0.0
  3
DC_GROUP_540
  1

  0
LINE
  5
A1A
  8
LAYER0014
  6
CONTINUOUS
 62
     4
 10
-133.33332825
 20
64.66667175000001
 30
0.0
 11
-179.75108337
 21
64.66667175000001
 31
0.0
  0
ENDBLK
  5
69E
  8
0
  0
BLOCK
  8
0
  2
DC_GROUP_541
 70
     0
 10
0.0
 20
0.0
 30
0.0
  3
DC_GROUP_541
  1

  0
LINE
  5
A1B
  8
LAYER0014
  6
CONTINUOUS
 62
     4
 10
-133.33332825
 20
12.66667175
 30
0.0
 11
-179.75108337
 21
12.66667175
 31
0.0
  0
ENDBLK
  5
6A1
  8
0
  0
BLOCK
  8
0
  2
DC_GROUP_542
 70
     0
 10
0.0
 20
0.0
 30
0.0
  3
DC_GROUP_542
  1

  0
LINE
  5
A1C
  8
LAYER0014
  6
CONTINUOUS
 62
     4
 10
-133.33332825
 20
96.16667175000001
 30
0.0
 11
-191.76681519
 21
96.16667175000001
 31
0.0
  0
ENDBLK
  5
6A4
  8
0
  0
BLOCK
  8
0
  2
DC_GROUP_543
 70
     0
 10
0.0
 20
0.0
 30
0.0
  3
DC_GROUP_543
  1

  0
LINE
  5
A1D
  8
LAYER0014
  6
CONTINUOUS
 62
     4
 10
-133.33332825
 20
-18.83332825
 30
0.0
 11
-191.76681519
 21
-18.83332825
 31
0.0
  0
ENDBLK
  5
6A7
  8
0
  0
BLOCK
  8
0
  2
DC_GROUP_544
 70
     0
 10
0.0
 20
0.0
 30
0.0
  3
DC_GROUP_544
  1

  0
LINE
  5
A1E
  8
LAYER0014
  6
CONTINUOUS
 62
     4
 10
-133.33332825
 20
101.16667175
 30
0.0
 11
-203.782547
 21
101.16667175
 31
0.0
  0
ENDBLK
  5
6AA
  8
0
  0
BLOCK
  8
0
  2
DC_GROUP_545
 70
     0
 10
0.0
 20
0.0
 30
0.0
  3
DC_GROUP_545
  1

  0
LINE
  5
A1F
  8
LAYER0014
  6
CONTINUOUS
 62
     4
 10
-133.33332825
 20
-23.83332825
 30
0.0
 11
-203.782547
 21
-23.83332825
 31
0.0
  0
ENDBLK
  5
6AD
  8
0
  0
BLOCK
  8
0
  2
DC_GROUP_546
 70
     0
 10
0.0
 20
0.0
 30
0.0
  3
DC_GROUP_546
  1

  0
LINE
  5
A20
  8
LAYER0014
  6
CONTINUOUS
 62
     4
 10
-119.33332825
 20
28.01280212
 30
0.0
 11
-116.33332825
 21
28.01280212
 31
0.0
  0
ENDBLK
  5
6B0
  8
0
  0
BLOCK
  8
0
  2
DC_GROUP_547
 70
     0
 10
0.0
 20
0.0
 30
0.0
  3
DC_GROUP_547
  1

  0
LINE
  5
A21
  8
LAYER0014
  6
CONTINUOUS
 62
     4
 10
-81.33332824999999
 20
28.01280212
 30
0.0
 11
-73.33332824999999
 21
28.01280212
 31
0.0
  0
ENDBLK
  5
6B3
  8
0
  0
BLOCK
  8
0
  2
DC_GROUP_548
 70
     0
 10
0.0
 20
0.0
 30
0.0
  3
DC_GROUP_548
  1

  0
LINE
  5
A22
  8
LAYER0014
  6
CONTINUOUS
 62
     4
 10
-91.83332824999999
 20
45.58799744
 30
0.0
 11
-104.52692413
 21
45.58799744
 31
0.0
  0
ENDBLK
  5
6B6
  8
0
  0
BLOCK
  8
0
  2
DC_GROUP_549
 70
     0
 10
0.0
 20
0.0
 30
0.0
  3
DC_GROUP_549
  1

  0
LINE
  5
A23
  8
LAYER0014
  6
CONTINUOUS
 62
     4
 10
-89.33332824999999
 20
45.58799744
 30
0.0
 11
-91.83332824999999
 21
45.58799744
 31
0.0
  0
ENDBLK
  5
6B9
  8
0
  0
BLOCK
  8
0
  2
DC_GROUP_550
 70
     0
 10
0.0
 20
0.0
 30
0.0
  3
DC_GROUP_550
  1

  0
LINE
  5
A24
  8
LAYER0014
  6
CONTINUOUS
 62
     4
 10
-91.83332824999999
 20
54.91667175
 30
0.0
 11
-51.19776917
 21
54.91667175
 31
0.0
  0
ENDBLK
  5
6BC
  8
0
  0
BLOCK
  8
0
  2
DC_GROUP_551
 70
     0
 10
0.0
 20
0.0
 30
0.0
  3
DC_GROUP_551
  1

  0
LINE
  5
A25
  8
LAYER0014
  6
CONTINUOUS
 62
     4
 10
-91.83332824999999
 20
22.41667175
 30
0.0
 11
-51.19776917
 21
22.41667175
 31
0.0
  0
ENDBLK
  5
6BF
  8
0
  0
BLOCK
  8
0
  2
DC_GROUP_552
 70
     0
 10
0.0
 20
0.0
 30
0.0
  3
DC_GROUP_552
  1

  0
LINE
  5
A26
  8
LAYER0014
  6
CONTINUOUS
 62
     4
 10
-81.33332824999999
 20
55.66667175
 30
0.0
 11
-39.08370972
 21
55.66667175
 31
0.0
  0
ENDBLK
  5
6C2
  8
0
  0
BLOCK
  8
0
  2
DC_GROUP_553
 70
     0
 10
0.0
 20
0.0
 30
0.0
  3
DC_GROUP_553
  1

  0
LINE
  5
A27
  8
LAYER0014
  6
CONTINUOUS
 62
     4
 10
-81.33332824999999
 20
21.66667175
 30
0.0
 11
-39.08370972
 21
21.66667175
 31
0.0
  0
ENDBLK
  5
6C5
  8
0
  0
BLOCK
  8
0
  2
DC_GROUP_554
 70
     0
 10
0.0
 20
0.0
 30
0.0
  3
DC_GROUP_554
  1

  0
LINE
  5
A28
  8
LAYER0014
  6
CONTINUOUS
 62
     4
 10
-29.53096771
 20
38.66667175
 30
0.0
 11
-29.53096771
 21
65.16667175000001
 31
0.0
  0
ENDBLK
  5
6C8
  8
0
  0
BLOCK
  8
0
  2
DC_GROUP_555
 70
     0
 10
0.0
 20
0.0
 30
0.0
  3
DC_GROUP_555
  1

  0
LINE
  5
A29
  8
LAYER0014
  6
CONTINUOUS
 62
     4
 10
-41.92034912
 20
38.66667175
 30
0.0
 11
-27.2449646
 21
38.66667175
 31
0.0
  0
ENDBLK
  5
6CB
  8
0
  0
BLOCK
  8
0
  2
DC_GROUP_556
 70
     0
 10
0.0
 20
0.0
 30
0.0
  3
DC_GROUP_556
  1

  0
LINE
  5
A2A
  8
LAYER0014
  6
CONTINUOUS
 62
     4
 10
-74.33332824999999
 20
65.16667175000001
 30
0.0
 11
-27.2449646
 21
65.16667175000001
 31
0.0
  0
ENDBLK
  5
6CE
  8
0
  0
BLOCK
  8
0
  2
DC_GROUP_557
 70
     0
 10
0.0
 20
0.0
 30
0.0
  3
DC_GROUP_557
  1

  0
LINE
  5
A2B
  8
LAYER0014
  6
CONTINUOUS
 62
     4
 10
-75.33332824999999
 20
101.16667175
 30
0.0
 11
-27.2449646
 21
101.16667175
 31
0.0
  0
ENDBLK
  5
6D1
  8
0
  0
BLOCK
  8
0
  2
DC_GROUP_558
 70
     0
 10
0.0
 20
0.0
 30
0.0
  3
DC_GROUP_558
  1

  0
LINE
  5
A2C
  8
LAYER0014
  6
CONTINUOUS
 62
     4
 10
-133.33332825
 20
-50.79841614
 30
0.0
 11
-147.01113892
 21
-50.79841614
 31
0.0
  0
ENDBLK
  5
6D4
  8
0
  0
BLOCK
  8
0
  2
DC_GROUP_559
 70
     0
 10
0.0
 20
0.0
 30
0.0
  3
DC_GROUP_559
  1

  0
LINE
  5
A2D
  8
LAYER0014
  6
CONTINUOUS
 62
     4
 10
-133.33332825
 20
-50.79841614
 30
0.0
 11
-129.1333313
 21
-50.79841614
 31
0.0
  0
ENDBLK
  5
6D7
  8
0
  0
BLOCK
  8
0
  2
DC_GROUP_560
 70
     0
 10
0.0
 20
0.0
 30
0.0
  3
DC_GROUP_560
  1

  0
LINE
  5
A2E
  8
LAYER0014
  6
CONTINUOUS
 62
     4
 10
-129.1333313
 20
-20.0689918
 30
0.0
 11
-129.1333313
 21
-51.79841614
 31
0.0
  0
ENDBLK
  5
6DA
  8
0
  0
BLOCK
  8
0
  2
DC_GROUP_561
 70
     0
 10
0.0
 20
0.0
 30
0.0
  3
DC_GROUP_561
  1

  0
LINE
  5
A2F
  8
LAYER0014
  6
CONTINUOUS
 62
     4
 10
-133.33332825
 20
-23.83332825
 30
0.0
 11
-133.33332825
 21
-63.81416321
 31
0.0
  0
ENDBLK
  5
6DD
  8
0
  0
BLOCK
  8
0
  2
DC_GROUP_562
 70
     0
 10
0.0
 20
0.0
 30
0.0
  3
DC_GROUP_562
  1

  0
LINE
  5
A30
  8
LAYER0014
  6
CONTINUOUS
 62
     4
 10
-73.33332824999999
 20
-22.33332825
 30
0.0
 11
-73.33332824999999
 21
-63.81416321
 31
0.0
  0
ENDBLK
  5
6E0
  8
0
  0
BLOCK
  8
0
  2
DC_GROUP_563
 70
     0
 10
0.0
 20
0.0
 30
0.0
  3
DC_GROUP_563
  1

  0
LINE
  5
A31
  8
LAYER0014
  6
CONTINUOUS
 62
     4
 10
-140.33332825
 20
-38.78268433
 30
0.0
 11
-166.02505493
 21
-38.78268433
 31
0.0
  0
ENDBLK
  5
6E3
  8
0
  0
BLOCK
  8
0
  2
DC_GROUP_564
 70
     0
 10
0.0
 20
0.0
 30
0.0
  3
DC_GROUP_564
  1

  0
LINE
  5
A32
  8
LAYER0014
  6
CONTINUOUS
 62
     4
 10
-140.33332825
 20
13.66666222
 30
0.0
 11
-140.33332825
 21
-41.06868744
 31
0.0
  0
ENDBLK
  5
6E6
  8
0
  0
BLOCK
  8
0
  2
DC_GROUP_565
 70
     0
 10
0.0
 20
0.0
 30
0.0
  3
DC_GROUP_565
  1

  0
LINE
  5
A33
  8
LAYER0014
  6
CONTINUOUS
 62
     4
 10
-144.33332825
 20
-6.33332825
 30
0.0
 11
-155.71961975
 21
-6.33332825
 31
0.0
  0
ENDBLK
  5
6E9
  8
0
  0
BLOCK
  8
0
  2
DC_GROUP_566
 70
     0
 10
0.0
 20
0.0
 30
0.0
  3
DC_GROUP_566
  1

  0
LINE
  5
A34
  8
LAYER0014
  6
CONTINUOUS
 62
     4
 10
-144.33332825
 20
-16.33332825
 30
0.0
 11
-155.71961975
 21
-16.33332825
 31
0.0
  0
ENDBLK
  5
6EC
  8
0
  0
BLOCK
  8
0
  2
DC_GROUP_567
 70
     0
 10
0.0
 20
0.0
 30
0.0
  3
DC_GROUP_567
  1

  0
LINE
  5
A35
  8
LAYER0014
  6
CONTINUOUS
 62
     4
 10
-144.33332825
 20
0.77679443
 30
0.0
 11
-158.64143372
 21
0.77679443
 31
0.0
  0
ENDBLK
  5
6EF
  8
0
  0
BLOCK
  8
0
  2
DC_GROUP_568
 70
     0
 10
0.0
 20
0.0
 30
0.0
  3
DC_GROUP_568
  1

  0
LINE
  5
A36
  8
LAYER0014
  6
CONTINUOUS
 62
     4
 10
-144.33332825
 20
-6.33332825
 30
0.0
 11
-144.33332825
 21
1.77679443
 31
0.0
  0
ENDBLK
  5
6F2
  8
0
  0
BLOCK
  8
0
  2
DC_GROUP_569
 70
     0
 10
0.0
 20
0.0
 30
0.0
  3
DC_GROUP_569
  1

  0
LINE
  5
A37
  8
LAYER0014
  6
CONTINUOUS
 62
     4
 10
-41.50701141
 20
74.16667175000001
 30
0.0
 11
-41.50701141
 21
65.16667175000001
 31
0.0
  0
ENDBLK
  5
6F5
  8
0
  0
BLOCK
  8
0
  2
DC_GROUP_570
 70
     0
 10
0.0
 20
0.0
 30
0.0
  3
DC_GROUP_570
  1

  0
LINE
  5
A38
  8
LAYER0014
  6
CONTINUOUS
 62
     4
 10
-53.7881012
 20
74.16667175000001
 30
0.0
 11
-39.2210083
 21
74.16667175000001
 31
0.0
  0
ENDBLK
  5
6F8
  8
0
  0
BLOCK
  8
0
  2
DC_GROUP_571
 70
     0
 10
0.0
 20
0.0
 30
0.0
  3
DC_GROUP_571
  1

  0
LINE
  5
A39
  8
LAYER0014
  6
CONTINUOUS
 62
     4
 10
173.65992292
 20
-4.3612877
 30
0.0
 11
199.0696825
 21
-19.03161667
 31
0.0
  0
ENDBLK
  5
6FB
  8
0
  0
BLOCK
  8
0
  2
DC_GROUP_572
 70
     0
 10
0.0
 20
0.0
 30
0.0
  3
DC_GROUP_572
  1

  0
LINE
  5
A3A
  8
LAYER0014
  6
CONTINUOUS
 62
     4
 10
187.25994832
 20
19.19462936
 30
0.0
 11
212.66969975
 21
4.52431102
 31
0.0
  0
ENDBLK
  5
6FE
  8
0
  0
BLOCK
  8
0
  2
DC_GROUP_573
 70
     0
 10
0.0
 20
0.0
 30
0.0
  3
DC_GROUP_573
  1

  0
LINE
  5
A3B
  8
LAYER0014
  6
CONTINUOUS
 62
     4
 10
-88.33332824999999
 20
98.16667175000001
 30
0.0
 11
-95.24408722
 21
98.16667175000001
 31
0.0
  0
ENDBLK
  5
701
  8
0
  0
BLOCK
  8
0
  2
DC_GROUP_574
 70
     0
 10
0.0
 20
0.0
 30
0.0
  3
DC_GROUP_574
  1

  0
LINE
  5
A3C
  8
LAYER0014
  6
CONTINUOUS
 62
     4
 10
-88.33332824999999
 20
67.16667175000001
 30
0.0
 11
-95.24408722
 21
67.16667175000001
 31
0.0
  0
ENDBLK
  5
704
  8
0
  0
BLOCK
  8
0
  2
DC_GROUP_575
 70
     0
 10
0.0
 20
0.0
 30
0.0
  3
DC_GROUP_575
  1

  0
LINE
  5
A3D
  8
LAYER0014
  6
CONTINUOUS
 62
     4
 10
-53.7881012
 20
91.16667175000001
 30
0.0
 11
-40.50701141
 21
91.16667175000001
 31
0.0
  0
ENDBLK
  5
707
  8
0
  0
BLOCK
  8
0
  2
DC_GROUP_576
 70
     0
 10
0.0
 20
0.0
 30
0.0
  3
DC_GROUP_576
  1

  0
LINE
  5
A3E
  8
LAYER0014
  6
CONTINUOUS
 62
     4
 10
-153.43362427
 20
17.16667175
 30
0.0
 11
-153.43362427
 21
60.16667175
 31
0.0
  0
ENDBLK
  5
70A
  8
0
  0
BLOCK
  8
0
  2
DC_GROUP_577
 70
     0
 10
0.0
 20
0.0
 30
0.0
  3
DC_GROUP_577
  1

  0
LINE
  5
A3F
  8
LAYER0014
  6
CONTINUOUS
 62
     4
 10
-165.44935608
 20
61.16667175
 30
0.0
 11
-165.44935608
 21
16.16667175
 31
0.0
  0
ENDBLK
  5
70D
  8
0
  0
BLOCK
  8
0
  2
DC_GROUP_578
 70
     0
 10
0.0
 20
0.0
 30
0.0
  3
DC_GROUP_578
  1

  0
LINE
  5
A40
  8
LAYER0014
  6
CONTINUOUS
 62
     4
 10
-177.46508789
 20
64.66667175000001
 30
0.0
 11
-177.46508789
 21
12.66667175
 31
0.0
  0
ENDBLK
  5
710
  8
0
  0
BLOCK
  8
0
  2
DC_GROUP_579
 70
     0
 10
0.0
 20
0.0
 30
0.0
  3
DC_GROUP_579
  1

  0
LINE
  5
A41
  8
LAYER0014
  6
CONTINUOUS
 62
     4
 10
-189.4808197
 20
96.16667175000001
 30
0.0
 11
-189.4808197
 21
-18.83332825
 31
0.0
  0
ENDBLK
  5
713
  8
0
  0
BLOCK
  8
0
  2
DC_GROUP_580
 70
     0
 10
0.0
 20
0.0
 30
0.0
  3
DC_GROUP_580
  1

  0
LINE
  5
A42
  8
LAYER0014
  6
CONTINUOUS
 62
     4
 10
-201.49655151
 20
101.16667175
 30
0.0
 11
-201.49655151
 21
-23.83332825
 31
0.0
  0
ENDBLK
  5
716
  8
0
  0
BLOCK
  8
0
  2
DC_GROUP_581
 70
     0
 10
0.0
 20
0.0
 30
0.0
  3
DC_GROUP_581
  1

  0
LINE
  5
A43
  8
LAYER0014
  6
CONTINUOUS
 62
     4
 10
-134.33332825
 20
28.01280212
 30
0.0
 11
-119.33332825
 21
28.01280212
 31
0.0
  0
ENDBLK
  5
719
  8
0
  0
BLOCK
  8
0
  2
DC_GROUP_582
 70
     0
 10
0.0
 20
0.0
 30
0.0
  3
DC_GROUP_582
  1

  0
LINE
  5
A44
  8
LAYER0014
  6
CONTINUOUS
 62
     4
 10
-116.33332825
 20
28.01280212
 30
0.0
 11
-81.33332824999999
 21
28.01280212
 31
0.0
  0
ENDBLK
  5
71C
  8
0
  0
BLOCK
  8
0
  2
DC_GROUP_583
 70
     0
 10
0.0
 20
0.0
 30
0.0
  3
DC_GROUP_583
  1

  0
LINE
  5
A45
  8
LAYER0014
  6
CONTINUOUS
 62
     4
 10
-81.33332824999999
 20
45.58799744
 30
0.0
 11
-89.33332824999999
 21
45.58799744
 31
0.0
  0
ENDBLK
  5
71F
  8
0
  0
BLOCK
  8
0
  2
DC_GROUP_584
 70
     0
 10
0.0
 20
0.0
 30
0.0
  3
DC_GROUP_584
  1

  0
LINE
  5
A46
  8
LAYER0014
  6
CONTINUOUS
 62
     4
 10
-53.48377991
 20
54.91667175
 30
0.0
 11
-53.48377991
 21
22.41667175
 31
0.0
  0
ENDBLK
  5
722
  8
0
  0
BLOCK
  8
0
  2
DC_GROUP_585
 70
     0
 10
0.0
 20
0.0
 30
0.0
  3
DC_GROUP_585
  1

  0
LINE
  5
A47
  8
LAYER0014
  6
CONTINUOUS
 62
     4
 10
-41.36971283
 20
55.66667175
 30
0.0
 11
-41.36971283
 21
21.66667175
 31
0.0
  0
ENDBLK
  5
725
  8
0
  0
BLOCK
  8
0
  2
DC_GROUP_586
 70
     0
 10
0.0
 20
0.0
 30
0.0
  3
DC_GROUP_586
  1

  0
LINE
  5
A48
  8
LAYER0014
  6
CONTINUOUS
 62
     4
 10
-29.53096771
 20
65.16667175000001
 30
0.0
 11
-29.53096771
 21
101.16667175
 31
0.0
  0
ENDBLK
  5
728
  8
0
  0
BLOCK
  8
0
  2
DC_GROUP_587
 70
     0
 10
0.0
 20
0.0
 30
0.0
  3
DC_GROUP_587
  1

  0
LINE
  5
A49
  8
LAYER0014
  6
CONTINUOUS
 62
     4
 10
-129.1333313
 20
-50.79841614
 30
0.0
 11
-73.33332824999999
 21
-50.79841614
 31
0.0
  0
ENDBLK
  5
72B
  8
0
  0
BLOCK
  8
0
  2
DC_GROUP_588
 70
     0
 10
0.0
 20
0.0
 30
0.0
  3
DC_GROUP_588
  1

  0
LINE
  5
A4A
  8
LAYER0014
  6
CONTINUOUS
 62
     4
 10
-133.33332825
 20
-62.81416321
 30
0.0
 11
-73.33332824999999
 21
-62.81416321
 31
0.0
  0
ENDBLK
  5
72E
  8
0
  0
BLOCK
  8
0
  2
DC_GROUP_589
 70
     0
 10
0.0
 20
0.0
 30
0.0
  3
DC_GROUP_589
  1

  0
LINE
  5
A4B
  8
LAYER0014
  6
CONTINUOUS
 62
     4
 10
-129.1333313
 20
-38.78268433
 30
0.0
 11
-140.33332825
 21
-38.78268433
 31
0.0
  0
ENDBLK
  5
731
  8
0
  0
BLOCK
  8
0
  2
DC_GROUP_590
 70
     0
 10
0.0
 20
0.0
 30
0.0
  3
DC_GROUP_590
  1

  0
LINE
  5
A4C
  8
LAYER0014
  6
CONTINUOUS
 62
     4
 10
-153.43362427
 20
-6.33332825
 30
0.0
 11
-153.43362427
 21
-16.33332825
 31
0.0
  0
ENDBLK
  5
734
  8
0
  0
BLOCK
  8
0
  2
DC_GROUP_591
 70
     0
 10
0.0
 20
0.0
 30
0.0
  3
DC_GROUP_591
  1

  0
LINE
  5
A4D
  8
LAYER0014
  6
CONTINUOUS
 62
     4
 10
-144.33332825
 20
0.77679443
 30
0.0
 11
-129.1333313
 21
0.77679443
 31
0.0
  0
ENDBLK
  5
737
  8
0
  0
BLOCK
  8
0
  2
DC_GROUP_592
 70
     0
 10
0.0
 20
0.0
 30
0.0
  3
DC_GROUP_592
  1

  0
LINE
  5
A4E
  8
LAYER0014
  6
CONTINUOUS
 62
     4
 10
198.20365706
 20
-18.53161673
 30
0.0
 11
211.80367422
 21
5.0243108
 31
0.0
  0
ENDBLK
  5
73A
  8
0
  0
BLOCK
  8
0
  2
DC_GROUP_593
 70
     0
 10
0.0
 20
0.0
 30
0.0
  3
DC_GROUP_593
  1

  0
LINE
  5
A4F
  8
LAYER0014
  6
CONTINUOUS
 62
     4
 10
-94.24408722
 20
98.16667175000001
 30
0.0
 11
-94.24408722
 21
67.16667175000001
 31
0.0
  0
ENDBLK
  5
73D
  8
0
  0
BLOCK
  8
0
  2
DC_GROUP_594
 70
     0
 10
0.0
 20
0.0
 30
0.0
  3
DC_GROUP_594
  1

  0
LINE
  5
A50
  8
LAYER0014
  6
CONTINUOUS
 62
     4
 10
-41.50701141
 20
74.16667175000001
 30
0.0
 11
-41.50701141
 21
91.16667175000001
 31
0.0
  0
ENDBLK
  5
740
  8
0
  0
BLOCK
  8
0
  2
DC_GROUP_595
 70
     0
 10
0.0
 20
0.0
 30
0.0
  3
DC_GROUP_595
  1

  0
LINE
  5
A51
  8
LAYER0014
  6
CONTINUOUS
 62
     4
 10
-65.83332824999999
 20
28.01280212
 30
0.0
 11
-73.33332824999999
 21
28.01280212
 31
0.0
  0
ENDBLK
  5
743
  8
0
  0
BLOCK
  8
0
  2
DC_GROUP_596
 70
     0
 10
0.0
 20
0.0
 30
0.0
  3
DC_GROUP_596
  1

  0
LINE
  5
A52
  8
LAYER0014
  6
CONTINUOUS
 62
     4
 10
-99.33332824999999
 20
45.58799744
 30
0.0
 11
-91.83332824999999
 21
45.58799744
 31
0.0
  0
ENDBLK
  5
746
  8
0
  0
BLOCK
  8
0
  2
DC_GROUP_597
 70
     0
 10
0.0
 20
0.0
 30
0.0
  3
DC_GROUP_597
  1

  0
LINE
  5
A53
  8
LAYER0014
  6
CONTINUOUS
 62
     4
 10
-41.50701141
 20
57.66667175
 30
0.0
 11
-41.50701141
 21
65.16667175000001
 31
0.0
  0
ENDBLK
  5
749
  8
0
  0
BLOCK
  8
0
  2
DC_GROUP_598
 70
     0
 10
0.0
 20
0.0
 30
0.0
  3
DC_GROUP_598
  1

  0
LINE
  5
A54
  8
LAYER0014
  6
CONTINUOUS
 62
     4
 10
-29.53096771
 20
38.66667175
 30
0.0
 11
-29.53096771
 21
31.16667175
 31
0.0
  0
ENDBLK
  5
74C
  8
0
  0
BLOCK
  8
0
  2
DC_GROUP_599
 70
     0
 10
0.0
 20
0.0
 30
0.0
  3
DC_GROUP_599
  1

  0
LINE
  5
A55
  8
LAYER0014
  6
CONTINUOUS
 62
     4
 10
-133.33332825
 20
-50.79841614
 30
0.0
 11
-140.83332825
 21
-50.79841614
 31
0.0
  0
ENDBLK
  5
74F
  8
0
  0
BLOCK
  8
0
  2
DC_GROUP_600
 70
     0
 10
0.0
 20
0.0
 30
0.0
  3
DC_GROUP_600
  1

  0
LINE
  5
A56
  8
LAYER0014
  6
CONTINUOUS
 62
     4
 10
-41.50701141
 20
91.16667175000001
 30
0.0
 11
-41.50701141
 21
83.66667175000001
 31
0.0
  0
ENDBLK
  5
752
  8
0
  0
BLOCK
  8
0
  2
DC_GROUP_601
 70
     0
 10
0.0
 20
0.0
 30
0.0
  3
DC_GROUP_601
  1

  0
LINE
  5
A57
  8
LAYER0014
  6
CONTINUOUS
 62
     4
 10
-153.43362427
 20
17.16667175
 30
0.0
 11
-152.9159846869669
 21
19.09852187417793
 31
0.0
  0
LINE
  5
A58
  8
LAYER0014
  6
CONTINUOUS
 62
     4
 10
-153.43362427
 20
17.16667175
 30
0.0
 11
-153.9512638530332
 21
19.09852187417793
 31
0.0
  0
ENDBLK
  5
755
  8
0
  0
BLOCK
  8
0
  2
DC_GROUP_602
 70
     0
 10
0.0
 20
0.0
 30
0.0
  3
DC_GROUP_602
  1

  0
LINE
  5
A59
  8
LAYER0014
  6
CONTINUOUS
 62
     4
 10
-153.43362427
 20
60.16667175
 30
0.0
 11
-153.9512638530332
 21
58.23482162582207
 31
0.0
  0
LINE
  5
A5A
  8
LAYER0014
  6
CONTINUOUS
 62
     4
 10
-153.43362427
 20
60.16667175
 30
0.0
 11
-152.9159846869669
 21
58.23482162582207
 31
0.0
  0
ENDBLK
  5
758
  8
0
  0
BLOCK
  8
0
  2
DC_GROUP_603
 70
     0
 10
0.0
 20
0.0
 30
0.0
  3
DC_GROUP_603
  1

  0
LINE
  5
A5B
  8
LAYER0014
  6
CONTINUOUS
 62
     4
 10
-165.44935608
 20
61.16667175
 30
0.0
 11
-165.9669956630332
 21
59.23482162582207
 31
0.0
  0
LINE
  5
A5C
  8
LAYER0014
  6
CONTINUOUS
 62
     4
 10
-165.44935608
 20
61.16667175
 30
0.0
 11
-164.9317164969668
 21
59.23482162582207
 31
0.0
  0
ENDBLK
  5
75B
  8
0
  0
BLOCK
  8
0
  2
DC_GROUP_604
 70
     0
 10
0.0
 20
0.0
 30
0.0
  3
DC_GROUP_604
  1

  0
LINE
  5
A5D
  8
LAYER0014
  6
CONTINUOUS
 62
     4
 10
-165.44935608
 20
16.16667175
 30
0.0
 11
-164.9317164969668
 21
18.09852187417793
 31
0.0
  0
LINE
  5
A5E
  8
LAYER0014
  6
CONTINUOUS
 62
     4
 10
-165.44935608
 20
16.16667175
 30
0.0
 11
-165.9669956630332
 21
18.09852187417793
 31
0.0
  0
ENDBLK
  5
75E
  8
0
  0
BLOCK
  8
0
  2
DC_GROUP_605
 70
     0
 10
0.0
 20
0.0
 30
0.0
  3
DC_GROUP_605
  1

  0
LINE
  5
A5F
  8
LAYER0014
  6
CONTINUOUS
 62
     4
 10
-177.46508789
 20
64.66667175000001
 30
0.0
 11
-177.9827274730332
 21
62.73482162582208
 31
0.0
  0
LINE
  5
A60
  8
LAYER0014
  6
CONTINUOUS
 62
     4
 10
-177.46508789
 20
64.66667175000001
 30
0.0
 11
-176.9474483069669
 21
62.73482162582208
 31
0.0
  0
ENDBLK
  5
761
  8
0
  0
BLOCK
  8
0
  2
DC_GROUP_606
 70
     0
 10
0.0
 20
0.0
 30
0.0
  3
DC_GROUP_606
  1

  0
LINE
  5
A61
  8
LAYER0014
  6
CONTINUOUS
 62
     4
 10
-177.46508789
 20
12.66667175
 30
0.0
 11
-176.9474483069669
 21
14.59852187417793
 31
0.0
  0
LINE
  5
A62
  8
LAYER0014
  6
CONTINUOUS
 62
     4
 10
-177.46508789
 20
12.66667175
 30
0.0
 11
-177.9827274730332
 21
14.59852187417793
 31
0.0
  0
ENDBLK
  5
764
  8
0
  0
BLOCK
  8
0
  2
DC_GROUP_607
 70
     0
 10
0.0
 20
0.0
 30
0.0
  3
DC_GROUP_607
  1

  0
LINE
  5
A63
  8
LAYER0014
  6
CONTINUOUS
 62
     4
 10
-189.4808197
 20
96.16667175000001
 30
0.0
 11
-189.9984592830332
 21
94.23482162582207
 31
0.0
  0
LINE
  5
A64
  8
LAYER0014
  6
CONTINUOUS
 62
     4
 10
-189.4808197
 20
96.16667175000001
 30
0.0
 11
-188.9631801169668
 21
94.23482162582207
 31
0.0
  0
ENDBLK
  5
767
  8
0
  0
BLOCK
  8
0
  2
DC_GROUP_608
 70
     0
 10
0.0
 20
0.0
 30
0.0
  3
DC_GROUP_608
  1

  0
LINE
  5
A65
  8
LAYER0014
  6
CONTINUOUS
 62
     4
 10
-189.4808197
 20
-18.83332825
 30
0.0
 11
-188.9631801169668
 21
-16.90147812582207
 31
0.0
  0
LINE
  5
A66
  8
LAYER0014
  6
CONTINUOUS
 62
     4
 10
-189.4808197
 20
-18.83332825
 30
0.0
 11
-189.9984592830332
 21
-16.90147812582207
 31
0.0
  0
ENDBLK
  5
76A
  8
0
  0
BLOCK
  8
0
  2
DC_GROUP_609
 70
     0
 10
0.0
 20
0.0
 30
0.0
  3
DC_GROUP_609
  1

  0
LINE
  5
A67
  8
LAYER0014
  6
CONTINUOUS
 62
     4
 10
-201.49655151
 20
101.16667175
 30
0.0
 11
-202.0141910930331
 21
99.23482162582207
 31
0.0
  0
LINE
  5
A68
  8
LAYER0014
  6
CONTINUOUS
 62
     4
 10
-201.49655151
 20
101.16667175
 30
0.0
 11
-200.9789119269668
 21
99.23482162582207
 31
0.0
  0
ENDBLK
  5
76D
  8
0
  0
BLOCK
  8
0
  2
DC_GROUP_610
 70
     0
 10
0.0
 20
0.0
 30
0.0
  3
DC_GROUP_610
  1

  0
LINE
  5
A69
  8
LAYER0014
  6
CONTINUOUS
 62
     4
 10
-201.49655151
 20
-23.83332825
 30
0.0
 11
-200.9789119269668
 21
-21.90147812582207
 31
0.0
  0
LINE
  5
A6A
  8
LAYER0014
  6
CONTINUOUS
 62
     4
 10
-201.49655151
 20
-23.83332825
 30
0.0
 11
-202.0141910930331
 21
-21.90147812582207
 31
0.0
  0
ENDBLK
  5
770
  8
0
  0
BLOCK
  8
0
  2
DC_GROUP_611
 70
     0
 10
0.0
 20
0.0
 30
0.0
  3
DC_GROUP_611
  1

  0
LINE
  5
A6B
  8
LAYER0014
  6
CONTINUOUS
 62
     4
 10
-134.33332825
 20
28.01280212
 30
0.0
 11
-132.4014781258221
 21
27.49516253696685
 31
0.0
  0
LINE
  5
A6C
  8
LAYER0014
  6
CONTINUOUS
 62
     4
 10
-134.33332825
 20
28.01280212
 30
0.0
 11
-132.4014781258221
 21
28.53044170303316
 31
0.0
  0
ENDBLK
  5
773
  8
0
  0
BLOCK
  8
0
  2
DC_GROUP_612
 70
     0
 10
0.0
 20
0.0
 30
0.0
  3
DC_GROUP_612
  1

  0
LINE
  5
A6D
  8
LAYER0014
  6
CONTINUOUS
 62
     4
 10
-119.33332825
 20
28.01280212
 30
0.0
 11
-121.2651783741779
 21
28.53044170303316
 31
0.0
  0
LINE
  5
A6E
  8
LAYER0014
  6
CONTINUOUS
 62
     4
 10
-119.33332825
 20
28.01280212
 30
0.0
 11
-121.2651783741779
 21
27.49516253696685
 31
0.0
  0
ENDBLK
  5
776
  8
0
  0
BLOCK
  8
0
  2
DC_GROUP_613
 70
     0
 10
0.0
 20
0.0
 30
0.0
  3
DC_GROUP_613
  1

  0
LINE
  5
A6F
  8
LAYER0014
  6
CONTINUOUS
 62
     4
 10
-116.33332825
 20
28.01280212
 30
0.0
 11
-114.4014781258221
 21
27.49516253696685
 31
0.0
  0
LINE
  5
A70
  8
LAYER0014
  6
CONTINUOUS
 62
     4
 10
-116.33332825
 20
28.01280212
 30
0.0
 11
-114.4014781258221
 21
28.53044170303316
 31
0.0
  0
ENDBLK
  5
779
  8
0
  0
BLOCK
  8
0
  2
DC_GROUP_614
 70
     0
 10
0.0
 20
0.0
 30
0.0
  3
DC_GROUP_614
  1

  0
LINE
  5
A71
  8
LAYER0014
  6
CONTINUOUS
 62
     4
 10
-81.33332824999999
 20
28.01280212
 30
0.0
 11
-83.26517837417794
 21
28.53044170303316
 31
0.0
  0
LINE
  5
A72
  8
LAYER0014
  6
CONTINUOUS
 62
     4
 10
-81.33332824999999
 20
28.01280212
 30
0.0
 11
-83.26517837417794
 21
27.49516253696685
 31
0.0
  0
ENDBLK
  5
77C
  8
0
  0
BLOCK
  8
0
  2
DC_GROUP_615
 70
     0
 10
0.0
 20
0.0
 30
0.0
  3
DC_GROUP_615
  1

  0
LINE
  5
A73
  8
LAYER0014
  6
CONTINUOUS
 62
     4
 10
-81.33332824999999
 20
45.58799744
 30
0.0
 11
-83.26517837417794
 21
46.10563702303315
 31
0.0
  0
LINE
  5
A74
  8
LAYER0014
  6
CONTINUOUS
 62
     4
 10
-81.33332824999999
 20
45.58799744
 30
0.0
 11
-83.26517837417794
 21
45.07035785696684
 31
0.0
  0
ENDBLK
  5
77F
  8
0
  0
BLOCK
  8
0
  2
DC_GROUP_616
 70
     0
 10
0.0
 20
0.0
 30
0.0
  3
DC_GROUP_616
  1

  0
LINE
  5
A75
  8
LAYER0014
  6
CONTINUOUS
 62
     4
 10
-89.33332824999999
 20
45.58799744
 30
0.0
 11
-87.40147812582207
 21
45.07035785696684
 31
0.0
  0
LINE
  5
A76
  8
LAYER0014
  6
CONTINUOUS
 62
     4
 10
-89.33332824999999
 20
45.58799744
 30
0.0
 11
-87.40147812582207
 21
46.10563702303315
 31
0.0
  0
ENDBLK
  5
782
  8
0
  0
BLOCK
  8
0
  2
DC_GROUP_617
 70
     0
 10
0.0
 20
0.0
 30
0.0
  3
DC_GROUP_617
  1

  0
LINE
  5
A77
  8
LAYER0014
  6
CONTINUOUS
 62
     4
 10
-53.48377991
 20
54.91667175
 30
0.0
 11
-54.00141949303315
 21
52.98482162582207
 31
0.0
  0
LINE
  5
A78
  8
LAYER0014
  6
CONTINUOUS
 62
     4
 10
-53.48377991
 20
54.91667175
 30
0.0
 11
-52.96614032696684
 21
52.98482162582207
 31
0.0
  0
ENDBLK
  5
785
  8
0
  0
BLOCK
  8
0
  2
DC_GROUP_618
 70
     0
 10
0.0
 20
0.0
 30
0.0
  3
DC_GROUP_618
  1

  0
LINE
  5
A79
  8
LAYER0014
  6
CONTINUOUS
 62
     4
 10
-53.48377991
 20
22.41667175
 30
0.0
 11
-52.96614032696684
 21
24.34852187417793
 31
0.0
  0
LINE
  5
A7A
  8
LAYER0014
  6
CONTINUOUS
 62
     4
 10
-53.48377991
 20
22.41667175
 30
0.0
 11
-54.00141949303315
 21
24.34852187417793
 31
0.0
  0
ENDBLK
  5
788
  8
0
  0
BLOCK
  8
0
  2
DC_GROUP_619
 70
     0
 10
0.0
 20
0.0
 30
0.0
  3
DC_GROUP_619
  1

  0
LINE
  5
A7B
  8
LAYER0014
  6
CONTINUOUS
 62
     4
 10
-41.36971283
 20
55.66667175
 30
0.0
 11
-41.88735241303315
 21
53.73482162582207
 31
0.0
  0
LINE
  5
A7C
  8
LAYER0014
  6
CONTINUOUS
 62
     4
 10
-41.36971283
 20
55.66667175
 30
0.0
 11
-40.85207324696684
 21
53.73482162582207
 31
0.0
  0
ENDBLK
  5
78B
  8
0
  0
BLOCK
  8
0
  2
DC_GROUP_620
 70
     0
 10
0.0
 20
0.0
 30
0.0
  3
DC_GROUP_620
  1

  0
LINE
  5
A7D
  8
LAYER0014
  6
CONTINUOUS
 62
     4
 10
-41.36971283
 20
21.66667175
 30
0.0
 11
-40.85207324696684
 21
23.59852187417793
 31
0.0
  0
LINE
  5
A7E
  8
LAYER0014
  6
CONTINUOUS
 62
     4
 10
-41.36971283
 20
21.66667175
 30
0.0
 11
-41.88735241303315
 21
23.59852187417793
 31
0.0
  0
ENDBLK
  5
78E
  8
0
  0
BLOCK
  8
0
  2
DC_GROUP_621
 70
     0
 10
0.0
 20
0.0
 30
0.0
  3
DC_GROUP_621
  1

  0
LINE
  5
A7F
  8
LAYER0014
  6
CONTINUOUS
 62
     4
 10
-29.53096771
 20
65.16667175000001
 30
0.0
 11
-29.01332812696684
 21
67.09852187417795
 31
0.0
  0
LINE
  5
A80
  8
LAYER0014
  6
CONTINUOUS
 62
     4
 10
-29.53096771
 20
65.16667175000001
 30
0.0
 11
-30.04860729303316
 21
67.09852187417795
 31
0.0
  0
ENDBLK
  5
791
  8
0
  0
BLOCK
  8
0
  2
DC_GROUP_622
 70
     0
 10
0.0
 20
0.0
 30
0.0
  3
DC_GROUP_622
  1

  0
LINE
  5
A81
  8
LAYER0014
  6
CONTINUOUS
 62
     4
 10
-29.53096771
 20
101.16667175
 30
0.0
 11
-30.04860729303316
 21
99.23482162582207
 31
0.0
  0
LINE
  5
A82
  8
LAYER0014
  6
CONTINUOUS
 62
     4
 10
-29.53096771
 20
101.16667175
 30
0.0
 11
-29.01332812696684
 21
99.23482162582207
 31
0.0
  0
ENDBLK
  5
794
  8
0
  0
BLOCK
  8
0
  2
DC_GROUP_623
 70
     0
 10
0.0
 20
0.0
 30
0.0
  3
DC_GROUP_623
  1

  0
LINE
  5
A83
  8
LAYER0014
  6
CONTINUOUS
 62
     4
 10
-129.1333313
 20
-50.79841614
 30
0.0
 11
-127.2014811758221
 21
-51.31605572303316
 31
0.0
  0
LINE
  5
A84
  8
LAYER0014
  6
CONTINUOUS
 62
     4
 10
-129.1333313
 20
-50.79841614
 30
0.0
 11
-127.2014811758221
 21
-50.28077655696685
 31
0.0
  0
ENDBLK
  5
797
  8
0
  0
BLOCK
  8
0
  2
DC_GROUP_624
 70
     0
 10
0.0
 20
0.0
 30
0.0
  3
DC_GROUP_624
  1

  0
LINE
  5
A85
  8
LAYER0014
  6
CONTINUOUS
 62
     4
 10
-73.33332824999999
 20
-50.79841614
 30
0.0
 11
-75.26517837417794
 21
-50.28077655696685
 31
0.0
  0
LINE
  5
A86
  8
LAYER0014
  6
CONTINUOUS
 62
     4
 10
-73.33332824999999
 20
-50.79841614
 30
0.0
 11
-75.26517837417794
 21
-51.31605572303316
 31
0.0
  0
ENDBLK
  5
79A
  8
0
  0
BLOCK
  8
0
  2
DC_GROUP_625
 70
     0
 10
0.0
 20
0.0
 30
0.0
  3
DC_GROUP_625
  1

  0
LINE
  5
A87
  8
LAYER0014
  6
CONTINUOUS
 62
     4
 10
-133.33332825
 20
-62.81416321
 30
0.0
 11
-131.4014781258221
 21
-63.33180279303316
 31
0.0
  0
LINE
  5
A88
  8
LAYER0014
  6
CONTINUOUS
 62
     4
 10
-133.33332825
 20
-62.81416321
 30
0.0
 11
-131.4014781258221
 21
-62.29652362696684
 31
0.0
  0
ENDBLK
  5
79D
  8
0
  0
BLOCK
  8
0
  2
DC_GROUP_626
 70
     0
 10
0.0
 20
0.0
 30
0.0
  3
DC_GROUP_626
  1

  0
LINE
  5
A89
  8
LAYER0014
  6
CONTINUOUS
 62
     4
 10
-73.33332824999999
 20
-62.81416321
 30
0.0
 11
-75.26517837417794
 21
-62.29652362696684
 31
0.0
  0
LINE
  5
A8A
  8
LAYER0014
  6
CONTINUOUS
 62
     4
 10
-73.33332824999999
 20
-62.81416321
 30
0.0
 11
-75.26517837417794
 21
-63.33180279303316
 31
0.0
  0
ENDBLK
  5
7A0
  8
0
  0
BLOCK
  8
0
  2
DC_GROUP_627
 70
     0
 10
0.0
 20
0.0
 30
0.0
  3
DC_GROUP_627
  1

  0
LINE
  5
A8B
  8
LAYER0014
  6
CONTINUOUS
 62
     4
 10
-129.1333313
 20
-38.78268433
 30
0.0
 11
-131.065181424178
 21
-38.26504474696684
 31
0.0
  0
LINE
  5
A8C
  8
LAYER0014
  6
CONTINUOUS
 62
     4
 10
-129.1333313
 20
-38.78268433
 30
0.0
 11
-131.065181424178
 21
-39.30032391303315
 31
0.0
  0
ENDBLK
  5
7A3
  8
0
  0
BLOCK
  8
0
  2
DC_GROUP_628
 70
     0
 10
0.0
 20
0.0
 30
0.0
  3
DC_GROUP_628
  1

  0
LINE
  5
A8D
  8
LAYER0014
  6
CONTINUOUS
 62
     4
 10
-140.33332825
 20
-38.78268433
 30
0.0
 11
-138.4014781258221
 21
-39.30032391303315
 31
0.0
  0
LINE
  5
A8E
  8
LAYER0014
  6
CONTINUOUS
 62
     4
 10
-140.33332825
 20
-38.78268433
 30
0.0
 11
-138.4014781258221
 21
-38.26504474696684
 31
0.0
  0
ENDBLK
  5
7A6
  8
0
  0
BLOCK
  8
0
  2
DC_GROUP_629
 70
     0
 10
0.0
 20
0.0
 30
0.0
  3
DC_GROUP_629
  1

  0
LINE
  5
A8F
  8
LAYER0014
  6
CONTINUOUS
 62
     4
 10
-153.43362427
 20
-6.33332825
 30
0.0
 11
-153.9512638530332
 21
-8.265178374177932
 31
0.0
  0
LINE
  5
A90
  8
LAYER0014
  6
CONTINUOUS
 62
     4
 10
-153.43362427
 20
-6.33332825
 30
0.0
 11
-152.9159846869669
 21
-8.265178374177932
 31
0.0
  0
ENDBLK
  5
7A9
  8
0
  0
BLOCK
  8
0
  2
DC_GROUP_630
 70
     0
 10
0.0
 20
0.0
 30
0.0
  3
DC_GROUP_630
  1

  0
LINE
  5
A91
  8
LAYER0014
  6
CONTINUOUS
 62
     4
 10
-153.43362427
 20
-16.33332825
 30
0.0
 11
-152.9159846869669
 21
-14.40147812582207
 31
0.0
  0
LINE
  5
A92
  8
LAYER0014
  6
CONTINUOUS
 62
     4
 10
-153.43362427
 20
-16.33332825
 30
0.0
 11
-153.9512638530332
 21
-14.40147812582207
 31
0.0
  0
ENDBLK
  5
7AC
  8
0
  0
BLOCK
  8
0
  2
DC_GROUP_631
 70
     0
 10
0.0
 20
0.0
 30
0.0
  3
DC_GROUP_631
  1

  0
LINE
  5
A93
  8
LAYER0014
  6
CONTINUOUS
 62
     4
 10
-144.33332825
 20
0.77679443
 30
0.0
 11
-142.4014781258221
 21
0.2591548469668434
 31
0.0
  0
LINE
  5
A94
  8
LAYER0014
  6
CONTINUOUS
 62
     4
 10
-144.33332825
 20
0.77679443
 30
0.0
 11
-142.4014781258221
 21
1.294434013033156
 31
0.0
  0
ENDBLK
  5
7AF
  8
0
  0
BLOCK
  8
0
  2
DC_GROUP_632
 70
     0
 10
0.0
 20
0.0
 30
0.0
  3
DC_GROUP_632
  1

  0
LINE
  5
A95
  8
LAYER0014
  6
CONTINUOUS
 62
     4
 10
-129.1333313
 20
0.77679443
 30
0.0
 11
-131.065181424178
 21
1.294434013033156
 31
0.0
  0
LINE
  5
A96
  8
LAYER0014
  6
CONTINUOUS
 62
     4
 10
-129.1333313
 20
0.77679443
 30
0.0
 11
-131.065181424178
 21
0.2591548469668436
 31
0.0
  0
ENDBLK
  5
7B2
  8
0
  0
BLOCK
  8
0
  2
DC_GROUP_633
 70
     0
 10
0.0
 20
0.0
 30
0.0
  3
DC_GROUP_633
  1

  0
LINE
  5
A97
  8
LAYER0014
  6
CONTINUOUS
 62
     4
 10
198.20365706
 20
-18.53161673
 30
0.0
 11
199.6178709737787
 21
-17.11740506045266
 31
0.0
  0
LINE
  5
A98
  8
LAYER0014
  6
CONTINUOUS
 62
     4
 10
198.20365706
 20
-18.53161673
 30
0.0
 11
198.7212928510887
 21
-16.59976558977386
 31
0.0
  0
ENDBLK
  5
7B5
  8
0
  0
BLOCK
  8
0
  2
DC_GROUP_634
 70
     0
 10
0.0
 20
0.0
 30
0.0
  3
DC_GROUP_634
  1

  0
LINE
  5
A99
  8
LAYER0014
  6
CONTINUOUS
 62
     4
 10
211.80367422
 20
5.0243108
 30
0.0
 11
210.3894603062214
 21
3.610099130452644
 31
0.0
  0
LINE
  5
A9A
  8
LAYER0014
  6
CONTINUOUS
 62
     4
 10
211.80367422
 20
5.0243108
 30
0.0
 11
211.2860384289114
 21
3.092459659773843
 31
0.0
  0
ENDBLK
  5
7B8
  8
0
  0
BLOCK
  8
0
  2
DC_GROUP_635
 70
     0
 10
0.0
 20
0.0
 30
0.0
  3
DC_GROUP_635
  1

  0
LINE
  5
A9B
  8
LAYER0014
  6
CONTINUOUS
 62
     4
 10
-94.24408722
 20
98.16667175000001
 30
0.0
 11
-94.76172680303316
 21
96.23482162582207
 31
0.0
  0
LINE
  5
A9C
  8
LAYER0014
  6
CONTINUOUS
 62
     4
 10
-94.24408722
 20
98.16667175000001
 30
0.0
 11
-93.72644763696684
 21
96.23482162582207
 31
0.0
  0
ENDBLK
  5
7BB
  8
0
  0
BLOCK
  8
0
  2
DC_GROUP_636
 70
     0
 10
0.0
 20
0.0
 30
0.0
  3
DC_GROUP_636
  1

  0
LINE
  5
A9D
  8
LAYER0014
  6
CONTINUOUS
 62
     4
 10
-94.24408722
 20
67.16667175000001
 30
0.0
 11
-93.72644763696684
 21
69.09852187417795
 31
0.0
  0
LINE
  5
A9E
  8
LAYER0014
  6
CONTINUOUS
 62
     4
 10
-94.24408722
 20
67.16667175000001
 30
0.0
 11
-94.76172680303316
 21
69.09852187417795
 31
0.0
  0
ENDBLK
  5
7BE
  8
0
  0
BLOCK
  8
0
  2
DC_GROUP_637
 70
     0
 10
0.0
 20
0.0
 30
0.0
  3
DC_GROUP_637
  1

  0
LINE
  5
A9F
  8
LAYER0014
  6
CONTINUOUS
 62
     4
 10
-41.50701141
 20
74.16667175000001
 30
0.0
 11
-40.98937182696685
 21
76.09852187417795
 31
0.0
  0
LINE
  5
AA0
  8
LAYER0014
  6
CONTINUOUS
 62
     4
 10
-41.50701141
 20
74.16667175000001
 30
0.0
 11
-42.02465099303316
 21
76.09852187417795
 31
0.0
  0
ENDBLK
  5
7C1
  8
0
  0
BLOCK
  8
0
  2
DC_GROUP_638
 70
     0
 10
0.0
 20
0.0
 30
0.0
  3
DC_GROUP_638
  1

  0
LINE
  5
AA1
  8
LAYER0014
  6
CONTINUOUS
 62
     4
 10
-41.50701141
 20
91.16667175000001
 30
0.0
 11
-42.02465099303316
 21
89.23482162582207
 31
0.0
  0
LINE
  5
AA2
  8
LAYER0014
  6
CONTINUOUS
 62
     4
 10
-41.50701141
 20
91.16667175000001
 30
0.0
 11
-40.98937182696685
 21
89.23482162582207
 31
0.0
  0
ENDBLK
  5
7C4
  8
0
  0
BLOCK
  8
0
  2
DC_GROUP_639
 70
     0
 10
0.0
 20
0.0
 30
0.0
  3
DC_GROUP_639
  1

  0
LINE
  5
AA3
  8
LAYER0014
  6
CONTINUOUS
 62
     4
 10
-73.33332824999999
 20
28.01280212
 30
0.0
 11
-71.40147812582205
 21
27.49516253696684
 31
0.0
  0
LINE
  5
AA4
  8
LAYER0014
  6
CONTINUOUS
 62
     4
 10
-73.33332824999999
 20
28.01280212
 30
0.0
 11
-71.40147812582205
 21
28.53044170303315
 31
0.0
  0
ENDBLK
  5
7C7
  8
0
  0
BLOCK
  8
0
  2
DC_GROUP_640
 70
     0
 10
0.0
 20
0.0
 30
0.0
  3
DC_GROUP_640
  1

  0
LINE
  5
AA5
  8
LAYER0014
  6
CONTINUOUS
 62
     4
 10
-91.83332824999999
 20
45.58799744
 30
0.0
 11
-93.76517837417794
 21
46.10563702303315
 31
0.0
  0
LINE
  5
AA6
  8
LAYER0014
  6
CONTINUOUS
 62
     4
 10
-91.83332824999999
 20
45.58799744
 30
0.0
 11
-93.76517837417794
 21
45.07035785696684
 31
0.0
  0
ENDBLK
  5
7CA
  8
0
  0
BLOCK
  8
0
  2
DC_GROUP_641
 70
     0
 10
0.0
 20
0.0
 30
0.0
  3
DC_GROUP_641
  1

  0
LINE
  5
AA7
  8
LAYER0014
  6
CONTINUOUS
 62
     4
 10
-41.50701141
 20
65.16667175000001
 30
0.0
 11
-42.02465099303316
 21
63.23482162582208
 31
0.0
  0
LINE
  5
AA8
  8
LAYER0014
  6
CONTINUOUS
 62
     4
 10
-41.50701141
 20
65.16667175000001
 30
0.0
 11
-40.98937182696685
 21
63.23482162582208
 31
0.0
  0
ENDBLK
  5
7CD
  8
0
  0
BLOCK
  8
0
  2
DC_GROUP_642
 70
     0
 10
0.0
 20
0.0
 30
0.0
  3
DC_GROUP_642
  1

  0
LINE
  5
AA9
  8
LAYER0014
  6
CONTINUOUS
 62
     4
 10
-29.53096771
 20
38.66667175
 30
0.0
 11
-30.04860729303316
 21
36.73482162582207
 31
0.0
  0
LINE
  5
AAA
  8
LAYER0014
  6
CONTINUOUS
 62
     4
 10
-29.53096771
 20
38.66667175
 30
0.0
 11
-29.01332812696684
 21
36.73482162582207
 31
0.0
  0
ENDBLK
  5
7D0
  8
0
  0
BLOCK
  8
0
  2
DC_GROUP_643
 70
     0
 10
0.0
 20
0.0
 30
0.0
  3
DC_GROUP_643
  1

  0
LINE
  5
AAB
  8
LAYER0014
  6
CONTINUOUS
 62
     4
 10
-133.33332825
 20
-50.79841614
 30
0.0
 11
-135.2651783741779
 21
-50.28077655696685
 31
0.0
  0
LINE
  5
AAC
  8
LAYER0014
  6
CONTINUOUS
 62
     4
 10
-133.33332825
 20
-50.79841614
 30
0.0
 11
-135.2651783741779
 21
-51.31605572303316
 31
0.0
  0
ENDBLK
  5
7D3
  8
0
  0
BLOCK
  8
0
  2
DC_GROUP_644
 70
     0
 10
0.0
 20
0.0
 30
0.0
  3
DC_GROUP_644
  1

  0
LINE
  5
AAD
  8
LAYER0014
  6
CONTINUOUS
 62
     4
 10
-41.50701141
 20
91.16667175000001
 30
0.0
 11
-42.02465099303316
 21
89.23482162582207
 31
0.0
  0
LINE
  5
AAE
  8
LAYER0014
  6
CONTINUOUS
 62
     4
 10
-41.50701141
 20
91.16667175000001
 30
0.0
 11
-40.98937182696685
 21
89.23482162582207
 31
0.0
  0
ENDBLK
  5
7D6
  8
0
  0
BLOCK
  8
0
  2
DC_GROUP_645
 70
     0
 10
0.0
 20
0.0
 30
0.0
  3
DC_GROUP_645
  1

  0
LINE
  5
AAF
  8
LAYER0014
  6
CONTINUOUS
 62
     3
 10
-41.50701141
 20
74.16667175000001
 30
0.0
 11
-41.50701141
 21
81.66667175000001
 31
0.0
  0
ENDBLK
  5
7D9
  8
0
  0
BLOCK
  8
0
  2
DC_GROUP_646
 70
     0
 10
0.0
 20
0.0
 30
0.0
  3
DC_GROUP_646
  1

  0
LINE
  5
AB0
  8
LAYER0014
  6
CONTINUOUS
 62
     3
 10
-41.50701141
 20
74.16667175000001
 30
0.0
 11
-40.98937182696685
 21
76.09852187417795
 31
0.0
  0
LINE
  5
AB1
  8
LAYER0014
  6
CONTINUOUS
 62
     3
 10
-41.50701141
 20
74.16667175000001
 30
0.0
 11
-42.02465099303316
 21
76.09852187417795
 31
0.0
  0
ENDBLK
  5
7DC
  8
0
  0
ENDSEC
  0
SECTION
  2
ENTITIES
  0
INSERT
  5
AB2
  8
0
  6
CENTER
  2
DC_GROUP_1
 10
0.0
 20
0.0
 30
0.0
  0
INSERT
  5
AB3
  8
0
  6
CENTER
  2
DC_GROUP_2
 10
0.0
 20
0.0
 30
0.0
  0
INSERT
  5
AB4
  8
0
  6
CENTER
  2
DC_GROUP_3
 10
0.0
 20
0.0
 30
0.0
  0
INSERT
  5
AB5
  8
0
  6
CENTER
  2
DC_GROUP_4
 10
0.0
 20
0.0
 30
0.0
  0
INSERT
  5
AB6
  8
0
  6
CENTER
  2
DC_GROUP_5
 10
0.0
 20
0.0
 30
0.0
  0
INSERT
  5
AB7
  8
0
  6
CENTER
  2
DC_GROUP_6
 10
0.0
 20
0.0
 30
0.0
  0
INSERT
  5
AB8
  8
0
  6
CENTER
  2
DC_GROUP_7
 10
0.0
 20
0.0
 30
0.0
  0
INSERT
  5
AB9
  8
0
  6
CENTER
  2
DC_GROUP_8
 10
0.0
 20
0.0
 30
0.0
  0
INSERT
  5
ABA
  8
0
  6
CENTER
  2
DC_GROUP_9
 10
0.0
 20
0.0
 30
0.0
  0
INSERT
  5
ABB
  8
0
  6
CENTER
  2
DC_GROUP_10
 10
0.0
 20
0.0
 30
0.0
  0
INSERT
  5
ABC
  8
0
  6
CENTER
  2
DC_GROUP_11
 10
0.0
 20
0.0
 30
0.0
  0
INSERT
  5
ABD
  8
0
  6
CENTER
  2
DC_GROUP_12
 10
0.0
 20
0.0
 30
0.0
  0
INSERT
  5
ABE
  8
0
  6
CENTER
  2
DC_GROUP_13
 10
0.0
 20
0.0
 30
0.0
  0
INSERT
  5
ABF
  8
0
  6
CENTER
  2
DC_GROUP_14
 10
0.0
 20
0.0
 30
0.0
  0
INSERT
  5
AC0
  8
0
  6
CENTER
  2
DC_GROUP_15
 10
0.0
 20
0.0
 30
0.0
  0
INSERT
  5
AC1
  8
0
  6
CENTER
  2
DC_GROUP_16
 10
0.0
 20
0.0
 30
0.0
  0
INSERT
  5
AC2
  8
0
  6
CENTER
  2
DC_GROUP_17
 10
0.0
 20
0.0
 30
0.0
  0
INSERT
  5
AC3
  8
0
  6
CENTER
  2
DC_GROUP_18
 10
0.0
 20
0.0
 30
0.0
  0
ARC
  5
AC4
  8
0
  6
CENTER
 62
     7
 10
126.33334351
 20
38.66667175
 30
0.0
 40
50.0
 50
14.31936951
 51
45.51697486000001
  0
ARC
  5
AC5
  8
0
  6
CENTER
 62
     7
 10
126.33334351
 20
38.66667175
 30
0.0
 40
50.0
 50
134.25859697
 51
165.94407675
  0
ARC
  5
AC6
  8
0
  6
CENTER
 62
     7
 10
126.33334351
 20
38.66667175
 30
0.0
 40
50.0
 50
253.13448459
 51
284.67027395
  0
ARC
  5
AC7
  8
0
  6
CENTER
 62
     7
 10
126.33334351
 20
38.66667175
 30
0.0
 40
30.0
 50
12.74612422
 51
47.25382707000001
  0
ARC
  5
AC8
  8
0
  6
CENTER
 62
     7
 10
126.33334351
 20
38.66667175
 30
0.0
 40
30.0
 50
132.74611988
 51
167.25383383
  0
ARC
  5
AC9
  8
0
  6
CENTER
 62
     7
 10
126.33334351
 20
38.66667175
 30
0.0
 40
30.0
 50
252.40806665
 51
286.9548083
  0
ARC
  5
ACA
  8
0
  6
DASHED2
 62
     7
 10
89.33334351000001
 20
82.66667175000001
 30
0.0
 40
3.0
 50
0.0
 51
41.81031315999996
  0
ARC
  5
ACB
  8
0
  6
DASHED2
 62
     7
 10
92.33334351000001
 20
82.66667175000001
 30
0.0
 40
3.0
 50
138.18969868
 51
221.81028401
  0
ARC
  5
ACC
  8
0
  6
DASHED2
 62
     7
 10
89.33334351000001
 20
82.66667175000001
 30
0.0
 40
3.0
 50
318.18968684
 51
360.0
  0
ARC
  5
ACD
  8
0
  6
DASHED2
 62
     7
 10
85.13334656000001
 20
82.66667175000001
 30
0.0
 40
3.29999995
 50
72.36029448000004
 51
89.99998201000007
  0
ARC
  5
ACE
  8
0
  6
DASHED2
 62
     7
 10
85.13334656000001
 20
82.66667175000001
 30
0.0
 40
3.29999995
 50
270.00001799
 51
287.63970552
  0
ARC
  5
ACF
  8
0
  6
DASHED2
 62
     7
 10
87.53787231
 20
88.46263123
 30
0.0
 40
3.0
 50
242.10689145
 51
306.76199489
  0
ARC
  5
AD0
  8
0
  6
DASHED2
 62
     7
 10
87.53787231
 20
76.87065125
 30
0.0
 40
3.0
 50
53.23800510999998
 51
117.8898300599999
  0
ARC
  5
AD1
  8
0
  6
DASHED2
 62
     7
 10
90.26869202
 20
85.66667175000001
 30
0.0
 40
1.0
 50
200.71546697
 51
270.0000179899997
  0
ARC
  5
AD2
  8
0
  6
DASHED2
 62
     7
 10
90.26869202
 20
85.66667175000001
 30
0.0
 40
1.0
 50
108.1948751300004
 51
159.28453303
  0
ARC
  5
AD3
  8
0
  6
DASHED2
 62
     7
 10
90.26869202
 20
79.66667175000001
 30
0.0
 40
1.0
 50
89.99998201000025
 51
159.28453303
  0
ARC
  5
AD4
  8
0
  6
DASHED2
 62
     7
 10
90.26869202
 20
79.66667175000001
 30
0.0
 40
1.0
 50
200.71546697
 51
251.8051248699996
  0
ARC
  5
AD5
  8
0
  6
DASHED2
 62
     7
 10
91.33044434
 20
85.66667175000001
 30
0.0
 40
1.0
 50
0.0
 51
71.80513671000007
  0
ARC
  5
AD6
  8
0
  6
DASHED2
 62
     7
 10
91.33044434
 20
79.66667175000001
 30
0.0
 40
1.0
 50
0.0
 51
89.99998201000025
  0
ARC
  5
AD7
  8
0
  6
DASHED2
 62
     7
 10
91.33044434
 20
85.66667175000001
 30
0.0
 40
1.0
 50
270.0000179899997
 51
360.0
  0
ARC
  5
AD8
  8
0
  6
DASHED2
 62
     7
 10
91.33044434
 20
79.66667175000001
 30
0.0
 40
1.0
 50
288.1948632899999
 51
360.0
  0
ARC
  5
AD9
  8
0
  6
DASHED2
 62
     7
 10
83.31121826
 20
82.66667175000001
 30
0.0
 40
1.20000005
 50
113.4679724200002
 51
246.5320171099998
  0
INSERT
  5
ADA
  8
0
  6
DASHED2
  2
DC_GROUP_19
 10
0.0
 20
0.0
 30
0.0
  0
INSERT
  5
ADB
  8
0
  6
DASHED2
  2
DC_GROUP_20
 10
0.0
 20
0.0
 30
0.0
  0
INSERT
  5
ADC
  8
0
  6
DASHED2
  2
DC_GROUP_21
 10
0.0
 20
0.0
 30
0.0
  0
INSERT
  5
ADD
  8
0
  6
DASHED2
  2
DC_GROUP_22
 10
0.0
 20
0.0
 30
0.0
  0
INSERT
  5
ADE
  8
0
  6
DASHED2
  2
DC_GROUP_23
 10
0.0
 20
0.0
 30
0.0
  0
INSERT
  5
ADF
  8
0
  6
DASHED2
  2
DC_GROUP_24
 10
0.0
 20
0.0
 30
0.0
  0
INSERT
  5
AE0
  8
0
  6
DASHED2
  2
DC_GROUP_25
 10
0.0
 20
0.0
 30
0.0
  0
INSERT
  5
AE1
  8
0
  6
DASHED2
  2
DC_GROUP_26
 10
0.0
 20
0.0
 30
0.0
  0
INSERT
  5
AE2
  8
0
  6
DASHED2
  2
DC_GROUP_27
 10
0.0
 20
0.0
 30
0.0
  0
INSERT
  5
AE3
  8
0
  6
DASHED2
  2
DC_GROUP_28
 10
0.0
 20
0.0
 30
0.0
  0
INSERT
  5
AE4
  8
0
  6
DASHED2
  2
DC_GROUP_29
 10
0.0
 20
0.0
 30
0.0
  0
INSERT
  5
AE5
  8
0
  6
DASHED2
  2
DC_GROUP_30
 10
0.0
 20
0.0
 30
0.0
  0
INSERT
  5
AE6
  8
0
  6
DASHED2
  2
DC_GROUP_31
 10
0.0
 20
0.0
 30
0.0
  0
INSERT
  5
AE7
  8
0
  6
DASHED2
  2
DC_GROUP_32
 10
0.0
 20
0.0
 30
0.0
  0
INSERT
  5
AE8
  8
0
  6
DIVIDE
  2
DC_GROUP_33
 10
0.0
 20
0.0
 30
0.0
  0
INSERT
  5
AE9
  8
0
  6
DIVIDE
  2
DC_GROUP_34
 10
0.0
 20
0.0
 30
0.0
  0
INSERT
  5
AEA
  8
0
  6
DIVIDE
  2
DC_GROUP_35
 10
0.0
 20
0.0
 30
0.0
  0
INSERT
  5
AEB
  8
0
  6
DIVIDE
  2
DC_GROUP_36
 10
0.0
 20
0.0
 30
0.0
  0
INSERT
  5
AEC
  8
0
  6
DIVIDE
  2
DC_GROUP_519
 10
0.0
 20
0.0
 30
0.0
  0
INSERT
  5
AED
  8
0
  6
DIVIDE
  2
DC_GROUP_520
 10
0.0
 20
0.0
 30
0.0
  0
INSERT
  5
AEE
  8
0
  6
DIVIDE
  2
DC_GROUP_521
 10
0.0
 20
0.0
 30
0.0
  0
INSERT
  5
AEF
  8
0
  6
CONTINUOUS
  2
DC_GROUP_37
 10
0.0
 20
0.0
 30
0.0
  0
INSERT
  5
AF0
  8
0
  6
CONTINUOUS
  2
DC_GROUP_38
 10
0.0
 20
0.0
 30
0.0
  0
INSERT
  5
AF1
  8
0
  6
CONTINUOUS
  2
DC_GROUP_39
 10
0.0
 20
0.0
 30
0.0
  0
INSERT
  5
AF2
  8
0
  6
CONTINUOUS
  2
DC_GROUP_40
 10
0.0
 20
0.0
 30
0.0
  0
INSERT
  5
AF3
  8
0
  6
CONTINUOUS
  2
DC_GROUP_41
 10
0.0
 20
0.0
 30
0.0
  0
INSERT
  5
AF4
  8
0
  6
CONTINUOUS
  2
DC_GROUP_42
 10
0.0
 20
0.0
 30
0.0
  0
INSERT
  5
AF5
  8
0
  6
CONTINUOUS
  2
DC_GROUP_43
 10
0.0
 20
0.0
 30
0.0
  0
INSERT
  5
AF6
  8
0
  6
CONTINUOUS
  2
DC_GROUP_44
 10
0.0
 20
0.0
 30
0.0
  0
INSERT
  5
AF7
  8
0
  6
CONTINUOUS
  2
DC_GROUP_45
 10
0.0
 20
0.0
 30
0.0
  0
INSERT
  5
AF8
  8
0
  6
CONTINUOUS
  2
DC_GROUP_46
 10
0.0
 20
0.0
 30
0.0
  0
INSERT
  5
AF9
  8
0
  6
CONTINUOUS
  2
DC_GROUP_47
 10
0.0
 20
0.0
 30
0.0
  0
INSERT
  5
AFA
  8
0
  6
CONTINUOUS
  2
DC_GROUP_48
 10
0.0
 20
0.0
 30
0.0
  0
INSERT
  5
AFB
  8
0
  6
CONTINUOUS
  2
DC_GROUP_49
 10
0.0
 20
0.0
 30
0.0
  0
INSERT
  5
AFC
  8
0
  6
CONTINUOUS
  2
DC_GROUP_50
 10
0.0
 20
0.0
 30
0.0
  0
INSERT
  5
AFD
  8
0
  6
CONTINUOUS
  2
DC_GROUP_51
 10
0.0
 20
0.0
 30
0.0
  0
INSERT
  5
AFE
  8
0
  6
CONTINUOUS
  2
DC_GROUP_52
 10
0.0
 20
0.0
 30
0.0
  0
INSERT
  5
AFF
  8
0
  6
CONTINUOUS
  2
DC_GROUP_53
 10
0.0
 20
0.0
 30
0.0
  0
INSERT
  5
B00
  8
0
  6
CONTINUOUS
  2
DC_GROUP_54
 10
0.0
 20
0.0
 30
0.0
  0
INSERT
  5
B01
  8
0
  6
CONTINUOUS
  2
DC_GROUP_55
 10
0.0
 20
0.0
 30
0.0
  0
INSERT
  5
B02
  8
0
  6
CONTINUOUS
  2
DC_GROUP_56
 10
0.0
 20
0.0
 30
0.0
  0
INSERT
  5
B03
  8
0
  6
CONTINUOUS
  2
DC_GROUP_57
 10
0.0
 20
0.0
 30
0.0
  0
INSERT
  5
B04
  8
0
  6
CONTINUOUS
  2
DC_GROUP_58
 10
0.0
 20
0.0
 30
0.0
  0
INSERT
  5
B05
  8
0
  6
CONTINUOUS
  2
DC_GROUP_59
 10
0.0
 20
0.0
 30
0.0
  0
INSERT
  5
B06
  8
0
  6
CONTINUOUS
  2
DC_GROUP_60
 10
0.0
 20
0.0
 30
0.0
  0
INSERT
  5
B07
  8
0
  6
CONTINUOUS
  2
DC_GROUP_61
 10
0.0
 20
0.0
 30
0.0
  0
INSERT
  5
B08
  8
0
  6
CONTINUOUS
  2
DC_GROUP_62
 10
0.0
 20
0.0
 30
0.0
  0
INSERT
  5
B09
  8
0
  6
CONTINUOUS
  2
DC_GROUP_63
 10
0.0
 20
0.0
 30
0.0
  0
INSERT
  5
B0A
  8
0
  6
CONTINUOUS
  2
DC_GROUP_64
 10
0.0
 20
0.0
 30
0.0
  0
INSERT
  5
B0B
  8
0
  6
CONTINUOUS
  2
DC_GROUP_65
 10
0.0
 20
0.0
 30
0.0
  0
INSERT
  5
B0C
  8
0
  6
CONTINUOUS
  2
DC_GROUP_66
 10
0.0
 20
0.0
 30
0.0
  0
INSERT
  5
B0D
  8
0
  6
CONTINUOUS
  2
DC_GROUP_67
 10
0.0
 20
0.0
 30
0.0
  0
INSERT
  5
B0E
  8
0
  6
CONTINUOUS
  2
DC_GROUP_68
 10
0.0
 20
0.0
 30
0.0
  0
INSERT
  5
B0F
  8
0
  6
CONTINUOUS
  2
DC_GROUP_69
 10
0.0
 20
0.0
 30
0.0
  0
INSERT
  5
B10
  8
0
  6
CONTINUOUS
  2
DC_GROUP_70
 10
0.0
 20
0.0
 30
0.0
  0
INSERT
  5
B11
  8
0
  6
CONTINUOUS
  2
DC_GROUP_71
 10
0.0
 20
0.0
 30
0.0
  0
INSERT
  5
B12
  8
0
  6
CONTINUOUS
  2
DC_GROUP_72
 10
0.0
 20
0.0
 30
0.0
  0
INSERT
  5
B13
  8
0
  6
CONTINUOUS
  2
DC_GROUP_73
 10
0.0
 20
0.0
 30
0.0
  0
INSERT
  5
B14
  8
0
  6
CONTINUOUS
  2
DC_GROUP_74
 10
0.0
 20
0.0
 30
0.0
  0
INSERT
  5
B15
  8
0
  6
CONTINUOUS
  2
DC_GROUP_75
 10
0.0
 20
0.0
 30
0.0
  0
INSERT
  5
B16
  8
0
  6
CONTINUOUS
  2
DC_GROUP_76
 10
0.0
 20
0.0
 30
0.0
  0
INSERT
  5
B17
  8
0
  6
CONTINUOUS
  2
DC_GROUP_77
 10
0.0
 20
0.0
 30
0.0
  0
INSERT
  5
B18
  8
0
  6
CONTINUOUS
  2
DC_GROUP_78
 10
0.0
 20
0.0
 30
0.0
  0
INSERT
  5
B19
  8
0
  6
CONTINUOUS
  2
DC_GROUP_79
 10
0.0
 20
0.0
 30
0.0
  0
INSERT
  5
B1A
  8
0
  6
CONTINUOUS
  2
DC_GROUP_80
 10
0.0
 20
0.0
 30
0.0
  0
INSERT
  5
B1B
  8
0
  6
CONTINUOUS
  2
DC_GROUP_81
 10
0.0
 20
0.0
 30
0.0
  0
INSERT
  5
B1C
  8
0
  6
CONTINUOUS
  2
DC_GROUP_82
 10
0.0
 20
0.0
 30
0.0
  0
INSERT
  5
B1D
  8
0
  6
CONTINUOUS
  2
DC_GROUP_83
 10
0.0
 20
0.0
 30
0.0
  0
INSERT
  5
B1E
  8
0
  6
CONTINUOUS
  2
DC_GROUP_84
 10
0.0
 20
0.0
 30
0.0
  0
INSERT
  5
B1F
  8
0
  6
CONTINUOUS
  2
DC_GROUP_85
 10
0.0
 20
0.0
 30
0.0
  0
INSERT
  5
B20
  8
0
  6
CONTINUOUS
  2
DC_GROUP_86
 10
0.0
 20
0.0
 30
0.0
  0
INSERT
  5
B21
  8
0
  6
CONTINUOUS
  2
DC_GROUP_87
 10
0.0
 20
0.0
 30
0.0
  0
INSERT
  5
B22
  8
0
  6
CONTINUOUS
  2
DC_GROUP_88
 10
0.0
 20
0.0
 30
0.0
  0
INSERT
  5
B23
  8
0
  6
CONTINUOUS
  2
DC_GROUP_89
 10
0.0
 20
0.0
 30
0.0
  0
INSERT
  5
B24
  8
0
  6
CONTINUOUS
  2
DC_GROUP_90
 10
0.0
 20
0.0
 30
0.0
  0
INSERT
  5
B25
  8
0
  6
CONTINUOUS
  2
DC_GROUP_91
 10
0.0
 20
0.0
 30
0.0
  0
INSERT
  5
B26
  8
0
  6
CONTINUOUS
  2
DC_GROUP_92
 10
0.0
 20
0.0
 30
0.0
  0
INSERT
  5
B27
  8
0
  6
CONTINUOUS
  2
DC_GROUP_93
 10
0.0
 20
0.0
 30
0.0
  0
INSERT
  5
B28
  8
0
  6
CONTINUOUS
  2
DC_GROUP_94
 10
0.0
 20
0.0
 30
0.0
  0
INSERT
  5
B29
  8
0
  6
CONTINUOUS
  2
DC_GROUP_95
 10
0.0
 20
0.0
 30
0.0
  0
INSERT
  5
B2A
  8
0
  6
CONTINUOUS
  2
DC_GROUP_96
 10
0.0
 20
0.0
 30
0.0
  0
INSERT
  5
B2B
  8
0
  6
CONTINUOUS
  2
DC_GROUP_97
 10
0.0
 20
0.0
 30
0.0
  0
INSERT
  5
B2C
  8
0
  6
CONTINUOUS
  2
DC_GROUP_98
 10
0.0
 20
0.0
 30
0.0
  0
INSERT
  5
B2D
  8
0
  6
CONTINUOUS
  2
DC_GROUP_99
 10
0.0
 20
0.0
 30
0.0
  0
INSERT
  5
B2E
  8
0
  6
CONTINUOUS
  2
DC_GROUP_100
 10
0.0
 20
0.0
 30
0.0
  0
INSERT
  5
B2F
  8
0
  6
CONTINUOUS
  2
DC_GROUP_101
 10
0.0
 20
0.0
 30
0.0
  0
INSERT
  5
B30
  8
0
  6
CONTINUOUS
  2
DC_GROUP_102
 10
0.0
 20
0.0
 30
0.0
  0
INSERT
  5
B31
  8
0
  6
CONTINUOUS
  2
DC_GROUP_103
 10
0.0
 20
0.0
 30
0.0
  0
INSERT
  5
B32
  8
0
  6
CONTINUOUS
  2
DC_GROUP_104
 10
0.0
 20
0.0
 30
0.0
  0
INSERT
  5
B33
  8
0
  6
CONTINUOUS
  2
DC_GROUP_105
 10
0.0
 20
0.0
 30
0.0
  0
INSERT
  5
B34
  8
0
  6
CONTINUOUS
  2
DC_GROUP_106
 10
0.0
 20
0.0
 30
0.0
  0
INSERT
  5
B35
  8
0
  6
CONTINUOUS
  2
DC_GROUP_107
 10
0.0
 20
0.0
 30
0.0
  0
INSERT
  5
B36
  8
0
  6
CONTINUOUS
  2
DC_GROUP_108
 10
0.0
 20
0.0
 30
0.0
  0
INSERT
  5
B37
  8
0
  6
CONTINUOUS
  2
DC_GROUP_109
 10
0.0
 20
0.0
 30
0.0
  0
INSERT
  5
B38
  8
0
  6
CONTINUOUS
  2
DC_GROUP_110
 10
0.0
 20
0.0
 30
0.0
  0
INSERT
  5
B39
  8
0
  6
CONTINUOUS
  2
DC_GROUP_111
 10
0.0
 20
0.0
 30
0.0
  0
INSERT
  5
B3A
  8
0
  6
CONTINUOUS
  2
DC_GROUP_112
 10
0.0
 20
0.0
 30
0.0
  0
INSERT
  5
B3B
  8
0
  6
CONTINUOUS
  2
DC_GROUP_113
 10
0.0
 20
0.0
 30
0.0
  0
INSERT
  5
B3C
  8
0
  6
CONTINUOUS
  2
DC_GROUP_114
 10
0.0
 20
0.0
 30
0.0
  0
INSERT
  5
B3D
  8
0
  6
CONTINUOUS
  2
DC_GROUP_115
 10
0.0
 20
0.0
 30
0.0
  0
INSERT
  5
B3E
  8
0
  6
CONTINUOUS
  2
DC_GROUP_116
 10
0.0
 20
0.0
 30
0.0
  0
INSERT
  5
B3F
  8
0
  6
CONTINUOUS
  2
DC_GROUP_117
 10
0.0
 20
0.0
 30
0.0
  0
INSERT
  5
B40
  8
0
  6
CONTINUOUS
  2
DC_GROUP_118
 10
0.0
 20
0.0
 30
0.0
  0
INSERT
  5
B41
  8
0
  6
CONTINUOUS
  2
DC_GROUP_119
 10
0.0
 20
0.0
 30
0.0
  0
INSERT
  5
B42
  8
0
  6
CONTINUOUS
  2
DC_GROUP_120
 10
0.0
 20
0.0
 30
0.0
  0
INSERT
  5
B43
  8
0
  6
CONTINUOUS
  2
DC_GROUP_121
 10
0.0
 20
0.0
 30
0.0
  0
INSERT
  5
B44
  8
0
  6
CONTINUOUS
  2
DC_GROUP_122
 10
0.0
 20
0.0
 30
0.0
  0
INSERT
  5
B45
  8
0
  6
CONTINUOUS
  2
DC_GROUP_123
 10
0.0
 20
0.0
 30
0.0
  0
INSERT
  5
B46
  8
0
  6
CONTINUOUS
  2
DC_GROUP_124
 10
0.0
 20
0.0
 30
0.0
  0
INSERT
  5
B47
  8
0
  6
CONTINUOUS
  2
DC_GROUP_125
 10
0.0
 20
0.0
 30
0.0
  0
INSERT
  5
B48
  8
0
  6
CONTINUOUS
  2
DC_GROUP_126
 10
0.0
 20
0.0
 30
0.0
  0
INSERT
  5
B49
  8
0
  6
CONTINUOUS
  2
DC_GROUP_127
 10
0.0
 20
0.0
 30
0.0
  0
INSERT
  5
B4A
  8
0
  6
CONTINUOUS
  2
DC_GROUP_128
 10
0.0
 20
0.0
 30
0.0
  0
INSERT
  5
B4B
  8
0
  6
CONTINUOUS
  2
DC_GROUP_129
 10
0.0
 20
0.0
 30
0.0
  0
INSERT
  5
B4C
  8
0
  6
CONTINUOUS
  2
DC_GROUP_130
 10
0.0
 20
0.0
 30
0.0
  0
INSERT
  5
B4D
  8
0
  6
CONTINUOUS
  2
DC_GROUP_131
 10
0.0
 20
0.0
 30
0.0
  0
INSERT
  5
B4E
  8
0
  6
CONTINUOUS
  2
DC_GROUP_132
 10
0.0
 20
0.0
 30
0.0
  0
INSERT
  5
B4F
  8
0
  6
CONTINUOUS
  2
DC_GROUP_133
 10
0.0
 20
0.0
 30
0.0
  0
INSERT
  5
B50
  8
0
  6
CONTINUOUS
  2
DC_GROUP_134
 10
0.0
 20
0.0
 30
0.0
  0
INSERT
  5
B51
  8
0
  6
CONTINUOUS
  2
DC_GROUP_135
 10
0.0
 20
0.0
 30
0.0
  0
INSERT
  5
B52
  8
0
  6
CONTINUOUS
  2
DC_GROUP_136
 10
0.0
 20
0.0
 30
0.0
  0
INSERT
  5
B53
  8
0
  6
CONTINUOUS
  2
DC_GROUP_137
 10
0.0
 20
0.0
 30
0.0
  0
INSERT
  5
B54
  8
0
  6
CONTINUOUS
  2
DC_GROUP_138
 10
0.0
 20
0.0
 30
0.0
  0
INSERT
  5
B55
  8
0
  6
CONTINUOUS
  2
DC_GROUP_139
 10
0.0
 20
0.0
 30
0.0
  0
INSERT
  5
B56
  8
0
  6
CONTINUOUS
  2
DC_GROUP_140
 10
0.0
 20
0.0
 30
0.0
  0
INSERT
  5
B57
  8
0
  6
CONTINUOUS
  2
DC_GROUP_141
 10
0.0
 20
0.0
 30
0.0
  0
INSERT
  5
B58
  8
0
  6
CONTINUOUS
  2
DC_GROUP_142
 10
0.0
 20
0.0
 30
0.0
  0
INSERT
  5
B59
  8
0
  6
CONTINUOUS
  2
DC_GROUP_143
 10
0.0
 20
0.0
 30
0.0
  0
INSERT
  5
B5A
  8
0
  6
CONTINUOUS
  2
DC_GROUP_144
 10
0.0
 20
0.0
 30
0.0
  0
INSERT
  5
B5B
  8
0
  6
CONTINUOUS
  2
DC_GROUP_145
 10
0.0
 20
0.0
 30
0.0
  0
INSERT
  5
B5C
  8
0
  6
CONTINUOUS
  2
DC_GROUP_146
 10
0.0
 20
0.0
 30
0.0
  0
INSERT
  5
B5D
  8
0
  6
CONTINUOUS
  2
DC_GROUP_147
 10
0.0
 20
0.0
 30
0.0
  0
INSERT
  5
B5E
  8
0
  6
CONTINUOUS
  2
DC_GROUP_148
 10
0.0
 20
0.0
 30
0.0
  0
INSERT
  5
B5F
  8
0
  6
CONTINUOUS
  2
DC_GROUP_149
 10
0.0
 20
0.0
 30
0.0
  0
INSERT
  5
B60
  8
0
  6
CONTINUOUS
  2
DC_GROUP_150
 10
0.0
 20
0.0
 30
0.0
  0
INSERT
  5
B61
  8
0
  6
CONTINUOUS
  2
DC_GROUP_151
 10
0.0
 20
0.0
 30
0.0
  0
INSERT
  5
B62
  8
0
  6
CONTINUOUS
  2
DC_GROUP_152
 10
0.0
 20
0.0
 30
0.0
  0
INSERT
  5
B63
  8
0
  6
CONTINUOUS
  2
DC_GROUP_153
 10
0.0
 20
0.0
 30
0.0
  0
INSERT
  5
B64
  8
0
  6
CONTINUOUS
  2
DC_GROUP_154
 10
0.0
 20
0.0
 30
0.0
  0
INSERT
  5
B65
  8
0
  6
CONTINUOUS
  2
DC_GROUP_155
 10
0.0
 20
0.0
 30
0.0
  0
INSERT
  5
B66
  8
0
  6
CONTINUOUS
  2
DC_GROUP_156
 10
0.0
 20
0.0
 30
0.0
  0
INSERT
  5
B67
  8
0
  6
CONTINUOUS
  2
DC_GROUP_157
 10
0.0
 20
0.0
 30
0.0
  0
INSERT
  5
B68
  8
0
  6
CONTINUOUS
  2
DC_GROUP_158
 10
0.0
 20
0.0
 30
0.0
  0
INSERT
  5
B69
  8
0
  6
CONTINUOUS
  2
DC_GROUP_159
 10
0.0
 20
0.0
 30
0.0
  0
INSERT
  5
B6A
  8
0
  6
CONTINUOUS
  2
DC_GROUP_160
 10
0.0
 20
0.0
 30
0.0
  0
INSERT
  5
B6B
  8
0
  6
CONTINUOUS
  2
DC_GROUP_161
 10
0.0
 20
0.0
 30
0.0
  0
INSERT
  5
B6C
  8
0
  6
CONTINUOUS
  2
DC_GROUP_162
 10
0.0
 20
0.0
 30
0.0
  0
INSERT
  5
B6D
  8
0
  6
CONTINUOUS
  2
DC_GROUP_163
 10
0.0
 20
0.0
 30
0.0
  0
INSERT
  5
B6E
  8
0
  6
CONTINUOUS
  2
DC_GROUP_164
 10
0.0
 20
0.0
 30
0.0
  0
INSERT
  5
B6F
  8
0
  6
CONTINUOUS
  2
DC_GROUP_165
 10
0.0
 20
0.0
 30
0.0
  0
INSERT
  5
B70
  8
0
  6
CONTINUOUS
  2
DC_GROUP_166
 10
0.0
 20
0.0
 30
0.0
  0
INSERT
  5
B71
  8
0
  6
CONTINUOUS
  2
DC_GROUP_167
 10
0.0
 20
0.0
 30
0.0
  0
INSERT
  5
B72
  8
0
  6
CONTINUOUS
  2
DC_GROUP_168
 10
0.0
 20
0.0
 30
0.0
  0
INSERT
  5
B73
  8
0
  6
CONTINUOUS
  2
DC_GROUP_169
 10
0.0
 20
0.0
 30
0.0
  0
INSERT
  5
B74
  8
0
  6
CONTINUOUS
  2
DC_GROUP_170
 10
0.0
 20
0.0
 30
0.0
  0
INSERT
  5
B75
  8
0
  6
CONTINUOUS
  2
DC_GROUP_171
 10
0.0
 20
0.0
 30
0.0
  0
INSERT
  5
B76
  8
0
  6
CONTINUOUS
  2
DC_GROUP_172
 10
0.0
 20
0.0
 30
0.0
  0
INSERT
  5
B77
  8
0
  6
CONTINUOUS
  2
DC_GROUP_173
 10
0.0
 20
0.0
 30
0.0
  0
INSERT
  5
B78
  8
0
  6
CONTINUOUS
  2
DC_GROUP_174
 10
0.0
 20
0.0
 30
0.0
  0
INSERT
  5
B79
  8
0
  6
CONTINUOUS
  2
DC_GROUP_175
 10
0.0
 20
0.0
 30
0.0
  0
INSERT
  5
B7A
  8
0
  6
CONTINUOUS
  2
DC_GROUP_176
 10
0.0
 20
0.0
 30
0.0
  0
INSERT
  5
B7B
  8
0
  6
CONTINUOUS
  2
DC_GROUP_177
 10
0.0
 20
0.0
 30
0.0
  0
INSERT
  5
B7C
  8
0
  6
CONTINUOUS
  2
DC_GROUP_178
 10
0.0
 20
0.0
 30
0.0
  0
INSERT
  5
B7D
  8
0
  6
CONTINUOUS
  2
DC_GROUP_179
 10
0.0
 20
0.0
 30
0.0
  0
INSERT
  5
B7E
  8
0
  6
CONTINUOUS
  2
DC_GROUP_180
 10
0.0
 20
0.0
 30
0.0
  0
INSERT
  5
B7F
  8
0
  6
CONTINUOUS
  2
DC_GROUP_181
 10
0.0
 20
0.0
 30
0.0
  0
INSERT
  5
B80
  8
0
  6
CONTINUOUS
  2
DC_GROUP_182
 10
0.0
 20
0.0
 30
0.0
  0
INSERT
  5
B81
  8
0
  6
CONTINUOUS
  2
DC_GROUP_183
 10
0.0
 20
0.0
 30
0.0
  0
INSERT
  5
B82
  8
0
  6
CONTINUOUS
  2
DC_GROUP_184
 10
0.0
 20
0.0
 30
0.0
  0
INSERT
  5
B83
  8
0
  6
CONTINUOUS
  2
DC_GROUP_185
 10
0.0
 20
0.0
 30
0.0
  0
INSERT
  5
B84
  8
0
  6
CONTINUOUS
  2
DC_GROUP_186
 10
0.0
 20
0.0
 30
0.0
  0
INSERT
  5
B85
  8
0
  6
CONTINUOUS
  2
DC_GROUP_187
 10
0.0
 20
0.0
 30
0.0
  0
INSERT
  5
B86
  8
0
  6
CONTINUOUS
  2
DC_GROUP_188
 10
0.0
 20
0.0
 30
0.0
  0
INSERT
  5
B87
  8
0
  6
CONTINUOUS
  2
DC_GROUP_189
 10
0.0
 20
0.0
 30
0.0
  0
INSERT
  5
B88
  8
0
  6
CONTINUOUS
  2
DC_GROUP_190
 10
0.0
 20
0.0
 30
0.0
  0
INSERT
  5
B89
  8
0
  6
CONTINUOUS
  2
DC_GROUP_191
 10
0.0
 20
0.0
 30
0.0
  0
INSERT
  5
B8A
  8
0
  6
CONTINUOUS
  2
DC_GROUP_192
 10
0.0
 20
0.0
 30
0.0
  0
INSERT
  5
B8B
  8
0
  6
CONTINUOUS
  2
DC_GROUP_193
 10
0.0
 20
0.0
 30
0.0
  0
INSERT
  5
B8C
  8
0
  6
CONTINUOUS
  2
DC_GROUP_194
 10
0.0
 20
0.0
 30
0.0
  0
INSERT
  5
B8D
  8
0
  6
CONTINUOUS
  2
DC_GROUP_195
 10
0.0
 20
0.0
 30
0.0
  0
INSERT
  5
B8E
  8
0
  6
CONTINUOUS
  2
DC_GROUP_196
 10
0.0
 20
0.0
 30
0.0
  0
INSERT
  5
B8F
  8
0
  6
CONTINUOUS
  2
DC_GROUP_197
 10
0.0
 20
0.0
 30
0.0
  0
INSERT
  5
B90
  8
0
  6
CONTINUOUS
  2
DC_GROUP_198
 10
0.0
 20
0.0
 30
0.0
  0
INSERT
  5
B91
  8
0
  6
CONTINUOUS
  2
DC_GROUP_199
 10
0.0
 20
0.0
 30
0.0
  0
INSERT
  5
B92
  8
0
  6
CONTINUOUS
  2
DC_GROUP_200
 10
0.0
 20
0.0
 30
0.0
  0
INSERT
  5
B93
  8
0
  6
CONTINUOUS
  2
DC_GROUP_201
 10
0.0
 20
0.0
 30
0.0
  0
INSERT
  5
B94
  8
0
  6
CONTINUOUS
  2
DC_GROUP_202
 10
0.0
 20
0.0
 30
0.0
  0
INSERT
  5
B95
  8
0
  6
CONTINUOUS
  2
DC_GROUP_203
 10
0.0
 20
0.0
 30
0.0
  0
INSERT
  5
B96
  8
0
  6
CONTINUOUS
  2
DC_GROUP_204
 10
0.0
 20
0.0
 30
0.0
  0
INSERT
  5
B97
  8
0
  6
CONTINUOUS
  2
DC_GROUP_205
 10
0.0
 20
0.0
 30
0.0
  0
INSERT
  5
B98
  8
0
  6
CONTINUOUS
  2
DC_GROUP_206
 10
0.0
 20
0.0
 30
0.0
  0
INSERT
  5
B99
  8
0
  6
CONTINUOUS
  2
DC_GROUP_207
 10
0.0
 20
0.0
 30
0.0
  0
INSERT
  5
B9A
  8
0
  6
CONTINUOUS
  2
DC_GROUP_208
 10
0.0
 20
0.0
 30
0.0
  0
INSERT
  5
B9B
  8
0
  6
CONTINUOUS
  2
DC_GROUP_209
 10
0.0
 20
0.0
 30
0.0
  0
INSERT
  5
B9C
  8
0
  6
CONTINUOUS
  2
DC_GROUP_210
 10
0.0
 20
0.0
 30
0.0
  0
INSERT
  5
B9D
  8
0
  6
CONTINUOUS
  2
DC_GROUP_211
 10
0.0
 20
0.0
 30
0.0
  0
INSERT
  5
B9E
  8
0
  6
CONTINUOUS
  2
DC_GROUP_212
 10
0.0
 20
0.0
 30
0.0
  0
INSERT
  5
B9F
  8
0
  6
CONTINUOUS
  2
DC_GROUP_213
 10
0.0
 20
0.0
 30
0.0
  0
INSERT
  5
BA0
  8
0
  6
CONTINUOUS
  2
DC_GROUP_214
 10
0.0
 20
0.0
 30
0.0
  0
INSERT
  5
BA1
  8
0
  6
CONTINUOUS
  2
DC_GROUP_215
 10
0.0
 20
0.0
 30
0.0
  0
INSERT
  5
BA2
  8
0
  6
CONTINUOUS
  2
DC_GROUP_216
 10
0.0
 20
0.0
 30
0.0
  0
INSERT
  5
BA3
  8
0
  6
CONTINUOUS
  2
DC_GROUP_217
 10
0.0
 20
0.0
 30
0.0
  0
INSERT
  5
BA4
  8
0
  6
CONTINUOUS
  2
DC_GROUP_218
 10
0.0
 20
0.0
 30
0.0
  0
INSERT
  5
BA5
  8
0
  6
CONTINUOUS
  2
DC_GROUP_219
 10
0.0
 20
0.0
 30
0.0
  0
INSERT
  5
BA6
  8
0
  6
CONTINUOUS
  2
DC_GROUP_220
 10
0.0
 20
0.0
 30
0.0
  0
INSERT
  5
BA7
  8
0
  6
CONTINUOUS
  2
DC_GROUP_221
 10
0.0
 20
0.0
 30
0.0
  0
INSERT
  5
BA8
  8
0
  6
CONTINUOUS
  2
DC_GROUP_222
 10
0.0
 20
0.0
 30
0.0
  0
INSERT
  5
BA9
  8
0
  6
CONTINUOUS
  2
DC_GROUP_223
 10
0.0
 20
0.0
 30
0.0
  0
INSERT
  5
BAA
  8
0
  6
CONTINUOUS
  2
DC_GROUP_224
 10
0.0
 20
0.0
 30
0.0
  0
INSERT
  5
BAB
  8
0
  6
CONTINUOUS
  2
DC_GROUP_225
 10
0.0
 20
0.0
 30
0.0
  0
INSERT
  5
BAC
  8
0
  6
CONTINUOUS
  2
DC_GROUP_226
 10
0.0
 20
0.0
 30
0.0
  0
INSERT
  5
BAD
  8
0
  6
CONTINUOUS
  2
DC_GROUP_227
 10
0.0
 20
0.0
 30
0.0
  0
INSERT
  5
BAE
  8
0
  6
CONTINUOUS
  2
DC_GROUP_228
 10
0.0
 20
0.0
 30
0.0
  0
INSERT
  5
BAF
  8
0
  6
CONTINUOUS
  2
DC_GROUP_229
 10
0.0
 20
0.0
 30
0.0
  0
INSERT
  5
BB0
  8
0
  6
CONTINUOUS
  2
DC_GROUP_230
 10
0.0
 20
0.0
 30
0.0
  0
INSERT
  5
BB1
  8
0
  6
CONTINUOUS
  2
DC_GROUP_231
 10
0.0
 20
0.0
 30
0.0
  0
INSERT
  5
BB2
  8
0
  6
CONTINUOUS
  2
DC_GROUP_232
 10
0.0
 20
0.0
 30
0.0
  0
INSERT
  5
BB3
  8
0
  6
CONTINUOUS
  2
DC_GROUP_233
 10
0.0
 20
0.0
 30
0.0
  0
INSERT
  5
BB4
  8
0
  6
CONTINUOUS
  2
DC_GROUP_234
 10
0.0
 20
0.0
 30
0.0
  0
INSERT
  5
BB5
  8
0
  6
CONTINUOUS
  2
DC_GROUP_235
 10
0.0
 20
0.0
 30
0.0
  0
INSERT
  5
BB6
  8
0
  6
CONTINUOUS
  2
DC_GROUP_236
 10
0.0
 20
0.0
 30
0.0
  0
INSERT
  5
BB7
  8
0
  6
CONTINUOUS
  2
DC_GROUP_237
 10
0.0
 20
0.0
 30
0.0
  0
INSERT
  5
BB8
  8
0
  6
CONTINUOUS
  2
DC_GROUP_238
 10
0.0
 20
0.0
 30
0.0
  0
INSERT
  5
BB9
  8
0
  6
CONTINUOUS
  2
DC_GROUP_239
 10
0.0
 20
0.0
 30
0.0
  0
INSERT
  5
BBA
  8
0
  6
CONTINUOUS
  2
DC_GROUP_240
 10
0.0
 20
0.0
 30
0.0
  0
INSERT
  5
BBB
  8
0
  6
CONTINUOUS
  2
DC_GROUP_241
 10
0.0
 20
0.0
 30
0.0
  0
INSERT
  5
BBC
  8
0
  6
CONTINUOUS
  2
DC_GROUP_242
 10
0.0
 20
0.0
 30
0.0
  0
INSERT
  5
BBD
  8
0
  6
CONTINUOUS
  2
DC_GROUP_243
 10
0.0
 20
0.0
 30
0.0
  0
INSERT
  5
BBE
  8
0
  6
CONTINUOUS
  2
DC_GROUP_244
 10
0.0
 20
0.0
 30
0.0
  0
INSERT
  5
BBF
  8
0
  6
CONTINUOUS
  2
DC_GROUP_245
 10
0.0
 20
0.0
 30
0.0
  0
INSERT
  5
BC0
  8
0
  6
CONTINUOUS
  2
DC_GROUP_246
 10
0.0
 20
0.0
 30
0.0
  0
INSERT
  5
BC1
  8
0
  6
CONTINUOUS
  2
DC_GROUP_247
 10
0.0
 20
0.0
 30
0.0
  0
INSERT
  5
BC2
  8
0
  6
CONTINUOUS
  2
DC_GROUP_248
 10
0.0
 20
0.0
 30
0.0
  0
INSERT
  5
BC3
  8
0
  6
CONTINUOUS
  2
DC_GROUP_249
 10
0.0
 20
0.0
 30
0.0
  0
INSERT
  5
BC4
  8
0
  6
CONTINUOUS
  2
DC_GROUP_250
 10
0.0
 20
0.0
 30
0.0
  0
INSERT
  5
BC5
  8
0
  6
CONTINUOUS
  2
DC_GROUP_251
 10
0.0
 20
0.0
 30
0.0
  0
INSERT
  5
BC6
  8
0
  6
CONTINUOUS
  2
DC_GROUP_252
 10
0.0
 20
0.0
 30
0.0
  0
INSERT
  5
BC7
  8
0
  6
CONTINUOUS
  2
DC_GROUP_253
 10
0.0
 20
0.0
 30
0.0
  0
INSERT
  5
BC8
  8
0
  6
CONTINUOUS
  2
DC_GROUP_254
 10
0.0
 20
0.0
 30
0.0
  0
INSERT
  5
BC9
  8
0
  6
CONTINUOUS
  2
DC_GROUP_255
 10
0.0
 20
0.0
 30
0.0
  0
INSERT
  5
BCA
  8
0
  6
CONTINUOUS
  2
DC_GROUP_256
 10
0.0
 20
0.0
 30
0.0
  0
INSERT
  5
BCB
  8
0
  6
CONTINUOUS
  2
DC_GROUP_257
 10
0.0
 20
0.0
 30
0.0
  0
INSERT
  5
BCC
  8
0
  6
CONTINUOUS
  2
DC_GROUP_258
 10
0.0
 20
0.0
 30
0.0
  0
INSERT
  5
BCD
  8
0
  6
CONTINUOUS
  2
DC_GROUP_259
 10
0.0
 20
0.0
 30
0.0
  0
INSERT
  5
BCE
  8
0
  6
CONTINUOUS
  2
DC_GROUP_260
 10
0.0
 20
0.0
 30
0.0
  0
INSERT
  5
BCF
  8
0
  6
CONTINUOUS
  2
DC_GROUP_261
 10
0.0
 20
0.0
 30
0.0
  0
INSERT
  5
BD0
  8
0
  6
CONTINUOUS
  2
DC_GROUP_262
 10
0.0
 20
0.0
 30
0.0
  0
INSERT
  5
BD1
  8
0
  6
CONTINUOUS
  2
DC_GROUP_263
 10
0.0
 20
0.0
 30
0.0
  0
INSERT
  5
BD2
  8
0
  6
CONTINUOUS
  2
DC_GROUP_264
 10
0.0
 20
0.0
 30
0.0
  0
INSERT
  5
BD3
  8
0
  6
CONTINUOUS
  2
DC_GROUP_265
 10
0.0
 20
0.0
 30
0.0
  0
INSERT
  5
BD4
  8
0
  6
CONTINUOUS
  2
DC_GROUP_266
 10
0.0
 20
0.0
 30
0.0
  0
INSERT
  5
BD5
  8
0
  6
CONTINUOUS
  2
DC_GROUP_267
 10
0.0
 20
0.0
 30
0.0
  0
INSERT
  5
BD6
  8
0
  6
CONTINUOUS
  2
DC_GROUP_268
 10
0.0
 20
0.0
 30
0.0
  0
INSERT
  5
BD7
  8
0
  6
CONTINUOUS
  2
DC_GROUP_269
 10
0.0
 20
0.0
 30
0.0
  0
INSERT
  5
BD8
  8
0
  6
CONTINUOUS
  2
DC_GROUP_270
 10
0.0
 20
0.0
 30
0.0
  0
INSERT
  5
BD9
  8
0
  6
CONTINUOUS
  2
DC_GROUP_271
 10
0.0
 20
0.0
 30
0.0
  0
INSERT
  5
BDA
  8
0
  6
CONTINUOUS
  2
DC_GROUP_272
 10
0.0
 20
0.0
 30
0.0
  0
INSERT
  5
BDB
  8
0
  6
CONTINUOUS
  2
DC_GROUP_273
 10
0.0
 20
0.0
 30
0.0
  0
INSERT
  5
BDC
  8
0
  6
CONTINUOUS
  2
DC_GROUP_274
 10
0.0
 20
0.0
 30
0.0
  0
INSERT
  5
BDD
  8
0
  6
CONTINUOUS
  2
DC_GROUP_275
 10
0.0
 20
0.0
 30
0.0
  0
INSERT
  5
BDE
  8
0
  6
CONTINUOUS
  2
DC_GROUP_276
 10
0.0
 20
0.0
 30
0.0
  0
INSERT
  5
BDF
  8
0
  6
CONTINUOUS
  2
DC_GROUP_277
 10
0.0
 20
0.0
 30
0.0
  0
INSERT
  5
BE0
  8
0
  6
CONTINUOUS
  2
DC_GROUP_278
 10
0.0
 20
0.0
 30
0.0
  0
INSERT
  5
BE1
  8
0
  6
CONTINUOUS
  2
DC_GROUP_279
 10
0.0
 20
0.0
 30
0.0
  0
INSERT
  5
BE2
  8
0
  6
CONTINUOUS
  2
DC_GROUP_280
 10
0.0
 20
0.0
 30
0.0
  0
INSERT
  5
BE3
  8
0
  6
CONTINUOUS
  2
DC_GROUP_281
 10
0.0
 20
0.0
 30
0.0
  0
INSERT
  5
BE4
  8
0
  6
CONTINUOUS
  2
DC_GROUP_282
 10
0.0
 20
0.0
 30
0.0
  0
INSERT
  5
BE5
  8
0
  6
CONTINUOUS
  2
DC_GROUP_283
 10
0.0
 20
0.0
 30
0.0
  0
INSERT
  5
BE6
  8
0
  6
CONTINUOUS
  2
DC_GROUP_284
 10
0.0
 20
0.0
 30
0.0
  0
INSERT
  5
BE7
  8
0
  6
CONTINUOUS
  2
DC_GROUP_285
 10
0.0
 20
0.0
 30
0.0
  0
INSERT
  5
BE8
  8
0
  6
CONTINUOUS
  2
DC_GROUP_286
 10
0.0
 20
0.0
 30
0.0
  0
INSERT
  5
BE9
  8
0
  6
CONTINUOUS
  2
DC_GROUP_287
 10
0.0
 20
0.0
 30
0.0
  0
INSERT
  5
BEA
  8
0
  6
CONTINUOUS
  2
DC_GROUP_288
 10
0.0
 20
0.0
 30
0.0
  0
INSERT
  5
BEB
  8
0
  6
CONTINUOUS
  2
DC_GROUP_289
 10
0.0
 20
0.0
 30
0.0
  0
INSERT
  5
BEC
  8
0
  6
CONTINUOUS
  2
DC_GROUP_290
 10
0.0
 20
0.0
 30
0.0
  0
INSERT
  5
BED
  8
0
  6
CONTINUOUS
  2
DC_GROUP_291
 10
0.0
 20
0.0
 30
0.0
  0
INSERT
  5
BEE
  8
0
  6
CONTINUOUS
  2
DC_GROUP_292
 10
0.0
 20
0.0
 30
0.0
  0
INSERT
  5
BEF
  8
0
  6
CONTINUOUS
  2
DC_GROUP_293
 10
0.0
 20
0.0
 30
0.0
  0
INSERT
  5
BF0
  8
0
  6
CONTINUOUS
  2
DC_GROUP_294
 10
0.0
 20
0.0
 30
0.0
  0
INSERT
  5
BF1
  8
0
  6
CONTINUOUS
  2
DC_GROUP_295
 10
0.0
 20
0.0
 30
0.0
  0
INSERT
  5
BF2
  8
0
  6
CONTINUOUS
  2
DC_GROUP_296
 10
0.0
 20
0.0
 30
0.0
  0
INSERT
  5
BF3
  8
0
  6
CONTINUOUS
  2
DC_GROUP_297
 10
0.0
 20
0.0
 30
0.0
  0
INSERT
  5
BF4
  8
0
  6
CONTINUOUS
  2
DC_GROUP_298
 10
0.0
 20
0.0
 30
0.0
  0
INSERT
  5
BF5
  8
0
  6
CONTINUOUS
  2
DC_GROUP_299
 10
0.0
 20
0.0
 30
0.0
  0
INSERT
  5
BF6
  8
0
  6
CONTINUOUS
  2
DC_GROUP_300
 10
0.0
 20
0.0
 30
0.0
  0
INSERT
  5
BF7
  8
0
  6
CONTINUOUS
  2
DC_GROUP_301
 10
0.0
 20
0.0
 30
0.0
  0
INSERT
  5
BF8
  8
0
  6
CONTINUOUS
  2
DC_GROUP_302
 10
0.0
 20
0.0
 30
0.0
  0
INSERT
  5
BF9
  8
0
  6
CONTINUOUS
  2
DC_GROUP_303
 10
0.0
 20
0.0
 30
0.0
  0
INSERT
  5
BFA
  8
0
  6
CONTINUOUS
  2
DC_GROUP_304
 10
0.0
 20
0.0
 30
0.0
  0
INSERT
  5
BFB
  8
0
  6
CONTINUOUS
  2
DC_GROUP_305
 10
0.0
 20
0.0
 30
0.0
  0
INSERT
  5
BFC
  8
0
  6
CONTINUOUS
  2
DC_GROUP_306
 10
0.0
 20
0.0
 30
0.0
  0
INSERT
  5
BFD
  8
0
  6
CONTINUOUS
  2
DC_GROUP_307
 10
0.0
 20
0.0
 30
0.0
  0
INSERT
  5
BFE
  8
0
  6
CONTINUOUS
  2
DC_GROUP_308
 10
0.0
 20
0.0
 30
0.0
  0
INSERT
  5
BFF
  8
0
  6
CONTINUOUS
  2
DC_GROUP_309
 10
0.0
 20
0.0
 30
0.0
  0
INSERT
  5
C00
  8
0
  6
CONTINUOUS
  2
DC_GROUP_310
 10
0.0
 20
0.0
 30
0.0
  0
INSERT
  5
C01
  8
0
  6
CONTINUOUS
  2
DC_GROUP_311
 10
0.0
 20
0.0
 30
0.0
  0
INSERT
  5
C02
  8
0
  6
CONTINUOUS
  2
DC_GROUP_312
 10
0.0
 20
0.0
 30
0.0
  0
INSERT
  5
C03
  8
0
  6
CONTINUOUS
  2
DC_GROUP_313
 10
0.0
 20
0.0
 30
0.0
  0
INSERT
  5
C04
  8
0
  6
CONTINUOUS
  2
DC_GROUP_314
 10
0.0
 20
0.0
 30
0.0
  0
INSERT
  5
C05
  8
0
  6
CONTINUOUS
  2
DC_GROUP_315
 10
0.0
 20
0.0
 30
0.0
  0
INSERT
  5
C06
  8
0
  6
CONTINUOUS
  2
DC_GROUP_316
 10
0.0
 20
0.0
 30
0.0
  0
INSERT
  5
C07
  8
0
  6
CONTINUOUS
  2
DC_GROUP_317
 10
0.0
 20
0.0
 30
0.0
  0
INSERT
  5
C08
  8
0
  6
CONTINUOUS
  2
DC_GROUP_318
 10
0.0
 20
0.0
 30
0.0
  0
INSERT
  5
C09
  8
0
  6
CONTINUOUS
  2
DC_GROUP_319
 10
0.0
 20
0.0
 30
0.0
  0
INSERT
  5
C0A
  8
0
  6
CONTINUOUS
  2
DC_GROUP_320
 10
0.0
 20
0.0
 30
0.0
  0
INSERT
  5
C0B
  8
0
  6
CONTINUOUS
  2
DC_GROUP_321
 10
0.0
 20
0.0
 30
0.0
  0
INSERT
  5
C0C
  8
0
  6
CONTINUOUS
  2
DC_GROUP_322
 10
0.0
 20
0.0
 30
0.0
  0
INSERT
  5
C0D
  8
0
  6
CONTINUOUS
  2
DC_GROUP_323
 10
0.0
 20
0.0
 30
0.0
  0
INSERT
  5
C0E
  8
0
  6
CONTINUOUS
  2
DC_GROUP_324
 10
0.0
 20
0.0
 30
0.0
  0
INSERT
  5
C0F
  8
0
  6
CONTINUOUS
  2
DC_GROUP_325
 10
0.0
 20
0.0
 30
0.0
  0
INSERT
  5
C10
  8
0
  6
CONTINUOUS
  2
DC_GROUP_326
 10
0.0
 20
0.0
 30
0.0
  0
INSERT
  5
C11
  8
0
  6
CONTINUOUS
  2
DC_GROUP_327
 10
0.0
 20
0.0
 30
0.0
  0
INSERT
  5
C12
  8
0
  6
CONTINUOUS
  2
DC_GROUP_328
 10
0.0
 20
0.0
 30
0.0
  0
INSERT
  5
C13
  8
0
  6
CONTINUOUS
  2
DC_GROUP_329
 10
0.0
 20
0.0
 30
0.0
  0
INSERT
  5
C14
  8
0
  6
CONTINUOUS
  2
DC_GROUP_330
 10
0.0
 20
0.0
 30
0.0
  0
INSERT
  5
C15
  8
0
  6
CONTINUOUS
  2
DC_GROUP_331
 10
0.0
 20
0.0
 30
0.0
  0
INSERT
  5
C16
  8
0
  6
CONTINUOUS
  2
DC_GROUP_332
 10
0.0
 20
0.0
 30
0.0
  0
INSERT
  5
C17
  8
0
  6
CONTINUOUS
  2
DC_GROUP_333
 10
0.0
 20
0.0
 30
0.0
  0
INSERT
  5
C18
  8
0
  6
CONTINUOUS
  2
DC_GROUP_334
 10
0.0
 20
0.0
 30
0.0
  0
INSERT
  5
C19
  8
0
  6
CONTINUOUS
  2
DC_GROUP_335
 10
0.0
 20
0.0
 30
0.0
  0
INSERT
  5
C1A
  8
0
  6
CONTINUOUS
  2
DC_GROUP_336
 10
0.0
 20
0.0
 30
0.0
  0
INSERT
  5
C1B
  8
0
  6
CONTINUOUS
  2
DC_GROUP_337
 10
0.0
 20
0.0
 30
0.0
  0
INSERT
  5
C1C
  8
0
  6
CONTINUOUS
  2
DC_GROUP_338
 10
0.0
 20
0.0
 30
0.0
  0
INSERT
  5
C1D
  8
0
  6
CONTINUOUS
  2
DC_GROUP_339
 10
0.0
 20
0.0
 30
0.0
  0
INSERT
  5
C1E
  8
0
  6
CONTINUOUS
  2
DC_GROUP_340
 10
0.0
 20
0.0
 30
0.0
  0
INSERT
  5
C1F
  8
0
  6
CONTINUOUS
  2
DC_GROUP_341
 10
0.0
 20
0.0
 30
0.0
  0
INSERT
  5
C20
  8
0
  6
CONTINUOUS
  2
DC_GROUP_342
 10
0.0
 20
0.0
 30
0.0
  0
INSERT
  5
C21
  8
0
  6
CONTINUOUS
  2
DC_GROUP_343
 10
0.0
 20
0.0
 30
0.0
  0
INSERT
  5
C22
  8
0
  6
CONTINUOUS
  2
DC_GROUP_344
 10
0.0
 20
0.0
 30
0.0
  0
INSERT
  5
C23
  8
0
  6
CONTINUOUS
  2
DC_GROUP_345
 10
0.0
 20
0.0
 30
0.0
  0
INSERT
  5
C24
  8
0
  6
CONTINUOUS
  2
DC_GROUP_346
 10
0.0
 20
0.0
 30
0.0
  0
INSERT
  5
C25
  8
0
  6
CONTINUOUS
  2
DC_GROUP_347
 10
0.0
 20
0.0
 30
0.0
  0
INSERT
  5
C26
  8
0
  6
CONTINUOUS
  2
DC_GROUP_348
 10
0.0
 20
0.0
 30
0.0
  0
INSERT
  5
C27
  8
0
  6
CONTINUOUS
  2
DC_GROUP_349
 10
0.0
 20
0.0
 30
0.0
  0
INSERT
  5
C28
  8
0
  6
CONTINUOUS
  2
DC_GROUP_350
 10
0.0
 20
0.0
 30
0.0
  0
INSERT
  5
C29
  8
0
  6
CONTINUOUS
  2
DC_GROUP_351
 10
0.0
 20
0.0
 30
0.0
  0
INSERT
  5
C2A
  8
0
  6
CONTINUOUS
  2
DC_GROUP_352
 10
0.0
 20
0.0
 30
0.0
  0
INSERT
  5
C2B
  8
0
  6
CONTINUOUS
  2
DC_GROUP_353
 10
0.0
 20
0.0
 30
0.0
  0
INSERT
  5
C2C
  8
0
  6
CONTINUOUS
  2
DC_GROUP_354
 10
0.0
 20
0.0
 30
0.0
  0
INSERT
  5
C2D
  8
0
  6
CONTINUOUS
  2
DC_GROUP_355
 10
0.0
 20
0.0
 30
0.0
  0
INSERT
  5
C2E
  8
0
  6
CONTINUOUS
  2
DC_GROUP_356
 10
0.0
 20
0.0
 30
0.0
  0
INSERT
  5
C2F
  8
0
  6
CONTINUOUS
  2
DC_GROUP_357
 10
0.0
 20
0.0
 30
0.0
  0
INSERT
  5
C30
  8
0
  6
CONTINUOUS
  2
DC_GROUP_358
 10
0.0
 20
0.0
 30
0.0
  0
INSERT
  5
C31
  8
0
  6
CONTINUOUS
  2
DC_GROUP_359
 10
0.0
 20
0.0
 30
0.0
  0
INSERT
  5
C32
  8
0
  6
CONTINUOUS
  2
DC_GROUP_360
 10
0.0
 20
0.0
 30
0.0
  0
INSERT
  5
C33
  8
0
  6
CONTINUOUS
  2
DC_GROUP_361
 10
0.0
 20
0.0
 30
0.0
  0
INSERT
  5
C34
  8
0
  6
CONTINUOUS
  2
DC_GROUP_362
 10
0.0
 20
0.0
 30
0.0
  0
INSERT
  5
C35
  8
0
  6
CONTINUOUS
  2
DC_GROUP_363
 10
0.0
 20
0.0
 30
0.0
  0
INSERT
  5
C36
  8
0
  6
CONTINUOUS
  2
DC_GROUP_364
 10
0.0
 20
0.0
 30
0.0
  0
INSERT
  5
C37
  8
0
  6
CONTINUOUS
  2
DC_GROUP_365
 10
0.0
 20
0.0
 30
0.0
  0
INSERT
  5
C38
  8
0
  6
CONTINUOUS
  2
DC_GROUP_366
 10
0.0
 20
0.0
 30
0.0
  0
INSERT
  5
C39
  8
0
  6
CONTINUOUS
  2
DC_GROUP_367
 10
0.0
 20
0.0
 30
0.0
  0
INSERT
  5
C3A
  8
0
  6
CONTINUOUS
  2
DC_GROUP_368
 10
0.0
 20
0.0
 30
0.0
  0
INSERT
  5
C3B
  8
0
  6
CONTINUOUS
  2
DC_GROUP_369
 10
0.0
 20
0.0
 30
0.0
  0
INSERT
  5
C3C
  8
0
  6
CONTINUOUS
  2
DC_GROUP_370
 10
0.0
 20
0.0
 30
0.0
  0
INSERT
  5
C3D
  8
0
  6
CONTINUOUS
  2
DC_GROUP_371
 10
0.0
 20
0.0
 30
0.0
  0
INSERT
  5
C3E
  8
0
  6
CONTINUOUS
  2
DC_GROUP_372
 10
0.0
 20
0.0
 30
0.0
  0
INSERT
  5
C3F
  8
0
  6
CONTINUOUS
  2
DC_GROUP_373
 10
0.0
 20
0.0
 30
0.0
  0
INSERT
  5
C40
  8
0
  6
CONTINUOUS
  2
DC_GROUP_374
 10
0.0
 20
0.0
 30
0.0
  0
INSERT
  5
C41
  8
0
  6
CONTINUOUS
  2
DC_GROUP_375
 10
0.0
 20
0.0
 30
0.0
  0
INSERT
  5
C42
  8
0
  6
CONTINUOUS
  2
DC_GROUP_376
 10
0.0
 20
0.0
 30
0.0
  0
INSERT
  5
C43
  8
0
  6
CONTINUOUS
  2
DC_GROUP_377
 10
0.0
 20
0.0
 30
0.0
  0
INSERT
  5
C44
  8
0
  6
CONTINUOUS
  2
DC_GROUP_378
 10
0.0
 20
0.0
 30
0.0
  0
INSERT
  5
C45
  8
0
  6
CONTINUOUS
  2
DC_GROUP_379
 10
0.0
 20
0.0
 30
0.0
  0
INSERT
  5
C46
  8
0
  6
CONTINUOUS
  2
DC_GROUP_380
 10
0.0
 20
0.0
 30
0.0
  0
INSERT
  5
C47
  8
0
  6
CONTINUOUS
  2
DC_GROUP_381
 10
0.0
 20
0.0
 30
0.0
  0
INSERT
  5
C48
  8
0
  6
CONTINUOUS
  2
DC_GROUP_382
 10
0.0
 20
0.0
 30
0.0
  0
INSERT
  5
C49
  8
0
  6
CONTINUOUS
  2
DC_GROUP_383
 10
0.0
 20
0.0
 30
0.0
  0
INSERT
  5
C4A
  8
0
  6
CONTINUOUS
  2
DC_GROUP_384
 10
0.0
 20
0.0
 30
0.0
  0
INSERT
  5
C4B
  8
0
  6
CONTINUOUS
  2
DC_GROUP_385
 10
0.0
 20
0.0
 30
0.0
  0
INSERT
  5
C4C
  8
0
  6
CONTINUOUS
  2
DC_GROUP_386
 10
0.0
 20
0.0
 30
0.0
  0
INSERT
  5
C4D
  8
0
  6
CONTINUOUS
  2
DC_GROUP_387
 10
0.0
 20
0.0
 30
0.0
  0
INSERT
  5
C4E
  8
0
  6
CONTINUOUS
  2
DC_GROUP_388
 10
0.0
 20
0.0
 30
0.0
  0
INSERT
  5
C4F
  8
0
  6
CONTINUOUS
  2
DC_GROUP_389
 10
0.0
 20
0.0
 30
0.0
  0
INSERT
  5
C50
  8
0
  6
CONTINUOUS
  2
DC_GROUP_390
 10
0.0
 20
0.0
 30
0.0
  0
INSERT
  5
C51
  8
0
  6
CONTINUOUS
  2
DC_GROUP_391
 10
0.0
 20
0.0
 30
0.0
  0
INSERT
  5
C52
  8
0
  6
CONTINUOUS
  2
DC_GROUP_392
 10
0.0
 20
0.0
 30
0.0
  0
INSERT
  5
C53
  8
0
  6
CONTINUOUS
  2
DC_GROUP_393
 10
0.0
 20
0.0
 30
0.0
  0
INSERT
  5
C54
  8
0
  6
CONTINUOUS
  2
DC_GROUP_394
 10
0.0
 20
0.0
 30
0.0
  0
INSERT
  5
C55
  8
0
  6
CONTINUOUS
  2
DC_GROUP_395
 10
0.0
 20
0.0
 30
0.0
  0
INSERT
  5
C56
  8
0
  6
CONTINUOUS
  2
DC_GROUP_396
 10
0.0
 20
0.0
 30
0.0
  0
INSERT
  5
C57
  8
0
  6
CONTINUOUS
  2
DC_GROUP_397
 10
0.0
 20
0.0
 30
0.0
  0
INSERT
  5
C58
  8
0
  6
CONTINUOUS
  2
DC_GROUP_398
 10
0.0
 20
0.0
 30
0.0
  0
INSERT
  5
C59
  8
0
  6
CONTINUOUS
  2
DC_GROUP_399
 10
0.0
 20
0.0
 30
0.0
  0
INSERT
  5
C5A
  8
0
  6
CONTINUOUS
  2
DC_GROUP_400
 10
0.0
 20
0.0
 30
0.0
  0
INSERT
  5
C5B
  8
0
  6
CONTINUOUS
  2
DC_GROUP_401
 10
0.0
 20
0.0
 30
0.0
  0
INSERT
  5
C5C
  8
0
  6
CONTINUOUS
  2
DC_GROUP_402
 10
0.0
 20
0.0
 30
0.0
  0
INSERT
  5
C5D
  8
0
  6
CONTINUOUS
  2
DC_GROUP_403
 10
0.0
 20
0.0
 30
0.0
  0
INSERT
  5
C5E
  8
0
  6
CONTINUOUS
  2
DC_GROUP_404
 10
0.0
 20
0.0
 30
0.0
  0
INSERT
  5
C5F
  8
0
  6
CONTINUOUS
  2
DC_GROUP_405
 10
0.0
 20
0.0
 30
0.0
  0
INSERT
  5
C60
  8
0
  6
CONTINUOUS
  2
DC_GROUP_406
 10
0.0
 20
0.0
 30
0.0
  0
INSERT
  5
C61
  8
0
  6
CONTINUOUS
  2
DC_GROUP_407
 10
0.0
 20
0.0
 30
0.0
  0
INSERT
  5
C62
  8
0
  6
CONTINUOUS
  2
DC_GROUP_408
 10
0.0
 20
0.0
 30
0.0
  0
INSERT
  5
C63
  8
0
  6
CONTINUOUS
  2
DC_GROUP_409
 10
0.0
 20
0.0
 30
0.0
  0
INSERT
  5
C64
  8
0
  6
CONTINUOUS
  2
DC_GROUP_410
 10
0.0
 20
0.0
 30
0.0
  0
INSERT
  5
C65
  8
0
  6
CONTINUOUS
  2
DC_GROUP_411
 10
0.0
 20
0.0
 30
0.0
  0
INSERT
  5
C66
  8
0
  6
CONTINUOUS
  2
DC_GROUP_412
 10
0.0
 20
0.0
 30
0.0
  0
INSERT
  5
C67
  8
0
  6
CONTINUOUS
  2
DC_GROUP_413
 10
0.0
 20
0.0
 30
0.0
  0
INSERT
  5
C68
  8
0
  6
CONTINUOUS
  2
DC_GROUP_414
 10
0.0
 20
0.0
 30
0.0
  0
INSERT
  5
C69
  8
0
  6
CONTINUOUS
  2
DC_GROUP_415
 10
0.0
 20
0.0
 30
0.0
  0
INSERT
  5
C6A
  8
0
  6
CONTINUOUS
  2
DC_GROUP_416
 10
0.0
 20
0.0
 30
0.0
  0
INSERT
  5
C6B
  8
0
  6
CONTINUOUS
  2
DC_GROUP_417
 10
0.0
 20
0.0
 30
0.0
  0
INSERT
  5
C6C
  8
0
  6
CONTINUOUS
  2
DC_GROUP_418
 10
0.0
 20
0.0
 30
0.0
  0
INSERT
  5
C6D
  8
0
  6
CONTINUOUS
  2
DC_GROUP_419
 10
0.0
 20
0.0
 30
0.0
  0
INSERT
  5
C6E
  8
0
  6
CONTINUOUS
  2
DC_GROUP_420
 10
0.0
 20
0.0
 30
0.0
  0
INSERT
  5
C6F
  8
0
  6
CONTINUOUS
  2
DC_GROUP_421
 10
0.0
 20
0.0
 30
0.0
  0
INSERT
  5
C70
  8
0
  6
CONTINUOUS
  2
DC_GROUP_422
 10
0.0
 20
0.0
 30
0.0
  0
INSERT
  5
C71
  8
0
  6
CONTINUOUS
  2
DC_GROUP_423
 10
0.0
 20
0.0
 30
0.0
  0
INSERT
  5
C72
  8
0
  6
CONTINUOUS
  2
DC_GROUP_424
 10
0.0
 20
0.0
 30
0.0
  0
INSERT
  5
C73
  8
0
  6
CONTINUOUS
  2
DC_GROUP_425
 10
0.0
 20
0.0
 30
0.0
  0
INSERT
  5
C74
  8
0
  6
CONTINUOUS
  2
DC_GROUP_426
 10
0.0
 20
0.0
 30
0.0
  0
INSERT
  5
C75
  8
0
  6
CONTINUOUS
  2
DC_GROUP_427
 10
0.0
 20
0.0
 30
0.0
  0
INSERT
  5
C76
  8
0
  6
CONTINUOUS
  2
DC_GROUP_428
 10
0.0
 20
0.0
 30
0.0
  0
INSERT
  5
C77
  8
0
  6
CONTINUOUS
  2
DC_GROUP_429
 10
0.0
 20
0.0
 30
0.0
  0
INSERT
  5
C78
  8
0
  6
CONTINUOUS
  2
DC_GROUP_430
 10
0.0
 20
0.0
 30
0.0
  0
INSERT
  5
C79
  8
0
  6
CONTINUOUS
  2
DC_GROUP_431
 10
0.0
 20
0.0
 30
0.0
  0
INSERT
  5
C7A
  8
0
  6
CONTINUOUS
  2
DC_GROUP_432
 10
0.0
 20
0.0
 30
0.0
  0
INSERT
  5
C7B
  8
0
  6
CONTINUOUS
  2
DC_GROUP_433
 10
0.0
 20
0.0
 30
0.0
  0
INSERT
  5
C7C
  8
0
  6
CONTINUOUS
  2
DC_GROUP_434
 10
0.0
 20
0.0
 30
0.0
  0
INSERT
  5
C7D
  8
0
  6
CONTINUOUS
  2
DC_GROUP_435
 10
0.0
 20
0.0
 30
0.0
  0
INSERT
  5
C7E
  8
0
  6
CONTINUOUS
  2
DC_GROUP_436
 10
0.0
 20
0.0
 30
0.0
  0
INSERT
  5
C7F
  8
0
  6
CONTINUOUS
  2
DC_GROUP_437
 10
0.0
 20
0.0
 30
0.0
  0
INSERT
  5
C80
  8
0
  6
CONTINUOUS
  2
DC_GROUP_438
 10
0.0
 20
0.0
 30
0.0
  0
INSERT
  5
C81
  8
0
  6
CONTINUOUS
  2
DC_GROUP_439
 10
0.0
 20
0.0
 30
0.0
  0
INSERT
  5
C82
  8
0
  6
CONTINUOUS
  2
DC_GROUP_440
 10
0.0
 20
0.0
 30
0.0
  0
INSERT
  5
C83
  8
0
  6
CONTINUOUS
  2
DC_GROUP_441
 10
0.0
 20
0.0
 30
0.0
  0
INSERT
  5
C84
  8
0
  6
CONTINUOUS
  2
DC_GROUP_442
 10
0.0
 20
0.0
 30
0.0
  0
INSERT
  5
C85
  8
0
  6
CONTINUOUS
  2
DC_GROUP_443
 10
0.0
 20
0.0
 30
0.0
  0
INSERT
  5
C86
  8
0
  6
CONTINUOUS
  2
DC_GROUP_444
 10
0.0
 20
0.0
 30
0.0
  0
INSERT
  5
C87
  8
0
  6
CONTINUOUS
  2
DC_GROUP_445
 10
0.0
 20
0.0
 30
0.0
  0
INSERT
  5
C88
  8
0
  6
CONTINUOUS
  2
DC_GROUP_446
 10
0.0
 20
0.0
 30
0.0
  0
INSERT
  5
C89
  8
0
  6
CONTINUOUS
  2
DC_GROUP_447
 10
0.0
 20
0.0
 30
0.0
  0
INSERT
  5
C8A
  8
0
  6
CONTINUOUS
  2
DC_GROUP_448
 10
0.0
 20
0.0
 30
0.0
  0
INSERT
  5
C8B
  8
0
  6
CONTINUOUS
  2
DC_GROUP_449
 10
0.0
 20
0.0
 30
0.0
  0
INSERT
  5
C8C
  8
0
  6
CONTINUOUS
  2
DC_GROUP_450
 10
0.0
 20
0.0
 30
0.0
  0
INSERT
  5
C8D
  8
0
  6
CONTINUOUS
  2
DC_GROUP_451
 10
0.0
 20
0.0
 30
0.0
  0
INSERT
  5
C8E
  8
0
  6
CONTINUOUS
  2
DC_GROUP_452
 10
0.0
 20
0.0
 30
0.0
  0
INSERT
  5
C8F
  8
0
  6
CONTINUOUS
  2
DC_GROUP_453
 10
0.0
 20
0.0
 30
0.0
  0
INSERT
  5
C90
  8
0
  6
CONTINUOUS
  2
DC_GROUP_454
 10
0.0
 20
0.0
 30
0.0
  0
INSERT
  5
C91
  8
0
  6
CONTINUOUS
  2
DC_GROUP_455
 10
0.0
 20
0.0
 30
0.0
  0
INSERT
  5
C92
  8
0
  6
CONTINUOUS
  2
DC_GROUP_456
 10
0.0
 20
0.0
 30
0.0
  0
INSERT
  5
C93
  8
0
  6
CONTINUOUS
  2
DC_GROUP_457
 10
0.0
 20
0.0
 30
0.0
  0
INSERT
  5
C94
  8
0
  6
CONTINUOUS
  2
DC_GROUP_458
 10
0.0
 20
0.0
 30
0.0
  0
INSERT
  5
C95
  8
0
  6
CONTINUOUS
  2
DC_GROUP_459
 10
0.0
 20
0.0
 30
0.0
  0
INSERT
  5
C96
  8
0
  6
CONTINUOUS
  2
DC_GROUP_460
 10
0.0
 20
0.0
 30
0.0
  0
INSERT
  5
C97
  8
0
  6
CONTINUOUS
  2
DC_GROUP_461
 10
0.0
 20
0.0
 30
0.0
  0
INSERT
  5
C98
  8
0
  6
CONTINUOUS
  2
DC_GROUP_462
 10
0.0
 20
0.0
 30
0.0
  0
INSERT
  5
C99
  8
0
  6
CONTINUOUS
  2
DC_GROUP_463
 10
0.0
 20
0.0
 30
0.0
  0
INSERT
  5
C9A
  8
0
  6
CONTINUOUS
  2
DC_GROUP_464
 10
0.0
 20
0.0
 30
0.0
  0
INSERT
  5
C9B
  8
0
  6
CONTINUOUS
  2
DC_GROUP_465
 10
0.0
 20
0.0
 30
0.0
  0
INSERT
  5
C9C
  8
0
  6
CONTINUOUS
  2
DC_GROUP_466
 10
0.0
 20
0.0
 30
0.0
  0
INSERT
  5
C9D
  8
0
  6
CONTINUOUS
  2
DC_GROUP_467
 10
0.0
 20
0.0
 30
0.0
  0
INSERT
  5
C9E
  8
0
  6
CONTINUOUS
  2
DC_GROUP_468
 10
0.0
 20
0.0
 30
0.0
  0
INSERT
  5
C9F
  8
0
  6
CONTINUOUS
  2
DC_GROUP_469
 10
0.0
 20
0.0
 30
0.0
  0
INSERT
  5
CA0
  8
0
  6
CONTINUOUS
  2
DC_GROUP_470
 10
0.0
 20
0.0
 30
0.0
  0
INSERT
  5
CA1
  8
0
  6
CONTINUOUS
  2
DC_GROUP_471
 10
0.0
 20
0.0
 30
0.0
  0
INSERT
  5
CA2
  8
0
  6
CONTINUOUS
  2
DC_GROUP_472
 10
0.0
 20
0.0
 30
0.0
  0
INSERT
  5
CA3
  8
0
  6
CONTINUOUS
  2
DC_GROUP_473
 10
0.0
 20
0.0
 30
0.0
  0
INSERT
  5
CA4
  8
0
  6
CONTINUOUS
  2
DC_GROUP_474
 10
0.0
 20
0.0
 30
0.0
  0
INSERT
  5
CA5
  8
0
  6
CONTINUOUS
  2
DC_GROUP_475
 10
0.0
 20
0.0
 30
0.0
  0
INSERT
  5
CA6
  8
0
  6
CONTINUOUS
  2
DC_GROUP_476
 10
0.0
 20
0.0
 30
0.0
  0
INSERT
  5
CA7
  8
0
  6
CONTINUOUS
  2
DC_GROUP_477
 10
0.0
 20
0.0
 30
0.0
  0
INSERT
  5
CA8
  8
0
  6
CONTINUOUS
  2
DC_GROUP_478
 10
0.0
 20
0.0
 30
0.0
  0
INSERT
  5
CA9
  8
0
  6
CONTINUOUS
  2
DC_GROUP_479
 10
0.0
 20
0.0
 30
0.0
  0
INSERT
  5
CAA
  8
0
  6
CONTINUOUS
  2
DC_GROUP_480
 10
0.0
 20
0.0
 30
0.0
  0
INSERT
  5
CAB
  8
0
  6
CONTINUOUS
  2
DC_GROUP_481
 10
0.0
 20
0.0
 30
0.0
  0
INSERT
  5
CAC
  8
0
  6
CONTINUOUS
  2
DC_GROUP_482
 10
0.0
 20
0.0
 30
0.0
  0
INSERT
  5
CAD
  8
0
  6
CONTINUOUS
  2
DC_GROUP_483
 10
0.0
 20
0.0
 30
0.0
  0
INSERT
  5
CAE
  8
0
  6
CONTINUOUS
  2
DC_GROUP_484
 10
0.0
 20
0.0
 30
0.0
  0
INSERT
  5
CAF
  8
0
  6
CONTINUOUS
  2
DC_GROUP_485
 10
0.0
 20
0.0
 30
0.0
  0
INSERT
  5
CB0
  8
0
  6
CONTINUOUS
  2
DC_GROUP_486
 10
0.0
 20
0.0
 30
0.0
  0
INSERT
  5
CB1
  8
0
  6
CONTINUOUS
  2
DC_GROUP_487
 10
0.0
 20
0.0
 30
0.0
  0
INSERT
  5
CB2
  8
0
  6
CONTINUOUS
  2
DC_GROUP_488
 10
0.0
 20
0.0
 30
0.0
  0
INSERT
  5
CB3
  8
0
  6
CONTINUOUS
  2
DC_GROUP_489
 10
0.0
 20
0.0
 30
0.0
  0
INSERT
  5
CB4
  8
0
  6
CONTINUOUS
  2
DC_GROUP_490
 10
0.0
 20
0.0
 30
0.0
  0
INSERT
  5
CB5
  8
0
  6
CONTINUOUS
  2
DC_GROUP_491
 10
0.0
 20
0.0
 30
0.0
  0
INSERT
  5
CB6
  8
0
  6
CONTINUOUS
  2
DC_GROUP_492
 10
0.0
 20
0.0
 30
0.0
  0
INSERT
  5
CB7
  8
0
  6
CONTINUOUS
  2
DC_GROUP_493
 10
0.0
 20
0.0
 30
0.0
  0
INSERT
  5
CB8
  8
0
  6
CONTINUOUS
  2
DC_GROUP_494
 10
0.0
 20
0.0
 30
0.0
  0
INSERT
  5
CB9
  8
0
  6
CONTINUOUS
  2
DC_GROUP_495
 10
0.0
 20
0.0
 30
0.0
  0
INSERT
  5
CBA
  8
0
  6
CONTINUOUS
  2
DC_GROUP_496
 10
0.0
 20
0.0
 30
0.0
  0
INSERT
  5
CBB
  8
0
  6
CONTINUOUS
  2
DC_GROUP_497
 10
0.0
 20
0.0
 30
0.0
  0
INSERT
  5
CBC
  8
0
  6
CONTINUOUS
  2
DC_GROUP_498
 10
0.0
 20
0.0
 30
0.0
  0
INSERT
  5
CBD
  8
0
  6
CONTINUOUS
  2
DC_GROUP_499
 10
0.0
 20
0.0
 30
0.0
  0
INSERT
  5
CBE
  8
0
  6
CONTINUOUS
  2
DC_GROUP_500
 10
0.0
 20
0.0
 30
0.0
  0
INSERT
  5
CBF
  8
0
  6
CONTINUOUS
  2
DC_GROUP_501
 10
0.0
 20
0.0
 30
0.0
  0
INSERT
  5
CC0
  8
0
  6
CONTINUOUS
  2
DC_GROUP_502
 10
0.0
 20
0.0
 30
0.0
  0
INSERT
  5
CC1
  8
0
  6
CONTINUOUS
  2
DC_GROUP_503
 10
0.0
 20
0.0
 30
0.0
  0
INSERT
  5
CC2
  8
0
  6
CONTINUOUS
  2
DC_GROUP_504
 10
0.0
 20
0.0
 30
0.0
  0
INSERT
  5
CC3
  8
0
  6
CONTINUOUS
  2
DC_GROUP_505
 10
0.0
 20
0.0
 30
0.0
  0
INSERT
  5
CC4
  8
0
  6
CONTINUOUS
  2
DC_GROUP_506
 10
0.0
 20
0.0
 30
0.0
  0
INSERT
  5
CC5
  8
0
  6
CONTINUOUS
  2
DC_GROUP_507
 10
0.0
 20
0.0
 30
0.0
  0
INSERT
  5
CC6
  8
0
  6
CONTINUOUS
  2
DC_GROUP_508
 10
0.0
 20
0.0
 30
0.0
  0
INSERT
  5
CC7
  8
0
  6
CONTINUOUS
  2
DC_GROUP_509
 10
0.0
 20
0.0
 30
0.0
  0
INSERT
  5
CC8
  8
0
  6
CONTINUOUS
  2
DC_GROUP_510
 10
0.0
 20
0.0
 30
0.0
  0
INSERT
  5
CC9
  8
0
  6
CONTINUOUS
  2
DC_GROUP_511
 10
0.0
 20
0.0
 30
0.0
  0
INSERT
  5
CCA
  8
0
  6
CONTINUOUS
  2
DC_GROUP_512
 10
0.0
 20
0.0
 30
0.0
  0
INSERT
  5
CCB
  8
0
  6
CONTINUOUS
  2
DC_GROUP_513
 10
0.0
 20
0.0
 30
0.0
  0
INSERT
  5
CCC
  8
0
  6
CONTINUOUS
  2
DC_GROUP_514
 10
0.0
 20
0.0
 30
0.0
  0
INSERT
  5
CCD
  8
0
  6
CONTINUOUS
  2
DC_GROUP_522
 10
0.0
 20
0.0
 30
0.0
  0
INSERT
  5
CCE
  8
0
  6
CONTINUOUS
  2
DC_GROUP_523
 10
0.0
 20
0.0
 30
0.0
  0
INSERT
  5
CCF
  8
0
  6
CONTINUOUS
  2
DC_GROUP_524
 10
0.0
 20
0.0
 30
0.0
  0
CIRCLE
  5
CD0
  8
0
  6
CONTINUOUS
 62
     3
 10
126.33334351
 20
38.66667175
 30
0.0
 40
16.25
  0
ARC
  5
CD1
  8
0
  6
CONTINUOUS
 62
     3
 10
126.33334351
 20
38.66667175
 30
0.0
 40
36.0
 50
112.02432997
 51
187.80386497
  0
CIRCLE
  5
CD2
  8
0
  6
CONTINUOUS
 62
     3
 10
126.33334351
 20
38.66667175
 30
0.0
 40
18.5
  0
ARC
  5
CD3
  8
0
  6
CONTINUOUS
 62
     3
 10
126.33334351
 20
38.66667175
 30
0.0
 40
61.0
 50
102.78608931
 51
197.1175519
  0
ARC
  5
CD4
  8
0
  6
CONTINUOUS
 62
     3
 10
126.33334351
 20
38.66667175
 30
0.0
 40
61.0
 50
222.88238147
 51
317.11759645
  0
ARC
  5
CD5
  8
0
  6
CONTINUOUS
 62
     3
 10
126.33334351
 20
38.66667175
 30
0.0
 40
62.5
 50
222.56808348
 51
317.43189443
  0
ARC
  5
CD6
  8
0
  6
CONTINUOUS
 62
     3
 10
126.33334351
 20
38.66667175
 30
0.0
 40
61.0
 50
342.88241213
 51
437.21392936
  0
ARC
  5
CD7
  8
0
  6
CONTINUOUS
 62
     3
 10
126.33334351
 20
38.66667175
 30
0.0
 40
62.5
 50
342.56811244
 51
437.5257958
  0
ARC
  5
CD8
  8
0
  6
CONTINUOUS
 62
     3
 10
126.33334351
 20
38.66667175
 30
0.0
 40
36.0
 50
232.19608206
 51
307.80390268
  0
ARC
  5
CD9
  8
0
  6
CONTINUOUS
 62
     3
 10
126.33334351
 20
38.66667175
 30
0.0
 40
36.0
 50
352.19610333
 51
427.9756886999999
  0
CIRCLE
  5
CDA
  8
0
  6
CONTINUOUS
 62
     3
 10
83.03207397
 20
63.66667175
 30
0.0
 40
5.5
  0
CIRCLE
  5
CDB
  8
0
  6
CONTINUOUS
 62
     3
 10
169.63461304
 20
63.66667175
 30
0.0
 40
5.5
  0
CIRCLE
  5
CDC
  8
0
  6
CONTINUOUS
 62
     3
 10
126.33334351
 20
-11.33332825
 30
0.0
 40
8.0
  0
CIRCLE
  5
CDD
  8
0
  6
CONTINUOUS
 62
     3
 10
171.79968262
 20
12.41667175
 30
0.0
 40
6.5
  0
CIRCLE
  5
CDE
  8
0
  6
CONTINUOUS
 62
     3
 10
157.07723999
 20
20.91667175
 30
0.0
 40
6.5
  0
CIRCLE
  5
CDF
  8
0
  6
CONTINUOUS
 62
     3
 10
95.58943176
 20
20.91667175
 30
0.0
 40
6.5
  0
CIRCLE
  5
CE0
  8
0
  6
CONTINUOUS
 62
     3
 10
80.86700439000001
 20
12.41667175
 30
0.0
 40
6.5
  0
CIRCLE
  5
CE1
  8
0
  6
CONTINUOUS
 62
     3
 10
126.33334351
 20
-11.33332825
 30
0.0
 40
8.75
  0
ARC
  5
CE2
  8
0
  6
CONTINUOUS
 62
     3
 10
126.33334351
 20
38.66667175
 30
0.0
 40
62.5
 50
102.47422287
 51
197.43184988
  0
CIRCLE
  5
CE3
  8
0
  6
CONTINUOUS
 62
     3
 10
169.63461304
 20
63.66667175
 30
0.0
 40
8.5
  0
CIRCLE
  5
CE4
  8
0
  6
CONTINUOUS
 62
     3
 10
83.03207397
 20
63.66667175
 30
0.0
 40
8.5
  0
CIRCLE
  5
CE5
  8
0
  6
CONTINUOUS
 62
     3
 10
152.31411743
 20
53.66666031
 30
0.0
 40
5.5
  0
CIRCLE
  5
CE6
  8
0
  6
CONTINUOUS
 62
     3
 10
100.35259247
 20
53.66669083
 30
0.0
 40
5.5
  0
CIRCLE
  5
CE7
  8
0
  6
CONTINUOUS
 62
     3
 10
100.35259247
 20
53.66669083
 30
0.0
 40
5.0
  0
CIRCLE
  5
CE8
  8
0
  6
CONTINUOUS
 62
     3
 10
152.31411743
 20
53.66666031
 30
0.0
 40
5.0
  0
CIRCLE
  5
CE9
  8
0
  6
CONTINUOUS
 62
     3
 10
126.33334351
 20
8.666671750000001
 30
0.0
 40
5.5
  0
CIRCLE
  5
CEA
  8
0
  6
CONTINUOUS
 62
     3
 10
126.33334351
 20
8.666671750000001
 30
0.0
 40
5.0
  0
CIRCLE
  5
CEB
  8
0
  6
CONTINUOUS
 62
     3
 10
126.33332825
 20
74.16668701
 30
0.0
 40
6.5
  0
CIRCLE
  5
CEC
  8
0
  6
CONTINUOUS
 62
     3
 10
126.33332825
 20
91.16668701
 30
0.0
 40
6.5
  0
CIRCLE
  5
CED
  8
0
  6
CONTINUOUS
 62
     3
 10
126.33334351
 20
38.66667175
 30
0.0
 40
17.0
  0
ARC
  5
CEE
  8
0
  6
CONTINUOUS
 62
     3
 10
156.30448914
 20
76.75512695000001
 30
0.0
 40
2.62500191
 50
75.00010795000011
 51
369.9999533799999
  0
INSERT
  5
CEF
  8
0
  6
CONTINUOUS
  2
DC_GROUP_515
 10
0.0
 20
0.0
 30
0.0
  0
INSERT
  5
CF0
  8
0
  6
CONTINUOUS
  2
DC_GROUP_516
 10
0.0
 20
0.0
 30
0.0
  0
INSERT
  5
CF1
  8
0
  6
DASHDOT2
  2
DC_GROUP_517
 10
0.0
 20
0.0
 30
0.0
  0
INSERT
  5
CF2
  8
0
  6
CONTINUOUS
  2
DC_GROUP_518
 10
0.0
 20
0.0
 30
0.0
  0
TEXT
  5
CF3
  8
0
 62
     3
 10
-24.8238014
 20
41.61373031
 30
0.0
 40
3.20000005
  1
MIN25.4
 50
90.0
 41
0.5733724594557823
  7
FDASTYLE0
 72
     5
 11
-24.8238014
 21
54.45727360248988
 31
0.0
  0
TEXT
  5
CF4
  8
0
 62
     3
 10
-166.03764832
 20
-43.15555727
 30
0.0
 40
3.20000005
  1
MIN-0.8
 41
0.5976679026530611
  7
FDASTYLE0
 72
     5
 11
-152.6498870913877
 21
-43.15555727
 31
0.0
  0
TEXT
  5
CF5
  8
0
 62
     3
 10
-37.68174136
 20
65.37806237
 30
0.0
 40
1.79999995
  1
(MIN)
 50
90.0
 41
0.503401597142857
  7
FDASTYLE0
 72
     5
 11
-37.68174136
 21
69.90867661843531
 31
0.0
  0
TEXT
  5
CF6
  8
0
 62
     3
 10
-266.58932966
 20
190.83425903
 30
0.0
 40
2.5
  1
 仕上ｹﾞ記号ﾉ表面粗ｻ区分 ～･･特ﾆ規定ｼﾅｲ   ･･35S   ･･18S   ･･6S   ･･3S   ･･6S(ｷｻｹﾞ仕上)
 41
0.5772996357534247
  7
FDASTYLE0
 72
     5
 11
-161.232146135
 21
190.83425903
 31
0.0
  0
TEXT
  5
CF7
  8
0
 62
     3
 10
93.44552904
 20
190.20959473
 30
0.0
 40
2.5
  1
特ﾆ指定ﾉﾅｲ機械加工
 41
0.5875578304838708
  7
FDASTYLE0
 72
     5
 11
111.659821785
 21
190.20959473
 31
0.0
  0
TEXT
  5
CF8
  8
0
 62
     3
 10
93.44552904
 20
186.45959461
 30
0.0
 40
2.5
  1
部分ﾉ寸法ﾆ対ｽﾙ
 41
0.5857145118
  7
FDASTYLE0
 72
     5
 11
108.088391835
 21
186.45959461
 31
0.0
  0
TEXT
  5
CF9
  8
0
 62
     3
 10
93.44552904
 20
182.70959449
 30
0.0
 40
2.5
  1
寸法差　　(単位mm)
 41
0.5875578304838708
  7
FDASTYLE0
 72
     5
 11
111.659821785
 21
182.70959449
 31
0.0
  0
TEXT
  5
CFA
  8
0
 62
     3
 10
126.4499312
 20
190.7522583
 30
0.0
 40
2.5
  1
呼ﾋﾞ寸法
 41
0.586734920357142
  7
FDASTYLE0
 72
     5
 11
134.664220085
 21
190.7522583
 31
0.0
  0
TEXT
  5
CFB
  8
0
 62
     3
 10
126.4499312
 20
187.00225818
 30
0.0
 40
2.5
  1
ﾉ 区 分
 41
0.5820108066666676
  7
FDASTYLE0
 72
     5
 11
134.30707709
 21
187.00225818
 31
0.0
  0
TEXT
  5
CFC
  8
0
 62
     3
 10
145.05665118
 20
190.76455688
 30
0.0
 40
2.5
  1
1　以　上
 41
0.5911332331034487
  7
FDASTYLE0
 72
     5
 11
153.62808306
 21
190.76455688
 31
0.0
  0
TEXT
  5
CFD
  8
0
 62
     3
 10
145.05665118
 20
187.01455677
 30
0.0
 40
2.5
  1
4　以　下
 41
0.5911332331034487
  7
FDASTYLE0
 72
     5
 11
153.62808306
 21
187.01455677
 31
0.0
  0
TEXT
  5
CFE
  8
0
 62
     3
 10
162.26035601
 20
190.94955444
 30
0.0
 40
2.5
  1
　4　ｦｺｴ
 41
0.5803573668750008
  7
FDASTYLE0
 72
     5
 11
171.54607388
 21
190.94955444
 31
0.0
  0
TEXT
  5
CFF
  8
0
 62
     3
 10
162.26035601
 20
187.19955432
 30
0.0
 40
2.5
  1
16　以　下
 41
0.5882355211764702
  7
FDASTYLE0
 72
     5
 11
172.26035987
 21
187.19955432
 31
0.0
  0
TEXT
  5
D00
  8
0
 62
     3
 10
180.3889876
 20
190.57958984
 30
0.0
 40
2.5
  1
16 ｦｺｴ
 41
0.407142995
  7
FDASTYLE0
 72
     5
 11
186.496132525
 21
190.57958984
 31
0.0
  0
TEXT
  5
D01
  8
0
 62
     3
 10
180.3889876
 20
186.82958972
 30
0.0
 40
2.5
  1
63　以　下
 41
0.5882355211764702
  7
FDASTYLE0
 72
     5
 11
190.38899146
 21
186.82958972
 31
0.0
  0
TEXT
  5
D02
  8
0
 62
     3
 10
198.70261675
 20
190.57958984
 30
0.0
 40
2.5
  1
　63ｦｺｴ
 41
0.5760370887096781
  7
FDASTYLE0
 72
     5
 11
207.631191625
 21
190.57958984
 31
0.0
  0
TEXT
  5
D03
  8
0
 62
     3
 10
198.70261675
 20
186.82958972
 30
0.0
 40
2.5
  1
250以 下
 41
0.5803573668750008
  7
FDASTYLE0
 72
     5
 11
207.98833462
 21
186.82958972
 31
0.0
  0
TEXT
  5
D04
  8
0
 62
     3
 10
215.30124956
 20
190.4720459
 30
0.0
 40
2.5
  1
 250ｦｺｴ
 41
0.4071429950000006
  7
FDASTYLE0
 72
     5
 11
222.4262519725
 21
190.4720459
 31
0.0
  0
TEXT
  5
D05
  8
0
 62
     3
 10
215.30124956
 20
186.72204578
 30
0.0
 40
2.5
  1
1000以 下
 41
0.5791508027027027
  7
FDASTYLE0
 72
     5
 11
226.01553941
 21
186.72204578
 31
0.0
  0
TEXT
  5
D06
  8
0
 62
     3
 10
233.29502398
 20
190.57958984
 30
0.0
 40
2.5
  1
1000ｦｺｴ
 41
0.4071429950000006
  7
FDASTYLE0
 72
     5
 11
240.4200263925
 21
190.57958984
 31
0.0
  0
TEXT
  5
D07
  8
0
 62
     3
 10
233.29502398
 20
186.82958972
 30
0.0
 40
2.5
  1
2000以 下
 41
0.5791508027027027
  7
FDASTYLE0
 72
     5
 11
244.00931383
 21
186.82958972
 31
0.0
  0
TEXT
  5
D08
  8
0
 62
     3
 10
252.53353411
 20
190.57958984
 30
0.0
 40
2.5
  1
2000 ｦ
 41
0.407142995
  7
FDASTYLE0
 72
     5
 11
258.640679035
 21
190.57958984
 31
0.0
  0
TEXT
  5
D09
  8
0
 62
     3
 10
252.53353411
 20
186.82958972
 30
0.0
 40
2.5
  1
 ｺｴﾙﾓﾉ
 41
0.407142995
  7
FDASTYLE0
 72
     5
 11
258.640679035
 21
186.82958972
 31
0.0
  0
TEXT
  5
D0A
  8
0
 62
     3
 10
125.44813067
 20
182.81018066
 30
0.0
 40
2.5
  1
寸　法　差
 41
0.7142859900000009
  7
FDASTYLE0
 72
     5
 11
136.16242052
 21
182.81018066
 31
0.0
  0
TEXT
  5
D0B
  8
0
 62
     3
 10
144.87168413
 20
182.99514771
 30
0.0
 40
2.5
  1
±　0.1
 41
0.5820108066666665
  7
FDASTYLE0
 72
     5
 11
152.72883002
 21
182.99514771
 31
0.0
  0
TEXT
  5
D0C
  8
0
 62
     3
 10
162.81531817
 20
182.99514771
 30
0.0
 40
2.5
  1
±　0.2
 41
0.5820108066666665
  7
FDASTYLE0
 72
     5
 11
170.67246406
 21
182.99514771
 31
0.0
  0
TEXT
  5
D0D
  8
0
 62
     3
 10
182.05387408
 20
182.62518311
 30
0.0
 40
2.5
  1
±　0.3
 41
0.5820108066666665
  7
FDASTYLE0
 72
     5
 11
189.91101997
 21
182.62518311
 31
0.0
  0
TEXT
  5
D0E
  8
0
 62
     3
 10
199.07261187
 20
182.81018066
 30
0.0
 40
2.5
  1
±　0.5
 41
0.5820108066666665
  7
FDASTYLE0
 72
     5
 11
206.92975776
 21
182.81018066
 31
0.0
  0
TEXT
  5
D0F
  8
0
 62
     3
 10
217.75620562
 20
182.81018066
 30
0.0
 40
2.5
  1
±　0.8
 41
0.5820108066666665
  7
FDASTYLE0
 72
     5
 11
225.61335151
 21
182.81018066
 31
0.0
  0
TEXT
  5
D10
  8
0
 62
     3
 10
235.14487749
 20
182.99514771
 30
0.0
 40
2.5
  1
±　1.0
 41
0.5820108066666665
  7
FDASTYLE0
 72
     5
 11
243.00202338
 21
182.99514771
 31
0.0
  0
TEXT
  5
D11
  8
0
 62
     3
 10
252.71853167
 20
182.81018066
 30
0.0
 40
2.5
  1
±　2.0
 41
0.5820108066666686
  7
FDASTYLE0
 72
     5
 11
260.57567756
 21
182.81018066
 31
0.0
  0
TEXT
  5
D12
  8
0
 62
     3
 10
-266.8025865
 20
186.48608398
 30
0.0
 40
2.5
  1
特ﾆ指定ﾉﾅｲ角部ﾊ0.5C ﾏﾀ隅部ﾊ0.5Rﾄｽﾙ  ｹﾝﾏ指示ﾅｷ部品ｦｹﾝﾏｽﾙ場合ﾓNIS設2004-71ﾉｹﾝﾏﾆｹﾞｦ摘要ﾉｺﾄ
 41
0.5775897493261456
  7
FDASTYLE0
 72
     5
 11
-159.659688
 21
186.48608398
 31
0.0
  0
TEXT
  5
D13
  8
0
 62
     3
 10
-264.89999998
 20
-188.14285767
 30
0.0
 40
3.20000005
  1
訂正理由
 50
90.0
 41
0.7142860300000011
  7
FDASTYLE0
 72
     5
 11
-264.89999998
 21
-177.1714240777714
 31
0.0
  0
TEXT
  5
D14
  8
0
 62
     3
 10
-260.49072266
 20
-181.00714588
 30
0.0
 40
2.5
  1
A注文元指示､B設計変更､C誤記、D記入漏れ
 50
90.0
 41
0.58956942984127
  7
FDASTYLE0
 72
     5
 11
-260.49072266
 21
-143.8642718
 31
0.0
  0
TEXT
  5
D15
  8
0
 62
     3
 10
-256.74072254
 20
-181.00714588
 30
0.0
 40
2.5
  1
E工作都合、F誤工対策、G材料都合、H工事都合
 50
90.0
 41
0.5916847047761196
  7
FDASTYLE0
 72
     5
 11
-256.74072254
 21
-141.36427066
 31
0.0
  0
TEXT
  5
D16
  8
0
 62
     3
 10
-143.37591785
 20
192.37551576
 30
0.0
 40
0.89999998
  1
ｹ ﾝ ﾏ
 41
0.4071430250000021
  7
FDASTYLE0
 72
     5
 11
-141.5437742782143
 21
192.37551576
 31
0.0
  0
TEXT
  5
D17
  8
0
 62
     3
 10
140.60715771
 20
-137.25
 30
0.0
 40
2.5
  1
符
 41
0.7142860399999998
  7
FDASTYLE0
 72
     5
 11
142.75001583
 21
-137.25
 31
0.0
  0
TEXT
  5
D18
  8
0
 62
     3
 10
140.60715771
 20
-141.00000012
 30
0.0
 40
2.5
  1
号
 41
0.7142860399999998
  7
FDASTYLE0
 72
     5
 11
142.75001583
 21
-141.00000012
 31
0.0
  0
TEXT
  5
D19
  8
0
 62
     3
 10
237.10715771
 20
-137.25
 30
0.0
 40
2.5
  1
単重量
 41
0.7142860399999998
  7
FDASTYLE0
 72
     5
 11
243.53573207
 21
-137.25
 31
0.0
  0
TEXT
  5
D1A
  8
0
 62
     3
 10
237.10715771
 20
-141.00000012
 30
0.0
 40
2.5
  1
(kg)
 41
0.4761906933333336
  7
FDASTYLE0
 72
     5
 11
241.8690646433333
 21
-141.00000012
 31
0.0
  0
TEXT
  5
D1B
  8
0
 62
     3
 10
222.48215771
 20
-156.75
 30
0.0
 40
2.5
  1
作図
 41
0.7142860399999998
  7
FDASTYLE0
 72
     5
 11
226.76787395
 21
-156.75
 31
0.0
  0
TEXT
  5
D1C
  8
0
 62
     3
 10
222.48215771
 20
-169.25
 30
0.0
 40
2.5
  1
尺度
 41
0.7142860399999998
  7
FDASTYLE0
 72
     5
 11
226.76787395
 21
-169.25
 31
0.0
  0
TEXT
  5
D1D
  8
0
 62
     3
 10
143.94050121
 20
-169.25
 30
0.0
 40
2.5
  1
承　　　　認
 41
0.7142860399999998
  7
FDASTYLE0
 72
     5
 11
156.79764993
 21
-169.25
 31
0.0
  0
TEXT
  5
D1E
  8
0
 62
     3
 10
171.27382946
 20
-169.25
 30
0.0
 40
2.5
  1
検　　　　図
 41
0.7142860399999998
  7
FDASTYLE0
 72
     5
 11
184.13097818
 21
-169.25
 31
0.0
  0
TEXT
  5
D1F
  8
0
 62
     3
 10
195.19050121
 20
-169.25
 30
0.0
 40
2.5
  1
担　　当
 41
0.7142860399999998
  7
FDASTYLE0
 72
     5
 11
203.76193369
 21
-169.25
 31
0.0
  0
TEXT
  5
D20
  8
0
 62
     3
 10
208.85715771
 20
-169.25
 30
0.0
 40
2.5
  1
製　　図
 41
0.7142860399999998
  7
FDASTYLE0
 72
     5
 11
217.42859019
 21
-169.25
 31
0.0
  0
TEXT
  5
D21
  8
0
 62
     3
 10
92.10715008
 20
-172.0
 30
0.0
 40
2.5
  1
記
 41
0.7142860399999998
  7
FDASTYLE0
 72
     5
 11
94.2500082
 21
-172.0
 31
0.0
  0
TEXT
  5
D22
  8
0
 62
     3
 10
92.10715008
 20
-175.75000012
 30
0.0
 40
2.5
  1
号
 41
0.7142860399999998
  7
FDASTYLE0
 72
     5
 11
94.2500082
 21
-175.75000012
 31
0.0
  0
TEXT
  5
D23
  8
0
 62
     3
 10
98.10715008
 20
-172.0
 30
0.0
 40
2.5
  1
理
 41
0.7142860399999998
  7
FDASTYLE0
 72
     5
 11
100.2500082
 21
-172.0
 31
0.0
  0
TEXT
  5
D24
  8
0
 62
     3
 10
98.10715008
 20
-175.75000012
 30
0.0
 40
2.5
  1
由
 41
0.7142860399999998
  7
FDASTYLE0
 72
     5
 11
100.2500082
 21
-175.75000012
 31
0.0
  0
TEXT
  5
D25
  8
0
 62
     3
 10
103.23215008
 20
-173.75
 30
0.0
 40
2.5
  1
日　付
 41
0.7142860399999998
  7
FDASTYLE0
 72
     5
 11
109.66072444
 21
-173.75
 31
0.0
  0
TEXT
  5
D26
  8
0
 62
     3
 10
91.72102642
 20
-179.05889893
 30
0.0
 40
2.5
  1
訂　正　来　歴
 41
0.7142860399999998
  7
FDASTYLE0
 72
     5
 11
106.72103326
 21
-179.05889893
 31
0.0
  0
TEXT
  5
D27
  8
0
 62
     3
 10
117.13255596
 20
-179.24853516
 30
0.0
 40
2.5
  1
工　事　番　号
 41
0.7142860400000005
  7
FDASTYLE0
 72
     5
 11
132.1325628
 21
-179.24853516
 31
0.0
  0
TEXT
  5
D28
  8
0
 62
     3
 10
156.10715759
 20
-139.60000002
 30
0.0
 40
3.20000005
  1
品　　　　　　　名
 41
0.7142860300000004
  7
FDASTYLE0
 72
     5
 11
180.7928831725145
 21
-139.60000002
 31
0.0
  0
TEXT
  5
D29
  8
0
 62
     3
 10
198.85715759
 20
-139.60000002
 30
0.0
 40
3.20000005
  1
材　　　料
 41
0.7142860299999996
  7
FDASTYLE0
 72
     5
 11
212.5714495802858
 21
-139.60000002
 31
0.0
  0
TEXT
  5
D2A
  8
0
 62
     3
 10
221.10715759
 20
-139.60000002
 30
0.0
 40
3.20000005
  1
個　　数
 41
0.7142860299999994
  7
FDASTYLE0
 72
     5
 11
232.0785911822287
 21
-139.60000002
 31
0.0
  0
TEXT
  5
D2B
  8
0
 62
     3
 10
251.35714233
 20
-139.60000002
 30
0.0
 40
3.20000005
  1
記　　　事
 41
0.7142860299999996
  7
FDASTYLE0
 72
     5
 11
265.0714343202858
 21
-139.60000002
 31
0.0
  0
TEXT
  5
D2C
  8
0
 62
     3
 10
101.62500703
 20
-186.12499994
 30
0.0
 40
3.5
  1
株式
 41
0.7142860500000007
  7
FDASTYLE0
 72
     5
 11
107.62500985
 21
-186.12499994
 31
0.0
  0
TEXT
  5
D2D
  8
0
 62
     3
 10
101.62500703
 20
-191.37500006
 30
0.0
 40
3.5
  1
会社
 41
0.7142860500000007
  7
FDASTYLE0
 72
     5
 11
107.62500985
 21
-191.37500006
 31
0.0
  0
TEXT
  5
D2E
  8
0
 62
     3
 10
107.37500644
 20
-190.5
 30
0.0
 40
7.0
  1
　野村製作所
 41
0.7142860499999999
  7
FDASTYLE0
 72
     5
 11
143.37502336
 21
-190.5
 31
0.0
  0
TEXT
  5
D2F
  8
0
 62
     3
 10
222.23215759
 20
-164.10000002
 30
0.0
 40
3.20000005
  1
第　三　角　法
 41
0.71428603
  7
FDASTYLE0
 72
     5
 11
241.4321663764002
 21
-164.10000002
 31
0.0
  0
TEXT
  5
D30
  8
0
 62
     3
 10
168.35715723
 20
-190.0
 30
0.0
 40
6.0
  1
2-
 41
0.6632655807142859
  7
FDASTYLE0
 72
     5
 11
176.3163441985714
 21
-190.0
 31
0.0
  0
TEXT
  5
D31
  8
0
 62
     3
 10
249.10715771
 20
-169.25
 30
0.0
 40
2.5
  1
　ｺｰﾄﾞ番号
 41
0.5827070326315801
  7
FDASTYLE0
 72
     5
 11
260.17859133
 21
-169.25
 31
0.0
  0
TEXT
  5
D32
  8
0
 62
     3
 10
149.96497246
 20
-150.07824504
 30
0.0
 40
6.25
  1
外　形　図
 41
0.8791213000000001
  7
FDASTYLE0
 72
     5
 11
182.93202121
 21
-150.07824504
 31
0.0
  0
TEXT
  5
D33
  8
0
 62
     3
 10
221.71759599
 20
-148.60000002
 30
0.0
 40
3.20000005
  1
1式
 41
0.7192810963636356
  7
FDASTYLE0
 72
     5
 11
226.7813349875209
 21
-148.60000002
 31
0.0
  0
TEXT
  5
D34
  8
0
 62
     3
 10
144.12196624
 20
-157.30769193
 30
0.0
 40
4.0
  1
日鋼ﾌﾟﾚｼｼﾞｫﾝ
 41
0.7387432742307695
  7
FDASTYLE0
 72
     5
 11
174.853686448
 21
-157.30769193
 31
0.0
  0
TEXT
  5
D35
  8
0
 62
     3
 10
121.80489278
 20
-164.69230807
 30
0.0
 40
4.0
  1
      HWB3-125型ﾁｬｯｸ
 41
0.7336131126041666
  7
FDASTYLE0
 72
     5
 11
178.146379828
 21
-164.69230807
 31
0.0
  0
TEXT
  5
D36
  8
0
 62
     3
 10
224.1461674
 20
-174.39999998
 30
0.0
 40
2.79999995
  1
1/1
 41
0.6558524357142842
  7
FDASTYLE0
 72
     5
 11
229.6553277616221
 21
-174.39999998
 31
0.0
  0
TEXT
  5
D37
  8
0
 62
     3
 10
182.86265135
 20
-190.0
 30
0.0
 40
6.0
  1
9305022
 41
0.8013758789115645
  7
FDASTYLE0
 72
     5
 11
216.5204382642857
 21
-190.0
 31
0.0
  0
TEXT
  5
D38
  8
0
 62
     3
 10
-113.4716006
 20
-123.05572283
 30
0.0
 40
3.24999988
  1
  仕   様
 41
0.7128010702702703
  7
FDASTYLE0
 72
     5
 11
-96.32873549296735
 21
-123.05572283
 31
0.0
  0
TEXT
  5
D39
  8
0
 62
     3
 10
-113.4716006
 20
-129.30572283
 30
0.0
 40
3.24999988
  1
　爪ｽﾄﾛ-ｸ　　　      　　　　
 41
0.7178146557798164
  7
FDASTYLE0
 72
     5
 11
-62.61443411580315
 21
-129.30572283
 31
0.0
  0
TEXT
  5
D3A
  8
0
 62
     3
 10
-16.11445433
 20
-128.89947285
 30
0.0
 40
2.43749991
  1
直径ﾆﾃ
 41
0.7192810799999999
  7
FDASTYLE0
 72
     5
 11
-8.400165031835309
 21
-128.89947285
 31
0.0
  0
TEXT
  5
D3B
  8
0
 62
     3
 10
-13.59659765
 20
-129.30572283
 30
0.0
 40
3.24999988
  1
   　4.4mm
 41
0.7071193226086957
  7
FDASTYLE0
 72
     5
 11
7.546269315340268
 21
-129.30572283
 31
0.0
  0
TEXT
  5
D3C
  8
0
 62
     3
 10
-113.4716006
 20
-135.55572283
 30
0.0
 40
3.24999988
  1
　ﾋﾟｽﾄﾝｽﾄﾛ-ｸ　  　　    　　　　　　　 　　12mm
 41
0.715787304262295
  7
FDASTYLE0
 72
     5
 11
-28.32870390173785
 21
-135.55572283
 31
0.0
  0
TEXT
  5
D3D
  8
0
 62
     3
 10
-113.4716006
 20
-141.80572283
 30
0.0
 40
3.24999988
  1
　推奨ｼﾘﾝﾀﾞ-　　　　　             36FS-2型 
 41
0.7118971558695653
  7
FDASTYLE0
 72
     5
 11
-28.32870390173784
 21
-141.80572283
 31
0.0
  0
TEXT
  5
D3E
  8
0
 62
     3
 10
-113.4716006
 20
-148.05572283
 30
0.0
 40
3.24999988
  1
　許容ｼﾘﾝﾀﾞー力　　　　　    　　　　　　　　　10.3ｋN
 41
0.721804873263158
  7
FDASTYLE0
 72
     5
 11
-24.32870204343021
 21
-148.05572283
 31
0.0
  0
TEXT
  5
D3F
  8
0
 62
     3
 10
-72.99104607
 20
-148.10433285
 30
0.0
 40
2.4375
  1
（36FS-2型　引側使用圧　1.2MPa）
 41
0.7179488166666667
  7
FDASTYLE0
 72
     5
 11
-30.991040295
 21
-148.10433285
 31
0.0
  0
TEXT
  5
D40
  8
0
 62
     3
 10
-113.4716006
 20
-154.30572283
 30
0.0
 40
3.24999988
  1
　最大静的把握力　　　  　　　　　          25.5ｋN
 41
0.7192810800000001
  7
FDASTYLE0
 72
     5
 11
-26.04298855413349
 21
-154.30572283
 31
0.0
  0
TEXT
  5
D41
  8
0
 62
     3
 10
-113.4716006
 20
-160.55572283
 30
0.0
 40
3.24999988
  1
　最高使用回転速度　　　   　　　　    　　　　6000min
 41
0.721804873263158
  7
FDASTYLE0
 72
     5
 11
-24.32870204343021
 21
-160.55572283
 31
0.0
  0
TEXT
  5
D42
  8
0
 62
     3
 10
23.24269
 20
-158.2432228
 30
0.0
 40
1.62499994
  1
-1
 41
0.6907381799999997
  7
FDASTYLE0
 72
     5
 11
25.48758900211142
 21
-158.2432228
 31
0.0
  0
TEXT
  5
D43
  8
0
 62
     3
 10
-113.4716006
 20
-166.80572283
 30
0.0
 40
3.24999988
  1
　慣性モ－メント    　　      　　　　 0.012ｋg・m
 41
0.7184217238709679
  7
FDASTYLE0
 72
     5
 11
-26.61441739103456
 21
-166.80572283
 31
0.0
  0
TEXT
  5
D44
  8
0
 62
     3
 10
23.24269
 20
-164.4932228
 30
0.0
 40
1.62499994
  1
2
 41
0.5860808799999997
  7
FDASTYLE0
 72
     5
 11
24.19507139483515
 21
-164.4932228
 31
0.0
  0
TEXT
  5
D45
  8
0
 62
     3
 10
-113.4716006
 20
-179.30572283
 30
0.0
 40
3.24999988
  1
　ｱﾝﾊﾞﾗﾝｽ量       　　　　
 41
0.7132493728301885
  7
FDASTYLE0
 72
     5
 11
-64.32872062650642
 21
-179.30572283
 31
0.0
  0
TEXT
  5
D46
  8
0
 62
     3
 10
-9.22756807
 20
-179.33296404
 30
0.0
 40
2.43749991
  1
外周ﾆﾃ
 41
0.7192810799999999
  7
FDASTYLE0
 72
     5
 11
-1.513278771835308
 21
-179.33296404
 31
0.0
  0
TEXT
  5
D47
  8
0
 62
     3
 10
-1.09659765
 20
-179.30572283
 30
0.0
 40
3.24999988
  1
　　1g以内
 41
0.7239822635294118
  7
FDASTYLE0
 72
     5
 11
14.90340978323047
 21
-179.30572283
 31
0.0
  0
TEXT
  5
D48
  8
0
 62
     3
 10
-113.4716006
 20
-173.05572283
 30
0.0
 40
3.24999988
  1
　質　量　　　    　　  　　　　　　　　　　　　　　4.5ｋg
 41
0.7250485113402064
  7
FDASTYLE0
 72
     5
 11
-22.04298669582586
 21
-173.05572283
 31
0.0
  0
TEXT
  5
D49
  8
0
 62
     3
 10
84.66547169999998
 20
51.09579084
 30
0.0
 40
2.5
  1
25KN
 50
-120.0
 41
0.7093336500000019
  7
FDASTYLE0
 72
     5
 11
81.11880344999997
 21
44.95278123340859
 31
0.0
  0
TEXT
  5
D4A
  8
0
 62
     3
 10
88.12956776999998
 20
49.09579466000001
 30
0.0
 40
2.5
  1
10KN
 50
-120.0
 41
0.6813336375000006
  7
FDASTYLE0
 72
     5
 11
84.72289958249998
 21
43.19527227472143
 31
0.0
  0
TEXT
  5
D4B
  8
0
 62
     3
 10
81.20314629999999
 20
53.09887477000001
 30
0.0
 40
2.5
  1
6000
 50
-120.0
 41
0.6838063300000015
  7
FDASTYLE0
 72
     5
 11
77.78411464999998
 21
47.17693823951394
 31
0.0
  0
TEXT
  5
D4C
  8
0
 62
     3
 10
77.73904261
 20
55.09887477
 30
0.0
 40
2.5
  1
AT ΣS MAX
 50
-120.0
 41
0.6328975800000002
  7
FDASTYLE0
 72
     5
 11
70.46072043999999
 21
42.49245097770504
 31
0.0
  0
TEXT
  5
D4D
  8
0
 62
     3
 10
98.7031463
 20
83.40976116
 30
0.0
 40
2.5
  1
N MAX
 50
-120.0
 41
0.7343892639999997
  7
FDASTYLE0
 72
     5
 11
94.11321339999999
 21
75.45976417386805
 31
0.0
  0
TEXT
  5
D4E
  8
0
 62
     3
 10
102.1654717
 20
81.40668104
 30
0.0
 40
2.5
  1
ΣS MAX
 50
-120.0
 41
0.6322583467741932
  7
FDASTYLE0
 72
     5
 11
97.26546951249999
 21
72.91962829405136
 31
0.0
  0
TEXT
  5
D4F
  8
0
 62
     3
 10
105.62956777
 20
79.40668104
 30
0.0
 40
2.5
  1
F MAX
 50
-120.0
 41
0.7018669800000004
  7
FDASTYLE0
 72
     5
 11
101.242899145
 21
71.80874810553169
 31
0.0
  0
TEXT
  5
D50
  8
0
 62
     3
 10
151.81713272
 20
84.13331473
 30
0.0
 40
2.5
  1
ΣS
 50
120.0
 41
0.7192810636363646
  7
FDASTYLE0
 72
     5
 11
149.839109795
 21
87.559350934636
 31
0.0
  0
TEXT
  5
D51
  8
0
 62
     3
 10
161.08665181
 20
79.71135527
 30
0.0
 40
2.5
  1
N min
 50
120.0
 41
0.6571431112380937
  7
FDASTYLE0
 72
     5
 11
156.9795073647619
 21
86.82513812317666
 31
0.0
  0
TEXT
  5
D52
  8
0
 62
     3
 10
152.74925111
 20
90.59446435
 30
0.0
 40
1.25
  1
-1
 50
120.0
 41
0.5892859421428638
  7
FDASTYLE0
 72
     5
 11
152.0126436823214
 21
91.87030583997191
 31
0.0
  0
TEXT
  5
D53
  8
0
 62
     3
 10
158.47191787
 20
69.20201743
 30
0.0
 40
2.5
  1
F
 50
120.0
 41
0.5442179476190551
  7
FDASTYLE0
 72
     5
 11
157.7916454354762
 21
70.38028384958382
 31
0.0
  0
TEXT
  5
D54
  8
0
 62
     3
 10
96.73283798999999
 20
-11.15307899
 30
0.0
 40
4.0
  1
NIKKO
 50
0.8
 41
0.5918370459999994
  7
FDASTYLE0
 72
     5
 11
108.5684251119522
 21
-10.98781227864722
 31
0.0
  0
TEXT
  5
D55
  8
0
 62
     3
 10
137.08296513
 20
-10.64814123
 30
0.0
 40
3.0
  1
HG3-5
 50
0.8
 41
0.6938779159999996
  7
FDASTYLE0
 72
     5
 11
147.4901193234407
 21
-10.50282050105187
 31
0.0
  0
TEXT
  5
D56
  8
0
 62
     3
 10
137.50802888
 20
-15.64567283
 30
0.0
 40
2.5
  1
0001
 50
0.8
 41
0.5782314833333339
  7
FDASTYLE0
 72
     5
 11
143.2897800764665
 21
-15.56493910751929
 31
0.0
  0
TEXT
  5
D57
  8
0
 62
     3
 10
250.83720634
 20
-148.09824303
 30
0.0
 40
3.125
  1
HG3-5型 
 41
0.44037056638889
  7
FDASTYLE0
 72
     5
 11
260.74554408375
 21
-148.09824303
 31
0.0
  0
TEXT
  5
D58
  8
0
 62
     3
 10
79.95812297000001
 20
-50.54113305
 30
0.0
 40
3.20000005
  1
PCD60
 41
0.6530615131428575
  7
FDASTYLE0
 72
     5
 11
90.4071073435511
 21
-50.54113305
 31
0.0
  0
TEXT
  5
D59
  8
0
 62
     3
 10
147.53388977
 20
-50.54112542
 30
0.0
 40
3.20000005
  1
PCD100
 41
0.6575966625396824
  7
FDASTYLE0
 72
     5
 11
160.1597458880409
 21
-50.54112542
 31
0.0
  0
TEXT
  5
D5A
  8
0
 62
     3
 10
-55.0052948
 20
125.95679939
 30
0.0
 40
3.20000005
  1
セレーションＰ１．５山60ﾟ
 41
0.5908291853086419
  7
FDASTYLE0
 72
     5
 11
-24.37670935502836
 21
125.95679939
 31
0.0
  0
TEXT
  5
D5B
  8
0
 62
     3
 10
-51.17909622
 20
113.70368659
 30
0.0
 40
3.20000005
  1
M8
 41
0.6292519788095238
  7
FDASTYLE0
 72
     5
 11
-47.15188349269385
 21
113.70368659
 31
0.0
  0
INSERT
  5
D5C
  8
0
  6
CONTINUOUS
  2
DC_GROUP_525
 10
0.0
 20
0.0
 30
0.0
  0
INSERT
  5
D5D
  8
0
  6
CONTINUOUS
  2
DC_GROUP_526
 10
0.0
 20
0.0
 30
0.0
  0
INSERT
  5
D5E
  8
0
  6
CONTINUOUS
  2
DC_GROUP_527
 10
0.0
 20
0.0
 30
0.0
  0
INSERT
  5
D5F
  8
0
  6
CONTINUOUS
  2
DC_GROUP_530
 10
0.0
 20
0.0
 30
0.0
  0
INSERT
  5
D60
  8
0
  6
CONTINUOUS
  2
DC_GROUP_533
 10
0.0
 20
0.0
 30
0.0
  0
INSERT
  5
D61
  8
0
  6
CONTINUOUS
  2
DC_GROUP_534
 10
0.0
 20
0.0
 30
0.0
  0
INSERT
  5
D62
  8
0
  6
CONTINUOUS
  2
DC_GROUP_535
 10
0.0
 20
0.0
 30
0.0
  0
TEXT
  5
D63
  8
LAYER0014
 62
     3
 10
-156.2336244
 20
40.26667178
 30
0.0
 40
1.60000002
  1
+0.3
 50
90.0
 41
0.5867349532142848
  7
FDASTYLE0
 72
     5
 11
-156.2336244
 21
44.02177552751022
 31
0.0
  0
TEXT
  5
D64
  8
LAYER0014
 62
     3
 10
-153.8336243
 20
40.26667178
 30
0.0
 40
1.60000002
  1
+0.2
 50
90.0
 41
0.5867349532142848
  7
FDASTYLE0
 72
     5
 11
-153.8336243
 21
44.02177552751022
 31
0.0
  0
TEXT
  5
D65
  8
LAYER0014
 62
     3
 10
-154.23362434
 20
30.66667163
 30
0.0
 40
3.20000005
  1
φ43
 50
90.0
 41
0.5803573993750011
  7
FDASTYLE0
 72
     5
 11
-154.23362434
 21
36.60953149245719
 31
0.0
  0
TEXT
  5
D66
  8
LAYER0014
 62
     3
 10
-166.27089727
 20
26.32522898
 30
0.0
 40
3.20000005
  1
M45xP1.5
 50
89.90000000000001
 41
0.6164968711309526
  7
FDASTYLE0
 72
     5
 11
-166.2433519389668
 21
42.10752508970903
 31
0.0
  0
TEXT
  5
D67
  8
LAYER0014
 62
     3
 10
-178.27825151
 20
31.12522174
 30
0.0
 40
3.20000005
  1
φ52H7
 50
89.90000000000001
 41
0.5769233319230768
  7
FDASTYLE0
 72
     5
 11
-178.2614963500198
 21
40.72521151156094
 31
0.0
  0
TEXT
  5
D68
  8
LAYER0014
 62
     3
 10
-190.29677584
 20
29.52522415
 30
0.0
 40
3.20000005
  1
φ115H7
 50
89.90000000000001
 41
0.5760371209677416
  7
FDASTYLE0
 72
     5
 11
-190.276829220976
 21
40.95378340185825
 31
0.0
  0
TEXT
  5
D69
  8
LAYER0014
 62
     3
 10
-202.3069226
 20
32.72521932000001
 30
0.0
 40
3.20000005
  1
φ125
 50
89.90000000000001
 41
0.5782315480952383
  7
FDASTYLE0
 72
     5
 11
-202.2933588990637
 21
40.49663961126363
 31
0.0
  0
TEXT
  5
D6A
  8
LAYER0014
 62
     3
 10
-129.57618594
 20
28.8128022
 30
0.0
 40
3.20000005
  1
15
 41
0.5272111173809515
  7
FDASTYLE0
 72
     5
 11
-126.2020347360408
 21
28.8128022
 31
0.0
  0
TEXT
  5
D6B
  8
LAYER0014
 62
     3
 10
-118.97618592
 20
28.8128022
 30
0.0
 40
3.20000005
  1
3
 41
0.4761906866666664
  7
FDASTYLE0
 72
     5
 11
-117.4523756988571
 21
28.8128022
 31
0.0
  0
TEXT
  5
D6C
  8
LAYER0014
 62
     3
 10
-101.57618594
 20
28.8128022
 30
0.0
 40
3.20000005
  1
35
 41
0.5782315480952387
  7
FDASTYLE0
 72
     5
 11
-97.87550397436732
 21
28.8128022
 31
0.0
  0
TEXT
  5
D6D
  8
LAYER0014
 62
     3
 10
-78.47618592000001
 20
28.8128022
 30
0.0
 40
3.20000005
  1
8
 41
0.4761906866666664
  7
FDASTYLE0
 72
     5
 11
-76.95237569885714
 21
28.8128022
 31
0.0
  0
TEXT
  5
D6E
  8
LAYER0014
 62
     3
 10
-86.47618592000001
 20
46.38799751
 30
0.0
 40
3.20000005
  1
8
 41
0.4761906866666664
  7
FDASTYLE0
 72
     5
 11
-84.95237569885714
 21
46.38799751
 31
0.0
  0
TEXT
  5
D6F
  8
LAYER0014
 62
     3
 10
-104.52692449
 20
46.38799751
 30
0.0
 40
3.20000005
  1
2.5
 41
0.4988664336507936
  7
FDASTYLE0
 72
     5
 11
-99.73780665212242
 21
46.38799751
 31
0.0
  0
TEXT
  5
D70
  8
LAYER0014
 62
     3
 10
-56.2753982
 20
43.47155143000001
 30
0.0
 40
1.60000002
  1
+0.5
 50
89.90000000000001
 41
0.5867349532142848
  7
FDASTYLE0
 72
     5
 11
-56.26884431091258
 21
47.2266494581616
 31
0.0
  0
TEXT
  5
D71
  8
LAYER0014
 62
     3
 10
-53.87540176
 20
43.46736265
 30
0.0
 40
1.60000002
  1
 0
 50
89.90000000000001
 41
0.2380953433333342
  7
FDASTYLE0
 72
     5
 11
-53.87407198540255
 21
44.22926659774294
 31
0.0
  0
TEXT
  5
D72
  8
LAYER0014
 62
     3
 10
-54.30332644
 20
27.46808491
 30
0.0
 40
3.20000005
  1
φ32.5
 50
89.90000000000001
 41
0.5769233319230768
  7
FDASTYLE0
 72
     5
 11
-54.2865712800198
 21
37.06807468156094
 31
0.0
  0
TEXT
  5
D73
  8
LAYER0014
 62
     3
 10
-42.19125402
 20
26.32522898
 30
0.0
 40
3.20000005
  1
M34xP1.5
 50
89.90000000000001
 41
0.6164968711309524
  7
FDASTYLE0
 72
     5
 11
-42.16370868896679
 21
42.10752508970902
 31
0.0
  0
TEXT
  5
D74
  8
LAYER0014
 62
     3
 10
-30.33096778
 20
41.17381394
 30
0.0
 40
3.20000005
  1
MAX27.6
 50
90.0
 41
0.6073860799319727
  7
FDASTYLE0
 72
     5
 11
-30.33096778
 21
54.77926234306132
 31
0.0
  0
TEXT
  5
D75
  8
LAYER0014
 62
     3
 10
-30.33096778
 20
80.42381406
 30
0.0
 40
3.20000005
  1
36
 50
90.0
 41
0.5782315480952387
  7
FDASTYLE0
 72
     5
 11
-30.33096778
 21
84.12449602563268
 31
0.0
  0
TEXT
  5
D76
  8
LAYER0014
 62
     3
 10
-147.01113164
 20
-49.99841607
 30
0.0
 40
3.20000005
  1
4.2
 41
0.4988664336507951
  7
FDASTYLE0
 72
     5
 11
-142.2220138021224
 21
-49.99841607
 31
0.0
  0
TEXT
  5
D77
  8
LAYER0014
 62
     3
 10
-107.17618752
 20
-49.99841607
 30
0.0
 40
3.20000005
  1
55.8
 41
0.544217927619048
  7
FDASTYLE0
 72
     5
 11
-100.2101979376326
 21
-49.99841607
 31
0.0
  0
TEXT
  5
D78
  8
LAYER0014
 62
     3
 10
-106.07618594
 20
-62.01416314
 30
0.0
 40
3.20000005
  1
60
 41
0.5612247378571422
  7
FDASTYLE0
 72
     5
 11
-102.4843475615918
 21
-62.01416314
 31
0.0
  0
TEXT
  5
D79
  8
LAYER0014
 62
     3
 10
-166.02505386
 20
-37.98268425
 30
0.0
 40
3.20000005
  1
MAX11.2
 41
0.6073860799319734
  7
FDASTYLE0
 72
     5
 11
-152.4196054569387
 21
-37.98268425
 31
0.0
  0
TEXT
  5
D7A
  8
LAYER0014
 62
     3
 10
-154.24120283
 20
-15.67478309
 30
0.0
 40
3.20000005
  1
M10
 50
89.90000000000001
 41
0.6462587890476197
  7
FDASTYLE0
 72
     5
 11
-154.230374665387
 21
-9.470708067562654
 31
0.0
  0
TEXT
  5
D7B
  8
LAYER0014
 62
     3
 10
-158.64143562
 20
1.57679451
 30
0.0
 40
3.20000005
  1
15.2
 41
0.5187077122619055
  7
FDASTYLE0
 72
     5
 11
-152.0019767993061
 21
1.57679451
 31
0.0
  0
TEXT
  5
D7C
  8
LAYER0014
 62
     3
 10
-42.30900493
 20
68.52521209
 30
0.0
 40
3.20000005
  1
9
 50
89.90000000000001
 41
0.4421770661904748
  7
FDASTYLE0
 72
     5
 11
-42.30653534859702
 21
69.94017656880149
 31
0.0
  0
TEXT
  5
D7D
  8
LAYER0014
 62
     3
 10
202.93941266
 20
-8.729036510000006
 30
0.0
 40
3.20000005
  1
27
 50
59.99999999999999
 41
0.5782315480952371
  7
FDASTYLE0
 72
     5
 11
204.7897536428163
 21
-5.524151916435179
 31
0.0
  0
TEXT
  5
D7E
  8
LAYER0014
 62
     3
 10
-95.24408722
 20
79.92367175
 30
0.0
 40
2.79999995
  1
31
 50
90.0
 41
0.5442857266666662
  7
FDASTYLE0
 72
     5
 11
-95.24408722
 21
82.97167176490476
 31
0.0
  0
TEXT
  5
D7F
  8
LAYER0014
 62
     3
 10
-42.50701141
 20
79.92367175
 30
0.0
 40
2.79999995
  1
17
 50
90.0
 41
0.6026020545238073
  7
FDASTYLE0
 72
     5
 11
-42.50701141
 21
83.29824319507311
 31
0.0
  0
INSERT
  5
D80
  8
LAYER0014
  6
CONTINUOUS
  2
DC_GROUP_536
 10
0.0
 20
0.0
 30
0.0
  0
INSERT
  5
D81
  8
LAYER0014
  6
CONTINUOUS
  2
DC_GROUP_537
 10
0.0
 20
0.0
 30
0.0
  0
INSERT
  5
D82
  8
LAYER0014
  6
CONTINUOUS
  2
DC_GROUP_538
 10
0.0
 20
0.0
 30
0.0
  0
INSERT
  5
D83
  8
LAYER0014
  6
CONTINUOUS
  2
DC_GROUP_539
 10
0.0
 20
0.0
 30
0.0
  0
INSERT
  5
D84
  8
LAYER0014
  6
CONTINUOUS
  2
DC_GROUP_540
 10
0.0
 20
0.0
 30
0.0
  0
INSERT
  5
D85
  8
LAYER0014
  6
CONTINUOUS
  2
DC_GROUP_541
 10
0.0
 20
0.0
 30
0.0
  0
INSERT
  5
D86
  8
LAYER0014
  6
CONTINUOUS
  2
DC_GROUP_542
 10
0.0
 20
0.0
 30
0.0
  0
INSERT
  5
D87
  8
LAYER0014
  6
CONTINUOUS
  2
DC_GROUP_543
 10
0.0
 20
0.0
 30
0.0
  0
INSERT
  5
D88
  8
LAYER0014
  6
CONTINUOUS
  2
DC_GROUP_544
 10
0.0
 20
0.0
 30
0.0
  0
INSERT
  5
D89
  8
LAYER0014
  6
CONTINUOUS
  2
DC_GROUP_545
 10
0.0
 20
0.0
 30
0.0
  0
INSERT
  5
D8A
  8
LAYER0014
  6
CONTINUOUS
  2
DC_GROUP_546
 10
0.0
 20
0.0
 30
0.0
  0
INSERT
  5
D8B
  8
LAYER0014
  6
CONTINUOUS
  2
DC_GROUP_547
 10
0.0
 20
0.0
 30
0.0
  0
INSERT
  5
D8C
  8
LAYER0014
  6
CONTINUOUS
  2
DC_GROUP_548
 10
0.0
 20
0.0
 30
0.0
  0
INSERT
  5
D8D
  8
LAYER0014
  6
CONTINUOUS
  2
DC_GROUP_549
 10
0.0
 20
0.0
 30
0.0
  0
INSERT
  5
D8E
  8
LAYER0014
  6
CONTINUOUS
  2
DC_GROUP_550
 10
0.0
 20
0.0
 30
0.0
  0
INSERT
  5
D8F
  8
LAYER0014
  6
CONTINUOUS
  2
DC_GROUP_551
 10
0.0
 20
0.0
 30
0.0
  0
INSERT
  5
D90
  8
LAYER0014
  6
CONTINUOUS
  2
DC_GROUP_552
 10
0.0
 20
0.0
 30
0.0
  0
INSERT
  5
D91
  8
LAYER0014
  6
CONTINUOUS
  2
DC_GROUP_553
 10
0.0
 20
0.0
 30
0.0
  0
INSERT
  5
D92
  8
LAYER0014
  6
CONTINUOUS
  2
DC_GROUP_554
 10
0.0
 20
0.0
 30
0.0
  0
INSERT
  5
D93
  8
LAYER0014
  6
CONTINUOUS
  2
DC_GROUP_555
 10
0.0
 20
0.0
 30
0.0
  0
INSERT
  5
D94
  8
LAYER0014
  6
CONTINUOUS
  2
DC_GROUP_556
 10
0.0
 20
0.0
 30
0.0
  0
INSERT
  5
D95
  8
LAYER0014
  6
CONTINUOUS
  2
DC_GROUP_557
 10
0.0
 20
0.0
 30
0.0
  0
INSERT
  5
D96
  8
LAYER0014
  6
CONTINUOUS
  2
DC_GROUP_558
 10
0.0
 20
0.0
 30
0.0
  0
INSERT
  5
D97
  8
LAYER0014
  6
CONTINUOUS
  2
DC_GROUP_559
 10
0.0
 20
0.0
 30
0.0
  0
INSERT
  5
D98
  8
LAYER0014
  6
CONTINUOUS
  2
DC_GROUP_560
 10
0.0
 20
0.0
 30
0.0
  0
INSERT
  5
D99
  8
LAYER0014
  6
CONTINUOUS
  2
DC_GROUP_561
 10
0.0
 20
0.0
 30
0.0
  0
INSERT
  5
D9A
  8
LAYER0014
  6
CONTINUOUS
  2
DC_GROUP_562
 10
0.0
 20
0.0
 30
0.0
  0
INSERT
  5
D9B
  8
LAYER0014
  6
CONTINUOUS
  2
DC_GROUP_563
 10
0.0
 20
0.0
 30
0.0
  0
INSERT
  5
D9C
  8
LAYER0014
  6
CONTINUOUS
  2
DC_GROUP_564
 10
0.0
 20
0.0
 30
0.0
  0
INSERT
  5
D9D
  8
LAYER0014
  6
CONTINUOUS
  2
DC_GROUP_565
 10
0.0
 20
0.0
 30
0.0
  0
INSERT
  5
D9E
  8
LAYER0014
  6
CONTINUOUS
  2
DC_GROUP_566
 10
0.0
 20
0.0
 30
0.0
  0
INSERT
  5
D9F
  8
LAYER0014
  6
CONTINUOUS
  2
DC_GROUP_567
 10
0.0
 20
0.0
 30
0.0
  0
INSERT
  5
DA0
  8
LAYER0014
  6
CONTINUOUS
  2
DC_GROUP_568
 10
0.0
 20
0.0
 30
0.0
  0
INSERT
  5
DA1
  8
LAYER0014
  6
CONTINUOUS
  2
DC_GROUP_569
 10
0.0
 20
0.0
 30
0.0
  0
INSERT
  5
DA2
  8
LAYER0014
  6
CONTINUOUS
  2
DC_GROUP_570
 10
0.0
 20
0.0
 30
0.0
  0
INSERT
  5
DA3
  8
LAYER0014
  6
CONTINUOUS
  2
DC_GROUP_571
 10
0.0
 20
0.0
 30
0.0
  0
INSERT
  5
DA4
  8
LAYER0014
  6
CONTINUOUS
  2
DC_GROUP_572
 10
0.0
 20
0.0
 30
0.0
  0
INSERT
  5
DA5
  8
LAYER0014
  6
CONTINUOUS
  2
DC_GROUP_573
 10
0.0
 20
0.0
 30
0.0
  0
INSERT
  5
DA6
  8
LAYER0014
  6
CONTINUOUS
  2
DC_GROUP_574
 10
0.0
 20
0.0
 30
0.0
  0
INSERT
  5
DA7
  8
LAYER0014
  6
CONTINUOUS
  2
DC_GROUP_575
 10
0.0
 20
0.0
 30
0.0
  0
INSERT
  5
DA8
  8
LAYER0014
  6
CONTINUOUS
  2
DC_GROUP_576
 10
0.0
 20
0.0
 30
0.0
  0
INSERT
  5
DA9
  8
LAYER0014
  6
CONTINUOUS
  2
DC_GROUP_577
 10
0.0
 20
0.0
 30
0.0
  0
INSERT
  5
DAA
  8
LAYER0014
  6
CONTINUOUS
  2
DC_GROUP_578
 10
0.0
 20
0.0
 30
0.0
  0
INSERT
  5
DAB
  8
LAYER0014
  6
CONTINUOUS
  2
DC_GROUP_579
 10
0.0
 20
0.0
 30
0.0
  0
INSERT
  5
DAC
  8
LAYER0014
  6
CONTINUOUS
  2
DC_GROUP_580
 10
0.0
 20
0.0
 30
0.0
  0
INSERT
  5
DAD
  8
LAYER0014
  6
CONTINUOUS
  2
DC_GROUP_581
 10
0.0
 20
0.0
 30
0.0
  0
INSERT
  5
DAE
  8
LAYER0014
  6
CONTINUOUS
  2
DC_GROUP_582
 10
0.0
 20
0.0
 30
0.0
  0
INSERT
  5
DAF
  8
LAYER0014
  6
CONTINUOUS
  2
DC_GROUP_583
 10
0.0
 20
0.0
 30
0.0
  0
INSERT
  5
DB0
  8
LAYER0014
  6
CONTINUOUS
  2
DC_GROUP_584
 10
0.0
 20
0.0
 30
0.0
  0
INSERT
  5
DB1
  8
LAYER0014
  6
CONTINUOUS
  2
DC_GROUP_585
 10
0.0
 20
0.0
 30
0.0
  0
INSERT
  5
DB2
  8
LAYER0014
  6
CONTINUOUS
  2
DC_GROUP_586
 10
0.0
 20
0.0
 30
0.0
  0
INSERT
  5
DB3
  8
LAYER0014
  6
CONTINUOUS
  2
DC_GROUP_587
 10
0.0
 20
0.0
 30
0.0
  0
INSERT
  5
DB4
  8
LAYER0014
  6
CONTINUOUS
  2
DC_GROUP_588
 10
0.0
 20
0.0
 30
0.0
  0
INSERT
  5
DB5
  8
LAYER0014
  6
CONTINUOUS
  2
DC_GROUP_589
 10
0.0
 20
0.0
 30
0.0
  0
INSERT
  5
DB6
  8
LAYER0014
  6
CONTINUOUS
  2
DC_GROUP_590
 10
0.0
 20
0.0
 30
0.0
  0
INSERT
  5
DB7
  8
LAYER0014
  6
CONTINUOUS
  2
DC_GROUP_591
 10
0.0
 20
0.0
 30
0.0
  0
INSERT
  5
DB8
  8
LAYER0014
  6
CONTINUOUS
  2
DC_GROUP_592
 10
0.0
 20
0.0
 30
0.0
  0
INSERT
  5
DB9
  8
LAYER0014
  6
CONTINUOUS
  2
DC_GROUP_593
 10
0.0
 20
0.0
 30
0.0
  0
INSERT
  5
DBA
  8
LAYER0014
  6
CONTINUOUS
  2
DC_GROUP_594
 10
0.0
 20
0.0
 30
0.0
  0
INSERT
  5
DBB
  8
LAYER0014
  6
CONTINUOUS
  2
DC_GROUP_595
 10
0.0
 20
0.0
 30
0.0
  0
INSERT
  5
DBC
  8
LAYER0014
  6
CONTINUOUS
  2
DC_GROUP_596
 10
0.0
 20
0.0
 30
0.0
  0
INSERT
  5
DBD
  8
LAYER0014
  6
CONTINUOUS
  2
DC_GROUP_597
 10
0.0
 20
0.0
 30
0.0
  0
INSERT
  5
DBE
  8
LAYER0014
  6
CONTINUOUS
  2
DC_GROUP_598
 10
0.0
 20
0.0
 30
0.0
  0
INSERT
  5
DBF
  8
LAYER0014
  6
CONTINUOUS
  2
DC_GROUP_599
 10
0.0
 20
0.0
 30
0.0
  0
INSERT
  5
DC0
  8
LAYER0014
  6
CONTINUOUS
  2
DC_GROUP_600
 10
0.0
 20
0.0
 30
0.0
  0
INSERT
  5
DC1
  8
LAYER0014
  6
CONTINUOUS
  2
DC_GROUP_645
 10
0.0
 20
0.0
 30
0.0
  0
INSERT
  5
DC2
  8
LAYER0014
  6
CONTINUOUS
  2
DC_GROUP_601
 10
0.0
 20
0.0
 30
0.0
  0
INSERT
  5
DC3
  8
LAYER0014
  6
CONTINUOUS
  2
DC_GROUP_602
 10
0.0
 20
0.0
 30
0.0
  0
INSERT
  5
DC4
  8
LAYER0014
  6
CONTINUOUS
  2
DC_GROUP_629
 10
0.0
 20
0.0
 30
0.0
  0
INSERT
  5
DC5
  8
LAYER0014
  6
CONTINUOUS
  2
DC_GROUP_630
 10
0.0
 20
0.0
 30
0.0
  0
INSERT
  5
DC6
  8
LAYER0014
  6
CONTINUOUS
  2
DC_GROUP_603
 10
0.0
 20
0.0
 30
0.0
  0
INSERT
  5
DC7
  8
LAYER0014
  6
CONTINUOUS
  2
DC_GROUP_604
 10
0.0
 20
0.0
 30
0.0
  0
INSERT
  5
DC8
  8
LAYER0014
  6
CONTINUOUS
  2
DC_GROUP_605
 10
0.0
 20
0.0
 30
0.0
  0
INSERT
  5
DC9
  8
LAYER0014
  6
CONTINUOUS
  2
DC_GROUP_606
 10
0.0
 20
0.0
 30
0.0
  0
INSERT
  5
DCA
  8
LAYER0014
  6
CONTINUOUS
  2
DC_GROUP_607
 10
0.0
 20
0.0
 30
0.0
  0
INSERT
  5
DCB
  8
LAYER0014
  6
CONTINUOUS
  2
DC_GROUP_608
 10
0.0
 20
0.0
 30
0.0
  0
INSERT
  5
DCC
  8
LAYER0014
  6
CONTINUOUS
  2
DC_GROUP_609
 10
0.0
 20
0.0
 30
0.0
  0
INSERT
  5
DCD
  8
LAYER0014
  6
CONTINUOUS
  2
DC_GROUP_610
 10
0.0
 20
0.0
 30
0.0
  0
INSERT
  5
DCE
  8
LAYER0014
  6
CONTINUOUS
  2
DC_GROUP_611
 10
0.0
 20
0.0
 30
0.0
  0
INSERT
  5
DCF
  8
LAYER0014
  6
CONTINUOUS
  2
DC_GROUP_625
 10
0.0
 20
0.0
 30
0.0
  0
INSERT
  5
DD0
  8
LAYER0014
  6
CONTINUOUS
  2
DC_GROUP_628
 10
0.0
 20
0.0
 30
0.0
  0
INSERT
  5
DD1
  8
LAYER0014
  6
CONTINUOUS
  2
DC_GROUP_631
 10
0.0
 20
0.0
 30
0.0
  0
INSERT
  5
DD2
  8
LAYER0014
  6
CONTINUOUS
  2
DC_GROUP_643
 10
0.0
 20
0.0
 30
0.0
  0
INSERT
  5
DD3
  8
LAYER0014
  6
CONTINUOUS
  2
DC_GROUP_612
 10
0.0
 20
0.0
 30
0.0
  0
INSERT
  5
DD4
  8
LAYER0014
  6
CONTINUOUS
  2
DC_GROUP_613
 10
0.0
 20
0.0
 30
0.0
  0
INSERT
  5
DD5
  8
LAYER0014
  6
CONTINUOUS
  2
DC_GROUP_614
 10
0.0
 20
0.0
 30
0.0
  0
INSERT
  5
DD6
  8
LAYER0014
  6
CONTINUOUS
  2
DC_GROUP_615
 10
0.0
 20
0.0
 30
0.0
  0
INSERT
  5
DD7
  8
LAYER0014
  6
CONTINUOUS
  2
DC_GROUP_616
 10
0.0
 20
0.0
 30
0.0
  0
INSERT
  5
DD8
  8
LAYER0014
  6
CONTINUOUS
  2
DC_GROUP_624
 10
0.0
 20
0.0
 30
0.0
  0
INSERT
  5
DD9
  8
LAYER0014
  6
CONTINUOUS
  2
DC_GROUP_626
 10
0.0
 20
0.0
 30
0.0
  0
INSERT
  5
DDA
  8
LAYER0014
  6
CONTINUOUS
  2
DC_GROUP_639
 10
0.0
 20
0.0
 30
0.0
  0
INSERT
  5
DDB
  8
LAYER0014
  6
CONTINUOUS
  2
DC_GROUP_640
 10
0.0
 20
0.0
 30
0.0
  0
INSERT
  5
DDC
  8
LAYER0014
  6
CONTINUOUS
  2
DC_GROUP_617
 10
0.0
 20
0.0
 30
0.0
  0
INSERT
  5
DDD
  8
LAYER0014
  6
CONTINUOUS
  2
DC_GROUP_618
 10
0.0
 20
0.0
 30
0.0
  0
INSERT
  5
DDE
  8
LAYER0014
  6
CONTINUOUS
  2
DC_GROUP_619
 10
0.0
 20
0.0
 30
0.0
  0
INSERT
  5
DDF
  8
LAYER0014
  6
CONTINUOUS
  2
DC_GROUP_620
 10
0.0
 20
0.0
 30
0.0
  0
INSERT
  5
DE0
  8
LAYER0014
  6
CONTINUOUS
  2
DC_GROUP_621
 10
0.0
 20
0.0
 30
0.0
  0
INSERT
  5
DE1
  8
LAYER0014
  6
CONTINUOUS
  2
DC_GROUP_622
 10
0.0
 20
0.0
 30
0.0
  0
INSERT
  5
DE2
  8
LAYER0014
  6
CONTINUOUS
  2
DC_GROUP_642
 10
0.0
 20
0.0
 30
0.0
  0
INSERT
  5
DE3
  8
LAYER0014
  6
CONTINUOUS
  2
DC_GROUP_623
 10
0.0
 20
0.0
 30
0.0
  0
INSERT
  5
DE4
  8
LAYER0014
  6
CONTINUOUS
  2
DC_GROUP_627
 10
0.0
 20
0.0
 30
0.0
  0
INSERT
  5
DE5
  8
LAYER0014
  6
CONTINUOUS
  2
DC_GROUP_632
 10
0.0
 20
0.0
 30
0.0
  0
INSERT
  5
DE6
  8
LAYER0014
  6
CONTINUOUS
  2
DC_GROUP_633
 10
0.0
 20
0.0
 30
0.0
  0
INSERT
  5
DE7
  8
LAYER0014
  6
CONTINUOUS
  2
DC_GROUP_634
 10
0.0
 20
0.0
 30
0.0
  0
INSERT
  5
DE8
  8
LAYER0014
  6
CONTINUOUS
  2
DC_GROUP_635
 10
0.0
 20
0.0
 30
0.0
  0
INSERT
  5
DE9
  8
LAYER0014
  6
CONTINUOUS
  2
DC_GROUP_636
 10
0.0
 20
0.0
 30
0.0
  0
INSERT
  5
DEA
  8
LAYER0014
  6
ACAD_ISO13W100
  2
DC_GROUP_637
 10
0.0
 20
0.0
 30
0.0
  0
INSERT
  5
DEB
  8
LAYER0014
  6
ACAD_ISO13W100
  2
DC_GROUP_638
 10
0.0
 20
0.0
 30
0.0
  0
INSERT
  5
DEC
  8
LAYER0014
  6
ACAD_ISO13W100
  2
DC_GROUP_641
 10
0.0
 20
0.0
 30
0.0
  0
INSERT
  5
DED
  8
LAYER0014
  6
ACAD_ISO13W100
  2
DC_GROUP_644
 10
0.0
 20
0.0
 30
0.0
  0
INSERT
  5
DEE
  8
LAYER0014
  6
ACAD_ISO13W100
  2
DC_GROUP_646
 10
0.0
 20
0.0
 30
0.0
  0
VIEWPORT
  5
47
 67
     1
  8
0
 10
0.0
 20
0.0
 30
0.0
 40
1614.0
 41
1164.0
 68
     1
 69
     1
1001
ACAD
1000
MVIEW
1002
{
1070
    16
1010
0.0
1020
0.0
1030
0.0
1020
0.0
1030
0.0
1010
0.0
1020
0.0
1030
1.0
1020
0.0
1030
1.0
1040
0.0
1040
1164.0
1040
0.0
1040
0.0
1040
50.0
1040
0.0
1040
0.0
1070
     0
1070
   100
1070
     0
1070
     1
1070
     0
1070
     0
1070
     0
1070
     0
1040
0.0
1040
0.0
1040
0.0
1040
0.5
1040
0.5
1040
0.0
1040
0.0
1070
     0
1002
{
1002
}
1002
}
  0
ENDSEC
  0
EOF
