  0
SECTION
  2
HEADER
  9
$ACADVER
  1
AC1009
  9
$DWGCODEPAGE
  3
ansi_932
  9
$INSBASE
 10
0.0
 20
0.0
 30
0.0
  9
$EXTMIN
 10
-831.0
 20
-569.9999999999999
 30
0.0
  9
$EXTMAX
 10
831.0
 20
569.9999999999999
 30
0.0
  9
$LIMMIN
 10
-297.0
 20
-210.0
  9
$LIMMAX
 10
297.0
 20
210.0
  9
$ORTHOMODE
 70
     0
  9
$REGENMODE
 70
     1
  9
$FILLMODE
 70
     1
  9
$QTEXTMODE
 70
     0
  9
$MIRRTEXT
 70
     1
  9
$DRAGMODE
 70
     2
  9
$LTSCALE
 40
1.0
  9
$OSMODE
 70
    37
  9
$ATTMODE
 70
     1
  9
$TEXTSIZE
 40
0.2
  9
$TRACEWID
 40
0.05
  9
$TEXTSTYLE
  7
STANDARD
  9
$CLAYER
  8
0
  9
$CELTYPE
  6
BYLAYER
  9
$CECOLOR
 62
   256
  9
$DIMSCALE
 40
1.0
  9
$DIMASZ
 40
2.5
  9
$DIMEXO
 40
0.0625
  9
$DIMDLI
 40
0.38
  9
$DIMRND
 40
0.0
  9
$DIMDLE
 40
0.0
  9
$DIMEXE
 40
0.18
  9
$DIMTP
 40
0.0
  9
$DIMTM
 40
0.0
  9
$DIMTXT
 40
0.18
  9
$DIMCEN
 40
0.09
  9
$DIMTSZ
 40
0.0
  9
$DIMTOL
 70
     0
  9
$DIMLIM
 70
     0
  9
$DIMTIH
 70
     1
  9
$DIMTOH
 70
     1
  9
$DIMSE1
 70
     0
  9
$DIMSE2
 70
     0
  9
$DIMTAD
 70
     3
  9
$DIMZIN
 70
     0
  9
$DIMBLK
  1

  9
$DIMASO
 70
     1
  9
$DIMSHO
 70
     1
  9
$DIMPOST
  1

  9
$DIMAPOST
  1

  9
$DIMALT
 70
     0
  9
$DIMALTD
 70
     2
  9
$DIMALTF
 40
25.4
  9
$DIMLFAC
 40
1.0
  9
$DIMTOFL
 70
     0
  9
$DIMTVP
 40
0.0
  9
$DIMTIX
 70
     0
  9
$DIMSOXD
 70
     0
  9
$DIMSAH
 70
     0
  9
$DIMBLK1
  1

  9
$DIMBLK2
  1

  9
$DIMSTYLE
  2
STANDARD
  9
$DIMCLRD
 70
     0
  9
$DIMCLRE
 70
     0
  9
$DIMCLRT
 70
     0
  9
$DIMTFAC
 40
1.0
  9
$DIMGAP
 40
0.09
  9
$LUNITS
 70
     2
  9
$LUPREC
 70
     4
  9
$SKETCHINC
 40
0.1
  9
$FILLETRAD
 40
0.5
  9
$AUNITS
 70
     0
  9
$AUPREC
 70
     0
  9
$MENU
  1
.
  9
$ELEVATION
 40
0.0
  9
$PELEVATION
 40
0.0
  9
$THICKNESS
 40
0.0
  9
$LIMCHECK
 70
     0
  9
$CHAMFERA
 40
0.5
  9
$CHAMFERB
 40
0.5
  9
$SKPOLY
 70
     0
  9
$TDCREATE
 40
2454889.625242743
  9
$TDUPDATE
 40
2454889.625242755
  9
$TDINDWG
 40
0.0000000116
  9
$TDUSRTIMER
 40
0.0000000116
  9
$USRTIMER
 70
     1
  9
$ANGBASE
 50
0.0
  9
$ANGDIR
 70
     0
  9
$PDMODE
 70
     0
  9
$PDSIZE
 40
1.0
  9
$PLINEWID
 40
0.0
  9
$COORDS
 70
     1
  9
$SPLFRAME
 70
     0
  9
$SPLINETYPE
 70
     6
  9
$SPLINESEGS
 70
     8
  9
$ATTDIA
 70
     0
  9
$ATTREQ
 70
     1
  9
$HANDLING
 70
     1
  9
$HANDSEED
  5
524
  9
$SURFTAB1
 70
     6
  9
$SURFTAB2
 70
     6
  9
$SURFTYPE
 70
     6
  9
$SURFU
 70
     6
  9
$SURFV
 70
     6
  9
$UCSNAME
  2

  9
$UCSORG
 10
0.0
 20
0.0
 30
0.0
  9
$UCSXDIR
 10
1.0
 20
0.0
 30
0.0
  9
$UCSYDIR
 10
0.0
 20
1.0
 30
0.0
  9
$PUCSNAME
  2

  9
$PUCSORG
 10
0.0
 20
0.0
 30
0.0
  9
$PUCSXDIR
 10
1.0
 20
0.0
 30
0.0
  9
$PUCSYDIR
 10
0.0
 20
1.0
 30
0.0
  9
$USERI1
 70
     0
  9
$USERI2
 70
     0
  9
$USERI3
 70
     0
  9
$USERI4
 70
     0
  9
$USERI5
 70
     0
  9
$USERR1
 40
0.0
  9
$USERR2
 40
0.0
  9
$USERR3
 40
0.0
  9
$USERR4
 40
0.0
  9
$USERR5
 40
0.0
  9
$WORLDVIEW
 70
     1
  9
$SHADEDGE
 70
     3
  9
$SHADEDIF
 70
    70
  9
$TILEMODE
 70
     1
  9
$MAXACTVP
 70
    64
  9
$PLIMCHECK
 70
     0
  9
$PEXTMIN
 10
1.000000000000000E+20
 20
1.000000000000000E+20
 30
1.000000000000000E+20
  9
$PEXTMAX
 10
-1.000000000000000E+20
 20
-1.000000000000000E+20
 30
-1.000000000000000E+20
  9
$PLIMMIN
 10
0.0
 20
0.0
  9
$PLIMMAX
 10
12.0
 20
9.0
  9
$UNITMODE
 70
     0
  9
$VISRETAIN
 70
     0
  9
$PLINEGEN
 70
     1
  9
$PSLTSCALE
 70
     0
  0
ENDSEC
  0
SECTION
  2
TABLES
  0
TABLE
  2
VPORT
 70
     1
  0
VPORT
  2
*ACTIVE
 70
     0
 10
0.0
 20
0.0
 11
1.0
 21
1.0
 12
0.0
 22
0.0
 13
0.0
 23
0.0
 14
0.5
 24
0.5
 15
0.5
 25
0.5
 16
0.0
 26
0.0
 36
1.0
 17
-0.0000000000000036
 27
0.0
 37
0.0
 40
387.6
 41
1.457894736842106
 42
50.0
 43
0.0
 44
0.0
 50
0.0
 51
0.0
 71
     0
 72
  1000
 73
     1
 74
     1
 75
     0
 76
     0
 77
     0
 78
     0
  0
ENDTAB
  0
TABLE
  2
LTYPE
 70
    28
  0
LTYPE
  2
CONTINUOUS
 70
     0
  3
Solid line
 72
    65
 73
     0
 40
0.0
  0
LTYPE
  2
HIDDENX2
 70
     0
  3
CADPAC LINETYPE
 72
    65
 73
     2
 40
9.893992932862261
 49
7.420494699646696
 49
-2.473498233215565
  0
LTYPE
  2
HIDDEN
 70
     0
  3
CADPAC LINETYPE
 72
    65
 73
     2
 40
7.420494699646696
 49
4.946996466431131
 49
-2.473498233215565
  0
LTYPE
  2
HIDDEN2
 70
     0
  3
CADPAC LINETYPE
 72
    65
 73
     2
 40
6.183745583038913
 49
3.710247349823348
 49
-2.473498233215565
  0
LTYPE
  2
DASHED
 70
     0
  3
CADPAC LINETYPE
 72
    65
 73
     2
 40
6.925795053003526
 49
4.946996466431131
 49
-1.978798586572395
  0
LTYPE
  2
DASHED2
 70
     0
  3
CADPAC LINETYPE
 72
    65
 73
     2
 40
4.452296819787989
 49
2.968197879858678
 49
-1.484098939929311
  0
LTYPE
  2
DASHEDX2
 70
     0
  3
CADPAC LINETYPE
 72
    65
 73
     2
 40
11.8727915194346
 49
9.893992932862204
 49
-1.978798586572395
  0
LTYPE
  2
DOTX2
 70
     0
  3
CADPAC LINETYPE
 72
    65
 73
     2
 40
4.328621908127204
 49
0.0
 49
-4.328621908127204
  0
LTYPE
  2
DOT
 70
     0
  3
CADPAC LINETYPE
 72
    65
 73
     2
 40
3.462897526501763
 49
0.0
 49
-3.462897526501763
  0
LTYPE
  2
DOT2
 70
     0
  3
CADPAC LINETYPE
 72
    65
 73
     2
 40
2.597173144876322
 49
0.0
 49
-2.597173144876322
  0
LTYPE
  2
CENTERX2
 70
     0
  3
CADPAC LINETYPE
 72
    65
 73
     4
 40
14.84098939929339
 49
6.183745583038913
 49
-3.091872791519457
 49
2.473498233215565
 49
-3.091872791519457
  0
LTYPE
  2
CENTER
 70
     0
  3
CADPAC LINETYPE
 72
    65
 73
     4
 40
11.3780918727916
 49
4.946996466431131
 49
-2.473498233215565
 49
1.484098939929339
 49
-2.473498233215565
  0
LTYPE
  2
CENTER2
 70
     0
  3
CADPAC LINETYPE
 72
    65
 73
     4
 40
7.915194346289809
 49
3.710247349823348
 49
-1.855123674911674
 49
0.4946996466431131
 49
-1.855123674911674
  0
LTYPE
  2
DASHDOTX2
 70
     0
  3
CADPAC LINETYPE
 72
    65
 73
     4
 40
23.7455830388692
 49
11.87279151943466
 49
-3.957597173144848
 49
3.957597173144848
 49
-3.957597173144848
  0
LTYPE
  2
DASHDOT
 70
     0
  3
CADPAC LINETYPE
 72
    65
 73
     4
 40
11.87279151943449
 49
5.9363957597173
 49
-1.978798586572395
 49
1.978798586572395
 49
-1.978798586572395
  0
LTYPE
  2
DASHDOT2
 70
     0
  3
CADPAC LINETYPE
 72
    65
 73
     4
 40
7.618374558303808
 49
4.452296819787975
 49
-1.484098939929297
 49
0.1978798586572396
 49
-1.484098939929297
  0
LTYPE
  2
DIVIDEX2
 70
     0
  3
CADPAC LINETYPE
 72
    65
 73
     6
 40
31.6607773851589
 49
11.87279151943466
 49
-3.957597173144848
 49
3.957597173144848
 49
-3.957597173144848
 49
3.957597173144848
 49
-3.957597173144848
  0
LTYPE
  2
DIVIDE
 70
     0
  3
CADPAC LINETYPE
 72
    65
 73
     6
 40
15.83038869257928
 49
5.9363957597173
 49
-1.978798586572395
 49
1.978798586572395
 49
-1.978798586572395
 49
1.978798586572395
 49
-1.978798586572395
  0
LTYPE
  2
DIVIDE2
 70
     0
  3
CADPAC LINETYPE
 72
    65
 73
     6
 40
11.87279151943446
 49
4.452296819787975
 49
-1.484098939929297
 49
1.484098939929297
 49
-1.484098939929297
 49
1.484098939929297
 49
-1.484098939929297
  0
LTYPE
  2
BORDERX2
 70
     0
  3
CADPAC LINETYPE
 72
    65
 73
     6
 40
21.6431095406362
 49
6.183745583038913
 49
-3.091872791519457
 49
6.183745583038913
 49
-3.091872791519457
 49
0.0
 49
-3.091872791519457
  0
LTYPE
  2
BORDER
 70
     0
  3
CADPAC LINETYPE
 72
    65
 73
     6
 40
17.31448763250896
 49
4.946996466431131
 49
-2.473498233215565
 49
4.946996466431131
 49
-2.473498233215565
 49
0.0
 49
-2.473498233215565
  0
LTYPE
  2
BORDER2
 70
     0
  3
CADPAC LINETYPE
 72
    65
 73
     6
 40
12.86219081272091
 49
3.957597173144848
 49
-2.473498233215594
 49
1.484098939929311
 49
-2.473498233215594
 49
0.0
 49
-2.473498233215565
  0
LTYPE
  2
PHANTOMX2
 70
     0
  3
CADPAC LINETYPE
 72
    65
 73
     6
 40
18.55123674911674
 49
6.183745583038913
 49
-2.473498233215565
 49
2.473498233215565
 49
-2.473498233215565
 49
2.473498233215565
 49
-2.473498233215565
  0
LTYPE
  2
PHANTOM
 70
     0
  3
CADPAC LINETYPE
 72
    65
 73
     6
 40
15.33568904593651
 49
4.946996466431131
 49
-2.473498233215565
 49
1.484098939929339
 49
-2.473498233215565
 49
1.484098939929339
 49
-2.473498233215565
  0
LTYPE
  2
PHANTOM2
 70
     0
  3
CADPAC LINETYPE
 72
    65
 73
     6
 40
13.1095406360425
 49
3.710247349823348
 49
-2.473498233215565
 49
0.9893992932862261
 49
-2.473498233215565
 49
0.9893992932862261
 49
-2.473498233215565
  0
LTYPE
  2
ACAD_ISO06W100
 70
     0
  3
CADPAC LINETYPE
 72
    65
 73
     8
 40
26.21908127208496
 49
11.87279151943466
 49
-2.473498233215594
 49
1.484098939929311
 49
-2.473498233215594
 49
1.484098939929311
 49
-2.473498233215594
 49
1.484098939929311
 49
-2.473498233215594
  0
LTYPE
  2
ACAD_ISO13W100
 70
     0
  3
CADPAC LINETYPE
 72
    65
 73
     8
 40
19.78798586572452
 49
4.946996466431131
 49
-2.473498233215565
 49
4.946996466431131
 49
-2.473498233215565
 49
0.0
 49
-2.473498233215565
 49
0.0
 49
-2.473498233215565
  0
LTYPE
  2
ACAD_ISO14W100
 70
     0
  3
CADPAC LINETYPE
 72
    65
 73
     8
 40
14.84098939929339
 49
4.946996466431131
 49
-2.473498233215565
 49
0.0
 49
-2.473498233215565
 49
0.0
 49
-2.473498233215565
 49
0.0
 49
-2.473498233215565
  0
ENDTAB
  0
TABLE
  2
LAYER
 70
     3
  0
LAYER
  2
0
 70
     0
 62
     7
  6
CONTINUOUS
  0
LAYER
  2
LAYER0014
 70
     0
 62
     7
  6
CONTINUOUS
  0
LAYER
  2
ZUWAKU
 70
     0
 62
     7
  6
CONTINUOUS
  0
ENDTAB
  0
TABLE
  2
STYLE
 70
     5
  0
STYLE
  2
STANDARD
 70
     0
 40
0.0
 41
1.0
 50
0.0
 71
     0
 42
0.2
  3
txt
  4

  0
STYLE
  2
FDASTYLE1
 70
     0
 40
4.0
 41
0.7500000000000018
 50
0.0
 71
     0
 42
0.2
  3
txt.shx
  4
bigfont
  0
STYLE
  2
FDASTYLE0
 70
     4
 40
2.6656
 41
0.8
 50
0.0
 71
     0
 42
0.2
  3
txt.shx
  4
bigfont
  0
STYLE
  2
FDASTYLE2
 70
     0
 40
7.0
 41
0.8123476848090983
 50
0.0
 71
     0
 42
0.2
  3
MSMINCHO.TTC
  4

  0
STYLE
  2
FDASTYLE3
 70
     0
 40
8.0
 41
0.77
 50
0.0
 71
     0
 42
0.2
  3
MSGOTHIC.TTC
  4

  0
ENDTAB
  0
TABLE
  2
VIEW
 70
     0
  0
ENDTAB
  0
TABLE
  2
UCS
 70
     0
  0
ENDTAB
  0
TABLE
  2
APPID
 70
     2
  0
APPID
  2
ACAD
 70
     0
  0
APPID
  2
DAFUSIONOUT
 70
     0
  0
ENDTAB
  0
TABLE
  2
DIMSTYLE
 70
     1
  0
DIMSTYLE
  2
STANDARD
 70
     0
  3

  4

  5

  6

  7

 40
1.0
 41
0.18
 42
0.0625
 43
0.38
 44
0.18
 45
0.0
 46
0.0
 47
0.0
 48
0.0
140
0.18
141
0.09
142
0.0
143
25.4
144
1.0
145
0.0
146
1.0
147
0.09
 71
     0
 72
     0
 73
     1
 74
     1
 75
     0
 76
     0
 77
     0
 78
     0
170
     0
171
     2
172
     0
173
     0
174
     0
175
     0
176
     0
177
     0
178
     0
  0
ENDTAB
  0
ENDSEC
  0
SECTION
  2
BLOCKS
  0
BLOCK
  8
0
  2
$MODEL_SPACE
 70
     0
 10
0.0
 20
0.0
 30
0.0
  3
$MODEL_SPACE
  1

  0
ENDBLK
  5
21
  8
0
  0
BLOCK
 67
     1
  8
0
  2
$PAPER_SPACE
 70
     0
 10
0.0
 20
0.0
 30
0.0
  3
$PAPER_SPACE
  1

  0
ENDBLK
  5
1D
 67
     1
  8
0
  0
BLOCK
  8
0
  2
DA_IMAGEDIMGROUP_1
 70
     0
 10
0.0
 20
0.0
 30
0.0
  3
DA_IMAGEDIMGROUP_1
  1

  0
LINE
  5
CD
  8
LAYER0014
  6
CONTINUOUS
 62
     7
 10
-155.5334728912061
 20
16.19733242134058
 30
0.0
 11
-183.9669225982374
 21
16.19733242134058
 31
0.0
  0
LINE
  5
CE
  8
LAYER0014
  6
CONTINUOUS
 62
     7
 10
-154.3224896148389
 20
73.19733242134058
 30
0.0
 11
-183.7988470367139
 21
73.19733242134058
 31
0.0
  0
LINE
  5
CF
  8
LAYER0014
  6
CONTINUOUS
 62
     7
 10
-181.6809271148389
 20
16.19733242134058
 30
0.0
 11
-181.6809271148389
 21
73.19733242134058
 31
0.0
  0
INSERT
  5
D6
  8
LAYER0014
 62
     7
  2
_OPEN30
 10
-181.6809271148389
 20
16.19733242134058
 30
0.0
 41
1.999998407630662
 42
2.000005728319971
 50
270.0
  0
INSERT
  5
D7
  8
LAYER0014
 62
     7
  2
_OPEN30
 10
-181.6809271148389
 20
73.19733242134058
 30
0.0
 41
1.999998407630662
 42
2.000005728319971
 50
90.0
  0
TEXT
  5
D9
  8
LAYER0014
 62
     7
 10
-182.6893046909952
 20
39.89733973215679
 30
0.0
 40
4.0
  1
φ57
 50
89.90000000000001
 41
0.7500000000000018
  7
FDASTYLE1
 72
     5
 11
-182.6725495386826
 21
49.49732511052437
 31
0.0
  0
ENDBLK
  5
4E
  8
0
  0
BLOCK
  8
0
  2
DA_IMAGEDIMGROUP_2
 70
     0
 10
0.0
 20
0.0
 30
0.0
  3
DA_IMAGEDIMGROUP_2
  1

  0
LINE
  5
DA
  8
LAYER0014
  6
CONTINUOUS
 62
     7
 10
-63.37438658749519
 20
67.69733242134058
 30
0.0
 11
-31.92001708065925
 21
67.69733242134058
 31
0.0
  0
LINE
  5
DB
  8
LAYER0014
  6
CONTINUOUS
 62
     7
 10
-63.64909056698738
 20
21.69733242134058
 30
0.0
 11
-31.92001708065925
 21
21.69733242134058
 31
0.0
  0
LINE
  5
DC
  8
LAYER0014
  6
CONTINUOUS
 62
     7
 10
-34.20601256405769
 20
67.69733242134058
 30
0.0
 11
-34.20601256405769
 21
21.69733242134058
 31
0.0
  0
INSERT
  5
DD
  8
LAYER0014
 62
     7
  2
_OPEN30
 10
-34.20601256405769
 20
67.69733242134058
 30
0.0
 41
1.999998407630662
 42
2.000005728319971
 50
90.0
  0
INSERT
  5
DE
  8
LAYER0014
 62
     7
  2
_OPEN30
 10
-34.20601256405769
 20
21.69733242134058
 30
0.0
 41
1.999998407630662
 42
2.000005728319971
 50
270.0
  0
TEXT
  5
DF
  8
LAYER0014
 62
     7
 10
-35.81997275412936
 20
36.70013708373607
 30
0.0
 40
4.0
  1
φ46
 50
89.90000000000001
 41
0.7499999999999996
  7
FDASTYLE1
 72
     5
 11
-35.80321760181673
 21
46.30012246210363
 31
0.0
  0
TEXT
  5
E0
  8
LAYER0014
 62
     7
 10
-38.00146892266007
 20
47.3039606614219
 30
0.0
 40
2.2
  1
+0.3
 50
89.90000000000001
 41
0.7999999999999998
  7
FDASTYLE1
 72
     5
 11
-37.98918181096414
 21
54.34394993889144
 31
0.0
  0
TEXT
  5
E1
  8
LAYER0014
 62
     7
 10
-35.60147257806818
 20
47.29977187334374
 30
0.0
 40
2.2
  1
　0
 50
89.90000000000001
 41
0.7272727272727272
  7
FDASTYLE1
 72
     5
 11
-35.59532902222021
 21
50.81976651207852
 31
0.0
  0
ENDBLK
  5
51
  8
0
  0
BLOCK
  8
0
  2
DA_IMAGEDIMGROUP_3
 70
     0
 10
0.0
 20
0.0
 30
0.0
  3
DA_IMAGEDIMGROUP_3
  1

  0
LINE
  5
E2
  8
LAYER0014
  6
CONTINUOUS
 62
     7
 10
-55.40778044735847
 20
3.697332421340576
 30
0.0
 11
-7.866175489777902
 21
3.697332421340576
 31
0.0
  0
LINE
  5
E3
  8
LAYER0014
  6
CONTINUOUS
 62
     7
 10
-10.15217574154792
 20
3.697332421340576
 30
0.0
 11
-10.15217574154792
 21
67.69733242134058
 31
0.0
  0
INSERT
  5
E4
  8
LAYER0014
 62
     7
  2
_OPEN30
 10
-10.15217574154792
 20
3.697332421340576
 30
0.0
 41
1.999998407630662
 42
2.000005728319971
 50
270.0
  0
TEXT
  5
E5
  8
LAYER0014
 62
     7
 10
-11.75217574154792
 20
39.75649761299097
 30
0.0
 40
4.0
  1
φ82
 50
90.0
 41
0.7499999999999996
  7
FDASTYLE1
 72
     5
 11
-11.75217574154792
 21
49.35649761299096
 31
0.0
  0
ENDBLK
  5
54
  8
0
  0
BLOCK
  8
0
  2
DA_IMAGEDIMGROUP_4
 70
     0
 10
0.0
 20
0.0
 30
0.0
  3
DA_IMAGEDIMGROUP_4
  1

  0
LINE
  5
E6
  8
LAYER0014
  6
CONTINUOUS
 62
     7
 10
-152.4434698394483
 20
31.27195552925073
 30
0.0
 11
-136.4434698394483
 21
31.27195552925073
 31
0.0
  0
INSERT
  5
E7
  8
LAYER0014
 62
     7
  2
_OPEN30
 10
-152.4434698394483
 20
31.27195552925073
 30
0.0
 41
1.999998407630662
 42
2.000005728319971
 50
180.0
  0
INSERT
  5
E8
  8
LAYER0014
 62
     7
  2
_OPEN30
 10
-136.4434698394483
 20
31.27195552925073
 30
0.0
 41
1.999998407630662
 42
2.000005728319971
 50
360.0
  0
TEXT
  5
E9
  8
LAYER0014
 62
     7
 10
-147.6434698394483
 20
32.27195552925073
 30
0.0
 40
4.0
  1
16
 41
0.7999999999999972
  7
FDASTYLE1
 72
     5
 11
-141.2434698394483
 21
32.27195552925073
 31
0.0
  0
ENDBLK
  5
57
  8
0
  0
BLOCK
  8
0
  2
DA_IMAGEDIMGROUP_5
 70
     0
 10
0.0
 20
0.0
 30
0.0
  3
DA_IMAGEDIMGROUP_5
  1

  0
LINE
  5
EA
  8
LAYER0014
  6
CONTINUOUS
 62
     7
 10
-136.4434698394483
 20
31.27195552925073
 30
0.0
 11
-132.4434698394483
 21
31.27195552925073
 31
0.0
  0
TEXT
  5
EB
  8
LAYER0014
 62
     7
 10
-136.0434698394483
 20
32.27195552925073
 30
0.0
 40
4.0
  1
4
 41
0.7999999999999972
  7
FDASTYLE1
 72
     5
 11
-132.8434698394483
 21
32.27195552925073
 31
0.0
  0
ENDBLK
  5
5A
  8
0
  0
BLOCK
  8
0
  2
DA_IMAGEDIMGROUP_6
 70
     0
 10
0.0
 20
0.0
 30
0.0
  3
DA_IMAGEDIMGROUP_6
  1

  0
LINE
  5
EC
  8
LAYER0014
  6
CONTINUOUS
 62
     7
 10
-132.4434698394483
 20
31.27195552925073
 30
0.0
 11
-107.4434698394483
 21
31.27195552925073
 31
0.0
  0
INSERT
  5
ED
  8
LAYER0014
 62
     7
  2
_OPEN30
 10
-132.4434698394483
 20
31.27195552925073
 30
0.0
 41
1.999998407630662
 42
2.000005728319971
 50
180.0
  0
INSERT
  5
EE
  8
LAYER0014
 62
     7
  2
_OPEN30
 10
-107.4434698394483
 20
31.27195552925073
 30
0.0
 41
1.999998407630662
 42
2.000005728319971
 50
360.0
  0
TEXT
  5
EF
  8
LAYER0014
 62
     7
 10
-123.1434698394483
 20
32.27195552925073
 30
0.0
 40
4.0
  1
25
 41
0.8000000000000007
  7
FDASTYLE1
 72
     5
 11
-116.7434698394483
 21
32.27195552925073
 31
0.0
  0
ENDBLK
  5
5D
  8
0
  0
BLOCK
  8
0
  2
DA_IMAGEDIMGROUP_7
 70
     0
 10
0.0
 20
0.0
 30
0.0
  3
DA_IMAGEDIMGROUP_7
  1

  0
LINE
  5
F0
  8
LAYER0014
  6
CONTINUOUS
 62
     7
 10
-107.4434698394483
 20
31.27195552925073
 30
0.0
 11
-65.94346983944831
 21
31.27195552925073
 31
0.0
  0
INSERT
  5
F1
  8
LAYER0014
 62
     7
  2
_OPEN30
 10
-107.4434698394483
 20
31.27195552925073
 30
0.0
 41
1.999998407630662
 42
2.000005728319971
 50
180.0
  0
INSERT
  5
F2
  8
LAYER0014
 62
     7
  2
_OPEN30
 10
-65.94346983944831
 20
31.27195552925073
 30
0.0
 41
1.999998407630662
 42
2.000005728319971
 50
360.0
  0
TEXT
  5
F3
  8
LAYER0014
 62
     7
 10
-93.09346983944832
 20
32.27195552925073
 30
0.0
 40
4.0
  1
41.5
 41
0.8000000000000007
  7
FDASTYLE1
 72
     5
 11
-80.29346983944831
 21
32.27195552925073
 31
0.0
  0
ENDBLK
  5
60
  8
0
  0
BLOCK
  8
0
  2
DA_IMAGEDIMGROUP_8
 70
     0
 10
0.0
 20
0.0
 30
0.0
  3
DA_IMAGEDIMGROUP_8
  1

  0
LINE
  5
F4
  8
LAYER0014
  6
CONTINUOUS
 62
     7
 10
-65.94346983944831
 20
31.27195552925073
 30
0.0
 11
-57.99347289120613
 21
31.27195552925073
 31
0.0
  0
LINE
  5
F5
  8
LAYER0014
  6
CONTINUOUS
 62
     7
 10
-65.94346983944831
 20
31.27195552925073
 30
0.0
 11
-72.29346983944831
 21
31.27195552925073
 31
0.0
  0
INSERT
  5
F6
  8
LAYER0014
 62
     7
  2
_OPEN30
 10
-65.94346983944831
 20
31.27195552925073
 30
0.0
 41
1.999998407630662
 42
2.000005728319971
 50
360.0
  0
LINE
  5
F7
  8
LAYER0014
  6
CONTINUOUS
 62
     7
 10
-51.64347289120612
 20
31.27195552925073
 30
0.0
 11
-57.99347289120613
 21
31.27195552925073
 31
0.0
  0
INSERT
  5
F8
  8
LAYER0014
 62
     7
  2
_OPEN30
 10
-57.99347289120613
 20
31.27195552925073
 30
0.0
 41
1.999998407630662
 42
2.000005728319971
 50
180.0
  0
TEXT
  5
F9
  8
LAYER0014
 62
     7
 10
-63.56847136532722
 20
32.87195552925073
 30
0.0
 40
4.0
  1
8
 41
0.8000000000000007
  7
FDASTYLE1
 72
     5
 11
-60.36847136532722
 21
32.87195552925073
 31
0.0
  0
ENDBLK
  5
63
  8
0
  0
BLOCK
  8
0
  2
DA_IMAGEDIMGROUP_9
 70
     0
 10
0.0
 20
0.0
 30
0.0
  3
DA_IMAGEDIMGROUP_9
  1

  0
LINE
  5
FA
  8
LAYER0014
  6
CONTINUOUS
 62
     7
 10
-7.117390432710031
 20
44.69733242134058
 30
0.0
 11
4.37596909487786
 21
44.69733242134058
 31
0.0
  0
LINE
  5
FB
  8
LAYER0014
  6
CONTINUOUS
 62
     7
 10
-53.21009520565925
 20
79.19733242134058
 30
0.0
 11
4.37596909487786
 21
79.19733242134058
 31
0.0
  0
LINE
  5
FC
  8
LAYER0014
  6
CONTINUOUS
 62
     7
 10
2.089969796782157
 20
44.69733242134058
 30
0.0
 11
2.089969796782157
 21
79.19733242134058
 31
0.0
  0
INSERT
  5
FD
  8
LAYER0014
 62
     7
  2
_OPEN30
 10
2.089969796782157
 20
44.69733242134058
 30
0.0
 41
1.999998407630662
 42
2.000005728319971
 50
270.0
  0
INSERT
  5
FE
  8
LAYER0014
 62
     7
  2
_OPEN30
 10
2.089969796782157
 20
79.19733242134058
 30
0.0
 41
1.999998407630662
 42
2.000005728319971
 50
90.0
  0
TEXT
  5
FF
  8
LAYER0014
 62
     7
 10
1.067629593698659
 20
49.1473519168505
 30
0.0
 40
4.0
  1
MAX35.75
 50
89.90000000000001
 41
0.7999999999999998
  7
FDASTYLE1
 72
     5
 11
1.112309999865655
 21
74.74731292583066
 31
0.0
  0
ENDBLK
  5
66
  8
0
  0
BLOCK
  8
0
  2
DA_IMAGEDIMGROUP_10
 70
     0
 10
0.0
 20
0.0
 30
0.0
  3
DA_IMAGEDIMGROUP_10
  1

  0
LINE
  5
100
  8
LAYER0014
  6
CONTINUOUS
 62
     7
 10
-53.48480681454597
 20
127.1973324213406
 30
0.0
 11
4.37596909487786
 21
127.1973324213406
 31
0.0
  0
LINE
  5
101
  8
LAYER0014
  6
CONTINUOUS
 62
     7
 10
2.089969796782157
 20
79.19733242134058
 30
0.0
 11
2.089969796782157
 21
127.1973324213406
 31
0.0
  0
INSERT
  5
102
  8
LAYER0014
 62
     7
  2
_OPEN30
 10
2.089969796782157
 20
79.19733242134058
 30
0.0
 41
1.999998407630662
 42
2.000005728319971
 50
270.0
  0
INSERT
  5
103
  8
LAYER0014
 62
     7
  2
_OPEN30
 10
2.089969796782157
 20
127.1973324213406
 30
0.0
 41
1.999998407630662
 42
2.000005728319971
 50
90.0
  0
TEXT
  5
104
  8
LAYER0014
 62
     7
 10
1.084384746011282
 20
99.99733729521805
 30
0.0
 40
4.0
  1
48
 50
89.90000000000001
 41
0.8000000000000007
  7
FDASTYLE1
 72
     5
 11
1.095554847553031
 21
106.3973275474631
 31
0.0
  0
ENDBLK
  5
69
  8
0
  0
BLOCK
  8
0
  2
DA_IMAGEDIMGROUP_11
 70
     0
 10
0.0
 20
0.0
 30
0.0
  3
DA_IMAGEDIMGROUP_11
  1

  0
LINE
  5
105
  8
LAYER0014
  6
CONTINUOUS
 62
     7
 10
48.24098698519637
 20
-10.29991042472003
 30
0.0
 11
68.15458939777511
 21
1.197212018493161
 31
0.0
  0
LINE
  5
106
  8
LAYER0014
  6
CONTINUOUS
 62
     7
 10
53.74098475002229
 20
-19.82618704739516
 30
0.0
 11
73.65459376985086
 21
-8.329060789484942
 31
0.0
  0
LINE
  5
107
  8
LAYER0014
  6
CONTINUOUS
 62
     7
 10
66.17485390950105
 20
0.0542306575449913
 30
0.0
 11
71.67485292602441
 21
-9.472049268755058
 31
0.0
  0
INSERT
  5
108
  8
LAYER0014
 62
     7
  2
_OPEN30
 10
66.17485390950105
 20
0.0542306575449913
 30
0.0
 41
1.999998407630662
 42
2.000005728319971
 50
119.9999943014067
  0
INSERT
  5
109
  8
LAYER0014
 62
     7
  2
_OPEN30
 10
71.67485292602441
 20
-9.472049268755058
 30
0.0
 41
1.999998407630662
 42
2.000005728319971
 50
299.9999943014067
  0
TEXT
  5
10A
  8
LAYER0014
 62
     7
 10
68.71049508639196
 20
-1.137628657154684
 30
0.0
 40
4.0
  1
11
 50
-59.99999999999999
 41
0.8000000000000009
  7
FDASTYLE1
 72
     5
 11
71.91049508639196
 21
-6.680191241375098
 31
0.0
  0
ENDBLK
  5
6C
  8
0
  0
BLOCK
  8
0
  2
DA_IMAGEDIMGROUP_12
 70
     0
 10
0.0
 20
0.0
 30
0.0
  3
DA_IMAGEDIMGROUP_12
  1

  0
LINE
  5
10B
  8
LAYER0014
  6
CONTINUOUS
 62
     7
 10
41.76691377388403
 20
-2.752474046561826
 30
0.0
 11
36.69241527729014
 21
6.036818843986595
 31
0.0
  0
LINE
  5
10C
  8
LAYER0014
  6
CONTINUOUS
 62
     7
 10
37.19240852102826
 20
5.170789521840362
 30
0.0
 11
35.46036411337832
 21
4.170793634559715
 31
0.0
  0
LINE
  5
10D
  8
LAYER0014
  6
CONTINUOUS
 62
     7
 10
45.29985744435182
 20
9.851625384854827
 30
0.0
 11
37.19240852102826
 21
5.170789521840362
 31
0.0
  0
INSERT
  5
10E
  8
LAYER0014
 62
     7
  2
_OPEN30
 10
37.19240852102826
 20
5.170789521840362
 30
0.0
 41
1.999998407630662
 42
2.000005728319971
 50
209.999989636301
  0
LINE
  5
10F
  8
LAYER0014
  6
CONTINUOUS
 62
     7
 10
31.13023664225452
 20
1.670794417796037
 30
0.0
 11
35.46036411337832
 21
4.170793634559715
 31
0.0
  0
INSERT
  5
110
  8
LAYER0014
 62
     7
  2
_OPEN30
 10
35.46036411337832
 20
4.170793634559715
 30
0.0
 41
1.999998407630662
 42
2.000005728319971
 50
29.99998963630093
  0
TEXT
  5
111
  8
LAYER0014
 62
     7
 10
41.16255052525509
 20
8.6176515369981
 30
0.0
 40
4.0
  1
2
 50
30.0
 41
0.8000000000000017
  7
FDASTYLE1
 72
     5
 11
43.9338318173653
 21
10.2176515369981
 31
0.0
  0
ENDBLK
  5
6F
  8
0
  0
BLOCK
  8
0
  2
DA_IMAGEDIMGROUP_13
 70
     0
 10
0.0
 20
0.0
 30
0.0
  3
DA_IMAGEDIMGROUP_13
  1

  0
LINE
  5
112
  8
LAYER0014
  6
CONTINUOUS
 62
     7
 10
94.80820070706803
 20
79.15985650985658
 30
0.0
 11
70.67036681967863
 21
93.0958089313456
 31
0.0
  0
LINE
  5
113
  8
LAYER0014
  6
CONTINUOUS
 62
     7
 10
111.4766372273778
 20
56.22516597831095
 30
0.0
 11
61.00031067006933
 21
69.75024996548305
 31
0.0
  0
ARC
  5
114
  8
LAYER0014
  6
CONTINUOUS
 62
     7
 10
154.498989266997
 20
44.69732479194605
 30
0.0
 40
94.51096343994141
 50
150.0000110043195
 51
164.9999943462595
  0
INSERT
  5
115
  8
LAYER0014
 62
     7
  2
_OPEN30
 10
72.65008491590321
 20
91.95279079188558
 30
0.0
 41
1.999998407630662
 42
2.000005728319971
 50
60.60624488299786
  0
INSERT
  5
116
  8
LAYER0014
 62
     7
  2
_OPEN30
 10
63.20841122664261
 20
69.15857110941536
 30
0.0
 41
1.999998407630662
 42
2.000005728319971
 50
254.3937604675811
  0
TEXT
  5
117
  8
LAYER0014
 62
     7
 10
63.86047816870075
 20
77.04855102240708
 30
0.0
 40
4.0
  1
15ﾟ
 50
67.40000000000001
 41
0.7999999999999997
  7
FDASTYLE1
 72
     5
 11
67.54971326623486
 21
85.91136910669169
 31
0.0
  0
ENDBLK
  5
72
  8
0
  0
BLOCK
  8
0
  2
DA_IMAGEDIMGROUP_14
 70
     0
 10
0.0
 20
0.0
 30
0.0
  3
DA_IMAGEDIMGROUP_14
  1

  0
LINE
  5
118
  8
LAYER0014
  6
CONTINUOUS
 62
     7
 10
-139.4104107574171
 20
81.69733242134058
 30
0.0
 11
-196.8753088287061
 21
81.69733242134058
 31
0.0
  0
LINE
  5
119
  8
LAYER0014
  6
CONTINUOUS
 62
     7
 10
-139.5641583160108
 20
7.697332421340576
 30
0.0
 11
-196.8753088287061
 21
7.697332421340576
 31
0.0
  0
LINE
  5
11A
  8
LAYER0014
  6
CONTINUOUS
 62
     7
 10
-194.5893133453077
 20
81.69733242134058
 30
0.0
 11
-194.5893133453077
 21
7.697332421340576
 31
0.0
  0
INSERT
  5
11B
  8
LAYER0014
 62
     7
  2
_OPEN30
 10
-194.5893133453077
 20
81.69733242134058
 30
0.0
 41
1.999998407630662
 42
2.000005728319971
 50
90.0
  0
INSERT
  5
11C
  8
LAYER0014
 62
     7
  2
_OPEN30
 10
-194.5893133453077
 20
7.697332421340576
 30
0.0
 41
1.999998407630662
 42
2.000005728319971
 50
270.0
  0
TEXT
  5
11D
  8
LAYER0014
 62
     7
 10
-195.597690921464
 20
39.89733973215679
 30
0.0
 40
4.0
  1
φ74
 50
89.90000000000001
 41
0.7500000000000018
  7
FDASTYLE1
 72
     5
 11
-195.5809357691514
 21
49.49732511052437
 31
0.0
  0
ENDBLK
  5
75
  8
0
  0
BLOCK
  8
0
  2
DA_IMAGEDIMGROUP_15
 70
     0
 10
0.0
 20
0.0
 30
0.0
  3
DA_IMAGEDIMGROUP_15
  1

  0
LINE
  5
11E
  8
LAYER0014
  6
CONTINUOUS
 62
     7
 10
-155.5334728912061
 20
70.69733242134058
 30
0.0
 11
-171.8766516021436
 21
70.69733242134058
 31
0.0
  0
LINE
  5
11F
  8
LAYER0014
  6
CONTINUOUS
 62
     7
 10
-155.5334728912061
 20
18.69733242134058
 30
0.0
 11
-171.8766516021436
 21
18.69733242134058
 31
0.0
  0
LINE
  5
120
  8
LAYER0014
  6
CONTINUOUS
 62
     7
 10
-169.5906561187452
 20
70.69733242134058
 30
0.0
 11
-169.5906561187452
 21
18.69733242134058
 31
0.0
  0
INSERT
  5
121
  8
LAYER0014
 62
     7
  2
_OPEN30
 10
-169.5906561187452
 20
70.69733242134058
 30
0.0
 41
1.999998407630662
 42
2.000005728319971
 50
90.0
  0
INSERT
  5
122
  8
LAYER0014
 62
     7
  2
_OPEN30
 10
-169.5906561187452
 20
18.69733242134058
 30
0.0
 41
1.999998407630662
 42
2.000005728319971
 50
270.0
  0
TEXT
  5
123
  8
LAYER0014
 62
     7
 10
-171.21299388489
 20
31.97880731455037
 30
0.0
 40
4.0
  1
M52×P1.5
 50
89.90000000000001
 41
0.7804878048780496
  7
FDASTYLE1
 72
     5
 11
-171.168313478723
 21
57.57876832353056
 31
0.0
  0
ENDBLK
  5
78
  8
0
  0
BLOCK
  8
0
  2
DA_IMAGEDIMGROUP_16
 70
     0
 10
0.0
 20
0.0
 30
0.0
  3
DA_IMAGEDIMGROUP_16
  1

  0
LINE
  5
124
  8
LAYER0014
  6
CONTINUOUS
 62
     7
 10
-166.4439037994092
 20
-2.687665900192627
 30
0.0
 11
-183.9669225982374
 21
-2.687665900192627
 31
0.0
  0
LINE
  5
125
  8
LAYER0014
  6
CONTINUOUS
 62
     7
 10
-166.5334728912061
 20
-12.68766590019263
 30
0.0
 11
-183.9669225982374
 21
-12.68766590019263
 31
0.0
  0
LINE
  5
126
  8
LAYER0014
  6
CONTINUOUS
 62
     7
 10
-181.6809271148389
 20
-2.687665900192627
 30
0.0
 11
-181.6809271148389
 21
-12.68766590019263
 31
0.0
  0
INSERT
  5
127
  8
LAYER0014
 62
     7
  2
_OPEN30
 10
-181.6809271148389
 20
-2.687665900192627
 30
0.0
 41
1.999998407630662
 42
2.000005728319971
 50
90.0
  0
INSERT
  5
128
  8
LAYER0014
 62
     7
  2
_OPEN30
 10
-181.6809271148389
 20
-12.68766590019263
 30
0.0
 41
1.999998407630662
 42
2.000005728319971
 50
270.0
  0
TEXT
  5
129
  8
LAYER0014
 62
     7
 10
-183.2893022540565
 20
-12.48486606399098
 30
0.0
 40
4.0
  1
M10
 50
89.90000000000001
 41
0.8000000000000017
  7
FDASTYLE1
 72
     5
 11
-183.2725471017439
 21
-2.884880685623397
 31
0.0
  0
ENDBLK
  5
7B
  8
0
  0
BLOCK
  8
0
  2
DC_GROUP_1
 70
     0
 10
0.0
 20
0.0
 30
0.0
  3
DC_GROUP_1
  1

  0
LINE
  5
12A
  8
LAYER0014
  6
CONTINUOUS
 62
     7
 10
-56.90550330376993
 20
124.7719614844943
 30
0.0
 11
-35.75279447070204
 21
148.1223360848314
 31
0.0
  0
INSERT
  5
12B
  8
LAYER0014
 62
     7
  2
_OPEN30
 10
-56.90550330376993
 20
124.7719614844943
 30
0.0
 41
1.999998407630662
 42
2.000005728319971
 50
227.8271022755539
  0
LINE
  5
12C
  8
LAYER0014
  6
CONTINUOUS
 62
     7
 10
-35.75279410397468
 20
148.1223354730984
 30
0.0
 11
10.87687699282708
 21
148.1223354730984
 31
0.0
  0
TEXT
  5
12D
  8
LAYER0014
 62
     7
 10
-35.20336897885261
 20
149.7223354730984
 30
0.0
 40
4.0
  1
ｾﾚｰｼｮﾝP1.5山60ﾟ
 41
0.7887323943661972
  7
FDASTYLE1
 72
     5
 11
9.596631021147395
 21
149.7223354730984
 31
0.0
  0
ENDBLK
  5
7E
  8
0
  0
BLOCK
  8
0
  2
DC_GROUP_2
 70
     0
 10
0.0
 20
0.0
 30
0.0
  3
DC_GROUP_2
  1

  0
LINE
  5
12E
  8
LAYER0014
  6
CONTINUOUS
 62
     7
 10
-44.54354161793515
 20
117.5306892360883
 30
0.0
 11
-26.68735824815383
 21
138.6834086662199
 31
0.0
  0
INSERT
  5
12F
  8
LAYER0014
 62
     7
  2
_OPEN30
 10
-44.54354161793515
 20
117.5306892360883
 30
0.0
 41
1.999998407630662
 42
2.000005728319971
 50
229.8304331757731
  0
LINE
  5
130
  8
LAYER0014
  6
CONTINUOUS
 62
     7
 10
-26.68736441647468
 20
138.6834011469265
 30
0.0
 11
-18.45769532238899
 21
138.6834011469265
 31
0.0
  0
TEXT
  5
131
  8
LAYER0014
 62
     7
 10
-25.86323721920905
 20
140.2834011469265
 30
0.0
 40
4.0
  1
M8
 41
0.7999999999999998
  7
FDASTYLE1
 72
     5
 11
-19.46323721920906
 21
140.2834011469265
 31
0.0
  0
ENDBLK
  5
81
  8
0
  0
BLOCK
  8
0
  2
DA_IMAGEDIMGROUP_17
 70
     0
 10
0.0
 20
0.0
 30
0.0
  3
DA_IMAGEDIMGROUP_17
  1

  0
LINE
  5
132
  8
LAYER0014
  6
CONTINUOUS
 62
     7
 10
154.4981805511767
 20
136.5706454096218
 30
0.0
 11
154.4981805511767
 21
141.4942684564968
 31
0.0
  0
LINE
  5
133
  8
LAYER0014
  6
CONTINUOUS
 62
     7
 10
94.8081893585492
 20
79.15987539912941
 30
0.0
 11
70.67036053346931
 21
93.09583442053648
 31
0.0
  0
ARC
  5
134
  8
LAYER0014
  6
CONTINUOUS
 62
     7
 10
154.4989740082079
 20
44.69734005073511
 30
0.0
 40
94.51095581054688
 50
89.99998201391065
 51
150.0000110043195
  0
INSERT
  5
135
  8
LAYER0014
 62
     7
  2
_OPEN30
 10
154.4990036767544
 20
139.2082958612773
 30
0.0
 41
1.999998407630662
 42
2.000005728319971
 50
0.6062159415270282
  0
INSERT
  5
136
  8
LAYER0014
 62
     7
  2
_OPEN30
 10
72.65007626436436
 20
91.95280223597865
 30
0.0
 41
1.999998407630662
 42
2.000005728319971
 50
239.3937770767028
  0
TEXT
  5
137
  8
LAYER0014
 62
     7
 10
102.284803695043
 20
125.5405182807332
 30
0.0
 40
4.0
  1
60ﾟ
 50
29.9
 41
0.7999999999999994
  7
FDASTYLE1
 72
     5
 11
110.6070124848247
 21
130.32600058237
 31
0.0
  0
ENDBLK
  5
84
  8
0
  0
BLOCK
  8
0
  2
DA_IMAGEDIMGROUP_18
 70
     0
 10
0.0
 20
0.0
 30
0.0
  3
DA_IMAGEDIMGROUP_18
  1

  0
LINE
  5
138
  8
LAYER0014
  6
CONTINUOUS
 62
     7
 10
140.4989740082079
 20
129.7373324213406
 30
0.0
 11
140.4989740082079
 21
150.1336269770046
 31
0.0
  0
LINE
  5
139
  8
LAYER0014
  6
CONTINUOUS
 62
     7
 10
168.4989740082079
 20
129.7373324213406
 30
0.0
 11
168.4989740082079
 21
150.1336269770046
 31
0.0
  0
LINE
  5
13A
  8
LAYER0014
  6
CONTINUOUS
 62
     7
 10
140.4989740082079
 20
147.8476314936062
 30
0.0
 11
168.4989740082079
 21
147.8476314936062
 31
0.0
  0
INSERT
  5
13B
  8
LAYER0014
 62
     7
  2
_OPEN30
 10
140.4989740082079
 20
147.8476314936062
 30
0.0
 41
1.999998407630662
 42
2.000005728319971
 50
180.0
  0
INSERT
  5
13C
  8
LAYER0014
 62
     7
  2
_OPEN30
 10
168.4989740082079
 20
147.8476314936062
 30
0.0
 41
1.999998407630662
 42
2.000005728319971
 50
360.0
  0
TEXT
  5
13D
  8
LAYER0014
 62
     7
 10
151.5617048791506
 20
149.4532141074384
 30
0.0
 40
4.0
  1
28
 50
-0.1000000000000078
 41
0.7999999999999954
  7
FDASTYLE1
 72
     5
 11
157.9616951313956
 21
149.4420440058966
 31
0.0
  0
ENDBLK
  5
87
  8
0
  0
BLOCK
  8
0
  2
DC_GROUP_3
 70
     0
 10
0.0
 20
0.0
 30
0.0
  3
DC_GROUP_3
  1

  0
LINE
  5
13E
  8
LAYER0014
  6
CONTINUOUS
 62
     7
 10
149.3448508032321
 20
-15.00240658231255
 30
0.0
 11
124.0465887358103
 21
-56.07102361722897
 31
0.0
  0
INSERT
  5
13F
  8
LAYER0014
 62
     7
  2
_OPEN30
 10
149.3448508032321
 20
-15.00240658231255
 30
0.0
 41
1.999998407630662
 42
2.000005728319971
 50
58.36693679084518
  0
LINE
  5
140
  8
LAYER0014
  6
CONTINUOUS
 62
     7
 10
124.046596688872
 20
-56.07102771659888
 30
0.0
 11
93.41692749941888
 21
-56.07102771659888
 31
0.0
  0
TEXT
  5
141
  8
LAYER0014
 62
     7
 10
94.42520081484857
 20
-54.47102771659888
 30
0.0
 40
4.0
  1
PCD104.77
 41
0.7999999999999999
  7
FDASTYLE1
 72
     5
 11
123.2252008148486
 21
-54.47102771659888
 31
0.0
  0
ENDBLK
  5
8A
  8
0
  0
BLOCK
  8
0
  2
DC_GROUP_4
 70
     0
 10
0.0
 20
0.0
 30
0.0
  3
DC_GROUP_4
  1

  0
LINE
  5
142
  8
LAYER0014
  6
CONTINUOUS
 62
     7
 10
165.279462213378
 20
8.981675137741291
 30
0.0
 11
201.7483945076589
 21
-56.07101249790671
 31
0.0
  0
INSERT
  5
143
  8
LAYER0014
 62
     7
  2
_OPEN30
 10
165.279462213378
 20
8.981675137741291
 30
0.0
 41
1.999998407630662
 42
2.000005728319971
 50
119.2752551799558
  0
LINE
  5
144
  8
LAYER0014
  6
CONTINUOUS
 62
     7
 10
201.7483941742236
 20
-56.07101627250708
 30
0.0
 11
235.5780603119189
 21
-56.07101627250708
 31
0.0
  0
TEXT
  5
145
  8
LAYER0014
 62
     7
 10
202.4054986664111
 20
-54.47101627250708
 30
0.0
 40
4.0
  1
3-M5 PCD70
 41
0.8
  7
FDASTYLE1
 72
     5
 11
234.4054986664111
 21
-54.47101627250708
 31
0.0
  0
ENDBLK
  5
8D
  8
0
  0
BLOCK
  8
0
  2
DA_IMAGEDIMGROUP_19
 70
     0
 10
0.0
 20
0.0
 30
0.0
  3
DA_IMAGEDIMGROUP_19
  1

  0
LINE
  5
146
  8
LAYER0014
  6
CONTINUOUS
 62
     7
 10
-31.3651855376905
 20
89.19733242134058
 30
0.0
 11
-7.783610182160714
 21
89.19733242134058
 31
0.0
  0
LINE
  5
147
  8
LAYER0014
  6
CONTINUOUS
 62
     7
 10
-53.45347289120613
 20
79.19733242134058
 30
0.0
 11
-7.783610182160714
 21
79.19733242134058
 31
0.0
  0
LINE
  5
148
  8
LAYER0014
  6
CONTINUOUS
 62
     7
 10
-10.06961043393073
 20
89.19733242134058
 30
0.0
 11
-10.06961043393073
 21
79.19733242134058
 31
0.0
  0
INSERT
  5
149
  8
LAYER0014
 62
     7
  2
_OPEN30
 10
-10.06961043393073
 20
89.19733242134058
 30
0.0
 41
1.999998407630662
 42
2.000005728319971
 50
90.0
  0
INSERT
  5
14A
  8
LAYER0014
 62
     7
  2
_OPEN30
 10
-10.06961043393073
 20
79.19733242134058
 30
0.0
 41
1.999998407630662
 42
2.000005728319971
 50
270.0
  0
TEXT
  5
14B
  8
LAYER0014
 62
     7
 10
-11.67519304776287
 20
81.00012982060348
 30
0.0
 40
4.0
  1
10
 50
89.90000000000001
 41
0.8000000000000007
  7
FDASTYLE1
 72
     5
 11
-11.66402294622112
 21
87.40012007284852
 31
0.0
  0
ENDBLK
  5
90
  8
0
  0
BLOCK
  8
0
  2
DA_IMAGEDIMGROUP_20
 70
     0
 10
0.0
 20
0.0
 30
0.0
  3
DA_IMAGEDIMGROUP_20
  1

  0
LINE
  5
14C
  8
LAYER0014
  6
CONTINUOUS
 62
     7
 10
-163.9934728912061
 20
-15.22766590019263
 30
0.0
 11
-163.9934728912061
 21
-64.04731174369849
 31
0.0
  0
LINE
  5
14D
  8
LAYER0014
  6
CONTINUOUS
 62
     7
 10
-152.9934728912061
 20
-30.34266757865942
 30
0.0
 11
-152.9934728912061
 21
-64.04731174369849
 31
0.0
  0
LINE
  5
14E
  8
LAYER0014
  6
CONTINUOUS
 62
     7
 10
-163.9934728912061
 20
-63.04731174369849
 30
0.0
 11
-152.9934728912061
 21
-63.04731174369849
 31
0.0
  0
INSERT
  5
14F
  8
LAYER0014
 62
     7
  2
_OPEN30
 10
-163.9934728912061
 20
-63.04731174369849
 30
0.0
 41
1.999998407630662
 42
2.000005728319971
 50
180.0
  0
INSERT
  5
150
  8
LAYER0014
 62
     7
  2
_OPEN30
 10
-152.9934728912061
 20
-63.04731174369849
 30
0.0
 41
1.999998407630662
 42
2.000005728319971
 50
360.0
  0
TEXT
  5
151
  8
LAYER0014
 62
     7
 10
-161.6934728912061
 20
-62.04731174369849
 30
0.0
 40
4.0
  1
11
 41
0.7999999999999972
  7
FDASTYLE1
 72
     5
 11
-155.2934728912061
 21
-62.04731174369849
 31
0.0
  0
ENDBLK
  5
93
  8
0
  0
BLOCK
  8
0
  2
DA_IMAGEDIMGROUP_21
 70
     0
 10
0.0
 20
0.0
 30
0.0
  3
DA_IMAGEDIMGROUP_21
  1

  0
LINE
  5
152
  8
LAYER0014
  6
CONTINUOUS
 62
     7
 10
-155.5334728912061
 20
85.97883419136011
 30
0.0
 11
-209.3759191802686
 21
85.97883419136011
 31
0.0
  0
LINE
  5
153
  8
LAYER0014
  6
CONTINUOUS
 62
     7
 10
-155.5334728912061
 20
3.415830651321045
 30
0.0
 11
-209.3759191802686
 21
3.415830651321045
 31
0.0
  0
LINE
  5
154
  8
LAYER0014
  6
CONTINUOUS
 62
     7
 10
-207.0899236968702
 20
85.97883419136011
 30
0.0
 11
-207.0899236968702
 21
3.415830651321045
 31
0.0
  0
INSERT
  5
155
  8
LAYER0014
 62
     7
  2
_OPEN30
 10
-207.0899236968702
 20
85.97883419136011
 30
0.0
 41
1.999998407630662
 42
2.000005728319971
 50
90.0
  0
INSERT
  5
156
  8
LAYER0014
 62
     7
  2
_OPEN30
 10
-207.0899236968702
 20
3.415830651321045
 30
0.0
 41
1.999998407630662
 42
2.000005728319971
 50
270.0
  0
TEXT
  5
157
  8
LAYER0014
 62
     7
 10
-208.1373966284226
 20
17.49737384929917
 30
0.0
 40
4.0
  1
φ82.563(A2-5テーパー）
 50
89.90000000000001
 41
0.7472527472527468
  7
FDASTYLE1
 72
     5
 11
-208.0424507653178
 21
71.89729099338199
 31
0.0
  0
ENDBLK
  5
96
  8
0
  0
BLOCK
  8
0
  2
DA_IMAGEDIMGROUP_22
 70
     0
 10
0.0
 20
0.0
 30
0.0
  3
DA_IMAGEDIMGROUP_22
  1

  0
LINE
  5
158
  8
LAYER0014
  6
CONTINUOUS
 62
     7
 10
-206.8359191802686
 20
3.417391816177002
 30
0.0
 11
-204.8039282134718
 21
3.417391816177002
 31
0.0
  0
LINE
  5
159
  8
LAYER0014
  6
CONTINUOUS
 62
     7
 10
-155.5138676413923
 20
3.100788931885589
 30
0.0
 11
-208.9405414624544
 21
-3.577497959163878
 31
0.0
  0
ENDBLK
  5
99
  8
0
  0
BLOCK
  8
0
  2
DA_IMAGEDIMGROUP_23
 70
     0
 10
0.0
 20
0.0
 30
0.0
  3
DA_IMAGEDIMGROUP_23
  1

  0
LINE
  5
15A
  8
LAYER0014
  6
CONTINUOUS
 62
     7
 10
-156.5334728912061
 20
117.1973324213406
 30
0.0
 11
-234.5438574126905
 21
117.1973324213406
 31
0.0
  0
LINE
  5
15B
  8
LAYER0014
  6
CONTINUOUS
 62
     7
 10
-156.5334728912061
 20
-27.80266757865942
 30
0.0
 11
-234.5438574126905
 21
-27.80266757865942
 31
0.0
  0
LINE
  5
15C
  8
LAYER0014
  6
CONTINUOUS
 62
     7
 10
-232.2578619292921
 20
117.1973324213406
 30
0.0
 11
-232.2578619292921
 21
-27.80266757865942
 31
0.0
  0
INSERT
  5
15D
  8
LAYER0014
 62
     7
  2
_OPEN30
 10
-232.2578619292921
 20
117.1973324213406
 30
0.0
 41
1.999998407630662
 42
2.000005728319971
 50
90.0
  0
INSERT
  5
15E
  8
LAYER0014
 62
     7
  2
_OPEN30
 10
-232.2578619292921
 20
-27.80266757865942
 30
0.0
 41
1.999998407630662
 42
2.000005728319971
 50
270.0
  0
TEXT
  5
15F
  8
LAYER0014
 62
     7
 10
-233.2690320308338
 20
38.29734216909553
 30
0.0
 40
4.0
  1
φ145
 50
89.90000000000001
 41
0.7619047619047625
  7
FDASTYLE1
 72
     5
 11
-233.2466918277503
 21
51.09732267358562
 31
0.0
  0
ENDBLK
  5
9C
  8
0
  0
BLOCK
  8
0
  2
DA_IMAGEDIMGROUP_24
 70
     0
 10
0.0
 20
0.0
 30
0.0
  3
DA_IMAGEDIMGROUP_24
  1

  0
LINE
  5
160
  8
LAYER0014
  6
CONTINUOUS
 62
     7
 10
-156.5334728912061
 20
127.1973324213406
 30
0.0
 11
-246.8656347564405
 21
127.1973324213406
 31
0.0
  0
LINE
  5
161
  8
LAYER0014
  6
CONTINUOUS
 62
     7
 10
-156.5334728912061
 20
-37.80266757865942
 30
0.0
 11
-246.8656347564405
 21
-37.80266757865942
 31
0.0
  0
LINE
  5
162
  8
LAYER0014
  6
CONTINUOUS
 62
     7
 10
-244.5796392730421
 20
127.1973324213406
 30
0.0
 11
-244.5796392730421
 21
-37.80266757865942
 31
0.0
  0
INSERT
  5
163
  8
LAYER0014
 62
     7
  2
_OPEN30
 10
-244.5796392730421
 20
127.1973324213406
 30
0.0
 41
1.999998407630662
 42
2.000005728319971
 50
90.0
  0
INSERT
  5
164
  8
LAYER0014
 62
     7
  2
_OPEN30
 10
-244.5796392730421
 20
-37.80266757865942
 30
0.0
 41
1.999998407630662
 42
2.000005728319971
 50
270.0
  0
TEXT
  5
165
  8
LAYER0014
 62
     7
 10
-245.5908093745838
 20
38.29734216909553
 30
0.0
 40
4.0
  1
φ165
 50
89.90000000000001
 41
0.7619047619047625
  7
FDASTYLE1
 72
     5
 11
-245.5684691715003
 21
51.09732267358562
 31
0.0
  0
ENDBLK
  5
9F
  8
0
  0
BLOCK
  8
0
  2
DA_IMAGEDIMGROUP_25
 70
     0
 10
0.0
 20
0.0
 30
0.0
  3
DA_IMAGEDIMGROUP_25
  1

  0
LINE
  5
166
  8
LAYER0014
  6
CONTINUOUS
 62
     7
 10
-214.4636944488233
 20
97.09733394721948
 30
0.0
 11
-221.9598882964796
 21
97.09733394721948
 31
0.0
  0
LINE
  5
167
  8
LAYER0014
  6
CONTINUOUS
 62
     7
 10
-214.0867413238233
 20
44.69733242134058
 30
0.0
 11
-221.9598882964796
 21
44.69733242134058
 31
0.0
  0
LINE
  5
168
  8
LAYER0014
  6
CONTINUOUS
 62
     7
 10
-219.6738928130811
 20
97.09733394721948
 30
0.0
 11
-219.6738928130811
 21
44.69733242134058
 31
0.0
  0
INSERT
  5
169
  8
LAYER0014
 62
     7
  2
_OPEN30
 10
-219.6738928130811
 20
97.09733394721948
 30
0.0
 41
1.999998407630662
 42
2.000005728319971
 50
90.0
  0
INSERT
  5
16A
  8
LAYER0014
 62
     7
  2
_OPEN30
 10
-219.6738928130811
 20
44.69733242134058
 30
0.0
 41
1.999998407630662
 42
2.000005728319971
 50
270.0
  0
TEXT
  5
16B
  8
LAYER0014
 62
     7
 10
-220.6850629146229
 20
64.49734293203498
 30
0.0
 40
4.0
  1
52.4
 50
89.90000000000001
 41
0.8000000000000007
  7
FDASTYLE1
 72
     5
 11
-220.6627227115394
 21
77.29732343652508
 31
0.0
  0
ENDBLK
  5
A2
  8
0
  0
BLOCK
  8
0
  2
DA_IMAGEDIMGROUP_26
 70
     0
 10
0.0
 20
0.0
 30
0.0
  3
DA_IMAGEDIMGROUP_26
  1

  0
LINE
  5
16C
  8
LAYER0014
  6
CONTINUOUS
 62
     7
 10
-155.5334728912061
 20
88.95733455757105
 30
0.0
 11
-209.3759191802686
 21
88.95733455757105
 31
0.0
  0
LINE
  5
16D
  8
LAYER0014
  6
CONTINUOUS
 62
     7
 10
-155.5334728912061
 20
105.2373333368679
 30
0.0
 11
-209.3759191802686
 21
105.2373333368679
 31
0.0
  0
LINE
  5
16E
  8
LAYER0014
  6
CONTINUOUS
 62
     7
 10
-207.0899236968702
 20
88.95733455757105
 30
0.0
 11
-207.0899236968702
 21
105.2373333368679
 31
0.0
  0
INSERT
  5
16F
  8
LAYER0014
 62
     7
  2
_OPEN30
 10
-207.0899236968702
 20
88.95733455757105
 30
0.0
 41
1.999998407630662
 42
2.000005728319971
 50
270.0
  0
INSERT
  5
170
  8
LAYER0014
 62
     7
  2
_OPEN30
 10
-207.0899236968702
 20
105.2373333368679
 30
0.0
 41
1.999998407630662
 42
2.000005728319971
 50
90.0
  0
TEXT
  5
171
  8
LAYER0014
 62
     7
 10
-208.6899236968702
 20
89.31719321350062
 30
0.0
 40
4.0
  1
φ16.28
 50
90.0
 41
0.7741935483870963
  7
FDASTYLE1
 72
     5
 11
-208.6899236968702
 21
108.5171932135006
 31
0.0
  0
TEXT
  5
172
  8
LAYER0014
 62
     7
 10
-210.8899236968702
 20
109.5171932135006
 30
0.0
 40
2.2
  1
+0.1
 50
90.0
 41
0.7999999999999991
  7
FDASTYLE1
 72
     5
 11
-210.8899236968702
 21
116.5571932135006
 31
0.0
  0
TEXT
  5
173
  8
LAYER0014
 62
     7
 10
-208.4899236968702
 20
109.5171932135006
 30
0.0
 40
2.2
  1
　0
 50
90.0
 41
0.7272727272727294
  7
FDASTYLE1
 72
     5
 11
-208.4899236968702
 21
113.0371932135006
 31
0.0
  0
ENDBLK
  5
A5
  8
0
  0
BLOCK
  8
0
  2
DA_IMAGEDIMGROUP_27
 70
     0
 10
0.0
 20
0.0
 30
0.0
  3
DA_IMAGEDIMGROUP_27
  1

  0
LINE
  5
174
  8
LAYER0014
  6
CONTINUOUS
 62
     7
 10
-127.4434698394483
 20
70.65733242134057
 30
0.0
 11
-127.4434698394483
 21
54.73865703681909
 31
0.0
  0
LINE
  5
175
  8
LAYER0014
  6
CONTINUOUS
 62
     7
 10
-152.4434698394483
 20
69.65733242134057
 30
0.0
 11
-152.4434698394483
 21
54.73865703681909
 31
0.0
  0
LINE
  5
176
  8
LAYER0014
  6
CONTINUOUS
 62
     7
 10
-127.4434698394483
 20
57.0246563349148
 30
0.0
 11
-152.4434698394483
 21
57.0246563349148
 31
0.0
  0
INSERT
  5
177
  8
LAYER0014
 62
     7
  2
_OPEN30
 10
-127.4434698394483
 20
57.0246563349148
 30
0.0
 41
1.999998407630662
 42
2.000005728319971
 50
360.0
  0
INSERT
  5
178
  8
LAYER0014
 62
     7
  2
_OPEN30
 10
-152.4434698394483
 20
57.0246563349148
 30
0.0
 41
1.999998407630662
 42
2.000005728319971
 50
180.0
  0
TEXT
  5
179
  8
LAYER0014
 62
     7
 10
-143.1434698394483
 20
58.0246563349148
 30
0.0
 40
4.0
  1
25
 41
0.7999999999999972
  7
FDASTYLE1
 72
     5
 11
-136.7434698394483
 21
58.0246563349148
 31
0.0
  0
ENDBLK
  5
A8
  8
0
  0
BLOCK
  8
0
  2
DA_IMAGEDIMGROUP_28
 70
     0
 10
0.0
 20
0.0
 30
0.0
  3
DA_IMAGEDIMGROUP_28
  1

  0
LINE
  5
17A
  8
LAYER0014
  6
CONTINUOUS
 62
     7
 10
-146.4934728912061
 20
107.7773333368679
 30
0.0
 11
-146.4934728912061
 21
136.8923855219265
 31
0.0
  0
LINE
  5
17B
  8
LAYER0014
  6
CONTINUOUS
 62
     7
 10
-152.9934728912061
 20
119.7373324213406
 30
0.0
 11
-152.9934728912061
 21
136.8923855219265
 31
0.0
  0
LINE
  5
17C
  8
LAYER0014
  6
CONTINUOUS
 62
     7
 10
-146.4934728912061
 20
135.8923855219265
 30
0.0
 11
-152.9934728912061
 21
135.8923855219265
 31
0.0
  0
LINE
  5
17D
  8
LAYER0014
  6
CONTINUOUS
 62
     7
 10
-146.4934728912061
 20
135.8923855219265
 30
0.0
 11
-140.1434728912061
 21
135.8923855219265
 31
0.0
  0
INSERT
  5
17E
  8
LAYER0014
 62
     7
  2
_OPEN30
 10
-146.4934728912061
 20
135.8923855219265
 30
0.0
 41
1.999998407630662
 42
2.000005728319971
 50
180.0
  0
LINE
  5
17F
  8
LAYER0014
  6
CONTINUOUS
 62
     7
 10
-159.3434728912061
 20
135.8923855219265
 30
0.0
 11
-152.9934728912061
 21
135.8923855219265
 31
0.0
  0
INSERT
  5
180
  8
LAYER0014
 62
     7
  2
_OPEN30
 10
-152.9934728912061
 20
135.8923855219265
 30
0.0
 41
1.999998407630662
 42
2.000005728319971
 50
360.0
  0
TEXT
  5
181
  8
LAYER0014
 62
     7
 10
-141.7284933379835
 20
137.4923855219265
 30
0.0
 40
4.0
  1
6.5
 41
0.8000000000000019
  7
FDASTYLE1
 72
     5
 11
-132.1284933379835
 21
137.4923855219265
 31
0.0
  0
ENDBLK
  5
AB
  8
0
  0
BLOCK
  8
0
  2
DA_IMAGEDIMGROUP_29
 70
     0
 10
0.0
 20
0.0
 30
0.0
  3
DA_IMAGEDIMGROUP_29
  1

  0
LINE
  5
182
  8
LAYER0014
  6
CONTINUOUS
 62
     7
 10
-152.9934728912061
 20
-30.34266757865942
 30
0.0
 11
-152.9934728912061
 21
-64.04731174369849
 31
0.0
  0
LINE
  5
183
  8
LAYER0014
  6
CONTINUOUS
 62
     7
 10
-136.9934728912061
 20
2.875825882949463
 30
0.0
 11
-136.9934728912061
 21
-64.04731174369849
 31
0.0
  0
LINE
  5
184
  8
LAYER0014
  6
CONTINUOUS
 62
     7
 10
-152.9934728912061
 20
-63.04731174369849
 30
0.0
 11
-136.9934728912061
 21
-63.04731174369849
 31
0.0
  0
INSERT
  5
185
  8
LAYER0014
 62
     7
  2
_OPEN30
 10
-152.9934728912061
 20
-63.04731174369849
 30
0.0
 41
1.999998407630662
 42
2.000005728319971
 50
180.0
  0
INSERT
  5
186
  8
LAYER0014
 62
     7
  2
_OPEN30
 10
-136.9934728912061
 20
-63.04731174369849
 30
0.0
 41
1.999998407630662
 42
2.000005728319971
 50
360.0
  0
TEXT
  5
187
  8
LAYER0014
 62
     7
 10
-148.1934728912061
 20
-62.04731174369849
 30
0.0
 40
4.0
  1
16
 41
0.7999999999999972
  7
FDASTYLE1
 72
     5
 11
-141.7934728912061
 21
-62.04731174369849
 31
0.0
  0
ENDBLK
  5
AE
  8
0
  0
BLOCK
  8
0
  2
DA_IMAGEDIMGROUP_30
 70
     0
 10
0.0
 20
0.0
 30
0.0
  3
DA_IMAGEDIMGROUP_30
  1

  0
LINE
  5
188
  8
LAYER0014
  6
CONTINUOUS
 62
     7
 10
-153.9934728912061
 20
-40.34266757865942
 30
0.0
 11
-153.9934728912061
 21
-90.23907657524146
 31
0.0
  0
LINE
  5
189
  8
LAYER0014
  6
CONTINUOUS
 62
     7
 10
-57.99347289120613
 20
-38.84266757865942
 30
0.0
 11
-57.99347289120613
 21
-90.23907657524146
 31
0.0
  0
LINE
  5
18A
  8
LAYER0014
  6
CONTINUOUS
 62
     7
 10
-153.9934728912061
 20
-87.95307346244849
 30
0.0
 11
-57.99347289120613
 21
-87.95307346244849
 31
0.0
  0
INSERT
  5
18B
  8
LAYER0014
 62
     7
  2
_OPEN30
 10
-153.9934728912061
 20
-87.95307346244849
 30
0.0
 41
1.999998407630662
 42
2.000005728319971
 50
180.0
  0
INSERT
  5
18C
  8
LAYER0014
 62
     7
  2
_OPEN30
 10
-57.99347289120613
 20
-87.95307346244849
 30
0.0
 41
1.999998407630662
 42
2.000005728319971
 50
360.0
  0
TEXT
  5
18D
  8
LAYER0014
 62
     7
 10
-109.1934728912061
 20
-86.95307346244849
 30
0.0
 40
4.0
  1
96
 41
0.8000000000000007
  7
FDASTYLE1
 72
     5
 11
-102.7934728912061
 21
-86.95307346244849
 31
0.0
  0
ENDBLK
  5
B1
  8
0
  0
BLOCK
  8
0
  2
DA_IMAGEDIMGROUP_31
 70
     0
 10
0.0
 20
0.0
 30
0.0
  3
DA_IMAGEDIMGROUP_31
  1

  0
LINE
  5
18E
  8
LAYER0014
  6
CONTINUOUS
 62
     7
 10
-153.9934728912061
 20
-40.34266757865942
 30
0.0
 11
-153.9934728912061
 21
-76.63128085990942
 31
0.0
  0
LINE
  5
18F
  8
LAYER0014
  6
CONTINUOUS
 62
     7
 10
-152.9934728912061
 20
-30.34266757865942
 30
0.0
 11
-152.9934728912061
 21
-76.63128085990942
 31
0.0
  0
LINE
  5
190
  8
LAYER0014
  6
CONTINUOUS
 62
     7
 10
-153.9934728912061
 20
-75.63128085990942
 30
0.0
 11
-152.9934728912061
 21
-75.63128085990942
 31
0.0
  0
LINE
  5
191
  8
LAYER0014
  6
CONTINUOUS
 62
     7
 10
-163.4285406402296
 20
-75.63128085990942
 30
0.0
 11
-153.9934728912061
 21
-75.63128085990942
 31
0.0
  0
INSERT
  5
192
  8
LAYER0014
 62
     7
  2
_OPEN30
 10
-153.9934728912061
 20
-75.63128085990942
 30
0.0
 41
1.999998407630662
 42
2.000005728319971
 50
360.0
  0
LINE
  5
193
  8
LAYER0014
  6
CONTINUOUS
 62
     7
 10
-147.9934728912061
 20
-75.63128085990942
 30
0.0
 11
-152.9934728912061
 21
-75.63128085990942
 31
0.0
  0
INSERT
  5
194
  8
LAYER0014
 62
     7
  2
_OPEN30
 10
-152.9934728912061
 20
-75.63128085990942
 30
0.0
 41
1.999998407630662
 42
2.000005728319971
 50
180.0
  0
TEXT
  5
195
  8
LAYER0014
 62
     7
 10
-162.4285406402296
 20
-74.63128085990942
 30
0.0
 40
4.0
  1
1
 41
0.7999999999999972
  7
FDASTYLE1
 72
     5
 11
-159.2285406402296
 21
-74.63128085990942
 31
0.0
  0
ENDBLK
  5
B4
  8
0
  0
BLOCK
  8
0
  2
DA_IMAGEDIMGROUP_32
 70
     0
 10
0.0
 20
0.0
 30
0.0
  3
DA_IMAGEDIMGROUP_32
  1

  0
LINE
  5
196
  8
LAYER0014
  6
CONTINUOUS
 62
     7
 10
-152.9934728912061
 20
-30.34266757865942
 30
0.0
 11
-152.9934728912061
 21
-77.91728397270239
 31
0.0
  0
LINE
  5
197
  8
LAYER0014
  6
CONTINUOUS
 62
     7
 10
-57.99347289120613
 20
-38.84266757865942
 30
0.0
 11
-57.99347289120613
 21
-77.91728397270239
 31
0.0
  0
LINE
  5
198
  8
LAYER0014
  6
CONTINUOUS
 62
     7
 10
-152.9934728912061
 20
-75.63128085990942
 30
0.0
 11
-57.99347289120613
 21
-75.63128085990942
 31
0.0
  0
INSERT
  5
199
  8
LAYER0014
 62
     7
  2
_OPEN30
 10
-152.9934728912061
 20
-75.63128085990942
 30
0.0
 41
1.999998407630662
 42
2.000005728319971
 50
180.0
  0
INSERT
  5
19A
  8
LAYER0014
 62
     7
  2
_OPEN30
 10
-57.99347289120613
 20
-75.63128085990942
 30
0.0
 41
1.999998407630662
 42
2.000005728319971
 50
360.0
  0
TEXT
  5
19B
  8
LAYER0014
 62
     7
 10
-108.6934728912061
 20
-74.63128085990942
 30
0.0
 40
4.0
  1
95
 41
0.8000000000000007
  7
FDASTYLE1
 72
     5
 11
-102.2934728912061
 21
-74.63128085990942
 31
0.0
  0
ENDBLK
  5
B7
  8
0
  0
BLOCK
  8
0
  2
DA_IMAGEDIMGROUP_33
 70
     0
 10
0.0
 20
0.0
 30
0.0
  3
DA_IMAGEDIMGROUP_33
  1

  0
LINE
  5
19C
  8
LAYER0014
  6
CONTINUOUS
 62
     7
 10
-31.3651855376905
 20
89.19733242134058
 30
0.0
 11
-9.069610433930734
 21
89.19733242134058
 31
0.0
  0
LINE
  5
19D
  8
LAYER0014
  6
CONTINUOUS
 62
     7
 10
-31.3651855376905
 20
114.1973324213406
 30
0.0
 11
-9.069610433930734
 21
114.1973324213406
 31
0.0
  0
LINE
  5
19E
  8
LAYER0014
  6
CONTINUOUS
 62
     7
 10
-10.06961043393073
 20
89.19733242134058
 30
0.0
 11
-10.06961043393073
 21
114.1973324213406
 31
0.0
  0
INSERT
  5
19F
  8
LAYER0014
 62
     7
  2
_OPEN30
 10
-10.06961043393073
 20
89.19733242134058
 30
0.0
 41
1.999998407630662
 42
2.000005728319971
 50
270.0
  0
INSERT
  5
1A0
  8
LAYER0014
 62
     7
  2
_OPEN30
 10
-10.06961043393073
 20
114.1973324213406
 30
0.0
 41
1.999998407630662
 42
2.000005728319971
 50
90.0
  0
TEXT
  5
1A1
  8
LAYER0014
 62
     7
 10
-11.06961043393073
 20
98.49733242134057
 30
0.0
 40
4.0
  1
25
 50
90.0
 41
0.8000000000000007
  7
FDASTYLE1
 72
     5
 11
-11.06961043393073
 21
104.8973324213406
 31
0.0
  0
ENDBLK
  5
BA
  8
0
  0
BLOCK
  8
0
  2
DA_IMAGEDIMGROUP_34
 70
     0
 10
0.0
 20
0.0
 30
0.0
  3
DA_IMAGEDIMGROUP_34
  1

  0
ARC
  5
1A2
  8
0
  6
CONTINUOUS
 62
     9
 10
-152.9935160214487
 20
3.415830651321045
 30
0.0
 40
54.09087609823363
 50
180.0
 51
187.1249663652401
  0
ARC
  5
1A3
  8
0
  6
CONTINUOUS
 62
     9
 10
-152.9935160214487
 20
3.415830651321045
 30
0.0
 40
54.09087609823363
 50
187.1249663652401
 51
192.670221224174
  0
INSERT
  5
1A4
  8
0
 62
     9
  2
_OPEN30
 10
-206.6667015586881
 20
-3.293269985838626
 30
0.0
 41
1.999998407630662
 42
2.000005728319971
 50
98.18421613297878
  0
ENDBLK
  5
BD
  8
0
  0
BLOCK
  8
0
  2
DA_IMAGEDIMGROUP_35
 70
     0
 10
0.0
 20
0.0
 30
0.0
  3
DA_IMAGEDIMGROUP_35
  1

  0
LINE
  5
1A5
  8
0
  6
CONTINUOUS
 62
     9
 10
-159.9434760028265
 20
73.19734047405783
 30
0.0
 11
-159.9434760028265
 21
145.7983901115055
 31
0.0
  0
LINE
  5
1A6
  8
0
  6
CONTINUOUS
 62
     9
 10
-152.9934728912061
 20
118.1973324213406
 30
0.0
 11
-152.9934728912061
 21
145.7983901115055
 31
0.0
  0
LINE
  5
1A7
  8
0
  6
CONTINUOUS
 62
     9
 10
-159.9434760028265
 20
144.7983901115055
 30
0.0
 11
-152.9934728912061
 21
144.7983901115055
 31
0.0
  0
LINE
  5
1A8
  8
0
  6
CONTINUOUS
 62
     9
 10
-144.9434698394483
 20
73.19733242134058
 30
0.0
 11
-144.9434698394483
 21
145.7983901115055
 31
0.0
  0
LINE
  5
1A9
  8
0
  6
CONTINUOUS
 62
     9
 10
-167.0753260028265
 20
144.7983901115055
 30
0.0
 11
-159.9434760028265
 21
144.7983901115055
 31
0.0
  0
INSERT
  5
1AA
  8
0
 62
     9
  2
_OPEN30
 10
-159.9434760028265
 20
144.7983901115055
 30
0.0
 41
1.999998407630662
 42
2.000005728319971
 50
360.0
  0
LINE
  5
1AB
  8
0
  6
CONTINUOUS
 62
     9
 10
-137.8116198394483
 20
144.7983901115055
 30
0.0
 11
-144.9434698394483
 21
144.7983901115055
 31
0.0
  0
INSERT
  5
1AC
  8
0
 62
     9
  2
_OPEN30
 10
-144.9434698394483
 20
144.7983901115055
 30
0.0
 41
1.999998407630662
 42
2.000005728319971
 50
180.0
  0
LINE
  5
1AD
  8
0
  6
CONTINUOUS
 62
     9
 10
-152.9934728912061
 20
144.7983901115055
 30
0.0
 11
-144.9434698394483
 21
144.7983901115055
 31
0.0
  0
INSERT
  5
1B3
  8
0
 62
     9
  2
_DOT
 10
-152.9934728912061
 20
144.7983901115055
 30
0.0
 41
2.5
 42
2.5
 50
180.0
  0
TEXT
  5
1B4
  8
0
 62
     7
 10
-166.0753260028265
 20
145.7983901115055
 30
0.0
 40
4.0
  1
7
 41
0.7999999999999972
  7
FDASTYLE1
 72
     5
 11
-162.8753260028265
 21
145.7983901115055
 31
0.0
  0
TEXT
  5
1B5
  8
0
 62
     7
 10
-142.0116198394483
 20
145.7983901115055
 30
0.0
 40
4.0
  1
8
 41
0.7999999999999972
  7
FDASTYLE1
 72
     5
 11
-138.8116198394483
 21
145.7983901115055
 31
0.0
  0
ENDBLK
  5
C0
  8
0
  0
BLOCK
  8
0
  2
DC_GROUP_5
 70
     0
 10
0.0
 20
0.0
 30
0.0
  3
DC_GROUP_5
  1

  0
LINE
  5
1B6
  8
0
  6
CONTINUOUS
 62
     7
 10
-104.9934728912061
 20
-37.80266757865942
 30
0.0
 11
-90.0503595806625
 21
-52.84529961345649
 31
0.0
  0
INSERT
  5
1B7
  8
0
 62
     7
  2
_OPEN30
 10
-104.9934728912061
 20
-37.80266757865942
 30
0.0
 41
1.999998407630662
 42
2.000005728319971
 50
134.8098435813055
  0
LINE
  5
1B8
  8
0
  6
CONTINUOUS
 62
     7
 10
-90.0503595806625
 20
-52.84529961345649
 30
0.0
 11
-74.0503595806625
 21
-52.84529961345649
 31
0.0
  0
TEXT
  5
1B9
  8
0
 62
     7
 10
-90.0503595806625
 20
-52.84529961345649
 30
0.0
 40
4.0
  1
M8×16
 41
0.7692307692307692
  7
FDASTYLE1
 72
     5
 11
-74.0503595806625
 21
-52.84529961345649
 31
0.0
  0
ENDBLK
  5
C3
  8
0
  0
BLOCK
  8
0
  2
DA_IMAGEDIMGROUP_36
 70
     0
 10
0.0
 20
0.0
 30
0.0
  3
DA_IMAGEDIMGROUP_36
  1

  0
LINE
  5
1BA
  8
0
  6
CONTINUOUS
 62
     9
 10
-104.9934728912061
 20
-42.90287277701767
 30
0.0
 11
-104.9934728912061
 21
-52.25777721851689
 31
0.0
  0
LINE
  5
1BB
  8
0
  6
CONTINUOUS
 62
     9
 10
-152.9934728912061
 20
-28.80266757865942
 30
0.0
 11
-152.9934728912061
 21
-52.25777721851689
 31
0.0
  0
LINE
  5
1BC
  8
0
  6
CONTINUOUS
 62
     9
 10
-152.9934728912061
 20
-51.25777721851689
 30
0.0
 11
-104.9934728912061
 21
-51.25777721851689
 31
0.0
  0
INSERT
  5
1BD
  8
0
 62
     9
  2
_OPEN30
 10
-152.9934728912061
 20
-51.25777721851689
 30
0.0
 41
1.999998407630662
 42
2.000005728319971
 50
180.0
  0
INSERT
  5
1BE
  8
0
 62
     9
  2
_OPEN30
 10
-104.9934728912061
 20
-51.25777721851689
 30
0.0
 41
1.999998407630662
 42
2.000005728319971
 50
360.0
  0
TEXT
  5
1BF
  8
0
 62
     7
 10
-132.1934728912061
 20
-50.25777721851689
 30
0.0
 40
4.0
  1
48
 41
0.7999999999999989
  7
FDASTYLE1
 72
     5
 11
-125.7934728912061
 21
-50.25777721851689
 31
0.0
  0
ENDBLK
  5
C6
  8
0
  0
BLOCK
  8
0
  2
DA_IMAGEDIMGROUP_37
 70
     0
 10
0.0
 20
0.0
 30
0.0
  3
DA_IMAGEDIMGROUP_37
  1

  0
LINE
  5
1C0
  8
0
  6
CONTINUOUS
 62
     9
 10
249.7368499966602
 20
44.69733242134058
 30
0.0
 11
246.6656305023486
 21
44.69733242134058
 31
0.0
  0
LINE
  5
1C1
  8
0
  6
CONTINUOUS
 62
     9
 10
236.9774011077783
 20
92.31624850741159
 30
0.0
 11
228.4031048509373
 21
87.36587680233951
 31
0.0
  0
ARC
  5
1C2
  8
0
  6
CONTINUOUS
 62
     9
 10
154.4990099329731
 20
44.69733242134058
 30
0.0
 40
94.23784006368719
 50
0.0
 51
29.99999725896546
  0
INSERT
  5
1C3
  8
0
 62
     9
  2
_OPEN30
 10
248.7368499966602
 20
44.69733242134058
 30
0.0
 41
1.999998407630662
 42
2.000005728319971
 50
270.6079908867298
  0
INSERT
  5
1C4
  8
0
 62
     9
  2
_OPEN30
 10
236.1113756800738
 20
91.81624854884231
 30
0.0
 41
1.999998407630662
 42
2.000005728319971
 50
119.3920063722357
  0
TEXT
  5
1C5
  8
0
 62
     7
 10
245.8021795207181
 20
64.19261500388276
 30
0.0
 40
4.0
  1
30°
 50
104.9999986294827
 41
0.7500000000000014
  7
FDASTYLE1
 72
     5
 11
243.3175169095418
 21
73.46550299569107
 31
0.0
  0
ENDBLK
  5
C9
  8
0
  0
BLOCK
  8
0
  2
DA_IMAGEDIMGROUP_38
 70
     0
 10
0.0
 20
0.0
 30
0.0
  3
DA_IMAGEDIMGROUP_38
  1

  0
LINE
  5
1C6
  8
LAYER0014
  6
CONTINUOUS
 62
     7
 10
-53.94347974850021
 20
11.19733242134058
 30
0.0
 11
-19.28284056698738
 21
11.19733242134058
 31
0.0
  0
LINE
  5
1C7
  8
LAYER0014
  6
CONTINUOUS
 62
     7
 10
-21.56884367978034
 20
11.19733242134058
 30
0.0
 11
-21.56884367978034
 21
70.19733242134058
 31
0.0
  0
INSERT
  5
1C8
  8
LAYER0014
 62
     7
  2
_OPEN30
 10
-21.56884367978034
 20
11.19733242134058
 30
0.0
 41
1.999998407630662
 42
2.000005728319971
 50
270.0
  0
TEXT
  5
1C9
  8
LAYER0014
 62
     7
 10
-23.1828038697688
 20
34.95013713141971
 30
0.0
 40
4.0
  1
PCD67
 50
89.90000000000001
 41
0.8000000000000004
  7
FDASTYLE1
 72
     5
 11
-23.15487861591442
 21
50.95011276203232
 31
0.0
  0
ENDBLK
  5
CC
  8
0
  0
BLOCK
  8
0
  2
_OPEN30
 70
     0
 10
0.0
 20
0.0
 30
0.0
  3
_OPEN30
  1

  0
LINE
  5
D3
  8
0
  6
BYBLOCK
 62
     0
 10
-1.0
 20
0.267949
 30
0.0
 11
0.0
 21
0.0
 31
0.0
  0
LINE
  5
D4
  8
0
  6
BYBLOCK
 62
     0
 10
0.0
 20
0.0
 30
0.0
 11
-1.0
 21
-0.267949
 31
0.0
  0
LINE
  5
D5
  8
0
  6
BYBLOCK
 62
     0
 10
0.0
 20
0.0
 30
0.0
 11
-1.0
 21
0.0
 31
0.0
  0
ENDBLK
  5
D2
  8
0
  0
BLOCK
  8
0
  2
_DOT
 70
     0
 10
0.0
 20
0.0
 30
0.0
  3
_DOT
  1

  0
POLYLINE
  5
1B1
  8
0
  6
BYBLOCK
 62
     0
 66
     1
 10
0.0
 20
0.0
 30
0.0
 70
     1
 40
0.5
 41
0.5
  0
VERTEX
  5
522
  8
0
  6
BYBLOCK
 62
     0
 10
-0.25
 20
0.0
 30
0.0
 42
1.0
  0
VERTEX
  5
523
  8
0
  6
BYBLOCK
 62
     0
 10
0.25
 20
0.0
 30
0.0
 42
1.0
  0
SEQEND
  5
521
  8
0
  6
BYBLOCK
 62
     0
  0
LINE
  5
1B2
  8
0
  6
BYBLOCK
 62
     0
 10
-0.5
 20
0.0
 30
0.0
 11
-1.0
 21
0.0
 31
0.0
  0
ENDBLK
  5
1B0
  8
0
  0
ENDSEC
  0
SECTION
  2
ENTITIES
  0
LINE
  5
1CA
  8
ZUWAKU
  6
CONTINUOUS
 62
     3
 10
-277.0
 20
-190.0
 30
0.0
 11
-277.0
 21
190.0
 31
0.0
  0
LINE
  5
1CB
  8
ZUWAKU
  6
CONTINUOUS
 62
     3
 10
277.0
 20
-190.0
 30
0.0
 11
277.0
 21
190.0
 31
0.0
  0
LINE
  5
1CC
  8
ZUWAKU
  6
CONTINUOUS
 62
     3
 10
-277.0
 20
-190.0
 30
0.0
 11
277.0
 21
-190.0
 31
0.0
  0
LINE
  5
1CD
  8
ZUWAKU
  6
CONTINUOUS
 62
     3
 10
-277.0
 20
189.9999999999999
 30
0.0
 11
277.0
 21
189.9999999999999
 31
0.0
  0
LINE
  5
1CE
  8
ZUWAKU
  6
CONTINUOUS
 62
     3
 10
97.00000000000001
 20
-190.0
 30
0.0
 11
97.00000000000001
 21
-130.0
 31
0.0
  0
LINE
  5
1CF
  8
ZUWAKU
  6
CONTINUOUS
 62
     3
 10
97.00000000000001
 20
-176.0
 30
0.0
 11
277.0
 21
-176.0
 31
0.0
  0
LINE
  5
1D0
  8
ZUWAKU
  6
CONTINUOUS
 62
     3
 10
146.0
 20
-162.0
 30
0.0
 11
277.0
 21
-162.0
 31
0.0
  0
LINE
  5
1D1
  8
ZUWAKU
  6
CONTINUOUS
 62
     3
 10
146.0
 20
-148.0
 30
0.0
 11
277.0
 21
-148.0
 31
0.0
  0
LINE
  5
1D2
  8
ZUWAKU
  6
CONTINUOUS
 62
     3
 10
146.0
 20
-138.0
 30
0.0
 11
277.0
 21
-138.0
 31
0.0
  0
LINE
  5
1D3
  8
ZUWAKU
  6
CONTINUOUS
 62
     3
 10
146.0
 20
-176.0
 30
0.0
 11
146.0
 21
-130.0
 31
0.0
  0
LINE
  5
1D4
  8
ZUWAKU
  6
CONTINUOUS
 62
     3
 10
255.0
 20
-176.0
 30
0.0
 11
255.0
 21
-130.0
 31
0.0
  0
LINE
  5
1D5
  8
ZUWAKU
  6
CONTINUOUS
 62
     3
 10
171.0
 20
-190.0
 30
0.0
 11
171.0
 21
-176.0
 31
0.0
  0
LINE
  5
1D6
  8
ZUWAKU
  6
CONTINUOUS
 62
     3
 10
262.0
 20
-188.0
 30
0.0
 11
272.0
 21
-188.0
 31
0.0
  0
LINE
  5
1D7
  8
ZUWAKU
  6
CONTINUOUS
 62
     3
 10
267.0
 20
-178.0
 30
0.0
 11
262.0
 21
-188.0
 31
0.0
  0
LINE
  5
1D8
  8
ZUWAKU
  6
CONTINUOUS
 62
     3
 10
267.0
 20
-178.0
 30
0.0
 11
272.0
 21
-188.0
 31
0.0
  0
LINE
  5
1D9
  8
ZUWAKU
  6
CONTINUOUS
 62
     3
 10
97.00000000000001
 20
-130.0
 30
0.0
 11
277.0
 21
-130.0
 31
0.0
  0
LINE
  5
1DA
  8
ZUWAKU
  6
CONTINUOUS
 62
     3
 10
226.0
 20
-176.0
 30
0.0
 11
226.0
 21
-148.0
 31
0.0
  0
LINE
  5
1DB
  8
ZUWAKU
  6
CONTINUOUS
 62
     4
 10
-126.2573657611391
 20
188.4983433964739
 30
0.0
 11
-126.056888471173
 21
188.2978661065078
 31
0.0
  0
LINE
  5
1DC
  8
ZUWAKU
  6
CONTINUOUS
 62
     4
 10
153.0
 20
-139.5
 30
0.0
 11
153.0
 21
-130.0
 31
0.0
  0
LINE
  5
1DD
  8
ZUWAKU
  6
CONTINUOUS
 62
     4
 10
202.0
 20
-139.5
 30
0.0
 11
202.0
 21
-130.0
 31
0.0
  0
LINE
  5
1DE
  8
ZUWAKU
  6
CONTINUOUS
 62
     4
 10
226.0
 20
-139.5
 30
0.0
 11
226.0
 21
-130.0
 31
0.0
  0
LINE
  5
1DF
  8
ZUWAKU
  6
CONTINUOUS
 62
     4
 10
243.0
 20
-139.5
 30
0.0
 11
243.0
 21
-130.0
 31
0.0
  0
LINE
  5
1E0
  8
ZUWAKU
  6
CONTINUOUS
 62
     7
 10
-126.1159444049019
 20
188.4983433964739
 30
0.0
 11
-126.0051246621524
 21
188.3875236537245
 31
0.0
  0
LINE
  5
1E1
  8
ZUWAKU
  6
CONTINUOUS
 62
     7
 10
-125.9745230486646
 20
188.4983433964739
 30
0.0
 11
-125.953360853132
 21
188.4771812009413
 31
0.0
  0
LINE
  5
1E2
  8
ZUWAKU
  6
CONTINUOUS
 62
     4
 10
105.0
 20
-172.0
 30
0.0
 11
105.0
 21
-130.0
 31
0.0
  0
LINE
  5
1E3
  8
ZUWAKU
  6
CONTINUOUS
 62
     4
 10
109.0
 20
-172.0
 30
0.0
 11
109.0
 21
-130.0
 31
0.0
  0
LINE
  5
1E4
  8
ZUWAKU
  6
CONTINUOUS
 62
     4
 10
121.5
 20
-176.0
 30
0.0
 11
121.5
 21
-130.0
 31
0.0
  0
LINE
  5
1E5
  8
ZUWAKU
  6
CONTINUOUS
 62
     4
 10
97.00000000000001
 20
-137.0
 30
0.0
 11
146.0
 21
-137.0
 31
0.0
  0
LINE
  5
1E6
  8
ZUWAKU
  6
CONTINUOUS
 62
     4
 10
97.00000000000001
 20
-144.0
 30
0.0
 11
146.0
 21
-144.0
 31
0.0
  0
LINE
  5
1E7
  8
ZUWAKU
  6
CONTINUOUS
 62
     4
 10
97.00000000000001
 20
-165.0
 30
0.0
 11
146.0
 21
-165.0
 31
0.0
  0
LINE
  5
1E8
  8
ZUWAKU
  6
CONTINUOUS
 62
     4
 10
97.00000000000001
 20
-172.0
 30
0.0
 11
146.0
 21
-172.0
 31
0.0
  0
LINE
  5
1E9
  8
ZUWAKU
  6
CONTINUOUS
 62
     4
 10
255.0
 20
-166.0
 30
0.0
 11
277.0
 21
-166.0
 31
0.0
  0
LINE
  5
1EA
  8
ZUWAKU
  6
CONTINUOUS
 62
     4
 10
202.0
 20
-148.0
 30
0.0
 11
202.0
 21
-146.5
 31
0.0
  0
LINE
  5
1EB
  8
ZUWAKU
  6
CONTINUOUS
 62
     4
 10
226.0
 20
-148.0
 30
0.0
 11
226.0
 21
-146.5
 31
0.0
  0
LINE
  5
1EC
  8
ZUWAKU
  6
CONTINUOUS
 62
     4
 10
243.0
 20
-148.0
 30
0.0
 11
243.0
 21
-146.5
 31
0.0
  0
LINE
  5
1ED
  8
ZUWAKU
  6
CONTINUOUS
 62
     4
 10
97.00000000000001
 20
-151.0
 30
0.0
 11
146.0
 21
-151.0
 31
0.0
  0
LINE
  5
1EE
  8
ZUWAKU
  6
CONTINUOUS
 62
     4
 10
97.00000000000001
 20
-158.0
 30
0.0
 11
146.0
 21
-158.0
 31
0.0
  0
LINE
  5
1EF
  8
ZUWAKU
  6
CONTINUOUS
 62
     4
 10
101.0
 20
-130.5
 30
0.0
 11
98.00000000000001
 21
-136.5
 31
0.0
  0
LINE
  5
1F0
  8
ZUWAKU
  6
CONTINUOUS
 62
     4
 10
101.0
 20
-130.5
 30
0.0
 11
104.0
 21
-136.5
 31
0.0
  0
LINE
  5
1F1
  8
ZUWAKU
  6
CONTINUOUS
 62
     4
 10
98.00000000000001
 20
-136.5
 30
0.0
 11
104.0
 21
-136.5
 31
0.0
  0
LINE
  5
1F2
  8
ZUWAKU
  6
CONTINUOUS
 62
     4
 10
101.0
 20
-158.5
 30
0.0
 11
98.00000000000001
 21
-164.5
 31
0.0
  0
LINE
  5
1F3
  8
ZUWAKU
  6
CONTINUOUS
 62
     4
 10
101.0
 20
-158.5
 30
0.0
 11
104.0
 21
-164.5
 31
0.0
  0
LINE
  5
1F4
  8
ZUWAKU
  6
CONTINUOUS
 62
     4
 10
98.00000000000001
 20
-164.5
 30
0.0
 11
104.0
 21
-164.5
 31
0.0
  0
LINE
  5
1F5
  8
ZUWAKU
  6
CONTINUOUS
 62
     4
 10
101.0
 20
-151.5
 30
0.0
 11
98.00000000000001
 21
-157.5
 31
0.0
  0
LINE
  5
1F6
  8
ZUWAKU
  6
CONTINUOUS
 62
     4
 10
101.0
 20
-151.5
 30
0.0
 11
104.0
 21
-157.5
 31
0.0
  0
LINE
  5
1F7
  8
ZUWAKU
  6
CONTINUOUS
 62
     4
 10
98.00000000000001
 20
-157.5
 30
0.0
 11
104.0
 21
-157.5
 31
0.0
  0
LINE
  5
1F8
  8
ZUWAKU
  6
CONTINUOUS
 62
     4
 10
101.0
 20
-144.5
 30
0.0
 11
98.00000000000001
 21
-150.5
 31
0.0
  0
LINE
  5
1F9
  8
ZUWAKU
  6
CONTINUOUS
 62
     4
 10
101.0
 20
-144.5
 30
0.0
 11
104.0
 21
-150.5
 31
0.0
  0
LINE
  5
1FA
  8
ZUWAKU
  6
CONTINUOUS
 62
     4
 10
98.00000000000001
 20
-150.5
 30
0.0
 11
104.0
 21
-150.5
 31
0.0
  0
LINE
  5
1FB
  8
ZUWAKU
  6
CONTINUOUS
 62
     4
 10
101.0
 20
-137.5
 30
0.0
 11
98.00000000000001
 21
-143.5
 31
0.0
  0
LINE
  5
1FC
  8
ZUWAKU
  6
CONTINUOUS
 62
     4
 10
101.0
 20
-137.5
 30
0.0
 11
104.0
 21
-143.5
 31
0.0
  0
LINE
  5
1FD
  8
ZUWAKU
  6
CONTINUOUS
 62
     4
 10
98.00000000000001
 20
-143.5
 30
0.0
 11
104.0
 21
-143.5
 31
0.0
  0
LINE
  5
1FE
  8
ZUWAKU
  6
CONTINUOUS
 62
     4
 10
172.6666666666666
 20
-176.0
 30
0.0
 11
172.6666666666666
 21
-162.0
 31
0.0
  0
LINE
  5
1FF
  8
ZUWAKU
  6
CONTINUOUS
 62
     4
 10
199.3333333333333
 20
-176.0
 30
0.0
 11
199.3333333333333
 21
-161.9509415757253
 31
0.0
  0
LINE
  5
200
  8
ZUWAKU
  6
CONTINUOUS
 62
     4
 10
212.6666666666666
 20
-167.5
 30
0.0
 11
212.6666666666666
 21
-161.9509415757253
 31
0.0
  0
LINE
  5
201
  8
ZUWAKU
  6
CONTINUOUS
 62
     4
 10
226.0
 20
-155.0
 30
0.0
 11
255.0
 21
-155.0
 31
0.0
  0
LINE
  5
202
  8
ZUWAKU
  6
CONTINUOUS
 62
     4
 10
146.0
 20
-166.0
 30
0.0
 11
226.0
 21
-166.0
 31
0.0
  0
TEXT
  5
204
  8
ZUWAKU
 62
     7
 10
148.3132301474747
 20
-130.821188728956
 30
0.0
 40
2.6656
  1
符号
 41
0.8
  7
FDASTYLE0
  0
TEXT
  5
205
  8
ZUWAKU
 62
     7
 10
162.4141311219058
 20
-135.8245525019963
 30
0.0
 40
4.0
  1
品       名
 41
0.765957446808511
  7
FDASTYLE1
 72
     5
 11
191.2141311219058
 21
-135.8245525019963
 31
0.0
  0
TEXT
  5
206
  8
ZUWAKU
 62
     7
 10
207.2331564413096
 20
-135.8245525019963
 30
0.0
 40
4.0
  1
材  料
 41
0.7272727272727279
  7
FDASTYLE1
 72
     5
 11
220.0331564413096
 21
-135.8245525019963
 31
0.0
  0
TEXT
  5
207
  8
ZUWAKU
 62
     7
 10
229.516061684855
 20
-135.8245525019963
 30
0.0
 40
4.0
  1
個 数
 41
0.7058823529411761
  7
FDASTYLE1
 72
     5
 11
239.116061684855
 21
-135.8245525019963
 31
0.0
  0
TEXT
  5
208
  8
ZUWAKU
 62
     7
 10
245.721810952888
 20
-133.5649080050572
 30
0.0
 40
2.5
  1
単重量
 41
0.6666666666666666
  7
FDASTYLE1
 72
     5
 11
251.721810952888
 21
-133.5649080050572
 31
0.0
  0
TEXT
  5
209
  8
ZUWAKU
 62
     7
 10
244.7089516236359
 20
-137.3631304897525
 30
0.0
 40
2.5
  1
(kg)
 41
0.8
  7
FDASTYLE1
 72
     5
 11
252.7089516236359
 21
-137.3631304897525
 31
0.0
  0
TEXT
  5
20A
  8
ZUWAKU
 62
     7
 10
259.1421970654778
 20
-135.8245525019963
 30
0.0
 40
4.0
  1
記  事
 41
0.7272727272727279
  7
FDASTYLE1
 72
     5
 11
271.9421970654778
 21
-135.8245525019963
 31
0.0
  0
TEXT
  5
20B
  8
ZUWAKU
 62
     7
 10
258.8450794551645
 20
-165.4873041997729
 30
0.0
 40
3.0
  1
コード番号
 41
0.6666666666666666
  7
FDASTYLE1
 72
     5
 11
270.8450794551645
 21
-165.4873041997729
 31
0.0
  0
TEXT
  5
20C
  8
ZUWAKU
 62
     7
 10
101.9119920158317
 20
-175.1879010540338
 30
0.0
 40
2.5
  1
訂 正 来 歴
 41
0.717948717948718
  7
FDASTYLE1
 72
     5
 11
115.9119920158317
 21
-175.1879010540338
 31
0.0
  0
TEXT
  5
20D
  8
ZUWAKU
 62
     7
 10
125.890334846765
 20
-175.2166697391651
 30
0.0
 40
2.5
  1
工 事 番 号
 41
0.717948717948718
  7
FDASTYLE1
 72
     5
 11
139.890334846765
 21
-175.2166697391651
 31
0.0
  0
TEXT
  5
20E
  8
ZUWAKU
 62
     7
 10
99.96483784660289
 20
-165.9634530565915
 30
0.0
 40
2.0825
  1
記号
 41
0.8
  7
FDASTYLE0
  0
TEXT
  5
20F
  8
ZUWAKU
 62
     7
 10
105.9042249067618
 20
-165.9634530565915
 30
0.0
 40
2.0825
  1
理由
 41
0.8
  7
FDASTYLE0
  0
TEXT
  5
210
  8
ZUWAKU
 62
     7
 10
111.6193667909843
 20
-169.8786046700178
 30
0.0
 40
3.0
  1
日 付
 41
0.7058823529411754
  7
FDASTYLE1
 72
     5
 11
118.8193667909843
 21
-169.8786046700178
 31
0.0
  0
TEXT
  5
211
  8
ZUWAKU
 62
     7
 10
259.5546970259841
 20
-142.3525309070082
 30
0.0
 40
3.0
  1
標　準
 41
0.5833333333333345
  7
FDASTYLE1
 72
     5
 11
265.8546970259841
 21
-142.3525309070082
 31
0.0
  0
TEXT
  5
212
  8
ZUWAKU
 62
     7
 10
153.4481689819652
 20
-165.7187911464244
 30
0.0
 40
3.0
  1
承   認
 41
0.7407407407407408
  7
FDASTYLE1
 72
     5
 11
165.4481689819652
 21
-165.7187911464244
 31
0.0
  0
TEXT
  5
213
  8
ZUWAKU
 62
     7
 10
179.863228033234
 20
-165.4873041997729
 30
0.0
 40
3.0
  1
検   図
 41
0.7407407407407408
  7
FDASTYLE1
 72
     5
 11
191.863228033234
 21
-165.4873041997729
 31
0.0
  0
TEXT
  5
214
  8
ZUWAKU
 62
     7
 10
201.4771920983751
 20
-165.4873041997729
 30
0.0
 40
3.0
  1
担  当
 41
0.7272727272727269
  7
FDASTYLE1
 72
     5
 11
211.0771920983751
 21
-165.4873041997729
 31
0.0
  0
TEXT
  5
215
  8
ZUWAKU
 62
     7
 10
214.6770574841112
 20
-165.4873041997729
 30
0.0
 40
3.0
  1
製  図
 41
0.7272727272727269
  7
FDASTYLE1
 72
     5
 11
224.2770574841112
 21
-165.4873041997729
 31
0.0
  0
TEXT
  5
216
  8
ZUWAKU
 62
     7
 10
226.9462372304199
 20
-153.2184960272417
 30
0.0
 40
3.0
  1
作図
 41
0.6666666666666683
  7
FDASTYLE1
 72
     5
 11
231.7462372304199
 21
-153.2184960272417
 31
0.0
  0
TEXT
  5
217
  8
ZUWAKU
 62
     7
 10
228.1036719636776
 20
-160.2371566401815
 30
0.0
 40
4.0
  1
第 三 角 法
 41
0.7179487179487182
  7
FDASTYLE1
 72
     5
 11
250.5036719636776
 21
-160.2371566401815
 31
0.0
  0
TEXT
  5
218
  8
ZUWAKU
 62
     7
 10
227.409211123723
 20
-166.413251986379
 30
0.0
 40
3.0
  1
尺度
 41
0.6666666666666683
  7
FDASTYLE1
 72
     5
 11
232.209211123723
 21
-166.413251986379
 31
0.0
  0
TEXT
  5
21A
  8
ZUWAKU
 62
     3
 10
105.379154370034
 20
-185.9272077185017
 30
0.0
 40
7.0
  1
株式会社 野村製作所
 41
0.5763738641280831
  7
FDASTYLE2
 72
     5
 11
161.379154370034
 21
-185.9272077185017
 31
0.0
  0
TEXT
  5
21C
  8
ZUWAKU
 62
     3
 10
176.0422636668242
 20
-187.1216685584563
 30
0.0
 40
8.0
  1
２－
 41
0.8244023083264632
  7
FDASTYLE3
 72
     5
 11
192.0422636668242
 21
-187.1216685584563
 31
0.0
  0
TEXT
  5
21D
  8
ZUWAKU
 62
     3
 10
192.954221291231
 20
-187.1216685584563
 30
0.0
 40
8.0
  1
8706021
 41
1.629422718808194
  7
FDASTYLE3
 72
     5
 11
248.954221291231
 21
-187.1216685584563
 31
0.0
  0
TEXT
  5
21E
  8
ZUWAKU
 62
     6
 10
231.384312273996
 20
-145.1178196492171
 30
0.0
 40
4.0
  1
一式
 41
0.5833333333333328
  7
FDASTYLE1
 72
     5
 11
236.984312273996
 21
-145.1178196492171
 31
0.0
  0
TEXT
  5
21F
  8
ZUWAKU
 62
     6
 10
163.7236800359233
 20
-145.1021206743685
 30
0.0
 40
5.0
  1
外　形　図
 41
0.5833333333333334
  7
FDASTYLE1
 72
     5
 11
181.2236800359233
 21
-145.1021206743685
 31
0.0
  0
TEXT
  5
220
  8
ZUWAKU
 62
     4
 10
237.4612965606293
 20
-172.4797619591963
 30
0.0
 40
4.0
  1
1/1
 41
0.7000000000000005
  7
FDASTYLE1
 72
     5
 11
245.8612965606293
 21
-172.4797619591963
 31
0.0
  0
TEXT
  5
221
  8
0
 62
     6
 10
153.751689452146
 20
-154.3880453471329
 30
0.0
 40
5.0
  1
日鋼プレシジォン
 41
0.6666666666666666
  7
FDASTYLE1
 72
     5
 11
185.751689452146
 21
-154.3880453471329
 31
0.0
  0
TEXT
  5
222
  8
0
 62
     6
 10
170.4103460444692
 20
-160.9091595284539
 30
0.0
 40
5.0
  1
HWB3-165Ａ5型チャック
 41
0.6481481481481481
  7
FDASTYLE1
 72
     5
 11
222.9103460444692
 21
-160.9091595284539
 31
0.0
  0
TEXT
  5
223
  8
0
 62
     6
 10
-113.8586464034223
 20
-178.1835881349327
 30
0.0
 40
4.0
  1
アンバランス量
 41
0.663841963128279
  7
FDASTYLE1
 72
     5
 11
-87.00150228606694
 21
-178.1835881349327
 31
0.0
  0
TEXT
  5
224
  8
0
 62
     6
 10
-113.8586464034223
 20
-170.1835881349327
 30
0.0
 40
4.0
  1
質 量
 41
0.7364342569567148
  7
FDASTYLE1
 72
     5
 11
-103.0015022860669
 21
-170.1835881349327
 31
0.0
  0
TEXT
  5
225
  8
0
 62
     6
 10
-113.8586464034223
 20
-162.1835881349327
 30
0.0
 40
4.0
  1
慣性モーメント
 41
0.663841963128279
  7
FDASTYLE1
 72
     5
 11
-87.00150228606694
 21
-162.1835881349327
 31
0.0
  0
TEXT
  5
226
  8
0
 62
     6
 10
-113.8586464034223
 20
-154.1835881349327
 30
0.0
 40
4.0
  1
最高使用回転速度
 41
0.665024784134981
  7
FDASTYLE1
 72
     5
 11
-83.00150228606694
 21
-154.1835881349327
 31
0.0
  0
TEXT
  5
227
  8
0
 62
     6
 10
-113.8586464034223
 20
-146.1835881349327
 30
0.0
 40
4.0
  1
最大静的把握力
 41
0.663841963128279
  7
FDASTYLE1
 72
     5
 11
-87.00150228606694
 21
-146.1835881349327
 31
0.0
  0
TEXT
  5
228
  8
0
 62
     6
 10
-113.8586464034223
 20
-138.1835881349327
 30
0.0
 40
4.0
  1
許容シリンダー力
 41
0.665024784134981
  7
FDASTYLE1
 72
     5
 11
-83.00150228606694
 21
-138.1835881349327
 31
0.0
  0
TEXT
  5
229
  8
0
 62
     6
 10
-113.8586464034223
 20
-130.1835881349327
 30
0.0
 40
4.0
  1
推奨シリンダー
 41
0.663841963128279
  7
FDASTYLE1
 72
     5
 11
-87.00150228606694
 21
-130.1835881349327
 31
0.0
  0
TEXT
  5
22A
  8
0
 62
     6
 10
-113.8586464034223
 20
-122.1835881349327
 30
0.0
 40
4.0
  1
ピストンストローク
 41
0.6659390169707117
  7
FDASTYLE1
 72
     5
 11
-79.00150228606694
 21
-122.1835881349327
 31
0.0
  0
TEXT
  5
22B
  8
0
 62
     6
 10
-113.8586464034223
 20
-114.1835805055381
 30
0.0
 40
4.0
  1
爪ﾉｽﾄﾛｰｸ
 41
0.7781458739383595
  7
FDASTYLE1
 72
     5
 11
-87.00150228606694
 21
-114.1835805055381
 31
0.0
  0
TEXT
  5
22C
  8
0
 62
     6
 10
-113.8586464034223
 20
-106.1835805055381
 30
0.0
 40
4.0
  1
仕 様
 41
0.7364342569567148
  7
FDASTYLE1
 72
     5
 11
-103.0015022860669
 21
-106.1835805055381
 31
0.0
  0
TEXT
  5
22D
  8
0
 62
     6
 10
-18.5001006232404
 20
-113.9082432862998
 30
0.0
 40
4.0
  1
(直径ﾆﾃ)  5 mm
 41
0.767790441367099
  7
FDASTYLE1
 72
     5
 11
28.35704349411495
 21
-113.9082432862998
 31
0.0
  0
TEXT
  5
22E
  8
0
 62
     6
 10
9.489356984028888
 20
-121.6879750367881
 30
0.0
 40
4.0
  1
15 mm
 41
0.7674420691942423
  7
FDASTYLE1
 72
     5
 11
28.34650110138423
 21
-121.6879750367881
 31
0.0
  0
TEXT
  5
22F
  8
0
 62
     6
 10
-10.37342715432337
 20
-129.9642888185264
 30
0.0
 40
4.0
  1
46TS-TA1 型
 41
0.7780322189036011
  7
FDASTYLE1
 72
     5
 11
28.48371696303197
 21
-129.9642888185264
 31
0.0
  0
TEXT
  5
230
  8
0
 62
     6
 10
1.618064869771075
 20
-137.9095555421592
 30
0.0
 40
4.0
  1
１６．８ kN
 41
0.7275543378949095
  7
FDASTYLE1
 72
     5
 11
28.47520898712642
 21
-137.9095555421592
 31
0.0
  0
TEXT
  5
231
  8
0
 62
     6
 10
1.507278431782794
 20
-145.854807007003
 30
0.0
 40
4.0
  1
５３．９ kN
 41
0.7275543378949095
  7
FDASTYLE1
 72
     5
 11
28.36442254913814
 21
-145.854807007003
 31
0.0
  0
TEXT
  5
232
  8
0
 62
     6
 10
-2.03667641746037
 20
-153.8000737306358
 30
0.0
 40
4.0
  1
6000 min
 41
0.7714287730626143
  7
FDASTYLE1
 72
     5
 11
28.82046769989498
 21
-153.8000737306358
 31
0.0
  0
TEXT
  5
233
  8
0
 62
     6
 10
29.67760961187847
 20
-151.3000736710311
 30
0.0
 40
2.0
  1
-1
 41
0.75000024121258
  7
FDASTYLE1
 72
     5
 11
33.10618167055614
 21
-151.3000736710311
 31
0.0
  0
TEXT
  5
234
  8
0
 62
     6
 10
-6.466688166727948
 20
-161.9108525392295
 30
0.0
 40
4.0
  1
0.05 kg・m
 41
0.7780614058262111
  7
FDASTYLE1
 72
     5
 11
28.3904559506274
 21
-161.9108525392295
 31
0.0
  0
TEXT
  5
235
  8
0
 62
     6
 10
29.24759786261089
 20
-159.4108524796249
 30
0.0
 40
2.0
  1
2
 41
0.7142860293388367
  7
FDASTYLE1
 72
     5
 11
30.67616992128856
 21
-159.4108524796249
 31
0.0
  0
TEXT
  5
236
  8
0
 62
     6
 10
1.291143079146593
 20
-169.644718734361
 30
0.0
 40
4.0
  1
12.5 kg
 41
0.7704920065688554
  7
FDASTYLE1
 72
     5
 11
28.14828719650194
 21
-169.644718734361
 31
0.0
  0
TEXT
  5
237
  8
0
 62
     6
 10
-18.68089295493596
 20
-177.9668980714561
 30
0.0
 40
4.0
  1
外周ﾆﾃ   1 g以内
 41
0.7481753531516472
  7
FDASTYLE1
 72
     5
 11
28.17625116241939
 21
-177.9668980714561
 31
0.0
  0
TEXT
  5
238
  8
0
 62
     6
 10
-72.2200930224561
 20
-137.9116612550498
 30
0.0
 40
3.0
  1
４６TS-TA1型 引側使用圧  3.4MPa
 41
0.7422970148894431
  7
FDASTYLE1
 72
     5
 11
-4.077241788973737
 21
-137.9116612550498
 31
0.0
  0
LINE
  5
239
  8
0
  6
CONTINUOUS
 62
     6
 10
-116.4300743447446
 20
-179.8502446290733
 30
0.0
 11
32.52017055881984
 21
-179.8502446290733
 31
0.0
  0
LINE
  5
23A
  8
0
  6
CONTINUOUS
 62
     6
 10
-116.4300743447446
 20
-171.8502446290733
 30
0.0
 11
32.52017055881984
 21
-171.8502446290733
 31
0.0
  0
LINE
  5
23B
  8
0
  6
CONTINUOUS
 62
     6
 10
-116.4300743447446
 20
-163.8502446290733
 30
0.0
 11
32.52017055881984
 21
-163.8502446290733
 31
0.0
  0
LINE
  5
23C
  8
0
  6
CONTINUOUS
 62
     6
 10
-116.4300743447446
 20
-155.8502446290733
 30
0.0
 11
32.52017055881984
 21
-155.8502446290733
 31
0.0
  0
LINE
  5
23D
  8
0
  6
CONTINUOUS
 62
     6
 10
-116.4300743447446
 20
-147.8502446290733
 30
0.0
 11
32.52017055881984
 21
-147.8502446290733
 31
0.0
  0
LINE
  5
23E
  8
0
  6
CONTINUOUS
 62
     6
 10
-116.4300743447446
 20
-139.8502446290733
 30
0.0
 11
32.52017055881984
 21
-139.8502446290733
 31
0.0
  0
LINE
  5
23F
  8
0
  6
CONTINUOUS
 62
     6
 10
-116.4300743447446
 20
-131.8502446290733
 30
0.0
 11
32.52017055881984
 21
-131.8502446290733
 31
0.0
  0
LINE
  5
240
  8
0
  6
CONTINUOUS
 62
     6
 10
-116.4300743447446
 20
-123.8502446290733
 30
0.0
 11
32.52017055881984
 21
-123.8502446290733
 31
0.0
  0
LINE
  5
241
  8
0
  6
CONTINUOUS
 62
     6
 10
-116.4300743447446
 20
-115.8502369996787
 30
0.0
 11
32.52017055881984
 21
-115.8502369996787
 31
0.0
  0
LINE
  5
242
  8
0
  6
CONTINUOUS
 62
     6
 10
-116.4300743447446
 20
-107.8502369996787
 30
0.0
 11
-100.4300743447446
 21
-107.8502369996787
 31
0.0
  0
LINE
  5
243
  8
0
  6
CENTER
 62
     7
 10
75.7157619958241
 20
-0.7881919574766414
 30
0.0
 11
154.498976807711
 21
44.69731329646371
 31
0.0
  0
LINE
  5
244
  8
0
  6
CENTER
 62
     7
 10
97.00788938935637
 20
77.88986117796983
 30
0.0
 11
131.9823256470003
 21
57.69736322076997
 31
0.0
  0
LINE
  5
245
  8
0
  6
CENTER
 62
     7
 10
154.4989740082079
 20
134.0306606684109
 30
0.0
 11
154.4989740082079
 21
-45.30266757865942
 31
0.0
  0
LINE
  5
246
  8
0
  6
CENTER
 62
     7
 10
124.4989740082079
 20
116.6973324213406
 30
0.0
 11
124.4989740082079
 21
92.69733242134058
 31
0.0
  0
LINE
  5
247
  8
0
  6
CENTER
 62
     7
 10
112.4989740082079
 20
104.6973324213406
 30
0.0
 11
136.4989740082079
 21
104.6973324213406
 31
0.0
  0
LINE
  5
248
  8
0
  6
CENTER
 62
     7
 10
215.4605521866594
 20
30.28578682989078
 30
0.0
 11
227.4605459877754
 21
51.0703829331716
 31
0.0
  0
LINE
  5
249
  8
0
  6
CENTER
 62
     7
 10
211.0681974715477
 20
46.67812606895282
 30
0.0
 11
231.8528082198387
 21
34.67812678420856
 31
0.0
  0
LINE
  5
24A
  8
0
  6
CENTER
 62
     7
 10
107.1451455761168
 20
-17.28345129675776
 30
0.0
 11
127.9297563244078
 21
-5.283452012013498
 31
0.0
  0
LINE
  5
24B
  8
0
  6
CENTER
 62
     7
 10
111.5374675492977
 20
-0.8911320604823629
 30
0.0
 11
123.5374651651115
 21
-21.67573477101254
 31
0.0
  0
LINE
  5
24C
  8
0
  6
CENTER
 62
     7
 10
174.2980262480397
 20
64.49629449511954
 30
0.0
 11
184.1975218496938
 21
74.39578926230857
 31
0.0
  0
LINE
  5
24D
  8
0
  6
CENTER
 62
     7
 10
127.453063934555
 20
51.94427801542898
 30
0.0
 11
113.9300951870283
 21
55.56774785266831
 31
0.0
  0
LINE
  5
24E
  8
0
  6
CENTER
 62
     7
 10
161.7458859711898
 20
17.65141132924956
 30
0.0
 11
165.369353492989
 21
4.128448108794743
 31
0.0
  0
LINE
  5
24F
  8
0
  6
CENTER
 62
     7
 10
89.88125707884626
 20
17.61856704938955
 30
0.0
 11
98.97619834859449
 21
1.865668838959124
 31
0.0
  0
LINE
  5
250
  8
0
  6
CENTER
 62
     7
 10
111.5303321848152
 20
30.12134613960248
 30
0.0
 11
120.6098868713083
 21
14.39509826946951
 31
0.0
  0
LINE
  5
251
  8
0
  6
CENTER
 62
     7
 10
188.4250909142644
 20
14.45902855792716
 30
0.0
 11
197.6063664228201
 21
30.36146203589502
 31
0.0
  0
LINE
  5
252
  8
0
  6
CENTER
 62
     7
 10
210.0779836474486
 20
1.962877049896321
 30
0.0
 11
219.2990350091346
 21
17.934204316951
 31
0.0
  0
LINE
  5
253
  8
0
  6
CENTER
 62
     7
 10
16.70464273576545
 20
-34.85827378332404
 30
0.0
 11
65.19917755626989
 21
-6.859944143789761
 31
0.0
  0
LINE
  5
254
  8
0
  6
CENTER
 62
     7
 10
4.317630326882863
 20
20.11159624260748
 30
0.0
 11
24.2170286417637
 21
-14.35516795144062
 31
0.0
  0
LINE
  5
255
  8
0
  6
CENTER
 62
     7
 10
41.29906135202202
 20
-55.29970154851273
 30
0.0
 11
68.73931341367882
 21
-39.45706638440899
 31
0.0
  0
LINE
  5
256
  8
0
  6
CENTER
 62
     7
 10
-120.4434698394483
 20
18.36399845222437
 30
0.0
 11
-120.4434698394483
 21
5.448835733810029
 31
0.0
  0
LINE
  5
257
  8
0
  6
CENTER
 62
     7
 10
-70.31984313046394
 20
89.19733242134058
 30
0.0
 11
-33.9051855376905
 21
89.19733242134058
 31
0.0
  0
LINE
  5
258
  8
0
  6
CENTER
 62
     7
 10
-70.55681975399909
 20
114.1973324213406
 30
0.0
 11
-33.9051855376905
 21
114.1973324213406
 31
0.0
  0
LINE
  5
259
  8
0
  6
CENTER
 62
     7
 10
-79.58763487851081
 20
11.19733242134058
 30
0.0
 11
-55.65967124794352
 21
11.19733242134058
 31
0.0
  0
LINE
  5
25A
  8
0
  6
CENTER
 62
     7
 10
-171.403842764253
 20
-7.687665900192627
 30
0.0
 11
-49.1334570220655
 21
-7.687665900192627
 31
0.0
  0
LINE
  5
25B
  8
0
  6
CENTER
 62
     7
 10
-160.9159277251905
 20
44.69733242134058
 30
0.0
 11
-45.31109984433113
 21
44.69733242134058
 31
0.0
  0
LINE
  5
25C
  8
0
  6
CENTER
 62
     7
 10
-121.4434698394483
 20
74.5444317255398
 30
0.0
 11
-121.4434698394483
 21
65.5046139154812
 31
0.0
  0
LINE
  5
25D
  8
0
  6
CENTER
 62
     7
 10
-121.4434698394483
 20
23.20716480354272
 30
0.0
 11
-121.4434698394483
 21
14.94856075386011
 31
0.0
  0
LINE
  5
25E
  8
0
  6
CENTER
 62
     7
 10
154.4990005054818
 20
44.69735636623628
 30
0.0
 11
234.5709197504251
 21
-1.532182656832759
 31
0.0
  0
LINE
  5
25F
  8
0
  6
CENTER
 62
     7
 10
177.0156384516929
 20
57.69731252160332
 30
0.0
 11
227.5370794232328
 21
86.86587684377024
 31
0.0
  0
LINE
  5
260
  8
0
  6
CENTER
 62
     7
 10
-205.9323461822218
 20
97.09733394721948
 30
0.0
 11
-139.9041174224561
 21
97.09733394721948
 31
0.0
  0
LINE
  5
261
  8
0
  6
CENTER
 62
     7
 10
163.3601190277392
 20
89.1972637567898
 30
0.0
 11
145.2010156341845
 21
89.1972637567898
 31
0.0
  0
LINE
  5
262
  8
0
  6
CENTER
 62
     7
 10
163.3569299408251
 20
114.1973019037625
 30
0.0
 11
145.1670495697314
 21
114.1973019037625
 31
0.0
  0
ARC
  5
263
  8
0
  6
CENTER
 62
     7
 10
154.4989740082079
 20
44.69733242134058
 30
0.0
 40
35.0
 50
155.68602054495
 51
176.4783458125194
  0
ARC
  5
264
  8
0
  6
CENTER
 62
     7
 10
154.4989740082079
 20
44.69733242134058
 30
0.0
 40
35.0
 50
36.01231241777022
 51
56.47831515245851
  0
ARC
  5
265
  8
0
  6
CENTER
 62
     7
 10
154.4989740082079
 20
44.69733242134058
 30
0.0
 40
35.0
 50
275.8464003684318
 51
296.4783527942893
  0
ARC
  5
266
  8
0
  6
CENTER
 62
     7
 10
154.4989740082079
 20
44.69733242134058
 30
0.0
 40
52.3849983215332
 50
254.641627297642
 51
285.3583608632125
  0
ARC
  5
267
  8
0
  6
CENTER
 62
     7
 10
154.4989740082079
 20
44.69733242134058
 30
0.0
 40
52.3849983215332
 50
14.64163746713538
 51
45.35835395723297
  0
ARC
  5
268
  8
0
  6
CENTER
 62
     7
 10
154.4989740082079
 20
44.69733242134058
 30
0.0
 40
52.3849983215332
 50
134.6416612970071
 51
165.3583743720101
  0
ARC
  5
269
  8
0
  6
CENTER
 62
     7
 10
154.4989740082079
 20
44.69733242134058
 30
0.0
 40
33.5
 50
135.22591567861
 51
163.373384795421
  0
ARC
  5
26A
  8
0
  6
CENTER
 62
     7
 10
154.4989740082079
 20
44.69733242134058
 30
0.0
 40
33.5
 50
15.22590550911662
 51
42.99644039129672
  0
ARC
  5
26B
  8
0
  6
CENTER
 62
     7
 10
154.4989740082079
 20
44.69733242134058
 30
0.0
 40
33.5
 50
255.2258748490557
 51
283.4942519745543
  0
LINE
  5
26C
  8
0
  6
CENTER
 62
     7
 10
63.33230988467278
 20
44.69733242134058
 30
0.0
 11
245.6656305023486
 21
44.69733242134058
 31
0.0
  0
LINE
  5
26D
  8
0
  6
DIVIDE
 62
     7
 10
-144.9434698394483
 20
72.19733242134058
 30
0.0
 11
-144.9434698394483
 21
62.4881344232937
 31
0.0
  0
LINE
  5
26E
  8
0
  6
DIVIDE
 62
     7
 10
-159.9434698394483
 20
72.19733242134058
 30
0.0
 11
-159.9434698394483
 21
62.38191417793237
 31
0.0
  0
LINE
  5
26F
  8
0
  6
CONTINUOUS
 62
     7
 10
-159.9434760028265
 20
72.19734047405783
 30
0.0
 11
-158.9434775543417
 21
73.19733883824907
 31
0.0
  0
LINE
  5
270
  8
0
  6
CONTINUOUS
 62
     7
 10
-144.9434675389761
 20
72.19733174965964
 30
0.0
 11
-143.9434690904913
 21
73.19733011385088
 31
0.0
  0
LINE
  5
271
  8
0
  6
CONTINUOUS
 62
     3
 10
140.4989740082079
 20
127.1973324213406
 30
0.0
 11
140.4989740082079
 21
72.86733059028589
 31
0.0
  0
LINE
  5
272
  8
0
  6
CONTINUOUS
 62
     3
 10
168.4989740082079
 20
127.1973324213406
 30
0.0
 11
168.4989740082079
 21
72.86733059028589
 31
0.0
  0
LINE
  5
273
  8
0
  6
CONTINUOUS
 62
     3
 10
90.05189015772771
 20
-8.677032885287048
 30
0.0
 11
137.1030543249115
 21
18.48796641108007
 31
0.0
  0
LINE
  5
274
  8
0
  6
CONTINUOUS
 62
     3
 10
76.0518871774957
 20
15.57168626163562
 30
0.0
 11
123.1030513446794
 21
42.73668555800273
 31
0.0
  0
LINE
  5
275
  8
0
  6
CONTINUOUS
 62
     3
 10
185.8949193612635
 20
42.73673244247235
 30
0.0
 11
232.9460835284473
 21
15.57173314610523
 31
0.0
  0
LINE
  5
276
  8
0
  6
CONTINUOUS
 62
     3
 10
171.8949295955312
 20
18.4880056661556
 30
0.0
 11
218.9460937627149
 21
-8.676993630211513
 31
0.0
  0
LINE
  5
277
  8
0
  6
CONTINUOUS
 62
     3
 10
140.4989740082079
 20
127.1973324213406
 30
0.0
 11
168.4989740082079
 21
127.1973324213406
 31
0.0
  0
LINE
  5
278
  8
0
  6
CONTINUOUS
 62
     3
 10
218.9461347292278
 20
-8.677034564315221
 30
0.0
 11
232.9461363981578
 21
15.57167630642758
 31
0.0
  0
LINE
  5
279
  8
0
  6
CONTINUOUS
 62
     3
 10
76.0518933843847
 20
15.57169605131563
 30
0.0
 11
90.05189123861703
 21
-8.67700821217781
 31
0.0
  0
LINE
  5
27A
  8
0
  6
CONTINUOUS
 62
     3
 10
171.8949605858658
 20
18.48797721892802
 30
0.0
 11
185.8949622547958
 21
42.73668808967082
 31
0.0
  0
LINE
  5
27B
  8
0
  6
CONTINUOUS
 62
     3
 10
175.6448653171871
 20
16.32296841591702
 30
0.0
 11
189.6448669861171
 21
40.57167928665982
 31
0.0
  0
LINE
  5
27C
  8
0
  6
CONTINUOUS
 62
     3
 10
119.3531816644991
 20
40.57171212745337
 30
0.0
 11
133.3531766577081
 21
16.32301281939695
 31
0.0
  0
LINE
  5
27D
  8
0
  6
CONTINUOUS
 62
     3
 10
123.1030599668229
 20
42.73670567167349
 30
0.0
 11
137.103054960032
 21
18.48800636361708
 31
0.0
  0
LINE
  5
27E
  8
0
  6
CONTINUOUS
 62
     3
 10
234.3589165380823
 20
23.99365560384845
 30
0.0
 11
235.0896915822001
 21
23.57174248202378
 31
0.0
  0
LINE
  5
27F
  8
0
  6
CONTINUOUS
 62
     3
 10
212.3589102199904
 20
-14.11147731585137
 30
0.0
 11
213.0896852641082
 21
-14.53339043767605
 31
0.0
  0
LINE
  5
280
  8
0
  6
CONTINUOUS
 62
     3
 10
95.90829116388034
 20
-14.53344723302038
 30
0.0
 11
96.63905960074828
 21
-14.11153792589275
 31
0.0
  0
LINE
  5
281
  8
0
  6
CONTINUOUS
 62
     3
 10
132.4989740082079
 20
125.0537395868679
 30
0.0
 11
132.4989740082079
 21
124.2099132929226
 31
0.0
  0
LINE
  5
282
  8
0
  6
CONTINUOUS
 62
     3
 10
176.4989740082079
 20
125.0537395868679
 30
0.0
 11
176.4989740082079
 21
124.2099132929226
 31
0.0
  0
LINE
  5
283
  8
0
  6
CONTINUOUS
 62
     3
 10
168.498936458244
 20
127.1972898009723
 30
0.0
 11
176.4989234040519
 21
125.0536999882458
 31
0.0
  0
LINE
  5
284
  8
0
  6
CONTINUOUS
 62
     3
 10
132.4989901539326
 20
125.0536894667227
 30
0.0
 11
140.4989918385987
 21
127.1972832287139
 31
0.0
  0
LINE
  5
285
  8
0
  6
CONTINUOUS
 62
     3
 10
76.05191182561052
 20
15.57169248250318
 30
0.0
 11
73.90831883496026
 21
23.57169454568024
 31
0.0
  0
LINE
  5
286
  8
0
  6
CONTINUOUS
 62
     3
 10
232.94607873034
 20
15.57168483516139
 30
0.0
 11
235.0896729859895
 21
23.57168651982752
 31
0.0
  0
LINE
  5
287
  8
0
  6
CONTINUOUS
 62
     3
 10
213.0897243074293
 20
-14.53349269108171
 30
0.0
 11
218.9461324769333
 21
-8.677085015235974
 31
0.0
  0
LINE
  5
288
  8
0
  6
CONTINUOUS
 62
     3
 10
90.05190145053223
 20
-8.677006284918065
 30
0.0
 11
95.90829883044228
 21
-14.53340317117076
 31
0.0
  0
LINE
  5
289
  8
0
  6
CONTINUOUS
 62
     3
 10
73.9082857994627
 20
23.57168403486699
 30
0.0
 11
74.63906084358047
 21
23.99359715669166
 31
0.0
  0
LINE
  5
28A
  8
0
  6
CONTINUOUS
 62
     3
 10
80.30190306816837
 20
8.210457251521717
 30
0.0
 11
88.56025175483262
 21
12.97841656205574
 31
0.0
  0
LINE
  5
28B
  8
0
  6
CONTINUOUS
 62
     3
 10
85.80190464769135
 20
-1.31582597840324
 30
0.0
 11
94.06024672710578
 21
3.452129517433747
 31
0.0
  0
LINE
  5
28C
  8
0
  6
CONTINUOUS
 62
     3
 10
181.6268532132079
 20
22.6842497192512
 30
0.0
 11
187.2870594838377
 21
19.41632846628059
 31
0.0
  0
LINE
  5
28D
  8
0
  6
CONTINUOUS
 62
     3
 10
187.1268716849876
 20
32.21050117226346
 30
0.0
 11
192.7871704571147
 21
28.94252651353432
 31
0.0
  0
LINE
  5
28E
  8
0
  6
CONTINUOUS
 62
     3
 10
177.3768688207771
 20
15.32297797039533
 30
0.0
 11
181.6268655127188
 21
22.68418716319289
 31
0.0
  0
LINE
  5
28F
  8
0
  6
CONTINUOUS
 62
     3
 10
117.6211270733197
 20
39.57171861549344
 30
0.0
 11
121.8711285336336
 21
32.21050116363418
 31
0.0
  0
LINE
  5
290
  8
0
  6
CONTINUOUS
 62
     3
 10
127.3711330039824
 20
22.68421528573586
 30
0.0
 11
131.6211335106219
 21
15.32299948568894
 31
0.0
  0
LINE
  5
291
  8
0
  6
CONTINUOUS
 62
     3
 10
187.1268699830677
 20
32.21047304109121
 30
0.0
 11
191.3768704897071
 21
39.57168884113813
 31
0.0
  0
LINE
  5
292
  8
0
  6
CONTINUOUS
 62
     3
 10
106.7822632700478
 20
74.96014226657294
 30
0.0
 11
104.4322633952185
 21
70.88982614502416
 31
0.0
  0
LINE
  5
293
  8
0
  6
CONTINUOUS
 62
     3
 10
104.4321570745727
 20
70.8897729437321
 30
0.0
 11
106.7821541330842
 21
66.81945694047614
 31
0.0
  0
LINE
  5
294
  8
0
  6
CONTINUOUS
 62
     3
 10
106.7822305389697
 20
66.81949428657495
 30
0.0
 11
111.4822351166064
 21
66.81949428657495
 31
0.0
  0
LINE
  5
295
  8
0
  6
CONTINUOUS
 62
     3
 10
111.4822381400633
 20
66.81951355827655
 30
0.0
 11
113.8322396957425
 21
70.88982855925875
 31
0.0
  0
LINE
  5
296
  8
0
  6
CONTINUOUS
 62
     3
 10
113.8321166090658
 20
70.88974762444036
 30
0.0
 11
111.4821128062887
 21
74.96007228519193
 31
0.0
  0
LINE
  5
297
  8
0
  6
CONTINUOUS
 62
     3
 10
111.4822351166064
 20
74.96013454536401
 30
0.0
 11
106.7822381683642
 21
74.96013454536401
 31
0.0
  0
LINE
  5
298
  8
0
  6
CONTINUOUS
 62
     3
 10
202.2157098480517
 20
74.96016506294214
 30
0.0
 11
197.5157128998095
 21
74.96016506294214
 31
0.0
  0
LINE
  5
299
  8
0
  6
CONTINUOUS
 62
     3
 10
197.5158154091793
 20
74.96007854631458
 30
0.0
 11
195.1658155343499
 21
70.88976242476579
 31
0.0
  0
LINE
  5
29A
  8
0
  6
CONTINUOUS
 62
     3
 10
195.1655783658327
 20
70.8897400197333
 30
0.0
 11
197.5155761395997
 21
66.81942277761792
 31
0.0
  0
LINE
  5
29B
  8
0
  6
CONTINUOUS
 62
     3
 10
197.5157128998095
 20
66.81952480415308
 30
0.0
 11
202.2157098480517
 21
66.81952480415308
 31
0.0
  0
LINE
  5
29C
  8
0
  6
CONTINUOUS
 62
     3
 10
202.2157069858364
 20
66.81954565731954
 30
0.0
 11
204.5657009121111
 21
70.88984744380846
 31
0.0
  0
LINE
  5
29D
  8
0
  6
CONTINUOUS
 62
     3
 10
204.5655305697329
 20
70.88969229009368
 30
0.0
 11
202.2155277206304
 21
74.96001529903302
 31
0.0
  0
LINE
  5
29E
  8
0
  6
CONTINUOUS
 62
     3
 10
152.1489679046923
 20
-3.617345770798096
 30
0.0
 11
156.8489801117236
 21
-3.617345770798096
 31
0.0
  0
LINE
  5
29F
  8
0
  6
CONTINUOUS
 62
     3
 10
156.8489520390023
 20
-3.61736341119726
 30
0.0
 11
159.1989519466127
 21
-7.68768810098922
 31
0.0
  0
LINE
  5
2A0
  8
0
  6
CONTINUOUS
 62
     3
 10
159.1989927436372
 20
-7.687672801188768
 30
0.0
 11
156.848991187958
 21
-11.75798780217096
 31
0.0
  0
LINE
  5
2A1
  8
0
  6
CONTINUOUS
 62
     3
 10
156.8489801117236
 20
-11.75798602958716
 30
0.0
 11
152.1489679046923
 21
-11.75798602958716
 31
0.0
  0
LINE
  5
2A2
  8
0
  6
CONTINUOUS
 62
     3
 10
152.1489665660976
 20
-11.75799122682551
 30
0.0
 11
149.7989694926847
 21
-7.687673704568482
 31
0.0
  0
LINE
  5
2A3
  8
0
  6
CONTINUOUS
 62
     3
 10
149.7991629771165
 20
-7.687770579519423
 30
0.0
 11
152.1491690806321
 21
-3.617440683188619
 31
0.0
  0
LINE
  5
2A4
  8
0
  6
CONTINUOUS
 62
     3
 10
84.63205489062113
 20
10.71048259358409
 30
0.0
 11
90.13205363892337
 21
1.184206626559814
 31
0.0
  0
LINE
  5
2A5
  8
0
  6
CONTINUOUS
 62
     3
 10
120.1391080008472
 20
31.21050969596641
 30
0.0
 11
125.6391086564983
 21
21.68423042531745
 31
0.0
  0
LINE
  5
2A6
  8
0
  6
CONTINUOUS
 62
     3
 10
94.56025566898495
 20
16.44252005430954
 30
0.0
 11
110.2108879509691
 21
25.47841581699768
 31
0.0
  0
LINE
  5
2A7
  8
0
  6
CONTINUOUS
 62
     3
 10
100.0602440340083
 20
6.916229194990507
 30
0.0
 11
115.7108829232423
 21
15.95212877237569
 31
0.0
  0
LINE
  5
2A8
  8
0
  6
CONTINUOUS
 62
     3
 10
121.7108924225001
 20
19.41625310852319
 30
0.0
 11
127.3711119076295
 21
22.68418199088788
 31
0.0
  0
LINE
  5
2A9
  8
0
  6
CONTINUOUS
 62
     3
 10
116.2108605992809
 20
28.94252768690981
 30
0.0
 11
121.8711065134095
 21
32.21047182806265
 31
0.0
  0
LINE
  5
2AA
  8
0
  6
CONTINUOUS
 62
     3
 10
183.3589483033012
 20
21.68415094129855
 30
0.0
 11
188.8589451442546
 21
31.21042360469815
 31
0.0
  0
LINE
  5
2AB
  8
0
  6
CONTINUOUS
 62
     3
 10
218.865987450769
 20
1.184175948651642
 30
0.0
 11
224.3659881064201
 21
10.7104552193006
 31
0.0
  0
LINE
  5
2AC
  8
0
  6
CONTINUOUS
 62
     3
 10
198.7871215132685
 20
25.47845353885683
 30
0.0
 11
214.4377537952527
 21
16.44255777616868
 31
0.0
  0
LINE
  5
2AD
  8
0
  6
CONTINUOUS
 62
     3
 10
193.2870992267918
 20
15.95219547859475
 30
0.0
 11
208.9377447232756
 21
6.916292086512527
 31
0.0
  0
LINE
  5
2AE
  8
0
  6
CONTINUOUS
 62
     3
 10
220.437757709405
 20
12.97845428391489
 30
0.0
 11
228.6961460395681
 21
8.210472085198632
 31
0.0
  0
LINE
  5
2AF
  8
0
  6
CONTINUOUS
 62
     3
 10
214.9377354229283
 20
3.452196223652805
 30
0.0
 11
223.1961501820907
 21
-1.315801233851602
 31
0.0
  0
LINE
  5
2B0
  8
0
  6
CONTINUOUS
 62
     3
 10
217.4604899083685
 20
40.67810756396935
 30
0.0
 11
219.4604903852056
 21
44.14220887851403
 31
0.0
  0
LINE
  5
2B1
  8
0
  6
CONTINUOUS
 62
     3
 10
219.4604913421923
 20
44.1421986017605
 30
0.0
 11
223.4604913421923
 21
44.1421986017605
 31
0.0
  0
LINE
  5
2B2
  8
0
  6
CONTINUOUS
 62
     3
 10
223.4605336306883
 20
44.14222204427111
 30
0.0
 11
225.4605322001768
 21
40.67811953763354
 31
0.0
  0
LINE
  5
2B3
  8
0
  6
CONTINUOUS
 62
     3
 10
225.4606082708311
 20
40.67803595963702
 30
0.0
 11
223.4606058866453
 21
37.21393559876665
 31
0.0
  0
LINE
  5
2B4
  8
0
  6
CONTINUOUS
 62
     3
 10
223.4604913421923
 20
37.21399501899683
 30
0.0
 11
219.4604913421923
 21
37.21399501899683
 31
0.0
  0
LINE
  5
2B5
  8
0
  6
CONTINUOUS
 62
     3
 10
219.4606603082008
 20
37.21407009659575
 30
0.0
 11
217.4606612618751
 21
40.67817212639616
 31
0.0
  0
LINE
  5
2B6
  8
0
  6
CONTINUOUS
 62
     3
 10
113.5374397311604
 20
-11.28343192515408
 30
0.0
 11
115.5374402079975
 21
-7.819330610609399
 31
0.0
  0
LINE
  5
2B7
  8
0
  6
CONTINUOUS
 62
     3
 10
115.5374566742236
 20
-7.819322546921143
 30
0.0
 11
119.5374566742236
 21
-7.819322546921143
 31
0.0
  0
LINE
  5
2B8
  8
0
  6
CONTINUOUS
 62
     3
 10
119.5374619149208
 20
-7.819328723840357
 30
0.0
 11
121.5374604844093
 21
-11.28343123047793
 31
0.0
  0
LINE
  5
2B9
  8
0
  6
CONTINUOUS
 62
     3
 10
121.5375090707727
 20
-11.2834658923492
 30
0.0
 11
119.5375066865869
 21
-14.74756625321956
 31
0.0
  0
LINE
  5
2BA
  8
0
  6
CONTINUOUS
 62
     3
 10
119.5374566742236
 20
-14.74752994438208
 30
0.0
 11
115.5374566742236
 21
-14.74752994438208
 31
0.0
  0
LINE
  5
2BB
  8
0
  6
CONTINUOUS
 62
     3
 10
115.5374928061243
 20
-14.74750527491446
 30
0.0
 11
113.5374937597986
 21
-11.28340324511404
 31
0.0
  0
LINE
  5
2BC
  8
0
  6
CONTINUOUS
 62
     3
 10
120.498977046661
 20
104.6973321238744
 30
0.0
 11
122.4989775234982
 21
108.1614334384191
 31
0.0
  0
LINE
  5
2BD
  8
0
  6
CONTINUOUS
 62
     3
 10
122.4989740082079
 20
108.161436120071
 30
0.0
 11
126.4989740082079
 21
108.161436120071
 31
0.0
  0
LINE
  5
2BE
  8
0
  6
CONTINUOUS
 62
     3
 10
126.4990043929389
 20
108.1614769019231
 30
0.0
 11
128.4990029624274
 21
104.6973743952855
 31
0.0
  0
LINE
  5
2BF
  8
0
  6
CONTINUOUS
 62
     3
 10
128.4990076872979
 20
104.6973298334143
 30
0.0
 11
126.4990053031121
 21
101.233229472544
 31
0.0
  0
LINE
  5
2C0
  8
0
  6
CONTINUOUS
 62
     3
 10
126.4989740082079
 20
101.2332287226101
 30
0.0
 11
122.4989740082079
 21
101.2332287226101
 31
0.0
  0
LINE
  5
2C1
  8
0
  6
CONTINUOUS
 62
     3
 10
122.4990615277458
 20
101.2332940237293
 30
0.0
 11
120.4990624814201
 21
104.6973960535297
 31
0.0
  0
LINE
  5
2C2
  8
0
  6
CONTINUOUS
 62
     3
 10
42.40355988747194
 20
-3.8551633961184
 30
0.0
 11
46.65356230146028
 21
-11.21638249979
 31
0.0
  0
LINE
  5
2C3
  8
0
  6
CONTINUOUS
 62
     3
 10
54.67152120186745
 20
-29.10387717862213
 30
0.0
 11
61.95207398017726
 21
-41.71416276824593
 31
0.0
  0
LINE
  5
2C4
  8
0
  6
CONTINUOUS
 62
     3
 10
24.54713407517158
 20
-4.926970082472593
 30
0.0
 11
28.54713741303203
 21
-11.85517814383613
 31
0.0
  0
LINE
  5
2C5
  8
0
  6
CONTINUOUS
 62
     3
 10
42.54713717461323
 20
-36.10388571095425
 30
0.0
 11
46.54713765145039
 21
-43.03208881688076
 31
0.0
  0
LINE
  5
2C6
  8
0
  6
CONTINUOUS
 62
     3
 10
13.92428906049196
 20
-11.06008880326212
 30
0.0
 11
16.75293199359754
 21
-9.426971224822268
 31
0.0
  0
LINE
  5
2C7
  8
0
  6
CONTINUOUS
 62
     3
 10
28.54714522133781
 20
-11.85518626436189
 30
0.0
 11
42.40356560136479
 21
-3.855179111804972
 31
0.0
  0
LINE
  5
2C8
  8
0
  6
CONTINUOUS
 62
     3
 10
42.54716141606946
 20
-36.10389778189048
 30
0.0
 11
56.4035685815968
 21
-28.10389825872764
 31
0.0
  0
LINE
  5
2C9
  8
0
  6
CONTINUOUS
 62
     3
 10
42.14247303160175
 20
-45.57515337534412
 30
0.0
 11
46.54715647774958
 21
-43.0321084829761
 31
0.0
  0
LINE
  5
2CA
  8
0
  6
CONTINUOUS
 62
     3
 10
52.15356295711138
 20
-20.74266177043896
 30
0.0
 11
56.40356537109972
 21
-28.10388087411056
 31
0.0
  0
LINE
  5
2CB
  8
0
  6
CONTINUOUS
 62
     3
 10
40.77921252037663
 20
-29.04171970657691
 30
0.0
 11
46.84139065529485
 21
-25.54171991519317
 31
0.0
  0
LINE
  5
2CC
  8
0
  6
CONTINUOUS
 62
     3
 10
33.77921293760915
 20
-16.91736343674049
 30
0.0
 11
39.84139437615227
 21
-13.41736173800823
 31
0.0
  0
LINE
  5
2CD
  8
0
  6
CONTINUOUS
 62
     3
 10
39.84138170181598
 20
-13.41735525660837
 30
0.0
 11
40.5913836985718
 21
-14.71639664259428
 31
0.0
  0
LINE
  5
2CE
  8
0
  6
CONTINUOUS
 62
     3
 10
46.0913843542229
 20
-24.24267591324323
 30
0.0
 11
46.841382536281
 21
-25.54171069197977
 31
0.0
  0
LINE
  5
2CF
  8
0
  6
CONTINUOUS
 62
     3
 10
33.77920703221844
 20
-16.91734950919292
 30
0.0
 11
40.77920786668346
 21
-29.04170494456432
 31
0.0
  0
LINE
  5
2D0
  8
0
  6
CONTINUOUS
 62
     3
 10
47.51959290067464
 20
-10.71638383646118
 30
0.0
 11
48.26959299008161
 21
-12.0154219188224
 31
0.0
  0
LINE
  5
2D1
  8
0
  6
CONTINUOUS
 62
     3
 10
46.09139069999833
 20
-24.24268174342498
 30
0.0
 11
53.019594282762
 21
-20.24268198184356
 31
0.0
  0
LINE
  5
2D2
  8
0
  6
CONTINUOUS
 62
     3
 10
40.59138860940323
 20
-14.71638999890169
 30
0.0
 11
47.51958888854199
 21
-10.71639214466879
 31
0.0
  0
LINE
  5
2D3
  8
0
  6
CONTINUOUS
 62
     3
 10
34.82022300130836
 20
-16.72048389220626
 30
0.0
 11
40.01637568838112
 21
-13.7204840710202
 31
0.0
  0
LINE
  5
2D4
  8
0
  6
CONTINUOUS
 62
     3
 10
41.47024064894083
 20
-28.2386154547082
 30
0.0
 11
46.66639333601358
 21
-25.23861563352213
 31
0.0
  0
LINE
  5
2D5
  8
0
  6
CONTINUOUS
 62
     3
 10
34.82022507113197
 20
-16.72046082872041
 30
0.0
 11
41.47022548240398
 21
-28.2385978315983
 31
0.0
  0
LINE
  5
2D6
  8
0
  6
CONTINUOUS
 62
     3
 10
53.08176947168317
 20
-6.350378723662828
 30
0.0
 11
60.00997635807175
 21
-2.350377054732888
 31
0.0
  0
LINE
  5
2D7
  8
0
  6
CONTINUOUS
 62
     3
 10
59.5817709916015
 20
-17.6087128492787
 30
0.0
 11
66.50997787799008
 21
-13.60871118034876
 31
0.0
  0
LINE
  5
2D8
  8
0
  6
CONTINUOUS
 62
     3
 10
53.08176916247987
 20
-6.350363241961389
 30
0.0
 11
59.58177375203798
 21
-17.60869989634134
 31
0.0
  0
LINE
  5
2D9
  8
0
  6
CONTINUOUS
 62
     3
 10
60.00997557203107
 20
-2.350360857775371
 30
0.0
 11
66.50997634689145
 21
-13.60869090490596
 31
0.0
  0
LINE
  5
2DA
  8
0
  6
CONTINUOUS
 62
     3
 10
36.14522838517291
 20
-19.01544553212474
 30
0.0
 11
54.33176939717737
 21
-8.515442343276476
 31
0.0
  0
LINE
  5
2DB
  8
0
  6
CONTINUOUS
 62
     3
 10
40.14523805762906
 20
-25.94364339284286
 30
0.0
 11
58.33176915875879
 21
-15.44364592604015
 31
0.0
  0
LINE
  5
2DC
  8
0
  6
CONTINUOUS
 62
     3
 10
37.01125493942584
 20
-18.51543171935404
 30
0.0
 11
41.01125350891414
 21
-25.44363152165587
 31
0.0
  0
LINE
  5
2DD
  8
0
  6
CONTINUOUS
 62
     3
 10
52.2695915595699
 20
-18.94362172112423
 30
0.0
 11
53.01959164897687
 21
-20.24265980348545
 31
0.0
  0
LINE
  5
2DE
  8
0
  6
CONTINUOUS
 62
     3
 10
41.53755013215175
 20
-4.355167644550505
 30
0.0
 11
45.78755063879123
 21
-11.71638344459743
 31
0.0
  0
LINE
  5
2DF
  8
0
  6
CONTINUOUS
 62
     3
 10
51.28754938709346
 20
-21.2426594116217
 30
0.0
 11
55.53755370843066
 21
-28.60388181891798
 31
0.0
  0
LINE
  5
2E0
  8
0
  6
CONTINUOUS
 62
     3
 10
5.654838650666846
 20
3.795461281719469
 30
0.0
 11
17.7792081350029
 21
10.79546849388103
 31
0.0
  0
LINE
  5
2E1
  8
0
  6
CONTINUOUS
 62
     3
 10
3.801290826101379
 20
7.00591595123602
 30
0.0
 11
5.654850421872141
 21
3.79545699684283
 31
0.0
  0
LINE
  5
2E2
  8
0
  6
CONTINUOUS
 62
     3
 10
16.43323254563229
 20
13.12675548759272
 30
0.0
 11
17.77920464803259
 21
10.79546374041931
 31
0.0
  0
LINE
  5
2E3
  8
0
  6
CONTINUOUS
 62
     3
 10
30.30321499798913
 20
13.10326147186439
 30
0.0
 11
40.6715195329374
 21
-4.85516630787933
 31
0.0
  0
LINE
  5
2E4
  8
0
  6
CONTINUOUS
 62
     3
 10
2.087856338180202
 20
10.9736672314824
 30
0.0
 11
6.087856695808057
 21
4.045464332032424
 31
0.0
  0
LINE
  5
2E5
  8
0
  6
CONTINUOUS
 62
     3
 10
13.34619335018806
 20
17.47367120161087
 30
0.0
 11
17.34619454228104
 21
10.5454668568251
 31
0.0
  0
LINE
  5
2E6
  8
0
  6
CONTINUOUS
 62
     3
 10
2.087849586450354
 20
10.97366835968344
 30
0.0
 11
13.34618040844132
 21
17.47366797225325
 31
0.0
  0
LINE
  5
2E7
  8
0
  6
CONTINUOUS
 62
     3
 10
15.18112160340635
 20
9.295467848552789
 30
0.0
 11
25.18112303391786
 21
-8.02504032921658
 31
0.0
  0
LINE
  5
2E8
  8
0
  6
CONTINUOUS
 62
     3
 10
8.252910698137441
 20
5.295465621783336
 30
0.0
 11
18.25291618176527
 21
-12.02504957618848
 31
0.0
  0
LINE
  5
2E9
  8
0
  6
CONTINUOUS
 62
     3
 10
18.25292764689141
 20
-12.02504782389471
 30
0.0
 11
25.18111801515545
 21
-8.025055691707365
 31
0.0
  0
LINE
  5
2EA
  8
0
  6
CONTINUOUS
 62
     3
 10
15.92428894128267
 20
-14.52419059464395
 30
0.0
 11
26.54714438687284
 21
-8.391082821167601
 31
0.0
  0
LINE
  5
2EB
  8
0
  6
CONTINUOUS
 62
     3
 10
23.68111905823668
 20
-5.426980999983442
 30
0.0
 11
24.54714450608213
 21
-4.926981029785765
 31
0.0
  0
LINE
  5
2EC
  8
0
  6
CONTINUOUS
 62
     3
 10
39.12348021439311
 20
-42.6993717699402
 30
0.0
 11
44.54716015611984
 21
-39.56800904154491
 31
0.0
  0
LINE
  5
2ED
  8
0
  6
CONTINUOUS
 62
     3
 10
52.60932032457311
 20
-39.53208553862496
 30
0.0
 11
54.38975037690477
 21
-42.61588042562025
 31
0.0
  0
LINE
  5
2EE
  8
0
  6
CONTINUOUS
 62
     3
 10
60.60933897267194
 20
-53.38853949356619
 30
0.0
 11
66.67153032208978
 21
-49.88853207278837
 31
0.0
  0
LINE
  5
2EF
  8
0
  6
CONTINUOUS
 62
     3
 10
52.60933461266779
 20
-39.53210869159236
 30
0.0
 11
58.67151274758601
 21
-36.03210890020861
 31
0.0
  0
LINE
  5
2F0
  8
0
  6
CONTINUOUS
 62
     3
 10
52.60932557070794
 20
-39.53209110160864
 30
0.0
 11
52.60932557070794
 21
-43.84256168266333
 31
0.0
  0
LINE
  5
2F1
  8
0
  6
CONTINUOUS
 62
     3
 10
50.58871350106335
 20
-52.88081766569323
 30
0.0
 11
55.38434791880707
 21
-50.11205714957188
 31
0.0
  0
LINE
  5
2F2
  8
0
  6
CONTINUOUS
 62
     3
 10
46.67407514228682
 20
-49.25194634877548
 30
0.0
 11
52.83433459709443
 21
-45.69531928720741
 31
0.0
  0
LINE
  5
2F3
  8
0
  6
CONTINUOUS
 62
     3
 10
50.96480985418418
 20
-53.18329007510451
 30
0.0
 11
55.60933646864248
 21
-50.50177168024797
 31
0.0
  0
LINE
  5
2F4
  8
0
  6
CONTINUOUS
 62
     3
 10
46.44908977748025
 20
-48.86225640822013
 30
0.0
 11
52.60934427685049
 21
-45.30563220767485
 31
0.0
  0
LINE
  5
2F5
  8
0
  6
CONTINUOUS
 62
     3
 10
46.44906622911515
 20
-48.86220456127725
 30
0.0
 11
47.09657683486887
 21
-49.98372567505734
 31
0.0
  0
LINE
  5
2F6
  8
0
  6
CONTINUOUS
 62
     3
 10
55.60935044913492
 20
-50.5017389806454
 30
0.0
 11
52.60933674005116
 21
-45.30557701298957
 31
0.0
  0
LINE
  5
2F7
  8
0
  6
CONTINUOUS
 62
     3
 10
58.85019631268403
 20
-50.3415983511637
 30
0.0
 11
60.60932127824742
 21
-53.38849175047798
 31
0.0
  0
LINE
  5
2F8
  8
0
  6
CONTINUOUS
 62
     3
 10
63.34122667263262
 20
-44.12024548103736
 30
0.0
 11
74.90555529119808
 21
-64.15024745655009
 31
0.0
  0
LINE
  5
2F9
  8
0
  6
CONTINUOUS
 62
     3
 10
56.94506433414486
 20
-51.27295108979669
 30
0.0
 11
60.6093327586938
 21
-53.38851721736123
 31
0.0
  0
LINE
  5
2FA
  8
0
  6
CONTINUOUS
 62
     3
 10
-153.9934728912061
 20
-37.80266757865942
 30
0.0
 11
-59.49347289120613
 21
-37.80266757865942
 31
0.0
  0
LINE
  5
2FB
  8
0
  6
CONTINUOUS
 62
     3
 10
-136.9934728912061
 20
7.697332421340576
 30
0.0
 11
-104.4434698394483
 21
7.697332421340576
 31
0.0
  0
LINE
  5
2FC
  8
0
  6
CONTINUOUS
 62
     3
 10
-65.94346983944831
 20
70.19733242134058
 30
0.0
 11
-65.94346983944831
 21
19.19733242134058
 31
0.0
  0
LINE
  5
2FD
  8
0
  6
CONTINUOUS
 62
     3
 10
-84.44346983944831
 20
80.69733242134058
 30
0.0
 11
-84.44346983944831
 21
70.19733242134058
 31
0.0
  0
LINE
  5
2FE
  8
0
  6
CONTINUOUS
 62
     3
 10
-84.44346983944831
 20
19.19733242134058
 30
0.0
 11
-57.99347289120613
 21
19.19733242134058
 31
0.0
  0
LINE
  5
2FF
  8
0
  6
CONTINUOUS
 62
     3
 10
-84.44346983944831
 20
70.19733242134058
 30
0.0
 11
-57.99347289120613
 21
70.19733242134058
 31
0.0
  0
LINE
  5
300
  8
0
  6
CONTINUOUS
 62
     3
 10
-84.44346983944831
 20
19.19733242134058
 30
0.0
 11
-84.44346983944831
 21
8.697332421340576
 31
0.0
  0
LINE
  5
301
  8
0
  6
CONTINUOUS
 62
     3
 10
-107.4434698394483
 20
77.19733242134058
 30
0.0
 11
-107.4434698394483
 21
12.95731739143335
 31
0.0
  0
LINE
  5
302
  8
0
  6
CONTINUOUS
 62
     3
 10
-114.4434698394483
 20
12.19733242134058
 30
0.0
 11
-107.4434698394483
 21
12.19733242134058
 31
0.0
  0
LINE
  5
303
  8
0
  6
CONTINUOUS
 62
     3
 10
-114.4434698394483
 20
77.19733242134058
 30
0.0
 11
-107.4434698394483
 21
77.19733242134058
 31
0.0
  0
LINE
  5
304
  8
0
  6
CONTINUOUS
 62
     3
 10
-114.4434698394483
 20
78.69733242134058
 30
0.0
 11
-114.4434698394483
 21
73.19733242134058
 31
0.0
  0
LINE
  5
305
  8
0
  6
CONTINUOUS
 62
     3
 10
-127.4434698394483
 20
77.88232997993433
 30
0.0
 11
-114.4434698394483
 21
77.88232997993433
 31
0.0
  0
LINE
  5
306
  8
0
  6
CONTINUOUS
 62
     3
 10
-127.4434698394483
 20
11.51233104804956
 30
0.0
 11
-122.4434698394483
 21
11.51233104804956
 31
0.0
  0
LINE
  5
307
  8
0
  6
CONTINUOUS
 62
     3
 10
-127.4434698394483
 20
73.19733242134058
 30
0.0
 11
-114.4434698394483
 21
73.19733242134058
 31
0.0
  0
LINE
  5
308
  8
0
  6
CONTINUOUS
 62
     3
 10
-127.4434698394483
 20
16.19733242134058
 30
0.0
 11
-114.4434698394483
 21
16.19733242134058
 31
0.0
  0
LINE
  5
309
  8
0
  6
CONTINUOUS
 62
     3
 10
-114.4434698394483
 20
16.19733242134058
 30
0.0
 11
-114.4434698394483
 21
10.69733242134058
 31
0.0
  0
LINE
  5
30A
  8
0
  6
CONTINUOUS
 62
     3
 10
-127.4434698394483
 20
80.69734005073511
 30
0.0
 11
-127.4434698394483
 21
73.19733242134058
 31
0.0
  0
LINE
  5
30B
  8
0
  6
CONTINUOUS
 62
     3
 10
-107.4434698394483
 20
67.69733242134058
 30
0.0
 11
-65.94346983944831
 21
67.69733242134058
 31
0.0
  0
LINE
  5
30C
  8
0
  6
CONTINUOUS
 62
     3
 10
-107.4434698394483
 20
21.69733242134058
 30
0.0
 11
-65.94346983944831
 21
21.69733242134058
 31
0.0
  0
LINE
  5
30D
  8
0
  6
CONTINUOUS
 62
     3
 10
-152.9934728912061
 20
-13.18766590019263
 30
0.0
 11
-68.99347289120613
 21
-13.18766590019263
 31
0.0
  0
LINE
  5
30E
  8
0
  6
CONTINUOUS
 62
     3
 10
-152.9934728912061
 20
-2.187665900192627
 30
0.0
 11
-68.99347289120613
 21
-2.187665900192627
 31
0.0
  0
LINE
  5
30F
  8
0
  6
CONTINUOUS
 62
     3
 10
-68.99347289120613
 20
1.062334099807373
 30
0.0
 11
-57.99347289120613
 21
1.062334099807373
 31
0.0
  0
LINE
  5
310
  8
0
  6
CONTINUOUS
 62
     3
 10
-68.99347289120613
 20
-16.43766590019263
 30
0.0
 11
-57.99347289120613
 21
-16.43766590019263
 31
0.0
  0
LINE
  5
311
  8
0
  6
CONTINUOUS
 62
     3
 10
-68.99347289120613
 20
1.062334099807373
 30
0.0
 11
-68.99347289120613
 21
-16.43766590019263
 31
0.0
  0
LINE
  5
312
  8
0
  6
CONTINUOUS
 62
     3
 10
-76.99347289120613
 20
19.19733242134058
 30
0.0
 11
-76.99347289120613
 21
7.697332421340576
 31
0.0
  0
LINE
  5
313
  8
0
  6
CONTINUOUS
 62
     3
 10
-122.4434698394483
 20
16.19733242134058
 30
0.0
 11
-122.4434698394483
 21
7.697332421340576
 31
0.0
  0
LINE
  5
314
  8
0
  6
CONTINUOUS
 62
     3
 10
-118.4434698394483
 20
16.19733242134058
 30
0.0
 11
-118.4434698394483
 21
7.697332421340576
 31
0.0
  0
LINE
  5
315
  8
0
  6
CONTINUOUS
 62
     3
 10
-118.4434698394483
 20
11.51233104804956
 30
0.0
 11
-114.4434698394483
 21
11.51233104804956
 31
0.0
  0
LINE
  5
316
  8
0
  6
CONTINUOUS
 62
     3
 10
-127.4434698394483
 20
16.19733242134058
 30
0.0
 11
-127.4434698394483
 21
8.697332421340576
 31
0.0
  0
LINE
  5
317
  8
0
  6
CONTINUOUS
 62
     3
 10
-104.4434698394483
 20
7.697332421340576
 30
0.0
 11
-76.99347289120613
 21
7.697332421340576
 31
0.0
  0
LINE
  5
318
  8
0
  6
CONTINUOUS
 62
     3
 10
-66.99347289120613
 20
79.19733242134058
 30
0.0
 11
-66.99347289120613
 21
72.69733242134058
 31
0.0
  0
LINE
  5
319
  8
0
  6
CONTINUOUS
 62
     3
 10
-66.99347289120613
 20
16.69733242134058
 30
0.0
 11
-66.99347289120613
 21
14.19733242134058
 31
0.0
  0
LINE
  5
31A
  8
0
  6
CONTINUOUS
 62
     3
 10
-66.99347289120613
 20
3.697332421340576
 30
0.0
 11
-57.99347289120613
 21
3.697332421340576
 31
0.0
  0
LINE
  5
31B
  8
0
  6
CONTINUOUS
 62
     3
 10
-75.99347289120613
 20
72.69733242134058
 30
0.0
 11
-66.99347289120613
 21
72.69733242134058
 31
0.0
  0
LINE
  5
31C
  8
0
  6
CONTINUOUS
 62
     3
 10
-75.99347289120613
 20
16.69733242134058
 30
0.0
 11
-66.99347289120613
 21
16.69733242134058
 31
0.0
  0
LINE
  5
31D
  8
0
  6
CONTINUOUS
 62
     3
 10
-75.99347289120613
 20
72.69733242134058
 30
0.0
 11
-75.99347289120613
 21
70.19733242134058
 31
0.0
  0
LINE
  5
31E
  8
0
  6
CONTINUOUS
 62
     3
 10
-75.99347289120613
 20
19.19733242134058
 30
0.0
 11
-75.99347289120613
 21
16.69733242134058
 31
0.0
  0
LINE
  5
31F
  8
0
  6
CONTINUOUS
 62
     3
 10
-66.99347289120613
 20
77.19733242134058
 30
0.0
 11
-65.49347289120613
 21
77.19733242134058
 31
0.0
  0
LINE
  5
320
  8
0
  6
CONTINUOUS
 62
     3
 10
-65.49347514523686
 20
77.19734475631381
 30
0.0
 11
-57.99348016342117
 21
72.86722111304212
 31
0.0
  0
LINE
  5
321
  8
0
  6
CONTINUOUS
 62
     3
 10
-66.99347289120613
 20
79.19733242134058
 30
0.0
 11
-55.99347289120613
 21
79.19733242134058
 31
0.0
  0
LINE
  5
322
  8
0
  6
CONTINUOUS
 62
     3
 10
-75.99347289120613
 20
74.69733242134058
 30
0.0
 11
-66.99347289120613
 21
74.69733242134058
 31
0.0
  0
LINE
  5
323
  8
0
  6
CONTINUOUS
 62
     3
 10
-75.99347289120613
 20
83.69733242134058
 30
0.0
 11
-75.99347289120613
 21
74.69733242134058
 31
0.0
  0
LINE
  5
324
  8
0
  6
CONTINUOUS
 62
     3
 10
-76.99347289120613
 20
15.69733242134058
 30
0.0
 11
-66.99347289120613
 21
15.69733242134058
 31
0.0
  0
LINE
  5
325
  8
0
  6
CONTINUOUS
 62
     3
 10
-153.9934728912061
 20
127.1973324213406
 30
0.0
 11
-101.9934728912061
 21
127.1973324213406
 31
0.0
  0
LINE
  5
326
  8
0
  6
CONTINUOUS
 62
     3
 10
-47.99347289120613
 20
120.6973324213406
 30
0.0
 11
-47.99347289120613
 21
107.6973324213406
 31
0.0
  0
LINE
  5
327
  8
0
  6
CONTINUOUS
 62
     3
 10
-47.99347289120613
 20
95.69733242134058
 30
0.0
 11
-47.99347289120613
 21
82.69733242134058
 31
0.0
  0
LINE
  5
328
  8
0
  6
CONTINUOUS
 62
     3
 10
-47.99347289120613
 20
107.6973324213406
 30
0.0
 11
-39.99347289120613
 21
107.6973324213406
 31
0.0
  0
LINE
  5
329
  8
0
  6
CONTINUOUS
 62
     3
 10
-47.99347289120613
 20
120.6973324213406
 30
0.0
 11
-39.99347289120613
 21
120.6973324213406
 31
0.0
  0
LINE
  5
32A
  8
0
  6
CONTINUOUS
 62
     3
 10
-47.99347289120613
 20
95.69733242134058
 30
0.0
 11
-39.99347289120613
 21
95.69733242134058
 31
0.0
  0
LINE
  5
32B
  8
0
  6
CONTINUOUS
 62
     3
 10
-47.99347289120613
 20
82.69733242134058
 30
0.0
 11
-39.99347289120613
 21
82.69733242134058
 31
0.0
  0
LINE
  5
32C
  8
0
  6
CONTINUOUS
 62
     3
 10
-39.99347289120613
 20
120.6973324213406
 30
0.0
 11
-39.99347289120613
 21
107.6973324213406
 31
0.0
  0
LINE
  5
32D
  8
0
  6
CONTINUOUS
 62
     3
 10
-39.99347289120613
 20
95.69733242134058
 30
0.0
 11
-39.99347289120613
 21
82.69733242134058
 31
0.0
  0
LINE
  5
32E
  8
0
  6
CONTINUOUS
 62
     3
 10
-68.99347289120613
 20
118.1973324213406
 30
0.0
 11
-47.99347289120613
 21
118.1973324213406
 31
0.0
  0
LINE
  5
32F
  8
0
  6
CONTINUOUS
 62
     3
 10
-68.99347289120613
 20
110.1973324213406
 30
0.0
 11
-47.99347289120613
 21
110.1973324213406
 31
0.0
  0
LINE
  5
330
  8
0
  6
CONTINUOUS
 62
     3
 10
-68.99347289120613
 20
93.19733242134058
 30
0.0
 11
-47.99347289120613
 21
93.19733242134058
 31
0.0
  0
LINE
  5
331
  8
0
  6
CONTINUOUS
 62
     3
 10
-68.99347289120613
 20
85.19733242134058
 30
0.0
 11
-47.99347289120613
 21
85.19733242134058
 31
0.0
  0
LINE
  5
332
  8
0
  6
CONTINUOUS
 62
     3
 10
-66.99347289120613
 20
7.697332421340576
 30
0.0
 11
-63.99347289120613
 21
7.697332421340576
 31
0.0
  0
LINE
  5
333
  8
0
  6
CONTINUOUS
 62
     3
 10
-66.99347289120613
 20
14.69733242134058
 30
0.0
 11
-63.99347289120613
 21
14.69733242134058
 31
0.0
  0
LINE
  5
334
  8
0
  6
CONTINUOUS
 62
     3
 10
-63.99347289120613
 20
5.697332421340576
 30
0.0
 11
-57.99347289120613
 21
5.697332421340576
 31
0.0
  0
LINE
  5
335
  8
0
  6
CONTINUOUS
 62
     3
 10
-63.99347289120613
 20
16.69733242134058
 30
0.0
 11
-57.99347289120613
 21
16.69733242134058
 31
0.0
  0
LINE
  5
336
  8
0
  6
CONTINUOUS
 62
     3
 10
-63.99347289120613
 20
6.197332421340576
 30
0.0
 11
-57.99347289120613
 21
6.197332421340576
 31
0.0
  0
LINE
  5
337
  8
0
  6
CONTINUOUS
 62
     3
 10
-63.99347289120613
 20
16.19733242134058
 30
0.0
 11
-57.99347289120613
 21
16.19733242134058
 31
0.0
  0
LINE
  5
338
  8
0
  6
CONTINUOUS
 62
     3
 10
-76.99347289120613
 20
14.19733242134058
 30
0.0
 11
-63.99347289120613
 21
14.19733242134058
 31
0.0
  0
LINE
  5
339
  8
0
  6
CONTINUOUS
 62
     3
 10
-76.99347289120613
 20
8.197332421340576
 30
0.0
 11
-63.99347289120613
 21
8.197332421340576
 31
0.0
  0
LINE
  5
33A
  8
0
  6
CONTINUOUS
 62
     3
 10
-66.99347289120613
 20
8.197332421340576
 30
0.0
 11
-66.99347289120613
 21
3.697332421340576
 31
0.0
  0
LINE
  5
33B
  8
0
  6
CONTINUOUS
 62
     3
 10
-63.99347289120613
 20
16.69733242134058
 30
0.0
 11
-63.99347289120613
 21
5.697332421340576
 31
0.0
  0
LINE
  5
33C
  8
0
  6
CONTINUOUS
 62
     3
 10
-163.9934728912061
 20
-12.68766590019263
 30
0.0
 11
-68.99347289120613
 21
-12.68766590019263
 31
0.0
  0
LINE
  5
33D
  8
0
  6
CONTINUOUS
 62
     3
 10
-163.9934728912061
 20
-2.687665900192627
 30
0.0
 11
-68.99347289120613
 21
-2.687665900192627
 31
0.0
  0
LINE
  5
33E
  8
0
  6
CONTINUOUS
 62
     3
 10
-68.99347289120613
 20
-15.68766590019263
 30
0.0
 11
-58.99347289120613
 21
-15.68766590019263
 31
0.0
  0
LINE
  5
33F
  8
0
  6
CONTINUOUS
 62
     3
 10
-68.99347289120613
 20
0.3123340998073729
 30
0.0
 11
-58.99347289120613
 21
0.3123340998073729
 31
0.0
  0
LINE
  5
340
  8
0
  6
CONTINUOUS
 62
     3
 10
-58.99347289120613
 20
0.3123340998073729
 30
0.0
 11
-58.99347289120613
 21
-15.68766590019263
 31
0.0
  0
LINE
  5
341
  8
0
  6
CONTINUOUS
 62
     3
 10
-59.49349017831119
 20
-37.80264973137793
 30
0.0
 11
-57.99348858592694
 21
-36.30264813899368
 31
0.0
  0
LINE
  5
342
  8
0
  6
CONTINUOUS
 62
     3
 10
-85.44346401487053
 20
81.69734164160687
 30
0.0
 11
-84.44346489203815
 21
80.69733864126025
 31
0.0
  0
LINE
  5
343
  8
0
  6
CONTINUOUS
 62
     3
 10
-126.4434404438065
 20
81.69729036937943
 30
0.0
 11
-127.4434399037995
 21
80.69729849578644
 31
0.0
  0
LINE
  5
344
  8
0
  6
CONTINUOUS
 62
     3
 10
-127.4434463926276
 20
8.697363554832151
 30
0.0
 11
-126.4434453310381
 21
7.69736249324265
 31
0.0
  0
LINE
  5
345
  8
0
  6
CONTINUOUS
 62
     3
 10
-84.44344390265121
 20
8.69730960686698
 30
0.0
 11
-85.44344226684245
 21
7.697311242675738
 31
0.0
  0
LINE
  5
346
  8
0
  6
CONTINUOUS
 62
     3
 10
140.4989740082079
 20
72.86733059028589
 30
0.0
 11
168.4989740082079
 21
72.86733059028589
 31
0.0
  0
LINE
  5
347
  8
0
  6
CONTINUOUS
 62
     3
 10
140.4989740082079
 20
77.19733242134058
 30
0.0
 11
168.4989740082079
 21
77.19733242134058
 31
0.0
  0
LINE
  5
348
  8
0
  6
CONTINUOUS
 62
     3
 10
140.4989740082079
 20
79.19733242134058
 30
0.0
 11
148.9989740082079
 21
79.19733242134058
 31
0.0
  0
LINE
  5
349
  8
0
  6
CONTINUOUS
 62
     3
 10
55.60933934313937
 20
-50.50173007838234
 30
0.0
 11
52.6093389855115
 21
-45.30557774893745
 31
0.0
  0
LINE
  5
34A
  8
0
  6
CONTINUOUS
 62
     3
 10
63.53657795497918
 20
-45.23211750799246
 30
0.0
 11
61.1365761429978
 21
-41.0751930015368
 31
0.0
  0
LINE
  5
34B
  8
0
  6
CONTINUOUS
 62
     3
 10
54.19279749014811
 20
-43.29443181550968
 30
0.0
 11
52.73246654001162
 21
-44.13755439831752
 31
0.0
  0
LINE
  5
34C
  8
0
  6
CONTINUOUS
 62
     3
 10
58.14279872396435
 20
-50.13603370406199
 30
0.0
 11
56.68246447020317
 21
-50.97915819421868
 31
0.0
  0
LINE
  5
34D
  8
0
  6
CONTINUOUS
 62
     3
 10
61.99471443208461
 20
-47.16154524917769
 30
0.0
 11
58.69471861633122
 21
-41.44578561548755
 31
0.0
  0
LINE
  5
34E
  8
0
  6
CONTINUOUS
 62
     3
 10
58.40370891953205
 20
-49.34172764453396
 30
0.0
 11
55.0111075019189
 21
-43.46557042535696
 31
0.0
  0
LINE
  5
34F
  8
0
  6
CONTINUOUS
 62
     3
 10
57.04582928826483
 20
-48.51768913061378
 30
0.0
 11
55.77092088056986
 21
-49.25375794394594
 31
0.0
  0
LINE
  5
350
  8
0
  6
CONTINUOUS
 62
     3
 10
55.04583565709561
 20
-45.0535837629528
 30
0.0
 11
53.77092724940064
 21
-45.78965257628497
 31
0.0
  0
LINE
  5
351
  8
0
  6
CONTINUOUS
 62
     3
 10
58.6947210305317
 20
-41.44580418542884
 30
0.0
 11
61.13657978674394
 21
-41.07522667483201
 31
0.0
  0
LINE
  5
352
  8
0
  6
CONTINUOUS
 62
     3
 10
63.5366458809284
 20
-45.23217075088738
 30
0.0
 11
61.99478729864393
 21
-47.16159381971752
 31
0.0
  0
LINE
  5
353
  8
0
  6
CONTINUOUS
 62
     3
 10
60.78523552714171
 20
-47.06665119062049
 30
0.0
 11
58.13921622977807
 21
-42.48361195837728
 31
0.0
  0
LINE
  5
354
  8
0
  6
CONTINUOUS
 62
     3
 10
-107.4434698394483
 20
76.19733242134058
 30
0.0
 11
-107.4434698394483
 21
16.44733623603784
 31
0.0
  0
LINE
  5
355
  8
0
  6
CONTINUOUS
 62
     3
 10
-114.4434698394483
 20
76.19733242134058
 30
0.0
 11
-114.4434698394483
 21
73.19733242134058
 31
0.0
  0
LINE
  5
356
  8
0
  6
CONTINUOUS
 62
     3
 10
-152.4434698394483
 20
72.19733242134058
 30
0.0
 11
-152.4434698394483
 21
17.19733051399194
 31
0.0
  0
LINE
  5
357
  8
0
  6
CONTINUOUS
 62
     3
 10
-132.4434698394483
 20
67.69733242134058
 30
0.0
 11
-107.4434698394483
 21
67.69733242134058
 31
0.0
  0
LINE
  5
358
  8
0
  6
CONTINUOUS
 62
     3
 10
-132.4434698394483
 20
21.69733242134058
 30
0.0
 11
-107.4434698394483
 21
21.69733242134058
 31
0.0
  0
LINE
  5
359
  8
0
  6
CONTINUOUS
 62
     3
 10
-151.4434698394483
 20
16.19733242134058
 30
0.0
 11
-114.4434698394483
 21
16.19733242134058
 31
0.0
  0
LINE
  5
35A
  8
0
  6
CONTINUOUS
 62
     3
 10
-151.4434088042921
 20
73.19733242134058
 30
0.0
 11
-114.4434698394483
 21
73.19733242134058
 31
0.0
  0
LINE
  5
35B
  8
0
  6
CONTINUOUS
 62
     3
 10
-113.4434698394483
 20
12.19733242134058
 30
0.0
 11
-108.4434698394483
 21
12.19733242134058
 31
0.0
  0
LINE
  5
35C
  8
0
  6
CONTINUOUS
 62
     3
 10
-113.4434698394483
 20
77.19733242134058
 30
0.0
 11
-108.4434698394483
 21
77.19733242134058
 31
0.0
  0
LINE
  5
35D
  8
0
  6
CONTINUOUS
 62
     3
 10
-114.4434698394483
 20
16.19733242134058
 30
0.0
 11
-114.4434698394483
 21
13.19733242134058
 31
0.0
  0
LINE
  5
35E
  8
0
  6
CONTINUOUS
 62
     3
 10
-136.4434698394483
 20
70.84733394721948
 30
0.0
 11
-136.4434698394483
 21
18.5473328028103
 31
0.0
  0
LINE
  5
35F
  8
0
  6
CONTINUOUS
 62
     3
 10
-132.4434698394483
 20
70.84733394721948
 30
0.0
 11
-132.4434698394483
 21
18.5473328028103
 31
0.0
  0
LINE
  5
360
  8
0
  6
CONTINUOUS
 62
     3
 10
-136.4434698394483
 20
70.84733394721948
 30
0.0
 11
-132.4434698394483
 21
70.84733394721948
 31
0.0
  0
LINE
  5
361
  8
0
  6
CONTINUOUS
 62
     3
 10
-136.4434698394483
 20
18.5473328028103
 30
0.0
 11
-132.4434698394483
 21
18.5473328028103
 31
0.0
  0
LINE
  5
362
  8
0
  6
CONTINUOUS
 62
     3
 10
-152.4434698394483
 20
19.51233295539819
 30
0.0
 11
-136.4434698394483
 21
19.51233295539819
 31
0.0
  0
LINE
  5
363
  8
0
  6
CONTINUOUS
 62
     3
 10
-152.4434698394483
 20
69.88232997993433
 30
0.0
 11
-136.4434698394483
 21
69.88232997993433
 31
0.0
  0
LINE
  5
364
  8
0
  6
CONTINUOUS
 62
     3
 10
-124.9434698394483
 20
70.49733547309839
 30
0.0
 11
-117.9434698394483
 21
70.49733547309839
 31
0.0
  0
LINE
  5
365
  8
0
  6
CONTINUOUS
 62
     3
 10
-124.9434698394483
 20
18.89733318428003
 30
0.0
 11
-117.9434698394483
 21
18.89733318428003
 31
0.0
  0
LINE
  5
366
  8
0
  6
CONTINUOUS
 62
     3
 10
-124.9434698394483
 20
70.49733547309839
 30
0.0
 11
-124.9434698394483
 21
67.69733242134058
 31
0.0
  0
LINE
  5
367
  8
0
  6
CONTINUOUS
 62
     3
 10
-117.9434698394483
 20
70.49733547309839
 30
0.0
 11
-117.9434698394483
 21
67.69733242134058
 31
0.0
  0
LINE
  5
368
  8
0
  6
CONTINUOUS
 62
     3
 10
-124.9434698394483
 20
21.69733242134058
 30
0.0
 11
-124.9434698394483
 21
18.89733318428003
 31
0.0
  0
LINE
  5
369
  8
0
  6
CONTINUOUS
 62
     3
 10
-117.9434698394483
 20
21.69733242134058
 30
0.0
 11
-117.9434698394483
 21
18.89733318428003
 31
0.0
  0
LINE
  5
36A
  8
0
  6
CONTINUOUS
 62
     3
 10
-108.443466683401
 20
77.1973418647739
 30
0.0
 11
-107.4434656218115
 21
76.1973408031844
 31
0.0
  0
LINE
  5
36B
  8
0
  6
CONTINUOUS
 62
     3
 10
-107.4435050056253
 20
13.19734595126388
 30
0.0
 11
-108.4435064886837
 21
12.19734522684954
 31
0.0
  0
LINE
  5
36C
  8
0
  6
CONTINUOUS
 62
     3
 10
-113.4434504121624
 20
12.19735917820063
 30
0.0
 11
-114.4434514737519
 21
13.19736023979013
 31
0.0
  0
LINE
  5
36D
  8
0
  6
CONTINUOUS
 62
     3
 10
-151.4434494066376
 20
16.19734425899256
 30
0.0
 11
-152.4434513954587
 21
17.19734439335039
 31
0.0
  0
LINE
  5
36E
  8
0
  6
CONTINUOUS
 62
     3
 10
-152.4434432609843
 20
72.19729879325078
 30
0.0
 11
-151.4434421993948
 21
73.19729985484028
 31
0.0
  0
LINE
  5
36F
  8
0
  6
CONTINUOUS
 62
     3
 10
-114.4434537075484
 20
76.19730209782497
 30
0.0
 11
-113.4434523930776
 21
77.19730290653311
 31
0.0
  0
LINE
  5
370
  8
0
  6
CONTINUOUS
 62
     3
 10
-57.99347289120613
 20
78.06016353706323
 30
0.0
 11
-57.99347289120613
 21
-36.30266757865942
 31
0.0
  0
LINE
  5
371
  8
0
  6
CONTINUOUS
 62
     3
 10
148.9989740082079
 20
127.1973324213406
 30
0.0
 11
148.9989740082079
 21
117.661436120071
 31
0.0
  0
LINE
  5
372
  8
0
  6
CONTINUOUS
 62
     3
 10
159.9989740082079
 20
127.1973324213406
 30
0.0
 11
159.9989740082079
 21
117.661436120071
 31
0.0
  0
LINE
  5
373
  8
0
  6
CONTINUOUS
 62
     3
 10
148.9989740082079
 20
81.19733242134058
 30
0.0
 11
159.9989740082079
 21
81.19733242134058
 31
0.0
  0
LINE
  5
374
  8
0
  6
CONTINUOUS
 62
     3
 10
148.9989740082079
 20
122.1973324213406
 30
0.0
 11
159.9989740082079
 21
122.1973324213406
 31
0.0
  0
LINE
  5
375
  8
0
  6
CONTINUOUS
 62
     3
 10
148.9989740082079
 20
110.7332287226101
 30
0.0
 11
148.9989740082079
 21
92.66143612007105
 31
0.0
  0
LINE
  5
376
  8
0
  6
CONTINUOUS
 62
     3
 10
159.9989740082079
 20
110.7332287226101
 30
0.0
 11
159.9989740082079
 21
92.66143612007105
 31
0.0
  0
LINE
  5
377
  8
0
  6
CONTINUOUS
 62
     3
 10
159.9989740082079
 20
85.73322872261011
 30
0.0
 11
159.9989740082079
 21
79.19733242134058
 31
0.0
  0
LINE
  5
378
  8
0
  6
CONTINUOUS
 62
     3
 10
148.9989740082079
 20
85.73322872261011
 30
0.0
 11
148.9989740082079
 21
79.19733242134058
 31
0.0
  0
LINE
  5
379
  8
0
  6
CONTINUOUS
 62
     3
 10
159.9989740082079
 20
79.19733242134058
 30
0.0
 11
168.4989740082079
 21
79.19733242134058
 31
0.0
  0
LINE
  5
37A
  8
0
  6
CONTINUOUS
 62
     3
 10
-101.9934728912061
 20
127.1973324213406
 30
0.0
 11
-101.9934728912061
 21
112.8966905750597
 31
0.0
  0
LINE
  5
37B
  8
0
  6
CONTINUOUS
 62
     3
 10
-101.9934728912061
 20
127.1973324213406
 30
0.0
 11
-55.99347289120613
 21
127.1973324213406
 31
0.0
  0
LINE
  5
37C
  8
0
  6
CONTINUOUS
 62
     3
 10
-89.44977171933113
 20
81.69733242134058
 30
0.0
 11
-85.44346983944831
 21
81.69733242134058
 31
0.0
  0
LINE
  5
37D
  8
0
  6
CONTINUOUS
 62
     3
 10
-83.68913634335456
 20
76.69733242134058
 30
0.0
 11
-75.99347289120613
 21
76.69733242134058
 31
0.0
  0
LINE
  5
37E
  8
0
  6
CONTINUOUS
 62
     3
 10
-81.45967031584246
 20
83.69733242134058
 30
0.0
 11
-75.99347289120613
 21
83.69733242134058
 31
0.0
  0
LINE
  5
37F
  8
0
  6
CONTINUOUS
 62
     3
 10
-62.99347289120613
 20
127.1973324213406
 30
0.0
 11
-62.99347289120613
 21
122.1973324213406
 31
0.0
  0
LINE
  5
380
  8
0
  6
CONTINUOUS
 62
     3
 10
-69.99347289120613
 20
127.1973324213406
 30
0.0
 11
-69.99347289120613
 21
76.19733242134058
 31
0.0
  0
LINE
  5
381
  8
0
  6
CONTINUOUS
 62
     3
 10
-69.99347289120613
 20
76.19733242134058
 30
0.0
 11
-66.99347289120613
 21
76.19733242134058
 31
0.0
  0
LINE
  5
382
  8
0
  6
CONTINUOUS
 62
     3
 10
-54.99347289120613
 20
122.1973324213406
 30
0.0
 11
-54.99347289120613
 21
118.1973324213406
 31
0.0
  0
LINE
  5
383
  8
0
  6
CONTINUOUS
 62
     3
 10
-68.99347289120613
 20
81.19733242134058
 30
0.0
 11
-54.99347289120613
 21
81.19733242134058
 31
0.0
  0
LINE
  5
384
  8
0
  6
CONTINUOUS
 62
     3
 10
-68.99347289120613
 20
122.1973324213406
 30
0.0
 11
-54.99347289120613
 21
122.1973324213406
 31
0.0
  0
LINE
  5
385
  8
0
  6
CONTINUOUS
 62
     3
 10
-68.99347289120613
 20
122.1973324213406
 30
0.0
 11
-68.99347289120613
 21
81.19733242134058
 31
0.0
  0
LINE
  5
386
  8
0
  6
CONTINUOUS
 62
     3
 10
-54.99347289120613
 20
110.1973324213406
 30
0.0
 11
-54.99347289120613
 21
93.19733242134058
 31
0.0
  0
LINE
  5
387
  8
0
  6
CONTINUOUS
 62
     3
 10
-54.99347289120613
 20
85.19733242134058
 30
0.0
 11
-54.99347289120613
 21
81.19733242134058
 31
0.0
  0
LINE
  5
388
  8
0
  6
CONTINUOUS
 62
     3
 10
-62.99347289120613
 20
81.19733242134058
 30
0.0
 11
-62.99347289120613
 21
79.19733242134058
 31
0.0
  0
LINE
  5
389
  8
0
  6
CONTINUOUS
 62
     3
 10
-65.99347289120613
 20
93.19733242134058
 30
0.0
 11
-65.99347289120613
 21
85.19733242134058
 31
0.0
  0
LINE
  5
38A
  8
0
  6
CONTINUOUS
 62
     3
 10
-65.99347289120613
 20
118.1973324213406
 30
0.0
 11
-65.99347289120613
 21
110.1973324213406
 31
0.0
  0
LINE
  5
38B
  8
0
  6
CONTINUOUS
 62
     3
 10
-75.99347289120613
 20
14.19733242134058
 30
0.0
 11
-75.99347289120613
 21
8.197332421340576
 31
0.0
  0
LINE
  5
38C
  8
0
  6
CONTINUOUS
 62
     3
 10
-107.4434698394483
 20
12.95731739143335
 30
0.0
 11
-107.4434698394483
 21
12.19733242134058
 31
0.0
  0
LINE
  5
38D
  8
0
  6
CONTINUOUS
 62
     3
 10
-136.9934728912061
 20
81.69733242134058
 30
0.0
 11
-89.44977171933113
 21
81.69733242134058
 31
0.0
  0
LINE
  5
38E
  8
0
  6
CONTINUOUS
 62
     3
 10
-153.9934728912061
 20
127.1973324213406
 30
0.0
 11
-153.9934728912061
 21
-2.187665900192627
 31
0.0
  0
LINE
  5
38F
  8
0
  6
CONTINUOUS
 62
     3
 10
-153.9934728912061
 20
117.1973324213406
 30
0.0
 11
-152.9934728912061
 21
117.1973324213406
 31
0.0
  0
LINE
  5
390
  8
0
  6
CONTINUOUS
 62
     3
 10
-153.9934728912061
 20
-27.80266757865942
 30
0.0
 11
-152.9934728912061
 21
-27.80266757865942
 31
0.0
  0
LINE
  5
391
  8
0
  6
CONTINUOUS
 62
     3
 10
-152.9934728912061
 20
117.1973324213406
 30
0.0
 11
-152.9934728912061
 21
74.06543544868433
 31
0.0
  0
LINE
  5
392
  8
0
  6
CONTINUOUS
 62
     3
 10
-136.9934728912061
 20
83.97883419136011
 30
0.0
 11
-136.9934728912061
 21
73.88623622993433
 31
0.0
  0
LINE
  5
393
  8
0
  6
CONTINUOUS
 62
     3
 10
-152.9934798841443
 20
3.41582996576588
 30
0.0
 11
-136.993475360399
 21
5.415825845889827
 31
0.0
  0
LINE
  5
394
  8
0
  6
CONTINUOUS
 62
     3
 10
-152.9934805199465
 20
85.97883720678115
 30
0.0
 11
-136.993483566681
 21
83.97884227296495
 31
0.0
  0
LINE
  5
395
  8
0
  6
CONTINUOUS
 62
     3
 10
-136.9934728912061
 20
15.45754055122339
 30
0.0
 11
-136.9934728912061
 21
5.415825882949463
 31
0.0
  0
LINE
  5
396
  8
0
  6
CONTINUOUS
 62
     3
 10
-146.4934728912061
 20
105.2373333368679
 30
0.0
 11
-146.4934728912061
 21
88.95733455757105
 31
0.0
  0
LINE
  5
397
  8
0
  6
CONTINUOUS
 62
     3
 10
-152.9934728912061
 20
105.2373333368679
 30
0.0
 11
-146.4934728912061
 21
105.2373333368679
 31
0.0
  0
LINE
  5
398
  8
0
  6
CONTINUOUS
 62
     3
 10
-152.9934728912061
 20
88.95733455757105
 30
0.0
 11
-146.4934728912061
 21
88.95733455757105
 31
0.0
  0
LINE
  5
399
  8
0
  6
CONTINUOUS
 62
     3
 10
-146.4934895723148
 20
102.1973355362826
 30
0.0
 11
-143.5490006959138
 21
97.09733189953855
 31
0.0
  0
LINE
  5
39A
  8
0
  6
CONTINUOUS
 62
     3
 10
-146.4934824984204
 20
91.99734301383151
 30
0.0
 11
-143.5489955293682
 21
97.09734334695091
 31
0.0
  0
LINE
  5
39B
  8
0
  6
CONTINUOUS
 62
     3
 10
-163.9934728912061
 20
-2.687665900192627
 30
0.0
 11
-163.9934728912061
 21
-12.68766590019263
 31
0.0
  0
LINE
  5
39C
  8
0
  6
CONTINUOUS
 62
     3
 10
-131.9934728912061
 20
-2.687665900192627
 30
0.0
 11
-131.9934728912061
 21
-12.68766590019263
 31
0.0
  0
LINE
  5
39D
  8
0
  6
CONTINUOUS
 62
     3
 10
-153.9934728912061
 20
-13.18766590019263
 30
0.0
 11
-153.9934728912061
 21
-37.80266757865942
 31
0.0
  0
LINE
  5
39E
  8
0
  6
CONTINUOUS
 62
     3
 10
-152.9934728912061
 20
-13.18766590019263
 30
0.0
 11
-152.9934728912061
 21
-27.80266757865942
 31
0.0
  0
LINE
  5
39F
  8
0
  6
CONTINUOUS
 62
     3
 10
-152.9934728912061
 20
15.60244945625269
 30
0.0
 11
-152.9934728912061
 21
-2.187665900192627
 31
0.0
  0
ARC
  5
3A0
  8
0
  6
CONTINUOUS
 62
     3
 10
154.4989740082079
 20
44.69733242134058
 30
0.0
 40
41.0
 50
0.0
 51
70.03393888118353
  0
ARC
  5
3A1
  8
0
  6
CONTINUOUS
 62
     3
 10
154.4989740082079
 20
44.69733242134058
 30
0.0
 40
82.5
 50
0.0
 51
80.22979938736845
  0
ARC
  5
3A2
  8
0
  6
CONTINUOUS
 62
     3
 10
154.4989740082079
 20
44.69733242134058
 30
0.0
 40
81.0
 50
0.0
 51
80.04704401574642
  0
ARC
  5
3A3
  8
0
  6
CONTINUOUS
 62
     3
 10
154.4989740082079
 20
44.69733242134058
 30
0.0
 40
82.5
 50
99.77021928196622
 51
200.2297549153485
  0
ARC
  5
3A4
  8
0
  6
CONTINUOUS
 62
     3
 10
154.4989740082079
 20
44.69733242134058
 30
0.0
 40
81.0
 50
99.95297465358826
 51
200.0470063739156
  0
ARC
  5
3A5
  8
0
  6
CONTINUOUS
 62
     3
 10
154.4989740082079
 20
44.69733242134058
 30
0.0
 40
41.0
 50
109.9660797881511
 51
190.0339080695419
  0
ARC
  5
3A6
  8
0
  6
CONTINUOUS
 62
     3
 10
154.4989740082079
 20
44.69733242134058
 30
0.0
 40
81.0
 50
219.9529406542231
 51
320.0470475066314
  0
ARC
  5
3A7
  8
0
  6
CONTINUOUS
 62
     3
 10
154.4989740082079
 20
44.69733242134058
 30
0.0
 40
82.5
 50
219.7701784524119
 51
320.2297994631588
  0
ARC
  5
3A8
  8
0
  6
CONTINUOUS
 62
     3
 10
154.4989740082079
 20
44.69733242134058
 30
0.0
 40
82.5
 50
339.8548829676135
 51
360.0
  0
ARC
  5
3A9
  8
0
  6
CONTINUOUS
 62
     3
 10
154.4989740082079
 20
44.69733242134058
 30
0.0
 40
81.0
 50
339.9529576539057
 51
360.0
  0
ARC
  5
3AA
  8
0
  6
CONTINUOUS
 62
     3
 10
154.4989740082079
 20
44.69733242134058
 30
0.0
 40
41.0
 50
229.9660389585968
 51
310.0339457871631
  0
ARC
  5
3AB
  8
0
  6
CONTINUOUS
 62
     3
 10
154.4989740082079
 20
44.69733242134058
 30
0.0
 40
41.0
 50
349.9660602271476
 51
360.0
  0
ARC
  5
3AC
  8
0
  6
CONTINUOUS
 62
     3
 10
187.8409539886767
 20
25.44733432868921
 30
0.0
 40
7.0
 50
94.84992175861829
 51
118.997317908768
  0
ARC
  5
3AD
  8
0
  6
CONTINUOUS
 62
     3
 10
121.1569940277392
 20
25.44733432868921
 30
0.0
 40
7.0
 50
358.9973009090854
 51
360.0
  0
ARC
  5
3AE
  8
0
  6
CONTINUOUS
 62
     3
 10
187.8409539886767
 20
25.44733432868921
 30
0.0
 40
7.0
 50
181.0026667612015
 51
205.1500629113513
  0
ARC
  5
3AF
  8
0
  6
CONTINUOUS
 62
     3
 10
121.1569940277392
 20
25.44733432868921
 30
0.0
 40
7.0
 50
358.9973009090854
 51
360.0
  0
ARC
  5
3B0
  8
0
  6
CONTINUOUS
 62
     3
 10
121.1569940277392
 20
25.44733432868921
 30
0.0
 40
7.0
 50
334.8499201268614
 51
360.0
  0
ARC
  5
3B1
  8
0
  6
CONTINUOUS
 62
     3
 10
121.1569940277392
 20
25.44733432868921
 30
0.0
 40
7.0
 50
61.0026939303775
 51
85.15009691071639
  0
CIRCLE
  5
3B2
  8
0
  6
CONTINUOUS
 62
     3
 10
124.4989740082079
 20
104.6973324213406
 30
0.0
 40
8.0
  0
CIRCLE
  5
3B3
  8
0
  6
CONTINUOUS
 62
     3
 10
117.5374566742236
 20
-11.28342624565161
 30
0.0
 40
8.0
  0
CIRCLE
  5
3B4
  8
0
  6
CONTINUOUS
 62
     3
 10
221.4604913421923
 20
40.67809490303003
 30
0.0
 40
8.0
  0
CIRCLE
  5
3B5
  8
0
  6
CONTINUOUS
 62
     3
 10
120.6915704437548
 20
53.75600246528589
 30
0.0
 40
2.150000095367432
  0
CIRCLE
  5
3B6
  8
0
  6
CONTINUOUS
 62
     3
 10
163.5576440521533
 20
10.88992885688745
 30
0.0
 40
2.150000095367432
  0
CIRCLE
  5
3B7
  8
0
  6
CONTINUOUS
 62
     3
 10
179.2477227875048
 20
69.44606594184839
 30
0.0
 40
2.150000095367432
  0
CIRCLE
  5
3B8
  8
0
  6
CONTINUOUS
 62
     3
 10
199.8657190033251
 20
70.88982967475855
 30
0.0
 40
8.0
  0
CIRCLE
  5
3B9
  8
0
  6
CONTINUOUS
 62
     3
 10
109.1322290130908
 20
70.88982967475855
 30
0.0
 40
8.0
  0
CIRCLE
  5
3BA
  8
0
  6
CONTINUOUS
 62
     3
 10
154.4989740082079
 20
-7.687665900192627
 30
0.0
 40
8.0
  0
CIRCLE
  5
3BB
  8
0
  6
CONTINUOUS
 62
     3
 10
154.4989740082079
 20
-7.687665900192627
 30
0.0
 40
8.75
  0
CIRCLE
  5
3BC
  8
0
  6
CONTINUOUS
 62
     3
 10
199.8657190033251
 20
70.88982967475855
 30
0.0
 40
8.75
  0
CIRCLE
  5
3BD
  8
0
  6
CONTINUOUS
 62
     3
 10
109.1322290130908
 20
70.88982967475855
 30
0.0
 40
8.75
  0
CIRCLE
  5
3BE
  8
0
  6
CONTINUOUS
 62
     3
 10
221.4604913421923
 20
40.67809490303003
 30
0.0
 40
3.299999952316284
  0
CIRCLE
  5
3BF
  8
0
  6
CONTINUOUS
 62
     3
 10
221.4604913421923
 20
40.67809490303003
 30
0.0
 40
0.75
  0
CIRCLE
  5
3C0
  8
0
  6
CONTINUOUS
 62
     3
 10
221.4604913421923
 20
40.67809490303003
 30
0.0
 40
2.400000095367432
  0
CIRCLE
  5
3C1
  8
0
  6
CONTINUOUS
 62
     3
 10
117.5374566742236
 20
-11.28342624565161
 30
0.0
 40
3.299999952316284
  0
CIRCLE
  5
3C2
  8
0
  6
CONTINUOUS
 62
     3
 10
117.5374566742236
 20
-11.28342624565161
 30
0.0
 40
0.75
  0
CIRCLE
  5
3C3
  8
0
  6
CONTINUOUS
 62
     3
 10
117.5374566742236
 20
-11.28342624565161
 30
0.0
 40
2.400000095367432
  0
CIRCLE
  5
3C4
  8
0
  6
CONTINUOUS
 62
     3
 10
124.4989740082079
 20
104.6973324213406
 30
0.0
 40
3.299999952316284
  0
CIRCLE
  5
3C5
  8
0
  6
CONTINUOUS
 62
     3
 10
124.4989740082079
 20
104.6973324213406
 30
0.0
 40
0.75
  0
CIRCLE
  5
3C6
  8
0
  6
CONTINUOUS
 62
     3
 10
124.4989740082079
 20
104.6973324213406
 30
0.0
 40
2.400000095367432
  0
CIRCLE
  5
3C7
  8
0
  6
CONTINUOUS
 62
     3
 10
154.4989740082079
 20
44.69733242134058
 30
0.0
 40
25.5
  0
CIRCLE
  5
3C8
  8
0
  6
CONTINUOUS
 62
     3
 10
154.4989740082079
 20
44.69733242134058
 30
0.0
 40
23.0
  0
ARC
  5
3C9
  8
0
  6
CONTINUOUS
 62
     3
 10
56.70740906680169
 20
-46.40366550346411
 30
0.0
 40
3.0
 50
209.9999889956806
 51
251.8103021508074
  0
ARC
  5
3CA
  8
0
  6
CONTINUOUS
 62
     3
 10
54.10933320010247
 20
-47.90366550346411
 30
0.0
 40
3.0
 50
348.1896876796992
 51
431.8102730088179
  0
ARC
  5
3CB
  8
0
  6
CONTINUOUS
 62
     3
 10
56.70740906680169
 20
-46.40366550346411
 30
0.0
 40
3.0
 50
168.1896653678988
 51
209.9999716928365
  0
ARC
  5
3CC
  8
0
  6
CONTINUOUS
 62
     3
 10
60.34471528018059
 20
-44.30366702934302
 30
0.0
 40
3.299999952316284
 50
282.3602834779813
 51
299.9999710095912
  0
ARC
  5
3CD
  8
0
  6
CONTINUOUS
 62
     3
 10
60.34471528018059
 20
-44.30366702934302
 30
0.0
 40
3.299999952316284
 50
119.9999760185475
 51
137.6396772105358
  0
ARC
  5
3CE
  8
0
  6
CONTINUOUS
 62
     3
 10
61.16032044375481
 20
-50.52538486381567
 30
0.0
 40
3.0
 50
92.10684948604947
 51
156.7619665845238
  0
ARC
  5
3CF
  8
0
  6
CONTINUOUS
 62
     3
 10
55.36433808291497
 20
-40.48644443412817
 30
0.0
 40
3.0
 50
263.2379941039933
 51
327.8898190512877
  0
ARC
  5
3D0
  8
0
  6
CONTINUOUS
 62
     3
 10
57.39737336123528
 20
-49.46941562553442
 30
0.0
 40
1.0
 50
50.71543866290864
 51
119.9999760185475
  0
ARC
  5
3D1
  8
0
  6
CONTINUOUS
 62
     3
 10
57.39737336123528
 20
-49.46941562553442
 30
0.0
 40
1.0
 50
318.194864128264
 51
369.2845220256085
  0
ARC
  5
3D2
  8
0
  6
CONTINUOUS
 62
     3
 10
54.39737336123528
 20
-44.27326389213599
 30
0.0
 40
1.0
 50
299.9999710095912
 51
369.2845220256085
  0
ARC
  5
3D3
  8
0
  6
CONTINUOUS
 62
     3
 10
54.39737336123528
 20
-44.27326389213599
 30
0.0
 40
1.0
 50
50.71543866290864
 51
101.8050897300639
  0
ARC
  5
3D4
  8
0
  6
CONTINUOUS
 62
     3
 10
56.4778711029345
 20
-50.00029178520239
 30
0.0
 40
1.0
 50
209.9999889956806
 51
281.8051257022426
  0
ARC
  5
3D5
  8
0
  6
CONTINUOUS
 62
     3
 10
53.4778711029345
 20
-44.80413623710669
 30
0.0
 40
1.0
 50
209.9999889956806
 51
299.9999710095912
  0
ARC
  5
3D6
  8
0
  6
CONTINUOUS
 62
     3
 10
56.4778711029345
 20
-50.00029178520239
 30
0.0
 40
1.0
 50
119.9999760185475
 51
209.9999716928365
  0
ARC
  5
3D7
  8
0
  6
CONTINUOUS
 62
     3
 10
53.4778711029345
 20
-44.80413623710669
 30
0.0
 40
1.0
 50
138.1948349862745
 51
209.9999716928365
  0
ARC
  5
3D8
  8
0
  6
CONTINUOUS
 62
     3
 10
61.92271058047356
 20
-43.39260669609107
 30
0.0
 40
1.200000047683716
 50
323.4679614128106
 51
456.5320061058957
  0
ARC
  5
3D9
  8
0
  6
CONTINUOUS
 62
     3
 10
154.4989740082079
 20
83.19733242134058
 30
0.0
 40
7.0
 50
214.8498604384965
 51
238.9973112301596
  0
ARC
  5
3DA
  8
0
  6
CONTINUOUS
 62
     3
 10
154.4989740082079
 20
83.19733242134058
 30
0.0
 40
7.0
 50
301.0026769306949
 51
325.1501208921688
  0
CIRCLE
  5
3DB
  8
0
  6
CONTINUOUS
 62
     3
 10
183.5108300873095
 20
61.44732097724878
 30
0.0
 40
5.5
  0
CIRCLE
  5
3DC
  8
0
  6
CONTINUOUS
 62
     3
 10
125.4871331878954
 20
61.44734386543237
 30
0.0
 40
5.5
  0
CIRCLE
  5
3DD
  8
0
  6
CONTINUOUS
 62
     3
 10
154.4989740082079
 20
11.19733242134058
 30
0.0
 40
5.5
  0
LINE
  5
3DE
  8
0
  6
CONTINUOUS
 62
     2
 10
154.4989757966435
 20
117.6973283986247
 30
0.0
 11
151.4678861033356
 21
115.9473297546304
 31
0.0
  0
LINE
  5
3DF
  8
0
  6
CONTINUOUS
 62
     2
 10
157.5300051789565
 20
115.9472391871747
 30
0.0
 11
154.4989171545786
 21
117.6972406474885
 31
0.0
  0
LINE
  5
3E0
  8
0
  6
CONTINUOUS
 62
     2
 10
151.4678765960986
 20
115.9473324213406
 30
0.0
 11
151.4678765960986
 21
112.4473324213406
 31
0.0
  0
LINE
  5
3E1
  8
0
  6
CONTINUOUS
 62
     2
 10
151.4678908337588
 20
112.4473258977979
 30
0.0
 11
154.4989794839854
 21
110.6973254805654
 31
0.0
  0
LINE
  5
3E2
  8
0
  6
CONTINUOUS
 62
     2
 10
154.4989976164499
 20
110.6973347721966
 30
0.0
 11
157.530086683909
 21
112.4473344592722
 31
0.0
  0
LINE
  5
3E3
  8
0
  6
CONTINUOUS
 62
     2
 10
157.5300714203173
 20
112.4473324213406
 30
0.0
 11
157.5300714203173
 21
115.9473324213406
 31
0.0
  0
LINE
  5
3E4
  8
0
  6
CONTINUOUS
 62
     2
 10
154.4989667230788
 20
92.69732477797267
 30
0.0
 11
151.4678770297709
 21
90.94732613397834
 31
0.0
  0
LINE
  5
3E5
  8
0
  6
CONTINUOUS
 62
     2
 10
157.5300236531767
 20
90.94729261310172
 30
0.0
 11
154.4989356287989
 21
92.69729407341552
 31
0.0
  0
LINE
  5
3E6
  8
0
  6
CONTINUOUS
 62
     2
 10
151.4678765960986
 20
90.94733242134058
 30
0.0
 11
151.4678765960986
 21
87.44733242134058
 31
0.0
  0
LINE
  5
3E7
  8
0
  6
CONTINUOUS
 62
     2
 10
151.4678590046511
 20
87.44730752000046
 30
0.0
 11
154.4989476548777
 21
85.69730710276795
 31
0.0
  0
LINE
  5
3E8
  8
0
  6
CONTINUOUS
 62
     2
 10
154.498991627617
 20
85.69734100208839
 30
0.0
 11
157.5300806950761
 21
87.44734068916401
 31
0.0
  0
LINE
  5
3E9
  8
0
  6
CONTINUOUS
 62
     2
 10
157.5300714203173
 20
87.44733242134058
 30
0.0
 11
157.5300714203173
 21
90.94733242134058
 31
0.0
  0
LINE
  5
3EA
  8
0
  6
CONTINUOUS
 62
     2
 10
214.6877002696853
 20
13.44732247781226
 30
0.0
 11
211.6566105763774
 21
11.69732383381793
 31
0.0
  0
LINE
  5
3EB
  8
0
  6
CONTINUOUS
 62
     2
 10
217.718784567529
 20
11.69733953507117
 30
0.0
 11
214.6876965431512
 21
13.44734099538496
 31
0.0
  0
LINE
  5
3EC
  8
0
  6
CONTINUOUS
 62
     2
 10
211.6566278168017
 20
11.69733623603784
 30
0.0
 11
211.6566278168017
 21
8.197336236037842
 31
0.0
  0
LINE
  5
3ED
  8
0
  6
CONTINUOUS
 62
     2
 10
211.6566475365222
 20
8.197313384923433
 30
0.0
 11
214.6877361867488
 21
6.44731296769092
 31
0.0
  0
LINE
  5
3EE
  8
0
  6
CONTINUOUS
 62
     2
 10
214.6877040161731
 20
6.447352265573187
 30
0.0
 11
217.7187930836323
 21
8.197351952648802
 31
0.0
  0
LINE
  5
3EF
  8
0
  6
CONTINUOUS
 62
     2
 10
217.7188073822314
 20
8.197336236037842
 30
0.0
 11
217.7188073822314
 21
11.69733623603784
 31
0.0
  0
LINE
  5
3F0
  8
0
  6
CONTINUOUS
 62
     2
 10
193.0370785711285
 20
25.94731864666133
 30
0.0
 11
190.0059888778206
 21
24.197320002667
 31
0.0
  0
LINE
  5
3F1
  8
0
  6
CONTINUOUS
 62
     2
 10
196.068149962966
 20
24.19730930024539
 30
0.0
 11
193.0370619385882
 21
25.94731076055919
 31
0.0
  0
LINE
  5
3F2
  8
0
  6
CONTINUOUS
 62
     2
 10
190.0059930511767
 20
24.19733432868921
 30
0.0
 11
190.0059930511767
 21
20.69733432868921
 31
0.0
  0
LINE
  5
3F3
  8
0
  6
CONTINUOUS
 62
     2
 10
190.0059878916223
 20
20.69733162394837
 30
0.0
 11
193.0370765418489
 21
18.94733120671586
 31
0.0
  0
LINE
  5
3F4
  8
0
  6
CONTINUOUS
 62
     2
 10
193.0370913149028
 20
18.94734846709267
 30
0.0
 11
196.0681803823619
 21
20.69734815416828
 31
0.0
  0
LINE
  5
3F5
  8
0
  6
CONTINUOUS
 62
     2
 10
196.0681726166064
 20
20.69733432868921
 30
0.0
 11
196.0681726166064
 21
24.19733242134058
 31
0.0
  0
LINE
  5
3F6
  8
0
  6
CONTINUOUS
 62
     2
 10
115.9608616827827
 20
25.94732267236091
 30
0.0
 11
112.9297719894748
 21
24.19732402836658
 31
0.0
  0
LINE
  5
3F7
  8
0
  6
CONTINUOUS
 62
     2
 10
118.9919535781183
 20
24.19733516328384
 30
0.0
 11
115.9608655537405
 21
25.94733662359764
 31
0.0
  0
LINE
  5
3F8
  8
0
  6
CONTINUOUS
 62
     2
 10
112.9297753998095
 20
24.19733432868921
 30
0.0
 11
112.9297753998095
 21
20.69733432868921
 31
0.0
  0
LINE
  5
3F9
  8
0
  6
CONTINUOUS
 62
     2
 10
112.9297740270109
 20
20.6973317249514
 30
0.0
 11
115.9608626772375
 21
18.94733130771888
 31
0.0
  0
LINE
  5
3FA
  8
0
  6
CONTINUOUS
 62
     2
 10
115.9608568258
 20
18.94734171565565
 30
0.0
 11
118.9919458932591
 21
20.69734140273127
 31
0.0
  0
LINE
  5
3FB
  8
0
  6
CONTINUOUS
 62
     2
 10
118.9919549652392
 20
20.69733432868921
 30
0.0
 11
118.9919549652392
 21
24.19733242134058
 31
0.0
  0
LINE
  5
3FC
  8
0
  6
CONTINUOUS
 62
     2
 10
94.31022953089621
 20
13.44733286918441
 30
0.0
 11
91.27913983758833
 21
11.69733422519008
 31
0.0
  0
LINE
  5
3FD
  8
0
  6
CONTINUOUS
 62
     2
 10
97.34132218897378
 20
11.69733192539493
 30
0.0
 11
94.31023416459595
 21
13.44733338570873
 31
0.0
  0
LINE
  5
3FE
  8
0
  6
CONTINUOUS
 62
     2
 10
91.2791406341845
 20
11.69733623603784
 30
0.0
 11
91.2791406341845
 21
8.197336236037842
 31
0.0
  0
LINE
  5
3FF
  8
0
  6
CONTINUOUS
 62
     2
 10
91.27913466273878
 20
8.197345548932532
 30
0.0
 11
94.31022331296538
 21
6.447345131700018
 31
0.0
  0
LINE
  5
400
  8
0
  6
CONTINUOUS
 62
     2
 10
94.31022062966349
 20
6.447343950829833
 30
0.0
 11
97.3413096971226
 21
8.197343637905448
 31
0.0
  0
LINE
  5
401
  8
0
  6
CONTINUOUS
 62
     2
 10
97.34132019961419
 20
8.197336236037842
 30
0.0
 11
97.34132019961419
 21
11.69733623603784
 31
0.0
  0
LINE
  5
402
  8
0
  6
CONTINUOUS
 62
     2
 10
151.9441853716145
 20
12.67233406521078
 30
0.0
 11
154.4989724210337
 21
14.14733753120996
 31
0.0
  0
LINE
  5
403
  8
0
  6
CONTINUOUS
 62
     2
 10
154.4989579878067
 20
14.14733438103454
 30
0.0
 11
157.0537413447029
 21
12.67232458499589
 31
0.0
  0
LINE
  5
404
  8
0
  6
CONTINUOUS
 62
     2
 10
157.0537530609423
 20
12.67232898811304
 30
0.0
 11
157.0537530609423
 21
9.7223291788479
 31
0.0
  0
LINE
  5
405
  8
0
  6
CONTINUOUS
 62
     2
 10
157.0537446525508
 20
9.722323248489516
 30
0.0
 11
154.4989576031315
 21
8.247319870407551
 31
0.0
  0
LINE
  5
406
  8
0
  6
CONTINUOUS
 62
     2
 10
154.4989937273582
 20
8.247330254222248
 30
0.0
 11
151.9442094912898
 21
9.722338643585459
 31
0.0
  0
LINE
  5
407
  8
0
  6
CONTINUOUS
 62
     2
 10
151.9441949554736
 20
9.722333947219482
 30
0.0
 11
151.9441949554736
 21
12.67233375648462
 31
0.0
  0
LINE
  5
408
  8
0
  6
CONTINUOUS
 62
     2
 10
122.9323467714328
 20
62.92234106742049
 30
0.0
 11
125.4871338208521
 21
64.39734453341967
 31
0.0
  0
LINE
  5
409
  8
0
  6
CONTINUOUS
 62
     2
 10
125.4871283698332
 20
64.3973324313553
 30
0.0
 11
128.0418985122416
 21
62.92233026473028
 31
0.0
  0
LINE
  5
40A
  8
0
  6
CONTINUOUS
 62
     2
 10
128.0418969818408
 20
62.9223385248562
 30
0.0
 11
128.0418969818408
 21
59.97234157661401
 31
0.0
  0
LINE
  5
40B
  8
0
  6
CONTINUOUS
 62
     2
 10
128.0418987217209
 20
59.97234594292755
 30
0.0
 11
125.4871116723017
 21
58.49734256484558
 31
0.0
  0
LINE
  5
40C
  8
0
  6
CONTINUOUS
 62
     2
 10
125.4871307368868
 20
58.49735086274555
 30
0.0
 11
122.9323597153108
 21
59.97235162270241
 31
0.0
  0
LINE
  5
40D
  8
0
  6
CONTINUOUS
 62
     2
 10
122.9323541351611
 20
59.97234539131128
 30
0.0
 11
122.9323541351611
 21
62.92234615425073
 31
0.0
  0
LINE
  5
40E
  8
0
  6
CONTINUOUS
 62
     2
 10
180.9560442982103
 20
62.92231979612475
 30
0.0
 11
183.5108313476295
 21
64.39732326212393
 31
0.0
  0
LINE
  5
40F
  8
0
  6
CONTINUOUS
 62
     2
 10
183.5108223929743
 20
64.39731142414544
 30
0.0
 11
186.0656057498705
 21
62.92230162810679
 31
0.0
  0
LINE
  5
410
  8
0
  6
CONTINUOUS
 62
     2
 10
186.0656091400439
 20
62.92231563667261
 30
0.0
 11
186.0656091400439
 21
59.97231868843042
 31
0.0
  0
LINE
  5
411
  8
0
  6
CONTINUOUS
 62
     2
 10
186.0656138435849
 20
59.97232171847159
 30
0.0
 11
183.5108267941656
 21
58.49731834038963
 31
0.0
  0
LINE
  5
412
  8
0
  6
CONTINUOUS
 62
     2
 10
183.5108342793598
 20
58.49733119695716
 30
0.0
 11
180.9560500432914
 21
59.97233958632037
 31
0.0
  0
LINE
  5
413
  8
0
  6
CONTINUOUS
 62
     2
 10
180.9560510345751
 20
59.97232250312769
 30
0.0
 11
180.9560510345751
 21
62.92232326606714
 31
0.0
  0
CIRCLE
  5
414
  8
0
  6
CONTINUOUS
 62
     2
 10
154.4989740082079
 20
114.1973324213406
 30
0.0
 40
6.5
  0
CIRCLE
  5
415
  8
0
  6
CONTINUOUS
 62
     2
 10
154.4989740082079
 20
89.19733242134058
 30
0.0
 40
6.5
  0
CIRCLE
  5
416
  8
0
  6
CONTINUOUS
 62
     2
 10
214.687709970122
 20
9.947336236037842
 30
0.0
 40
6.5
  0
CIRCLE
  5
417
  8
0
  6
CONTINUOUS
 62
     2
 10
193.037075204497
 20
22.44733432868921
 30
0.0
 40
6.5
  0
CIRCLE
  5
418
  8
0
  6
CONTINUOUS
 62
     2
 10
115.9608728119189
 20
22.44733432868921
 30
0.0
 40
6.5
  0
CIRCLE
  5
419
  8
0
  6
CONTINUOUS
 62
     2
 10
94.31023804629388
 20
9.947336236037842
 30
0.0
 40
6.5
  0
CIRCLE
  5
41A
  8
0
  6
CONTINUOUS
 62
     2
 10
154.4989740082079
 20
11.19733242134058
 30
0.0
 40
5.0
  0
CIRCLE
  5
41B
  8
0
  6
CONTINUOUS
 62
     2
 10
125.4871331878954
 20
61.44734386543237
 30
0.0
 40
5.0
  0
CIRCLE
  5
41C
  8
0
  6
CONTINUOUS
 62
     2
 10
183.5108300873095
 20
61.44732097724878
 30
0.0
 40
5.0
  0
LINE
  5
41D
  8
0
  6
CONTINUOUS
 62
     4
 10
39.84523032385152
 20
-25.42402995665768
 30
0.0
 11
58.03176142498126
 21
-14.92403248985497
 31
0.0
  0
LINE
  5
41E
  8
0
  6
CONTINUOUS
 62
     4
 10
36.44521960082591
 20
-19.53506850505252
 30
0.0
 11
54.63176722008018
 21
-9.035061501507215
 31
0.0
  0
LINE
  5
41F
  8
0
  6
CONTINUOUS
 62
     4
 10
14.66149967126864
 20
8.995463394404311
 30
0.0
 11
24.66150086336154
 21
-8.325044370411973
 31
0.0
  0
LINE
  5
420
  8
0
  6
CONTINUOUS
 62
     4
 10
8.772549897890201
 20
5.595470685124809
 30
0.0
 11
18.77255061314588
 21
-11.72503625378531
 31
0.0
  0
LINE
  5
421
  8
0
  6
CONTINUOUS
 62
     4
 10
-127.4434698394483
 20
78.69733242134058
 30
0.0
 11
-114.4434698394483
 21
78.69733242134058
 31
0.0
  0
LINE
  5
422
  8
0
  6
CONTINUOUS
 62
     4
 10
-127.4434698394483
 20
10.69733242134058
 30
0.0
 11
-122.4434698394483
 21
10.69733242134058
 31
0.0
  0
LINE
  5
423
  8
0
  6
CONTINUOUS
 62
     4
 10
-121.9434698394483
 20
16.19733242134058
 30
0.0
 11
-121.9434698394483
 21
7.697332421340576
 31
0.0
  0
LINE
  5
424
  8
0
  6
CONTINUOUS
 62
     4
 10
-118.9434698394483
 20
16.19733242134058
 30
0.0
 11
-118.9434698394483
 21
7.697332421340576
 31
0.0
  0
LINE
  5
425
  8
0
  6
CONTINUOUS
 62
     4
 10
-118.4434698394483
 20
10.69733242134058
 30
0.0
 11
-114.4434698394483
 21
10.69733242134058
 31
0.0
  0
LINE
  5
426
  8
0
  6
CONTINUOUS
 62
     4
 10
-56.99347289120613
 20
127.1973324213406
 30
0.0
 11
-56.99347289120613
 21
122.1973324213406
 31
0.0
  0
LINE
  5
427
  8
0
  6
CONTINUOUS
 62
     4
 10
-55.99347289120613
 20
127.1973324213406
 30
0.0
 11
-55.99347289120613
 21
122.1973324213406
 31
0.0
  0
LINE
  5
428
  8
0
  6
CONTINUOUS
 62
     4
 10
-68.99347289120613
 20
117.5473308954617
 30
0.0
 11
-47.99347289120613
 21
117.5473308954617
 31
0.0
  0
LINE
  5
429
  8
0
  6
CONTINUOUS
 62
     4
 10
-68.99347289120613
 20
110.8473339472195
 30
0.0
 11
-47.99347289120613
 21
110.8473339472195
 31
0.0
  0
LINE
  5
42A
  8
0
  6
CONTINUOUS
 62
     4
 10
-68.99347289120613
 20
92.54733089546167
 30
0.0
 11
-47.99347289120613
 21
92.54733089546167
 31
0.0
  0
LINE
  5
42B
  8
0
  6
CONTINUOUS
 62
     4
 10
-68.99347289120613
 20
85.84733394721948
 30
0.0
 11
-47.99347289120613
 21
85.84733394721948
 31
0.0
  0
LINE
  5
42C
  8
0
  6
CONTINUOUS
 62
     4
 10
-56.99347289120613
 20
81.19733242134058
 30
0.0
 11
-56.99347289120613
 21
79.19733242134058
 31
0.0
  0
LINE
  5
42D
  8
0
  6
CONTINUOUS
 62
     4
 10
-55.99347289120613
 20
81.19733242134058
 30
0.0
 11
-55.99347289120613
 21
79.19733242134058
 31
0.0
  0
LINE
  5
42E
  8
0
  6
CONTINUOUS
 62
     4
 10
-76.99347289120613
 20
13.74733261207544
 30
0.0
 11
-63.99347289120613
 21
13.74733261207544
 31
0.0
  0
LINE
  5
42F
  8
0
  6
CONTINUOUS
 62
     4
 10
-76.99347289120613
 20
8.647333184280029
 30
0.0
 11
-63.99347289120613
 21
8.647333184280029
 31
0.0
  0
LINE
  5
430
  8
0
  6
CONTINUOUS
 62
     4
 10
-163.9934728912061
 20
-11.98766513725317
 30
0.0
 11
-131.9934728912061
 21
-11.98766513725317
 31
0.0
  0
LINE
  5
431
  8
0
  6
CONTINUOUS
 62
     4
 10
-163.9934728912061
 20
-3.38766666313208
 30
0.0
 11
-131.9934728912061
 21
-3.38766666313208
 31
0.0
  0
LINE
  5
432
  8
0
  6
CONTINUOUS
 62
     4
 10
-152.4434698394483
 20
70.69733242134058
 30
0.0
 11
-136.4434698394483
 21
70.69733242134058
 31
0.0
  0
LINE
  5
433
  8
0
  6
CONTINUOUS
 62
     4
 10
-152.4434698394483
 20
18.69733242134058
 30
0.0
 11
-136.4434698394483
 21
18.69733242134058
 31
0.0
  0
LINE
  5
434
  8
0
  6
CONTINUOUS
 62
     4
 10
160.9989740082079
 20
80.69733242134058
 30
0.0
 11
167.4989740082079
 21
80.69733242134058
 31
0.0
  0
LINE
  5
435
  8
0
  6
CONTINUOUS
 62
     4
 10
141.4989740082079
 20
80.69733242134058
 30
0.0
 11
147.9989740082079
 21
80.69733242134058
 31
0.0
  0
LINE
  5
436
  8
0
  6
CONTINUOUS
 62
     4
 10
188.925934554031
 20
32.32648308113417
 30
0.0
 11
192.1759349414612
 21
37.95564810469946
 31
0.0
  0
LINE
  5
437
  8
0
  6
CONTINUOUS
 62
     4
 10
179.1759372064381
 20
15.43899461768766
 30
0.0
 11
182.4259375938683
 21
21.06815964125295
 31
0.0
  0
LINE
  5
438
  8
0
  6
CONTINUOUS
 62
     4
 10
141.4989740082079
 20
125.6973324213406
 30
0.0
 11
147.9989740082079
 21
125.6973324213406
 31
0.0
  0
LINE
  5
439
  8
0
  6
CONTINUOUS
 62
     4
 10
160.9989740082079
 20
125.6973324213406
 30
0.0
 11
167.4989740082079
 21
125.6973324213406
 31
0.0
  0
LINE
  5
43A
  8
0
  6
CONTINUOUS
 62
     4
 10
227.8970902393663
 20
9.826472769529715
 30
0.0
 11
231.1470906267965
 21
15.45563779309501
 31
0.0
  0
LINE
  5
43B
  8
0
  6
CONTINUOUS
 62
     4
 10
218.147085262378
 20
-7.061028908415523
 30
0.0
 11
221.3970856498082
 21
-1.43186388485023
 31
0.0
  0
LINE
  5
43C
  8
0
  6
CONTINUOUS
 62
     4
 10
180.4749752887993
 20
14.68899452828069
 30
0.0
 11
183.7249756762295
 21
20.31815955184598
 31
0.0
  0
LINE
  5
43D
  8
0
  6
CONTINUOUS
 62
     4
 10
181.7740171858583
 20
13.93900104612308
 30
0.0
 11
185.0240175732885
 21
19.56816606968837
 31
0.0
  0
LINE
  5
43E
  8
0
  6
CONTINUOUS
 62
     4
 10
183.0730212098266
 20
13.18900300100827
 30
0.0
 11
186.3230215972568
 21
18.81816802457357
 31
0.0
  0
LINE
  5
43F
  8
0
  6
CONTINUOUS
 62
     4
 10
184.3720763213843
 20
12.43900188945523
 30
0.0
 11
187.2147013245582
 21
17.36257214651337
 31
0.0
  0
LINE
  5
440
  8
0
  6
CONTINUOUS
 62
     4
 10
190.2249726363922
 20
31.5764829917272
 30
0.0
 11
193.4749730238224
 21
37.2056480152925
 31
0.0
  0
LINE
  5
441
  8
0
  6
CONTINUOUS
 62
     4
 10
191.5240183481488
 20
30.82649611681896
 30
0.0
 11
194.774018735579
 21
36.45566114038425
 31
0.0
  0
LINE
  5
442
  8
0
  6
CONTINUOUS
 62
     4
 10
192.8230223721172
 20
30.07649807170415
 30
0.0
 11
196.0730227595474
 21
35.70566309526944
 31
0.0
  0
LINE
  5
443
  8
0
  6
CONTINUOUS
 62
     4
 10
194.4978976883882
 20
29.97743655994432
 30
0.0
 11
197.3720816858028
 21
34.95566859096576
 31
0.0
  0
LINE
  5
444
  8
0
  6
CONTINUOUS
 62
     4
 10
226.5980653715038
 20
10.57646522954124
 30
0.0
 11
229.848065758934
 21
16.20563025310653
 31
0.0
  0
LINE
  5
445
  8
0
  6
CONTINUOUS
 62
     4
 10
225.2989876456464
 20
11.32648820713453
 30
0.0
 11
228.5489880330766
 21
16.95565323069982
 31
0.0
  0
LINE
  5
446
  8
0
  6
CONTINUOUS
 62
     4
 10
223.9999704071794
 20
12.07649388164478
 30
0.0
 11
227.2499707946096
 21
17.70565890521007
 31
0.0
  0
LINE
  5
447
  8
0
  6
CONTINUOUS
 62
     4
 10
222.7009455393169
 20
12.82648634165631
 30
0.0
 11
225.9509459267471
 21
18.4556513652216
 31
0.0
  0
LINE
  5
448
  8
0
  6
CONTINUOUS
 62
     4
 10
216.8480603945155
 20
-6.311036448403996
 30
0.0
 11
220.0980607819457
 21
-0.6818714248387039
 31
0.0
  0
LINE
  5
449
  8
0
  6
CONTINUOUS
 62
     4
 10
215.5489864833559
 20
-5.561006863561346
 30
0.0
 11
218.7989868707861
 21
0.0681581600039465
 31
0.0
  0
LINE
  5
44A
  8
0
  6
CONTINUOUS
 62
     4
 10
214.2499616154934
 20
-4.81101440354982
 30
0.0
 11
217.4999620029236
 21
0.8181506200154729
 31
0.0
  0
LINE
  5
44B
  8
0
  6
CONTINUOUS
 62
     4
 10
212.9509367476309
 20
-4.061021943538293
 30
0.0
 11
216.2009371350611
 21
1.568143080026999
 31
0.0
  0
LINE
  5
44C
  8
0
  6
CONTINUOUS
 62
     4
 10
160.9989740082079
 20
124.1973324213406
 30
0.0
 11
167.4989740082079
 21
124.1973324213406
 31
0.0
  0
LINE
  5
44D
  8
0
  6
CONTINUOUS
 62
     4
 10
160.9989740082079
 20
122.6973324213406
 30
0.0
 11
167.4989740082079
 21
122.6973324213406
 31
0.0
  0
LINE
  5
44E
  8
0
  6
CONTINUOUS
 62
     4
 10
160.9989740082079
 20
121.1973324213406
 30
0.0
 11
167.4989740082079
 21
121.1973324213406
 31
0.0
  0
LINE
  5
44F
  8
0
  6
CONTINUOUS
 62
     4
 10
160.9989740082079
 20
119.6973324213406
 30
0.0
 11
167.4989740082079
 21
119.6973324213406
 31
0.0
  0
LINE
  5
450
  8
0
  6
CONTINUOUS
 62
     4
 10
141.4989740082079
 20
124.1973324213406
 30
0.0
 11
147.9989740082079
 21
124.1973324213406
 31
0.0
  0
LINE
  5
451
  8
0
  6
CONTINUOUS
 62
     4
 10
141.4989740082079
 20
122.6973324213406
 30
0.0
 11
147.9989740082079
 21
122.6973324213406
 31
0.0
  0
LINE
  5
452
  8
0
  6
CONTINUOUS
 62
     4
 10
141.4989740082079
 20
121.1973324213406
 30
0.0
 11
147.9989740082079
 21
121.1973324213406
 31
0.0
  0
LINE
  5
453
  8
0
  6
CONTINUOUS
 62
     4
 10
141.4989740082079
 20
119.6973324213406
 30
0.0
 11
147.9989740082079
 21
119.6973324213406
 31
0.0
  0
LINE
  5
454
  8
0
  6
CONTINUOUS
 62
     4
 10
141.4989740082079
 20
82.19733242134058
 30
0.0
 11
147.9989740082079
 21
82.19733242134058
 31
0.0
  0
LINE
  5
455
  8
0
  6
CONTINUOUS
 62
     4
 10
141.4989740082079
 20
83.69733242134058
 30
0.0
 11
147.9989740082079
 21
83.69733242134058
 31
0.0
  0
LINE
  5
456
  8
0
  6
CONTINUOUS
 62
     4
 10
141.4989740082079
 20
85.19733242134058
 30
0.0
 11
147.9989740082079
 21
85.19733242134058
 31
0.0
  0
LINE
  5
457
  8
0
  6
CONTINUOUS
 62
     4
 10
141.4989740082079
 20
86.69733242134058
 30
0.0
 11
147.1448938080126
 21
86.69733242134058
 31
0.0
  0
LINE
  5
458
  8
0
  6
CONTINUOUS
 62
     4
 10
160.9989740082079
 20
82.19733242134058
 30
0.0
 11
167.4989740082079
 21
82.19733242134058
 31
0.0
  0
LINE
  5
459
  8
0
  6
CONTINUOUS
 62
     4
 10
160.9989740082079
 20
83.69733242134058
 30
0.0
 11
167.4989740082079
 21
83.69733242134058
 31
0.0
  0
LINE
  5
45A
  8
0
  6
CONTINUOUS
 62
     4
 10
160.9989740082079
 20
85.19733242134058
 30
0.0
 11
167.4989740082079
 21
85.19733242134058
 31
0.0
  0
LINE
  5
45B
  8
0
  6
CONTINUOUS
 62
     4
 10
162.0948907562548
 20
86.69733242134058
 30
0.0
 11
167.4989740082079
 21
86.69733242134058
 31
0.0
  0
LINE
  5
45C
  8
0
  6
CONTINUOUS
 62
     4
 10
-43.99347150553092
 20
88.19733952839047
 30
0.0
 11
-40.99346294120494
 21
86.46528396756654
 31
0.0
  0
LINE
  5
45D
  8
0
  6
CONTINUOUS
 62
     4
 10
-43.99348608052549
 20
113.1973474542944
 30
0.0
 11
-40.99347751619951
 21
111.4652918934704
 31
0.0
  0
LINE
  5
45E
  8
0
  6
CONTINUOUS
 62
     4
 10
-46.99347800711769
 20
111.4652990606782
 30
0.0
 11
-43.99347935366643
 21
113.1973488994566
 31
0.0
  0
LINE
  5
45F
  8
0
  6
CONTINUOUS
 62
     4
 10
-46.99347472700936
 20
86.46529263375572
 30
0.0
 11
-43.99347855127678
 21
88.19734104202271
 31
0.0
  0
LINE
  5
460
  8
0
  6
CONTINUOUS
 62
     4
 10
-45.99347575789159
 20
88.19734186095698
 30
0.0
 11
-40.99347249609798
 21
85.31058895074548
 31
0.0
  0
LINE
  5
461
  8
0
  6
CONTINUOUS
 62
     4
 10
-46.9934661433939
 20
87.61998598208712
 30
0.0
 11
-40.9934754437412
 21
84.15589011922739
 31
0.0
  0
LINE
  5
462
  8
0
  6
CONTINUOUS
 62
     4
 10
-46.99346248378731
 20
86.46528333587199
 30
0.0
 11
-42.19924201750416
 21
83.69733916491683
 31
0.0
  0
LINE
  5
463
  8
0
  6
CONTINUOUS
 62
     4
 10
-46.99347203868035
 20
85.31058831905094
 30
0.0
 11
-44.19924626986483
 21
83.69734149748334
 31
0.0
  0
LINE
  5
464
  8
0
  6
CONTINUOUS
 62
     4
 10
-46.99346837907376
 20
84.15588567283581
 30
0.0
 11
-46.19923730772587
 21
83.69733620065577
 31
0.0
  0
LINE
  5
465
  8
0
  6
CONTINUOUS
 62
     4
 10
-46.99347940876021
 20
85.31060701673727
 30
0.0
 11
-41.99348192831019
 21
88.19735658908886
 31
0.0
  0
LINE
  5
466
  8
0
  6
CONTINUOUS
 62
     4
 10
-46.99347378716027
 20
84.15589210969677
 30
0.0
 11
-40.99347400253907
 21
87.61999321776492
 31
0.0
  0
LINE
  5
467
  8
0
  6
CONTINUOUS
 62
     4
 10
-45.78770803930354
 20
83.69734067854907
 30
0.0
 11
-40.99347601033321
 21
86.46529152522405
 31
0.0
  0
LINE
  5
468
  8
0
  6
CONTINUOUS
 62
     4
 10
-43.78770811271204
 20
83.69735813296373
 30
0.0
 11
-40.9934757366467
 21
85.31060876922837
 31
0.0
  0
LINE
  5
469
  8
0
  6
CONTINUOUS
 62
     4
 10
-41.78770449001956
 20
83.69734248265931
 30
0.0
 11
-40.99347341867167
 21
84.15589195483935
 31
0.0
  0
LINE
  5
46A
  8
0
  6
CONTINUOUS
 62
     4
 10
-45.9934799109393
 20
113.1973525794137
 30
0.0
 11
-40.99347004189588
 21
110.3105958545051
 31
0.0
  0
LINE
  5
46B
  8
0
  6
CONTINUOUS
 62
     4
 10
-46.99347131858588
 20
112.6199796713471
 30
0.0
 11
-40.99346740443355
 21
109.1558761790933
 31
0.0
  0
LINE
  5
46C
  8
0
  6
CONTINUOUS
 62
     4
 10
-46.99346663683502
 20
111.4652940543287
 30
0.0
 11
-42.19924617055187
 21
108.6973498833735
 31
0.0
  0
LINE
  5
46D
  8
0
  6
CONTINUOUS
 62
     4
 10
-46.99347619172806
 20
110.3105990375076
 30
0.0
 11
-44.19925042291254
 21
108.69735221594
 31
0.0
  0
LINE
  5
46E
  8
0
  6
CONTINUOUS
 62
     4
 10
-46.99347634681851
 20
109.1558897840427
 30
0.0
 11
-46.19925188272043
 21
108.6973441265597
 31
0.0
  0
LINE
  5
46F
  8
0
  6
CONTINUOUS
 62
     4
 10
-46.9934788741715
 20
110.31060683641
 30
0.0
 11
-41.99348221962771
 21
113.1973559319244
 31
0.0
  0
LINE
  5
470
  8
0
  6
CONTINUOUS
 62
     4
 10
-46.99348418559055
 20
109.1559032365206
 30
0.0
 11
-40.99348687868803
 21
112.6200029140773
 31
0.0
  0
LINE
  5
471
  8
0
  6
CONTINUOUS
 62
     4
 10
-45.78770502699615
 20
108.6973419287332
 30
0.0
 11
-40.99347464983828
 21
111.4652918217339
 31
0.0
  0
LINE
  5
472
  8
0
  6
CONTINUOUS
 62
     4
 10
-43.78770840402956
 20
108.6973574757993
 30
0.0
 11
-40.99347933158913
 21
110.3106062047154
 31
0.0
  0
LINE
  5
473
  8
0
  6
CONTINUOUS
 62
     4
 10
-41.78770910710625
 20
108.697356947343
 30
0.0
 11
-40.99348133938327
 21
109.1559045121745
 31
0.0
  0
LINE
  5
474
  8
0
  6
CONTINUOUS
 62
     4
 10
-46.99347218462651
 20
112.6199941459693
 30
0.0
 11
-45.9934748358927
 21
113.1973428206631
 31
0.0
  0
LINE
  5
475
  8
0
  6
CONTINUOUS
 62
     4
 10
-41.99348182816482
 20
113.1973451217279
 30
0.0
 11
-40.99347456855628
 21
112.6199907249885
 31
0.0
  0
LINE
  5
476
  8
0
  6
CONTINUOUS
 62
     4
 10
-41.99346916051877
 20
88.19733389219906
 30
0.0
 11
-40.99346850816005
 21
87.61998331015676
 31
0.0
  0
LINE
  5
477
  8
0
  6
CONTINUOUS
 62
     4
 10
-46.99347437102767
 20
87.61999337262233
 30
0.0
 11
-45.99347867410631
 21
88.19734109364185
 31
0.0
  0
LINE
  5
478
  8
0
  6
CONTINUOUS
 62
     4
 10
58.5638246135444
 20
-13.8455646713397
 30
0.0
 11
60.29587476203744
 21
-10.84556622436489
 31
0.0
  0
LINE
  5
479
  8
0
  6
CONTINUOUS
 62
     4
 10
60.295864266997
 20
-10.84556575676001
 30
0.0
 11
63.759975595122
 21
-10.84556575676001
 31
0.0
  0
LINE
  5
47A
  8
0
  6
CONTINUOUS
 62
     4
 10
8.850998086577079
 20
6.795466939010254
 30
0.0
 11
8.850998086577079
 21
10.25956729988062
 31
0.0
  0
LINE
  5
47B
  8
0
  6
CONTINUOUS
 62
     4
 10
5.850996320365255
 20
11.99162415529173
 30
0.0
 11
8.851000755160101
 21
10.25957097865344
 31
0.0
  0
LINE
  5
47C
  8
0
  6
CONTINUOUS
 62
     4
 10
4.850994942545924
 20
11.41427021800539
 30
0.0
 11
9.850998204339533
 21
8.527517307793886
 31
0.0
  0
LINE
  5
47D
  8
0
  6
CONTINUOUS
 62
     4
 10
3.850996012796259
 20
10.83692147457496
 30
0.0
 11
9.851001165807929
 21
7.372817267065472
 31
0.0
  0
LINE
  5
47E
  8
0
  6
CONTINUOUS
 62
     4
 10
4.056762233210748
 20
9.563421771613179
 30
0.0
 11
8.851000869430891
 21
6.795467110241162
 31
0.0
  0
LINE
  5
47F
  8
0
  6
CONTINUOUS
 62
     4
 10
5.056761938807796
 20
7.831370101635173
 30
0.0
 11
7.851000096216723
 21
6.218116127510626
 31
0.0
  0
LINE
  5
480
  8
0
  6
CONTINUOUS
 62
     4
 10
6.056762121241974
 20
6.099319257563394
 30
0.0
 11
6.85099814802723
 21
5.640766924360577
 31
0.0
  0
LINE
  5
481
  8
0
  6
CONTINUOUS
 62
     4
 10
7.850998086577079
 20
6.218116799392334
 30
0.0
 11
7.850998086577079
 21
11.99161819557153
 31
0.0
  0
LINE
  5
482
  8
0
  6
CONTINUOUS
 62
     4
 10
6.850998086577079
 20
5.640766182937256
 30
0.0
 11
6.850998086577079
 21
12.56897358039819
 31
0.0
  0
LINE
  5
483
  8
0
  6
CONTINUOUS
 62
     4
 10
5.850998086577079
 20
6.455710450210205
 30
0.0
 11
5.850998086577079
 21
11.99162296394312
 31
0.0
  0
LINE
  5
484
  8
0
  6
CONTINUOUS
 62
     4
 10
4.850998086577079
 20
8.187761345901123
 30
0.0
 11
4.850998086577079
 21
11.41427234748804
 31
0.0
  0
LINE
  5
485
  8
0
  6
CONTINUOUS
 62
     4
 10
3.850998086577079
 20
9.919811287917725
 30
0.0
 11
3.850998086577079
 21
10.83692268470728
 31
0.0
  0
LINE
  5
486
  8
0
  6
CONTINUOUS
 62
     4
 10
58.56381623232903
 20
-11.84556575676001
 30
0.0
 11
64.33732239687981
 21
-11.84556575676001
 31
0.0
  0
LINE
  5
487
  8
0
  6
CONTINUOUS
 62
     4
 10
57.98647705996575
 20
-12.84556575676001
 30
0.0
 11
64.91467682803216
 21
-12.84556575676001
 31
0.0
  0
LINE
  5
488
  8
0
  6
CONTINUOUS
 62
     4
 10
58.56382386172356
 20
-13.84556575676001
 30
0.0
 11
64.09970490420403
 21
-13.84556575676001
 31
0.0
  0
LINE
  5
489
  8
0
  6
CONTINUOUS
 62
     4
 10
59.14117066348138
 20
-14.84556575676001
 30
0.0
 11
62.36765686953606
 21
-14.84556575676001
 31
0.0
  0
LINE
  5
48A
  8
0
  6
CONTINUOUS
 62
     4
 10
59.71852509463372
 20
-15.84556575676001
 30
0.0
 11
60.63560120547356
 21
-15.84556575676001
 31
0.0
  0
LINE
  5
48B
  8
0
  6
CONTINUOUS
 62
     4
 10
59.14117656649376
 20
-14.84556171908625
 30
0.0
 11
62.02792617819921
 21
-9.845565408669785
 31
0.0
  0
LINE
  5
48C
  8
0
  6
CONTINUOUS
 62
     4
 10
59.71852661209425
 20
-15.84556207045748
 30
0.0
 11
63.18262690908034
 21
-9.845565176507847
 31
0.0
  0
LINE
  5
48D
  8
0
  6
CONTINUOUS
 62
     4
 10
60.99203889602802
 20
-15.63978947889527
 30
0.0
 11
63.75998451560463
 21
-10.84556769076445
 31
0.0
  0
LINE
  5
48E
  8
0
  6
CONTINUOUS
 62
     4
 10
62.72408935851536
 20
-14.63979031501251
 30
0.0
 11
64.33733456120513
 21
-11.84556804213568
 31
0.0
  0
LINE
  5
48F
  8
0
  6
CONTINUOUS
 62
     4
 10
64.45613130640447
 20
-13.6397906400567
 30
0.0
 11
64.91467704588183
 21
-12.84556623062153
 31
0.0
  0
LINE
  5
490
  8
0
  6
CONTINUOUS
 62
     4
 10
57.98647552161833
 20
-12.84556266815613
 30
0.0
 11
58.56382334587568
 21
-11.84556704005999
 31
0.0
  0
LINE
  5
491
  8
0
  6
CONTINUOUS
 62
     4
 10
62.0279199310595
 20
-9.84556575676001
 30
0.0
 11
63.18262116396966
 21
-9.84556575676001
 31
0.0
  0
LINE
  5
492
  8
0
  6
CONTINUOUS
 62
     4
 10
6.850994837161807
 20
12.56897313714072
 30
0.0
 11
7.850998793145436
 21
11.9916206477499
 31
0.0
  0
LINE
  5
493
  8
0
  6
CONTINUOUS
 62
     4
 10
9.850998086577079
 20
7.372817078628174
 30
0.0
 11
9.850998086577079
 21
8.527517357864014
 31
0.0
  0
LINE
  5
494
  8
0
  6
CONTINUOUS
 62
     4
 10
-67.99347600460709
 20
-10.99706517207105
 30
0.0
 11
-63.9934733951722
 21
-8.687662843901848
 31
0.0
  0
LINE
  5
495
  8
0
  6
CONTINUOUS
 62
     4
 10
-62.99348215116947
 20
9.042637067510924
 30
0.0
 11
-60.99348084645203
 21
10.19733823159552
 31
0.0
  0
LINE
  5
496
  8
0
  6
CONTINUOUS
 62
     4
 10
-60.99347876584878
 20
10.19733244327998
 30
0.0
 11
-58.99347415750643
 21
9.042629371846857
 31
0.0
  0
LINE
  5
497
  8
0
  6
CONTINUOUS
 62
     4
 10
-63.99347676827551
 20
-8.687668949077846
 30
0.0
 11
-59.99347415884063
 21
-10.99707127724705
 31
0.0
  0
LINE
  5
498
  8
0
  6
CONTINUOUS
 62
     4
 10
-62.99347729617773
 20
7.887934932367926
 30
0.0
 11
-58.99347799036775
 21
10.19733535318861
 31
0.0
  0
LINE
  5
499
  8
0
  6
CONTINUOUS
 62
     4
 10
-62.189630682379
 20
7.197337609032985
 30
0.0
 11
-58.99347599639879
 21
9.04263817348297
 31
0.0
  0
LINE
  5
49A
  8
0
  6
CONTINUOUS
 62
     4
 10
-60.18963303726815
 20
7.197336126902457
 30
0.0
 11
-58.99347635238047
 21
7.887937434616362
 31
0.0
  0
LINE
  5
49B
  8
0
  6
CONTINUOUS
 62
     4
 10
-62.99347688779676
 20
10.19733013524322
 30
0.0
 11
-58.99347427836187
 21
7.887927807074021
 31
0.0
  0
LINE
  5
49C
  8
0
  6
CONTINUOUS
 62
     4
 10
-62.99347653181508
 20
9.042629396376611
 30
0.0
 11
-59.79732514945977
 21
7.197330739275145
 31
0.0
  0
LINE
  5
49D
  8
0
  6
CONTINUOUS
 62
     4
 10
-62.99347287220849
 20
7.887926750161483
 30
0.0
 11
-61.79732279457062
 21
7.197329257144617
 31
0.0
  0
LINE
  5
49E
  8
0
  6
CONTINUOUS
 62
     4
 10
-66.9934765395667
 20
-8.68766926492512
 30
0.0
 11
-59.99347527668056
 21
-12.7291214318727
 31
0.0
  0
LINE
  5
49F
  8
0
  6
CONTINUOUS
 62
     4
 10
-67.99347500614044
 20
-9.842370744856993
 30
0.0
 11
-59.99347639452049
 21
-14.46117158649835
 31
0.0
  0
LINE
  5
4A0
  8
0
  6
CONTINUOUS
 62
     4
 10
-67.99347612398037
 20
-11.57442089948265
 30
0.0
 11
-62.60117401162847
 21
-14.68766763164328
 31
0.0
  0
LINE
  5
4A1
  8
0
  6
CONTINUOUS
 62
     4
 10
-67.9934772418203
 20
-13.3064710541083
 30
0.0
 11
-65.60117378291966
 21
-14.68766794749055
 31
0.0
  0
LINE
  5
4A2
  8
0
  6
CONTINUOUS
 62
     4
 10
-67.99348149401698
 20
-12.72911914139374
 30
0.0
 11
-60.99347692750592
 21
-8.68766506709764
 31
0.0
  0
LINE
  5
4A3
  8
0
  6
CONTINUOUS
 62
     4
 10
-67.99347707255214
 20
-14.46116738867087
 30
0.0
 11
-59.99347846093218
 21
-9.842366547029513
 31
0.0
  0
LINE
  5
4A4
  8
0
  6
CONTINUOUS
 62
     4
 10
-65.38578228223193
 20
-14.68766616707055
 30
0.0
 11
-59.99347356263021
 21
-11.57441562021288
 31
0.0
  0
LINE
  5
4A5
  8
0
  6
CONTINUOUS
 62
     4
 10
-62.38578155726648
 20
-14.68766813473027
 30
0.0
 11
-59.99347479474093
 21
-13.3064693339995
 31
0.0
  0
LINE
  5
4A6
  8
0
  6
CONTINUOUS
 62
     4
 10
-60.99348081168137
 20
-8.687675240480388
 30
0.0
 11
-59.99348015932264
 21
-9.265025822522688
 31
0.0
  0
LINE
  5
4A7
  8
0
  6
CONTINUOUS
 62
     4
 10
-67.99347381882211
 20
-9.265013110096874
 30
0.0
 11
-66.99347316646339
 21
-8.687662528054574
 31
0.0
  0
CIRCLE
  5
4A8
  8
0
  6
CONTINUOUS
 62
     4
 10
179.2477227875048
 20
69.44606594184839
 30
0.0
 40
2.5
  0
CIRCLE
  5
4A9
  8
0
  6
CONTINUOUS
 62
     4
 10
120.6915704437548
 20
53.75600246528589
 30
0.0
 40
2.5
  0
CIRCLE
  5
4AA
  8
0
  6
CONTINUOUS
 62
     4
 10
163.5576440521533
 20
10.88992885688745
 30
0.0
 40
2.5
  0
ARC
  5
4AB
  8
0
  6
CONTINUOUS
 62
     4
 10
154.4989740082079
 20
44.69733242134058
 30
0.0
 40
45.0
 50
110.1479062540461
 51
141.6044244388098
  0
ARC
  5
4AC
  8
0
  6
CONTINUOUS
 62
     4
 10
154.4989740082079
 20
44.69733242134058
 30
0.0
 40
45.0
 50
350.1478986458736
 51
381.6044040240327
  0
ARC
  5
4AD
  8
0
  6
CONTINUOUS
 62
     4
 10
154.4989740082079
 20
44.69733242134058
 30
0.0
 40
45.0
 50
230.1478722546809
 51
261.6043904394447
  0
ARC
  5
4AE
  8
0
  6
CONTINUOUS
 62
     4
 10
154.4989740082079
 20
44.69733242134058
 30
0.0
 40
51.0
 50
347.6933028279948
 51
378.7239271283834
  0
ARC
  5
4AF
  8
0
  6
CONTINUOUS
 62
     4
 10
154.4989740082079
 20
44.69733242134058
 30
0.0
 40
51.0
 50
107.6933138512619
 51
138.723956080897
  0
ARC
  5
4B0
  8
0
  6
CONTINUOUS
 62
     4
 10
154.4989740082079
 20
44.69733242134058
 30
0.0
 40
51.0
 50
227.6932798518968
 51
258.7239084211536
  0
ARC
  5
4B1
  8
0
  6
CONTINUOUS
 62
     4
 10
154.4989740082079
 20
44.69733242134058
 30
0.0
 40
45.0
 50
278.3955908912207
 51
309.8521261514573
  0
ARC
  5
4B2
  8
0
  6
CONTINUOUS
 62
     4
 10
154.4989740082079
 20
44.69733242134058
 30
0.0
 40
51.0
 50
281.2760729095118
 51
312.3067185542415
  0
ARC
  5
4B3
  8
0
  6
CONTINUOUS
 62
     4
 10
154.4989740082079
 20
44.69733242134058
 30
0.0
 40
51.0
 50
161.2760932484986
 51
192.306667176242
  0
ARC
  5
4B4
  8
0
  6
CONTINUOUS
 62
     4
 10
154.4989740082079
 20
44.69733242134058
 30
0.0
 40
45.0
 50
158.3956112302074
 51
189.8520747734578
  0
ARC
  5
4B5
  8
0
  6
CONTINUOUS
 62
     4
 10
154.4989740082079
 20
44.69733242134058
 30
0.0
 40
51.0
 50
41.27605575824849
 51
72.30670481807279
  0
ARC
  5
4B6
  8
0
  6
CONTINUOUS
 62
     4
 10
154.4989740082079
 20
44.69733242134058
 30
0.0
 40
45.0
 50
38.39559081543028
 51
69.85211241528863
  0
LINE
  5
4B7
  8
0
  6
DIVIDE
 62
     9
 10
-119.9434698394483
 20
80.69733242134058
 30
0.0
 11
-119.9434698394483
 21
74.12743190864526
 31
0.0
  0
LINE
  5
4B8
  8
0
  6
DIVIDE
 62
     9
 10
-134.9434698394483
 20
80.69733242134058
 30
0.0
 11
-134.9434698394483
 21
74.12743190864526
 31
0.0
  0
LINE
  5
4B9
  8
0
  6
DIVIDE
 62
     9
 10
-119.9434462715334
 20
80.69731726648493
 30
0.0
 11
-119.2455240935004
 21
81.39524473927773
 31
0.0
  0
LINE
  5
4BA
  8
0
  6
DIVIDE
 62
     9
 10
-134.9434435649558
 20
80.6973105141598
 30
0.0
 11
-134.3152707611104
 21
81.32548331800527
 31
0.0
  0
LINE
  5
4BB
  8
0
  6
CONTINUOUS
 62
     5
 10
205.7737983441044
 20
90.84669934961565
 30
0.0
 11
202.0237992977787
 21
97.34188810960941
 31
0.0
  0
LINE
  5
4BC
  8
0
  6
CONTINUOUS
 62
     5
 10
192.7834156131436
 20
83.34670265324033
 30
0.0
 11
205.7737964367558
 21
90.84670265324033
 31
0.0
  0
LINE
  5
4BD
  8
0
  6
CONTINUOUS
 62
     5
 10
199.3791686592605
 20
85.42264081255885
 30
0.0
 11
199.6536898864698
 21
86.44716838880882
 31
0.0
  0
LINE
  5
4BE
  8
0
  6
CONTINUOUS
 62
     5
 10
200.6781089464108
 20
86.17268365863961
 30
0.0
 11
199.6535961722399
 21
86.44720103141495
 31
0.0
  0
LINE
  5
4BF
  8
0
  6
CONTINUOUS
 62
     5
 10
199.6536249614943
 20
86.44718133058021
 30
0.0
 11
201.9036278225173
 21
82.55006212805952
 31
0.0
  0
LINE
  5
4C0
  8
0
  6
CONTINUOUS
 62
     5
 10
201.9037128828555
 20
82.55003671729006
 30
0.0
 11
202.1782341100649
 21
83.57456429354002
 31
0.0
  0
LINE
  5
4C1
  8
0
  6
CONTINUOUS
 62
     5
 10
201.9036226437362
 20
82.55008400392231
 30
0.0
 11
200.879095130707
 21
82.82460532596284
 31
0.0
  0
LINE
  5
4C2
  8
0
  6
CONTINUOUS
 62
     5
 10
198.1395587413302
 20
92.82116453912332
 30
0.0
 11
197.3728480105514
 21
92.20029456179637
 31
0.0
  0
LINE
  5
4C3
  8
0
  6
CONTINUOUS
 62
     5
 10
198.1395680964766
 20
92.82118689785708
 30
0.0
 11
197.518707604209
 21
93.58788565272167
 31
0.0
  0
LINE
  5
4C4
  8
0
  6
CONTINUOUS
 62
     5
 10
192.7834194278408
 20
83.34669604599097
 30
0.0
 11
187.1584203815152
 21
93.08948001188779
 31
0.0
  0
LINE
  5
4C5
  8
0
  6
CONTINUOUS
 62
     5
 10
189.0334184741665
 20
89.84188810960941
 30
0.0
 11
202.0237992977787
 21
97.34188810960941
 31
0.0
  0
LINE
  5
4C6
  8
0
  6
CONTINUOUS
 62
     5
 10
187.1584184741665
 20
93.08948331551247
 30
0.0
 11
189.1069755977084
 21
94.21448331551247
 31
0.0
  0
LINE
  5
4C7
  8
0
  6
CONTINUOUS
 62
     5
 10
189.6694661979069
 20
93.24019051709766
 30
0.0
 11
189.1069700126042
 21
94.21446247161921
 31
0.0
  0
LINE
  5
4C8
  8
0
  6
CONTINUOUS
 62
     5
 10
189.6694765513827
 20
93.24020310192921
 30
0.0
 11
190.9685146337439
 21
93.99020310192921
 31
0.0
  0
LINE
  5
4C9
  8
0
  6
CONTINUOUS
 62
     5
 10
191.5310127263953
 20
93.01592784378298
 30
0.0
 11
190.9685127263953
 21
93.99020640555389
 31
0.0
  0
LINE
  5
4CA
  8
0
  6
CONTINUOUS
 62
     5
 10
191.5310194021155
 20
93.01591628109659
 30
0.0
 11
192.8300574844767
 21
93.76591628109659
 31
0.0
  0
LINE
  5
4CB
  8
0
  6
CONTINUOUS
 62
     5
 10
193.5800395016064
 20
92.46687882840254
 30
0.0
 11
192.8300395016064
 21
93.76591691076376
 31
0.0
  0
LINE
  5
4CC
  8
0
  6
CONTINUOUS
 62
     5
 10
193.7040102115822
 20
95.25227974268833
 30
0.0
 11
193.9785314387915
 21
96.2768073189383
 31
0.0
  0
LINE
  5
4CD
  8
0
  6
CONTINUOUS
 62
     5
 10
193.9784644489606
 20
96.27681756334656
 30
0.0
 11
192.9539516747897
 21
96.55133493612189
 31
0.0
  0
LINE
  5
4CE
  8
0
  6
CONTINUOUS
 62
     5
 10
191.4153523189049
 20
94.79697649396886
 30
0.0
 11
193.9784629200091
 21
96.27678911603917
 31
0.0
  0
ARC
  5
4CF
  8
0
  6
CONTINUOUS
 62
     5
 10
197.4601556488329
 20
90.28559688667261
 30
0.0
 40
2.625001907348633
 50
75.00010795499728
 51
369.999953377945
  0
TEXT
  5
4D0
  8
0
 62
     7
 10
-15.57248290097175
 20
80.16770443061792
 30
0.0
 40
3.0
  1
MIN
 50
90.0
 41
0.8000000000000003
  7
FDASTYLE1
 72
     5
 11
-15.57248290097175
 21
87.36770443061792
 31
0.0
  0
TEXT
  5
4D1
  8
0
 62
     7
 10
6.811719145068089
 20
49.26782268623315
 30
0.0
 40
4.0
  1
MIN33.25
 50
90.0
 41
0.8
  7
FDASTYLE1
 72
     5
 11
6.811719145068089
 21
74.86782268623315
 31
0.0
  0
TEXT
  5
4D2
  8
0
 62
     7
 10
-209.3740881255811
 20
-18.93780094047583
 30
0.0
 40
4.0
  1
7ﾟ7′30″
 50
90.0
 41
0.7567567567567569
  7
FDASTYLE1
 72
     5
 11
-209.3740881255811
 21
3.462199059524181
 31
0.0
  0
TEXT
  5
4D3
  8
0
 62
     5
 10
126.0132618376071
 20
-23.10267063041724
 30
0.0
 40
5.0
  1
NIKKO
 41
0.7674421159044379
  7
FDASTYLE1
 72
     5
 11
149.5846932359988
 21
-23.10267063041724
 31
0.0
  0
TEXT
  5
4D4
  8
0
 62
     5
 10
157.3703896232897
 20
-22.60267063041724
 30
0.0
 40
4.0
  1
HWB3-165A5
 41
0.7727275194893263
  7
FDASTYLE1
 72
     5
 11
196.2275361248309
 21
-22.60267063041724
 31
0.0
  0
TEXT
  5
4D5
  8
0
 62
     5
 10
157.7275327869708
 20
-29.10267063041724
 30
0.0
 40
3.0
  1
0001
 41
0.7647060767727455
  7
FDASTYLE1
 72
     5
 11
168.8703904577548
 21
-29.10267063041724
 31
0.0
  0
TEXT
  5
4D6
  8
0
 62
     5
 10
224.4906016761103
 20
54.06827431879084
 30
0.0
 40
2.5
  1
F MAX   16KN
 50
120.0
 41
0.7991006611770903
  7
FDASTYLE1
 72
     5
 11
209.2329677814283
 21
80.49527142766496
 31
0.0
  0
TEXT
  5
4D7
  8
0
 62
     5
 10
227.9546977454462
 20
56.06827431879084
 30
0.0
 40
2.5
  1
ΣS MAX  53KN
 50
120.0
 41
0.8042452418121094
  7
FDASTYLE1
 72
     5
 11
212.6970638507643
 21
82.49527142766496
 31
0.0
  0
TEXT
  5
4D8
  8
0
 62
     5
 10
231.4188090735712
 20
58.06827431879084
 30
0.0
 40
2.5
  1
N MAX 6000 AT ΣS MAX
 50
120.0
 41
0.8037156284666046
  7
FDASTYLE1
 72
     5
 11
205.7413279289045
 21
102.5429762717454
 31
0.0
  0
TEXT
  5
4D9
  8
0
 62
     5
 10
199.6275843852797
 20
82.73248735901761
 30
0.0
 40
2.5
  1
F
 50
120.0
 41
0.8791213035583498
  7
FDASTYLE1
 72
     5
 11
198.5286827558317
 21
84.63584081374167
 31
0.0
  0
TEXT
  5
4DA
  8
0
 62
     5
 10
202.2423335784712
 20
93.24182520231614
 30
0.0
 40
2.5
  1
N min
 50
120.0
 41
0.7983872809842201
  7
FDASTYLE1
 72
     5
 11
196.0548335784712
 21
103.9588895741486
 31
0.0
  0
TEXT
  5
4DB
  8
0
 62
     5
 10
194.2330578597954
 20
103.5566051511193
 30
0.0
 40
1.25
  1
-1
 50
120.0
 41
0.782608910634555
  7
FDASTYLE1
 72
     5
 11
193.108057725685
 21
105.5051625419204
 31
0.0
  0
TEXT
  5
4DC
  8
0
 62
     5
 10
192.9728144878187
 20
97.66378466126371
 30
0.0
 40
2.5
  1
ΣS
 50
120.0
 41
0.9590411728078666
  7
FDASTYLE1
 72
     5
 11
190.3354512625971
 21
102.2318317653613
 31
0.0
  0
LINE
  5
4DD
  8
LAYER0014
  6
CONTINUOUS
 62
     7
 10
-146.4934728912061
 20
135.8923855219265
 30
0.0
 11
-132.5856283477491
 21
135.8923855219265
 31
0.0
  0
LINE
  5
4DE
  8
LAYER0014
  6
CONTINUOUS
 62
     7
 10
-153.9934728912061
 20
-75.63128085990942
 30
0.0
 11
-161.9713934234327
 21
-75.63128085990942
 31
0.0
  0
INSERT
  5
4DF
  8
LAYER0014
  6
CONTINUOUS
  2
DA_IMAGEDIMGROUP_1
 10
0.0
 20
0.0
 30
0.0
  0
INSERT
  5
4E0
  8
LAYER0014
  6
CONTINUOUS
  2
DA_IMAGEDIMGROUP_2
 10
0.0
 20
0.0
 30
0.0
  0
INSERT
  5
4E1
  8
LAYER0014
  6
CONTINUOUS
  2
DA_IMAGEDIMGROUP_3
 10
0.0
 20
0.0
 30
0.0
  0
INSERT
  5
4E2
  8
LAYER0014
  6
CONTINUOUS
  2
DA_IMAGEDIMGROUP_4
 10
0.0
 20
0.0
 30
0.0
  0
INSERT
  5
4E3
  8
LAYER0014
  6
CONTINUOUS
  2
DA_IMAGEDIMGROUP_5
 10
0.0
 20
0.0
 30
0.0
  0
INSERT
  5
4E4
  8
LAYER0014
  6
CONTINUOUS
  2
DA_IMAGEDIMGROUP_6
 10
0.0
 20
0.0
 30
0.0
  0
INSERT
  5
4E5
  8
LAYER0014
  6
CONTINUOUS
  2
DA_IMAGEDIMGROUP_7
 10
0.0
 20
0.0
 30
0.0
  0
INSERT
  5
4E6
  8
LAYER0014
  6
CONTINUOUS
  2
DA_IMAGEDIMGROUP_8
 10
0.0
 20
0.0
 30
0.0
  0
INSERT
  5
4E7
  8
LAYER0014
  6
CONTINUOUS
  2
DA_IMAGEDIMGROUP_9
 10
0.0
 20
0.0
 30
0.0
  0
INSERT
  5
4E8
  8
LAYER0014
  6
CONTINUOUS
  2
DA_IMAGEDIMGROUP_10
 10
0.0
 20
0.0
 30
0.0
  0
INSERT
  5
4E9
  8
LAYER0014
  6
CONTINUOUS
  2
DA_IMAGEDIMGROUP_11
 10
0.0
 20
0.0
 30
0.0
  0
INSERT
  5
4EA
  8
LAYER0014
  6
CONTINUOUS
  2
DA_IMAGEDIMGROUP_12
 10
0.0
 20
0.0
 30
0.0
  0
INSERT
  5
4EB
  8
LAYER0014
  6
CONTINUOUS
  2
DA_IMAGEDIMGROUP_13
 10
0.0
 20
0.0
 30
0.0
  0
INSERT
  5
4EC
  8
LAYER0014
  6
CONTINUOUS
  2
DA_IMAGEDIMGROUP_14
 10
0.0
 20
0.0
 30
0.0
  0
INSERT
  5
4ED
  8
LAYER0014
  6
CONTINUOUS
  2
DA_IMAGEDIMGROUP_15
 10
0.0
 20
0.0
 30
0.0
  0
INSERT
  5
4EE
  8
LAYER0014
  6
CONTINUOUS
  2
DA_IMAGEDIMGROUP_16
 10
0.0
 20
0.0
 30
0.0
  0
INSERT
  5
4EF
  8
LAYER0014
  6
CONTINUOUS
  2
DC_GROUP_1
 10
0.0
 20
0.0
 30
0.0
  0
INSERT
  5
4F0
  8
LAYER0014
  6
CONTINUOUS
  2
DC_GROUP_2
 10
0.0
 20
0.0
 30
0.0
  0
INSERT
  5
4F1
  8
LAYER0014
  6
CONTINUOUS
  2
DA_IMAGEDIMGROUP_17
 10
0.0
 20
0.0
 30
0.0
  0
INSERT
  5
4F2
  8
LAYER0014
  6
CONTINUOUS
  2
DA_IMAGEDIMGROUP_18
 10
0.0
 20
0.0
 30
0.0
  0
INSERT
  5
4F3
  8
LAYER0014
  6
CONTINUOUS
  2
DC_GROUP_3
 10
0.0
 20
0.0
 30
0.0
  0
INSERT
  5
4F4
  8
LAYER0014
  6
CONTINUOUS
  2
DC_GROUP_4
 10
0.0
 20
0.0
 30
0.0
  0
INSERT
  5
4F5
  8
LAYER0014
  6
CONTINUOUS
  2
DA_IMAGEDIMGROUP_19
 10
0.0
 20
0.0
 30
0.0
  0
INSERT
  5
4F6
  8
LAYER0014
  6
CONTINUOUS
  2
DA_IMAGEDIMGROUP_20
 10
0.0
 20
0.0
 30
0.0
  0
INSERT
  5
4F7
  8
LAYER0014
  6
CONTINUOUS
  2
DA_IMAGEDIMGROUP_21
 10
0.0
 20
0.0
 30
0.0
  0
INSERT
  5
4F8
  8
LAYER0014
  6
CONTINUOUS
  2
DA_IMAGEDIMGROUP_22
 10
0.0
 20
0.0
 30
0.0
  0
INSERT
  5
4F9
  8
LAYER0014
  6
CONTINUOUS
  2
DA_IMAGEDIMGROUP_23
 10
0.0
 20
0.0
 30
0.0
  0
INSERT
  5
4FA
  8
LAYER0014
  6
CONTINUOUS
  2
DA_IMAGEDIMGROUP_24
 10
0.0
 20
0.0
 30
0.0
  0
INSERT
  5
4FB
  8
LAYER0014
  6
CONTINUOUS
  2
DA_IMAGEDIMGROUP_25
 10
0.0
 20
0.0
 30
0.0
  0
INSERT
  5
4FC
  8
LAYER0014
  6
CONTINUOUS
  2
DA_IMAGEDIMGROUP_26
 10
0.0
 20
0.0
 30
0.0
  0
INSERT
  5
4FD
  8
LAYER0014
  6
CONTINUOUS
  2
DA_IMAGEDIMGROUP_27
 10
0.0
 20
0.0
 30
0.0
  0
INSERT
  5
4FE
  8
LAYER0014
  6
CONTINUOUS
  2
DA_IMAGEDIMGROUP_28
 10
0.0
 20
0.0
 30
0.0
  0
INSERT
  5
4FF
  8
LAYER0014
  6
CONTINUOUS
  2
DA_IMAGEDIMGROUP_29
 10
0.0
 20
0.0
 30
0.0
  0
INSERT
  5
500
  8
LAYER0014
  6
CONTINUOUS
  2
DA_IMAGEDIMGROUP_30
 10
0.0
 20
0.0
 30
0.0
  0
INSERT
  5
501
  8
LAYER0014
  6
CONTINUOUS
  2
DA_IMAGEDIMGROUP_31
 10
0.0
 20
0.0
 30
0.0
  0
INSERT
  5
502
  8
LAYER0014
  6
CONTINUOUS
  2
DA_IMAGEDIMGROUP_32
 10
0.0
 20
0.0
 30
0.0
  0
INSERT
  5
503
  8
LAYER0014
  6
CONTINUOUS
  2
DA_IMAGEDIMGROUP_33
 10
0.0
 20
0.0
 30
0.0
  0
INSERT
  5
504
  8
LAYER0014
  6
CONTINUOUS
  2
DA_IMAGEDIMGROUP_38
 10
0.0
 20
0.0
 30
0.0
  0
INSERT
  5
505
  8
0
  6
CONTINUOUS
  2
DA_IMAGEDIMGROUP_34
 10
0.0
 20
0.0
 30
0.0
  0
INSERT
  5
506
  8
0
  6
CONTINUOUS
  2
DA_IMAGEDIMGROUP_35
 10
0.0
 20
0.0
 30
0.0
  0
INSERT
  5
507
  8
0
  6
CONTINUOUS
  2
DC_GROUP_5
 10
0.0
 20
0.0
 30
0.0
  0
INSERT
  5
508
  8
0
  6
CONTINUOUS
  2
DA_IMAGEDIMGROUP_36
 10
0.0
 20
0.0
 30
0.0
  0
INSERT
  5
509
  8
0
  6
CONTINUOUS
  2
DA_IMAGEDIMGROUP_37
 10
0.0
 20
0.0
 30
0.0
  0
LINE
  5
50A
  8
0
  6
DASHED2
 62
     7
 10
-108.3934728912062
 20
-16.80266757865942
 30
0.0
 11
-101.5934728912061
 21
-16.80266757865942
 31
0.0
  0
LINE
  5
50B
  8
0
  6
DASHED2
 62
     7
 10
-108.9934728912061
 20
-21.80266757865942
 30
0.0
 11
-100.9934728912061
 21
-21.80266757865942
 31
0.0
  0
LINE
  5
50C
  8
0
  6
DASHED2
 62
     7
 10
-108.9934728912061
 20
-21.80266757865942
 30
0.0
 11
-108.9934728912061
 21
-37.80266757865942
 31
0.0
  0
LINE
  5
50D
  8
0
  6
DASHED2
 62
     7
 10
-108.3934728912062
 20
-16.80266757865942
 30
0.0
 11
-108.3934728912062
 21
-37.80266757865942
 31
0.0
  0
LINE
  5
50E
  8
0
  6
DASHED2
 62
     7
 10
-108.3934728912059
 20
-16.80266757865931
 30
0.0
 11
-104.9934728912062
 21
-14.83967666341476
 31
0.0
  0
LINE
  5
50F
  8
0
  6
DASHED2
 62
     7
 10
-101.5934728912063
 20
-16.80266757865931
 30
0.0
 11
-104.993472891206
 21
-14.83967666341476
 31
0.0
  0
LINE
  5
510
  8
0
  6
DASHED2
 62
     7
 10
-101.5934728912061
 20
-16.80266757865942
 30
0.0
 11
-101.5934728912061
 21
-37.80266757865942
 31
0.0
  0
LINE
  5
511
  8
0
  6
DASHED2
 62
     7
 10
-100.9934728912061
 20
-21.80266757865942
 30
0.0
 11
-100.9934728912061
 21
-37.80266757865942
 31
0.0
  0
LINE
  5
512
  8
0
  6
DASHED2
 62
     7
 10
206.0594696391938
 20
78.3917884671842
 30
0.0
 11
224.1853655294941
 21
88.8567793387522
 31
0.0
  0
LINE
  5
513
  8
0
  6
DASHED2
 62
     7
 10
210.089596658116
 20
81.41140370945486
 30
0.0
 11
223.8815948232952
 21
89.37421756278391
 31
0.0
  0
LINE
  5
514
  8
0
  6
DASHED2
 62
     7
 10
209.4594696391937
 20
72.50281572145001
 30
0.0
 11
227.5994912748008
 21
82.97596209587341
 31
0.0
  0
LINE
  5
515
  8
0
  6
DASHED2
 62
     7
 10
214.089596658116
 20
74.48320047917936
 30
0.0
 11
227.8815962799984
 21
82.44601517353634
 31
0.0
  0
LINE
  5
516
  8
0
  6
DASHED2
 62
     7
 10
214.089596658116
 20
74.48320047917936
 30
0.0
 11
210.089596658116
 21
81.41140370945486
 31
0.0
  0
LINE
  5
517
  8
0
  6
DASHED2
 62
     7
 10
209.4594696391937
 20
72.50281572145001
 30
0.0
 11
206.0594696391938
 21
78.3917884671842
 31
0.0
  0
LINE
  5
518
  8
0
  6
DASHED2
 62
     7
 10
206.0594696391938
 20
78.39178846718397
 30
0.0
 11
206.0594696391938
 21
74.46580663669487
 31
0.0
  0
LINE
  5
519
  8
0
  6
DASHED2
 62
     7
 10
209.4594696391936
 20
72.50281572145012
 30
0.0
 11
206.0594696391939
 21
74.46580663669467
 31
0.0
  0
LINE
  5
51A
  8
0
  6
CENTER
 62
     7
 10
-104.9934728912061
 20
-12.68766590019263
 30
0.0
 11
-104.9934728912061
 21
-41.90287277701767
 31
0.0
  0
VIEWPORT
  5
48
 67
     1
  8
0
 10
0.0
 20
0.0
 30
0.0
 40
1662.0
 41
1140.0
 68
     1
 69
     1
1001
ACAD
1000
MVIEW
1002
{
1070
    16
1010
0.0
1020
0.0
1030
0.0
1020
0.0
1030
0.0
1010
0.0
1020
0.0
1030
1.0
1020
0.0
1030
1.0
1040
0.0
1040
1140.0
1040
0.0
1040
0.0
1040
50.0
1040
0.0
1040
0.0
1070
     0
1070
   100
1070
     0
1070
     1
1070
     0
1070
     0
1070
     0
1070
     0
1040
0.0
1040
0.0
1040
0.0
1040
0.5
1040
0.5
1040
0.0
1040
0.0
1070
     0
1002
{
1002
}
1002
}
  0
ENDSEC
  0
EOF
