  0
SECTION
  2
HEADER
  9
$ACADVER
  1
AC1009
  9
$DWGCODEPAGE
  3
ansi_932
  9
$INSBASE
 10
0.0
 20
0.0
 30
0.0
  9
$EXTMIN
 10
-831.0
 20
-569.9999999999999
 30
0.0
  9
$EXTMAX
 10
831.0
 20
569.9999999999999
 30
0.0
  9
$LIMMIN
 10
-297.0
 20
-210.0
  9
$LIMMAX
 10
297.0
 20
210.0
  9
$ORTHOMODE
 70
     0
  9
$REGENMODE
 70
     1
  9
$FILLMODE
 70
     1
  9
$QTEXTMODE
 70
     0
  9
$MIRRTEXT
 70
     1
  9
$DRAGMODE
 70
     2
  9
$LTSCALE
 40
1.0
  9
$OSMODE
 70
    37
  9
$ATTMODE
 70
     1
  9
$TEXTSIZE
 40
0.2
  9
$TRACEWID
 40
0.05
  9
$TEXTSTYLE
  7
STANDARD
  9
$CLAYER
  8
0
  9
$CELTYPE
  6
BYLAYER
  9
$CECOLOR
 62
   256
  9
$DIMSCALE
 40
1.0
  9
$DIMASZ
 40
2.5
  9
$DIMEXO
 40
0.0625
  9
$DIMDLI
 40
0.38
  9
$DIMRND
 40
0.0
  9
$DIMDLE
 40
0.0
  9
$DIMEXE
 40
0.18
  9
$DIMTP
 40
0.0
  9
$DIMTM
 40
0.0
  9
$DIMTXT
 40
0.18
  9
$DIMCEN
 40
0.09
  9
$DIMTSZ
 40
0.0
  9
$DIMTOL
 70
     0
  9
$DIMLIM
 70
     0
  9
$DIMTIH
 70
     1
  9
$DIMTOH
 70
     1
  9
$DIMSE1
 70
     0
  9
$DIMSE2
 70
     0
  9
$DIMTAD
 70
     3
  9
$DIMZIN
 70
     0
  9
$DIMBLK
  1

  9
$DIMASO
 70
     1
  9
$DIMSHO
 70
     1
  9
$DIMPOST
  1

  9
$DIMAPOST
  1

  9
$DIMALT
 70
     0
  9
$DIMALTD
 70
     2
  9
$DIMALTF
 40
25.4
  9
$DIMLFAC
 40
1.0
  9
$DIMTOFL
 70
     0
  9
$DIMTVP
 40
0.0
  9
$DIMTIX
 70
     0
  9
$DIMSOXD
 70
     0
  9
$DIMSAH
 70
     0
  9
$DIMBLK1
  1

  9
$DIMBLK2
  1

  9
$DIMSTYLE
  2
STANDARD
  9
$DIMCLRD
 70
     0
  9
$DIMCLRE
 70
     0
  9
$DIMCLRT
 70
     0
  9
$DIMTFAC
 40
1.0
  9
$DIMGAP
 40
0.09
  9
$LUNITS
 70
     2
  9
$LUPREC
 70
     4
  9
$SKETCHINC
 40
0.1
  9
$FILLETRAD
 40
0.5
  9
$AUNITS
 70
     0
  9
$AUPREC
 70
     0
  9
$MENU
  1
.
  9
$ELEVATION
 40
0.0
  9
$PELEVATION
 40
0.0
  9
$THICKNESS
 40
0.0
  9
$LIMCHECK
 70
     0
  9
$CHAMFERA
 40
0.5
  9
$CHAMFERB
 40
0.5
  9
$SKPOLY
 70
     0
  9
$TDCREATE
 40
2454889.634547361
  9
$TDUPDATE
 40
2454889.634547373
  9
$TDINDWG
 40
0.0000000116
  9
$TDUSRTIMER
 40
0.0000000116
  9
$USRTIMER
 70
     1
  9
$ANGBASE
 50
0.0
  9
$ANGDIR
 70
     0
  9
$PDMODE
 70
     0
  9
$PDSIZE
 40
1.0
  9
$PLINEWID
 40
0.0
  9
$COORDS
 70
     1
  9
$SPLFRAME
 70
     0
  9
$SPLINETYPE
 70
     6
  9
$SPLINESEGS
 70
     8
  9
$ATTDIA
 70
     0
  9
$ATTREQ
 70
     1
  9
$HANDLING
 70
     1
  9
$HANDSEED
  5
4E1
  9
$SURFTAB1
 70
     6
  9
$SURFTAB2
 70
     6
  9
$SURFTYPE
 70
     6
  9
$SURFU
 70
     6
  9
$SURFV
 70
     6
  9
$UCSNAME
  2

  9
$UCSORG
 10
0.0
 20
0.0
 30
0.0
  9
$UCSXDIR
 10
1.0
 20
0.0
 30
0.0
  9
$UCSYDIR
 10
0.0
 20
1.0
 30
0.0
  9
$PUCSNAME
  2

  9
$PUCSORG
 10
0.0
 20
0.0
 30
0.0
  9
$PUCSXDIR
 10
1.0
 20
0.0
 30
0.0
  9
$PUCSYDIR
 10
0.0
 20
1.0
 30
0.0
  9
$USERI1
 70
     0
  9
$USERI2
 70
     0
  9
$USERI3
 70
     0
  9
$USERI4
 70
     0
  9
$USERI5
 70
     0
  9
$USERR1
 40
0.0
  9
$USERR2
 40
0.0
  9
$USERR3
 40
0.0
  9
$USERR4
 40
0.0
  9
$USERR5
 40
0.0
  9
$WORLDVIEW
 70
     1
  9
$SHADEDGE
 70
     3
  9
$SHADEDIF
 70
    70
  9
$TILEMODE
 70
     1
  9
$MAXACTVP
 70
    64
  9
$PLIMCHECK
 70
     0
  9
$PEXTMIN
 10
1.000000000000000E+20
 20
1.000000000000000E+20
 30
1.000000000000000E+20
  9
$PEXTMAX
 10
-1.000000000000000E+20
 20
-1.000000000000000E+20
 30
-1.000000000000000E+20
  9
$PLIMMIN
 10
0.0
 20
0.0
  9
$PLIMMAX
 10
12.0
 20
9.0
  9
$UNITMODE
 70
     0
  9
$VISRETAIN
 70
     0
  9
$PLINEGEN
 70
     1
  9
$PSLTSCALE
 70
     0
  0
ENDSEC
  0
SECTION
  2
TABLES
  0
TABLE
  2
VPORT
 70
     1
  0
VPORT
  2
*ACTIVE
 70
     0
 10
0.0
 20
0.0
 11
1.0
 21
1.0
 12
0.0
 22
0.0
 13
0.0
 23
0.0
 14
0.5
 24
0.5
 15
0.5
 25
0.5
 16
0.0
 26
0.0
 36
1.0
 17
-0.0000000000000036
 27
0.0
 37
0.0
 40
387.6
 41
1.457894736842106
 42
50.0
 43
0.0
 44
0.0
 50
0.0
 51
0.0
 71
     0
 72
  1000
 73
     1
 74
     1
 75
     0
 76
     0
 77
     0
 78
     0
  0
ENDTAB
  0
TABLE
  2
LTYPE
 70
    28
  0
LTYPE
  2
CONTINUOUS
 70
     0
  3
Solid line
 72
    65
 73
     0
 40
0.0
  0
LTYPE
  2
HIDDENX2
 70
     0
  3
CADPAC LINETYPE
 72
    65
 73
     2
 40
9.513023782559458
 49
7.134767836919593
 49
-2.378255945639864
  0
LTYPE
  2
HIDDEN
 70
     0
  3
CADPAC LINETYPE
 72
    65
 73
     2
 40
7.134767836919593
 49
4.756511891279729
 49
-2.378255945639864
  0
LTYPE
  2
HIDDEN2
 70
     0
  3
CADPAC LINETYPE
 72
    65
 73
     2
 40
5.945639864099661
 49
3.567383918459797
 49
-2.378255945639864
  0
LTYPE
  2
DASHED
 70
     0
  3
CADPAC LINETYPE
 72
    65
 73
     2
 40
6.659116647791564
 49
4.756511891279729
 49
-1.902604756511835
  0
LTYPE
  2
DASHED2
 70
     0
  3
CADPAC LINETYPE
 72
    65
 73
     2
 40
4.280860702151699
 49
2.853907134767781
 49
-1.426953567383919
  0
LTYPE
  2
DASHEDX2
 70
     0
  3
CADPAC LINETYPE
 72
    65
 73
     2
 40
11.41562853907124
 49
9.513023782559401
 49
-1.902604756511835
  0
LTYPE
  2
DOTX2
 70
     0
  3
CADPAC LINETYPE
 72
    65
 73
     2
 40
4.161947904869763
 49
0.0
 49
-4.161947904869763
  0
LTYPE
  2
DOT
 70
     0
  3
CADPAC LINETYPE
 72
    65
 73
     2
 40
3.32955832389581
 49
0.0
 49
-3.32955832389581
  0
LTYPE
  2
DOT2
 70
     0
  3
CADPAC LINETYPE
 72
    65
 73
     2
 40
2.497168742921858
 49
0.0
 49
-2.497168742921858
  0
LTYPE
  2
CENTERX2
 70
     0
  3
CADPAC LINETYPE
 72
    65
 73
     4
 40
14.26953567383919
 49
5.945639864099661
 49
-2.972819932049831
 49
2.378255945639864
 49
-2.972819932049831
  0
LTYPE
  2
CENTER
 70
     0
  3
CADPAC LINETYPE
 72
    65
 73
     4
 40
10.93997734994338
 49
4.756511891279729
 49
-2.378255945639864
 49
1.426953567383919
 49
-2.378255945639864
  0
LTYPE
  2
CENTER2
 70
     0
  3
CADPAC LINETYPE
 72
    65
 73
     4
 40
7.610419026047566
 49
3.567383918459797
 49
-1.783691959229898
 49
0.4756511891279729
 49
-1.783691959229898
  0
LTYPE
  2
DASHDOTX2
 70
     0
  3
CADPAC LINETYPE
 72
    65
 73
     4
 40
22.8312570781427
 49
11.41562853907135
 49
-3.805209513023783
 49
3.805209513023783
 49
-3.805209513023783
  0
LTYPE
  2
DASHDOT
 70
     0
  3
CADPAC LINETYPE
 72
    65
 73
     4
 40
11.41562853907112
 49
5.707814269535618
 49
-1.902604756511835
 49
1.902604756511835
 49
-1.902604756511835
  0
LTYPE
  2
DASHDOT2
 70
     0
  3
CADPAC LINETYPE
 72
    65
 73
     4
 40
7.325028312570649
 49
4.280860702151713
 49
-1.426953567383876
 49
0.1902604756511835
 49
-1.426953567383876
  0
LTYPE
  2
DIVIDEX2
 70
     0
  3
CADPAC LINETYPE
 72
    65
 73
     6
 40
30.44167610419027
 49
11.41562853907135
 49
-3.805209513023783
 49
3.805209513023783
 49
-3.805209513023783
 49
3.805209513023783
 49
-3.805209513023783
  0
LTYPE
  2
DIVIDE
 70
     0
  3
CADPAC LINETYPE
 72
    65
 73
     6
 40
15.22083805209479
 49
5.707814269535618
 49
-1.902604756511835
 49
1.902604756511835
 49
-1.902604756511835
 49
1.902604756511835
 49
-1.902604756511835
  0
LTYPE
  2
DIVIDE2
 70
     0
  3
CADPAC LINETYPE
 72
    65
 73
     6
 40
11.41562853907109
 49
4.280860702151713
 49
-1.426953567383876
 49
1.426953567383876
 49
-1.426953567383876
 49
1.426953567383876
 49
-1.426953567383876
  0
LTYPE
  2
BORDERX2
 70
     0
  3
CADPAC LINETYPE
 72
    65
 73
     6
 40
20.80973952434881
 49
5.945639864099661
 49
-2.972819932049831
 49
5.945639864099661
 49
-2.972819932049831
 49
0.0
 49
-2.972819932049831
  0
LTYPE
  2
BORDER
 70
     0
  3
CADPAC LINETYPE
 72
    65
 73
     6
 40
16.64779161947905
 49
4.756511891279729
 49
-2.378255945639864
 49
4.756511891279729
 49
-2.378255945639864
 49
0.0
 49
-2.378255945639864
  0
LTYPE
  2
BORDER2
 70
     0
  3
CADPAC LINETYPE
 72
    65
 73
     6
 40
12.36693091732718
 49
3.805209513023783
 49
-2.378255945639808
 49
1.426953567383919
 49
-2.378255945639808
 49
0.0
 49
-2.378255945639864
  0
LTYPE
  2
PHANTOMX2
 70
     0
  3
CADPAC LINETYPE
 72
    65
 73
     6
 40
17.83691959229898
 49
5.945639864099661
 49
-2.378255945639864
 49
2.378255945639864
 49
-2.378255945639864
 49
2.378255945639864
 49
-2.378255945639864
  0
LTYPE
  2
PHANTOM
 70
     0
  3
CADPAC LINETYPE
 72
    65
 73
     6
 40
14.74518686296716
 49
4.756511891279729
 49
-2.378255945639864
 49
1.426953567383919
 49
-2.378255945639864
 49
1.426953567383919
 49
-2.378255945639864
  0
LTYPE
  2
PHANTOM2
 70
     0
  3
CADPAC LINETYPE
 72
    65
 73
     6
 40
12.60475651189128
 49
3.567383918459797
 49
-2.378255945639864
 49
0.9513023782559458
 49
-2.378255945639864
 49
0.9513023782559458
 49
-2.378255945639864
  0
LTYPE
  2
ACAD_ISO06W100
 70
     0
  3
CADPAC LINETYPE
 72
    65
 73
     8
 40
25.20951302378234
 49
11.41562853907135
 49
-2.378255945639808
 49
1.426953567383919
 49
-2.378255945639808
 49
1.426953567383919
 49
-2.378255945639808
 49
1.426953567383919
 49
-2.378255945639808
  0
LTYPE
  2
ACAD_ISO13W100
 70
     0
  3
CADPAC LINETYPE
 72
    65
 73
     8
 40
19.02604756511892
 49
4.756511891279729
 49
-2.378255945639864
 49
4.756511891279729
 49
-2.378255945639864
 49
0.0
 49
-2.378255945639864
 49
0.0
 49
-2.378255945639864
  0
LTYPE
  2
ACAD_ISO14W100
 70
     0
  3
CADPAC LINETYPE
 72
    65
 73
     8
 40
14.26953567383919
 49
4.756511891279729
 49
-2.378255945639864
 49
0.0
 49
-2.378255945639864
 49
0.0
 49
-2.378255945639864
 49
0.0
 49
-2.378255945639864
  0
ENDTAB
  0
TABLE
  2
LAYER
 70
     3
  0
LAYER
  2
0
 70
     0
 62
     7
  6
CONTINUOUS
  0
LAYER
  2
LAYER0014
 70
     0
 62
     7
  6
CONTINUOUS
  0
LAYER
  2
ZUWAKU
 70
     0
 62
     7
  6
CONTINUOUS
  0
ENDTAB
  0
TABLE
  2
STYLE
 70
     5
  0
STYLE
  2
STANDARD
 70
     0
 40
0.0
 41
1.0
 50
0.0
 71
     0
 42
0.2
  3
txt
  4

  0
STYLE
  2
FDASTYLE1
 70
     0
 40
4.0
 41
0.8000000000000007
 50
0.0
 71
     0
 42
0.2
  3
txt.shx
  4
bigfont
  0
STYLE
  2
FDASTYLE0
 70
     4
 40
2.6656
 41
0.8
 50
0.0
 71
     0
 42
0.2
  3
txt.shx
  4
bigfont
  0
STYLE
  2
FDASTYLE2
 70
     0
 40
7.0
 41
0.8123476848090983
 50
0.0
 71
     0
 42
0.2
  3
MSMINCHO.TTC
  4

  0
STYLE
  2
FDASTYLE3
 70
     0
 40
8.0
 41
0.77
 50
0.0
 71
     0
 42
0.2
  3
MSGOTHIC.TTC
  4

  0
ENDTAB
  0
TABLE
  2
VIEW
 70
     0
  0
ENDTAB
  0
TABLE
  2
UCS
 70
     0
  0
ENDTAB
  0
TABLE
  2
APPID
 70
     2
  0
APPID
  2
ACAD
 70
     0
  0
APPID
  2
DAFUSIONOUT
 70
     0
  0
ENDTAB
  0
TABLE
  2
DIMSTYLE
 70
     1
  0
DIMSTYLE
  2
STANDARD
 70
     0
  3

  4

  5

  6

  7

 40
1.0
 41
0.18
 42
0.0625
 43
0.38
 44
0.18
 45
0.0
 46
0.0
 47
0.0
 48
0.0
140
0.18
141
0.09
142
0.0
143
25.4
144
1.0
145
0.0
146
1.0
147
0.09
 71
     0
 72
     0
 73
     1
 74
     1
 75
     0
 76
     0
 77
     0
 78
     0
170
     0
171
     2
172
     0
173
     0
174
     0
175
     0
176
     0
177
     0
178
     0
  0
ENDTAB
  0
ENDSEC
  0
SECTION
  2
BLOCKS
  0
BLOCK
  8
0
  2
$MODEL_SPACE
 70
     0
 10
0.0
 20
0.0
 30
0.0
  3
$MODEL_SPACE
  1

  0
ENDBLK
  5
21
  8
0
  0
BLOCK
 67
     1
  8
0
  2
$PAPER_SPACE
 70
     0
 10
0.0
 20
0.0
 30
0.0
  3
$PAPER_SPACE
  1

  0
ENDBLK
  5
1D
 67
     1
  8
0
  0
BLOCK
  8
0
  2
DA_IMAGEDIMGROUP_1
 70
     0
 10
0.0
 20
0.0
 30
0.0
  3
DA_IMAGEDIMGROUP_1
  1

  0
LINE
  5
D6
  8
LAYER0014
  6
CONTINUOUS
 62
     7
 10
17.55211595130007
 20
32.6610351034022
 30
0.0
 11
21.00334930014651
 21
32.6610351034022
 31
0.0
  0
LINE
  5
D7
  8
LAYER0014
  6
CONTINUOUS
 62
     7
 10
74.28627772879641
 20
111.1610312887049
 30
0.0
 11
16.43134975028079
 21
111.1610312887049
 31
0.0
  0
LINE
  5
D8
  8
LAYER0014
  6
CONTINUOUS
 62
     7
 10
18.71735000205081
 20
32.6610351034022
 30
0.0
 11
18.71735000205081
 21
111.1610312887049
 31
0.0
  0
INSERT
  5
DF
  8
LAYER0014
 62
     7
  2
_OPEN30
 10
18.71735000205081
 20
32.6610351034022
 30
0.0
 41
1.999998407630662
 42
2.000005728319971
 50
270.0
  0
INSERT
  5
E0
  8
LAYER0014
 62
     7
  2
_OPEN30
 10
18.71735000205081
 20
111.1610312887049
 30
0.0
 41
1.999998407630662
 42
2.000005728319971
 50
90.0
  0
TEXT
  5
E2
  8
LAYER0014
 62
     7
 10
17.70617990050906
 20
65.51104294380852
 30
0.0
 40
4.0
  1
78.5
 50
89.90000000000001
 41
0.8000000000000007
  7
FDASTYLE1
 72
     5
 11
17.72852010359256
 21
78.31102344829861
 31
0.0
  0
ENDBLK
  5
4E
  8
0
  0
BLOCK
  8
0
  2
DA_IMAGEDIMGROUP_2
 70
     0
 10
0.0
 20
0.0
 30
0.0
  3
DA_IMAGEDIMGROUP_2
  1

  0
LINE
  5
E3
  8
LAYER0014
  6
CONTINUOUS
 62
     7
 10
91.82627772879641
 20
128.7010312887049
 30
0.0
 11
91.82627772879641
 21
167.9131522603846
 31
0.0
  0
LINE
  5
E4
  8
LAYER0014
  6
CONTINUOUS
 62
     7
 10
131.8262777287964
 20
164.2993741842128
 30
0.0
 11
131.8262777287964
 21
167.9131522603846
 31
0.0
  0
LINE
  5
E5
  8
LAYER0014
  6
CONTINUOUS
 62
     7
 10
91.82627772879641
 20
166.9131522603846
 30
0.0
 11
131.8262777287964
 21
166.9131522603846
 31
0.0
  0
INSERT
  5
E6
  8
LAYER0014
 62
     7
  2
_OPEN30
 10
91.82627772879641
 20
166.9131522603846
 30
0.0
 41
1.999998407630662
 42
2.000005728319971
 50
180.0
  0
INSERT
  5
E7
  8
LAYER0014
 62
     7
  2
_OPEN30
 10
131.8262777287964
 20
166.9131522603846
 30
0.0
 41
1.999998407630662
 42
2.000005728319971
 50
360.0
  0
TEXT
  5
E8
  8
LAYER0014
 62
     7
 10
108.6262777287964
 20
167.9131522603846
 30
0.0
 40
4.0
  1
40
 41
0.8000000000000007
  7
FDASTYLE1
 72
     5
 11
115.0262777287964
 21
167.9131522603846
 31
0.0
  0
ENDBLK
  5
51
  8
0
  0
BLOCK
  8
0
  2
DA_IMAGEDIMGROUP_3
 70
     0
 10
0.0
 20
0.0
 30
0.0
  3
DA_IMAGEDIMGROUP_3
  1

  0
LINE
  5
E9
  8
LAYER0014
  6
CONTINUOUS
 62
     7
 10
251.8294048650269
 20
32.66125635584361
 30
0.0
 11
256.3582067449097
 21
32.66125635584361
 31
0.0
  0
LINE
  5
EA
  8
LAYER0014
  6
CONTINUOUS
 62
     7
 10
227.836392451006
 20
88.09249247248359
 30
0.0
 11
239.6741088692669
 21
94.92700217056127
 31
0.0
  0
ARC
  5
EB
  8
LAYER0014
  6
CONTINUOUS
 62
     7
 10
131.8262777287964
 20
32.6610351034022
 30
0.0
 40
122.2459335327148
 50
0.0
 51
29.99999741973147
  0
INSERT
  5
EC
  8
LAYER0014
 62
     7
  2
_OPEN30
 10
254.0722112615113
 20
32.6610351034022
 30
0.0
 41
1.999998407630662
 42
2.000005728319971
 50
270.4686924651649
  0
INSERT
  5
ED
  8
LAYER0014
 62
     7
  2
_OPEN30
 10
237.6943644300941
 20
93.78399710207705
 30
0.0
 41
1.999998407630662
 42
2.000005728319971
 50
119.5313049545669
  0
TEXT
  5
EE
  8
LAYER0014
 62
     7
 10
248.1960954397402
 20
75.31199249139189
 30
0.0
 40
4.0
  1
30ﾟ
 50
-72.10000000000005
 41
0.8000000000000022
  7
FDASTYLE1
 72
     5
 11
251.1467189706184
 21
66.17668621414926
 31
0.0
  0
ENDBLK
  5
54
  8
0
  0
BLOCK
  8
0
  2
DA_IMAGEDIMGROUP_4
 70
     0
 10
0.0
 20
0.0
 30
0.0
  3
DA_IMAGEDIMGROUP_4
  1

  0
LINE
  5
EF
  8
LAYER0014
  6
CONTINUOUS
 62
     7
 10
114.2262792546753
 20
142.7010312887049
 30
0.0
 11
114.2262792546753
 21
158.5150962301112
 31
0.0
  0
LINE
  5
F0
  8
LAYER0014
  6
CONTINUOUS
 62
     7
 10
149.4262762029175
 20
142.7010312887049
 30
0.0
 11
149.4262762029175
 21
158.5150962301112
 31
0.0
  0
LINE
  5
F1
  8
LAYER0014
  6
CONTINUOUS
 62
     7
 10
114.2262792546753
 20
157.5150962301112
 30
0.0
 11
149.4262762029175
 21
157.5150962301112
 31
0.0
  0
INSERT
  5
F2
  8
LAYER0014
 62
     7
  2
_OPEN30
 10
114.2262792546753
 20
157.5150962301112
 30
0.0
 41
1.999998407630662
 42
2.000005728319971
 50
180.0
  0
INSERT
  5
F3
  8
LAYER0014
 62
     7
  2
_OPEN30
 10
149.4262762029175
 20
157.5150962301112
 30
0.0
 41
1.999998407630662
 42
2.000005728319971
 50
360.0
  0
TEXT
  5
F4
  8
LAYER0014
 62
     7
 10
128.6262777287964
 20
158.5150962301112
 30
0.0
 40
4.0
  1
35
 41
0.7999999999999972
  7
FDASTYLE1
 72
     5
 11
135.0262777287964
 21
158.5150962301112
 31
0.0
  0
ENDBLK
  5
57
  8
0
  0
BLOCK
  8
0
  2
DA_IMAGEDIMGROUP_5
 70
     0
 10
0.0
 20
0.0
 30
0.0
  3
DA_IMAGEDIMGROUP_5
  1

  0
LINE
  5
F5
  8
LAYER0014
  6
CONTINUOUS
 62
     7
 10
124.8262777287964
 20
142.7010312887049
 30
0.0
 11
124.8262777287964
 21
150.797277016244
 31
0.0
  0
LINE
  5
F6
  8
LAYER0014
  6
CONTINUOUS
 62
     7
 10
138.8262700994019
 20
142.7010312887049
 30
0.0
 11
138.8262700994019
 21
150.797277016244
 31
0.0
  0
LINE
  5
F7
  8
LAYER0014
  6
CONTINUOUS
 62
     7
 10
124.8262777287964
 20
148.5112815328456
 30
0.0
 11
138.8262700994019
 21
148.5112815328456
 31
0.0
  0
INSERT
  5
F8
  8
LAYER0014
 62
     7
  2
_OPEN30
 10
124.8262777287964
 20
148.5112815328456
 30
0.0
 41
1.999998407630662
 42
2.000005728319971
 50
180.0
  0
INSERT
  5
F9
  8
LAYER0014
 62
     7
  2
_OPEN30
 10
138.8262700994019
 20
148.5112815328456
 30
0.0
 41
1.999998407630662
 42
2.000005728319971
 50
360.0
  0
TEXT
  5
FA
  8
LAYER0014
 62
     7
 10
128.6262739140992
 20
149.5112815328456
 30
0.0
 40
4.0
  1
14
 41
0.7999999999999972
  7
FDASTYLE1
 72
     5
 11
135.0262739140991
 21
149.5112815328456
 31
0.0
  0
ENDBLK
  5
5A
  8
0
  0
BLOCK
  8
0
  2
DC_GROUP_1
 70
     0
 10
0.0
 20
0.0
 30
0.0
  3
DC_GROUP_1
  1

  0
LINE
  5
FB
  8
LAYER0014
  6
CONTINUOUS
 62
     7
 10
109.3967685298974
 20
-40.91595751657273
 30
0.0
 11
82.7301047829219
 21
-87.04929132524005
 31
0.0
  0
INSERT
  5
FC
  8
LAYER0014
 62
     7
  2
_OPEN30
 10
109.3967685298974
 20
-40.91595751657273
 30
0.0
 41
1.999998407630662
 42
2.000005728319971
 50
59.97060121225804
  0
LINE
  5
FD
  8
LAYER0014
  6
CONTINUOUS
 62
     7
 10
82.73010921073001
 20
-87.04928823033804
 30
0.0
 11
51.03486537528079
 21
-87.04928823033804
 31
0.0
  0
TEXT
  5
FE
  8
LAYER0014
 62
     7
 10
52.86343593192142
 20
-85.44928823033804
 30
0.0
 40
4.0
  1
PCD133.35
 41
0.7999999999999999
  7
FDASTYLE1
 72
     5
 11
81.66343593192141
 21
-85.44928823033804
 31
0.0
  0
ENDBLK
  5
5D
  8
0
  0
BLOCK
  8
0
  2
DC_GROUP_2
 70
     0
 10
0.0
 20
0.0
 30
0.0
  3
DC_GROUP_2
  1

  0
LINE
  5
FF
  8
LAYER0014
  6
CONTINUOUS
 62
     7
 10
132.8634479979151
 20
-15.04928897570214
 30
0.0
 11
174.9967822020517
 21
-86.78263148060948
 31
0.0
  0
INSERT
  5
100
  8
LAYER0014
 62
     7
  2
_OPEN30
 10
132.8634479979151
 20
-15.04928897570214
 30
0.0
 41
1.999998407630662
 42
2.000005728319971
 50
120.4282948645224
  0
LINE
  5
101
  8
LAYER0014
  6
CONTINUOUS
 62
     7
 10
174.9967718083863
 20
-86.78263326207632
 30
0.0
 11
209.8920049626831
 21
-86.78263326207632
 31
0.0
  0
TEXT
  5
102
  8
LAYER0014
 62
     7
 10
176.0634374578003
 20
-85.18263326207632
 30
0.0
 40
4.0
  1
3-M5 PCD90
 41
0.8
  7
FDASTYLE1
 72
     5
 11
208.0634374578003
 21
-85.18263326207632
 31
0.0
  0
ENDBLK
  5
60
  8
0
  0
BLOCK
  8
0
  2
DA_IMAGEDIMGROUP_6
 70
     0
 10
0.0
 20
0.0
 30
0.0
  3
DA_IMAGEDIMGROUP_6
  1

  0
LINE
  5
103
  8
LAYER0014
  6
CONTINUOUS
 62
     7
 10
251.8294048650269
 20
32.66110376795298
 30
0.0
 11
269.8554601628784
 21
32.66110376795298
 31
0.0
  0
LINE
  5
104
  8
LAYER0014
  6
CONTINUOUS
 62
     7
 10
213.1717147178021
 20
54.45748878657048
 30
0.0
 11
265.1521975133043
 21
68.38561568675665
 31
0.0
  0
ARC
  5
105
  8
LAYER0014
  6
CONTINUOUS
 62
     7
 10
131.8262777287964
 20
32.6610351034022
 30
0.0
 40
135.7431640625
 50
0.0
 51
15.00000383250761
  0
INSERT
  5
106
  8
LAYER0014
 62
     7
  2
_OPEN30
 10
267.5694417912964
 20
32.6610351034022
 30
0.0
 41
1.999998407630662
 42
2.000005728319971
 50
270.4220893798931
  0
INSERT
  5
107
  8
LAYER0014
 62
     7
  2
_OPEN30
 10
262.9441032889226
 20
67.79395997570849
 30
0.0
 41
1.999998407630662
 42
2.000005728319971
 50
104.5779144526143
  0
TEXT
  5
108
  8
LAYER0014
 62
     7
 10
267.367919558264
 20
55.34685662655445
 30
0.0
 40
4.0
  1
15ﾟ
 50
-82.49999999999997
 41
0.800000000000002
  7
FDASTYLE1
 72
     5
 11
268.6209710035765
 21
45.82898595736585
 31
0.0
  0
ENDBLK
  5
63
  8
0
  0
BLOCK
  8
0
  2
DA_IMAGEDIMGROUP_7
 70
     0
 10
0.0
 20
0.0
 30
0.0
  3
DA_IMAGEDIMGROUP_7
  1

  0
LINE
  5
109
  8
LAYER0014
  6
CONTINUOUS
 62
     7
 10
213.1716997321148
 20
54.45748575848438
 30
0.0
 11
264.6805538032324
 21
68.25924013633666
 31
0.0
  0
LINE
  5
10A
  8
LAYER0014
  6
CONTINUOUS
 62
     7
 10
191.3753084142429
 20
92.2100467795848
 30
0.0
 11
229.0823818436511
 21
129.9171297443998
 31
0.0
  0
ARC
  5
10B
  8
LAYER0014
  6
CONTINUOUS
 62
     7
 10
131.8262700994019
 20
32.6610351034022
 30
0.0
 40
135.2548828125
 50
15.00000383250761
 51
44.9999978371445
  0
INSERT
  5
10C
  8
LAYER0014
 62
     7
  2
_OPEN30
 10
262.4724521981136
 20
67.66758345729386
 30
0.0
 41
1.999998407630662
 42
2.000005728319971
 50
285.4236169897726
  0
INSERT
  5
10D
  8
LAYER0014
 62
     7
  2
_OPEN30
 10
227.4659185350085
 20
128.3006763184166
 30
0.0
 41
1.999998407630662
 42
2.000005728319971
 50
134.5763846798785
  0
TEXT
  5
10E
  8
LAYER0014
 62
     7
 10
247.9460660188945
 20
105.2453946331202
 30
0.0
 40
4.0
  1
30ﾟ
 50
-59.99999999999999
 41
0.8000000000000013
  7
FDASTYLE1
 72
     5
 11
252.7460660188945
 21
96.93155075678962
 31
0.0
  0
ENDBLK
  5
66
  8
0
  0
BLOCK
  8
0
  2
DA_IMAGEDIMGROUP_8
 70
     0
 10
0.0
 20
0.0
 30
0.0
  3
DA_IMAGEDIMGROUP_8
  1

  0
LINE
  5
10F
  8
LAYER0014
  6
CONTINUOUS
 62
     7
 10
-172.0503348776927
 20
-3.33895467685295
 30
0.0
 11
-193.0490159079661
 21
-3.33895467685295
 31
0.0
  0
LINE
  5
110
  8
LAYER0014
  6
CONTINUOUS
 62
     7
 10
-172.0503348776927
 20
68.66104532314705
 30
0.0
 11
-193.0490159079661
 21
68.66104532314705
 31
0.0
  0
LINE
  5
111
  8
LAYER0014
  6
CONTINUOUS
 62
     7
 10
-190.7630204245677
 20
-3.33895467685295
 30
0.0
 11
-190.7630204245677
 21
68.66104532314705
 31
0.0
  0
INSERT
  5
112
  8
LAYER0014
 62
     7
  2
_OPEN30
 10
-190.7630204245677
 20
-3.33895467685295
 30
0.0
 41
1.999998407630662
 42
2.000005728319971
 50
270.0
  0
INSERT
  5
113
  8
LAYER0014
 62
     7
  2
_OPEN30
 10
-190.7630204245677
 20
68.66104532314705
 30
0.0
 41
1.999998407630662
 42
2.000005728319971
 50
90.0
  0
TEXT
  5
114
  8
LAYER0014
 62
     7
 10
-191.7630204245677
 20
19.86104532314704
 30
0.0
 40
4.0
  1
M72×P1.5
 50
90.0
 41
0.7804878048780496
  7
FDASTYLE1
 72
     5
 11
-191.7630204245677
 21
45.46104532314706
 31
0.0
  0
ENDBLK
  5
69
  8
0
  0
BLOCK
  8
0
  2
DA_IMAGEDIMGROUP_9
 70
     0
 10
0.0
 20
0.0
 30
0.0
  3
DA_IMAGEDIMGROUP_9
  1

  0
LINE
  5
115
  8
LAYER0014
  6
CONTINUOUS
 62
     7
 10
-172.0503348776927
 20
71.16104532314705
 30
0.0
 11
-204.7677659079661
 21
71.16104532314705
 31
0.0
  0
LINE
  5
116
  8
LAYER0014
  6
CONTINUOUS
 62
     7
 10
-172.0503348776927
 20
-5.83895467685295
 30
0.0
 11
-204.7677659079661
 21
-5.83895467685295
 31
0.0
  0
LINE
  5
117
  8
LAYER0014
  6
CONTINUOUS
 62
     7
 10
-202.4817704245677
 20
71.16104532314705
 30
0.0
 11
-202.4817704245677
 21
-5.83895467685295
 31
0.0
  0
INSERT
  5
118
  8
LAYER0014
 62
     7
  2
_OPEN30
 10
-202.4817704245677
 20
71.16104532314705
 30
0.0
 41
1.999998407630662
 42
2.000005728319971
 50
90.0
  0
INSERT
  5
119
  8
LAYER0014
 62
     7
  2
_OPEN30
 10
-202.4817704245677
 20
-5.83895467685295
 30
0.0
 41
1.999998407630662
 42
2.000005728319971
 50
270.0
  0
TEXT
  5
11A
  8
LAYER0014
 62
     7
 10
-203.490148000724
 20
27.86105263396326
 30
0.0
 40
4.0
  1
φ77
 50
89.90000000000001
 41
0.7500000000000018
  7
FDASTYLE1
 72
     5
 11
-203.4733928484114
 21
37.46103801233085
 31
0.0
  0
ENDBLK
  5
6C
  8
0
  0
BLOCK
  8
0
  2
DA_IMAGEDIMGROUP_10
 70
     0
 10
0.0
 20
0.0
 30
0.0
  3
DA_IMAGEDIMGROUP_10
  1

  0
LINE
  5
11B
  8
LAYER0014
  6
CONTINUOUS
 62
     7
 10
-152.3184470603099
 20
81.66104532314705
 30
0.0
 11
-217.1967362448802
 21
81.66104532314705
 31
0.0
  0
LINE
  5
11C
  8
LAYER0014
  6
CONTINUOUS
 62
     7
 10
-152.3184470603099
 20
-16.33895467685295
 30
0.0
 11
-217.1967362448802
 21
-16.33895467685295
 31
0.0
  0
LINE
  5
11D
  8
LAYER0014
  6
CONTINUOUS
 62
     7
 10
-214.9107407614818
 20
81.66104532314705
 30
0.0
 11
-214.9107407614818
 21
-16.33895467685295
 31
0.0
  0
INSERT
  5
11E
  8
LAYER0014
 62
     7
  2
_OPEN30
 10
-214.9107407614818
 20
81.66104532314705
 30
0.0
 41
1.999998407630662
 42
2.000005728319971
 50
90.0
  0
INSERT
  5
11F
  8
LAYER0014
 62
     7
  2
_OPEN30
 10
-214.9107407614818
 20
-16.33895467685295
 30
0.0
 41
1.999998407630662
 42
2.000005728319971
 50
270.0
  0
TEXT
  5
120
  8
LAYER0014
 62
     7
 10
-215.9191183376381
 20
27.86105263396326
 30
0.0
 40
4.0
  1
φ98
 50
89.90000000000001
 41
0.7500000000000018
  7
FDASTYLE1
 72
     5
 11
-215.9023631853254
 21
37.46103801233085
 31
0.0
  0
ENDBLK
  5
6F
  8
0
  0
BLOCK
  8
0
  2
DA_IMAGEDIMGROUP_11
 70
     0
 10
0.0
 20
0.0
 30
0.0
  3
DA_IMAGEDIMGROUP_11
  1

  0
LINE
  5
121
  8
LAYER0014
  6
CONTINUOUS
 62
     7
 10
-68.47033487769269
 20
65.66104532314705
 30
0.0
 11
-40.33784571143292
 21
65.66104532314705
 31
0.0
  0
LINE
  5
122
  8
LAYER0014
  6
CONTINUOUS
 62
     7
 10
-68.47033487769269
 20
-0.3389546768529499
 30
0.0
 11
-40.33784571143292
 21
-0.3389546768529499
 31
0.0
  0
LINE
  5
123
  8
LAYER0014
  6
CONTINUOUS
 62
     7
 10
-42.62384500952862
 20
65.66104532314705
 30
0.0
 11
-42.62384500952862
 21
-0.3389546768529499
 31
0.0
  0
INSERT
  5
124
  8
LAYER0014
 62
     7
  2
_OPEN30
 10
-42.62384500952862
 20
65.66104532314705
 30
0.0
 41
1.999998407630662
 42
2.000005728319971
 50
90.0
  0
INSERT
  5
125
  8
LAYER0014
 62
     7
  2
_OPEN30
 10
-42.62384500952862
 20
-0.3389546768529499
 30
0.0
 41
1.999998407630662
 42
2.000005728319971
 50
270.0
  0
TEXT
  5
126
  8
LAYER0014
 62
     7
 10
-43.63222258568494
 20
27.86105263396328
 30
0.0
 40
4.0
  1
φ66
 50
89.90000000000001
 41
0.7499999999999996
  7
FDASTYLE1
 72
     5
 11
-43.61546743337231
 21
37.46103801233083
 31
0.0
  0
TEXT
  5
127
  8
LAYER0014
 62
     7
 10
-45.81371875421564
 20
38.4648762116491
 30
0.0
 40
2.2
  1
+0.3
 50
89.90000000000001
 41
0.7999999999999998
  7
FDASTYLE1
 72
     5
 11
-45.80143164251972
 21
45.50486548911864
 31
0.0
  0
TEXT
  5
128
  8
LAYER0014
 62
     7
 10
-43.41372240962375
 20
38.46068742357095
 30
0.0
 40
2.2
  1
　0
 50
89.90000000000001
 41
0.7272727272727272
  7
FDASTYLE1
 72
     5
 11
-43.40757885377579
 21
41.98068206230572
 31
0.0
  0
ENDBLK
  5
72
  8
0
  0
BLOCK
  8
0
  2
DA_IMAGEDIMGROUP_12
 70
     0
 10
0.0
 20
0.0
 30
0.0
  3
DA_IMAGEDIMGROUP_12
  1

  0
LINE
  5
129
  8
LAYER0014
  6
CONTINUOUS
 62
     7
 10
-119.5103348776927
 20
10.09937501980232
 30
0.0
 11
-71.01033487769269
 21
10.09937501980232
 31
0.0
  0
INSERT
  5
12A
  8
LAYER0014
 62
     7
  2
_OPEN30
 10
-119.5103348776927
 20
10.09937501980232
 30
0.0
 41
1.999998407630662
 42
2.000005728319971
 50
180.0
  0
INSERT
  5
12B
  8
LAYER0014
 62
     7
  2
_OPEN30
 10
-71.01033487769269
 20
10.09937501980232
 30
0.0
 41
1.999998407630662
 42
2.000005728319971
 50
360.0
  0
TEXT
  5
12C
  8
LAYER0014
 62
     7
 10
-101.6603348776927
 20
11.69937501980232
 30
0.0
 40
4.0
  1
48.5
 41
0.8000000000000007
  7
FDASTYLE1
 72
     5
 11
-88.86033487769268
 21
11.69937501980232
 31
0.0
  0
ENDBLK
  5
75
  8
0
  0
BLOCK
  8
0
  2
DA_IMAGEDIMGROUP_13
 70
     0
 10
0.0
 20
0.0
 30
0.0
  3
DA_IMAGEDIMGROUP_13
  1

  0
LINE
  5
12D
  8
LAYER0014
  6
CONTINUOUS
 62
     7
 10
-71.01033487769269
 20
10.09937501980232
 30
0.0
 11
-61.77844706030987
 21
10.09937501980232
 31
0.0
  0
LINE
  5
12E
  8
LAYER0014
  6
CONTINUOUS
 62
     7
 10
-48.24659706030988
 20
10.09937501980232
 30
0.0
 11
-61.77844706030987
 21
10.09937501980232
 31
0.0
  0
INSERT
  5
12F
  8
LAYER0014
 62
     7
  2
_OPEN30
 10
-61.77844706030987
 20
10.09937501980232
 30
0.0
 41
1.999998407630662
 42
2.000005728319971
 50
180.0
  0
LINE
  5
130
  8
LAYER0014
  6
CONTINUOUS
 62
     7
 10
-76.01033487769269
 20
10.09937501980232
 30
0.0
 11
-71.01033487769269
 21
10.09937501980232
 31
0.0
  0
INSERT
  5
131
  8
LAYER0014
 62
     7
  2
_OPEN30
 10
-71.01033487769269
 20
10.09937501980232
 30
0.0
 41
1.999998407630662
 42
2.000005728319971
 50
360.0
  0
TEXT
  5
132
  8
LAYER0014
 62
     7
 10
-58.84659706030988
 20
11.09937501980232
 30
0.0
 40
4.0
  1
9.5
 41
0.8000000000000002
  7
FDASTYLE1
 72
     5
 11
-49.24659706030987
 21
11.09937501980232
 31
0.0
  0
ENDBLK
  5
78
  8
0
  0
BLOCK
  8
0
  2
DA_IMAGEDIMGROUP_14
 70
     0
 10
0.0
 20
0.0
 30
0.0
  3
DA_IMAGEDIMGROUP_14
  1

  0
LINE
  5
133
  8
LAYER0014
  6
CONTINUOUS
 62
     7
 10
-61.77844706030987
 20
142.7010376937525
 30
0.0
 11
-61.77844706030987
 21
159.4446833236353
 31
0.0
  0
LINE
  5
134
  8
LAYER0014
  6
CONTINUOUS
 62
     7
 10
-59.77844706030987
 20
142.7010376937525
 30
0.0
 11
-59.77844706030987
 21
159.4446833236353
 31
0.0
  0
LINE
  5
135
  8
LAYER0014
  6
CONTINUOUS
 62
     7
 10
-61.77844706030987
 20
158.4446833236353
 30
0.0
 11
-59.77844706030987
 21
158.4446833236353
 31
0.0
  0
LINE
  5
136
  8
LAYER0014
  6
CONTINUOUS
 62
     7
 10
-102.2556214377513
 20
158.4446833236353
 30
0.0
 11
-61.77844706030987
 21
158.4446833236353
 31
0.0
  0
INSERT
  5
137
  8
LAYER0014
 62
     7
  2
_OPEN30
 10
-61.77844706030987
 20
158.4446833236353
 30
0.0
 41
1.999998407630662
 42
2.000005728319971
 50
360.0
  0
LINE
  5
138
  8
LAYER0014
  6
CONTINUOUS
 62
     7
 10
-54.77844706030987
 20
158.4446833236353
 30
0.0
 11
-59.77844706030987
 21
158.4446833236353
 31
0.0
  0
INSERT
  5
139
  8
LAYER0014
 62
     7
  2
_OPEN30
 10
-59.77844706030987
 20
158.4446833236353
 30
0.0
 41
1.999998407630662
 42
2.000005728319971
 50
180.0
  0
TEXT
  5
13A
  8
LAYER0014
 62
     7
 10
-101.2556214377513
 20
159.4446833236353
 30
0.0
 40
4.0
  1
2(ﾁｬｯｸ上面ﾖﾘ)
 41
0.7719298245614036
  7
FDASTYLE1
 72
     5
 11
-66.05562143775128
 21
159.4446833236353
 31
0.0
  0
ENDBLK
  5
7B
  8
0
  0
BLOCK
  8
0
  2
DA_IMAGEDIMGROUP_15
 70
     0
 10
0.0
 20
0.0
 30
0.0
  3
DA_IMAGEDIMGROUP_15
  1

  0
LINE
  5
13B
  8
LAYER0014
  6
CONTINUOUS
 62
     7
 10
-192.3184470603099
 20
-28.01395772861076
 30
0.0
 11
-205.0553940817943
 21
-28.01395772861076
 31
0.0
  0
LINE
  5
13C
  8
LAYER0014
  6
CONTINUOUS
 62
     7
 10
-192.3184470603099
 20
-40.01395772861076
 30
0.0
 11
-205.0553940817943
 21
-40.01395772861076
 31
0.0
  0
LINE
  5
13D
  8
LAYER0014
  6
CONTINUOUS
 62
     7
 10
-202.7693985983958
 20
-28.01395772861076
 30
0.0
 11
-202.7693985983958
 21
-40.01395772861076
 31
0.0
  0
INSERT
  5
13E
  8
LAYER0014
 62
     7
  2
_OPEN30
 10
-202.7693985983958
 20
-28.01395772861076
 30
0.0
 41
1.999998407630662
 42
2.000005728319971
 50
90.0
  0
INSERT
  5
13F
  8
LAYER0014
 62
     7
  2
_OPEN30
 10
-202.7693985983958
 20
-40.01395772861076
 30
0.0
 41
1.999998407630662
 42
2.000005728319971
 50
270.0
  0
TEXT
  5
140
  8
LAYER0014
 62
     7
 10
-203.7777761745521
 20
-38.81395041779455
 30
0.0
 40
4.0
  1
M12
 50
89.90000000000001
 41
0.8000000000000016
  7
FDASTYLE1
 72
     5
 11
-203.7610210222395
 21
-29.21396503942697
 31
0.0
  0
ENDBLK
  5
7E
  8
0
  0
BLOCK
  8
0
  2
DA_IMAGEDIMGROUP_16
 70
     0
 10
0.0
 20
0.0
 30
0.0
  3
DA_IMAGEDIMGROUP_16
  1

  0
LINE
  5
141
  8
LAYER0014
  6
CONTINUOUS
 62
     7
 10
-189.7784470603099
 20
-95.92428945468498
 30
0.0
 11
-166.7784470603099
 21
-95.92428945468498
 31
0.0
  0
INSERT
  5
142
  8
LAYER0014
 62
     7
  2
_OPEN30
 10
-189.7784470603099
 20
-95.92428945468498
 30
0.0
 41
1.999998407630662
 42
2.000005728319971
 50
180.0
  0
INSERT
  5
143
  8
LAYER0014
 62
     7
  2
_OPEN30
 10
-166.7784470603099
 20
-95.92428945468498
 30
0.0
 41
1.999998407630662
 42
2.000005728319971
 50
360.0
  0
LINE
  5
144
  8
LAYER0014
  6
CONTINUOUS
 62
     7
 10
-189.7784470603099
 20
-42.55395772861076
 30
0.0
 11
-189.7784470603099
 21
-96.92428945468498
 31
0.0
  0
LINE
  5
145
  8
LAYER0014
  6
CONTINUOUS
 62
     7
 10
-166.7784470603099
 20
-62.37895467685296
 30
0.0
 11
-166.7784470603099
 21
-96.92428945468498
 31
0.0
  0
TEXT
  5
146
  8
LAYER0014
 62
     7
 10
-181.4784470603099
 20
-94.32428945468499
 30
0.0
 40
4.0
  1
23
 41
0.7999999999999972
  7
FDASTYLE1
 72
     5
 11
-175.0784470603099
 21
-94.32428945468499
 31
0.0
  0
ENDBLK
  5
81
  8
0
  0
BLOCK
  8
0
  2
DA_IMAGEDIMGROUP_17
 70
     0
 10
0.0
 20
0.0
 30
0.0
  3
DA_IMAGEDIMGROUP_17
  1

  0
LINE
  5
147
  8
LAYER0014
  6
CONTINUOUS
 62
     7
 10
-221.7728843161692
 20
99.36104227138924
 30
0.0
 11
-229.339024452888
 21
99.36104227138924
 31
0.0
  0
LINE
  5
148
  8
LAYER0014
  6
CONTINUOUS
 62
     7
 10
-222.2594718405833
 20
32.66104532314705
 30
0.0
 11
-229.339024452888
 21
32.66104532314705
 31
0.0
  0
LINE
  5
149
  8
LAYER0014
  6
CONTINUOUS
 62
     7
 10
-227.0530289694896
 20
99.36104227138924
 30
0.0
 11
-227.0530289694896
 21
32.66104532314705
 31
0.0
  0
INSERT
  5
14A
  8
LAYER0014
 62
     7
  2
_OPEN30
 10
-227.0530289694896
 20
99.36104227138924
 30
0.0
 41
1.999998407630662
 42
2.000005728319971
 50
90.0
  0
INSERT
  5
14B
  8
LAYER0014
 62
     7
  2
_OPEN30
 10
-227.0530289694896
 20
32.66104532314705
 30
0.0
 41
1.999998407630662
 42
2.000005728319971
 50
270.0
  0
TEXT
  5
14C
  8
LAYER0014
 62
     7
 10
-228.0641990710313
 20
59.6110535450231
 30
0.0
 40
4.0
  1
66.7
 50
89.90000000000001
 41
0.8000000000000007
  7
FDASTYLE1
 72
     5
 11
-228.0418588679478
 21
72.41103404951319
 31
0.0
  0
ENDBLK
  5
84
  8
0
  0
BLOCK
  8
0
  2
DA_IMAGEDIMGROUP_18
 70
     0
 10
0.0
 20
0.0
 30
0.0
  3
DA_IMAGEDIMGROUP_18
  1

  0
LINE
  5
14D
  8
LAYER0014
  6
CONTINUOUS
 62
     7
 10
-169.3184470603099
 20
109.0910456283228
 30
0.0
 11
-216.9914292380443
 21
109.0910456283228
 31
0.0
  0
LINE
  5
14E
  8
LAYER0014
  6
CONTINUOUS
 62
     7
 10
-169.3184470603099
 20
89.63103891445564
 30
0.0
 11
-216.9914292380443
 21
89.63103891445564
 31
0.0
  0
LINE
  5
14F
  8
LAYER0014
  6
CONTINUOUS
 62
     7
 10
-214.7054337546458
 20
109.0910456283228
 30
0.0
 11
-214.7054337546458
 21
89.63103891445564
 31
0.0
  0
INSERT
  5
150
  8
LAYER0014
 62
     7
  2
_OPEN30
 10
-214.7054337546458
 20
109.0910456283228
 30
0.0
 41
1.999998407630662
 42
2.000005728319971
 50
90.0
  0
INSERT
  5
151
  8
LAYER0014
 62
     7
  2
_OPEN30
 10
-214.7054337546458
 20
89.63103891445564
 30
0.0
 41
1.999998407630662
 42
2.000005728319971
 50
270.0
  0
TEXT
  5
152
  8
LAYER0014
 62
     7
 10
-215.7221889069585
 20
89.76105689302167
 30
0.0
 40
4.0
  1
φ19.46
 50
89.90000000000001
 41
0.7741935483870969
  7
FDASTYLE1
 72
     5
 11
-215.6886786023332
 21
108.9610276497568
 31
0.0
  0
TEXT
  5
153
  8
LAYER0014
 62
     7
 10
-217.8869299231766
 20
109.9648658490751
 30
0.0
 40
2.2
  1
+0.1
 50
89.90000000000001
 41
0.7999999999999998
  7
FDASTYLE1
 72
     5
 11
-217.8746428114806
 21
117.0048551265446
 31
0.0
  0
TEXT
  5
154
  8
LAYER0014
 62
     7
 10
-215.4869335785847
 20
109.9606770609969
 30
0.0
 40
2.2
  1
　0
 50
89.90000000000001
 41
0.7272727272727302
  7
FDASTYLE1
 72
     5
 11
-215.4807900227367
 21
113.4806716997317
 31
0.0
  0
ENDBLK
  5
87
  8
0
  0
BLOCK
  8
0
  2
DA_IMAGEDIMGROUP_19
 70
     0
 10
0.0
 20
0.0
 30
0.0
  3
DA_IMAGEDIMGROUP_19
  1

  0
LINE
  5
155
  8
LAYER0014
  6
CONTINUOUS
 62
     7
 10
-169.3184470603099
 20
85.84104562832283
 30
0.0
 11
-241.6866501853099
 21
85.84104562832283
 31
0.0
  0
LINE
  5
156
  8
LAYER0014
  6
CONTINUOUS
 62
     7
 10
-169.3184470603099
 20
-20.51895498202873
 30
0.0
 11
-241.6866501853099
 21
-20.51895498202873
 31
0.0
  0
LINE
  5
157
  8
LAYER0014
  6
CONTINUOUS
 62
     7
 10
-239.4006547019114
 20
85.84104562832283
 30
0.0
 11
-239.4006547019114
 21
-20.51895498202873
 31
0.0
  0
INSERT
  5
158
  8
LAYER0014
 62
     7
  2
_OPEN30
 10
-239.4006547019114
 20
85.84104562832283
 30
0.0
 41
1.999998407630662
 42
2.000005728319971
 50
90.0
  0
INSERT
  5
159
  8
LAYER0014
 62
     7
  2
_OPEN30
 10
-239.4006547019114
 20
-20.51895498202873
 30
0.0
 41
1.999998407630662
 42
2.000005728319971
 50
270.0
  0
TEXT
  5
15A
  8
LAYER0014
 62
     7
 10
-240.4481276334639
 20
5.46108675110564
 30
0.0
 40
4.0
  1
φ106.36(A2-6テーパー）
 50
89.90000000000001
 41
0.7472527472527468
  7
FDASTYLE1
 72
     5
 11
-240.353181770359
 21
59.86100389518846
 31
0.0
  0
ENDBLK
  5
8A
  8
0
  0
BLOCK
  8
0
  2
DA_IMAGEDIMGROUP_20
 70
     0
 10
0.0
 20
0.0
 30
0.0
  3
DA_IMAGEDIMGROUP_20
  1

  0
LINE
  5
15B
  8
LAYER0014
  6
CONTINUOUS
 62
     7
 10
-170.3184470603099
 20
-59.83895467685295
 30
0.0
 11
-254.4458512351146
 21
-59.83895467685295
 31
0.0
  0
LINE
  5
15C
  8
LAYER0014
  6
CONTINUOUS
 62
     7
 10
-170.3184470603099
 20
125.1610453231471
 30
0.0
 11
-254.4458512351146
 21
125.1610453231471
 31
0.0
  0
LINE
  5
15D
  8
LAYER0014
  6
CONTINUOUS
 62
     7
 10
-252.1598557517161
 20
-59.83895467685295
 30
0.0
 11
-252.1598557517161
 21
125.1610453231471
 31
0.0
  0
INSERT
  5
15E
  8
LAYER0014
 62
     7
  2
_OPEN30
 10
-252.1598557517161
 20
-59.83895467685295
 30
0.0
 41
1.999998407630662
 42
2.000005728319971
 50
270.0
  0
INSERT
  5
15F
  8
LAYER0014
 62
     7
  2
_OPEN30
 10
-252.1598557517161
 20
125.1610453231471
 30
0.0
 41
1.999998407630662
 42
2.000005728319971
 50
90.0
  0
TEXT
  5
160
  8
LAYER0014
 62
     7
 10
-253.1710258532579
 20
26.26105507090203
 30
0.0
 40
4.0
  1
φ185
 50
89.90000000000001
 41
0.7619047619047609
  7
FDASTYLE1
 72
     5
 11
-253.1486856501744
 21
39.0610355753921
 31
0.0
  0
ENDBLK
  5
8D
  8
0
  0
BLOCK
  8
0
  2
DA_IMAGEDIMGROUP_21
 70
     0
 10
0.0
 20
0.0
 30
0.0
  3
DA_IMAGEDIMGROUP_21
  1

  0
LINE
  5
161
  8
LAYER0014
  6
CONTINUOUS
 62
     7
 10
-239.1466501853099
 20
-20.51861165927483
 30
0.0
 11
-225.2822617575755
 21
-20.51861165927483
 31
0.0
  0
LINE
  5
162
  8
LAYER0014
  6
CONTINUOUS
 62
     7
 10
-169.2988396679728
 20
-20.83400237946593
 30
0.0
 11
-229.3671829812258
 21
-28.34251778098173
 31
0.0
  0
ENDBLK
  5
90
  8
0
  0
BLOCK
  8
0
  2
DA_IMAGEDIMGROUP_22
 70
     0
 10
0.0
 20
0.0
 30
0.0
  3
DA_IMAGEDIMGROUP_22
  1

  0
LINE
  5
163
  8
LAYER0014
  6
CONTINUOUS
 62
     7
 10
-160.2784470603099
 20
111.6310456283228
 30
0.0
 11
-160.2784470603099
 21
117.5800364120142
 31
0.0
  0
LINE
  5
164
  8
LAYER0014
  6
CONTINUOUS
 62
     7
 10
-160.2784470603099
 20
116.5800364120142
 30
0.0
 11
-166.7784470603099
 21
116.5800364120142
 31
0.0
  0
LINE
  5
165
  8
LAYER0014
  6
CONTINUOUS
 62
     7
 10
-191.5241715476146
 20
116.5800364120142
 30
0.0
 11
-166.7784470603099
 21
116.5800364120142
 31
0.0
  0
INSERT
  5
166
  8
LAYER0014
 62
     7
  2
_OPEN30
 10
-166.7784470603099
 20
116.5800364120142
 30
0.0
 41
1.999998407630662
 42
2.000005728319971
 50
360.0
  0
LINE
  5
167
  8
LAYER0014
  6
CONTINUOUS
 62
     7
 10
-155.2784470603099
 20
116.5800364120142
 30
0.0
 11
-160.2784470603099
 21
116.5800364120142
 31
0.0
  0
INSERT
  5
168
  8
LAYER0014
 62
     7
  2
_OPEN30
 10
-160.2784470603099
 20
116.5800364120142
 30
0.0
 41
1.999998407630662
 42
2.000005728319971
 50
180.0
  0
TEXT
  5
169
  8
LAYER0014
 62
     7
 10
-190.5241715476145
 20
117.5800364120142
 30
0.0
 40
4.0
  1
6.5
 41
0.7999999999999995
  7
FDASTYLE1
 72
     5
 11
-180.9241715476146
 21
117.5800364120142
 31
0.0
  0
ENDBLK
  5
93
  8
0
  0
BLOCK
  8
0
  2
DA_IMAGEDIMGROUP_23
 70
     0
 10
0.0
 20
0.0
 30
0.0
  3
DA_IMAGEDIMGROUP_23
  1

  0
LINE
  5
16A
  8
LAYER0014
  6
CONTINUOUS
 62
     7
 10
-166.7784470603099
 20
-95.92428945468498
 30
0.0
 11
-149.7784470603099
 21
-95.92428945468498
 31
0.0
  0
INSERT
  5
16B
  8
LAYER0014
 62
     7
  2
_OPEN30
 10
-166.7784470603099
 20
-95.92428945468498
 30
0.0
 41
1.999998407630662
 42
2.000005728319971
 50
180.0
  0
INSERT
  5
16C
  8
LAYER0014
 62
     7
  2
_OPEN30
 10
-149.7784470603099
 20
-95.92428945468498
 30
0.0
 41
1.999998407630662
 42
2.000005728319971
 50
360.0
  0
LINE
  5
16D
  8
LAYER0014
  6
CONTINUOUS
 62
     7
 10
-166.7784470603099
 20
-62.37895467685296
 30
0.0
 11
-166.7784470603099
 21
-96.92428945468498
 31
0.0
  0
LINE
  5
16E
  8
LAYER0014
  6
CONTINUOUS
 62
     7
 10
-149.7784470603099
 20
-20.93396070407463
 30
0.0
 11
-149.7784470603099
 21
-96.92428945468498
 31
0.0
  0
TEXT
  5
16F
  8
LAYER0014
 62
     7
 10
-161.4784470603099
 20
-94.32428945468499
 30
0.0
 40
4.0
  1
17
 41
0.7999999999999972
  7
FDASTYLE1
 72
     5
 11
-155.0784470603099
 21
-94.32428945468499
 31
0.0
  0
ENDBLK
  5
96
  8
0
  0
BLOCK
  8
0
  2
DA_IMAGEDIMGROUP_24
 70
     0
 10
0.0
 20
0.0
 30
0.0
  3
DA_IMAGEDIMGROUP_24
  1

  0
LINE
  5
170
  8
LAYER0014
  6
CONTINUOUS
 62
     7
 10
-167.7784470603099
 20
-105.8789555923803
 30
0.0
 11
-166.7784470603099
 21
-105.8789555923803
 31
0.0
  0
LINE
  5
171
  8
LAYER0014
  6
CONTINUOUS
 62
     7
 10
-167.7784470603099
 20
-77.37895467685296
 30
0.0
 11
-167.7784470603099
 21
-106.8789555923803
 31
0.0
  0
LINE
  5
172
  8
LAYER0014
  6
CONTINUOUS
 62
     7
 10
-166.7784470603099
 20
-62.37895467685296
 30
0.0
 11
-166.7784470603099
 21
-106.8789555923803
 31
0.0
  0
LINE
  5
173
  8
LAYER0014
  6
CONTINUOUS
 62
     7
 10
-174.9102970603099
 20
-105.8789555923803
 30
0.0
 11
-167.7784470603099
 21
-105.8789555923803
 31
0.0
  0
INSERT
  5
174
  8
LAYER0014
 62
     7
  2
_OPEN30
 10
-167.7784470603099
 20
-105.8789555923803
 30
0.0
 41
1.999998407630662
 42
2.000005728319971
 50
360.0
  0
LINE
  5
175
  8
LAYER0014
  6
CONTINUOUS
 62
     7
 10
-161.7784470603099
 20
-105.8789555923803
 30
0.0
 11
-166.7784470603099
 21
-105.8789555923803
 31
0.0
  0
INSERT
  5
176
  8
LAYER0014
 62
     7
  2
_OPEN30
 10
-166.7784470603099
 20
-105.8789555923803
 30
0.0
 41
1.999998407630662
 42
2.000005728319971
 50
180.0
  0
TEXT
  5
177
  8
LAYER0014
 62
     7
 10
-173.9102970603099
 20
-104.8789555923803
 30
0.0
 40
4.0
  1
1
 41
0.7999999999999972
  7
FDASTYLE1
 72
     5
 11
-170.7102970603099
 21
-104.8789555923803
 31
0.0
  0
ENDBLK
  5
99
  8
0
  0
BLOCK
  8
0
  2
DA_IMAGEDIMGROUP_25
 70
     0
 10
0.0
 20
0.0
 30
0.0
  3
DA_IMAGEDIMGROUP_25
  1

  0
LINE
  5
178
  8
LAYER0014
  6
CONTINUOUS
 62
     7
 10
-166.7784470603099
 20
-105.8789555923803
 30
0.0
 11
-61.77844706030987
 21
-105.8789555923803
 31
0.0
  0
INSERT
  5
179
  8
LAYER0014
 62
     7
  2
_OPEN30
 10
-166.7784470603099
 20
-105.8789555923803
 30
0.0
 41
1.999998407630662
 42
2.000005728319971
 50
180.0
  0
INSERT
  5
17A
  8
LAYER0014
 62
     7
  2
_OPEN30
 10
-61.77844706030987
 20
-105.8789555923803
 30
0.0
 41
1.999998407630662
 42
2.000005728319971
 50
360.0
  0
LINE
  5
17B
  8
LAYER0014
  6
CONTINUOUS
 62
     7
 10
-166.7784470603099
 20
-62.37895467685296
 30
0.0
 11
-166.7784470603099
 21
-106.8789555923803
 31
0.0
  0
LINE
  5
17C
  8
LAYER0014
  6
CONTINUOUS
 62
     7
 10
-61.77844706030987
 20
-75.37895467685296
 30
0.0
 11
-61.77844706030987
 21
-106.8789555923803
 31
0.0
  0
TEXT
  5
17D
  8
LAYER0014
 62
     7
 10
-119.0784470603099
 20
-104.8789555923803
 30
0.0
 40
4.0
  1
105
 41
0.7999999999999995
  7
FDASTYLE1
 72
     5
 11
-109.4784470603099
 21
-104.8789555923803
 31
0.0
  0
ENDBLK
  5
9C
  8
0
  0
BLOCK
  8
0
  2
DC_GROUP_3
 70
     0
 10
0.0
 20
0.0
 30
0.0
  3
DC_GROUP_3
  1

  0
LINE
  5
17E
  8
LAYER0014
  6
CONTINUOUS
 62
     7
 10
-121.5347037199136
 20
-75.0008139943435
 30
0.0
 11
-111.0322549842235
 21
-85.37032083093652
 31
0.0
  0
INSERT
  5
17F
  8
LAYER0014
 62
     7
  2
_OPEN30
 10
-121.5347037199136
 20
-75.0008139943435
 30
0.0
 41
1.999998407630662
 42
2.000005728319971
 50
135.3649349822192
  0
LINE
  5
180
  8
LAYER0014
  6
CONTINUOUS
 62
     7
 10
-111.032254128181
 20
-85.37031911777092
 30
0.0
 11
-93.33132997658692
 21
-85.37031911777092
 31
0.0
  0
TEXT
  5
181
  8
LAYER0014
 62
     7
 10
-110.5004853293528
 20
-83.77031911777092
 30
0.0
 40
4.0
  1
M8×20
 41
0.7692307692307692
  7
FDASTYLE1
 72
     5
 11
-94.50048532935284
 21
-83.77031911777092
 31
0.0
  0
ENDBLK
  5
9F
  8
0
  0
BLOCK
  8
0
  2
DA_IMAGEDIMGROUP_26
 70
     0
 10
0.0
 20
0.0
 30
0.0
  3
DA_IMAGEDIMGROUP_26
  1

  0
LINE
  5
182
  8
LAYER0014
  6
CONTINUOUS
 62
     7
 10
-153.5103348776927
 20
10.09937501980232
 30
0.0
 11
-149.5103348776927
 21
10.09937501980232
 31
0.0
  0
LINE
  5
183
  8
LAYER0014
  6
CONTINUOUS
 62
     7
 10
-153.5103348776927
 20
10.09937501980232
 30
0.0
 11
-149.5103348776927
 21
10.09937501980232
 31
0.0
  0
TEXT
  5
184
  8
LAYER0014
 62
     7
 10
-153.1103348776927
 20
11.69937501980232
 30
0.0
 40
4.0
  1
4
 41
0.7999999999999972
  7
FDASTYLE1
 72
     5
 11
-149.9103348776927
 21
11.69937501980232
 31
0.0
  0
LINE
  5
185
  8
LAYER0014
  6
CONTINUOUS
 62
     7
 10
-153.5103348776927
 20
10.09937501980232
 30
0.0
 11
-159.8603348776927
 21
10.09937501980232
 31
0.0
  0
INSERT
  5
186
  8
LAYER0014
 62
     7
  2
_OPEN30
 10
-153.5103348776927
 20
10.09937501980232
 30
0.0
 41
1.999998407630662
 42
2.000005728319971
 50
360.0
  0
ENDBLK
  5
A2
  8
0
  0
BLOCK
  8
0
  2
DA_IMAGEDIMGROUP_27
 70
     0
 10
0.0
 20
0.0
 30
0.0
  3
DA_IMAGEDIMGROUP_27
  1

  0
LINE
  5
187
  8
LAYER0014
  6
CONTINUOUS
 62
     7
 10
-169.5103348776927
 20
10.09937501980232
 30
0.0
 11
-153.5103348776927
 21
10.09937501980232
 31
0.0
  0
INSERT
  5
188
  8
LAYER0014
 62
     7
  2
_OPEN30
 10
-169.5103348776927
 20
10.09937501980232
 30
0.0
 41
1.999998407630662
 42
2.000005728319971
 50
180.0
  0
INSERT
  5
189
  8
LAYER0014
 62
     7
  2
_OPEN30
 10
-153.5103348776927
 20
10.09937501980232
 30
0.0
 41
1.999998407630662
 42
2.000005728319971
 50
360.0
  0
TEXT
  5
18A
  8
LAYER0014
 62
     7
 10
-164.7103348776927
 20
11.69937501980232
 30
0.0
 40
4.0
  1
16
 41
0.7999999999999972
  7
FDASTYLE1
 72
     5
 11
-158.3103348776927
 21
11.69937501980232
 31
0.0
  0
ENDBLK
  5
A5
  8
0
  0
BLOCK
  8
0
  2
DA_IMAGEDIMGROUP_28
 70
     0
 10
0.0
 20
0.0
 30
0.0
  3
DA_IMAGEDIMGROUP_28
  1

  0
LINE
  5
18B
  8
LAYER0014
  6
CONTINUOUS
 62
     7
 10
-149.5103348776927
 20
10.147789250149
 30
0.0
 11
-119.5103348776927
 21
10.147789250149
 31
0.0
  0
INSERT
  5
18C
  8
LAYER0014
 62
     7
  2
_OPEN30
 10
-149.5103348776927
 20
10.147789250149
 30
0.0
 41
1.999998407630662
 42
2.000005728319971
 50
180.0
  0
INSERT
  5
18D
  8
LAYER0014
 62
     7
  2
_OPEN30
 10
-119.5103348776927
 20
10.147789250149
 30
0.0
 41
1.999998407630662
 42
2.000005728319971
 50
360.0
  0
TEXT
  5
18E
  8
LAYER0014
 62
     7
 10
-137.7075374784297
 20
11.75337186398114
 30
0.0
 40
4.0
  1
30
 50
-0.1000000000000078
 41
0.7999999999999954
  7
FDASTYLE1
 72
     5
 11
-131.3075472261847
 21
11.74220176243939
 31
0.0
  0
ENDBLK
  5
A8
  8
0
  0
BLOCK
  8
0
  2
DA_IMAGEDIMGROUP_29
 70
     0
 10
0.0
 20
0.0
 30
0.0
  3
DA_IMAGEDIMGROUP_29
  1

  0
LINE
  5
18F
  8
LAYER0014
  6
CONTINUOUS
 62
     7
 10
-178.5103348776927
 20
72.70104532314706
 30
0.0
 11
-178.5103348776927
 21
169.7700159652369
 31
0.0
  0
LINE
  5
190
  8
LAYER0014
  6
CONTINUOUS
 62
     7
 10
-166.7784470603099
 20
127.701045323147
 30
0.0
 11
-166.7784470603099
 21
169.7700159652369
 31
0.0
  0
LINE
  5
191
  8
LAYER0014
  6
CONTINUOUS
 62
     7
 10
-178.5103348776927
 20
168.7700159652369
 30
0.0
 11
-166.7784470603099
 21
168.7700159652369
 31
0.0
  0
INSERT
  5
192
  8
LAYER0014
 62
     7
  2
_OPEN30
 10
-178.5103348776927
 20
168.7700159652369
 30
0.0
 41
1.999998407630662
 42
2.000005728319971
 50
180.0
  0
INSERT
  5
193
  8
LAYER0014
 62
     7
  2
_OPEN30
 10
-166.7784470603099
 20
168.7700159652369
 30
0.0
 41
1.999998407630662
 42
2.000005728319971
 50
360.0
  0
TEXT
  5
194
  8
LAYER0014
 62
     7
 10
-175.8443909690013
 20
169.7700159652369
 30
0.0
 40
4.0
  1
12
 41
0.7999999999999972
  7
FDASTYLE1
 72
     5
 11
-169.4443909690013
 21
169.7700159652369
 31
0.0
  0
ENDBLK
  5
AB
  8
0
  0
BLOCK
  8
0
  2
DA_IMAGEDIMGROUP_30
 70
     0
 10
0.0
 20
0.0
 30
0.0
  3
DA_IMAGEDIMGROUP_30
  1

  0
LINE
  5
195
  8
LAYER0014
  6
CONTINUOUS
 62
     7
 10
-166.7784470603099
 20
127.701045323147
 30
0.0
 11
-166.7784470603099
 21
169.7700159652369
 31
0.0
  0
LINE
  5
196
  8
LAYER0014
  6
CONTINUOUS
 62
     7
 10
-160.5103348776927
 20
72.70104532314706
 30
0.0
 11
-160.5103348776927
 21
169.7700159652369
 31
0.0
  0
LINE
  5
197
  8
LAYER0014
  6
CONTINUOUS
 62
     7
 10
-166.7784470603099
 20
168.7700159652369
 30
0.0
 11
-160.5103348776927
 21
168.7700159652369
 31
0.0
  0
LINE
  5
198
  8
LAYER0014
  6
CONTINUOUS
 62
     7
 10
-155.5103348776927
 20
168.7700159652369
 30
0.0
 11
-160.5103348776927
 21
168.7700159652369
 31
0.0
  0
INSERT
  5
199
  8
LAYER0014
 62
     7
  2
_OPEN30
 10
-160.5103348776927
 20
168.7700159652369
 30
0.0
 41
1.999998407630662
 42
2.000005728319971
 50
180.0
  0
LINE
  5
19A
  8
LAYER0014
  6
CONTINUOUS
 62
     7
 10
-171.7784470603099
 20
168.7700159652369
 30
0.0
 11
-166.7784470603099
 21
168.7700159652369
 31
0.0
  0
INSERT
  5
19B
  8
LAYER0014
 62
     7
  2
_OPEN30
 10
-166.7784470603099
 20
168.7700159652369
 30
0.0
 41
1.999998407630662
 42
2.000005728319971
 50
360.0
  0
TEXT
  5
19C
  8
LAYER0014
 62
     7
 10
-165.2443909690013
 20
169.7700159652369
 30
0.0
 40
4.0
  1
6
 41
0.7999999999999972
  7
FDASTYLE1
 72
     5
 11
-162.0443909690013
 21
169.7700159652369
 31
0.0
  0
ENDBLK
  5
AE
  8
0
  0
BLOCK
  8
0
  2
DA_IMAGEDIMGROUP_31
 70
     0
 10
0.0
 20
0.0
 30
0.0
  3
DA_IMAGEDIMGROUP_31
  1

  0
LINE
  5
19D
  8
LAYER0014
  6
CONTINUOUS
 62
     7
 10
-169.5103348776927
 20
72.70104532314706
 30
0.0
 11
-169.5103348776927
 21
159.4446833236353
 31
0.0
  0
LINE
  5
19E
  8
LAYER0014
  6
CONTINUOUS
 62
     7
 10
-141.5103348776927
 20
83.20104532314706
 30
0.0
 11
-141.5103348776927
 21
159.4446833236353
 31
0.0
  0
LINE
  5
19F
  8
LAYER0014
  6
CONTINUOUS
 62
     7
 10
-169.5103348776927
 20
158.4446833236353
 30
0.0
 11
-141.5103348776927
 21
158.4446833236353
 31
0.0
  0
INSERT
  5
1A0
  8
LAYER0014
 62
     7
  2
_OPEN30
 10
-169.5103348776927
 20
158.4446833236353
 30
0.0
 41
1.999998407630662
 42
2.000005728319971
 50
180.0
  0
INSERT
  5
1A1
  8
LAYER0014
 62
     7
  2
_OPEN30
 10
-141.5103348776927
 20
158.4446833236353
 30
0.0
 41
1.999998407630662
 42
2.000005728319971
 50
360.0
  0
TEXT
  5
1A2
  8
LAYER0014
 62
     7
 10
-158.7103348776927
 20
159.4446833236353
 30
0.0
 40
4.0
  1
28
 41
0.7999999999999972
  7
FDASTYLE1
 72
     5
 11
-152.3103348776927
 21
159.4446833236353
 31
0.0
  0
ENDBLK
  5
B1
  8
0
  0
BLOCK
  8
0
  2
DA_IMAGEDIMGROUP_32
 70
     0
 10
0.0
 20
0.0
 30
0.0
  3
DA_IMAGEDIMGROUP_32
  1

  0
LINE
  5
1A3
  8
LAYER0014
  6
CONTINUOUS
 62
     7
 10
-170.3184470603099
 20
140.1610376937525
 30
0.0
 11
-267.2050675437083
 21
140.1610376937525
 31
0.0
  0
LINE
  5
1A4
  8
LAYER0014
  6
CONTINUOUS
 62
     7
 10
-170.3184470603099
 20
-74.83895467685295
 30
0.0
 11
-267.2050675437083
 21
-74.83895467685295
 31
0.0
  0
LINE
  5
1A5
  8
LAYER0014
  6
CONTINUOUS
 62
     7
 10
-264.9190568015208
 20
140.1610376937525
 30
0.0
 11
-264.9190568015208
 21
-74.83895467685295
 31
0.0
  0
INSERT
  5
1A6
  8
LAYER0014
 62
     7
  2
_OPEN30
 10
-264.9190568015208
 20
140.1610376937525
 30
0.0
 41
1.999998407630662
 42
2.000005728319971
 50
90.0
  0
INSERT
  5
1A7
  8
LAYER0014
 62
     7
  2
_OPEN30
 10
-264.9190568015208
 20
-74.83895467685295
 30
0.0
 41
1.999998407630662
 42
2.000005728319971
 50
270.0
  0
TEXT
  5
1A8
  8
LAYER0014
 62
     7
 10
-265.9302269030626
 20
26.26105125620477
 30
0.0
 40
4.0
  1
φ215
 50
89.90000000000001
 41
0.7619047619047592
  7
FDASTYLE1
 72
     5
 11
-265.9078866999791
 21
39.0610317606948
 31
0.0
  0
ENDBLK
  5
B4
  8
0
  0
BLOCK
  8
0
  2
DA_IMAGEDIMGROUP_33
 70
     0
 10
0.0
 20
0.0
 30
0.0
  3
DA_IMAGEDIMGROUP_33
  1

  0
LINE
  5
1A9
  8
LAYER0014
  6
CONTINUOUS
 62
     7
 10
-53.93327127905988
 20
-12.33895467685295
 30
0.0
 11
-28.26398554297589
 21
-12.33895467685295
 31
0.0
  0
LINE
  5
1AA
  8
LAYER0014
  6
CONTINUOUS
 62
     7
 10
-30.54998484107159
 20
-12.33895467685295
 30
0.0
 11
-30.54998484107159
 21
47.22926736904549
 31
0.0
  0
INSERT
  5
1AB
  8
LAYER0014
 62
     7
  2
_OPEN30
 10
-30.54998484107159
 20
-12.33895467685295
 30
0.0
 41
1.999998407630662
 42
2.000005728319971
 50
270.0
  0
TEXT
  5
1AC
  8
LAYER0014
 62
     7
 10
-31.54998484107159
 20
25.26730279305973
 30
0.0
 40
4.0
  1
PCD90
 50
90.0
 41
0.8
  7
FDASTYLE1
 72
     5
 11
-31.54998484107159
 21
41.26730279305973
 31
0.0
  0
ENDBLK
  5
B7
  8
0
  0
BLOCK
  8
0
  2
DA_IMAGEDIMGROUP_34
 70
     0
 10
0.0
 20
0.0
 30
0.0
  3
DA_IMAGEDIMGROUP_34
  1

  0
LINE
  5
1AD
  8
LAYER0014
  6
CONTINUOUS
 62
     7
 10
-59.23844706030988
 20
-20.33895467685295
 30
0.0
 11
-16.19012537451886
 21
-20.33895467685295
 31
0.0
  0
LINE
  5
1AE
  8
LAYER0014
  6
CONTINUOUS
 62
     7
 10
-18.47612467261456
 20
-20.33895467685295
 30
0.0
 11
-18.47612467261456
 21
47.45229364468025
 31
0.0
  0
INSERT
  5
1AF
  8
LAYER0014
 62
     7
  2
_OPEN30
 10
-18.47612467261456
 20
-20.33895467685295
 30
0.0
 41
1.999998407630662
 42
2.000005728319971
 50
270.0
  0
TEXT
  5
1B0
  8
LAYER0014
 62
     7
 10
-19.47612467261456
 20
27.39520802990865
 30
0.0
 40
4.0
  1
φ106
 50
90.0
 41
0.7619047619047618
  7
FDASTYLE1
 72
     5
 11
-19.47612467261456
 21
40.19520802990864
 31
0.0
  0
ENDBLK
  5
BA
  8
0
  0
BLOCK
  8
0
  2
DA_IMAGEDIMGROUP_35
 70
     0
 10
0.0
 20
0.0
 30
0.0
  3
DA_IMAGEDIMGROUP_35
  1

  0
LINE
  5
1B1
  8
LAYER0014
  6
CONTINUOUS
 62
     7
 10
-17.05828653784894
 20
32.66104532314705
 30
0.0
 11
-4.471375374518857
 21
32.66104532314705
 31
0.0
  0
LINE
  5
1B2
  8
LAYER0014
  6
CONTINUOUS
 62
     7
 10
-57.23844706030988
 20
78.66104532314705
 30
0.0
 11
-4.471375374518857
 21
78.66104532314705
 31
0.0
  0
LINE
  5
1B3
  8
LAYER0014
  6
CONTINUOUS
 62
     7
 10
-6.75737467261456
 20
32.66104532314705
 30
0.0
 11
-6.75737467261456
 21
78.66104532314705
 31
0.0
  0
INSERT
  5
1B4
  8
LAYER0014
 62
     7
  2
_OPEN30
 10
-6.75737467261456
 20
32.66104532314705
 30
0.0
 41
1.999998407630662
 42
2.000005728319971
 50
270.0
  0
INSERT
  5
1B5
  8
LAYER0014
 62
     7
  2
_OPEN30
 10
-6.75737467261456
 20
78.66104532314705
 30
0.0
 41
1.999998407630662
 42
2.000005728319971
 50
90.0
  0
TEXT
  5
1B6
  8
LAYER0014
 62
     7
 10
-7.782507401083495
 20
41.26106725559571
 30
0.0
 40
4.0
  1
MAX 47.45
 50
89.90000000000001
 41
0.8000000000000002
  7
FDASTYLE1
 72
     5
 11
-7.732241944145625
 21
70.0610233906984
 31
0.0
  0
ENDBLK
  5
BD
  8
0
  0
BLOCK
  8
0
  2
DA_IMAGEDIMGROUP_36
 70
     0
 10
0.0
 20
0.0
 30
0.0
  3
DA_IMAGEDIMGROUP_36
  1

  0
LINE
  5
1B7
  8
LAYER0014
  6
CONTINUOUS
 62
     7
 10
-57.23844706030988
 20
78.66104532314705
 30
0.0
 11
-4.471375374518857
 21
78.66104532314705
 31
0.0
  0
LINE
  5
1B8
  8
LAYER0014
  6
CONTINUOUS
 62
     7
 10
-57.23844706030988
 20
140.1610376937525
 30
0.0
 11
-4.471375374518857
 21
140.1610376937525
 31
0.0
  0
LINE
  5
1B9
  8
LAYER0014
  6
CONTINUOUS
 62
     7
 10
-6.75737467261456
 20
78.66104532314705
 30
0.0
 11
-6.75737467261456
 21
140.1610376937525
 31
0.0
  0
INSERT
  5
1BA
  8
LAYER0014
 62
     7
  2
_OPEN30
 10
-6.75737467261456
 20
78.66104532314705
 30
0.0
 41
1.999998407630662
 42
2.000005728319971
 50
270.0
  0
INSERT
  5
1BB
  8
LAYER0014
 62
     7
  2
_OPEN30
 10
-6.75737467261456
 20
140.1610376937525
 30
0.0
 41
1.999998407630662
 42
2.000005728319971
 50
90.0
  0
TEXT
  5
1BC
  8
LAYER0014
 62
     7
 10
-7.768544774156308
 20
103.0110512562047
 30
0.0
 40
4.0
  1
61.5
 50
89.90000000000001
 41
0.8000000000000007
  7
FDASTYLE1
 72
     5
 11
-7.746204571072811
 21
115.8110317606948
 31
0.0
  0
ENDBLK
  5
C0
  8
0
  0
BLOCK
  8
0
  2
DA_IMAGEDIMGROUP_37
 70
     0
 10
0.0
 20
0.0
 30
0.0
  3
DA_IMAGEDIMGROUP_37
  1

  0
LINE
  5
1BD
  8
LAYER0014
  6
CONTINUOUS
 62
     7
 10
-57.23844706030988
 20
78.66104532314705
 30
0.0
 11
-16.19012537451886
 21
78.66104532314705
 31
0.0
  0
LINE
  5
1BE
  8
LAYER0014
  6
CONTINUOUS
 62
     7
 10
-31.41760813208722
 20
90.16104532314705
 30
0.0
 11
-16.19012537451886
 21
90.16104532314705
 31
0.0
  0
LINE
  5
1BF
  8
LAYER0014
  6
CONTINUOUS
 62
     7
 10
-18.47612467261456
 20
78.66104532314705
 30
0.0
 11
-18.47612467261456
 21
90.16104532314705
 31
0.0
  0
INSERT
  5
1C0
  8
LAYER0014
 62
     7
  2
_OPEN30
 10
-18.47612467261456
 20
78.66104532314705
 30
0.0
 41
1.999998407630662
 42
2.000005728319971
 50
270.0
  0
INSERT
  5
1C1
  8
LAYER0014
 62
     7
  2
_OPEN30
 10
-18.47612467261456
 20
90.16104532314705
 30
0.0
 41
1.999998407630662
 42
2.000005728319971
 50
90.0
  0
TEXT
  5
1C2
  8
LAYER0014
 62
     7
 10
-19.48170972338543
 20
81.21105019702452
 30
0.0
 40
4.0
  1
11
 50
89.90000000000001
 41
0.8000000000000007
  7
FDASTYLE1
 72
     5
 11
-19.47053962184369
 21
87.61104044926957
 31
0.0
  0
ENDBLK
  5
C3
  8
0
  0
BLOCK
  8
0
  2
DC_GROUP_4
 70
     0
 10
0.0
 20
0.0
 30
0.0
  3
DC_GROUP_4
  1

  0
LINE
  5
1C3
  8
LAYER0014
  6
CONTINUOUS
 62
     7
 10
-45.71798121201823
 20
125.2949713769978
 30
0.0
 11
-20.02727320035206
 21
157.7241949478276
 31
0.0
  0
INSERT
  5
1C4
  8
LAYER0014
 62
     7
  2
_OPEN30
 10
-45.71798121201823
 20
125.2949713769978
 30
0.0
 41
1.999998407630662
 42
2.000005728319971
 50
231.6134339915762
  0
LINE
  5
1C5
  8
LAYER0014
  6
CONTINUOUS
 62
     7
 10
-20.02727308722638
 20
157.7242090804713
 30
0.0
 11
-8.249505190574155
 21
157.7242090804713
 31
0.0
  0
TEXT
  5
1C6
  8
LAYER0014
 62
     7
 10
-18.76379003974103
 20
159.3242090804713
 30
0.0
 40
4.0
  1
M10
 41
0.8000000000000002
  7
FDASTYLE1
 72
     5
 11
-9.163790039741024
 21
159.3242090804713
 31
0.0
  0
ENDBLK
  5
C6
  8
0
  0
BLOCK
  8
0
  2
DC_GROUP_5
 70
     0
 10
0.0
 20
0.0
 30
0.0
  3
DC_GROUP_5
  1

  0
LINE
  5
1C7
  8
LAYER0014
  6
CONTINUOUS
 62
     7
 10
-60.03731763460041
 20
135.8238802526936
 30
0.0
 11
-27.6080967891437
 21
172.043531277409
 31
0.0
  0
INSERT
  5
1C8
  8
LAYER0014
 62
     7
  2
_OPEN30
 10
-60.03731763460041
 20
135.8238802526936
 30
0.0
 41
1.999998407630662
 42
2.000005728319971
 50
228.1603630165328
  0
LINE
  5
1C9
  8
LAYER0014
  6
CONTINUOUS
 62
     7
 10
-27.60809603186749
 20
172.0435297591822
 30
0.0
 11
19.36966619042255
 21
172.0435297591822
 31
0.0
  0
TEXT
  5
1CA
  8
LAYER0014
 62
     7
 10
-26.34462061377667
 20
173.6435297591822
 30
0.0
 40
4.0
  1
ｾﾚｰｼｮﾝP1.5山60ﾟ
 41
0.7887323943661972
  7
FDASTYLE1
 72
     5
 11
18.45537938622334
 21
173.6435297591822
 31
0.0
  0
ENDBLK
  5
C9
  8
0
  0
BLOCK
  8
0
  2
DA_IMAGEDIMGROUP_38
 70
     0
 10
0.0
 20
0.0
 30
0.0
  3
DA_IMAGEDIMGROUP_38
  1

  0
LINE
  5
1CB
  8
LAYER0014
  6
CONTINUOUS
 62
     7
 10
-167.7784470603099
 20
-116.082492579685
 30
0.0
 11
-61.77844706030987
 21
-116.082492579685
 31
0.0
  0
INSERT
  5
1CC
  8
LAYER0014
 62
     7
  2
_OPEN30
 10
-167.7784470603099
 20
-116.082492579685
 30
0.0
 41
1.999998407630662
 42
2.000005728319971
 50
180.0
  0
INSERT
  5
1CD
  8
LAYER0014
 62
     7
  2
_OPEN30
 10
-61.77844706030987
 20
-116.082492579685
 30
0.0
 41
1.999998407630662
 42
2.000005728319971
 50
360.0
  0
LINE
  5
1CE
  8
LAYER0014
  6
CONTINUOUS
 62
     7
 10
-167.7784470603099
 20
-77.37895467685296
 30
0.0
 11
-167.7784470603099
 21
-117.082492579685
 31
0.0
  0
LINE
  5
1CF
  8
LAYER0014
  6
CONTINUOUS
 62
     7
 10
-61.77844706030987
 20
-75.37895467685296
 30
0.0
 11
-61.77844706030987
 21
-117.082492579685
 31
0.0
  0
TEXT
  5
1D0
  8
LAYER0014
 62
     7
 10
-119.5784470603099
 20
-115.082492579685
 30
0.0
 40
4.0
  1
106
 41
0.7999999999999995
  7
FDASTYLE1
 72
     5
 11
-109.9784470603099
 21
-115.082492579685
 31
0.0
  0
ENDBLK
  5
CC
  8
0
  0
BLOCK
  8
0
  2
DA_IMAGEDIMGROUP_39
 70
     0
 10
0.0
 20
0.0
 30
0.0
  3
DA_IMAGEDIMGROUP_39
  1

  0
LINE
  5
1D1
  8
LAYER0014
  6
CONTINUOUS
 62
     7
 10
-31.41760813208722
 20
90.16104532314705
 30
0.0
 11
-17.47612467261456
 21
90.16104532314705
 31
0.0
  0
LINE
  5
1D2
  8
LAYER0014
  6
CONTINUOUS
 62
     7
 10
-31.23900400611066
 20
120.1610453231471
 30
0.0
 11
-17.47612467261456
 21
120.1610453231471
 31
0.0
  0
LINE
  5
1D3
  8
LAYER0014
  6
CONTINUOUS
 62
     7
 10
-18.47612467261456
 20
90.16104532314705
 30
0.0
 11
-18.47612467261456
 21
120.1610453231471
 31
0.0
  0
INSERT
  5
1D4
  8
LAYER0014
 62
     7
  2
_OPEN30
 10
-18.47612467261456
 20
90.16104532314705
 30
0.0
 41
1.999998407630662
 42
2.000005728319971
 50
270.0
  0
INSERT
  5
1D5
  8
LAYER0014
 62
     7
  2
_OPEN30
 10
-18.47612467261456
 20
120.1610453231471
 30
0.0
 41
1.999998407630662
 42
2.000005728319971
 50
90.0
  0
TEXT
  5
1D6
  8
LAYER0014
 62
     7
 10
-19.47612467261456
 20
101.9610453231471
 30
0.0
 40
4.0
  1
30
 50
90.0
 41
0.8000000000000007
  7
FDASTYLE1
 72
     5
 11
-19.47612467261456
 21
108.3610453231471
 31
0.0
  0
ENDBLK
  5
CF
  8
0
  0
BLOCK
  8
0
  2
DA_IMAGEDIMGROUP_40
 70
     0
 10
0.0
 20
0.0
 30
0.0
  3
DA_IMAGEDIMGROUP_40
  1

  0
LINE
  5
1D7
  8
0
  6
CONTINUOUS
 62
     9
 10
-121.7784470603099
 20
-80.85223745273186
 30
0.0
 11
-121.7784470603099
 21
-86.89025314833758
 31
0.0
  0
LINE
  5
1D8
  8
0
  6
CONTINUOUS
 62
     9
 10
-166.7784470603099
 20
-60.83895467685295
 30
0.0
 11
-166.7784470603099
 21
-86.89025314833758
 31
0.0
  0
LINE
  5
1D9
  8
0
  6
CONTINUOUS
 62
     9
 10
-166.7784470603099
 20
-85.89025314833758
 30
0.0
 11
-121.7784470603099
 21
-85.89025314833758
 31
0.0
  0
INSERT
  5
1DA
  8
0
 62
     9
  2
_OPEN30
 10
-166.7784470603099
 20
-85.89025314833758
 30
0.0
 41
1.999998407630662
 42
2.000005728319971
 50
180.0
  0
INSERT
  5
1DB
  8
0
 62
     9
  2
_OPEN30
 10
-121.7784470603099
 20
-85.89025314833758
 30
0.0
 41
1.999998407630662
 42
2.000005728319971
 50
360.0
  0
TEXT
  5
1DC
  8
0
 62
     7
 10
-147.4784470603099
 20
-84.89025314833758
 30
0.0
 40
4.0
  1
45
 41
0.7999999999999972
  7
FDASTYLE1
 72
     5
 11
-141.0784470603099
 21
-84.89025314833758
 31
0.0
  0
ENDBLK
  5
D2
  8
0
  0
BLOCK
  8
0
  2
DA_IMAGEDIMGROUP_41
 70
     0
 10
0.0
 20
0.0
 30
0.0
  3
DA_IMAGEDIMGROUP_41
  1

  0
ARC
  5
1DD
  8
0
  6
CONTINUOUS
 62
     9
 10
-166.7784512533224
 20
-20.51895498202873
 30
0.0
 40
61.45415344688293
 50
180.0
 51
187.1249905098901
  0
ARC
  5
1DE
  8
0
  6
CONTINUOUS
 62
     9
 10
-166.7784512533224
 20
-20.51895498202873
 30
0.0
 40
61.45415344688293
 50
173.5845684214439
 51
180.0
  0
INSERT
  5
1DF
  8
0
 62
     9
  2
_OPEN30
 10
-228.2326047002053
 20
-20.51895498202872
 30
0.0
 41
1.999998407630662
 42
2.000005728319971
 50
269.0676667933706
  0
ARC
  5
1E0
  8
0
  6
CONTINUOUS
 62
     9
 10
-166.7784512533224
 20
-20.51895498202873
 30
0.0
 40
61.45415344688293
 50
187.1249905098901
 51
191.7866591115579
  0
INSERT
  5
1E1
  8
0
 62
     9
  2
_OPEN30
 10
-227.7580515883656
 20
-28.14137709389223
 30
0.0
 41
1.999998407630662
 42
2.000005728319971
 50
98.05732371651889
  0
ENDBLK
  5
D5
  8
0
  0
BLOCK
  8
0
  2
_OPEN30
 70
     0
 10
0.0
 20
0.0
 30
0.0
  3
_OPEN30
  1

  0
LINE
  5
DC
  8
0
  6
BYBLOCK
 62
     0
 10
-1.0
 20
0.267949
 30
0.0
 11
0.0
 21
0.0
 31
0.0
  0
LINE
  5
DD
  8
0
  6
BYBLOCK
 62
     0
 10
0.0
 20
0.0
 30
0.0
 11
-1.0
 21
-0.267949
 31
0.0
  0
LINE
  5
DE
  8
0
  6
BYBLOCK
 62
     0
 10
0.0
 20
0.0
 30
0.0
 11
-1.0
 21
0.0
 31
0.0
  0
ENDBLK
  5
DB
  8
0
  0
ENDSEC
  0
SECTION
  2
ENTITIES
  0
LINE
  5
1E2
  8
ZUWAKU
  6
CONTINUOUS
 62
     3
 10
-277.0
 20
-190.0
 30
0.0
 11
-277.0
 21
190.0
 31
0.0
  0
LINE
  5
1E3
  8
ZUWAKU
  6
CONTINUOUS
 62
     3
 10
277.0
 20
-190.0
 30
0.0
 11
277.0
 21
190.0
 31
0.0
  0
LINE
  5
1E4
  8
ZUWAKU
  6
CONTINUOUS
 62
     3
 10
-277.0
 20
-190.0
 30
0.0
 11
277.0
 21
-190.0
 31
0.0
  0
LINE
  5
1E5
  8
ZUWAKU
  6
CONTINUOUS
 62
     3
 10
-277.0
 20
189.9999999999999
 30
0.0
 11
277.0
 21
189.9999999999999
 31
0.0
  0
LINE
  5
1E6
  8
ZUWAKU
  6
CONTINUOUS
 62
     3
 10
97.00000000000001
 20
-190.0
 30
0.0
 11
97.00000000000001
 21
-130.0
 31
0.0
  0
LINE
  5
1E7
  8
ZUWAKU
  6
CONTINUOUS
 62
     3
 10
97.00000000000001
 20
-176.0
 30
0.0
 11
277.0
 21
-176.0
 31
0.0
  0
LINE
  5
1E8
  8
ZUWAKU
  6
CONTINUOUS
 62
     3
 10
146.0
 20
-162.0
 30
0.0
 11
277.0
 21
-162.0
 31
0.0
  0
LINE
  5
1E9
  8
ZUWAKU
  6
CONTINUOUS
 62
     3
 10
146.0
 20
-148.0
 30
0.0
 11
277.0
 21
-148.0
 31
0.0
  0
LINE
  5
1EA
  8
ZUWAKU
  6
CONTINUOUS
 62
     3
 10
146.0
 20
-138.0
 30
0.0
 11
277.0
 21
-138.0
 31
0.0
  0
LINE
  5
1EB
  8
ZUWAKU
  6
CONTINUOUS
 62
     3
 10
146.0
 20
-176.0
 30
0.0
 11
146.0
 21
-130.0
 31
0.0
  0
LINE
  5
1EC
  8
ZUWAKU
  6
CONTINUOUS
 62
     3
 10
255.0
 20
-176.0
 30
0.0
 11
255.0
 21
-130.0
 31
0.0
  0
LINE
  5
1ED
  8
ZUWAKU
  6
CONTINUOUS
 62
     3
 10
171.0
 20
-190.0
 30
0.0
 11
171.0
 21
-176.0
 31
0.0
  0
LINE
  5
1EE
  8
ZUWAKU
  6
CONTINUOUS
 62
     3
 10
262.0
 20
-188.0
 30
0.0
 11
272.0
 21
-188.0
 31
0.0
  0
LINE
  5
1EF
  8
ZUWAKU
  6
CONTINUOUS
 62
     3
 10
267.0
 20
-178.0
 30
0.0
 11
262.0
 21
-188.0
 31
0.0
  0
LINE
  5
1F0
  8
ZUWAKU
  6
CONTINUOUS
 62
     3
 10
267.0
 20
-178.0
 30
0.0
 11
272.0
 21
-188.0
 31
0.0
  0
LINE
  5
1F1
  8
ZUWAKU
  6
CONTINUOUS
 62
     3
 10
97.00000000000001
 20
-130.0
 30
0.0
 11
277.0
 21
-130.0
 31
0.0
  0
LINE
  5
1F2
  8
ZUWAKU
  6
CONTINUOUS
 62
     3
 10
226.0
 20
-176.0
 30
0.0
 11
226.0
 21
-148.0
 31
0.0
  0
LINE
  5
1F3
  8
ZUWAKU
  6
CONTINUOUS
 62
     4
 10
105.0
 20
-172.0
 30
0.0
 11
105.0
 21
-130.0
 31
0.0
  0
LINE
  5
1F4
  8
ZUWAKU
  6
CONTINUOUS
 62
     4
 10
109.0
 20
-172.0
 30
0.0
 11
109.0
 21
-130.0
 31
0.0
  0
LINE
  5
1F5
  8
ZUWAKU
  6
CONTINUOUS
 62
     4
 10
121.5
 20
-176.0
 30
0.0
 11
121.5
 21
-130.0
 31
0.0
  0
LINE
  5
1F6
  8
ZUWAKU
  6
CONTINUOUS
 62
     4
 10
97.00000000000001
 20
-137.0
 30
0.0
 11
146.0
 21
-137.0
 31
0.0
  0
LINE
  5
1F7
  8
ZUWAKU
  6
CONTINUOUS
 62
     4
 10
97.00000000000001
 20
-144.0
 30
0.0
 11
146.0
 21
-144.0
 31
0.0
  0
LINE
  5
1F8
  8
ZUWAKU
  6
CONTINUOUS
 62
     4
 10
97.00000000000001
 20
-165.0
 30
0.0
 11
146.0
 21
-165.0
 31
0.0
  0
LINE
  5
1F9
  8
ZUWAKU
  6
CONTINUOUS
 62
     4
 10
97.00000000000001
 20
-172.0
 30
0.0
 11
146.0
 21
-172.0
 31
0.0
  0
LINE
  5
1FA
  8
ZUWAKU
  6
CONTINUOUS
 62
     4
 10
255.0
 20
-166.0
 30
0.0
 11
277.0
 21
-166.0
 31
0.0
  0
LINE
  5
1FB
  8
ZUWAKU
  6
CONTINUOUS
 62
     4
 10
202.0
 20
-148.0
 30
0.0
 11
202.0
 21
-146.5
 31
0.0
  0
LINE
  5
1FC
  8
ZUWAKU
  6
CONTINUOUS
 62
     4
 10
226.0
 20
-148.0
 30
0.0
 11
226.0
 21
-146.5
 31
0.0
  0
LINE
  5
1FD
  8
ZUWAKU
  6
CONTINUOUS
 62
     4
 10
243.0
 20
-148.0
 30
0.0
 11
243.0
 21
-146.5
 31
0.0
  0
LINE
  5
1FE
  8
ZUWAKU
  6
CONTINUOUS
 62
     4
 10
97.00000000000001
 20
-151.0
 30
0.0
 11
146.0
 21
-151.0
 31
0.0
  0
LINE
  5
1FF
  8
ZUWAKU
  6
CONTINUOUS
 62
     4
 10
97.00000000000001
 20
-158.0
 30
0.0
 11
146.0
 21
-158.0
 31
0.0
  0
LINE
  5
200
  8
ZUWAKU
  6
CONTINUOUS
 62
     4
 10
101.0
 20
-130.5
 30
0.0
 11
98.00000000000001
 21
-136.5
 31
0.0
  0
LINE
  5
201
  8
ZUWAKU
  6
CONTINUOUS
 62
     4
 10
101.0
 20
-130.5
 30
0.0
 11
104.0
 21
-136.5
 31
0.0
  0
LINE
  5
202
  8
ZUWAKU
  6
CONTINUOUS
 62
     4
 10
98.00000000000001
 20
-136.5
 30
0.0
 11
104.0
 21
-136.5
 31
0.0
  0
LINE
  5
203
  8
ZUWAKU
  6
CONTINUOUS
 62
     4
 10
101.0
 20
-158.5
 30
0.0
 11
98.00000000000001
 21
-164.5
 31
0.0
  0
LINE
  5
204
  8
ZUWAKU
  6
CONTINUOUS
 62
     4
 10
101.0
 20
-158.5
 30
0.0
 11
104.0
 21
-164.5
 31
0.0
  0
LINE
  5
205
  8
ZUWAKU
  6
CONTINUOUS
 62
     4
 10
98.00000000000001
 20
-164.5
 30
0.0
 11
104.0
 21
-164.5
 31
0.0
  0
LINE
  5
206
  8
ZUWAKU
  6
CONTINUOUS
 62
     4
 10
101.0
 20
-151.5
 30
0.0
 11
98.00000000000001
 21
-157.5
 31
0.0
  0
LINE
  5
207
  8
ZUWAKU
  6
CONTINUOUS
 62
     4
 10
101.0
 20
-151.5
 30
0.0
 11
104.0
 21
-157.5
 31
0.0
  0
LINE
  5
208
  8
ZUWAKU
  6
CONTINUOUS
 62
     4
 10
98.00000000000001
 20
-157.5
 30
0.0
 11
104.0
 21
-157.5
 31
0.0
  0
LINE
  5
209
  8
ZUWAKU
  6
CONTINUOUS
 62
     4
 10
101.0
 20
-144.5
 30
0.0
 11
98.00000000000001
 21
-150.5
 31
0.0
  0
LINE
  5
20A
  8
ZUWAKU
  6
CONTINUOUS
 62
     4
 10
101.0
 20
-144.5
 30
0.0
 11
104.0
 21
-150.5
 31
0.0
  0
LINE
  5
20B
  8
ZUWAKU
  6
CONTINUOUS
 62
     4
 10
98.00000000000001
 20
-150.5
 30
0.0
 11
104.0
 21
-150.5
 31
0.0
  0
LINE
  5
20C
  8
ZUWAKU
  6
CONTINUOUS
 62
     4
 10
101.0
 20
-137.5
 30
0.0
 11
98.00000000000001
 21
-143.5
 31
0.0
  0
LINE
  5
20D
  8
ZUWAKU
  6
CONTINUOUS
 62
     4
 10
101.0
 20
-137.5
 30
0.0
 11
104.0
 21
-143.5
 31
0.0
  0
LINE
  5
20E
  8
ZUWAKU
  6
CONTINUOUS
 62
     4
 10
98.00000000000001
 20
-143.5
 30
0.0
 11
104.0
 21
-143.5
 31
0.0
  0
LINE
  5
20F
  8
ZUWAKU
  6
CONTINUOUS
 62
     4
 10
172.6666666666666
 20
-176.0
 30
0.0
 11
172.6666666666666
 21
-162.0
 31
0.0
  0
LINE
  5
210
  8
ZUWAKU
  6
CONTINUOUS
 62
     4
 10
199.3333333333333
 20
-176.0
 30
0.0
 11
199.3333333333333
 21
-161.9509415757253
 31
0.0
  0
LINE
  5
211
  8
ZUWAKU
  6
CONTINUOUS
 62
     4
 10
212.6666666666666
 20
-167.5
 30
0.0
 11
212.6666666666666
 21
-161.9509415757253
 31
0.0
  0
LINE
  5
212
  8
ZUWAKU
  6
CONTINUOUS
 62
     4
 10
226.0
 20
-155.0
 30
0.0
 11
255.0
 21
-155.0
 31
0.0
  0
LINE
  5
213
  8
ZUWAKU
  6
CONTINUOUS
 62
     4
 10
146.0
 20
-166.0
 30
0.0
 11
226.0
 21
-166.0
 31
0.0
  0
LINE
  5
214
  8
ZUWAKU
  6
CONTINUOUS
 62
     4
 10
153.0
 20
-139.5
 30
0.0
 11
153.0
 21
-130.0
 31
0.0
  0
LINE
  5
215
  8
ZUWAKU
  6
CONTINUOUS
 62
     4
 10
202.0
 20
-139.5
 30
0.0
 11
202.0
 21
-130.0
 31
0.0
  0
LINE
  5
216
  8
ZUWAKU
  6
CONTINUOUS
 62
     4
 10
226.0
 20
-139.5
 30
0.0
 11
226.0
 21
-130.0
 31
0.0
  0
LINE
  5
217
  8
ZUWAKU
  6
CONTINUOUS
 62
     4
 10
243.0
 20
-139.5
 30
0.0
 11
243.0
 21
-130.0
 31
0.0
  0
TEXT
  5
219
  8
ZUWAKU
 62
     7
 10
148.3132301474747
 20
-130.821188728956
 30
0.0
 40
2.6656
  1
符号
 41
0.8
  7
FDASTYLE0
  0
TEXT
  5
21A
  8
ZUWAKU
 62
     7
 10
162.4141311219058
 20
-135.8245525019963
 30
0.0
 40
4.0
  1
品       名
 41
0.765957446808511
  7
FDASTYLE1
 72
     5
 11
191.2141311219058
 21
-135.8245525019963
 31
0.0
  0
TEXT
  5
21B
  8
ZUWAKU
 62
     7
 10
207.2331564413096
 20
-135.8245525019963
 30
0.0
 40
4.0
  1
材  料
 41
0.7272727272727279
  7
FDASTYLE1
 72
     5
 11
220.0331564413096
 21
-135.8245525019963
 31
0.0
  0
TEXT
  5
21C
  8
ZUWAKU
 62
     7
 10
229.516061684855
 20
-135.8245525019963
 30
0.0
 40
4.0
  1
個 数
 41
0.7058823529411761
  7
FDASTYLE1
 72
     5
 11
239.116061684855
 21
-135.8245525019963
 31
0.0
  0
TEXT
  5
21D
  8
ZUWAKU
 62
     7
 10
245.721810952888
 20
-133.5649080050572
 30
0.0
 40
2.5
  1
単重量
 41
0.6666666666666666
  7
FDASTYLE1
 72
     5
 11
251.721810952888
 21
-133.5649080050572
 31
0.0
  0
TEXT
  5
21E
  8
ZUWAKU
 62
     7
 10
244.7089516236359
 20
-137.3631304897525
 30
0.0
 40
2.5
  1
(kg)
 41
0.8
  7
FDASTYLE1
 72
     5
 11
252.7089516236359
 21
-137.3631304897525
 31
0.0
  0
TEXT
  5
21F
  8
ZUWAKU
 62
     7
 10
259.1421970654778
 20
-135.8245525019963
 30
0.0
 40
4.0
  1
記  事
 41
0.7272727272727279
  7
FDASTYLE1
 72
     5
 11
271.9421970654778
 21
-135.8245525019963
 31
0.0
  0
TEXT
  5
220
  8
ZUWAKU
 62
     7
 10
258.8450794551645
 20
-165.4873041997729
 30
0.0
 40
3.0
  1
コード番号
 41
0.6666666666666666
  7
FDASTYLE1
 72
     5
 11
270.8450794551645
 21
-165.4873041997729
 31
0.0
  0
TEXT
  5
221
  8
ZUWAKU
 62
     7
 10
101.9119920158317
 20
-175.1879010540338
 30
0.0
 40
2.5
  1
訂 正 来 歴
 41
0.717948717948718
  7
FDASTYLE1
 72
     5
 11
115.9119920158317
 21
-175.1879010540338
 31
0.0
  0
TEXT
  5
222
  8
ZUWAKU
 62
     7
 10
125.890334846765
 20
-175.2166697391651
 30
0.0
 40
2.5
  1
工 事 番 号
 41
0.717948717948718
  7
FDASTYLE1
 72
     5
 11
139.890334846765
 21
-175.2166697391651
 31
0.0
  0
TEXT
  5
223
  8
ZUWAKU
 62
     7
 10
99.96483784660289
 20
-165.9634530565915
 30
0.0
 40
2.0825
  1
記号
 41
0.8
  7
FDASTYLE0
  0
TEXT
  5
224
  8
ZUWAKU
 62
     7
 10
105.9042249067618
 20
-165.9634530565915
 30
0.0
 40
2.0825
  1
理由
 41
0.8
  7
FDASTYLE0
  0
TEXT
  5
225
  8
ZUWAKU
 62
     7
 10
111.6193667909843
 20
-169.8786046700178
 30
0.0
 40
3.0
  1
日 付
 41
0.7058823529411754
  7
FDASTYLE1
 72
     5
 11
118.8193667909843
 21
-169.8786046700178
 31
0.0
  0
TEXT
  5
226
  8
ZUWAKU
 62
     7
 10
257.2094542567131
 20
-142.3525309070082
 30
0.0
 40
3.0
  1
標　準
 41
0.5833333333333345
  7
FDASTYLE1
 72
     5
 11
263.5094542567131
 21
-142.3525309070082
 31
0.0
  0
TEXT
  5
227
  8
ZUWAKU
 62
     7
 10
153.4481689819652
 20
-165.7187911464244
 30
0.0
 40
3.0
  1
承   認
 41
0.7407407407407408
  7
FDASTYLE1
 72
     5
 11
165.4481689819652
 21
-165.7187911464244
 31
0.0
  0
TEXT
  5
228
  8
ZUWAKU
 62
     7
 10
179.863228033234
 20
-165.4873041997729
 30
0.0
 40
3.0
  1
検   図
 41
0.7407407407407408
  7
FDASTYLE1
 72
     5
 11
191.863228033234
 21
-165.4873041997729
 31
0.0
  0
TEXT
  5
229
  8
ZUWAKU
 62
     7
 10
201.4771920983751
 20
-165.4873041997729
 30
0.0
 40
3.0
  1
担  当
 41
0.7272727272727269
  7
FDASTYLE1
 72
     5
 11
211.0771920983751
 21
-165.4873041997729
 31
0.0
  0
TEXT
  5
22A
  8
ZUWAKU
 62
     7
 10
214.6770574841112
 20
-165.4873041997729
 30
0.0
 40
3.0
  1
製  図
 41
0.7272727272727269
  7
FDASTYLE1
 72
     5
 11
224.2770574841112
 21
-165.4873041997729
 31
0.0
  0
TEXT
  5
22B
  8
ZUWAKU
 62
     7
 10
226.9462372304199
 20
-153.2184960272417
 30
0.0
 40
3.0
  1
作図
 41
0.6666666666666683
  7
FDASTYLE1
 72
     5
 11
231.7462372304199
 21
-153.2184960272417
 31
0.0
  0
TEXT
  5
22C
  8
ZUWAKU
 62
     7
 10
228.1036719636776
 20
-160.2371566401815
 30
0.0
 40
4.0
  1
第 三 角 法
 41
0.7179487179487182
  7
FDASTYLE1
 72
     5
 11
250.5036719636776
 21
-160.2371566401815
 31
0.0
  0
TEXT
  5
22D
  8
ZUWAKU
 62
     7
 10
227.409211123723
 20
-166.413251986379
 30
0.0
 40
3.0
  1
尺度
 41
0.6666666666666683
  7
FDASTYLE1
 72
     5
 11
232.209211123723
 21
-166.413251986379
 31
0.0
  0
TEXT
  5
22F
  8
ZUWAKU
 62
     3
 10
105.379154370034
 20
-185.9272077185017
 30
0.0
 40
7.0
  1
株式会社 野村製作所
 41
0.5763738641280831
  7
FDASTYLE2
 72
     5
 11
161.379154370034
 21
-185.9272077185017
 31
0.0
  0
TEXT
  5
231
  8
ZUWAKU
 62
     3
 10
176.0422636668242
 20
-187.1216685584563
 30
0.0
 40
8.0
  1
２－
 41
0.8244023083264632
  7
FDASTYLE3
 72
     5
 11
192.0422636668242
 21
-187.1216685584563
 31
0.0
  0
TEXT
  5
232
  8
ZUWAKU
 62
     3
 10
192.954221291231
 20
-187.1216685584563
 30
0.0
 40
8.0
  1
9308132
 41
1.563197856185797
  7
FDASTYLE3
 72
     5
 11
248.954221291231
 21
-187.1216685584563
 31
0.0
  0
TEXT
  5
233
  8
ZUWAKU
 62
     6
 10
231.384312273996
 20
-145.1178196492171
 30
0.0
 40
4.0
  1
一式
 41
0.5833333333333328
  7
FDASTYLE1
 72
     5
 11
236.984312273996
 21
-145.1178196492171
 31
0.0
  0
TEXT
  5
234
  8
ZUWAKU
 62
     6
 10
163.7236800359233
 20
-145.1021206743685
 30
0.0
 40
5.0
  1
外　形　図
 41
0.5833333333333334
  7
FDASTYLE1
 72
     5
 11
181.2236800359233
 21
-145.1021206743685
 31
0.0
  0
TEXT
  5
235
  8
ZUWAKU
 62
     4
 10
237.4612965606293
 20
-172.4797619591963
 30
0.0
 40
4.0
  1
1/1
 41
0.7000000000000005
  7
FDASTYLE1
 72
     5
 11
245.8612965606293
 21
-172.4797619591963
 31
0.0
  0
TEXT
  5
236
  8
0
 62
     6
 10
153.751689452146
 20
-154.3880453471329
 30
0.0
 40
5.0
  1
日鋼プレシジォン
 41
0.6666666666666666
  7
FDASTYLE1
 72
     5
 11
185.751689452146
 21
-154.3880453471329
 31
0.0
  0
TEXT
  5
237
  8
0
 62
     6
 10
162.4377590193254
 20
-160.9091595284539
 30
0.0
 40
5.0
  1
HWB3-215Ａ6型チャック
 41
0.6481481481481481
  7
FDASTYLE1
 72
     5
 11
214.9377590193254
 21
-160.9091595284539
 31
0.0
  0
TEXT
  5
238
  8
0
 62
     6
 10
-54.39421383708184
 20
-183.0018874767219
 30
0.0
 40
4.0
  1
アンバランス量
 41
0.663841963128279
  7
FDASTYLE1
 72
     5
 11
-27.53706971972649
 21
-183.0018874767219
 31
0.0
  0
TEXT
  5
239
  8
0
 62
     6
 10
-54.39421383708184
 20
-175.0018874767219
 30
0.0
 40
4.0
  1
質 量
 41
0.7364342569567148
  7
FDASTYLE1
 72
     5
 11
-43.53706971972649
 21
-175.0018874767219
 31
0.0
  0
TEXT
  5
23A
  8
0
 62
     6
 10
-54.39421383708184
 20
-167.0018874767219
 30
0.0
 40
4.0
  1
慣性モーメント
 41
0.663841963128279
  7
FDASTYLE1
 72
     5
 11
-27.53706971972649
 21
-167.0018874767219
 31
0.0
  0
TEXT
  5
23B
  8
0
 62
     6
 10
-54.39421383708184
 20
-159.0018874767219
 30
0.0
 40
4.0
  1
最高使用回転速度
 41
0.665024784134981
  7
FDASTYLE1
 72
     5
 11
-23.53706971972649
 21
-159.0018874767219
 31
0.0
  0
TEXT
  5
23C
  8
0
 62
     6
 10
-54.39421383708184
 20
-151.0018874767219
 30
0.0
 40
4.0
  1
最大静的把握力
 41
0.663841963128279
  7
FDASTYLE1
 72
     5
 11
-27.53706971972649
 21
-151.0018874767219
 31
0.0
  0
TEXT
  5
23D
  8
0
 62
     6
 10
-54.39421383708184
 20
-143.0018874767219
 30
0.0
 40
4.0
  1
許容シリンダー力
 41
0.665024784134981
  7
FDASTYLE1
 72
     5
 11
-23.53706971972649
 21
-143.0018874767219
 31
0.0
  0
TEXT
  5
23E
  8
0
 62
     6
 10
-54.39421383708184
 20
-135.0018874767219
 30
0.0
 40
4.0
  1
推奨シリンダー
 41
0.663841963128279
  7
FDASTYLE1
 72
     5
 11
-27.53706971972649
 21
-135.0018874767219
 31
0.0
  0
TEXT
  5
23F
  8
0
 62
     6
 10
-54.39421383708184
 20
-127.0018874767219
 30
0.0
 40
4.0
  1
ピストンストローク
 41
0.6659390169707117
  7
FDASTYLE1
 72
     5
 11
-19.53706971972649
 21
-127.0018874767219
 31
0.0
  0
TEXT
  5
240
  8
0
 62
     6
 10
-54.39421383708184
 20
-119.0018798473274
 30
0.0
 40
4.0
  1
爪ﾉｽﾄﾛｰｸ
 41
0.7781458739383595
  7
FDASTYLE1
 72
     5
 11
-27.53706971972649
 21
-119.0018798473274
 31
0.0
  0
TEXT
  5
241
  8
0
 62
     6
 10
-54.39421383708184
 20
-111.0018798473274
 30
0.0
 40
4.0
  1
仕 様
 41
0.7364342569567148
  7
FDASTYLE1
 72
     5
 11
-43.53706971972649
 21
-111.0018798473274
 31
0.0
  0
TEXT
  5
242
  8
0
 62
     6
 10
27.96432765156563
 20
-118.7265426280891
 30
0.0
 40
4.0
  1
(直径ﾆﾃ)  5.8 mm
 41
0.7692309500212766
  7
FDASTYLE1
 72
     5
 11
82.82147176892097
 21
-118.7265426280891
 31
0.0
  0
TEXT
  5
243
  8
0
 62
     6
 10
63.9537933650666
 20
-126.5062820079719
 30
0.0
 40
4.0
  1
18 mm
 41
0.7674420691942423
  7
FDASTYLE1
 72
     5
 11
82.81093748242195
 21
-126.5062820079719
 31
0.0
  0
TEXT
  5
244
  8
0
 62
     6
 10
48.08488523621
 20
-134.7825881603156
 30
0.0
 40
4.0
  1
52TS-TA1型
 41
0.7780614058262111
  7
FDASTYLE1
 72
     5
 11
82.94202935356535
 21
-134.7825881603156
 31
0.0
  0
TEXT
  5
245
  8
0
 62
     6
 10
56.38250048786934
 20
-142.7278548839485
 30
0.0
 40
4.0
  1
  24 kN
 41
0.7704920065688554
  7
FDASTYLE1
 72
     5
 11
83.23964460522468
 21
-142.7278548839485
 31
0.0
  0
TEXT
  5
246
  8
0
 62
     6
 10
56.47171481282051
 20
-150.6731063487922
 30
0.0
 40
4.0
  1
78.5 kN
 41
0.7704920065688554
  7
FDASTYLE1
 72
     5
 11
83.32885893017586
 21
-150.6731063487922
 31
0.0
  0
TEXT
  5
247
  8
0
 62
     6
 10
52.42775424153145
 20
-158.618373072425
 30
0.0
 40
4.0
  1
4600 min
 41
0.7714287730626143
  7
FDASTYLE1
 72
     5
 11
83.28489835888679
 21
-158.618373072425
 31
0.0
  0
TEXT
  5
248
  8
0
 62
     6
 10
84.14204027087028
 20
-156.1183730128204
 30
0.0
 40
2.0
  1
-1
 41
0.75000024121258
  7
FDASTYLE1
 72
     5
 11
87.57061232954796
 21
-156.1183730128204
 31
0.0
  0
TEXT
  5
249
  8
0
 62
     6
 10
36.7893966145125
 20
-166.7291518810188
 30
0.0
 40
4.0
  1
　　0.145 kg・m
 41
0.7578559974021695
  7
FDASTYLE1
 72
     5
 11
83.64654073186784
 21
-166.7291518810188
 31
0.0
  0
TEXT
  5
24A
  8
0
 62
     6
 10
84.71203233629997
 20
-164.2291518214141
 30
0.0
 40
2.0
  1
2
 41
0.7142860293388367
  7
FDASTYLE1
 72
     5
 11
86.14060439497764
 21
-164.2291518214141
 31
0.0
  0
TEXT
  5
24B
  8
0
 62
     6
 10
56.91008833372909
 20
-174.6744186046516
 30
0.0
 40
4.0
  1
  23 kg
 41
0.7704920065688552
  7
FDASTYLE1
 72
     5
 11
83.76723245108443
 21
-174.6744186046516
 31
0.0
  0
TEXT
  5
24C
  8
0
 62
     6
 10
37.28353579670723
 20
-182.7851974132453
 30
0.0
 40
4.0
  1
外周ﾆﾃ 1.5 g以内
 41
0.7481753531516472
  7
FDASTYLE1
 72
     5
 11
84.14067991406257
 21
-182.7851974132453
 31
0.0
  0
TEXT
  5
24D
  8
0
 62
     6
 10
-15.9230928308834
 20
-142.7299605968391
 30
0.0
 40
3.0
  1
52TS-TA1型 引側使用圧  3.5MPa
 41
0.7521287655849324
  7
FDASTYLE1
 72
     5
 11
52.21975840259896
 21
-142.7299605968391
 31
0.0
  0
TEXT
  5
24E
  8
0
 62
     7
 10
257.1813850232905
 20
-146.9637506240703
 30
0.0
 40
3.0
  1
M72×P1.5
 41
0.7804878048780483
  7
FDASTYLE1
 72
     5
 11
276.3813850232905
 21
-146.9637506240703
 31
0.0
  0
TEXT
  5
24F
  8
0
 62
     7
 10
-230.0325974509349
 20
-44.37356695102287
 30
0.0
 40
4.0
  1
7ﾟ7′30"
 50
90.0
 41
0.7777777777777779
  7
FDASTYLE1
 72
     5
 11
-230.0325974509349
 21
-21.97356695102286
 31
0.0
  0
TEXT
  5
250
  8
0
 62
     7
 10
-24.02532057559314
 20
79.60328395038097
 30
0.0
 40
4.0
  1
MIN
 50
90.0
 41
0.7999999999999995
  7
FDASTYLE1
 72
     5
 11
-24.02532057559314
 21
89.20328395038096
 31
0.0
  0
TEXT
  5
251
  8
0
 62
     7
 10
-2.166589373005063
 20
41.19387233271738
 30
0.0
 40
4.0
  1
MIN 44.55
 50
90.0
 41
0.8000000000000002
  7
FDASTYLE1
 72
     5
 11
-2.166589373005063
 21
69.99387233271739
 31
0.0
  0
LINE
  5
252
  8
0
  6
CONTINUOUS
 62
     6
 10
-56.96564177840416
 20
-160.6685439708625
 30
0.0
 11
86.03435822159584
 21
-160.6685439708625
 31
0.0
  0
LINE
  5
253
  8
0
  6
CONTINUOUS
 62
     6
 10
-56.96564177840416
 20
-152.6685439708625
 30
0.0
 11
86.03435822159584
 21
-152.6685439708625
 31
0.0
  0
LINE
  5
254
  8
0
  6
CONTINUOUS
 62
     6
 10
-56.96564177840416
 20
-144.6685439708625
 30
0.0
 11
86.03435822159584
 21
-144.6685439708625
 31
0.0
  0
LINE
  5
255
  8
0
  6
CONTINUOUS
 62
     6
 10
-56.96564177840416
 20
-136.6685439708625
 30
0.0
 11
86.03435822159584
 21
-136.6685439708625
 31
0.0
  0
LINE
  5
256
  8
0
  6
CONTINUOUS
 62
     6
 10
-56.96564177840416
 20
-128.6685439708625
 30
0.0
 11
86.03435822159584
 21
-128.6685439708625
 31
0.0
  0
LINE
  5
257
  8
0
  6
CONTINUOUS
 62
     6
 10
-56.96564177840416
 20
-120.668536341468
 30
0.0
 11
86.03435822159584
 21
-120.668536341468
 31
0.0
  0
LINE
  5
258
  8
0
  6
CONTINUOUS
 62
     6
 10
-56.96564177840416
 20
-112.668536341468
 30
0.0
 11
-40.96564177840416
 21
-112.668536341468
 31
0.0
  0
LINE
  5
259
  8
0
  6
CONTINUOUS
 62
     6
 10
-56.96564177840416
 20
-168.6685439708625
 30
0.0
 11
86.03435822159584
 21
-168.6685439708625
 31
0.0
  0
LINE
  5
25A
  8
0
  6
CONTINUOUS
 62
     6
 10
-56.96564177840416
 20
-184.6685439708625
 30
0.0
 11
86.03435822159584
 21
-184.6685439708625
 31
0.0
  0
LINE
  5
25B
  8
0
  6
CONTINUOUS
 62
     6
 10
-56.96564177840416
 20
-176.6685439708625
 30
0.0
 11
86.03435822159584
 21
-176.6685439708625
 31
0.0
  0
LINE
  5
25C
  8
0
  6
CENTER
 62
     7
 10
131.8262777287964
 20
146.022618813119
 30
0.0
 11
131.8262777287964
 21
-86.74900289098257
 31
0.0
  0
LINE
  5
25D
  8
0
  6
CENTER
 62
     7
 10
15.01211595130008
 20
32.6610351034022
 30
0.0
 11
249.2894048650269
 21
32.6610351034022
 31
0.0
  0
LINE
  5
25E
  8
0
  6
CENTER
 62
     7
 10
29.7890331564916
 20
-26.25019431081522
 30
0.0
 11
131.8262770399818
 21
32.66102940405934
 31
0.0
  0
LINE
  5
25F
  8
0
  6
CENTER
 62
     7
 10
88.09199880370511
 20
57.91102890325006
 30
0.0
 11
97.89656948499328
 21
52.2503580065215
 31
0.0
  0
LINE
  5
260
  8
0
  6
CENTER
 62
     7
 10
76.82627772879641
 20
111.1610312887049
 30
0.0
 11
106.8262777287964
 21
111.1610312887049
 31
0.0
  0
LINE
  5
261
  8
0
  6
CENTER
 62
     7
 10
76.34329052867588
 20
-28.23960660814662
 30
0.0
 11
91.34329040946636
 21
-54.22036495174636
 31
0.0
  0
LINE
  5
262
  8
0
  6
CENTER
 62
     7
 10
212.3092898163141
 20
15.06166860147535
 30
0.0
 11
227.3092916044534
 21
41.04243024869977
 31
0.0
  0
LINE
  5
263
  8
0
  6
CENTER
 62
     7
 10
167.0564317898528
 20
42.10092840070514
 30
0.0
 11
210.7182653229423
 21
53.80008018688854
 31
0.0
  0
LINE
  5
264
  8
0
  6
CENTER
 62
     7
 10
52.93427455827396
 20
53.80007301036115
 30
0.0
 11
96.69594174755957
 21
42.07417087947859
 31
0.0
  0
LINE
  5
265
  8
0
  6
CENTER
 62
     7
 10
157.4803800470811
 20
58.31512232230018
 30
0.0
 11
189.57924939587
 21
90.41398896535686
 31
0.0
  0
LINE
  5
266
  8
0
  6
CENTER
 62
     7
 10
74.07332247234399
 20
90.41398592990602
 30
0.0
 11
106.0133056094182
 21
58.47400548517085
 31
0.0
  0
LINE
  5
267
  8
0
  6
CENTER
 62
     7
 10
110.6872279822091
 20
-46.23095531813947
 30
0.0
 11
122.1919262992585
 21
-3.294841977006101
 31
0.0
  0
LINE
  5
268
  8
0
  6
CENTER
 62
     7
 10
141.4868970027198
 20
-3.392956251335065
 30
0.0
 11
152.9653072798194
 21
-46.23096130386345
 31
0.0
  0
LINE
  5
269
  8
0
  6
CENTER
 62
     7
 10
91.82627772879641
 20
126.1610312887049
 30
0.0
 11
91.82627772879641
 21
96.16103128870493
 31
0.0
  0
LINE
  5
26A
  8
0
  6
CENTER
 62
     7
 10
70.85290403526255
 20
-48.7299835603573
 30
0.0
 11
96.83367077425123
 21
-33.72998254707845
 31
0.0
  0
LINE
  5
26B
  8
0
  6
CENTER
 62
     7
 10
206.8189068064608
 20
35.55207194363113
 30
0.0
 11
232.7996834563242
 21
20.55206520830673
 31
0.0
  0
LINE
  5
26C
  8
0
  6
CENTER
 62
     7
 10
119.4198980290894
 20
120.1610312887049
 30
0.0
 11
144.0547246892456
 21
120.1610312887049
 31
0.0
  0
LINE
  5
26D
  8
0
  6
CENTER
 62
     7
 10
201.2556423758956
 20
-22.08380619085135
 30
0.0
 11
213.8042545590624
 21
-0.3489753062241761
 31
0.0
  0
LINE
  5
26E
  8
0
  6
CENTER
 62
     7
 10
49.85764929902018
 20
-0.3651426912788764
 30
0.0
 11
62.09525585276606
 21
-21.5612960981927
 31
0.0
  0
LINE
  5
26F
  8
0
  6
CENTER
 62
     7
 10
75.71337756259572
 20
14.8509959942224
 30
0.0
 11
88.30664459727723
 21
-6.961179351424264
 31
0.0
  0
LINE
  5
270
  8
0
  6
CENTER
 62
     7
 10
119.3146276433472
 20
90.16103128870493
 30
0.0
 11
143.8441534001831
 21
90.16103128870493
 31
0.0
  0
LINE
  5
271
  8
0
  6
CENTER
 62
     7
 10
175.4162723528762
 20
-6.839364723046103
 30
0.0
 11
187.6762111007515
 21
14.39546917343917
 31
0.0
  0
LINE
  5
272
  8
0
  6
CENTER
 62
     7
 10
131.8262740090261
 20
32.66103613031289
 30
0.0
 11
233.0513299679817
 21
-25.78127071950591
 31
0.0
  0
ARC
  5
273
  8
0
  6
CENTER
 62
     7
 10
131.8262777287964
 20
32.6610351034022
 30
0.0
 40
66.67500305175781
 50
2.082721259318937
 51
57.91727891622929
  0
ARC
  5
274
  8
0
  6
CENTER
 62
     7
 10
131.8262777287964
 20
32.6610351034022
 30
0.0
 40
45.0
 50
3.270353484983696
 51
55.76955666757005
  0
ARC
  5
275
  8
0
  6
CENTER
 62
     7
 10
131.8262777287964
 20
32.6610351034022
 30
0.0
 40
66.67500305175781
 50
122.0827465832946
 51
177.9172890857227
  0
ARC
  5
276
  8
0
  6
CENTER
 62
     7
 10
131.8262777287964
 20
32.6610351034022
 30
0.0
 40
66.67500305175781
 50
242.0826989235511
 51
297.9172824071142
  0
ARC
  5
277
  8
0
  6
CENTER
 62
     7
 10
131.8262777287964
 20
32.6610351034022
 30
0.0
 40
45.0
 50
123.7535611184414
 51
177.449871920062
  0
ARC
  5
278
  8
0
  6
CENTER
 62
     7
 10
131.8262777287964
 20
32.6610351034022
 30
0.0
 40
45.0
 50
244.5322096655928
 51
297.4731698469017
  0
LINE
  5
279
  8
0
  6
CENTER
 62
     7
 10
165.6987726914852
 20
52.21732172596224
 30
0.0
 11
176.1856599723826
 21
58.27192825162494
 31
0.0
  0
LINE
  5
27A
  8
0
  6
CENTER
 62
     7
 10
201.5700047715687
 20
72.92758493545202
 30
0.0
 11
226.7745371029935
 21
87.47942685408309
 31
0.0
  0
LINE
  5
27B
  8
0
  6
CENTER
 62
     7
 10
-182.0938462302318
 20
32.66104532314705
 30
0.0
 11
-52.04393473120831
 21
32.66104532314705
 31
0.0
  0
LINE
  5
27C
  8
0
  6
CENTER
 62
     7
 10
-137.5103348776927
 20
-4.873536814914473
 30
0.0
 11
-137.5103348776927
 21
-19.55552759252314
 31
0.0
  0
LINE
  5
27D
  8
0
  6
CENTER
 62
     7
 10
-85.23747721167706
 20
-12.33895467685295
 30
0.0
 11
-56.47327127905987
 21
-12.33895467685295
 31
0.0
  0
LINE
  5
27E
  8
0
  6
CENTER
 62
     7
 10
-193.2292493644883
 20
-34.01395772861076
 30
0.0
 11
-58.08550873116866
 21
-34.01395772861076
 31
0.0
  0
LINE
  5
27F
  8
0
  6
CENTER
 62
     7
 10
-77.53706064673565
 20
120.1610453231471
 30
0.0
 11
-33.77900400611065
 21
120.1610453231471
 31
0.0
  0
LINE
  5
280
  8
0
  6
CENTER
 62
     7
 10
-77.44775858374737
 20
90.16104532314705
 30
0.0
 11
-33.95760813208722
 21
90.16104532314705
 31
0.0
  0
LINE
  5
281
  8
0
  6
CENTER
 62
     7
 10
-172.7235306784739
 20
99.36104227138924
 30
0.0
 11
-152.5557755515208
 21
99.36104227138924
 31
0.0
  0
LINE
  5
282
  8
0
  6
CENTER
 62
     7
 10
-121.7784470603099
 20
-44.02525304721428
 30
0.0
 11
-121.7784470603099
 21
-79.85223745273186
 31
0.0
  0
LINE
  5
283
  8
0
  6
CENTER
 62
     7
 10
-135.5103348776927
 20
70.27540994717049
 30
0.0
 11
-135.5103348776927
 21
63.52196909023689
 31
0.0
  0
LINE
  5
284
  8
0
  6
CENTER
 62
     7
 10
-135.5103348776927
 20
1.776204357876054
 30
0.0
 11
-135.5103348776927
 21
-4.977238167987593
 31
0.0
  0
LINE
  5
285
  8
0
  6
DASHED
 62
     7
 10
-74.77844706030987
 20
-44.01395772861076
 30
0.0
 11
-61.77844706030987
 21
-44.01395772861076
 31
0.0
  0
LINE
  5
286
  8
0
  6
DASHED
 62
     7
 10
-74.77844706030987
 20
-24.01395772861076
 30
0.0
 11
-61.77844706030987
 21
-24.01395772861076
 31
0.0
  0
LINE
  5
287
  8
0
  6
DASHED
 62
     7
 10
-82.77844706030987
 20
-15.33895467685295
 30
0.0
 11
-72.82072916480206
 21
-15.33895467685295
 31
0.0
  0
LINE
  5
288
  8
0
  6
DASHED
 62
     7
 10
-82.77844706030987
 20
-9.33895467685295
 30
0.0
 11
-73.13538065405987
 21
-9.33895467685295
 31
0.0
  0
LINE
  5
289
  8
0
  6
DASHED
 62
     7
 10
-82.77844706030987
 20
-9.788955439792403
 30
0.0
 11
-72.97805490943097
 21
-9.788955439792403
 31
0.0
  0
LINE
  5
28A
  8
0
  6
DASHED
 62
     7
 10
-82.77844706030987
 20
-14.8889539139135
 30
0.0
 11
-72.66340342017315
 21
-14.8889539139135
 31
0.0
  0
LINE
  5
28B
  8
0
  6
DASHED
 62
     7
 10
-74.77844706030987
 20
-24.01395772861076
 30
0.0
 11
-74.77844706030987
 21
-44.01395772861076
 31
0.0
  0
LINE
  5
28C
  8
0
  6
DASHED
 62
     7
 10
-79.77844706030987
 20
-9.33895467685295
 30
0.0
 11
-79.77844706030987
 21
-15.33895467685295
 31
0.0
  0
LINE
  5
28D
  8
0
  6
DASHED
 62
     7
 10
-189.7784470603099
 20
-28.01395772861076
 30
0.0
 11
-74.77844706030987
 21
-28.01395772861076
 31
0.0
  0
LINE
  5
28E
  8
0
  6
DASHED
 62
     7
 10
-189.7784470603099
 20
-40.01395772861076
 30
0.0
 11
-74.77844706030987
 21
-40.01395772861076
 31
0.0
  0
LINE
  5
28F
  8
0
  6
DASHED
 62
     7
 10
-74.77844706030987
 20
-25.01395772861076
 30
0.0
 11
-62.77844706030987
 21
-25.01395772861076
 31
0.0
  0
LINE
  5
290
  8
0
  6
DASHED
 62
     7
 10
-74.77844706030987
 20
-43.01395772861076
 30
0.0
 11
-62.77844706030987
 21
-43.01395772861076
 31
0.0
  0
LINE
  5
291
  8
0
  6
DASHED
 62
     7
 10
-62.77844706030987
 20
-25.01395772861076
 30
0.0
 11
-62.77844706030987
 21
-43.01395772861076
 31
0.0
  0
LINE
  5
292
  8
0
  6
DASHED
 62
     7
 10
-189.7784470603099
 20
-28.86395620273186
 30
0.0
 11
-153.7784470603099
 21
-28.86395620273186
 31
0.0
  0
LINE
  5
293
  8
0
  6
DASHED
 62
     7
 10
-189.7784470603099
 20
-39.16395925448967
 30
0.0
 11
-153.7784470603099
 21
-39.16395925448967
 31
0.0
  0
LINE
  5
294
  8
0
  6
DASHED
 62
     7
 10
-189.7784470603099
 20
-28.01395772861076
 30
0.0
 11
-189.7784470603099
 21
-40.01395772861076
 31
0.0
  0
LINE
  5
295
  8
0
  6
DASHED
 62
     7
 10
-153.7784470603099
 20
-28.01395772861076
 30
0.0
 11
-153.7784470603099
 21
-40.01395772861076
 31
0.0
  0
LINE
  5
296
  8
0
  6
DASHED
 62
     7
 10
-160.2784470603099
 20
109.0910456283228
 30
0.0
 11
-160.2784470603099
 21
89.63103891445564
 31
0.0
  0
LINE
  5
297
  8
0
  6
DASHED
 62
     7
 10
-166.7784470603099
 20
89.63103891445564
 30
0.0
 11
-160.2784470603099
 21
89.63103891445564
 31
0.0
  0
LINE
  5
298
  8
0
  6
DASHED
 62
     7
 10
-166.7784470603099
 20
109.0910456283228
 30
0.0
 11
-160.2784470603099
 21
109.0910456283228
 31
0.0
  0
LINE
  5
299
  8
0
  6
DASHED
 62
     7
 10
-160.278465911116
 20
104.4610514057855
 30
0.0
 11
-157.333977034715
 21
99.36104776904142
 31
0.0
  0
LINE
  5
29A
  8
0
  6
DASHED
 62
     7
 10
-160.2784626341229
 20
94.26105172528415
 30
0.0
 11
-157.3339797181871
 21
99.3610450382011
 31
0.0
  0
LINE
  5
29B
  8
0
  6
DASHED
 62
     7
 10
-124.878445534431
 20
-49.83895467685295
 30
0.0
 11
-118.6784485861888
 21
-49.83895467685295
 31
0.0
  0
LINE
  5
29C
  8
0
  6
DASHED
 62
     7
 10
-124.878445534431
 20
-49.83895467685295
 30
0.0
 11
-124.878445534431
 21
-74.83895467685295
 31
0.0
  0
LINE
  5
29D
  8
0
  6
DASHED
 62
     7
 10
-118.6784485861888
 20
-49.83895467685295
 30
0.0
 11
-118.6784485861888
 21
-74.83895467685295
 31
0.0
  0
LINE
  5
29E
  8
0
  6
DASHED
 62
     7
 10
-124.8784484526179
 20
-49.83895614196388
 30
0.0
 11
-121.7784523768307
 21
-48.04917277086008
 31
0.0
  0
LINE
  5
29F
  8
0
  6
DASHED
 62
     7
 10
-121.7784525047564
 20
-48.04917191394827
 30
0.0
 11
-118.6784564289692
 21
-49.83895528505207
 31
0.0
  0
LINE
  5
2A0
  8
0
  6
CONTINUOUS
 62
     7
 10
-213.4706620261302
 20
99.36104227138924
 30
0.0
 11
-174.7814835593333
 21
99.36104227138924
 31
0.0
  0
LINE
  5
2A1
  8
0
  6
DASHED2
 62
     7
 10
-125.7784470603099
 20
-54.83895467685295
 30
0.0
 11
-117.7784470603099
 21
-54.83895467685295
 31
0.0
  0
LINE
  5
2A2
  8
0
  6
DASHED2
 62
     7
 10
-125.7784470603099
 20
-54.83895467685295
 30
0.0
 11
-125.7784470603099
 21
-74.83895467685295
 31
0.0
  0
LINE
  5
2A3
  8
0
  6
DASHED2
 62
     7
 10
-117.7784470603099
 20
-54.83895467685295
 30
0.0
 11
-117.7784470603099
 21
-74.83895467685295
 31
0.0
  0
LINE
  5
2A4
  8
0
  6
DIVIDE
 62
     7
 10
-178.5103348776927
 20
57.5422098739283
 30
0.0
 11
-178.5103348776927
 21
70.16104532314705
 31
0.0
  0
LINE
  5
2A5
  8
0
  6
DIVIDE
 62
     7
 10
-178.5103227003758
 20
70.16103785775033
 30
0.0
 11
-177.5103162439898
 21
71.16104431413635
 31
0.0
  0
LINE
  5
2A6
  8
0
  6
DIVIDE
 62
     7
 10
-160.5103348776927
 20
57.62992120815682
 30
0.0
 11
-160.5103348776927
 21
70.16104532314705
 31
0.0
  0
LINE
  5
2A7
  8
0
  6
DIVIDE
 62
     7
 10
-160.5103143813578
 20
70.16104864734336
 30
0.0
 11
-159.5103160171666
 21
71.16104701153461
 31
0.0
  0
LINE
  5
2A8
  8
0
  6
CONTINUOUS
 62
     3
 10
216.1240072698829
 20
-36.33101232252209
 30
0.0
 11
233.7240040273896
 21
-5.84692790659453
 31
0.0
  0
LINE
  5
2A9
  8
0
  6
CONTINUOUS
 62
     3
 10
29.92854060677939
 20
-5.846915160110299
 30
0.0
 11
47.52854594735595
 21
-36.33101444234892
 31
0.0
  0
LINE
  5
2AA
  8
0
  6
CONTINUOUS
 62
     3
 10
114.2262792546753
 20
140.161031288705
 30
0.0
 11
149.4262762029175
 21
140.161031288705
 31
0.0
  0
LINE
  5
2AB
  8
0
  6
CONTINUOUS
 62
     3
 10
149.4262762029175
 20
140.161031288705
 30
0.0
 11
149.4262762029175
 21
71.83102945765025
 31
0.0
  0
LINE
  5
2AC
  8
0
  6
CONTINUOUS
 62
     3
 10
114.2262792546753
 20
140.161031288705
 30
0.0
 11
114.2262792546753
 21
71.83102945765025
 31
0.0
  0
LINE
  5
2AD
  8
0
  6
CONTINUOUS
 62
     3
 10
29.92854338219343
 20
-5.84691822607418
 30
0.0
 11
89.10406877465096
 21
28.3180835140832
 31
0.0
  0
LINE
  5
2AE
  8
0
  6
CONTINUOUS
 62
     3
 10
47.52854792559481
 20
-36.33101604723571
 30
0.0
 11
106.7040700144274
 21
-2.166016214426847
 31
0.0
  0
LINE
  5
2AF
  8
0
  6
CONTINUOUS
 62
     3
 10
156.9484971101028
 20
-2.166012162130002
 30
0.0
 11
216.124017547123
 21
-36.3310110412646
 31
0.0
  0
LINE
  5
2B0
  8
0
  6
CONTINUOUS
 62
     3
 10
174.5484983498793
 20
28.31808756638004
 30
0.0
 11
233.7240187868995
 21
-5.846911312754557
 31
0.0
  0
LINE
  5
2B1
  8
0
  6
CONTINUOUS
 62
     3
 10
208.0762911048232
 20
-43.11618275911512
 30
0.0
 11
208.8767197764983
 21
-43.57831041711704
 31
0.0
  0
LINE
  5
2B2
  8
0
  6
CONTINUOUS
 62
     3
 10
235.5762894656955
 20
4.515216872385125
 30
0.0
 11
236.3767181373705
 21
4.053089214383206
 31
0.0
  0
LINE
  5
2B3
  8
0
  6
CONTINUOUS
 62
     3
 10
159.3262700994019
 20
137.5083518453456
 30
0.0
 11
159.3262700994019
 21
136.5840964742518
 31
0.0
  0
LINE
  5
2B4
  8
0
  6
CONTINUOUS
 62
     3
 10
104.3262777287964
 20
137.5083518453456
 30
0.0
 11
104.3262777287964
 21
136.5840964742518
 31
0.0
  0
LINE
  5
2B5
  8
0
  6
CONTINUOUS
 62
     3
 10
54.77584429994317
 20
-43.57832063406157
 30
0.0
 11
55.57627131980576
 21
-43.11619392973391
 31
0.0
  0
LINE
  5
2B6
  8
0
  6
CONTINUOUS
 62
     3
 10
27.27584397211774
 20
4.053082404301861
 30
0.0
 11
28.07627264379278
 21
4.51521006230378
 31
0.0
  0
LINE
  5
2B7
  8
0
  6
CONTINUOUS
 62
     3
 10
104.3262623868654
 20
137.508319221315
 30
0.0
 11
114.226265024347
 21
140.1610166498766
 31
0.0
  0
LINE
  5
2B8
  8
0
  6
CONTINUOUS
 62
     3
 10
149.4262676108547
 20
140.1610119085709
 30
0.0
 11
159.3262628789071
 21
137.5083164546416
 31
0.0
  0
LINE
  5
2B9
  8
0
  6
CONTINUOUS
 62
     3
 10
208.8767365093945
 20
-43.57832920117396
 30
0.0
 11
216.1240312341715
 21
-36.33103508729816
 31
0.0
  0
LINE
  5
2BA
  8
0
  6
CONTINUOUS
 62
     3
 10
47.52854029686651
 20
-36.3310114859401
 30
0.0
 11
54.7758404164405
 21
-43.57831099461241
 31
0.0
  0
LINE
  5
2BB
  8
0
  6
CONTINUOUS
 62
     3
 10
233.7240169342064
 20
-5.846879122548828
 30
0.0
 11
236.3767041131896
 21
4.053082983072571
 31
0.0
  0
LINE
  5
2BC
  8
0
  6
CONTINUOUS
 62
     3
 10
27.27584183273895
 20
4.053081341065777
 30
0.0
 11
29.92853888488629
 21
-5.846917611701187
 31
0.0
  0
LINE
  5
2BD
  8
0
  6
CONTINUOUS
 62
     3
 10
114.2262792546753
 20
76.16103128870493
 30
0.0
 11
149.4262762029175
 21
76.16103128870493
 31
0.0
  0
LINE
  5
2BE
  8
0
  6
CONTINUOUS
 62
     3
 10
160.6983824224708
 20
-4.331008507824819
 30
0.0
 11
178.2983829946752
 21
26.1530825153521
 31
0.0
  0
LINE
  5
2BF
  8
0
  6
CONTINUOUS
 62
     3
 10
85.35417587613858
 20
26.15308586203533
 30
0.0
 11
102.9541812167151
 21
-4.331013420203291
 31
0.0
  0
LINE
  5
2C0
  8
0
  6
CONTINUOUS
 62
     3
 10
89.10406834663559
 20
28.31808538383855
 30
0.0
 11
106.7040765482354
 21
-2.166018853837088
 31
0.0
  0
LINE
  5
2C1
  8
0
  6
CONTINUOUS
 62
     3
 10
114.2262792546753
 20
71.83102945765025
 30
0.0
 11
149.4262762029175
 21
71.83102945765025
 31
0.0
  0
LINE
  5
2C2
  8
0
  6
CONTINUOUS
 62
     3
 10
156.9485079348447
 20
-2.166008356355334
 30
0.0
 11
174.5485046923513
 21
28.31807605957222
 31
0.0
  0
LINE
  5
2C3
  8
0
  6
CONTINUOUS
 62
     3
 10
114.2262792546753
 20
78.66103128870493
 30
0.0
 11
124.8262777287964
 21
78.66103128870493
 31
0.0
  0
LINE
  5
2C4
  8
0
  6
CONTINUOUS
 62
     3
 10
162.863466736967
 20
-5.58100307173315
 30
0.0
 11
168.163462791139
 21
3.598858114920247
 31
0.0
  0
LINE
  5
2C5
  8
0
  6
CONTINUOUS
 62
     3
 10
83.18910954451326
 20
24.90309066846073
 30
0.0
 11
88.4891141817551
 21
15.72321461549628
 31
0.0
  0
LINE
  5
2C6
  8
0
  6
CONTINUOUS
 62
     3
 10
42.22854353792934
 20
-27.15114196794825
 30
0.0
 11
56.19494489476381
 21
-19.08763727584112
 31
0.0
  0
LINE
  5
2C7
  8
0
  6
CONTINUOUS
 62
     3
 10
35.22854325702366
 20
-15.02678830359854
 30
0.0
 11
49.1949528729204
 21
-6.963278843120108
 31
0.0
  0
LINE
  5
2C8
  8
0
  6
CONTINUOUS
 62
     3
 10
138.8262700994019
 20
140.161031288705
 30
0.0
 11
138.8262700994019
 21
124.0340171285487
 31
0.0
  0
LINE
  5
2C9
  8
0
  6
CONTINUOUS
 62
     3
 10
124.8262777287964
 20
140.161031288705
 30
0.0
 11
124.8262777287964
 21
124.0340171285487
 31
0.0
  0
LINE
  5
2CA
  8
0
  6
CONTINUOUS
 62
     3
 10
168.1634684549799
 20
3.598854529460212
 30
0.0
 11
174.7690400292422
 21
-0.2148735757433968
 31
0.0
  0
LINE
  5
2CB
  8
0
  6
CONTINUOUS
 62
     3
 10
175.1634548232478
 20
15.72321842869071
 30
0.0
 11
181.7686431770208
 21
11.90971157591532
 31
0.0
  0
LINE
  5
2CC
  8
0
  6
CONTINUOUS
 62
     3
 10
138.8262700994019
 20
78.66103128870493
 30
0.0
 11
149.4262762029175
 21
78.66103128870493
 31
0.0
  0
LINE
  5
2CD
  8
0
  6
CONTINUOUS
 62
     3
 10
95.4891140625457
 20
3.598860831937216
 30
0.0
 11
100.7891139314154
 21
-5.581006961965542
 31
0.0
  0
LINE
  5
2CE
  8
0
  6
CONTINUOUS
 62
     3
 10
175.163463625604
 20
15.72321355029165
 30
0.0
 11
180.4634673091714
 21
24.90308795144377
 31
0.0
  0
LINE
  5
2CF
  8
0
  6
CONTINUOUS
 62
     3
 10
124.8262777287964
 20
116.2880454488612
 30
0.0
 11
124.8262777287964
 21
94.03401712854868
 31
0.0
  0
LINE
  5
2D0
  8
0
  6
CONTINUOUS
 62
     3
 10
124.8262777287964
 20
86.28804544886118
 30
0.0
 11
124.8262777287964
 21
78.66103128870493
 31
0.0
  0
LINE
  5
2D1
  8
0
  6
CONTINUOUS
 62
     3
 10
138.8262700994019
 20
116.2880454488612
 30
0.0
 11
138.8262700994019
 21
94.03401712854868
 31
0.0
  0
LINE
  5
2D2
  8
0
  6
CONTINUOUS
 62
     3
 10
138.8262700994019
 20
86.28804544886118
 30
0.0
 11
138.8262700994019
 21
78.66103128870493
 31
0.0
  0
LINE
  5
2D3
  8
0
  6
CONTINUOUS
 62
     3
 10
55.90314825132037
 20
-3.09030086351838
 30
0.0
 11
75.17531987329522
 21
8.036491380987926
 31
0.0
  0
LINE
  5
2D4
  8
0
  6
CONTINUOUS
 62
     3
 10
81.88393150843359
 20
11.90970968650306
 30
0.0
 11
88.48910664770693
 21
15.72320890988438
 31
0.0
  0
LINE
  5
2D5
  8
0
  6
CONTINUOUS
 62
     3
 10
88.88352709528806
 20
-0.2148776280402416
 30
0.0
 11
95.48910527680016
 21
3.598854291860405
 31
0.0
  0
LINE
  5
2D6
  8
0
  6
CONTINUOUS
 62
     3
 10
62.90315348766342
 20
-15.21465166684532
 30
0.0
 11
82.17572815187702
 21
-4.087626725819675
 31
0.0
  0
LINE
  5
2D7
  8
0
  6
CONTINUOUS
 62
     3
 10
181.4768521871529
 20
-4.087630302916907
 30
0.0
 11
200.7494334586163
 21
-15.21465905863959
 31
0.0
  0
LINE
  5
2D8
  8
0
  6
CONTINUOUS
 62
     3
 10
207.4576288370163
 20
-19.08763703824131
 30
0.0
 11
221.4240334974757
 21
-27.15114363769696
 31
0.0
  0
LINE
  5
2D9
  8
0
  6
CONTINUOUS
 62
     3
 10
214.4576284197838
 20
-6.963280768404886
 30
0.0
 11
228.4240330802431
 21
-15.02678736786054
 31
0.0
  0
LINE
  5
2DA
  8
0
  6
CONTINUOUS
 62
     3
 10
188.4772614194089
 20
8.036489455703148
 30
0.0
 11
207.7494066123845
 21
-3.090287530015004
 31
0.0
  0
LINE
  5
2DB
  8
0
  6
CONTINUOUS
 62
     3
 10
86.12628010315575
 20
111.161043476067
 30
0.0
 11
88.97627721829167
 21
106.2247007265015
 31
0.0
  0
LINE
  5
2DC
  8
0
  6
CONTINUOUS
 62
     3
 10
88.97627925467532
 20
106.2246833272792
 30
0.0
 11
94.67627620291751
 21
106.2246833272792
 31
0.0
  0
LINE
  5
2DD
  8
0
  6
CONTINUOUS
 62
     3
 10
94.67626784785773
 20
106.2246783190154
 30
0.0
 11
97.52626971944176
 21
111.1610183506105
 31
0.0
  0
LINE
  5
2DE
  8
0
  6
CONTINUOUS
 62
     3
 10
97.52628138420153
 20
111.1610360651972
 30
0.0
 11
94.67628096399028
 21
116.0973861015064
 31
0.0
  0
LINE
  5
2DF
  8
0
  6
CONTINUOUS
 62
     3
 10
94.67627620291751
 20
116.0973792501307
 30
0.0
 11
88.97627925467532
 21
116.0973792501307
 31
0.0
  0
LINE
  5
2E0
  8
0
  6
CONTINUOUS
 62
     3
 10
88.97627735428932
 20
116.0973805467898
 30
0.0
 11
86.12627786092935
 21
111.1610388164632
 31
0.0
  0
LINE
  5
2E1
  8
0
  6
CONTINUOUS
 62
     3
 10
214.1093199805837
 20
28.05206582358171
 30
0.0
 11
216.9593170957196
 21
23.11572307401623
 31
0.0
  0
LINE
  5
2E2
  8
0
  6
CONTINUOUS
 62
     3
 10
216.9592657048706
 20
23.11570887049204
 30
0.0
 11
222.6592779119019
 21
23.11570887049204
 31
0.0
  0
LINE
  5
2E3
  8
0
  6
CONTINUOUS
 62
     3
 10
222.659241054379
 20
23.11571543695102
 30
0.0
 11
225.509242925963
 21
28.05205546854616
 31
0.0
  0
LINE
  5
2E4
  8
0
  6
CONTINUOUS
 62
     3
 10
225.509308712866
 20
28.05206625369858
 30
0.0
 11
222.6593121073495
 21
32.98840968275665
 31
0.0
  0
LINE
  5
2E5
  8
0
  6
CONTINUOUS
 62
     3
 10
222.6592779119019
 20
32.98840097864634
 30
0.0
 11
216.9592657048706
 21
32.98840097864634
 31
0.0
  0
LINE
  5
2E6
  8
0
  6
CONTINUOUS
 62
     3
 10
216.9592859377808
 20
32.98839849051167
 30
0.0
 11
214.1092864444208
 21
28.05205676018507
 31
0.0
  0
LINE
  5
2E7
  8
0
  6
CONTINUOUS
 62
     3
 10
78.14328523246036
 20
-41.22998343359875
 30
0.0
 11
80.99328234759628
 21
-46.16632618316423
 31
0.0
  0
LINE
  5
2E8
  8
0
  6
CONTINUOUS
 62
     3
 10
80.99328517508548
 20
-46.16632695714468
 30
0.0
 11
86.69328212332766
 21
-46.16632695714468
 31
0.0
  0
LINE
  5
2E9
  8
0
  6
CONTINUOUS
 62
     3
 10
86.69326367095476
 20
-46.1663163481215
 30
0.0
 11
89.54326673463311
 21
-41.22997425176179
 31
0.0
  0
LINE
  5
2EA
  8
0
  6
CONTINUOUS
 62
     3
 10
89.5432844742561
 20
-41.22997871203158
 30
0.0
 11
86.69328786873962
 21
-36.29363528297351
 31
0.0
  0
LINE
  5
2EB
  8
0
  6
CONTINUOUS
 62
     3
 10
86.69328975272219
 20
-36.29364057103628
 30
0.0
 11
80.99328517508548
 21
-36.29364057103628
 31
0.0
  0
LINE
  5
2EC
  8
0
  6
CONTINUOUS
 62
     3
 10
80.99329982388974
 20
-36.29364875267395
 30
0.0
 11
78.14329842318045
 21
-41.229993786625
 31
0.0
  0
LINE
  5
2ED
  8
0
  6
CONTINUOUS
 62
     3
 10
124.8262777287964
 20
129.1610312887049
 30
0.0
 11
138.8262700994019
 21
129.1610312887049
 31
0.0
  0
LINE
  5
2EE
  8
0
  6
CONTINUOUS
 62
     3
 10
124.8262777287964
 20
81.16103128870493
 30
0.0
 11
138.8262700994019
 21
81.16103128870493
 31
0.0
  0
LINE
  5
2EF
  8
0
  6
CONTINUOUS
 62
     3
 10
86.32379615840921
 20
14.47321285986523
 30
0.0
 11
93.32379794654867
 21
2.348855772681489
 31
0.0
  0
LINE
  5
2F0
  8
0
  6
CONTINUOUS
 62
     3
 10
44.7548252128081
 20
-9.526787951936896
 30
0.0
 11
51.75482700094756
 21
-21.65114503912064
 31
0.0
  0
LINE
  5
2F1
  8
0
  6
CONTINUOUS
 62
     3
 10
170.3287761145843
 20
2.348863477611602
 30
0.0
 11
177.3287731343517
 21
14.47321230573364
 31
0.0
  0
LINE
  5
2F2
  8
0
  6
CONTINUOUS
 62
     3
 10
211.8977525266955
 20
-21.65113168061559
 30
0.0
 11
218.8977457317651
 21
-9.526789459742915
 31
0.0
  0
ARC
  5
2F3
  8
0
  6
CONTINUOUS
 62
     3
 10
131.8262777287964
 20
32.6610351034022
 30
0.0
 40
107.5
 50
0.0
 51
80.57705986515023
  0
ARC
  5
2F4
  8
0
  6
CONTINUOUS
 62
     3
 10
131.8262777287964
 20
32.6610351034022
 30
0.0
 40
105.5
 50
0.0
 51
80.39674970125107
  0
ARC
  5
2F5
  8
0
  6
CONTINUOUS
 62
     3
 10
131.8262777287964
 20
32.6610351034022
 30
0.0
 40
107.5
 50
219.4229179746301
 51
320.5770633560352
  0
ARC
  5
2F6
  8
0
  6
CONTINUOUS
 62
     3
 10
131.8262777287964
 20
32.6610351034022
 30
0.0
 40
105.5
 50
219.6032213083401
 51
320.396753192136
  0
ARC
  5
2F7
  8
0
  6
CONTINUOUS
 62
     3
 10
131.8262777287964
 20
32.6610351034022
 30
0.0
 40
105.5
 50
339.603251968401
 51
360.0
  0
ARC
  5
2F8
  8
0
  6
CONTINUOUS
 62
     3
 10
131.8262777287964
 20
32.6610351034022
 30
0.0
 40
107.5
 50
339.4229418045019
 51
360.0
  0
ARC
  5
2F9
  8
0
  6
CONTINUOUS
 62
     3
 10
131.8262777287964
 20
32.6610351034022
 30
0.0
 40
105.5
 50
99.60326896808361
 51
200.3967120594203
  0
ARC
  5
2FA
  8
0
  6
CONTINUOUS
 62
     3
 10
131.8262777287964
 20
32.6610351034022
 30
0.0
 40
107.5
 50
99.42295880418443
 51
200.5770290535086
  0
CIRCLE
  5
2FB
  8
0
  6
CONTINUOUS
 62
     3
 10
131.8262777287964
 20
32.6610351034022
 30
0.0
 40
33.0
  0
CIRCLE
  5
2FC
  8
0
  6
CONTINUOUS
 62
     3
 10
131.8262777287964
 20
32.6610351034022
 30
0.0
 40
35.5
  0
ARC
  5
2FD
  8
0
  6
CONTINUOUS
 62
     3
 10
131.8262777287964
 20
32.6610351034022
 30
0.0
 40
53.0
 50
0.0
 51
70.60520224298506
  0
ARC
  5
2FE
  8
0
  6
CONTINUOUS
 62
     3
 10
131.8262777287964
 20
32.6610351034022
 30
0.0
 40
53.0
 50
109.3948164263496
 51
190.6051577709651
  0
ARC
  5
2FF
  8
0
  6
CONTINUOUS
 62
     3
 10
131.8262777287964
 20
32.6610351034022
 30
0.0
 40
53.0
 50
229.3947755967953
 51
310.6052091489646
  0
ARC
  5
300
  8
0
  6
CONTINUOUS
 62
     3
 10
131.8262777287964
 20
32.6610351034022
 30
0.0
 40
53.0
 50
349.3948002804407
 51
360.0
  0
CIRCLE
  5
301
  8
0
  6
CONTINUOUS
 62
     3
 10
100.0064687688355
 20
64.48084024866587
 30
0.0
 40
5.5
  0
CIRCLE
  5
302
  8
0
  6
CONTINUOUS
 62
     3
 10
88.35961818289798
 20
44.30789331873423
 30
0.0
 40
5.5
  0
CIRCLE
  5
303
  8
0
  6
CONTINUOUS
 62
     3
 10
120.1794195134644
 20
-10.80562587300771
 30
0.0
 40
5.5
  0
CIRCLE
  5
304
  8
0
  6
CONTINUOUS
 62
     3
 10
143.4731206853394
 20
-10.80562587300771
 30
0.0
 40
5.5
  0
CIRCLE
  5
305
  8
0
  6
CONTINUOUS
 62
     3
 10
175.2929296453003
 20
44.30789331873423
 30
0.0
 40
5.5
  0
CIRCLE
  5
306
  8
0
  6
CONTINUOUS
 62
     3
 10
163.6460790593628
 20
64.48084024866587
 30
0.0
 40
5.5
  0
CIRCLE
  5
307
  8
0
  6
CONTINUOUS
 62
     3
 10
178.9726171453003
 20
79.80737833460337
 30
0.0
 40
10.0
  0
CIRCLE
  5
308
  8
0
  6
CONTINUOUS
 62
     3
 10
196.229376788855
 20
49.91779474695689
 30
0.0
 40
10.0
  0
CIRCLE
  5
309
  8
0
  6
CONTINUOUS
 62
     3
 10
149.0830297429566
 20
-31.74207349339956
 30
0.0
 40
10.0
  0
CIRCLE
  5
30A
  8
0
  6
CONTINUOUS
 62
     3
 10
114.5695180852417
 20
-31.74207349339956
 30
0.0
 40
10.0
  0
CIRCLE
  5
30B
  8
0
  6
CONTINUOUS
 62
     3
 10
67.42316722464602
 20
49.91779474695689
 30
0.0
 40
10.0
  0
CIRCLE
  5
30C
  8
0
  6
CONTINUOUS
 62
     3
 10
84.67993068289798
 20
79.80737833460337
 30
0.0
 40
10.0
  0
CIRCLE
  5
30D
  8
0
  6
CONTINUOUS
 62
     3
 10
83.8432912786011
 20
-41.22998281041616
 30
0.0
 40
9.0
  0
CIRCLE
  5
30E
  8
0
  6
CONTINUOUS
 62
     3
 10
219.8092718083863
 20
28.05205683191782
 30
0.0
 40
9.0
  0
CIRCLE
  5
30F
  8
0
  6
CONTINUOUS
 62
     3
 10
91.82627772879641
 20
111.1610312887049
 30
0.0
 40
9.0
  0
ARC
  5
310
  8
0
  6
CONTINUOUS
 62
     3
 10
86.79296016287844
 20
6.661035103402199
 30
0.0
 40
10.0
 50
61.7883842509824
 51
83.13015042595515
  0
ARC
  5
311
  8
0
  6
CONTINUOUS
 62
     3
 10
131.8262777287964
 20
84.66103128870493
 30
0.0
 40
10.0
 50
216.8698752251494
 51
238.211634569933
  0
ARC
  5
312
  8
0
  6
CONTINUOUS
 62
     3
 10
176.8595952947144
 20
6.661038918099465
 30
0.0
 40
10.0
 50
96.86990922451454
 51
118.2117368711898
  0
ARC
  5
313
  8
0
  6
CONTINUOUS
 62
     3
 10
131.8262777287964
 20
84.66103128870493
 30
0.0
 40
10.0
 50
301.7883467607323
 51
323.1301026904213
  0
ARC
  5
314
  8
0
  6
CONTINUOUS
 62
     3
 10
86.79296016287844
 20
6.661035103402199
 30
0.0
 40
10.0
 50
336.8698683191699
 51
358.2116159245658
  0
ARC
  5
315
  8
0
  6
CONTINUOUS
 62
     3
 10
176.8595952947144
 20
6.661038918099465
 30
0.0
 40
10.0
 50
181.7882614591581
 51
203.1300617850767
  0
CIRCLE
  5
316
  8
0
  6
CONTINUOUS
 62
     3
 10
91.82627772879641
 20
111.1610312887049
 30
0.0
 40
0.75
  0
CIRCLE
  5
317
  8
0
  6
CONTINUOUS
 62
     3
 10
91.82627772879641
 20
111.1610312887049
 30
0.0
 40
2.400000095367432
  0
CIRCLE
  5
318
  8
0
  6
CONTINUOUS
 62
     3
 10
91.82627772879641
 20
111.1610312887049
 30
0.0
 40
3.299999952316284
  0
CIRCLE
  5
319
  8
0
  6
CONTINUOUS
 62
     3
 10
219.8092718083863
 20
28.05205683191782
 30
0.0
 40
0.75
  0
CIRCLE
  5
31A
  8
0
  6
CONTINUOUS
 62
     3
 10
219.8092718083863
 20
28.05205683191782
 30
0.0
 40
2.400000095367432
  0
CIRCLE
  5
31B
  8
0
  6
CONTINUOUS
 62
     3
 10
219.8092718083863
 20
28.05205683191782
 30
0.0
 40
3.299999952316284
  0
CIRCLE
  5
31C
  8
0
  6
CONTINUOUS
 62
     3
 10
83.8432912786011
 20
-41.22998281041616
 30
0.0
 40
0.75
  0
CIRCLE
  5
31D
  8
0
  6
CONTINUOUS
 62
     3
 10
83.8432912786011
 20
-41.22998281041616
 30
0.0
 40
2.400000095367432
  0
CIRCLE
  5
31E
  8
0
  6
CONTINUOUS
 62
     3
 10
83.8432912786011
 20
-41.22998281041616
 30
0.0
 40
3.299999952316284
  0
CIRCLE
  5
31F
  8
0
  6
CONTINUOUS
 62
     3
 10
131.8262777287964
 20
-12.33896632710928
 30
0.0
 40
2.0
  0
CIRCLE
  5
320
  8
0
  6
CONTINUOUS
 62
     3
 10
92.8551320989136
 20
55.1610351034022
 30
0.0
 40
2.0
  0
CIRCLE
  5
321
  8
0
  6
CONTINUOUS
 62
     3
 10
170.7974157292847
 20
55.16103128870493
 30
0.0
 40
2.0
  0
LINE
  5
322
  8
0
  6
CONTINUOUS
 62
     3
 10
-61.77844706030987
 20
140.1610376937525
 30
0.0
 11
-61.77844706030987
 21
136.915066014065
 31
0.0
  0
LINE
  5
323
  8
0
  6
CONTINUOUS
 62
     3
 10
-167.7784470603099
 20
140.1610376937525
 30
0.0
 11
-113.2784470603099
 21
140.1610376937525
 31
0.0
  0
LINE
  5
324
  8
0
  6
CONTINUOUS
 62
     3
 10
-167.7784470603099
 20
-74.83895467685295
 30
0.0
 11
-63.77844706030987
 21
-74.83895467685295
 31
0.0
  0
LINE
  5
325
  8
0
  6
CONTINUOUS
 62
     3
 10
-113.2784470603099
 20
140.1610376937525
 30
0.0
 11
-113.2784470603099
 21
122.9440879157754
 31
0.0
  0
LINE
  5
326
  8
0
  6
CONTINUOUS
 62
     3
 10
-67.77844706030987
 20
140.1610376937525
 30
0.0
 11
-67.77844706030987
 21
129.1610376937525
 31
0.0
  0
LINE
  5
327
  8
0
  6
CONTINUOUS
 62
     3
 10
-74.77844706030987
 20
140.1610376937525
 30
0.0
 11
-74.77844706030987
 21
74.66104532314705
 31
0.0
  0
LINE
  5
328
  8
0
  6
CONTINUOUS
 62
     3
 10
-70.77844706030987
 20
78.66104532314705
 30
0.0
 11
-59.77844706030987
 21
78.66104532314705
 31
0.0
  0
LINE
  5
329
  8
0
  6
CONTINUOUS
 62
     3
 10
-70.77844706030987
 20
78.66104532314705
 30
0.0
 11
-70.77844706030987
 21
73.16104532314705
 31
0.0
  0
LINE
  5
32A
  8
0
  6
CONTINUOUS
 62
     3
 10
-81.27844706030987
 20
73.16104532314705
 30
0.0
 11
-70.77844706030987
 21
73.16104532314705
 31
0.0
  0
LINE
  5
32B
  8
0
  6
CONTINUOUS
 62
     3
 10
-74.77844706030987
 20
74.66104532314705
 30
0.0
 11
-70.77844706030987
 21
74.66104532314705
 31
0.0
  0
LINE
  5
32C
  8
0
  6
CONTINUOUS
 62
     3
 10
-81.27844706030987
 20
82.66104532314705
 30
0.0
 11
-81.27844706030987
 21
73.16104532314705
 31
0.0
  0
LINE
  5
32D
  8
0
  6
CONTINUOUS
 62
     3
 10
-89.4949082419505
 20
75.66104532314705
 30
0.0
 11
-81.27844706030987
 21
75.66104532314705
 31
0.0
  0
LINE
  5
32E
  8
0
  6
CONTINUOUS
 62
     3
 10
-91.51033487769269
 20
79.66104532314705
 30
0.0
 11
-91.51033487769269
 21
68.16104532314705
 31
0.0
  0
LINE
  5
32F
  8
0
  6
CONTINUOUS
 62
     3
 10
-71.01033487769269
 20
68.16104532314705
 30
0.0
 11
-71.01033487769269
 21
-2.83895467685295
 31
0.0
  0
LINE
  5
330
  8
0
  6
CONTINUOUS
 62
     3
 10
-149.7784470603099
 20
-16.33895467685295
 30
0.0
 11
-82.77844706030987
 21
-16.33895467685295
 31
0.0
  0
LINE
  5
331
  8
0
  6
CONTINUOUS
 62
     3
 10
-149.7784470603099
 20
81.66104532314705
 30
0.0
 11
-93.5103346067917
 21
81.66104532314705
 31
0.0
  0
LINE
  5
332
  8
0
  6
CONTINUOUS
 62
     3
 10
-91.51033487769269
 20
-2.83895467685295
 30
0.0
 11
-61.77844706030987
 21
-2.83895467685295
 31
0.0
  0
LINE
  5
333
  8
0
  6
CONTINUOUS
 62
     3
 10
-91.51033487769269
 20
68.16104532314705
 30
0.0
 11
-61.77844706030987
 21
68.16104532314705
 31
0.0
  0
LINE
  5
334
  8
0
  6
CONTINUOUS
 62
     3
 10
-91.51033487769269
 20
-2.83895467685295
 30
0.0
 11
-91.51033487769269
 21
-14.33895467685295
 31
0.0
  0
LINE
  5
335
  8
0
  6
CONTINUOUS
 62
     3
 10
-127.5103348776927
 20
77.91104532314705
 30
0.0
 11
-127.5103348776927
 21
76.86104990078377
 31
0.0
  0
LINE
  5
336
  8
0
  6
CONTINUOUS
 62
     3
 10
-124.5103348776927
 20
77.91104532314705
 30
0.0
 11
-124.5103348776927
 21
75.66104532314705
 31
0.0
  0
LINE
  5
337
  8
0
  6
CONTINUOUS
 62
     3
 10
-119.5103348776927
 20
65.66104532314705
 30
0.0
 11
-71.01033487769269
 21
65.66104532314705
 31
0.0
  0
LINE
  5
338
  8
0
  6
CONTINUOUS
 62
     3
 10
-119.5103348776927
 20
-0.3389546768529499
 30
0.0
 11
-71.01033487769269
 21
-0.3389546768529499
 31
0.0
  0
LINE
  5
339
  8
0
  6
CONTINUOUS
 62
     3
 10
-127.5103348776927
 20
77.91104532314705
 30
0.0
 11
-124.5103348776927
 21
77.91104532314705
 31
0.0
  0
LINE
  5
33A
  8
0
  6
CONTINUOUS
 62
     3
 10
-127.5103348776927
 20
-12.58895467685295
 30
0.0
 11
-124.5103348776927
 21
-12.58895467685295
 31
0.0
  0
LINE
  5
33B
  8
0
  6
CONTINUOUS
 62
     3
 10
-141.5103348776927
 20
77.66104532314705
 30
0.0
 11
-127.5103348776927
 21
77.66104532314705
 31
0.0
  0
LINE
  5
33C
  8
0
  6
CONTINUOUS
 62
     3
 10
-141.5103348776927
 20
-12.33895467685295
 30
0.0
 11
-139.5103348776927
 21
-12.33895467685295
 31
0.0
  0
LINE
  5
33D
  8
0
  6
CONTINUOUS
 62
     3
 10
-127.5103348776927
 20
-11.5389554397924
 30
0.0
 11
-127.5103348776927
 21
-12.58895467685295
 31
0.0
  0
LINE
  5
33E
  8
0
  6
CONTINUOUS
 62
     3
 10
-124.5103348776927
 20
-10.33895467685295
 30
0.0
 11
-124.5103348776927
 21
-12.58895467685295
 31
0.0
  0
LINE
  5
33F
  8
0
  6
CONTINUOUS
 62
     3
 10
-93.5103344606399
 20
81.66104517699525
 30
0.0
 11
-91.5103323374609
 21
79.66104305381624
 31
0.0
  0
LINE
  5
340
  8
0
  6
CONTINUOUS
 62
     3
 10
-91.51033014582481
 20
-14.33895204282692
 30
0.0
 11
-93.51033226900381
 21
-16.33895416600592
 31
0.0
  0
LINE
  5
341
  8
0
  6
CONTINUOUS
 62
     3
 10
-90.27389790696496
 20
82.66104532314705
 30
0.0
 11
-81.27844706030987
 21
82.66104532314705
 31
0.0
  0
LINE
  5
342
  8
0
  6
CONTINUOUS
 62
     3
 10
-135.5103348776927
 20
-12.33895467685295
 30
0.0
 11
-127.5103348776927
 21
-12.33895467685295
 31
0.0
  0
LINE
  5
343
  8
0
  6
CONTINUOUS
 62
     3
 10
-70.77844706030987
 20
73.16104532314705
 30
0.0
 11
-70.77844706030987
 21
70.66104532314705
 31
0.0
  0
LINE
  5
344
  8
0
  6
CONTINUOUS
 62
     3
 10
-82.77844706030987
 20
-2.83895467685295
 30
0.0
 11
-82.77844706030987
 21
-16.33895467685295
 31
0.0
  0
LINE
  5
345
  8
0
  6
CONTINUOUS
 62
     3
 10
-70.77844706030987
 20
-20.33895467685295
 30
0.0
 11
-61.77844706030987
 21
-20.33895467685295
 31
0.0
  0
LINE
  5
346
  8
0
  6
CONTINUOUS
 62
     3
 10
-82.77844706030987
 20
-5.33895467685295
 30
0.0
 11
-70.77844706030987
 21
-5.33895467685295
 31
0.0
  0
LINE
  5
347
  8
0
  6
CONTINUOUS
 62
     3
 10
-81.77844706030987
 20
70.66104532314705
 30
0.0
 11
-81.77844706030987
 21
68.16104532314705
 31
0.0
  0
LINE
  5
348
  8
0
  6
CONTINUOUS
 62
     3
 10
-81.77844706030987
 20
-2.83895467685295
 30
0.0
 11
-81.77844706030987
 21
-5.33895467685295
 31
0.0
  0
LINE
  5
349
  8
0
  6
CONTINUOUS
 62
     3
 10
-81.77844706030987
 20
70.66104532314705
 30
0.0
 11
-70.77844706030987
 21
70.66104532314705
 31
0.0
  0
LINE
  5
34A
  8
0
  6
CONTINUOUS
 62
     3
 10
-70.77844706030987
 20
-5.33895467685295
 30
0.0
 11
-70.77844706030987
 21
-20.33895467685295
 31
0.0
  0
LINE
  5
34B
  8
0
  6
CONTINUOUS
 62
     3
 10
-61.77844733337014
 20
-72.83895412870146
 30
0.0
 11
-63.77844945654914
 21
-74.83895625188046
 31
0.0
  0
LINE
  5
34C
  8
0
  6
CONTINUOUS
 62
     3
 10
-70.77844706030987
 20
76.16104532314705
 30
0.0
 11
-69.27844706030987
 21
76.16104532314705
 31
0.0
  0
LINE
  5
34D
  8
0
  6
CONTINUOUS
 62
     3
 10
-69.27844592308134
 20
76.16104731645362
 30
0.0
 11
-61.77845094126565
 21
71.83092367318193
 31
0.0
  0
LINE
  5
34E
  8
0
  6
CONTINUOUS
 62
     3
 10
-58.77844706030987
 20
129.1610376937525
 30
0.0
 11
-58.77844706030987
 21
124.311046849026
 31
0.0
  0
LINE
  5
34F
  8
0
  6
CONTINUOUS
 62
     3
 10
-73.77844706030987
 20
129.1610376937525
 30
0.0
 11
-58.77844706030987
 21
129.1610376937525
 31
0.0
  0
LINE
  5
350
  8
0
  6
CONTINUOUS
 62
     3
 10
-73.77844706030987
 20
81.16104532314705
 30
0.0
 11
-58.77844706030987
 21
81.16104532314705
 31
0.0
  0
LINE
  5
351
  8
0
  6
CONTINUOUS
 62
     3
 10
-73.77844706030987
 20
115.1610453231471
 30
0.0
 11
-50.77844706030987
 21
115.1610453231471
 31
0.0
  0
LINE
  5
352
  8
0
  6
CONTINUOUS
 62
     3
 10
-73.77844706030987
 20
125.1610453231471
 30
0.0
 11
-50.77844706030987
 21
125.1610453231471
 31
0.0
  0
LINE
  5
353
  8
0
  6
CONTINUOUS
 62
     3
 10
-73.77844706030987
 20
95.16104532314705
 30
0.0
 11
-50.77844706030987
 21
95.16104532314705
 31
0.0
  0
LINE
  5
354
  8
0
  6
CONTINUOUS
 62
     3
 10
-73.77844706030987
 20
85.16104532314705
 30
0.0
 11
-50.77844706030987
 21
85.16104532314705
 31
0.0
  0
LINE
  5
355
  8
0
  6
CONTINUOUS
 62
     3
 10
-50.77844706030987
 20
98.16104532314705
 30
0.0
 11
-40.77844706030987
 21
98.16104532314705
 31
0.0
  0
LINE
  5
356
  8
0
  6
CONTINUOUS
 62
     3
 10
-50.77844706030987
 20
82.16104532314705
 30
0.0
 11
-40.77844706030987
 21
82.16104532314705
 31
0.0
  0
LINE
  5
357
  8
0
  6
CONTINUOUS
 62
     3
 10
-50.77844706030987
 20
128.1610376937525
 30
0.0
 11
-40.77844706030987
 21
128.1610376937525
 31
0.0
  0
LINE
  5
358
  8
0
  6
CONTINUOUS
 62
     3
 10
-50.77844706030987
 20
112.1610453231471
 30
0.0
 11
-40.77844706030987
 21
112.1610453231471
 31
0.0
  0
LINE
  5
359
  8
0
  6
CONTINUOUS
 62
     3
 10
-50.77844706030987
 20
128.1610376937525
 30
0.0
 11
-50.77844706030987
 21
112.1610453231471
 31
0.0
  0
LINE
  5
35A
  8
0
  6
CONTINUOUS
 62
     3
 10
-40.77844706030987
 20
128.1610376937525
 30
0.0
 11
-40.77844706030987
 21
112.1610453231471
 31
0.0
  0
LINE
  5
35B
  8
0
  6
CONTINUOUS
 62
     3
 10
-70.77844706030987
 20
125.1610453231471
 30
0.0
 11
-70.77844706030987
 21
115.1610453231471
 31
0.0
  0
LINE
  5
35C
  8
0
  6
CONTINUOUS
 62
     3
 10
-58.77844706030987
 20
115.1610453231471
 30
0.0
 11
-58.77844706030987
 21
94.31104684902596
 31
0.0
  0
LINE
  5
35D
  8
0
  6
CONTINUOUS
 62
     3
 10
-67.77844706030987
 20
81.16104532314705
 30
0.0
 11
-67.77844706030987
 21
78.66104532314705
 31
0.0
  0
LINE
  5
35E
  8
0
  6
CONTINUOUS
 62
     3
 10
-70.77844706030987
 20
95.16104532314705
 30
0.0
 11
-70.77844706030987
 21
85.16104532314705
 31
0.0
  0
LINE
  5
35F
  8
0
  6
CONTINUOUS
 62
     3
 10
-73.77844706030987
 20
129.1610376937525
 30
0.0
 11
-73.77844706030987
 21
81.16104532314705
 31
0.0
  0
LINE
  5
360
  8
0
  6
CONTINUOUS
 62
     3
 10
-50.77844706030987
 20
98.16104532314705
 30
0.0
 11
-50.77844706030987
 21
82.16104532314705
 31
0.0
  0
LINE
  5
361
  8
0
  6
CONTINUOUS
 62
     3
 10
-40.77844706030987
 20
98.16104532314705
 30
0.0
 11
-40.77844706030987
 21
82.16104532314705
 31
0.0
  0
LINE
  5
362
  8
0
  6
CONTINUOUS
 62
     3
 10
-58.77844706030987
 20
86.01104379726814
 30
0.0
 11
-58.77844706030987
 21
81.16104532314705
 31
0.0
  0
LINE
  5
363
  8
0
  6
CONTINUOUS
 62
     3
 10
-113.2784470603099
 20
140.1610376937525
 30
0.0
 11
-59.77844706030987
 21
140.1610376937525
 31
0.0
  0
LINE
  5
364
  8
0
  6
CONTINUOUS
 62
     3
 10
-61.77844706030987
 20
77.57568765713143
 30
0.0
 11
-61.77844706030987
 21
-72.83895467685295
 31
0.0
  0
LINE
  5
365
  8
0
  6
CONTINUOUS
 62
     3
 10
-141.5103348776927
 20
80.66104532314705
 30
0.0
 11
-141.5103348776927
 21
71.16104532314705
 31
0.0
  0
LINE
  5
366
  8
0
  6
CONTINUOUS
 62
     3
 10
-141.5103348776927
 20
-5.83895467685295
 30
0.0
 11
-141.5103348776927
 21
-15.33895467685295
 31
0.0
  0
LINE
  5
367
  8
0
  6
CONTINUOUS
 62
     3
 10
-141.5103211851399
 20
-15.33895040701816
 30
0.0
 11
-140.5103255183469
 21
-16.33894607381114
 31
0.0
  0
LINE
  5
368
  8
0
  6
CONTINUOUS
 62
     3
 10
-141.5103157903434
 20
80.66102742525402
 30
0.0
 11
-140.5103147287539
 21
81.66102848684352
 31
0.0
  0
LINE
  5
369
  8
0
  6
CONTINUOUS
 62
     3
 10
-167.7784470603099
 20
140.1610376937525
 30
0.0
 11
-167.7784470603099
 21
71.16104532314705
 31
0.0
  0
LINE
  5
36A
  8
0
  6
CONTINUOUS
 62
     3
 10
-166.7784470603099
 20
125.1610453231471
 30
0.0
 11
-166.7784470603099
 21
71.16104532314705
 31
0.0
  0
LINE
  5
36B
  8
0
  6
CONTINUOUS
 62
     3
 10
-167.7784470603099
 20
-5.838955392108687
 30
0.0
 11
-167.7784470603099
 21
-74.83895467685295
 31
0.0
  0
LINE
  5
36C
  8
0
  6
CONTINUOUS
 62
     3
 10
-166.7784470603099
 20
-5.838955392108687
 30
0.0
 11
-166.7784470603099
 21
-59.83895467685295
 31
0.0
  0
LINE
  5
36D
  8
0
  6
CONTINUOUS
 62
     3
 10
-167.7784470603099
 20
-59.83895467685295
 30
0.0
 11
-166.7784470603099
 21
-59.83895467685295
 31
0.0
  0
LINE
  5
36E
  8
0
  6
CONTINUOUS
 62
     3
 10
-167.7784470603099
 20
125.1610453231471
 30
0.0
 11
-166.7784470603099
 21
125.1610453231471
 31
0.0
  0
LINE
  5
36F
  8
0
  6
CONTINUOUS
 62
     3
 10
-166.7784571820494
 20
-20.51895658557584
 30
0.0
 11
-149.7784604192048
 21
-18.39396196839613
 31
0.0
  0
LINE
  5
370
  8
0
  6
CONTINUOUS
 62
     3
 10
-166.7784564466704
 20
85.84104977213895
 30
0.0
 11
-149.7784445428663
 21
83.71605326234374
 31
0.0
  0
LINE
  5
371
  8
0
  6
CONTINUOUS
 62
     3
 10
-149.7784470603099
 20
83.71605325771736
 30
0.0
 11
-149.7784470603099
 21
73.54117990566658
 31
0.0
  0
LINE
  5
372
  8
0
  6
CONTINUOUS
 62
     3
 10
-149.7784470603099
 20
-7.541484584079512
 30
0.0
 11
-149.7784470603099
 21
-18.39396070407463
 31
0.0
  0
LINE
  5
373
  8
0
  6
CONTINUOUS
 62
     3
 10
-153.5103348776927
 20
-3.588955392108687
 30
0.0
 11
-149.5103348776927
 21
-3.588955392108687
 31
0.0
  0
LINE
  5
374
  8
0
  6
CONTINUOUS
 62
     3
 10
-153.5103348776927
 20
68.91104532314705
 30
0.0
 11
-149.5103348776927
 21
68.91104532314705
 31
0.0
  0
LINE
  5
375
  8
0
  6
CONTINUOUS
 62
     3
 10
-149.5103348776927
 20
68.91104532314705
 30
0.0
 11
-149.5103348776927
 21
-3.588955392108687
 31
0.0
  0
LINE
  5
376
  8
0
  6
CONTINUOUS
 62
     3
 10
-153.5103348776927
 20
68.91104532314705
 30
0.0
 11
-153.5103348776927
 21
-3.588955392108687
 31
0.0
  0
LINE
  5
377
  8
0
  6
CONTINUOUS
 62
     3
 10
-169.5103348776927
 20
70.16104532314705
 30
0.0
 11
-169.5103348776927
 21
-4.838951577411422
 31
0.0
  0
LINE
  5
378
  8
0
  6
CONTINUOUS
 62
     3
 10
-119.5103348776927
 20
75.66104532314705
 30
0.0
 11
-119.5103348776927
 21
-10.33895563052727
 31
0.0
  0
LINE
  5
379
  8
0
  6
CONTINUOUS
 62
     3
 10
-126.5103501364818
 20
75.66104532314705
 30
0.0
 11
-119.5103348776927
 21
75.66104532314705
 31
0.0
  0
LINE
  5
37A
  8
0
  6
CONTINUOUS
 62
     3
 10
-126.5103196189036
 20
-10.33895563052727
 30
0.0
 11
-119.5103348776927
 21
-10.33895563052727
 31
0.0
  0
LINE
  5
37B
  8
0
  6
CONTINUOUS
 62
     3
 10
-149.5103348776927
 20
-0.3389556305272663
 30
0.0
 11
-119.5103348776927
 21
-0.3389556305272663
 31
0.0
  0
LINE
  5
37C
  8
0
  6
CONTINUOUS
 62
     3
 10
-149.5103348776927
 20
65.66104532314705
 30
0.0
 11
-119.5103348776927
 21
65.66104532314705
 31
0.0
  0
LINE
  5
37D
  8
0
  6
CONTINUOUS
 62
     3
 10
-169.5103348776927
 20
67.86104990078377
 30
0.0
 11
-153.5103348776927
 21
67.86104990078377
 31
0.0
  0
LINE
  5
37E
  8
0
  6
CONTINUOUS
 62
     3
 10
-169.5103348776927
 20
-2.538956393466719
 30
0.0
 11
-153.5103348776927
 21
-2.538956393466719
 31
0.0
  0
LINE
  5
37F
  8
0
  6
CONTINUOUS
 62
     3
 10
-168.5103043601146
 20
-5.838955392108687
 30
0.0
 11
-127.5103348776927
 21
-5.838955392108687
 31
0.0
  0
LINE
  5
380
  8
0
  6
CONTINUOUS
 62
     3
 10
-168.5103348776927
 20
71.16104532314705
 30
0.0
 11
-127.5103348776927
 21
71.16104532314705
 31
0.0
  0
LINE
  5
381
  8
0
  6
CONTINUOUS
 62
     3
 10
-127.5103348776927
 20
76.86104990078377
 30
0.0
 11
-127.5103348776927
 21
71.16104532314705
 31
0.0
  0
LINE
  5
382
  8
0
  6
CONTINUOUS
 62
     3
 10
-127.5103348776927
 20
-5.838955392108687
 30
0.0
 11
-127.5103348776927
 21
-11.5389554397924
 31
0.0
  0
LINE
  5
383
  8
0
  6
CONTINUOUS
 62
     3
 10
-168.5103134130184
 20
-5.838949278840914
 30
0.0
 11
-169.5103179306368
 21
-4.838940883687315
 31
0.0
  0
LINE
  5
384
  8
0
  6
CONTINUOUS
 62
     3
 10
-169.5103293304599
 20
70.16104325254685
 30
0.0
 11
-168.5103282688704
 21
71.16104431413635
 31
0.0
  0
LINE
  5
385
  8
0
  6
CONTINUOUS
 62
     3
 10
-127.5103346455686
 20
74.66105207579699
 30
0.0
 11
-126.5103362813774
 21
75.66105043998823
 31
0.0
  0
LINE
  5
386
  8
0
  6
CONTINUOUS
 62
     3
 10
-120.5103312605395
 20
75.6610490912891
 30
0.0
 11
-119.51033019895
 21
74.6610480296996
 31
0.0
  0
LINE
  5
387
  8
0
  6
CONTINUOUS
 62
     3
 10
-119.5103248041535
 20
-9.338960221870707
 30
0.0
 11
-120.510325865743
 21
-10.33896128346021
 31
0.0
  0
LINE
  5
388
  8
0
  6
CONTINUOUS
 62
     3
 10
-126.5103207088712
 20
-10.33894916696488
 30
0.0
 11
-127.5103198317036
 21
-9.338946166618257
 31
0.0
  0
LINE
  5
389
  8
0
  6
CONTINUOUS
 62
     3
 10
-139.0103348776927
 20
-0.3389556305272663
 30
0.0
 11
-139.0103348776927
 21
-3.138954867587813
 31
0.0
  0
LINE
  5
38A
  8
0
  6
CONTINUOUS
 62
     3
 10
-132.0103348776927
 20
-0.3389556305272663
 30
0.0
 11
-132.0103348776927
 21
-3.138954867587813
 31
0.0
  0
LINE
  5
38B
  8
0
  6
CONTINUOUS
 62
     3
 10
-139.0103348776927
 20
68.46104074551033
 30
0.0
 11
-139.0103348776927
 21
65.66104532314705
 31
0.0
  0
LINE
  5
38C
  8
0
  6
CONTINUOUS
 62
     3
 10
-132.0103348776927
 20
68.46104074551033
 30
0.0
 11
-132.0103348776927
 21
65.66104532314705
 31
0.0
  0
LINE
  5
38D
  8
0
  6
CONTINUOUS
 62
     3
 10
-139.0103348776927
 20
68.46104074551033
 30
0.0
 11
-132.0103348776927
 21
68.46104074551033
 31
0.0
  0
LINE
  5
38E
  8
0
  6
CONTINUOUS
 62
     3
 10
-139.0103348776927
 20
-3.138954867587813
 30
0.0
 11
-132.0103348776927
 21
-3.138954867587813
 31
0.0
  0
LINE
  5
38F
  8
0
  6
CONTINUOUS
 62
     2
 10
173.9063852329544
 20
82.73238264745289
 30
0.0
 11
178.9726421781504
 21
85.65738046889767
 31
0.0
  0
LINE
  5
390
  8
0
  6
CONTINUOUS
 62
     2
 10
178.9726462217195
 20
85.65739575548817
 30
0.0
 11
184.0388892372334
 21
82.73238919599892
 31
0.0
  0
LINE
  5
391
  8
0
  6
CONTINUOUS
 62
     2
 10
184.0388708074097
 20
82.73237375696665
 30
0.0
 11
184.0388708074097
 21
76.88236765345103
 31
0.0
  0
LINE
  5
392
  8
0
  6
CONTINUOUS
 62
     2
 10
184.0388808206385
 20
76.88237676792126
 30
0.0
 11
178.9726238754424
 21
73.95737894647648
 31
0.0
  0
LINE
  5
393
  8
0
  6
CONTINUOUS
 62
     2
 10
178.972613234524
 20
73.95738020164284
 30
0.0
 11
173.9063618683285
 21
76.88238743765108
 31
0.0
  0
LINE
  5
394
  8
0
  6
CONTINUOUS
 62
     2
 10
173.9063634831909
 20
76.88238291224009
 30
0.0
 11
173.9063634831909
 21
82.73238138636118
 31
0.0
  0
LINE
  5
395
  8
0
  6
CONTINUOUS
 62
     2
 10
191.1631440243043
 20
52.84278925724432
 30
0.0
 11
196.2294009695004
 21
55.7677870786891
 31
0.0
  0
LINE
  5
396
  8
0
  6
CONTINUOUS
 62
     2
 10
196.2293802142995
 20
55.76781144347736
 30
0.0
 11
201.2956298370573
 21
52.84280106928129
 31
0.0
  0
LINE
  5
397
  8
0
  6
CONTINUOUS
 62
     2
 10
201.2956304509644
 20
52.84279016932017
 30
0.0
 11
201.2956304509644
 21
46.99279169519907
 31
0.0
  0
LINE
  5
398
  8
0
  6
CONTINUOUS
 62
     2
 10
201.2956360357161
 20
46.9927895720128
 30
0.0
 11
196.2293790905201
 21
44.06779175056802
 31
0.0
  0
LINE
  5
399
  8
0
  6
CONTINUOUS
 62
     2
 10
196.2293907989515
 20
44.06777449274416
 30
0.0
 11
191.163139432756
 21
46.99278172875241
 31
0.0
  0
LINE
  5
39A
  8
0
  6
CONTINUOUS
 62
     2
 10
191.1631231267456
 20
46.99279932459361
 30
0.0
 11
191.1631231267456
 21
52.8427977987147
 31
0.0
  0
LINE
  5
39B
  8
0
  6
CONTINUOUS
 62
     2
 10
144.0167900277124
 20
-28.81706957624662
 30
0.0
 11
149.0830469729085
 21
-25.89207175480185
 31
0.0
  0
LINE
  5
39C
  8
0
  6
CONTINUOUS
 62
     2
 10
149.0830453799924
 20
-25.89206772001118
 30
0.0
 11
154.1492950027503
 21
-28.81707809420725
 31
0.0
  0
LINE
  5
39D
  8
0
  6
CONTINUOUS
 62
     2
 10
154.1492834050659
 20
-28.81708188573354
 30
0.0
 11
154.1492834050659
 21
-34.66708035985464
 31
0.0
  0
LINE
  5
39E
  8
0
  6
CONTINUOUS
 62
     2
 10
154.1492981831038
 20
-34.66708196492134
 30
0.0
 11
149.0830412379078
 21
-37.59207978636611
 31
0.0
  0
LINE
  5
39F
  8
0
  6
CONTINUOUS
 62
     2
 10
149.0830216751938
 20
-37.59206615174587
 30
0.0
 11
144.0167703089983
 21
-34.66705891573763
 31
0.0
  0
LINE
  5
3A0
  8
0
  6
CONTINUOUS
 62
     2
 10
144.0167913396363
 20
-34.66706891576284
 30
0.0
 11
144.0167913396363
 21
-28.81707044164175
 31
0.0
  0
LINE
  5
3A1
  8
0
  6
CONTINUOUS
 62
     2
 10
109.5032739251292
 20
-28.81707599235794
 30
0.0
 11
114.5695308703253
 21
-25.89207817091317
 31
0.0
  0
LINE
  5
3A2
  8
0
  6
CONTINUOUS
 62
     2
 10
114.5695339501765
 20
-25.8920749502053
 30
0.0
 11
119.6357835729343
 21
-28.81708532440136
 31
0.0
  0
LINE
  5
3A3
  8
0
  6
CONTINUOUS
 62
     2
 10
119.6357641179566
 20
-28.81708188573354
 30
0.0
 11
119.6357641179566
 21
-34.66708035985464
 31
0.0
  0
LINE
  5
3A4
  8
0
  6
CONTINUOUS
 62
     2
 10
119.6357612366328
 20
-34.66708279590664
 30
0.0
 11
114.5695108986902
 21
-37.59207680266097
 31
0.0
  0
LINE
  5
3A5
  8
0
  6
CONTINUOUS
 62
     2
 10
114.5695135243805
 20
-37.59207422605429
 30
0.0
 11
109.503262158185
 21
-34.66706699004605
 31
0.0
  0
LINE
  5
3A6
  8
0
  6
CONTINUOUS
 62
     2
 10
109.5032720525269
 20
-34.66706891576284
 30
0.0
 11
109.5032720525269
 21
-28.81707044164175
 31
0.0
  0
LINE
  5
3A7
  8
0
  6
CONTINUOUS
 62
     2
 10
62.35692242815605
 20
52.84279696376991
 30
0.0
 11
67.42317937335213
 21
55.76779478521469
 31
0.0
  0
LINE
  5
3A8
  8
0
  6
CONTINUOUS
 62
     2
 10
67.4231860633563
 20
55.76780255464912
 30
0.0
 11
72.48942742705924
 21
52.84279694883658
 31
0.0
  0
LINE
  5
3A9
  8
0
  6
CONTINUOUS
 62
     2
 10
72.48942470145266
 20
52.84279016932017
 30
0.0
 11
72.48942470145266
 21
46.99279169519907
 31
0.0
  0
LINE
  5
3AA
  8
0
  6
CONTINUOUS
 62
     2
 10
72.48941730058573
 20
46.9927923230983
 30
0.0
 11
67.42316696264311
 21
44.06779831634397
 31
0.0
  0
LINE
  5
3AB
  8
0
  6
CONTINUOUS
 62
     2
 10
67.42315960493579
 20
44.06778799746355
 30
0.0
 11
62.35691319417492
 21
46.99279237244475
 31
0.0
  0
LINE
  5
3AC
  8
0
  6
CONTINUOUS
 62
     2
 10
62.35691737723391
 20
46.99279932459361
 30
0.0
 11
62.35691737723391
 21
52.8427977987147
 31
0.0
  0
LINE
  5
3AD
  8
0
  6
CONTINUOUS
 62
     2
 10
79.61367766208082
 20
82.73238510928589
 30
0.0
 11
84.67993460727689
 21
85.65738293073066
 31
0.0
  0
LINE
  5
3AE
  8
0
  6
CONTINUOUS
 62
     2
 10
84.67994481958669
 20
85.65739607270048
 30
0.0
 11
89.74618783510061
 21
82.73238951321123
 31
0.0
  0
LINE
  5
3AF
  8
0
  6
CONTINUOUS
 62
     2
 10
89.74617671561282
 20
82.73237375696665
 30
0.0
 11
89.74617671561282
 21
76.88236765345103
 31
0.0
  0
LINE
  5
3B0
  8
0
  6
CONTINUOUS
 62
     2
 10
89.74618200278178
 20
76.88237932786463
 30
0.0
 11
84.67992505758571
 21
73.95738150641985
 31
0.0
  0
LINE
  5
3B1
  8
0
  6
CONTINUOUS
 62
     2
 10
84.67991420187536
 20
73.95737470363913
 30
0.0
 11
79.61366944292604
 21
76.88237812494465
 31
0.0
  0
LINE
  5
3B2
  8
0
  6
CONTINUOUS
 62
     2
 10
79.6136770207886
 20
76.88238291224009
 30
0.0
 11
79.6136770207886
 21
82.73238138636118
 31
0.0
  0
LINE
  5
3B3
  8
0
  6
CONTINUOUS
 62
     2
 10
131.8262954309337
 20
124.8610354529076
 30
0.0
 11
127.7559630133198
 21
122.5110336916017
 31
0.0
  0
LINE
  5
3B4
  8
0
  6
CONTINUOUS
 62
     2
 10
127.7559575994019
 20
122.5110373922206
 30
0.0
 11
127.7559575994019
 21
117.8110328145838
 31
0.0
  0
LINE
  5
3B5
  8
0
  6
CONTINUOUS
 62
     2
 10
127.7559451090383
 20
117.8110234577151
 30
0.0
 11
131.8262598298788
 21
115.4610216218942
 31
0.0
  0
LINE
  5
3B6
  8
0
  6
CONTINUOUS
 62
     2
 10
131.8262667049744
 20
115.4610464086107
 30
0.0
 11
135.8965991225882
 21
117.811048309988
 31
0.0
  0
LINE
  5
3B7
  8
0
  6
CONTINUOUS
 62
     2
 10
135.8965825994019
 20
117.8110251851893
 30
0.0
 11
135.8965825994019
 21
122.5110221334315
 31
0.0
  0
LINE
  5
3B8
  8
0
  6
CONTINUOUS
 62
     2
 10
135.8965680448591
 20
122.5109897918645
 30
0.0
 11
131.8262544445852
 21
124.8609938688185
 31
0.0
  0
LINE
  5
3B9
  8
0
  6
CONTINUOUS
 62
     2
 10
82.02956684539726
 20
8.611035699685388
 30
0.0
 11
77.95924103503688
 21
6.26103775306963
 31
0.0
  0
LINE
  5
3BA
  8
0
  6
CONTINUOUS
 62
     2
 10
77.95924281668704
 20
6.261038345894875
 30
0.0
 11
77.95924281668704
 21
1.561039013466896
 31
0.0
  0
LINE
  5
3BB
  8
0
  6
CONTINUOUS
 62
     2
 10
77.95923220359873
 20
1.561041224795943
 30
0.0
 11
82.02955353168545
 21
-0.7889644257276558
 31
0.0
  0
LINE
  5
3BC
  8
0
  6
CONTINUOUS
 62
     2
 10
82.02957361940617
 20
-0.7889834208009887
 30
0.0
 11
86.09989942976654
 21
1.561014665885821
 31
0.0
  0
LINE
  5
3BD
  8
0
  6
CONTINUOUS
 62
     2
 10
86.0998830754761
 20
1.561031384072365
 30
0.0
 11
86.0998830754761
 21
6.261030716500343
 31
0.0
  0
LINE
  5
3BE
  8
0
  6
CONTINUOUS
 62
     2
 10
86.09987683089912
 20
6.261025234727484
 30
0.0
 11
82.02956323062517
 21
8.611029311681548
 31
0.0
  0
LINE
  5
3BF
  8
0
  6
CONTINUOUS
 62
     2
 10
56.04905230916489
 20
-6.388965221524515
 30
0.0
 11
51.97872649880452
 21
-8.738963168140273
 31
0.0
  0
LINE
  5
3C0
  8
0
  6
CONTINUOUS
 62
     2
 10
51.97872829031985
 20
-8.738963799872337
 30
0.0
 11
51.97872829031985
 21
-13.43896480123037
 31
0.0
  0
LINE
  5
3C1
  8
0
  6
CONTINUOUS
 62
     2
 10
51.97872646715859
 20
-13.43896008314111
 30
0.0
 11
56.04904118799914
 21
-15.78896191896199
 31
0.0
  0
LINE
  5
3C2
  8
0
  6
CONTINUOUS
 62
     2
 10
56.04905717583324
 20
-15.78898193244747
 30
0.0
 11
60.11937968256689
 21
-13.43898575310588
 31
0.0
  0
LINE
  5
3C3
  8
0
  6
CONTINUOUS
 62
     2
 10
60.11936854910891
 20
-13.4389724306249
 30
0.0
 11
60.11936854910891
 21
-8.738971429266869
 31
0.0
  0
LINE
  5
3C4
  8
0
  6
CONTINUOUS
 62
     2
 10
60.11936793570885
 20
-8.738968193016873
 30
0.0
 11
56.0490543354349
 21
-6.388964116062809
 31
0.0
  0
LINE
  5
3C5
  8
0
  6
CONTINUOUS
 62
     2
 10
181.623018705465
 20
8.611047084031569
 30
0.0
 11
177.5526862878512
 21
6.261045322725593
 31
0.0
  0
LINE
  5
3C6
  8
0
  6
CONTINUOUS
 62
     2
 10
177.5526800115113
 20
6.26104216059214
 30
0.0
 11
177.5526800115113
 21
1.561042828164162
 31
0.0
  0
LINE
  5
3C7
  8
0
  6
CONTINUOUS
 62
     2
 10
177.5526672928827
 20
1.561041903215326
 30
0.0
 11
181.6229952282156
 21
-0.7889675620109955
 31
0.0
  0
LINE
  5
3C8
  8
0
  6
CONTINUOUS
 62
     2
 10
181.6230242394208
 20
-0.7889952653169274
 30
0.0
 11
185.6933566570347
 21
1.561006636060327
 31
0.0
  0
LINE
  5
3C9
  8
0
  6
CONTINUOUS
 62
     2
 10
185.6933050115113
 20
1.561035198769631
 30
0.0
 11
185.6933050115113
 21
6.261034531197609
 31
0.0
  0
LINE
  5
3CA
  8
0
  6
CONTINUOUS
 62
     2
 10
185.6933242641098
 20
6.261011671550321
 30
0.0
 11
181.6229974493472
 21
8.611023377917107
 31
0.0
  0
LINE
  5
3CB
  8
0
  6
CONTINUOUS
 62
     2
 10
207.6035186386011
 20
-6.388950966716195
 30
0.0
 11
203.5331862209873
 21
-8.73895272802217
 31
0.0
  0
LINE
  5
3CC
  8
0
  6
CONTINUOUS
 62
     2
 10
203.5331945378784
 20
-8.738956170477806
 30
0.0
 11
203.5331945378784
 21
-13.43895717183584
 31
0.0
  0
LINE
  5
3CD
  8
0
  6
CONTINUOUS
 62
     2
 10
203.533191228893
 20
-13.43897287363249
 30
0.0
 11
207.6035191642259
 21
-15.78898233885882
 31
0.0
  0
LINE
  5
3CE
  8
0
  6
CONTINUOUS
 62
     2
 10
207.6035419760369
 20
-15.78899184690833
 30
0.0
 11
211.6738743936508
 21
-13.43898994553108
 31
0.0
  0
LINE
  5
3CF
  8
0
  6
CONTINUOUS
 62
     2
 10
211.6738195378784
 20
-13.43896480123037
 30
0.0
 11
211.6738195378784
 21
-8.738963799872337
 31
0.0
  0
LINE
  5
3D0
  8
0
  6
CONTINUOUS
 62
     2
 10
211.6738375068198
 20
-8.738962508000597
 30
0.0
 11
207.6035106920572
 21
-6.388950801633811
 31
0.0
  0
LINE
  5
3D1
  8
0
  6
CONTINUOUS
 62
     2
 10
97.45170181569006
 20
65.95584554821637
 30
0.0
 11
100.0064756506024
 21
67.43084138483467
 31
0.0
  0
LINE
  5
3D2
  8
0
  6
CONTINUOUS
 62
     2
 10
100.0064711218554
 20
67.43082730285876
 30
0.0
 11
102.5612412642638
 21
65.95582513623374
 31
0.0
  0
LINE
  5
3D3
  8
0
  6
CONTINUOUS
 62
     2
 10
102.5612478215699
 20
65.95583109339243
 30
0.0
 11
102.5612478215699
 21
63.00583414515025
 31
0.0
  0
LINE
  5
3D4
  8
0
  6
CONTINUOUS
 62
     2
 10
102.5612372217592
 20
63.00583587666149
 30
0.0
 11
100.0064633868469
 21
61.53084012795996
 31
0.0
  0
LINE
  5
3D5
  8
0
  6
CONTINUOUS
 62
     2
 10
100.0064621117081
 20
61.53084156372604
 30
0.0
 11
97.45169109013204
 21
63.0058423236829
 31
0.0
  0
LINE
  5
3D6
  8
0
  6
CONTINUOUS
 62
     2
 10
97.4516897161011
 20
63.00584177454478
 30
0.0
 11
97.4516897161011
 21
65.95583872278696
 31
0.0
  0
LINE
  5
3D7
  8
0
  6
CONTINUOUS
 62
     2
 10
85.80485345389093
 20
45.78289867865608
 30
0.0
 11
88.35962728880327
 21
47.25789451527437
 31
0.0
  0
LINE
  5
3D8
  8
0
  6
CONTINUOUS
 62
     2
 10
88.35962060076213
 20
47.25788168209563
 30
0.0
 11
90.91439074317054
 21
45.78287951547061
 31
0.0
  0
LINE
  5
3D9
  8
0
  6
CONTINUOUS
 62
     2
 10
90.91439723563235
 20
45.78289179285532
 30
0.0
 11
90.91439723563235
 21
42.83289102991587
 31
0.0
  0
LINE
  5
3DA
  8
0
  6
CONTINUOUS
 62
     2
 10
90.9143811009413
 20
42.83288718732861
 30
0.0
 11
88.35960726602896
 21
41.35789143862708
 31
0.0
  0
LINE
  5
3DB
  8
0
  6
CONTINUOUS
 62
     2
 10
88.3596160906859
 20
41.35789281561809
 30
0.0
 11
85.80484506910989
 21
42.83289357557494
 31
0.0
  0
LINE
  5
3DC
  8
0
  6
CONTINUOUS
 62
     2
 10
85.8048391301636
 20
42.83289484461314
 30
0.0
 11
85.8048391301636
 21
45.78289560755259
 31
0.0
  0
LINE
  5
3DD
  8
0
  6
CONTINUOUS
 62
     2
 10
117.624656466282
 20
-9.330626455742433
 30
0.0
 11
120.1794303011943
 21
-7.855630619124142
 31
0.0
  0
LINE
  5
3DE
  8
0
  6
CONTINUOUS
 62
     2
 10
120.1794160899578
 20
-7.855627015847787
 30
0.0
 11
122.7341862323663
 21
-9.330629182472805
 31
0.0
  0
LINE
  5
3DF
  8
0
  6
CONTINUOUS
 62
     2
 10
122.7341909368042
 20
-9.330629067816673
 30
0.0
 11
122.7341909368042
 21
-12.28062816182607
 31
0.0
  0
LINE
  5
3E0
  8
0
  6
CONTINUOUS
 62
     2
 10
122.7341782530225
 20
-12.28063108172243
 30
0.0
 11
120.1794044181102
 21
-13.75562683042396
 31
0.0
  0
LINE
  5
3E1
  8
0
  6
CONTINUOUS
 62
     2
 10
120.1794194044151
 20
-13.7556250030563
 30
0.0
 11
117.624648382839
 21
-12.28062424309944
 31
0.0
  0
LINE
  5
3E2
  8
0
  6
CONTINUOUS
 62
     2
 10
117.6246480901245
 20
-12.28062434712881
 30
0.0
 11
117.6246480901245
 21
-9.330623345770775
 31
0.0
  0
LINE
  5
3E3
  8
0
  6
CONTINUOUS
 62
     2
 10
140.918375253475
 20
-9.330622823890437
 30
0.0
 11
143.4731490883873
 21
-7.855626987272146
 31
0.0
  0
LINE
  5
3E4
  8
0
  6
CONTINUOUS
 62
     2
 10
143.4731263774711
 20
-7.855626491884479
 30
0.0
 11
146.0278965198795
 21
-9.330628658509497
 31
0.0
  0
LINE
  5
3E5
  8
0
  6
CONTINUOUS
 62
     2
 10
146.0278997380738
 20
-9.330629067816673
 30
0.0
 11
146.0278997380738
 21
-12.28062816182607
 31
0.0
  0
LINE
  5
3E6
  8
0
  6
CONTINUOUS
 62
     2
 10
146.0279071150565
 20
-12.28063084363491
 30
0.0
 11
143.4731332801441
 21
-13.75562659233644
 31
0.0
  0
LINE
  5
3E7
  8
0
  6
CONTINUOUS
 62
     2
 10
143.4731376426994
 20
-13.75562892912483
 30
0.0
 11
140.9183666211234
 21
-12.28062816916797
 31
0.0
  0
LINE
  5
3E8
  8
0
  6
CONTINUOUS
 62
     2
 10
140.9183568913941
 20
-12.28062434712881
 30
0.0
 11
140.9183568913941
 21
-9.330623345770775
 31
0.0
  0
LINE
  5
3E9
  8
0
  6
CONTINUOUS
 62
     2
 10
161.0912994714448
 20
65.95584493327154
 30
0.0
 11
163.6460865208641
 21
67.43084839927072
 31
0.0
  0
LINE
  5
3EA
  8
0
  6
CONTINUOUS
 62
     2
 10
163.6460806415289
 20
67.43083656106394
 30
0.0
 11
166.2008507839373
 21
65.95583439443892
 31
0.0
  0
LINE
  5
3EB
  8
0
  6
CONTINUOUS
 62
     2
 10
166.2008581120972
 20
65.95583872278696
 30
0.0
 11
166.2008581120972
 21
63.00584177454478
 31
0.0
  0
LINE
  5
3EC
  8
0
  6
CONTINUOUS
 62
     2
 10
166.2008698264967
 20
63.00584773721614
 30
0.0
 11
163.6460827770774
 21
61.53084435913418
 31
0.0
  0
LINE
  5
3ED
  8
0
  6
CONTINUOUS
 62
     2
 10
163.6460746539506
 20
61.53085913400294
 30
0.0
 11
161.0913036323746
 21
63.00585989395979
 31
0.0
  0
LINE
  5
3EE
  8
0
  6
CONTINUOUS
 62
     2
 10
161.0913000066284
 20
63.00584177454478
 30
0.0
 11
161.0913000066284
 21
65.9558463521815
 31
0.0
  0
LINE
  5
3EF
  8
0
  6
CONTINUOUS
 62
     2
 10
172.7381642432579
 20
45.78289622905943
 30
0.0
 11
175.2929512926771
 21
47.25789969505861
 31
0.0
  0
LINE
  5
3F0
  8
0
  6
CONTINUOUS
 62
     2
 10
175.2929280786448
 20
47.25788536810508
 30
0.0
 11
177.8476982210532
 21
45.78288320148006
 31
0.0
  0
LINE
  5
3F1
  8
0
  6
CONTINUOUS
 62
     2
 10
177.8477086980347
 20
45.78289179285532
 30
0.0
 11
177.8477086980347
 21
42.83289102991587
 31
0.0
  0
LINE
  5
3F2
  8
0
  6
CONTINUOUS
 62
     2
 10
177.8477187822508
 20
42.83289470724942
 30
0.0
 11
175.2929317328316
 21
41.35789132916746
 31
0.0
  0
LINE
  5
3F3
  8
0
  6
CONTINUOUS
 62
     2
 10
175.2929392418064
 20
41.3578932453341
 30
0.0
 11
172.7381682202304
 21
42.83289400529095
 31
0.0
  0
LINE
  5
3F4
  8
0
  6
CONTINUOUS
 62
     2
 10
172.7381505925659
 20
42.83289484461314
 30
0.0
 11
172.7381505925659
 21
45.78289560755259
 31
0.0
  0
LINE
  5
3F5
  8
0
  6
CONTINUOUS
 62
     2
 10
131.8262959496894
 20
94.86104080670368
 30
0.0
 11
127.7559635320756
 21
92.51103904539771
 31
0.0
  0
LINE
  5
3F6
  8
0
  6
CONTINUOUS
 62
     2
 10
127.7559575994019
 20
92.51102976282603
 30
0.0
 11
127.7559575994019
 21
87.81103281458384
 31
0.0
  0
LINE
  5
3F7
  8
0
  6
CONTINUOUS
 62
     2
 10
127.7559426016778
 20
87.81103254261036
 30
0.0
 11
131.8262573225184
 21
85.46103070678949
 31
0.0
  0
LINE
  5
3F8
  8
0
  6
CONTINUOUS
 62
     2
 10
131.8262859808875
 20
85.46105068568689
 30
0.0
 11
135.8966183985014
 21
87.81105258706414
 31
0.0
  0
LINE
  5
3F9
  8
0
  6
CONTINUOUS
 62
     2
 10
135.8965825994019
 20
87.81102518518931
 30
0.0
 11
135.8965825994019
 21
92.5110221334315
 31
0.0
  0
LINE
  5
3FA
  8
0
  6
CONTINUOUS
 62
     2
 10
135.8965627871212
 20
92.51099028907431
 30
0.0
 11
131.8262557940916
 21
94.86099055132202
 31
0.0
  0
CIRCLE
  5
3FB
  8
0
  6
CONTINUOUS
 62
     2
 10
178.9726171453003
 20
79.80737833460337
 30
0.0
 40
9.0
  0
CIRCLE
  5
3FC
  8
0
  6
CONTINUOUS
 62
     2
 10
196.229376788855
 20
49.91779474695689
 30
0.0
 40
9.0
  0
CIRCLE
  5
3FD
  8
0
  6
CONTINUOUS
 62
     2
 10
149.0830297429566
 20
-31.74207349339956
 30
0.0
 40
9.0
  0
CIRCLE
  5
3FE
  8
0
  6
CONTINUOUS
 62
     2
 10
114.5695180852417
 20
-31.74207349339956
 30
0.0
 40
9.0
  0
CIRCLE
  5
3FF
  8
0
  6
CONTINUOUS
 62
     2
 10
67.42316722464602
 20
49.91779474695689
 30
0.0
 40
9.0
  0
CIRCLE
  5
400
  8
0
  6
CONTINUOUS
 62
     2
 10
84.67993068289798
 20
79.80737833460337
 30
0.0
 40
9.0
  0
CIRCLE
  5
401
  8
0
  6
CONTINUOUS
 62
     2
 10
131.8262777287964
 20
120.1610312887049
 30
0.0
 40
8.0
  0
CIRCLE
  5
402
  8
0
  6
CONTINUOUS
 62
     2
 10
82.02956294608157
 20
3.911036057076515
 30
0.0
 40
8.0
  0
CIRCLE
  5
403
  8
0
  6
CONTINUOUS
 62
     2
 10
56.04904841971438
 20
-11.08896632710928
 30
0.0
 40
8.0
  0
CIRCLE
  5
404
  8
0
  6
CONTINUOUS
 62
     2
 10
181.6229925115113
 20
3.911039871773781
 30
0.0
 40
8.0
  0
CIRCLE
  5
405
  8
0
  6
CONTINUOUS
 62
     2
 10
207.6035070378784
 20
-11.08895869771475
 30
0.0
 40
8.0
  0
CIRCLE
  5
406
  8
0
  6
CONTINUOUS
 62
     2
 10
100.0064687688355
 20
64.48084024866587
 30
0.0
 40
5.0
  0
CIRCLE
  5
407
  8
0
  6
CONTINUOUS
 62
     2
 10
88.35961818289798
 20
44.30789331873423
 30
0.0
 40
5.0
  0
CIRCLE
  5
408
  8
0
  6
CONTINUOUS
 62
     2
 10
120.1794195134644
 20
-10.80562587300771
 30
0.0
 40
5.0
  0
CIRCLE
  5
409
  8
0
  6
CONTINUOUS
 62
     2
 10
143.4731206853394
 20
-10.80562587300771
 30
0.0
 40
5.0
  0
CIRCLE
  5
40A
  8
0
  6
CONTINUOUS
 62
     2
 10
163.6460790593628
 20
64.48084024866587
 30
0.0
 40
5.0
  0
CIRCLE
  5
40B
  8
0
  6
CONTINUOUS
 62
     2
 10
175.2929296453003
 20
44.30789331873423
 30
0.0
 40
5.0
  0
CIRCLE
  5
40C
  8
0
  6
CONTINUOUS
 62
     2
 10
131.8262777287964
 20
90.16103128870493
 30
0.0
 40
8.0
  0
LINE
  5
40D
  8
0
  6
CONTINUOUS
 62
     4
 10
115.6782827336792
 20
138.661031288705
 30
0.0
 11
123.3449468572144
 21
138.661031288705
 31
0.0
  0
LINE
  5
40E
  8
0
  6
CONTINUOUS
 62
     4
 10
140.3449468572144
 20
138.661031288705
 30
0.0
 11
148.011603351355
 21
138.661031288705
 31
0.0
  0
LINE
  5
40F
  8
0
  6
CONTINUOUS
 62
     4
 10
140.3449468572144
 20
137.161031288705
 30
0.0
 11
148.011603351355
 21
137.161031288705
 31
0.0
  0
LINE
  5
410
  8
0
  6
CONTINUOUS
 62
     4
 10
140.3449468572144
 20
135.661031288705
 30
0.0
 11
148.011603351355
 21
135.661031288705
 31
0.0
  0
LINE
  5
411
  8
0
  6
CONTINUOUS
 62
     4
 10
140.3449468572144
 20
134.161031288705
 30
0.0
 11
148.011603351355
 21
134.161031288705
 31
0.0
  0
LINE
  5
412
  8
0
  6
CONTINUOUS
 62
     4
 10
140.3449468572144
 20
132.661031288705
 30
0.0
 11
148.011603351355
 21
132.661031288705
 31
0.0
  0
LINE
  5
413
  8
0
  6
CONTINUOUS
 62
     4
 10
140.3449468572144
 20
131.161031288705
 30
0.0
 11
148.011603351355
 21
131.161031288705
 31
0.0
  0
LINE
  5
414
  8
0
  6
CONTINUOUS
 62
     4
 10
140.3449468572144
 20
129.661031288705
 30
0.0
 11
148.011603351355
 21
129.661031288705
 31
0.0
  0
LINE
  5
415
  8
0
  6
CONTINUOUS
 62
     4
 10
115.6782827336792
 20
137.161031288705
 30
0.0
 11
123.3449468572144
 21
137.161031288705
 31
0.0
  0
LINE
  5
416
  8
0
  6
CONTINUOUS
 62
     4
 10
115.6782827336792
 20
135.661031288705
 30
0.0
 11
123.3449468572144
 21
135.661031288705
 31
0.0
  0
LINE
  5
417
  8
0
  6
CONTINUOUS
 62
     4
 10
115.6782827336792
 20
134.161031288705
 30
0.0
 11
123.3449468572144
 21
134.161031288705
 31
0.0
  0
LINE
  5
418
  8
0
  6
CONTINUOUS
 62
     4
 10
115.6782827336792
 20
132.661031288705
 30
0.0
 11
123.3449468572144
 21
132.661031288705
 31
0.0
  0
LINE
  5
419
  8
0
  6
CONTINUOUS
 62
     4
 10
115.6782827336792
 20
131.161031288705
 30
0.0
 11
123.3449468572144
 21
131.161031288705
 31
0.0
  0
LINE
  5
41A
  8
0
  6
CONTINUOUS
 62
     4
 10
115.6782827336792
 20
129.661031288705
 30
0.0
 11
123.3449468572144
 21
129.661031288705
 31
0.0
  0
LINE
  5
41B
  8
0
  6
CONTINUOUS
 62
     4
 10
115.6782827336792
 20
87.66103128870493
 30
0.0
 11
123.3449468572144
 21
87.66103128870493
 31
0.0
  0
LINE
  5
41C
  8
0
  6
CONTINUOUS
 62
     4
 10
115.6782827336792
 20
86.16103128870493
 30
0.0
 11
123.3449468572144
 21
86.16103128870493
 31
0.0
  0
LINE
  5
41D
  8
0
  6
CONTINUOUS
 62
     4
 10
140.3449468572144
 20
87.66103128870493
 30
0.0
 11
148.011603351355
 21
87.66103128870493
 31
0.0
  0
LINE
  5
41E
  8
0
  6
CONTINUOUS
 62
     4
 10
140.3449468572144
 20
86.16103128870493
 30
0.0
 11
148.011603351355
 21
86.16103128870493
 31
0.0
  0
LINE
  5
41F
  8
0
  6
CONTINUOUS
 62
     4
 10
140.3449468572144
 20
84.66103128870493
 30
0.0
 11
148.011603351355
 21
84.66103128870493
 31
0.0
  0
LINE
  5
420
  8
0
  6
CONTINUOUS
 62
     4
 10
140.3449468572144
 20
83.16103128870493
 30
0.0
 11
148.011603351355
 21
83.16103128870493
 31
0.0
  0
LINE
  5
421
  8
0
  6
CONTINUOUS
 62
     4
 10
140.3449468572144
 20
81.66103128870493
 30
0.0
 11
148.011603351355
 21
81.66103128870493
 31
0.0
  0
LINE
  5
422
  8
0
  6
CONTINUOUS
 62
     4
 10
115.6782827336792
 20
84.66103128870493
 30
0.0
 11
123.3449468572144
 21
84.66103128870493
 31
0.0
  0
LINE
  5
423
  8
0
  6
CONTINUOUS
 62
     4
 10
115.6782827336792
 20
83.16103128870493
 30
0.0
 11
123.3449468572144
 21
83.16103128870493
 31
0.0
  0
LINE
  5
424
  8
0
  6
CONTINUOUS
 62
     4
 10
115.6782827336792
 20
81.66103128870493
 30
0.0
 11
123.3449468572144
 21
81.66103128870493
 31
0.0
  0
LINE
  5
425
  8
0
  6
CONTINUOUS
 62
     4
 10
115.6782827336792
 20
80.16103128870493
 30
0.0
 11
123.3449468572144
 21
80.16103128870493
 31
0.0
  0
LINE
  5
426
  8
0
  6
CONTINUOUS
 62
     4
 10
140.3449468572144
 20
80.16103128870493
 30
0.0
 11
148.011603351355
 21
80.16103128870493
 31
0.0
  0
CIRCLE
  5
427
  8
0
  6
CONTINUOUS
 62
     4
 10
131.8262777287964
 20
-12.33896632710928
 30
0.0
 40
2.5
  0
CIRCLE
  5
428
  8
0
  6
CONTINUOUS
 62
     4
 10
170.7974157292847
 20
55.1610351034022
 30
0.0
 40
2.5
  0
CIRCLE
  5
429
  8
0
  6
CONTINUOUS
 62
     4
 10
92.8551320989136
 20
55.1610351034022
 30
0.0
 40
2.5
  0
ARC
  5
42A
  8
0
  6
CONTINUOUS
 62
     4
 10
131.8262777287964
 20
32.6610351034022
 30
0.0
 40
75.5
 50
20.95717871337685
 51
39.04281954118068
  0
ARC
  5
42B
  8
0
  6
CONTINUOUS
 62
     4
 10
131.8262777287964
 20
32.6610351034022
 30
0.0
 40
69.5
 50
24.39327613008101
 51
35.60672212447652
  0
ARC
  5
42C
  8
0
  6
CONTINUOUS
 62
     4
 10
131.8262777287964
 20
32.6610351034022
 30
0.0
 40
63.5
 50
24.74448616475036
 51
35.25551379735446
  0
ARC
  5
42D
  8
0
  6
CONTINUOUS
 62
     4
 10
131.8262777287964
 20
32.6610351034022
 30
0.0
 40
57.5
 50
21.41901219939101
 51
38.5809894702611
  0
ARC
  5
42E
  8
0
  6
CONTINUOUS
 62
     4
 10
131.8262777287964
 20
32.6610351034022
 30
0.0
 40
75.5
 50
104.6539479724979
 51
129.0428322909426
  0
ARC
  5
42F
  8
0
  6
CONTINUOUS
 62
     4
 10
131.8262777287964
 20
32.6610351034022
 30
0.0
 40
69.5
 50
105.9513150845852
 51
125.6067417044276
  0
ARC
  5
430
  8
0
  6
CONTINUOUS
 62
     4
 10
131.8262777287964
 20
32.6610351034022
 30
0.0
 40
63.5
 50
107.5049167433854
 51
125.2555333773056
  0
ARC
  5
431
  8
0
  6
CONTINUOUS
 62
     4
 10
131.8262777287964
 20
32.6610351034022
 30
0.0
 40
57.5
 50
109.4007928418734
 51
128.581002220023
  0
ARC
  5
432
  8
0
  6
CONTINUOUS
 62
     4
 10
131.8262777287964
 20
32.6610351034022
 30
0.0
 40
75.5
 50
50.80870831111974
 51
75.34606386664758
  0
ARC
  5
433
  8
0
  6
CONTINUOUS
 62
     4
 10
131.8262777287964
 20
32.6610351034022
 30
0.0
 40
69.5
 50
54.39328379509623
 51
74.04869675456035
  0
ARC
  5
434
  8
0
  6
CONTINUOUS
 62
     4
 10
131.8262777287964
 20
32.6610351034022
 30
0.0
 40
63.5
 50
54.74448187693454
 51
72.49509509576008
  0
ARC
  5
435
  8
0
  6
CONTINUOUS
 62
     4
 10
131.8262777287964
 20
32.6610351034022
 30
0.0
 40
57.5
 50
51.41900961912248
 51
70.59921899727213
  0
ARC
  5
436
  8
0
  6
CONTINUOUS
 62
     4
 10
131.8262777287964
 20
32.6610351034022
 30
0.0
 40
75.5
 50
344.6539378030045
 51
369.04281529126
  0
ARC
  5
437
  8
0
  6
CONTINUOUS
 62
     4
 10
131.8262777287964
 20
32.6610351034022
 30
0.0
 40
69.5
 50
345.9513023537708
 51
365.6067110443667
  0
ARC
  5
438
  8
0
  6
CONTINUOUS
 62
     4
 10
131.8262777287964
 20
32.6610351034022
 30
0.0
 40
63.5
 50
347.5049099889866
 51
365.2555027172447
  0
ARC
  5
439
  8
0
  6
CONTINUOUS
 62
     4
 10
131.8262777287964
 20
32.6610351034022
 30
0.0
 40
57.5
 50
349.4007860874746
 51
368.5809852203404
  0
ARC
  5
43A
  8
0
  6
CONTINUOUS
 62
     4
 10
131.8262777287964
 20
32.6610351034022
 30
0.0
 40
57.5
 50
229.4007588425083
 51
248.5809682206579
  0
ARC
  5
43B
  8
0
  6
CONTINUOUS
 62
     4
 10
131.8262777287964
 20
32.6610351034022
 30
0.0
 40
63.5
 50
227.5048895742095
 51
245.2554993779404
  0
ARC
  5
43C
  8
0
  6
CONTINUOUS
 62
     4
 10
131.8262777287964
 20
32.6610351034022
 30
0.0
 40
69.5
 50
225.95128108522
 51
245.6067008748733
  0
ARC
  5
43D
  8
0
  6
CONTINUOUS
 62
     4
 10
131.8262777287964
 20
32.6610351034022
 30
0.0
 40
75.5
 50
224.6539139731328
 51
249.0428051217666
  0
ARC
  5
43E
  8
0
  6
CONTINUOUS
 62
     4
 10
131.8262777287964
 20
32.6610351034022
 30
0.0
 40
57.5
 50
261.4189986148031
 51
278.5809758856731
  0
ARC
  5
43F
  8
0
  6
CONTINUOUS
 62
     4
 10
131.8262777287964
 20
32.6610351034022
 30
0.0
 40
63.5
 50
264.7444674575205
 51
275.2555138731448
  0
ARC
  5
440
  8
0
  6
CONTINUOUS
 62
     4
 10
131.8262777287964
 20
32.6610351034022
 30
0.0
 40
69.5
 50
264.3932591303985
 51
275.6067222002669
  0
ARC
  5
441
  8
0
  6
CONTINUOUS
 62
     4
 10
131.8262777287964
 20
32.6610351034022
 30
0.0
 40
75.5
 50
260.9571617136943
 51
279.042819616971
  0
ARC
  5
442
  8
0
  6
CONTINUOUS
 62
     4
 10
131.8262777287964
 20
32.6610351034022
 30
0.0
 40
75.5
 50
290.9571762088987
 51
315.3460741877217
  0
ARC
  5
443
  8
0
  6
CONTINUOUS
 62
     4
 10
131.8262777287964
 20
32.6610351034022
 30
0.0
 40
69.5
 50
294.3932872859812
 51
314.048710490729
  0
ARC
  5
444
  8
0
  6
CONTINUOUS
 62
     4
 10
131.8262777287964
 20
32.6610351034022
 30
0.0
 40
63.5
 50
294.7444887829141
 51
312.4951054168342
  0
ARC
  5
445
  8
0
  6
CONTINUOUS
 62
     4
 10
131.8262777287964
 20
32.6610351034022
 30
0.0
 40
57.5
 50
291.4190199401966
 51
310.5992259032516
  0
ARC
  5
446
  8
0
  6
CONTINUOUS
 62
     4
 10
131.8262777287964
 20
32.6610351034022
 30
0.0
 40
75.5
 50
170.9572033780746
 51
195.3460330550059
  0
ARC
  5
447
  8
0
  6
CONTINUOUS
 62
     4
 10
131.8262777287964
 20
32.6610351034022
 30
0.0
 40
69.5
 50
174.3932939645896
 51
194.0486659429187
  0
ARC
  5
448
  8
0
  6
CONTINUOUS
 62
     4
 10
131.8262777287964
 20
32.6610351034022
 30
0.0
 40
63.5
 50
174.7445022917117
 51
192.4950574539293
  0
ARC
  5
449
  8
0
  6
CONTINUOUS
 62
     4
 10
131.8262777287964
 20
32.6610351034022
 30
0.0
 40
57.5
 50
171.4190334489942
 51
190.5991881856305
  0
ARC
  5
44A
  8
0
  6
CONTINUOUS
 62
     4
 10
131.8262777287964
 20
32.6610351034022
 30
0.0
 40
57.5
 50
141.4190394443573
 51
158.5809962246599
  0
ARC
  5
44B
  8
0
  6
CONTINUOUS
 62
     4
 10
131.8262777287964
 20
32.6610351034022
 30
0.0
 40
63.5
 50
144.7445082870748
 51
155.2555410423208
  0
ARC
  5
44C
  8
0
  6
CONTINUOUS
 62
     4
 10
131.8262777287964
 20
32.6610351034022
 30
0.0
 40
69.5
 50
144.3932999599527
 51
155.6067357090645
  0
ARC
  5
44D
  8
0
  6
CONTINUOUS
 62
     4
 10
131.8262777287964
 20
32.6610351034022
 30
0.0
 40
75.5
 50
140.9571957130594
 51
159.0428399559578
  0
LINE
  5
44E
  8
0
  6
CONTINUOUS
 62
     4
 10
-59.77844706030987
 20
140.1610376937525
 30
0.0
 11
-59.77844706030987
 21
129.1610376937525
 31
0.0
  0
LINE
  5
44F
  8
0
  6
CONTINUOUS
 62
     4
 10
-60.77844706030987
 20
140.1610376937525
 30
0.0
 11
-60.77844706030987
 21
129.1610376937525
 31
0.0
  0
LINE
  5
450
  8
0
  6
CONTINUOUS
 62
     4
 10
-141.5103348776927
 20
-11.5389554397924
 30
0.0
 11
-139.5103348776927
 21
-11.5389554397924
 31
0.0
  0
LINE
  5
451
  8
0
  6
CONTINUOUS
 62
     4
 10
-141.5103348776927
 20
76.86104990078377
 30
0.0
 11
-127.5103348776927
 21
76.86104990078377
 31
0.0
  0
LINE
  5
452
  8
0
  6
CONTINUOUS
 62
     4
 10
-139.1603287741771
 20
-5.83895467685295
 30
0.0
 11
-139.1603287741771
 21
-16.33895467685295
 31
0.0
  0
LINE
  5
453
  8
0
  6
CONTINUOUS
 62
     4
 10
-135.8603409812083
 20
-5.83895467685295
 30
0.0
 11
-135.8603409812083
 21
-16.33895467685295
 31
0.0
  0
LINE
  5
454
  8
0
  6
CONTINUOUS
 62
     4
 10
-139.5103348776927
 20
-5.83895467685295
 30
0.0
 11
-139.5103348776927
 21
-16.33895467685295
 31
0.0
  0
LINE
  5
455
  8
0
  6
CONTINUOUS
 62
     4
 10
-135.5103348776927
 20
-5.83895467685295
 30
0.0
 11
-135.5103348776927
 21
-16.33895467685295
 31
0.0
  0
LINE
  5
456
  8
0
  6
CONTINUOUS
 62
     4
 10
-135.5103348776927
 20
-11.5389554397924
 30
0.0
 11
-127.5103348776927
 21
-11.5389554397924
 31
0.0
  0
LINE
  5
457
  8
0
  6
CONTINUOUS
 62
     4
 10
-139.5103348776927
 20
-8.33895467685295
 30
0.0
 11
-135.5103348776927
 21
-8.33895467685295
 31
0.0
  0
LINE
  5
458
  8
0
  6
CONTINUOUS
 62
     4
 10
-73.77844706030987
 20
94.31104684902596
 30
0.0
 11
-50.77844706030987
 21
94.31104684902596
 31
0.0
  0
LINE
  5
459
  8
0
  6
CONTINUOUS
 62
     4
 10
-73.77844706030987
 20
86.01104379726814
 30
0.0
 11
-50.77844706030987
 21
86.01104379726814
 31
0.0
  0
LINE
  5
45A
  8
0
  6
CONTINUOUS
 62
     4
 10
-73.77844706030987
 20
116.0110437972681
 30
0.0
 11
-50.77844706030987
 21
116.0110437972681
 31
0.0
  0
LINE
  5
45B
  8
0
  6
CONTINUOUS
 62
     4
 10
-73.77844706030987
 20
124.311046849026
 30
0.0
 11
-50.77844706030987
 21
124.311046849026
 31
0.0
  0
LINE
  5
45C
  8
0
  6
CONTINUOUS
 62
     4
 10
-59.77844706030987
 20
81.16104532314705
 30
0.0
 11
-59.77844706030987
 21
78.66104532314705
 31
0.0
  0
LINE
  5
45D
  8
0
  6
CONTINUOUS
 62
     4
 10
-60.77844706030987
 20
81.16104532314705
 30
0.0
 11
-60.77844706030987
 21
78.66104532314705
 31
0.0
  0
LINE
  5
45E
  8
0
  6
CONTINUOUS
 62
     4
 10
-49.77844989925393
 20
116.8516488497446
 30
0.0
 11
-45.77844728981904
 21
119.1610511779138
 31
0.0
  0
LINE
  5
45F
  8
0
  6
CONTINUOUS
 62
     4
 10
-45.77844825672355
 20
119.1610559578802
 30
0.0
 11
-41.77845225453848
 21
116.851657444408
 31
0.0
  0
LINE
  5
460
  8
0
  6
CONTINUOUS
 62
     4
 10
-48.77844802801474
 20
119.1610556420329
 30
0.0
 11
-41.7784500687535
 21
115.1196053824339
 31
0.0
  0
LINE
  5
461
  8
0
  6
CONTINUOUS
 62
     4
 10
-49.77845030928552
 20
118.0063475548512
 30
0.0
 11
-41.77845169766556
 21
113.3875467132099
 31
0.0
  0
LINE
  5
462
  8
0
  6
CONTINUOUS
 62
     4
 10
-49.7784443088035
 20
116.2743021001269
 30
0.0
 11
-44.38613558920179
 21
113.1610515532692
 31
0.0
  0
LINE
  5
463
  8
0
  6
CONTINUOUS
 62
     4
 10
-49.77845152282112
 20
114.5422642747966
 30
0.0
 11
-47.38613815304575
 21
113.1610616593688
 31
0.0
  0
LINE
  5
464
  8
0
  6
CONTINUOUS
 62
     4
 10
-49.77845094429858
 20
115.119606256043
 30
0.0
 11
-42.77844802959999
 21
119.1610593766649
 31
0.0
  0
LINE
  5
465
  8
0
  6
CONTINUOUS
 62
     4
 10
-49.77845096719898
 20
113.3875466331448
 30
0.0
 11
-41.77844905195411
 21
118.0063493821347
 31
0.0
  0
LINE
  5
466
  8
0
  6
CONTINUOUS
 62
     4
 10
-47.17075551297558
 20
113.1610581489239
 30
0.0
 11
-41.77845009699877
 21
116.2743067884331
 31
0.0
  0
LINE
  5
467
  8
0
  6
CONTINUOUS
 62
     4
 10
-44.1707535787998
 20
113.1610502721526
 30
0.0
 11
-41.77845011989916
 21
114.5422471655348
 31
0.0
  0
LINE
  5
468
  8
0
  6
CONTINUOUS
 62
     4
 10
-42.77844848543236
 20
119.1610562737275
 30
0.0
 11
-41.77845444032346
 21
118.5837095063822
 31
0.0
  0
LINE
  5
469
  8
0
  6
CONTINUOUS
 62
     4
 10
-49.7784548317909
 20
118.5837056116201
 30
0.0
 11
-48.77844922399481
 21
119.1610590546852
 31
0.0
  0
LINE
  5
46A
  8
0
  6
CONTINUOUS
 62
     4
 10
-45.77844891294785
 20
89.16105163771852
 30
0.0
 11
-41.77844630351297
 21
86.85164930954932
 31
0.0
  0
LINE
  5
46B
  8
0
  6
CONTINUOUS
 62
     4
 10
-49.77845026517389
 20
86.8516615587796
 30
0.0
 11
-45.77845839251995
 21
89.16105768806611
 31
0.0
  0
LINE
  5
46C
  8
0
  6
CONTINUOUS
 62
     4
 10
-42.77844914165667
 20
89.16105195356579
 30
0.0
 11
-41.77844848929794
 21
88.58370137152349
 31
0.0
  0
LINE
  5
46D
  8
0
  6
CONTINUOUS
 62
     4
 10
-49.77844963308235
 20
88.58370391406261
 30
0.0
 11
-48.77845682683278
 21
89.16104996615218
 31
0.0
  0
LINE
  5
46E
  8
0
  6
CONTINUOUS
 62
     4
 10
-49.77845028807428
 20
85.11960193588135
 30
0.0
 11
-42.77845645834418
 21
89.16104981129476
 31
0.0
  0
LINE
  5
46F
  8
0
  6
CONTINUOUS
 62
     4
 10
-49.77845050721271
 20
83.3875598190169
 30
0.0
 11
-41.77844859196785
 21
88.00636256800678
 31
0.0
  0
LINE
  5
470
  8
0
  6
CONTINUOUS
 62
     4
 10
-47.17075981218864
 20
83.16105096773947
 30
0.0
 11
-41.77844861486824
 21
86.27430294510853
 31
0.0
  0
LINE
  5
471
  8
0
  6
CONTINUOUS
 62
     4
 10
-44.17076086680368
 20
83.16105017505507
 30
0.0
 11
-41.77844914884076
 21
84.54225183680862
 31
0.0
  0
LINE
  5
472
  8
0
  6
CONTINUOUS
 62
     4
 10
-48.77844868423904
 20
89.16105132187124
 30
0.0
 11
-41.7784507249778
 21
85.11960106227218
 31
0.0
  0
LINE
  5
473
  8
0
  6
CONTINUOUS
 62
     4
 10
-49.77844715081278
 20
88.00634984193937
 30
0.0
 11
-41.77844853919282
 21
83.38754900029801
 31
0.0
  0
LINE
  5
474
  8
0
  6
CONTINUOUS
 62
     4
 10
-49.77845157227762
 20
86.27430159466223
 30
0.0
 11
-44.3861428526759
 21
83.16105104780456
 31
0.0
  0
LINE
  5
475
  8
0
  6
CONTINUOUS
 62
     4
 10
-49.77844938649264
 20
84.54224953268806
 30
0.0
 11
-47.38614262396709
 21
83.16105073195729
 31
0.0
  0
LINE
  5
476
  8
0
  6
CONTINUOUS
 62
     4
 10
-70.77844706030987
 20
-14.33895467685295
 30
0.0
 11
-61.77844706030987
 21
-14.33895467685295
 31
0.0
  0
LINE
  5
477
  8
0
  6
CONTINUOUS
 62
     4
 10
-70.77844706030987
 20
-10.33895467685295
 30
0.0
 11
-61.77844706030987
 21
-10.33895467685295
 31
0.0
  0
LINE
  5
478
  8
0
  6
CONTINUOUS
 62
     4
 10
-70.77844706030987
 20
-14.83895467685295
 30
0.0
 11
-61.77844706030987
 21
-14.83895467685295
 31
0.0
  0
LINE
  5
479
  8
0
  6
CONTINUOUS
 62
     4
 10
-70.77844706030987
 20
-9.83895467685295
 30
0.0
 11
-61.77844706030987
 21
-9.83895467685295
 31
0.0
  0
LINE
  5
47A
  8
0
  6
CONTINUOUS
 62
     4
 10
-169.5103348776927
 20
-3.338955392108687
 30
0.0
 11
-153.5103348776927
 21
-3.338955392108687
 31
0.0
  0
LINE
  5
47B
  8
0
  6
CONTINUOUS
 62
     4
 10
-169.5103348776927
 20
68.66104532314705
 30
0.0
 11
-153.5103348776927
 21
68.66104532314705
 31
0.0
  0
LINE
  5
47C
  8
0
  6
CONTINUOUS
 62
     5
 10
205.6180900425798
 20
91.8105903627273
 30
0.0
 11
201.8680900425798
 21
98.3057807745334
 31
0.0
  0
LINE
  5
47D
  8
0
  6
CONTINUOUS
 62
     5
 10
199.4978996307737
 20
87.41107132154669
 30
0.0
 11
201.7478996307737
 21
83.51395707446302
 31
0.0
  0
LINE
  5
47E
  8
0
  6
CONTINUOUS
 62
     5
 10
201.7478646329491
 20
83.51396545995597
 30
0.0
 11
200.7233518587782
 21
83.7884828327313
 31
0.0
  0
LINE
  5
47F
  8
0
  6
CONTINUOUS
 62
     5
 10
201.7479427325234
 20
83.51393510686178
 30
0.0
 11
202.0224639597327
 21
84.53846268311175
 31
0.0
  0
LINE
  5
480
  8
0
  6
CONTINUOUS
 62
     5
 10
199.2234132477875
 20
86.38653525286675
 30
0.0
 11
199.4979344749968
 21
87.41106282911672
 31
0.0
  0
LINE
  5
481
  8
0
  6
CONTINUOUS
 62
     5
 10
200.5223843626054
 20
87.13657195500112
 30
0.0
 11
199.4978715884345
 21
87.41108932777645
 31
0.0
  0
LINE
  5
482
  8
0
  6
CONTINUOUS
 62
     5
 10
192.6276808826215
 20
84.31057840756292
 30
0.0
 11
205.6180617062337
 21
91.81057840756292
 31
0.0
  0
LINE
  5
483
  8
0
  6
CONTINUOUS
 62
     5
 10
192.6276960044688
 20
84.31058273333277
 30
0.0
 11
187.0026940971202
 21
94.05337165466661
 31
0.0
  0
LINE
  5
484
  8
0
  6
CONTINUOUS
 62
     5
 10
187.0026940971202
 20
94.05337165466661
 30
0.0
 11
188.951251220662
 21
95.17837165466661
 31
0.0
  0
LINE
  5
485
  8
0
  6
CONTINUOUS
 62
     5
 10
193.5482655897044
 20
96.21615549487326
 30
0.0
 11
193.8227868169138
 21
97.24068307112323
 31
0.0
  0
LINE
  5
486
  8
0
  6
CONTINUOUS
 62
     5
 10
193.8227438144204
 20
97.24072059856628
 30
0.0
 11
192.7982163013912
 21
97.51524192060681
 31
0.0
  0
LINE
  5
487
  8
0
  6
CONTINUOUS
 62
     5
 10
191.2596317565558
 20
95.76085822587363
 30
0.0
 11
193.82274235766
 21
97.24067084794395
 31
0.0
  0
LINE
  5
488
  8
0
  6
CONTINUOUS
 62
     5
 10
189.5137531280107
 20
94.20408978927101
 30
0.0
 11
188.9512550353593
 21
95.17836504741725
 31
0.0
  0
LINE
  5
489
  8
0
  6
CONTINUOUS
 62
     5
 10
189.5137399135119
 20
94.20408215987648
 30
0.0
 11
190.8127779958732
 21
94.95408215987648
 31
0.0
  0
LINE
  5
48A
  8
0
  6
CONTINUOUS
 62
     5
 10
191.3752912103719
 20
93.97981122750009
 30
0.0
 11
190.8127912103719
 21
94.95408978927101
 31
0.0
  0
LINE
  5
48B
  8
0
  6
CONTINUOUS
 62
     5
 10
193.4243292927331
 20
93.43077314513887
 30
0.0
 11
192.6743292927331
 21
94.72981122750009
 31
0.0
  0
LINE
  5
48C
  8
0
  6
CONTINUOUS
 62
     5
 10
191.3752760885245
 20
93.97980690173024
 30
0.0
 11
192.6743273853845
 21
94.72981453112477
 31
0.0
  0
LINE
  5
48D
  8
0
  6
CONTINUOUS
 62
     5
 10
188.8776960044688
 20
90.80577314513887
 30
0.0
 11
201.8680636135823
 21
98.30576551574434
 31
0.0
  0
LINE
  5
48E
  8
0
  6
CONTINUOUS
 62
     5
 10
197.9838287991404
 20
93.78505876355219
 30
0.0
 11
197.2171180683615
 21
93.16418878622524
 31
0.0
  0
LINE
  5
48F
  8
0
  6
CONTINUOUS
 62
     5
 10
197.9838517838139
 20
93.78505994897508
 30
0.0
 11
197.3629912915462
 21
94.55175870383967
 31
0.0
  0
ARC
  5
490
  8
0
  6
CONTINUOUS
 62
     5
 10
197.3044347722534
 20
91.24947885950571
 30
0.0
 40
2.625001907348633
 50
75.00010795499728
 51
369.999953377945
  0
TEXT
  5
491
  8
0
 62
     5
 10
103.3405655581955
 20
-59.13896794835561
 30
0.0
 40
5.0
  1
NIKKO
 41
0.7674421159044379
  7
FDASTYLE1
 72
     5
 11
126.9119969565873
 21
-59.13896794835561
 31
0.0
  0
TEXT
  5
492
  8
0
 62
     5
 10
138.6977009732727
 20
-58.63896794835561
 30
0.0
 40
4.0
  1
HWB3-215A6
 41
0.7727275194893263
  7
FDASTYLE1
 72
     5
 11
177.5548474748139
 21
-58.63896794835561
 31
0.0
  0
TEXT
  5
493
  8
0
 62
     5
 10
139.0548441369538
 20
-65.13896794835561
 30
0.0
 40
3.0
  1
0001
 41
0.7647060767727455
  7
FDASTYLE1
 72
     5
 11
150.1977018077378
 21
-65.13896794835561
 31
0.0
  0
TEXT
  5
494
  8
0
 62
     5
 10
222.995361556004
 20
54.35155324053115
 30
0.0
 40
3.0
  1
F MAX  24KN
 50
120.0
 41
0.7894738964517459
  7
FDASTYLE1
 72
     5
 11
206.4953611387715
 21
82.93039228808554
 31
0.0
  0
TEXT
  5
495
  8
0
 62
     5
 10
193.1091340674862
 20
98.62181129701347
 30
0.0
 40
3.0
  1
ΣS
 50
120.0
 41
0.9090909271529234
  7
FDASTYLE1
 72
     5
 11
190.1091340078816
 21
103.8179638229584
 31
0.0
  0
TEXT
  5
496
  8
0
 62
     5
 10
199.7982600225911
 20
83.63104161577284
 30
0.0
 40
3.0
  1
F
 50
120.0
 41
0.8791213035583497
  7
FDASTYLE1
 72
     5
 11
198.4795780672535
 21
85.91506576144171
 31
0.0
  0
TEXT
  5
497
  8
0
 62
     5
 10
202.3968537940487
 20
94.16832741193966
 30
0.0
 40
3.0
  1
N min
 50
120.0
 41
0.7983872414958763
  7
FDASTYLE1
 72
     5
 11
194.9718541993603
 21
107.0288039561183
 31
0.0
  0
TEXT
  5
498
  8
0
 62
     5
 10
192.7857233252425
 20
106.5460626210765
 30
0.0
 40
1.5
  1
-1
 50
120.0
 41
0.7826088684192838
  7
FDASTYLE1
 72
     5
 11
191.435723241796
 21
108.8843313558281
 31
0.0
  0
TEXT
  5
499
  8
0
 62
     5
 10
227.3254854573712
 20
56.85155324053115
 30
0.0
 40
3.0
  1
ΣS MAX 78KN
 50
120.0
 41
0.7947978833511999
  7
FDASTYLE1
 72
     5
 11
210.8254850401387
 21
85.43039228808554
 31
0.0
  0
TEXT
  5
49A
  8
0
 62
     5
 10
231.6556093587384
 20
59.35155324053115
 30
0.0
 40
3.0
  1
N MAX 4600 AT ΣS MAX
 50
120.0
 41
0.7943487080139173
  7
FDASTYLE1
 72
     5
 11
201.2956090166077
 21
111.93661635091
 31
0.0
  0
INSERT
  5
49B
  8
LAYER0014
  6
CONTINUOUS
  2
DA_IMAGEDIMGROUP_1
 10
0.0
 20
0.0
 30
0.0
  0
INSERT
  5
49C
  8
LAYER0014
  6
CONTINUOUS
  2
DA_IMAGEDIMGROUP_2
 10
0.0
 20
0.0
 30
0.0
  0
INSERT
  5
49D
  8
LAYER0014
  6
CONTINUOUS
  2
DA_IMAGEDIMGROUP_3
 10
0.0
 20
0.0
 30
0.0
  0
INSERT
  5
49E
  8
LAYER0014
  6
CONTINUOUS
  2
DA_IMAGEDIMGROUP_4
 10
0.0
 20
0.0
 30
0.0
  0
INSERT
  5
49F
  8
LAYER0014
  6
CONTINUOUS
  2
DA_IMAGEDIMGROUP_5
 10
0.0
 20
0.0
 30
0.0
  0
INSERT
  5
4A0
  8
LAYER0014
  6
CONTINUOUS
  2
DC_GROUP_1
 10
0.0
 20
0.0
 30
0.0
  0
INSERT
  5
4A1
  8
LAYER0014
  6
CONTINUOUS
  2
DC_GROUP_2
 10
0.0
 20
0.0
 30
0.0
  0
INSERT
  5
4A2
  8
LAYER0014
  6
CONTINUOUS
  2
DA_IMAGEDIMGROUP_6
 10
0.0
 20
0.0
 30
0.0
  0
INSERT
  5
4A3
  8
LAYER0014
  6
CONTINUOUS
  2
DA_IMAGEDIMGROUP_7
 10
0.0
 20
0.0
 30
0.0
  0
INSERT
  5
4A4
  8
LAYER0014
  6
CONTINUOUS
  2
DA_IMAGEDIMGROUP_8
 10
0.0
 20
0.0
 30
0.0
  0
INSERT
  5
4A5
  8
LAYER0014
  6
CONTINUOUS
  2
DA_IMAGEDIMGROUP_9
 10
0.0
 20
0.0
 30
0.0
  0
INSERT
  5
4A6
  8
LAYER0014
  6
CONTINUOUS
  2
DA_IMAGEDIMGROUP_10
 10
0.0
 20
0.0
 30
0.0
  0
INSERT
  5
4A7
  8
LAYER0014
  6
CONTINUOUS
  2
DA_IMAGEDIMGROUP_11
 10
0.0
 20
0.0
 30
0.0
  0
INSERT
  5
4A8
  8
LAYER0014
  6
CONTINUOUS
  2
DA_IMAGEDIMGROUP_12
 10
0.0
 20
0.0
 30
0.0
  0
INSERT
  5
4A9
  8
LAYER0014
  6
CONTINUOUS
  2
DA_IMAGEDIMGROUP_13
 10
0.0
 20
0.0
 30
0.0
  0
INSERT
  5
4AA
  8
LAYER0014
  6
CONTINUOUS
  2
DA_IMAGEDIMGROUP_14
 10
0.0
 20
0.0
 30
0.0
  0
INSERT
  5
4AB
  8
LAYER0014
  6
CONTINUOUS
  2
DA_IMAGEDIMGROUP_15
 10
0.0
 20
0.0
 30
0.0
  0
INSERT
  5
4AC
  8
LAYER0014
  6
CONTINUOUS
  2
DA_IMAGEDIMGROUP_16
 10
0.0
 20
0.0
 30
0.0
  0
INSERT
  5
4AD
  8
LAYER0014
  6
CONTINUOUS
  2
DA_IMAGEDIMGROUP_17
 10
0.0
 20
0.0
 30
0.0
  0
INSERT
  5
4AE
  8
LAYER0014
  6
CONTINUOUS
  2
DA_IMAGEDIMGROUP_18
 10
0.0
 20
0.0
 30
0.0
  0
INSERT
  5
4AF
  8
LAYER0014
  6
CONTINUOUS
  2
DA_IMAGEDIMGROUP_19
 10
0.0
 20
0.0
 30
0.0
  0
INSERT
  5
4B0
  8
LAYER0014
  6
CONTINUOUS
  2
DA_IMAGEDIMGROUP_20
 10
0.0
 20
0.0
 30
0.0
  0
INSERT
  5
4B1
  8
LAYER0014
  6
CONTINUOUS
  2
DA_IMAGEDIMGROUP_21
 10
0.0
 20
0.0
 30
0.0
  0
INSERT
  5
4B2
  8
LAYER0014
  6
CONTINUOUS
  2
DA_IMAGEDIMGROUP_22
 10
0.0
 20
0.0
 30
0.0
  0
INSERT
  5
4B3
  8
LAYER0014
  6
CONTINUOUS
  2
DA_IMAGEDIMGROUP_23
 10
0.0
 20
0.0
 30
0.0
  0
INSERT
  5
4B4
  8
LAYER0014
  6
CONTINUOUS
  2
DA_IMAGEDIMGROUP_24
 10
0.0
 20
0.0
 30
0.0
  0
INSERT
  5
4B5
  8
LAYER0014
  6
CONTINUOUS
  2
DA_IMAGEDIMGROUP_25
 10
0.0
 20
0.0
 30
0.0
  0
INSERT
  5
4B6
  8
LAYER0014
  6
CONTINUOUS
  2
DC_GROUP_3
 10
0.0
 20
0.0
 30
0.0
  0
INSERT
  5
4B7
  8
LAYER0014
  6
CONTINUOUS
  2
DA_IMAGEDIMGROUP_26
 10
0.0
 20
0.0
 30
0.0
  0
INSERT
  5
4B8
  8
LAYER0014
  6
CONTINUOUS
  2
DA_IMAGEDIMGROUP_27
 10
0.0
 20
0.0
 30
0.0
  0
INSERT
  5
4B9
  8
LAYER0014
  6
CONTINUOUS
  2
DA_IMAGEDIMGROUP_28
 10
0.0
 20
0.0
 30
0.0
  0
INSERT
  5
4BA
  8
LAYER0014
  6
CONTINUOUS
  2
DA_IMAGEDIMGROUP_29
 10
0.0
 20
0.0
 30
0.0
  0
INSERT
  5
4BB
  8
LAYER0014
  6
CONTINUOUS
  2
DA_IMAGEDIMGROUP_30
 10
0.0
 20
0.0
 30
0.0
  0
INSERT
  5
4BC
  8
LAYER0014
  6
CONTINUOUS
  2
DA_IMAGEDIMGROUP_31
 10
0.0
 20
0.0
 30
0.0
  0
INSERT
  5
4BD
  8
LAYER0014
  6
CONTINUOUS
  2
DA_IMAGEDIMGROUP_32
 10
0.0
 20
0.0
 30
0.0
  0
INSERT
  5
4BE
  8
LAYER0014
  6
CONTINUOUS
  2
DA_IMAGEDIMGROUP_33
 10
0.0
 20
0.0
 30
0.0
  0
INSERT
  5
4BF
  8
LAYER0014
  6
CONTINUOUS
  2
DA_IMAGEDIMGROUP_34
 10
0.0
 20
0.0
 30
0.0
  0
INSERT
  5
4C0
  8
LAYER0014
  6
CONTINUOUS
  2
DA_IMAGEDIMGROUP_35
 10
0.0
 20
0.0
 30
0.0
  0
INSERT
  5
4C1
  8
LAYER0014
  6
CONTINUOUS
  2
DA_IMAGEDIMGROUP_36
 10
0.0
 20
0.0
 30
0.0
  0
INSERT
  5
4C2
  8
LAYER0014
  6
CONTINUOUS
  2
DA_IMAGEDIMGROUP_37
 10
0.0
 20
0.0
 30
0.0
  0
INSERT
  5
4C3
  8
LAYER0014
  6
CONTINUOUS
  2
DC_GROUP_4
 10
0.0
 20
0.0
 30
0.0
  0
INSERT
  5
4C4
  8
LAYER0014
  6
CONTINUOUS
  2
DC_GROUP_5
 10
0.0
 20
0.0
 30
0.0
  0
INSERT
  5
4C5
  8
LAYER0014
  6
CONTINUOUS
  2
DA_IMAGEDIMGROUP_38
 10
0.0
 20
0.0
 30
0.0
  0
INSERT
  5
4C6
  8
LAYER0014
  6
CONTINUOUS
  2
DA_IMAGEDIMGROUP_39
 10
0.0
 20
0.0
 30
0.0
  0
LINE
  5
4C7
  8
0
  6
DASHED2
 62
     7
 10
202.5894033629431
 20
77.09570620268003
 30
0.0
 11
223.3740130537696
 21
89.09570620268003
 31
0.0
  0
LINE
  5
4C8
  8
0
  6
DASHED2
 62
     7
 10
205.6035042151414
 20
79.87513038753589
 30
0.0
 11
222.9240122908302
 21
89.87513038753592
 31
0.0
  0
LINE
  5
4C9
  8
0
  6
DASHED2
 62
     7
 10
209.6035042151414
 20
72.94692715726039
 30
0.0
 11
226.9240122908302
 21
82.94692715726042
 31
0.0
  0
LINE
  5
4CA
  8
0
  6
DASHED2
 62
     7
 10
205.6894056517614
 20
71.7263447348668
 30
0.0
 11
226.474015342588
 21
83.72634473486683
 31
0.0
  0
LINE
  5
4CB
  8
0
  6
DASHED2
 62
     7
 10
209.6035042151414
 20
72.94692715726039
 30
0.0
 11
205.6035042151414
 21
79.87513038753589
 31
0.0
  0
LINE
  5
4CC
  8
0
  6
DASHED2
 62
     7
 10
205.6894056517614
 20
71.7263447348668
 30
0.0
 11
202.5894033629431
 21
77.09570620268003
 31
0.0
  0
LINE
  5
4CD
  8
0
  6
DASHED2
 62
     7
 10
202.5894071840164
 20
73.51613773242913
 30
0.0
 11
202.5894070127696
 21
77.09570477124483
 31
0.0
  0
LINE
  5
4CE
  8
0
  6
DASHED2
 62
     7
 10
205.6894182420087
 20
71.7263374893182
 30
0.0
 11
202.5894025157199
 21
73.51613260112309
 31
0.0
  0
LINE
  5
4CF
  8
0
  6
DIVIDE
 62
     9
 10
-150.7784470603099
 20
80.66104532314705
 30
0.0
 11
-150.7784470603099
 21
72.2952616317408
 31
0.0
  0
LINE
  5
4D0
  8
0
  6
DIVIDE
 62
     9
 10
-150.778425152361
 20
80.66102742525402
 30
0.0
 11
-149.7784267881698
 21
81.66102578944526
 31
0.0
  0
LINE
  5
4D1
  8
LAYER0014
  6
CONTINUOUS
 62
     7
 10
-61.77844706030987
 20
158.4446833236353
 30
0.0
 11
-100.7984742209544
 21
158.4446833236353
 31
0.0
  0
LINE
  5
4D2
  8
LAYER0014
  6
CONTINUOUS
 62
     7
 10
-166.7784470603099
 20
116.5800364120142
 30
0.0
 11
-190.0670365378489
 21
116.5800364120142
 31
0.0
  0
LINE
  5
4D3
  8
LAYER0014
  6
CONTINUOUS
 62
     7
 10
-166.7784470603099
 20
149.0411493880885
 30
0.0
 11
-196.7683304831614
 21
149.0411493880885
 31
0.0
  0
LINE
  5
4D4
  8
LAYER0014
  6
CONTINUOUS
 62
     7
 10
-150.7784470603099
 20
83.20104532314706
 30
0.0
 11
-150.7784470603099
 21
150.0411493880885
 31
0.0
  0
LINE
  5
4D5
  8
LAYER0014
  6
CONTINUOUS
 62
     7
 10
-150.7784470603099
 20
149.0411493880885
 30
0.0
 11
-166.7784470603099
 21
149.0411493880885
 31
0.0
  0
INSERT
  5
4D6
  8
LAYER0014
 62
     7
  2
_OPEN30
 10
-150.7784470603099
 20
149.0411493880885
 30
0.0
 41
1.999998407630662
 42
2.000005728319971
 50
360.0
  0
INSERT
  5
4D7
  8
LAYER0014
 62
     7
  2
_OPEN30
 10
-166.7784470603099
 20
149.0411493880885
 30
0.0
 41
1.999998407630662
 42
2.000005728319971
 50
180.0
  0
TEXT
  5
4D8
  8
LAYER0014
 62
     7
 10
-195.8892084139111
 20
149.8059868063548
 30
0.0
 40
4.0
  1
MIN16
 41
0.8
  7
FDASTYLE1
 72
     5
 11
-179.8892084139111
 21
149.8059868063548
 31
0.0
  0
INSERT
  5
4D9
  8
0
  6
CONTINUOUS
  2
DA_IMAGEDIMGROUP_40
 10
0.0
 20
0.0
 30
0.0
  0
INSERT
  5
4DA
  8
0
  6
CONTINUOUS
  2
DA_IMAGEDIMGROUP_41
 10
0.0
 20
0.0
 30
0.0
  0
VIEWPORT
  5
48
 67
     1
  8
0
 10
0.0
 20
0.0
 30
0.0
 40
1662.0
 41
1140.0
 68
     1
 69
     1
1001
ACAD
1000
MVIEW
1002
{
1070
    16
1010
0.0
1020
0.0
1030
0.0
1020
0.0
1030
0.0
1010
0.0
1020
0.0
1030
1.0
1020
0.0
1030
1.0
1040
0.0
1040
1140.0
1040
0.0
1040
0.0
1040
50.0
1040
0.0
1040
0.0
1070
     0
1070
   100
1070
     0
1070
     1
1070
     0
1070
     0
1070
     0
1070
     0
1040
0.0
1040
0.0
1040
0.0
1040
0.5
1040
0.5
1040
0.0
1040
0.0
1070
     0
1002
{
1002
}
1002
}
  0
ENDSEC
  0
EOF
